  0
SECTION
  2
HEADER
  9
$ACADVER
  1
AC1015
  9
$ACADMAINTVER
 70
    14
  9
$DWGCODEPAGE
  3
ANSI_1250
  9
$INSBASE
 10
0.0
 20
0.0
 30
0.0
  9
$EXTMIN
 10
-3072.451676719267
 20
-1192.241650767303
 30
-0.0015258207003583
  9
$EXTMAX
 10
-2184.924095583965
 20
121.5577905126019
 30
0.0000000349246037
  9
$LIMMIN
 10
0.0
 20
0.0
  9
$LIMMAX
 10
420.0
 20
297.0
  9
$ORTHOMODE
 70
     1
  9
$REGENMODE
 70
     1
  9
$FILLMODE
 70
     1
  9
$QTEXTMODE
 70
     0
  9
$MIRRTEXT
 70
     1
  9
$LTSCALE
 40
1.0
  9
$ATTMODE
 70
     1
  9
$TEXTSIZE
 40
2.5
  9
$TRACEWID
 40
1.0
  9
$TEXTSTYLE
  7
Standard
  9
$CLAYER
  8
STAVBA OBRYS
  9
$CELTYPE
  6
ByLayer
  9
$CECOLOR
 62
   256
  9
$CELTSCALE
 40
1.0
  9
$DISPSILH
 70
     0
  9
$DIMSCALE
 40
1.0
  9
$DIMASZ
 40
2.5
  9
$DIMEXO
 40
0.625
  9
$DIMDLI
 40
3.75
  9
$DIMRND
 40
0.0
  9
$DIMDLE
 40
0.0
  9
$DIMEXE
 40
1.25
  9
$DIMTP
 40
0.0
  9
$DIMTM
 40
0.0
  9
$DIMTXT
 40
2.5
  9
$DIMCEN
 40
2.5
  9
$DIMTSZ
 40
0.0
  9
$DIMTOL
 70
     0
  9
$DIMLIM
 70
     0
  9
$DIMTIH
 70
     0
  9
$DIMTOH
 70
     0
  9
$DIMSE1
 70
     0
  9
$DIMSE2
 70
     0
  9
$DIMTAD
 70
     1
  9
$DIMZIN
 70
     8
  9
$DIMBLK
  1

  9
$DIMASO
 70
     1
  9
$DIMSHO
 70
     1
  9
$DIMPOST
  1

  9
$DIMAPOST
  1

  9
$DIMALT
 70
     0
  9
$DIMALTD
 70
     3
  9
$DIMALTF
 40
0.03937007874016
  9
$DIMLFAC
 40
1.0
  9
$DIMTOFL
 70
     1
  9
$DIMTVP
 40
0.0
  9
$DIMTIX
 70
     0
  9
$DIMSOXD
 70
     0
  9
$DIMSAH
 70
     0
  9
$DIMBLK1
  1

  9
$DIMBLK2
  1

  9
$DIMSTYLE
  2
ISO-25
  9
$DIMCLRD
 70
     0
  9
$DIMCLRE
 70
     0
  9
$DIMCLRT
 70
     0
  9
$DIMTFAC
 40
1.0
  9
$DIMGAP
 40
0.625
  9
$DIMJUST
 70
     0
  9
$DIMSD1
 70
     0
  9
$DIMSD2
 70
     0
  9
$DIMTOLJ
 70
     0
  9
$DIMTZIN
 70
     8
  9
$DIMALTZ
 70
     0
  9
$DIMALTTZ
 70
     0
  9
$DIMUPT
 70
     0
  9
$DIMDEC
 70
     2
  9
$DIMTDEC
 70
     2
  9
$DIMALTU
 70
     2
  9
$DIMALTTD
 70
     3
  9
$DIMTXSTY
  7
Standard
  9
$DIMAUNIT
 70
     0
  9
$DIMADEC
 70
     0
  9
$DIMALTRND
 40
0.0
  9
$DIMAZIN
 70
     0
  9
$DIMDSEP
 70
    44
  9
$DIMATFIT
 70
     3
  9
$DIMFRAC
 70
     0
  9
$DIMLDRBLK
  1

  9
$DIMLUNIT
 70
     2
  9
$DIMLWD
 70
    -2
  9
$DIMLWE
 70
    -2
  9
$DIMTMOVE
 70
     0
  9
$LUNITS
 70
     2
  9
$LUPREC
 70
     4
  9
$SKETCHINC
 40
1.0
  9
$FILLETRAD
 40
10.0
  9
$AUNITS
 70
     0
  9
$AUPREC
 70
     0
  9
$MENU
  1
.
  9
$ELEVATION
 40
0.0
  9
$PELEVATION
 40
0.0
  9
$THICKNESS
 40
0.0
  9
$LIMCHECK
 70
     0
  9
$CHAMFERA
 40
10.0
  9
$CHAMFERB
 40
10.0
  9
$CHAMFERC
 40
20.0
  9
$CHAMFERD
 40
0.0
  9
$SKPOLY
 70
     0
  9
$TDCREATE
 40
2452339.371895717
  9
$TDUCREATE
 40
2452339.330229051
  9
$TDUPDATE
 40
2455610.303914132
  9
$TDUUPDATE
 40
2455610.262247465
  9
$TDINDWG
 40
0.0296874769
  9
$TDUSRTIMER
 40
0.0296874769
  9
$USRTIMER
 70
     1
  9
$ANGBASE
 50
0.0
  9
$ANGDIR
 70
     0
  9
$PDMODE
 70
     0
  9
$PDSIZE
 40
0.0
  9
$PLINEWID
 40
0.0
  9
$SPLFRAME
 70
     0
  9
$SPLINETYPE
 70
     6
  9
$SPLINESEGS
 70
     8
  9
$HANDSEED
  5
60C1
  9
$SURFTAB1
 70
     6
  9
$SURFTAB2
 70
     6
  9
$SURFTYPE
 70
     6
  9
$SURFU
 70
     6
  9
$SURFV
 70
     6
  9
$UCSBASE
  2

  9
$UCSNAME
  2

  9
$UCSORG
 10
0.0
 20
0.0
 30
0.0
  9
$UCSXDIR
 10
1.0
 20
0.0
 30
0.0
  9
$UCSYDIR
 10
0.0
 20
1.0
 30
0.0
  9
$UCSORTHOREF
  2

  9
$UCSORTHOVIEW
 70
     0
  9
$UCSORGTOP
 10
0.0
 20
0.0
 30
0.0
  9
$UCSORGBOTTOM
 10
0.0
 20
0.0
 30
0.0
  9
$UCSORGLEFT
 10
0.0
 20
0.0
 30
0.0
  9
$UCSORGRIGHT
 10
0.0
 20
0.0
 30
0.0
  9
$UCSORGFRONT
 10
0.0
 20
0.0
 30
0.0
  9
$UCSORGBACK
 10
0.0
 20
0.0
 30
0.0
  9
$PUCSBASE
  2

  9
$PUCSNAME
  2

  9
$PUCSORG
 10
0.0
 20
0.0
 30
0.0
  9
$PUCSXDIR
 10
1.0
 20
0.0
 30
0.0
  9
$PUCSYDIR
 10
0.0
 20
1.0
 30
0.0
  9
$PUCSORTHOREF
  2

  9
$PUCSORTHOVIEW
 70
     0
  9
$PUCSORGTOP
 10
0.0
 20
0.0
 30
0.0
  9
$PUCSORGBOTTOM
 10
0.0
 20
0.0
 30
0.0
  9
$PUCSORGLEFT
 10
0.0
 20
0.0
 30
0.0
  9
$PUCSORGRIGHT
 10
0.0
 20
0.0
 30
0.0
  9
$PUCSORGFRONT
 10
0.0
 20
0.0
 30
0.0
  9
$PUCSORGBACK
 10
0.0
 20
0.0
 30
0.0
  9
$USERI1
 70
     0
  9
$USERI2
 70
     0
  9
$USERI3
 70
     0
  9
$USERI4
 70
     0
  9
$USERI5
 70
     0
  9
$USERR1
 40
0.0
  9
$USERR2
 40
0.0
  9
$USERR3
 40
0.0
  9
$USERR4
 40
0.0
  9
$USERR5
 40
0.0
  9
$WORLDVIEW
 70
     1
  9
$SHADEDGE
 70
     3
  9
$SHADEDIF
 70
    70
  9
$TILEMODE
 70
     1
  9
$MAXACTVP
 70
    48
  9
$PINSBASE
 10
0.0
 20
0.0
 30
0.0
  9
$PLIMCHECK
 70
     0
  9
$PEXTMIN
 10
1.000000000000000E+20
 20
1.000000000000000E+20
 30
1.000000000000000E+20
  9
$PEXTMAX
 10
-1.000000000000000E+20
 20
-1.000000000000000E+20
 30
-1.000000000000000E+20
  9
$PLIMMIN
 10
0.0
 20
0.0
  9
$PLIMMAX
 10
420.0
 20
297.0
  9
$UNITMODE
 70
     0
  9
$VISRETAIN
 70
     1
  9
$PLINEGEN
 70
     0
  9
$PSLTSCALE
 70
     1
  9
$TREEDEPTH
 70
  3020
  9
$CMLSTYLE
  2
Standard
  9
$CMLJUST
 70
     0
  9
$CMLSCALE
 40
20.0
  9
$PROXYGRAPHICS
 70
     1
  9
$MEASUREMENT
 70
     1
  9
$CELWEIGHT
370
    -1
  9
$ENDCAPS
280
     0
  9
$JOINSTYLE
280
     0
  9
$LWDISPLAY
290
     0
  9
$INSUNITS
 70
     4
  9
$HYPERLINKBASE
  1

  9
$STYLESHEET
  1

  9
$XEDIT
290
     1
  9
$CEPSNTYPE
380
     0
  9
$PSTYLEMODE
290
     1
  9
$FINGERPRINTGUID
  2
{9FA890EF-883C-4FD4-884F-6B075534EB0B}
  9
$VERSIONGUID
  2
{0B860313-9532-4C56-BDAF-C008E2B141DC}
  9
$EXTNAMES
290
     1
  9
$PSVPSCALE
 40
0.0
  9
$OLESTARTUP
290
     0
  0
ENDSEC
  0
SECTION
  2
CLASSES
  0
CLASS
  1
ACDBDICTIONARYWDFLT
  2
AcDbDictionaryWithDefault
  3
AutoCAD 2000
 90
        0
280
     0
281
     0
  0
CLASS
  1
ACDBPLACEHOLDER
  2
AcDbPlaceHolder
  3
AutoCAD 2000
 90
        0
280
     0
281
     0
  0
CLASS
  1
LAYOUT
  2
AcDbLayout
  3
AutoCAD 2000
 90
        0
280
     0
281
     0
  0
CLASS
  1
DICTIONARYVAR
  2
AcDbDictionaryVar
  3
AutoCAD 2000
 90
        0
280
     0
281
     0
  0
CLASS
  1
LONG_TRANSACTION
  2
AcDbLongTransaction
  3
AutoCAD 2000
 90
    32768
280
     0
281
     0
  0
CLASS
  1
LWPOLYLINE
  2
AcDbPolyline
  3
AutoCAD 2000
 90
    32768
280
     0
281
     1
  0
CLASS
  1
HATCH
  2
AcDbHatch
  3
AutoCAD 2000
 90
    32768
280
     0
281
     1
  0
CLASS
  1
XRECORD
  2
AcDbXrecord
  3
AutoCAD 2000
 90
    32768
280
     0
281
     0
  0
ENDSEC
  0
SECTION
  2
TABLES
  0
TABLE
  2
VPORT
  5
8
330
0
100
AcDbSymbolTable
 70
     2
  0
VPORT
  5
60C0
330
8
100
AcDbSymbolTableRecord
100
AcDbViewportTableRecord
  2
*Active
 70
     0
 10
0.0
 20
0.0
 11
1.0
 21
1.0
 12
-2628.687886151616
 22
-535.3419301273504
 13
0.0
 23
0.0
 14
10.0
 24
10.0
 15
10.0
 25
10.0
 16
0.0
 26
0.0
 36
1.0
 17
0.0
 27
0.0
 37
0.0
 40
1323.447907188937
 41
2.031862745098039
 42
50.0
 43
0.0
 44
0.0
 50
0.0
 51
0.0
 71
     0
 72
   100
 73
     1
 74
     3
 75
     0
 76
     0
 77
     0
 78
     0
281
     0
 65
     1
110
0.0
120
0.0
130
0.0
111
1.0
121
0.0
131
0.0
112
0.0
122
1.0
132
0.0
 79
     0
146
0.0
  0
ENDTAB
  0
TABLE
  2
LTYPE
  5
5
330
0
100
AcDbSymbolTable
 70
     4
  0
LTYPE
  5
14
330
5
100
AcDbSymbolTableRecord
100
AcDbLinetypeTableRecord
  2
ByBlock
 70
     0
  3

 72
    65
 73
     0
 40
0.0
  0
LTYPE
  5
15
330
5
100
AcDbSymbolTableRecord
100
AcDbLinetypeTableRecord
  2
ByLayer
 70
     0
  3

 72
    65
 73
     0
 40
0.0
  0
LTYPE
  5
16
330
5
100
AcDbSymbolTableRecord
100
AcDbLinetypeTableRecord
  2
Continuous
 70
     0
  3
Solid line
 72
    65
 73
     0
 40
0.0
  0
LTYPE
  5
33
330
5
100
AcDbSymbolTableRecord
100
AcDbLinetypeTableRecord
  2
IZOLACE
 70
     0
  3
Izolace SSSSSSSSSSSSSSSSSSSSSSSSSSSSSSSSSSSSSSS
 72
    65
 73
     4
 40
10.16253999999999
 49
0.00254
 74
     0
 49
-2.54
 74
     4
 75
   134
340
3D
 46
2.54
 50
0.0
 44
-2.54
 45
0.0
 49
-5.08
 74
     4
 75
   134
340
3D
 46
2.54
 50
180.0
 44
2.54
 45
0.0
 49
-2.54
 74
     0
  0
LTYPE
  5
34
330
5
100
AcDbSymbolTableRecord
100
AcDbLinetypeTableRecord
  2
DASHED
 70
     0
  3
Dashed __ __ __ __ __ __ __ __ __ __ __ __ __ _
 72
    65
 73
     2
 40
19.04999999999999
 49
12.7
 74
     0
 49
-6.349999999999999
 74
     0
  0
LTYPE
  5
35
330
5
100
AcDbSymbolTableRecord
100
AcDbLinetypeTableRecord
  2
DASHDOT2
 70
     0
  3
Dash dot (.5x) _._._._._._._._._._._._._._._.
 72
    65
 73
     4
 40
12.7
 49
6.349999999999999
 74
     0
 49
-3.174999999999999
 74
     0
 49
0.0
 74
     0
 49
-3.174999999999999
 74
     0
  0
ENDTAB
  0
TABLE
  2
LAYER
  5
2
330
0
100
AcDbSymbolTable
 70
     8
  0
LAYER
  5
10
330
2
100
AcDbSymbolTableRecord
100
AcDbLayerTableRecord
  2
0
 70
     0
 62
     7
  6
Continuous
370
    -3
390
F
  0
LAYER
  5
36
330
2
100
AcDbSymbolTableRecord
100
AcDbLayerTableRecord
  2
POPIS
 70
     0
 62
    30
  6
Continuous
370
    -3
390
F
  0
LAYER
  5
37
330
2
100
AcDbSymbolTableRecord
100
AcDbLayerTableRecord
  2
SPOJOVACÍ
 70
     0
 62
   180
  6
Continuous
370
    -3
390
F
  0
LAYER
  5
38
330
2
100
AcDbSymbolTableRecord
100
AcDbLayerTableRecord
  2
CETRIS
 70
     0
 62
     1
  6
Continuous
370
    -3
390
F
  0
LAYER
  5
39
330
2
100
AcDbSymbolTableRecord
100
AcDbLayerTableRecord
  2
NOSNÉ KONSTRUKCE
 70
     0
 62
    33
  6
Continuous
370
    -3
390
F
  0
LAYER
  5
3B
330
2
100
AcDbSymbolTableRecord
100
AcDbLayerTableRecord
  2
STAVBA OBRYS
 70
     0
 62
     6
  6
Continuous
370
    -3
390
F
  0
LAYER
  5
37AB
330
2
100
AcDbSymbolTableRecord
100
AcDbLayerTableRecord
  2
Defpoints
 70
     0
 62
     7
  6
Continuous
290
     0
370
    -3
390
F
  0
LAYER
  5
3B8F
330
2
100
AcDbSymbolTableRecord
100
AcDbLayerTableRecord
  2
PROFILY
 70
     0
 62
    73
  6
Continuous
370
    -3
390
F
  0
ENDTAB
  0
TABLE
  2
STYLE
  5
3
330
0
100
AcDbSymbolTable
 70
     3
  0
STYLE
  5
11
330
3
100
AcDbSymbolTableRecord
100
AcDbTextStyleTableRecord
  2
Standard
 70
     0
 40
0.0
 41
1.0
 50
0.0
 71
     0
 42
2.5
  3
txt
  4

  0
STYLE
  5
3C
330
3
100
AcDbSymbolTableRecord
100
AcDbTextStyleTableRecord
  2
SIMPLEX7
 70
     0
 40
0.0
 41
0.85
 50
0.0
 71
     0
 42
102.0
  3
ARIAL.TTF
  4

1001
ACAD
1000
Arial CE
1071
    60962
  0
STYLE
  5
3D
330
3
100
AcDbSymbolTableRecord
100
AcDbTextStyleTableRecord
  2

 70
     1
 40
0.0
 41
1.0
 50
0.0
 71
     0
 42
2.5
  3
ltypeshp.shx
  4

  0
ENDTAB
  0
TABLE
  2
VIEW
  5
6
330
0
100
AcDbSymbolTable
 70
     0
  0
ENDTAB
  0
TABLE
  2
UCS
  5
7
330
0
100
AcDbSymbolTable
 70
     0
  0
ENDTAB
  0
TABLE
  2
APPID
  5
9
330
0
100
AcDbSymbolTable
 70
     1
  0
APPID
  5
12
330
9
100
AcDbSymbolTableRecord
100
AcDbRegAppTableRecord
  2
ACAD
 70
     0
  0
ENDTAB
  0
TABLE
  2
DIMSTYLE
  5
A
330
0
100
AcDbSymbolTable
 70
     1
100
AcDbDimStyleTable
 71
     0
  0
DIMSTYLE
105
27
330
A
100
AcDbSymbolTableRecord
100
AcDbDimStyleTableRecord
  2
ISO-25
 70
     0
 41
2.5
 42
0.625
 43
3.75
 44
1.25
 73
     0
 74
     0
 77
     1
 78
     8
140
2.5
141
2.5
143
0.03937007874016
147
0.625
171
     3
172
     1
271
     2
272
     2
274
     3
278
    44
283
     0
284
     8
340
11
  0
ENDTAB
  0
TABLE
  2
BLOCK_RECORD
  5
1
330
0
100
AcDbSymbolTable
 70
     3
  0
BLOCK_RECORD
  5
1F
102
{ACAD_XDICTIONARY
360
603F
102
}
330
1
100
AcDbSymbolTableRecord
100
AcDbBlockTableRecord
  2
*Model_Space
340
22
  0
BLOCK_RECORD
  5
1B
102
{ACAD_XDICTIONARY
360
6041
102
}
330
1
100
AcDbSymbolTableRecord
100
AcDbBlockTableRecord
  2
*Paper_Space
340
1E
  0
BLOCK_RECORD
  5
23
102
{ACAD_XDICTIONARY
360
6043
102
}
330
1
100
AcDbSymbolTableRecord
100
AcDbBlockTableRecord
  2
*Paper_Space0
340
26
  0
BLOCK_RECORD
  5
2B
330
1
100
AcDbSymbolTableRecord
100
AcDbBlockTableRecord
  2
E_PUNKT
340
0
102
{BLKREFS
331
5F04
331
5F0B
331
5F0C
331
5F18
331
5F19
331
5F1D
331
60A9
102
}
  0
BLOCK_RECORD
  5
6086
330
1
100
AcDbSymbolTableRecord
100
AcDbBlockTableRecord
  2
_ArchTick
340
0
102
{BLKREFS
331
60AC
331
60AF
102
}
  0
ENDTAB
  0
ENDSEC
  0
SECTION
  2
BLOCKS
  0
BLOCK
  5
20
330
1F
100
AcDbEntity
  8
0
100
AcDbBlockBegin
  2
*Model_Space
 70
     0
 10
0.0
 20
0.0
 30
0.0
  3
*Model_Space
  1

  0
ENDBLK
  5
21
330
1F
100
AcDbEntity
  8
0
100
AcDbBlockEnd
  0
BLOCK
  5
1C
330
1B
100
AcDbEntity
 67
     1
  8
0
100
AcDbBlockBegin
  2
*Paper_Space
 70
     0
 10
0.0
 20
0.0
 30
0.0
  3
*Paper_Space
  1

  0
ENDBLK
  5
1D
330
1B
100
AcDbEntity
 67
     1
  8
0
100
AcDbBlockEnd
  0
BLOCK
  5
24
330
23
100
AcDbEntity
  8
0
100
AcDbBlockBegin
  2
*Paper_Space0
 70
     0
 10
0.0
 20
0.0
 30
0.0
  3
*Paper_Space0
  1

  0
ENDBLK
  5
25
330
23
100
AcDbEntity
  8
0
100
AcDbBlockEnd
  0
BLOCK
  5
2D
330
2B
100
AcDbEntity
  8
0
100
AcDbBlockBegin
  2
E_PUNKT
 70
     0
 10
0.0
 20
0.0
 30
0.0
  3
E_PUNKT
  1

  0
LWPOLYLINE
  5
2C
330
2B
100
AcDbEntity
  8
POPIS
100
AcDbPolyline
 90
        2
 70
     1
 43
2.5
 10
1.27761037562675
 20
0.0290683308725193
 42
-1.0
 10
-1.222389624373249
 20
0.0290683308725193
 42
-1.0
  0
ENDBLK
  5
2E
330
2B
100
AcDbEntity
  8
0
100
AcDbBlockEnd
  0
BLOCK
  5
6088
330
6086
100
AcDbEntity
  8
0
100
AcDbBlockBegin
  2
_ArchTick
 70
     0
 10
0.0
 20
0.0
 30
0.0
  3
_ArchTick
  1

  0
LWPOLYLINE
  5
6087
330
6086
100
AcDbEntity
  8
0
  6
ByBlock
 62
     0
100
AcDbPolyline
 90
        2
 70
     0
 43
0.15
 10
-0.5
 20
-0.5
 10
0.5
 20
0.5
  0
ENDBLK
  5
6089
330
6086
100
AcDbEntity
  8
0
100
AcDbBlockEnd
  0
ENDSEC
  0
SECTION
  2
ENTITIES
  0
LINE
  5
5EB9
330
1F
100
AcDbEntity
  8
PROFILY
100
AcDbLine
 10
-2746.62315411287
 20
-317.6565259023464
 30
0.0
 11
-2745.12315411287
 21
-317.6565259023464
 31
0.0
  0
LINE
  5
5EBA
330
1F
100
AcDbEntity
  8
PROFILY
100
AcDbLine
 10
-2761.26454151443
 20
-375.4470193544075
 30
0.0
 11
-2759.76454151443
 21
-375.4470193544075
 31
0.0
  0
LINE
  5
5EBB
330
1F
100
AcDbEntity
  8
PROFILY
100
AcDbLine
 10
-2746.623154112873
 20
-375.4470193544075
 30
0.0
 11
-2745.123154112877
 21
-375.4470193544084
 31
0.0
  0
LINE
  5
5EBC
330
1F
100
AcDbEntity
  8
PROFILY
100
AcDbLine
 10
-2745.123154112873
 20
-317.6565259023464
 30
0.0
 11
-2745.123154112877
 21
-375.4470193544075
 31
0.0
  0
LINE
  5
5EBD
330
1F
100
AcDbEntity
  8
PROFILY
100
AcDbLine
 10
-2746.62315411287
 20
-317.6565259023464
 30
0.0
 11
-2746.623154112873
 21
-375.4470193544066
 31
0.0
  0
LINE
  5
5EBE
330
1F
100
AcDbEntity
  8
PROFILY
100
AcDbLine
 10
-2745.123154112873
 20
-350.9697504593168
 30
0.0
 11
-2759.764541514422
 21
-350.9697504593168
 31
0.0
  0
LINE
  5
5EBF
330
1F
100
AcDbEntity
  8
PROFILY
100
AcDbLine
 10
-2746.623154112873
 20
-349.4697504593177
 30
0.0
 11
-2761.264541514422
 21
-349.4697504593177
 31
0.0
  0
HATCH
  5
5EC0
330
1F
100
AcDbEntity
  8
PROFILY
100
AcDbHatch
 10
0.0
 20
0.0
 30
0.0
210
0.0
220
0.0
230
1.0
  2
SOLID
 70
     1
 71
     0
 91
        3
 92
        7
 72
     0
 73
     1
 93
        4
 10
-2746.623154112877
 20
-350.9697504593159
 10
-2745.12315411287
 20
-350.9697504593159
 10
-2745.123154112877
 20
-317.6565259023464
 10
-2746.62315411287
 20
-317.6565259023464
 97
        0
 92
        7
 72
     0
 73
     1
 93
        4
 10
-2746.623154112873
 20
-375.4470193544075
 10
-2745.123154112877
 20
-375.4470193544084
 10
-2745.123154112873
 20
-350.9697504593168
 10
-2746.62315411287
 20
-350.9697504593168
 97
        0
 92
        7
 72
     0
 73
     1
 93
        6
 10
-2761.264541514422
 20
-349.4697504593186
 10
-2761.26454151443
 20
-375.4470193544075
 10
-2759.764541514426
 20
-375.4470193544075
 10
-2759.764541514422
 20
-350.9697504593168
 10
-2746.62315411287
 20
-350.9697504593168
 10
-2746.62315411287
 20
-349.4697504593177
 97
        0
 75
     0
 76
     1
 47
0.2329819976771042
 98
        3
 10
-2746.277893818748
 20
-345.7264742068637
 10
-2746.044774376577
 20
-352.9489113258878
 10
-2753.504276131215
 20
-349.9201371525687
  0
LINE
  5
5EC1
330
1F
100
AcDbEntity
  8
PROFILY
100
AcDbLine
 10
-2759.764541514422
 20
-350.9697504593168
 30
0.0
 11
-2759.764541514426
 21
-375.4470193544075
 31
0.0
  0
LINE
  5
5EC2
330
1F
100
AcDbEntity
  8
PROFILY
100
AcDbLine
 10
-2761.264541514422
 20
-349.4697504593177
 30
0.0
 11
-2761.26454151443
 21
-375.4470193544075
 31
0.0
  0
LINE
  5
5EC3
102
{ACAD_REACTORS
330
5ECB
102
}
330
1F
100
AcDbEntity
  8
POPIS
100
AcDbLine
 10
-2713.713450434072
 20
-348.5934795890534
 30
0.0
 11
-2717.13292422181
 21
-343.212182941575
 31
0.0
  0
LINE
  5
5EC4
102
{ACAD_REACTORS
330
5ECB
102
}
330
1F
100
AcDbEntity
  8
POPIS
100
AcDbLine
 10
-2720.552398009554
 20
-348.5934795890534
 30
0.0
 11
-2717.132924221817
 21
-343.212182941575
 31
0.0
  0
LINE
  5
5EC5
102
{ACAD_REACTORS
330
5ECB
102
}
330
1F
100
AcDbEntity
  8
POPIS
100
AcDbLine
 10
-2717.132924221813
 20
-327.8569836070728
 30
0.0
 11
-2711.560355044433
 21
-335.6578356899699
 31
0.0
  0
LINE
  5
5EC6
102
{ACAD_REACTORS
330
5ECB
102
}
330
1F
100
AcDbEntity
  8
POPIS
100
AcDbLine
 10
-2711.560355044433
 20
-335.6578356899699
 30
0.0
 11
-2715.239196382031
 21
-335.6578356899699
 31
0.0
  0
LINE
  5
5EC7
102
{ACAD_REACTORS
330
5ECB
102
}
330
1F
100
AcDbEntity
  8
POPIS
100
AcDbLine
 10
-2715.239196382031
 20
-335.6578356899699
 30
0.0
 11
-2713.713450434072
 21
-348.5934795890534
 31
0.0
  0
LINE
  5
5EC8
102
{ACAD_REACTORS
330
5ECB
102
}
330
1F
100
AcDbEntity
  8
POPIS
100
AcDbLine
 10
-2719.026652061596
 20
-335.6578356899699
 30
0.0
 11
-2720.552398009554
 21
-348.5934795890534
 31
0.0
  0
LINE
  5
5EC9
102
{ACAD_REACTORS
330
5ECB
102
}
330
1F
100
AcDbEntity
  8
POPIS
100
AcDbLine
 10
-2722.705493399194
 20
-335.6578356899699
 30
0.0
 11
-2719.026652061596
 21
-335.6578356899699
 31
0.0
  0
LINE
  5
5ECA
102
{ACAD_REACTORS
330
5ECB
102
}
330
1F
100
AcDbEntity
  8
POPIS
100
AcDbLine
 10
-2717.132924221813
 20
-327.8569836070728
 30
0.0
 11
-2722.705493399194
 21
-335.6578356899699
 31
0.0
  0
HATCH
  5
5ECB
330
1F
100
AcDbEntity
  8
POPIS
100
AcDbHatch
 10
0.0
 20
0.0
 30
0.0
210
0.0
220
0.0
230
1.0
  2
SOLID
 70
     1
 71
     1
 91
        1
 92
        7
 72
     0
 73
     1
 93
        8
 10
-2715.239196382034
 20
-335.6578356899701
 10
-2711.560355044433
 20
-335.6578356899699
 10
-2717.132924221813
 20
-327.8569836070735
 10
-2722.705493399197
 20
-335.6578356899699
 10
-2719.026652061596
 20
-335.6578356899699
 10
-2720.552398009554
 20
-348.5934795890466
 10
-2717.132924221813
 20
-343.2121829415682
 10
-2713.713450434072
 20
-348.5934795890539
 97
        8
330
5EC6
330
5EC5
330
5ECA
330
5EC9
330
5EC8
330
5EC4
330
5EC3
330
5EC7
 75
     0
 76
     1
 47
0.3835833255279223
 98
        1
 10
-2716.724741474559
 20
-338.5660188704696
  0
LINE
  5
5ECC
102
{ACAD_REACTORS
330
5ED2
102
}
330
1F
100
AcDbEntity
  8
POPIS
100
AcDbLine
 10
-2717.132924221813
 20
-193.3614864337851
 30
0.0
 11
-2711.560355044433
 21
-201.1623385166822
 31
0.0
  0
LINE
  5
5ECD
102
{ACAD_REACTORS
330
5ED2
102
}
330
1F
100
AcDbEntity
  8
POPIS
100
AcDbLine
 10
-2711.560355044433
 20
-201.1623385166822
 30
0.0
 11
-2715.239196382031
 21
-201.1623385166822
 31
0.0
  0
LINE
  5
5ECE
102
{ACAD_REACTORS
330
5ED2
102
}
330
1F
100
AcDbEntity
  8
POPIS
100
AcDbLine
 10
-2715.239196382031
 20
-201.1623385166822
 30
0.0
 11
-2713.713450434072
 21
-214.0979824157657
 31
0.0
  0
LINE
  5
5ECF
102
{ACAD_REACTORS
330
5ED2
102
}
330
1F
100
AcDbEntity
  8
POPIS
100
AcDbLine
 10
-2719.026652061596
 20
-201.1623385166822
 30
0.0
 11
-2720.552398009554
 21
-214.0979824157657
 31
0.0
  0
LINE
  5
5ED0
102
{ACAD_REACTORS
330
5ED2
102
}
330
1F
100
AcDbEntity
  8
POPIS
100
AcDbLine
 10
-2722.705493399194
 20
-201.1623385166822
 30
0.0
 11
-2719.026652061596
 21
-201.1623385166822
 31
0.0
  0
LINE
  5
5ED1
102
{ACAD_REACTORS
330
5ED2
102
}
330
1F
100
AcDbEntity
  8
POPIS
100
AcDbLine
 10
-2717.132924221813
 20
-193.3614864337851
 30
0.0
 11
-2722.705493399194
 21
-201.1623385166822
 31
0.0
  0
HATCH
  5
5ED2
330
1F
100
AcDbEntity
  8
POPIS
100
AcDbHatch
 10
0.0
 20
0.0
 30
0.0
210
0.0
220
0.0
230
1.0
  2
SOLID
 70
     1
 71
     1
 91
        1
 92
        7
 72
     0
 73
     1
 93
        8
 10
-2715.239196382034
 20
-201.1623385166824
 10
-2711.560355044433
 20
-201.1623385166822
 10
-2717.132924221813
 20
-193.3614864337857
 10
-2722.705493399197
 20
-201.1623385166822
 10
-2719.026652061596
 20
-201.1623385166822
 10
-2720.552398009554
 20
-214.0979824157589
 10
-2717.132924221813
 20
-208.7166857682805
 10
-2713.713450434072
 20
-214.0979824157661
 97
        8
330
5ECD
330
5ECC
330
5ED1
330
5ED0
330
5ECF
330
5ED4
330
5ED3
330
5ECE
 75
     0
 76
     1
 47
0.3835833255279223
 98
        1
 10
-2716.724741474559
 20
-204.0705216971819
  0
LINE
  5
5ED3
102
{ACAD_REACTORS
330
5ED2
102
}
330
1F
100
AcDbEntity
  8
POPIS
100
AcDbLine
 10
-2713.713450434072
 20
-214.0979824157657
 30
0.0
 11
-2717.13292422181
 21
-208.7166857682873
 31
0.0
  0
LINE
  5
5ED4
102
{ACAD_REACTORS
330
5ED2
102
}
330
1F
100
AcDbEntity
  8
POPIS
100
AcDbLine
 10
-2720.552398009554
 20
-214.0979824157657
 30
0.0
 11
-2717.132924221817
 21
-208.7166857682873
 31
0.0
  0
LINE
  5
5ED5
102
{ACAD_REACTORS
330
5EDD
102
}
330
1F
100
AcDbEntity
  8
POPIS
100
AcDbLine
 10
-2714.572875404287
 20
-674.3980444730587
 30
0.0
 11
-2717.992349192024
 21
-669.0167478255802
 31
0.0
  0
LINE
  5
5ED6
102
{ACAD_REACTORS
330
5EDD
102
}
330
1F
100
AcDbEntity
  8
POPIS
100
AcDbLine
 10
-2721.411822979769
 20
-674.3980444730587
 30
0.0
 11
-2717.992349192031
 21
-669.0167478255802
 31
0.0
  0
LINE
  5
5ED7
102
{ACAD_REACTORS
330
5EDD
102
}
330
1F
100
AcDbEntity
  8
POPIS
100
AcDbLine
 10
-2717.992349192028
 20
-653.6615484910781
 30
0.0
 11
-2712.419780014647
 21
-661.4624005739751
 31
0.0
  0
LINE
  5
5ED8
102
{ACAD_REACTORS
330
5EDD
102
}
330
1F
100
AcDbEntity
  8
POPIS
100
AcDbLine
 10
-2712.419780014647
 20
-661.4624005739751
 30
0.0
 11
-2716.098621352245
 21
-661.4624005739751
 31
0.0
  0
LINE
  5
5ED9
102
{ACAD_REACTORS
330
5EDD
102
}
330
1F
100
AcDbEntity
  8
POPIS
100
AcDbLine
 10
-2716.098621352245
 20
-661.4624005739751
 30
0.0
 11
-2714.572875404287
 21
-674.3980444730587
 31
0.0
  0
LINE
  5
5EDA
102
{ACAD_REACTORS
330
5EDD
102
}
330
1F
100
AcDbEntity
  8
POPIS
100
AcDbLine
 10
-2719.88607703181
 20
-661.4624005739751
 30
0.0
 11
-2721.411822979769
 21
-674.3980444730587
 31
0.0
  0
LINE
  5
5EDB
102
{ACAD_REACTORS
330
5EDD
102
}
330
1F
100
AcDbEntity
  8
POPIS
100
AcDbLine
 10
-2723.564918369408
 20
-661.4624005739751
 30
0.0
 11
-2719.88607703181
 21
-661.4624005739751
 31
0.0
  0
LINE
  5
5EDC
102
{ACAD_REACTORS
330
5EDD
102
}
330
1F
100
AcDbEntity
  8
POPIS
100
AcDbLine
 10
-2717.992349192028
 20
-653.6615484910781
 30
0.0
 11
-2723.564918369408
 21
-661.4624005739751
 31
0.0
  0
HATCH
  5
5EDD
330
1F
100
AcDbEntity
  8
POPIS
100
AcDbHatch
 10
0.0
 20
0.0
 30
0.0
210
0.0
220
0.0
230
1.0
  2
SOLID
 70
     1
 71
     1
 91
        1
 92
        7
 72
     0
 73
     1
 93
        8
 10
-2716.098621352249
 20
-661.4624005739754
 10
-2712.419780014647
 20
-661.4624005739751
 10
-2717.992349192028
 20
-653.6615484910787
 10
-2723.564918369412
 20
-661.4624005739751
 10
-2719.88607703181
 20
-661.4624005739751
 10
-2721.411822979769
 20
-674.3980444730518
 10
-2717.992349192028
 20
-669.0167478255735
 10
-2714.572875404287
 20
-674.3980444730591
 97
        8
330
5ED8
330
5ED7
330
5EDC
330
5EDB
330
5EDA
330
5ED6
330
5ED5
330
5ED9
 75
     0
 76
     1
 47
0.3835833255279223
 98
        1
 10
-2717.584166444773
 20
-664.3705837544748
  0
LINE
  5
5EDE
102
{ACAD_REACTORS
330
5EE4
102
}
330
1F
100
AcDbEntity
  8
POPIS
100
AcDbLine
 10
-2717.992349192028
 20
-519.1660513177903
 30
0.0
 11
-2712.419780014647
 21
-526.9669034006874
 31
0.0
  0
LINE
  5
5EDF
102
{ACAD_REACTORS
330
5EE4
102
}
330
1F
100
AcDbEntity
  8
POPIS
100
AcDbLine
 10
-2712.419780014647
 20
-526.9669034006874
 30
0.0
 11
-2716.098621352245
 21
-526.9669034006874
 31
0.0
  0
LINE
  5
5EE0
102
{ACAD_REACTORS
330
5EE4
102
}
330
1F
100
AcDbEntity
  8
POPIS
100
AcDbLine
 10
-2716.098621352245
 20
-526.9669034006874
 30
0.0
 11
-2714.572875404287
 21
-539.9025472997709
 31
0.0
  0
LINE
  5
5EE1
102
{ACAD_REACTORS
330
5EE4
102
}
330
1F
100
AcDbEntity
  8
POPIS
100
AcDbLine
 10
-2719.88607703181
 20
-526.9669034006874
 30
0.0
 11
-2721.411822979769
 21
-539.9025472997709
 31
0.0
  0
LINE
  5
5EE2
102
{ACAD_REACTORS
330
5EE4
102
}
330
1F
100
AcDbEntity
  8
POPIS
100
AcDbLine
 10
-2723.564918369408
 20
-526.9669034006874
 30
0.0
 11
-2719.88607703181
 21
-526.9669034006874
 31
0.0
  0
LINE
  5
5EE3
102
{ACAD_REACTORS
330
5EE4
102
}
330
1F
100
AcDbEntity
  8
POPIS
100
AcDbLine
 10
-2717.992349192028
 20
-519.1660513177903
 30
0.0
 11
-2723.564918369408
 21
-526.9669034006874
 31
0.0
  0
HATCH
  5
5EE4
330
1F
100
AcDbEntity
  8
POPIS
100
AcDbHatch
 10
0.0
 20
0.0
 30
0.0
210
0.0
220
0.0
230
1.0
  2
SOLID
 70
     1
 71
     1
 91
        1
 92
        7
 72
     0
 73
     1
 93
        8
 10
-2716.098621352249
 20
-526.9669034006876
 10
-2712.419780014647
 20
-526.9669034006874
 10
-2717.992349192028
 20
-519.166051317791
 10
-2723.564918369412
 20
-526.9669034006874
 10
-2719.88607703181
 20
-526.9669034006874
 10
-2721.411822979769
 20
-539.9025472997641
 10
-2717.992349192028
 20
-534.5212506522857
 10
-2714.572875404287
 20
-539.9025472997713
 97
        8
330
5EDF
330
5EDE
330
5EE3
330
5EE2
330
5EE1
330
5EE6
330
5EE5
330
5EE0
 75
     0
 76
     1
 47
0.3835833255279223
 98
        1
 10
-2717.584166444773
 20
-529.8750865811871
  0
LINE
  5
5EE5
102
{ACAD_REACTORS
330
5EE4
102
}
330
1F
100
AcDbEntity
  8
POPIS
100
AcDbLine
 10
-2714.572875404287
 20
-539.9025472997709
 30
0.0
 11
-2717.992349192024
 21
-534.5212506522925
 31
0.0
  0
LINE
  5
5EE6
102
{ACAD_REACTORS
330
5EE4
102
}
330
1F
100
AcDbEntity
  8
POPIS
100
AcDbLine
 10
-2721.411822979769
 20
-539.9025472997709
 30
0.0
 11
-2717.992349192031
 21
-534.5212506522925
 31
0.0
  0
HATCH
  5
5EE7
330
1F
100
AcDbEntity
  8
PROFILY
100
AcDbHatch
 10
0.0
 20
0.0
 30
0.0
210
0.0
220
0.0
230
1.0
  2
SOLID
 70
     1
 71
     0
 91
        5
 92
        7
 72
     0
 73
     1
 93
        4
 10
-2788.322195621794
 20
-1055.046126351994
 10
-2789.822195621794
 20
-1055.046126351994
 10
-2789.822195621797
 20
-1088.204260119284
 10
-2788.322195621797
 20
-1088.204260119284
 97
        0
 92
        7
 72
     0
 73
     1
 93
        4
 10
-2788.322195621794
 20
-1009.435036294888
 10
-2789.822195621794
 20
-1009.435036294888
 10
-2789.82219562179
 20
-1055.046126351994
 10
-2788.322195621797
 20
-1055.046126351994
 97
        0
 92
        7
 72
     0
 73
     1
 93
        6
 10
-2789.82219562179
 20
-1053.546126351994
 10
-2804.463583023346
 20
-1053.546126351994
 10
-2804.463583023357
 20
-1088.204260119284
 10
-2802.963583023354
 20
-1088.204260119284
 10
-2802.963583023343
 20
-1055.046126351994
 10
-2789.822195621797
 20
-1055.046126351994
 97
        0
 92
        7
 72
     0
 73
     1
 93
        8
 10
-2846.360092319418
 20
-1009.435036294888
 10
-2847.860092319418
 20
-1009.435036294888
 10
-2847.860092319418
 20
-1053.546126351994
 10
-2862.501479720966
 20
-1053.546126351994
 10
-2862.501479720974
 20
-1088.204260119284
 10
-2861.001479720974
 20
-1088.204260119284
 10
-2861.001479720963
 20
-1055.046126351994
 10
-2846.360092319418
 20
-1055.046126351994
 97
        0
 92
        7
 72
     0
 73
     1
 93
        8
 10
-2912.684261225314
 20
-1009.435036294888
 10
-2914.18426122531
 20
-1009.435036294888
 10
-2914.18426122531
 20
-1052.88798558159
 10
-2928.825648626859
 20
-1065.853233132315
 10
-2928.825648626866
 20
-1087.611118233563
 10
-2927.325648626863
 20
-1087.611118233563
 10
-2927.325648626859
 20
-1066.528531656714
 10
-2912.68426122531
 20
-1053.563284105988
 97
        0
 75
     0
 76
     1
 47
0.2467494922289204
 98
        5
 10
-2789.074425701151
 20
-1063.531927989794
 10
-2789.074425701151
 20
-1053.681748098535
 10
-2793.694248902136
 20
-1054.605221404361
 10
-2857.139549435753
 20
-1054.605221404361
 10
-2913.111994582363
 20
-1035.799435474257
  0
LINE
  5
5EE8
330
1F
100
AcDbEntity
  8
PROFILY
100
AcDbLine
 10
-2804.463583023354
 20
-1088.204260119284
 30
0.0
 11
-2802.963583023354
 21
-1088.204260119284
 31
0.0
  0
LINE
  5
5EE9
330
1F
100
AcDbEntity
  8
PROFILY
100
AcDbLine
 10
-2802.963583023347
 20
-1055.046126351994
 30
0.0
 11
-2802.963583023354
 21
-1088.204260119284
 31
0.0
  0
LINE
  5
5EEA
330
1F
100
AcDbEntity
  8
PROFILY
100
AcDbLine
 10
-2804.463583023346
 20
-1053.546126351994
 30
0.0
 11
-2804.463583023354
 21
-1088.204260119284
 31
0.0
  0
LINE
  5
5EEB
330
1F
100
AcDbEntity
  8
PROFILY
100
AcDbLine
 10
-2788.322195621797
 20
-1055.046126351994
 30
0.0
 11
-2802.963583023347
 21
-1055.046126351994
 31
0.0
  0
LINE
  5
5EEC
330
1F
100
AcDbEntity
  8
PROFILY
100
AcDbLine
 10
-2788.322195621794
 20
-1009.435036294888
 30
0.0
 11
-2788.322195621801
 21
-1088.204260119284
 31
0.0
  0
LINE
  5
5EED
330
1F
100
AcDbEntity
  8
PROFILY
100
AcDbLine
 10
-2789.822195621797
 20
-1053.546126351994
 30
0.0
 11
-2804.463583023346
 21
-1053.546126351994
 31
0.0
  0
LINE
  5
5EEE
330
1F
100
AcDbEntity
  8
PROFILY
100
AcDbLine
 10
-2789.822195621794
 20
-1009.435036294888
 30
0.0
 11
-2789.822195621797
 21
-1088.204260119284
 31
0.0
  0
HATCH
  5
5EEF
330
1F
100
AcDbEntity
  8
STAVBA OBRYS
100
AcDbHatch
 10
0.0
 20
0.0
 30
0.0
210
0.0
220
0.0
230
1.0
  2
AR-SAND
 70
     0
 71
     0
 91
        1
 92
        7
 72
     0
 73
     1
 93
        4
 10
-2358.563439475548
 20
-100.2720316222948
 10
-2368.563439475551
 20
-100.2720316222951
 10
-2368.563439475547
 20
-641.2951241434801
 10
-2358.563439475548
 20
-641.2951241434803
 97
        0
 75
     0
 76
     1
 52
0.0
 41
0.1
 77
     0
 78
     4
 53
37.5
 43
-19292.54520720185
 44
-1606.229658824076
 45
-0.1600031295984046
 46
4.894132373293423
 79
     6
 49
0.0
 49
-3.8608
 49
0.0
 49
-4.318
 49
0.0
 49
-4.1275
 53
7.499999999999999
 43
-19292.54520720185
 44
-1606.229658824076
 45
4.495232831380026
 46
7.168251005683543
 79
     6
 49
0.0
 49
-2.0828
 49
0.0
 49
-3.4798
 49
0.0
 49
-1.3335
 53
327.4999999999999
 43
-19295.66940720185
 44
-1606.229658824076
 45
7.909923702414579
 46
0.0143718467854569
 79
     6
 49
0.0
 49
-1.27
 49
0.0
 49
-4.572
 49
0.0
 49
-5.969
 53
317.5
 43
-19295.66940720185
 44
-1606.229658824076
 45
7.635564524722972
 46
2.229293232572162
 79
     6
 49
0.0
 49
-0.635
 49
0.0
 49
-2.997199999999999
 49
0.0
 49
-3.429
 47
1.781392269322116
 98
        1
 10
-2361.941470812388
 20
-276.356097085174
  0
LINE
  5
5EF0
330
1F
100
AcDbEntity
  8
STAVBA OBRYS
100
AcDbLine
 10
-2358.563439475548
 20
-641.29512414348
 30
0.0
 11
-2358.563439475548
 21
-100.2720316222948
 31
0.0
  0
CIRCLE
  5
5EF2
330
1F
100
AcDbEntity
  8
POPIS
100
AcDbCircle
 10
-2844.234042655284
 20
-724.6479276619384
 30
0.0
 40
11.13656048292026
  0
TEXT
  5
5EF3
330
1F
100
AcDbEntity
  8
POPIS
100
AcDbText
 10
-2848.616326165608
 20
-730.7580890298841
 30
0.0
 40
12.0
  1
R
 41
0.85
  7
SIMPLEX7
100
AcDbText
  0
TEXT
  5
5EF4
330
1F
100
AcDbEntity
  8
POPIS
100
AcDbText
 10
-3070.962960109261
 20
-932.843654778996
 30
0.0
 40
25.0
  1
06
 41
0.85
  7
SIMPLEX7
100
AcDbText
  0
TEXT
  5
5EF5
330
1F
100
AcDbEntity
  8
POPIS
100
AcDbText
 10
-3016.619256949511
 20
-932.843654778996
 30
0.0
 40
25.0
  1
Nosný profil systému - úhelník (np. SPIDI, EuroFox, SPEEDY...)
 41
0.7
  7
SIMPLEX7
100
AcDbText
  0
TEXT
  5
5EF6
330
1F
100
AcDbEntity
  8
POPIS
100
AcDbText
 10
-3070.962960109261
 20
-897.224766080907
 30
0.0
 40
25.0
  1
05
 41
0.85
  7
SIMPLEX7
100
AcDbText
  0
TEXT
  5
5EF7
330
1F
100
AcDbEntity
  8
POPIS
100
AcDbText
 10
-3016.619256949511
 20
-897.224766080907
 30
0.0
 40
25.0
  1
Upevňovací prvek systému - kotva (np. SPIDI, EuroFox, SPEEDY...)
 41
0.7
  7
SIMPLEX7
100
AcDbText
  0
TEXT
  5
5EF8
330
1F
100
AcDbEntity
  8
POPIS
100
AcDbText
 10
-3016.619256949511
 20
-1147.629454164862
 30
0.0
 40
25.0
  1
Tepelná izolace (np. ORSIL, ROCKWOOL, ISOVER, NOBASIL)
 41
0.7
  7
SIMPLEX7
100
AcDbText
  0
TEXT
  5
5EF9
330
1F
100
AcDbEntity
  8
POPIS
100
AcDbText
 10
-3070.962960109261
 20
-1147.629454164862
 30
0.0
 40
25.0
  1
08
 41
0.85
  7
SIMPLEX7
100
AcDbText
  0
TEXT
  5
5EFA
330
1F
100
AcDbEntity
  8
POPIS
100
AcDbText
 10
-3016.619256949511
 20
-971.0269946215213
 30
0.0
 40
25.0
  1
Profil PROTECTOR 9315 (3537,3554)
 41
0.7
  7
SIMPLEX7
100
AcDbText
  0
TEXT
  5
5EFB
330
1F
100
AcDbEntity
  8
POPIS
100
AcDbText
 10
-3070.962960109261
 20
-971.0269946215213
 30
0.0
 40
25.0
  1
07
 41
0.85
  7
SIMPLEX7
100
AcDbText
  0
TEXT
  5
5EFC
330
1F
100
AcDbEntity
  8
POPIS
100
AcDbText
 10
-3016.619256949511
 20
-861.1179445937187
 30
0.0
 40
25.0
  1
Kotevní prvek
 41
0.7
  7
SIMPLEX7
100
AcDbText
  0
TEXT
  5
5EFD
330
1F
100
AcDbEntity
  8
POPIS
100
AcDbText
 10
-3070.962960109261
 20
-861.1179445937187
 30
0.0
 40
25.0
  1
04
 41
0.85
  7
SIMPLEX7
100
AcDbText
  0
TEXT
  5
5EFE
330
1F
100
AcDbEntity
  8
POPIS
100
AcDbText
 10
-3016.619256949511
 20
-825.713783375556
 30
0.0
 40
25.0
  1
Vzduchová mezera - min. 25 mm
 41
0.7
  7
SIMPLEX7
100
AcDbText
  0
TEXT
  5
5EFF
330
1F
100
AcDbEntity
  8
POPIS
100
AcDbText
 10
-3070.962960109261
 20
-825.713783375556
 30
0.0
 40
25.0
  1
03
 41
0.85
  7
SIMPLEX7
100
AcDbText
  0
TEXT
  5
5F00
330
1F
100
AcDbEntity
  8
POPIS
100
AcDbText
 10
-3016.619256949511
 20
-791.7635951308339
 30
0.0
 40
25.0
  1
Nerezový vrut s podložkou (np. SFS, EJOT)
 41
0.7
  7
SIMPLEX7
100
AcDbText
  0
TEXT
  5
5F01
330
1F
100
AcDbEntity
  8
POPIS
100
AcDbText
 10
-3070.962960109261
 20
-791.7635951308339
 30
0.0
 40
25.0
  1
02
 41
0.85
  7
SIMPLEX7
100
AcDbText
  0
TEXT
  5
5F02
330
1F
100
AcDbEntity
  8
POPIS
100
AcDbText
 10
-3016.619256949511
 20
-755.1685835152056
 30
0.0
 40
25.0
  1
Deska CETRIS   (BASIC,FINISH,LASUR)
 41
0.7
  7
SIMPLEX7
100
AcDbText
  0
TEXT
  5
5F03
330
1F
100
AcDbEntity
  8
POPIS
100
AcDbText
 10
-3070.962960109261
 20
-755.1685835152056
 30
0.0
 40
25.0
  1
01
 41
0.85
  7
SIMPLEX7
100
AcDbText
  0
INSERT
  5
5F04
330
1F
100
AcDbEntity
  8
POPIS
100
AcDbBlockReference
  2
E_PUNKT
 10
-2650.419348935037
 20
-178.1934708891362
 30
0.0
  0
LINE
  5
5F05
330
1F
100
AcDbEntity
  8
POPIS
100
AcDbLine
 10
-2905.901851830175
 20
-178.1644025582636
 30
0.0
 11
-2651.641738559411
 21
-178.1644025582636
 31
0.0
  0
TEXT
  5
5F06
330
1F
100
AcDbEntity
  8
POPIS
100
AcDbText
 10
-2946.437287124726
 20
-191.6077440076337
 30
0.0
 40
25.0
  1
08
 41
0.7
  7
SIMPLEX7
100
AcDbText
  0
TEXT
  5
5F07
330
1F
100
AcDbEntity
  8
POPIS
100
AcDbText
 10
-3049.551450678668
 20
3.66322970638248
 30
0.0
 40
35.0
  1
ŘEZ-ŘEŠENÍ S PROFILEM
 41
0.85
  7
SIMPLEX7
100
AcDbText
  0
TEXT
  5
5F08
330
1F
100
AcDbEntity
  8
POPIS
100
AcDbText
 10
-3049.551450678668
 20
58.28797273218333
 30
0.0
 40
50.0
  1
ÚPRAVA VODOROVNÉ SPÁRY
 41
0.85
  7
SIMPLEX7
100
AcDbText
  0
LINE
  5
5F09
330
1F
100
AcDbEntity
  8
POPIS
100
AcDbLine
 10
-2904.365039506891
 20
-353.2795079279937
 30
0.0
 11
-2760.927679022927
 21
-353.2795079279937
 31
0.0
  0
TEXT
  5
5F0A
330
1F
100
AcDbEntity
  8
POPIS
100
AcDbText
 10
-2944.900474801442
 20
-369.1468814365528
 30
0.0
 40
25.0
  1
07
 41
0.7
  7
SIMPLEX7
100
AcDbText
  0
INSERT
  5
5F0B
330
1F
100
AcDbEntity
  8
POPIS
100
AcDbBlockReference
  2
E_PUNKT
 10
-2761.21228285163
 20
-353.2292913921912
 30
0.0
  0
INSERT
  5
5F0C
330
1F
100
AcDbEntity
  8
POPIS
100
AcDbBlockReference
  2
E_PUNKT
 10
-2766.887385884868
 20
-295.8781654357583
 30
0.0
  0
TEXT
  5
5F0D
330
1F
100
AcDbEntity
  8
POPIS
100
AcDbText
 10
-2944.900474801442
 20
-307.4744145098613
 30
0.0
 40
25.0
  1
02
 41
0.7
  7
SIMPLEX7
100
AcDbText
  0
LINE
  5
5F0E
330
1F
100
AcDbEntity
  8
POPIS
100
AcDbLine
 10
-2904.365039506891
 20
-295.8490971048856
 30
0.0
 11
-2766.839264830361
 21
-295.8490971048856
 31
0.0
  0
TEXT
  5
5F0F
330
1F
100
AcDbEntity
  8
POPIS
100
AcDbText
 10
-2942.668690604617
 20
-261.4980790039123
 30
0.0
 40
25.0
  1
01
 41
0.7
  7
SIMPLEX7
100
AcDbText
  0
LINE
  5
5F10
330
1F
100
AcDbEntity
  8
POPIS
100
AcDbLine
 10
-2904.365039506891
 20
-248.054737554542
 30
0.0
 11
-2750.123899837891
 21
-248.0547375545427
 31
0.0
  0
LINE
  5
5F11
330
1F
100
AcDbEntity
  8
POPIS
100
AcDbLine
 10
-2780.159431436442
 20
-550.1254973913012
 30
0.0
 11
-2732.343203411074
 21
-515.6468351836049
 31
0.0
  0
TEXT
  5
5F12
330
1F
100
AcDbEntity
  8
POPIS
100
AcDbText
 10
-2944.900474801442
 20
-649.0221678968744
 30
0.0
 40
25.0
  1
04
 41
0.7
  7
SIMPLEX7
100
AcDbText
  0
LINE
  5
5F13
330
1F
100
AcDbEntity
  8
POPIS
100
AcDbLine
 10
-2904.365039506891
 20
-635.5788264475043
 30
0.0
 11
-2780.159431436442
 21
-635.5788264475044
 31
0.0
  0
TEXT
  5
5F14
330
1F
100
AcDbEntity
  8
POPIS
100
AcDbText
 10
-2944.900474801442
 20
-607.1763532368975
 30
0.0
 40
25.0
  1
05
 41
0.7
  7
SIMPLEX7
100
AcDbText
  0
LINE
  5
5F15
330
1F
100
AcDbEntity
  8
POPIS
100
AcDbLine
 10
-2904.365039506891
 20
-593.7330117875274
 30
0.0
 11
-2780.159431436442
 21
-593.7330117875274
 31
0.0
  0
TEXT
  5
5F16
330
1F
100
AcDbEntity
  8
POPIS
100
AcDbText
 10
-2944.900474801442
 20
-563.5688388406713
 30
0.0
 40
25.0
  1
06
 41
0.7
  7
SIMPLEX7
100
AcDbText
  0
LINE
  5
5F17
330
1F
100
AcDbEntity
  8
POPIS
100
AcDbLine
 10
-2904.365039506891
 20
-550.1254973913012
 30
0.0
 11
-2780.159431436442
 21
-550.1254973913012
 31
0.0
  0
INSERT
  5
5F18
330
1F
100
AcDbEntity
  8
POPIS
100
AcDbBlockReference
  2
E_PUNKT
 10
-2732.370813786701
 20
-515.6759035144776
 30
0.0
  0
INSERT
  5
5F19
330
1F
100
AcDbEntity
  8
POPIS
100
AcDbBlockReference
  2
E_PUNKT
 10
-2557.58268944324
 20
-469.7916478618092
 30
0.0
  0
LINE
  5
5F1A
330
1F
100
AcDbEntity
  8
SPOJOVACÍ
100
AcDbLine
 10
-2557.972628963799
 20
-470.9624407267531
 30
0.0
 11
-2557.078713293043
 21
-467.6263020257968
 31
0.0
  0
LINE
  5
5F1B
330
1F
100
AcDbEntity
  8
POPIS
100
AcDbLine
 10
-2780.159431436442
 20
-635.5788264475044
 30
0.0
 11
-2556.483073796219
 21
-469.1196917505976
 31
0.0
  0
LINE
  5
5F1C
330
1F
100
AcDbEntity
  8
POPIS
100
AcDbLine
 10
-2780.159431436442
 20
-593.7330117875274
 30
0.0
 11
-2650.363835601224
 21
-495.9501762660977
 31
0.0
  0
INSERT
  5
5F1D
330
1F
100
AcDbEntity
  8
POPIS
100
AcDbBlockReference
  2
E_PUNKT
 10
-2651.419518423777
 20
-495.2682122180479
 30
0.0
  0
LINE
  5
5F1E
330
1F
100
AcDbEntity
  8
STAVBA OBRYS
  6
DASHDOT2
100
AcDbLine
 10
-2717.587011599073
 20
-572.4709378725126
 30
0.0
 11
-2504.810522532975
 21
-572.4709378725117
 31
0.0
  0
LINE
  5
5F1F
330
1F
100
AcDbEntity
  8
STAVBA OBRYS
  6
DASHED
100
AcDbLine
 10
-2523.458435864774
 20
-565.9084378725117
 30
0.0
 11
-2683.828767097399
 21
-565.9084378725135
 31
0.0
  0
LINE
  5
5F20
330
1F
100
AcDbEntity
  8
STAVBA OBRYS
  6
DASHED
100
AcDbLine
 10
-2523.458435864774
 20
-579.0334378725117
 30
0.0
 11
-2683.828767097399
 21
-579.0334378725135
 31
0.0
  0
LWPOLYLINE
  5
5F21
330
1F
100
AcDbEntity
  8
STAVBA OBRYS
  6
DASHED
100
AcDbPolyline
 90
        4
 70
     1
 43
0.0
 10
-2689.202048422253
 20
-547.4111518629997
 10
-2683.828767097399
 20
-547.4111518629997
 10
-2683.828767097399
 20
-597.5307238820223
 10
-2689.202048422253
 20
-597.5307238820223
  0
LINE
  5
5F22
330
1F
100
AcDbEntity
  8
STAVBA OBRYS
  6
DASHED
100
AcDbLine
 10
-2519.669574723216
 20
-572.4709378725117
 30
0.0
 11
-2523.458435864774
 21
-565.9084378725117
 31
0.0
  0
LINE
  5
5F23
330
1F
100
AcDbEntity
  8
STAVBA OBRYS
  6
DASHED
100
AcDbLine
 10
-2519.669574723216
 20
-572.4709378725117
 30
0.0
 11
-2523.458435864774
 21
-579.0334378725117
 31
0.0
  0
LINE
  5
5F24
330
1F
100
AcDbEntity
  8
PROFILY
100
AcDbLine
 10
-2928.825648626866
 20
-1087.611118233563
 30
0.0
 11
-2927.325648626866
 21
-1087.611118233563
 31
0.0
  0
LINE
  5
5F25
330
1F
100
AcDbEntity
  8
PROFILY
100
AcDbLine
 10
-2927.325648626859
 20
-1066.528531656717
 30
0.0
 11
-2927.325648626866
 21
-1087.611118233563
 31
0.0
  0
LINE
  5
5F26
330
1F
100
AcDbEntity
  8
PROFILY
100
AcDbLine
 10
-2928.825648626859
 20
-1065.853233132314
 30
0.0
 11
-2928.825648626866
 21
-1087.611118233563
 31
0.0
  0
LINE
  5
5F27
330
1F
100
AcDbEntity
  8
PROFILY
100
AcDbLine
 10
-2912.68426122531
 20
-1053.563284105987
 30
0.0
 11
-2927.325648626859
 21
-1066.528531656717
 31
0.0
  0
LINE
  5
5F28
330
1F
100
AcDbEntity
  8
PROFILY
100
AcDbLine
 10
-2914.18426122531
 20
-1052.887985581588
 30
0.0
 11
-2928.825648626859
 21
-1065.853233132314
 31
0.0
  0
LINE
  5
5F29
330
1F
100
AcDbEntity
  8
PROFILY
100
AcDbLine
 10
-2847.860092319418
 20
-1053.546126351994
 30
0.0
 11
-2862.501479720966
 21
-1053.546126351994
 31
0.0
  0
LINE
  5
5F2A
330
1F
100
AcDbEntity
  8
PROFILY
100
AcDbLine
 10
-2846.360092319418
 20
-1055.046126351994
 30
0.0
 11
-2861.001479720966
 21
-1055.046126351994
 31
0.0
  0
LINE
  5
5F2B
330
1F
100
AcDbEntity
  8
PROFILY
100
AcDbLine
 10
-2862.501479720966
 20
-1053.546126351994
 30
0.0
 11
-2862.501479720974
 21
-1088.204260119284
 31
0.0
  0
LINE
  5
5F2C
330
1F
100
AcDbEntity
  8
PROFILY
100
AcDbLine
 10
-2861.001479720966
 20
-1055.046126351994
 30
0.0
 11
-2861.001479720974
 21
-1088.204260119284
 31
0.0
  0
LINE
  5
5F2D
330
1F
100
AcDbEntity
  8
PROFILY
100
AcDbLine
 10
-2862.501479720974
 20
-1088.204260119284
 30
0.0
 11
-2861.001479720974
 21
-1088.204260119284
 31
0.0
  0
LINE
  5
5F2E
330
1F
100
AcDbEntity
  8
PROFILY
100
AcDbLine
 10
-2881.967560994374
 20
-970.0084307007534
 30
0.0
 11
-2883.467560994374
 21
-970.0084307007534
 31
0.0
  0
LINE
  5
5F2F
330
1F
100
AcDbEntity
  8
STAVBA OBRYS
100
AcDbLine
 10
-2368.563439475547
 20
-641.29512414348
 30
0.0
 11
-2368.563439475547
 21
-100.2720316222948
 31
0.0
  0
LINE
  5
5F30
330
1F
100
AcDbEntity
  8
STAVBA OBRYS
  6
DASHED
100
AcDbLine
 10
-2519.669574723216
 20
-211.0158268405964
 30
0.0
 11
-2523.458435864774
 21
-217.5783268405964
 31
0.0
  0
LINE
  5
5F31
330
1F
100
AcDbEntity
  8
STAVBA OBRYS
  6
DASHED
100
AcDbLine
 10
-2519.669574723216
 20
-211.0158268405964
 30
0.0
 11
-2523.458435864774
 21
-204.4533268405964
 31
0.0
  0
LWPOLYLINE
  5
5F32
330
1F
100
AcDbEntity
  8
STAVBA OBRYS
  6
DASHED
100
AcDbPolyline
 90
        4
 70
     1
 43
0.0
 10
-2689.202048422253
 20
-185.9560408310844
 10
-2683.828767097399
 20
-185.9560408310844
 10
-2683.828767097399
 20
-236.075612850107
 10
-2689.202048422253
 20
-236.075612850107
  0
LINE
  5
5F33
330
1F
100
AcDbEntity
  8
STAVBA OBRYS
  6
DASHED
100
AcDbLine
 10
-2523.458435864774
 20
-217.5783268405964
 30
0.0
 11
-2683.828767097399
 21
-217.5783268405982
 31
0.0
  0
LINE
  5
5F34
330
1F
100
AcDbEntity
  8
STAVBA OBRYS
  6
DASHED
100
AcDbLine
 10
-2523.458435864774
 20
-204.4533268405964
 30
0.0
 11
-2683.828767097399
 21
-204.4533268405982
 31
0.0
  0
LINE
  5
5F35
330
1F
100
AcDbEntity
  8
STAVBA OBRYS
  6
DASHDOT2
100
AcDbLine
 10
-2717.587011599073
 20
-211.0158268405973
 30
0.0
 11
-2504.810522532975
 21
-211.0158268405964
 31
0.0
  0
CIRCLE
  5
5F36
330
1F
100
AcDbEntity
  8
NOSNÉ KONSTRUKCE
100
AcDbCircle
 10
-2718.494537366329
 20
-283.9595788855924
 30
0.0
 40
5.0
  0
LINE
  5
5F37
330
1F
100
AcDbEntity
  8
SPOJOVACÍ
100
AcDbLine
 10
-2732.626270558268
 20
-293.7976969567398
 30
0.0
 11
-2731.103263302772
 21
-299.4816374145407
 31
0.0
  0
LINE
  5
5F38
330
1F
100
AcDbEntity
  8
SPOJOVACÍ
100
AcDbLine
 10
-2735.790333058264
 20
-293.7976969567398
 30
0.0
 11
-2734.267325802772
 21
-299.4816374145407
 31
0.0
  0
LINE
  5
5F39
330
1F
100
AcDbEntity
  8
SPOJOVACÍ
100
AcDbLine
 10
-2734.208301808264
 20
-293.7976969567398
 30
0.0
 11
-2732.685294552772
 21
-299.4816374145407
 31
0.0
  0
LINE
  5
5F3A
330
1F
100
AcDbEntity
  8
SPOJOVACÍ
100
AcDbLine
 10
-2731.044239308264
 20
-293.7976969567398
 30
0.0
 11
-2729.97043774058
 21
-297.8051789646053
 31
0.0
  0
LINE
  5
5F3B
330
1F
100
AcDbEntity
  8
SPOJOVACÍ
100
AcDbLine
 10
-2729.072470437303
 20
-296.6396671856405
 30
0.0
 11
-2731.262063359908
 21
-293.7976969567398
 31
0.0
  0
LINE
  5
5F3C
330
1F
100
AcDbEntity
  8
SPOJOVACÍ
100
AcDbLine
 10
-2729.072470437303
 20
-296.6396671856405
 30
0.0
 11
-2731.262063359908
 21
-299.4816374145407
 31
0.0
  0
LINE
  5
5F3D
330
1F
100
AcDbEntity
  8
SPOJOVACÍ
100
AcDbLine
 10
-2745.282520558264
 20
-293.7976969567398
 30
0.0
 11
-2743.759513302773
 21
-299.4816374145407
 31
0.0
  0
LINE
  5
5F3E
330
1F
100
AcDbEntity
  8
SPOJOVACÍ
100
AcDbLine
 10
-2756.356739308264
 20
-293.7976969567398
 30
0.0
 11
-2754.833732052772
 21
-299.4816374145407
 31
0.0
  0
LINE
  5
5F3F
330
1F
100
AcDbEntity
  8
SPOJOVACÍ
100
AcDbLine
 10
-2757.938770558264
 20
-293.7976969567398
 30
0.0
 11
-2756.415763302772
 21
-299.4816374145407
 31
0.0
  0
LINE
  5
5F40
330
1F
100
AcDbEntity
  8
SPOJOVACÍ
100
AcDbLine
 10
-2751.610645558264
 20
-293.7976969567398
 30
0.0
 11
-2750.087638302773
 21
-299.4816374145407
 31
0.0
  0
LINE
  5
5F41
330
1F
100
AcDbEntity
  8
SPOJOVACÍ
100
AcDbLine
 10
-2753.192676808264
 20
-293.7976969567398
 30
0.0
 11
-2751.669669552772
 21
-299.4816374145407
 31
0.0
  0
LINE
  5
5F42
330
1F
100
AcDbEntity
  8
SPOJOVACÍ
100
AcDbLine
 10
-2754.774708058263
 20
-293.7976969567398
 30
0.0
 11
-2753.251700802772
 21
-299.4816374145407
 31
0.0
  0
LINE
  5
5F43
330
1F
100
AcDbEntity
  8
SPOJOVACÍ
100
AcDbLine
 10
-2746.864551808263
 20
-293.7976969567398
 30
0.0
 11
-2745.341544552772
 21
-299.4816374145407
 31
0.0
  0
LINE
  5
5F44
330
1F
100
AcDbEntity
  8
SPOJOVACÍ
100
AcDbLine
 10
-2748.446583058264
 20
-293.7976969567398
 30
0.0
 11
-2746.923575802772
 21
-299.4816374145407
 31
0.0
  0
LINE
  5
5F45
330
1F
100
AcDbEntity
  8
SPOJOVACÍ
100
AcDbLine
 10
-2750.028614308264
 20
-293.7976969567398
 30
0.0
 11
-2748.505607052772
 21
-299.4816374145407
 31
0.0
  0
LINE
  5
5F46
330
1F
100
AcDbEntity
  8
SPOJOVACÍ
100
AcDbLine
 10
-2738.954395558264
 20
-293.7976969567398
 30
0.0
 11
-2737.431388302772
 21
-299.4816374145407
 31
0.0
  0
LINE
  5
5F47
330
1F
100
AcDbEntity
  8
SPOJOVACÍ
100
AcDbLine
 10
-2740.536426808271
 20
-293.7976969567398
 30
0.0
 11
-2739.013419552772
 21
-299.4816374145407
 31
0.0
  0
LINE
  5
5F48
330
1F
100
AcDbEntity
  8
SPOJOVACÍ
100
AcDbLine
 10
-2742.118458058264
 20
-293.7976969567398
 30
0.0
 11
-2740.595450802772
 21
-299.4816374145407
 31
0.0
  0
LINE
  5
5F49
330
1F
100
AcDbEntity
  8
SPOJOVACÍ
100
AcDbLine
 10
-2743.700489308264
 20
-293.7976969567398
 30
0.0
 11
-2742.177482052772
 21
-299.4816374145407
 31
0.0
  0
LINE
  5
5F4A
330
1F
100
AcDbEntity
  8
SPOJOVACÍ
100
AcDbLine
 10
-2760.029053132767
 20
-296.6396671856405
 30
0.0
 11
-2760.029053132767
 21
-289.5205265606405
 31
0.0
  0
ARC
  5
5F4B
330
1F
100
AcDbEntity
  8
SPOJOVACÍ
100
AcDbCircle
 10
-2762.999921516498
 20
-296.6396671856405
 30
0.0
 40
3.392730367372068
100
AcDbArc
 50
135.6170676673795
 51
224.3829323326204
  0
LINE
  5
5F4C
330
1F
100
AcDbEntity
  8
SPOJOVACÍ
100
AcDbLine
 10
-2766.373860430708
 20
-300.9111515606405
 30
0.0
 11
-2766.373860430708
 21
-292.3681828106405
 31
0.0
  0
LINE
  5
5F4D
330
1F
100
AcDbEntity
  8
SPOJOVACÍ
100
AcDbLine
 10
-2761.715872991242
 20
-300.4756353627042
 30
0.0
 11
-2761.715872991242
 21
-289.5205265606405
 31
0.0
  0
LINE
  5
5F4E
330
1F
100
AcDbEntity
  8
SPOJOVACÍ
100
AcDbLine
 10
-2761.715872991242
 20
-294.2666203106405
 30
0.0
 11
-2765.424641680708
 21
-294.2666203106405
 31
0.0
  0
LINE
  5
5F4F
330
1F
100
AcDbEntity
  8
SPOJOVACÍ
100
AcDbLine
 10
-2765.424641680708
 20
-291.4189640606405
 30
0.0
 11
-2761.715872991242
 21
-291.4189640606405
 31
0.0
  0
ARC
  5
5F50
330
1F
100
AcDbEntity
  8
SPOJOVACÍ
100
AcDbCircle
 10
-2765.424641680708
 20
-293.3174015606405
 30
0.0
 40
0.94921875
100
AcDbArc
 50
180.0
 51
270.0
  0
ARC
  5
5F51
330
1F
100
AcDbEntity
  8
SPOJOVACÍ
100
AcDbCircle
 10
-2765.424641680708
 20
-292.3681828106405
 30
0.0
 40
0.94921875
100
AcDbArc
 50
90.0
 51
180.0
  0
LINE
  5
5F52
330
1F
100
AcDbEntity
  8
SPOJOVACÍ
100
AcDbLine
 10
-2761.715872991242
 20
-289.5205265606405
 30
0.0
 11
-2760.029053132767
 21
-289.5205265606405
 31
0.0
  0
LINE
  5
5F53
330
1F
100
AcDbEntity
  8
SPOJOVACÍ
100
AcDbLine
 10
-2761.715872991242
 20
-301.8603703106405
 30
0.0
 11
-2765.424641680708
 21
-301.8603703106405
 31
0.0
  0
LINE
  5
5F54
330
1F
100
AcDbEntity
  8
SPOJOVACÍ
100
AcDbLine
 10
-2761.715872991242
 20
-299.0127140606405
 30
0.0
 11
-2765.424641680708
 21
-299.0127140606405
 31
0.0
  0
ARC
  5
5F55
330
1F
100
AcDbEntity
  8
SPOJOVACÍ
100
AcDbCircle
 10
-2765.424641680708
 20
-300.9111515606405
 30
0.0
 40
0.94921875
100
AcDbArc
 50
180.0
 51
270.0
  0
ARC
  5
5F56
330
1F
100
AcDbEntity
  8
SPOJOVACÍ
100
AcDbCircle
 10
-2765.424641680708
 20
-299.9619328106405
 30
0.0
 40
0.94921875
100
AcDbArc
 50
90.0
 51
180.0
  0
LINE
  5
5F57
330
1F
100
AcDbEntity
  8
SPOJOVACÍ
100
AcDbLine
 10
-2760.029053132767
 20
-303.7588078106405
 30
0.0
 11
-2761.715872991242
 21
-303.7588078106405
 31
0.0
  0
LINE
  5
5F58
330
1F
100
AcDbEntity
  8
SPOJOVACÍ
100
AcDbLine
 10
-2760.899596662719
 20
-301.8603703106405
 30
0.0
 11
-2760.904342756469
 21
-301.8603703106405
 31
0.0
  0
LINE
  5
5F59
330
1F
100
AcDbEntity
  8
SPOJOVACÍ
100
AcDbLine
 10
-2760.029053132767
 20
-303.7588078106405
 30
0.0
 11
-2760.029053132767
 21
-296.6396671856405
 31
0.0
  0
LINE
  5
5F5A
330
1F
100
AcDbEntity
  8
SPOJOVACÍ
100
AcDbLine
 10
-2761.715872991242
 20
-296.6396671856405
 30
0.0
 11
-2761.715872991242
 21
-303.7588078106405
 31
0.0
  0
HATCH
  5
5F5B
330
1F
100
AcDbEntity
  8
SPOJOVACÍ
100
AcDbHatch
 10
0.0
 20
0.0
 30
0.0
210
0.0
220
0.0
230
1.0
  2
ANSI37
 70
     0
 71
     0
 91
        1
 92
        7
 72
     0
 73
     1
 93
        6
 10
-2760.029053132767
 20
-303.7588078106405
 10
-2761.715872991242
 20
-303.7588078106405
 10
-2761.715872991242
 20
-296.6396671856405
 10
-2761.715872991242
 20
-289.5205265606405
 10
-2760.029053132767
 20
-289.5205265606405
 10
-2760.029053132767
 20
-296.6396671856405
 97
        0
 75
     0
 76
     1
 52
0.0
 41
0.9
 77
     0
 78
     2
 53
315.0
 43
-3093.300828346729
 44
154.2542632494767
 45
-2.020557627240559
 46
-2.020557627240559
 79
     0
 53
225.0
 43
-3093.300828346729
 44
154.2542632494767
 45
-2.020557627240559
 46
2.020557627240559
 79
     0
 47
0.1350114543121608
 98
        1
 10
-2761.117142625113
 20
-296.667033203445
  0
LINE
  5
5F5C
330
1F
100
AcDbEntity
  8
SPOJOVACÍ
100
AcDbLine
 10
-2737.372364308264
 20
-293.7976969567398
 30
0.0
 11
-2735.849357052773
 21
-299.4816374145407
 31
0.0
  0
LINE
  5
5F5D
330
1F
100
AcDbEntity
  8
SPOJOVACÍ
100
AcDbLine
 10
-2731.262063359908
 20
-293.7976969567398
 30
0.0
 11
-2760.029053132767
 21
-293.7976969567398
 31
0.0
  0
LINE
  5
5F5E
330
1F
100
AcDbEntity
  8
SPOJOVACÍ
100
AcDbLine
 10
-2731.262063359908
 20
-299.4816374145407
 30
0.0
 11
-2760.029053132767
 21
-299.4816374145407
 31
0.0
  0
LINE
  5
5F5F
330
1F
100
AcDbEntity
  8
NOSNÉ KONSTRUKCE
100
AcDbLine
 10
-2694.530635490497
 20
-239.138265277086
 30
0.0
 11
-2694.530635490494
 21
-377.5540454430063
 31
0.0
  0
LINE
  5
5F60
330
1F
100
AcDbEntity
  8
NOSNÉ KONSTRUKCE
100
AcDbLine
 10
-2739.324819171125
 20
-237.6549723316727
 30
0.0
 11
-2739.324819171121
 21
-365.2912144267336
 31
0.0
  0
LINE
  5
5F61
330
1F
100
AcDbEntity
  8
NOSNÉ KONSTRUKCE
100
AcDbLine
 10
-2744.530635490505
 20
-237.5602940585611
 30
0.0
 11
-2744.530635490505
 21
-365.2912144267336
 31
0.0
  0
LINE
  5
5F62
330
1F
100
AcDbEntity
  8
CETRIS
100
AcDbLine
 10
-2759.472338530454
 20
-237.0350060645066
 30
0.0
 11
-2759.472338530454
 21
-343.2912144267336
 31
0.0
  0
SOLID
  5
5F63
330
1F
100
AcDbEntity
  8
CETRIS
100
AcDbTrace
 10
-2759.472338530454
 20
-348.2912144267336
 30
0.0
 11
-2747.472338530446
 21
-348.2912144267336
 31
0.0
 12
-2759.26839029717
 22
-237.0433389282025
 32
0.0
 13
-2747.472338530461
 23
-237.525298933124
 33
0.0
  0
LINE
  5
5F64
330
1F
100
AcDbEntity
  8
CETRIS
100
AcDbLine
 10
-2759.472338530454
 20
-144.2719033189603
 30
0.0
 11
-2759.472338530454
 21
-237.0350060645066
 31
0.0
  0
SOLID
  5
5F65
330
1F
100
AcDbEntity
  8
CETRIS
100
AcDbTrace
 10
-2759.472338530454
 20
-237.0350060645066
 30
0.0
 11
-2747.472338530461
 21
-237.525298933124
 31
0.0
 12
-2759.472338530454
 22
-144.2719033189603
 32
0.0
 13
-2747.472338530461
 23
-142.9148461418719
 33
0.0
  0
LINE
  5
5F66
330
1F
100
AcDbEntity
  8
NOSNÉ KONSTRUKCE
100
AcDbLine
 10
-2744.530635490505
 20
-142.7894467641249
 30
0.0
 11
-2744.530635490505
 21
-237.5602940585611
 31
0.0
  0
LINE
  5
5F67
330
1F
100
AcDbEntity
  8
NOSNÉ KONSTRUKCE
100
AcDbLine
 10
-2739.324819171125
 20
-142.2007308975569
 30
0.0
 11
-2739.324819171121
 21
-237.7245866249793
 31
0.0
  0
LINE
  5
5F68
330
1F
100
AcDbEntity
  8
NOSNÉ KONSTRUKCE
100
AcDbLine
 10
-2694.530635490497
 20
-137.1350418595884
 30
0.0
 11
-2694.530635490494
 21
-239.138265277086
 31
0.0
  0
CIRCLE
  5
5F69
330
1F
100
AcDbEntity
  8
NOSNÉ KONSTRUKCE
100
AcDbCircle
 10
-2718.494537366329
 20
-318.506176423006
 30
0.0
 40
5.0
  0
CIRCLE
  5
5F6A
330
1F
100
AcDbEntity
  8
NOSNÉ KONSTRUKCE
100
AcDbCircle
 10
-2718.494537366329
 20
-638.765317245756
 30
0.0
 40
5.0
  0
CIRCLE
  5
5F6B
330
1F
100
AcDbEntity
  8
NOSNÉ KONSTRUKCE
100
AcDbCircle
 10
-2718.494537366329
 20
-604.2187197083424
 30
0.0
 40
5.0
  0
LINE
  5
5F6C
330
1F
100
AcDbEntity
  8
NOSNÉ KONSTRUKCE
100
AcDbLine
 10
-2694.530635490497
 20
-678.1581343807743
 30
0.0
 11
-2694.530635490494
 21
-467.4441635763812
 31
0.0
  0
LINE
  5
5F6D
330
1F
100
AcDbEntity
  8
NOSNÉ KONSTRUKCE
100
AcDbLine
 10
-2739.324819171125
 20
-683.2238234187425
 30
0.0
 11
-2739.324819171121
 21
-468.8578422284879
 31
0.0
  0
LINE
  5
5F6E
330
1F
100
AcDbEntity
  8
NOSNÉ KONSTRUKCE
100
AcDbLine
 10
-2744.530635490505
 20
-683.8125392853108
 30
0.0
 11
-2744.530635490505
 21
-469.0221347949061
 31
0.0
  0
SOLID
  5
5F6F
330
1F
100
AcDbEntity
  8
CETRIS
100
AcDbTrace
 10
-2759.472338530454
 20
-469.5474227889605
 30
0.0
 11
-2747.472338530461
 21
-469.0571299203432
 31
0.0
 12
-2759.472338530454
 22
-685.2949958401455
 32
0.0
 13
-2747.472338530458
 23
-683.9379386630572
 33
0.0
  0
LINE
  5
5F70
330
1F
100
AcDbEntity
  8
CETRIS
100
AcDbLine
 10
-2759.472338530454
 20
-685.2949958401455
 30
0.0
 11
-2759.472338530454
 21
-469.5474227889605
 31
0.0
  0
LINE
  5
5F71
330
1F
100
AcDbEntity
  8
STAVBA OBRYS
100
AcDbLine
 10
-2605.530635490505
 20
-668.0932936507011
 30
0.0
 11
-2605.530635490501
 21
-464.6353748074073
 31
0.0
  0
LINE
  5
5F72
330
1F
100
AcDbEntity
  8
STAVBA OBRYS
  6
IZOLACE
 48
4.0
100
AcDbLine
 10
-2648.448436145649
 20
-672.9467861010277
 30
0.0
 11
-2648.448436145635
 21
-131.923693579841
 31
0.0
  0
LINE
  5
5F73
330
1F
100
AcDbEntity
  8
STAVBA OBRYS
100
AcDbLine
 10
-2607.160599110256
 20
-668.2776231364162
 30
0.0
 11
-2607.160599110256
 21
-464.6868155209915
 31
0.0
  0
LINE
  5
5F74
330
1F
100
AcDbEntity
  8
STAVBA OBRYS
100
AcDbLine
 10
-2689.202048422253
 20
-677.5555346037155
 30
0.0
 11
-2689.202048422249
 21
-467.2759964357994
 31
0.0
  0
SOLID
  5
5F75
330
1F
100
AcDbEntity
  8
CETRIS
100
AcDbTrace
 10
-2759.472338530454
 20
-358.2912144267336
 30
0.0
 11
-2747.472338530446
 21
-358.2912144267336
 31
0.0
 12
-2759.472338530454
 22
-469.5474227889605
 32
0.0
 13
-2747.472338530461
 23
-469.0571299203432
 33
0.0
  0
LINE
  5
5F76
330
1F
100
AcDbEntity
  8
CETRIS
100
AcDbLine
 10
-2759.472338530454
 20
-469.5474227889605
 30
0.0
 11
-2759.472338530454
 21
-363.2912144267336
 31
0.0
  0
LINE
  5
5F77
330
1F
100
AcDbEntity
  8
NOSNÉ KONSTRUKCE
100
AcDbLine
 10
-2744.530635490505
 20
-469.0221347949061
 30
0.0
 11
-2744.530635490505
 21
-365.2912144267336
 31
0.0
  0
LINE
  5
5F78
330
1F
100
AcDbEntity
  8
NOSNÉ KONSTRUKCE
100
AcDbLine
 10
-2739.324819171125
 20
-468.9274565217945
 30
0.0
 11
-2739.324819171121
 21
-365.2912144267336
 31
0.0
  0
LINE
  5
5F79
330
1F
100
AcDbEntity
  8
NOSNÉ KONSTRUKCE
100
AcDbLine
 10
-2694.530635490497
 20
-467.4441635763812
 30
0.0
 11
-2694.530635490494
 21
-377.5540454430063
 31
0.0
  0
LINE
  5
5F7A
330
1F
100
AcDbEntity
  8
STAVBA OBRYS
100
AcDbLine
 10
-2689.202048422253
 20
-467.2759964357994
 30
0.0
 11
-2689.202048422245
 21
-136.532442082529
 31
0.0
  0
LINE
  5
5F7B
330
1F
100
AcDbEntity
  8
STAVBA OBRYS
100
AcDbLine
 10
-2605.530635490505
 20
-464.6353748074073
 30
0.0
 11
-2605.530635490497
 21
-127.0702011295152
 31
0.0
  0
LINE
  5
5F7C
330
1F
100
AcDbEntity
  8
SPOJOVACÍ
100
AcDbLine
 10
-2731.262063359908
 20
-407.1007914389265
 30
0.0
 11
-2760.029053132767
 21
-407.1007914389265
 31
0.0
  0
LINE
  5
5F7D
330
1F
100
AcDbEntity
  8
SPOJOVACÍ
100
AcDbLine
 10
-2731.262063359908
 20
-412.7847318967273
 30
0.0
 11
-2760.029053132767
 21
-412.7847318967273
 31
0.0
  0
LINE
  5
5F7E
330
1F
100
AcDbEntity
  8
SPOJOVACÍ
100
AcDbLine
 10
-2737.372364308264
 20
-412.7847318967273
 30
0.0
 11
-2735.849357052773
 21
-407.1007914389265
 31
0.0
  0
HATCH
  5
5F7F
330
1F
100
AcDbEntity
  8
SPOJOVACÍ
100
AcDbHatch
 10
0.0
 20
0.0
 30
0.0
210
0.0
220
0.0
230
1.0
  2
ANSI37
 70
     0
 71
     0
 91
        1
 92
        7
 72
     0
 73
     1
 93
        6
 10
-2760.029053132767
 20
-402.8236210428267
 10
-2761.715872991242
 20
-402.8236210428267
 10
-2761.715872991242
 20
-409.9427616678267
 10
-2761.715872991242
 20
-417.0619022928267
 10
-2760.029053132767
 20
-417.0619022928267
 10
-2760.029053132767
 20
-409.9427616678267
 97
        0
 75
     0
 76
     1
 52
0.0
 41
0.9
 77
     0
 78
     2
 53
45.0
 43
-3093.300828346729
 44
-860.8366921029439
 45
-2.020557627240559
 46
2.020557627240559
 79
     0
 53
135.0
 43
-3093.300828346729
 44
-860.8366921029439
 45
-2.020557627240559
 46
-2.020557627240559
 79
     0
 47
0.1350114543121608
 98
        1
 10
-2761.117142625113
 20
-409.9153956500222
  0
LINE
  5
5F80
330
1F
100
AcDbEntity
  8
SPOJOVACÍ
100
AcDbLine
 10
-2761.715872991242
 20
-409.9427616678267
 30
0.0
 11
-2761.715872991242
 21
-402.8236210428267
 31
0.0
  0
LINE
  5
5F81
330
1F
100
AcDbEntity
  8
SPOJOVACÍ
100
AcDbLine
 10
-2760.029053132767
 20
-402.8236210428267
 30
0.0
 11
-2760.029053132767
 21
-409.9427616678267
 31
0.0
  0
LINE
  5
5F82
330
1F
100
AcDbEntity
  8
SPOJOVACÍ
100
AcDbLine
 10
-2760.899596662719
 20
-404.7220585428267
 30
0.0
 11
-2760.904342756469
 21
-404.7220585428267
 31
0.0
  0
LINE
  5
5F83
330
1F
100
AcDbEntity
  8
SPOJOVACÍ
100
AcDbLine
 10
-2760.029053132767
 20
-402.8236210428267
 30
0.0
 11
-2761.715872991242
 21
-402.8236210428267
 31
0.0
  0
ARC
  5
5F84
330
1F
100
AcDbEntity
  8
SPOJOVACÍ
100
AcDbCircle
 10
-2765.424641680708
 20
-406.6204960428267
 30
0.0
 40
0.94921875
100
AcDbArc
 50
180.0
 51
270.0
  0
ARC
  5
5F85
330
1F
100
AcDbEntity
  8
SPOJOVACÍ
100
AcDbCircle
 10
-2765.424641680708
 20
-405.6712772928267
 30
0.0
 40
0.94921875
100
AcDbArc
 50
90.0
 51
180.0
  0
LINE
  5
5F86
330
1F
100
AcDbEntity
  8
SPOJOVACÍ
100
AcDbLine
 10
-2761.715872991242
 20
-407.5697147928267
 30
0.0
 11
-2765.424641680708
 21
-407.5697147928267
 31
0.0
  0
LINE
  5
5F87
330
1F
100
AcDbEntity
  8
SPOJOVACÍ
100
AcDbLine
 10
-2761.715872991242
 20
-404.7220585428267
 30
0.0
 11
-2765.424641680708
 21
-404.7220585428267
 31
0.0
  0
LINE
  5
5F88
330
1F
100
AcDbEntity
  8
SPOJOVACÍ
100
AcDbLine
 10
-2761.715872991242
 20
-417.0619022928267
 30
0.0
 11
-2760.029053132767
 21
-417.0619022928267
 31
0.0
  0
ARC
  5
5F89
330
1F
100
AcDbEntity
  8
SPOJOVACÍ
100
AcDbCircle
 10
-2765.424641680708
 20
-414.2142460428267
 30
0.0
 40
0.94921875
100
AcDbArc
 50
180.0
 51
270.0
  0
ARC
  5
5F8A
330
1F
100
AcDbEntity
  8
SPOJOVACÍ
100
AcDbCircle
 10
-2765.424641680708
 20
-413.2650272928267
 30
0.0
 40
0.94921875
100
AcDbArc
 50
90.0
 51
180.0
  0
LINE
  5
5F8B
330
1F
100
AcDbEntity
  8
SPOJOVACÍ
100
AcDbLine
 10
-2765.424641680708
 20
-415.1634647928267
 30
0.0
 11
-2761.715872991242
 21
-415.1634647928267
 31
0.0
  0
LINE
  5
5F8C
330
1F
100
AcDbEntity
  8
SPOJOVACÍ
100
AcDbLine
 10
-2761.715872991242
 20
-412.3158085428267
 30
0.0
 11
-2765.424641680708
 21
-412.3158085428267
 31
0.0
  0
LINE
  5
5F8D
330
1F
100
AcDbEntity
  8
SPOJOVACÍ
100
AcDbLine
 10
-2761.715872991242
 20
-406.106793490763
 30
0.0
 11
-2761.715872991242
 21
-417.0619022928267
 31
0.0
  0
LINE
  5
5F8E
330
1F
100
AcDbEntity
  8
SPOJOVACÍ
100
AcDbLine
 10
-2766.373860430708
 20
-405.6712772928267
 30
0.0
 11
-2766.373860430708
 21
-414.2142460428267
 31
0.0
  0
ARC
  5
5F8F
330
1F
100
AcDbEntity
  8
SPOJOVACÍ
100
AcDbCircle
 10
-2762.999921516498
 20
-409.9427616678267
 30
0.0
 40
3.392730367372068
100
AcDbArc
 50
135.6170676673795
 51
224.3829323326204
  0
LINE
  5
5F90
330
1F
100
AcDbEntity
  8
SPOJOVACÍ
100
AcDbLine
 10
-2760.029053132767
 20
-409.9427616678267
 30
0.0
 11
-2760.029053132767
 21
-417.0619022928267
 31
0.0
  0
LINE
  5
5F91
330
1F
100
AcDbEntity
  8
SPOJOVACÍ
100
AcDbLine
 10
-2743.700489308264
 20
-412.7847318967273
 30
0.0
 11
-2742.177482052772
 21
-407.1007914389265
 31
0.0
  0
LINE
  5
5F92
330
1F
100
AcDbEntity
  8
SPOJOVACÍ
100
AcDbLine
 10
-2742.118458058264
 20
-412.7847318967273
 30
0.0
 11
-2740.595450802772
 21
-407.1007914389265
 31
0.0
  0
LINE
  5
5F93
330
1F
100
AcDbEntity
  8
SPOJOVACÍ
100
AcDbLine
 10
-2740.536426808271
 20
-412.7847318967273
 30
0.0
 11
-2739.013419552772
 21
-407.1007914389265
 31
0.0
  0
LINE
  5
5F94
330
1F
100
AcDbEntity
  8
SPOJOVACÍ
100
AcDbLine
 10
-2738.954395558264
 20
-412.7847318967273
 30
0.0
 11
-2737.431388302772
 21
-407.1007914389265
 31
0.0
  0
LINE
  5
5F95
330
1F
100
AcDbEntity
  8
SPOJOVACÍ
100
AcDbLine
 10
-2750.028614308264
 20
-412.7847318967273
 30
0.0
 11
-2748.505607052772
 21
-407.1007914389265
 31
0.0
  0
LINE
  5
5F96
330
1F
100
AcDbEntity
  8
SPOJOVACÍ
100
AcDbLine
 10
-2748.446583058264
 20
-412.7847318967273
 30
0.0
 11
-2746.923575802772
 21
-407.1007914389265
 31
0.0
  0
LINE
  5
5F97
330
1F
100
AcDbEntity
  8
SPOJOVACÍ
100
AcDbLine
 10
-2746.864551808263
 20
-412.7847318967273
 30
0.0
 11
-2745.341544552772
 21
-407.1007914389265
 31
0.0
  0
LINE
  5
5F98
330
1F
100
AcDbEntity
  8
SPOJOVACÍ
100
AcDbLine
 10
-2754.774708058263
 20
-412.7847318967273
 30
0.0
 11
-2753.251700802772
 21
-407.1007914389265
 31
0.0
  0
LINE
  5
5F99
330
1F
100
AcDbEntity
  8
SPOJOVACÍ
100
AcDbLine
 10
-2753.192676808264
 20
-412.7847318967273
 30
0.0
 11
-2751.669669552772
 21
-407.1007914389265
 31
0.0
  0
LINE
  5
5F9A
330
1F
100
AcDbEntity
  8
SPOJOVACÍ
100
AcDbLine
 10
-2751.610645558264
 20
-412.7847318967273
 30
0.0
 11
-2750.087638302773
 21
-407.1007914389265
 31
0.0
  0
LINE
  5
5F9B
330
1F
100
AcDbEntity
  8
SPOJOVACÍ
100
AcDbLine
 10
-2757.938770558264
 20
-412.7847318967273
 30
0.0
 11
-2756.415763302772
 21
-407.1007914389265
 31
0.0
  0
LINE
  5
5F9C
330
1F
100
AcDbEntity
  8
SPOJOVACÍ
100
AcDbLine
 10
-2756.356739308264
 20
-412.7847318967273
 30
0.0
 11
-2754.833732052772
 21
-407.1007914389265
 31
0.0
  0
LINE
  5
5F9D
330
1F
100
AcDbEntity
  8
SPOJOVACÍ
100
AcDbLine
 10
-2745.282520558264
 20
-412.7847318967273
 30
0.0
 11
-2743.759513302773
 21
-407.1007914389265
 31
0.0
  0
LINE
  5
5F9E
330
1F
100
AcDbEntity
  8
SPOJOVACÍ
100
AcDbLine
 10
-2729.072470437303
 20
-409.9427616678267
 30
0.0
 11
-2731.262063359908
 21
-407.1007914389265
 31
0.0
  0
LINE
  5
5F9F
330
1F
100
AcDbEntity
  8
SPOJOVACÍ
100
AcDbLine
 10
-2729.072470437303
 20
-409.9427616678267
 30
0.0
 11
-2731.262063359908
 21
-412.7847318967273
 31
0.0
  0
LINE
  5
5FA0
330
1F
100
AcDbEntity
  8
SPOJOVACÍ
100
AcDbLine
 10
-2731.044239308264
 20
-412.7847318967273
 30
0.0
 11
-2729.97043774058
 21
-408.7772498888618
 31
0.0
  0
LINE
  5
5FA1
330
1F
100
AcDbEntity
  8
SPOJOVACÍ
100
AcDbLine
 10
-2734.208301808264
 20
-412.7847318967273
 30
0.0
 11
-2732.685294552772
 21
-407.1007914389265
 31
0.0
  0
LINE
  5
5FA2
330
1F
100
AcDbEntity
  8
SPOJOVACÍ
100
AcDbLine
 10
-2735.790333058264
 20
-412.7847318967273
 30
0.0
 11
-2734.267325802772
 21
-407.1007914389265
 31
0.0
  0
LINE
  5
5FA3
330
1F
100
AcDbEntity
  8
SPOJOVACÍ
100
AcDbLine
 10
-2732.626270558268
 20
-412.7847318967273
 30
0.0
 11
-2731.103263302772
 21
-407.1007914389265
 31
0.0
  0
LINE
  5
5FA4
330
1F
100
AcDbEntity
  8
NOSNÉ KONSTRUKCE
100
AcDbLine
 10
-2708.030635490516
 20
-444.6660910174784
 30
0.0
 11
-2605.530635490509
 21
-444.6660910174839
 31
0.0
  0
LINE
  5
5FA5
330
1F
100
AcDbEntity
  8
NOSNÉ KONSTRUKCE
100
AcDbLine
 10
-2708.030635490519
 20
-495.4528183565487
 30
0.0
 11
-2605.530635490505
 21
-495.4528183565551
 31
0.0
  0
LINE
  5
5FA6
330
1F
100
AcDbEntity
  8
NOSNÉ KONSTRUKCE
100
AcDbLine
 10
-2708.030635490516
 20
-484.6660910174803
 30
0.0
 11
-2708.030635490516
 21
-475.2498619618034
 31
0.0
  0
LINE
  5
5FA7
330
1F
100
AcDbEntity
  8
NOSNÉ KONSTRUKCE
100
AcDbLine
 10
-2708.030635490519
 20
-495.4528183565487
 30
0.0
 11
-2708.030635490519
 21
-475.2498619618034
 31
0.0
  0
LWPOLYLINE
  5
5FA8
330
1F
100
AcDbEntity
  8
NOSNÉ KONSTRUKCE
100
AcDbPolyline
 90
        2
 70
     0
 43
0.0
 10
-2708.030635490519
 20
-442.2912457938987
 10
-2708.030635490519
 20
-464.8690474122238
  0
LINE
  5
5FA9
330
1F
100
AcDbEntity
  8
SPOJOVACÍ
100
AcDbLine
 10
-2614.754448686593
 20
-459.7469546870172
 30
0.0
 11
-2619.441948686592
 21
-459.7469546870172
 31
0.0
  0
LINE
  5
5FAA
330
1F
100
AcDbEntity
  8
SPOJOVACÍ
100
AcDbLine
 10
-2614.754448686593
 20
-459.7469546870172
 30
0.0
 11
-2614.76382368659
 21
-459.7469546870172
 31
0.0
  0
LINE
  5
5FAB
330
1F
100
AcDbEntity
  8
SPOJOVACÍ
100
AcDbLine
 10
-2611.896557191489
 20
-455.9969546870172
 30
0.0
 11
-2614.754448686593
 21
-455.9969546870172
 31
0.0
  0
LINE
  5
5FAC
330
1F
100
AcDbEntity
  8
SPOJOVACÍ
100
AcDbLine
 10
-2609.231545673451
 20
-470.3484812433991
 30
0.0
 11
-2609.075579710509
 21
-469.7664083454535
 31
0.0
  0
LINE
  5
5FAD
330
1F
100
AcDbEntity
  8
SPOJOVACÍ
100
AcDbLine
 10
-2607.409819504989
 20
-470.5473018894288
 30
0.0
 11
-2607.165288969133
 21
-469.6347015056046
 31
0.0
  0
LINE
  5
5FAE
330
1F
100
AcDbEntity
  8
SPOJOVACÍ
100
AcDbLine
 10
-2614.754448686593
 20
-484.1219546870172
 30
0.0
 11
-2611.896557191489
 21
-484.1219546870172
 31
0.0
  0
LINE
  5
5FAF
330
1F
100
AcDbEntity
  8
SPOJOVACÍ
100
AcDbLine
 10
-2619.441948686592
 20
-480.3719546870172
 30
0.0
 11
-2614.754448686593
 21
-480.3719546870172
 31
0.0
  0
LINE
  5
5FB0
330
1F
100
AcDbEntity
  8
SPOJOVACÍ
100
AcDbLine
 10
-2614.754448686593
 20
-474.7469546870172
 30
0.0
 11
-2619.441948686592
 21
-474.7469546870172
 31
0.0
  0
ARC
  5
5FB1
330
1F
100
AcDbEntity
  8
SPOJOVACÍ
100
AcDbCircle
 10
-2619.441948686592
 20
-476.6219546870172
 30
0.0
 40
1.875
100
AcDbArc
 50
90.0
 51
180.0
  0
ARC
  5
5FB2
330
1F
100
AcDbEntity
  8
SPOJOVACÍ
100
AcDbCircle
 10
-2619.441948686592
 20
-478.4969546870172
 30
0.0
 40
1.875
100
AcDbArc
 50
180.0
 51
270.0
  0
LINE
  5
5FB3
330
1F
100
AcDbEntity
  8
SPOJOVACÍ
100
AcDbLine
 10
-2614.754448686593
 20
-465.3719546870172
 30
0.0
 11
-2619.441948686592
 21
-465.3719546870172
 31
0.0
  0
ARC
  5
5FB4
330
1F
100
AcDbEntity
  8
SPOJOVACÍ
100
AcDbCircle
 10
-2619.441948686592
 20
-463.4969546870173
 30
0.0
 40
1.875
100
AcDbArc
 50
180.0
 51
270.0
  0
LINE
  5
5FB5
330
1F
100
AcDbEntity
  8
SPOJOVACÍ
100
AcDbLine
 10
-2621.316948686592
 20
-461.6219546870172
 30
0.0
 11
-2621.316948686592
 21
-478.4969546870172
 31
0.0
  0
ARC
  5
5FB6
330
1F
100
AcDbEntity
  8
SPOJOVACÍ
100
AcDbCircle
 10
-2614.65237799185
 20
-470.0594546870172
 30
0.0
 40
6.701689614562111
100
AcDbArc
 50
135.6170676673795
 51
224.3829323326204
  0
LINE
  5
5FB7
330
1F
100
AcDbEntity
  8
SPOJOVACÍ
100
AcDbLine
 10
-2611.896557191489
 20
-470.0594546870172
 30
0.0
 11
-2611.896557191489
 21
-484.1219546870172
 31
0.0
  0
LINE
  5
5FB8
330
1F
100
AcDbEntity
  8
SPOJOVACÍ
100
AcDbLine
 10
-2614.754448686593
 20
-462.4822335965202
 30
0.0
 11
-2614.754448686593
 21
-484.1219546870172
 31
0.0
  0
LINE
  5
5FB9
330
1F
100
AcDbEntity
  8
SPOJOVACÍ
100
AcDbLine
 10
-2611.896557191489
 20
-470.0594546870172
 30
0.0
 11
-2611.896557191489
 21
-484.1219546870172
 31
0.0
  0
ARC
  5
5FBA
330
1F
100
AcDbEntity
  8
SPOJOVACÍ
100
AcDbCircle
 10
-2619.441948686592
 20
-461.6219546870172
 30
0.0
 40
1.875
100
AcDbArc
 50
90.0
 51
180.0
  0
LINE
  5
5FBB
330
1F
100
AcDbEntity
  8
SPOJOVACÍ
100
AcDbLine
 10
-2614.76382368659
 20
-459.7469546870172
 30
0.0
 11
-2614.76382368659
 21
-480.3719546870172
 31
0.0
  0
LINE
  5
5FBC
330
1F
100
AcDbEntity
  8
SPOJOVACÍ
100
AcDbLine
 10
-2611.896557191489
 20
-455.9969546870172
 30
0.0
 11
-2611.896557191489
 21
-470.0594546870172
 31
0.0
  0
LINE
  5
5FBD
330
1F
100
AcDbEntity
  8
SPOJOVACÍ
100
AcDbLine
 10
-2611.896557191489
 20
-455.9969546870172
 30
0.0
 11
-2611.896557191489
 21
-470.0594546870172
 31
0.0
  0
LINE
  5
5FBE
330
1F
100
AcDbEntity
  8
SPOJOVACÍ
100
AcDbLine
 10
-2614.754448686593
 20
-470.0594546870172
 30
0.0
 11
-2614.754448686593
 21
-455.9969546870172
 31
0.0
  0
LINE
  5
5FBF
330
1F
100
AcDbEntity
  8
SPOJOVACÍ
100
AcDbLine
 10
-2605.585604793
 20
-470.7368351645534
 30
0.0
 11
-2605.176448499159
 21
-469.2098430876938
 31
0.0
  0
LINE
  5
5FC0
330
1F
100
AcDbEntity
  8
SPOJOVACÍ
100
AcDbLine
 10
-2603.758895353291
 20
-470.917057989099
 30
0.0
 11
-2603.251231780197
 21
-469.0224317411536
 31
0.0
  0
LINE
  5
5FC1
330
1F
100
AcDbEntity
  8
SPOJOVACÍ
100
AcDbLine
 10
-2601.929684773939
 20
-471.0879464333909
 30
0.0
 11
-2601.328929213458
 21
-468.8458961587405
 31
0.0
  0
LINE
  5
5FC2
330
1F
100
AcDbEntity
  8
SPOJOVACÍ
100
AcDbLine
 10
-2600.097966412483
 20
-471.2494757074789
 30
0.0
 11
-2599.409523258016
 21
-468.6801708768837
 31
0.0
  0
LINE
  5
5FC3
330
1F
100
AcDbEntity
  8
SPOJOVACÍ
100
AcDbLine
 10
-2598.263733393106
 20
-471.401620150433
 30
0.0
 11
-2597.492996803827
 21
-468.5251920399876
 31
0.0
  0
LINE
  5
5FC4
330
1F
100
AcDbEntity
  8
SPOJOVACÍ
100
AcDbLine
 10
-2594.587694692339
 20
-471.6776474769674
 30
0.0
 11
-2593.668516053924
 21
-468.247226097166
 31
0.0
  0
LINE
  5
5FC5
330
1F
100
AcDbEntity
  8
SPOJOVACÍ
100
AcDbLine
 10
-2592.745874064917
 20
-471.8014745811927
 30
0.0
 11
-2591.760529604639
 21
-468.1241189924683
 31
0.0
  0
LINE
  5
5FC6
330
1F
100
AcDbEntity
  8
SPOJOVACÍ
100
AcDbLine
 10
-2596.42697860361
 20
-471.5443532191891
 30
0.0
 11
-2595.579333161739
 21
-468.3808973633074
 31
0.0
  0
LINE
  5
5FC7
330
1F
100
AcDbEntity
  8
SPOJOVACÍ
100
AcDbLine
 10
-2589.054591050332
 20
-472.0206093540234
 30
0.0
 11
-2587.952987135894
 21
-467.9093675755241
 31
0.0
  0
LINE
  5
5FC8
330
1F
100
AcDbEntity
  8
SPOJOVACÍ
100
AcDbLine
 10
-2587.205112229997
 20
-472.115855693203
 30
0.0
 11
-2586.053401296704
 21
-467.8176119745087
 31
0.0
  0
LINE
  5
5FC9
330
1F
100
AcDbEntity
  8
SPOJOVACÍ
100
AcDbLine
 10
-2585.353063819781
 20
-472.2015121923875
 30
0.0
 11
-2584.156586460283
 21
-467.7361978966398
 31
0.0
  0
LINE
  5
5FCA
330
1F
100
AcDbEntity
  8
SPOJOVACÍ
100
AcDbLine
 10
-2583.49843695869
 20
-472.2775457819068
 30
0.0
 11
-2582.262528633783
 21
-467.6650731198594
 31
0.0
  0
LINE
  5
5FCB
330
1F
100
AcDbEntity
  8
SPOJOVACÍ
100
AcDbLine
 10
-2590.901508880911
 20
-471.9158052709651
 30
0.0
 11
-2589.855358331297
 21
-468.0115182674346
 31
0.0
  0
LINE
  5
5FCC
330
1F
100
AcDbEntity
  8
SPOJOVACÍ
100
AcDbLine
 10
-2560.978063819781
 20
-472.2015121923875
 30
0.0
 11
-2559.744249779055
 21
-467.5968555053184
 31
0.0
  0
LINE
  5
5FCD
330
1F
100
AcDbEntity
  8
SPOJOVACÍ
100
AcDbLine
 10
-2562.924555379462
 20
-472.4683223254198
 30
0.0
 11
-2561.60619309155
 21
-467.5481272841572
 31
0.0
  0
LINE
  5
5FCE
330
1F
100
AcDbEntity
  8
SPOJOVACÍ
100
AcDbLine
 10
-2564.808209015148
 20
-472.5006181334795
 30
0.0
 11
-2563.470751161353
 21
-467.5091574701389
 31
0.0
  0
LINE
  5
5FCF
330
1F
100
AcDbEntity
  8
SPOJOVACÍ
100
AcDbLine
 10
-2566.689168235833
 20
-472.5228582478523
 30
0.0
 11
-2565.337934166004
 21
-467.4799840463263
 31
0.0
  0
LINE
  5
5FD0
330
1F
100
AcDbEntity
  8
SPOJOVACÍ
100
AcDbLine
 10
-2568.567445075962
 20
-472.5350875816945
 30
0.0
 11
-2567.207752569732
 21
-467.4606460657689
 31
0.0
  0
LINE
  5
5FD1
330
1F
100
AcDbEntity
  8
SPOJOVACÍ
100
AcDbLine
 10
-2570.443051255207
 20
-472.5373498734468
 30
0.0
 11
-2569.080217128482
 21
-467.4511836702147
 31
0.0
  0
LINE
  5
5FD2
330
1F
100
AcDbEntity
  8
SPOJOVACÍ
100
AcDbLine
 10
-2572.315998184321
 20
-472.5296877085914
 30
0.0
 11
-2570.955338895129
 21
-467.4516381095288
 31
0.0
  0
LINE
  5
5FD3
330
1F
100
AcDbEntity
  8
SPOJOVACÍ
100
AcDbLine
 10
-2581.641222520812
 20
-472.3439224033934
 30
0.0
 11
-2580.371214177482
 21
-467.6041867400447
 31
0.0
  0
LINE
  5
5FD4
330
1F
100
AcDbEntity
  8
SPOJOVACÍ
100
AcDbLine
 10
-2579.811296970737
 20
-472.5121425406412
 30
0.0
 11
-2578.482629797626
 21
-467.5534891442214
 31
0.0
  0
LINE
  5
5FD5
330
1F
100
AcDbEntity
  8
SPOJOVACÍ
100
AcDbLine
 10
-2577.918993061031
 20
-472.4475634704378
 30
0.0
 11
-2576.596762539485
 21
-467.5129319847217
 31
0.0
  0
LINE
  5
5FD6
330
1F
100
AcDbEntity
  8
SPOJOVACÍ
100
AcDbLine
 10
-2576.061296970737
 20
-472.5121425406412
 30
0.0
 11
-2574.713599780713
 21
-467.4824681542457
 31
0.0
  0
LINE
  5
5FD7
330
1F
100
AcDbEntity
  8
SPOJOVACÍ
100
AcDbLine
 10
-2574.186296970737
 20
-472.5121425406412
 30
0.0
 11
-2572.833129224848
 21
-467.4620517618102
 31
0.0
  0
LINE
  5
5FD8
330
1F
100
AcDbEntity
  8
SPOJOVACÍ
100
AcDbLine
 10
-2573.888733393106
 20
-471.401620150433
 30
0.0
 11
-2573.250335418999
 21
-469.0190864756125
 31
0.0
  0
LINE
  5
5FD9
330
1F
100
AcDbEntity
  8
SPOJOVACÍ
100
AcDbLine
 10
-2575.722966412483
 20
-471.2494757074789
 30
0.0
 11
-2575.15679658128
 21
-469.1365011317109
 31
0.0
  0
LINE
  5
5FDA
330
1F
100
AcDbEntity
  8
SPOJOVACÍ
100
AcDbLine
 10
-2577.554684773939
 20
-471.0879464333909
 30
0.0
 11
-2577.064021383253
 21
-469.2567657299298
 31
0.0
  0
LINE
  5
5FDB
330
1F
100
AcDbEntity
  8
SPOJOVACÍ
100
AcDbLine
 10
-2559.12343695869
 20
-472.2775457819068
 30
0.0
 11
-2558.026004024949
 21
-468.1818703152914
 31
0.0
  0
LINE
  5
5FDC
330
1F
100
AcDbEntity
  8
SPOJOVACÍ
100
AcDbLine
 10
-2543.936940781147
 20
-471.5815325718974
 30
0.0
 11
-2543.102880727872
 21
-468.4687780765059
 31
0.0
  0
LINE
  5
5FDD
330
1F
100
AcDbEntity
  8
SPOJOVACÍ
100
AcDbLine
 10
-2557.266222520812
 20
-472.3439224033934
 30
0.0
 11
-2556.028168120531
 21
-467.7234404789999
 31
0.0
  0
LINE
  5
5FDE
330
1F
100
AcDbEntity
  8
SPOJOVACÍ
100
AcDbLine
 10
-2549.66245642076
 20
-471.9566620458943
 30
0.0
 11
-2548.626964806194
 21
-468.0921547295108
 31
0.0
  0
LINE
  5
5FDF
330
1F
100
AcDbEntity
  8
SPOJOVACÍ
100
AcDbLine
 10
-2551.565335691751
 20
-472.0607089017018
 30
0.0
 11
-2550.473417836249
 21
-467.9856159872922
 31
0.0
  0
LINE
  5
5FE0
330
1F
100
AcDbEntity
  8
SPOJOVACÍ
100
AcDbLine
 10
-2553.465426957075
 20
-472.1543507787202
 30
0.0
 11
-2552.329347180094
 21
-467.9144433295721
 31
0.0
  0
LINE
  5
5FE1
330
1F
100
AcDbEntity
  8
SPOJOVACÍ
100
AcDbLine
 10
-2555.362744636565
 20
-472.237641492474
 30
0.0
 11
-2554.174010810232
 21
-467.80122645594
 31
0.0
  0
LINE
  5
5FE2
330
1F
100
AcDbEntity
  8
SPOJOVACÍ
100
AcDbLine
 10
-2547.676978603617
 20
-471.5443532191891
 30
0.0
 11
-2546.783062932854
 21
-468.2082145182327
 31
0.0
  0
LINE
  5
5FE3
330
1F
100
AcDbEntity
  8
SPOJOVACÍ
100
AcDbLine
 10
-2545.837694692339
 20
-471.6776474769674
 30
0.0
 11
-2544.941704171892
 21
-468.3337653315482
 31
0.0
  0
LINE
  5
5FE4
330
1F
100
AcDbEntity
  8
SPOJOVACÍ
  6
DASHED
100
AcDbLine
 10
-2524.196101106257
 20
-470.0594546870181
 30
0.0
 11
-2527.984962247815
 21
-463.4969546870181
 31
0.0
  0
LINE
  5
5FE5
330
1F
100
AcDbEntity
  8
SPOJOVACÍ
  6
DASHED
100
AcDbLine
 10
-2524.196101106257
 20
-470.0594546870181
 30
0.0
 11
-2527.984962247815
 21
-476.6219546870181
 31
0.0
  0
LINE
  5
5FE6
330
1F
100
AcDbEntity
  8
SPOJOVACÍ
100
AcDbLine
 10
-2542.022757772313
 20
-471.4352995921323
 30
0.0
 11
-2541.257104828263
 21
-468.5778439039843
 31
0.0
  0
LINE
  5
5FE7
330
1F
100
AcDbEntity
  8
SPOJOVACÍ
100
AcDbLine
 10
-2540.105708947406
 20
-471.2783712411762
 30
0.0
 11
-2539.432809832812
 21
-468.767077557148
 31
0.0
  0
LINE
  5
5FE8
330
1F
100
AcDbEntity
  8
SPOJOVACÍ
100
AcDbLine
 10
-2538.185777541458
 20
-471.11068495133
 30
0.0
 11
-2537.601548004911
 21
-468.930310637653
 31
0.0
  0
LINE
  5
5FE9
330
1F
100
AcDbEntity
  8
SPOJOVACÍ
100
AcDbLine
 10
-2536.262946366821
 20
-470.9321765773927
 30
0.0
 11
-2535.772792733934
 21
-469.1028983159492
 31
0.0
  0
LINE
  5
5FEA
330
1F
100
AcDbEntity
  8
SPOJOVACÍ
100
AcDbLine
 10
-2532.408513786942
 20
-470.5424288833267
 30
0.0
 11
-2532.122775691467
 21
-469.476039793368
 31
0.0
  0
LINE
  5
5FEB
330
1F
100
AcDbEntity
  8
SPOJOVACÍ
100
AcDbLine
 10
-2530.476875800924
 20
-470.3310530418791
 30
0.0
 11
-2530.301501406615
 21
-469.6765468919632
 31
0.0
  0
LINE
  5
5FEC
330
1F
100
AcDbEntity
  8
SPOJOVACÍ
100
AcDbLine
 10
-2528.542264862692
 20
-470.108581991695
 30
0.0
 11
-2528.482708646596
 21
-469.8863151673129
 31
0.0
  0
LINE
  5
5FED
330
1F
100
AcDbEntity
  8
SPOJOVACÍ
100
AcDbLine
 10
-2534.337197803129
 20
-470.7427803592975
 30
0.0
 11
-2533.946537419557
 21
-469.2848159593056
 31
0.0
  0
LINE
  5
5FEE
330
1F
100
AcDbEntity
  8
SPOJOVACÍ
  6
DASHED
100
AcDbLine
 10
-2533.571101106256
 20
-470.0594546870181
 30
0.0
 11
-2536.818696370447
 21
-464.4344546870181
 31
0.0
  0
LINE
  5
5FEF
330
1F
100
AcDbEntity
  8
SPOJOVACÍ
  6
DASHED
100
AcDbLine
 10
-2533.571101106256
 20
-470.0594546870186
 30
0.0
 11
-2536.818696370447
 21
-475.6844546870186
 31
0.0
  0
LINE
  5
5FF0
330
1F
100
AcDbEntity
  8
SPOJOVACÍ
  6
DASHDOT2
100
AcDbLine
 10
-2624.257158659923
 20
-470.0594546870172
 30
0.0
 11
-2509.337048916016
 21
-470.0594546870181
 31
0.0
  0
LINE
  5
5FF1
330
1F
100
AcDbEntity
  8
SPOJOVACÍ
  6
DASHED
100
AcDbLine
 10
-2527.984962247815
 20
-476.6219546870181
 30
0.0
 11
-2609.084057191489
 21
-476.6219546870172
 31
0.0
  0
LINE
  5
5FF2
330
1F
100
AcDbEntity
  8
SPOJOVACÍ
  6
DASHED
100
AcDbLine
 10
-2527.984962247815
 20
-463.4969546870181
 30
0.0
 11
-2609.084057191489
 21
-463.4969546870173
 31
0.0
  0
ARC
  5
5FF3
330
1F
100
AcDbEntity
  8
NOSNÉ KONSTRUKCE
100
AcDbCircle
 10
-2611.530635490541
 20
-492.7491696591403
 30
0.0
 40
2.703648697414791
100
AcDbArc
 50
90.0
 51
270.0
  0
ARC
  5
5FF4
330
1F
100
AcDbEntity
  8
NOSNÉ KONSTRUKCE
100
AcDbCircle
 10
-2611.530635490541
 20
-447.3111677727386
 30
0.0
 40
2.703648697414791
100
AcDbArc
 50
90.0
 51
270.0
  0
LINE
  5
5FF5
330
1F
100
AcDbEntity
  8
NOSNÉ KONSTRUKCE
100
AcDbLine
 10
-2694.530635490534
 20
-450.0148164701492
 30
0.0
 11
-2611.530635490541
 21
-450.0148164701534
 31
0.0
  0
LINE
  5
5FF6
330
1F
100
AcDbEntity
  8
NOSNÉ KONSTRUKCE
100
AcDbLine
 10
-2694.530635490534
 20
-490.0455209617291
 30
0.0
 11
-2611.530635490545
 21
-490.0455209617255
 31
0.0
  0
LWPOLYLINE
  5
5FF7
330
1F
100
AcDbEntity
  8
NOSNÉ KONSTRUKCE
100
AcDbPolyline
 90
        3
 70
     0
 43
0.0
 10
-2710.596207244956
 20
-505.4221253098469
 10
-2733.553576609157
 20
-505.4221253098469
 10
-2733.553576609157
 20
-472.2598326551244
  0
ARC
  5
5FF8
330
1F
100
AcDbEntity
  8
NOSNÉ KONSTRUKCE
100
AcDbCircle
 10
-2720.738704023811
 20
-499.0973451324159
 30
0.0
 40
1.3125
100
AcDbArc
 50
180.0
 51
0.0
  0
LINE
  5
5FF9
330
1F
100
AcDbEntity
  8
NOSNÉ KONSTRUKCE
100
AcDbLine
 10
-2722.051204023811
 20
-499.0973451324159
 30
0.0
 11
-2722.051204023811
 21
-499.0755325123894
 31
0.0
  0
LINE
  5
5FFA
330
1F
100
AcDbEntity
  8
NOSNÉ KONSTRUKCE
100
AcDbLine
 10
-2719.426204023811
 20
-499.0755325123866
 30
0.0
 11
-2719.426204023811
 21
-499.0973451324159
 31
0.0
  0
CIRCLE
  5
5FFB
330
1F
100
AcDbEntity
  8
NOSNÉ KONSTRUKCE
100
AcDbCircle
 10
-2720.738704023818
 20
-496.3778772805246
 30
0.0
 40
3.0
  0
LINE
  5
5FFC
330
1F
100
AcDbEntity
  8
NOSNÉ KONSTRUKCE
100
AcDbLine
 10
-2720.738704023818
 20
-492.2528772805247
 30
0.0
 11
-2720.738704023814
 21
-500.5028772805246
 31
0.0
  0
LINE
  5
5FFD
330
1F
100
AcDbEntity
  8
NOSNÉ KONSTRUKCE
100
AcDbLine
 10
-2710.596207244956
 20
-505.4221253098469
 30
0.0
 11
-2708.030635490556
 21
-497.8276635801282
 31
0.0
  0
LWPOLYLINE
  5
5FFE
330
1F
100
AcDbEntity
  8
NOSNÉ KONSTRUKCE
100
AcDbPolyline
 90
        3
 70
     0
 43
0.0
 10
-2733.553576609157
 20
-467.8590767189027
 10
-2733.553576609157
 20
-434.6967840641802
 10
-2710.596207244956
 20
-434.6967840641802
  0
LINE
  5
5FFF
330
1F
100
AcDbEntity
  8
NOSNÉ KONSTRUKCE
100
AcDbLine
 10
-2724.452026811822
 20
-467.8590767189027
 30
0.0
 11
-2720.857095739507
 21
-464.8690474122238
 31
0.0
  0
LINE
  5
6000
330
1F
100
AcDbEntity
  8
NOSNÉ KONSTRUKCE
100
AcDbLine
 10
-2720.857095739507
 20
-475.2498619618034
 30
0.0
 11
-2678.150362692083
 21
-475.2498619618034
 31
0.0
  0
LINE
  5
6001
330
1F
100
AcDbEntity
  8
NOSNÉ KONSTRUKCE
100
AcDbLine
 10
-2733.553576609157
 20
-472.2598326551244
 30
0.0
 11
-2724.452026811822
 21
-472.2598326551244
 31
0.0
  0
LINE
  5
6002
330
1F
100
AcDbEntity
  8
NOSNÉ KONSTRUKCE
100
AcDbLine
 10
-2724.452026811822
 20
-472.2598326551244
 30
0.0
 11
-2720.857095739507
 21
-475.2498619618034
 31
0.0
  0
LINE
  5
6003
330
1F
100
AcDbEntity
  8
NOSNÉ KONSTRUKCE
100
AcDbLine
 10
-2733.553576609157
 20
-467.8590767189027
 30
0.0
 11
-2724.452026811822
 21
-467.8590767189027
 31
0.0
  0
ARC
  5
6004
330
1F
100
AcDbEntity
  8
NOSNÉ KONSTRUKCE
100
AcDbCircle
 10
-2720.738704023811
 20
-482.5469712687988
 30
0.0
 40
1.75
100
AcDbArc
 50
0.0
 51
180.0
  0
ARC
  5
6005
330
1F
100
AcDbEntity
  8
NOSNÉ KONSTRUKCE
100
AcDbCircle
 10
-2720.738704023811
 20
-487.4352199744387
 30
0.0
 40
1.75
100
AcDbArc
 50
180.0
 51
0.0
  0
LINE
  5
6006
330
1F
100
AcDbEntity
  8
NOSNÉ KONSTRUKCE
100
AcDbLine
 10
-2722.488704023811
 20
-487.4352199744387
 30
0.0
 11
-2722.488704023811
 21
-482.5469712687988
 31
0.0
  0
LINE
  5
6007
330
1F
100
AcDbEntity
  8
NOSNÉ KONSTRUKCE
100
AcDbLine
 10
-2718.988704023811
 20
-482.5469712687988
 30
0.0
 11
-2718.988704023811
 21
-487.4352199744387
 31
0.0
  0
LINE
  5
6008
330
1F
100
AcDbEntity
  8
NOSNÉ KONSTRUKCE
100
AcDbLine
 10
-2716.613704023818
 20
-496.3778772805246
 30
0.0
 11
-2724.863704023818
 21
-496.3778772805233
 31
0.0
  0
ARC
  5
6009
330
1F
100
AcDbEntity
  8
NOSNÉ KONSTRUKCE
100
AcDbCircle
 10
-2720.738704023811
 20
-493.6584094286306
 30
0.0
 40
1.3125
100
AcDbArc
 50
0.0
 51
180.0
  0
LINE
  5
600A
330
1F
100
AcDbEntity
  8
NOSNÉ KONSTRUKCE
100
AcDbLine
 10
-2722.051204023811
 20
-493.6802220486599
 30
0.0
 11
-2722.051204023811
 21
-493.6584094286306
 31
0.0
  0
LINE
  5
600B
330
1F
100
AcDbEntity
  8
NOSNÉ KONSTRUKCE
100
AcDbLine
 10
-2719.426204023811
 20
-493.6584094286306
 30
0.0
 11
-2719.426204023811
 21
-493.6802220486622
 31
0.0
  0
LINE
  5
600C
330
1F
100
AcDbEntity
  8
NOSNÉ KONSTRUKCE
100
AcDbLine
 10
-2720.857095739507
 20
-464.8690474122238
 30
0.0
 11
-2678.150362692083
 21
-464.8690474122238
 31
0.0
  0
LINE
  5
600D
330
1F
100
AcDbEntity
  8
NOSNÉ KONSTRUKCE
100
AcDbLine
 10
-2720.738704023818
 20
-447.8660320935025
 30
0.0
 11
-2720.738704023814
 21
-439.6160320935025
 31
0.0
  0
CIRCLE
  5
600E
330
1F
100
AcDbEntity
  8
NOSNÉ KONSTRUKCE
100
AcDbCircle
 10
-2720.738704023818
 20
-443.7410320935025
 30
0.0
 40
3.0
  0
LINE
  5
600F
330
1F
100
AcDbEntity
  8
NOSNÉ KONSTRUKCE
100
AcDbLine
 10
-2719.426204023811
 20
-446.4604999453966
 30
0.0
 11
-2719.426204023811
 21
-446.438687325365
 31
0.0
  0
LINE
  5
6010
330
1F
100
AcDbEntity
  8
NOSNÉ KONSTRUKCE
100
AcDbLine
 10
-2722.051204023811
 20
-446.4386873253672
 30
0.0
 11
-2722.051204023811
 21
-446.4604999453966
 31
0.0
  0
ARC
  5
6011
330
1F
100
AcDbEntity
  8
NOSNÉ KONSTRUKCE
100
AcDbCircle
 10
-2720.738704023811
 20
-446.4604999453966
 30
0.0
 40
1.3125
100
AcDbArc
 50
180.0
 51
0.0
  0
LINE
  5
6012
330
1F
100
AcDbEntity
  8
NOSNÉ KONSTRUKCE
100
AcDbLine
 10
-2716.613704023818
 20
-443.7410320935025
 30
0.0
 11
-2724.863704023818
 21
-443.7410320935039
 31
0.0
  0
LINE
  5
6013
330
1F
100
AcDbEntity
  8
NOSNÉ KONSTRUKCE
100
AcDbLine
 10
-2719.426204023811
 20
-441.0433768616406
 30
0.0
 11
-2719.426204023811
 21
-441.0215642416112
 31
0.0
  0
LINE
  5
6014
330
1F
100
AcDbEntity
  8
NOSNÉ KONSTRUKCE
100
AcDbLine
 10
-2722.051204023811
 20
-441.0215642416112
 30
0.0
 11
-2722.051204023811
 21
-441.0433768616378
 31
0.0
  0
ARC
  5
6015
330
1F
100
AcDbEntity
  8
NOSNÉ KONSTRUKCE
100
AcDbCircle
 10
-2720.738704023811
 20
-441.0215642416112
 30
0.0
 40
1.3125
100
AcDbArc
 50
0.0
 51
180.0
  0
LINE
  5
6016
330
1F
100
AcDbEntity
  8
NOSNÉ KONSTRUKCE
100
AcDbLine
 10
-2718.988704023811
 20
-457.5719381052283
 30
0.0
 11
-2718.988704023811
 21
-452.6836893995884
 31
0.0
  0
LINE
  5
6017
330
1F
100
AcDbEntity
  8
NOSNÉ KONSTRUKCE
100
AcDbLine
 10
-2722.488704023811
 20
-452.6836893995884
 30
0.0
 11
-2722.488704023811
 21
-457.5719381052283
 31
0.0
  0
ARC
  5
6018
330
1F
100
AcDbEntity
  8
NOSNÉ KONSTRUKCE
100
AcDbCircle
 10
-2720.738704023811
 20
-452.6836893995884
 30
0.0
 40
1.75
100
AcDbArc
 50
0.0
 51
180.0
  0
ARC
  5
6019
330
1F
100
AcDbEntity
  8
NOSNÉ KONSTRUKCE
100
AcDbCircle
 10
-2720.738704023811
 20
-457.5719381052283
 30
0.0
 40
1.75
100
AcDbArc
 50
180.0
 51
0.0
  0
LINE
  5
601A
330
1F
100
AcDbEntity
  8
NOSNÉ KONSTRUKCE
100
AcDbLine
 10
-2710.596207244956
 20
-434.6967840641802
 30
0.0
 11
-2708.030635490556
 21
-442.291245793899
 31
0.0
  0
LINE
  5
601B
330
1F
100
AcDbEntity
  8
NOSNÉ KONSTRUKCE
100
AcDbLine
 10
-2678.150362692083
 20
-475.2498619618034
 30
0.0
 11
-2678.150362692083
 21
-465.6926132005844
 31
0.0
  0
LINE
  5
601C
330
1F
100
AcDbEntity
  8
NOSNÉ KONSTRUKCE
100
AcDbLine
 10
-2678.150362692083
 20
-464.8690474122238
 30
0.0
 11
-2678.150362692083
 21
-474.4262961734428
 31
0.0
  0
LINE
  5
601D
330
1F
100
AcDbEntity
  8
NOSNÉ KONSTRUKCE
100
AcDbLine
 10
-2611.530635490545
 20
-490.0455209617255
 30
0.0
 11
-2611.530635490541
 21
-450.0148164701534
 31
0.0
  0
LINE
  5
601E
330
1F
100
AcDbEntity
  8
NOSNÉ KONSTRUKCE
100
AcDbLine
 10
-2708.030635490516
 20
-464.8690474122238
 30
0.0
 11
-2708.030635490516
 21
-444.6660910174784
 31
0.0
  0
LINE
  5
601F
330
1F
100
AcDbEntity
  8
NOSNÉ KONSTRUKCE
100
AcDbLine
 10
-2708.030635490516
 20
-464.8690474122238
 30
0.0
 11
-2708.030635490516
 21
-444.6660910174784
 31
0.0
  0
LWPOLYLINE
  5
6020
330
1F
100
AcDbEntity
  8
NOSNÉ KONSTRUKCE
100
AcDbPolyline
 90
        2
 70
     0
 43
0.0
 10
-2708.030635490519
 20
-475.2498619618034
 10
-2708.030635490519
 20
-497.8276635801285
  0
HATCH
  5
603D
330
1F
100
AcDbEntity
  8
STAVBA OBRYS
100
AcDbHatch
 10
0.0
 20
0.0
 30
0.0
210
0.0
220
0.0
230
1.0
  2
BRICK
 70
     0
 71
     0
 91
        1
 92
        7
 72
     0
 73
     1
 93
       20
 10
-2368.563439475547
 20
-100.2720316222948
 10
-2605.530635490497
 20
-127.0702011295151
 10
-2605.530635490499
 20
-204.4533268405973
 10
-2523.458435864774
 20
-204.4533268405964
 10
-2519.669574723215
 20
-211.0158268405968
 10
-2523.458435864774
 20
-217.5783268405964
 10
-2605.530635490499
 20
-217.5783268405973
 10
-2605.530635490505
 20
-463.4969546870173
 10
-2527.984962247815
 20
-463.4969546870182
 10
-2524.196101106256
 20
-470.059454687018
 10
-2527.984962247815
 20
-476.6219546870181
 10
-2566.564099693255
 20
-476.6219546870177
 10
-2605.530635490501
 20
-505.6207094028774
 10
-2605.530635490502
 20
-565.9084378725126
 10
-2523.458435864775
 20
-565.9084378725117
 10
-2519.669574723216
 20
-572.4709378725119
 10
-2523.458435864774
 20
-579.0334378725117
 10
-2605.530635490504
 20
-579.0334378725129
 10
-2605.530635490505
 20
-668.065088267735
 10
-2368.563439475547
 20
-637.1663668014966
 97
        0
 75
     0
 76
     1
 52
0.0
 41
10.0
 77
     0
 78
     3
 53
0.0
 43
0.0
 44
0.0
 45
0.0
 46
63.5
 79
     0
 53
90.0
 43
0.0
 44
0.0
 45
-127.0
 46
0.0000000000000078
 79
     2
 49
63.5
 49
-63.5
 53
90.0
 43
63.5
 44
0.0
 45
-127.0
 46
0.0000000000000078
 79
     2
 49
-63.5
 49
63.5
 47
2.231050384483249
 98
        1
 10
-2490.58799257232
 20
-380.4967489559217
  0
LINE
  5
60A2
330
1F
100
AcDbEntity
  8
PROFILY
100
AcDbLine
 10
-2746.019816374884
 20
-684.2811638546883
 30
0.0
 11
-2746.019816374884
 21
-142.3152186777533
 31
0.0
  0
LINE
  5
60A3
330
1F
100
AcDbEntity
  8
PROFILY
  6
DASHED
370
    40
100
AcDbLine
 10
-2745.819816374885
 20
-684.2573749285987
 30
0.0
 11
-2745.819816374885
 21
-142.3152186777533
 31
0.0
  0
LINE
  5
60A4
330
1F
100
AcDbEntity
  8
PROFILY
100
AcDbLine
 10
-2745.619816374885
 20
-684.2335860025088
 30
0.0
 11
-2745.619816374885
 21
-142.3152186777533
 31
0.0
  0
TEXT
  5
60A5
330
1F
100
AcDbEntity
  8
POPIS
100
AcDbText
 10
-3018.001403776009
 20
-1184.816096822548
 30
0.0
 40
25.0
  1
Podkladní EPDM páska tl.1 mm
 41
0.7
  7
SIMPLEX7
100
AcDbText
  0
TEXT
  5
60A6
330
1F
100
AcDbEntity
  8
POPIS
100
AcDbText
 10
-3072.345106935751
 20
-1184.816096822548
 30
0.0
 40
25.0
  1
09
 41
0.85
  7
SIMPLEX7
100
AcDbText
  0
LINE
  5
60A7
330
1F
100
AcDbEntity
  8
POPIS
100
AcDbLine
 10
-2903.251530722787
 20
-673.3806167782185
 30
0.0
 11
-2745.819816374885
 21
-673.3806167782204
 31
0.0
  0
TEXT
  5
60A8
330
1F
100
AcDbEntity
  8
POPIS
100
AcDbText
 10
-2943.339324936188
 20
-686.8239582275891
 30
0.0
 40
25.0
  1
09
 41
0.7
  7
SIMPLEX7
100
AcDbText
  0
INSERT
  5
60A9
330
1F
100
AcDbEntity
  8
POPIS
100
AcDbBlockReference
  2
E_PUNKT
 10
-2745.759499712741
 20
-672.9598737120077
 30
0.0
  0
INSERT
  5
60AC
330
1F
100
AcDbEntity
  8
POPIS
100
AcDbBlockReference
  2
_ArchTick
 10
-2825.9943823214
 20
-358.2380044926221
 30
0.0
 41
15.0
 42
15.0
 43
15.0
 50
90.0
  0
LINE
  5
60AD
330
1F
100
AcDbEntity
  8
POPIS
100
AcDbLine
 10
-2825.9943823214
 20
-352.8294678316265
 30
0.0
 11
-2825.9943823214
 21
-417.2237525781233
 31
0.0
  0
LINE
  5
60AE
330
1F
100
AcDbEntity
  8
POPIS
100
AcDbLine
 10
-2797.2003146985
 20
-413.0835512495373
 30
0.0
 11
-2838.494382321401
 21
-413.0835512495373
 31
0.0
  0
INSERT
  5
60AF
330
1F
100
AcDbEntity
  8
POPIS
100
AcDbBlockReference
  2
_ArchTick
 10
-2825.9943823214
 20
-413.0835512495373
 30
0.0
 41
15.0
 42
15.0
 43
15.0
 50
270.0
  0
TEXT
  5
60B0
330
1F
100
AcDbEntity
  8
POPIS
100
AcDbText
 10
-2831.604292713692
 20
-397.0029320202679
 30
0.0
 40
25.0
  1
70
 50
90.0
 41
0.7
  7
SIMPLEX7
100
AcDbText
  0
LINE
  5
60B1
330
1F
100
AcDbEntity
  8
POPIS
100
AcDbLine
 10
-2795.011372465497
 20
-358.2380044926221
 30
0.0
 11
-2838.494382321401
 21
-358.2380044926221
 31
0.0
  0
ENDSEC
  0
SECTION
  2
OBJECTS
  0
DICTIONARY
  5
C
330
0
100
AcDbDictionary
281
     1
  3
ACAD_GROUP
350
D
  3
ACAD_LAYOUT
350
1A
  3
ACAD_MLINESTYLE
350
17
  3
ACAD_PLOTSETTINGS
350
19
  3
ACAD_PLOTSTYLENAME
350
E
  3
AcDbVariableDictionary
350
5CED
  0
DICTIONARY
  5
603F
330
1F
100
AcDbDictionary
280
     1
281
     1
  3
ACAD_LAYOUTSELFREF
360
607D
  0
DICTIONARY
  5
6041
330
1B
100
AcDbDictionary
280
     1
281
     1
  3
ACAD_LAYOUTSELFREF
360
607C
  0
DICTIONARY
  5
6043
330
23
100
AcDbDictionary
280
     1
281
     1
  3
ACAD_LAYOUTSELFREF
360
607E
  0
DICTIONARY
  5
D
102
{ACAD_REACTORS
330
C
102
}
330
C
100
AcDbDictionary
281
     1
  0
DICTIONARY
  5
1A
102
{ACAD_REACTORS
330
C
102
}
330
C
100
AcDbDictionary
281
     1
  3
Model
350
22
  3
Rozvržení1
350
1E
  3
Rozvržení2
350
26
  0
DICTIONARY
  5
17
102
{ACAD_REACTORS
330
C
102
}
330
C
100
AcDbDictionary
281
     1
  3
Standard
350
18
  0
DICTIONARY
  5
19
102
{ACAD_REACTORS
330
C
102
}
330
C
100
AcDbDictionary
281
     1
  0
ACDBDICTIONARYWDFLT
  5
E
102
{ACAD_REACTORS
330
C
102
}
330
C
100
AcDbDictionary
281
     1
  3
Normal
350
F
100
AcDbDictionaryWithDefault
340
F
  0
DICTIONARY
  5
5CED
102
{ACAD_REACTORS
330
C
102
}
330
C
100
AcDbDictionary
281
     1
  3
DIMASSOC
350
60B8
  3
SORTENTS
350
5CEE
  0
XRECORD
  5
607D
102
{ACAD_REACTORS
330
603F
102
}
330
603F
100
AcDbXrecord
280
     1
340
1F
  0
XRECORD
  5
607C
102
{ACAD_REACTORS
330
6041
102
}
330
6041
100
AcDbXrecord
280
     1
340
1B
  0
XRECORD
  5
607E
102
{ACAD_REACTORS
330
6043
102
}
330
6043
100
AcDbXrecord
280
     1
340
23
  0
LAYOUT
  5
22
102
{ACAD_REACTORS
330
1A
102
}
330
1A
100
AcDbPlotSettings
  1

  2
HP DeskJet 690C
  4

  6

 40
0.0
 41
0.0
 42
0.0
 43
0.0
 44
0.0
 45
0.0
 46
0.0
 47
0.0
 48
0.0
 49
0.0
140
0.0
141
0.0
142
1.0
143
1.0
 70
  1712
 72
     0
 73
     0
 74
     0
  7
monochrome.ctb
 75
     0
147
1.0
148
0.0
149
0.0
100
AcDbLayout
  1
Model
 70
     1
 71
     0
 10
0.0
 20
0.0
 11
12.0
 21
9.0
 12
0.0
 22
0.0
 32
0.0
 14
0.0
 24
0.0
 34
0.0
 15
0.0
 25
0.0
 35
0.0
146
0.0
 13
0.0
 23
0.0
 33
0.0
 16
1.0
 26
0.0
 36
0.0
 17
0.0
 27
1.0
 37
0.0
 76
     0
330
1F
  0
LAYOUT
  5
1E
102
{ACAD_REACTORS
330
1A
102
}
330
1A
100
AcDbPlotSettings
  1

  2
HP DeskJet 690C
  4

  6

 40
0.0
 41
0.0
 42
0.0
 43
0.0
 44
0.0
 45
0.0
 46
0.0
 47
0.0
 48
0.0
 49
0.0
140
0.0
141
0.0
142
1.0
143
1.0
 70
   688
 72
     0
 73
     0
 74
     5
  7
monochrome.ctb
 75
    16
147
1.0
148
0.0
149
0.0
100
AcDbLayout
  1
Rozvržení1
 70
     1
 71
     1
 10
0.0
 20
0.0
 11
420.0
 21
297.0
 12
0.0
 22
0.0
 32
0.0
 14
1.000000000000000E+20
 24
1.000000000000000E+20
 34
1.000000000000000E+20
 15
-1.000000000000000E+20
 25
-1.000000000000000E+20
 35
-1.000000000000000E+20
146
0.0
 13
0.0
 23
0.0
 33
0.0
 16
1.0
 26
0.0
 36
0.0
 17
0.0
 27
1.0
 37
0.0
 76
     0
330
1B
  0
LAYOUT
  5
26
102
{ACAD_REACTORS
330
1A
102
}
330
1A
100
AcDbPlotSettings
  1

  2
HP DeskJet 690C
  4

  6

 40
0.0
 41
0.0
 42
0.0
 43
0.0
 44
0.0
 45
0.0
 46
0.0
 47
0.0
 48
0.0
 49
0.0
140
0.0
141
0.0
142
1.0
143
1.0
 70
   688
 72
     0
 73
     0
 74
     5
  7
monochrome.ctb
 75
    16
147
1.0
148
0.0
149
0.0
100
AcDbLayout
  1
Rozvržení2
 70
     1
 71
     2
 10
0.0
 20
0.0
 11
12.0
 21
9.0
 12
0.0
 22
0.0
 32
0.0
 14
0.0
 24
0.0
 34
0.0
 15
0.0
 25
0.0
 35
0.0
146
0.0
 13
0.0
 23
0.0
 33
0.0
 16
1.0
 26
0.0
 36
0.0
 17
0.0
 27
1.0
 37
0.0
 76
     0
330
23
  0
MLINESTYLE
  5
18
102
{ACAD_REACTORS
330
17
102
}
330
17
100
AcDbMlineStyle
  2
STANDARD
 70
     0
  3

 62
   256
 51
90.0
 52
90.0
 71
     2
 49
0.5
 62
   256
  6
BYLAYER
 49
-0.5
 62
   256
  6
BYLAYER
  0
ACDBPLACEHOLDER
  5
F
102
{ACAD_REACTORS
330
E
102
}
330
E
  0
DICTIONARYVAR
  5
60B8
102
{ACAD_REACTORS
330
5CED
102
}
330
5CED
100
DictionaryVariables
280
     0
  1
1
  0
DICTIONARYVAR
  5
5CEE
102
{ACAD_REACTORS
330
5CED
102
}
330
5CED
100
DictionaryVariables
280
     0
  1
96
  0
ENDSEC
  0
EOF
