  0
SECTION
  2
HEADER
  9
$ACADVER
  1
AC1015
  9
$ACADMAINTVER
 70
    14
  9
$DWGCODEPAGE
  3
ANSI_1250
  9
$INSBASE
 10
0.0
 20
0.0
 30
0.0
  9
$EXTMIN
 10
-2474.733909101349
 20
-837.3815564538713
 30
0.0
  9
$EXTMAX
 10
-1620.721683670635
 20
397.6145555574807
 30
0.0
  9
$LIMMIN
 10
0.0
 20
0.0
  9
$LIMMAX
 10
420.0
 20
297.0
  9
$ORTHOMODE
 70
     0
  9
$REGENMODE
 70
     1
  9
$FILLMODE
 70
     1
  9
$QTEXTMODE
 70
     0
  9
$MIRRTEXT
 70
     1
  9
$LTSCALE
 40
1.0
  9
$ATTMODE
 70
     1
  9
$TEXTSIZE
 40
2.5
  9
$TRACEWID
 40
1.0
  9
$TEXTSTYLE
  7
Standard
  9
$CLAYER
  8
0
  9
$CELTYPE
  6
ByLayer
  9
$CECOLOR
 62
   256
  9
$CELTSCALE
 40
1.0
  9
$DISPSILH
 70
     0
  9
$DIMSCALE
 40
1.0
  9
$DIMASZ
 40
2.5
  9
$DIMEXO
 40
0.625
  9
$DIMDLI
 40
3.75
  9
$DIMRND
 40
0.0
  9
$DIMDLE
 40
0.0
  9
$DIMEXE
 40
1.25
  9
$DIMTP
 40
0.0
  9
$DIMTM
 40
0.0
  9
$DIMTXT
 40
2.5
  9
$DIMCEN
 40
2.5
  9
$DIMTSZ
 40
0.0
  9
$DIMTOL
 70
     0
  9
$DIMLIM
 70
     0
  9
$DIMTIH
 70
     0
  9
$DIMTOH
 70
     0
  9
$DIMSE1
 70
     0
  9
$DIMSE2
 70
     0
  9
$DIMTAD
 70
     1
  9
$DIMZIN
 70
     8
  9
$DIMBLK
  1

  9
$DIMASO
 70
     1
  9
$DIMSHO
 70
     1
  9
$DIMPOST
  1

  9
$DIMAPOST
  1

  9
$DIMALT
 70
     0
  9
$DIMALTD
 70
     3
  9
$DIMALTF
 40
0.03937007874016
  9
$DIMLFAC
 40
1.0
  9
$DIMTOFL
 70
     1
  9
$DIMTVP
 40
0.0
  9
$DIMTIX
 70
     0
  9
$DIMSOXD
 70
     0
  9
$DIMSAH
 70
     0
  9
$DIMBLK1
  1

  9
$DIMBLK2
  1

  9
$DIMSTYLE
  2
ISO-25
  9
$DIMCLRD
 70
     0
  9
$DIMCLRE
 70
     0
  9
$DIMCLRT
 70
     0
  9
$DIMTFAC
 40
1.0
  9
$DIMGAP
 40
0.625
  9
$DIMJUST
 70
     0
  9
$DIMSD1
 70
     0
  9
$DIMSD2
 70
     0
  9
$DIMTOLJ
 70
     0
  9
$DIMTZIN
 70
     8
  9
$DIMALTZ
 70
     0
  9
$DIMALTTZ
 70
     0
  9
$DIMUPT
 70
     0
  9
$DIMDEC
 70
     2
  9
$DIMTDEC
 70
     2
  9
$DIMALTU
 70
     2
  9
$DIMALTTD
 70
     3
  9
$DIMTXSTY
  7
Standard
  9
$DIMAUNIT
 70
     0
  9
$DIMADEC
 70
     0
  9
$DIMALTRND
 40
0.0
  9
$DIMAZIN
 70
     0
  9
$DIMDSEP
 70
    44
  9
$DIMATFIT
 70
     3
  9
$DIMFRAC
 70
     0
  9
$DIMLDRBLK
  1

  9
$DIMLUNIT
 70
     2
  9
$DIMLWD
 70
    -2
  9
$DIMLWE
 70
    -2
  9
$DIMTMOVE
 70
     0
  9
$LUNITS
 70
     2
  9
$LUPREC
 70
     4
  9
$SKETCHINC
 40
1.0
  9
$FILLETRAD
 40
10.0
  9
$AUNITS
 70
     0
  9
$AUPREC
 70
     0
  9
$MENU
  1
.
  9
$ELEVATION
 40
0.0
  9
$PELEVATION
 40
0.0
  9
$THICKNESS
 40
0.0
  9
$LIMCHECK
 70
     0
  9
$CHAMFERA
 40
10.0
  9
$CHAMFERB
 40
10.0
  9
$CHAMFERC
 40
20.0
  9
$CHAMFERD
 40
0.0
  9
$SKPOLY
 70
     0
  9
$TDCREATE
 40
2452339.371895717
  9
$TDUCREATE
 40
2452339.330229051
  9
$TDUPDATE
 40
2455610.300946910
  9
$TDUUPDATE
 40
2455610.259280243
  9
$TDINDWG
 40
0.0294088079
  9
$TDUSRTIMER
 40
0.0294088079
  9
$USRTIMER
 70
     1
  9
$ANGBASE
 50
0.0
  9
$ANGDIR
 70
     0
  9
$PDMODE
 70
     0
  9
$PDSIZE
 40
0.0
  9
$PLINEWID
 40
0.0
  9
$SPLFRAME
 70
     0
  9
$SPLINETYPE
 70
     6
  9
$SPLINESEGS
 70
     8
  9
$HANDSEED
  5
3426
  9
$SURFTAB1
 70
     6
  9
$SURFTAB2
 70
     6
  9
$SURFTYPE
 70
     6
  9
$SURFU
 70
     6
  9
$SURFV
 70
     6
  9
$UCSBASE
  2

  9
$UCSNAME
  2

  9
$UCSORG
 10
0.0
 20
0.0
 30
0.0
  9
$UCSXDIR
 10
1.0
 20
0.0
 30
0.0
  9
$UCSYDIR
 10
0.0
 20
1.0
 30
0.0
  9
$UCSORTHOREF
  2

  9
$UCSORTHOVIEW
 70
     0
  9
$UCSORGTOP
 10
0.0
 20
0.0
 30
0.0
  9
$UCSORGBOTTOM
 10
0.0
 20
0.0
 30
0.0
  9
$UCSORGLEFT
 10
0.0
 20
0.0
 30
0.0
  9
$UCSORGRIGHT
 10
0.0
 20
0.0
 30
0.0
  9
$UCSORGFRONT
 10
0.0
 20
0.0
 30
0.0
  9
$UCSORGBACK
 10
0.0
 20
0.0
 30
0.0
  9
$PUCSBASE
  2

  9
$PUCSNAME
  2

  9
$PUCSORG
 10
0.0
 20
0.0
 30
0.0
  9
$PUCSXDIR
 10
1.0
 20
0.0
 30
0.0
  9
$PUCSYDIR
 10
0.0
 20
1.0
 30
0.0
  9
$PUCSORTHOREF
  2

  9
$PUCSORTHOVIEW
 70
     0
  9
$PUCSORGTOP
 10
0.0
 20
0.0
 30
0.0
  9
$PUCSORGBOTTOM
 10
0.0
 20
0.0
 30
0.0
  9
$PUCSORGLEFT
 10
0.0
 20
0.0
 30
0.0
  9
$PUCSORGRIGHT
 10
0.0
 20
0.0
 30
0.0
  9
$PUCSORGFRONT
 10
0.0
 20
0.0
 30
0.0
  9
$PUCSORGBACK
 10
0.0
 20
0.0
 30
0.0
  9
$USERI1
 70
     0
  9
$USERI2
 70
     0
  9
$USERI3
 70
     0
  9
$USERI4
 70
     0
  9
$USERI5
 70
     0
  9
$USERR1
 40
0.0
  9
$USERR2
 40
0.0
  9
$USERR3
 40
0.0
  9
$USERR4
 40
0.0
  9
$USERR5
 40
0.0
  9
$WORLDVIEW
 70
     1
  9
$SHADEDGE
 70
     3
  9
$SHADEDIF
 70
    70
  9
$TILEMODE
 70
     1
  9
$MAXACTVP
 70
    48
  9
$PINSBASE
 10
0.0
 20
0.0
 30
0.0
  9
$PLIMCHECK
 70
     0
  9
$PEXTMIN
 10
1.000000000000000E+20
 20
1.000000000000000E+20
 30
1.000000000000000E+20
  9
$PEXTMAX
 10
-1.000000000000000E+20
 20
-1.000000000000000E+20
 30
-1.000000000000000E+20
  9
$PLIMMIN
 10
0.0
 20
0.0
  9
$PLIMMAX
 10
420.0
 20
297.0
  9
$UNITMODE
 70
     0
  9
$VISRETAIN
 70
     1
  9
$PLINEGEN
 70
     0
  9
$PSLTSCALE
 70
     1
  9
$TREEDEPTH
 70
  3020
  9
$CMLSTYLE
  2
Standard
  9
$CMLJUST
 70
     0
  9
$CMLSCALE
 40
20.0
  9
$PROXYGRAPHICS
 70
     1
  9
$MEASUREMENT
 70
     1
  9
$CELWEIGHT
370
    -1
  9
$ENDCAPS
280
     0
  9
$JOINSTYLE
280
     0
  9
$LWDISPLAY
290
     0
  9
$INSUNITS
 70
     4
  9
$HYPERLINKBASE
  1

  9
$STYLESHEET
  1

  9
$XEDIT
290
     1
  9
$CEPSNTYPE
380
     0
  9
$PSTYLEMODE
290
     1
  9
$FINGERPRINTGUID
  2
{9FA890EF-883C-4FD4-884F-6B075534EB0B}
  9
$VERSIONGUID
  2
{FA63874F-5FA0-49EB-846C-46B3018981C4}
  9
$EXTNAMES
290
     1
  9
$PSVPSCALE
 40
0.0
  9
$OLESTARTUP
290
     0
  0
ENDSEC
  0
SECTION
  2
CLASSES
  0
CLASS
  1
ACDBDICTIONARYWDFLT
  2
AcDbDictionaryWithDefault
  3
AutoCAD 2000
 90
        0
280
     0
281
     0
  0
CLASS
  1
ACDBPLACEHOLDER
  2
AcDbPlaceHolder
  3
AutoCAD 2000
 90
        0
280
     0
281
     0
  0
CLASS
  1
LAYOUT
  2
AcDbLayout
  3
AutoCAD 2000
 90
        0
280
     0
281
     0
  0
CLASS
  1
LONG_TRANSACTION
  2
AcDbLongTransaction
  3
AutoCAD 2000
 90
    32768
280
     0
281
     0
  0
CLASS
  1
LWPOLYLINE
  2
AcDbPolyline
  3
AutoCAD 2000
 90
    32768
280
     0
281
     1
  0
CLASS
  1
HATCH
  2
AcDbHatch
  3
AutoCAD 2000
 90
    32768
280
     0
281
     1
  0
CLASS
  1
XRECORD
  2
AcDbXrecord
  3
AutoCAD 2000
 90
    32768
280
     0
281
     0
  0
CLASS
  1
DICTIONARYVAR
  2
AcDbDictionaryVar
  3
AutoCAD 2000
 90
        0
280
     0
281
     0
  0
ENDSEC
  0
SECTION
  2
TABLES
  0
TABLE
  2
VPORT
  5
8
330
0
100
AcDbSymbolTable
 70
     2
  0
VPORT
  5
3425
330
8
100
AcDbSymbolTableRecord
100
AcDbViewportTableRecord
  2
*Active
 70
     0
 10
0.0
 20
0.0
 11
1.0
 21
1.0
 12
-2049.413240905068
 22
-238.05978997379
 13
0.0
 23
0.0
 14
10.0
 24
10.0
 15
10.0
 25
10.0
 16
0.0
 26
0.0
 36
1.0
 17
0.0
 27
0.0
 37
0.0
 40
1368.052937440617
 41
2.031862745098039
 42
50.0
 43
0.0
 44
0.0
 50
0.0
 51
0.0
 71
     0
 72
   100
 73
     1
 74
     3
 75
     0
 76
     0
 77
     0
 78
     0
281
     0
 65
     1
110
0.0
120
0.0
130
0.0
111
1.0
121
0.0
131
0.0
112
0.0
122
1.0
132
0.0
 79
     0
146
0.0
  0
ENDTAB
  0
TABLE
  2
LTYPE
  5
5
330
0
100
AcDbSymbolTable
 70
     4
  0
LTYPE
  5
14
330
5
100
AcDbSymbolTableRecord
100
AcDbLinetypeTableRecord
  2
ByBlock
 70
     0
  3

 72
    65
 73
     0
 40
0.0
  0
LTYPE
  5
15
330
5
100
AcDbSymbolTableRecord
100
AcDbLinetypeTableRecord
  2
ByLayer
 70
     0
  3

 72
    65
 73
     0
 40
0.0
  0
LTYPE
  5
16
330
5
100
AcDbSymbolTableRecord
100
AcDbLinetypeTableRecord
  2
Continuous
 70
     0
  3
Solid line
 72
    65
 73
     0
 40
0.0
  0
LTYPE
  5
33
330
5
100
AcDbSymbolTableRecord
100
AcDbLinetypeTableRecord
  2
IZOLACE
 70
     0
  3
Izolace SSSSSSSSSSSSSSSSSSSSSSSSSSSSSSSSSSSSSSS
 72
    65
 73
     4
 40
10.16253999999999
 49
0.00254
 74
     0
 49
-2.54
 74
     4
 75
   134
340
3D
 46
2.54
 50
0.0
 44
-2.54
 45
0.0
 49
-5.08
 74
     4
 75
   134
340
3D
 46
2.54
 50
180.0
 44
2.54
 45
0.0
 49
-2.54
 74
     0
  0
LTYPE
  5
34
330
5
100
AcDbSymbolTableRecord
100
AcDbLinetypeTableRecord
  2
DASHED
 70
     0
  3
Dashed __ __ __ __ __ __ __ __ __ __ __ __ __ _
 72
    65
 73
     2
 40
19.04999999999999
 49
12.7
 74
     0
 49
-6.349999999999999
 74
     0
  0
LTYPE
  5
35
330
5
100
AcDbSymbolTableRecord
100
AcDbLinetypeTableRecord
  2
DASHDOT2
 70
     0
  3
Dash dot (.5x) _._._._._._._._._._._._._._._.
 72
    65
 73
     4
 40
12.7
 49
6.349999999999999
 74
     0
 49
-3.174999999999999
 74
     0
 49
0.0
 74
     0
 49
-3.174999999999999
 74
     0
  0
ENDTAB
  0
TABLE
  2
LAYER
  5
2
330
0
100
AcDbSymbolTable
 70
     7
  0
LAYER
  5
10
330
2
100
AcDbSymbolTableRecord
100
AcDbLayerTableRecord
  2
0
 70
     0
 62
     7
  6
Continuous
370
    -3
390
F
  0
LAYER
  5
36
330
2
100
AcDbSymbolTableRecord
100
AcDbLayerTableRecord
  2
POPIS
 70
     0
 62
    30
  6
Continuous
370
    -3
390
F
  0
LAYER
  5
37
330
2
100
AcDbSymbolTableRecord
100
AcDbLayerTableRecord
  2
SPOJOVACÍ
 70
     0
 62
   180
  6
Continuous
370
    -3
390
F
  0
LAYER
  5
38
330
2
100
AcDbSymbolTableRecord
100
AcDbLayerTableRecord
  2
CETRIS
 70
     0
 62
     1
  6
Continuous
370
    -3
390
F
  0
LAYER
  5
39
330
2
100
AcDbSymbolTableRecord
100
AcDbLayerTableRecord
  2
NOSNÉ KONSTRUKCE
 70
     0
 62
    33
  6
Continuous
370
    -3
390
F
  0
LAYER
  5
3B
330
2
100
AcDbSymbolTableRecord
100
AcDbLayerTableRecord
  2
STAVBA OBRYS
 70
     0
 62
     6
  6
Continuous
370
    -3
390
F
  0
LAYER
  5
33E8
330
2
100
AcDbSymbolTableRecord
100
AcDbLayerTableRecord
  2
PROFILY
 70
     0
 62
    73
  6
Continuous
370
    -3
390
F
  0
ENDTAB
  0
TABLE
  2
STYLE
  5
3
330
0
100
AcDbSymbolTable
 70
     3
  0
STYLE
  5
11
330
3
100
AcDbSymbolTableRecord
100
AcDbTextStyleTableRecord
  2
Standard
 70
     0
 40
0.0
 41
1.0
 50
0.0
 71
     0
 42
2.5
  3
txt
  4

  0
STYLE
  5
3C
330
3
100
AcDbSymbolTableRecord
100
AcDbTextStyleTableRecord
  2
SIMPLEX7
 70
     0
 40
0.0
 41
0.85
 50
0.0
 71
     0
 42
102.0
  3
ARIAL.TTF
  4

1001
ACAD
1000
Arial CE
1071
    60962
  0
STYLE
  5
3D
330
3
100
AcDbSymbolTableRecord
100
AcDbTextStyleTableRecord
  2

 70
     1
 40
0.0
 41
1.0
 50
0.0
 71
     0
 42
2.5
  3
ltypeshp.shx
  4

  0
ENDTAB
  0
TABLE
  2
VIEW
  5
6
330
0
100
AcDbSymbolTable
 70
     0
  0
ENDTAB
  0
TABLE
  2
UCS
  5
7
330
0
100
AcDbSymbolTable
 70
     0
  0
ENDTAB
  0
TABLE
  2
APPID
  5
9
330
0
100
AcDbSymbolTable
 70
     1
  0
APPID
  5
12
330
9
100
AcDbSymbolTableRecord
100
AcDbRegAppTableRecord
  2
ACAD
 70
     0
  0
ENDTAB
  0
TABLE
  2
DIMSTYLE
  5
A
330
0
100
AcDbSymbolTable
 70
     1
100
AcDbDimStyleTable
 71
     0
  0
DIMSTYLE
105
27
330
A
100
AcDbSymbolTableRecord
100
AcDbDimStyleTableRecord
  2
ISO-25
 70
     0
 41
2.5
 42
0.625
 43
3.75
 44
1.25
 73
     0
 74
     0
 77
     1
 78
     8
140
2.5
141
2.5
143
0.03937007874016
147
0.625
171
     3
172
     1
271
     2
272
     2
274
     3
278
    44
283
     0
284
     8
340
11
  0
ENDTAB
  0
TABLE
  2
BLOCK_RECORD
  5
1
330
0
100
AcDbSymbolTable
 70
     3
  0
BLOCK_RECORD
  5
1F
102
{ACAD_XDICTIONARY
360
33A1
102
}
330
1
100
AcDbSymbolTableRecord
100
AcDbBlockTableRecord
  2
*Model_Space
340
22
  0
BLOCK_RECORD
  5
1B
102
{ACAD_XDICTIONARY
360
33A3
102
}
330
1
100
AcDbSymbolTableRecord
100
AcDbBlockTableRecord
  2
*Paper_Space
340
1E
  0
BLOCK_RECORD
  5
23
102
{ACAD_XDICTIONARY
360
33A5
102
}
330
1
100
AcDbSymbolTableRecord
100
AcDbBlockTableRecord
  2
*Paper_Space0
340
26
  0
BLOCK_RECORD
  5
2B
330
1
100
AcDbSymbolTableRecord
100
AcDbBlockTableRecord
  2
E_PUNKT
340
0
102
{BLKREFS
331
3229
331
322D
331
324A
331
3260
331
3264
331
3412
102
}
  0
BLOCK_RECORD
  5
33E4
330
1
100
AcDbSymbolTableRecord
100
AcDbBlockTableRecord
  2
_ArchTick
340
0
102
{BLKREFS
331
3407
331
3408
102
}
  0
ENDTAB
  0
ENDSEC
  0
SECTION
  2
BLOCKS
  0
BLOCK
  5
20
330
1F
100
AcDbEntity
  8
0
100
AcDbBlockBegin
  2
*Model_Space
 70
     0
 10
0.0
 20
0.0
 30
0.0
  3
*Model_Space
  1

  0
ENDBLK
  5
21
330
1F
100
AcDbEntity
  8
0
100
AcDbBlockEnd
  0
BLOCK
  5
1C
330
1B
100
AcDbEntity
 67
     1
  8
0
100
AcDbBlockBegin
  2
*Paper_Space
 70
     0
 10
0.0
 20
0.0
 30
0.0
  3
*Paper_Space
  1

  0
ENDBLK
  5
1D
330
1B
100
AcDbEntity
 67
     1
  8
0
100
AcDbBlockEnd
  0
BLOCK
  5
24
330
23
100
AcDbEntity
  8
0
100
AcDbBlockBegin
  2
*Paper_Space0
 70
     0
 10
0.0
 20
0.0
 30
0.0
  3
*Paper_Space0
  1

  0
ENDBLK
  5
25
330
23
100
AcDbEntity
  8
0
100
AcDbBlockEnd
  0
BLOCK
  5
2D
330
2B
100
AcDbEntity
  8
0
100
AcDbBlockBegin
  2
E_PUNKT
 70
     0
 10
0.0
 20
0.0
 30
0.0
  3
E_PUNKT
  1

  0
LWPOLYLINE
  5
2C
330
2B
100
AcDbEntity
  8
POPIS
100
AcDbPolyline
 90
        2
 70
     1
 43
2.5
 10
1.27761037562675
 20
0.0290683308725193
 42
-1.0
 10
-1.222389624373249
 20
0.0290683308725193
 42
-1.0
  0
ENDBLK
  5
2E
330
2B
100
AcDbEntity
  8
0
100
AcDbBlockEnd
  0
BLOCK
  5
33E6
330
33E4
100
AcDbEntity
  8
0
100
AcDbBlockBegin
  2
_ArchTick
 70
     0
 10
0.0
 20
0.0
 30
0.0
  3
_ArchTick
  1

  0
LWPOLYLINE
  5
33E5
330
33E4
100
AcDbEntity
  8
0
  6
ByBlock
 62
     0
100
AcDbPolyline
 90
        2
 70
     0
 43
0.15
 10
-0.5
 20
-0.5
 10
0.5
 20
0.5
  0
ENDBLK
  5
33E7
330
33E4
100
AcDbEntity
  8
0
100
AcDbBlockEnd
  0
ENDSEC
  0
SECTION
  2
ENTITIES
  0
HATCH
  5
320F
330
1F
100
AcDbEntity
  8
STAVBA OBRYS
100
AcDbHatch
 10
0.0
 20
0.0
 30
0.0
210
0.0
220
0.0
230
1.0
  2
AR-SAND
 70
     0
 71
     0
 91
        1
 92
        7
 72
     0
 73
     1
 93
        5
 10
-1709.110453463072
 20
-484.9787183097385
 10
-1995.395676817159
 20
-484.9787183097382
 10
-2104.059922000692
 20
-484.9787183097382
 10
-2123.537055204841
 20
-494.9787183097383
 10
-1709.110453463072
 20
-494.9787183097383
 97
        0
 75
     0
 76
     1
 52
0.0
 41
0.1
 77
     0
 78
     4
 53
37.5
 43
-14922.20711210654
 44
1187.010666288924
 45
-0.1600031295984046
 46
4.894132373293423
 79
     6
 49
0.0
 49
-3.8608
 49
0.0
 49
-4.318
 49
0.0
 49
-4.1275
 53
7.499999999999999
 43
-14922.20711210654
 44
1187.010666288924
 45
4.495232831380026
 46
7.168251005683543
 79
     6
 49
0.0
 49
-2.0828
 49
0.0
 49
-3.4798
 49
0.0
 49
-1.3335
 53
327.4999999999999
 43
-14925.33131210655
 44
1187.010666288924
 45
7.909923702414579
 46
0.0143718467854569
 79
     6
 49
0.0
 49
-1.27
 49
0.0
 49
-4.572
 49
0.0
 49
-5.969
 53
317.5
 43
-14925.33131210655
 44
1187.010666288924
 45
7.635564524722972
 46
2.229293232572162
 79
     6
 49
0.0
 49
-0.635
 49
0.0
 49
-2.997199999999999
 49
0.0
 49
-3.429
 47
0.5834618657717786
 98
        1
 10
-1974.11319459687
 20
-488.7033458663195
  0
HATCH
  5
3210
330
1F
100
AcDbEntity
  8
STAVBA OBRYS
100
AcDbHatch
 10
0.0
 20
0.0
 30
0.0
210
0.0
220
0.0
230
1.0
  2
AR-SAND
 70
     0
 71
     0
 91
        1
 92
        7
 72
     0
 73
     1
 93
        4
 10
-2104.059922000693
 20
-484.978718309738
 10
-2237.419317210308
 20
-484.9787183097382
 10
-2230.910880817497
 20
-494.9787183097377
 10
-2123.537055204841
 20
-494.978718309738
 97
        0
 75
     0
 76
     1
 52
0.0
 41
0.1
 77
     0
 78
     4
 53
37.5
 43
-14922.20711210654
 44
1187.010666288924
 45
-0.1600031295984046
 46
4.894132373293423
 79
     6
 49
0.0
 49
-3.8608
 49
0.0
 49
-4.318
 49
0.0
 49
-4.1275
 53
7.499999999999999
 43
-14922.20711210654
 44
1187.010666288924
 45
4.495232831380026
 46
7.168251005683543
 79
     6
 49
0.0
 49
-2.0828
 49
0.0
 49
-3.4798
 49
0.0
 49
-1.3335
 53
327.4999999999999
 43
-14925.33131210655
 44
1187.010666288924
 45
7.909923702414579
 46
0.0143718467854569
 79
     6
 49
0.0
 49
-1.27
 49
0.0
 49
-4.572
 49
0.0
 49
-5.969
 53
317.5
 43
-14925.33131210655
 44
1187.010666288924
 45
7.635564524722972
 46
2.229293232572162
 79
     6
 49
0.0
 49
-0.635
 49
0.0
 49
-2.997199999999999
 49
0.0
 49
-3.429
 47
0.5834618568729536
 98
        1
 10
-2191.585093967351
 20
-489.861086948184
  0
HATCH
  5
3211
330
1F
100
AcDbEntity
  8
STAVBA OBRYS
100
AcDbHatch
 10
0.0
 20
0.0
 30
0.0
210
0.0
220
0.0
230
1.0
  2
AR-SAND
 70
     0
 71
     0
 91
        1
 92
        7
 72
     0
 73
     1
 93
        6
 10
-2452.920730903739
 20
-153.8678328573407
 10
-2462.920730903741
 20
-138.5031593836192
 10
-2462.920730903746
 20
-494.9787183097376
 10
-2230.910880817497
 20
-494.9787183097377
 10
-2237.419317210306
 20
-484.978718309738
 10
-2452.920730903747
 20
-484.9787183097385
 97
        0
 75
     0
 76
     1
 52
0.0
 41
0.1
 77
     0
 78
     4
 53
37.5
 43
-14922.20711210654
 44
1187.010666288924
 45
-0.1600031295984046
 46
4.894132373293423
 79
     6
 49
0.0
 49
-3.8608
 49
0.0
 49
-4.318
 49
0.0
 49
-4.1275
 53
7.499999999999999
 43
-14922.20711210654
 44
1187.010666288924
 45
4.495232831380026
 46
7.168251005683543
 79
     6
 49
0.0
 49
-2.0828
 49
0.0
 49
-3.4798
 49
0.0
 49
-1.3335
 53
327.4999999999999
 43
-14925.33131210655
 44
1187.010666288924
 45
7.909923702414579
 46
0.0143718467854569
 79
     6
 49
0.0
 49
-1.27
 49
0.0
 49
-4.572
 49
0.0
 49
-5.969
 53
317.5
 43
-14925.33131210655
 44
1187.010666288924
 45
7.635564524722972
 46
2.229293232572162
 79
     6
 49
0.0
 49
-0.635
 49
0.0
 49
-2.997199999999999
 49
0.0
 49
-3.429
 47
0.5834618568729536
 98
        1
 10
-2457.205187237775
 20
-289.7336586428705
  0
HATCH
  5
3212
330
1F
100
AcDbEntity
  8
STAVBA OBRYS
100
AcDbHatch
 10
0.0
 20
0.0
 30
0.0
210
0.0
220
0.0
230
1.0
  2
AR-SAND
 70
     0
 71
     0
 91
        1
 92
        7
 72
     0
 73
     1
 93
        4
 10
-2452.920730903734
 20
217.9723995424988
 10
-2462.920730903736
 20
217.9723995424988
 10
-2462.920730903741
 20
-138.5031593836195
 10
-2452.920730903741
 20
-153.8678328573355
 97
        0
 75
     0
 76
     1
 52
0.0
 41
0.1
 77
     0
 78
     4
 53
37.5
 43
-14922.20711210654
 44
1187.010666288924
 45
-0.1600031295984046
 46
4.894132373293423
 79
     6
 49
0.0
 49
-3.8608
 49
0.0
 49
-4.318
 49
0.0
 49
-4.1275
 53
7.499999999999999
 43
-14922.20711210654
 44
1187.010666288924
 45
4.495232831380026
 46
7.168251005683543
 79
     6
 49
0.0
 49
-2.0828
 49
0.0
 49
-3.4798
 49
0.0
 49
-1.3335
 53
327.4999999999999
 43
-14925.33131210655
 44
1187.010666288924
 45
7.909923702414579
 46
0.0143718467854569
 79
     6
 49
0.0
 49
-1.27
 49
0.0
 49
-4.572
 49
0.0
 49
-5.969
 53
317.5
 43
-14925.33131210655
 44
1187.010666288924
 45
7.635564524722972
 46
2.229293232572162
 79
     6
 49
0.0
 49
-0.635
 49
0.0
 49
-2.997199999999999
 49
0.0
 49
-3.429
 47
0.5761278209259867
 98
        1
 10
-2456.767609599662
 20
138.3288892600917
  0
LINE
  5
3213
330
1F
100
AcDbEntity
  8
STAVBA OBRYS
100
AcDbLine
 10
-2452.920730903736
 20
217.9723995424988
 30
0.0
 11
-2462.920730903736
 21
217.9723995424988
 31
0.0
  0
LINE
  5
3214
330
1F
100
AcDbEntity
  8
STAVBA OBRYS
100
AcDbLine
 10
-2462.920730903745
 20
-494.9787183097377
 30
0.0
 11
-2462.920730903736
 21
217.9723995424988
 31
0.0
  0
LINE
  5
3215
330
1F
100
AcDbEntity
  8
STAVBA OBRYS
100
AcDbLine
 10
-2462.920730903745
 20
-494.9787183097377
 30
0.0
 11
-1709.110453463072
 21
-494.9787183097384
 31
0.0
  0
HATCH
  5
3216
330
1F
100
AcDbEntity
  8
NOSNÉ KONSTRUKCE
100
AcDbHatch
 10
0.0
 20
0.0
 30
0.0
210
0.0
220
0.0
230
1.0
  2
SOLID
 70
     1
 71
     1
 91
        1
 92
        7
 72
     0
 73
     1
 93
        6
 10
-2007.688185458315
 20
-165.583250796599
 10
-2009.125615868791
 20
-165.583250796599
 10
-2009.125615868788
 20
-176.3257771603834
 10
-2005.407128362698
 20
-181.9823219909124
 10
-2005.407128362698
 20
-179.1899637190081
 10
-2007.688185458315
 20
-175.1848553590007
 97
        6
330
3387
330
336F
330
335F
330
3382
330
335E
330
3370
 75
     0
 76
     1
 47
0.1905954426212598
 98
        1
 10
-2008.393316572041
 20
-172.4595450747788
  0
HATCH
  5
3217
330
1F
100
AcDbEntity
  8
NOSNÉ KONSTRUKCE
100
AcDbHatch
 10
0.0
 20
0.0
 30
0.0
210
0.0
220
0.0
230
1.0
  2
SOLID
 70
     1
 71
     1
 91
        9
 92
        7
 72
     0
 73
     1
 93
        4
 10
-2007.688185458319
 20
-137.598349897303
 10
-2009.125615868788
 20
-137.5983498973032
 10
-2009.125615868788
 20
-165.583250796599
 10
-2007.688185458315
 20
-165.583250796599
 97
        4
330
3367
330
336F
330
3387
330
3370
 92
        7
 72
     0
 73
     1
 93
        4
 10
-2003.969697952221
 20
-137.598349897303
 10
-2005.407128362695
 20
-137.5983498973032
 10
-2005.407128362696
 20
-165.583250796599
 10
-2003.969697952223
 20
-165.583250796599
 97
        4
330
3367
330
3382
330
3387
330
3381
 92
        7
 72
     0
 73
     1
 93
        4
 10
-2003.969697952221
 20
-121.9557771910781
 10
-2005.407128362696
 20
-121.9557771910781
 10
-2005.407128362698
 20
-133.1775073190135
 10
-2003.96969795222
 20
-133.1775073190133
 97
        4
330
336C
330
3382
330
336E
330
3381
 92
        7
 72
     0
 73
     1
 93
        4
 10
-2007.688185458315
 20
-121.955777191079
 10
-2009.125615868791
 20
-121.9557771910779
 10
-2009.125615868788
 20
-133.1775073190135
 10
-2007.688185458317
 20
-133.1775073190133
 97
        4
330
336D
330
336F
330
336E
330
3370
 92
        7
 72
     0
 73
     1
 93
        4
 10
-2003.969697952229
 20
-206.885240743328
 10
-2005.407128362702
 20
-206.8831230833882
 10
-2005.407128362706
 20
-249.9787183097382
 10
-2003.969697952231
 20
-249.9787183097385
 97
        4
330
3385
330
3382
330
3384
330
3381
 92
        7
 72
     0
 73
     1
 93
        4
 10
-1981.332357250569
 20
-246.941599389919
 10
-2003.969697952233
 20
-246.9415993899206
 10
-2003.969697952227
 20
-249.978718309738
 10
-1981.332357250569
 20
-249.978718309738
 97
        4
330
3317
330
3381
330
3384
330
337F
 92
        7
 72
     0
 73
     1
 93
        4
 10
-1974.769857250567
 20
-246.941599389919
 10
-1981.332357250569
 20
-246.9415993899192
 10
-1981.332357250569
 20
-249.9787183097382
 10
-1974.769857250569
 20
-249.9787183097382
 97
        4
330
3317
330
337F
330
3384
330
337D
 92
        7
 72
     0
 73
     1
 93
        4
 10
-1968.207357250569
 20
-246.9415993899185
 10
-1974.769857250565
 20
-246.941599389919
 10
-1974.769857250567
 20
-249.978718309738
 10
-1968.207357250571
 20
-249.9787183097378
 97
        4
330
3317
330
337D
330
3384
330
337E
 92
        7
 72
     1
 73
     1
 93
        5
 10
-1953.182970613158
 20
-246.9787183097378
 42
0.0030933321144456
 10
-1953.183200257648
 20
-246.9415993899179
 42
0.0
 10
-1968.207357250571
 20
-246.9415993899185
 42
0.0
 10
-1968.207357250572
 20
-249.9787183097382
 42
0.0
 10
-1953.182970613158
 20
-249.9787183097385
 42
0.0
 97
        5
330
3380
330
3317
330
337E
330
3384
330
331F
 75
     0
 76
     1
 47
0.3686850492291862
 98
        9
 10
-2008.493363111553
 20
-146.8970028104035
 10
-2004.804521659458
 20
-147.2656909535603
 10
-2004.804521659458
 20
-126.9880191571196
 10
-2008.493363111553
 20
-127.7253778357103
 10
-2004.435616739229
 20
-244.9672389350839
 10
-1999.640090205056
 20
-248.2853970080564
 10
-1977.875798019744
 20
-248.2853970080564
 10
-1971.604740840452
 20
-248.2853970080564
 10
-1960.169252206757
 20
-248.6540851512131
  0
HATCH
  5
3218
330
1F
100
AcDbEntity
  8
NOSNÉ KONSTRUKCE
100
AcDbHatch
 10
0.0
 20
0.0
 30
0.0
210
0.0
220
0.0
230
1.0
  2
SOLID
 70
     1
 71
     1
 91
        1
 92
        7
 72
     0
 73
     1
 93
        4
 10
-2003.969697952225
 20
-165.583250796599
 10
-2005.4071283627
 20
-165.5832507965988
 10
-2005.407128362702
 20
-206.8831230833882
 10
-2003.969697952227
 20
-206.885240743328
 97
        4
330
3387
330
3382
330
3385
330
3381
 75
     0
 76
     1
 47
0.3686850492291862
 98
        1
 10
-2004.804521659458
 20
-202.9371427695682
  0
TEXT
  5
3219
330
1F
100
AcDbEntity
  8
POPIS
100
AcDbText
 10
-2471.006029797893
 20
278.3125504033427
 30
0.0
 40
35.0
  1
PŮDORYS-ŘEŠENÍ S PŘESAHEM
 41
0.75
  7
SIMPLEX7
100
AcDbText
  0
HATCH
  5
321A
330
1F
100
AcDbEntity
  8
NOSNÉ KONSTRUKCE
100
AcDbHatch
 10
0.0
 20
0.0
 30
0.0
210
0.0
220
0.0
230
1.0
  2
SOLID
 70
     1
 71
     1
 91
       11
 92
        7
 72
     0
 73
     1
 93
        4
 10
-2213.364979248912
 20
5.548800564139355
 10
-2216.327860329095
 20
3.59717223919506
 10
-2216.327860329095
 20
-11.44538317950969
 10
-2213.364979248911
 20
-11.44538317951014
 97
        4
330
322C
330
339B
330
329A
330
3280
 92
        7
 72
     0
 73
     1
 93
        4
 10
-2213.364979248909
 20
-11.44538317950991
 10
-2216.327860329097
 20
-11.44538317950969
 10
-2216.327860329097
 20
-18.00788317951014
 10
-2213.364979248911
 20
-18.00788317951014
 97
        4
330
329A
330
339B
330
32B6
330
3280
 92
        7
 72
     0
 73
     1
 93
        4
 10
-2213.364979248909
 20
-18.00788317950991
 10
-2216.327860329097
 20
-18.00788317950969
 10
-2216.327860329097
 20
-24.57038317950992
 10
-2213.364979248909
 20
-24.57038317950992
 97
        4
330
32B6
330
339B
330
329B
330
3280
 92
        7
 72
     0
 73
     1
 93
        4
 10
-2213.364979248909
 20
-24.57038317950992
 10
-2216.327860329097
 20
-24.57038317950969
 10
-2216.327860329097
 20
-43.40124684904822
 10
-2213.364979248911
 20
-43.40124684904799
 97
        4
330
329B
330
339B
330
3261
330
3280
 92
        7
 72
     0
 73
     1
 93
        4
 10
-2174.655677605016
 20
-43.40124684904526
 10
-2216.327860329097
 20
-43.40124684904776
 10
-2216.327860329097
 20
-44.83867725952291
 10
-2174.657795264957
 20
-44.83867725952018
 97
        4
330
3261
330
339B
330
3262
330
3388
 92
        7
 72
     0
 73
     1
 93
        4
 10
-2132.81816022479
 20
-43.40124684904253
 10
-2174.655677605016
 20
-43.40124684904504
 10
-2174.657795264955
 20
-44.83867725952018
 10
-2132.81816022479
 20
-44.83867725951722
 97
        4
330
3261
330
3388
330
3262
330
338A
 92
        7
 72
     0
 73
     1
 93
        4
 10
-2103.984610836474
 20
-47.11973435513437
 10
-2132.81816022479
 20
-47.11973435513459
 10
-2132.818160224788
 20
-48.55716476560928
 10
-2103.984610836474
 20
-48.55716476560928
 97
        4
330
3258
330
338A
330
3257
330
3245
 92
        7
 72
     0
 73
     1
 93
        4
 10
-2103.984610836474
 20
-43.40124684904049
 10
-2132.818160224788
 20
-43.40124684904276
 10
-2132.818160224786
 20
-44.83867725951722
 10
-2103.984610836476
 20
-44.8386772595154
 97
        4
330
3261
330
338A
330
3262
330
3245
 92
        7
 72
     0
 73
     1
 93
        4
 10
-2088.342038130249
 20
-43.4012468490398
 10
-2099.563768258186
 20
-43.40124684904049
 10
-2099.563768258186
 20
-44.8386772595154
 10
-2088.342038130248
 20
-44.8386772595145
 97
        4
330
3261
330
3246
330
3262
330
3251
 92
        7
 72
     0
 73
     1
 93
        4
 10
-2088.342038130251
 20
-47.11973435513414
 10
-2099.563768258184
 20
-47.11973435513437
 10
-2099.563768258186
 20
-48.55716476560928
 10
-2088.342038130246
 20
-48.55716476560928
 97
        4
330
3258
330
3246
330
3257
330
3252
 92
        7
 72
     0
 73
     1
 93
        6
 10
-2145.57622465818
 20
-44.83867725951836
 10
-2148.368582930085
 20
-44.83867725951836
 10
-2142.712038099555
 20
-48.55716476560928
 10
-2132.81816022479
 20
-48.55716476560928
 10
-2132.81816022479
 20
-47.11973435513437
 10
-2141.571116298175
 20
-47.11973435513437
 97
        6
330
3262
330
325A
330
3257
330
338A
330
3258
330
3259
 75
     0
 76
     1
 47
0.2862753647459041
 98
       11
 10
-2215.079524865698
 20
-2.185577237718916
 10
-2214.793096757483
 20
-14.49541915433519
 10
-2215.079524865698
 20
-23.36995880692347
 10
-2214.506668649268
 20
-33.96214959152576
 10
-2213.074498429607
 20
-44.55434037612803
 10
-2143.758035562762
 20
-43.98178999879246
 10
-2123.707800880486
 20
-47.70337625534603
 10
-2123.707800880486
 20
-44.26805638359883
 10
-2092.486751263514
 20
-43.98178999879246
 10
-2093.918921483175
 20
-48.27592663268524
 10
-2142.612293451315
 20
-46.84454188547761
  0
LWPOLYLINE
  5
321B
330
1F
100
AcDbEntity
  8
STAVBA OBRYS
  6
DASHED
100
AcDbPolyline
 90
        4
 70
     1
 43
0.0
 10
-2132.656447397349
 20
160.8248803238479
 10
-2138.029728722202
 20
160.8248803238479
 10
-2138.029728722202
 20
210.9444523428706
 10
-2132.656447397349
 20
210.9444523428706
  0
LINE
  5
321C
330
1F
100
AcDbEntity
  8
STAVBA OBRYS
  6
DASHED
100
AcDbLine
 10
-2302.188921096384
 20
185.8846663333597
 30
0.0
 11
-2298.400059954827
 21
179.3221663333597
 31
0.0
  0
LINE
  5
321D
330
1F
100
AcDbEntity
  8
STAVBA OBRYS
  6
DASHED
100
AcDbLine
 10
-2302.188921096384
 20
185.8846663333597
 30
0.0
 11
-2298.400059954827
 21
192.4471663333597
 31
0.0
  0
LINE
  5
321E
330
1F
100
AcDbEntity
  8
STAVBA OBRYS
  6
DASHDOT2
100
AcDbLine
 10
-2104.271484220528
 20
185.8846663333606
 30
0.0
 11
-2317.047973286626
 21
185.8846663333597
 31
0.0
  0
LINE
  5
321F
330
1F
100
AcDbEntity
  8
STAVBA OBRYS
  6
DASHED
100
AcDbLine
 10
-2298.400059954827
 20
179.3221663333597
 30
0.0
 11
-2138.029728722202
 21
179.3221663333615
 31
0.0
  0
LINE
  5
3220
330
1F
100
AcDbEntity
  8
STAVBA OBRYS
  6
DASHED
100
AcDbLine
 10
-2298.400059954827
 20
192.4471663333597
 30
0.0
 11
-2138.029728722202
 21
192.4471663333615
 31
0.0
  0
LINE
  5
3221
330
1F
100
AcDbEntity
  8
STAVBA OBRYS
  6
DASHDOT2
100
AcDbLine
 10
-1751.419182886184
 20
-136.8008195357083
 30
0.0
 11
-1751.419182886182
 21
-349.5773086018066
 31
0.0
  0
LWPOLYLINE
  5
3222
330
1F
100
AcDbEntity
  8
STAVBA OBRYS
  6
DASHED
100
AcDbPolyline
 90
        4
 70
     1
 43
0.0
 10
-1726.359396876671
 20
-165.185782712529
 10
-1726.359396876671
 20
-170.5590640373825
 10
-1776.478968895693
 20
-170.5590640373825
 10
-1776.478968895693
 20
-165.185782712529
  0
LINE
  5
3223
330
1F
100
AcDbEntity
  8
STAVBA OBRYS
  6
DASHED
100
AcDbLine
 10
-1751.419182886182
 20
-334.7182564115641
 30
0.0
 11
-1744.856682886182
 21
-330.9293952700077
 31
0.0
  0
LINE
  5
3224
330
1F
100
AcDbEntity
  8
STAVBA OBRYS
  6
DASHED
100
AcDbLine
 10
-1751.419182886182
 20
-334.7182564115641
 30
0.0
 11
-1757.981682886182
 21
-330.9293952700077
 31
0.0
  0
LINE
  5
3225
330
1F
100
AcDbEntity
  8
STAVBA OBRYS
  6
DASHED
100
AcDbLine
 10
-1744.856682886182
 20
-330.9293952700077
 30
0.0
 11
-1744.856682886184
 21
-170.5590640373825
 31
0.0
  0
LINE
  5
3226
330
1F
100
AcDbEntity
  8
STAVBA OBRYS
  6
DASHED
100
AcDbLine
 10
-1757.981682886182
 20
-330.9293952700077
 30
0.0
 11
-1757.981682886184
 21
-170.5590640373825
 31
0.0
  0
HATCH
  5
3227
330
1F
100
AcDbEntity
  8
STAVBA OBRYS
100
AcDbHatch
 10
0.0
 20
0.0
 30
0.0
210
0.0
220
0.0
230
1.0
  2
BRICK
 70
     0
 71
     0
 91
        1
 92
        7
 72
     0
 73
     1
 93
       29
 10
-2216.327860329097
 20
-126.0110070561133
 10
-2298.400059954827
 20
-126.011007056114
 10
-2302.188921096385
 20
-119.4485070561131
 10
-2298.400059954831
 20
-112.8860070561138
 10
-2216.327860329097
 20
-112.8860070561129
 10
-2216.327860329097
 20
-24.57038317950969
 10
-2293.873533571786
 20
-24.57038317951083
 10
-2297.662394713343
 20
-18.00788317950878
 10
-2293.873533571786
 20
-11.44538317951059
 10
-2239.164843313032
 20
-11.44538317951014
 10
-2216.327860329097
 20
3.597172239197107
 10
-2216.327860329097
 20
217.9723995424988
 10
-2452.920730903738
 20
217.9723995424988
 10
-2452.920730903745
 20
-484.978718309738
 10
-1995.395676817159
 20
-484.9787183097382
 10
-1709.110453463074
 20
-484.9787183097382
 10
-1723.096795169053
 20
-249.9787183097382
 10
-1968.207357250569
 20
-249.9787183097385
 10
-1968.207357250567
 20
-327.4872726326139
 10
-1974.769857250567
 20
-331.2761337741717
 10
-1981.332357250567
 20
-327.4872726326143
 10
-1981.332357250569
 20
-249.9787183097382
 10
-2009.382018523138
 20
-249.9787183097382
 10
-2093.140738107048
 20
-249.978718309738
 10
-2093.14073810705
 20
-330.9293952700079
 10
-2099.703238107046
 20
-334.7182564115641
 10
-2106.265738107047
 20
-330.9293952700072
 10
-2106.265738107047
 20
-249.9787183097382
 10
-2216.327860329097
 20
-249.9787183097382
 97
        0
 75
     0
 76
     1
 52
0.0
 41
10.0
 77
     0
 78
     3
 53
0.0
 43
-14922.20711210654
 44
1187.010666288924
 45
0.0
 46
63.5
 79
     0
 53
90.0
 43
-14922.20711210654
 44
1187.010666288924
 45
-127.0
 46
0.0000000000000078
 79
     2
 49
63.5
 49
-63.5
 53
90.0
 43
-14858.70711210655
 44
1187.010666288924
 45
-127.0
 46
0.0000000000000078
 79
     2
 49
-63.5
 49
63.5
 47
2.343896090719463
 98
        1
 10
-2248.879716605599
 20
-221.3908471792769
  0
INSERT
  5
3229
330
1F
100
AcDbEntity
  8
POPIS
100
AcDbBlockReference
  2
E_PUNKT
 10
-2056.11226546505
 20
-73.18475920508399
 30
0.0
 41
-1.0
  0
TEXT
  5
322B
330
1F
100
AcDbEntity
  8
POPIS
100
AcDbText
 10
-1896.187468487297
 20
-61.04467137971505
 30
0.0
 40
25.0
  1
02
 41
0.7
  7
SIMPLEX7
100
AcDbText
  0
LINE
  5
322C
102
{ACAD_REACTORS
330
321A
102
}
330
1F
100
AcDbEntity
  8
POPIS
100
AcDbLine
 10
-2245.261733280111
 20
-15.46136047721438
 30
0.0
 11
-2044.973604703266
 21
116.466980317431
 31
0.0
  0
INSERT
  5
322D
330
1F
100
AcDbEntity
  8
POPIS
100
AcDbBlockReference
  2
E_PUNKT
 10
-2102.036064465658
 20
151.7058423284429
 30
0.0
 41
-1.0
  0
LINE
  5
322E
330
1F
100
AcDbEntity
  8
POPIS
100
AcDbLine
 10
-2064.356181906498
 20
185.9023011398879
 30
0.0
 11
-1910.49132987378
 21
185.9006954578631
 31
0.0
  0
TEXT
  5
322F
330
1F
100
AcDbEntity
  8
POPIS
100
AcDbText
 10
-1895.830103586355
 20
173.536997512107
 30
0.0
 40
25.0
  1
01
 41
0.7
  7
SIMPLEX7
100
AcDbText
  0
LINE
  5
3230
330
1F
100
AcDbEntity
  8
POPIS
100
AcDbLine
 10
-2102.063674841283
 20
151.7349106593155
 30
0.0
 11
-1910.49132987378
 21
151.7349106593151
 31
0.0
  0
TEXT
  5
3231
330
1F
100
AcDbEntity
  8
POPIS
100
AcDbText
 10
-1895.830103586355
 20
139.371212713559
 30
0.0
 40
25.0
  1
03
 41
0.7
  7
SIMPLEX7
100
AcDbText
  0
LINE
  5
3232
330
1F
100
AcDbEntity
  8
POPIS
100
AcDbLine
 10
-2044.973604703266
 20
116.466980317431
 30
0.0
 11
-1910.49132987378
 21
116.4669803174306
 31
0.0
  0
TEXT
  5
3233
330
1F
100
AcDbEntity
  8
POPIS
100
AcDbText
 10
-1895.830103586355
 20
104.1032823716745
 30
0.0
 40
25.0
  1
04
 41
0.7
  7
SIMPLEX7
100
AcDbText
  0
TEXT
  5
3234
330
1F
100
AcDbEntity
  8
POPIS
100
AcDbText
 10
-1895.830103586355
 20
66.71826997913058
 30
0.0
 40
25.0
  1
05
 41
0.7
  7
SIMPLEX7
100
AcDbText
  0
TEXT
  5
3235
330
1F
100
AcDbEntity
  8
POPIS
100
AcDbText
 10
-1895.830103586355
 20
30.23552128494748
 30
0.0
 40
25.0
  1
06
 41
0.7
  7
SIMPLEX7
100
AcDbText
  0
LINE
  5
3236
330
1F
100
AcDbEntity
  8
STAVBA OBRYS
  6
DASHED
100
AcDbLine
 10
-2302.188921096384
 20
-119.448507056114
 30
0.0
 11
-2298.400059954827
 21
-112.886007056114
 31
0.0
  0
LINE
  5
3237
330
1F
100
AcDbEntity
  8
STAVBA OBRYS
  6
DASHED
100
AcDbLine
 10
-2302.188921096384
 20
-119.448507056114
 30
0.0
 11
-2298.400059954827
 21
-126.011007056114
 31
0.0
  0
LWPOLYLINE
  5
3238
330
1F
100
AcDbEntity
  8
STAVBA OBRYS
  6
DASHED
100
AcDbPolyline
 90
        4
 70
     1
 43
0.0
 10
-2132.656447397349
 20
-144.5082930656258
 10
-2138.029728722202
 20
-144.5082930656258
 10
-2138.029728722202
 20
-94.38872104660323
 10
-2132.656447397349
 20
-94.38872104660323
  0
LINE
  5
3239
330
1F
100
AcDbEntity
  8
STAVBA OBRYS
  6
DASHED
100
AcDbLine
 10
-2298.400059954827
 20
-112.886007056114
 30
0.0
 11
-2138.029728722202
 21
-112.8860070561122
 31
0.0
  0
LINE
  5
323A
330
1F
100
AcDbEntity
  8
STAVBA OBRYS
  6
DASHED
100
AcDbLine
 10
-2298.400059954827
 20
-126.011007056114
 30
0.0
 11
-2138.029728722202
 21
-126.0110070561122
 31
0.0
  0
LINE
  5
323B
330
1F
100
AcDbEntity
  8
STAVBA OBRYS
  6
DASHDOT2
100
AcDbLine
 10
-2104.271484220528
 20
-119.4485070561131
 30
0.0
 11
-2317.047973286626
 21
-119.448507056114
 31
0.0
  0
LINE
  5
323C
330
1F
100
AcDbEntity
  8
NOSNÉ KONSTRUKCE
100
AcDbLine
 10
-2080.141374123123
 20
-78.14025836960218
 30
0.0
 11
-2077.763698335344
 21
-78.14025836960218
 31
0.0
  0
LINE
  5
323D
330
1F
100
AcDbEntity
  8
NOSNÉ KONSTRUKCE
100
AcDbLine
 10
-2077.763698335344
 20
-78.14025836960218
 30
0.0
 11
-2077.763698335344
 21
-66.37083687519998
 31
0.0
  0
LINE
  5
323E
330
1F
100
AcDbEntity
  8
NOSNÉ KONSTRUKCE
100
AcDbLine
 10
-2077.763698335344
 20
-66.37083687519998
 30
0.0
 11
-2080.141374123123
 21
-66.37083687519998
 31
0.0
  0
LINE
  5
323F
330
1F
100
AcDbEntity
  8
NOSNÉ KONSTRUKCE
100
AcDbLine
 10
-2135.156538862109
 20
-45.11138151343629
 30
0.0
 11
-2135.156538862109
 21
-46.78754212609283
 31
0.0
  0
ARC
  5
3240
330
1F
100
AcDbEntity
  8
NOSNÉ KONSTRUKCE
100
AcDbCircle
 10
-2128.45343434313
 20
-41.59476981692432
 30
0.0
 40
2.0
100
AcDbArc
 50
42.10694339903617
 51
90.0
  0
LINE
  5
3241
330
1F
100
AcDbEntity
  8
NOSNÉ KONSTRUKCE
100
AcDbLine
 10
-2126.969645163608
 20
-40.25373675590981
 30
0.0
 11
-2124.124958631976
 21
-43.40124684904231
 31
0.0
  0
LWPOLYLINE
  5
3242
330
1F
100
AcDbEntity
  8
NOSNÉ KONSTRUKCE
100
AcDbPolyline
 90
        3
 70
     0
 43
0.0
 10
-2080.141374123123
 20
-78.14025836960218
 10
-2082.667461555124
 20
-78.14025836960218
 10
-2082.667461555124
 20
-46.78754212609283
  0
LINE
  5
3243
330
1F
100
AcDbEntity
  8
NOSNÉ KONSTRUKCE
100
AcDbLine
 10
-2080.141374123123
 20
-25.52808676432914
 30
0.0
 11
-2080.141374123123
 21
-66.37083687519998
 31
0.0
  0
LINE
  5
3244
330
1F
100
AcDbEntity
  8
SPOJOVACÍ
100
AcDbLine
 10
-2103.984610836476
 20
-48.17095291936266
 30
0.0
 11
-2099.563768258186
 21
-49.35551411807819
 31
0.0
  0
LINE
  5
3245
102
{ACAD_REACTORS
330
321A
102
}
330
1F
100
AcDbEntity
  8
SPOJOVACÍ
100
AcDbLine
 10
-2103.984610836476
 20
-49.61813680197292
 30
0.0
 11
-2103.984610836476
 21
-43.02052121864335
 31
0.0
  0
LINE
  5
3246
102
{ACAD_REACTORS
330
321A
102
}
330
1F
100
AcDbEntity
  8
SPOJOVACÍ
100
AcDbLine
 10
-2099.563768258186
 20
-49.61813680197292
 30
0.0
 11
-2099.563768258186
 21
-43.02052121864335
 31
0.0
  0
LINE
  5
3247
330
1F
100
AcDbEntity
  8
SPOJOVACÍ
100
AcDbLine
 10
-2101.77418954733
 20
-51.32115351955372
 30
0.0
 11
-2103.984610836476
 21
-49.61813680197292
 31
0.0
  0
LINE
  5
3248
330
1F
100
AcDbEntity
  8
SPOJOVACÍ
100
AcDbLine
 10
-2101.77418954733
 20
-51.32115351955372
 30
0.0
 11
-2099.563768258186
 21
-49.61813680197292
 31
0.0
  0
LINE
  5
3249
330
1F
100
AcDbEntity
  8
SPOJOVACÍ
100
AcDbLine
 10
-2103.984610836476
 20
-49.40142166936175
 30
0.0
 11
-2100.495825091672
 21
-50.33623899224631
 31
0.0
  0
INSERT
  5
324A
330
1F
100
AcDbEntity
  8
POPIS
100
AcDbBlockReference
  2
E_PUNKT
 10
-2082.639851179498
 20
-13.78773360079958
 30
0.0
 41
-1.0
  0
LINE
  5
324B
330
1F
100
AcDbEntity
  8
SPOJOVACÍ
100
AcDbLine
 10
-2103.984610836476
 20
-46.94048416936175
 30
0.0
 11
-2099.563768258186
 21
-48.1250453680791
 31
0.0
  0
LINE
  5
324C
330
1F
100
AcDbEntity
  8
SPOJOVACÍ
100
AcDbLine
 10
-2103.984610836476
 20
-44.47954666936175
 30
0.0
 11
-2099.563768258186
 21
-45.66410786808001
 31
0.0
  0
LINE
  5
324D
330
1F
100
AcDbEntity
  8
SPOJOVACÍ
100
AcDbLine
 10
-2103.984610836476
 20
-43.24907791935993
 30
0.0
 11
-2099.563768258186
 21
-44.43363911807909
 31
0.0
  0
LINE
  5
324E
330
1F
100
AcDbEntity
  8
SPOJOVACÍ
100
AcDbLine
 10
-2103.984610836476
 20
-45.71001541936175
 30
0.0
 11
-2099.563768258186
 21
-46.89457661808091
 31
0.0
  0
LINE
  5
324F
330
1F
100
AcDbEntity
  8
SPOJOVACÍ
100
AcDbLine
 10
-2096.23708017233
 20
-43.02052121864335
 30
0.0
 11
-2101.77418954733
 21
-43.02052121864335
 31
0.0
  0
LWPOLYLINE
  5
3250
330
1F
100
AcDbEntity
  8
NOSNÉ KONSTRUKCE
100
AcDbPolyline
 90
        3
 70
     0
 43
0.0
 10
-2082.667461555124
 20
-45.11138151343629
 10
-2082.667461555124
 20
-13.75866526992695
 10
-2080.141374123123
 20
-13.75866526992695
  0
LINE
  5
3251
102
{ACAD_REACTORS
330
321A
102
}
330
1F
100
AcDbEntity
  8
NOSNÉ KONSTRUKCE
100
AcDbLine
 10
-2088.342038130249
 20
-43.40124684903957
 30
0.0
 11
-2088.342038130249
 21
-44.8386772595145
 31
0.0
  0
LINE
  5
3252
102
{ACAD_REACTORS
330
321A
102
}
330
1F
100
AcDbEntity
  8
NOSNÉ KONSTRUKCE
100
AcDbLine
 10
-2088.342038130251
 20
-47.11973435513437
 30
0.0
 11
-2088.342038130249
 21
-48.55716476560928
 31
0.0
  0
ARC
  5
3253
330
1F
100
AcDbEntity
  8
SPOJOVACÍ
100
AcDbCircle
 10
-2101.77418954733
 20
-47.33082128744036
 30
0.0
 40
7.016998426235272
100
AcDbArc
 50
37.89856980784375
 51
142.1014301921562
  0
LINE
  5
3254
330
1F
100
AcDbEntity
  8
SPOJOVACÍ
100
AcDbLine
 10
-2101.77418954733
 20
-43.02052121864335
 30
0.0
 11
-2107.31129892233
 21
-43.02052121864335
 31
0.0
  0
LINE
  5
3255
330
1F
100
AcDbEntity
  8
NOSNÉ KONSTRUKCE
100
AcDbLine
 10
-2082.667461555124
 20
-45.11138151343629
 30
0.0
 11
-2135.156538862109
 21
-45.11138151343629
 31
0.0
  0
LINE
  5
3256
330
1F
100
AcDbEntity
  8
NOSNÉ KONSTRUKCE
100
AcDbLine
 10
-2135.156538862109
 20
-46.78754212609283
 30
0.0
 11
-2082.667461555124
 21
-46.78754212609283
 31
0.0
  0
LINE
  5
3257
102
{ACAD_REACTORS
330
321A
102
}
330
1F
100
AcDbEntity
  8
NOSNÉ KONSTRUKCE
100
AcDbLine
 10
-2088.342038130249
 20
-48.55716476560928
 30
0.0
 11
-2142.712038099555
 21
-48.55716476560928
 31
0.0
  0
LINE
  5
3258
102
{ACAD_REACTORS
330
321A
102
}
330
1F
100
AcDbEntity
  8
NOSNÉ KONSTRUKCE
100
AcDbLine
 10
-2141.571116298175
 20
-47.11973435513437
 30
0.0
 11
-2088.342038130251
 21
-47.11973435513437
 31
0.0
  0
LINE
  5
3259
102
{ACAD_REACTORS
330
321A
102
}
330
1F
100
AcDbEntity
  8
NOSNÉ KONSTRUKCE
100
AcDbLine
 10
-2141.571116298175
 20
-47.11973435513437
 30
0.0
 11
-2145.57622465818
 21
-44.83867725951813
 31
0.0
  0
LINE
  5
325A
102
{ACAD_REACTORS
330
321A
102
}
330
1F
100
AcDbEntity
  8
NOSNÉ KONSTRUKCE
100
AcDbLine
 10
-2142.712038099555
 20
-48.55716476560928
 30
0.0
 11
-2148.368582930085
 21
-44.83867725951859
 31
0.0
  0
LINE
  5
325B
330
1F
100
AcDbEntity
  8
NOSNÉ KONSTRUKCE
100
AcDbLine
 10
-2077.763698335344
 20
-13.75866526992695
 30
0.0
 11
-2077.763698335344
 21
-25.52808676432914
 31
0.0
  0
LINE
  5
325C
330
1F
100
AcDbEntity
  8
NOSNÉ KONSTRUKCE
100
AcDbLine
 10
-2077.763698335344
 20
-25.52808676432914
 30
0.0
 11
-2080.141374123123
 21
-25.52808676432914
 31
0.0
  0
LINE
  5
325D
330
1F
100
AcDbEntity
  8
NOSNÉ KONSTRUKCE
100
AcDbLine
 10
-2080.141374123123
 20
-13.75866526992695
 30
0.0
 11
-2077.763698335344
 21
-13.75866526992695
 31
0.0
  0
LINE
  5
325E
330
1F
100
AcDbEntity
  8
POPIS
100
AcDbLine
 10
-2082.667461555124
 20
-13.75866526992695
 30
0.0
 11
-2044.973604703266
 21
42.59921923070396
 31
0.0
  0
LINE
  5
325F
330
1F
100
AcDbEntity
  8
POPIS
100
AcDbLine
 10
-2174.46634136881
 20
-39.59476981692205
 30
0.0
 11
-2044.973604703264
 21
79.08196792488706
 31
0.0
  0
INSERT
  5
3260
330
1F
100
AcDbEntity
  8
POPIS
100
AcDbBlockReference
  2
E_PUNKT
 10
-2174.438730993184
 20
-39.62383814779468
 30
0.0
 41
-1.0
  0
LINE
  5
3261
102
{ACAD_REACTORS
330
321A
102
}
330
1F
100
AcDbEntity
  8
NOSNÉ KONSTRUKCE
100
AcDbLine
 10
-2088.342038130249
 20
-43.40124684903957
 30
0.0
 11
-2216.364979248913
 21
-43.40124684904776
 31
0.0
  0
LINE
  5
3262
102
{ACAD_REACTORS
330
321A
102
}
330
1F
100
AcDbEntity
  8
NOSNÉ KONSTRUKCE
100
AcDbLine
 10
-2088.342038130249
 20
-44.8386772595145
 30
0.0
 11
-2216.570458842722
 21
-44.83867725952268
 31
0.0
  0
LINE
  5
3263
330
1F
100
AcDbEntity
  8
NOSNÉ KONSTRUKCE
100
AcDbLine
 10
-2128.45343434313
 20
-39.59476981692432
 30
0.0
 11
-2207.36497924891
 21
-39.59476981692068
 31
0.0
  0
INSERT
  5
3264
330
1F
100
AcDbEntity
  8
POPIS
100
AcDbBlockReference
  2
E_PUNKT
 10
-2245.234122904485
 20
-15.49042880808701
 30
0.0
 41
-1.0
  0
LINE
  5
3265
330
1F
100
AcDbEntity
  8
SPOJOVACÍ
100
AcDbLine
 10
-2249.542497635277
 20
-20.47811620108404
 30
0.0
 11
-2250.903156924471
 21
-15.40006660202152
 31
0.0
  0
LINE
  5
3266
330
1F
100
AcDbEntity
  8
SPOJOVACÍ
100
AcDbLine
 10
-2243.939502758569
 20
-20.39599196293056
 30
0.0
 11
-2245.261733280113
 21
-15.46136047721438
 31
0.0
  0
LINE
  5
3267
330
1F
100
AcDbEntity
  8
SPOJOVACÍ
100
AcDbLine
 10
-2245.797198848861
 20
-20.46057103313387
 30
0.0
 11
-2247.144896038886
 21
-15.43089664673834
 31
0.0
  0
LINE
  5
3268
330
1F
100
AcDbEntity
  8
SPOJOVACÍ
100
AcDbLine
 10
-2247.672198848861
 20
-20.46057103313387
 30
0.0
 11
-2249.025366594751
 21
-15.41048025430291
 31
0.0
  0
LINE
  5
3269
330
1F
100
AcDbEntity
  8
SPOJOVACÍ
100
AcDbLine
 10
-2247.969762426494
 20
-19.35004864292568
 30
0.0
 11
-2248.608160400599
 21
-16.9675149681052
 31
0.0
  0
LINE
  5
326A
330
1F
100
AcDbEntity
  8
SPOJOVACÍ
100
AcDbLine
 10
-2246.135529407115
 20
-19.19790419997161
 30
0.0
 11
-2246.701699238319
 21
-17.08492962420359
 31
0.0
  0
LINE
  5
326B
330
1F
100
AcDbEntity
  8
SPOJOVACÍ
100
AcDbLine
 10
-2244.303811045662
 20
-19.03637492588359
 30
0.0
 11
-2244.794474436349
 21
-17.2051942224225
 31
0.0
  0
LINE
  5
326C
330
1F
100
AcDbEntity
  8
SPOJOVACÍ
100
AcDbLine
 10
-2232.803904769267
 20
-19.96903784651613
 30
0.0
 11
-2233.905508683705
 21
-15.85779606801679
 31
0.0
  0
LINE
  5
326D
330
1F
100
AcDbEntity
  8
SPOJOVACÍ
100
AcDbLine
 10
-2230.956986938687
 20
-19.86423376345783
 30
0.0
 11
-2232.003137488302
 21
-15.95994675992733
 31
0.0
  0
LINE
  5
326E
330
1F
100
AcDbEntity
  8
SPOJOVACÍ
100
AcDbLine
 10
-2240.217273298786
 20
-20.2923508958861
 30
0.0
 11
-2241.487281642116
 21
-15.55261523253739
 31
0.0
  0
LINE
  5
326F
330
1F
100
AcDbEntity
  8
SPOJOVACÍ
100
AcDbLine
 10
-2234.653383589602
 20
-20.06428418569567
 30
0.0
 11
-2235.805094522897
 21
-15.7660404670014
 31
0.0
  0
LINE
  5
3270
330
1F
100
AcDbEntity
  8
SPOJOVACÍ
100
AcDbLine
 10
-2236.505431999818
 20
-20.14994068488022
 30
0.0
 11
-2237.701909359315
 21
-15.68462638913251
 31
0.0
  0
LINE
  5
3271
330
1F
100
AcDbEntity
  8
SPOJOVACÍ
100
AcDbLine
 10
-2238.36005886091
 20
-20.2259742743995
 30
0.0
 11
-2239.595967185816
 21
-15.61350161235213
 31
0.0
  0
LINE
  5
3272
330
1F
100
AcDbEntity
  8
SPOJOVACÍ
100
AcDbLine
 10
-2242.047198848861
 20
-20.46057103313387
 30
0.0
 11
-2243.375866021975
 21
-15.50191763671409
 31
0.0
  0
LINE
  5
3273
330
1F
100
AcDbEntity
  8
SPOJOVACÍ
100
AcDbLine
 10
-2229.112621754681
 20
-19.74990307368534
 30
0.0
 11
-2230.09796621496
 21
-16.07254748496097
 31
0.0
  0
LINE
  5
3274
330
1F
100
AcDbEntity
  8
SPOJOVACÍ
100
AcDbLine
 10
-2216.272891026601
 20
-18.6852636570461
 30
0.0
 11
-2216.682047320443
 21
-17.15827158018646
 31
0.0
  0
LINE
  5
3275
330
1F
100
AcDbEntity
  8
SPOJOVACÍ
100
AcDbLine
 10
-2218.099600466307
 20
-18.86548648159168
 30
0.0
 11
-2218.607264039401
 21
-16.97086023364636
 31
0.0
  0
LINE
  5
3276
330
1F
100
AcDbEntity
  8
SPOJOVACÍ
100
AcDbLine
 10
-2219.928811045662
 20
-19.03637492588359
 30
0.0
 11
-2220.529566606143
 21
-16.79432465123318
 31
0.0
  0
LINE
  5
3277
330
1F
100
AcDbEntity
  8
SPOJOVACÍ
100
AcDbLine
 10
-2221.760529407114
 20
-19.19790419997161
 30
0.0
 11
-2222.448972561582
 21
-16.62859936937638
 31
0.0
  0
LINE
  5
3278
330
1F
100
AcDbEntity
  8
SPOJOVACÍ
100
AcDbLine
 10
-2223.594762426494
 20
-19.35004864292568
 30
0.0
 11
-2224.365499015774
 21
-16.47362053248025
 31
0.0
  0
LINE
  5
3279
330
1F
100
AcDbEntity
  8
SPOJOVACÍ
100
AcDbLine
 10
-2227.270801127259
 20
-19.62607596946009
 30
0.0
 11
-2228.189979765675
 21
-16.19565458965871
 31
0.0
  0
LINE
  5
327A
330
1F
100
AcDbEntity
  8
SPOJOVACÍ
100
AcDbLine
 10
-2225.431517215988
 20
-19.4927817116818
 30
0.0
 11
-2226.279162657862
 21
-16.3293258558001
 31
0.0
  0
LINE
  5
327B
330
1F
100
AcDbEntity
  8
NOSNÉ KONSTRUKCE
100
AcDbLine
 10
-2210.364979248911
 20
-36.59476981692069
 30
0.0
 11
-2210.364979248912
 21
4.385480490024292
 31
0.0
  0
LINE
  5
327C
330
1F
100
AcDbEntity
  8
SPOJOVACÍ
100
AcDbLine
 10
-2207.104047133007
 20
-10.43066208901291
 30
0.0
 11
-2207.104047133007
 21
-32.07038317950992
 31
0.0
  0
LINE
  5
327D
330
1F
100
AcDbEntity
  8
SPOJOVACÍ
100
AcDbLine
 10
-2207.094672133008
 20
-7.695383179509917
 30
0.0
 11
-2207.094672133008
 21
-28.32038317950992
 31
0.0
  0
LINE
  5
327E
330
1F
100
AcDbEntity
  8
SPOJOVACÍ
100
AcDbLine
 10
-2209.961938628112
 20
-18.00788317950991
 30
0.0
 11
-2209.961938628112
 21
-32.07038317950992
 31
0.0
  0
LINE
  5
327F
330
1F
100
AcDbEntity
  8
SPOJOVACÍ
100
AcDbLine
 10
-2209.961938628112
 20
-18.00788317950991
 30
0.0
 11
-2209.961938628112
 21
-32.07038317950992
 31
0.0
  0
LINE
  5
3280
102
{ACAD_REACTORS
330
321A
102
}
330
1F
100
AcDbEntity
  8
NOSNÉ KONSTRUKCE
100
AcDbLine
 10
-2213.364979248911
 20
-43.40124684904776
 30
0.0
 11
-2213.364979248912
 21
7.385480490027021
 31
0.0
  0
LINE
  5
3281
330
1F
100
AcDbEntity
  8
NOSNÉ KONSTRUKCE
100
AcDbLine
 10
-2213.327860329089
 20
-43.40124684904776
 30
0.0
 11
-2213.327860329093
 21
7.385480490027021
 31
0.0
  0
ARC
  5
3282
330
1F
100
AcDbEntity
  8
NOSNÉ KONSTRUKCE
100
AcDbCircle
 10
-2207.36497924891
 20
-36.59476981692069
 30
0.0
 40
3.0
100
AcDbArc
 50
180.0
 51
270.0
  0
LINE
  5
3283
330
1F
100
AcDbEntity
  8
SPOJOVACÍ
100
AcDbLine
 10
-2207.104047133007
 20
-32.07038317950992
 30
0.0
 11
-2209.961938628112
 21
-32.07038317950992
 31
0.0
  0
LINE
  5
3284
330
1F
100
AcDbEntity
  8
SPOJOVACÍ
100
AcDbLine
 10
-2209.961938628112
 20
-3.945383179509917
 30
0.0
 11
-2209.961938628112
 21
-18.00788317950991
 31
0.0
  0
LINE
  5
3285
330
1F
100
AcDbEntity
  8
SPOJOVACÍ
100
AcDbLine
 10
-2209.961938628112
 20
-3.945383179509917
 30
0.0
 11
-2209.961938628112
 21
-18.00788317950991
 31
0.0
  0
LINE
  5
3286
330
1F
100
AcDbEntity
  8
SPOJOVACÍ
100
AcDbLine
 10
-2207.104047133007
 20
-18.00788317950991
 30
0.0
 11
-2207.104047133007
 21
-3.945383179509917
 31
0.0
  0
LINE
  5
3287
330
1F
100
AcDbEntity
  8
SPOJOVACÍ
100
AcDbLine
 10
-2212.62695014615
 20
-18.29690973589185
 30
0.0
 11
-2212.782916109092
 21
-17.71483683794622
 31
0.0
  0
LINE
  5
3288
330
1F
100
AcDbEntity
  8
SPOJOVACÍ
100
AcDbLine
 10
-2214.448676314609
 20
-18.49573038192147
 30
0.0
 11
-2214.693206850467
 21
-17.58312999809731
 31
0.0
  0
LINE
  5
3289
330
1F
100
AcDbEntity
  8
SPOJOVACÍ
100
AcDbLine
 10
-2207.104047133007
 20
-7.695383179509917
 30
0.0
 11
-2207.094672133008
 21
-7.695383179509917
 31
0.0
  0
LINE
  5
328A
330
1F
100
AcDbEntity
  8
SPOJOVACÍ
100
AcDbLine
 10
-2209.961938628112
 20
-3.945383179509917
 30
0.0
 11
-2207.104047133007
 21
-3.945383179509917
 31
0.0
  0
ARC
  5
328B
330
1F
100
AcDbEntity
  8
NOSNÉ KONSTRUKCE
100
AcDbCircle
 10
-2213.364979248912
 20
4.385480490024292
 30
0.0
 40
3.0
100
AcDbArc
 50
0.0
 51
90.0
  0
HATCH
  5
328C
330
1F
100
AcDbEntity
  8
NOSNÉ KONSTRUKCE
100
AcDbHatch
 10
0.0
 20
0.0
 30
0.0
210
0.0
220
0.0
230
1.0
  2
ANSI37
 70
     0
 71
     0
 91
        1
 92
        7
 72
     0
 73
     1
 93
        4
 10
-2216.364979248913
 20
7.38548049002361
 10
-2213.364979248912
 20
7.385480490023837
 10
-2213.364979248911
 20
-43.40124684904776
 10
-2216.364979248913
 20
-43.40124684904799
 97
        0
 75
     0
 76
     1
 52
0.0
 41
1.0
 77
     0
 78
     2
 53
134.9999999999999
 43
-1693.397427683103
 44
-355.2730597476425
 45
2.245064030267287
 46
2.245064030267288
 79
     0
 53
45.0
 43
-1693.397427683103
 44
-355.2730597476425
 45
2.245064030267288
 46
-2.245064030267287
 79
     0
 47
0.13614220447659
 98
        1
 10
-2215.452170597099
 20
-10.47778479737894
  0
HATCH
  5
328D
330
1F
100
AcDbEntity
  8
NOSNÉ KONSTRUKCE
100
AcDbHatch
 10
0.0
 20
0.0
 30
0.0
210
0.0
220
0.0
230
1.0
  2
ANSI37
 70
     0
 71
     0
 91
        1
 92
        7
 72
     0
 73
     1
 93
        4
 10
-2216.327860329093
 20
7.38548049002361
 10
-2213.327860329093
 20
7.385480490023837
 10
-2213.327860329089
 20
-43.40124684904776
 10
-2216.327860329093
 20
-43.40124684904799
 97
        0
 75
     0
 76
     1
 52
0.0
 41
1.0
 77
     0
 78
     2
 53
134.9999999999999
 43
-1693.360308763282
 44
-355.2730597476425
 45
2.245064030267287
 46
2.245064030267288
 79
     0
 53
45.0
 43
-1693.360308763282
 44
-355.2730597476425
 45
2.245064030267288
 46
-2.245064030267287
 79
     0
 47
0.13614220447659
 98
        1
 10
-2215.415051677279
 20
-10.47778479737894
  0
LINE
  5
328E
330
1F
100
AcDbEntity
  8
NOSNÉ KONSTRUKCE
100
AcDbLine
 10
-2213.364979248912
 20
7.385480490024292
 30
0.0
 11
-2216.364979248913
 21
7.385480490023383
 31
0.0
  0
LINE
  5
328F
330
1F
100
AcDbEntity
  8
SPOJOVACÍ
100
AcDbLine
 10
-2200.541547133007
 20
-9.570383179509917
 30
0.0
 11
-2200.541547133007
 21
-26.44538317950992
 31
0.0
  0
ARC
  5
3290
330
1F
100
AcDbEntity
  8
SPOJOVACÍ
100
AcDbCircle
 10
-2202.416547133007
 20
-24.57038317950992
 30
0.0
 40
1.875
100
AcDbArc
 50
0.0
 51
90.0
  0
ARC
  5
3291
330
1F
100
AcDbEntity
  8
SPOJOVACÍ
100
AcDbCircle
 10
-2202.416547133007
 20
-26.44538317950992
 30
0.0
 40
1.875
100
AcDbArc
 50
270.0
 51
0.0
  0
ARC
  5
3292
330
1F
100
AcDbEntity
  8
SPOJOVACÍ
100
AcDbCircle
 10
-2207.206117827749
 20
-18.00788317950991
 30
0.0
 40
6.701689614562111
100
AcDbArc
 50
315.6170676673749
 51
44.38293233262505
  0
ARC
  5
3293
330
1F
100
AcDbEntity
  8
SPOJOVACÍ
100
AcDbCircle
 10
-2202.416547133007
 20
-11.44538317950991
 30
0.0
 40
1.875
100
AcDbArc
 50
270.0
 51
0.0
  0
ARC
  5
3294
330
1F
100
AcDbEntity
  8
SPOJOVACÍ
100
AcDbCircle
 10
-2202.416547133007
 20
-9.570383179509917
 30
0.0
 40
1.875
100
AcDbArc
 50
0.0
 51
90.0
  0
LINE
  5
3295
330
1F
100
AcDbEntity
  8
SPOJOVACÍ
100
AcDbLine
 10
-2202.416547133007
 20
-28.32038317950992
 30
0.0
 11
-2207.104047133007
 21
-28.32038317950992
 31
0.0
  0
LINE
  5
3296
330
1F
100
AcDbEntity
  8
SPOJOVACÍ
100
AcDbLine
 10
-2207.104047133007
 20
-22.69538317950992
 30
0.0
 11
-2202.416547133007
 21
-22.69538317950992
 31
0.0
  0
LINE
  5
3297
330
1F
100
AcDbEntity
  8
SPOJOVACÍ
100
AcDbLine
 10
-2207.104047133007
 20
-7.695383179509917
 30
0.0
 11
-2202.416547133007
 21
-7.695383179509917
 31
0.0
  0
LINE
  5
3298
330
1F
100
AcDbEntity
  8
SPOJOVACÍ
100
AcDbLine
 10
-2207.104047133007
 20
-13.32038317950991
 30
0.0
 11
-2202.416547133007
 21
-13.32038317950991
 31
0.0
  0
LINE
  5
3299
330
1F
100
AcDbEntity
  8
SPOJOVACÍ
100
AcDbLine
 10
-2268.393068862524
 20
-20.10277927121296
 30
0.0
 11
-2269.529148639507
 21
-15.86287182206478
 31
0.0
  0
LINE
  5
329A
102
{ACAD_REACTORS
330
321A
102
}
330
1F
100
AcDbEntity
  8
SPOJOVACÍ
  6
DASHED
100
AcDbLine
 10
-2293.873533571786
 20
-11.44538317951082
 30
0.0
 11
-2212.774438628112
 21
-11.44538317950991
 31
0.0
  0
LINE
  5
329B
102
{ACAD_REACTORS
330
321A
102
}
330
1F
100
AcDbEntity
  8
SPOJOVACÍ
  6
DASHED
100
AcDbLine
 10
-2293.873533571786
 20
-24.57038317951083
 30
0.0
 11
-2212.774438628112
 21
-24.57038317950992
 31
0.0
  0
LINE
  5
329C
330
1F
100
AcDbEntity
  8
SPOJOVACÍ
100
AcDbLine
 10
-2257.050286804451
 20
-20.44904662597218
 30
0.0
 11
-2258.387744658245
 21
-15.45758596263158
 31
0.0
  0
LINE
  5
329D
330
1F
100
AcDbEntity
  8
SPOJOVACÍ
100
AcDbLine
 10
-2255.169327583766
 20
-20.47128674034502
 30
0.0
 11
-2256.520561653597
 21
-15.42841253881897
 31
0.0
  0
LINE
  5
329E
330
1F
100
AcDbEntity
  8
SPOJOVACÍ
100
AcDbLine
 10
-2262.73505886091
 20
-20.2259742743995
 30
0.0
 11
-2263.832491794648
 21
-16.13029880778412
 31
0.0
  0
LINE
  5
329F
330
1F
100
AcDbEntity
  8
SPOJOVACÍ
100
AcDbLine
 10
-2264.592273298786
 20
-20.2923508958861
 30
0.0
 11
-2265.830327699068
 21
-15.67186897149258
 31
0.0
  0
LINE
  5
32A0
330
1F
100
AcDbEntity
  8
SPOJOVACÍ
100
AcDbLine
 10
-2266.495751183036
 20
-20.1860699849667
 30
0.0
 11
-2267.684485009366
 21
-15.74965494843263
 31
0.0
  0
LINE
  5
32A1
330
1F
100
AcDbEntity
  8
SPOJOVACÍ
100
AcDbLine
 10
-2253.291050743639
 20
-20.48351607418726
 30
0.0
 11
-2254.650743249869
 21
-15.40907455826163
 31
0.0
  0
LINE
  5
32A2
330
1F
100
AcDbEntity
  8
SPOJOVACÍ
100
AcDbLine
 10
-2251.415444564391
 20
-20.48577836593949
 30
0.0
 11
-2252.778278691116
 21
-15.39961216270739
 31
0.0
  0
LINE
  5
32A3
330
1F
100
AcDbEntity
  8
SPOJOVACÍ
100
AcDbLine
 10
-2260.880431999818
 20
-20.14994068488022
 30
0.0
 11
-2262.114246040543
 21
-15.54528399781111
 31
0.0
  0
LINE
  5
32A4
330
1F
100
AcDbEntity
  8
SPOJOVACÍ
100
AcDbLine
 10
-2258.93394044014
 20
-20.41675081791254
 30
0.0
 11
-2260.25230272805
 21
-15.49655577664998
 31
0.0
  0
LINE
  5
32A5
330
1F
100
AcDbEntity
  8
SPOJOVACÍ
  6
DASHED
100
AcDbLine
 10
-2297.662394713343
 20
-18.00788317951082
 30
0.0
 11
-2293.873533571786
 21
-11.44538317951082
 31
0.0
  0
LINE
  5
32A6
330
1F
100
AcDbEntity
  8
SPOJOVACÍ
  6
DASHED
100
AcDbLine
 10
-2297.662394713343
 20
-18.00788317951082
 30
0.0
 11
-2293.873533571786
 21
-24.57038317951083
 31
0.0
  0
LINE
  5
32A7
330
1F
100
AcDbEntity
  8
SPOJOVACÍ
  6
DASHED
100
AcDbLine
 10
-2288.287394713343
 20
-18.00788317951128
 30
0.0
 11
-2285.039799449152
 21
-23.63288317951128
 31
0.0
  0
LINE
  5
32A8
330
1F
100
AcDbEntity
  8
SPOJOVACÍ
100
AcDbLine
 10
-2279.835738047288
 20
-19.38372808462509
 30
0.0
 11
-2280.601390991335
 21
-16.52627239647699
 31
0.0
  0
LINE
  5
32A9
330
1F
100
AcDbEntity
  8
SPOJOVACÍ
100
AcDbLine
 10
-2281.752786872196
 20
-19.22679973366894
 30
0.0
 11
-2282.425685986788
 21
-16.71550604964068
 31
0.0
  0
LINE
  5
32AA
330
1F
100
AcDbEntity
  8
SPOJOVACÍ
100
AcDbLine
 10
-2283.672718278141
 20
-19.05911344382275
 30
0.0
 11
-2284.256947814687
 21
-16.87873913014573
 31
0.0
  0
LINE
  5
32AB
330
1F
100
AcDbEntity
  8
SPOJOVACÍ
100
AcDbLine
 10
-2285.595549452779
 20
-18.8806050698854
 30
0.0
 11
-2286.085703085666
 21
-17.05132680844189
 31
0.0
  0
LINE
  5
32AC
330
1F
100
AcDbEntity
  8
SPOJOVACÍ
100
AcDbLine
 10
-2289.449982032656
 20
-18.49085737581935
 30
0.0
 11
-2289.73572012813
 21
-17.42446828586071
 31
0.0
  0
LINE
  5
32AD
330
1F
100
AcDbEntity
  8
SPOJOVACÍ
100
AcDbLine
 10
-2291.381620018674
 20
-18.27948153437182
 30
0.0
 11
-2291.556994412984
 21
-17.62497538445586
 31
0.0
  0
LINE
  5
32AE
330
1F
100
AcDbEntity
  8
SPOJOVACÍ
100
AcDbLine
 10
-2293.316230956909
 20
-18.05701048418768
 30
0.0
 11
-2293.375787173005
 21
-17.83474365980555
 31
0.0
  0
LINE
  5
32AF
330
1F
100
AcDbEntity
  8
SPOJOVACÍ
100
AcDbLine
 10
-2287.521298016469
 20
-18.69120885179017
 30
0.0
 11
-2287.91195840004
 21
-17.23324445179832
 31
0.0
  0
LINE
  5
32B0
330
1F
100
AcDbEntity
  8
SPOJOVACÍ
  6
DASHED
100
AcDbLine
 10
-2288.287394713343
 20
-18.00788317951082
 30
0.0
 11
-2285.039799449152
 21
-12.38288317951082
 31
0.0
  0
LINE
  5
32B1
330
1F
100
AcDbEntity
  8
SPOJOVACÍ
100
AcDbLine
 10
-2272.196039398838
 20
-19.90509053838695
 30
0.0
 11
-2273.231531013407
 21
-16.04058322200353
 31
0.0
  0
LINE
  5
32B2
330
1F
100
AcDbEntity
  8
SPOJOVACÍ
100
AcDbLine
 10
-2270.293160127849
 20
-20.00913739419456
 30
0.0
 11
-2271.385077983349
 21
-15.93404447978491
 31
0.0
  0
LINE
  5
32B3
330
1F
100
AcDbEntity
  8
SPOJOVACÍ
100
AcDbLine
 10
-2274.181517215984
 20
-19.4927817116818
 30
0.0
 11
-2275.075432886744
 21
-16.15664301072547
 31
0.0
  0
LINE
  5
32B4
330
1F
100
AcDbEntity
  8
SPOJOVACÍ
100
AcDbLine
 10
-2276.020801127259
 20
-19.62607596946009
 30
0.0
 11
-2276.916791647707
 21
-16.28219382404085
 31
0.0
  0
LINE
  5
32B5
330
1F
100
AcDbEntity
  8
SPOJOVACÍ
100
AcDbLine
 10
-2277.921555038453
 20
-19.52996106439013
 30
0.0
 11
-2278.755615091728
 21
-16.41720656899861
 31
0.0
  0
LINE
  5
32B6
102
{ACAD_REACTORS
330
321A
102
}
330
1F
100
AcDbEntity
  8
SPOJOVACÍ
  6
DASHDOT2
100
AcDbLine
 10
-2197.601337159678
 20
-18.00788317950991
 30
0.0
 11
-2312.521446903585
 21
-18.00788317951082
 31
0.0
  0
LINE
  5
32B7
330
1F
100
AcDbEntity
  8
STAVBA OBRYS
  6
DASHED
100
AcDbLine
 10
-2099.703238107048
 20
-334.7182564115641
 30
0.0
 11
-2106.265738107047
 21
-330.9293952700077
 31
0.0
  0
LINE
  5
32B8
330
1F
100
AcDbEntity
  8
STAVBA OBRYS
  6
DASHED
100
AcDbLine
 10
-2099.703238107048
 20
-334.7182564115641
 30
0.0
 11
-2093.140738107048
 21
-330.9293952700077
 31
0.0
  0
LWPOLYLINE
  5
32B9
330
1F
100
AcDbEntity
  8
STAVBA OBRYS
  6
DASHED
100
AcDbPolyline
 90
        4
 70
     1
 43
0.0
 10
-2074.643452097536
 20
-165.185782712529
 10
-2074.643452097536
 20
-170.5590640373825
 10
-2124.763024116559
 20
-170.5590640373825
 10
-2124.763024116559
 20
-165.185782712529
  0
LINE
  5
32BA
330
1F
100
AcDbEntity
  8
STAVBA OBRYS
  6
DASHDOT2
100
AcDbLine
 10
-2099.703238107049
 20
-136.8008195357083
 30
0.0
 11
-2099.703238107048
 21
-349.5773086018066
 31
0.0
  0
LINE
  5
32BB
330
1F
100
AcDbEntity
  8
STAVBA OBRYS
  6
DASHED
100
AcDbLine
 10
-2106.265738107047
 20
-330.9293952700077
 30
0.0
 11
-2106.265738107049
 21
-170.5590640373825
 31
0.0
  0
LINE
  5
32BC
330
1F
100
AcDbEntity
  8
STAVBA OBRYS
  6
DASHED
100
AcDbLine
 10
-2093.140738107048
 20
-330.9293952700077
 30
0.0
 11
-2093.14073810705
 21
-170.5590640373825
 31
0.0
  0
LINE
  5
32BD
330
1F
100
AcDbEntity
  8
SPOJOVACÍ
100
AcDbLine
 10
-2077.280887027851
 20
-76.05793870654292
 30
0.0
 11
-2078.803894283343
 21
-70.37399824874228
 31
0.0
  0
LINE
  5
32BE
330
1F
100
AcDbEntity
  8
SPOJOVACÍ
100
AcDbLine
 10
-2075.698855777849
 20
-76.05793870654292
 30
0.0
 11
-2077.221863033343
 21
-70.37399824874228
 31
0.0
  0
LINE
  5
32BF
330
1F
100
AcDbEntity
  8
SPOJOVACÍ
100
AcDbLine
 10
-2086.773074527848
 20
-76.05793870654292
 30
0.0
 11
-2088.296081783341
 21
-70.37399824874228
 31
0.0
  0
LINE
  5
32C0
330
1F
100
AcDbEntity
  8
SPOJOVACÍ
100
AcDbLine
 10
-2078.86291827785
 20
-76.05793870654292
 30
0.0
 11
-2080.385925533345
 21
-70.37399824874228
 31
0.0
  0
LINE
  5
32C1
330
1F
100
AcDbEntity
  8
SPOJOVACÍ
100
AcDbLine
 10
-2082.02698077785
 20
-76.05793870654292
 30
0.0
 11
-2083.549988033343
 21
-70.37399824874228
 31
0.0
  0
LINE
  5
32C2
330
1F
100
AcDbEntity
  8
SPOJOVACÍ
100
AcDbLine
 10
-2080.44494952785
 20
-76.05793870654292
 30
0.0
 11
-2081.967956783343
 21
-70.37399824874228
 31
0.0
  0
LINE
  5
32C3
330
1F
100
AcDbEntity
  8
SPOJOVACÍ
100
AcDbLine
 10
-2083.609012027846
 20
-76.05793870654292
 30
0.0
 11
-2085.132019283343
 21
-70.37399824874228
 31
0.0
  0
LINE
  5
32C4
330
1F
100
AcDbEntity
  8
SPOJOVACÍ
100
AcDbLine
 10
-2085.191043277848
 20
-76.05793870654292
 30
0.0
 11
-2086.714050533343
 21
-70.37399824874228
 31
0.0
  0
LINE
  5
32C5
330
1F
100
AcDbEntity
  8
SPOJOVACÍ
100
AcDbLine
 10
-2088.355105777849
 20
-76.05793870654292
 30
0.0
 11
-2089.878113033341
 21
-70.37399824874228
 31
0.0
  0
LINE
  5
32C6
330
1F
100
AcDbEntity
  8
SPOJOVACÍ
100
AcDbLine
 10
-2089.93713702785
 20
-76.05793870654292
 30
0.0
 11
-2091.460144283341
 21
-70.37399824874228
 31
0.0
  0
LINE
  5
32C7
330
1F
100
AcDbEntity
  8
SPOJOVACÍ
100
AcDbLine
 10
-2091.519168277846
 20
-76.05793870654292
 30
0.0
 11
-2093.042175533343
 21
-70.37399824874228
 31
0.0
  0
LINE
  5
32C8
330
1F
100
AcDbEntity
  8
SPOJOVACÍ
100
AcDbLine
 10
-2093.101199527848
 20
-76.05793870654292
 30
0.0
 11
-2094.175001095539
 21
-72.05045669867718
 31
0.0
  0
LINE
  5
32C9
330
1F
100
AcDbEntity
  8
SPOJOVACÍ
100
AcDbLine
 10
-2095.072968398812
 20
-73.21596847764294
 30
0.0
 11
-2092.883375476209
 21
-76.05793870654292
 31
0.0
  0
LINE
  5
32CA
330
1F
100
AcDbEntity
  8
SPOJOVACÍ
100
AcDbLine
 10
-2095.072968398812
 20
-73.21596847764294
 30
0.0
 11
-2092.883375476209
 21
-70.37399824874228
 31
0.0
  0
LINE
  5
32CB
330
1F
100
AcDbEntity
  8
SPOJOVACÍ
100
AcDbLine
 10
-2072.53479327785
 20
-76.05793870654292
 30
0.0
 11
-2074.057800533345
 21
-70.37399824874228
 31
0.0
  0
LINE
  5
32CC
330
1F
100
AcDbEntity
  8
SPOJOVACÍ
100
AcDbLine
 10
-2067.78869952785
 20
-76.05793870654292
 30
0.0
 11
-2069.311706783345
 21
-70.37399824874228
 31
0.0
  0
LINE
  5
32CD
330
1F
100
AcDbEntity
  8
SPOJOVACÍ
100
AcDbLine
 10
-2066.206668277851
 20
-76.05793870654292
 30
0.0
 11
-2067.729675533343
 21
-70.37399824874228
 31
0.0
  0
LINE
  5
32CE
330
1F
100
AcDbEntity
  8
SPOJOVACÍ
100
AcDbLine
 10
-2070.952762027848
 20
-76.05793870654292
 30
0.0
 11
-2072.475769283344
 21
-70.37399824874228
 31
0.0
  0
LINE
  5
32CF
330
1F
100
AcDbEntity
  8
SPOJOVACÍ
100
AcDbLine
 10
-2069.370730777849
 20
-76.05793870654292
 30
0.0
 11
-2070.893738033344
 21
-70.37399824874228
 31
0.0
  0
ARC
  5
32D0
330
1F
100
AcDbEntity
  8
SPOJOVACÍ
100
AcDbCircle
 10
-2061.145517319617
 20
-73.21596847764294
 30
0.0
 40
3.392730367372068
100
AcDbArc
 50
315.6170676673749
 51
44.38293233262505
  0
LINE
  5
32D1
330
1F
100
AcDbEntity
  8
SPOJOVACÍ
100
AcDbLine
 10
-2057.771578405405
 20
-68.94448410264295
 30
0.0
 11
-2057.771578405405
 21
-77.48745285264295
 31
0.0
  0
LINE
  5
32D2
330
1F
100
AcDbEntity
  8
SPOJOVACÍ
100
AcDbLine
 10
-2062.42956584487
 20
-69.38000030057856
 30
0.0
 11
-2062.42956584487
 21
-80.33510910264295
 31
0.0
  0
LINE
  5
32D3
330
1F
100
AcDbEntity
  8
SPOJOVACÍ
100
AcDbLine
 10
-2062.42956584487
 20
-75.58901535264294
 30
0.0
 11
-2058.720797155405
 21
-75.58901535264294
 31
0.0
  0
LINE
  5
32D4
330
1F
100
AcDbEntity
  8
SPOJOVACÍ
100
AcDbLine
 10
-2058.720797155405
 20
-78.43667160264295
 30
0.0
 11
-2062.42956584487
 21
-78.43667160264295
 31
0.0
  0
ARC
  5
32D5
330
1F
100
AcDbEntity
  8
SPOJOVACÍ
100
AcDbCircle
 10
-2058.720797155405
 20
-76.53823410264294
 30
0.0
 40
0.94921875
100
AcDbArc
 50
0.0
 51
90.0
  0
ARC
  5
32D6
330
1F
100
AcDbEntity
  8
SPOJOVACÍ
100
AcDbCircle
 10
-2058.720797155405
 20
-77.48745285264295
 30
0.0
 40
0.94921875
100
AcDbArc
 50
270.0
 51
0.0
  0
LINE
  5
32D7
330
1F
100
AcDbEntity
  8
SPOJOVACÍ
100
AcDbLine
 10
-2062.42956584487
 20
-80.33510910264295
 30
0.0
 11
-2064.116385703348
 21
-80.33510910264295
 31
0.0
  0
LINE
  5
32D8
330
1F
100
AcDbEntity
  8
SPOJOVACÍ
100
AcDbLine
 10
-2062.42956584487
 20
-67.99526535264295
 30
0.0
 11
-2058.720797155405
 21
-67.99526535264295
 31
0.0
  0
LINE
  5
32D9
330
1F
100
AcDbEntity
  8
SPOJOVACÍ
100
AcDbLine
 10
-2062.42956584487
 20
-70.84292160264294
 30
0.0
 11
-2058.720797155405
 21
-70.84292160264294
 31
0.0
  0
ARC
  5
32DA
330
1F
100
AcDbEntity
  8
SPOJOVACÍ
100
AcDbCircle
 10
-2058.720797155405
 20
-68.94448410264295
 30
0.0
 40
0.94921875
100
AcDbArc
 50
0.0
 51
90.0
  0
ARC
  5
32DB
330
1F
100
AcDbEntity
  8
SPOJOVACÍ
100
AcDbCircle
 10
-2058.720797155405
 20
-69.89370285264294
 30
0.0
 40
0.94921875
100
AcDbArc
 50
270.0
 51
0.0
  0
LINE
  5
32DC
330
1F
100
AcDbEntity
  8
SPOJOVACÍ
100
AcDbLine
 10
-2064.116385703348
 20
-66.09682785264294
 30
0.0
 11
-2062.42956584487
 21
-66.09682785264294
 31
0.0
  0
LINE
  5
32DD
330
1F
100
AcDbEntity
  8
SPOJOVACÍ
100
AcDbLine
 10
-2063.245842173393
 20
-67.99526535264295
 30
0.0
 11
-2063.241096079644
 21
-67.99526535264295
 31
0.0
  0
LINE
  5
32DE
330
1F
100
AcDbEntity
  8
SPOJOVACÍ
100
AcDbLine
 10
-2062.42956584487
 20
-73.21596847764294
 30
0.0
 11
-2062.42956584487
 21
-66.09682785264294
 31
0.0
  0
HATCH
  5
32DF
330
1F
100
AcDbEntity
  8
SPOJOVACÍ
100
AcDbHatch
 10
0.0
 20
0.0
 30
0.0
210
0.0
220
0.0
230
1.0
  2
ANSI37
 70
     0
 71
     0
 91
        1
 92
        7
 72
     0
 73
     1
 93
        6
 10
-2064.116385703348
 20
-66.09682785264294
 10
-2062.42956584487
 20
-66.09682785264294
 10
-2062.42956584487
 20
-73.21596847764294
 10
-2062.42956584487
 20
-80.33510910264295
 10
-2064.116385703348
 20
-80.33510910264295
 10
-2064.116385703348
 20
-73.21596847764294
 97
        0
 75
     0
 76
     1
 52
0.0
 41
0.9
 77
     0
 78
     2
 53
134.9999999999999
 43
-1730.844610489389
 44
-524.1098989127599
 45
2.020557627240559
 46
2.020557627240559
 79
     0
 53
45.0
 43
-1730.844610489389
 44
-524.1098989127599
 45
2.020557627240559
 46
-2.020557627240559
 79
     0
 47
0.1350114543121608
 98
        1
 10
-2063.028296211002
 20
-73.18860245983842
  0
LINE
  5
32E0
330
1F
100
AcDbEntity
  8
SPOJOVACÍ
100
AcDbLine
 10
-2064.116385703348
 20
-73.21596847764294
 30
0.0
 11
-2064.116385703348
 21
-80.33510910264295
 31
0.0
  0
LINE
  5
32E1
330
1F
100
AcDbEntity
  8
SPOJOVACÍ
100
AcDbLine
 10
-2064.116385703348
 20
-66.09682785264294
 30
0.0
 11
-2064.116385703348
 21
-73.21596847764294
 31
0.0
  0
LINE
  5
32E2
330
1F
100
AcDbEntity
  8
SPOJOVACÍ
100
AcDbLine
 10
-2092.883375476209
 20
-70.37399824874228
 30
0.0
 11
-2064.116385703348
 21
-70.37399824874228
 31
0.0
  0
LINE
  5
32E3
330
1F
100
AcDbEntity
  8
SPOJOVACÍ
100
AcDbLine
 10
-2092.883375476209
 20
-76.05793870654292
 30
0.0
 11
-2064.116385703348
 21
-76.05793870654292
 31
0.0
  0
LINE
  5
32E4
330
1F
100
AcDbEntity
  8
SPOJOVACÍ
100
AcDbLine
 10
-2074.11682452785
 20
-76.05793870654292
 30
0.0
 11
-2075.639831783345
 21
-70.37399824874228
 31
0.0
  0
LINE
  5
32E5
330
1F
100
AcDbEntity
  8
SPOJOVACÍ
100
AcDbLine
 10
-2034.583092007661
 20
-126.7066092030645
 30
0.0
 11
-2034.583092007661
 21
-97.93961943020372
 31
0.0
  0
LINE
  5
32E6
330
1F
100
AcDbEntity
  8
SPOJOVACÍ
100
AcDbLine
 10
-2028.899151549858
 20
-126.7066092030645
 30
0.0
 11
-2028.899151549858
 21
-97.93961943020372
 31
0.0
  0
LINE
  5
32E7
330
1F
100
AcDbEntity
  8
SPOJOVACÍ
100
AcDbLine
 10
-2031.741121778759
 20
-96.25279957172711
 30
0.0
 11
-2038.86026240376
 21
-96.25279957172711
 31
0.0
  0
HATCH
  5
32E8
330
1F
100
AcDbEntity
  8
SPOJOVACÍ
100
AcDbHatch
 10
0.0
 20
0.0
 30
0.0
210
0.0
220
0.0
230
1.0
  2
ANSI37
 70
     0
 71
     0
 91
        1
 92
        7
 72
     0
 73
     1
 93
        6
 10
-2038.86026240376
 20
-97.93961943020372
 10
-2038.86026240376
 20
-96.25279957172711
 10
-2031.741121778759
 20
-96.25279957172711
 10
-2024.62198115376
 20
-96.25279957172711
 10
-2024.62198115376
 20
-97.93961943020372
 10
-2031.741121778759
 20
-97.93961943020372
 97
        0
 75
     0
 76
     1
 52
90.0
 41
0.9
 77
     0
 78
     2
 53
225.0
 43
-1580.847191343643
 44
235.3321557837552
 45
-2.020557627240559
 46
2.020557627240559
 79
     0
 53
135.0
 43
-1580.847191343643
 44
235.3321557837552
 45
2.020557627240559
 46
2.020557627240559
 79
     0
 47
0.1350114543121608
 98
        1
 10
-2031.768487796564
 20
-96.85152993785663
  0
LINE
  5
32E9
330
1F
100
AcDbEntity
  8
SPOJOVACÍ
100
AcDbLine
 10
-2038.86026240376
 20
-97.93961943020372
 30
0.0
 11
-2031.741121778759
 21
-97.93961943020372
 31
0.0
  0
LINE
  5
32EA
330
1F
100
AcDbEntity
  8
SPOJOVACÍ
100
AcDbLine
 10
-2038.86026240376
 20
-97.93961943020372
 30
0.0
 11
-2038.86026240376
 21
-96.25279957172711
 31
0.0
  0
LINE
  5
32EB
330
1F
100
AcDbEntity
  8
SPOJOVACÍ
100
AcDbLine
 10
-2028.899151549858
 20
-100.0299020047075
 30
0.0
 11
-2034.583092007661
 21
-101.5529092601989
 31
0.0
  0
LINE
  5
32EC
330
1F
100
AcDbEntity
  8
SPOJOVACÍ
100
AcDbLine
 10
-2035.577089955825
 20
-96.25279957172711
 30
0.0
 11
-2024.62198115376
 21
-96.25279957172711
 31
0.0
  0
LINE
  5
32ED
330
1F
100
AcDbEntity
  8
SPOJOVACÍ
100
AcDbLine
 10
-2024.62198115376
 20
-96.25279957172711
 30
0.0
 11
-2024.62198115376
 21
-97.93961943020372
 31
0.0
  0
LINE
  5
32EE
330
1F
100
AcDbEntity
  8
SPOJOVACÍ
100
AcDbLine
 10
-2036.96182490376
 20
-97.06907590024957
 30
0.0
 11
-2036.96182490376
 21
-97.06432980650015
 31
0.0
  0
LINE
  5
32EF
330
1F
100
AcDbEntity
  8
SPOJOVACÍ
100
AcDbLine
 10
-2031.741121778759
 20
-97.93961943020372
 30
0.0
 11
-2024.62198115376
 21
-97.93961943020372
 31
0.0
  0
LINE
  5
32F0
330
1F
100
AcDbEntity
  8
SPOJOVACÍ
100
AcDbLine
 10
-2028.899151549858
 20
-122.178339504705
 30
0.0
 11
-2034.583092007661
 21
-123.7013467601971
 31
0.0
  0
LINE
  5
32F1
330
1F
100
AcDbEntity
  8
SPOJOVACÍ
100
AcDbLine
 10
-2028.899151549858
 20
-123.760370754705
 30
0.0
 11
-2034.583092007661
 21
-125.2833780101964
 31
0.0
  0
LINE
  5
32F2
330
1F
100
AcDbEntity
  8
SPOJOVACÍ
100
AcDbLine
 10
-2028.899151549858
 20
-125.3424020047034
 30
0.0
 11
-2034.583092007661
 21
-126.8654092601989
 31
0.0
  0
LINE
  5
32F3
330
1F
100
AcDbEntity
  8
SPOJOVACÍ
100
AcDbLine
 10
-2028.899151549858
 20
-126.9244332547041
 30
0.0
 11
-2032.906633557725
 21
-127.9982348223932
 31
0.0
  0
LINE
  5
32F4
330
1F
100
AcDbEntity
  8
SPOJOVACÍ
100
AcDbLine
 10
-2031.741121778759
 20
-128.8962021256675
 30
0.0
 11
-2028.899151549858
 21
-126.7066092030645
 31
0.0
  0
LINE
  5
32F5
330
1F
100
AcDbEntity
  8
SPOJOVACÍ
100
AcDbLine
 10
-2031.741121778759
 20
-128.8962021256675
 30
0.0
 11
-2034.583092007661
 21
-126.7066092030645
 31
0.0
  0
LINE
  5
32F6
330
1F
100
AcDbEntity
  8
SPOJOVACÍ
100
AcDbLine
 10
-2028.899151549858
 20
-101.6119332547057
 30
0.0
 11
-2034.583092007661
 21
-103.1349405101996
 31
0.0
  0
LINE
  5
32F7
330
1F
100
AcDbEntity
  8
SPOJOVACÍ
100
AcDbLine
 10
-2028.899151549858
 20
-106.3580270047057
 30
0.0
 11
-2034.583092007661
 21
-107.8810342602005
 31
0.0
  0
LINE
  5
32F8
330
1F
100
AcDbEntity
  8
SPOJOVACÍ
100
AcDbLine
 10
-2028.899151549858
 20
-104.7759957547041
 30
0.0
 11
-2034.583092007661
 21
-106.2990030102005
 31
0.0
  0
LINE
  5
32F9
330
1F
100
AcDbEntity
  8
SPOJOVACÍ
100
AcDbLine
 10
-2028.899151549858
 20
-103.193964504705
 30
0.0
 11
-2034.583092007661
 21
-104.7169717602005
 31
0.0
  0
LINE
  5
32FA
330
1F
100
AcDbEntity
  8
SPOJOVACÍ
100
AcDbLine
 10
-2028.899151549858
 20
-107.9400582547057
 30
0.0
 11
-2034.583092007661
 21
-109.4630655101996
 31
0.0
  0
LINE
  5
32FB
330
1F
100
AcDbEntity
  8
SPOJOVACÍ
100
AcDbLine
 10
-2028.899151549858
 20
-109.5220895047066
 30
0.0
 11
-2034.583092007661
 21
-111.0450967601989
 31
0.0
  0
LINE
  5
32FC
330
1F
100
AcDbEntity
  8
SPOJOVACÍ
100
AcDbLine
 10
-2028.899151549858
 20
-111.1041207547075
 30
0.0
 11
-2034.583092007661
 21
-112.6271280101989
 31
0.0
  0
LINE
  5
32FD
330
1F
100
AcDbEntity
  8
SPOJOVACÍ
100
AcDbLine
 10
-2028.899151549858
 20
-112.686152004705
 30
0.0
 11
-2034.583092007661
 21
-114.2091592602005
 31
0.0
  0
LINE
  5
32FE
330
1F
100
AcDbEntity
  8
SPOJOVACÍ
100
AcDbLine
 10
-2028.899151549858
 20
-115.8502145047057
 30
0.0
 11
-2034.583092007661
 21
-117.3732217601989
 31
0.0
  0
LINE
  5
32FF
330
1F
100
AcDbEntity
  8
SPOJOVACÍ
100
AcDbLine
 10
-2028.899151549858
 20
-114.2681832547057
 30
0.0
 11
-2034.583092007661
 21
-115.7911905101989
 31
0.0
  0
LINE
  5
3300
330
1F
100
AcDbEntity
  8
SPOJOVACÍ
100
AcDbLine
 10
-2028.899151549858
 20
-117.4322457547025
 30
0.0
 11
-2034.583092007661
 21
-118.9552530101989
 31
0.0
  0
LINE
  5
3301
330
1F
100
AcDbEntity
  8
SPOJOVACÍ
100
AcDbLine
 10
-2028.899151549858
 20
-119.0142770047041
 30
0.0
 11
-2034.583092007661
 21
-120.5372842601989
 31
0.0
  0
LINE
  5
3302
330
1F
100
AcDbEntity
  8
SPOJOVACÍ
100
AcDbLine
 10
-2028.899151549858
 20
-120.5963082547041
 30
0.0
 11
-2034.583092007661
 21
-122.1193155101971
 31
0.0
  0
ARC
  5
3303
330
1F
100
AcDbEntity
  8
SPOJOVACÍ
100
AcDbCircle
 10
-2031.741121778759
 20
-94.96875104647278
 30
0.0
 40
3.392730367372068
100
AcDbArc
 50
45.61706766742556
 51
134.3829323325744
  0
LINE
  5
3304
330
1F
100
AcDbEntity
  8
SPOJOVACÍ
100
AcDbLine
 10
-2036.01260615376
 20
-91.59481213226035
 30
0.0
 11
-2027.469637403759
 21
-91.59481213226035
 31
0.0
  0
ARC
  5
3305
330
1F
100
AcDbEntity
  8
SPOJOVACÍ
100
AcDbCircle
 10
-2028.41885615376
 20
-92.54403088226036
 30
0.0
 40
0.94921875
100
AcDbArc
 50
90.0
 51
180.0
  0
ARC
  5
3306
330
1F
100
AcDbEntity
  8
SPOJOVACÍ
100
AcDbCircle
 10
-2027.469637403759
 20
-92.54403088226036
 30
0.0
 40
0.94921875
100
AcDbArc
 50
0.0
 51
90.0
  0
ARC
  5
3307
330
1F
100
AcDbEntity
  8
SPOJOVACÍ
100
AcDbCircle
 10
-2036.01260615376
 20
-92.54403088226036
 30
0.0
 40
0.94921875
100
AcDbArc
 50
90.0
 51
180.0
  0
ARC
  5
3308
330
1F
100
AcDbEntity
  8
SPOJOVACÍ
100
AcDbCircle
 10
-2035.063387403759
 20
-92.54403088226036
 30
0.0
 40
0.94921875
100
AcDbArc
 50
0.0
 51
90.0
  0
LINE
  5
3309
330
1F
100
AcDbEntity
  8
SPOJOVACÍ
100
AcDbLine
 10
-2029.368074903759
 20
-96.25279957172711
 30
0.0
 11
-2029.368074903759
 21
-92.54403088226036
 31
0.0
  0
LINE
  5
330A
330
1F
100
AcDbEntity
  8
SPOJOVACÍ
100
AcDbLine
 10
-2026.520418653759
 20
-92.54403088226036
 30
0.0
 11
-2026.520418653759
 21
-96.25279957172711
 31
0.0
  0
LINE
  5
330B
330
1F
100
AcDbEntity
  8
SPOJOVACÍ
100
AcDbLine
 10
-2036.96182490376
 20
-96.25279957172711
 30
0.0
 11
-2036.96182490376
 21
-92.54403088226036
 31
0.0
  0
LINE
  5
330C
330
1F
100
AcDbEntity
  8
SPOJOVACÍ
100
AcDbLine
 10
-2034.11416865376
 20
-96.25279957172711
 30
0.0
 11
-2034.11416865376
 21
-92.54403088226036
 31
0.0
  0
LINE
  5
330D
330
1F
100
AcDbEntity
  8
SPOJOVACÍ
100
AcDbLine
 10
-2010.186587905155
 20
-133.1775073190133
 30
0.0
 11
-2011.889604622735
 21
-135.3879286081578
 31
0.0
  0
LINE
  5
330E
330
1F
100
AcDbEntity
  8
SPOJOVACÍ
100
AcDbLine
 10
-1974.720729945889
 20
-326.9299700177357
 30
0.0
 11
-1974.942996770273
 21
-326.9895262338327
 31
0.0
  0
LINE
  5
330F
330
1F
100
AcDbEntity
  8
SPOJOVACÍ
100
AcDbLine
 10
-1974.498258895707
 20
-324.9953590795007
 30
0.0
 11
-1975.152765045623
 21
-325.1707334738116
 31
0.0
  0
LINE
  5
3310
330
1F
100
AcDbEntity
  8
SPOJOVACÍ
100
AcDbLine
 10
-1974.086531578287
 20
-321.1350370772957
 30
0.0
 11
-1975.54449597828
 21
-321.5256974608669
 31
0.0
  0
LINE
  5
3311
330
1F
100
AcDbEntity
  8
SPOJOVACÍ
100
AcDbLine
 10
-1974.286883054258
 20
-323.0637210934851
 30
0.0
 11
-1975.353272144217
 21
-323.3494591889571
 31
0.0
  0
LINE
  5
3312
330
1F
100
AcDbEntity
  8
SPOJOVACÍ
  6
DASHED
100
AcDbLine
 10
-1974.769857250567
 20
-331.2761337741708
 30
0.0
 11
-1968.207357250567
 21
-327.4872726326143
 31
0.0
  0
LINE
  5
3313
330
1F
100
AcDbEntity
  8
SPOJOVACÍ
  6
DASHED
100
AcDbLine
 10
-1974.769857250567
 20
-331.2761337741708
 30
0.0
 11
-1981.332357250567
 21
-327.4872726326143
 31
0.0
  0
LINE
  5
3314
330
1F
100
AcDbEntity
  8
SPOJOVACÍ
  6
DASHED
100
AcDbLine
 10
-1974.769857250567
 20
-321.9011337741708
 30
0.0
 11
-1969.144857250567
 21
-318.6535385099801
 31
0.0
  0
LINE
  5
3315
330
1F
100
AcDbEntity
  8
SPOJOVACÍ
  6
DASHED
100
AcDbLine
 10
-1974.769857250567
 20
-321.9011337741708
 30
0.0
 11
-1980.394857250567
 21
-318.6535385099801
 31
0.0
  0
LINE
  5
3316
330
1F
100
AcDbEntity
  8
SPOJOVACÍ
100
AcDbLine
 10
-1973.897135360192
 20
-319.2092885136066
 30
0.0
 11
-1975.726413621636
 21
-319.6994421464937
 31
0.0
  0
LINE
  5
3317
102
{ACAD_REACTORS
330
3217
102
}
330
1F
100
AcDbEntity
  8
NOSNÉ KONSTRUKCE
100
AcDbLine
 10
-1953.183200257648
 20
-246.9415993899179
 30
0.0
 11
-2003.969927596722
 21
-246.9415993899206
 31
0.0
  0
LINE
  5
3318
330
1F
100
AcDbEntity
  8
NOSNÉ KONSTRUKCE
100
AcDbLine
 10
-1953.183200257648
 20
-246.9044804700974
 30
0.0
 11
-2003.969927596722
 21
-246.9044804701002
 31
0.0
  0
HATCH
  5
3319
330
1F
100
AcDbEntity
  8
NOSNÉ KONSTRUKCE
100
AcDbHatch
 10
0.0
 20
0.0
 30
0.0
210
0.0
220
0.0
230
1.0
  2
ANSI37
 70
     0
 71
     0
 91
        1
 92
        7
 72
     0
 73
     1
 93
        4
 10
-2003.969927596718
 20
-249.9415993899208
 10
-2003.969927596718
 20
-246.9415993899208
 10
-1953.183200257648
 20
-246.9415993899181
 10
-1953.183200257647
 20
-249.9415993899208
 97
        0
 75
     0
 76
     1
 52
90.0
 41
1.0
 77
     0
 78
     2
 53
225.0
 43
-1641.311387359052
 44
273.0259521758901
 45
-2.245064030267288
 46
2.245064030267287
 79
     0
 53
135.0
 43
-1641.311387359052
 44
273.0259521758901
 45
2.245064030267287
 46
2.245064030267288
 79
     0
 47
0.13614220447659
 98
        1
 10
-1986.106662309316
 20
-249.0287907381068
  0
HATCH
  5
331A
330
1F
100
AcDbEntity
  8
NOSNÉ KONSTRUKCE
100
AcDbHatch
 10
0.0
 20
0.0
 30
0.0
210
0.0
220
0.0
230
1.0
  2
ANSI37
 70
     0
 71
     0
 91
        1
 92
        7
 72
     0
 73
     1
 93
        4
 10
-2003.969927596718
 20
-249.9044804701004
 10
-2003.969927596718
 20
-246.9044804701004
 10
-1953.183200257648
 20
-246.9044804700977
 10
-1953.183200257647
 20
-249.9044804701004
 97
        0
 75
     0
 76
     1
 52
90.0
 41
1.0
 77
     0
 78
     2
 53
225.0
 43
-1641.311387359052
 44
273.0630710957104
 45
-2.245064030267288
 46
2.245064030267287
 79
     0
 53
135.0
 43
-1641.311387359052
 44
273.0630710957104
 45
2.245064030267287
 46
2.245064030267288
 79
     0
 47
0.13614220447659
 98
        1
 10
-1986.106662309316
 20
-248.9916718182864
  0
LINE
  5
331B
330
1F
100
AcDbEntity
  8
SPOJOVACÍ
100
AcDbLine
 10
-1974.282010048157
 20
-248.0624153754365
 30
0.0
 11
-1975.194610431979
 21
-248.3069459112944
 31
0.0
  0
LINE
  5
331C
330
1F
100
AcDbEntity
  8
SPOJOVACÍ
100
AcDbLine
 10
-1973.741365504195
 20
-253.5425501064896
 30
0.0
 11
-1975.983415778845
 21
-254.1433056669716
 31
0.0
  0
LINE
  5
331D
330
1F
100
AcDbEntity
  8
SPOJOVACÍ
100
AcDbLine
 10
-1973.912253948485
 20
-251.7133395271335
 30
0.0
 11
-1975.806880196433
 21
-252.2210031002291
 31
0.0
  0
LINE
  5
331E
330
1F
100
AcDbEntity
  8
SPOJOVACÍ
100
AcDbLine
 10
-1974.092476773032
 20
-249.8866300874283
 30
0.0
 11
-1975.619468849891
 21
-250.2957863812703
 31
0.0
  0
LINE
  5
331F
102
{ACAD_REACTORS
330
3217
102
}
330
1F
100
AcDbEntity
  8
NOSNÉ KONSTRUKCE
100
AcDbLine
 10
-1953.182970613158
 20
-246.9787183097409
 30
0.0
 11
-1953.182970613158
 21
-249.9787183097391
 31
0.0
  0
LINE
  5
3320
330
1F
100
AcDbEntity
  8
SPOJOVACÍ
100
AcDbLine
 10
-1972.872649891691
 20
-305.8097784596652
 30
0.0
 11
-1976.737157208074
 21
-306.8452700742341
 31
0.0
  0
LINE
  5
3321
330
1F
100
AcDbEntity
  8
SPOJOVACÍ
100
AcDbLine
 10
-1972.360989612165
 20
-292.5476795009676
 30
0.0
 11
-1977.281184653428
 21
-293.8660417888772
 31
0.0
  0
LINE
  5
3322
330
1F
100
AcDbEntity
  8
SPOJOVACÍ
100
AcDbLine
 10
-1972.627799745198
 20
-294.4941710606458
 30
0.0
 11
-1977.232456432266
 21
-295.7279851013704
 31
0.0
  0
LINE
  5
3323
330
1F
100
AcDbEntity
  8
SPOJOVACÍ
100
AcDbLine
 10
-1972.291962064139
 20
-285.0291836252186
 30
0.0
 11
-1977.37812826737
 21
-286.3920177519444
 31
0.0
  0
LINE
  5
3324
330
1F
100
AcDbEntity
  8
SPOJOVACÍ
100
AcDbLine
 10
-1972.29422435589
 20
-286.9047898044668
 30
0.0
 11
-1977.368665871816
 21
-288.2644823106971
 31
0.0
  0
LINE
  5
3325
330
1F
100
AcDbEntity
  8
SPOJOVACÍ
100
AcDbLine
 10
-1973.579836230107
 20
-279.7492684679423
 30
0.0
 11
-1975.692810805875
 21
-280.3154382991474
 31
0.0
  0
LINE
  5
3326
330
1F
100
AcDbEntity
  8
SPOJOVACÍ
100
AcDbLine
 10
-1973.427691787152
 20
-281.5835014873214
 30
0.0
 11
-1975.810225461973
 21
-282.2218994614281
 31
0.0
  0
LINE
  5
3327
330
1F
100
AcDbEntity
  8
SPOJOVACÍ
100
AcDbLine
 10
-1972.317169396945
 20
-281.2859379096876
 30
0.0
 11
-1977.367260175776
 21
-282.639105655579
 31
0.0
  0
LINE
  5
3328
330
1F
100
AcDbEntity
  8
SPOJOVACÍ
100
AcDbLine
 10
-1972.299624228994
 20
-283.1562366961038
 30
0.0
 11
-1977.377673828058
 21
-284.5168959852985
 31
0.0
  0
LINE
  5
3329
330
1F
100
AcDbEntity
  8
SPOJOVACÍ
100
AcDbLine
 10
-1972.591670445112
 20
-300.1094902438649
 30
0.0
 11
-1977.028085481645
 21
-301.2982240701935
 31
0.0
  0
LINE
  5
332A
330
1F
100
AcDbEntity
  8
SPOJOVACÍ
100
AcDbLine
 10
-1972.674961158864
 20
-302.0068079233519
 30
0.0
 11
-1976.914868608013
 21
-303.1428877003349
 31
0.0
  0
LINE
  5
332B
330
1F
100
AcDbEntity
  8
SPOJOVACÍ
100
AcDbLine
 10
-1972.768603035884
 20
-303.9068991886765
 30
0.0
 11
-1976.843695950294
 21
-304.9988170441752
 31
0.0
  0
LINE
  5
332C
330
1F
100
AcDbEntity
  8
SPOJOVACÍ
100
AcDbLine
 10
-1972.485389534191
 20
-298.2060123596133
 30
0.0
 11
-1977.105871458585
 21
-299.444066759896
 31
0.0
  0
LINE
  5
332D
330
1F
100
AcDbEntity
  8
SPOJOVACÍ
100
AcDbLine
 10
-1972.551766155679
 20
-296.3487979217375
 30
0.0
 11
-1976.647441622294
 21
-297.4462308554771
 31
0.0
  0
LINE
  5
332E
330
1F
100
AcDbEntity
  8
SPOJOVACÍ
100
AcDbLine
 10
-1972.306453689733
 20
-288.7830666445939
 30
0.0
 11
-1977.349327891257
 21
-290.1343007144237
 31
0.0
  0
LINE
  5
332F
330
1F
100
AcDbEntity
  8
SPOJOVACÍ
100
AcDbLine
 10
-1972.328693804105
 20
-290.6640258652791
 30
0.0
 11
-1977.320154467447
 21
-292.0014837190724
 31
0.0
  0
LINE
  5
3330
330
1F
100
AcDbEntity
  8
SPOJOVACÍ
100
AcDbLine
 10
-1973.718626986254
 20
-317.2864573389692
 30
0.0
 11
-1975.899001299931
 21
-317.8706868755157
 31
0.0
  0
LINE
  5
3331
330
1F
100
AcDbEntity
  8
SPOJOVACÍ
100
AcDbLine
 10
-1973.550940696408
 20
-315.3665259330232
 30
0.0
 11
-1976.062234380437
 21
-316.0394250476151
 31
0.0
  0
LINE
  5
3332
330
1F
100
AcDbEntity
  8
SPOJOVACÍ
100
AcDbLine
 10
-1973.394012345452
 20
-313.4494771081149
 30
0.0
 11
-1976.251468033601
 21
-314.2151300521622
 31
0.0
  0
LINE
  5
3333
330
1F
100
AcDbEntity
  8
SPOJOVACÍ
100
AcDbLine
 10
-1973.151664460616
 20
-309.6345401880857
 30
0.0
 11
-1976.495546606038
 21
-310.530530708535
 31
0.0
  0
LINE
  5
3334
330
1F
100
AcDbEntity
  8
SPOJOVACÍ
100
AcDbLine
 10
-1973.284958718395
 20
-307.7952562768127
 30
0.0
 11
-1976.621097419353
 21
-308.689171947572
 31
0.0
  0
LINE
  5
3335
330
1F
100
AcDbEntity
  8
SPOJOVACÍ
100
AcDbLine
 10
-1973.247779365687
 20
-311.5352940992802
 30
0.0
 11
-1976.36053386108
 21
-312.3693541525558
 31
0.0
  0
LINE
  5
3336
330
1F
100
AcDbEntity
  8
SPOJOVACÍ
100
AcDbLine
 10
-1973.284958718395
 20
-259.0452562768145
 30
0.0
 11
-1976.448414574279
 21
-259.8929017186896
 31
0.0
  0
LINE
  5
3337
330
1F
100
AcDbEntity
  8
SPOJOVACÍ
100
AcDbLine
 10
-1973.151664460616
 20
-260.8845401880876
 30
0.0
 11
-1976.582085840419
 21
-261.8037188265029
 31
0.0
  0
LINE
  5
3338
330
1F
100
AcDbEntity
  8
SPOJOVACÍ
100
AcDbLine
 10
-1973.427691787152
 20
-257.2085014873214
 30
0.0
 11
-1976.304119897597
 21
-257.9792380766016
 31
0.0
  0
LINE
  5
3339
330
1F
100
AcDbEntity
  8
SPOJOVACÍ
100
AcDbLine
 10
-1973.579836230107
 20
-255.3742684679423
 30
0.0
 11
-1976.149141060701
 21
-256.0627116224109
 31
0.0
  0
LINE
  5
333A
330
1F
100
AcDbEntity
  8
SPOJOVACÍ
100
AcDbLine
 10
-1972.317169396945
 20
-275.6609379096876
 30
0.0
 11
-1977.275822793363
 21
-276.9896050828033
 31
0.0
  0
LINE
  5
333B
330
1F
100
AcDbEntity
  8
SPOJOVACÍ
100
AcDbLine
 10
-1972.551766155679
 20
-271.9737979217375
 30
0.0
 11
-1977.164238817726
 21
-273.2097062466441
 31
0.0
  0
LINE
  5
333C
330
1F
100
AcDbEntity
  8
SPOJOVACÍ
100
AcDbLine
 10
-1972.627799745198
 20
-270.1191710606458
 30
0.0
 11
-1977.093114040945
 21
-271.3156484201431
 31
0.0
  0
LINE
  5
333D
330
1F
100
AcDbEntity
  8
SPOJOVACÍ
100
AcDbLine
 10
-1972.713456244383
 20
-268.2671226504303
 30
0.0
 11
-1977.011699963077
 21
-269.4188335837247
 31
0.0
  0
LINE
  5
333E
330
1F
100
AcDbEntity
  8
SPOJOVACÍ
100
AcDbLine
 10
-1972.485389534191
 20
-273.8310123596134
 30
0.0
 11
-1977.22512519754
 21
-275.1010207029444
 31
0.0
  0
LINE
  5
333F
330
1F
100
AcDbEntity
  8
SPOJOVACÍ
100
AcDbLine
 10
-1972.91350666662
 20
-264.5707259995146
 30
0.0
 11
-1976.81779367015
 21
-265.6168765491297
 31
0.0
  0
LINE
  5
3340
330
1F
100
AcDbEntity
  8
SPOJOVACÍ
100
AcDbLine
 10
-1972.808702583563
 20
-266.4176438300951
 30
0.0
 11
-1976.91994436206
 21
-267.5192477445329
 31
0.0
  0
LINE
  5
3341
330
1F
100
AcDbEntity
  8
SPOJOVACÍ
100
AcDbLine
 10
-1973.027837356393
 20
-262.7263608155094
 30
0.0
 11
-1976.705192945115
 21
-263.711705275788
 31
0.0
  0
LINE
  5
3342
330
1F
100
AcDbEntity
  8
SPOJOVACÍ
100
AcDbLine
 10
-1973.741365504195
 20
-277.9175501064896
 30
0.0
 11
-1975.572546207655
 21
-278.4082134971772
 31
0.0
  0
LINE
  5
3343
330
1F
100
AcDbEntity
  8
SPOJOVACÍ
100
AcDbLine
 10
-1972.381748467148
 20
-277.5532418193965
 30
0.0
 11
-1977.316379952863
 21
-278.8754723409397
 31
0.0
  0
LINE
  5
3344
330
1F
100
AcDbEntity
  8
SPOJOVACÍ
100
AcDbLine
 10
-1972.317169396945
 20
-279.4109379096876
 30
0.0
 11
-1977.34684378334
 21
-280.7586350997139
 31
0.0
  0
LINE
  5
3345
330
1F
100
AcDbEntity
  8
NOSNÉ KONSTRUKCE
100
AcDbLine
 10
-1956.182970613157
 20
-243.9787183097382
 30
0.0
 11
-1997.163220920102
 21
-243.978718309741
 31
0.0
  0
LINE
  5
3346
330
1F
100
AcDbEntity
  8
SPOJOVACÍ
100
AcDbLine
 10
-1974.769857250569
 20
-240.7177861938348
 30
0.0
 11
-1988.832357250569
 21
-240.7177861938348
 31
0.0
  0
LINE
  5
3347
330
1F
100
AcDbEntity
  8
SPOJOVACÍ
100
AcDbLine
 10
-1988.832357250569
 20
-243.5756776889397
 30
0.0
 11
-1974.769857250569
 21
-243.5756776889397
 31
0.0
  0
LINE
  5
3348
330
1F
100
AcDbEntity
  8
SPOJOVACÍ
100
AcDbLine
 10
-1988.832357250569
 20
-243.5756776889397
 30
0.0
 11
-1974.769857250569
 21
-243.5756776889397
 31
0.0
  0
ARC
  5
3349
330
1F
100
AcDbEntity
  8
SPOJOVACÍ
100
AcDbCircle
 10
-1983.207357250569
 20
-236.0302861938348
 30
0.0
 40
1.875
100
AcDbArc
 50
90.0
 51
180.0
  0
LINE
  5
334A
330
1F
100
AcDbEntity
  8
SPOJOVACÍ
100
AcDbLine
 10
-1985.082357250569
 20
-240.7084111938343
 30
0.0
 11
-1964.457357250569
 21
-240.7084111938343
 31
0.0
  0
ARC
  5
334B
330
1F
100
AcDbEntity
  8
NOSNÉ KONSTRUKCE
100
AcDbCircle
 10
-1997.163220920102
 20
-240.9787183097382
 30
0.0
 40
3.0
100
AcDbArc
 50
180.0
 51
270.0
  0
LINE
  5
334C
330
1F
100
AcDbEntity
  8
SPOJOVACÍ
100
AcDbLine
 10
-1988.832357250569
 20
-243.5756776889397
 30
0.0
 11
-1988.832357250569
 21
-240.7177861938348
 31
0.0
  0
LINE
  5
334D
330
1F
100
AcDbEntity
  8
SPOJOVACÍ
100
AcDbLine
 10
-1985.082357250569
 20
-240.7177861938348
 30
0.0
 11
-1985.082357250569
 21
-240.7084111938343
 31
0.0
  0
LINE
  5
334E
330
1F
100
AcDbEntity
  8
SPOJOVACÍ
100
AcDbLine
 10
-1985.082357250569
 20
-240.7177861938348
 30
0.0
 11
-1985.082357250569
 21
-236.0302861938348
 31
0.0
  0
LINE
  5
334F
330
1F
100
AcDbEntity
  8
SPOJOVACÍ
100
AcDbLine
 10
-1970.082357250569
 20
-240.7177861938348
 30
0.0
 11
-1970.082357250569
 21
-236.0302861938348
 31
0.0
  0
LINE
  5
3350
330
1F
100
AcDbEntity
  8
SPOJOVACÍ
100
AcDbLine
 10
-1964.457357250569
 20
-236.0302861938348
 30
0.0
 11
-1964.457357250569
 21
-240.7177861938348
 31
0.0
  0
LINE
  5
3351
330
1F
100
AcDbEntity
  8
SPOJOVACÍ
100
AcDbLine
 10
-1960.707357250569
 20
-240.7177861938348
 30
0.0
 11
-1960.707357250569
 21
-243.5756776889397
 31
0.0
  0
ARC
  5
3352
330
1F
100
AcDbEntity
  8
SPOJOVACÍ
100
AcDbCircle
 10
-1966.332357250569
 20
-236.0302861938348
 30
0.0
 40
1.875
100
AcDbArc
 50
0.0
 51
90.0
  0
LINE
  5
3353
330
1F
100
AcDbEntity
  8
SPOJOVACÍ
100
AcDbLine
 10
-1974.769857250569
 20
-243.5756776889397
 30
0.0
 11
-1960.707357250569
 21
-243.5756776889397
 31
0.0
  0
LINE
  5
3354
330
1F
100
AcDbEntity
  8
SPOJOVACÍ
100
AcDbLine
 10
-1974.769857250569
 20
-243.5756776889397
 30
0.0
 11
-1960.707357250569
 21
-243.5756776889397
 31
0.0
  0
ARC
  5
3355
330
1F
100
AcDbEntity
  8
SPOJOVACÍ
100
AcDbCircle
 10
-1968.207357250569
 20
-236.0302861938348
 30
0.0
 40
1.875
100
AcDbArc
 50
90.0
 51
180.0
  0
LINE
  5
3356
330
1F
100
AcDbEntity
  8
SPOJOVACÍ
100
AcDbLine
 10
-1974.480830694185
 20
-246.2406892069789
 30
0.0
 11
-1975.06290359213
 21
-246.396655169919
 31
0.0
  0
LINE
  5
3357
330
1F
100
AcDbEntity
  8
SPOJOVACÍ
100
AcDbLine
 10
-1979.457357250569
 20
-240.7177861938348
 30
0.0
 11
-1979.457357250569
 21
-236.0302861938348
 31
0.0
  0
ARC
  5
3358
330
1F
100
AcDbEntity
  8
SPOJOVACÍ
100
AcDbCircle
 10
-1981.332357250569
 20
-236.0302861938348
 30
0.0
 40
1.875
100
AcDbArc
 50
0.0
 51
90.0
  0
ARC
  5
3359
330
1F
100
AcDbEntity
  8
SPOJOVACÍ
100
AcDbCircle
 10
-1974.769857250569
 20
-240.8198568885768
 30
0.0
 40
6.701689614562111
100
AcDbArc
 50
45.61706766742556
 51
134.3829323325744
  0
LINE
  5
335A
330
1F
100
AcDbEntity
  8
SPOJOVACÍ
100
AcDbLine
 10
-1983.207357250569
 20
-234.1552861938348
 30
0.0
 11
-1966.332357250569
 21
-234.1552861938348
 31
0.0
  0
LINE
  5
335B
330
1F
100
AcDbEntity
  8
SPOJOVACÍ
100
AcDbLine
 10
-1982.347078341065
 20
-240.7177861938348
 30
0.0
 11
-1960.707357250569
 21
-240.7177861938348
 31
0.0
  0
LINE
  5
335C
330
1F
100
AcDbEntity
  8
NOSNÉ KONSTRUKCE
100
AcDbLine
 10
-2000.163220920105
 20
-162.0671734039565
 30
0.0
 11
-2000.163220920101
 21
-240.9787183097382
 31
0.0
  0
LINE
  5
335D
330
1F
100
AcDbEntity
  8
NOSNÉ KONSTRUKCE
100
AcDbLine
 10
-2005.679832616617
 20
-168.770277922938
 30
0.0
 11
-2007.355993229274
 21
-168.770277922938
 31
0.0
  0
LINE
  5
335E
102
{ACAD_REACTORS
330
3216
102
}
330
1F
100
AcDbEntity
  8
NOSNÉ KONSTRUKCE
100
AcDbLine
 10
-2007.688185458315
 20
-175.1848553590038
 30
0.0
 11
-2005.4071283627
 21
-179.1899637190085
 31
0.0
  0
LINE
  5
335F
102
{ACAD_REACTORS
330
3216
102
}
330
1F
100
AcDbEntity
  8
NOSNÉ KONSTRUKCE
100
AcDbLine
 10
-2009.125615868791
 20
-176.3257771603834
 30
0.0
 11
-2005.4071283627
 21
-181.9823219909126
 31
0.0
  0
ARC
  5
3360
330
1F
100
AcDbEntity
  8
NOSNÉ KONSTRUKCE
100
AcDbCircle
 10
-2002.163220920106
 20
-162.0671734039565
 30
0.0
 40
2.0
100
AcDbArc
 50
0.0
 51
47.89305660100017
  0
LINE
  5
3361
330
1F
100
AcDbEntity
  8
NOSNÉ KONSTRUKCE
100
AcDbLine
 10
-2000.822187859092
 20
-160.5833842244351
 30
0.0
 11
-2003.969697952223
 21
-157.7386976928023
 31
0.0
  0
LINE
  5
3362
330
1F
100
AcDbEntity
  8
SPOJOVACÍ
100
AcDbLine
 10
-2008.739404022545
 20
-137.5983498973032
 30
0.0
 11
-2009.92396522126
 21
-133.1775073190133
 31
0.0
  0
LINE
  5
3363
330
1F
100
AcDbEntity
  8
SPOJOVACÍ
100
AcDbLine
 10
-2009.969872772543
 20
-137.5983498973032
 30
0.0
 11
-2010.904690095427
 21
-134.1095641525003
 31
0.0
  0
LINE
  5
3364
330
1F
100
AcDbEntity
  8
SPOJOVACÍ
100
AcDbLine
 10
-2007.508935272543
 20
-137.5983498973032
 30
0.0
 11
-2008.69349647126
 21
-133.1775073190133
 31
0.0
  0
LINE
  5
3365
330
1F
100
AcDbEntity
  8
SPOJOVACÍ
100
AcDbLine
 10
-2005.047997772543
 20
-137.5983498973032
 30
0.0
 11
-2006.23255897126
 21
-133.1775073190133
 31
0.0
  0
LINE
  5
3366
330
1F
100
AcDbEntity
  8
SPOJOVACÍ
100
AcDbLine
 10
-2003.817529022541
 20
-137.5983498973032
 30
0.0
 11
-2005.00209022126
 21
-133.1775073190133
 31
0.0
  0
LINE
  5
3367
102
{ACAD_REACTORS
330
3217
102
}
330
1F
100
AcDbEntity
  8
SPOJOVACÍ
100
AcDbLine
 10
-2010.186587905155
 20
-137.5983498973032
 30
0.0
 11
-2003.588972321824
 21
-137.5983498973032
 31
0.0
  0
LINE
  5
3368
330
1F
100
AcDbEntity
  8
SPOJOVACÍ
100
AcDbLine
 10
-2006.278466522543
 20
-137.5983498973032
 30
0.0
 11
-2007.463027721262
 21
-133.1775073190133
 31
0.0
  0
LINE
  5
3369
330
1F
100
AcDbEntity
  8
SPOJOVACÍ
100
AcDbLine
 10
-2003.588972321824
 20
-129.8508192331578
 30
0.0
 11
-2003.588972321824
 21
-135.3879286081578
 31
0.0
  0
LINE
  5
336A
330
1F
100
AcDbEntity
  8
SPOJOVACÍ
100
AcDbLine
 10
-2003.588972321824
 20
-135.3879286081578
 30
0.0
 11
-2003.588972321824
 21
-140.9250379831578
 31
0.0
  0
ARC
  5
336B
330
1F
100
AcDbEntity
  8
SPOJOVACÍ
100
AcDbCircle
 10
-2007.899272390621
 20
-135.3879286081578
 30
0.0
 40
7.016998426235272
100
AcDbArc
 50
307.8985698078477
 51
52.10143019215225
  0
LINE
  5
336C
102
{ACAD_REACTORS
330
3217
102
}
330
1F
100
AcDbEntity
  8
NOSNÉ KONSTRUKCE
100
AcDbLine
 10
-2003.96969795222
 20
-121.9557771910781
 30
0.0
 11
-2005.407128362695
 21
-121.9557771910781
 31
0.0
  0
LINE
  5
336D
102
{ACAD_REACTORS
330
3217
102
}
330
1F
100
AcDbEntity
  8
NOSNÉ KONSTRUKCE
100
AcDbLine
 10
-2007.688185458315
 20
-121.955777191079
 30
0.0
 11
-2009.125615868791
 21
-121.9557771910781
 31
0.0
  0
LINE
  5
336E
102
{ACAD_REACTORS
330
3217
102
}
330
1F
100
AcDbEntity
  8
SPOJOVACÍ
100
AcDbLine
 10
-2010.186587905155
 20
-133.1775073190133
 30
0.0
 11
-2003.588972321824
 21
-133.1775073190133
 31
0.0
  0
LINE
  5
336F
102
{ACAD_REACTORS
330
3217
330
3216
102
}
330
1F
100
AcDbEntity
  8
NOSNÉ KONSTRUKCE
100
AcDbLine
 10
-2009.125615868791
 20
-121.9557771910781
 30
0.0
 11
-2009.125615868791
 21
-176.3257771603834
 31
0.0
  0
LINE
  5
3370
102
{ACAD_REACTORS
330
3217
330
3216
102
}
330
1F
100
AcDbEntity
  8
NOSNÉ KONSTRUKCE
100
AcDbLine
 10
-2007.688185458315
 20
-175.1848553590038
 30
0.0
 11
-2007.688185458315
 21
-121.955777191079
 31
0.0
  0
LWPOLYLINE
  5
3371
330
1F
100
AcDbEntity
  8
NOSNÉ KONSTRUKCE
100
AcDbPolyline
 90
        3
 70
     0
 43
0.0
 10
-2005.679832616617
 20
-116.2812006159524
 10
-1974.327116373108
 20
-116.2812006159524
 10
-1974.327116373108
 20
-113.7551131839513
  0
LINE
  5
3372
330
1F
100
AcDbEntity
  8
NOSNÉ KONSTRUKCE
100
AcDbLine
 10
-1974.327116373108
 20
-111.3774373961728
 30
0.0
 11
-1986.09653786751
 21
-111.3774373961728
 31
0.0
  0
LINE
  5
3373
330
1F
100
AcDbEntity
  8
NOSNÉ KONSTRUKCE
100
AcDbLine
 10
-1986.09653786751
 20
-111.3774373961728
 30
0.0
 11
-1986.09653786751
 21
-113.7551131839513
 31
0.0
  0
LINE
  5
3374
330
1F
100
AcDbEntity
  8
NOSNÉ KONSTRUKCE
100
AcDbLine
 10
-2038.708709472783
 20
-113.7551131839513
 30
0.0
 11
-2038.708709472783
 21
-111.3774373961728
 31
0.0
  0
LINE
  5
3375
330
1F
100
AcDbEntity
  8
NOSNÉ KONSTRUKCE
100
AcDbLine
 10
-2026.939287978381
 20
-111.3774373961728
 30
0.0
 11
-2026.939287978381
 21
-113.7551131839513
 31
0.0
  0
LINE
  5
3376
330
1F
100
AcDbEntity
  8
NOSNÉ KONSTRUKCE
100
AcDbLine
 10
-2038.708709472783
 20
-111.3774373961728
 30
0.0
 11
-2026.939287978381
 21
-111.3774373961728
 31
0.0
  0
LINE
  5
3377
330
1F
100
AcDbEntity
  8
NOSNÉ KONSTRUKCE
100
AcDbLine
 10
-1986.09653786751
 20
-113.7551131839513
 30
0.0
 11
-2026.939287978381
 21
-113.7551131839513
 31
0.0
  0
LWPOLYLINE
  5
3378
330
1F
100
AcDbEntity
  8
NOSNÉ KONSTRUKCE
100
AcDbPolyline
 90
        3
 70
     0
 43
0.0
 10
-2038.708709472783
 20
-113.7551131839513
 10
-2038.708709472783
 20
-116.2812006159524
 10
-2007.355993229274
 20
-116.2812006159524
  0
LINE
  5
3379
330
1F
100
AcDbEntity
  8
NOSNÉ KONSTRUKCE
100
AcDbLine
 10
-1974.327116373108
 20
-113.7551131839513
 30
0.0
 11
-1974.327116373108
 21
-111.3774373961728
 31
0.0
  0
LINE
  5
337A
330
1F
100
AcDbEntity
  8
SPOJOVACÍ
100
AcDbLine
 10
-2011.889604622735
 20
-135.3879286081578
 30
0.0
 11
-2010.186587905155
 21
-137.5983498973032
 31
0.0
  0
LINE
  5
337B
330
1F
100
AcDbEntity
  8
NOSNÉ KONSTRUKCE
100
AcDbLine
 10
-2005.679832616617
 20
-116.2812006159524
 30
0.0
 11
-2005.679832616617
 21
-168.770277922938
 31
0.0
  0
LINE
  5
337C
330
1F
100
AcDbEntity
  8
NOSNÉ KONSTRUKCE
100
AcDbLine
 10
-2007.355993229274
 20
-168.770277922938
 30
0.0
 11
-2007.355993229274
 21
-116.2812006159524
 31
0.0
  0
LINE
  5
337D
102
{ACAD_REACTORS
330
3217
102
}
330
1F
100
AcDbEntity
  8
SPOJOVACÍ
  6
DASHDOT2
100
AcDbLine
 10
-1974.769857250569
 20
-231.215076220506
 30
0.0
 11
-1974.769857250567
 21
-346.1351859644132
 31
0.0
  0
LINE
  5
337E
102
{ACAD_REACTORS
330
3217
102
}
330
1F
100
AcDbEntity
  8
SPOJOVACÍ
  6
DASHED
100
AcDbLine
 10
-1968.207357250567
 20
-327.4872726326143
 30
0.0
 11
-1968.207357250569
 21
-246.3881776889406
 31
0.0
  0
LINE
  5
337F
102
{ACAD_REACTORS
330
3217
102
}
330
1F
100
AcDbEntity
  8
SPOJOVACÍ
  6
DASHED
100
AcDbLine
 10
-1981.332357250567
 20
-327.4872726326143
 30
0.0
 11
-1981.332357250569
 21
-246.3881776889406
 31
0.0
  0
ARC
  5
3380
102
{ACAD_REACTORS
330
3217
102
}
330
1F
100
AcDbEntity
  8
NOSNÉ KONSTRUKCE
100
AcDbCircle
 10
-1956.182970613157
 20
-246.9787183097409
 30
0.0
 40
3.0
100
AcDbArc
 50
359.9999999999869
 51
90.0
  0
LINE
  5
3381
102
{ACAD_REACTORS
330
3218
330
3217
102
}
330
1F
100
AcDbEntity
  8
NOSNÉ KONSTRUKCE
100
AcDbLine
 10
-2003.96969795222
 20
-121.9557771910781
 30
0.0
 11
-2003.969697952231
 21
-249.978718309741
 31
0.0
  0
LINE
  5
3382
102
{ACAD_REACTORS
330
3218
330
3217
330
3216
102
}
330
1F
100
AcDbEntity
  8
NOSNÉ KONSTRUKCE
100
AcDbLine
 10
-2005.407128362695
 20
-121.9557771910781
 30
0.0
 11
-2005.407128362706
 21
-250.1841979035503
 31
0.0
  0
LINE
  5
3383
330
1F
100
AcDbEntity
  8
STAVBA OBRYS
100
AcDbLine
 10
-1995.395676817159
 20
-484.9787183097382
 30
0.0
 11
-1709.110453463072
 21
-484.9787183097385
 31
0.0
  0
LINE
  5
3384
102
{ACAD_REACTORS
330
3217
102
}
330
1F
100
AcDbEntity
  8
STAVBA OBRYS
100
AcDbLine
 10
-2009.382018523138
 20
-249.9787183097382
 30
0.0
 11
-1723.096795169051
 21
-249.9787183097382
 31
0.0
  0
LINE
  5
3385
102
{ACAD_REACTORS
330
3218
330
3217
102
}
330
1F
100
AcDbEntity
  8
STAVBA OBRYS
  6
IZOLACE
 48
4.0
100
AcDbLine
 10
-1725.637157077761
 20
-207.2952874958263
 30
0.0
 11
-2216.327860329097
 21
-206.5723891645095
 31
0.0
  0
SOLID
  5
3386
330
1F
100
AcDbEntity
  8
CETRIS
100
AcDbTrace
 10
-1731.41320509216
 20
-110.2455148019632
 30
0.0
 11
-1732.128342969643
 21
-98.2296921700447
 31
0.0
 12
-2056.741121778759
 22
-110.2296921700485
 32
0.0
 13
-2056.741121778759
 23
-98.22969217004857
 33
0.0
  0
LINE
  5
3387
102
{ACAD_REACTORS
330
3218
330
3217
330
3216
102
}
330
1F
100
AcDbEntity
  8
STAVBA OBRYS
100
AcDbLine
 10
-2216.327860329097
 20
-165.583250796599
 30
0.0
 11
-1728.119705156605
 21
-165.583250796599
 31
0.0
  0
LINE
  5
3388
102
{ACAD_REACTORS
330
321A
102
}
330
1F
100
AcDbEntity
  8
STAVBA OBRYS
  6
IZOLACE
 48
4.0
100
AcDbLine
 10
-2174.835679317266
 20
-165.5832507965992
 30
0.0
 11
-2174.270615137813
 21
217.9723995424988
 31
0.0
  0
SOLID
  5
3389
330
1F
100
AcDbEntity
  8
CETRIS
100
AcDbTrace
 10
-2064.35352517102
 20
217.9723995424988
 30
0.0
 11
-2076.380708652996
 21
217.9723995424988
 31
0.0
 12
-2064.380708652989
 22
-110.1660051073308
 32
0.0
 13
-2076.380708652989
 23
-110.1660051073308
 33
0.0
  0
LINE
  5
338A
102
{ACAD_REACTORS
330
321A
102
}
330
1F
100
AcDbEntity
  8
STAVBA OBRYS
100
AcDbLine
 10
-2132.81816022479
 20
217.9723995424988
 30
0.0
 11
-2132.81816022479
 21
-165.583250796599
 31
0.0
  0
TEXT
  5
338B
330
1F
100
AcDbEntity
  8
POPIS
100
AcDbText
 10
-2192.768092948894
 20
-588.6155364932724
 30
0.0
 40
12.0
  1
R
 41
0.85
  7
SIMPLEX7
100
AcDbText
  0
CIRCLE
  5
338C
330
1F
100
AcDbEntity
  8
POPIS
100
AcDbCircle
 10
-2188.385809438572
 20
-582.5053751253267
 30
0.0
 40
11.13656048292026
  0
TEXT
  5
338D
330
1F
100
AcDbEntity
  8
POPIS
100
AcDbText
 10
-2415.540936644233
 20
-613.7900289746708
 30
0.0
 40
25.0
  1
01
 41
0.85
  7
SIMPLEX7
100
AcDbText
  0
TEXT
  5
338E
330
1F
100
AcDbEntity
  8
POPIS
100
AcDbText
 10
-2415.544581919061
 20
-686.3808820086574
 30
0.0
 40
25.0
  1
03
 41
0.85
  7
SIMPLEX7
100
AcDbText
  0
TEXT
  5
338F
330
1F
100
AcDbEntity
  8
POPIS
100
AcDbText
 10
-2415.544581919061
 20
-652.4306937639352
 30
0.0
 40
25.0
  1
02
 41
0.85
  7
SIMPLEX7
100
AcDbText
  0
TEXT
  5
3390
330
1F
100
AcDbEntity
  8
POPIS
100
AcDbText
 10
-2415.544581919061
 20
-757.8918647140085
 30
0.0
 40
25.0
  1
05
 41
0.85
  7
SIMPLEX7
100
AcDbText
  0
TEXT
  5
3391
330
1F
100
AcDbEntity
  8
POPIS
100
AcDbText
 10
-2415.544581919061
 20
-721.7850432268201
 30
0.0
 40
25.0
  1
04
 41
0.85
  7
SIMPLEX7
100
AcDbText
  0
TEXT
  5
3392
330
1F
100
AcDbEntity
  8
POPIS
100
AcDbText
 10
-2415.544581919061
 20
-793.5107534120975
 30
0.0
 40
25.0
  1
06
 41
0.85
  7
SIMPLEX7
100
AcDbText
  0
TEXT
  5
3393
330
1F
100
AcDbEntity
  8
POPIS
100
AcDbText
 10
-2361.200878759312
 20
-652.4306937639352
 30
0.0
 40
25.0
  1
Nerezový vrut s podložkou (np. SFS, EJOT)
 41
0.7
  7
SIMPLEX7
100
AcDbText
  0
TEXT
  5
3394
330
1F
100
AcDbEntity
  8
POPIS
100
AcDbText
 10
-2361.200878759312
 20
-686.3808820086574
 30
0.0
 40
25.0
  1
Vzduchová mezera - min. 25 mm
 41
0.7
  7
SIMPLEX7
100
AcDbText
  0
TEXT
  5
3395
330
1F
100
AcDbEntity
  8
POPIS
100
AcDbText
 10
-2361.200878759312
 20
-615.8356821483071
 30
0.0
 40
25.0
  1
Deska CETRIS   (BASIC,FINISH,LASURT)
 41
0.7
  7
SIMPLEX7
100
AcDbText
  0
TEXT
  5
3396
330
1F
100
AcDbEntity
  8
POPIS
100
AcDbText
 10
-2361.200878759312
 20
-721.7850432268201
 30
0.0
 40
25.0
  1
Kotevní prvek
 41
0.7
  7
SIMPLEX7
100
AcDbText
  0
TEXT
  5
3397
330
1F
100
AcDbEntity
  8
POPIS
100
AcDbText
 10
-2361.200878759312
 20
-793.5107534120975
 30
0.0
 40
25.0
  1
Nosný profil systému - úhelník (np. SPIDI, EuroFox, SPEEDY...)
 41
0.7
  7
SIMPLEX7
100
AcDbText
  0
TEXT
  5
3398
330
1F
100
AcDbEntity
  8
POPIS
100
AcDbText
 10
-2361.200878759312
 20
-757.8918647140085
 30
0.0
 40
25.0
  1
Upevňovací prvek systému - kotva (np. SPIDI, EuroFox, SPEEDY...)
 41
0.7
  7
SIMPLEX7
100
AcDbText
  0
TEXT
  5
3399
330
1F
100
AcDbEntity
  8
POPIS
100
AcDbText
 10
-2474.733909101349
 20
334.3812676993634
 30
0.0
 40
50.0
  1
VNITŘNÍ ROH
 41
0.85
  7
SIMPLEX7
100
AcDbText
  0
LINE
  5
339A
330
1F
100
AcDbEntity
  8
STAVBA OBRYS
100
AcDbLine
 10
-2452.920730903745
 20
-484.9787183097382
 30
0.0
 11
-2452.920730903736
 21
217.9723995424988
 31
0.0
  0
LINE
  5
339B
102
{ACAD_REACTORS
330
321A
102
}
330
1F
100
AcDbEntity
  8
STAVBA OBRYS
100
AcDbLine
 10
-2216.327860329097
 20
217.9723995424988
 30
0.0
 11
-2216.327860329097
 21
-249.9787183097382
 31
0.0
  0
LINE
  5
339C
330
1F
100
AcDbEntity
  8
POPIS
100
AcDbLine
 10
-2044.973604703266
 20
42.59921923070396
 30
0.0
 11
-1910.491329873778
 21
42.59921923070351
 31
0.0
  0
LINE
  5
339D
330
1F
100
AcDbEntity
  8
POPIS
100
AcDbLine
 10
-2044.973604703266
 20
79.08196792488706
 30
0.0
 11
-1910.49132987378
 21
79.08196792488661
 31
0.0
  0
LINE
  5
339E
330
1F
100
AcDbEntity
  8
STAVBA OBRYS
100
AcDbLine
 10
-2452.920730903745
 20
-484.9787183097382
 30
0.0
 11
-1995.395676817159
 21
-484.9787183097382
 31
0.0
  0
LINE
  5
339F
330
1F
100
AcDbEntity
  8
STAVBA OBRYS
100
AcDbLine
 10
-2216.327860329097
 20
-249.9787183097382
 30
0.0
 11
-2009.382018523138
 21
-249.9787183097382
 31
0.0
  0
TEXT
  5
3404
330
1F
100
AcDbEntity
  8
POPIS
100
AcDbText
 10
-2086.160010344429
 20
-152.199379455846
 30
0.0
 40
25.0
  1
c
 41
0.7
  7
SIMPLEX7
100
AcDbText
  0
LINE
  5
3405
330
1F
100
AcDbEntity
  8
POPIS
100
AcDbLine
 10
-2031.875099920317
 20
-166.0680199316111
 30
0.0
 11
-2031.875099920317
 21
-122.5850100757079
 31
0.0
  0
LINE
  5
3406
330
1F
100
AcDbEntity
  8
POPIS
100
AcDbLine
 10
-2057.392246225372
 20
-163.8790776986088
 30
0.0
 11
-2057.392246225372
 21
-122.5850100757079
 31
0.0
  0
INSERT
  5
3407
330
1F
100
AcDbEntity
  8
POPIS
100
AcDbBlockReference
  2
_ArchTick
 10
-2057.392246225372
 20
-159.5939202243494
 30
0.0
 41
15.0
 42
15.0
 43
15.0
 50
180.0
  0
INSERT
  5
3408
330
1F
100
AcDbEntity
  8
POPIS
100
AcDbBlockReference
  2
_ArchTick
 10
-2031.875099920317
 20
-159.5939202243494
 30
0.0
 41
15.0
 42
15.0
 43
15.0
  0
LINE
  5
3409
330
1F
100
AcDbEntity
  8
POPIS
100
AcDbLine
 10
-2022.583883837448
 20
-159.5939202243494
 30
0.0
 11
-2086.978168583944
 21
-159.5939202243494
 31
0.0
  0
TEXT
  5
340A
330
1F
100
AcDbEntity
  8
POPIS
100
AcDbText
 10
-2072.33367967099
 20
-156.4204326321377
 30
0.0
 40
15.0
  1
1
 41
0.7
  7
SIMPLEX7
100
AcDbText
  0
LINE
  5
340B
330
1F
100
AcDbEntity
  8
PROFILY
100
AcDbLine
 10
-2038.324125060263
 20
-110.9395236253026
 30
0.0
 11
-1974.252007453577
 21
-110.9395236253023
 31
0.0
  0
LINE
  5
340C
330
1F
100
AcDbEntity
  8
PROFILY
  6
DASHED
370
    40
100
AcDbLine
 10
-2038.327758012488
 20
-110.7395236253028
 30
0.0
 11
-1974.252007453577
 21
-110.7395236253028
 31
0.0
  0
LINE
  5
340D
330
1F
100
AcDbEntity
  8
PROFILY
100
AcDbLine
 10
-2038.331390964714
 20
-110.5395236253029
 30
0.0
 11
-1974.252007453577
 21
-110.5395236253027
 31
0.0
  0
LINE
  5
340E
330
1F
100
AcDbEntity
  8
PROFILY
100
AcDbLine
 10
-2076.761794714123
 20
-78.17124617529316
 30
0.0
 11
-2076.761794714123
 21
-14.09912856860683
 31
0.0
  0
LINE
  5
340F
330
1F
100
AcDbEntity
  8
PROFILY
  6
DASHED
370
    40
100
AcDbLine
 10
-2076.961794714123
 20
-78.17487912751847
 30
0.0
 11
-2076.961794714123
 21
-14.09912856860683
 31
0.0
  0
LINE
  5
3410
330
1F
100
AcDbEntity
  8
PROFILY
100
AcDbLine
 10
-2077.161794714123
 20
-78.17851207974377
 30
0.0
 11
-2077.161794714123
 21
-14.09912856860683
 31
0.0
  0
LINE
  5
3411
330
1F
100
AcDbEntity
  8
POPIS
100
AcDbLine
 10
-2035.136790101247
 20
-1.747606501360223
 30
0.0
 11
-2076.761794714123
 21
-46.75622093913102
 31
0.0
  0
INSERT
  5
3412
330
1F
100
AcDbEntity
  8
POPIS
100
AcDbBlockReference
  2
E_PUNKT
 10
-2077.188313579665
 20
-45.58562669567391
 30
0.0
 41
-1.0
  0
TEXT
  5
3413
330
1F
100
AcDbEntity
  8
POPIS
100
AcDbText
 10
-1896.999199659805
 20
-14.11273922613736
 30
0.0
 40
25.0
  1
07
 41
0.7
  7
SIMPLEX7
100
AcDbText
  0
LINE
  5
3414
330
1F
100
AcDbEntity
  8
POPIS
100
AcDbLine
 10
-2035.136790101247
 20
-1.747606501360223
 30
0.0
 11
-1907.648757976958
 21
-1.749041280382243
 31
0.0
  0
TEXT
  5
3415
330
1F
100
AcDbEntity
  8
POPIS
100
AcDbText
 10
-1878.348277327766
 20
-577.8589554437525
 30
0.0
 40
25.0
  1
50 mm AL rošt
 41
0.7
  7
SIMPLEX7
100
AcDbText
  0
TEXT
  5
3416
330
1F
100
AcDbEntity
  8
POPIS
100
AcDbText
 10
-1878.348277327766
 20
-546.9095396504802
 30
0.0
 40
25.0
  1
35 mm PZ rošt
 41
0.7
  7
SIMPLEX7
100
AcDbText
  0
TEXT
  5
3417
330
1F
100
AcDbEntity
  8
POPIS
100
AcDbText
 10
-1913.626767724363
 20
-546.9095396504802
 30
0.0
 40
25.0
  1
c
 41
0.7
  7
SIMPLEX7
100
AcDbText
  0
TEXT
  5
3418
330
1F
100
AcDbEntity
  8
POPIS
100
AcDbText
 10
-1899.800437050924
 20
-551.1305928267719
 30
0.0
 40
15.0
  1
1
 41
0.7
  7
SIMPLEX7
100
AcDbText
  0
TEXT
  5
3419
330
1F
100
AcDbEntity
  8
POPIS
100
AcDbText
 10
-2361.160786037256
 20
-829.9804650486871
 30
0.0
 40
25.0
  1
Podkladní EPDM páska tl.1 mm
 41
0.7
  7
SIMPLEX7
100
AcDbText
  0
TEXT
  5
341A
330
1F
100
AcDbEntity
  8
POPIS
100
AcDbText
 10
-2415.504489196998
 20
-829.9804650486871
 30
0.0
 40
25.0
  1
07
 41
0.85
  7
SIMPLEX7
100
AcDbText
  0
LINE
  5
341B
330
1F
100
AcDbEntity
  8
POPIS
100
AcDbLine
 10
-2035.136790101247
 20
-50.8263592784574
 30
0.0
 11
-1907.648757976958
 21
-50.82779405747942
 31
0.0
  0
LINE
  5
341C
330
1F
100
AcDbEntity
  8
POPIS
100
AcDbLine
 10
-2035.136790101247
 20
-50.8263592784574
 30
0.0
 11
-2076.761794714123
 21
-95.8349737162282
 31
0.0
  0
ENDSEC
  0
SECTION
  2
OBJECTS
  0
DICTIONARY
  5
C
330
0
100
AcDbDictionary
281
     1
  3
ACAD_GROUP
350
D
  3
ACAD_LAYOUT
350
1A
  3
ACAD_MLINESTYLE
350
17
  3
ACAD_PLOTSETTINGS
350
19
  3
ACAD_PLOTSTYLENAME
350
E
  3
AcDbVariableDictionary
350
341E
  0
DICTIONARY
  5
33A1
330
1F
100
AcDbDictionary
280
     1
281
     1
  3
ACAD_LAYOUTSELFREF
360
33DB
  0
DICTIONARY
  5
33A3
330
1B
100
AcDbDictionary
280
     1
281
     1
  3
ACAD_LAYOUTSELFREF
360
33DA
  0
DICTIONARY
  5
33A5
330
23
100
AcDbDictionary
280
     1
281
     1
  3
ACAD_LAYOUTSELFREF
360
33DC
  0
DICTIONARY
  5
D
102
{ACAD_REACTORS
330
C
102
}
330
C
100
AcDbDictionary
281
     1
  0
DICTIONARY
  5
1A
102
{ACAD_REACTORS
330
C
102
}
330
C
100
AcDbDictionary
281
     1
  3
Model
350
22
  3
Rozvržení1
350
1E
  3
Rozvržení2
350
26
  0
DICTIONARY
  5
17
102
{ACAD_REACTORS
330
C
102
}
330
C
100
AcDbDictionary
281
     1
  3
Standard
350
18
  0
DICTIONARY
  5
19
102
{ACAD_REACTORS
330
C
102
}
330
C
100
AcDbDictionary
281
     1
  0
ACDBDICTIONARYWDFLT
  5
E
102
{ACAD_REACTORS
330
C
102
}
330
C
100
AcDbDictionary
281
     1
  3
Normal
350
F
100
AcDbDictionaryWithDefault
340
F
  0
DICTIONARY
  5
341E
102
{ACAD_REACTORS
330
C
102
}
330
C
100
AcDbDictionary
281
     1
  3
DIMASSOC
350
341F
  0
XRECORD
  5
33DB
102
{ACAD_REACTORS
330
33A1
102
}
330
33A1
100
AcDbXrecord
280
     1
340
1F
  0
XRECORD
  5
33DA
102
{ACAD_REACTORS
330
33A3
102
}
330
33A3
100
AcDbXrecord
280
     1
340
1B
  0
XRECORD
  5
33DC
102
{ACAD_REACTORS
330
33A5
102
}
330
33A5
100
AcDbXrecord
280
     1
340
23
  0
LAYOUT
  5
22
102
{ACAD_REACTORS
330
1A
102
}
330
1A
100
AcDbPlotSettings
  1

  2
HP DeskJet 690C
  4

  6

 40
0.0
 41
0.0
 42
0.0
 43
0.0
 44
0.0
 45
0.0
 46
0.0
 47
0.0
 48
0.0
 49
0.0
140
0.0
141
0.0
142
1.0
143
1.0
 70
  1712
 72
     0
 73
     0
 74
     0
  7
monochrome.ctb
 75
     0
147
1.0
148
0.0
149
0.0
100
AcDbLayout
  1
Model
 70
     1
 71
     0
 10
0.0
 20
0.0
 11
12.0
 21
9.0
 12
0.0
 22
0.0
 32
0.0
 14
0.0
 24
0.0
 34
0.0
 15
0.0
 25
0.0
 35
0.0
146
0.0
 13
0.0
 23
0.0
 33
0.0
 16
1.0
 26
0.0
 36
0.0
 17
0.0
 27
1.0
 37
0.0
 76
     0
330
1F
  0
LAYOUT
  5
1E
102
{ACAD_REACTORS
330
1A
102
}
330
1A
100
AcDbPlotSettings
  1

  2
HP DeskJet 690C
  4

  6

 40
0.0
 41
0.0
 42
0.0
 43
0.0
 44
0.0
 45
0.0
 46
0.0
 47
0.0
 48
0.0
 49
0.0
140
0.0
141
0.0
142
1.0
143
1.0
 70
   688
 72
     0
 73
     0
 74
     5
  7
monochrome.ctb
 75
    16
147
1.0
148
0.0
149
0.0
100
AcDbLayout
  1
Rozvržení1
 70
     1
 71
     1
 10
0.0
 20
0.0
 11
420.0
 21
297.0
 12
0.0
 22
0.0
 32
0.0
 14
1.000000000000000E+20
 24
1.000000000000000E+20
 34
1.000000000000000E+20
 15
-1.000000000000000E+20
 25
-1.000000000000000E+20
 35
-1.000000000000000E+20
146
0.0
 13
0.0
 23
0.0
 33
0.0
 16
1.0
 26
0.0
 36
0.0
 17
0.0
 27
1.0
 37
0.0
 76
     0
330
1B
  0
LAYOUT
  5
26
102
{ACAD_REACTORS
330
1A
102
}
330
1A
100
AcDbPlotSettings
  1

  2
HP DeskJet 690C
  4

  6

 40
0.0
 41
0.0
 42
0.0
 43
0.0
 44
0.0
 45
0.0
 46
0.0
 47
0.0
 48
0.0
 49
0.0
140
0.0
141
0.0
142
1.0
143
1.0
 70
   688
 72
     0
 73
     0
 74
     5
  7
monochrome.ctb
 75
    16
147
1.0
148
0.0
149
0.0
100
AcDbLayout
  1
Rozvržení2
 70
     1
 71
     2
 10
0.0
 20
0.0
 11
12.0
 21
9.0
 12
0.0
 22
0.0
 32
0.0
 14
0.0
 24
0.0
 34
0.0
 15
0.0
 25
0.0
 35
0.0
146
0.0
 13
0.0
 23
0.0
 33
0.0
 16
1.0
 26
0.0
 36
0.0
 17
0.0
 27
1.0
 37
0.0
 76
     0
330
23
  0
MLINESTYLE
  5
18
102
{ACAD_REACTORS
330
17
102
}
330
17
100
AcDbMlineStyle
  2
STANDARD
 70
     0
  3

 62
   256
 51
90.0
 52
90.0
 71
     2
 49
0.5
 62
   256
  6
BYLAYER
 49
-0.5
 62
   256
  6
BYLAYER
  0
ACDBPLACEHOLDER
  5
F
102
{ACAD_REACTORS
330
E
102
}
330
E
  0
DICTIONARYVAR
  5
341F
102
{ACAD_REACTORS
330
341E
102
}
330
341E
100
DictionaryVariables
280
     0
  1
1
  0
ENDSEC
  0
EOF
