  0
SECTION
  2
HEADER
  9
$ACADVER
  1
AC1015
  9
$ACADMAINTVER
 70
    14
  9
$DWGCODEPAGE
  3
ANSI_1250
  9
$INSBASE
 10
0.0
 20
0.0
 30
0.0
  9
$EXTMIN
 10
-2427.182036713401
 20
-782.7838097023587
 30
0.0
  9
$EXTMAX
 10
-1619.917689293652
 20
491.1393425021087
 30
0.0
  9
$LIMMIN
 10
0.0
 20
0.0
  9
$LIMMAX
 10
420.0
 20
297.0
  9
$ORTHOMODE
 70
     1
  9
$REGENMODE
 70
     1
  9
$FILLMODE
 70
     1
  9
$QTEXTMODE
 70
     0
  9
$MIRRTEXT
 70
     1
  9
$LTSCALE
 40
1.0
  9
$ATTMODE
 70
     1
  9
$TEXTSIZE
 40
2.5
  9
$TRACEWID
 40
1.0
  9
$TEXTSTYLE
  7
Standard
  9
$CLAYER
  8
0
  9
$CELTYPE
  6
ByLayer
  9
$CECOLOR
 62
   256
  9
$CELTSCALE
 40
1.0
  9
$DISPSILH
 70
     0
  9
$DIMSCALE
 40
1.0
  9
$DIMASZ
 40
2.5
  9
$DIMEXO
 40
0.625
  9
$DIMDLI
 40
3.75
  9
$DIMRND
 40
0.0
  9
$DIMDLE
 40
0.0
  9
$DIMEXE
 40
1.25
  9
$DIMTP
 40
0.0
  9
$DIMTM
 40
0.0
  9
$DIMTXT
 40
2.5
  9
$DIMCEN
 40
2.5
  9
$DIMTSZ
 40
0.0
  9
$DIMTOL
 70
     0
  9
$DIMLIM
 70
     0
  9
$DIMTIH
 70
     0
  9
$DIMTOH
 70
     0
  9
$DIMSE1
 70
     0
  9
$DIMSE2
 70
     0
  9
$DIMTAD
 70
     1
  9
$DIMZIN
 70
     8
  9
$DIMBLK
  1

  9
$DIMASO
 70
     1
  9
$DIMSHO
 70
     1
  9
$DIMPOST
  1

  9
$DIMAPOST
  1

  9
$DIMALT
 70
     0
  9
$DIMALTD
 70
     3
  9
$DIMALTF
 40
0.03937007874016
  9
$DIMLFAC
 40
1.0
  9
$DIMTOFL
 70
     1
  9
$DIMTVP
 40
0.0
  9
$DIMTIX
 70
     0
  9
$DIMSOXD
 70
     0
  9
$DIMSAH
 70
     0
  9
$DIMBLK1
  1

  9
$DIMBLK2
  1

  9
$DIMSTYLE
  2
ISO-25
  9
$DIMCLRD
 70
     0
  9
$DIMCLRE
 70
     0
  9
$DIMCLRT
 70
     0
  9
$DIMTFAC
 40
1.0
  9
$DIMGAP
 40
0.625
  9
$DIMJUST
 70
     0
  9
$DIMSD1
 70
     0
  9
$DIMSD2
 70
     0
  9
$DIMTOLJ
 70
     0
  9
$DIMTZIN
 70
     8
  9
$DIMALTZ
 70
     0
  9
$DIMALTTZ
 70
     0
  9
$DIMUPT
 70
     0
  9
$DIMDEC
 70
     2
  9
$DIMTDEC
 70
     2
  9
$DIMALTU
 70
     2
  9
$DIMALTTD
 70
     3
  9
$DIMTXSTY
  7
Standard
  9
$DIMAUNIT
 70
     0
  9
$DIMADEC
 70
     0
  9
$DIMALTRND
 40
0.0
  9
$DIMAZIN
 70
     0
  9
$DIMDSEP
 70
    44
  9
$DIMATFIT
 70
     3
  9
$DIMFRAC
 70
     0
  9
$DIMLDRBLK
  1

  9
$DIMLUNIT
 70
     2
  9
$DIMLWD
 70
    -2
  9
$DIMLWE
 70
    -2
  9
$DIMTMOVE
 70
     0
  9
$LUNITS
 70
     2
  9
$LUPREC
 70
     4
  9
$SKETCHINC
 40
1.0
  9
$FILLETRAD
 40
10.0
  9
$AUNITS
 70
     0
  9
$AUPREC
 70
     0
  9
$MENU
  1
.
  9
$ELEVATION
 40
0.0
  9
$PELEVATION
 40
0.0
  9
$THICKNESS
 40
0.0
  9
$LIMCHECK
 70
     0
  9
$CHAMFERA
 40
10.0
  9
$CHAMFERB
 40
10.0
  9
$CHAMFERC
 40
20.0
  9
$CHAMFERD
 40
0.0
  9
$SKPOLY
 70
     0
  9
$TDCREATE
 40
2452339.371895717
  9
$TDUCREATE
 40
2452339.330229051
  9
$TDUPDATE
 40
2455610.299924074
  9
$TDUUPDATE
 40
2455610.258257407
  9
$TDINDWG
 40
0.0220983796
  9
$TDUSRTIMER
 40
0.0220983796
  9
$USRTIMER
 70
     1
  9
$ANGBASE
 50
0.0
  9
$ANGDIR
 70
     0
  9
$PDMODE
 70
     0
  9
$PDSIZE
 40
0.0
  9
$PLINEWID
 40
0.0
  9
$SPLFRAME
 70
     0
  9
$SPLINETYPE
 70
     6
  9
$SPLINESEGS
 70
     8
  9
$HANDSEED
  5
2D36
  9
$SURFTAB1
 70
     6
  9
$SURFTAB2
 70
     6
  9
$SURFTYPE
 70
     6
  9
$SURFU
 70
     6
  9
$SURFV
 70
     6
  9
$UCSBASE
  2

  9
$UCSNAME
  2

  9
$UCSORG
 10
0.0
 20
0.0
 30
0.0
  9
$UCSXDIR
 10
1.0
 20
0.0
 30
0.0
  9
$UCSYDIR
 10
0.0
 20
1.0
 30
0.0
  9
$UCSORTHOREF
  2

  9
$UCSORTHOVIEW
 70
     0
  9
$UCSORGTOP
 10
0.0
 20
0.0
 30
0.0
  9
$UCSORGBOTTOM
 10
0.0
 20
0.0
 30
0.0
  9
$UCSORGLEFT
 10
0.0
 20
0.0
 30
0.0
  9
$UCSORGRIGHT
 10
0.0
 20
0.0
 30
0.0
  9
$UCSORGFRONT
 10
0.0
 20
0.0
 30
0.0
  9
$UCSORGBACK
 10
0.0
 20
0.0
 30
0.0
  9
$PUCSBASE
  2

  9
$PUCSNAME
  2

  9
$PUCSORG
 10
0.0
 20
0.0
 30
0.0
  9
$PUCSXDIR
 10
1.0
 20
0.0
 30
0.0
  9
$PUCSYDIR
 10
0.0
 20
1.0
 30
0.0
  9
$PUCSORTHOREF
  2

  9
$PUCSORTHOVIEW
 70
     0
  9
$PUCSORGTOP
 10
0.0
 20
0.0
 30
0.0
  9
$PUCSORGBOTTOM
 10
0.0
 20
0.0
 30
0.0
  9
$PUCSORGLEFT
 10
0.0
 20
0.0
 30
0.0
  9
$PUCSORGRIGHT
 10
0.0
 20
0.0
 30
0.0
  9
$PUCSORGFRONT
 10
0.0
 20
0.0
 30
0.0
  9
$PUCSORGBACK
 10
0.0
 20
0.0
 30
0.0
  9
$USERI1
 70
     0
  9
$USERI2
 70
     0
  9
$USERI3
 70
     0
  9
$USERI4
 70
     0
  9
$USERI5
 70
     0
  9
$USERR1
 40
0.0
  9
$USERR2
 40
0.0
  9
$USERR3
 40
0.0
  9
$USERR4
 40
0.0
  9
$USERR5
 40
0.0
  9
$WORLDVIEW
 70
     1
  9
$SHADEDGE
 70
     3
  9
$SHADEDIF
 70
    70
  9
$TILEMODE
 70
     1
  9
$MAXACTVP
 70
    48
  9
$PINSBASE
 10
0.0
 20
0.0
 30
0.0
  9
$PLIMCHECK
 70
     0
  9
$PEXTMIN
 10
1.000000000000000E+20
 20
1.000000000000000E+20
 30
1.000000000000000E+20
  9
$PEXTMAX
 10
-1.000000000000000E+20
 20
-1.000000000000000E+20
 30
-1.000000000000000E+20
  9
$PLIMMIN
 10
0.0
 20
0.0
  9
$PLIMMAX
 10
420.0
 20
297.0
  9
$UNITMODE
 70
     0
  9
$VISRETAIN
 70
     1
  9
$PLINEGEN
 70
     0
  9
$PSLTSCALE
 70
     1
  9
$TREEDEPTH
 70
  3020
  9
$CMLSTYLE
  2
Standard
  9
$CMLJUST
 70
     0
  9
$CMLSCALE
 40
20.0
  9
$PROXYGRAPHICS
 70
     1
  9
$MEASUREMENT
 70
     1
  9
$CELWEIGHT
370
    -1
  9
$ENDCAPS
280
     0
  9
$JOINSTYLE
280
     0
  9
$LWDISPLAY
290
     0
  9
$INSUNITS
 70
     4
  9
$HYPERLINKBASE
  1

  9
$STYLESHEET
  1

  9
$XEDIT
290
     1
  9
$CEPSNTYPE
380
     0
  9
$PSTYLEMODE
290
     1
  9
$FINGERPRINTGUID
  2
{9FA890EF-883C-4FD4-884F-6B075534EB0B}
  9
$VERSIONGUID
  2
{2F7FF279-EA8A-4BE3-8A12-9300CC7F3E2F}
  9
$EXTNAMES
290
     1
  9
$PSVPSCALE
 40
0.0
  9
$OLESTARTUP
290
     0
  0
ENDSEC
  0
SECTION
  2
CLASSES
  0
CLASS
  1
ACDBDICTIONARYWDFLT
  2
AcDbDictionaryWithDefault
  3
AutoCAD 2000
 90
        0
280
     0
281
     0
  0
CLASS
  1
ACDBPLACEHOLDER
  2
AcDbPlaceHolder
  3
AutoCAD 2000
 90
        0
280
     0
281
     0
  0
CLASS
  1
LAYOUT
  2
AcDbLayout
  3
AutoCAD 2000
 90
        0
280
     0
281
     0
  0
CLASS
  1
LONG_TRANSACTION
  2
AcDbLongTransaction
  3
AutoCAD 2000
 90
    32768
280
     0
281
     0
  0
CLASS
  1
LWPOLYLINE
  2
AcDbPolyline
  3
AutoCAD 2000
 90
    32768
280
     0
281
     1
  0
CLASS
  1
HATCH
  2
AcDbHatch
  3
AutoCAD 2000
 90
    32768
280
     0
281
     1
  0
CLASS
  1
XRECORD
  2
AcDbXrecord
  3
AutoCAD 2000
 90
    32768
280
     0
281
     0
  0
CLASS
  1
DICTIONARYVAR
  2
AcDbDictionaryVar
  3
AutoCAD 2000
 90
        0
280
     0
281
     0
  0
ENDSEC
  0
SECTION
  2
TABLES
  0
TABLE
  2
VPORT
  5
8
330
0
100
AcDbSymbolTable
 70
     2
  0
VPORT
  5
2D35
330
8
100
AcDbSymbolTableRecord
100
AcDbViewportTableRecord
  2
*Active
 70
     0
 10
0.0
 20
0.0
 11
1.0
 21
1.0
 12
-2041.010057884811
 22
-159.1421461185643
 13
0.0
 23
0.0
 14
10.0
 24
10.0
 15
10.0
 25
10.0
 16
0.0
 26
0.0
 36
1.0
 17
0.0
 27
0.0
 37
0.0
 40
1422.915131006988
 41
2.031862745098039
 42
50.0
 43
0.0
 44
0.0
 50
0.0
 51
0.0
 71
     0
 72
   100
 73
     1
 74
     3
 75
     0
 76
     0
 77
     0
 78
     0
281
     0
 65
     1
110
0.0
120
0.0
130
0.0
111
1.0
121
0.0
131
0.0
112
0.0
122
1.0
132
0.0
 79
     0
146
0.0
  0
ENDTAB
  0
TABLE
  2
LTYPE
  5
5
330
0
100
AcDbSymbolTable
 70
     4
  0
LTYPE
  5
14
330
5
100
AcDbSymbolTableRecord
100
AcDbLinetypeTableRecord
  2
ByBlock
 70
     0
  3

 72
    65
 73
     0
 40
0.0
  0
LTYPE
  5
15
330
5
100
AcDbSymbolTableRecord
100
AcDbLinetypeTableRecord
  2
ByLayer
 70
     0
  3

 72
    65
 73
     0
 40
0.0
  0
LTYPE
  5
16
330
5
100
AcDbSymbolTableRecord
100
AcDbLinetypeTableRecord
  2
Continuous
 70
     0
  3
Solid line
 72
    65
 73
     0
 40
0.0
  0
LTYPE
  5
33
330
5
100
AcDbSymbolTableRecord
100
AcDbLinetypeTableRecord
  2
IZOLACE
 70
     0
  3
Izolace SSSSSSSSSSSSSSSSSSSSSSSSSSSSSSSSSSSSSSS
 72
    65
 73
     4
 40
10.16253999999999
 49
0.00254
 74
     0
 49
-2.54
 74
     4
 75
   134
340
3D
 46
2.54
 50
0.0
 44
-2.54
 45
0.0
 49
-5.08
 74
     4
 75
   134
340
3D
 46
2.54
 50
180.0
 44
2.54
 45
0.0
 49
-2.54
 74
     0
  0
LTYPE
  5
34
330
5
100
AcDbSymbolTableRecord
100
AcDbLinetypeTableRecord
  2
DASHED
 70
     0
  3
Dashed __ __ __ __ __ __ __ __ __ __ __ __ __ _
 72
    65
 73
     2
 40
19.04999999999999
 49
12.7
 74
     0
 49
-6.349999999999999
 74
     0
  0
LTYPE
  5
35
330
5
100
AcDbSymbolTableRecord
100
AcDbLinetypeTableRecord
  2
DASHDOT2
 70
     0
  3
Dash dot (.5x) _._._._._._._._._._._._._._._.
 72
    65
 73
     4
 40
12.7
 49
6.349999999999999
 74
     0
 49
-3.174999999999999
 74
     0
 49
0.0
 74
     0
 49
-3.174999999999999
 74
     0
  0
ENDTAB
  0
TABLE
  2
LAYER
  5
2
330
0
100
AcDbSymbolTable
 70
     7
  0
LAYER
  5
10
330
2
100
AcDbSymbolTableRecord
100
AcDbLayerTableRecord
  2
0
 70
     0
 62
     7
  6
Continuous
370
    -3
390
F
  0
LAYER
  5
36
330
2
100
AcDbSymbolTableRecord
100
AcDbLayerTableRecord
  2
POPIS
 70
     0
 62
    30
  6
Continuous
370
    -3
390
F
  0
LAYER
  5
37
330
2
100
AcDbSymbolTableRecord
100
AcDbLayerTableRecord
  2
SPOJOVACÍ
 70
     0
 62
   180
  6
Continuous
370
    -3
390
F
  0
LAYER
  5
38
330
2
100
AcDbSymbolTableRecord
100
AcDbLayerTableRecord
  2
CETRIS
 70
     0
 62
     1
  6
Continuous
370
    -3
390
F
  0
LAYER
  5
39
330
2
100
AcDbSymbolTableRecord
100
AcDbLayerTableRecord
  2
NOSNÉ KONSTRUKCE
 70
     0
 62
    33
  6
Continuous
370
    -3
390
F
  0
LAYER
  5
3A
330
2
100
AcDbSymbolTableRecord
100
AcDbLayerTableRecord
  2
PROFILY
 70
     0
 62
    73
  6
Continuous
370
    -3
390
F
  0
LAYER
  5
3B
330
2
100
AcDbSymbolTableRecord
100
AcDbLayerTableRecord
  2
STAVBA OBRYS
 70
     0
 62
     6
  6
Continuous
370
    -3
390
F
  0
ENDTAB
  0
TABLE
  2
STYLE
  5
3
330
0
100
AcDbSymbolTable
 70
     3
  0
STYLE
  5
11
330
3
100
AcDbSymbolTableRecord
100
AcDbTextStyleTableRecord
  2
Standard
 70
     0
 40
0.0
 41
1.0
 50
0.0
 71
     0
 42
2.5
  3
txt
  4

  0
STYLE
  5
3C
330
3
100
AcDbSymbolTableRecord
100
AcDbTextStyleTableRecord
  2
SIMPLEX7
 70
     0
 40
0.0
 41
0.85
 50
0.0
 71
     0
 42
102.0
  3
ARIAL.TTF
  4

1001
ACAD
1000
Arial CE
1071
    60962
  0
STYLE
  5
3D
330
3
100
AcDbSymbolTableRecord
100
AcDbTextStyleTableRecord
  2

 70
     1
 40
0.0
 41
1.0
 50
0.0
 71
     0
 42
2.5
  3
ltypeshp.shx
  4

  0
ENDTAB
  0
TABLE
  2
VIEW
  5
6
330
0
100
AcDbSymbolTable
 70
     0
  0
ENDTAB
  0
TABLE
  2
UCS
  5
7
330
0
100
AcDbSymbolTable
 70
     0
  0
ENDTAB
  0
TABLE
  2
APPID
  5
9
330
0
100
AcDbSymbolTable
 70
     1
  0
APPID
  5
12
330
9
100
AcDbSymbolTableRecord
100
AcDbRegAppTableRecord
  2
ACAD
 70
     0
  0
ENDTAB
  0
TABLE
  2
DIMSTYLE
  5
A
330
0
100
AcDbSymbolTable
 70
     1
100
AcDbDimStyleTable
 71
     0
  0
DIMSTYLE
105
27
330
A
100
AcDbSymbolTableRecord
100
AcDbDimStyleTableRecord
  2
ISO-25
 70
     0
 41
2.5
 42
0.625
 43
3.75
 44
1.25
 73
     0
 74
     0
 77
     1
 78
     8
140
2.5
141
2.5
143
0.03937007874016
147
0.625
171
     3
172
     1
271
     2
272
     2
274
     3
278
    44
283
     0
284
     8
340
11
  0
ENDTAB
  0
TABLE
  2
BLOCK_RECORD
  5
1
330
0
100
AcDbSymbolTable
 70
     3
  0
BLOCK_RECORD
  5
1F
102
{ACAD_XDICTIONARY
360
2CC3
102
}
330
1
100
AcDbSymbolTableRecord
100
AcDbBlockTableRecord
  2
*Model_Space
340
22
  0
BLOCK_RECORD
  5
1B
102
{ACAD_XDICTIONARY
360
2CC5
102
}
330
1
100
AcDbSymbolTableRecord
100
AcDbBlockTableRecord
  2
*Paper_Space
340
1E
  0
BLOCK_RECORD
  5
23
102
{ACAD_XDICTIONARY
360
2CC7
102
}
330
1
100
AcDbSymbolTableRecord
100
AcDbBlockTableRecord
  2
*Paper_Space0
340
26
  0
BLOCK_RECORD
  5
2B
330
1
100
AcDbSymbolTableRecord
100
AcDbBlockTableRecord
  2
E_PUNKT
340
0
102
{BLKREFS
331
2B7E
331
2B82
331
2BA6
331
2C88
331
2C8A
331
2C8C
331
2C8D
331
2D20
102
}
  0
BLOCK_RECORD
  5
2D06
330
1
100
AcDbSymbolTableRecord
100
AcDbBlockTableRecord
  2
_ArchTick
340
0
102
{BLKREFS
331
2D28
331
2D29
102
}
  0
ENDTAB
  0
ENDSEC
  0
SECTION
  2
BLOCKS
  0
BLOCK
  5
20
330
1F
100
AcDbEntity
  8
0
100
AcDbBlockBegin
  2
*Model_Space
 70
     0
 10
0.0
 20
0.0
 30
0.0
  3
*Model_Space
  1

  0
ENDBLK
  5
21
330
1F
100
AcDbEntity
  8
0
100
AcDbBlockEnd
  0
BLOCK
  5
1C
330
1B
100
AcDbEntity
 67
     1
  8
0
100
AcDbBlockBegin
  2
*Paper_Space
 70
     0
 10
0.0
 20
0.0
 30
0.0
  3
*Paper_Space
  1

  0
ENDBLK
  5
1D
330
1B
100
AcDbEntity
 67
     1
  8
0
100
AcDbBlockEnd
  0
BLOCK
  5
24
330
23
100
AcDbEntity
  8
0
100
AcDbBlockBegin
  2
*Paper_Space0
 70
     0
 10
0.0
 20
0.0
 30
0.0
  3
*Paper_Space0
  1

  0
ENDBLK
  5
25
330
23
100
AcDbEntity
  8
0
100
AcDbBlockEnd
  0
BLOCK
  5
2D
330
2B
100
AcDbEntity
  8
0
100
AcDbBlockBegin
  2
E_PUNKT
 70
     0
 10
0.0
 20
0.0
 30
0.0
  3
E_PUNKT
  1

  0
LWPOLYLINE
  5
2C
330
2B
100
AcDbEntity
  8
POPIS
100
AcDbPolyline
 90
        2
 70
     1
 43
2.5
 10
1.27761037562675
 20
0.0290683308725193
 42
-1.0
 10
-1.222389624373249
 20
0.0290683308725193
 42
-1.0
  0
ENDBLK
  5
2E
330
2B
100
AcDbEntity
  8
0
100
AcDbBlockEnd
  0
BLOCK
  5
2D08
330
2D06
100
AcDbEntity
  8
0
100
AcDbBlockBegin
  2
_ArchTick
 70
     0
 10
0.0
 20
0.0
 30
0.0
  3
_ArchTick
  1

  0
LWPOLYLINE
  5
2D07
330
2D06
100
AcDbEntity
  8
0
  6
ByBlock
 62
     0
100
AcDbPolyline
 90
        2
 70
     0
 43
0.15
 10
-0.5
 20
-0.5
 10
0.5
 20
0.5
  0
ENDBLK
  5
2D09
330
2D06
100
AcDbEntity
  8
0
100
AcDbBlockEnd
  0
ENDSEC
  0
SECTION
  2
ENTITIES
  0
HATCH
  5
2B20
330
1F
100
AcDbEntity
  8
STAVBA OBRYS
100
AcDbHatch
 10
0.0
 20
0.0
 30
0.0
210
0.0
220
0.0
230
1.0
  2
SOLID
 70
     1
 71
     0
 91
        1
 92
        7
 72
     0
 73
     1
 93
        4
 10
-1926.613945400694
 20
126.6424741649138
 10
-1928.628105523949
 20
126.6424741649134
 10
-1928.628105523951
 20
110.5824280072529
 10
-1926.613945400696
 20
110.5824280072529
 97
        0
 75
     0
 76
     1
 47
0.1622227970185798
 98
        1
 10
-1927.272270636985
 20
116.4224447918577
  0
LINE
  5
2B21
330
1F
100
AcDbEntity
  8
POPIS
100
AcDbLine
 10
-2165.478281405182
 20
70.82129510017603
 30
0.0
 11
-2168.897755192919
 21
76.20259174765442
 31
0.0
  0
LINE
  5
2B22
330
1F
100
AcDbEntity
  8
POPIS
100
AcDbLine
 10
-2172.317228980663
 20
70.82129510017603
 30
0.0
 11
-2168.897755192926
 21
76.20259174765442
 31
0.0
  0
LINE
  5
2B23
330
1F
100
AcDbEntity
  8
POPIS
100
AcDbLine
 10
-2168.897755192923
 20
91.55779108215666
 30
0.0
 11
-2163.325186015542
 21
83.75693899925954
 31
0.0
  0
LINE
  5
2B24
330
1F
100
AcDbEntity
  8
POPIS
100
AcDbLine
 10
-2163.325186015542
 20
83.75693899925954
 30
0.0
 11
-2167.00402735314
 21
83.75693899925954
 31
0.0
  0
LINE
  5
2B25
330
1F
100
AcDbEntity
  8
POPIS
100
AcDbLine
 10
-2167.00402735314
 20
83.75693899925954
 30
0.0
 11
-2165.478281405182
 21
70.82129510017603
 31
0.0
  0
LINE
  5
2B26
330
1F
100
AcDbEntity
  8
POPIS
100
AcDbLine
 10
-2170.791483032705
 20
83.75693899925954
 30
0.0
 11
-2172.317228980663
 21
70.82129510017603
 31
0.0
  0
LINE
  5
2B27
330
1F
100
AcDbEntity
  8
POPIS
100
AcDbLine
 10
-2174.470324370303
 20
83.75693899925954
 30
0.0
 11
-2170.791483032705
 21
83.75693899925954
 31
0.0
  0
LINE
  5
2B28
330
1F
100
AcDbEntity
  8
POPIS
100
AcDbLine
 10
-2168.897755192923
 20
91.55779108215666
 30
0.0
 11
-2174.470324370303
 21
83.75693899925954
 31
0.0
  0
HATCH
  5
2B29
330
1F
100
AcDbEntity
  8
POPIS
100
AcDbHatch
 10
0.0
 20
0.0
 30
0.0
210
0.0
220
0.0
230
1.0
  2
SOLID
 70
     1
 71
     0
 91
        1
 92
        7
 72
     0
 73
     1
 93
        8
 10
-2167.004027353142
 20
83.75693899925954
 10
-2163.325186015542
 20
83.75693899925954
 10
-2168.897755192924
 20
91.55779108215574
 10
-2174.470324370305
 20
83.75693899925954
 10
-2170.791483032705
 20
83.75693899925954
 10
-2172.317228980661
 20
70.82129510018285
 10
-2168.89775519292
 20
76.20259174766125
 10
-2165.47828140518
 20
70.82129510017558
 97
        0
 75
     0
 76
     1
 47
0.3835833255279223
 98
        1
 10
-2168.489572445668
 20
80.84875581875985
  0
LINE
  5
2B2A
330
1F
100
AcDbEntity
  8
POPIS
100
AcDbLine
 10
-2168.897755192923
 20
230.8095587360048
 30
0.0
 11
-2163.325186015542
 21
223.0087066531077
 31
0.0
  0
LINE
  5
2B2B
330
1F
100
AcDbEntity
  8
POPIS
100
AcDbLine
 10
-2163.325186015542
 20
223.0087066531077
 30
0.0
 11
-2167.00402735314
 21
223.0087066531077
 31
0.0
  0
LINE
  5
2B2C
330
1F
100
AcDbEntity
  8
POPIS
100
AcDbLine
 10
-2167.00402735314
 20
223.0087066531077
 30
0.0
 11
-2165.478281405182
 21
210.0730627540242
 31
0.0
  0
LINE
  5
2B2D
330
1F
100
AcDbEntity
  8
POPIS
100
AcDbLine
 10
-2170.791483032705
 20
223.0087066531077
 30
0.0
 11
-2172.317228980663
 21
210.0730627540242
 31
0.0
  0
LINE
  5
2B2E
330
1F
100
AcDbEntity
  8
POPIS
100
AcDbLine
 10
-2174.470324370303
 20
223.0087066531077
 30
0.0
 11
-2170.791483032705
 21
223.0087066531077
 31
0.0
  0
LINE
  5
2B2F
330
1F
100
AcDbEntity
  8
POPIS
100
AcDbLine
 10
-2168.897755192923
 20
230.8095587360048
 30
0.0
 11
-2174.470324370303
 21
223.0087066531077
 31
0.0
  0
HATCH
  5
2B30
330
1F
100
AcDbEntity
  8
POPIS
100
AcDbHatch
 10
0.0
 20
0.0
 30
0.0
210
0.0
220
0.0
230
1.0
  2
SOLID
 70
     1
 71
     0
 91
        1
 92
        7
 72
     0
 73
     1
 93
        8
 10
-2167.004027353138
 20
223.0087066531077
 10
-2163.32518601554
 20
223.0087066531077
 10
-2168.897755192924
 20
230.8095587360039
 10
-2174.470324370303
 20
223.0087066531077
 10
-2170.791483032705
 20
223.0087066531077
 10
-2172.317228980665
 20
210.0730627540197
 10
-2168.897755192923
 20
215.454359401509
 10
-2165.478281405182
 20
210.0730627540224
 97
        0
 75
     0
 76
     1
 47
0.3835833255279223
 98
        1
 10
-2168.489572445668
 20
220.100523472608
  0
LINE
  5
2B31
330
1F
100
AcDbEntity
  8
POPIS
100
AcDbLine
 10
-2165.478281405182
 20
210.0730627540242
 30
0.0
 11
-2168.897755192919
 21
215.4543594015026
 31
0.0
  0
LINE
  5
2B32
330
1F
100
AcDbEntity
  8
POPIS
100
AcDbLine
 10
-2172.317228980663
 20
210.0730627540242
 30
0.0
 11
-2168.897755192926
 21
215.4543594015026
 31
0.0
  0
LINE
  5
2B33
330
1F
100
AcDbEntity
  8
POPIS
100
AcDbLine
 10
-2165.923574668678
 20
-220.4766878773962
 30
0.0
 11
-2169.343048456414
 21
-215.0953912299178
 31
0.0
  0
LINE
  5
2B34
330
1F
100
AcDbEntity
  8
POPIS
100
AcDbLine
 10
-2172.762522244159
 20
-220.4766878773962
 30
0.0
 11
-2169.343048456422
 21
-215.0953912299178
 31
0.0
  0
LINE
  5
2B35
330
1F
100
AcDbEntity
  8
POPIS
100
AcDbLine
 10
-2169.343048456418
 20
-199.7401918954155
 30
0.0
 11
-2163.770479279038
 21
-207.5410439783127
 31
0.0
  0
LINE
  5
2B36
330
1F
100
AcDbEntity
  8
POPIS
100
AcDbLine
 10
-2163.770479279038
 20
-207.5410439783127
 30
0.0
 11
-2167.449320616636
 21
-207.5410439783127
 31
0.0
  0
LINE
  5
2B37
330
1F
100
AcDbEntity
  8
POPIS
100
AcDbLine
 10
-2167.449320616636
 20
-207.5410439783127
 30
0.0
 11
-2165.923574668678
 21
-220.4766878773962
 31
0.0
  0
LINE
  5
2B38
330
1F
100
AcDbEntity
  8
POPIS
100
AcDbLine
 10
-2171.236776296201
 20
-207.5410439783127
 30
0.0
 11
-2172.762522244159
 21
-220.4766878773962
 31
0.0
  0
LINE
  5
2B39
330
1F
100
AcDbEntity
  8
POPIS
100
AcDbLine
 10
-2174.915617633799
 20
-207.5410439783127
 30
0.0
 11
-2171.236776296201
 21
-207.5410439783127
 31
0.0
  0
LINE
  5
2B3A
330
1F
100
AcDbEntity
  8
POPIS
100
AcDbLine
 10
-2169.343048456418
 20
-199.7401918954155
 30
0.0
 11
-2174.915617633799
 21
-207.5410439783127
 31
0.0
  0
HATCH
  5
2B3B
330
1F
100
AcDbEntity
  8
POPIS
100
AcDbHatch
 10
0.0
 20
0.0
 30
0.0
210
0.0
220
0.0
230
1.0
  2
SOLID
 70
     1
 71
     0
 91
        1
 92
        7
 72
     0
 73
     1
 93
        8
 10
-2167.449320616638
 20
-207.5410439783127
 10
-2163.770479279038
 20
-207.5410439783127
 10
-2169.34304845642
 20
-199.7401918954165
 10
-2174.915617633801
 20
-207.5410439783127
 10
-2171.236776296201
 20
-207.5410439783127
 10
-2172.762522244157
 20
-220.4766878773893
 10
-2169.343048456417
 20
-215.0953912299109
 10
-2165.923574668676
 20
-220.4766878773966
 97
        0
 75
     0
 76
     1
 47
0.3835833255279223
 98
        1
 10
-2168.934865709164
 20
-210.4492271588124
  0
LINE
  5
2B3C
330
1F
100
AcDbEntity
  8
POPIS
100
AcDbLine
 10
-2169.343048456418
 20
-65.24469472212786
 30
0.0
 11
-2163.770479279038
 21
-73.04554680502497
 31
0.0
  0
LINE
  5
2B3D
330
1F
100
AcDbEntity
  8
POPIS
100
AcDbLine
 10
-2163.770479279038
 20
-73.04554680502497
 30
0.0
 11
-2167.449320616636
 21
-73.04554680502497
 31
0.0
  0
LINE
  5
2B3E
330
1F
100
AcDbEntity
  8
POPIS
100
AcDbLine
 10
-2167.449320616636
 20
-73.04554680502497
 30
0.0
 11
-2165.923574668678
 21
-85.98119070410849
 31
0.0
  0
LINE
  5
2B3F
330
1F
100
AcDbEntity
  8
POPIS
100
AcDbLine
 10
-2171.236776296201
 20
-73.04554680502497
 30
0.0
 11
-2172.762522244159
 21
-85.98119070410849
 31
0.0
  0
LINE
  5
2B40
330
1F
100
AcDbEntity
  8
POPIS
100
AcDbLine
 10
-2174.915617633799
 20
-73.04554680502497
 30
0.0
 11
-2171.236776296201
 21
-73.04554680502497
 31
0.0
  0
LINE
  5
2B41
330
1F
100
AcDbEntity
  8
POPIS
100
AcDbLine
 10
-2169.343048456418
 20
-65.24469472212786
 30
0.0
 11
-2174.915617633799
 21
-73.04554680502497
 31
0.0
  0
HATCH
  5
2B42
330
1F
100
AcDbEntity
  8
POPIS
100
AcDbHatch
 10
0.0
 20
0.0
 30
0.0
210
0.0
220
0.0
230
1.0
  2
SOLID
 70
     1
 71
     0
 91
        1
 92
        7
 72
     0
 73
     1
 93
        8
 10
-2167.449320616638
 20
-73.04554680502497
 10
-2163.770479279038
 20
-73.04554680502497
 10
-2169.34304845642
 20
-65.24469472212877
 10
-2174.915617633801
 20
-73.04554680502497
 10
-2171.236776296201
 20
-73.04554680502497
 10
-2172.762522244157
 20
-85.98119070410167
 10
-2169.343048456417
 20
-80.59989405662326
 10
-2165.923574668676
 20
-85.98119070410893
 97
        0
 75
     0
 76
     1
 47
0.3835833255279223
 98
        1
 10
-2168.934865709164
 20
-75.95372998552466
  0
LINE
  5
2B43
330
1F
100
AcDbEntity
  8
POPIS
100
AcDbLine
 10
-2165.923574668678
 20
-85.98119070410849
 30
0.0
 11
-2169.343048456414
 21
-80.59989405663008
 31
0.0
  0
LINE
  5
2B44
330
1F
100
AcDbEntity
  8
POPIS
100
AcDbLine
 10
-2172.762522244159
 20
-85.98119070410849
 30
0.0
 11
-2169.343048456422
 21
-80.59989405663008
 31
0.0
  0
LINE
  5
2B45
330
1F
100
AcDbEntity
  8
PROFILY
100
AcDbLine
 10
-2020.621735246174
 20
285.5923422503665
 30
0.0
 11
-2020.621735246174
 21
240.8521779419507
 31
0.0
  0
LINE
  5
2B46
330
1F
100
AcDbEntity
  8
PROFILY
100
AcDbLine
 10
-1966.392662249217
 20
285.5923422503665
 30
0.0
 11
-1966.392662249217
 21
240.8521779419507
 31
0.0
  0
LINE
  5
2B47
330
1F
100
AcDbEntity
  8
PROFILY
100
AcDbLine
 10
-2370.837863462307
 20
-686.0756672014449
 30
0.0
 11
-2368.406678501425
 21
-686.2510123923657
 31
0.0
  0
LINE
  5
2B48
330
1F
100
AcDbEntity
  8
PROFILY
100
AcDbLine
 10
-2367.657066094771
 20
-675.8575342480249
 30
0.0
 11
-2368.406678501425
 21
-686.2510123923657
 31
0.0
  0
LINE
  5
2B49
330
1F
100
AcDbEntity
  8
PROFILY
100
AcDbLine
 10
-2369.943711618531
 20
-673.6781300695561
 30
0.0
 11
-2370.837863462307
 21
-686.0756672014449
 31
0.0
  0
LINE
  5
2B4A
330
1F
100
AcDbEntity
  8
PROFILY
100
AcDbLine
 10
-2373.69303904899
 20
-697.2174746952678
 30
0.0
 11
-2364.520695602222
 21
-687.9442894835437
 31
0.0
  0
LINE
  5
2B4B
330
1F
100
AcDbEntity
  8
PROFILY
100
AcDbLine
 10
-2364.520695602222
 20
-687.9442894835437
 30
0.0
 11
-2366.253665261922
 21
-686.2301650981653
 31
0.0
  0
LINE
  5
2B4C
330
1F
100
AcDbEntity
  8
PROFILY
100
AcDbLine
 10
-2372.645695602222
 20
-692.6924701316139
 30
0.0
 11
-2366.253665261922
 21
-686.2301650981653
 31
0.0
  0
ARC
  5
2B4D
330
1F
100
AcDbEntity
  8
PROFILY
100
AcDbCircle
 10
-2374.270695602222
 20
-696.6460999001374
 30
0.0
 40
0.8125
100
AcDbArc
 50
180.0
 51
315.3132330916631
  0
LINE
  5
2B4E
330
1F
100
AcDbEntity
  8
PROFILY
100
AcDbLine
 10
-2375.083195602222
 20
-668.6973444615578
 30
0.0
 11
-2375.083195602222
 21
-696.6460999001374
 31
0.0
  0
LINE
  5
2B4F
330
1F
100
AcDbEntity
  8
PROFILY
100
AcDbLine
 10
-2372.645695602222
 20
-670.8790365518061
 30
0.0
 11
-2372.645695602222
 21
-692.6924701316139
 31
0.0
  0
LINE
  5
2B50
330
1F
100
AcDbEntity
  8
PROFILY
100
AcDbLine
 10
-2058.628515992622
 20
-675.9139886155489
 30
0.0
 11
-2058.628515992622
 21
-697.6447787659354
 31
0.0
  0
LINE
  5
2B51
330
1F
100
AcDbEntity
  8
PROFILY
100
AcDbLine
 10
-2056.191015992621
 20
-673.5337748580086
 30
0.0
 11
-2056.191015992621
 21
-701.5984085344589
 31
0.0
  0
ARC
  5
2B52
330
1F
100
AcDbEntity
  8
PROFILY
100
AcDbCircle
 10
-2057.003515992622
 20
-701.5984085344589
 30
0.0
 40
0.8125
100
AcDbArc
 50
224.6867669083368
 51
0.0
  0
LINE
  5
2B53
330
1F
100
AcDbEntity
  8
PROFILY
100
AcDbLine
 10
-2058.628515992622
 20
-697.6447787659354
 30
0.0
 11
-2065.020546332921
 21
-691.1824737324868
 31
0.0
  0
LINE
  5
2B54
330
1F
100
AcDbEntity
  8
PROFILY
100
AcDbLine
 10
-2066.753515992622
 20
-692.8965981178653
 30
0.0
 11
-2065.020546332921
 21
-691.1824737324868
 31
0.0
  0
LINE
  5
2B55
330
1F
100
AcDbEntity
  8
PROFILY
100
AcDbLine
 10
-2057.581172545854
 20
-702.1697833295893
 30
0.0
 11
-2066.753515992622
 21
-692.8965981178653
 31
0.0
  0
LINE
  5
2B56
330
1F
100
AcDbEntity
  8
PROFILY
100
AcDbLine
 10
-2060.436348132537
 20
-691.0279758357664
 30
0.0
 11
-2062.867533093419
 21
-691.2033210266872
 31
0.0
  0
LINE
  5
2B57
330
1F
100
AcDbEntity
  8
PROFILY
100
AcDbLine
 10
-2061.350122593942
 20
-678.3583684370682
 30
0.0
 11
-2060.436348132537
 21
-691.0279758357664
 31
0.0
  0
LINE
  5
2B58
330
1F
100
AcDbEntity
  8
PROFILY
100
AcDbLine
 10
-2063.622729397105
 20
-680.7324213892561
 30
0.0
 11
-2062.867533093419
 21
-691.2033210266872
 31
0.0
  0
HATCH
  5
2B59
330
1F
100
AcDbEntity
  8
PROFILY
100
AcDbHatch
 10
0.0
 20
0.0
 30
0.0
210
0.0
220
0.0
230
1.0
  2
SOLID
 70
     1
 71
     0
 91
        2
 92
        7
 72
     1
 73
     1
 93
       18
 10
-2058.628515992622
 20
-675.9139886155489
 42
0.0
 10
-2058.628515992622
 20
-697.6447787659349
 42
0.0
 10
-2065.020546332921
 20
-691.1824737324868
 42
0.0
 10
-2066.753515992622
 20
-692.8965981178658
 42
0.0
 10
-2057.581172545856
 20
-702.1697833295875
 42
0.6701573805495633
 10
-2056.191015992621
 20
-701.5984085344617
 42
0.0
 10
-2056.191015992621
 20
-673.5337748580091
 42
0.0
 10
-2372.39342271839
 20
-668.7381384984355
 42
-0.1548638422138271
 10
-2372.164697143255
 20
-669.4589009760343
 42
-1.0
 10
-2374.664697143255
 20
-669.4589009760343
 42
-0.1626375651849663
 10
-2374.413644208517
 20
-668.7074991123131
 42
0.0
 10
-2375.083195602222
 20
-668.6973444615578
 42
0.0
 10
-2375.083195602222
 20
-696.6460999001374
 42
0.6701573805506788
 10
-2373.693039048987
 20
-697.217474695266
 42
0.0
 10
-2364.520695602222
 20
-687.9442894835437
 42
0.0
 10
-2366.253665261922
 20
-686.2301650981653
 42
0.0
 10
-2372.645695602222
 20
-692.6924701316139
 42
0.0
 10
-2372.645695602222
 20
-670.8790365518066
 42
0.0
 97
        0
 92
       23
 72
     0
 73
     1
 93
        8
 10
-2063.622729397105
 20
-680.7324213892561
 10
-2062.867533093419
 20
-691.2033210266872
 10
-2060.436348132537
 20
-691.0279758357664
 10
-2061.350122593942
 20
-678.3583684370682
 10
-2369.943711618531
 20
-673.6781300695565
 10
-2370.837863462307
 20
-686.0756672014449
 10
-2368.406678501425
 20
-686.2510123923657
 10
-2367.657066094771
 20
-675.8575342480244
 97
        0
 75
     0
 76
     1
 47
0.4153941033642652
 98
        2
 10
-2210.074758880679
 20
-672.4790655561364
 10
-2210.906055758975
 20
-677.463800589986
  0
LINE
  5
2B5A
330
1F
100
AcDbEntity
  8
PROFILY
100
AcDbLine
 10
-2061.350122593942
 20
-678.3583684370682
 30
0.0
 11
-2369.943711618531
 21
-673.6781300695561
 31
0.0
  0
LINE
  5
2B5B
330
1F
100
AcDbEntity
  8
PROFILY
100
AcDbLine
 10
-2063.622729397105
 20
-680.7324213892561
 30
0.0
 11
-2367.657066094771
 21
-675.8575342480249
 31
0.0
  0
LINE
  5
2B5C
330
1F
100
AcDbEntity
  8
PROFILY
100
AcDbLine
 10
-2058.628515992622
 20
-675.9139886155489
 30
0.0
 11
-2372.645695602222
 21
-670.8790365518061
 31
0.0
  0
LINE
  5
2B5D
330
1F
100
AcDbEntity
  8
PROFILY
100
AcDbLine
 10
-2056.191015992621
 20
-673.5337748580086
 30
0.0
 11
-2375.083195602222
 21
-668.6973444615578
 31
0.0
  0
HATCH
  5
2B5E
330
1F
100
AcDbEntity
  8
STAVBA OBRYS
100
AcDbHatch
 10
0.0
 20
0.0
 30
0.0
210
0.0
220
0.0
230
1.0
  2
AR-SAND
 70
     0
 71
     0
 91
        1
 92
        7
 72
     0
 73
     1
 93
        6
 10
-1713.776764407755
 20
-135.9997384081716
 10
-1821.619088180115
 20
-135.9997384081711
 10
-1821.79342139679
 20
-233.8319499796521
 10
-1811.793437273681
 20
-233.8497695645382
 10
-1811.636891916375
 20
-145.9997384081711
 10
-1713.776764407756
 20
-145.9997384081721
 97
        0
 75
     0
 76
     1
 52
0.0
 41
0.1
 77
     0
 78
     4
 53
37.5
 43
-14911.23728468396
 44
3367.305672881605
 45
-0.1600031295984046
 46
4.894132373293423
 79
     6
 49
0.0
 49
-3.8608
 49
0.0
 49
-4.318
 49
0.0
 49
-4.1275
 53
7.499999999999999
 43
-14911.23728468396
 44
3367.305672881605
 45
4.495232831380026
 46
7.168251005683543
 79
     6
 49
0.0
 49
-2.0828
 49
0.0
 49
-3.4798
 49
0.0
 49
-1.3335
 53
327.4999999999999
 43
-14914.36148468396
 44
3367.305672881605
 45
7.909923702414579
 46
0.0143718467854569
 79
     6
 49
0.0
 49
-1.27
 49
0.0
 49
-4.572
 49
0.0
 49
-5.969
 53
317.5
 43
-14914.36148468396
 44
3367.305672881605
 45
7.635564524722972
 46
2.229293232572162
 79
     6
 49
0.0
 49
-0.635
 49
0.0
 49
-2.997199999999999
 49
0.0
 49
-3.429
 47
0.5527599474937909
 98
        1
 10
-1814.511712954411
 20
-140.1500686395547
  0
LINE
  5
2B5F
330
1F
100
AcDbEntity
  8
STAVBA OBRYS
100
AcDbLine
 10
-1811.636891916373
 20
-145.9997384081721
 30
0.0
 11
-1713.776764407756
 21
-145.9997384081716
 31
0.0
  0
LINE
  5
2B60
330
1F
100
AcDbEntity
  8
STAVBA OBRYS
100
AcDbLine
 10
-1811.793437273681
 20
-233.8497695645387
 30
0.0
 11
-1811.636891916373
 21
-145.9997384081721
 31
0.0
  0
HATCH
  5
2B61
330
1F
100
AcDbEntity
  8
NOSNÉ KONSTRUKCE
100
AcDbHatch
 10
0.0
 20
0.0
 30
0.0
210
0.0
220
0.0
230
1.0
  2
SOLID
 70
     1
 71
     0
 91
        5
 92
        7
 72
     0
 73
     1
 93
        4
 10
-2058.386291971438
 20
186.0461208891106
 10
-2061.386291971436
 20
186.0461208891106
 10
-2061.386291971436
 20
180.3986545090283
 10
-2058.386291971436
 20
180.3986545090288
 97
        0
 92
        7
 72
     0
 73
     1
 93
        4
 10
-2058.386291971436
 20
180.3986545090288
 10
-2061.386291971436
 20
180.3986545090283
 10
-2061.386291971438
 20
167.2152572195777
 10
-2058.386291971438
 20
167.2152572195782
 97
        0
 92
        7
 72
     0
 73
     1
 93
        4
 10
-2058.386291971438
 20
167.2152572195777
 10
-2061.38629197144
 20
167.2152572195777
 10
-2061.38629197144
 20
160.6527572195777
 10
-2058.386291971438
 20
160.6527572195777
 97
        0
 92
        7
 72
     0
 73
     1
 93
        4
 10
-2058.386291971436
 20
160.6527572195777
 10
-2061.386291971438
 20
160.6527572195777
 10
-2061.386291971438
 20
154.0902572195777
 10
-2058.386291971438
 20
154.0902572195782
 97
        0
 92
        7
 72
     0
 73
     1
 93
        4
 10
-2058.386291971436
 20
154.0902572195782
 10
-2061.38629197144
 20
154.0902572195768
 10
-2061.38629197144
 20
135.2593935500403
 10
-2058.386291971436
 20
135.2593935500399
 97
        0
 75
     0
 76
     1
 47
0.1874983414428997
 98
        5
 10
-2059.301830140025
 20
181.0017963834989
 10
-2059.301830140025
 20
176.3143312372167
 10
-2059.301830140025
 20
164.5019316544248
 10
-2058.926619623659
 20
158.1269834975437
 10
-2059.114209908165
 20
148.9395636563285
  0
HATCH
  5
2B62
330
1F
100
AcDbEntity
  8
STAVBA OBRYS
100
AcDbHatch
 10
0.0
 20
0.0
 30
0.0
210
0.0
220
0.0
230
1.0
  2
SOLID
 70
     1
 71
     0
 91
        8
 92
        7
 72
     0
 73
     1
 93
        4
 10
-1926.613945400694
 20
94.96397340639896
 10
-1928.628105523951
 20
94.96397340639896
 10
-1928.628105523949
 20
76.04762811988485
 10
-1926.613945400692
 20
76.0476281198853
 97
        0
 92
        7
 72
     0
 73
     1
 93
        4
 10
-1896.470371469654
 20
76.04762811988485
 10
-1917.199497772754
 20
76.04762811988485
 10
-1917.199497772754
 20
73.94366876349749
 10
-1896.470371469654
 20
73.94366876349796
 97
        0
 92
        7
 72
     0
 73
     1
 93
        4
 10
-1855.012118863456
 20
76.04762811988485
 10
-1875.741245166554
 20
76.04762811988485
 10
-1875.741245166554
 20
73.94366876349749
 10
-1855.012118863452
 20
73.94366876349704
 97
        0
 92
        7
 72
     0
 73
     1
 93
        4
 10
-1813.553866257255
 20
76.04762811988485
 10
-1834.213758828383
 20
76.0476281198853
 10
-1834.213758828383
 20
73.94366876349749
 10
-1813.553866257251
 20
73.94366876349704
 97
        0
 92
        7
 72
     0
 73
     1
 93
        4
 10
-1772.026379919084
 20
76.04762811988485
 10
-1792.755506222184
 20
76.04762811988485
 10
-1792.755506222184
 20
73.94366876349749
 10
-1772.026379919082
 20
73.94366876349704
 97
        0
 92
        7
 72
     0
 73
     1
 93
        4
 10
-1730.568127312884
 20
76.04762811988485
 10
-1751.297253615982
 20
76.0476281198844
 10
-1751.297253615982
 20
73.94366876349704
 10
-1730.568127312882
 20
73.94366876349659
 97
        0
 92
        7
 72
     0
 73
     1
 93
        4
 10
-1689.109874706681
 20
76.04762811988485
 10
-1709.839001009782
 20
76.04762811988485
 10
-1709.839001009782
 20
73.94366876349749
 10
-1689.109874706679
 20
73.94366876349749
 97
        0
 92
        7
 72
     0
 73
     1
 93
        4
 10
-1658.016185252029
 20
76.0476281198853
 10
-1668.380748403579
 20
76.04762811988485
 10
-1668.380748403581
 20
73.94366876349749
 10
-1660.03034537529
 20
73.94366876349704
 97
        0
 75
     0
 76
     1
 47
0.3390471718564263
 98
        8
 10
-1927.666337463927
 20
82.48175290232984
 10
-1906.883765667097
 20
75.21137802295425
 10
-1865.49740783308
 20
75.21137802295425
 10
-1819.361817422777
 20
74.87233780503675
 10
-1785.777825866348
 20
75.21137802295425
 10
-1733.875271681073
 20
74.87233780503675
 10
-1705.379786381202
 20
75.55041824087175
 10
-1662.172509061422
 20
74.87330025133861
  0
HATCH
  5
2B63
330
1F
100
AcDbEntity
  8
STAVBA OBRYS
100
AcDbHatch
 10
0.0
 20
0.0
 30
0.0
210
0.0
220
0.0
230
1.0
  2
SOLID
 70
     1
 71
     0
 91
        8
 92
        7
 72
     0
 73
     1
 93
        4
 10
-2038.737622046691
 20
258.0702798561024
 10
-2058.38629197144
 20
258.0702798561019
 10
-2058.386291971442
 20
255.9663204997141
 10
-2038.737622046689
 20
255.9663204997145
 97
        0
 92
        7
 72
     0
 73
     1
 93
        4
 10
-2002.034449872443
 20
258.0702798561024
 10
-2020.386035959566
 20
258.0702798561024
 10
-2020.386035959568
 20
255.966320499715
 10
-2002.034449872443
 20
255.9663204997145
 97
        0
 92
        7
 72
     0
 73
     1
 93
        4
 10
-1965.331277698195
 20
258.0702798561019
 10
-1983.68286378532
 20
258.0702798561019
 10
-1983.682863785322
 20
255.966320499715
 10
-1965.331277698199
 20
255.9663204997145
 97
        0
 92
        7
 72
     0
 73
     1
 93
        4
 10
-1928.628105523951
 20
258.0702798561019
 10
-1946.979691611074
 20
258.0702798561024
 10
-1946.979691611074
 20
255.966320499715
 10
-1928.628105523953
 20
255.9663204997145
 97
        0
 92
        7
 72
     0
 73
     1
 93
        4
 10
-1926.613945400696
 20
258.0702798561014
 10
-1928.628105523951
 20
258.0702798561014
 10
-1928.628105523951
 20
254.2787552307113
 10
-1926.613945400694
 20
254.2787552307109
 97
        0
 92
        7
 72
     0
 73
     1
 93
        4
 10
-1926.613945400694
 20
235.3624099441976
 10
-1928.628105523951
 20
235.3624099441972
 10
-1928.628105523951
 20
216.4460646576831
 10
-1926.613945400694
 20
216.4460646576826
 97
        0
 92
        7
 72
     0
 73
     1
 93
        4
 10
-1926.613945400696
 20
197.5297193711689
 10
-1928.628105523953
 20
197.5297193711689
 10
-1928.628105523953
 20
178.6133740846544
 10
-1926.613945400696
 20
178.6133740846544
 97
        0
 92
        7
 72
     0
 73
     1
 93
        4
 10
-1926.613945400694
 20
159.6970287981412
 10
-1928.628105523951
 20
159.6970287981412
 10
-1928.628105523951
 20
140.7806835116266
 10
-1926.613945400694
 20
140.7806835116262
 97
        0
 75
     0
 76
     1
 47
0.2980317030967905
 98
        8
 10
-2049.045696692755
 20
256.8306862830672
 10
-2010.876793743157
 20
256.5326610844154
 10
-1976.584457199615
 20
256.2346358857598
 10
-1936.924594814484
 20
256.5326610844154
 10
-1927.382346616558
 20
255.6385669798751
 10
-1927.680562461554
 20
223.7491673979661
 10
-1927.382346616558
 20
189.4755107010955
 10
-1927.680562461554
 20
149.5392641783387
  0
LINE
  5
2B64
330
1F
100
AcDbEntity
  8
STAVBA OBRYS
100
AcDbLine
 10
-2038.737622046689
 20
255.9663204997145
 30
0.0
 11
-2038.737622046689
 21
258.0702798561019
 31
0.0
  0
LINE
  5
2B65
330
1F
100
AcDbEntity
  8
STAVBA OBRYS
100
AcDbLine
 10
-2020.386035959566
 20
255.9663204997145
 30
0.0
 11
-2020.386035959566
 21
258.0702798561019
 31
0.0
  0
LINE
  5
2B66
330
1F
100
AcDbEntity
  8
STAVBA OBRYS
100
AcDbLine
 10
-2002.034449872443
 20
255.9663204997145
 30
0.0
 11
-2002.034449872443
 21
258.0702798561019
 31
0.0
  0
LINE
  5
2B67
330
1F
100
AcDbEntity
  8
STAVBA OBRYS
100
AcDbLine
 10
-1926.613945400694
 20
254.2787552307113
 30
0.0
 11
-1928.628105523951
 21
254.2787552307113
 31
0.0
  0
LINE
  5
2B68
330
1F
100
AcDbEntity
  8
STAVBA OBRYS
100
AcDbLine
 10
-1926.613945400694
 20
235.3624099441972
 30
0.0
 11
-1928.628105523951
 21
235.3624099441972
 31
0.0
  0
LINE
  5
2B69
330
1F
100
AcDbEntity
  8
STAVBA OBRYS
100
AcDbLine
 10
-1926.613945400694
 20
216.4460646576831
 30
0.0
 11
-1928.628105523951
 21
216.4460646576831
 31
0.0
  0
LINE
  5
2B6A
330
1F
100
AcDbEntity
  8
STAVBA OBRYS
100
AcDbLine
 10
-1926.613945400694
 20
151.7247675116605
 30
0.0
 11
-1928.628105523951
 21
151.7247675116605
 31
0.0
  0
LINE
  5
2B6B
330
1F
100
AcDbEntity
  8
STAVBA OBRYS
100
AcDbLine
 10
-1926.613945400694
 20
94.97573165211816
 30
0.0
 11
-1928.628105523951
 21
94.97573165211816
 31
0.0
  0
LINE
  5
2B6C
330
1F
100
AcDbEntity
  8
STAVBA OBRYS
100
AcDbLine
 10
-1926.613945400694
 20
76.05938636560404
 30
0.0
 11
-1928.628105523951
 21
76.05938636560404
 31
0.0
  0
LINE
  5
2B6D
330
1F
100
AcDbEntity
  8
STAVBA OBRYS
100
AcDbLine
 10
-1896.470371469654
 20
73.95542700921669
 30
0.0
 11
-1896.470371469654
 21
76.05938636560404
 31
0.0
  0
LINE
  5
2B6E
330
1F
100
AcDbEntity
  8
STAVBA OBRYS
100
AcDbLine
 10
-1917.199497772754
 20
73.95542700921669
 30
0.0
 11
-1917.199497772754
 21
76.05938636560404
 31
0.0
  0
LINE
  5
2B6F
330
1F
100
AcDbEntity
  8
STAVBA OBRYS
100
AcDbLine
 10
-1855.012118863453
 20
73.95542700921669
 30
0.0
 11
-1855.012118863453
 21
76.05938636560404
 31
0.0
  0
LINE
  5
2B70
330
1F
100
AcDbEntity
  8
STAVBA OBRYS
100
AcDbLine
 10
-1875.741245166554
 20
73.95542700921669
 30
0.0
 11
-1875.741245166554
 21
76.05938636560404
 31
0.0
  0
LINE
  5
2B71
330
1F
100
AcDbEntity
  8
STAVBA OBRYS
100
AcDbLine
 10
-1813.484632525283
 20
73.95542700921669
 30
0.0
 11
-1813.484632525283
 21
76.05938636560404
 31
0.0
  0
LINE
  5
2B72
330
1F
100
AcDbEntity
  8
STAVBA OBRYS
100
AcDbLine
 10
-1834.213758828383
 20
73.95542700921669
 30
0.0
 11
-1834.213758828383
 21
76.05938636560404
 31
0.0
  0
LINE
  5
2B73
330
1F
100
AcDbEntity
  8
STAVBA OBRYS
100
AcDbLine
 10
-1813.553866257253
 20
73.95542700921669
 30
0.0
 11
-1813.553866257253
 21
76.05938636560404
 31
0.0
  0
LINE
  5
2B74
330
1F
100
AcDbEntity
  8
STAVBA OBRYS
100
AcDbLine
 10
-1834.282992560353
 20
73.95542700921669
 30
0.0
 11
-1834.282992560353
 21
76.05938636560404
 31
0.0
  0
LINE
  5
2B75
330
1F
100
AcDbEntity
  8
STAVBA OBRYS
100
AcDbLine
 10
-1772.026379919082
 20
73.95542700921669
 30
0.0
 11
-1772.026379919082
 21
76.05938636560404
 31
0.0
  0
LINE
  5
2B76
330
1F
100
AcDbEntity
  8
STAVBA OBRYS
100
AcDbLine
 10
-1792.755506222182
 20
73.95542700921669
 30
0.0
 11
-1792.755506222182
 21
76.05938636560404
 31
0.0
  0
LINE
  5
2B77
330
1F
100
AcDbEntity
  8
STAVBA OBRYS
100
AcDbLine
 10
-1730.568127312882
 20
73.95542700921669
 30
0.0
 11
-1730.568127312882
 21
76.05938636560404
 31
0.0
  0
LINE
  5
2B78
330
1F
100
AcDbEntity
  8
STAVBA OBRYS
100
AcDbLine
 10
-1751.297253615982
 20
73.95542700921669
 30
0.0
 11
-1751.297253615982
 21
76.05938636560404
 31
0.0
  0
LINE
  5
2B79
330
1F
100
AcDbEntity
  8
STAVBA OBRYS
100
AcDbLine
 10
-1709.839001009782
 20
73.95542700921669
 30
0.0
 11
-1709.839001009782
 21
76.05938636560404
 31
0.0
  0
LINE
  5
2B7A
330
1F
100
AcDbEntity
  8
STAVBA OBRYS
100
AcDbLine
 10
-1689.109874706681
 20
73.95542700921669
 30
0.0
 11
-1689.109874706681
 21
76.05938636560404
 31
0.0
  0
LINE
  5
2B7B
330
1F
100
AcDbEntity
  8
STAVBA OBRYS
100
AcDbLine
 10
-1668.380748403581
 20
73.95542700921669
 30
0.0
 11
-1668.380748403581
 21
76.05938636560404
 31
0.0
  0
LINE
  5
2B7C
330
1F
100
AcDbEntity
  8
STAVBA OBRYS
100
AcDbLine
 10
-1660.030345375288
 20
73.95542700921669
 30
0.0
 11
-1658.016185252031
 21
76.05938636560404
 31
0.0
  0
LINE
  5
2B7D
330
1F
100
AcDbEntity
  8
STAVBA OBRYS
100
AcDbLine
 10
-2058.386291971433
 20
-107.8723017056927
 30
0.0
 11
-1984.132724136846
 21
-107.8723017056913
 31
0.0
  0
INSERT
  5
2B7E
330
1F
100
AcDbEntity
  8
POPIS
100
AcDbBlockReference
  2
E_PUNKT
 10
-2168.403643999364
 20
266.1974535760623
 30
0.0
  0
LINE
  5
2B7F
330
1F
100
AcDbEntity
  8
POPIS
100
AcDbLine
 10
-2168.376033623738
 20
266.2265219069349
 30
0.0
 11
-2222.685848599755
 21
243.9430822876306
 31
0.0
  0
TEXT
  5
2B80
330
1F
100
AcDbEntity
  8
POPIS
100
AcDbText
 10
-2405.602432464747
 20
230.4997408382614
 30
0.0
 40
25.0
  1
03
 41
0.7
  7
SIMPLEX7
100
AcDbText
  0
LINE
  5
2B81
330
1F
100
AcDbEntity
  8
POPIS
100
AcDbLine
 10
-2364.222822426751
 20
243.9430822876311
 30
0.0
 11
-2222.685848599755
 21
243.9430822876306
 31
0.0
  0
INSERT
  5
2B82
330
1F
100
AcDbEntity
  8
POPIS
100
AcDbBlockReference
  2
E_PUNKT
 10
-2113.668799580583
 20
-39.56040379660226
 30
0.0
  0
TEXT
  5
2B83
330
1F
100
AcDbEntity
  8
POPIS
100
AcDbText
 10
-2404.20030877002
 20
-53.33973773193429
 30
0.0
 40
25.0
  1
08
 41
0.7
  7
SIMPLEX7
100
AcDbText
  0
LINE
  5
2B84
330
1F
100
AcDbEntity
  8
POPIS
100
AcDbLine
 10
-2364.222822426751
 20
-39.89639628256373
 30
0.0
 11
-2114.836693533688
 21
-39.89639628256418
 31
0.0
  0
TEXT
  5
2B85
330
1F
100
AcDbEntity
  8
POPIS
100
AcDbText
 10
-2414.740587542074
 20
-416.5033497608829
 30
0.0
 40
25.0
  1
01
 41
0.85
  7
SIMPLEX7
100
AcDbText
  0
TEXT
  5
2B86
330
1F
100
AcDbEntity
  8
POPIS
100
AcDbText
 10
-2360.396884382328
 20
-416.5033497608829
 30
0.0
 40
25.0
  1
Deska CETRIS   (BASIC,FINISH,DOLOMIT)
 41
0.7
  7
SIMPLEX7
100
AcDbText
  0
TEXT
  5
2B87
330
1F
100
AcDbEntity
  8
POPIS
100
AcDbText
 10
-2414.740587542074
 20
-453.098361376511
 30
0.0
 40
25.0
  1
02
 41
0.85
  7
SIMPLEX7
100
AcDbText
  0
TEXT
  5
2B88
330
1F
100
AcDbEntity
  8
POPIS
100
AcDbText
 10
-2360.396884382328
 20
-453.098361376511
 30
0.0
 40
25.0
  1
Nerezový vrut s podložkou (np. SFS, EJOT)
 41
0.7
  7
SIMPLEX7
100
AcDbText
  0
TEXT
  5
2B89
330
1F
100
AcDbEntity
  8
POPIS
100
AcDbText
 10
-2414.740587542074
 20
-487.0485496212332
 30
0.0
 40
25.0
  1
03
 41
0.85
  7
SIMPLEX7
100
AcDbText
  0
TEXT
  5
2B8A
330
1F
100
AcDbEntity
  8
POPIS
100
AcDbText
 10
-2360.396884382328
 20
-487.0485496212332
 30
0.0
 40
25.0
  1
Vzduchová mezera - min. 25 mm
 41
0.7
  7
SIMPLEX7
100
AcDbText
  0
TEXT
  5
2B8B
330
1F
100
AcDbEntity
  8
POPIS
100
AcDbText
 10
-2414.740587542074
 20
-522.4527108393958
 30
0.0
 40
25.0
  1
04
 41
0.85
  7
SIMPLEX7
100
AcDbText
  0
TEXT
  5
2B8C
330
1F
100
AcDbEntity
  8
POPIS
100
AcDbText
 10
-2360.396884382328
 20
-522.4527108393958
 30
0.0
 40
25.0
  1
Kotevní prvek
 41
0.7
  7
SIMPLEX7
100
AcDbText
  0
TEXT
  5
2B8D
330
1F
100
AcDbEntity
  8
POPIS
100
AcDbText
 10
-2414.740587542074
 20
-632.3617608671984
 30
0.0
 40
25.0
  1
07
 41
0.85
  7
SIMPLEX7
100
AcDbText
  0
TEXT
  5
2B8E
330
1F
100
AcDbEntity
  8
POPIS
100
AcDbText
 10
-2360.396884382328
 20
-632.3617608671984
 30
0.0
 40
25.0
  1
Oplechování - klempířský výrobek
 41
0.7
  7
SIMPLEX7
100
AcDbText
  0
TEXT
  5
2B8F
330
1F
100
AcDbEntity
  8
POPIS
100
AcDbText
 10
-2414.740587542074
 20
-739.3488061449816
 30
0.0
 40
25.0
  1
08
 41
0.85
  7
SIMPLEX7
100
AcDbText
  0
TEXT
  5
2B90
330
1F
100
AcDbEntity
  8
POPIS
100
AcDbText
 10
-2360.396884382328
 20
-739.3488061449816
 30
0.0
 40
25.0
  1
Tepelná izolace (np. ORSIL, ROCKWOOL, ISOVER, NOBASIL)
 41
0.7
  7
SIMPLEX7
100
AcDbText
  0
TEXT
  5
2B91
330
1F
100
AcDbEntity
  8
POPIS
100
AcDbText
 10
-2360.396884382328
 20
-558.5595323265843
 30
0.0
 40
25.0
  1
Upevňovací prvek systému - kotva (np. SPIDI, EuroFox, SPEEDY...)
 41
0.7
  7
SIMPLEX7
100
AcDbText
  0
TEXT
  5
2B92
330
1F
100
AcDbEntity
  8
POPIS
100
AcDbText
 10
-2414.740587542074
 20
-558.5595323265843
 30
0.0
 40
25.0
  1
05
 41
0.85
  7
SIMPLEX7
100
AcDbText
  0
TEXT
  5
2B93
330
1F
100
AcDbEntity
  8
POPIS
100
AcDbText
 10
-2360.396884382328
 20
-594.1784210246733
 30
0.0
 40
25.0
  1
Nosný profil systému - úhelník (np. SPIDI, EuroFox, SPEEDY...)
 41
0.7
  7
SIMPLEX7
100
AcDbText
  0
TEXT
  5
2B94
330
1F
100
AcDbEntity
  8
POPIS
100
AcDbText
 10
-2414.740587542074
 20
-594.1784210246733
 30
0.0
 40
25.0
  1
06
 41
0.85
  7
SIMPLEX7
100
AcDbText
  0
TEXT
  5
2B95
330
1F
100
AcDbEntity
  8
POPIS
100
AcDbText
 10
-2192.393953598423
 20
-392.0928552755613
 30
0.0
 40
12.0
  1
R
 41
0.85
  7
SIMPLEX7
100
AcDbText
  0
CIRCLE
  5
2B96
330
1F
100
AcDbEntity
  8
POPIS
100
AcDbCircle
 10
-2188.011670088101
 20
-385.9826939076156
 30
0.0
 40
11.13656048292026
  0
TEXT
  5
2B97
330
1F
100
AcDbEntity
  8
POPIS
100
AcDbText
 10
-2427.182036713401
 20
427.9060546439914
 30
0.0
 40
50.0
  1
HORNÍ ZAKONČENÍ
 41
0.85
  7
SIMPLEX7
100
AcDbText
  0
TEXT
  5
2B98
330
1F
100
AcDbEntity
  8
POPIS
100
AcDbText
 10
-2427.182036713401
 20
373.2813116181905
 30
0.0
 40
35.0
  1
ŘEZ-ATIKA, PL. STŘECHA
 41
0.85
  7
SIMPLEX7
100
AcDbText
  0
LINE
  5
2B99
330
1F
100
AcDbEntity
  8
STAVBA OBRYS
100
AcDbLine
 10
-1928.628105523951
 20
-233.8319499796507
 30
0.0
 11
-2058.386291971431
 21
-233.8319499796507
 31
0.0
  0
LINE
  5
2B9A
330
1F
100
AcDbEntity
  8
NOSNÉ KONSTRUKCE
100
AcDbLine
 10
-2147.386291971436
 20
249.8908193418146
 30
0.0
 11
-2147.386291971429
 21
-20.92595655566856
 31
0.0
  0
LINE
  5
2B9B
330
1F
100
AcDbEntity
  8
STAVBA OBRYS
100
AcDbLine
 10
-2142.057704903184
 20
258.070279856101
 30
0.0
 11
-2142.057704903181
 21
-20.75778941508633
 31
0.0
  0
LINE
  5
2B9C
330
1F
100
AcDbEntity
  8
NOSNÉ KONSTRUKCE
100
AcDbLine
 10
-2192.18047565206
 20
255.3154707948788
 30
0.0
 11
-2192.180475652055
 21
-22.40924950108183
 31
0.0
  0
LINE
  5
2B9D
330
1F
100
AcDbEntity
  8
NOSNÉ KONSTRUKCE
100
AcDbLine
 10
-2197.386291971434
 20
255.3154707948788
 30
0.0
 11
-2197.386291971433
 21
-22.50392777419301
 31
0.0
  0
LINE
  5
2B9E
330
1F
100
AcDbEntity
  8
STAVBA OBRYS
  6
IZOLACE
 48
4.0
100
AcDbLine
 10
-2100.107570574747
 20
258.070279856101
 30
0.0
 11
-2100.82960926287
 21
-232.0369126796517
 31
0.0
  0
LINE
  5
2B9F
330
1F
100
AcDbEntity
  8
STAVBA OBRYS
100
AcDbLine
 10
-2058.386291971438
 20
258.0702798561019
 30
0.0
 11
-2058.386291971435
 21
-18.11716778669415
 31
0.0
  0
LINE
  5
2BA0
330
1F
100
AcDbEntity
  8
PROFILY
100
AcDbLine
 10
-2224.798164241262
 20
275.2586977576947
 30
0.0
 11
-2224.798164241262
 21
253.4452641778871
 31
0.0
  0
LINE
  5
2BA1
330
1F
100
AcDbEntity
  8
PROFILY
100
AcDbLine
 10
-2227.235664241262
 20
277.4403898479431
 30
0.0
 11
-2227.235664241262
 21
249.4916344093635
 31
0.0
  0
ARC
  5
2BA2
330
1F
100
AcDbEntity
  8
PROFILY
100
AcDbCircle
 10
-2226.423164241262
 20
249.4916344093635
 30
0.0
 40
0.8125
100
AcDbArc
 50
180.0
 51
315.3132330916631
  0
LINE
  5
2BA3
330
1F
100
AcDbEntity
  8
PROFILY
100
AcDbLine
 10
-2224.798164241262
 20
253.4452641778871
 30
0.0
 11
-2218.406133900963
 21
259.9075692113355
 31
0.0
  0
LINE
  5
2BA4
330
1F
100
AcDbEntity
  8
PROFILY
100
AcDbLine
 10
-2216.673164241262
 20
258.1934448259571
 30
0.0
 11
-2218.406133900963
 21
259.9075692113355
 31
0.0
  0
LINE
  5
2BA5
330
1F
100
AcDbEntity
  8
PROFILY
100
AcDbLine
 10
-2225.845507688029
 20
248.9202596142331
 30
0.0
 11
-2216.673164241262
 21
258.1934448259571
 31
0.0
  0
INSERT
  5
2BA6
330
1F
100
AcDbEntity
  8
POPIS
100
AcDbBlockReference
  2
E_PUNKT
 10
-2225.594776157922
 20
281.1768670147303
 30
0.0
  0
LINE
  5
2BA7
330
1F
100
AcDbEntity
  8
PROFILY
100
AcDbLine
 10
-1908.343484631662
 20
272.6039594514923
 30
0.0
 11
-2227.235664241262
 21
277.4403898479431
 31
0.0
  0
LINE
  5
2BA8
330
1F
100
AcDbEntity
  8
PROFILY
100
AcDbLine
 10
-1910.780984631662
 20
270.2237456939519
 30
0.0
 11
-2224.798164241262
 21
275.2586977576947
 31
0.0
  0
LINE
  5
2BA9
330
1F
100
AcDbEntity
  8
NOSNÉ KONSTRUKCE
100
AcDbLine
 10
-2147.386291971429
 20
-20.92595655566856
 30
0.0
 11
-2147.386291971425
 21
-109.244394430897
 31
0.0
  0
LINE
  5
2BAA
330
1F
100
AcDbEntity
  8
STAVBA OBRYS
100
AcDbLine
 10
-2142.057704903181
 20
-20.75778941508633
 30
0.0
 11
-2142.057704903179
 21
-229.1244747487271
 31
0.0
  0
LINE
  5
2BAB
330
1F
100
AcDbEntity
  8
STAVBA OBRYS
100
AcDbLine
 10
-2060.016255591187
 20
-18.16860850027842
 30
0.0
 11
-2060.016255591184
 21
-234.9200523802737
 31
0.0
  0
LINE
  5
2BAC
330
1F
100
AcDbEntity
  8
STAVBA OBRYS
100
AcDbLine
 10
-2058.386291971435
 20
-18.11716778669415
 30
0.0
 11
-2058.386291971431
 21
-233.8319499796507
 31
0.0
  0
LINE
  5
2BAD
330
1F
100
AcDbEntity
  8
NOSNÉ KONSTRUKCE
100
AcDbLine
 10
-2197.386291971433
 20
-22.50392777419301
 30
0.0
 11
-2197.386291971433
 21
-225.215948945161
 31
0.0
  0
LINE
  5
2BAE
330
1F
100
AcDbEntity
  8
NOSNÉ KONSTRUKCE
100
AcDbLine
 10
-2192.180475652055
 20
-22.40924950108183
 30
0.0
 11
-2192.180475652053
 21
-225.5836985749824
 31
0.0
  0
SOLID
  5
2BAF
330
1F
100
AcDbEntity
  8
CETRIS
100
AcDbTrace
 10
-2210.524637104144
 20
-224.2878290764206
 30
0.0
 11
-2198.495156474974
 21
-225.1376164636281
 31
0.0
 12
-2210.495156474981
 22
255.9407935831341
 32
0.0
 13
-2198.495156474981
 23
255.9407935831341
 33
0.0
  0
LINE
  5
2BB0
330
1F
100
AcDbEntity
  8
STAVBA OBRYS
100
AcDbLine
 10
-2058.38629197144
 20
258.0702798561019
 30
0.0
 11
-2142.057704903186
 21
258.070279856101
 31
0.0
  0
LINE
  5
2BB1
330
1F
100
AcDbEntity
  8
NOSNÉ KONSTRUKCE
100
AcDbLine
 10
-2147.386291971443
 20
249.8908193418146
 30
0.0
 11
-2192.18047565206
 21
249.8908193418146
 31
0.0
  0
LINE
  5
2BB2
330
1F
100
AcDbEntity
  8
SPOJOVACÍ
100
AcDbLine
 10
-2182.284881304432
 20
205.0342114292561
 30
0.0
 11
-2211.051871077293
 21
205.0342114292561
 31
0.0
  0
LINE
  5
2BB3
330
1F
100
AcDbEntity
  8
SPOJOVACÍ
100
AcDbLine
 10
-2182.284881304432
 20
199.3502709714557
 30
0.0
 11
-2211.051871077293
 21
199.3502709714557
 31
0.0
  0
LINE
  5
2BB4
330
1F
100
AcDbEntity
  8
SPOJOVACÍ
100
AcDbLine
 10
-2188.395182252791
 20
199.3502709714557
 30
0.0
 11
-2186.8721749973
 21
205.0342114292561
 31
0.0
  0
HATCH
  5
2BB5
330
1F
100
AcDbEntity
  8
SPOJOVACÍ
100
AcDbHatch
 10
0.0
 20
0.0
 30
0.0
210
0.0
220
0.0
230
1.0
  2
ANSI37
 70
     0
 71
     0
 91
        1
 92
        7
 72
     0
 73
     1
 93
        6
 10
-2211.051871077293
 20
209.3113818253559
 10
-2212.738690935769
 20
209.3113818253559
 10
-2212.738690935769
 20
202.1922412003559
 10
-2212.738690935769
 20
195.0731005753559
 10
-2211.051871077293
 20
195.0731005753559
 10
-2211.051871077293
 20
202.1922412003559
 97
        0
 75
     0
 76
     1
 52
0.0
 41
0.9
 77
     0
 78
     2
 53
45.0
 43
-2544.323646291252
 44
-248.701689234761
 45
-2.020557627240559
 46
2.020557627240559
 79
     0
 53
135.0
 43
-2544.323646291252
 44
-248.701689234761
 45
-2.020557627240559
 46
-2.020557627240559
 79
     0
 47
0.1350114543121608
 98
        1
 10
-2212.139960569639
 20
202.2196072181604
  0
LINE
  5
2BB6
330
1F
100
AcDbEntity
  8
SPOJOVACÍ
100
AcDbLine
 10
-2212.738690935769
 20
202.1922412003559
 30
0.0
 11
-2212.738690935769
 21
209.3113818253559
 31
0.0
  0
LINE
  5
2BB7
330
1F
100
AcDbEntity
  8
SPOJOVACÍ
100
AcDbLine
 10
-2211.051871077293
 20
209.3113818253559
 30
0.0
 11
-2211.051871077293
 21
202.1922412003559
 31
0.0
  0
LINE
  5
2BB8
330
1F
100
AcDbEntity
  8
SPOJOVACÍ
100
AcDbLine
 10
-2211.922414607247
 20
207.4129443253559
 30
0.0
 11
-2211.927160700997
 21
207.4129443253559
 31
0.0
  0
LINE
  5
2BB9
330
1F
100
AcDbEntity
  8
SPOJOVACÍ
100
AcDbLine
 10
-2211.051871077293
 20
209.3113818253559
 30
0.0
 11
-2212.738690935769
 21
209.3113818253559
 31
0.0
  0
ARC
  5
2BBA
330
1F
100
AcDbEntity
  8
SPOJOVACÍ
100
AcDbCircle
 10
-2216.447459625235
 20
205.5145068253559
 30
0.0
 40
0.94921875
100
AcDbArc
 50
180.0
 51
270.0
  0
ARC
  5
2BBB
330
1F
100
AcDbEntity
  8
SPOJOVACÍ
100
AcDbCircle
 10
-2216.447459625235
 20
206.4637255753559
 30
0.0
 40
0.94921875
100
AcDbArc
 50
90.0
 51
180.0
  0
LINE
  5
2BBC
330
1F
100
AcDbEntity
  8
SPOJOVACÍ
100
AcDbLine
 10
-2212.738690935769
 20
204.5652880753559
 30
0.0
 11
-2216.447459625235
 21
204.5652880753559
 31
0.0
  0
LINE
  5
2BBD
330
1F
100
AcDbEntity
  8
SPOJOVACÍ
100
AcDbLine
 10
-2212.738690935769
 20
207.4129443253559
 30
0.0
 11
-2216.447459625235
 21
207.4129443253559
 31
0.0
  0
LINE
  5
2BBE
330
1F
100
AcDbEntity
  8
SPOJOVACÍ
100
AcDbLine
 10
-2212.738690935769
 20
195.0731005753559
 30
0.0
 11
-2211.051871077293
 21
195.0731005753559
 31
0.0
  0
ARC
  5
2BBF
330
1F
100
AcDbEntity
  8
SPOJOVACÍ
100
AcDbCircle
 10
-2216.447459625235
 20
197.9207568253559
 30
0.0
 40
0.94921875
100
AcDbArc
 50
180.0
 51
270.0
  0
ARC
  5
2BC0
330
1F
100
AcDbEntity
  8
SPOJOVACÍ
100
AcDbCircle
 10
-2216.447459625235
 20
198.8699755753559
 30
0.0
 40
0.94921875
100
AcDbArc
 50
90.0
 51
180.0
  0
LINE
  5
2BC1
330
1F
100
AcDbEntity
  8
SPOJOVACÍ
100
AcDbLine
 10
-2216.447459625235
 20
196.9715380753559
 30
0.0
 11
-2212.738690935769
 21
196.9715380753559
 31
0.0
  0
LINE
  5
2BC2
330
1F
100
AcDbEntity
  8
SPOJOVACÍ
100
AcDbLine
 10
-2212.738690935769
 20
199.8191943253559
 30
0.0
 11
-2216.447459625235
 21
199.8191943253559
 31
0.0
  0
LINE
  5
2BC3
330
1F
100
AcDbEntity
  8
SPOJOVACÍ
100
AcDbLine
 10
-2212.738690935769
 20
206.0282093774199
 30
0.0
 11
-2212.738690935769
 21
195.0731005753559
 31
0.0
  0
LINE
  5
2BC4
330
1F
100
AcDbEntity
  8
SPOJOVACÍ
100
AcDbLine
 10
-2217.396678375235
 20
206.4637255753559
 30
0.0
 11
-2217.396678375235
 21
197.9207568253559
 31
0.0
  0
ARC
  5
2BC5
330
1F
100
AcDbEntity
  8
SPOJOVACÍ
100
AcDbCircle
 10
-2214.022739461023
 20
202.1922412003559
 30
0.0
 40
3.392730367372068
100
AcDbArc
 50
135.6170676673749
 51
224.382932332625
  0
LINE
  5
2BC6
330
1F
100
AcDbEntity
  8
SPOJOVACÍ
100
AcDbLine
 10
-2211.051871077293
 20
202.1922412003559
 30
0.0
 11
-2211.051871077293
 21
195.0731005753559
 31
0.0
  0
LINE
  5
2BC7
330
1F
100
AcDbEntity
  8
SPOJOVACÍ
100
AcDbLine
 10
-2194.723307252791
 20
199.3502709714557
 30
0.0
 11
-2193.200299997298
 21
205.0342114292561
 31
0.0
  0
LINE
  5
2BC8
330
1F
100
AcDbEntity
  8
SPOJOVACÍ
100
AcDbLine
 10
-2193.141276002791
 20
199.3502709714557
 30
0.0
 11
-2191.618268747298
 21
205.0342114292561
 31
0.0
  0
LINE
  5
2BC9
330
1F
100
AcDbEntity
  8
SPOJOVACÍ
100
AcDbLine
 10
-2191.559244752795
 20
199.3502709714557
 30
0.0
 11
-2190.036237497298
 21
205.0342114292561
 31
0.0
  0
LINE
  5
2BCA
330
1F
100
AcDbEntity
  8
SPOJOVACÍ
100
AcDbLine
 10
-2189.977213502791
 20
199.3502709714557
 30
0.0
 11
-2188.454206247298
 21
205.0342114292561
 31
0.0
  0
LINE
  5
2BCB
330
1F
100
AcDbEntity
  8
SPOJOVACÍ
100
AcDbLine
 10
-2201.051432252791
 20
199.3502709714557
 30
0.0
 11
-2199.528424997296
 21
205.0342114292561
 31
0.0
  0
LINE
  5
2BCC
330
1F
100
AcDbEntity
  8
SPOJOVACÍ
100
AcDbLine
 10
-2199.469401002789
 20
199.3502709714557
 30
0.0
 11
-2197.946393747298
 21
205.0342114292561
 31
0.0
  0
LINE
  5
2BCD
330
1F
100
AcDbEntity
  8
SPOJOVACÍ
100
AcDbLine
 10
-2197.887369752789
 20
199.3502709714557
 30
0.0
 11
-2196.364362497298
 21
205.0342114292561
 31
0.0
  0
LINE
  5
2BCE
330
1F
100
AcDbEntity
  8
SPOJOVACÍ
100
AcDbLine
 10
-2205.797526002791
 20
199.3502709714557
 30
0.0
 11
-2204.274518747296
 21
205.0342114292561
 31
0.0
  0
LINE
  5
2BCF
330
1F
100
AcDbEntity
  8
SPOJOVACÍ
100
AcDbLine
 10
-2204.215494752791
 20
199.3502709714557
 30
0.0
 11
-2202.692487497296
 21
205.0342114292561
 31
0.0
  0
LINE
  5
2BD0
330
1F
100
AcDbEntity
  8
SPOJOVACÍ
100
AcDbLine
 10
-2202.633463502791
 20
199.3502709714557
 30
0.0
 11
-2201.110456247296
 21
205.0342114292561
 31
0.0
  0
LINE
  5
2BD1
330
1F
100
AcDbEntity
  8
SPOJOVACÍ
100
AcDbLine
 10
-2208.961588502789
 20
199.3502709714557
 30
0.0
 11
-2207.438581247298
 21
205.0342114292561
 31
0.0
  0
LINE
  5
2BD2
330
1F
100
AcDbEntity
  8
SPOJOVACÍ
100
AcDbLine
 10
-2207.379557252791
 20
199.3502709714557
 30
0.0
 11
-2205.856549997296
 21
205.0342114292561
 31
0.0
  0
LINE
  5
2BD3
330
1F
100
AcDbEntity
  8
SPOJOVACÍ
100
AcDbLine
 10
-2196.305338502791
 20
199.3502709714557
 30
0.0
 11
-2194.782331247296
 21
205.0342114292561
 31
0.0
  0
LINE
  5
2BD4
330
1F
100
AcDbEntity
  8
SPOJOVACÍ
100
AcDbLine
 10
-2180.095288381829
 20
202.1922412003559
 30
0.0
 11
-2182.284881304432
 21
205.0342114292561
 31
0.0
  0
LINE
  5
2BD5
330
1F
100
AcDbEntity
  8
SPOJOVACÍ
100
AcDbLine
 10
-2180.095288381829
 20
202.1922412003559
 30
0.0
 11
-2182.284881304432
 21
199.3502709714557
 31
0.0
  0
LINE
  5
2BD6
330
1F
100
AcDbEntity
  8
SPOJOVACÍ
100
AcDbLine
 10
-2182.067057252791
 20
199.3502709714557
 30
0.0
 11
-2180.993255685104
 21
203.357752979321
 31
0.0
  0
LINE
  5
2BD7
330
1F
100
AcDbEntity
  8
SPOJOVACÍ
100
AcDbLine
 10
-2185.231119752791
 20
199.3502709714557
 30
0.0
 11
-2183.7081124973
 21
205.0342114292561
 31
0.0
  0
LINE
  5
2BD8
330
1F
100
AcDbEntity
  8
SPOJOVACÍ
100
AcDbLine
 10
-2186.813151002791
 20
199.3502709714557
 30
0.0
 11
-2185.2901437473
 21
205.0342114292561
 31
0.0
  0
LINE
  5
2BD9
330
1F
100
AcDbEntity
  8
SPOJOVACÍ
100
AcDbLine
 10
-2183.649088502793
 20
199.3502709714557
 30
0.0
 11
-2182.126081247298
 21
205.0342114292561
 31
0.0
  0
LINE
  5
2BDA
330
1F
100
AcDbEntity
  8
SPOJOVACÍ
100
AcDbLine
 10
-2182.284881304432
 20
-193.6386397540672
 30
0.0
 11
-2211.051871077293
 21
-193.6386397540672
 31
0.0
  0
LINE
  5
2BDB
330
1F
100
AcDbEntity
  8
SPOJOVACÍ
100
AcDbLine
 10
-2182.284881304432
 20
-199.3225802118686
 30
0.0
 11
-2211.051871077293
 21
-199.3225802118686
 31
0.0
  0
LINE
  5
2BDC
330
1F
100
AcDbEntity
  8
SPOJOVACÍ
100
AcDbLine
 10
-2188.395182252791
 20
-199.3225802118686
 30
0.0
 11
-2186.8721749973
 21
-193.6386397540672
 31
0.0
  0
HATCH
  5
2BDD
330
1F
100
AcDbEntity
  8
SPOJOVACÍ
100
AcDbHatch
 10
0.0
 20
0.0
 30
0.0
210
0.0
220
0.0
230
1.0
  2
ANSI37
 70
     0
 71
     0
 91
        1
 92
        7
 72
     0
 73
     1
 93
        6
 10
-2211.051871077293
 20
-189.3614693579679
 10
-2212.738690935769
 20
-189.3614693579679
 10
-2212.738690935769
 20
-196.4806099829679
 10
-2212.738690935769
 20
-203.5997506079679
 10
-2211.051871077293
 20
-203.5997506079679
 10
-2211.051871077293
 20
-196.4806099829679
 97
        0
 75
     0
 76
     1
 52
0.0
 41
0.9
 77
     0
 78
     2
 53
45.0
 43
-2544.323646291252
 44
-647.3745404180854
 45
-2.020557627240559
 46
2.020557627240559
 79
     0
 53
135.0
 43
-2544.323646291252
 44
-647.3745404180854
 45
-2.020557627240559
 46
-2.020557627240559
 79
     0
 47
0.1350114543121608
 98
        1
 10
-2212.139960569639
 20
-196.4532439651629
  0
LINE
  5
2BDE
330
1F
100
AcDbEntity
  8
SPOJOVACÍ
100
AcDbLine
 10
-2212.738690935769
 20
-196.4806099829679
 30
0.0
 11
-2212.738690935769
 21
-189.3614693579679
 31
0.0
  0
LINE
  5
2BDF
330
1F
100
AcDbEntity
  8
SPOJOVACÍ
100
AcDbLine
 10
-2211.051871077293
 20
-189.3614693579679
 30
0.0
 11
-2211.051871077293
 21
-196.4806099829679
 31
0.0
  0
LINE
  5
2BE0
330
1F
100
AcDbEntity
  8
SPOJOVACÍ
100
AcDbLine
 10
-2211.922414607247
 20
-191.2599068579679
 30
0.0
 11
-2211.927160700997
 21
-191.2599068579679
 31
0.0
  0
LINE
  5
2BE1
330
1F
100
AcDbEntity
  8
SPOJOVACÍ
100
AcDbLine
 10
-2211.051871077293
 20
-189.3614693579679
 30
0.0
 11
-2212.738690935769
 21
-189.3614693579679
 31
0.0
  0
ARC
  5
2BE2
330
1F
100
AcDbEntity
  8
SPOJOVACÍ
100
AcDbCircle
 10
-2216.447459625235
 20
-193.1583443579679
 30
0.0
 40
0.94921875
100
AcDbArc
 50
180.0
 51
270.0
  0
ARC
  5
2BE3
330
1F
100
AcDbEntity
  8
SPOJOVACÍ
100
AcDbCircle
 10
-2216.447459625235
 20
-192.2091256079679
 30
0.0
 40
0.94921875
100
AcDbArc
 50
90.0
 51
180.0
  0
LINE
  5
2BE4
330
1F
100
AcDbEntity
  8
SPOJOVACÍ
100
AcDbLine
 10
-2212.738690935769
 20
-194.1075631079679
 30
0.0
 11
-2216.447459625235
 21
-194.1075631079679
 31
0.0
  0
LINE
  5
2BE5
330
1F
100
AcDbEntity
  8
SPOJOVACÍ
100
AcDbLine
 10
-2212.738690935769
 20
-191.2599068579679
 30
0.0
 11
-2216.447459625235
 21
-191.2599068579679
 31
0.0
  0
LINE
  5
2BE6
330
1F
100
AcDbEntity
  8
SPOJOVACÍ
100
AcDbLine
 10
-2212.738690935769
 20
-203.5997506079679
 30
0.0
 11
-2211.051871077293
 21
-203.5997506079679
 31
0.0
  0
ARC
  5
2BE7
330
1F
100
AcDbEntity
  8
SPOJOVACÍ
100
AcDbCircle
 10
-2216.447459625235
 20
-200.7520943579679
 30
0.0
 40
0.94921875
100
AcDbArc
 50
180.0
 51
270.0
  0
ARC
  5
2BE8
330
1F
100
AcDbEntity
  8
SPOJOVACÍ
100
AcDbCircle
 10
-2216.447459625235
 20
-199.8028756079679
 30
0.0
 40
0.94921875
100
AcDbArc
 50
90.0
 51
180.0
  0
LINE
  5
2BE9
330
1F
100
AcDbEntity
  8
SPOJOVACÍ
100
AcDbLine
 10
-2216.447459625235
 20
-201.7013131079679
 30
0.0
 11
-2212.738690935769
 21
-201.7013131079679
 31
0.0
  0
LINE
  5
2BEA
330
1F
100
AcDbEntity
  8
SPOJOVACÍ
100
AcDbLine
 10
-2212.738690935769
 20
-198.8536568579679
 30
0.0
 11
-2216.447459625235
 21
-198.8536568579679
 31
0.0
  0
LINE
  5
2BEB
330
1F
100
AcDbEntity
  8
SPOJOVACÍ
100
AcDbLine
 10
-2212.738690935769
 20
-192.644641805904
 30
0.0
 11
-2212.738690935769
 21
-203.5997506079679
 31
0.0
  0
LINE
  5
2BEC
330
1F
100
AcDbEntity
  8
SPOJOVACÍ
100
AcDbLine
 10
-2217.396678375235
 20
-192.2091256079679
 30
0.0
 11
-2217.396678375235
 21
-200.7520943579679
 31
0.0
  0
ARC
  5
2BED
330
1F
100
AcDbEntity
  8
SPOJOVACÍ
100
AcDbCircle
 10
-2214.022739461023
 20
-196.4806099829679
 30
0.0
 40
3.392730367372068
100
AcDbArc
 50
135.6170676673749
 51
224.382932332625
  0
LINE
  5
2BEE
330
1F
100
AcDbEntity
  8
SPOJOVACÍ
100
AcDbLine
 10
-2211.051871077293
 20
-196.4806099829679
 30
0.0
 11
-2211.051871077293
 21
-203.5997506079679
 31
0.0
  0
LINE
  5
2BEF
330
1F
100
AcDbEntity
  8
SPOJOVACÍ
100
AcDbLine
 10
-2194.723307252791
 20
-199.3225802118686
 30
0.0
 11
-2193.200299997298
 21
-193.6386397540672
 31
0.0
  0
LINE
  5
2BF0
330
1F
100
AcDbEntity
  8
SPOJOVACÍ
100
AcDbLine
 10
-2193.141276002791
 20
-199.3225802118686
 30
0.0
 11
-2191.618268747298
 21
-193.6386397540672
 31
0.0
  0
LINE
  5
2BF1
330
1F
100
AcDbEntity
  8
SPOJOVACÍ
100
AcDbLine
 10
-2191.559244752795
 20
-199.3225802118686
 30
0.0
 11
-2190.036237497298
 21
-193.6386397540672
 31
0.0
  0
LINE
  5
2BF2
330
1F
100
AcDbEntity
  8
SPOJOVACÍ
100
AcDbLine
 10
-2189.977213502791
 20
-199.3225802118686
 30
0.0
 11
-2188.454206247298
 21
-193.6386397540672
 31
0.0
  0
LINE
  5
2BF3
330
1F
100
AcDbEntity
  8
SPOJOVACÍ
100
AcDbLine
 10
-2201.051432252791
 20
-199.3225802118686
 30
0.0
 11
-2199.528424997296
 21
-193.6386397540672
 31
0.0
  0
LINE
  5
2BF4
330
1F
100
AcDbEntity
  8
SPOJOVACÍ
100
AcDbLine
 10
-2199.469401002789
 20
-199.3225802118686
 30
0.0
 11
-2197.946393747298
 21
-193.6386397540672
 31
0.0
  0
LINE
  5
2BF5
330
1F
100
AcDbEntity
  8
SPOJOVACÍ
100
AcDbLine
 10
-2197.887369752789
 20
-199.3225802118686
 30
0.0
 11
-2196.364362497298
 21
-193.6386397540672
 31
0.0
  0
LINE
  5
2BF6
330
1F
100
AcDbEntity
  8
SPOJOVACÍ
100
AcDbLine
 10
-2205.797526002791
 20
-199.3225802118686
 30
0.0
 11
-2204.274518747296
 21
-193.6386397540672
 31
0.0
  0
LINE
  5
2BF7
330
1F
100
AcDbEntity
  8
SPOJOVACÍ
100
AcDbLine
 10
-2204.215494752791
 20
-199.3225802118686
 30
0.0
 11
-2202.692487497296
 21
-193.6386397540672
 31
0.0
  0
LINE
  5
2BF8
330
1F
100
AcDbEntity
  8
SPOJOVACÍ
100
AcDbLine
 10
-2202.633463502791
 20
-199.3225802118686
 30
0.0
 11
-2201.110456247296
 21
-193.6386397540672
 31
0.0
  0
LINE
  5
2BF9
330
1F
100
AcDbEntity
  8
SPOJOVACÍ
100
AcDbLine
 10
-2208.961588502789
 20
-199.3225802118686
 30
0.0
 11
-2207.438581247298
 21
-193.6386397540672
 31
0.0
  0
LINE
  5
2BFA
330
1F
100
AcDbEntity
  8
SPOJOVACÍ
100
AcDbLine
 10
-2207.379557252791
 20
-199.3225802118686
 30
0.0
 11
-2205.856549997296
 21
-193.6386397540672
 31
0.0
  0
LINE
  5
2BFB
330
1F
100
AcDbEntity
  8
SPOJOVACÍ
100
AcDbLine
 10
-2196.305338502791
 20
-199.3225802118686
 30
0.0
 11
-2194.782331247296
 21
-193.6386397540672
 31
0.0
  0
LINE
  5
2BFC
330
1F
100
AcDbEntity
  8
SPOJOVACÍ
100
AcDbLine
 10
-2180.095288381829
 20
-196.4806099829679
 30
0.0
 11
-2182.284881304432
 21
-193.6386397540672
 31
0.0
  0
LINE
  5
2BFD
330
1F
100
AcDbEntity
  8
SPOJOVACÍ
100
AcDbLine
 10
-2180.095288381829
 20
-196.4806099829679
 30
0.0
 11
-2182.284881304432
 21
-199.3225802118686
 31
0.0
  0
LINE
  5
2BFE
330
1F
100
AcDbEntity
  8
SPOJOVACÍ
100
AcDbLine
 10
-2182.067057252791
 20
-199.3225802118686
 30
0.0
 11
-2180.993255685104
 21
-195.3150982040024
 31
0.0
  0
LINE
  5
2BFF
330
1F
100
AcDbEntity
  8
SPOJOVACÍ
100
AcDbLine
 10
-2185.231119752791
 20
-199.3225802118686
 30
0.0
 11
-2183.7081124973
 21
-193.6386397540672
 31
0.0
  0
LINE
  5
2C00
330
1F
100
AcDbEntity
  8
SPOJOVACÍ
100
AcDbLine
 10
-2186.813151002791
 20
-199.3225802118686
 30
0.0
 11
-2185.2901437473
 21
-193.6386397540672
 31
0.0
  0
LINE
  5
2C01
330
1F
100
AcDbEntity
  8
SPOJOVACÍ
100
AcDbLine
 10
-2183.649088502793
 20
-199.3225802118686
 30
0.0
 11
-2182.126081247298
 21
-193.6386397540672
 31
0.0
  0
LINE
  5
2C02
330
1F
100
AcDbEntity
  8
STAVBA OBRYS
100
AcDbLine
 10
-2058.38629197144
 20
255.9663204997145
 30
0.0
 11
-1928.628105523951
 21
255.9663204997145
 31
0.0
  0
LINE
  5
2C03
330
1F
100
AcDbEntity
  8
PROFILY
100
AcDbLine
 10
-2222.096180257572
 20
272.4596042399448
 30
0.0
 11
-2222.990332101347
 21
260.062067108056
 31
0.0
  0
LINE
  5
2C04
330
1F
100
AcDbEntity
  8
PROFILY
100
AcDbLine
 10
-2219.809534733812
 20
270.280200061476
 30
0.0
 11
-2220.559147140465
 21
259.8867219171352
 31
0.0
  0
LINE
  5
2C05
330
1F
100
AcDbEntity
  8
PROFILY
100
AcDbLine
 10
-1915.775198036145
 20
265.4053129202448
 30
0.0
 11
-2219.809534733812
 21
270.280200061476
 31
0.0
  0
LINE
  5
2C06
330
1F
100
AcDbEntity
  8
PROFILY
100
AcDbLine
 10
-1913.502591232983
 20
267.7793658724326
 30
0.0
 11
-2222.096180257572
 21
272.4596042399448
 31
0.0
  0
LINE
  5
2C07
330
1F
100
AcDbEntity
  8
PROFILY
100
AcDbLine
 10
-2222.990332101347
 20
260.062067108056
 30
0.0
 11
-2220.559147140465
 21
259.8867219171352
 31
0.0
  0
LINE
  5
2C08
330
1F
100
AcDbEntity
  8
STAVBA OBRYS
100
AcDbLine
 10
-1928.628105523951
 20
73.95542700921669
 30
0.0
 11
-1660.030345375288
 21
73.95542700921669
 31
0.0
  0
LINE
  5
2C09
330
1F
100
AcDbEntity
  8
PROFILY
100
AcDbLine
 10
-1915.775198036145
 20
265.4053129202448
 30
0.0
 11
-1915.020001732459
 21
254.9344132828136
 31
0.0
  0
LINE
  5
2C0A
330
1F
100
AcDbEntity
  8
PROFILY
100
AcDbLine
 10
-1913.502591232983
 20
267.7793658724326
 30
0.0
 11
-1912.588816771577
 21
255.1097584737344
 31
0.0
  0
LINE
  5
2C0B
330
1F
100
AcDbEntity
  8
PROFILY
100
AcDbLine
 10
-1912.588816771577
 20
255.1097584737344
 30
0.0
 11
-1915.020001732459
 21
254.9344132828136
 31
0.0
  0
LINE
  5
2C0C
330
1F
100
AcDbEntity
  8
PROFILY
100
AcDbLine
 10
-1909.733641184894
 20
243.9679509799116
 30
0.0
 11
-1918.905984631662
 21
253.2411361916356
 31
0.0
  0
LINE
  5
2C0D
330
1F
100
AcDbEntity
  8
PROFILY
100
AcDbLine
 10
-1918.905984631662
 20
253.2411361916356
 30
0.0
 11
-1917.173014971961
 21
254.955260577014
 31
0.0
  0
LINE
  5
2C0E
330
1F
100
AcDbEntity
  8
PROFILY
100
AcDbLine
 10
-1910.780984631662
 20
248.4929555435655
 30
0.0
 11
-1917.173014971961
 21
254.955260577014
 31
0.0
  0
ARC
  5
2C0F
330
1F
100
AcDbEntity
  8
PROFILY
100
AcDbCircle
 10
-1909.155984631662
 20
244.539325775042
 30
0.0
 40
0.8125
100
AcDbArc
 50
224.6867669083368
 51
0.0
  0
LINE
  5
2C10
330
1F
100
AcDbEntity
  8
PROFILY
100
AcDbLine
 10
-1908.343484631662
 20
272.6039594514923
 30
0.0
 11
-1908.343484631662
 21
244.539325775042
 31
0.0
  0
LINE
  5
2C11
330
1F
100
AcDbEntity
  8
PROFILY
100
AcDbLine
 10
-1910.780984631662
 20
270.2237456939519
 30
0.0
 11
-1910.780984631662
 21
248.4929555435655
 31
0.0
  0
HATCH
  5
2C12
330
1F
100
AcDbEntity
  8
PROFILY
100
AcDbHatch
 10
0.0
 20
0.0
 30
0.0
210
0.0
220
0.0
230
1.0
  2
SOLID
 70
     1
 71
     0
 91
        2
 92
        7
 72
     1
 73
     1
 93
       18
 10
-1910.780984631662
 20
270.2237456939519
 42
0.0
 10
-1910.780984631662
 20
248.492955543566
 42
0.0
 10
-1917.173014971961
 20
254.955260577014
 42
0.0
 10
-1918.905984631662
 20
253.2411361916351
 42
0.0
 10
-1909.733641184896
 20
243.9679509799134
 42
0.6701573805495633
 10
-1908.343484631662
 20
244.5393257750392
 42
0.0
 10
-1908.343484631662
 20
272.6039594514918
 42
0.0
 10
-2224.54589135743
 20
277.3995958110654
 42
-0.1548638422138271
 10
-2224.317165782295
 20
276.6788333334666
 42
-1.0
 10
-2226.817165782295
 20
276.6788333334666
 42
-0.1626375651849663
 10
-2226.566112847558
 20
277.4302351971878
 42
0.0
 10
-2227.235664241262
 20
277.4403898479431
 42
0.0
 10
-2227.235664241262
 20
249.4916344093635
 42
0.6701573805506788
 10
-2225.845507688028
 20
248.9202596142349
 42
0.0
 10
-2216.673164241262
 20
258.1934448259571
 42
0.0
 10
-2218.406133900963
 20
259.9075692113355
 42
0.0
 10
-2224.798164241262
 20
253.4452641778871
 42
0.0
 10
-2224.798164241262
 20
275.2586977576943
 42
0.0
 97
        0
 92
       23
 72
     0
 73
     1
 93
        8
 10
-1915.775198036145
 20
265.4053129202448
 10
-1915.020001732459
 20
254.9344132828136
 10
-1912.588816771577
 20
255.1097584737344
 10
-1913.502591232983
 20
267.7793658724326
 10
-2222.096180257572
 20
272.4596042399443
 10
-2222.990332101347
 20
260.062067108056
 10
-2220.559147140465
 20
259.8867219171352
 10
-2219.809534733812
 20
270.2802000614765
 97
        0
 75
     0
 76
     1
 47
0.4153941033642652
 98
        2
 10
-2062.227227519719
 20
273.6586687533645
 10
-2063.058524398015
 20
268.6739337195149
  0
CIRCLE
  5
2C13
330
1F
100
AcDbEntity
  8
NOSNÉ KONSTRUKCE
100
AcDbCircle
 10
-2171.350193847257
 20
205.0854339570828
 30
0.0
 40
5.0
  0
CIRCLE
  5
2C14
330
1F
100
AcDbEntity
  8
NOSNÉ KONSTRUKCE
100
AcDbCircle
 10
-2171.350193847257
 20
239.6320314944964
 30
0.0
 40
5.0
  0
CIRCLE
  5
2C15
330
1F
100
AcDbEntity
  8
NOSNÉ KONSTRUKCE
100
AcDbCircle
 10
-2171.350193847257
 20
-172.9646862904378
 30
0.0
 40
5.0
  0
CIRCLE
  5
2C16
330
1F
100
AcDbEntity
  8
NOSNÉ KONSTRUKCE
100
AcDbCircle
 10
-2171.350193847257
 20
52.5951537301421
 30
0.0
 40
5.0
  0
CIRCLE
  5
2C17
330
1F
100
AcDbEntity
  8
NOSNÉ KONSTRUKCE
100
AcDbCircle
 10
-2171.350193847257
 20
96.66440506291792
 30
0.0
 40
5.0
  0
LINE
  5
2C18
330
1F
100
AcDbEntity
  8
STAVBA OBRYS
100
AcDbLine
 10
-1928.628105523951
 20
-135.9997384081716
 30
0.0
 11
-1713.776764407756
 21
-135.9997384081716
 31
0.0
  0
LINE
  5
2C19
330
1F
100
AcDbEntity
  8
STAVBA OBRYS
100
AcDbLine
 10
-1926.613945400694
 20
76.05938636560404
 30
0.0
 11
-1658.016185252031
 21
76.05938636560404
 31
0.0
  0
LINE
  5
2C1A
330
1F
100
AcDbEntity
  8
STAVBA OBRYS
100
AcDbLine
 10
-1926.613945400696
 20
73.95542700921669
 30
0.0
 11
-1926.613945400694
 21
258.0702798561019
 31
0.0
  0
LINE
  5
2C1B
330
1F
100
AcDbEntity
  8
STAVBA OBRYS
100
AcDbLine
 10
-2058.38629197144
 20
258.0702798561019
 30
0.0
 11
-1926.613945400694
 21
258.0702798561019
 31
0.0
  0
LINE
  5
2C1C
330
1F
100
AcDbEntity
  8
STAVBA OBRYS
100
AcDbLine
 10
-1928.628105523951
 20
-135.9997384081716
 30
0.0
 11
-1984.132724136848
 21
-135.9997384081716
 31
0.0
  0
LINE
  5
2C1D
330
1F
100
AcDbEntity
  8
STAVBA OBRYS
100
AcDbLine
 10
-1984.132724136848
 20
-135.9997384081716
 30
0.0
 11
-1984.132724136848
 21
-30.1592187627275
 31
0.0
  0
LINE
  5
2C1E
330
1F
100
AcDbEntity
  8
STAVBA OBRYS
100
AcDbLine
 10
-1984.132724136848
 20
-30.1592187627275
 30
0.0
 11
-1686.682651680547
 21
-30.1592187627275
 31
0.0
  0
LINE
  5
2C1F
330
1F
100
AcDbEntity
  8
STAVBA OBRYS
100
AcDbLine
 10
-1928.628105523951
 20
44.0951654844107
 30
0.0
 11
-1667.674273187879
 21
44.09516548441115
 31
0.0
  0
LINE
  5
2C20
330
1F
100
AcDbEntity
  8
STAVBA OBRYS
100
AcDbLine
 10
-1928.628105523951
 20
255.9663204997145
 30
0.0
 11
-1928.628105523951
 21
14.2349039596047
 31
0.0
  0
LINE
  5
2C21
330
1F
100
AcDbEntity
  8
STAVBA OBRYS
  6
IZOLACE
 48
1.399999999999999
100
AcDbLine
 10
-1928.628105523951
 20
59.02529624681392
 30
0.0
 11
-1663.852309281584
 21
59.02529624681347
 31
0.0
  0
LINE
  5
2C22
330
1F
100
AcDbEntity
  8
STAVBA OBRYS
  6
IZOLACE
 48
1.399999999999999
100
AcDbLine
 10
-1928.628105523951
 20
29.16503472200838
 30
0.0
 11
-1671.496237094176
 21
29.16503472200747
 31
0.0
  0
LINE
  5
2C23
330
1F
100
AcDbEntity
  8
STAVBA OBRYS
100
AcDbLine
 10
-1928.628105523951
 20
14.2349039596047
 30
0.0
 11
-1675.318201000472
 21
14.23490395960561
 31
0.0
  0
LINE
  5
2C24
330
1F
100
AcDbEntity
  8
STAVBA OBRYS
100
AcDbLine
 10
-1928.628105523951
 20
14.2349039596047
 30
0.0
 11
-1928.628105523951
 21
-30.1592187627275
 31
0.0
  0
HATCH
  5
2C25
330
1F
100
AcDbEntity
  8
STAVBA OBRYS
100
AcDbHatch
 10
0.0
 20
0.0
 30
0.0
210
0.0
220
0.0
230
1.0
  2
AR-CONC
 70
     0
 71
     0
 91
        1
 92
        7
 72
     0
 73
     1
 93
        5
 10
-1686.682651680547
 20
-30.15921876272705
 10
-1984.132724136848
 20
-30.1592187627275
 10
-1984.132724136848
 20
-135.9997384081716
 10
-1928.628105523951
 20
-135.9997384081716
 10
-1713.776764407756
 20
-135.9997384081711
 97
        0
 75
     0
 76
     1
 52
0.0
 41
0.35
 77
     0
 78
    13
 53
50.0
 43
-3079.183948160548
 44
-1679.667084086452
 45
63.7646341486014
 46
-5.57867993861608
 79
     2
 49
6.667499999999999
 49
-73.3425
 53
355.0
 43
-3079.183948160548
 44
-1679.667084086452
 45
-12.33498909148344
 46
66.86982500876299
 79
     2
 49
5.333999999999999
 49
-58.67399999999999
 53
100.451
 43
-3073.870248160547
 44
-1680.131971586453
 45
51.42987558308573
 46
61.29084073710215
 79
     2
 49
5.6665
 49
-62.3315
 53
46.1842
 43
-3079.183948160548
 44
-1661.887084086452
 45
94.87766431224546
 46
-14.7148147764545
 79
     2
 49
10.00124999999999
 49
-110.0137499999999
 53
96.63559999999998
 43
-3071.277483160548
 44
-1663.113309086452
 45
83.09148206318299
 46
86.59894456151723
 79
     2
 49
8.499749999999979
 49
-93.49724999999983
 53
351.184
 43
-3079.183948160548
 44
-1661.887084086452
 45
83.09161203487688
 46
86.59879125120918
 79
     2
 49
8.000999999999999
 49
-88.01099999999999
 53
21.0
 43
-3070.293948160549
 44
-1666.332084086452
 45
53.06520794238414
 46
-35.79293148086687
 79
     2
 49
6.667499999999999
 49
-73.3425
 53
326.0
 43
-3070.293948160549
 44
-1666.332084086452
 45
21.63070992167647
 46
64.46578814281174
 79
     2
 49
5.333999999999999
 49
-58.67399999999999
 53
71.45140000000001
 43
-3065.871873160548
 44
-1669.314819086453
 45
74.69577176954356
 46
28.6730002006201
 79
     2
 49
5.6665
 49
-62.3315
 53
37.5
 43
-3079.183948160548
 44
-1679.667084086452
 45
1.081011137707135
 46
29.59426360560359
 79
     6
 49
0.0
 49
-57.96279999999999
 49
0.0
 49
-59.56299999999999
 49
0.0
 49
-58.89624999999999
 53
7.499999999999999
 43
-3079.183948160548
 44
-1679.667084086452
 45
23.38688187860701
 46
35.06320118634183
 79
     6
 49
0.0
 49
-33.95979999999999
 49
0.0
 49
-56.62929999999999
 49
0.0
 49
-22.44725
 53
327.4999999999999
 43
-3099.008648160549
 44
-1679.667084086452
 45
47.45670830840498
 46
-2.005060397435712
 79
     6
 49
0.0
 49
-22.22499999999999
 49
0.0
 49
-69.342
 49
0.0
 49
-92.01149999999998
 53
317.5
 43
-3107.898648160549
 44
-1679.667084086452
 45
51.84521348510632
 46
8.899271861666553
 79
     6
 49
0.0
 49
-28.8925
 49
0.0
 49
-46.05019999999999
 49
0.0
 49
-65.3415
 47
1.943322863705773
 98
        1
 10
-1869.545977272507
 20
-72.5444503132594
  0
HATCH
  5
2C26
330
1F
100
AcDbEntity
  8
STAVBA OBRYS
100
AcDbHatch
 10
0.0
 20
0.0
 30
0.0
210
0.0
220
0.0
230
1.0
  2
AR-SAND
 70
     0
 71
     0
 91
        1
 92
        7
 72
     0
 73
     1
 93
        4
 10
-1675.318201000472
 20
14.23490395960561
 10
-1928.628105523951
 20
14.2349039596047
 10
-1928.628105523951
 20
-30.1592187627275
 10
-1686.682651680547
 20
-30.1592187627275
 97
        0
 75
     0
 76
     1
 52
0.0
 41
0.35
 77
     0
 78
     4
 53
37.5
 43
-3079.183948160548
 44
-1679.667084086452
 45
-0.560010953594416
 46
17.12946330652698
 79
     6
 49
0.0
 49
-13.5128
 49
0.0
 49
-15.113
 49
0.0
 49
-14.44625
 53
7.499999999999999
 43
-3079.183948160548
 44
-1679.667084086452
 45
15.73331490983009
 46
25.08887851989239
 79
     6
 49
0.0
 49
-7.2898
 49
0.0
 49
-12.17929999999999
 49
0.0
 49
-4.66725
 53
327.4999999999999
 43
-3090.118648160548
 44
-1679.667084086452
 45
27.68473295845102
 46
0.0503014637490992
 79
     6
 49
0.0
 49
-4.444999999999999
 49
0.0
 49
-16.002
 49
0.0
 49
-20.89149999999999
 53
317.5
 43
-3090.118648160548
 44
-1679.667084086452
 45
26.7244758365304
 46
7.802526314002567
 79
     6
 49
0.0
 49
-2.222499999999999
 49
0.0
 49
-10.49019999999999
 49
0.0
 49
-12.00149999999999
 47
0.9960938612785552
 98
        1
 10
-1756.904055830043
 20
-8.30343274435927
  0
LINE
  5
2C27
330
1F
100
AcDbEntity
  8
NOSNÉ KONSTRUKCE
100
AcDbLine
 10
-2160.886291971447
 20
135.2593935500463
 30
0.0
 11
-2160.886291971445
 21
186.0461208891165
 31
0.0
  0
LINE
  5
2C28
330
1F
100
AcDbEntity
  8
NOSNÉ KONSTRUKCE
100
AcDbLine
 10
-2160.886291971445
 20
146.0461208891147
 30
0.0
 11
-2160.886291971445
 21
186.0461208891165
 31
0.0
  0
LINE
  5
2C29
330
1F
100
AcDbEntity
  8
NOSNÉ KONSTRUKCE
100
AcDbLine
 10
-2160.886291971447
 20
135.2593935500463
 30
0.0
 11
-2058.386291971436
 21
135.2593935500399
 31
0.0
  0
LINE
  5
2C2A
330
1F
100
AcDbEntity
  8
NOSNÉ KONSTRUKCE
100
AcDbLine
 10
-2160.886291971445
 20
186.0461208891165
 30
0.0
 11
-2058.386291971438
 21
186.046120889111
 31
0.0
  0
LINE
  5
2C2B
330
1F
100
AcDbEntity
  8
SPOJOVACÍ
100
AcDbLine
 10
-2067.610105167522
 20
160.6527572195777
 30
0.0
 11
-2067.610105167522
 21
174.7152572195777
 31
0.0
  0
LINE
  5
2C2C
330
1F
100
AcDbEntity
  8
SPOJOVACÍ
100
AcDbLine
 10
-2064.752213672417
 20
174.7152572195777
 30
0.0
 11
-2064.752213672417
 21
160.6527572195777
 31
0.0
  0
LINE
  5
2C2D
330
1F
100
AcDbEntity
  8
SPOJOVACÍ
100
AcDbLine
 10
-2064.752213672417
 20
174.7152572195777
 30
0.0
 11
-2064.752213672417
 21
160.6527572195777
 31
0.0
  0
LINE
  5
2C2E
330
1F
100
AcDbEntity
  8
SPOJOVACÍ
100
AcDbLine
 10
-2067.619480167521
 20
170.9652572195777
 30
0.0
 11
-2067.619480167521
 21
150.3402572195777
 31
0.0
  0
ARC
  5
2C2F
330
1F
100
AcDbEntity
  8
SPOJOVACÍ
100
AcDbCircle
 10
-2072.297605167522
 20
169.0902572195777
 30
0.0
 40
1.875
100
AcDbArc
 50
90.0
 51
180.0
  0
LINE
  5
2C30
330
1F
100
AcDbEntity
  8
NOSNÉ KONSTRUKCE
100
AcDbLine
 10
-2061.38629197144
 20
135.2593935500399
 30
0.0
 11
-2061.386291971436
 21
186.0461208891147
 31
0.0
  0
LINE
  5
2C31
330
1F
100
AcDbEntity
  8
NOSNÉ KONSTRUKCE
100
AcDbLine
 10
-2064.386291971438
 20
140.6666909448695
 30
0.0
 11
-2064.386291971436
 21
180.6973954364421
 31
0.0
  0
LINE
  5
2C32
330
1F
100
AcDbEntity
  8
SPOJOVACÍ
100
AcDbLine
 10
-1996.792597262077
 20
159.1306793346975
 30
0.0
 11
-1995.958537208801
 21
162.2434338300891
 31
0.0
  0
LINE
  5
2C33
330
1F
100
AcDbEntity
  8
SPOJOVACÍ
  6
DASHDOT2
100
AcDbLine
 10
-2077.112815140851
 20
160.6527572195777
 30
0.0
 11
-1962.192705396944
 21
160.6527572195768
 31
0.0
  0
LINE
  5
2C34
330
1F
100
AcDbEntity
  8
SPOJOVACÍ
  6
DASHED
100
AcDbLine
 10
-1980.840618728742
 20
167.2152572195768
 30
0.0
 11
-2061.939713672417
 21
167.2152572195777
 31
0.0
  0
LINE
  5
2C35
330
1F
100
AcDbEntity
  8
SPOJOVACÍ
  6
DASHED
100
AcDbLine
 10
-1980.840618728742
 20
154.0902572195768
 30
0.0
 11
-2061.939713672417
 21
154.0902572195777
 31
0.0
  0
LINE
  5
2C36
330
1F
100
AcDbEntity
  8
SPOJOVACÍ
100
AcDbLine
 10
-2064.752213672417
 20
160.6527572195777
 30
0.0
 11
-2064.752213672417
 21
146.5902572195777
 31
0.0
  0
LINE
  5
2C37
330
1F
100
AcDbEntity
  8
SPOJOVACÍ
100
AcDbLine
 10
-2067.610105167522
 20
168.2299783100747
 30
0.0
 11
-2067.610105167522
 21
146.5902572195777
 31
0.0
  0
LINE
  5
2C38
330
1F
100
AcDbEntity
  8
SPOJOVACÍ
100
AcDbLine
 10
-2064.752213672417
 20
160.6527572195777
 30
0.0
 11
-2064.752213672417
 21
146.5902572195777
 31
0.0
  0
ARC
  5
2C39
330
1F
100
AcDbEntity
  8
SPOJOVACÍ
100
AcDbCircle
 10
-2067.50803447278
 20
160.6527572195777
 30
0.0
 40
6.701689614562111
100
AcDbArc
 50
135.6170676673749
 51
224.382932332625
  0
LINE
  5
2C3A
330
1F
100
AcDbEntity
  8
SPOJOVACÍ
100
AcDbLine
 10
-2074.172605167522
 20
169.0902572195777
 30
0.0
 11
-2074.172605167522
 21
152.2152572195777
 31
0.0
  0
ARC
  5
2C3B
330
1F
100
AcDbEntity
  8
SPOJOVACÍ
100
AcDbCircle
 10
-2072.297605167522
 20
167.2152572195777
 30
0.0
 40
1.875
100
AcDbArc
 50
180.0
 51
270.0
  0
LINE
  5
2C3C
330
1F
100
AcDbEntity
  8
SPOJOVACÍ
100
AcDbLine
 10
-2067.610105167522
 20
165.3402572195777
 30
0.0
 11
-2072.297605167522
 21
165.3402572195777
 31
0.0
  0
ARC
  5
2C3D
330
1F
100
AcDbEntity
  8
SPOJOVACÍ
100
AcDbCircle
 10
-2072.297605167522
 20
152.2152572195777
 30
0.0
 40
1.875
100
AcDbArc
 50
180.0
 51
270.0
  0
ARC
  5
2C3E
330
1F
100
AcDbEntity
  8
SPOJOVACÍ
100
AcDbCircle
 10
-2072.297605167522
 20
154.0902572195777
 30
0.0
 40
1.875
100
AcDbArc
 50
90.0
 51
180.0
  0
LINE
  5
2C3F
330
1F
100
AcDbEntity
  8
SPOJOVACÍ
100
AcDbLine
 10
-2067.610105167522
 20
155.9652572195777
 30
0.0
 11
-2072.297605167522
 21
155.9652572195777
 31
0.0
  0
LINE
  5
2C40
330
1F
100
AcDbEntity
  8
SPOJOVACÍ
100
AcDbLine
 10
-2072.297605167522
 20
150.3402572195777
 30
0.0
 11
-2067.610105167522
 21
150.3402572195777
 31
0.0
  0
LINE
  5
2C41
330
1F
100
AcDbEntity
  8
SPOJOVACÍ
100
AcDbLine
 10
-2067.610105167522
 20
146.5902572195777
 30
0.0
 11
-2064.752213672417
 21
146.5902572195777
 31
0.0
  0
LINE
  5
2C42
330
1F
100
AcDbEntity
  8
SPOJOVACÍ
100
AcDbLine
 10
-2060.26547598592
 20
160.1649100171662
 30
0.0
 11
-2060.020945450062
 21
161.0775104009903
 31
0.0
  0
LINE
  5
2C43
330
1F
100
AcDbEntity
  8
SPOJOVACÍ
100
AcDbLine
 10
-2062.087202154379
 20
160.3637306631958
 30
0.0
 11
-2061.931236191437
 21
160.9458035611414
 31
0.0
  0
LINE
  5
2C44
330
1F
100
AcDbEntity
  8
SPOJOVACÍ
100
AcDbLine
 10
-2011.979093439619
 20
158.4346661246881
 30
0.0
 11
-2010.881660505881
 21
162.5303415913035
 31
0.0
  0
LINE
  5
2C45
330
1F
100
AcDbEntity
  8
SPOJOVACÍ
100
AcDbLine
 10
-1998.69335117327
 20
159.0345644296276
 30
0.0
 11
-1997.797360652822
 21
162.3784465750468
 31
0.0
  0
LINE
  5
2C46
330
1F
100
AcDbEntity
  8
SPOJOVACÍ
100
AcDbLine
 10
-2000.532635084545
 20
159.1678586874059
 30
0.0
 11
-1999.638719413785
 21
162.5039973883622
 31
0.0
  0
LINE
  5
2C47
330
1F
100
AcDbEntity
  8
SPOJOVACÍ
100
AcDbLine
 10
-2008.218401117493
 20
158.4745704141209
 30
0.0
 11
-2007.029667291163
 21
162.910985450655
 31
0.0
  0
LINE
  5
2C48
330
1F
100
AcDbEntity
  8
SPOJOVACÍ
100
AcDbLine
 10
-2006.321083438005
 20
158.5578611278747
 30
0.0
 11
-2005.185003661022
 21
162.7977685770229
 31
0.0
  0
LINE
  5
2C49
330
1F
100
AcDbEntity
  8
SPOJOVACÍ
100
AcDbLine
 10
-2004.42099217268
 20
158.6515030048931
 30
0.0
 11
-2003.329074317181
 21
162.7265959193027
 31
0.0
  0
LINE
  5
2C4A
330
1F
100
AcDbEntity
  8
SPOJOVACÍ
100
AcDbLine
 10
-2002.518112901691
 20
158.7555498607007
 30
0.0
 11
-2001.482621287121
 21
162.6200571770841
 31
0.0
  0
LINE
  5
2C4B
330
1F
100
AcDbEntity
  8
SPOJOVACÍ
100
AcDbLine
 10
-2010.121879001743
 20
158.3682895032016
 30
0.0
 11
-2008.883824601461
 21
162.9887714275951
 31
0.0
  0
LINE
  5
2C4C
330
1F
100
AcDbEntity
  8
SPOJOVACÍ
100
AcDbLine
 10
-2030.410341254867
 20
159.6242654732041
 30
0.0
 11
-2029.91967786418
 21
161.4554461766651
 31
0.0
  0
LINE
  5
2C4D
330
1F
100
AcDbEntity
  8
SPOJOVACÍ
100
AcDbLine
 10
-2028.578622893415
 20
159.462736199116
 30
0.0
 11
-2028.012453062209
 21
161.5757107748841
 31
0.0
  0
LINE
  5
2C4E
330
1F
100
AcDbEntity
  8
SPOJOVACÍ
100
AcDbLine
 10
-2026.744389874035
 20
159.310591756162
 30
0.0
 11
-2026.10599189993
 21
161.6931254309824
 31
0.0
  0
LINE
  5
2C4F
330
1F
100
AcDbEntity
  8
SPOJOVACÍ
100
AcDbLine
 10
-2027.041953451668
 20
158.2000693659538
 30
0.0
 11
-2025.688785705778
 21
163.2501601447847
 31
0.0
  0
LINE
  5
2C50
330
1F
100
AcDbEntity
  8
SPOJOVACÍ
100
AcDbLine
 10
-2028.916953451668
 20
158.2000693659538
 30
0.0
 11
-2027.569256261643
 21
163.2297437523493
 31
0.0
  0
LINE
  5
2C51
330
1F
100
AcDbEntity
  8
SPOJOVACÍ
100
AcDbLine
 10
-2030.77464954196
 20
158.2646484361571
 30
0.0
 11
-2029.452419020416
 21
163.1992799218733
 31
0.0
  0
LINE
  5
2C52
330
1F
100
AcDbEntity
  8
SPOJOVACÍ
100
AcDbLine
 10
-2032.666953451668
 20
158.2000693659538
 30
0.0
 11
-2031.338286278554
 21
163.1587227623735
 31
0.0
  0
LINE
  5
2C53
330
1F
100
AcDbEntity
  8
SPOJOVACÍ
100
AcDbLine
 10
-2034.496879001744
 20
158.3682895032016
 30
0.0
 11
-2033.226870658413
 21
163.1080251665503
 31
0.0
  0
LINE
  5
2C54
330
1F
100
AcDbEntity
  8
SPOJOVACÍ
100
AcDbLine
 10
-2025.171654665252
 20
158.1825241980036
 30
0.0
 11
-2023.810995376058
 21
163.2605737970661
 31
0.0
  0
LINE
  5
2C55
330
1F
100
AcDbEntity
  8
SPOJOVACÍ
100
AcDbLine
 10
-2023.298707736138
 20
158.1748620331482
 30
0.0
 11
-2021.935873609413
 21
163.2610282363803
 31
0.0
  0
LINE
  5
2C56
330
1F
100
AcDbEntity
  8
SPOJOVACÍ
100
AcDbLine
 10
-2021.42310155689
 20
158.1771243249004
 30
0.0
 11
-2020.063409050659
 21
163.251565840826
 31
0.0
  0
LINE
  5
2C57
330
1F
100
AcDbEntity
  8
SPOJOVACÍ
100
AcDbLine
 10
-2019.544824716763
 20
158.1893536587426
 30
0.0
 11
-2018.193590646932
 21
163.2322278602687
 31
0.0
  0
LINE
  5
2C58
330
1F
100
AcDbEntity
  8
SPOJOVACÍ
100
AcDbLine
 10
-2017.663865496078
 20
158.2115937731155
 30
0.0
 11
-2016.326407642285
 21
163.2030544364561
 31
0.0
  0
LINE
  5
2C59
330
1F
100
AcDbEntity
  8
SPOJOVACÍ
100
AcDbLine
 10
-2015.780211860389
 20
158.2438895811751
 30
0.0
 11
-2014.46184957248
 21
163.1640846224377
 31
0.0
  0
LINE
  5
2C5A
330
1F
100
AcDbEntity
  8
SPOJOVACÍ
100
AcDbLine
 10
-2013.833720300711
 20
158.5106997142074
 30
0.0
 11
-2012.599906259986
 21
163.1153564012765
 31
0.0
  0
LINE
  5
2C5B
330
1F
100
AcDbEntity
  8
SPOJOVACÍ
100
AcDbLine
 10
-2043.757165361842
 20
158.7964066356298
 30
0.0
 11
-2042.711014812227
 21
162.7006936391603
 31
0.0
  0
LINE
  5
2C5C
330
1F
100
AcDbEntity
  8
SPOJOVACÍ
100
AcDbLine
 10
-2036.354093439619
 20
158.4346661246881
 30
0.0
 11
-2035.118185114713
 21
163.0471387867355
 31
0.0
  0
LINE
  5
2C5D
330
1F
100
AcDbEntity
  8
SPOJOVACÍ
100
AcDbLine
 10
-2038.208720300711
 20
158.5106997142074
 30
0.0
 11
-2037.012242941214
 21
162.9760140099551
 31
0.0
  0
LINE
  5
2C5E
330
1F
100
AcDbEntity
  8
SPOJOVACÍ
100
AcDbLine
 10
-2040.060768710926
 20
158.596356213392
 30
0.0
 11
-2038.909057777632
 21
162.8945999320863
 31
0.0
  0
LINE
  5
2C5F
330
1F
100
AcDbEntity
  8
SPOJOVACÍ
100
AcDbLine
 10
-2041.910247531262
 20
158.6916025525715
 30
0.0
 11
-2040.808643616824
 21
162.8028443310709
 31
0.0
  0
LINE
  5
2C60
330
1F
100
AcDbEntity
  8
SPOJOVACÍ
100
AcDbLine
 10
-2049.282635084541
 20
159.1678586874059
 30
0.0
 11
-2048.434989642667
 21
162.3313145432875
 31
0.0
  0
LINE
  5
2C61
330
1F
100
AcDbEntity
  8
SPOJOVACÍ
100
AcDbLine
 10
-2045.601530545848
 20
158.9107373254023
 30
0.0
 11
-2044.616186085569
 21
162.5880929141267
 31
0.0
  0
LINE
  5
2C62
330
1F
100
AcDbEntity
  8
SPOJOVACÍ
100
AcDbLine
 10
-2047.44335117327
 20
159.0345644296276
 30
0.0
 11
-2046.524172534854
 21
162.4649858094289
 31
0.0
  0
LINE
  5
2C63
330
1F
100
AcDbEntity
  8
SPOJOVACÍ
100
AcDbLine
 10
-2051.119389874036
 20
159.310591756162
 30
0.0
 11
-2050.348653284755
 21
162.1870198666074
 31
0.0
  0
LINE
  5
2C64
330
1F
100
AcDbEntity
  8
SPOJOVACÍ
100
AcDbLine
 10
-2052.953622893415
 20
159.462736199116
 30
0.0
 11
-2052.265179738947
 21
162.0320410297113
 31
0.0
  0
LINE
  5
2C65
330
1F
100
AcDbEntity
  8
SPOJOVACÍ
100
AcDbLine
 10
-2054.785341254867
 20
159.6242654732041
 30
0.0
 11
-2054.184585694386
 21
161.8663157478545
 31
0.0
  0
LINE
  5
2C66
330
1F
100
AcDbEntity
  8
SPOJOVACÍ
100
AcDbLine
 10
-2056.614551834222
 20
159.795153917496
 30
0.0
 11
-2056.106888261127
 21
161.6897801654413
 31
0.0
  0
LINE
  5
2C67
330
1F
100
AcDbEntity
  8
SPOJOVACÍ
100
AcDbLine
 10
-2058.441261273928
 20
159.9753767420415
 30
0.0
 11
-2058.032104980087
 21
161.5023688189012
 31
0.0
  0
LINE
  5
2C68
330
1F
100
AcDbEntity
  8
SPOJOVACÍ
  6
DASHED
100
AcDbLine
 10
-1977.051757587186
 20
160.6527572195768
 30
0.0
 11
-1980.840618728742
 21
154.0902572195768
 31
0.0
  0
LINE
  5
2C69
330
1F
100
AcDbEntity
  8
SPOJOVACÍ
  6
DASHED
100
AcDbLine
 10
-1977.051757587186
 20
160.6527572195768
 30
0.0
 11
-1980.840618728742
 21
167.2152572195768
 31
0.0
  0
LINE
  5
2C6A
330
1F
100
AcDbEntity
  8
SPOJOVACÍ
  6
DASHED
100
AcDbLine
 10
-1986.426757587186
 20
160.6527572195764
 30
0.0
 11
-1989.674352851377
 21
155.0277572195764
 31
0.0
  0
LINE
  5
2C6B
330
1F
100
AcDbEntity
  8
SPOJOVACÍ
  6
DASHED
100
AcDbLine
 10
-1986.426757587186
 20
160.6527572195768
 30
0.0
 11
-1989.674352851377
 21
166.2777572195768
 31
0.0
  0
LINE
  5
2C6C
330
1F
100
AcDbEntity
  8
SPOJOVACÍ
100
AcDbLine
 10
-1987.19285428406
 20
159.9694315472975
 30
0.0
 11
-1986.802193900489
 21
161.4273959472893
 31
0.0
  0
LINE
  5
2C6D
330
1F
100
AcDbEntity
  8
SPOJOVACÍ
100
AcDbLine
 10
-1981.39792134362
 20
160.6036299149
 30
0.0
 11
-1981.338365127524
 21
160.8258967392821
 31
0.0
  0
LINE
  5
2C6E
330
1F
100
AcDbEntity
  8
SPOJOVACÍ
100
AcDbLine
 10
-1983.332532281855
 20
160.3811588647158
 30
0.0
 11
-1983.157157887545
 21
161.0356650146318
 31
0.0
  0
LINE
  5
2C6F
330
1F
100
AcDbEntity
  8
SPOJOVACÍ
100
AcDbLine
 10
-1985.264170267873
 20
160.1697830232683
 30
0.0
 11
-1984.978432172399
 21
161.2361721132269
 31
0.0
  0
LINE
  5
2C70
330
1F
100
AcDbEntity
  8
SPOJOVACÍ
100
AcDbLine
 10
-1989.11860284775
 20
159.7800353292022
 30
0.0
 11
-1988.628449214863
 21
161.6093135906458
 31
0.0
  0
LINE
  5
2C71
330
1F
100
AcDbEntity
  8
SPOJOVACÍ
100
AcDbLine
 10
-1991.041434022388
 20
159.6015269552649
 30
0.0
 11
-1990.457204485842
 21
161.7819012689419
 31
0.0
  0
LINE
  5
2C72
330
1F
100
AcDbEntity
  8
SPOJOVACÍ
100
AcDbLine
 10
-1992.961365428334
 20
159.4338406654187
 30
0.0
 11
-1992.288466313742
 21
161.945134349447
 31
0.0
  0
LINE
  5
2C73
330
1F
100
AcDbEntity
  8
SPOJOVACÍ
100
AcDbLine
 10
-1994.878414253241
 20
159.2769123144626
 30
0.0
 11
-1994.112761309195
 21
162.1343680026106
 31
0.0
  0
LINE
  5
2C74
330
1F
100
AcDbEntity
  8
SPOJOVACÍ
100
AcDbLine
 10
-2064.752213672417
 20
174.7152572195777
 30
0.0
 11
-2067.610105167522
 21
174.7152572195777
 31
0.0
  0
LINE
  5
2C75
330
1F
100
AcDbEntity
  8
SPOJOVACÍ
100
AcDbLine
 10
-2067.610105167522
 20
170.9652572195777
 30
0.0
 11
-2067.619480167521
 21
170.9652572195777
 31
0.0
  0
LINE
  5
2C76
330
1F
100
AcDbEntity
  8
SPOJOVACÍ
100
AcDbLine
 10
-2067.610105167522
 20
170.9652572195777
 30
0.0
 11
-2072.297605167522
 21
170.9652572195777
 31
0.0
  0
TEXT
  5
2C77
330
1F
100
AcDbEntity
  8
POPIS
100
AcDbText
 10
-2405.602432464747
 20
268.3070969991149
 30
0.0
 40
25.0
  1
07
 41
0.7
  7
SIMPLEX7
100
AcDbText
  0
LINE
  5
2C78
330
1F
100
AcDbEntity
  8
POPIS
100
AcDbLine
 10
-2364.222822426751
 20
281.7504384484855
 30
0.0
 11
-2226.692339711496
 21
281.750438448485
 31
0.0
  0
LINE
  5
2C79
330
1F
100
AcDbEntity
  8
NOSNÉ KONSTRUKCE
100
AcDbLine
 10
-2192.180475652051
 20
-215.7653555060669
 30
0.0
 11
-2192.180475652051
 21
-196.2923051060729
 31
0.0
  0
LINE
  5
2C7A
330
1F
100
AcDbEntity
  8
STAVBA OBRYS
100
AcDbLine
 10
-1928.628105523951
 20
-233.8319499796507
 30
0.0
 11
-1821.793421396788
 21
-233.8319499796507
 31
0.0
  0
LINE
  5
2C7B
330
1F
100
AcDbEntity
  8
STAVBA OBRYS
100
AcDbLine
 10
-1821.793421396788
 20
-233.8319499796507
 30
0.0
 11
-1821.619088180115
 21
-135.9997384081716
 31
0.0
  0
LINE
  5
2C7C
330
1F
100
AcDbEntity
  8
NOSNÉ KONSTRUKCE
100
AcDbLine
 10
-2197.386291971434
 20
255.3154707948788
 30
0.0
 11
-2192.18047565206
 21
255.3154707948788
 31
0.0
  0
HATCH
  5
2C7D
330
1F
100
AcDbEntity
  8
STAVBA OBRYS
100
AcDbHatch
 10
0.0
 20
0.0
 30
0.0
210
0.0
220
0.0
230
1.0
  2
BRICK
 70
     0
 71
     0
 91
        2
 92
        7
 72
     0
 73
     1
 93
       14
 10
-1984.132724136848
 20
-30.1592187627275
 10
-1928.628105523951
 20
-30.1592187627275
 10
-1928.628105523951
 20
14.2349039596047
 10
-1928.628105523951
 20
73.95542700921669
 10
-1928.628105523951
 20
229.0777139267202
 10
-2058.386291971436
 20
229.0777139267202
 10
-2058.386291971436
 20
167.2152572195777
 10
-1980.840618728742
 20
167.2152572195773
 10
-1977.051757587186
 20
160.6527572195768
 10
-1980.840618728742
 20
154.0902572195768
 10
-2058.386291971436
 20
154.0902572195773
 10
-2058.386291971435
 20
-18.11716778669415
 10
-2058.386291971433
 20
-107.8723017056909
 10
-1984.132724136848
 20
-107.8723017056913
 97
        0
 92
        7
 72
     0
 73
     1
 93
        8
 10
-1928.628105523951
 20
-233.8319499796507
 10
-1821.793421396788
 20
-233.8319499796507
 10
-1821.619088180115
 20
-135.9997384081716
 10
-1928.628105523951
 20
-135.9997384081716
 10
-1984.132724136848
 20
-135.9997384081716
 10
-1984.132724136848
 20
-120.9973017056909
 10
-2058.386291971433
 20
-120.9973017056909
 10
-2058.386291971431
 20
-233.8319499796507
 97
        0
 75
     0
 76
     1
 52
0.0
 41
10.0
 77
     0
 78
     3
 53
0.0
 43
-3079.183948160548
 44
-1445.849879380718
 45
0.0
 46
63.5
 79
     0
 53
90.0
 43
-3079.183948160548
 44
-1445.849879380718
 45
-127.0
 46
0.0000000000000078
 79
     2
 49
63.5
 49
-63.5
 53
90.0
 43
-3015.683948160548
 44
-1445.849879380718
 45
-127.0
 46
0.0000000000000078
 79
     2
 49
-63.5
 49
63.5
 47
4.017849295243367
 98
        2
 10
-1996.142708995484
 20
6.428193042892416
 10
-1968.000735157485
 20
-190.4464291830872
  0
LINE
  5
2C7E
330
1F
100
AcDbEntity
  8
POPIS
100
AcDbLine
 10
-2364.222822426751
 20
-200.8421626477984
 30
0.0
 11
-2218.101656963896
 21
-200.8421626477984
 31
0.0
  0
LINE
  5
2C7F
330
1F
100
AcDbEntity
  8
POPIS
100
AcDbLine
 10
-2364.222822426751
 20
170.8737515167449
 30
0.0
 11
-2114.915387336125
 21
170.8737515167444
 31
0.0
  0
LINE
  5
2C80
330
1F
100
AcDbEntity
  8
POPIS
100
AcDbLine
 10
-2364.222822426751
 20
-6.727923324468065
 30
0.0
 11
-2174.913120036594
 21
-6.72792332446852
 31
0.0
  0
LINE
  5
2C81
330
1F
100
AcDbEntity
  8
POPIS
100
AcDbLine
 10
-2364.222822426751
 20
117.0297409548948
 30
0.0
 11
-2076.95072483635
 21
117.0297409548943
 31
0.0
  0
TEXT
  5
2C82
330
1F
100
AcDbEntity
  8
POPIS
100
AcDbText
 10
-2404.20030877002
 20
-20.17126477383862
 30
0.0
 40
25.0
  1
06
 41
0.7
  7
SIMPLEX7
100
AcDbText
  0
TEXT
  5
2C83
330
1F
100
AcDbEntity
  8
POPIS
100
AcDbText
 10
-2405.602432464747
 20
157.4304100673753
 30
0.0
 40
25.0
  1
05
 41
0.7
  7
SIMPLEX7
100
AcDbText
  0
TEXT
  5
2C84
330
1F
100
AcDbEntity
  8
POPIS
100
AcDbText
 10
-2405.602432464747
 20
106.3294099426484
 30
0.0
 40
25.0
  1
04
 41
0.7
  7
SIMPLEX7
100
AcDbText
  0
TEXT
  5
2C85
330
1F
100
AcDbEntity
  8
POPIS
100
AcDbText
 10
-2404.758257721302
 20
-214.2855040971685
 30
0.0
 40
25.0
  1
02
 41
0.7
  7
SIMPLEX7
100
AcDbText
  0
LINE
  5
2C86
330
1F
100
AcDbEntity
  8
POPIS
100
AcDbLine
 10
-2364.222822426751
 20
-159.6107291653433
 30
0.0
 11
-2201.386291971429
 21
-159.6107291653443
 31
0.0
  0
TEXT
  5
2C87
330
1F
100
AcDbEntity
  8
POPIS
100
AcDbText
 10
-2404.60731984638
 20
-173.0540706147139
 30
0.0
 40
25.0
  1
01
 41
0.7
  7
SIMPLEX7
100
AcDbText
  0
INSERT
  5
2C88
330
1F
100
AcDbEntity
  8
POPIS
100
AcDbBlockReference
  2
E_PUNKT
 10
-2174.94073041222
 20
-6.391930838506596
 30
0.0
  0
INSERT
  5
2C8A
330
1F
100
AcDbEntity
  8
POPIS
100
AcDbBlockReference
  2
E_PUNKT
 10
-2113.709247520008
 20
171.0455823256761
 30
0.0
  0
LINE
  5
2C8B
330
1F
100
AcDbEntity
  8
POPIS
100
AcDbLine
 10
-2009.502851801601
 20
156.6607271770208
 30
0.0
 11
-2076.95072483635
 21
117.0297409548943
 31
0.0
  0
INSERT
  5
2C8C
330
1F
100
AcDbEntity
  8
POPIS
100
AcDbBlockReference
  2
E_PUNKT
 10
-2218.149778018402
 20
-200.871230978671
 30
0.0
  0
INSERT
  5
2C8D
330
1F
100
AcDbEntity
  8
POPIS
100
AcDbBlockReference
  2
E_PUNKT
 10
-2009.302138828411
 20
156.3887503870496
 30
0.0
  0
LINE
  5
2C8E
330
1F
100
AcDbEntity
  8
NOSNÉ KONSTRUKCE
100
AcDbLine
 10
-2147.386291971425
 20
-109.244394430897
 30
0.0
 11
-2147.386291971422
 21
-228.7480523393296
 31
0.0
  0
ARC
  5
2C8F
330
1F
100
AcDbEntity
  8
NOSNÉ KONSTRUKCE
100
AcDbCircle
 10
-2064.386291971444
 20
137.9630422474547
 30
0.0
 40
2.703648697414791
100
AcDbArc
 50
90.0
 51
270.0
  0
ARC
  5
2C90
330
1F
100
AcDbEntity
  8
NOSNÉ KONSTRUKCE
100
AcDbCircle
 10
-2064.386291971444
 20
183.4010441338564
 30
0.0
 40
2.703648697414791
100
AcDbArc
 50
90.0
 51
270.0
  0
LINE
  5
2C91
330
1F
100
AcDbEntity
  8
NOSNÉ KONSTRUKCE
100
AcDbLine
 10
-2147.386291971434
 20
180.6973954364457
 30
0.0
 11
-2064.386291971436
 21
180.6973954364421
 31
0.0
  0
LINE
  5
2C92
330
1F
100
AcDbEntity
  8
NOSNÉ KONSTRUKCE
100
AcDbLine
 10
-2147.386291971434
 20
140.6666909448658
 30
0.0
 11
-2064.386291971438
 21
140.6666909448695
 31
0.0
  0
LWPOLYLINE
  5
2C93
330
1F
100
AcDbEntity
  8
NOSNÉ KONSTRUKCE
100
AcDbPolyline
 90
        3
 70
     0
 43
0.0
 10
-2163.451863725854
 20
125.290086596748
 10
-2186.409233090059
 20
125.290086596748
 10
-2186.409233090059
 20
158.4523792514705
  0
ARC
  5
2C94
330
1F
100
AcDbEntity
  8
NOSNÉ KONSTRUKCE
100
AcDbCircle
 10
-2173.594360504713
 20
131.614866774179
 30
0.0
 40
1.3125
100
AcDbArc
 50
180.0
 51
0.0
  0
LINE
  5
2C95
330
1F
100
AcDbEntity
  8
NOSNÉ KONSTRUKCE
100
AcDbLine
 10
-2174.906860504713
 20
131.614866774179
 30
0.0
 11
-2174.906860504713
 21
131.6366793942056
 31
0.0
  0
LINE
  5
2C96
330
1F
100
AcDbEntity
  8
NOSNÉ KONSTRUKCE
100
AcDbLine
 10
-2172.281860504713
 20
131.6366793942083
 30
0.0
 11
-2172.281860504713
 21
131.614866774179
 31
0.0
  0
CIRCLE
  5
2C97
330
1F
100
AcDbEntity
  8
NOSNÉ KONSTRUKCE
100
AcDbCircle
 10
-2173.594360504714
 20
134.3343346260703
 30
0.0
 40
3.0
  0
LINE
  5
2C98
330
1F
100
AcDbEntity
  8
NOSNÉ KONSTRUKCE
100
AcDbLine
 10
-2173.594360504714
 20
138.4593346260703
 30
0.0
 11
-2173.594360504713
 21
130.2093346260703
 31
0.0
  0
LINE
  5
2C99
330
1F
100
AcDbEntity
  8
NOSNÉ KONSTRUKCE
100
AcDbLine
 10
-2163.451863725854
 20
125.290086596748
 30
0.0
 11
-2160.886291971454
 21
132.8845483264667
 31
0.0
  0
LWPOLYLINE
  5
2C9A
330
1F
100
AcDbEntity
  8
NOSNÉ KONSTRUKCE
100
AcDbPolyline
 90
        3
 70
     0
 43
0.0
 10
-2186.409233090059
 20
162.8531351876922
 10
-2186.409233090059
 20
196.0154278424147
 10
-2163.451863725854
 20
196.0154278424147
  0
LINE
  5
2C9B
330
1F
100
AcDbEntity
  8
NOSNÉ KONSTRUKCE
100
AcDbLine
 10
-2177.30768329272
 20
162.8531351876922
 30
0.0
 11
-2173.712752220409
 21
165.8431644943711
 31
0.0
  0
LINE
  5
2C9C
330
1F
100
AcDbEntity
  8
NOSNÉ KONSTRUKCE
100
AcDbLine
 10
-2173.712752220409
 20
155.4623499447916
 30
0.0
 11
-2131.006019172985
 21
155.4623499447916
 31
0.0
  0
LINE
  5
2C9D
330
1F
100
AcDbEntity
  8
NOSNÉ KONSTRUKCE
100
AcDbLine
 10
-2186.409233090059
 20
158.4523792514705
 30
0.0
 11
-2177.30768329272
 21
158.4523792514705
 31
0.0
  0
LINE
  5
2C9E
330
1F
100
AcDbEntity
  8
NOSNÉ KONSTRUKCE
100
AcDbLine
 10
-2177.30768329272
 20
158.4523792514705
 30
0.0
 11
-2173.712752220409
 21
155.4623499447916
 31
0.0
  0
LINE
  5
2C9F
330
1F
100
AcDbEntity
  8
NOSNÉ KONSTRUKCE
100
AcDbLine
 10
-2186.409233090059
 20
162.8531351876922
 30
0.0
 11
-2177.30768329272
 21
162.8531351876922
 31
0.0
  0
ARC
  5
2CA0
330
1F
100
AcDbEntity
  8
NOSNÉ KONSTRUKCE
100
AcDbCircle
 10
-2173.594360504711
 20
148.1652406377961
 30
0.0
 40
1.75
100
AcDbArc
 50
0.0
 51
180.0
  0
ARC
  5
2CA1
330
1F
100
AcDbEntity
  8
NOSNÉ KONSTRUKCE
100
AcDbCircle
 10
-2173.594360504711
 20
143.2769919321563
 30
0.0
 40
1.75
100
AcDbArc
 50
180.0
 51
0.0
  0
LINE
  5
2CA2
330
1F
100
AcDbEntity
  8
NOSNÉ KONSTRUKCE
100
AcDbLine
 10
-2175.344360504711
 20
143.2769919321563
 30
0.0
 11
-2175.344360504711
 21
148.1652406377961
 31
0.0
  0
LINE
  5
2CA3
330
1F
100
AcDbEntity
  8
NOSNÉ KONSTRUKCE
100
AcDbLine
 10
-2171.844360504711
 20
148.1652406377961
 30
0.0
 11
-2171.844360504711
 21
143.2769919321563
 31
0.0
  0
LINE
  5
2CA4
330
1F
100
AcDbEntity
  8
NOSNÉ KONSTRUKCE
100
AcDbLine
 10
-2169.469360504714
 20
134.3343346260703
 30
0.0
 11
-2177.719360504715
 21
134.3343346260717
 31
0.0
  0
ARC
  5
2CA5
330
1F
100
AcDbEntity
  8
NOSNÉ KONSTRUKCE
100
AcDbCircle
 10
-2173.594360504713
 20
137.0538024779643
 30
0.0
 40
1.3125
100
AcDbArc
 50
0.0
 51
180.0
  0
LINE
  5
2CA6
330
1F
100
AcDbEntity
  8
NOSNÉ KONSTRUKCE
100
AcDbLine
 10
-2174.906860504713
 20
137.031989857935
 30
0.0
 11
-2174.906860504713
 21
137.0538024779643
 31
0.0
  0
LINE
  5
2CA7
330
1F
100
AcDbEntity
  8
NOSNÉ KONSTRUKCE
100
AcDbLine
 10
-2172.281860504713
 20
137.0538024779643
 30
0.0
 11
-2172.281860504713
 21
137.0319898579327
 31
0.0
  0
LINE
  5
2CA8
330
1F
100
AcDbEntity
  8
NOSNÉ KONSTRUKCE
100
AcDbLine
 10
-2173.712752220409
 20
165.8431644943711
 30
0.0
 11
-2131.006019172985
 21
165.8431644943711
 31
0.0
  0
LINE
  5
2CA9
330
1F
100
AcDbEntity
  8
NOSNÉ KONSTRUKCE
100
AcDbLine
 10
-2173.594360504714
 20
182.8461798130924
 30
0.0
 11
-2173.594360504713
 21
191.0961798130924
 31
0.0
  0
CIRCLE
  5
2CAA
330
1F
100
AcDbEntity
  8
NOSNÉ KONSTRUKCE
100
AcDbCircle
 10
-2173.594360504714
 20
186.9711798130924
 30
0.0
 40
3.0
  0
LINE
  5
2CAB
330
1F
100
AcDbEntity
  8
NOSNÉ KONSTRUKCE
100
AcDbLine
 10
-2172.281860504713
 20
184.2517119611984
 30
0.0
 11
-2172.281860504713
 21
184.27352458123
 31
0.0
  0
LINE
  5
2CAC
330
1F
100
AcDbEntity
  8
NOSNÉ KONSTRUKCE
100
AcDbLine
 10
-2174.906860504713
 20
184.2735245812277
 30
0.0
 11
-2174.906860504713
 21
184.2517119611984
 31
0.0
  0
ARC
  5
2CAD
330
1F
100
AcDbEntity
  8
NOSNÉ KONSTRUKCE
100
AcDbCircle
 10
-2173.594360504713
 20
184.2517119611984
 30
0.0
 40
1.3125
100
AcDbArc
 50
180.0
 51
0.0
  0
LINE
  5
2CAE
330
1F
100
AcDbEntity
  8
NOSNÉ KONSTRUKCE
100
AcDbLine
 10
-2169.469360504714
 20
186.9711798130924
 30
0.0
 11
-2177.719360504715
 21
186.9711798130911
 31
0.0
  0
LINE
  5
2CAF
330
1F
100
AcDbEntity
  8
NOSNÉ KONSTRUKCE
100
AcDbLine
 10
-2172.281860504713
 20
189.6688350449544
 30
0.0
 11
-2172.281860504713
 21
189.6906476649837
 31
0.0
  0
LINE
  5
2CB0
330
1F
100
AcDbEntity
  8
NOSNÉ KONSTRUKCE
100
AcDbLine
 10
-2174.906860504713
 20
189.6906476649837
 30
0.0
 11
-2174.906860504713
 21
189.6688350449571
 31
0.0
  0
ARC
  5
2CB1
330
1F
100
AcDbEntity
  8
NOSNÉ KONSTRUKCE
100
AcDbCircle
 10
-2173.594360504713
 20
189.6906476649837
 30
0.0
 40
1.3125
100
AcDbArc
 50
0.0
 51
180.0
  0
LINE
  5
2CB2
330
1F
100
AcDbEntity
  8
NOSNÉ KONSTRUKCE
100
AcDbLine
 10
-2171.844360504711
 20
173.1402738013666
 30
0.0
 11
-2171.844360504711
 21
178.0285225070065
 31
0.0
  0
LINE
  5
2CB3
330
1F
100
AcDbEntity
  8
NOSNÉ KONSTRUKCE
100
AcDbLine
 10
-2175.344360504711
 20
178.0285225070065
 30
0.0
 11
-2175.344360504711
 21
173.1402738013666
 31
0.0
  0
ARC
  5
2CB4
330
1F
100
AcDbEntity
  8
NOSNÉ KONSTRUKCE
100
AcDbCircle
 10
-2173.594360504711
 20
178.0285225070065
 30
0.0
 40
1.75
100
AcDbArc
 50
0.0
 51
180.0
  0
ARC
  5
2CB5
330
1F
100
AcDbEntity
  8
NOSNÉ KONSTRUKCE
100
AcDbCircle
 10
-2173.594360504711
 20
173.1402738013666
 30
0.0
 40
1.75
100
AcDbArc
 50
180.0
 51
0.0
  0
LINE
  5
2CB6
330
1F
100
AcDbEntity
  8
NOSNÉ KONSTRUKCE
100
AcDbLine
 10
-2163.451863725854
 20
196.0154278424147
 30
0.0
 11
-2160.886291971454
 21
188.420966112696
 31
0.0
  0
LINE
  5
2CB7
330
1F
100
AcDbEntity
  8
NOSNÉ KONSTRUKCE
100
AcDbLine
 10
-2131.006019172985
 20
155.4623499447916
 30
0.0
 11
-2131.006019172985
 21
165.0195987060105
 31
0.0
  0
LINE
  5
2CB8
330
1F
100
AcDbEntity
  8
NOSNÉ KONSTRUKCE
100
AcDbLine
 10
-2131.006019172985
 20
165.8431644943711
 30
0.0
 11
-2131.006019172985
 21
156.2859157331522
 31
0.0
  0
LINE
  5
2CB9
330
1F
100
AcDbEntity
  8
NOSNÉ KONSTRUKCE
100
AcDbLine
 10
-2160.886291971445
 20
186.0461208891165
 30
0.0
 11
-2160.886291971454
 21
188.420966112696
 31
0.0
  0
LINE
  5
2CBA
330
1F
100
AcDbEntity
  8
NOSNÉ KONSTRUKCE
100
AcDbLine
 10
-2160.886291971454
 20
132.8845483264667
 30
0.0
 11
-2160.886291971447
 21
135.2593935500463
 31
0.0
  0
LINE
  5
2CBB
330
1F
100
AcDbEntity
  8
STAVBA OBRYS
  6
DASHED
100
AcDbLine
 10
-1976.314092345704
 20
61.32314653746016
 30
0.0
 11
-2136.684423578329
 21
61.32314653746198
 31
0.0
  0
LINE
  5
2CBC
330
1F
100
AcDbEntity
  8
STAVBA OBRYS
  6
DASHDOT2
100
AcDbLine
 10
-2170.442668080003
 20
54.76064653746107
 30
0.0
 11
-1957.666179013905
 21
54.76064653746016
 31
0.0
  0
LINE
  5
2CBD
330
1F
100
AcDbEntity
  8
STAVBA OBRYS
  6
DASHED
100
AcDbLine
 10
-1976.314092345704
 20
48.19814653746016
 30
0.0
 11
-2136.684423578329
 21
48.19814653746198
 31
0.0
  0
LINE
  5
2CBE
330
1F
100
AcDbEntity
  8
STAVBA OBRYS
  6
DASHED
100
AcDbLine
 10
-1972.525231204147
 20
54.76064653746016
 30
0.0
 11
-1976.314092345704
 21
61.32314653746016
 31
0.0
  0
LINE
  5
2CBF
330
1F
100
AcDbEntity
  8
STAVBA OBRYS
  6
DASHED
100
AcDbLine
 10
-1972.525231204147
 20
54.76064653746016
 30
0.0
 11
-1976.314092345704
 21
48.19814653746016
 31
0.0
  0
LWPOLYLINE
  5
2CC0
330
1F
100
AcDbEntity
  8
STAVBA OBRYS
  6
DASHED
100
AcDbPolyline
 90
        4
 70
     1
 43
0.0
 10
-2142.057704903182
 20
29.70086052794795
 10
-2136.684423578329
 20
29.70086052794795
 10
-2136.684423578329
 20
79.82043254697055
 10
-2142.057704903182
 20
79.82043254697055
  0
LINE
  5
2CC1
330
1F
100
AcDbEntity
  8
PROFILY
100
AcDbLine
 10
-2191.438991329675
 20
-199.3225802118686
 30
0.0
 11
-2189.269957803305
 21
-199.3225802118686
 31
0.0
  0
TEXT
  5
2D1C
330
1F
100
AcDbEntity
  8
POPIS
100
AcDbText
 10
-2357.962552423759
 20
-775.3827182971745
 30
0.0
 40
25.0
  1
Podkladní EPDM páska tl.1 mm
 41
0.7
  7
SIMPLEX7
100
AcDbText
  0
TEXT
  5
2D1D
330
1F
100
AcDbEntity
  8
POPIS
100
AcDbText
 10
-2412.306255583501
 20
-775.3827182971745
 30
0.0
 40
25.0
  1
09
 41
0.85
  7
SIMPLEX7
100
AcDbText
  0
LINE
  5
2D1E
330
1F
100
AcDbEntity
  8
POPIS
100
AcDbLine
 10
-2365.719999742868
 20
-78.83736831159968
 30
0.0
 11
-2197.919160801616
 21
-78.83736831160149
 31
0.0
  0
TEXT
  5
2D1F
330
1F
100
AcDbEntity
  8
POPIS
100
AcDbText
 10
-2403.645598942439
 20
-92.28070976097024
 30
0.0
 40
25.0
  1
09
 41
0.7
  7
SIMPLEX7
100
AcDbText
  0
INSERT
  5
2D20
330
1F
100
AcDbEntity
  8
POPIS
100
AcDbBlockReference
  2
E_PUNKT
 10
-2197.858844139472
 20
-78.41662524538879
 30
0.0
  0
LINE
  5
2D21
330
1F
100
AcDbEntity
  8
PROFILY
100
AcDbLine
 10
-2197.719160801617
 20
-225.3809418597658
 30
0.0
 11
-2197.719160801616
 21
255.2929113163318
 31
0.0
  0
LINE
  5
2D22
330
1F
100
AcDbEntity
  8
PROFILY
  6
DASHED
370
    40
100
AcDbLine
 10
-2197.919160801616
 20
-225.3672130668945
 30
0.0
 11
-2197.919160801616
 21
255.2929113163318
 31
0.0
  0
LINE
  5
2D23
330
1F
100
AcDbEntity
  8
PROFILY
100
AcDbLine
 10
-2198.119160801616
 20
-225.3534842740231
 30
0.0
 11
-2198.119160801616
 21
255.2929113163318
 31
0.0
  0
TEXT
  5
2D24
330
1F
100
AcDbEntity
  8
POPIS
100
AcDbText
 10
-2271.134303487769
 20
219.276963798587
 30
0.0
 40
25.0
  1
70
 50
90.0
 41
0.7
  7
SIMPLEX7
100
AcDbText
  0
LINE
  5
2D25
330
1F
100
AcDbEntity
  8
POPIS
100
AcDbLine
 10
-2234.541383239574
 20
254.1592119043589
 30
0.0
 11
-2278.024393095477
 21
254.1592119043589
 31
0.0
  0
LINE
  5
2D26
330
1F
100
AcDbEntity
  8
POPIS
100
AcDbLine
 10
-2236.730325472576
 20
203.1963445693177
 30
0.0
 11
-2278.024393095477
 21
203.1963445693177
 31
0.0
  0
LINE
  5
2D27
330
1F
100
AcDbEntity
  8
POPIS
100
AcDbLine
 10
-2265.524393095477
 20
263.4504279872285
 30
0.0
 11
-2265.524393095477
 21
199.0561432407316
 31
0.0
  0
INSERT
  5
2D28
330
1F
100
AcDbEntity
  8
POPIS
100
AcDbBlockReference
  2
_ArchTick
 10
-2265.524393095477
 20
203.1963445693177
 30
0.0
 41
15.0
 42
15.0
 43
15.0
 50
270.0
  0
INSERT
  5
2D29
330
1F
100
AcDbEntity
  8
POPIS
100
AcDbBlockReference
  2
_ArchTick
 10
-2265.524393095477
 20
254.1592119043589
 30
0.0
 41
15.0
 42
15.0
 43
15.0
 50
90.0
  0
ENDSEC
  0
SECTION
  2
OBJECTS
  0
DICTIONARY
  5
C
330
0
100
AcDbDictionary
281
     1
  3
ACAD_GROUP
350
D
  3
ACAD_LAYOUT
350
1A
  3
ACAD_MLINESTYLE
350
17
  3
ACAD_PLOTSETTINGS
350
19
  3
ACAD_PLOTSTYLENAME
350
E
  3
AcDbVariableDictionary
350
2D2C
  0
DICTIONARY
  5
2CC3
330
1F
100
AcDbDictionary
280
     1
281
     1
  3
ACAD_LAYOUTSELFREF
360
2CFD
  0
DICTIONARY
  5
2CC5
330
1B
100
AcDbDictionary
280
     1
281
     1
  3
ACAD_LAYOUTSELFREF
360
2CFC
  0
DICTIONARY
  5
2CC7
330
23
100
AcDbDictionary
280
     1
281
     1
  3
ACAD_LAYOUTSELFREF
360
2CFE
  0
DICTIONARY
  5
D
102
{ACAD_REACTORS
330
C
102
}
330
C
100
AcDbDictionary
281
     1
  0
DICTIONARY
  5
1A
102
{ACAD_REACTORS
330
C
102
}
330
C
100
AcDbDictionary
281
     1
  3
Model
350
22
  3
Rozvržení1
350
1E
  3
Rozvržení2
350
26
  0
DICTIONARY
  5
17
102
{ACAD_REACTORS
330
C
102
}
330
C
100
AcDbDictionary
281
     1
  3
Standard
350
18
  0
DICTIONARY
  5
19
102
{ACAD_REACTORS
330
C
102
}
330
C
100
AcDbDictionary
281
     1
  0
ACDBDICTIONARYWDFLT
  5
E
102
{ACAD_REACTORS
330
C
102
}
330
C
100
AcDbDictionary
281
     1
  3
Normal
350
F
100
AcDbDictionaryWithDefault
340
F
  0
DICTIONARY
  5
2D2C
102
{ACAD_REACTORS
330
C
102
}
330
C
100
AcDbDictionary
281
     1
  3
DIMASSOC
350
2D2D
  0
XRECORD
  5
2CFD
102
{ACAD_REACTORS
330
2CC3
102
}
330
2CC3
100
AcDbXrecord
280
     1
340
1F
  0
XRECORD
  5
2CFC
102
{ACAD_REACTORS
330
2CC5
102
}
330
2CC5
100
AcDbXrecord
280
     1
340
1B
  0
XRECORD
  5
2CFE
102
{ACAD_REACTORS
330
2CC7
102
}
330
2CC7
100
AcDbXrecord
280
     1
340
23
  0
LAYOUT
  5
22
102
{ACAD_REACTORS
330
1A
102
}
330
1A
100
AcDbPlotSettings
  1

  2
HP DeskJet 690C
  4

  6

 40
0.0
 41
0.0
 42
0.0
 43
0.0
 44
0.0
 45
0.0
 46
0.0
 47
0.0
 48
0.0
 49
0.0
140
0.0
141
0.0
142
1.0
143
1.0
 70
  1712
 72
     0
 73
     0
 74
     0
  7
monochrome.ctb
 75
     0
147
1.0
148
0.0
149
0.0
100
AcDbLayout
  1
Model
 70
     1
 71
     0
 10
0.0
 20
0.0
 11
12.0
 21
9.0
 12
0.0
 22
0.0
 32
0.0
 14
0.0
 24
0.0
 34
0.0
 15
0.0
 25
0.0
 35
0.0
146
0.0
 13
0.0
 23
0.0
 33
0.0
 16
1.0
 26
0.0
 36
0.0
 17
0.0
 27
1.0
 37
0.0
 76
     0
330
1F
  0
LAYOUT
  5
1E
102
{ACAD_REACTORS
330
1A
102
}
330
1A
100
AcDbPlotSettings
  1

  2
HP DeskJet 690C
  4

  6

 40
0.0
 41
0.0
 42
0.0
 43
0.0
 44
0.0
 45
0.0
 46
0.0
 47
0.0
 48
0.0
 49
0.0
140
0.0
141
0.0
142
1.0
143
1.0
 70
   688
 72
     0
 73
     0
 74
     5
  7
monochrome.ctb
 75
    16
147
1.0
148
0.0
149
0.0
100
AcDbLayout
  1
Rozvržení1
 70
     1
 71
     1
 10
0.0
 20
0.0
 11
420.0
 21
297.0
 12
0.0
 22
0.0
 32
0.0
 14
1.000000000000000E+20
 24
1.000000000000000E+20
 34
1.000000000000000E+20
 15
-1.000000000000000E+20
 25
-1.000000000000000E+20
 35
-1.000000000000000E+20
146
0.0
 13
0.0
 23
0.0
 33
0.0
 16
1.0
 26
0.0
 36
0.0
 17
0.0
 27
1.0
 37
0.0
 76
     0
330
1B
  0
LAYOUT
  5
26
102
{ACAD_REACTORS
330
1A
102
}
330
1A
100
AcDbPlotSettings
  1

  2
HP DeskJet 690C
  4

  6

 40
0.0
 41
0.0
 42
0.0
 43
0.0
 44
0.0
 45
0.0
 46
0.0
 47
0.0
 48
0.0
 49
0.0
140
0.0
141
0.0
142
1.0
143
1.0
 70
   688
 72
     0
 73
     0
 74
     5
  7
monochrome.ctb
 75
    16
147
1.0
148
0.0
149
0.0
100
AcDbLayout
  1
Rozvržení2
 70
     1
 71
     2
 10
0.0
 20
0.0
 11
12.0
 21
9.0
 12
0.0
 22
0.0
 32
0.0
 14
0.0
 24
0.0
 34
0.0
 15
0.0
 25
0.0
 35
0.0
146
0.0
 13
0.0
 23
0.0
 33
0.0
 16
1.0
 26
0.0
 36
0.0
 17
0.0
 27
1.0
 37
0.0
 76
     0
330
23
  0
MLINESTYLE
  5
18
102
{ACAD_REACTORS
330
17
102
}
330
17
100
AcDbMlineStyle
  2
STANDARD
 70
     0
  3

 62
   256
 51
90.0
 52
90.0
 71
     2
 49
0.5
 62
   256
  6
BYLAYER
 49
-0.5
 62
   256
  6
BYLAYER
  0
ACDBPLACEHOLDER
  5
F
102
{ACAD_REACTORS
330
E
102
}
330
E
  0
DICTIONARYVAR
  5
2D2D
102
{ACAD_REACTORS
330
2D2C
102
}
330
2D2C
100
DictionaryVariables
280
     0
  1
1
  0
ENDSEC
  0
EOF
