  0
SECTION
  2
HEADER
  9
$ACADVER
  1
AC1015
  9
$ACADMAINTVER
 70
    14
  9
$DWGCODEPAGE
  3
ANSI_1250
  9
$INSBASE
 10
0.0
 20
0.0
 30
0.0
  9
$EXTMIN
 10
-2571.331211683729
 20
-854.3569944812725
 30
0.0
  9
$EXTMAX
 10
-1694.498535620748
 20
561.1783205650344
 30
0.0
  9
$LIMMIN
 10
0.0
 20
0.0
  9
$LIMMAX
 10
420.0
 20
297.0
  9
$ORTHOMODE
 70
     1
  9
$REGENMODE
 70
     1
  9
$FILLMODE
 70
     1
  9
$QTEXTMODE
 70
     0
  9
$MIRRTEXT
 70
     1
  9
$LTSCALE
 40
1.0
  9
$ATTMODE
 70
     1
  9
$TEXTSIZE
 40
2.5
  9
$TRACEWID
 40
1.0
  9
$TEXTSTYLE
  7
Standard
  9
$CLAYER
  8
0
  9
$CELTYPE
  6
ByLayer
  9
$CECOLOR
 62
   256
  9
$CELTSCALE
 40
1.0
  9
$DISPSILH
 70
     0
  9
$DIMSCALE
 40
1.0
  9
$DIMASZ
 40
2.5
  9
$DIMEXO
 40
0.625
  9
$DIMDLI
 40
3.75
  9
$DIMRND
 40
0.0
  9
$DIMDLE
 40
0.0
  9
$DIMEXE
 40
1.25
  9
$DIMTP
 40
0.0
  9
$DIMTM
 40
0.0
  9
$DIMTXT
 40
2.5
  9
$DIMCEN
 40
2.5
  9
$DIMTSZ
 40
0.0
  9
$DIMTOL
 70
     0
  9
$DIMLIM
 70
     0
  9
$DIMTIH
 70
     0
  9
$DIMTOH
 70
     0
  9
$DIMSE1
 70
     0
  9
$DIMSE2
 70
     0
  9
$DIMTAD
 70
     1
  9
$DIMZIN
 70
     8
  9
$DIMBLK
  1

  9
$DIMASO
 70
     1
  9
$DIMSHO
 70
     1
  9
$DIMPOST
  1

  9
$DIMAPOST
  1

  9
$DIMALT
 70
     0
  9
$DIMALTD
 70
     3
  9
$DIMALTF
 40
0.03937007874016
  9
$DIMLFAC
 40
1.0
  9
$DIMTOFL
 70
     1
  9
$DIMTVP
 40
0.0
  9
$DIMTIX
 70
     0
  9
$DIMSOXD
 70
     0
  9
$DIMSAH
 70
     0
  9
$DIMBLK1
  1

  9
$DIMBLK2
  1

  9
$DIMSTYLE
  2
ISO-25
  9
$DIMCLRD
 70
     0
  9
$DIMCLRE
 70
     0
  9
$DIMCLRT
 70
     0
  9
$DIMTFAC
 40
1.0
  9
$DIMGAP
 40
0.625
  9
$DIMJUST
 70
     0
  9
$DIMSD1
 70
     0
  9
$DIMSD2
 70
     0
  9
$DIMTOLJ
 70
     0
  9
$DIMTZIN
 70
     8
  9
$DIMALTZ
 70
     0
  9
$DIMALTTZ
 70
     0
  9
$DIMUPT
 70
     0
  9
$DIMDEC
 70
     2
  9
$DIMTDEC
 70
     2
  9
$DIMALTU
 70
     2
  9
$DIMALTTD
 70
     3
  9
$DIMTXSTY
  7
Standard
  9
$DIMAUNIT
 70
     0
  9
$DIMADEC
 70
     0
  9
$DIMALTRND
 40
0.0
  9
$DIMAZIN
 70
     0
  9
$DIMDSEP
 70
    44
  9
$DIMATFIT
 70
     3
  9
$DIMFRAC
 70
     0
  9
$DIMLDRBLK
  1

  9
$DIMLUNIT
 70
     2
  9
$DIMLWD
 70
    -2
  9
$DIMLWE
 70
    -2
  9
$DIMTMOVE
 70
     0
  9
$LUNITS
 70
     2
  9
$LUPREC
 70
     4
  9
$SKETCHINC
 40
1.0
  9
$FILLETRAD
 40
10.0
  9
$AUNITS
 70
     0
  9
$AUPREC
 70
     0
  9
$MENU
  1
.
  9
$ELEVATION
 40
0.0
  9
$PELEVATION
 40
0.0
  9
$THICKNESS
 40
0.0
  9
$LIMCHECK
 70
     0
  9
$CHAMFERA
 40
10.0
  9
$CHAMFERB
 40
10.0
  9
$CHAMFERC
 40
20.0
  9
$CHAMFERD
 40
0.0
  9
$SKPOLY
 70
     0
  9
$TDCREATE
 40
2452339.371895717
  9
$TDUCREATE
 40
2452339.330229051
  9
$TDUPDATE
 40
2455610.299258044
  9
$TDUUPDATE
 40
2455610.257591377
  9
$TDINDWG
 40
0.0223204167
  9
$TDUSRTIMER
 40
0.0223204167
  9
$USRTIMER
 70
     1
  9
$ANGBASE
 50
0.0
  9
$ANGDIR
 70
     0
  9
$PDMODE
 70
     0
  9
$PDSIZE
 40
0.0
  9
$PLINEWID
 40
0.0
  9
$SPLFRAME
 70
     0
  9
$SPLINETYPE
 70
     6
  9
$SPLINESEGS
 70
     8
  9
$HANDSEED
  5
29AA
  9
$SURFTAB1
 70
     6
  9
$SURFTAB2
 70
     6
  9
$SURFTYPE
 70
     6
  9
$SURFU
 70
     6
  9
$SURFV
 70
     6
  9
$UCSBASE
  2

  9
$UCSNAME
  2

  9
$UCSORG
 10
0.0
 20
0.0
 30
0.0
  9
$UCSXDIR
 10
1.0
 20
0.0
 30
0.0
  9
$UCSYDIR
 10
0.0
 20
1.0
 30
0.0
  9
$UCSORTHOREF
  2

  9
$UCSORTHOVIEW
 70
     0
  9
$UCSORGTOP
 10
0.0
 20
0.0
 30
0.0
  9
$UCSORGBOTTOM
 10
0.0
 20
0.0
 30
0.0
  9
$UCSORGLEFT
 10
0.0
 20
0.0
 30
0.0
  9
$UCSORGRIGHT
 10
0.0
 20
0.0
 30
0.0
  9
$UCSORGFRONT
 10
0.0
 20
0.0
 30
0.0
  9
$UCSORGBACK
 10
0.0
 20
0.0
 30
0.0
  9
$PUCSBASE
  2

  9
$PUCSNAME
  2

  9
$PUCSORG
 10
0.0
 20
0.0
 30
0.0
  9
$PUCSXDIR
 10
1.0
 20
0.0
 30
0.0
  9
$PUCSYDIR
 10
0.0
 20
1.0
 30
0.0
  9
$PUCSORTHOREF
  2

  9
$PUCSORTHOVIEW
 70
     0
  9
$PUCSORGTOP
 10
0.0
 20
0.0
 30
0.0
  9
$PUCSORGBOTTOM
 10
0.0
 20
0.0
 30
0.0
  9
$PUCSORGLEFT
 10
0.0
 20
0.0
 30
0.0
  9
$PUCSORGRIGHT
 10
0.0
 20
0.0
 30
0.0
  9
$PUCSORGFRONT
 10
0.0
 20
0.0
 30
0.0
  9
$PUCSORGBACK
 10
0.0
 20
0.0
 30
0.0
  9
$USERI1
 70
     0
  9
$USERI2
 70
     0
  9
$USERI3
 70
     0
  9
$USERI4
 70
     0
  9
$USERI5
 70
     0
  9
$USERR1
 40
0.0
  9
$USERR2
 40
0.0
  9
$USERR3
 40
0.0
  9
$USERR4
 40
0.0
  9
$USERR5
 40
0.0
  9
$WORLDVIEW
 70
     1
  9
$SHADEDGE
 70
     3
  9
$SHADEDIF
 70
    70
  9
$TILEMODE
 70
     1
  9
$MAXACTVP
 70
    48
  9
$PINSBASE
 10
0.0
 20
0.0
 30
0.0
  9
$PLIMCHECK
 70
     0
  9
$PEXTMIN
 10
1.000000000000000E+20
 20
1.000000000000000E+20
 30
1.000000000000000E+20
  9
$PEXTMAX
 10
-1.000000000000000E+20
 20
-1.000000000000000E+20
 30
-1.000000000000000E+20
  9
$PLIMMIN
 10
0.0
 20
0.0
  9
$PLIMMAX
 10
420.0
 20
297.0
  9
$UNITMODE
 70
     0
  9
$VISRETAIN
 70
     1
  9
$PLINEGEN
 70
     0
  9
$PSLTSCALE
 70
     1
  9
$TREEDEPTH
 70
  3020
  9
$CMLSTYLE
  2
Standard
  9
$CMLJUST
 70
     0
  9
$CMLSCALE
 40
20.0
  9
$PROXYGRAPHICS
 70
     1
  9
$MEASUREMENT
 70
     1
  9
$CELWEIGHT
370
    -1
  9
$ENDCAPS
280
     0
  9
$JOINSTYLE
280
     0
  9
$LWDISPLAY
290
     0
  9
$INSUNITS
 70
     4
  9
$HYPERLINKBASE
  1

  9
$STYLESHEET
  1

  9
$XEDIT
290
     1
  9
$CEPSNTYPE
380
     0
  9
$PSTYLEMODE
290
     1
  9
$FINGERPRINTGUID
  2
{9FA890EF-883C-4FD4-884F-6B075534EB0B}
  9
$VERSIONGUID
  2
{4FF90D71-B7D0-4F6D-91A5-3A5E0FE6C71D}
  9
$EXTNAMES
290
     1
  9
$PSVPSCALE
 40
0.0
  9
$OLESTARTUP
290
     0
  0
ENDSEC
  0
SECTION
  2
CLASSES
  0
CLASS
  1
ACDBDICTIONARYWDFLT
  2
AcDbDictionaryWithDefault
  3
AutoCAD 2000
 90
        0
280
     0
281
     0
  0
CLASS
  1
ACDBPLACEHOLDER
  2
AcDbPlaceHolder
  3
AutoCAD 2000
 90
        0
280
     0
281
     0
  0
CLASS
  1
LAYOUT
  2
AcDbLayout
  3
AutoCAD 2000
 90
        0
280
     0
281
     0
  0
CLASS
  1
LONG_TRANSACTION
  2
AcDbLongTransaction
  3
AutoCAD 2000
 90
    32768
280
     0
281
     0
  0
CLASS
  1
LWPOLYLINE
  2
AcDbPolyline
  3
AutoCAD 2000
 90
    32768
280
     0
281
     1
  0
CLASS
  1
HATCH
  2
AcDbHatch
  3
AutoCAD 2000
 90
    32768
280
     0
281
     1
  0
CLASS
  1
XRECORD
  2
AcDbXrecord
  3
AutoCAD 2000
 90
    32768
280
     0
281
     0
  0
CLASS
  1
DICTIONARYVAR
  2
AcDbDictionaryVar
  3
AutoCAD 2000
 90
        0
280
     0
281
     0
  0
ENDSEC
  0
SECTION
  2
TABLES
  0
TABLE
  2
VPORT
  5
8
330
0
100
AcDbSymbolTable
 70
     2
  0
VPORT
  5
29A9
330
8
100
AcDbSymbolTableRecord
100
AcDbViewportTableRecord
  2
*Active
 70
     0
 10
0.0
 20
0.0
 11
1.0
 21
1.0
 12
-2107.207207467474
 22
-141.0576597232799
 13
0.0
 23
0.0
 14
10.0
 24
10.0
 15
10.0
 25
10.0
 16
0.0
 26
0.0
 36
1.0
 17
0.0
 27
0.0
 37
0.0
 40
1452.431752390751
 41
2.031862745098039
 42
50.0
 43
0.0
 44
0.0
 50
0.0
 51
0.0
 71
     0
 72
   100
 73
     1
 74
     3
 75
     0
 76
     0
 77
     0
 78
     0
281
     0
 65
     1
110
0.0
120
0.0
130
0.0
111
1.0
121
0.0
131
0.0
112
0.0
122
1.0
132
0.0
 79
     0
146
0.0
  0
ENDTAB
  0
TABLE
  2
LTYPE
  5
5
330
0
100
AcDbSymbolTable
 70
     4
  0
LTYPE
  5
14
330
5
100
AcDbSymbolTableRecord
100
AcDbLinetypeTableRecord
  2
ByBlock
 70
     0
  3

 72
    65
 73
     0
 40
0.0
  0
LTYPE
  5
15
330
5
100
AcDbSymbolTableRecord
100
AcDbLinetypeTableRecord
  2
ByLayer
 70
     0
  3

 72
    65
 73
     0
 40
0.0
  0
LTYPE
  5
16
330
5
100
AcDbSymbolTableRecord
100
AcDbLinetypeTableRecord
  2
Continuous
 70
     0
  3
Solid line
 72
    65
 73
     0
 40
0.0
  0
LTYPE
  5
33
330
5
100
AcDbSymbolTableRecord
100
AcDbLinetypeTableRecord
  2
IZOLACE
 70
     0
  3
Izolace SSSSSSSSSSSSSSSSSSSSSSSSSSSSSSSSSSSSSSS
 72
    65
 73
     4
 40
10.16253999999999
 49
0.00254
 74
     0
 49
-2.54
 74
     4
 75
   134
340
3D
 46
2.54
 50
0.0
 44
-2.54
 45
0.0
 49
-5.08
 74
     4
 75
   134
340
3D
 46
2.54
 50
180.0
 44
2.54
 45
0.0
 49
-2.54
 74
     0
  0
LTYPE
  5
34
330
5
100
AcDbSymbolTableRecord
100
AcDbLinetypeTableRecord
  2
DASHED
 70
     0
  3
Dashed __ __ __ __ __ __ __ __ __ __ __ __ __ _
 72
    65
 73
     2
 40
19.04999999999999
 49
12.7
 74
     0
 49
-6.349999999999999
 74
     0
  0
LTYPE
  5
35
330
5
100
AcDbSymbolTableRecord
100
AcDbLinetypeTableRecord
  2
DASHDOT2
 70
     0
  3
Dash dot (.5x) _._._._._._._._._._._._._._._.
 72
    65
 73
     4
 40
12.7
 49
6.349999999999999
 74
     0
 49
-3.174999999999999
 74
     0
 49
0.0
 74
     0
 49
-3.174999999999999
 74
     0
  0
ENDTAB
  0
TABLE
  2
LAYER
  5
2
330
0
100
AcDbSymbolTable
 70
     7
  0
LAYER
  5
10
330
2
100
AcDbSymbolTableRecord
100
AcDbLayerTableRecord
  2
0
 70
     0
 62
     7
  6
Continuous
370
    -3
390
F
  0
LAYER
  5
36
330
2
100
AcDbSymbolTableRecord
100
AcDbLayerTableRecord
  2
POPIS
 70
     0
 62
    30
  6
Continuous
370
    -3
390
F
  0
LAYER
  5
37
330
2
100
AcDbSymbolTableRecord
100
AcDbLayerTableRecord
  2
SPOJOVACÍ
 70
     0
 62
   180
  6
Continuous
370
    -3
390
F
  0
LAYER
  5
38
330
2
100
AcDbSymbolTableRecord
100
AcDbLayerTableRecord
  2
CETRIS
 70
     0
 62
     1
  6
Continuous
370
    -3
390
F
  0
LAYER
  5
39
330
2
100
AcDbSymbolTableRecord
100
AcDbLayerTableRecord
  2
NOSNÉ KONSTRUKCE
 70
     0
 62
    33
  6
Continuous
370
    -3
390
F
  0
LAYER
  5
3A
330
2
100
AcDbSymbolTableRecord
100
AcDbLayerTableRecord
  2
PROFILY
 70
     0
 62
    73
  6
Continuous
370
    -3
390
F
  0
LAYER
  5
3B
330
2
100
AcDbSymbolTableRecord
100
AcDbLayerTableRecord
  2
STAVBA OBRYS
 70
     0
 62
     6
  6
Continuous
370
    -3
390
F
  0
ENDTAB
  0
TABLE
  2
STYLE
  5
3
330
0
100
AcDbSymbolTable
 70
     3
  0
STYLE
  5
11
330
3
100
AcDbSymbolTableRecord
100
AcDbTextStyleTableRecord
  2
Standard
 70
     0
 40
0.0
 41
1.0
 50
0.0
 71
     0
 42
2.5
  3
txt
  4

  0
STYLE
  5
3C
330
3
100
AcDbSymbolTableRecord
100
AcDbTextStyleTableRecord
  2
SIMPLEX7
 70
     0
 40
0.0
 41
0.85
 50
0.0
 71
     0
 42
102.0
  3
ARIAL.TTF
  4

1001
ACAD
1000
Arial CE
1071
    60962
  0
STYLE
  5
3D
330
3
100
AcDbSymbolTableRecord
100
AcDbTextStyleTableRecord
  2

 70
     1
 40
0.0
 41
1.0
 50
0.0
 71
     0
 42
2.5
  3
ltypeshp.shx
  4

  0
ENDTAB
  0
TABLE
  2
VIEW
  5
6
330
0
100
AcDbSymbolTable
 70
     0
  0
ENDTAB
  0
TABLE
  2
UCS
  5
7
330
0
100
AcDbSymbolTable
 70
     0
  0
ENDTAB
  0
TABLE
  2
APPID
  5
9
330
0
100
AcDbSymbolTable
 70
     1
  0
APPID
  5
12
330
9
100
AcDbSymbolTableRecord
100
AcDbRegAppTableRecord
  2
ACAD
 70
     0
  0
ENDTAB
  0
TABLE
  2
DIMSTYLE
  5
A
330
0
100
AcDbSymbolTable
 70
     1
100
AcDbDimStyleTable
 71
     0
  0
DIMSTYLE
105
27
330
A
100
AcDbSymbolTableRecord
100
AcDbDimStyleTableRecord
  2
ISO-25
 70
     0
 41
2.5
 42
0.625
 43
3.75
 44
1.25
 73
     0
 74
     0
 77
     1
 78
     8
140
2.5
141
2.5
143
0.03937007874016
147
0.625
171
     3
172
     1
271
     2
272
     2
274
     3
278
    44
283
     0
284
     8
340
11
  0
ENDTAB
  0
TABLE
  2
BLOCK_RECORD
  5
1
330
0
100
AcDbSymbolTable
 70
     3
  0
BLOCK_RECORD
  5
1F
102
{ACAD_XDICTIONARY
360
2938
102
}
330
1
100
AcDbSymbolTableRecord
100
AcDbBlockTableRecord
  2
*Model_Space
340
22
  0
BLOCK_RECORD
  5
1B
102
{ACAD_XDICTIONARY
360
293A
102
}
330
1
100
AcDbSymbolTableRecord
100
AcDbBlockTableRecord
  2
*Paper_Space
340
1E
  0
BLOCK_RECORD
  5
23
102
{ACAD_XDICTIONARY
360
293C
102
}
330
1
100
AcDbSymbolTableRecord
100
AcDbBlockTableRecord
  2
*Paper_Space0
340
26
  0
BLOCK_RECORD
  5
2B
330
1
100
AcDbSymbolTableRecord
100
AcDbBlockTableRecord
  2
E_PUNKT
340
0
102
{BLKREFS
331
2741
331
2783
331
2784
331
2791
331
27A8
331
282A
331
282D
331
2874
331
299B
102
}
  0
BLOCK_RECORD
  5
297B
330
1
100
AcDbSymbolTableRecord
100
AcDbBlockTableRecord
  2
_ArchTick
340
0
102
{BLKREFS
331
2991
331
2995
102
}
  0
ENDTAB
  0
ENDSEC
  0
SECTION
  2
BLOCKS
  0
BLOCK
  5
20
330
1F
100
AcDbEntity
  8
0
100
AcDbBlockBegin
  2
*Model_Space
 70
     0
 10
0.0
 20
0.0
 30
0.0
  3
*Model_Space
  1

  0
ENDBLK
  5
21
330
1F
100
AcDbEntity
  8
0
100
AcDbBlockEnd
  0
BLOCK
  5
1C
330
1B
100
AcDbEntity
 67
     1
  8
0
100
AcDbBlockBegin
  2
*Paper_Space
 70
     0
 10
0.0
 20
0.0
 30
0.0
  3
*Paper_Space
  1

  0
ENDBLK
  5
1D
330
1B
100
AcDbEntity
 67
     1
  8
0
100
AcDbBlockEnd
  0
BLOCK
  5
24
330
23
100
AcDbEntity
  8
0
100
AcDbBlockBegin
  2
*Paper_Space0
 70
     0
 10
0.0
 20
0.0
 30
0.0
  3
*Paper_Space0
  1

  0
ENDBLK
  5
25
330
23
100
AcDbEntity
  8
0
100
AcDbBlockEnd
  0
BLOCK
  5
2D
330
2B
100
AcDbEntity
  8
0
100
AcDbBlockBegin
  2
E_PUNKT
 70
     0
 10
0.0
 20
0.0
 30
0.0
  3
E_PUNKT
  1

  0
LWPOLYLINE
  5
2C
330
2B
100
AcDbEntity
  8
POPIS
100
AcDbPolyline
 90
        2
 70
     1
 43
2.5
 10
1.27761037562675
 20
0.0290683308725193
 42
-1.0
 10
-1.222389624373249
 20
0.0290683308725193
 42
-1.0
  0
ENDBLK
  5
2E
330
2B
100
AcDbEntity
  8
0
100
AcDbBlockEnd
  0
BLOCK
  5
297D
330
297B
100
AcDbEntity
  8
0
100
AcDbBlockBegin
  2
_ArchTick
 70
     0
 10
0.0
 20
0.0
 30
0.0
  3
_ArchTick
  1

  0
LWPOLYLINE
  5
297C
330
297B
100
AcDbEntity
  8
0
  6
ByBlock
 62
     0
100
AcDbPolyline
 90
        2
 70
     0
 43
0.15
 10
-0.5
 20
-0.5
 10
0.5
 20
0.5
  0
ENDBLK
  5
297E
330
297B
100
AcDbEntity
  8
0
100
AcDbBlockEnd
  0
ENDSEC
  0
SECTION
  2
ENTITIES
  0
LINE
  5
2723
330
1F
100
AcDbEntity
  8
SPOJOVACÍ
100
AcDbLine
 10
-2274.952798990222
 20
-119.6550531782404
 30
0.0
 11
-2274.952798990222
 21
-125.1921625532404
 31
0.0
  0
ARC
  5
2724
330
1F
100
AcDbEntity
  8
SPOJOVACÍ
100
AcDbCircle
 10
-2279.263099059019
 20
-125.1921625532404
 30
0.0
 40
7.016998426235272
100
AcDbArc
 50
307.8985698078477
 51
52.10143019215225
  0
LINE
  5
2725
330
1F
100
AcDbEntity
  8
SPOJOVACÍ
100
AcDbLine
 10
-2277.642293190941
 20
-127.4025838423849
 30
0.0
 11
-2278.82685438966
 21
-122.981741264095
 31
0.0
  0
LINE
  5
2726
330
1F
100
AcDbEntity
  8
SPOJOVACÍ
100
AcDbLine
 10
-2281.333699440941
 20
-127.4025838423849
 30
0.0
 11
-2282.268516763825
 21
-123.9137980975829
 31
0.0
  0
LINE
  5
2727
330
1F
100
AcDbEntity
  8
SPOJOVACÍ
100
AcDbLine
 10
-2283.253431291133
 20
-125.1921625532404
 30
0.0
 11
-2281.550414573553
 21
-122.981741264095
 31
0.0
  0
LINE
  5
2728
330
1F
100
AcDbEntity
  8
SPOJOVACÍ
100
AcDbLine
 10
-2283.253431291133
 20
-125.1921625532404
 30
0.0
 11
-2281.550414573553
 21
-127.4025838423849
 31
0.0
  0
LINE
  5
2729
330
1F
100
AcDbEntity
  8
SPOJOVACÍ
100
AcDbLine
 10
-2280.103230690943
 20
-127.4025838423849
 30
0.0
 11
-2281.287791889658
 21
-122.981741264095
 31
0.0
  0
LINE
  5
272A
330
1F
100
AcDbEntity
  8
SPOJOVACÍ
100
AcDbLine
 10
-2278.872761940941
 20
-127.4025838423849
 30
0.0
 11
-2280.057323139658
 21
-122.981741264095
 31
0.0
  0
LINE
  5
272B
330
1F
100
AcDbEntity
  8
SPOJOVACÍ
100
AcDbLine
 10
-2281.550414573553
 20
-122.981741264095
 30
0.0
 11
-2274.952798990222
 21
-122.981741264095
 31
0.0
  0
LINE
  5
272C
330
1F
100
AcDbEntity
  8
SPOJOVACÍ
100
AcDbLine
 10
-2281.550414573553
 20
-127.4025838423849
 30
0.0
 11
-2274.952798990222
 21
-127.4025838423849
 31
0.0
  0
LINE
  5
272D
330
1F
100
AcDbEntity
  8
SPOJOVACÍ
100
AcDbLine
 10
-2274.952798990222
 20
-125.1921625532404
 30
0.0
 11
-2274.952798990222
 21
-130.7292719282404
 31
0.0
  0
LINE
  5
272E
330
1F
100
AcDbEntity
  8
SPOJOVACÍ
100
AcDbLine
 10
-2275.181355690939
 20
-127.4025838423849
 30
0.0
 11
-2276.365916889658
 21
-122.981741264095
 31
0.0
  0
LINE
  5
272F
330
1F
100
AcDbEntity
  8
SPOJOVACÍ
100
AcDbLine
 10
-2276.411824440941
 20
-127.4025838423849
 30
0.0
 11
-2277.596385639658
 21
-122.981741264095
 31
0.0
  0
TEXT
  5
2730
330
1F
100
AcDbEntity
  8
POPIS
100
AcDbText
 10
-2488.945273667616
 20
-846.9559030760883
 30
0.0
 40
25.0
  1
10
 41
0.85
  7
SIMPLEX7
100
AcDbText
  0
TEXT
  5
2731
330
1F
100
AcDbEntity
  8
POPIS
100
AcDbText
 10
-2434.60157050787
 20
-769.7509047021194
 30
0.0
 40
25.0
  1
Perforovaný odvětrávací profil (PROTECTOR 3613)
 41
0.7
  7
SIMPLEX7
100
AcDbText
  0
LINE
  5
2732
330
1F
100
AcDbEntity
  8
PROFILY
100
AcDbLine
 10
-2425.596652898607
 20
-790.7676375007449
 30
0.0
 11
-2424.102373518789
 21
-790.7676375007449
 31
0.0
  0
LINE
  5
2733
330
1F
100
AcDbEntity
  8
PROFILY
100
AcDbLine
 10
-2424.102373518789
 20
-796.3524387849283
 30
0.0
 11
-2424.102373518789
 21
-790.7676375007449
 31
0.0
  0
HATCH
  5
2734
330
1F
100
AcDbEntity
  8
PROFILY
100
AcDbHatch
 10
0.0
 20
0.0
 30
0.0
210
0.0
220
0.0
230
1.0
  2
SOLID
 70
     1
 71
     0
 91
        2
 92
        7
 72
     0
 73
     1
 93
        4
 10
-2424.102373518789
 20
-790.7676375007449
 10
-2425.596652898616
 20
-790.7676375007449
 10
-2425.596652898616
 20
-796.3524387849283
 10
-2424.102373518789
 20
-796.3524387849283
 97
        0
 92
        7
 72
     0
 73
     1
 93
        7
 10
-2424.102373518789
 20
-800.7732813632182
 10
-2425.596652898616
 20
-800.7732813632182
 10
-2425.596652898616
 20
-809.1629604713034
 10
-2425.596652898616
 20
-814.4190332585122
 10
-2421.766933183781
 20
-814.4190332585122
 10
-2421.766933183781
 20
-812.7763347396349
 10
-2424.102373518789
 20
-812.7763347396349
 97
        0
 75
     0
 76
     1
 47
0.169069331426656
 98
        2
 10
-2424.722724783626
 20
-793.5859794180323
 10
-2424.891873824714
 20
-807.7878032578738
  0
LINE
  5
2735
330
1F
100
AcDbEntity
  8
PROFILY
100
AcDbLine
 10
-2293.432432837747
 20
-812.7763347396339
 30
0.0
 11
-2424.102373518789
 21
-812.7763347396349
 31
0.0
  0
LINE
  5
2736
330
1F
100
AcDbEntity
  8
PROFILY
100
AcDbLine
 10
-2293.432432837747
 20
-814.4190332585113
 30
0.0
 11
-2425.596652898607
 21
-814.4190332585113
 31
0.0
  0
HATCH
  5
2737
330
1F
100
AcDbEntity
  8
PROFILY
100
AcDbHatch
 10
0.0
 20
0.0
 30
0.0
210
0.0
220
0.0
230
1.0
  2
SOLID
 70
     1
 71
     0
 91
        5
 92
        7
 72
     0
 73
     1
 93
        4
 10
-2293.432432837747
 20
-812.776334739633
 10
-2307.691821765084
 20
-812.7763347396339
 10
-2307.691821765084
 20
-814.4190332585113
 10
-2293.432432837747
 20
-814.4190332585113
 97
        0
 92
        7
 72
     0
 73
     1
 93
        4
 10
-2321.951210692422
 20
-812.7763347396339
 10
-2336.210599619759
 20
-812.7763347396339
 10
-2336.210599619759
 20
-814.4190332585113
 10
-2321.951210692422
 20
-814.4190332585113
 97
        0
 92
        7
 72
     0
 73
     1
 93
        4
 10
-2350.469988547095
 20
-812.7763347396339
 10
-2364.729377474433
 20
-812.7763347396339
 10
-2364.729377474433
 20
-814.4190332585122
 10
-2350.469988547097
 20
-814.4190332585113
 97
        0
 92
        7
 72
     0
 73
     1
 93
        4
 10
-2378.98876640177
 20
-812.7763347396339
 10
-2393.248155329106
 20
-812.7763347396349
 10
-2393.248155329106
 20
-814.4190332585113
 10
-2378.98876640177
 20
-814.4190332585113
 97
        0
 92
        7
 72
     0
 73
     1
 93
        4
 10
-2407.507544256444
 20
-812.7763347396349
 10
-2421.766933183781
 20
-812.7763347396349
 10
-2421.766933183781
 20
-814.4190332585113
 10
-2407.507544256444
 20
-814.4190332585113
 97
        0
 75
     0
 76
     1
 47
0.2346926121939802
 98
        5
 10
-2300.638361436623
 20
-813.3252385023116
 10
-2329.992728367487
 20
-813.5599243554461
 10
-2354.885210111405
 20
-813.5599243554461
 10
-2386.643323930914
 20
-813.5550407586778
 10
-2413.414491144965
 20
-813.5550407586778
  0
LINE
  5
2738
330
1F
100
AcDbEntity
  8
PROFILY
100
AcDbLine
 10
-2393.248155329106
 20
-814.4190332585113
 30
0.0
 11
-2393.248155329106
 21
-812.7763347396339
 31
0.0
  0
LINE
  5
2739
330
1F
100
AcDbEntity
  8
PROFILY
100
AcDbLine
 10
-2364.729377474433
 20
-814.4190332585113
 30
0.0
 11
-2364.729377474433
 21
-812.7763347396339
 31
0.0
  0
LINE
  5
273A
330
1F
100
AcDbEntity
  8
PROFILY
100
AcDbLine
 10
-2321.951210692422
 20
-814.4190332585113
 30
0.0
 11
-2321.951210692422
 21
-812.7763347396339
 31
0.0
  0
LINE
  5
273B
330
1F
100
AcDbEntity
  8
PROFILY
100
AcDbLine
 10
-2336.210599619759
 20
-814.4190332585113
 30
0.0
 11
-2336.210599619759
 21
-812.7763347396339
 31
0.0
  0
LINE
  5
273C
330
1F
100
AcDbEntity
  8
PROFILY
100
AcDbLine
 10
-2350.469988547095
 20
-814.4190332585113
 30
0.0
 11
-2350.469988547095
 21
-812.7763347396339
 31
0.0
  0
LINE
  5
273D
330
1F
100
AcDbEntity
  8
PROFILY
100
AcDbLine
 10
-2293.432432837747
 20
-814.4190332585113
 30
0.0
 11
-2293.432432837747
 21
-812.7763347396339
 31
0.0
  0
LINE
  5
273E
330
1F
100
AcDbEntity
  8
PROFILY
100
AcDbLine
 10
-2307.691821765084
 20
-814.4190332585113
 30
0.0
 11
-2307.691821765084
 21
-812.7763347396339
 31
0.0
  0
LWPOLYLINE
  5
273F
102
{ACAD_REACTORS
330
2740
102
}
330
1F
100
AcDbEntity
  8
PROFILY
100
AcDbPolyline
 90
        4
 70
     1
 43
0.0
 10
-2425.597431358982
 20
-796.3503013489425
 10
-2424.097848726006
 20
-796.3503013489425
 10
-2424.097848726006
 20
-800.7888693902968
 10
-2425.597431358982
 20
-800.7888693902968
  0
HATCH
  5
2740
330
1F
100
AcDbEntity
  8
PROFILY
100
AcDbHatch
 10
0.0
 20
0.0
 30
0.0
210
0.0
220
0.0
230
1.0
  2
SOLID
 70
     1
 71
     1
 91
        1
 92
        7
 72
     0
 73
     1
 93
        4
 10
-2424.097848726006
 20
-796.3503013489425
 10
-2425.597431358982
 20
-796.3503013489425
 10
-2425.597431358982
 20
-800.7888693902968
 10
-2424.097848726006
 20
-800.7888693902968
 97
        1
330
273F
 75
     0
 76
     1
 47
0.0099002372419542
 98
        1
 10
-2424.563417935292
 20
-797.5811790737971
  0
INSERT
  5
2741
330
1F
100
AcDbEntity
  8
POPIS
100
AcDbBlockReference
  2
E_PUNKT
 10
-2188.580835823962
 20
-146.6071042315038
 30
0.0
  0
LINE
  5
2742
330
1F
100
AcDbEntity
  8
POPIS
100
AcDbLine
 10
-2320.980179672687
 20
-217.7423529140956
 30
0.0
 11
-2188.310314913144
 21
-146.4564498355448
 31
0.0
  0
TEXT
  5
2743
330
1F
100
AcDbEntity
  8
POPIS
100
AcDbText
 10
-2492.397392809444
 20
-231.1856943634657
 30
0.0
 40
25.0
  1
09
 41
0.7
  7
SIMPLEX7
100
AcDbText
  0
LINE
  5
2744
330
1F
100
AcDbEntity
  8
POPIS
100
AcDbLine
 10
-2451.017782771449
 20
-217.7423529140951
 30
0.0
 11
-2320.980179672687
 21
-217.7423529140956
 31
0.0
  0
LINE
  5
2745
330
1F
100
AcDbEntity
  8
PROFILY
100
AcDbLine
 10
-2145.532148131132
 20
-146.4564498355448
 30
0.0
 11
-2145.532148131132
 21
-144.8137513166675
 31
0.0
  0
LINE
  5
2746
330
1F
100
AcDbEntity
  8
PROFILY
100
AcDbLine
 10
-2188.310314913144
 20
-146.4564498355448
 30
0.0
 11
-2188.310314913144
 21
-144.8137513166675
 31
0.0
  0
LINE
  5
2747
330
1F
100
AcDbEntity
  8
PROFILY
100
AcDbLine
 10
-2174.050925985807
 20
-146.4564498355448
 30
0.0
 11
-2174.050925985807
 21
-144.8137513166675
 31
0.0
  0
LINE
  5
2748
330
1F
100
AcDbEntity
  8
PROFILY
100
AcDbLine
 10
-2159.791537058469
 20
-146.4564498355448
 30
0.0
 11
-2159.791537058469
 21
-144.8137513166675
 31
0.0
  0
LINE
  5
2749
330
1F
100
AcDbEntity
  8
PROFILY
100
AcDbLine
 10
-2216.829092767818
 20
-146.4564498355448
 30
0.0
 11
-2216.829092767818
 21
-144.8137513166675
 31
0.0
  0
LINE
  5
274A
330
1F
100
AcDbEntity
  8
PROFILY
100
AcDbLine
 10
-2202.569703840481
 20
-146.4564498355448
 30
0.0
 11
-2202.569703840481
 21
-144.8137513166675
 31
0.0
  0
LINE
  5
274B
330
1F
100
AcDbEntity
  8
PROFILY
100
AcDbLine
 10
-2245.347870622491
 20
-146.4564498355448
 30
0.0
 11
-2245.347870622491
 21
-144.8137513166675
 31
0.0
  0
HATCH
  5
274C
330
1F
100
AcDbEntity
  8
PROFILY
100
AcDbHatch
 10
0.0
 20
0.0
 30
0.0
210
0.0
220
0.0
230
1.0
  2
SOLID
 70
     1
 71
     0
 91
        2
 92
        7
 72
     0
 73
     1
 93
        4
 10
-2276.202088812174
 20
-122.8050540777785
 10
-2277.696368192001
 20
-122.8050540777785
 10
-2277.696368192001
 20
-128.3898553619619
 10
-2276.202088812174
 20
-128.3898553619619
 97
        0
 92
        7
 72
     0
 73
     1
 93
        7
 10
-2276.202088812174
 20
-132.8106979402518
 10
-2277.696368192001
 20
-132.8106979402518
 10
-2277.696368192001
 20
-141.200377048337
 10
-2277.696368192001
 20
-146.4564498355457
 10
-2273.866648477166
 20
-146.4564498355457
 10
-2273.866648477166
 20
-144.8137513166684
 10
-2276.202088812174
 20
-144.8137513166684
 97
        0
 75
     0
 76
     1
 47
0.169069331426656
 98
        2
 10
-2276.822440077011
 20
-125.6233959950659
 10
-2276.9915891181
 20
-139.8252198349073
  0
HATCH
  5
274D
330
1F
100
AcDbEntity
  8
PROFILY
100
AcDbHatch
 10
0.0
 20
0.0
 30
0.0
210
0.0
220
0.0
230
1.0
  2
SOLID
 70
     1
 71
     0
 91
        5
 92
        7
 72
     0
 73
     1
 93
        4
 10
-2145.532148131132
 20
-144.8137513166666
 10
-2159.791537058469
 20
-144.8137513166675
 10
-2159.791537058469
 20
-146.4564498355448
 10
-2145.532148131132
 20
-146.4564498355448
 97
        0
 92
        7
 72
     0
 73
     1
 93
        4
 10
-2174.050925985807
 20
-144.8137513166675
 10
-2188.310314913144
 20
-144.8137513166675
 10
-2188.310314913144
 20
-146.4564498355448
 10
-2174.050925985807
 20
-146.4564498355448
 97
        0
 92
        7
 72
     0
 73
     1
 93
        4
 10
-2202.569703840481
 20
-144.8137513166675
 10
-2216.829092767818
 20
-144.8137513166675
 10
-2216.829092767818
 20
-146.4564498355457
 10
-2202.569703840482
 20
-146.4564498355448
 97
        0
 92
        7
 72
     0
 73
     1
 93
        4
 10
-2231.088481695155
 20
-144.8137513166675
 10
-2245.347870622491
 20
-144.8137513166684
 10
-2245.347870622491
 20
-146.4564498355448
 10
-2231.088481695155
 20
-146.4564498355448
 97
        0
 92
        7
 72
     0
 73
     1
 93
        4
 10
-2259.607259549829
 20
-144.8137513166684
 10
-2273.866648477166
 20
-144.8137513166684
 10
-2273.866648477166
 20
-146.4564498355448
 10
-2259.607259549829
 20
-146.4564498355448
 97
        0
 75
     0
 76
     1
 47
0.2346926121939802
 98
        5
 10
-2152.738076730008
 20
-145.3626550793451
 10
-2182.092443660871
 20
-145.5973409324797
 10
-2206.98492540479
 20
-145.5973409324797
 10
-2238.743039224299
 20
-145.5924573357115
 10
-2265.514206438349
 20
-145.5924573357115
  0
LINE
  5
274E
330
1F
100
AcDbEntity
  8
PROFILY
100
AcDbLine
 10
-2259.607259549829
 20
-146.4564498355448
 30
0.0
 11
-2259.607259549829
 21
-144.8137513166675
 31
0.0
  0
LINE
  5
274F
330
1F
100
AcDbEntity
  8
PROFILY
100
AcDbLine
 10
-2273.866648477166
 20
-146.4564498355448
 30
0.0
 11
-2273.866648477166
 21
-144.8137513166675
 31
0.0
  0
LINE
  5
2750
330
1F
100
AcDbEntity
  8
PROFILY
100
AcDbLine
 10
-2277.696368192001
 20
-141.200377048337
 30
0.0
 11
-2277.696368192001
 21
-146.4564498355448
 31
0.0
  0
LINE
  5
2751
330
1F
100
AcDbEntity
  8
PROFILY
100
AcDbLine
 10
-2276.202088812174
 20
-144.8137513166684
 30
0.0
 11
-2276.202088812174
 21
-132.8106979402518
 31
0.0
  0
LINE
  5
2752
330
1F
100
AcDbEntity
  8
PROFILY
100
AcDbLine
 10
-2145.532148131132
 20
-144.8137513166675
 30
0.0
 11
-2276.202088812174
 21
-144.8137513166684
 31
0.0
  0
LINE
  5
2753
330
1F
100
AcDbEntity
  8
PROFILY
100
AcDbLine
 10
-2145.532148131132
 20
-146.4564498355448
 30
0.0
 11
-2277.696368191992
 21
-146.4564498355448
 31
0.0
  0
LINE
  5
2754
102
{ACAD_REACTORS
330
2756
102
}
330
1F
100
AcDbEntity
  8
POPIS
100
AcDbLine
 10
-2259.813670673872
 20
229.7853387751729
 30
0.0
 11
-2256.394196886135
 21
235.1666354226513
 31
0.0
  0
LINE
  5
2755
102
{ACAD_REACTORS
330
2756
102
}
330
1F
100
AcDbEntity
  8
POPIS
100
AcDbLine
 10
-2252.974723098391
 20
229.7853387751729
 30
0.0
 11
-2256.394196886128
 21
235.1666354226513
 31
0.0
  0
HATCH
  5
2756
330
1F
100
AcDbEntity
  8
POPIS
100
AcDbHatch
 10
0.0
 20
0.0
 30
0.0
210
0.0
220
0.0
230
1.0
  2
SOLID
 70
     1
 71
     1
 91
        1
 92
        7
 72
     0
 73
     1
 93
        8
 10
-2254.500469046349
 20
242.7209826742564
 10
-2250.821627708751
 20
242.7209826742564
 10
-2256.394196886132
 20
250.5218347571535
 10
-2261.96676606351
 20
242.7209826742564
 10
-2258.287924725912
 20
242.7209826742564
 10
-2259.813670673876
 20
229.7853387751743
 10
-2256.394196886132
 20
235.1666354226576
 10
-2252.974723098393
 20
229.7853387751733
 97
        8
330
275B
330
275C
330
2757
330
2758
330
2759
330
2754
330
2755
330
275A
 75
     0
 76
     1
 47
0.3835833255279223
 98
        1
 10
-2255.986014138877
 20
239.8127994937567
  0
LINE
  5
2757
102
{ACAD_REACTORS
330
2756
102
}
330
1F
100
AcDbEntity
  8
POPIS
100
AcDbLine
 10
-2256.394196886132
 20
250.5218347571535
 30
0.0
 11
-2261.966766063512
 21
242.7209826742564
 31
0.0
  0
LINE
  5
2758
102
{ACAD_REACTORS
330
2756
102
}
330
1F
100
AcDbEntity
  8
POPIS
100
AcDbLine
 10
-2261.966766063512
 20
242.7209826742564
 30
0.0
 11
-2258.287924725914
 21
242.7209826742564
 31
0.0
  0
LINE
  5
2759
102
{ACAD_REACTORS
330
2756
102
}
330
1F
100
AcDbEntity
  8
POPIS
100
AcDbLine
 10
-2258.287924725914
 20
242.7209826742564
 30
0.0
 11
-2259.813670673872
 21
229.7853387751729
 31
0.0
  0
LINE
  5
275A
102
{ACAD_REACTORS
330
2756
102
}
330
1F
100
AcDbEntity
  8
POPIS
100
AcDbLine
 10
-2254.500469046349
 20
242.7209826742564
 30
0.0
 11
-2252.974723098391
 21
229.7853387751729
 31
0.0
  0
LINE
  5
275B
102
{ACAD_REACTORS
330
2756
102
}
330
1F
100
AcDbEntity
  8
POPIS
100
AcDbLine
 10
-2250.821627708751
 20
242.7209826742564
 30
0.0
 11
-2254.500469046349
 21
242.7209826742564
 31
0.0
  0
LINE
  5
275C
102
{ACAD_REACTORS
330
2756
102
}
330
1F
100
AcDbEntity
  8
POPIS
100
AcDbLine
 10
-2256.394196886132
 20
250.5218347571535
 30
0.0
 11
-2250.821627708751
 21
242.7209826742564
 31
0.0
  0
LINE
  5
275D
102
{ACAD_REACTORS
330
275F
102
}
330
1F
100
AcDbEntity
  8
POPIS
100
AcDbLine
 10
-2259.813670673872
 20
81.02125035838071
 30
0.0
 11
-2256.394196886135
 21
86.40254700585911
 31
0.0
  0
LINE
  5
275E
102
{ACAD_REACTORS
330
275F
102
}
330
1F
100
AcDbEntity
  8
POPIS
100
AcDbLine
 10
-2252.974723098391
 20
81.02125035838071
 30
0.0
 11
-2256.394196886128
 21
86.40254700585911
 31
0.0
  0
HATCH
  5
275F
330
1F
100
AcDbEntity
  8
POPIS
100
AcDbHatch
 10
0.0
 20
0.0
 30
0.0
210
0.0
220
0.0
230
1.0
  2
SOLID
 70
     1
 71
     1
 91
        1
 92
        7
 72
     0
 73
     1
 93
        8
 10
-2254.500469046349
 20
93.95689425746423
 10
-2250.821627708751
 20
93.95689425746423
 10
-2256.394196886132
 20
101.7577463403613
 10
-2261.96676606351
 20
93.95689425746423
 10
-2258.287924725912
 20
93.95689425746423
 10
-2259.813670673876
 20
81.02125035838207
 10
-2256.394196886132
 20
86.40254700586547
 10
-2252.974723098393
 20
81.02125035838117
 97
        8
330
2764
330
2765
330
2760
330
2761
330
2762
330
275D
330
275E
330
2763
 75
     0
 76
     1
 47
0.3835833255279223
 98
        1
 10
-2255.986014138877
 20
91.04871107696453
  0
LINE
  5
2760
102
{ACAD_REACTORS
330
275F
102
}
330
1F
100
AcDbEntity
  8
POPIS
100
AcDbLine
 10
-2256.394196886132
 20
101.7577463403613
 30
0.0
 11
-2261.966766063512
 21
93.95689425746423
 31
0.0
  0
LINE
  5
2761
102
{ACAD_REACTORS
330
275F
102
}
330
1F
100
AcDbEntity
  8
POPIS
100
AcDbLine
 10
-2261.966766063512
 20
93.95689425746423
 30
0.0
 11
-2258.287924725914
 21
93.95689425746423
 31
0.0
  0
LINE
  5
2762
102
{ACAD_REACTORS
330
275F
102
}
330
1F
100
AcDbEntity
  8
POPIS
100
AcDbLine
 10
-2258.287924725914
 20
93.95689425746423
 30
0.0
 11
-2259.813670673872
 21
81.02125035838071
 31
0.0
  0
LINE
  5
2763
102
{ACAD_REACTORS
330
275F
102
}
330
1F
100
AcDbEntity
  8
POPIS
100
AcDbLine
 10
-2254.500469046349
 20
93.95689425746423
 30
0.0
 11
-2252.974723098391
 21
81.02125035838071
 31
0.0
  0
LINE
  5
2764
102
{ACAD_REACTORS
330
275F
102
}
330
1F
100
AcDbEntity
  8
POPIS
100
AcDbLine
 10
-2250.821627708751
 20
93.95689425746423
 30
0.0
 11
-2254.500469046349
 21
93.95689425746423
 31
0.0
  0
LINE
  5
2765
102
{ACAD_REACTORS
330
275F
102
}
330
1F
100
AcDbEntity
  8
POPIS
100
AcDbLine
 10
-2256.394196886132
 20
101.7577463403613
 30
0.0
 11
-2250.821627708751
 21
93.95689425746423
 31
0.0
  0
LINE
  5
2766
102
{ACAD_REACTORS
330
276C
102
}
330
1F
100
AcDbEntity
  8
POPIS
100
AcDbLine
 10
-2256.394196886132
 20
-85.00726794194269
 30
0.0
 11
-2250.821627708751
 21
-92.80812002483981
 31
0.0
  0
LINE
  5
2767
102
{ACAD_REACTORS
330
276C
102
}
330
1F
100
AcDbEntity
  8
POPIS
100
AcDbLine
 10
-2250.821627708751
 20
-92.80812002483981
 30
0.0
 11
-2254.500469046349
 21
-92.80812002483981
 31
0.0
  0
LINE
  5
2768
102
{ACAD_REACTORS
330
276C
102
}
330
1F
100
AcDbEntity
  8
POPIS
100
AcDbLine
 10
-2254.500469046349
 20
-92.80812002483981
 30
0.0
 11
-2252.974723098391
 21
-105.7437639239233
 31
0.0
  0
LINE
  5
2769
102
{ACAD_REACTORS
330
276C
102
}
330
1F
100
AcDbEntity
  8
POPIS
100
AcDbLine
 10
-2258.287924725914
 20
-92.80812002483981
 30
0.0
 11
-2259.813670673872
 21
-105.7437639239233
 31
0.0
  0
LINE
  5
276A
102
{ACAD_REACTORS
330
276C
102
}
330
1F
100
AcDbEntity
  8
POPIS
100
AcDbLine
 10
-2261.966766063512
 20
-92.80812002483981
 30
0.0
 11
-2258.287924725914
 21
-92.80812002483981
 31
0.0
  0
LINE
  5
276B
102
{ACAD_REACTORS
330
276C
102
}
330
1F
100
AcDbEntity
  8
POPIS
100
AcDbLine
 10
-2256.394196886132
 20
-85.00726794194269
 30
0.0
 11
-2261.966766063512
 21
-92.80812002483981
 31
0.0
  0
HATCH
  5
276C
330
1F
100
AcDbEntity
  8
POPIS
100
AcDbHatch
 10
0.0
 20
0.0
 30
0.0
210
0.0
220
0.0
230
1.0
  2
SOLID
 70
     1
 71
     1
 91
        1
 92
        7
 72
     0
 73
     1
 93
        8
 10
-2254.500469046349
 20
-92.80812002483981
 10
-2250.821627708751
 20
-92.80812002483981
 10
-2256.394196886132
 20
-85.00726794194269
 10
-2261.96676606351
 20
-92.80812002483981
 10
-2258.287924725912
 20
-92.80812002483981
 10
-2259.813670673876
 20
-105.7437639239219
 10
-2256.394196886132
 20
-100.3624672764385
 10
-2252.974723098393
 20
-105.7437639239228
 97
        8
330
2767
330
2766
330
276B
330
276A
330
2769
330
276E
330
276D
330
2768
 75
     0
 76
     1
 47
0.3835833255279223
 98
        1
 10
-2255.986014138877
 20
-95.7163032053395
  0
LINE
  5
276D
102
{ACAD_REACTORS
330
276C
102
}
330
1F
100
AcDbEntity
  8
POPIS
100
AcDbLine
 10
-2252.974723098391
 20
-105.7437639239233
 30
0.0
 11
-2256.394196886128
 21
-100.3624672764449
 31
0.0
  0
LINE
  5
276E
102
{ACAD_REACTORS
330
276C
102
}
330
1F
100
AcDbEntity
  8
POPIS
100
AcDbLine
 10
-2259.813670673872
 20
-105.7437639239233
 30
0.0
 11
-2256.394196886135
 21
-100.3624672764449
 31
0.0
  0
TEXT
  5
276F
330
1F
100
AcDbEntity
  8
POPIS
100
AcDbText
 10
-2291.472481541916
 20
-629.9194362746511
 30
0.0
 40
25.0
  1
- PROTECTOR profil 9083
 41
0.7
  7
SIMPLEX7
100
AcDbText
  0
LINE
  5
2770
330
1F
100
AcDbEntity
  8
PROFILY
100
AcDbLine
 10
-2406.961368904186
 20
-673.1120089365068
 30
0.0
 11
-2406.961368904186
 21
-694.1448478391921
 31
0.0
  0
LINE
  5
2771
330
1F
100
AcDbEntity
  8
PROFILY
100
AcDbLine
 10
-2404.523868904186
 20
-675.2116870767068
 30
0.0
 11
-2404.523868904186
 21
-690.1912180706676
 31
0.0
  0
LINE
  5
2772
330
1F
100
AcDbEntity
  8
PROFILY
100
AcDbLine
 10
-2405.571212350954
 20
-694.7162226343225
 30
0.0
 11
-2396.398868904186
 21
-685.4430374225976
 31
0.0
  0
LINE
  5
2773
330
1F
100
AcDbEntity
  8
PROFILY
100
AcDbLine
 10
-2404.523868904186
 20
-690.1912180706676
 30
0.0
 11
-2398.131838563887
 21
-683.7289130372191
 31
0.0
  0
HATCH
  5
2774
330
1F
100
AcDbEntity
  8
PROFILY
100
AcDbHatch
 10
0.0
 20
0.0
 30
0.0
210
0.0
220
0.0
230
1.0
  2
SOLID
 70
     1
 71
     0
 91
        5
 92
        7
 72
     1
 73
     1
 93
        9
 10
-2406.961368904186
 20
-673.1120089365068
 42
0.0
 10
-2406.961368904186
 20
-674.1917912509343
 42
0.0
 10
-2405.853287416304
 20
-674.1917912509343
 42
-0.8959696833012131
 10
-2403.383213231823
 20
-674.4636717106295
 42
-0.1240761635642614
 10
-2403.53252937464
 20
-675.0561200598858
 42
0.0
 10
-2359.965060545276
 20
-668.2192483784819
 42
0.0
 10
-2359.965060545277
 20
-615.7198724134314
 42
0.0
 10
-2362.306157875003
 20
-615.7198724134314
 42
0.0
 10
-2362.306157875005
 20
-666.3390042951395
 42
0.0
 97
        0
 92
        7
 72
     1
 73
     1
 93
        8
 10
-2396.398868904186
 20
-685.4430374225976
 42
0.0
 10
-2398.131838563887
 20
-683.7289130372191
 42
0.0
 10
-2404.523868904186
 20
-690.1912180706676
 42
0.0
 10
-2404.523868904186
 20
-675.7088800538449
 42
-0.5072240797221012
 10
-2405.853287416304
 20
-674.1917912509343
 42
0.0
 10
-2406.961368904186
 20
-674.1917912509343
 42
0.0
 10
-2406.961368904186
 20
-694.1448478391921
 42
0.6701573805505898
 10
-2405.571212350952
 20
-694.7162226343207
 42
0.0
 97
        0
 92
        7
 72
     0
 73
     1
 93
        4
 10
-2359.965060545277
 20
-604.2664827586673
 10
-2362.306157875003
 20
-604.2664827586699
 10
-2362.306157875003
 20
-609.4043830158748
 10
-2359.965060545277
 20
-609.4043830158748
 97
        0
 92
        7
 72
     0
 73
     1
 93
        5
 10
-2362.136942102754
 20
-615.7198724134314
 10
-2360.379129602754
 20
-615.7198724134314
 10
-2359.965060545277
 20
-614.1745456530843
 10
-2359.965060545277
 20
-609.4043830158748
 10
-2360.444711818873
 20
-609.4043830158748
 97
        0
 92
        7
 72
     0
 73
     1
 93
        5
 10
-2360.444711818873
 20
-609.4043830158748
 10
-2362.202524318872
 20
-609.4043830158748
 10
-2362.306157875003
 20
-609.7911487127276
 10
-2362.306157875003
 20
-615.7198724134314
 10
-2362.136942102754
 20
-615.7198724134314
 97
        0
 75
     0
 76
     1
 47
0.0616332266500822
 98
        5
 10
-2397.77470672511
 20
-672.4379438296328
 10
-2404.816599760597
 20
-691.9086889812952
 10
-2360.998125175438
 20
-606.2461321006836
 10
-2360.829877899584
 20
-612.5844572589035
 10
-2361.600186239785
 20
-611.2372308659273
  0
LINE
  5
2775
330
1F
100
AcDbEntity
  8
PROFILY
100
AcDbLine
 10
-2406.961368904186
 20
-673.1120089365068
 30
0.0
 11
-2362.306157875005
 21
-666.3390042951395
 31
0.0
  0
LINE
  5
2776
330
1F
100
AcDbEntity
  8
PROFILY
100
AcDbLine
 10
-2404.523868904186
 20
-675.2116870767068
 30
0.0
 11
-2359.965060545276
 21
-668.2192483784819
 31
0.0
  0
LINE
  5
2777
330
1F
100
AcDbEntity
  8
PROFILY
100
AcDbLine
 10
-2362.306157875005
 20
-666.3390042951395
 30
0.0
 11
-2362.306157875003
 21
-604.2664827586699
 31
0.0
  0
LINE
  5
2778
330
1F
100
AcDbEntity
  8
PROFILY
100
AcDbLine
 10
-2359.965060545276
 20
-668.2192483784819
 30
0.0
 11
-2359.965060545277
 21
-604.2664827586673
 31
0.0
  0
HATCH
  5
2779
330
1F
100
AcDbEntity
  8
STAVBA OBRYS
100
AcDbHatch
 10
0.0
 20
0.0
 30
0.0
210
0.0
220
0.0
230
1.0
  2
AR-SAND
 70
     0
 71
     0
 91
        1
 92
        7
 72
     0
 73
     1
 93
        4
 10
-1897.637261084092
 20
388.8895775445303
 10
-1907.637245207201
 20
388.9073971294174
 10
-1908.370890803413
 20
-22.79940526292648
 10
-1898.370874926495
 20
-22.79940526292648
 97
        0
 75
     0
 76
     1
 52
0.0
 41
0.1
 77
     0
 78
     4
 53
37.5
 43
-12532.08351948427
 44
3445.861215162669
 45
-0.1600031295984046
 46
4.894132373293423
 79
     6
 49
0.0
 49
-3.8608
 49
0.0
 49
-4.318
 49
0.0
 49
-4.1275
 53
7.499999999999999
 43
-12532.08351948427
 44
3445.861215162669
 45
4.495232831380026
 46
7.168251005683543
 79
     6
 49
0.0
 49
-2.0828
 49
0.0
 49
-3.4798
 49
0.0
 49
-1.3335
 53
327.4999999999999
 43
-12535.20771948427
 44
3445.861215162669
 45
7.909923702414579
 46
0.0143718467854569
 79
     6
 49
0.0
 49
-1.27
 49
0.0
 49
-4.572
 49
0.0
 49
-5.969
 53
317.5
 43
-12535.20771948427
 44
3445.861215162669
 45
7.635564524722972
 46
2.229293232572162
 79
     6
 49
0.0
 49
-0.635
 49
0.0
 49
-2.997199999999999
 49
0.0
 49
-3.429
 47
0.6547511084991024
 98
        1
 10
-1902.686950248367
 20
292.6725476151295
  0
LINE
  5
277A
330
1F
100
AcDbEntity
  8
STAVBA OBRYS
100
AcDbLine
 10
-1898.370874926494
 20
-22.79940526292603
 30
0.0
 11
-1897.637261084092
 21
388.8895775445298
 31
0.0
  0
HATCH
  5
277B
330
1F
100
AcDbEntity
  8
NOSNÉ KONSTRUKCE
100
AcDbHatch
 10
0.0
 20
0.0
 30
0.0
210
0.0
220
0.0
230
1.0
  2
SOLID
 70
     1
 71
     0
 91
        5
 92
        7
 72
     0
 73
     1
 93
        4
 10
-2145.181252316179
 20
-3.060770372798288
 10
-2148.181252316177
 20
-3.060770372798288
 10
-2148.181252316177
 20
-8.708236752880566
 10
-2145.181252316178
 20
-8.708236752880111
 97
        0
 92
        7
 72
     0
 73
     1
 93
        4
 10
-2145.181252316178
 20
-8.708236752880111
 10
-2148.181252316177
 20
-8.708236752880566
 10
-2148.18125231618
 20
-21.89163404233113
 10
-2145.181252316179
 20
-21.89163404233068
 97
        0
 92
        7
 72
     0
 73
     1
 93
        4
 10
-2145.181252316179
 20
-21.89163404233113
 10
-2148.181252316181
 20
-21.89163404233113
 10
-2148.181252316181
 20
-28.45413404233113
 10
-2145.181252316179
 20
-28.45413404233113
 97
        0
 92
        7
 72
     0
 73
     1
 93
        4
 10
-2145.181252316178
 20
-28.45413404233113
 10
-2148.18125231618
 20
-28.45413404233113
 10
-2148.18125231618
 20
-35.01663404233113
 10
-2145.181252316179
 20
-35.01663404233068
 97
        0
 92
        7
 72
     0
 73
     1
 93
        4
 10
-2145.181252316178
 20
-35.01663404233068
 10
-2148.181252316181
 20
-35.01663404233204
 10
-2148.181252316181
 20
-53.84749771186853
 10
-2145.181252316178
 20
-53.84749771186898
 97
        0
 75
     0
 76
     1
 47
0.1874983414428997
 98
        5
 10
-2146.096790484766
 20
-8.10509487841
 10
-2146.096790484766
 20
-12.79256002469219
 10
-2146.096790484766
 20
-24.60495960748403
 10
-2145.7215799684
 20
-30.97990776436517
 10
-2145.909170252906
 20
-40.16732760558034
  0
LINE
  5
277C
330
1F
100
AcDbEntity
  8
NOSNÉ KONSTRUKCE
100
AcDbLine
 10
-2148.181252316181
 20
-53.84749771186898
 30
0.0
 11
-2148.181252316177
 21
-3.060770372794195
 31
0.0
  0
HATCH
  5
277D
330
1F
100
AcDbEntity
  8
NOSNÉ KONSTRUKCE
100
AcDbHatch
 10
0.0
 20
0.0
 30
0.0
210
0.0
220
0.0
230
1.0
  2
SOLID
 70
     1
 71
     0
 91
        5
 92
        7
 72
     0
 73
     1
 93
        4
 10
-2145.181252316181
 20
315.054397205673
 10
-2148.18125231618
 20
315.054397205673
 10
-2148.18125231618
 20
309.4069308255907
 10
-2145.181252316179
 20
309.4069308255912
 97
        0
 92
        7
 72
     0
 73
     1
 93
        4
 10
-2145.181252316179
 20
309.4069308255912
 10
-2148.18125231618
 20
309.4069308255907
 10
-2148.181252316181
 20
296.2235335361402
 10
-2145.181252316181
 20
296.2235335361406
 97
        0
 92
        7
 72
     0
 73
     1
 93
        4
 10
-2145.181252316181
 20
296.2235335361402
 10
-2148.181252316183
 20
296.2235335361402
 10
-2148.181252316183
 20
289.6610335361401
 10
-2145.181252316181
 20
289.6610335361401
 97
        0
 92
        7
 72
     0
 73
     1
 93
        4
 10
-2145.181252316179
 20
289.6610335361401
 10
-2148.181252316181
 20
289.6610335361401
 10
-2148.181252316181
 20
283.0985335361401
 10
-2145.181252316181
 20
283.0985335361406
 97
        0
 92
        7
 72
     0
 73
     1
 93
        4
 10
-2145.181252316179
 20
283.0985335361406
 10
-2148.181252316183
 20
283.0985335361392
 10
-2148.181252316183
 20
264.2676698666027
 10
-2145.181252316179
 20
264.2676698666023
 97
        0
 75
     0
 76
     1
 47
0.1874983414428997
 98
        5
 10
-2146.096790484768
 20
310.0100727000612
 10
-2146.096790484768
 20
305.3226075537791
 10
-2146.096790484768
 20
293.5102079709872
 10
-2145.721579968403
 20
287.1352598141061
 10
-2145.909170252908
 20
277.9478399728909
  0
LINE
  5
277E
330
1F
100
AcDbEntity
  8
NOSNÉ KONSTRUKCE
100
AcDbLine
 10
-2148.181252316183
 20
264.2676698666023
 30
0.0
 11
-2148.18125231618
 21
315.054397205677
 31
0.0
  0
TEXT
  5
277F
330
1F
100
AcDbEntity
  8
POPIS
100
AcDbText
 10
-2549.781881970174
 20
-274.3939598453698
 30
0.0
 40
25.0
  1
TERÉN
 41
0.7
  7
SIMPLEX7
100
AcDbText
  0
TEXT
  5
2780
330
1F
100
AcDbEntity
  8
POPIS
100
AcDbText
 10
-2547.136088160251
 20
497.9450327069171
 30
0.0
 40
50.0
  1
SPODNÍ ZAKONČENÍ
 41
0.85
  7
SIMPLEX7
100
AcDbText
  0
TEXT
  5
2781
330
1F
100
AcDbEntity
  8
POPIS
100
AcDbText
 10
-2547.136088160251
 20
443.3202896811162
 30
0.0
 40
35.0
  1
ŘEZ-ŘEŠENÍ OPLECHOVÁNÍM
 41
0.85
  7
SIMPLEX7
100
AcDbText
  0
HATCH
  5
2782
330
1F
100
AcDbEntity
  8
STAVBA OBRYS
100
AcDbHatch
 10
0.0
 20
0.0
 30
0.0
210
0.0
220
0.0
230
1.0
  2
BRICK
 70
     0
 71
     0
 91
        2
 92
        7
 72
     0
 73
     1
 93
       24
 10
-1907.791082616699
 20
302.5770105226811
 10
-1907.6372452072
 20
388.9073971294178
 10
-2145.181252316129
 20
364.4419087341166
 10
-2145.181252316131
 20
352.7462951811839
 10
-2063.109052690401
 20
352.7462951811831
 10
-2059.320191548845
 20
346.183795181183
 10
-2063.109052690401
 20
339.621295181183
 10
-2145.181252316131
 20
339.621295181184
 10
-2145.181252316131
 20
296.2235335361433
 10
-2067.63557907344
 20
296.2235335361424
 10
-2063.846717931884
 20
289.6610335361424
 10
-2067.63557907344
 20
283.0985335361424
 10
-2145.181252316129
 20
283.0985335361433
 10
-2145.181252316132
 20
46.1509701103987
 10
-2100.582346310239
 20
-21.8916340423284
 10
-2067.63557907344
 20
-21.89163404232886
 10
-2063.846717931884
 20
-28.45413404232886
 10
-2067.63557907344
 20
-35.01663404232886
 10
-2145.181252316134
 20
-35.01663404232795
 10
-2145.181252316134
 20
-113.4846573178611
 10
-2070.927684481542
 20
-113.484657317862
 10
-2070.927684481542
 20
-79.74005985028634
 10
-1908.314713680324
 20
-79.74005985028634
 10
-1907.633439950294
 20
302.5767296095473
 97
        0
 92
        7
 72
     0
 73
     1
 93
        8
 10
-1908.503317392206
 20
-185.5805794957305
 10
-2070.927684481542
 20
-185.5805794957309
 10
-2070.927684481542
 20
-126.609657317862
 10
-2145.181252316134
 20
-126.609657317861
 10
-2145.181252316136
 20
-180.7637149054326
 10
-2310.046927312451
 20
-180.7637149054326
 10
-2310.046927312451
 20
-240.4625170220961
 10
-1908.588381741486
 20
-233.3169407854175
 97
        0
 75
     0
 76
     1
 52
0.0
 41
10.0
 77
     0
 78
     3
 53
0.0
 43
-4680.127039821711
 44
-277.2532112675144
 45
0.0
 46
63.5
 79
     0
 53
90.0
 43
-4680.127039821711
 44
-277.2532112675144
 45
-127.0
 46
0.0000000000000078
 79
     2
 49
63.5
 49
-63.5
 53
90.0
 43
-4616.627039821712
 44
-277.2532112675144
 45
-127.0
 46
0.0000000000000078
 79
     2
 49
-63.5
 49
63.5
 47
3.127950244431548
 98
        2
 10
-1958.995433287039
 20
26.55627026625734
 10
-2121.737627548146
 20
-198.6561528426937
  0
INSERT
  5
2783
330
1F
100
AcDbEntity
  8
POPIS
100
AcDbBlockReference
  2
E_PUNKT
 10
-2245.412970068896
 20
143.8257059457118
 30
0.0
  0
INSERT
  5
2784
330
1F
100
AcDbEntity
  8
POPIS
100
AcDbBlockReference
  2
E_PUNKT
 10
-2188.580835823962
 20
202.5555706314712
 30
0.0
  0
TEXT
  5
2785
330
1F
100
AcDbEntity
  8
POPIS
100
AcDbText
 10
-2491.584248570509
 20
188.7762366961396
 30
0.0
 40
25.0
  1
08
 41
0.7
  7
SIMPLEX7
100
AcDbText
  0
LINE
  5
2786
330
1F
100
AcDbEntity
  8
POPIS
100
AcDbLine
 10
-2451.017782771449
 20
202.2195781455102
 30
0.0
 11
-2188.352836379649
 21
202.2195781455093
 31
0.0
  0
TEXT
  5
2787
330
1F
100
AcDbEntity
  8
POPIS
100
AcDbText
 10
-2490.995269114718
 20
130.4114328272144
 30
0.0
 40
25.0
  1
03
 41
0.7
  7
SIMPLEX7
100
AcDbText
  0
LINE
  5
2788
330
1F
100
AcDbEntity
  8
POPIS
100
AcDbLine
 10
-2451.017782771449
 20
143.8547742765849
 30
0.0
 11
-2244.13535969327
 21
143.8547742765845
 31
0.0
  0
LINE
  5
2789
330
1F
100
AcDbEntity
  8
NOSNÉ KONSTRUKCE
  6
DASHED
100
AcDbLine
 10
-2234.181252316125
 20
-53.84749771186034
 30
0.0
 11
-2234.18125231613
 21
-3.060770372791012
 31
0.0
  0
LINE
  5
278A
330
1F
100
AcDbEntity
  8
NOSNÉ KONSTRUKCE
100
AcDbLine
 10
-2234.18125231613
 20
-3.060770372790102
 30
0.0
 11
-2234.181252316121
 21
292.2763246467793
 31
0.0
  0
LINE
  5
278B
330
1F
100
AcDbEntity
  8
NOSNÉ KONSTRUKCE
100
AcDbLine
 10
-2247.681252316143
 20
-3.060770372789193
 30
0.0
 11
-2145.181252316136
 21
-3.06077037279465
 31
0.0
  0
LINE
  5
278C
330
1F
100
AcDbEntity
  8
NOSNÉ KONSTRUKCE
100
AcDbLine
 10
-2247.681252316143
 20
-43.06077037279101
 30
0.0
 11
-2247.681252316143
 21
-33.64454131711409
 31
0.0
  0
LINE
  5
278D
330
1F
100
AcDbEntity
  8
NOSNÉ KONSTRUKCE
100
AcDbLine
 10
-2247.681252316145
 20
-53.84749771185943
 30
0.0
 11
-2247.681252316145
 21
-33.64454131711409
 31
0.0
  0
LINE
  5
278E
330
1F
100
AcDbEntity
  8
NOSNÉ KONSTRUKCE
100
AcDbLine
 10
-2278.975435996758
 20
-144.2005126740932
 30
0.0
 11
-2278.975435996749
 21
290.8626459946726
 31
0.0
  0
LINE
  5
278F
330
1F
100
AcDbEntity
  8
NOSNÉ KONSTRUKCE
100
AcDbLine
 10
-2247.681252316145
 20
-53.84749771185943
 30
0.0
 11
-2145.181252316134
 21
-53.8474977118658
 31
0.0
  0
LINE
  5
2790
330
1F
100
AcDbEntity
  8
POPIS
100
AcDbLine
 10
-2200.711826758302
 20
-13.79730210370189
 30
0.0
 11
-2242.946773567301
 21
20.40280788077006
 31
0.0
  0
INSERT
  5
2791
330
1F
100
AcDbEntity
  8
POPIS
100
AcDbBlockReference
  2
E_PUNKT
 10
-2200.504207864706
 20
-14.04350564785181
 30
0.0
  0
LINE
  5
2792
330
1F
100
AcDbEntity
  8
NOSNÉ KONSTRUKCE
100
AcDbLine
 10
-2151.181252316136
 20
-48.44020031703621
 30
0.0
 11
-2151.181252316134
 21
-8.409495825464091
 31
0.0
  0
LINE
  5
2793
330
1F
100
AcDbEntity
  8
NOSNÉ KONSTRUKCE
100
AcDbLine
 10
-2275.681252316134
 20
-144.2005126740932
 30
0.0
 11
-2234.181252316134
 21
-144.2005126740932
 31
0.0
  0
LINE
  5
2794
330
1F
100
AcDbEntity
  8
NOSNÉ KONSTRUKCE
100
AcDbLine
 10
-2234.181252316134
 20
-144.2005126740932
 30
0.0
 11
-2234.181252316125
 21
-53.84749771186034
 31
0.0
  0
LINE
  5
2795
330
1F
100
AcDbEntity
  8
NOSNÉ KONSTRUKCE
100
AcDbLine
 10
-2284.181252316134
 20
-144.2005126740932
 30
0.0
 11
-2284.18125231613
 21
290.6983534282544
 31
0.0
  0
LINE
  5
2796
330
1F
100
AcDbEntity
  8
NOSNÉ KONSTRUKCE
100
AcDbLine
 10
-2275.681252316134
 20
-144.2005126740932
 30
0.0
 11
-2275.681252316136
 21
-104.4575909868908
 31
0.0
  0
LINE
  5
2797
330
1F
100
AcDbEntity
  8
NOSNÉ KONSTRUKCE
100
AcDbLine
 10
-2275.681252316136
 20
-104.4575909868908
 30
0.0
 11
-2278.975435996756
 21
-104.4575909868908
 31
0.0
  0
LINE
  5
2798
330
1F
100
AcDbEntity
  8
NOSNÉ KONSTRUKCE
100
AcDbLine
 10
-2284.181252316134
 20
-144.2005126740932
 30
0.0
 11
-2278.975435996758
 21
-144.2005126740932
 31
0.0
  0
LINE
  5
2799
330
1F
100
AcDbEntity
  8
PROFILY
100
AcDbLine
 10
-2276.298006805506
 20
-169.9103566067037
 30
0.0
 11
-2276.298006805508
 21
-105.957590986889
 31
0.0
  0
LINE
  5
279A
330
1F
100
AcDbEntity
  8
PROFILY
100
AcDbLine
 10
-2278.639104135235
 20
-168.0301125233609
 30
0.0
 11
-2278.639104135233
 21
-105.9575909868917
 31
0.0
  0
LINE
  5
279B
330
1F
100
AcDbEntity
  8
PROFILY
100
AcDbLine
 10
-2320.856815164416
 20
-176.9027953049285
 30
0.0
 11
-2276.298006805506
 21
-169.9103566067037
 31
0.0
  0
LINE
  5
279C
330
1F
100
AcDbEntity
  8
PROFILY
100
AcDbLine
 10
-2323.294315164416
 20
-174.8031171647289
 30
0.0
 11
-2278.639104135235
 21
-168.0301125233609
 31
0.0
  0
SOLID
  5
279D
330
1F
100
AcDbEntity
  8
CETRIS
100
AcDbTrace
 10
-2297.290116819679
 20
290.1730654341999
 30
0.0
 11
-2285.290116819683
 21
290.6633583028174
 31
0.0
 12
-2297.290116819679
 22
-164.2005126740932
 32
0.0
 13
-2285.290116819679
 23
-164.2005126740932
 33
0.0
  0
LINE
  5
279E
330
1F
100
AcDbEntity
  8
CETRIS
100
AcDbLine
 10
-2297.290116819679
 20
-164.2005126740932
 30
0.0
 11
-2297.290116819679
 21
290.1730654341999
 31
0.0
  0
LINE
  5
279F
330
1F
100
AcDbEntity
  8
CETRIS
100
AcDbLine
 10
-2297.290116819679
 20
-164.2005126740932
 30
0.0
 11
-2293.290116819679
 21
-164.2005126740932
 31
0.0
  0
LINE
  5
27A0
330
1F
100
AcDbEntity
  8
PROFILY
100
AcDbLine
 10
-2320.856815164416
 20
-191.8823262988894
 30
0.0
 11
-2314.464784824117
 21
-185.4200212654409
 31
0.0
  0
LINE
  5
27A1
330
1F
100
AcDbEntity
  8
PROFILY
100
AcDbLine
 10
-2312.731815164416
 20
-187.1341456508198
 30
0.0
 11
-2314.464784824117
 21
-185.4200212654409
 31
0.0
  0
LINE
  5
27A2
330
1F
100
AcDbEntity
  8
PROFILY
100
AcDbLine
 10
-2321.904158611184
 20
-196.4073308625438
 30
0.0
 11
-2312.731815164416
 21
-187.1341456508198
 31
0.0
  0
ARC
  5
27A3
330
1F
100
AcDbEntity
  8
PROFILY
100
AcDbCircle
 10
-2322.481815164417
 20
-195.8359560674134
 30
0.0
 40
0.8125
100
AcDbArc
 50
180.0
 51
315.3132330916631
  0
LINE
  5
27A4
330
1F
100
AcDbEntity
  8
PROFILY
100
AcDbLine
 10
-2320.856815164416
 20
-176.9027953049285
 30
0.0
 11
-2320.856815164416
 21
-191.8823262988894
 31
0.0
  0
LINE
  5
27A5
330
1F
100
AcDbEntity
  8
PROFILY
100
AcDbLine
 10
-2323.294315164416
 20
-174.8031171647289
 30
0.0
 11
-2323.294315164416
 21
-195.8359560674134
 31
0.0
  0
LINE
  5
27A6
330
1F
100
AcDbEntity
  8
POPIS
100
AcDbLine
 10
-2451.017782771449
 20
-175.8828994791556
 30
0.0
 11
-2320.980179672687
 21
-175.882899479156
 31
0.0
  0
TEXT
  5
27A7
330
1F
100
AcDbEntity
  8
POPIS
100
AcDbText
 10
-2492.397392809444
 20
-189.3262409285262
 30
0.0
 40
25.0
  1
07
 41
0.7
  7
SIMPLEX7
100
AcDbText
  0
INSERT
  5
27A8
330
1F
100
AcDbEntity
  8
POPIS
100
AcDbBlockReference
  2
E_PUNKT
 10
-2322.227864232794
 20
-176.1838482697239
 30
0.0
  0
LINE
  5
27A9
330
1F
100
AcDbEntity
  8
STAVBA OBRYS
100
AcDbLine
 10
-2145.181252316136
 20
-180.7637149054326
 30
0.0
 11
-2145.181252316129
 21
295.0851134157533
 31
0.0
  0
LINE
  5
27AA
330
1F
100
AcDbEntity
  8
STAVBA OBRYS
  6
IZOLACE
 48
4.0
100
AcDbLine
 10
-2188.099052971279
 20
-134.9732167904767
 30
0.0
 11
-2188.099052971268
 21
360.0216542867006
 31
0.0
  0
LINE
  5
27AB
330
1F
100
AcDbEntity
  8
POPIS
100
AcDbLine
 10
-2451.017782771449
 20
20.40280788077052
 30
0.0
 11
-2242.946773567301
 21
20.40280788077006
 31
0.0
  0
TEXT
  5
27AC
330
1F
100
AcDbEntity
  8
POPIS
100
AcDbText
 10
-2492.397392809444
 20
6.959466431400869
 30
0.0
 40
25.0
  1
05
 41
0.7
  7
SIMPLEX7
100
AcDbText
  0
LINE
  5
27AD
330
1F
100
AcDbEntity
  8
POPIS
100
AcDbLine
 10
-2451.017782771449
 20
277.3783868434602
 30
0.0
 11
-2288.181252316126
 21
277.3783868434593
 31
0.0
  0
TEXT
  5
27AE
330
1F
100
AcDbEntity
  8
POPIS
100
AcDbText
 10
-2489.321433869171
 20
263.9350453940896
 30
0.0
 40
25.0
  1
01
 41
0.7
  7
SIMPLEX7
100
AcDbText
  0
LINE
  5
27AF
330
1F
100
AcDbEntity
  8
SPOJOVACÍ
  6
DASHED
100
AcDbLine
 10
-2067.63557907344
 20
-35.01663404232886
 30
0.0
 11
-2148.734674017115
 21
-35.01663404232795
 31
0.0
  0
LINE
  5
27B0
330
1F
100
AcDbEntity
  8
SPOJOVACÍ
  6
DASHED
100
AcDbLine
 10
-2067.63557907344
 20
-21.89163404232886
 30
0.0
 11
-2148.734674017115
 21
-21.89163404232794
 31
0.0
  0
LINE
  5
27B1
330
1F
100
AcDbEntity
  8
SPOJOVACÍ
  6
DASHDOT2
100
AcDbLine
 10
-2163.907775485549
 20
-28.45413404232795
 30
0.0
 11
-2048.987665741641
 21
-28.45413404232886
 31
0.0
  0
LINE
  5
27B2
330
1F
100
AcDbEntity
  8
SPOJOVACÍ
100
AcDbLine
 10
-2148.882162499077
 20
-28.74316059870989
 30
0.0
 11
-2148.726196536134
 21
-28.16108770076425
 31
0.0
  0
LINE
  5
27B3
330
1F
100
AcDbEntity
  8
SPOJOVACÍ
100
AcDbLine
 10
-2147.060436330618
 20
-28.9419812447395
 30
0.0
 11
-2146.81590579476
 21
-28.02938086091535
 31
0.0
  0
LINE
  5
27B4
330
1F
100
AcDbEntity
  8
SPOJOVACÍ
100
AcDbLine
 10
-2145.236221618625
 20
-29.13151451986414
 30
0.0
 11
-2144.827065324784
 21
-27.60452244300449
 31
0.0
  0
LINE
  5
27B5
330
1F
100
AcDbEntity
  8
SPOJOVACÍ
100
AcDbLine
 10
-2143.40951217892
 20
-29.31173734440972
 30
0.0
 11
-2142.901848605825
 21
-27.41711109646439
 31
0.0
  0
LINE
  5
27B6
330
1F
100
AcDbEntity
  8
SPOJOVACÍ
100
AcDbLine
 10
-2141.580301599565
 20
-29.48262578870162
 30
0.0
 11
-2140.979546039084
 21
-27.24057551405121
 31
0.0
  0
LINE
  5
27B7
330
1F
100
AcDbEntity
  8
SPOJOVACÍ
100
AcDbLine
 10
-2139.748583238112
 20
-29.64415506278965
 30
0.0
 11
-2139.060140083644
 21
-27.07485023219442
 31
0.0
  0
LINE
  5
27B8
330
1F
100
AcDbEntity
  8
SPOJOVACÍ
100
AcDbLine
 10
-2137.914350218733
 20
-29.79629950574372
 30
0.0
 11
-2137.143613629453
 21
-26.91987139529828
 31
0.0
  0
LINE
  5
27B9
330
1F
100
AcDbEntity
  8
SPOJOVACÍ
100
AcDbLine
 10
-2134.238311517968
 20
-30.07232683227812
 30
0.0
 11
-2133.319132879551
 21
-26.64190545247675
 31
0.0
  0
LINE
  5
27BA
330
1F
100
AcDbEntity
  8
SPOJOVACÍ
100
AcDbLine
 10
-2132.396490890546
 20
-30.19615393650338
 30
0.0
 11
-2131.411146430266
 21
-26.51879834777901
 31
0.0
  0
LINE
  5
27BB
330
1F
100
AcDbEntity
  8
SPOJOVACÍ
100
AcDbLine
 10
-2136.077595429239
 20
-29.93903257449983
 30
0.0
 11
-2135.229949987365
 21
-26.77557671861814
 31
0.0
  0
LINE
  5
27BC
330
1F
100
AcDbEntity
  8
SPOJOVACÍ
100
AcDbLine
 10
-2128.705207875959
 20
-30.41528870933416
 30
0.0
 11
-2127.603603961522
 21
-26.30404693083483
 31
0.0
  0
LINE
  5
27BD
330
1F
100
AcDbEntity
  8
SPOJOVACÍ
100
AcDbLine
 10
-2126.855729055624
 20
-30.5105350485137
 30
0.0
 11
-2125.70401812233
 21
-26.21229132981943
 31
0.0
  0
LINE
  5
27BE
330
1F
100
AcDbEntity
  8
SPOJOVACÍ
100
AcDbLine
 10
-2125.003680645409
 20
-30.59619154769825
 30
0.0
 11
-2123.807203285911
 21
-26.13087725195055
 31
0.0
  0
LINE
  5
27BF
330
1F
100
AcDbEntity
  8
SPOJOVACÍ
100
AcDbLine
 10
-2123.149053784317
 20
-30.67222513721754
 30
0.0
 11
-2121.91314545941
 21
-26.05975247517017
 31
0.0
  0
LINE
  5
27C0
330
1F
100
AcDbEntity
  8
SPOJOVACÍ
100
AcDbLine
 10
-2130.55212570654
 20
-30.31048462627586
 30
0.0
 11
-2129.505975156925
 21
-26.40619762274536
 31
0.0
  0
LINE
  5
27C1
330
1F
100
AcDbEntity
  8
SPOJOVACÍ
100
AcDbLine
 10
-2154.40506551222
 20
-42.51663404232795
 30
0.0
 11
-2151.547174017115
 21
-42.51663404232795
 31
0.0
  0
LINE
  5
27C2
330
1F
100
AcDbEntity
  8
SPOJOVACÍ
100
AcDbLine
 10
-2159.09256551222
 20
-38.76663404232795
 30
0.0
 11
-2154.40506551222
 21
-38.76663404232795
 31
0.0
  0
LINE
  5
27C3
330
1F
100
AcDbEntity
  8
SPOJOVACÍ
100
AcDbLine
 10
-2154.40506551222
 20
-33.14163404232795
 30
0.0
 11
-2159.09256551222
 21
-33.14163404232795
 31
0.0
  0
ARC
  5
27C4
330
1F
100
AcDbEntity
  8
SPOJOVACÍ
100
AcDbCircle
 10
-2159.09256551222
 20
-35.01663404232795
 30
0.0
 40
1.875
100
AcDbArc
 50
90.0
 51
180.0
  0
ARC
  5
27C5
330
1F
100
AcDbEntity
  8
SPOJOVACÍ
100
AcDbCircle
 10
-2159.09256551222
 20
-36.89163404232795
 30
0.0
 40
1.875
100
AcDbArc
 50
180.0
 51
270.0
  0
LINE
  5
27C6
330
1F
100
AcDbEntity
  8
SPOJOVACÍ
100
AcDbLine
 10
-2154.40506551222
 20
-23.76663404232794
 30
0.0
 11
-2159.09256551222
 21
-23.76663404232794
 31
0.0
  0
LINE
  5
27C7
330
1F
100
AcDbEntity
  8
SPOJOVACÍ
100
AcDbLine
 10
-2154.40506551222
 20
-18.14163404232795
 30
0.0
 11
-2159.09256551222
 21
-18.14163404232795
 31
0.0
  0
LINE
  5
27C8
330
1F
100
AcDbEntity
  8
SPOJOVACÍ
100
AcDbLine
 10
-2154.40506551222
 20
-18.14163404232795
 30
0.0
 11
-2154.414440512219
 21
-18.14163404232795
 31
0.0
  0
ARC
  5
27C9
330
1F
100
AcDbEntity
  8
SPOJOVACÍ
100
AcDbCircle
 10
-2159.09256551222
 20
-21.89163404232794
 30
0.0
 40
1.875
100
AcDbArc
 50
180.0
 51
270.0
  0
ARC
  5
27CA
330
1F
100
AcDbEntity
  8
SPOJOVACÍ
100
AcDbCircle
 10
-2159.09256551222
 20
-20.01663404232794
 30
0.0
 40
1.875
100
AcDbArc
 50
90.0
 51
180.0
  0
LINE
  5
27CB
330
1F
100
AcDbEntity
  8
SPOJOVACÍ
100
AcDbLine
 10
-2160.96756551222
 20
-20.01663404232794
 30
0.0
 11
-2160.96756551222
 21
-36.89163404232795
 31
0.0
  0
ARC
  5
27CC
330
1F
100
AcDbEntity
  8
SPOJOVACÍ
100
AcDbCircle
 10
-2154.302994817478
 20
-28.45413404232795
 30
0.0
 40
6.701689614562111
100
AcDbArc
 50
135.6170676673749
 51
224.382932332625
  0
LINE
  5
27CD
330
1F
100
AcDbEntity
  8
SPOJOVACÍ
100
AcDbLine
 10
-2154.414440512219
 20
-18.14163404232795
 30
0.0
 11
-2154.414440512219
 21
-38.76663404232795
 31
0.0
  0
LINE
  5
27CE
330
1F
100
AcDbEntity
  8
SPOJOVACÍ
100
AcDbLine
 10
-2151.547174017115
 20
-28.45413404232795
 30
0.0
 11
-2151.547174017115
 21
-42.51663404232795
 31
0.0
  0
LINE
  5
27CF
330
1F
100
AcDbEntity
  8
SPOJOVACÍ
100
AcDbLine
 10
-2154.40506551222
 20
-20.87691295183094
 30
0.0
 11
-2154.40506551222
 21
-42.51663404232795
 31
0.0
  0
LINE
  5
27D0
330
1F
100
AcDbEntity
  8
SPOJOVACÍ
100
AcDbLine
 10
-2151.547174017115
 20
-28.45413404232795
 30
0.0
 11
-2151.547174017115
 21
-42.51663404232795
 31
0.0
  0
LINE
  5
27D1
330
1F
100
AcDbEntity
  8
SPOJOVACÍ
100
AcDbLine
 10
-2151.547174017115
 20
-14.39163404232795
 30
0.0
 11
-2154.40506551222
 21
-14.39163404232795
 31
0.0
  0
LINE
  5
27D2
330
1F
100
AcDbEntity
  8
SPOJOVACÍ
100
AcDbLine
 10
-2151.547174017115
 20
-14.39163404232795
 30
0.0
 11
-2151.547174017115
 21
-28.45413404232795
 31
0.0
  0
LINE
  5
27D3
330
1F
100
AcDbEntity
  8
SPOJOVACÍ
100
AcDbLine
 10
-2151.547174017115
 20
-14.39163404232795
 30
0.0
 11
-2151.547174017115
 21
-28.45413404232795
 31
0.0
  0
LINE
  5
27D4
330
1F
100
AcDbEntity
  8
SPOJOVACÍ
100
AcDbLine
 10
-2154.40506551222
 20
-28.45413404232795
 30
0.0
 11
-2154.40506551222
 21
-14.39163404232795
 31
0.0
  0
LINE
  5
27D5
330
1F
100
AcDbEntity
  8
SPOJOVACÍ
100
AcDbLine
 10
-2100.628680645409
 20
-30.59619154769825
 30
0.0
 11
-2099.394866604684
 21
-25.99153486062914
 31
0.0
  0
LINE
  5
27D6
330
1F
100
AcDbEntity
  8
SPOJOVACÍ
100
AcDbLine
 10
-2102.575172205087
 20
-30.86300168073057
 30
0.0
 11
-2101.256809917177
 21
-25.94280663946801
 31
0.0
  0
LINE
  5
27D7
330
1F
100
AcDbEntity
  8
SPOJOVACÍ
100
AcDbLine
 10
-2104.458825840775
 20
-30.89529748879022
 30
0.0
 11
-2103.121367986982
 21
-25.90383682544961
 31
0.0
  0
LINE
  5
27D8
330
1F
100
AcDbEntity
  8
SPOJOVACÍ
100
AcDbLine
 10
-2106.33978506146
 20
-30.91753760316305
 30
0.0
 11
-2104.98855099163
 21
-25.874663401637
 31
0.0
  0
LINE
  5
27D9
330
1F
100
AcDbEntity
  8
SPOJOVACÍ
100
AcDbLine
 10
-2108.218061901588
 20
-30.9297669370053
 30
0.0
 11
-2106.858369395357
 21
-25.85532542107967
 31
0.0
  0
LINE
  5
27DA
330
1F
100
AcDbEntity
  8
SPOJOVACÍ
100
AcDbLine
 10
-2110.093668080836
 20
-30.93202922875752
 30
0.0
 11
-2108.730833954111
 21
-25.84586302552543
 31
0.0
  0
LINE
  5
27DB
330
1F
100
AcDbEntity
  8
SPOJOVACÍ
100
AcDbLine
 10
-2111.96661500995
 20
-30.92436706390208
 30
0.0
 11
-2110.605955720756
 21
-25.84631746483955
 31
0.0
  0
LINE
  5
27DC
330
1F
100
AcDbEntity
  8
SPOJOVACÍ
100
AcDbLine
 10
-2121.291839346441
 20
-30.73860175870413
 30
0.0
 11
-2120.021831003111
 21
-25.99886609535542
 31
0.0
  0
LINE
  5
27DD
330
1F
100
AcDbEntity
  8
SPOJOVACÍ
100
AcDbLine
 10
-2119.461913796366
 20
-30.9068218959519
 30
0.0
 11
-2118.133246623251
 21
-25.94816849953213
 31
0.0
  0
LINE
  5
27DE
330
1F
100
AcDbEntity
  8
SPOJOVACÍ
100
AcDbLine
 10
-2117.569609886658
 20
-30.8422428257486
 30
0.0
 11
-2116.247379365114
 21
-25.90761134003241
 31
0.0
  0
LINE
  5
27DF
330
1F
100
AcDbEntity
  8
SPOJOVACÍ
100
AcDbLine
 10
-2115.711913796366
 20
-30.9068218959519
 30
0.0
 11
-2114.364216606341
 21
-25.87714750955638
 31
0.0
  0
LINE
  5
27E0
330
1F
100
AcDbEntity
  8
SPOJOVACÍ
100
AcDbLine
 10
-2113.836913796366
 20
-30.9068218959519
 30
0.0
 11
-2112.483746050476
 21
-25.85673111712094
 31
0.0
  0
LINE
  5
27E1
330
1F
100
AcDbEntity
  8
SPOJOVACÍ
100
AcDbLine
 10
-2113.539350218733
 20
-29.79629950574372
 30
0.0
 11
-2112.900952244627
 21
-27.41376583092324
 31
0.0
  0
LINE
  5
27E2
330
1F
100
AcDbEntity
  8
SPOJOVACÍ
100
AcDbLine
 10
-2115.373583238112
 20
-29.64415506278965
 30
0.0
 11
-2114.807413406907
 21
-27.53118048702162
 31
0.0
  0
LINE
  5
27E3
330
1F
100
AcDbEntity
  8
SPOJOVACÍ
100
AcDbLine
 10
-2117.205301599565
 20
-29.48262578870162
 30
0.0
 11
-2116.714638208878
 21
-27.65144508524054
 31
0.0
  0
LINE
  5
27E4
330
1F
100
AcDbEntity
  8
SPOJOVACÍ
100
AcDbLine
 10
-2096.916839346441
 20
-30.73860175870413
 30
0.0
 11
-2095.678784946158
 21
-26.11811983431062
 31
0.0
  0
LINE
  5
27E5
330
1F
100
AcDbEntity
  8
SPOJOVACÍ
100
AcDbLine
 10
-2089.31307324639
 20
-30.35134140120499
 30
0.0
 11
-2088.277581631819
 21
-26.48683408482156
 31
0.0
  0
LINE
  5
27E6
330
1F
100
AcDbEntity
  8
SPOJOVACÍ
100
AcDbLine
 10
-2091.215952517378
 20
-30.4553882570126
 30
0.0
 11
-2090.124034661879
 21
-26.38029534260295
 31
0.0
  0
LINE
  5
27E7
330
1F
100
AcDbEntity
  8
SPOJOVACÍ
100
AcDbLine
 10
-2093.116043782702
 20
-30.549030134031
 30
0.0
 11
-2091.979964005719
 21
-26.30912268488282
 31
0.0
  0
LINE
  5
27E8
330
1F
100
AcDbEntity
  8
SPOJOVACÍ
100
AcDbLine
 10
-2095.013361462191
 20
-30.63232084778474
 30
0.0
 11
-2093.824627635861
 21
-26.19590581125066
 31
0.0
  0
LINE
  5
27E9
330
1F
100
AcDbEntity
  8
SPOJOVACÍ
100
AcDbLine
 10
-2087.327595429243
 20
-29.93903257449983
 30
0.0
 11
-2086.433679758483
 21
-26.6028938735435
 31
0.0
  0
LINE
  5
27EA
330
1F
100
AcDbEntity
  8
SPOJOVACÍ
100
AcDbLine
 10
-2085.488311517968
 20
-30.07232683227812
 30
0.0
 11
-2084.59232099752
 21
-26.72844468685889
 31
0.0
  0
LINE
  5
27EB
330
1F
100
AcDbEntity
  8
SPOJOVACÍ
100
AcDbLine
 10
-2083.587557606774
 20
-29.97621192720817
 30
0.0
 11
-2082.753497553499
 21
-26.86345743181664
 31
0.0
  0
LINE
  5
27EC
330
1F
100
AcDbEntity
  8
SPOJOVACÍ
100
AcDbLine
 10
-2081.673374597939
 20
-29.82997894744312
 30
0.0
 11
-2080.907721653892
 21
-26.97252325929503
 31
0.0
  0
LINE
  5
27ED
330
1F
100
AcDbEntity
  8
SPOJOVACÍ
100
AcDbLine
 10
-2079.756325773031
 20
-29.67305059648697
 30
0.0
 11
-2079.083426658439
 21
-27.16175691245871
 31
0.0
  0
LINE
  5
27EE
330
1F
100
AcDbEntity
  8
SPOJOVACÍ
100
AcDbLine
 10
-2077.836394367085
 20
-29.50536430664078
 30
0.0
 11
-2077.252164830539
 21
-27.32498999296376
 31
0.0
  0
LINE
  5
27EF
330
1F
100
AcDbEntity
  8
SPOJOVACÍ
100
AcDbLine
 10
-2075.913563192448
 20
-29.32685593270344
 30
0.0
 11
-2075.423409559561
 21
-27.49757767125993
 31
0.0
  0
LINE
  5
27F0
330
1F
100
AcDbEntity
  8
SPOJOVACÍ
100
AcDbLine
 10
-2072.05913061257
 20
-28.93710823863739
 30
0.0
 11
-2071.773392517096
 21
-27.87071914867874
 31
0.0
  0
LINE
  5
27F1
330
1F
100
AcDbEntity
  8
SPOJOVACÍ
100
AcDbLine
 10
-2070.127492626553
 20
-28.72573239718986
 30
0.0
 11
-2069.952118232243
 21
-28.07122624727389
 31
0.0
  0
LINE
  5
27F2
330
1F
100
AcDbEntity
  8
SPOJOVACÍ
100
AcDbLine
 10
-2068.192881688318
 20
-28.50326134700571
 30
0.0
 11
-2068.133325472222
 21
-28.28099452262359
 31
0.0
  0
LINE
  5
27F3
330
1F
100
AcDbEntity
  8
SPOJOVACÍ
100
AcDbLine
 10
-2073.987814628758
 20
-29.13745971460821
 30
0.0
 11
-2073.597154245187
 21
-27.67949531461636
 31
0.0
  0
LINE
  5
27F4
330
1F
100
AcDbEntity
  8
SPOJOVACÍ
100
AcDbLine
 10
-2098.774053784317
 20
-30.67222513721754
 30
0.0
 11
-2097.676620850578
 21
-26.57654967060216
 31
0.0
  0
LINE
  5
27F5
330
1F
100
AcDbEntity
  8
SPOJOVACÍ
  6
DASHED
100
AcDbLine
 10
-2073.221717931884
 20
-28.45413404232886
 30
0.0
 11
-2076.469313196074
 21
-22.82913404232886
 31
0.0
  0
LINE
  5
27F6
330
1F
100
AcDbEntity
  8
SPOJOVACÍ
  6
DASHED
100
AcDbLine
 10
-2073.221717931884
 20
-28.45413404232931
 30
0.0
 11
-2076.469313196074
 21
-34.07913404232931
 31
0.0
  0
LINE
  5
27F7
330
1F
100
AcDbEntity
  8
SPOJOVACÍ
  6
DASHED
100
AcDbLine
 10
-2063.846717931884
 20
-28.45413404232886
 30
0.0
 11
-2067.63557907344
 21
-21.89163404232886
 31
0.0
  0
LINE
  5
27F8
330
1F
100
AcDbEntity
  8
SPOJOVACÍ
  6
DASHED
100
AcDbLine
 10
-2063.846717931884
 20
-28.45413404232886
 30
0.0
 11
-2067.63557907344
 21
-35.01663404232886
 31
0.0
  0
CIRCLE
  5
27F9
330
1F
100
AcDbEntity
  8
NOSNÉ KONSTRUKCE
100
AcDbCircle
 10
-2258.145154191955
 20
33.97597464960972
 30
0.0
 40
5.0
  0
CIRCLE
  5
27FA
330
1F
100
AcDbEntity
  8
NOSNÉ KONSTRUKCE
100
AcDbCircle
 10
-2258.145154191955
 20
120.9551709774045
 30
0.0
 40
5.0
  0
CIRCLE
  5
27FB
330
1F
100
AcDbEntity
  8
NOSNÉ KONSTRUKCE
100
AcDbCircle
 10
-2258.145154191955
 20
155.5017685148182
 30
0.0
 40
5.0
  0
CIRCLE
  5
27FC
330
1F
100
AcDbEntity
  8
NOSNÉ KONSTRUKCE
100
AcDbCircle
 10
-2258.145154191955
 20
-78.93733672093867
 30
0.0
 40
5.0
  0
CIRCLE
  5
27FD
330
1F
100
AcDbEntity
  8
NOSNÉ KONSTRUKCE
100
AcDbCircle
 10
-2258.145154191955
 20
-113.4839342583523
 30
0.0
 40
5.0
  0
LINE
  5
27FE
330
1F
100
AcDbEntity
  8
STAVBA OBRYS
100
AcDbLine
 10
-2310.046927312451
 20
-240.4625170220961
 30
0.0
 11
-2310.046927312451
 21
-180.7637149054326
 31
0.0
  0
LINE
  5
27FF
330
1F
100
AcDbEntity
  8
STAVBA OBRYS
100
AcDbLine
 10
-2310.046927312451
 20
-180.7637149054326
 30
0.0
 11
-2145.181252316136
 21
-180.7637149054326
 31
0.0
  0
ARC
  5
2800
330
1F
100
AcDbEntity
  8
SPOJOVACÍ
100
AcDbCircle
 10
-2303.949449626482
 20
-110.9256979909969
 30
0.0
 40
0.94921875
100
AcDbArc
 50
180.0
 51
270.0
  0
LINE
  5
2801
330
1F
100
AcDbEntity
  8
SPOJOVACÍ
100
AcDbLine
 10
-2300.240680937016
 20
-110.4119954389325
 30
0.0
 11
-2300.240680937016
 21
-121.3671042409969
 31
0.0
  0
LINE
  5
2802
330
1F
100
AcDbEntity
  8
SPOJOVACÍ
100
AcDbLine
 10
-2304.898668376482
 20
-109.9764792409969
 30
0.0
 11
-2304.898668376482
 21
-118.5194479909969
 31
0.0
  0
LINE
  5
2803
330
1F
100
AcDbEntity
  8
SPOJOVACÍ
100
AcDbLine
 10
-2300.240680937016
 20
-114.2479636159969
 30
0.0
 11
-2300.240680937016
 21
-107.1288229909969
 31
0.0
  0
LINE
  5
2804
330
1F
100
AcDbEntity
  8
SPOJOVACÍ
100
AcDbLine
 10
-2298.553861078539
 20
-107.1288229909969
 30
0.0
 11
-2298.553861078539
 21
-114.2479636159969
 31
0.0
  0
LINE
  5
2805
330
1F
100
AcDbEntity
  8
SPOJOVACÍ
100
AcDbLine
 10
-2283.807328504038
 20
-117.0899338448975
 30
0.0
 11
-2282.284321248541
 21
-111.4059933870962
 31
0.0
  0
LINE
  5
2806
330
1F
100
AcDbEntity
  8
SPOJOVACÍ
100
AcDbLine
 10
-2269.786871305679
 20
-117.0899338448975
 30
0.0
 11
-2298.553861078539
 21
-117.0899338448975
 31
0.0
  0
LINE
  5
2807
330
1F
100
AcDbEntity
  8
SPOJOVACÍ
100
AcDbLine
 10
-2269.786871305679
 20
-111.4059933870962
 30
0.0
 11
-2298.553861078539
 21
-111.4059933870962
 31
0.0
  0
LINE
  5
2808
330
1F
100
AcDbEntity
  8
SPOJOVACÍ
100
AcDbLine
 10
-2294.881547254036
 20
-117.0899338448975
 30
0.0
 11
-2293.358539998543
 21
-111.4059933870962
 31
0.0
  0
LINE
  5
2809
330
1F
100
AcDbEntity
  8
SPOJOVACÍ
100
AcDbLine
 10
-2300.240680937016
 20
-111.8749167409969
 30
0.0
 11
-2303.949449626482
 21
-111.8749167409969
 31
0.0
  0
LINE
  5
280A
330
1F
100
AcDbEntity
  8
SPOJOVACÍ
100
AcDbLine
 10
-2303.949449626482
 20
-119.4686667409969
 30
0.0
 11
-2300.240680937016
 21
-119.4686667409969
 31
0.0
  0
LINE
  5
280B
330
1F
100
AcDbEntity
  8
SPOJOVACÍ
100
AcDbLine
 10
-2300.240680937016
 20
-116.6210104909969
 30
0.0
 11
-2303.949449626482
 21
-116.6210104909969
 31
0.0
  0
ARC
  5
280C
330
1F
100
AcDbEntity
  8
SPOJOVACÍ
100
AcDbCircle
 10
-2303.949449626482
 20
-118.5194479909969
 30
0.0
 40
0.94921875
100
AcDbArc
 50
180.0
 51
270.0
  0
ARC
  5
280D
330
1F
100
AcDbEntity
  8
SPOJOVACÍ
100
AcDbCircle
 10
-2303.949449626482
 20
-117.5702292409969
 30
0.0
 40
0.94921875
100
AcDbArc
 50
90.0
 51
180.0
  0
ARC
  5
280E
330
1F
100
AcDbEntity
  8
SPOJOVACÍ
100
AcDbCircle
 10
-2301.52472946227
 20
-114.2479636159969
 30
0.0
 40
3.392730367372068
100
AcDbArc
 50
135.6170676673749
 51
224.382932332625
  0
LINE
  5
280F
330
1F
100
AcDbEntity
  8
SPOJOVACÍ
100
AcDbLine
 10
-2296.463578504036
 20
-117.0899338448975
 30
0.0
 11
-2294.940571248545
 21
-111.4059933870962
 31
0.0
  0
LINE
  5
2810
330
1F
100
AcDbEntity
  8
SPOJOVACÍ
100
AcDbLine
 10
-2300.240680937016
 20
-121.3671042409969
 30
0.0
 11
-2298.553861078539
 21
-121.3671042409969
 31
0.0
  0
LINE
  5
2811
330
1F
100
AcDbEntity
  8
SPOJOVACÍ
100
AcDbLine
 10
-2298.553861078539
 20
-114.2479636159969
 30
0.0
 11
-2298.553861078539
 21
-121.3671042409969
 31
0.0
  0
LINE
  5
2812
330
1F
100
AcDbEntity
  8
SPOJOVACÍ
100
AcDbLine
 10
-2290.135453504036
 20
-117.0899338448975
 30
0.0
 11
-2288.612446248541
 21
-111.4059933870962
 31
0.0
  0
LINE
  5
2813
330
1F
100
AcDbEntity
  8
SPOJOVACÍ
100
AcDbLine
 10
-2291.717484754038
 20
-117.0899338448975
 30
0.0
 11
-2290.194477498541
 21
-111.4059933870962
 31
0.0
  0
LINE
  5
2814
330
1F
100
AcDbEntity
  8
SPOJOVACÍ
100
AcDbLine
 10
-2293.299516004038
 20
-117.0899338448975
 30
0.0
 11
-2291.776508748541
 21
-111.4059933870962
 31
0.0
  0
LINE
  5
2815
330
1F
100
AcDbEntity
  8
SPOJOVACÍ
100
AcDbLine
 10
-2285.389359754036
 20
-117.0899338448975
 30
0.0
 11
-2283.866352498545
 21
-111.4059933870962
 31
0.0
  0
LINE
  5
2816
330
1F
100
AcDbEntity
  8
SPOJOVACÍ
100
AcDbLine
 10
-2286.971391004036
 20
-117.0899338448975
 30
0.0
 11
-2285.448383748545
 21
-111.4059933870962
 31
0.0
  0
LINE
  5
2817
330
1F
100
AcDbEntity
  8
SPOJOVACÍ
100
AcDbLine
 10
-2288.553422254036
 20
-117.0899338448975
 30
0.0
 11
-2287.030414998543
 21
-111.4059933870962
 31
0.0
  0
LINE
  5
2818
330
1F
100
AcDbEntity
  8
SPOJOVACÍ
100
AcDbLine
 10
-2271.151078504039
 20
-117.0899338448975
 30
0.0
 11
-2269.628071248545
 21
-111.4059933870962
 31
0.0
  0
LINE
  5
2819
330
1F
100
AcDbEntity
  8
SPOJOVACÍ
100
AcDbLine
 10
-2277.479203504038
 20
-117.0899338448975
 30
0.0
 11
-2275.956196248544
 21
-111.4059933870962
 31
0.0
  0
LINE
  5
281A
330
1F
100
AcDbEntity
  8
SPOJOVACÍ
100
AcDbLine
 10
-2279.06123475404
 20
-117.0899338448975
 30
0.0
 11
-2277.538227498545
 21
-111.4059933870962
 31
0.0
  0
LINE
  5
281B
330
1F
100
AcDbEntity
  8
SPOJOVACÍ
100
AcDbLine
 10
-2280.643266004036
 20
-117.0899338448975
 30
0.0
 11
-2279.120258748545
 21
-111.4059933870962
 31
0.0
  0
LINE
  5
281C
330
1F
100
AcDbEntity
  8
SPOJOVACÍ
100
AcDbLine
 10
-2282.225297254036
 20
-117.0899338448975
 30
0.0
 11
-2280.702289998545
 21
-111.4059933870962
 31
0.0
  0
LINE
  5
281D
330
1F
100
AcDbEntity
  8
SPOJOVACÍ
100
AcDbLine
 10
-2275.897172254038
 20
-117.0899338448975
 30
0.0
 11
-2274.374164998544
 21
-111.4059933870962
 31
0.0
  0
LINE
  5
281E
330
1F
100
AcDbEntity
  8
SPOJOVACÍ
100
AcDbLine
 10
-2274.315141004038
 20
-117.0899338448975
 30
0.0
 11
-2272.792133748545
 21
-111.4059933870962
 31
0.0
  0
LINE
  5
281F
330
1F
100
AcDbEntity
  8
SPOJOVACÍ
100
AcDbLine
 10
-2272.733109754038
 20
-117.0899338448975
 30
0.0
 11
-2271.210102498546
 21
-111.4059933870962
 31
0.0
  0
LINE
  5
2820
330
1F
100
AcDbEntity
  8
SPOJOVACÍ
100
AcDbLine
 10
-2269.569047254038
 20
-117.0899338448975
 30
0.0
 11
-2268.495245686349
 21
-113.0824518370318
 31
0.0
  0
LINE
  5
2821
330
1F
100
AcDbEntity
  8
SPOJOVACÍ
100
AcDbLine
 10
-2267.597278383076
 20
-114.2479636159969
 30
0.0
 11
-2269.786871305679
 21
-117.0899338448975
 31
0.0
  0
LINE
  5
2822
330
1F
100
AcDbEntity
  8
SPOJOVACÍ
100
AcDbLine
 10
-2267.597278383076
 20
-114.2479636159969
 30
0.0
 11
-2269.786871305679
 21
-111.4059933870962
 31
0.0
  0
LINE
  5
2823
330
1F
100
AcDbEntity
  8
SPOJOVACÍ
100
AcDbLine
 10
-2300.240680937016
 20
-109.0272604909969
 30
0.0
 11
-2303.949449626482
 21
-109.0272604909969
 31
0.0
  0
ARC
  5
2824
330
1F
100
AcDbEntity
  8
SPOJOVACÍ
100
AcDbCircle
 10
-2303.949449626482
 20
-109.9764792409969
 30
0.0
 40
0.94921875
100
AcDbArc
 50
90.0
 51
180.0
  0
LINE
  5
2825
330
1F
100
AcDbEntity
  8
SPOJOVACÍ
100
AcDbLine
 10
-2299.424404608492
 20
-109.0272604909969
 30
0.0
 11
-2299.429150702243
 21
-109.0272604909969
 31
0.0
  0
LINE
  5
2826
330
1F
100
AcDbEntity
  8
SPOJOVACÍ
100
AcDbLine
 10
-2298.553861078539
 20
-107.1288229909969
 30
0.0
 11
-2300.240680937016
 21
-107.1288229909969
 31
0.0
  0
HATCH
  5
2827
330
1F
100
AcDbEntity
  8
SPOJOVACÍ
100
AcDbHatch
 10
0.0
 20
0.0
 30
0.0
210
0.0
220
0.0
230
1.0
  2
ANSI37
 70
     0
 71
     0
 91
        1
 92
        7
 72
     0
 73
     1
 93
        6
 10
-2298.553861078539
 20
-114.2479636159969
 10
-2298.553861078539
 20
-107.1288229909969
 10
-2300.240680937016
 20
-107.1288229909969
 10
-2300.240680937016
 20
-114.2479636159969
 10
-2300.240680937016
 20
-121.3671042409969
 10
-2298.553861078539
 20
-121.3671042409969
 97
        0
 75
     0
 76
     1
 52
0.0
 41
0.9
 77
     0
 78
     2
 53
45.0
 43
-2631.825636292497
 44
-327.098996450557
 45
-2.020557627240559
 46
2.020557627240559
 79
     0
 53
135.0
 43
-2631.825636292497
 44
-327.098996450557
 45
-2.020557627240559
 46
-2.020557627240559
 79
     0
 47
0.1475606038556041
 98
        1
 10
-2299.997523171655
 20
-117.5302890697648
  0
LINE
  5
2828
330
1F
100
AcDbEntity
  8
POPIS
100
AcDbLine
 10
-2451.017782771449
 20
233.438740354597
 30
0.0
 11
-2304.896617308594
 21
233.438740354597
 31
0.0
  0
TEXT
  5
2829
330
1F
100
AcDbEntity
  8
POPIS
100
AcDbText
 10
-2491.553218066
 20
219.9953989052269
 30
0.0
 40
25.0
  1
02
 41
0.7
  7
SIMPLEX7
100
AcDbText
  0
INSERT
  5
282A
330
1F
100
AcDbEntity
  8
POPIS
100
AcDbBlockReference
  2
E_PUNKT
 10
-2304.9447383631
 20
233.4096720237244
 30
0.0
  0
LINE
  5
282B
330
1F
100
AcDbEntity
  8
POPIS
100
AcDbLine
 10
-2451.017782771449
 20
-74.76782640944202
 30
0.0
 11
-2261.708080381292
 21
-74.76782640944247
 31
0.0
  0
TEXT
  5
282C
330
1F
100
AcDbEntity
  8
POPIS
100
AcDbText
 10
-2490.995269114718
 20
-88.21116785881258
 30
0.0
 40
25.0
  1
06
 41
0.7
  7
SIMPLEX7
100
AcDbText
  0
INSERT
  5
282D
330
1F
100
AcDbEntity
  8
POPIS
100
AcDbBlockReference
  2
E_PUNKT
 10
-2261.735690756918
 20
-74.43183392348055
 30
0.0
  0
TEXT
  5
282E
330
1F
100
AcDbEntity
  8
POPIS
100
AcDbText
 10
-2489.321433869171
 20
-380.2694496963777
 30
0.0
 40
25.0
  1
01
 41
0.85
  7
SIMPLEX7
100
AcDbText
  0
TEXT
  5
282F
330
1F
100
AcDbEntity
  8
POPIS
100
AcDbText
 10
-2434.977730709425
 20
-380.2694496963777
 30
0.0
 40
25.0
  1
Deska CETRIS   (BASIC,FINISH,DOLOMIT)
 41
0.7
  7
SIMPLEX7
100
AcDbText
  0
TEXT
  5
2830
330
1F
100
AcDbEntity
  8
POPIS
100
AcDbText
 10
-2489.321433869171
 20
-416.8644613120059
 30
0.0
 40
25.0
  1
02
 41
0.85
  7
SIMPLEX7
100
AcDbText
  0
TEXT
  5
2831
330
1F
100
AcDbEntity
  8
POPIS
100
AcDbText
 10
-2434.977730709425
 20
-416.8644613120059
 30
0.0
 40
25.0
  1
Nerezový vrut s podložkou (np. SFS, EJOT)
 41
0.7
  7
SIMPLEX7
100
AcDbText
  0
TEXT
  5
2832
330
1F
100
AcDbEntity
  8
POPIS
100
AcDbText
 10
-2489.321433869171
 20
-450.814649556728
 30
0.0
 40
25.0
  1
03
 41
0.85
  7
SIMPLEX7
100
AcDbText
  0
TEXT
  5
2833
330
1F
100
AcDbEntity
  8
POPIS
100
AcDbText
 10
-2434.977730709425
 20
-450.814649556728
 30
0.0
 40
25.0
  1
Vzduchová mezera - min. 25 mm
 41
0.7
  7
SIMPLEX7
100
AcDbText
  0
TEXT
  5
2834
330
1F
100
AcDbEntity
  8
POPIS
100
AcDbText
 10
-2489.321433869171
 20
-486.2188107748907
 30
0.0
 40
25.0
  1
04
 41
0.85
  7
SIMPLEX7
100
AcDbText
  0
TEXT
  5
2835
330
1F
100
AcDbEntity
  8
POPIS
100
AcDbText
 10
-2434.977730709425
 20
-486.2188107748907
 30
0.0
 40
25.0
  1
Kotevní prvek
 41
0.7
  7
SIMPLEX7
100
AcDbText
  0
TEXT
  5
2836
330
1F
100
AcDbEntity
  8
POPIS
100
AcDbText
 10
-2489.321433869171
 20
-596.1278608026932
 30
0.0
 40
25.0
  1
07
 41
0.85
  7
SIMPLEX7
100
AcDbText
  0
TEXT
  5
2837
330
1F
100
AcDbEntity
  8
POPIS
100
AcDbText
 10
-2434.977730709425
 20
-596.1278608026932
 30
0.0
 40
25.0
  1
Oplechování - klempířský výrobek
 41
0.7
  7
SIMPLEX7
100
AcDbText
  0
LINE
  5
2838
330
1F
100
AcDbEntity
  8
STAVBA OBRYS
100
AcDbLine
 10
-2228.85266524788
 20
-144.813751316668
 30
0.0
 11
-2228.852665247877
 21
292.4444917873611
 31
0.0
  0
SOLID
  5
2839
330
1F
100
AcDbEntity
  8
CETRIS
100
AcDbTrace
 10
-2297.290116819679
 20
348.77568459053
 30
0.0
 11
-2285.290116819675
 21
350.0116065753313
 31
0.0
 12
-2297.290116819679
 22
290.1730654341999
 32
0.0
 13
-2285.290116819679
 23
290.6633583028174
 33
0.0
  0
LINE
  5
283A
330
1F
100
AcDbEntity
  8
CETRIS
100
AcDbLine
 10
-2297.290116819679
 20
290.1730654341999
 30
0.0
 11
-2297.290116819679
 21
348.7756845905305
 31
0.0
  0
LINE
  5
283B
330
1F
100
AcDbEntity
  8
NOSNÉ KONSTRUKCE
100
AcDbLine
 10
-2284.18125231613
 20
290.6983534282544
 30
0.0
 11
-2284.18125231613
 21
350.1258124101727
 31
0.0
  0
LINE
  5
283C
330
1F
100
AcDbEntity
  8
NOSNÉ KONSTRUKCE
100
AcDbLine
 10
-2278.975435996751
 20
290.7930317013661
 30
0.0
 11
-2278.975435996751
 21
350.6619776466691
 31
0.0
  0
LINE
  5
283D
330
1F
100
AcDbEntity
  8
NOSNÉ KONSTRUKCE
100
AcDbLine
 10
-2234.181252316123
 20
292.2763246467793
 30
0.0
 11
-2234.181252316123
 21
355.2754873468438
 31
0.0
  0
LINE
  5
283E
330
1F
100
AcDbEntity
  8
STAVBA OBRYS
100
AcDbLine
 10
-2228.852665247878
 20
292.4444917873611
 30
0.0
 11
-2228.852665247877
 21
355.8242971723079
 31
0.0
  0
LINE
  5
283F
330
1F
100
AcDbEntity
  8
STAVBA OBRYS
100
AcDbLine
 10
-2145.181252316131
 20
295.0851134157533
 30
0.0
 11
-2145.181252316129
 21
364.4419087341166
 31
0.0
  0
LINE
  5
2840
330
1F
100
AcDbEntity
  8
SPOJOVACÍ
100
AcDbLine
 10
-2269.07984164913
 20
242.051739415966
 30
0.0
 11
-2297.846831421991
 21
242.051739415966
 31
0.0
  0
LINE
  5
2841
330
1F
100
AcDbEntity
  8
SPOJOVACÍ
100
AcDbLine
 10
-2269.07984164913
 20
236.3677989581647
 30
0.0
 11
-2297.846831421991
 21
236.3677989581647
 31
0.0
  0
LINE
  5
2842
330
1F
100
AcDbEntity
  8
SPOJOVACÍ
100
AcDbLine
 10
-2275.190142597489
 20
236.3677989581647
 30
0.0
 11
-2273.667135341998
 21
242.051739415966
 31
0.0
  0
HATCH
  5
2843
330
1F
100
AcDbEntity
  8
SPOJOVACÍ
100
AcDbHatch
 10
0.0
 20
0.0
 30
0.0
210
0.0
220
0.0
230
1.0
  2
ANSI37
 70
     0
 71
     0
 91
        1
 92
        7
 72
     0
 73
     1
 93
        6
 10
-2297.846831421991
 20
246.3289098120653
 10
-2299.533651280467
 20
246.3289098120653
 10
-2299.533651280467
 20
239.2097691870653
 10
-2299.533651280467
 20
232.0906285620653
 10
-2297.846831421991
 20
232.0906285620653
 10
-2297.846831421991
 20
239.2097691870653
 97
        0
 75
     0
 76
     1
 52
0.0
 41
0.9
 77
     0
 78
     2
 53
45.0
 43
-2631.118606635951
 44
-211.6841612480516
 45
-2.020557627240559
 46
2.020557627240559
 79
     0
 53
135.0
 43
-2631.118606635951
 44
-211.6841612480516
 45
-2.020557627240559
 46
-2.020557627240559
 79
     0
 47
0.1350114543121608
 98
        1
 10
-2298.934920914337
 20
239.2371352048703
  0
LINE
  5
2844
330
1F
100
AcDbEntity
  8
SPOJOVACÍ
100
AcDbLine
 10
-2299.533651280467
 20
239.2097691870658
 30
0.0
 11
-2299.533651280467
 21
246.3289098120658
 31
0.0
  0
LINE
  5
2845
330
1F
100
AcDbEntity
  8
SPOJOVACÍ
100
AcDbLine
 10
-2297.846831421991
 20
246.3289098120658
 30
0.0
 11
-2297.846831421991
 21
239.2097691870658
 31
0.0
  0
LINE
  5
2846
330
1F
100
AcDbEntity
  8
SPOJOVACÍ
100
AcDbLine
 10
-2298.717374951945
 20
244.4304723120658
 30
0.0
 11
-2298.722121045694
 21
244.4304723120658
 31
0.0
  0
LINE
  5
2847
330
1F
100
AcDbEntity
  8
SPOJOVACÍ
100
AcDbLine
 10
-2297.846831421991
 20
246.3289098120658
 30
0.0
 11
-2299.533651280467
 21
246.3289098120658
 31
0.0
  0
ARC
  5
2848
330
1F
100
AcDbEntity
  8
SPOJOVACÍ
100
AcDbCircle
 10
-2303.242419969933
 20
242.5320348120658
 30
0.0
 40
0.94921875
100
AcDbArc
 50
180.0
 51
270.0
  0
ARC
  5
2849
330
1F
100
AcDbEntity
  8
SPOJOVACÍ
100
AcDbCircle
 10
-2303.242419969933
 20
243.4812535620658
 30
0.0
 40
0.94921875
100
AcDbArc
 50
90.0
 51
180.0
  0
LINE
  5
284A
330
1F
100
AcDbEntity
  8
SPOJOVACÍ
100
AcDbLine
 10
-2299.533651280467
 20
241.5828160620658
 30
0.0
 11
-2303.242419969933
 21
241.5828160620658
 31
0.0
  0
LINE
  5
284B
330
1F
100
AcDbEntity
  8
SPOJOVACÍ
100
AcDbLine
 10
-2299.533651280467
 20
244.4304723120658
 30
0.0
 11
-2303.242419969933
 21
244.4304723120658
 31
0.0
  0
LINE
  5
284C
330
1F
100
AcDbEntity
  8
SPOJOVACÍ
100
AcDbLine
 10
-2299.533651280467
 20
232.0906285620658
 30
0.0
 11
-2297.846831421991
 21
232.0906285620658
 31
0.0
  0
ARC
  5
284D
330
1F
100
AcDbEntity
  8
SPOJOVACÍ
100
AcDbCircle
 10
-2303.242419969933
 20
234.9382848120658
 30
0.0
 40
0.94921875
100
AcDbArc
 50
180.0
 51
270.0
  0
ARC
  5
284E
330
1F
100
AcDbEntity
  8
SPOJOVACÍ
100
AcDbCircle
 10
-2303.242419969933
 20
235.8875035620658
 30
0.0
 40
0.94921875
100
AcDbArc
 50
90.0
 51
180.0
  0
LINE
  5
284F
330
1F
100
AcDbEntity
  8
SPOJOVACÍ
100
AcDbLine
 10
-2303.242419969933
 20
233.9890660620658
 30
0.0
 11
-2299.533651280467
 21
233.9890660620658
 31
0.0
  0
LINE
  5
2850
330
1F
100
AcDbEntity
  8
SPOJOVACÍ
100
AcDbLine
 10
-2299.533651280467
 20
236.8367223120658
 30
0.0
 11
-2303.242419969933
 21
236.8367223120658
 31
0.0
  0
LINE
  5
2851
330
1F
100
AcDbEntity
  8
SPOJOVACÍ
100
AcDbLine
 10
-2299.533651280467
 20
243.0457373641293
 30
0.0
 11
-2299.533651280467
 21
232.0906285620658
 31
0.0
  0
LINE
  5
2852
330
1F
100
AcDbEntity
  8
SPOJOVACÍ
100
AcDbLine
 10
-2304.191638719933
 20
243.4812535620658
 30
0.0
 11
-2304.191638719933
 21
234.9382848120658
 31
0.0
  0
ARC
  5
2853
330
1F
100
AcDbEntity
  8
SPOJOVACÍ
100
AcDbCircle
 10
-2300.817699805721
 20
239.2097691870658
 30
0.0
 40
3.392730367372068
100
AcDbArc
 50
135.6170676673749
 51
224.382932332625
  0
LINE
  5
2854
330
1F
100
AcDbEntity
  8
SPOJOVACÍ
100
AcDbLine
 10
-2297.846831421991
 20
239.2097691870658
 30
0.0
 11
-2297.846831421991
 21
232.0906285620658
 31
0.0
  0
LINE
  5
2855
330
1F
100
AcDbEntity
  8
SPOJOVACÍ
100
AcDbLine
 10
-2281.518267597489
 20
236.3677989581647
 30
0.0
 11
-2279.995260341995
 21
242.051739415966
 31
0.0
  0
LINE
  5
2856
330
1F
100
AcDbEntity
  8
SPOJOVACÍ
100
AcDbLine
 10
-2279.936236347489
 20
236.3677989581647
 30
0.0
 11
-2278.413229091996
 21
242.051739415966
 31
0.0
  0
LINE
  5
2857
330
1F
100
AcDbEntity
  8
SPOJOVACÍ
100
AcDbLine
 10
-2278.354205097492
 20
236.3677989581647
 30
0.0
 11
-2276.831197841996
 21
242.051739415966
 31
0.0
  0
LINE
  5
2858
330
1F
100
AcDbEntity
  8
SPOJOVACÍ
100
AcDbLine
 10
-2276.772173847489
 20
236.3677989581647
 30
0.0
 11
-2275.249166591996
 21
242.051739415966
 31
0.0
  0
LINE
  5
2859
330
1F
100
AcDbEntity
  8
SPOJOVACÍ
100
AcDbLine
 10
-2287.846392597489
 20
236.3677989581647
 30
0.0
 11
-2286.323385341994
 21
242.051739415966
 31
0.0
  0
LINE
  5
285A
330
1F
100
AcDbEntity
  8
SPOJOVACÍ
100
AcDbLine
 10
-2286.264361347487
 20
236.3677989581647
 30
0.0
 11
-2284.741354091996
 21
242.051739415966
 31
0.0
  0
LINE
  5
285B
330
1F
100
AcDbEntity
  8
SPOJOVACÍ
100
AcDbLine
 10
-2284.682330097487
 20
236.3677989581647
 30
0.0
 11
-2283.159322841996
 21
242.051739415966
 31
0.0
  0
LINE
  5
285C
330
1F
100
AcDbEntity
  8
SPOJOVACÍ
100
AcDbLine
 10
-2292.592486347489
 20
236.3677989581647
 30
0.0
 11
-2291.069479091994
 21
242.051739415966
 31
0.0
  0
LINE
  5
285D
330
1F
100
AcDbEntity
  8
SPOJOVACÍ
100
AcDbLine
 10
-2291.010455097489
 20
236.3677989581647
 30
0.0
 11
-2289.487447841994
 21
242.051739415966
 31
0.0
  0
LINE
  5
285E
330
1F
100
AcDbEntity
  8
SPOJOVACÍ
100
AcDbLine
 10
-2289.428423847489
 20
236.3677989581647
 30
0.0
 11
-2287.905416591994
 21
242.051739415966
 31
0.0
  0
LINE
  5
285F
330
1F
100
AcDbEntity
  8
SPOJOVACÍ
100
AcDbLine
 10
-2295.756548847487
 20
236.3677989581647
 30
0.0
 11
-2294.233541591995
 21
242.051739415966
 31
0.0
  0
LINE
  5
2860
330
1F
100
AcDbEntity
  8
SPOJOVACÍ
100
AcDbLine
 10
-2294.174517597489
 20
236.3677989581647
 30
0.0
 11
-2292.651510341994
 21
242.051739415966
 31
0.0
  0
LINE
  5
2861
330
1F
100
AcDbEntity
  8
SPOJOVACÍ
100
AcDbLine
 10
-2283.100298847489
 20
236.3677989581647
 30
0.0
 11
-2281.577291591994
 21
242.051739415966
 31
0.0
  0
LINE
  5
2862
330
1F
100
AcDbEntity
  8
SPOJOVACÍ
100
AcDbLine
 10
-2266.890248726527
 20
239.2097691870658
 30
0.0
 11
-2269.07984164913
 21
242.051739415966
 31
0.0
  0
LINE
  5
2863
330
1F
100
AcDbEntity
  8
SPOJOVACÍ
100
AcDbLine
 10
-2266.890248726527
 20
239.2097691870658
 30
0.0
 11
-2269.07984164913
 21
236.3677989581647
 31
0.0
  0
LINE
  5
2864
330
1F
100
AcDbEntity
  8
SPOJOVACÍ
100
AcDbLine
 10
-2268.862017597489
 20
236.3677989581647
 30
0.0
 11
-2267.788216029802
 21
240.3752809660304
 31
0.0
  0
LINE
  5
2865
330
1F
100
AcDbEntity
  8
SPOJOVACÍ
100
AcDbLine
 10
-2272.026080097489
 20
236.3677989581647
 30
0.0
 11
-2270.503072841998
 21
242.051739415966
 31
0.0
  0
LINE
  5
2866
330
1F
100
AcDbEntity
  8
SPOJOVACÍ
100
AcDbLine
 10
-2273.608111347489
 20
236.3677989581647
 30
0.0
 11
-2272.085104091997
 21
242.051739415966
 31
0.0
  0
LINE
  5
2867
330
1F
100
AcDbEntity
  8
SPOJOVACÍ
100
AcDbLine
 10
-2270.444048847491
 20
236.3677989581647
 30
0.0
 11
-2268.921041591996
 21
242.051739415966
 31
0.0
  0
HATCH
  5
2868
330
1F
100
AcDbEntity
  8
PROFILY
100
AcDbHatch
 10
0.0
 20
0.0
 30
0.0
210
0.0
220
0.0
230
1.0
  2
SOLID
 70
     1
 71
     0
 91
        5
 92
        7
 72
     1
 73
     1
 93
        9
 10
-2323.294315164416
 20
-174.8031171647285
 42
0.0
 10
-2323.294315164416
 20
-175.882899479156
 42
0.0
 10
-2322.186233676534
 20
-175.882899479156
 42
-0.8959696833012131
 10
-2319.716159492053
 20
-176.1547799388513
 42
-0.1240761635642614
 10
-2319.86547563487
 20
-176.747228288108
 42
0.0
 10
-2276.298006805506
 20
-169.9103566067037
 42
0.0
 10
-2276.298006805508
 20
-117.4109806416531
 42
0.0
 10
-2278.639104135233
 20
-117.4109806416531
 42
0.0
 10
-2278.639104135235
 20
-168.0301125233609
 42
0.0
 97
        0
 92
        7
 72
     1
 73
     1
 93
        8
 10
-2312.731815164416
 20
-187.1341456508198
 42
0.0
 10
-2314.464784824117
 20
-185.4200212654409
 42
0.0
 10
-2320.856815164416
 20
-191.8823262988894
 42
0.0
 10
-2320.856815164416
 20
-177.3999882820667
 42
-0.5072240797221012
 10
-2322.186233676534
 20
-175.882899479156
 42
0.0
 10
-2323.294315164416
 20
-175.882899479156
 42
0.0
 10
-2323.294315164416
 20
-195.8359560674134
 42
0.6701573805505898
 10
-2321.904158611182
 20
-196.407330862542
 42
0.0
 97
        0
 92
        7
 72
     0
 73
     1
 93
        4
 10
-2276.298006805508
 20
-105.957590986889
 10
-2278.639104135233
 20
-105.9575909868917
 10
-2278.639104135233
 20
-111.0954912440965
 10
-2276.298006805508
 20
-111.0954912440965
 97
        0
 92
        7
 72
     0
 73
     1
 93
        5
 10
-2278.469888362985
 20
-117.4109806416531
 10
-2276.712075862985
 20
-117.4109806416531
 10
-2276.298006805508
 20
-115.8656538813061
 10
-2276.298006805508
 20
-111.0954912440965
 10
-2276.777658079104
 20
-111.0954912440965
 97
        0
 92
        7
 72
     0
 73
     1
 93
        5
 10
-2276.777658079104
 20
-111.0954912440965
 10
-2278.535470579102
 20
-111.0954912440965
 10
-2278.639104135233
 20
-111.4822569409493
 10
-2278.639104135233
 20
-117.4109806416531
 10
-2278.469888362985
 20
-117.4109806416531
 97
        0
 75
     0
 76
     1
 47
0.0616332266500822
 98
        5
 10
-2314.10765298534
 20
-174.129052057855
 10
-2321.149546020827
 20
-193.5997972095174
 10
-2277.331071435669
 20
-107.9372403289053
 10
-2277.162824159814
 20
-114.2755654871252
 10
-2277.933132500015
 20
-112.9283390941491
  0
CIRCLE
  5
2869
330
1F
100
AcDbEntity
  8
NOSNÉ KONSTRUKCE
100
AcDbCircle
 10
-2258.145154191955
 20
337.0976382552858
 30
0.0
 40
5.0
  0
TEXT
  5
286A
330
1F
100
AcDbEntity
  8
POPIS
100
AcDbText
 10
-2489.321433869171
 20
-734.9382995509313
 30
0.0
 40
25.0
  1
08
 41
0.85
  7
SIMPLEX7
100
AcDbText
  0
TEXT
  5
286B
330
1F
100
AcDbEntity
  8
POPIS
100
AcDbText
 10
-2434.977730709425
 20
-734.9382995509313
 30
0.0
 40
25.0
  1
Tepelná izolace (np. ORSIL, ROCKWOOL, ISOVER, NOBASIL)
 41
0.7
  7
SIMPLEX7
100
AcDbText
  0
LWPOLYLINE
  5
286C
330
1F
100
AcDbEntity
  8
NOSNÉ KONSTRUKCE
100
AcDbPolyline
 90
        2
 70
     0
 43
0.0
 10
-2247.681252316145
 20
-0.6859251492096519
 10
-2247.681252316145
 20
-23.26372676753453
  0
TEXT
  5
286D
330
1F
100
AcDbEntity
  8
POPIS
100
AcDbText
 10
-2434.977730709425
 20
-522.3256322620791
 30
0.0
 40
25.0
  1
Upevňovací prvek systému - kotva (np. SPIDI, EuroFox, SPEEDY...)
 41
0.7
  7
SIMPLEX7
100
AcDbText
  0
TEXT
  5
286E
330
1F
100
AcDbEntity
  8
POPIS
100
AcDbText
 10
-2489.321433869171
 20
-522.3256322620791
 30
0.0
 40
25.0
  1
05
 41
0.85
  7
SIMPLEX7
100
AcDbText
  0
TEXT
  5
286F
330
1F
100
AcDbEntity
  8
POPIS
100
AcDbText
 10
-2434.977730709425
 20
-557.9445209601681
 30
0.0
 40
25.0
  1
Nosný profil systému - úhelník (np. SPIDI, EuroFox, SPEEDY...)
 41
0.7
  7
SIMPLEX7
100
AcDbText
  0
TEXT
  5
2870
330
1F
100
AcDbEntity
  8
POPIS
100
AcDbText
 10
-2489.321433869171
 20
-557.9445209601681
 30
0.0
 40
25.0
  1
06
 41
0.85
  7
SIMPLEX7
100
AcDbText
  0
TEXT
  5
2871
330
1F
100
AcDbEntity
  8
POPIS
100
AcDbText
 10
-2492.397392809444
 20
63.77358398340039
 30
0.0
 40
25.0
  1
04
 41
0.7
  7
SIMPLEX7
100
AcDbText
  0
LINE
  5
2872
330
1F
100
AcDbEntity
  8
POPIS
100
AcDbLine
 10
-2451.017782771449
 20
74.47391499564673
 30
0.0
 11
-2163.745685181048
 21
74.47391499564628
 31
0.0
  0
LINE
  5
2873
330
1F
100
AcDbEntity
  8
POPIS
100
AcDbLine
 10
-2096.297812146299
 20
-28.42836079650714
 30
0.0
 11
-2163.745685181048
 21
74.47391499564628
 31
0.0
  0
INSERT
  5
2874
330
1F
100
AcDbEntity
  8
POPIS
100
AcDbBlockReference
  2
E_PUNKT
 10
-2096.097099173109
 20
-28.70033758647832
 30
0.0
  0
LINE
  5
2875
330
1F
100
AcDbEntity
  8
STAVBA OBRYS
100
AcDbLine
 10
-1908.588381741486
 20
-233.3169407854175
 30
0.0
 11
-1908.503317392206
 21
-185.5805794957305
 31
0.0
  0
LINE
  5
2876
330
1F
100
AcDbEntity
  8
STAVBA OBRYS
100
AcDbLine
 10
-1908.47235684731
 20
-79.74005985028634
 30
0.0
 11
-1907.6372452072
 21
388.9073971294178
 31
0.0
  0
LINE
  5
2877
330
1F
100
AcDbEntity
  8
STAVBA OBRYS
100
AcDbLine
 10
-2070.927684481542
 20
-185.5805794957309
 30
0.0
 11
-1800.571724752454
 21
-185.5805794957305
 31
0.0
  0
LINE
  5
2878
330
1F
100
AcDbEntity
  8
STAVBA OBRYS
100
AcDbLine
 10
-2070.927684481545
 20
-79.74005985028634
 30
0.0
 11
-1773.477612025245
 21
-79.74005985028634
 31
0.0
  0
HATCH
  5
2879
330
1F
100
AcDbEntity
  8
STAVBA OBRYS
100
AcDbHatch
 10
0.0
 20
0.0
 30
0.0
210
0.0
220
0.0
230
1.0
  2
AR-CONC
 70
     0
 71
     0
 91
        1
 92
        7
 72
     0
 73
     1
 93
        5
 10
-1773.477612025245
 20
-79.74005985028589
 10
-2070.927684481545
 20
-79.74005985028634
 10
-2070.927684481545
 20
-185.5805794957305
 10
-2015.423065868649
 20
-185.5805794957305
 10
-1800.571724752454
 20
-185.58057949573
 97
        0
 75
     0
 76
     1
 52
0.0
 41
0.35
 77
     0
 78
    13
 53
50.0
 43
-3165.978908505246
 44
-1729.247925174011
 45
63.7646341486014
 46
-5.57867993861608
 79
     2
 49
6.667499999999999
 49
-73.3425
 53
355.0
 43
-3165.978908505246
 44
-1729.247925174011
 45
-12.33498909148344
 46
66.86982500876299
 79
     2
 49
5.333999999999999
 49
-58.67399999999999
 53
100.451
 43
-3160.665208505245
 44
-1729.712812674011
 45
51.42987558308573
 46
61.29084073710215
 79
     2
 49
5.6665
 49
-62.3315
 53
46.1842
 43
-3165.978908505246
 44
-1711.467925174011
 45
94.87766431224546
 46
-14.7148147764545
 79
     2
 49
10.00124999999999
 49
-110.0137499999999
 53
96.63559999999998
 43
-3158.072443505246
 44
-1712.694150174011
 45
83.09148206318299
 46
86.59894456151723
 79
     2
 49
8.499749999999984
 49
-93.49724999999988
 53
351.184
 43
-3165.978908505246
 44
-1711.467925174011
 45
83.09161203487688
 46
86.59879125120918
 79
     2
 49
8.000999999999999
 49
-88.01099999999999
 53
21.0
 43
-3157.088908505246
 44
-1715.912925174011
 45
53.06520794238414
 46
-35.79293148086687
 79
     2
 49
6.667499999999999
 49
-73.3425
 53
326.0
 43
-3157.088908505246
 44
-1715.912925174011
 45
21.63070992167647
 46
64.46578814281174
 79
     2
 49
5.333999999999999
 49
-58.67399999999999
 53
71.45140000000001
 43
-3152.666833505246
 44
-1718.895660174012
 45
74.69577176954356
 46
28.6730002006201
 79
     2
 49
5.6665
 49
-62.3315
 53
37.5
 43
-3165.978908505246
 44
-1729.247925174011
 45
1.081011137707135
 46
29.59426360560359
 79
     6
 49
0.0
 49
-57.96279999999999
 49
0.0
 49
-59.56299999999999
 49
0.0
 49
-58.89624999999999
 53
7.499999999999999
 43
-3165.978908505246
 44
-1729.247925174011
 45
23.38688187860701
 46
35.06320118634183
 79
     6
 49
0.0
 49
-33.95979999999999
 49
0.0
 49
-56.62929999999999
 49
0.0
 49
-22.44725
 53
327.4999999999999
 43
-3185.803608505247
 44
-1729.247925174011
 45
47.45670830840498
 46
-2.005060397435712
 79
     6
 49
0.0
 49
-22.22499999999999
 49
0.0
 49
-69.342
 49
0.0
 49
-92.01149999999998
 53
317.5
 43
-3194.693608505247
 44
-1729.247925174011
 45
51.84521348510632
 46
8.899271861666553
 79
     6
 49
0.0
 49
-28.8925
 49
0.0
 49
-46.05019999999999
 49
0.0
 49
-65.3415
 47
1.943322863705773
 98
        1
 10
-1956.340937617205
 20
-122.1252914008182
  0
LINE
  5
287A
330
1F
100
AcDbEntity
  8
STAVBA OBRYS
100
AcDbLine
 10
-1908.235605070886
 20
-35.34593712795322
 30
0.0
 11
-1762.113161345169
 21
-35.34593712795322
 31
0.0
  0
LINE
  5
287B
330
1F
100
AcDbEntity
  8
STAVBA OBRYS
100
AcDbLine
 10
-2070.927684481542
 20
-185.5805794957309
 30
0.0
 11
-2070.927684481542
 21
-79.74005985028634
 31
0.0
  0
LINE
  5
287C
330
1F
100
AcDbEntity
  8
STAVBA OBRYS
100
AcDbLine
 10
-1908.370890803416
 20
-22.79940526292648
 30
0.0
 11
-1758.901374877895
 21
-22.79940526292557
 31
0.0
  0
HATCH
  5
287D
330
1F
100
AcDbEntity
  8
STAVBA OBRYS
100
AcDbHatch
 10
0.0
 20
0.0
 30
0.0
210
0.0
220
0.0
230
1.0
  2
AR-SAND
 70
     0
 71
     0
 91
        1
 92
        7
 72
     0
 73
     1
 93
        4
 10
-1762.113161345169
 20
-35.34593712795322
 10
-1908.235605070888
 20
-35.34593712795367
 10
-1908.314713680324
 20
-79.74005985028634
 10
-1773.477612025245
 20
-79.74005985028589
 97
        0
 75
     0
 76
     1
 52
0.0
 41
0.35
 77
     0
 78
     4
 53
37.5
 43
-3165.978908505246
 44
-277.2532112675144
 45
-0.560010953594416
 46
17.12946330652698
 79
     6
 49
0.0
 49
-13.5128
 49
0.0
 49
-15.113
 49
0.0
 49
-14.44625
 53
7.499999999999999
 43
-3165.978908505246
 44
-277.2532112675144
 45
15.73331490983009
 46
25.08887851989239
 79
     6
 49
0.0
 49
-7.2898
 49
0.0
 49
-12.17929999999999
 49
0.0
 49
-4.66725
 53
327.4999999999999
 43
-3176.913608505246
 44
-277.2532112675144
 45
27.68473295845102
 46
0.0503014637490992
 79
     6
 49
0.0
 49
-4.444999999999999
 49
0.0
 49
-16.002
 49
0.0
 49
-20.89149999999999
 53
317.5
 43
-3176.913608505246
 44
-277.2532112675144
 45
26.7244758365304
 46
7.802526314002567
 79
     6
 49
0.0
 49
-2.222499999999999
 49
0.0
 49
-10.49019999999999
 49
0.0
 49
-12.00149999999999
 47
4.017849295243367
 98
        1
 10
-1821.619295616367
 20
-46.40133272908133
  0
LINE
  5
287E
330
1F
100
AcDbEntity
  8
NOSNÉ KONSTRUKCE
100
AcDbLine
 10
-2247.681252316143
 20
315.0543972056821
 30
0.0
 11
-2145.181252316136
 21
315.0543972056766
 31
0.0
  0
LINE
  5
287F
330
1F
100
AcDbEntity
  8
NOSNÉ KONSTRUKCE
100
AcDbLine
 10
-2247.681252316145
 20
264.2676698666118
 30
0.0
 11
-2145.181252316134
 21
264.2676698666055
 31
0.0
  0
LINE
  5
2880
330
1F
100
AcDbEntity
  8
NOSNÉ KONSTRUKCE
100
AcDbLine
 10
-2247.681252316143
 20
275.0543972056803
 30
0.0
 11
-2247.681252316143
 21
284.4706262613572
 31
0.0
  0
LINE
  5
2881
330
1F
100
AcDbEntity
  8
NOSNÉ KONSTRUKCE
100
AcDbLine
 10
-2247.681252316145
 20
264.2676698666118
 30
0.0
 11
-2247.681252316145
 21
284.4706262613572
 31
0.0
  0
LWPOLYLINE
  5
2882
330
1F
100
AcDbEntity
  8
NOSNÉ KONSTRUKCE
100
AcDbPolyline
 90
        2
 70
     0
 43
0.0
 10
-2247.681252316145
 20
317.4292424292616
 10
-2247.681252316145
 20
294.8514408109367
  0
LINE
  5
2883
330
1F
100
AcDbEntity
  8
SPOJOVACÍ
100
AcDbLine
 10
-2154.40506551222
 20
299.9735335361433
 30
0.0
 11
-2159.09256551222
 21
299.9735335361433
 31
0.0
  0
LINE
  5
2884
330
1F
100
AcDbEntity
  8
SPOJOVACÍ
100
AcDbLine
 10
-2154.40506551222
 20
299.9735335361433
 30
0.0
 11
-2154.414440512219
 21
299.9735335361433
 31
0.0
  0
LINE
  5
2885
330
1F
100
AcDbEntity
  8
SPOJOVACÍ
100
AcDbLine
 10
-2151.547174017115
 20
303.7235335361433
 30
0.0
 11
-2154.40506551222
 21
303.7235335361433
 31
0.0
  0
LINE
  5
2886
330
1F
100
AcDbEntity
  8
SPOJOVACÍ
100
AcDbLine
 10
-2148.882162499077
 20
289.3720069797613
 30
0.0
 11
-2148.726196536134
 21
289.954079877707
 31
0.0
  0
LINE
  5
2887
330
1F
100
AcDbEntity
  8
SPOJOVACÍ
100
AcDbLine
 10
-2147.060436330618
 20
289.1731863337318
 30
0.0
 11
-2146.81590579476
 21
290.0857867175559
 31
0.0
  0
LINE
  5
2888
330
1F
100
AcDbEntity
  8
SPOJOVACÍ
100
AcDbLine
 10
-2154.40506551222
 20
275.5985335361433
 30
0.0
 11
-2151.547174017115
 21
275.5985335361433
 31
0.0
  0
LINE
  5
2889
330
1F
100
AcDbEntity
  8
SPOJOVACÍ
100
AcDbLine
 10
-2159.09256551222
 20
279.3485335361433
 30
0.0
 11
-2154.40506551222
 21
279.3485335361433
 31
0.0
  0
LINE
  5
288A
330
1F
100
AcDbEntity
  8
SPOJOVACÍ
100
AcDbLine
 10
-2154.40506551222
 20
284.9735335361433
 30
0.0
 11
-2159.09256551222
 21
284.9735335361433
 31
0.0
  0
ARC
  5
288B
330
1F
100
AcDbEntity
  8
SPOJOVACÍ
100
AcDbCircle
 10
-2159.09256551222
 20
283.0985335361433
 30
0.0
 40
1.875
100
AcDbArc
 50
90.0
 51
180.0
  0
ARC
  5
288C
330
1F
100
AcDbEntity
  8
SPOJOVACÍ
100
AcDbCircle
 10
-2159.09256551222
 20
281.2235335361433
 30
0.0
 40
1.875
100
AcDbArc
 50
180.0
 51
270.0
  0
LINE
  5
288D
330
1F
100
AcDbEntity
  8
SPOJOVACÍ
100
AcDbLine
 10
-2154.40506551222
 20
294.3485335361433
 30
0.0
 11
-2159.09256551222
 21
294.3485335361433
 31
0.0
  0
ARC
  5
288E
330
1F
100
AcDbEntity
  8
SPOJOVACÍ
100
AcDbCircle
 10
-2159.09256551222
 20
296.2235335361433
 30
0.0
 40
1.875
100
AcDbArc
 50
180.0
 51
270.0
  0
LINE
  5
288F
330
1F
100
AcDbEntity
  8
SPOJOVACÍ
100
AcDbLine
 10
-2160.96756551222
 20
298.0985335361433
 30
0.0
 11
-2160.96756551222
 21
281.2235335361433
 31
0.0
  0
ARC
  5
2890
330
1F
100
AcDbEntity
  8
SPOJOVACÍ
100
AcDbCircle
 10
-2154.302994817478
 20
289.6610335361433
 30
0.0
 40
6.701689614562111
100
AcDbArc
 50
135.6170676673749
 51
224.382932332625
  0
LINE
  5
2891
330
1F
100
AcDbEntity
  8
SPOJOVACÍ
100
AcDbLine
 10
-2151.547174017115
 20
289.6610335361433
 30
0.0
 11
-2151.547174017115
 21
275.5985335361433
 31
0.0
  0
LINE
  5
2892
330
1F
100
AcDbEntity
  8
SPOJOVACÍ
100
AcDbLine
 10
-2154.40506551222
 20
297.2382546266403
 30
0.0
 11
-2154.40506551222
 21
275.5985335361433
 31
0.0
  0
LINE
  5
2893
330
1F
100
AcDbEntity
  8
SPOJOVACÍ
100
AcDbLine
 10
-2151.547174017115
 20
289.6610335361433
 30
0.0
 11
-2151.547174017115
 21
275.5985335361433
 31
0.0
  0
ARC
  5
2894
330
1F
100
AcDbEntity
  8
SPOJOVACÍ
100
AcDbCircle
 10
-2159.09256551222
 20
298.0985335361433
 30
0.0
 40
1.875
100
AcDbArc
 50
90.0
 51
180.0
  0
LINE
  5
2895
330
1F
100
AcDbEntity
  8
SPOJOVACÍ
100
AcDbLine
 10
-2154.414440512219
 20
299.9735335361433
 30
0.0
 11
-2154.414440512219
 21
279.3485335361433
 31
0.0
  0
LINE
  5
2896
330
1F
100
AcDbEntity
  8
SPOJOVACÍ
100
AcDbLine
 10
-2151.547174017115
 20
303.7235335361433
 30
0.0
 11
-2151.547174017115
 21
289.6610335361433
 31
0.0
  0
LINE
  5
2897
330
1F
100
AcDbEntity
  8
SPOJOVACÍ
100
AcDbLine
 10
-2151.547174017115
 20
303.7235335361433
 30
0.0
 11
-2151.547174017115
 21
289.6610335361433
 31
0.0
  0
LINE
  5
2898
330
1F
100
AcDbEntity
  8
SPOJOVACÍ
100
AcDbLine
 10
-2154.40506551222
 20
289.6610335361433
 30
0.0
 11
-2154.40506551222
 21
303.7235335361433
 31
0.0
  0
LINE
  5
2899
330
1F
100
AcDbEntity
  8
SPOJOVACÍ
100
AcDbLine
 10
-2145.236221618625
 20
288.9836530586071
 30
0.0
 11
-2144.827065324784
 21
290.5106451354668
 31
0.0
  0
LINE
  5
289A
330
1F
100
AcDbEntity
  8
SPOJOVACÍ
100
AcDbLine
 10
-2143.40951217892
 20
288.8034302340615
 30
0.0
 11
-2142.901848605825
 21
290.6980564820069
 31
0.0
  0
LINE
  5
289B
330
1F
100
AcDbEntity
  8
SPOJOVACÍ
100
AcDbLine
 10
-2141.580301599565
 20
288.6325417897696
 30
0.0
 11
-2140.979546039084
 21
290.87459206442
 31
0.0
  0
LINE
  5
289C
330
1F
100
AcDbEntity
  8
SPOJOVACÍ
100
AcDbLine
 10
-2139.748583238112
 20
288.4710125156816
 30
0.0
 11
-2139.060140083644
 21
291.0403173462768
 31
0.0
  0
LINE
  5
289D
330
1F
100
AcDbEntity
  8
SPOJOVACÍ
100
AcDbLine
 10
-2137.914350218733
 20
288.3188680727275
 30
0.0
 11
-2137.143613629453
 21
291.195296183173
 31
0.0
  0
LINE
  5
289E
330
1F
100
AcDbEntity
  8
SPOJOVACÍ
100
AcDbLine
 10
-2134.238311517968
 20
288.0428407461931
 30
0.0
 11
-2133.319132879551
 21
291.4732621259945
 31
0.0
  0
LINE
  5
289F
330
1F
100
AcDbEntity
  8
SPOJOVACÍ
100
AcDbLine
 10
-2132.396490890546
 20
287.9190136419679
 30
0.0
 11
-2131.411146430266
 21
291.5963692306922
 31
0.0
  0
LINE
  5
28A0
330
1F
100
AcDbEntity
  8
SPOJOVACÍ
100
AcDbLine
 10
-2136.077595429239
 20
288.1761350039714
 30
0.0
 11
-2135.229949987365
 21
291.3395908598531
 31
0.0
  0
LINE
  5
28A1
330
1F
100
AcDbEntity
  8
SPOJOVACÍ
100
AcDbLine
 10
-2128.705207875959
 20
287.6998788691371
 30
0.0
 11
-2127.603603961522
 21
291.8111206476364
 31
0.0
  0
LINE
  5
28A2
330
1F
100
AcDbEntity
  8
SPOJOVACÍ
100
AcDbLine
 10
-2126.855729055624
 20
287.6046325299575
 30
0.0
 11
-2125.70401812233
 21
291.9028762486518
 31
0.0
  0
LINE
  5
28A3
330
1F
100
AcDbEntity
  8
SPOJOVACÍ
100
AcDbLine
 10
-2125.003680645409
 20
287.518976030773
 30
0.0
 11
-2123.807203285911
 21
291.9842903265207
 31
0.0
  0
LINE
  5
28A4
330
1F
100
AcDbEntity
  8
SPOJOVACÍ
100
AcDbLine
 10
-2123.149053784317
 20
287.4429424412537
 30
0.0
 11
-2121.91314545941
 21
292.0554151033011
 31
0.0
  0
LINE
  5
28A5
330
1F
100
AcDbEntity
  8
SPOJOVACÍ
100
AcDbLine
 10
-2130.55212570654
 20
287.8046829521954
 30
0.0
 11
-2129.505975156925
 21
291.7089699557259
 31
0.0
  0
LINE
  5
28A6
330
1F
100
AcDbEntity
  8
SPOJOVACÍ
100
AcDbLine
 10
-2100.628680645409
 20
287.518976030773
 30
0.0
 11
-2099.394866604684
 21
292.1236327178421
 31
0.0
  0
LINE
  5
28A7
330
1F
100
AcDbEntity
  8
SPOJOVACÍ
100
AcDbLine
 10
-2102.575172205087
 20
287.2521658977407
 30
0.0
 11
-2101.256809917177
 21
292.1723609390032
 31
0.0
  0
LINE
  5
28A8
330
1F
100
AcDbEntity
  8
SPOJOVACÍ
100
AcDbLine
 10
-2104.458825840775
 20
287.219870089681
 30
0.0
 11
-2103.121367986982
 21
292.2113307530216
 31
0.0
  0
LINE
  5
28A9
330
1F
100
AcDbEntity
  8
SPOJOVACÍ
100
AcDbLine
 10
-2106.33978506146
 20
287.1976299753082
 30
0.0
 11
-2104.98855099163
 21
292.2405041768342
 31
0.0
  0
LINE
  5
28AA
330
1F
100
AcDbEntity
  8
SPOJOVACÍ
100
AcDbLine
 10
-2108.218061901588
 20
287.185400641466
 30
0.0
 11
-2106.858369395357
 21
292.2598421573916
 31
0.0
  0
LINE
  5
28AB
330
1F
100
AcDbEntity
  8
SPOJOVACÍ
100
AcDbLine
 10
-2110.093668080836
 20
287.1831383497137
 30
0.0
 11
-2108.730833954111
 21
292.2693045529458
 31
0.0
  0
LINE
  5
28AC
330
1F
100
AcDbEntity
  8
SPOJOVACÍ
100
AcDbLine
 10
-2111.96661500995
 20
287.1908005145692
 30
0.0
 11
-2110.605955720756
 21
292.2688501136317
 31
0.0
  0
LINE
  5
28AD
330
1F
100
AcDbEntity
  8
SPOJOVACÍ
100
AcDbLine
 10
-2121.291839346441
 20
287.3765658197671
 30
0.0
 11
-2120.021831003111
 21
292.1163014831158
 31
0.0
  0
LINE
  5
28AE
330
1F
100
AcDbEntity
  8
SPOJOVACÍ
100
AcDbLine
 10
-2119.461913796366
 20
287.2083456825194
 30
0.0
 11
-2118.133246623251
 21
292.1669990789391
 31
0.0
  0
LINE
  5
28AF
330
1F
100
AcDbEntity
  8
SPOJOVACÍ
100
AcDbLine
 10
-2117.569609886658
 20
287.2729247527227
 30
0.0
 11
-2116.247379365114
 21
292.2075562384388
 31
0.0
  0
LINE
  5
28B0
330
1F
100
AcDbEntity
  8
SPOJOVACÍ
100
AcDbLine
 10
-2115.711913796366
 20
287.2083456825194
 30
0.0
 11
-2114.364216606341
 21
292.2380200689149
 31
0.0
  0
LINE
  5
28B1
330
1F
100
AcDbEntity
  8
SPOJOVACÍ
100
AcDbLine
 10
-2113.836913796366
 20
287.2083456825194
 30
0.0
 11
-2112.483746050476
 21
292.2584364613503
 31
0.0
  0
LINE
  5
28B2
330
1F
100
AcDbEntity
  8
SPOJOVACÍ
100
AcDbLine
 10
-2113.539350218733
 20
288.3188680727275
 30
0.0
 11
-2112.900952244627
 21
290.701401747548
 31
0.0
  0
LINE
  5
28B3
330
1F
100
AcDbEntity
  8
SPOJOVACÍ
100
AcDbLine
 10
-2115.373583238112
 20
288.4710125156816
 30
0.0
 11
-2114.807413406907
 21
290.5839870914496
 31
0.0
  0
LINE
  5
28B4
330
1F
100
AcDbEntity
  8
SPOJOVACÍ
100
AcDbLine
 10
-2117.205301599565
 20
288.6325417897696
 30
0.0
 11
-2116.714638208878
 21
290.4637224932307
 31
0.0
  0
LINE
  5
28B5
330
1F
100
AcDbEntity
  8
SPOJOVACÍ
100
AcDbLine
 10
-2098.774053784317
 20
287.4429424412537
 30
0.0
 11
-2097.676620850578
 21
291.5386179078691
 31
0.0
  0
LINE
  5
28B6
330
1F
100
AcDbEntity
  8
SPOJOVACÍ
100
AcDbLine
 10
-2083.587557606774
 20
288.1389556512631
 30
0.0
 11
-2082.753497553499
 21
291.2517101466546
 31
0.0
  0
LINE
  5
28B7
330
1F
100
AcDbEntity
  8
SPOJOVACÍ
100
AcDbLine
 10
-2096.916839346441
 20
287.3765658197671
 30
0.0
 11
-2095.678784946158
 21
291.9970477441606
 31
0.0
  0
LINE
  5
28B8
330
1F
100
AcDbEntity
  8
SPOJOVACÍ
100
AcDbLine
 10
-2089.31307324639
 20
287.7638261772663
 30
0.0
 11
-2088.277581631819
 21
291.6283334936497
 31
0.0
  0
LINE
  5
28B9
330
1F
100
AcDbEntity
  8
SPOJOVACÍ
100
AcDbLine
 10
-2091.215952517378
 20
287.6597793214587
 30
0.0
 11
-2090.124034661879
 21
291.7348722358683
 31
0.0
  0
LINE
  5
28BA
330
1F
100
AcDbEntity
  8
SPOJOVACÍ
100
AcDbLine
 10
-2093.116043782702
 20
287.5661374444403
 30
0.0
 11
-2091.979964005719
 21
291.8060448935884
 31
0.0
  0
LINE
  5
28BB
330
1F
100
AcDbEntity
  8
SPOJOVACÍ
100
AcDbLine
 10
-2095.013361462191
 20
287.4828467306865
 30
0.0
 11
-2093.824627635861
 21
291.9192617672206
 31
0.0
  0
LINE
  5
28BC
330
1F
100
AcDbEntity
  8
SPOJOVACÍ
100
AcDbLine
 10
-2087.327595429243
 20
288.1761350039714
 30
0.0
 11
-2086.433679758483
 21
291.5122737049277
 31
0.0
  0
LINE
  5
28BD
330
1F
100
AcDbEntity
  8
SPOJOVACÍ
100
AcDbLine
 10
-2085.488311517968
 20
288.0428407461931
 30
0.0
 11
-2084.59232099752
 21
291.3867228916124
 31
0.0
  0
LINE
  5
28BE
330
1F
100
AcDbEntity
  8
SPOJOVACÍ
  6
DASHED
100
AcDbLine
 10
-2063.846717931884
 20
289.6610335361424
 30
0.0
 11
-2067.63557907344
 21
296.2235335361424
 31
0.0
  0
LINE
  5
28BF
330
1F
100
AcDbEntity
  8
SPOJOVACÍ
  6
DASHED
100
AcDbLine
 10
-2063.846717931884
 20
289.6610335361424
 30
0.0
 11
-2067.63557907344
 21
283.0985335361424
 31
0.0
  0
LINE
  5
28C0
330
1F
100
AcDbEntity
  8
SPOJOVACÍ
100
AcDbLine
 10
-2081.673374597939
 20
288.2851886310281
 30
0.0
 11
-2080.907721653892
 21
291.1426443191762
 31
0.0
  0
LINE
  5
28C1
330
1F
100
AcDbEntity
  8
SPOJOVACÍ
100
AcDbLine
 10
-2079.756325773031
 20
288.4421169819843
 30
0.0
 11
-2079.083426658439
 21
290.9534106660125
 31
0.0
  0
LINE
  5
28C2
330
1F
100
AcDbEntity
  8
SPOJOVACÍ
100
AcDbLine
 10
-2077.836394367085
 20
288.6098032718305
 30
0.0
 11
-2077.252164830539
 21
290.7901775855075
 31
0.0
  0
LINE
  5
28C3
330
1F
100
AcDbEntity
  8
SPOJOVACÍ
100
AcDbLine
 10
-2075.913563192448
 20
288.7883116457678
 30
0.0
 11
-2075.423409559561
 21
290.6175899072113
 31
0.0
  0
LINE
  5
28C4
330
1F
100
AcDbEntity
  8
SPOJOVACÍ
100
AcDbLine
 10
-2072.05913061257
 20
289.1780593398339
 30
0.0
 11
-2071.773392517096
 21
290.2444484297925
 31
0.0
  0
LINE
  5
28C5
330
1F
100
AcDbEntity
  8
SPOJOVACÍ
100
AcDbLine
 10
-2070.127492626553
 20
289.3894351812814
 30
0.0
 11
-2069.952118232243
 21
290.0439413311973
 31
0.0
  0
LINE
  5
28C6
330
1F
100
AcDbEntity
  8
SPOJOVACÍ
100
AcDbLine
 10
-2068.192881688318
 20
289.6119062314655
 30
0.0
 11
-2068.133325472222
 21
289.8341730558477
 31
0.0
  0
LINE
  5
28C7
330
1F
100
AcDbEntity
  8
SPOJOVACÍ
100
AcDbLine
 10
-2073.987814628758
 20
288.977707863863
 30
0.0
 11
-2073.597154245187
 21
290.4356722638549
 31
0.0
  0
LINE
  5
28C8
330
1F
100
AcDbEntity
  8
SPOJOVACÍ
  6
DASHED
100
AcDbLine
 10
-2073.221717931884
 20
289.6610335361424
 30
0.0
 11
-2076.469313196074
 21
295.2860335361424
 31
0.0
  0
LINE
  5
28C9
330
1F
100
AcDbEntity
  8
SPOJOVACÍ
  6
DASHED
100
AcDbLine
 10
-2073.221717931884
 20
289.6610335361419
 30
0.0
 11
-2076.469313196074
 21
284.0360335361419
 31
0.0
  0
LINE
  5
28CA
330
1F
100
AcDbEntity
  8
SPOJOVACÍ
  6
DASHDOT2
100
AcDbLine
 10
-2163.907775485549
 20
289.6610335361433
 30
0.0
 11
-2048.987665741641
 21
289.6610335361424
 31
0.0
  0
LINE
  5
28CB
330
1F
100
AcDbEntity
  8
SPOJOVACÍ
  6
DASHED
100
AcDbLine
 10
-2067.63557907344
 20
283.0985335361424
 30
0.0
 11
-2148.734674017115
 21
283.0985335361433
 31
0.0
  0
LINE
  5
28CC
330
1F
100
AcDbEntity
  8
SPOJOVACÍ
  6
DASHED
100
AcDbLine
 10
-2067.63557907344
 20
296.2235335361424
 30
0.0
 11
-2148.734674017115
 21
296.2235335361433
 31
0.0
  0
ARC
  5
28CD
330
1F
100
AcDbEntity
  8
NOSNÉ KONSTRUKCE
100
AcDbCircle
 10
-2151.18125231617
 20
266.9713185640202
 30
0.0
 40
2.703648697414791
100
AcDbArc
 50
90.0
 51
270.0
  0
ARC
  5
28CE
330
1F
100
AcDbEntity
  8
NOSNÉ KONSTRUKCE
100
AcDbCircle
 10
-2151.18125231617
 20
312.409320450422
 30
0.0
 40
2.703648697414791
100
AcDbArc
 50
90.0
 51
270.0
  0
LINE
  5
28CF
330
1F
100
AcDbEntity
  8
NOSNÉ KONSTRUKCE
100
AcDbLine
 10
-2234.181252316163
 20
309.7056717530112
 30
0.0
 11
-2151.18125231617
 21
309.7056717530072
 31
0.0
  0
LINE
  5
28D0
330
1F
100
AcDbEntity
  8
NOSNÉ KONSTRUKCE
100
AcDbLine
 10
-2234.181252316163
 20
269.6749672614314
 30
0.0
 11
-2151.181252316172
 21
269.674967261435
 31
0.0
  0
LWPOLYLINE
  5
28D1
330
1F
100
AcDbEntity
  8
NOSNÉ KONSTRUKCE
100
AcDbPolyline
 90
        3
 70
     0
 43
0.0
 10
-2250.246824070581
 20
254.2983629133136
 10
-2273.204193434786
 20
254.2983629133136
 10
-2273.204193434786
 20
287.4606555680361
  0
ARC
  5
28D2
330
1F
100
AcDbEntity
  8
NOSNÉ KONSTRUKCE
100
AcDbCircle
 10
-2260.38932084944
 20
260.6231430907446
 30
0.0
 40
1.3125
100
AcDbArc
 50
180.0
 51
0.0
  0
LINE
  5
28D3
330
1F
100
AcDbEntity
  8
NOSNÉ KONSTRUKCE
100
AcDbLine
 10
-2261.701820849439
 20
260.6231430907446
 30
0.0
 11
-2261.701820849439
 21
260.6449557107712
 31
0.0
  0
LINE
  5
28D4
330
1F
100
AcDbEntity
  8
NOSNÉ KONSTRUKCE
100
AcDbLine
 10
-2259.07682084944
 20
260.6449557107739
 30
0.0
 11
-2259.07682084944
 21
260.6231430907446
 31
0.0
  0
CIRCLE
  5
28D5
330
1F
100
AcDbEntity
  8
NOSNÉ KONSTRUKCE
100
AcDbCircle
 10
-2260.389320849443
 20
263.3426109426359
 30
0.0
 40
3.0
  0
LINE
  5
28D6
330
1F
100
AcDbEntity
  8
NOSNÉ KONSTRUKCE
100
AcDbLine
 10
-2260.389320849443
 20
267.4676109426359
 30
0.0
 11
-2260.389320849442
 21
259.2176109426359
 31
0.0
  0
LINE
  5
28D7
330
1F
100
AcDbEntity
  8
NOSNÉ KONSTRUKCE
100
AcDbLine
 10
-2250.246824070581
 20
254.2983629133136
 30
0.0
 11
-2247.681252316181
 21
261.8928246430323
 31
0.0
  0
LWPOLYLINE
  5
28D8
330
1F
100
AcDbEntity
  8
NOSNÉ KONSTRUKCE
100
AcDbPolyline
 90
        3
 70
     0
 43
0.0
 10
-2273.204193434786
 20
291.8614115042578
 10
-2273.204193434786
 20
325.0237041589802
 10
-2250.246824070581
 20
325.0237041589802
  0
LINE
  5
28D9
330
1F
100
AcDbEntity
  8
NOSNÉ KONSTRUKCE
100
AcDbLine
 10
-2264.102643637448
 20
291.8614115042578
 30
0.0
 11
-2260.507712565135
 21
294.8514408109367
 31
0.0
  0
LINE
  5
28DA
330
1F
100
AcDbEntity
  8
NOSNÉ KONSTRUKCE
100
AcDbLine
 10
-2260.507712565135
 20
284.4706262613572
 30
0.0
 11
-2217.800979517712
 21
284.4706262613572
 31
0.0
  0
LINE
  5
28DB
330
1F
100
AcDbEntity
  8
NOSNÉ KONSTRUKCE
100
AcDbLine
 10
-2273.204193434786
 20
287.4606555680361
 30
0.0
 11
-2264.102643637448
 21
287.4606555680361
 31
0.0
  0
LINE
  5
28DC
330
1F
100
AcDbEntity
  8
NOSNÉ KONSTRUKCE
100
AcDbLine
 10
-2264.102643637448
 20
287.4606555680361
 30
0.0
 11
-2260.507712565135
 21
284.4706262613572
 31
0.0
  0
LINE
  5
28DD
330
1F
100
AcDbEntity
  8
NOSNÉ KONSTRUKCE
100
AcDbLine
 10
-2273.204193434786
 20
291.8614115042578
 30
0.0
 11
-2264.102643637448
 21
291.8614115042578
 31
0.0
  0
ARC
  5
28DE
330
1F
100
AcDbEntity
  8
NOSNÉ KONSTRUKCE
100
AcDbCircle
 10
-2260.38932084944
 20
277.1735169543617
 30
0.0
 40
1.75
100
AcDbArc
 50
0.0
 51
180.0
  0
ARC
  5
28DF
330
1F
100
AcDbEntity
  8
NOSNÉ KONSTRUKCE
100
AcDbCircle
 10
-2260.38932084944
 20
272.2852682487218
 30
0.0
 40
1.75
100
AcDbArc
 50
180.0
 51
0.0
  0
LINE
  5
28E0
330
1F
100
AcDbEntity
  8
NOSNÉ KONSTRUKCE
100
AcDbLine
 10
-2262.13932084944
 20
272.2852682487218
 30
0.0
 11
-2262.13932084944
 21
277.1735169543617
 31
0.0
  0
LINE
  5
28E1
330
1F
100
AcDbEntity
  8
NOSNÉ KONSTRUKCE
100
AcDbLine
 10
-2258.639320849439
 20
277.1735169543617
 30
0.0
 11
-2258.639320849439
 21
272.2852682487218
 31
0.0
  0
LINE
  5
28E2
330
1F
100
AcDbEntity
  8
NOSNÉ KONSTRUKCE
100
AcDbLine
 10
-2256.264320849444
 20
263.3426109426359
 30
0.0
 11
-2264.514320849444
 21
263.3426109426372
 31
0.0
  0
ARC
  5
28E3
330
1F
100
AcDbEntity
  8
NOSNÉ KONSTRUKCE
100
AcDbCircle
 10
-2260.38932084944
 20
266.0620787945299
 30
0.0
 40
1.3125
100
AcDbArc
 50
0.0
 51
180.0
  0
LINE
  5
28E4
330
1F
100
AcDbEntity
  8
NOSNÉ KONSTRUKCE
100
AcDbLine
 10
-2261.701820849439
 20
266.0402661745006
 30
0.0
 11
-2261.701820849439
 21
266.0620787945299
 31
0.0
  0
LINE
  5
28E5
330
1F
100
AcDbEntity
  8
NOSNÉ KONSTRUKCE
100
AcDbLine
 10
-2259.07682084944
 20
266.0620787945299
 30
0.0
 11
-2259.07682084944
 21
266.0402661744983
 31
0.0
  0
LINE
  5
28E6
330
1F
100
AcDbEntity
  8
NOSNÉ KONSTRUKCE
100
AcDbLine
 10
-2260.507712565135
 20
294.8514408109367
 30
0.0
 11
-2217.800979517712
 21
294.8514408109367
 31
0.0
  0
LINE
  5
28E7
330
1F
100
AcDbEntity
  8
NOSNÉ KONSTRUKCE
100
AcDbLine
 10
-2260.389320849443
 20
311.854456129658
 30
0.0
 11
-2260.389320849442
 21
320.104456129658
 31
0.0
  0
CIRCLE
  5
28E8
330
1F
100
AcDbEntity
  8
NOSNÉ KONSTRUKCE
100
AcDbCircle
 10
-2260.389320849443
 20
315.979456129658
 30
0.0
 40
3.0
  0
LINE
  5
28E9
330
1F
100
AcDbEntity
  8
NOSNÉ KONSTRUKCE
100
AcDbLine
 10
-2259.07682084944
 20
313.259988277764
 30
0.0
 11
-2259.07682084944
 21
313.2818008977956
 31
0.0
  0
LINE
  5
28EA
330
1F
100
AcDbEntity
  8
NOSNÉ KONSTRUKCE
100
AcDbLine
 10
-2261.701820849439
 20
313.2818008977933
 30
0.0
 11
-2261.701820849439
 21
313.259988277764
 31
0.0
  0
ARC
  5
28EB
330
1F
100
AcDbEntity
  8
NOSNÉ KONSTRUKCE
100
AcDbCircle
 10
-2260.38932084944
 20
313.259988277764
 30
0.0
 40
1.3125
100
AcDbArc
 50
180.0
 51
0.0
  0
LINE
  5
28EC
330
1F
100
AcDbEntity
  8
NOSNÉ KONSTRUKCE
100
AcDbLine
 10
-2256.264320849444
 20
315.979456129658
 30
0.0
 11
-2264.514320849444
 21
315.9794561296566
 31
0.0
  0
LINE
  5
28ED
330
1F
100
AcDbEntity
  8
NOSNÉ KONSTRUKCE
100
AcDbLine
 10
-2259.07682084944
 20
318.67711136152
 30
0.0
 11
-2259.07682084944
 21
318.6989239815493
 31
0.0
  0
LINE
  5
28EE
330
1F
100
AcDbEntity
  8
NOSNÉ KONSTRUKCE
100
AcDbLine
 10
-2261.701820849439
 20
318.6989239815493
 30
0.0
 11
-2261.701820849439
 21
318.6771113615227
 31
0.0
  0
ARC
  5
28EF
330
1F
100
AcDbEntity
  8
NOSNÉ KONSTRUKCE
100
AcDbCircle
 10
-2260.38932084944
 20
318.6989239815493
 30
0.0
 40
1.3125
100
AcDbArc
 50
0.0
 51
180.0
  0
LINE
  5
28F0
330
1F
100
AcDbEntity
  8
NOSNÉ KONSTRUKCE
100
AcDbLine
 10
-2258.639320849439
 20
302.1485501179322
 30
0.0
 11
-2258.639320849439
 21
307.036798823572
 31
0.0
  0
LINE
  5
28F1
330
1F
100
AcDbEntity
  8
NOSNÉ KONSTRUKCE
100
AcDbLine
 10
-2262.13932084944
 20
307.036798823572
 30
0.0
 11
-2262.13932084944
 21
302.1485501179322
 31
0.0
  0
ARC
  5
28F2
330
1F
100
AcDbEntity
  8
NOSNÉ KONSTRUKCE
100
AcDbCircle
 10
-2260.38932084944
 20
307.036798823572
 30
0.0
 40
1.75
100
AcDbArc
 50
0.0
 51
180.0
  0
ARC
  5
28F3
330
1F
100
AcDbEntity
  8
NOSNÉ KONSTRUKCE
100
AcDbCircle
 10
-2260.38932084944
 20
302.1485501179322
 30
0.0
 40
1.75
100
AcDbArc
 50
180.0
 51
0.0
  0
LINE
  5
28F4
330
1F
100
AcDbEntity
  8
NOSNÉ KONSTRUKCE
100
AcDbLine
 10
-2250.246824070581
 20
325.0237041589802
 30
0.0
 11
-2247.681252316181
 21
317.4292424292616
 31
0.0
  0
LINE
  5
28F5
330
1F
100
AcDbEntity
  8
NOSNÉ KONSTRUKCE
100
AcDbLine
 10
-2217.800979517712
 20
284.4706262613572
 30
0.0
 11
-2217.800979517712
 21
294.0278750225761
 31
0.0
  0
LINE
  5
28F6
330
1F
100
AcDbEntity
  8
NOSNÉ KONSTRUKCE
100
AcDbLine
 10
-2217.800979517712
 20
294.8514408109367
 30
0.0
 11
-2217.800979517712
 21
285.2941920497178
 31
0.0
  0
ARC
  5
28F7
330
1F
100
AcDbEntity
  8
NOSNÉ KONSTRUKCE
100
AcDbCircle
 10
-2151.181252316187
 20
-51.14384901445101
 30
0.0
 40
2.703648697414791
100
AcDbArc
 50
90.0
 51
270.0
  0
ARC
  5
28F8
330
1F
100
AcDbEntity
  8
NOSNÉ KONSTRUKCE
100
AcDbCircle
 10
-2151.181252316187
 20
-5.705847128049299
 30
0.0
 40
2.703648697414791
100
AcDbArc
 50
90.0
 51
270.0
  0
LINE
  5
28F9
330
1F
100
AcDbEntity
  8
NOSNÉ KONSTRUKCE
100
AcDbLine
 10
-2234.181252316178
 20
-8.409495825459998
 30
0.0
 11
-2151.181252316134
 21
-8.409495825464091
 31
0.0
  0
LINE
  5
28FA
330
1F
100
AcDbEntity
  8
NOSNÉ KONSTRUKCE
100
AcDbLine
 10
-2234.181252316178
 20
-48.44020031703985
 30
0.0
 11
-2151.181252316136
 21
-48.44020031703621
 31
0.0
  0
LWPOLYLINE
  5
28FB
330
1F
100
AcDbEntity
  8
NOSNÉ KONSTRUKCE
100
AcDbPolyline
 90
        3
 70
     0
 43
0.0
 10
-2250.246824070597
 20
-63.81680466515764
 10
-2273.2041934348
 20
-63.81680466515764
 10
-2273.2041934348
 20
-30.65451201043515
  0
ARC
  5
28FC
330
1F
100
AcDbEntity
  8
NOSNÉ KONSTRUKCE
100
AcDbCircle
 10
-2260.389320849454
 20
-57.49202448772667
 30
0.0
 40
1.3125
100
AcDbArc
 50
180.0
 51
0.0
  0
LINE
  5
28FD
330
1F
100
AcDbEntity
  8
NOSNÉ KONSTRUKCE
100
AcDbLine
 10
-2261.701820849454
 20
-57.49202448772667
 30
0.0
 11
-2261.701820849454
 21
-57.47021186770007
 31
0.0
  0
LINE
  5
28FE
330
1F
100
AcDbEntity
  8
NOSNÉ KONSTRUKCE
100
AcDbLine
 10
-2259.076820849454
 20
-57.47021186769734
 30
0.0
 11
-2259.076820849454
 21
-57.49202448772667
 31
0.0
  0
CIRCLE
  5
28FF
330
1F
100
AcDbEntity
  8
NOSNÉ KONSTRUKCE
100
AcDbCircle
 10
-2260.389320849458
 20
-54.77255663583537
 30
0.0
 40
3.0
  0
LINE
  5
2900
330
1F
100
AcDbEntity
  8
NOSNÉ KONSTRUKCE
100
AcDbLine
 10
-2260.389320849458
 20
-50.64755663583537
 30
0.0
 11
-2260.389320849458
 21
-58.89755663583537
 31
0.0
  0
LINE
  5
2901
330
1F
100
AcDbEntity
  8
NOSNÉ KONSTRUKCE
100
AcDbLine
 10
-2250.246824070597
 20
-63.81680466515764
 30
0.0
 11
-2247.681252316195
 21
-56.22234293543897
 31
0.0
  0
LWPOLYLINE
  5
2902
330
1F
100
AcDbEntity
  8
NOSNÉ KONSTRUKCE
100
AcDbPolyline
 90
        3
 70
     0
 43
0.0
 10
-2273.2041934348
 20
-26.25375607421347
 10
-2273.2041934348
 20
6.908536580509007
 10
-2250.246824070597
 20
6.908536580509007
  0
LINE
  5
2903
330
1F
100
AcDbEntity
  8
NOSNÉ KONSTRUKCE
100
AcDbLine
 10
-2264.102643637464
 20
-26.25375607421347
 30
0.0
 11
-2260.507712565152
 21
-23.26372676753453
 31
0.0
  0
LINE
  5
2904
330
1F
100
AcDbEntity
  8
NOSNÉ KONSTRUKCE
100
AcDbLine
 10
-2260.507712565152
 20
-33.64454131711409
 30
0.0
 11
-2217.800979517728
 21
-33.64454131711409
 31
0.0
  0
LINE
  5
2905
330
1F
100
AcDbEntity
  8
NOSNÉ KONSTRUKCE
100
AcDbLine
 10
-2273.2041934348
 20
-30.65451201043515
 30
0.0
 11
-2264.102643637464
 21
-30.65451201043515
 31
0.0
  0
LINE
  5
2906
330
1F
100
AcDbEntity
  8
NOSNÉ KONSTRUKCE
100
AcDbLine
 10
-2264.102643637464
 20
-30.65451201043515
 30
0.0
 11
-2260.507712565152
 21
-33.64454131711409
 31
0.0
  0
LINE
  5
2907
330
1F
100
AcDbEntity
  8
NOSNÉ KONSTRUKCE
100
AcDbLine
 10
-2273.2041934348
 20
-26.25375607421347
 30
0.0
 11
-2264.102643637464
 21
-26.25375607421347
 31
0.0
  0
ARC
  5
2908
330
1F
100
AcDbEntity
  8
NOSNÉ KONSTRUKCE
100
AcDbCircle
 10
-2260.389320849454
 20
-40.94165062410957
 30
0.0
 40
1.75
100
AcDbArc
 50
0.0
 51
180.0
  0
ARC
  5
2909
330
1F
100
AcDbEntity
  8
NOSNÉ KONSTRUKCE
100
AcDbCircle
 10
-2260.389320849454
 20
-45.82989932974942
 30
0.0
 40
1.75
100
AcDbArc
 50
180.0
 51
0.0
  0
LINE
  5
290A
330
1F
100
AcDbEntity
  8
NOSNÉ KONSTRUKCE
100
AcDbLine
 10
-2262.139320849454
 20
-45.82989932974942
 30
0.0
 11
-2262.139320849454
 21
-40.94165062410957
 31
0.0
  0
LINE
  5
290B
330
1F
100
AcDbEntity
  8
NOSNÉ KONSTRUKCE
100
AcDbLine
 10
-2258.639320849454
 20
-40.94165062410957
 30
0.0
 11
-2258.639320849454
 21
-45.82989932974942
 31
0.0
  0
LINE
  5
290C
330
1F
100
AcDbEntity
  8
NOSNÉ KONSTRUKCE
100
AcDbLine
 10
-2256.264320849458
 20
-54.77255663583537
 30
0.0
 11
-2264.514320849458
 21
-54.77255663583401
 31
0.0
  0
ARC
  5
290D
330
1F
100
AcDbEntity
  8
NOSNÉ KONSTRUKCE
100
AcDbCircle
 10
-2260.389320849454
 20
-52.05308878394134
 30
0.0
 40
1.3125
100
AcDbArc
 50
0.0
 51
180.0
  0
LINE
  5
290E
330
1F
100
AcDbEntity
  8
NOSNÉ KONSTRUKCE
100
AcDbLine
 10
-2261.701820849454
 20
-52.07490140397067
 30
0.0
 11
-2261.701820849454
 21
-52.05308878394134
 31
0.0
  0
LINE
  5
290F
330
1F
100
AcDbEntity
  8
NOSNÉ KONSTRUKCE
100
AcDbLine
 10
-2259.076820849456
 20
-52.05308878394134
 30
0.0
 11
-2259.076820849456
 21
-52.07490140397294
 31
0.0
  0
LINE
  5
2910
330
1F
100
AcDbEntity
  8
NOSNÉ KONSTRUKCE
100
AcDbLine
 10
-2260.507712565152
 20
-23.26372676753453
 30
0.0
 11
-2217.800979517728
 21
-23.26372676753453
 31
0.0
  0
LINE
  5
2911
330
1F
100
AcDbEntity
  8
NOSNÉ KONSTRUKCE
100
AcDbLine
 10
-2260.389320849458
 20
-6.260711448813253
 30
0.0
 11
-2260.389320849458
 21
1.989288551186746
 31
0.0
  0
CIRCLE
  5
2912
330
1F
100
AcDbEntity
  8
NOSNÉ KONSTRUKCE
100
AcDbCircle
 10
-2260.389320849458
 20
-2.135711448813253
 30
0.0
 40
3.0
  0
LINE
  5
2913
330
1F
100
AcDbEntity
  8
NOSNÉ KONSTRUKCE
100
AcDbLine
 10
-2259.076820849456
 20
-4.855179300707277
 30
0.0
 11
-2259.076820849456
 21
-4.83336668067568
 31
0.0
  0
LINE
  5
2914
330
1F
100
AcDbEntity
  8
NOSNÉ KONSTRUKCE
100
AcDbLine
 10
-2261.701820849454
 20
-4.833366680677954
 30
0.0
 11
-2261.701820849454
 21
-4.855179300707277
 31
0.0
  0
ARC
  5
2915
330
1F
100
AcDbEntity
  8
NOSNÉ KONSTRUKCE
100
AcDbCircle
 10
-2260.389320849454
 20
-4.855179300707277
 30
0.0
 40
1.3125
100
AcDbArc
 50
180.0
 51
0.0
  0
LINE
  5
2916
330
1F
100
AcDbEntity
  8
NOSNÉ KONSTRUKCE
100
AcDbLine
 10
-2256.264320849458
 20
-2.135711448813253
 30
0.0
 11
-2264.514320849458
 21
-2.135711448814618
 31
0.0
  0
LINE
  5
2917
330
1F
100
AcDbEntity
  8
NOSNÉ KONSTRUKCE
100
AcDbLine
 10
-2259.076820849454
 20
0.5619437830487187
 30
0.0
 11
-2259.076820849454
 21
0.5837564030780414
 31
0.0
  0
LINE
  5
2918
330
1F
100
AcDbEntity
  8
NOSNÉ KONSTRUKCE
100
AcDbLine
 10
-2261.701820849454
 20
0.5837564030780414
 30
0.0
 11
-2261.701820849454
 21
0.5619437830514471
 31
0.0
  0
ARC
  5
2919
330
1F
100
AcDbEntity
  8
NOSNÉ KONSTRUKCE
100
AcDbCircle
 10
-2260.389320849454
 20
0.5837564030780414
 30
0.0
 40
1.3125
100
AcDbArc
 50
0.0
 51
180.0
  0
LINE
  5
291A
330
1F
100
AcDbEntity
  8
NOSNÉ KONSTRUKCE
100
AcDbLine
 10
-2258.639320849454
 20
-15.96661746053905
 30
0.0
 11
-2258.639320849454
 21
-11.0783687548992
 31
0.0
  0
LINE
  5
291B
330
1F
100
AcDbEntity
  8
NOSNÉ KONSTRUKCE
100
AcDbLine
 10
-2262.139320849454
 20
-11.0783687548992
 30
0.0
 11
-2262.139320849454
 21
-15.96661746053905
 31
0.0
  0
ARC
  5
291C
330
1F
100
AcDbEntity
  8
NOSNÉ KONSTRUKCE
100
AcDbCircle
 10
-2260.389320849454
 20
-11.0783687548992
 30
0.0
 40
1.75
100
AcDbArc
 50
0.0
 51
180.0
  0
ARC
  5
291D
330
1F
100
AcDbEntity
  8
NOSNÉ KONSTRUKCE
100
AcDbCircle
 10
-2260.389320849454
 20
-15.96661746053905
 30
0.0
 40
1.75
100
AcDbArc
 50
180.0
 51
0.0
  0
LINE
  5
291E
330
1F
100
AcDbEntity
  8
NOSNÉ KONSTRUKCE
100
AcDbLine
 10
-2250.246824070597
 20
6.908536580509007
 30
0.0
 11
-2247.681252316195
 21
-0.6859251492096519
 31
0.0
  0
LINE
  5
291F
330
1F
100
AcDbEntity
  8
NOSNÉ KONSTRUKCE
100
AcDbLine
 10
-2217.800979517728
 20
-33.64454131711409
 30
0.0
 11
-2217.800979517728
 21
-24.08729255589515
 31
0.0
  0
LINE
  5
2920
330
1F
100
AcDbEntity
  8
NOSNÉ KONSTRUKCE
100
AcDbLine
 10
-2217.800979517728
 20
-23.26372676753453
 30
0.0
 11
-2217.800979517728
 21
-32.82097552875347
 31
0.0
  0
LWPOLYLINE
  5
2921
330
1F
100
AcDbEntity
  8
NOSNÉ KONSTRUKCE
100
AcDbPolyline
 90
        2
 70
     0
 43
0.0
 10
-2247.681252316145
 20
-33.64454131711409
 10
-2247.681252316145
 20
-56.22234293543897
  0
LINE
  5
2922
330
1F
100
AcDbEntity
  8
NOSNÉ KONSTRUKCE
100
AcDbLine
 10
-2247.681252316143
 20
-23.26372676753453
 30
0.0
 11
-2247.681252316143
 21
-3.060770372789193
 31
0.0
  0
LINE
  5
2923
330
1F
100
AcDbEntity
  8
NOSNÉ KONSTRUKCE
100
AcDbLine
 10
-2247.681252316143
 20
-23.26372676753453
 30
0.0
 11
-2247.681252316143
 21
-3.060770372789193
 31
0.0
  0
LINE
  5
2924
330
1F
100
AcDbEntity
  8
NOSNÉ KONSTRUKCE
100
AcDbLine
 10
-2151.181252316172
 20
269.674967261435
 30
0.0
 11
-2151.18125231617
 21
309.7056717530072
 31
0.0
  0
LINE
  5
2925
330
1F
100
AcDbEntity
  8
NOSNÉ KONSTRUKCE
100
AcDbLine
 10
-2247.681252316143
 20
294.8514408109367
 30
0.0
 11
-2247.681252316143
 21
315.0543972056821
 31
0.0
  0
LINE
  5
2926
330
1F
100
AcDbEntity
  8
NOSNÉ KONSTRUKCE
100
AcDbLine
 10
-2247.681252316143
 20
294.8514408109367
 30
0.0
 11
-2247.681252316143
 21
315.0543972056821
 31
0.0
  0
LWPOLYLINE
  5
2927
330
1F
100
AcDbEntity
  8
NOSNÉ KONSTRUKCE
100
AcDbPolyline
 90
        2
 70
     0
 43
0.0
 10
-2247.681252316145
 20
284.4706262613572
 10
-2247.681252316145
 20
261.8928246430323
  0
LINE
  5
2928
330
1F
100
AcDbEntity
  8
STAVBA OBRYS
  6
DASHDOT2
100
AcDbLine
 10
-2257.237628424701
 20
-120.047157317861
 30
0.0
 11
-2044.461139358602
 21
-120.0471573178619
 31
0.0
  0
LINE
  5
2929
330
1F
100
AcDbEntity
  8
STAVBA OBRYS
  6
DASHED
100
AcDbLine
 10
-2063.109052690401
 20
-126.609657317862
 30
0.0
 11
-2223.479383923027
 21
-126.6096573178601
 31
0.0
  0
LINE
  5
292A
330
1F
100
AcDbEntity
  8
STAVBA OBRYS
  6
DASHED
100
AcDbLine
 10
-2063.109052690401
 20
-113.484657317862
 30
0.0
 11
-2223.479383923027
 21
-113.4846573178601
 31
0.0
  0
LWPOLYLINE
  5
292B
330
1F
100
AcDbEntity
  8
STAVBA OBRYS
  6
DASHED
100
AcDbPolyline
 90
        4
 70
     1
 43
0.0
 10
-2228.85266524788
 20
-145.1069433273742
 10
-2223.479383923027
 20
-145.1069433273742
 10
-2223.479383923027
 20
-94.98737130835161
 10
-2228.85266524788
 20
-94.98737130835161
  0
LINE
  5
292C
330
1F
100
AcDbEntity
  8
STAVBA OBRYS
  6
DASHED
100
AcDbLine
 10
-2059.320191548845
 20
-120.0471573178619
 30
0.0
 11
-2063.109052690401
 21
-126.609657317862
 31
0.0
  0
LINE
  5
292D
330
1F
100
AcDbEntity
  8
STAVBA OBRYS
  6
DASHED
100
AcDbLine
 10
-2059.320191548845
 20
-120.0471573178619
 30
0.0
 11
-2063.109052690401
 21
-113.484657317862
 31
0.0
  0
LINE
  5
292E
330
1F
100
AcDbEntity
  8
STAVBA OBRYS
  6
DASHDOT2
100
AcDbLine
 10
-2257.237628424701
 20
346.183795181184
 30
0.0
 11
-2044.461139358602
 21
346.183795181183
 31
0.0
  0
LINE
  5
292F
330
1F
100
AcDbEntity
  8
STAVBA OBRYS
  6
DASHED
100
AcDbLine
 10
-2063.109052690401
 20
339.621295181183
 30
0.0
 11
-2223.479383923027
 21
339.6212951811849
 31
0.0
  0
LINE
  5
2930
330
1F
100
AcDbEntity
  8
STAVBA OBRYS
  6
DASHED
100
AcDbLine
 10
-2063.109052690401
 20
352.7462951811831
 30
0.0
 11
-2223.479383923027
 21
352.7462951811849
 31
0.0
  0
LWPOLYLINE
  5
2931
330
1F
100
AcDbEntity
  8
STAVBA OBRYS
  6
DASHED
100
AcDbPolyline
 90
        4
 70
     0
 43
0.0
 10
-2228.85266524788
 20
355.8242971723079
 10
-2228.85266524788
 20
321.1240091716708
 10
-2223.479383923027
 20
321.1240091716708
 10
-2223.479383923027
 20
356.3777102156332
  0
LINE
  5
2932
330
1F
100
AcDbEntity
  8
STAVBA OBRYS
  6
DASHED
100
AcDbLine
 10
-2059.320191548845
 20
346.183795181183
 30
0.0
 11
-2063.109052690401
 21
339.621295181183
 31
0.0
  0
LINE
  5
2933
330
1F
100
AcDbEntity
  8
STAVBA OBRYS
  6
DASHED
100
AcDbLine
 10
-2059.320191548845
 20
346.183795181183
 30
0.0
 11
-2063.109052690401
 21
352.7462951811831
 31
0.0
  0
LINE
  5
2934
330
1F
100
AcDbEntity
  8
STAVBA OBRYS
100
AcDbLine
 10
-2310.046927312451
 20
-240.4625170220961
 30
0.0
 11
-2571.331211683729
 21
-240.4625170220961
 31
0.0
  0
TEXT
  5
2935
330
1F
100
AcDbEntity
  8
POPIS
100
AcDbText
 10
-2266.97479992552
 20
-355.8589552110561
 30
0.0
 40
12.0
  1
R
 41
0.85
  7
SIMPLEX7
100
AcDbText
  0
CIRCLE
  5
2936
330
1F
100
AcDbEntity
  8
POPIS
100
AcDbCircle
 10
-2262.592516415198
 20
-349.7487938431104
 30
0.0
 40
11.13656048292026
  0
INSERT
  5
2991
330
1F
100
AcDbEntity
  8
POPIS
100
AcDbBlockReference
  2
_ArchTick
 10
-2352.394018602869
 20
-112.343570848493
 30
0.0
 41
15.0
 42
15.0
 43
15.0
 50
90.0
  0
LINE
  5
2992
330
1F
100
AcDbEntity
  8
POPIS
100
AcDbLine
 10
-2352.394018602869
 20
-103.0523547656234
 30
0.0
 11
-2352.394018602869
 21
-167.4466395121203
 31
0.0
  0
TEXT
  5
2993
330
1F
100
AcDbEntity
  8
POPIS
100
AcDbText
 10
-2358.003928995161
 20
-147.2258189542649
 30
0.0
 40
25.0
  1
70
 50
90.0
 41
0.7
  7
SIMPLEX7
100
AcDbText
  0
LINE
  5
2994
330
1F
100
AcDbEntity
  8
POPIS
100
AcDbLine
 10
-2323.599950979968
 20
-163.3064381835342
 30
0.0
 11
-2364.894018602869
 21
-163.3064381835342
 31
0.0
  0
INSERT
  5
2995
330
1F
100
AcDbEntity
  8
POPIS
100
AcDbBlockReference
  2
_ArchTick
 10
-2352.394018602869
 20
-163.3064381835342
 30
0.0
 41
15.0
 42
15.0
 43
15.0
 50
270.0
  0
LINE
  5
2996
330
1F
100
AcDbEntity
  8
POPIS
100
AcDbLine
 10
-2321.411008746966
 20
-112.343570848493
 30
0.0
 11
-2364.894018602869
 21
-112.343570848493
 31
0.0
  0
LINE
  5
2997
330
1F
100
AcDbEntity
  8
PROFILY
100
AcDbLine
 10
-2284.588786309008
 20
-144.166562131003
 30
0.0
 11
-2284.588786309008
 21
350.0941694604707
 31
0.0
  0
LINE
  5
2998
330
1F
100
AcDbEntity
  8
PROFILY
  6
DASHED
370
    40
100
AcDbLine
 10
-2284.788786309008
 20
-144.166562131003
 30
0.0
 11
-2284.788786309008
 21
350.0941694604707
 31
0.0
  0
LINE
  5
2999
330
1F
100
AcDbEntity
  8
PROFILY
100
AcDbLine
 10
-2284.988786309008
 20
-144.166562131003
 30
0.0
 11
-2284.988786309008
 21
350.0941694604707
 31
0.0
  0
LINE
  5
299A
330
1F
100
AcDbEntity
  8
POPIS
100
AcDbLine
 10
-2452.589625250261
 20
172.1860268209966
 30
0.0
 11
-2284.788786309008
 21
172.1860268209948
 31
0.0
  0
INSERT
  5
299B
330
1F
100
AcDbEntity
  8
POPIS
100
AcDbBlockReference
  2
E_PUNKT
 10
-2284.728469646864
 20
172.6067698872075
 30
0.0
  0
TEXT
  5
299C
330
1F
100
AcDbEntity
  8
POPIS
100
AcDbText
 10
-2492.103363628304
 20
158.742685371626
 30
0.0
 40
25.0
  1
10
 41
0.7
  7
SIMPLEX7
100
AcDbText
  0
TEXT
  5
299D
330
1F
100
AcDbEntity
  8
POPIS
100
AcDbText
 10
-2433.805944384007
 20
-845.9933440933319
 30
0.0
 40
25.0
  1
Podkladní EPDM páska tl.1 mm
 41
0.7
  7
SIMPLEX7
100
AcDbText
  0
TEXT
  5
299E
330
1F
100
AcDbEntity
  8
POPIS
100
AcDbText
 10
-2488.14964754375
 20
-768.7883457193629
 30
0.0
 40
25.0
  1
09
 41
0.85
  7
SIMPLEX7
100
AcDbText
  0
ENDSEC
  0
SECTION
  2
OBJECTS
  0
DICTIONARY
  5
C
330
0
100
AcDbDictionary
281
     1
  3
ACAD_GROUP
350
D
  3
ACAD_LAYOUT
350
1A
  3
ACAD_MLINESTYLE
350
17
  3
ACAD_PLOTSETTINGS
350
19
  3
ACAD_PLOTSTYLENAME
350
E
  3
AcDbVariableDictionary
350
29A1
  0
DICTIONARY
  5
2938
330
1F
100
AcDbDictionary
280
     1
281
     1
  3
ACAD_LAYOUTSELFREF
360
2972
  0
DICTIONARY
  5
293A
330
1B
100
AcDbDictionary
280
     1
281
     1
  3
ACAD_LAYOUTSELFREF
360
2971
  0
DICTIONARY
  5
293C
330
23
100
AcDbDictionary
280
     1
281
     1
  3
ACAD_LAYOUTSELFREF
360
2973
  0
DICTIONARY
  5
D
102
{ACAD_REACTORS
330
C
102
}
330
C
100
AcDbDictionary
281
     1
  0
DICTIONARY
  5
1A
102
{ACAD_REACTORS
330
C
102
}
330
C
100
AcDbDictionary
281
     1
  3
Model
350
22
  3
Rozvržení1
350
1E
  3
Rozvržení2
350
26
  0
DICTIONARY
  5
17
102
{ACAD_REACTORS
330
C
102
}
330
C
100
AcDbDictionary
281
     1
  3
Standard
350
18
  0
DICTIONARY
  5
19
102
{ACAD_REACTORS
330
C
102
}
330
C
100
AcDbDictionary
281
     1
  0
ACDBDICTIONARYWDFLT
  5
E
102
{ACAD_REACTORS
330
C
102
}
330
C
100
AcDbDictionary
281
     1
  3
Normal
350
F
100
AcDbDictionaryWithDefault
340
F
  0
DICTIONARY
  5
29A1
102
{ACAD_REACTORS
330
C
102
}
330
C
100
AcDbDictionary
281
     1
  3
DIMASSOC
350
29A2
  0
XRECORD
  5
2972
102
{ACAD_REACTORS
330
2938
102
}
330
2938
100
AcDbXrecord
280
     1
340
1F
  0
XRECORD
  5
2971
102
{ACAD_REACTORS
330
293A
102
}
330
293A
100
AcDbXrecord
280
     1
340
1B
  0
XRECORD
  5
2973
102
{ACAD_REACTORS
330
293C
102
}
330
293C
100
AcDbXrecord
280
     1
340
23
  0
LAYOUT
  5
22
102
{ACAD_REACTORS
330
1A
102
}
330
1A
100
AcDbPlotSettings
  1

  2
HP DeskJet 690C
  4

  6

 40
0.0
 41
0.0
 42
0.0
 43
0.0
 44
0.0
 45
0.0
 46
0.0
 47
0.0
 48
0.0
 49
0.0
140
0.0
141
0.0
142
1.0
143
1.0
 70
  1712
 72
     0
 73
     0
 74
     0
  7
monochrome.ctb
 75
     0
147
1.0
148
0.0
149
0.0
100
AcDbLayout
  1
Model
 70
     1
 71
     0
 10
0.0
 20
0.0
 11
12.0
 21
9.0
 12
0.0
 22
0.0
 32
0.0
 14
0.0
 24
0.0
 34
0.0
 15
0.0
 25
0.0
 35
0.0
146
0.0
 13
0.0
 23
0.0
 33
0.0
 16
1.0
 26
0.0
 36
0.0
 17
0.0
 27
1.0
 37
0.0
 76
     0
330
1F
  0
LAYOUT
  5
1E
102
{ACAD_REACTORS
330
1A
102
}
330
1A
100
AcDbPlotSettings
  1

  2
HP DeskJet 690C
  4

  6

 40
0.0
 41
0.0
 42
0.0
 43
0.0
 44
0.0
 45
0.0
 46
0.0
 47
0.0
 48
0.0
 49
0.0
140
0.0
141
0.0
142
1.0
143
1.0
 70
   688
 72
     0
 73
     0
 74
     5
  7
monochrome.ctb
 75
    16
147
1.0
148
0.0
149
0.0
100
AcDbLayout
  1
Rozvržení1
 70
     1
 71
     1
 10
0.0
 20
0.0
 11
420.0
 21
297.0
 12
0.0
 22
0.0
 32
0.0
 14
1.000000000000000E+20
 24
1.000000000000000E+20
 34
1.000000000000000E+20
 15
-1.000000000000000E+20
 25
-1.000000000000000E+20
 35
-1.000000000000000E+20
146
0.0
 13
0.0
 23
0.0
 33
0.0
 16
1.0
 26
0.0
 36
0.0
 17
0.0
 27
1.0
 37
0.0
 76
     0
330
1B
  0
LAYOUT
  5
26
102
{ACAD_REACTORS
330
1A
102
}
330
1A
100
AcDbPlotSettings
  1

  2
HP DeskJet 690C
  4

  6

 40
0.0
 41
0.0
 42
0.0
 43
0.0
 44
0.0
 45
0.0
 46
0.0
 47
0.0
 48
0.0
 49
0.0
140
0.0
141
0.0
142
1.0
143
1.0
 70
   688
 72
     0
 73
     0
 74
     5
  7
monochrome.ctb
 75
    16
147
1.0
148
0.0
149
0.0
100
AcDbLayout
  1
Rozvržení2
 70
     1
 71
     2
 10
0.0
 20
0.0
 11
12.0
 21
9.0
 12
0.0
 22
0.0
 32
0.0
 14
0.0
 24
0.0
 34
0.0
 15
0.0
 25
0.0
 35
0.0
146
0.0
 13
0.0
 23
0.0
 33
0.0
 16
1.0
 26
0.0
 36
0.0
 17
0.0
 27
1.0
 37
0.0
 76
     0
330
23
  0
MLINESTYLE
  5
18
102
{ACAD_REACTORS
330
17
102
}
330
17
100
AcDbMlineStyle
  2
STANDARD
 70
     0
  3

 62
   256
 51
90.0
 52
90.0
 71
     2
 49
0.5
 62
   256
  6
BYLAYER
 49
-0.5
 62
   256
  6
BYLAYER
  0
ACDBPLACEHOLDER
  5
F
102
{ACAD_REACTORS
330
E
102
}
330
E
  0
DICTIONARYVAR
  5
29A2
102
{ACAD_REACTORS
330
29A1
102
}
330
29A1
100
DictionaryVariables
280
     0
  1
1
  0
ENDSEC
  0
EOF
