  0
SECTION
  2
HEADER
  9
$ACADVER
  1
AC1015
  9
$ACADMAINTVER
 70
    14
  9
$DWGCODEPAGE
  3
ANSI_1250
  9
$INSBASE
 10
0.0
 20
0.0
 30
0.0
  9
$EXTMIN
 10
-116.1822374214243
 20
-239.7371344190187
 30
0.0
  9
$EXTMAX
 10
3196.042156226388
 20
1218.074331167069
 30
0.0
  9
$LIMMIN
 10
0.0
 20
0.0
  9
$LIMMAX
 10
420.0
 20
297.0
  9
$ORTHOMODE
 70
     1
  9
$REGENMODE
 70
     1
  9
$FILLMODE
 70
     1
  9
$QTEXTMODE
 70
     0
  9
$MIRRTEXT
 70
     1
  9
$LTSCALE
 40
1.0
  9
$ATTMODE
 70
     1
  9
$TEXTSIZE
 40
2.5
  9
$TRACEWID
 40
1.0
  9
$TEXTSTYLE
  7
Standard
  9
$CLAYER
  8
0
  9
$CELTYPE
  6
ByLayer
  9
$CECOLOR
 62
   256
  9
$CELTSCALE
 40
1.0
  9
$DISPSILH
 70
     0
  9
$DIMSCALE
 40
1.0
  9
$DIMASZ
 40
2.5
  9
$DIMEXO
 40
0.625
  9
$DIMDLI
 40
3.75
  9
$DIMRND
 40
0.0
  9
$DIMDLE
 40
0.0
  9
$DIMEXE
 40
1.25
  9
$DIMTP
 40
0.0
  9
$DIMTM
 40
0.0
  9
$DIMTXT
 40
2.5
  9
$DIMCEN
 40
2.5
  9
$DIMTSZ
 40
0.0
  9
$DIMTOL
 70
     0
  9
$DIMLIM
 70
     0
  9
$DIMTIH
 70
     0
  9
$DIMTOH
 70
     0
  9
$DIMSE1
 70
     0
  9
$DIMSE2
 70
     0
  9
$DIMTAD
 70
     1
  9
$DIMZIN
 70
     8
  9
$DIMBLK
  1

  9
$DIMASO
 70
     1
  9
$DIMSHO
 70
     1
  9
$DIMPOST
  1

  9
$DIMAPOST
  1

  9
$DIMALT
 70
     0
  9
$DIMALTD
 70
     3
  9
$DIMALTF
 40
0.03937007874016
  9
$DIMLFAC
 40
1.0
  9
$DIMTOFL
 70
     1
  9
$DIMTVP
 40
0.0
  9
$DIMTIX
 70
     0
  9
$DIMSOXD
 70
     0
  9
$DIMSAH
 70
     0
  9
$DIMBLK1
  1

  9
$DIMBLK2
  1

  9
$DIMSTYLE
  2
ISO-25
  9
$DIMCLRD
 70
     0
  9
$DIMCLRE
 70
     0
  9
$DIMCLRT
 70
     0
  9
$DIMTFAC
 40
1.0
  9
$DIMGAP
 40
0.625
  9
$DIMJUST
 70
     0
  9
$DIMSD1
 70
     0
  9
$DIMSD2
 70
     0
  9
$DIMTOLJ
 70
     0
  9
$DIMTZIN
 70
     8
  9
$DIMALTZ
 70
     0
  9
$DIMALTTZ
 70
     0
  9
$DIMUPT
 70
     0
  9
$DIMDEC
 70
     2
  9
$DIMTDEC
 70
     2
  9
$DIMALTU
 70
     2
  9
$DIMALTTD
 70
     3
  9
$DIMTXSTY
  7
Standard
  9
$DIMAUNIT
 70
     0
  9
$DIMADEC
 70
     0
  9
$DIMALTRND
 40
0.0
  9
$DIMAZIN
 70
     0
  9
$DIMDSEP
 70
    44
  9
$DIMATFIT
 70
     3
  9
$DIMFRAC
 70
     0
  9
$DIMLDRBLK
  1

  9
$DIMLUNIT
 70
     2
  9
$DIMLWD
 70
    -2
  9
$DIMLWE
 70
    -2
  9
$DIMTMOVE
 70
     0
  9
$LUNITS
 70
     2
  9
$LUPREC
 70
     4
  9
$SKETCHINC
 40
1.0
  9
$FILLETRAD
 40
10.0
  9
$AUNITS
 70
     0
  9
$AUPREC
 70
     0
  9
$MENU
  1
.
  9
$ELEVATION
 40
0.0
  9
$PELEVATION
 40
0.0
  9
$THICKNESS
 40
0.0
  9
$LIMCHECK
 70
     0
  9
$CHAMFERA
 40
10.0
  9
$CHAMFERB
 40
10.0
  9
$CHAMFERC
 40
20.0
  9
$CHAMFERD
 40
0.0
  9
$SKPOLY
 70
     0
  9
$TDCREATE
 40
2452339.360978703
  9
$TDUCREATE
 40
2452339.319312037
  9
$TDUPDATE
 40
2455610.256766909
  9
$TDUUPDATE
 40
2455610.215100243
  9
$TDINDWG
 40
0.0045145718
  9
$TDUSRTIMER
 40
0.0045138773
  9
$USRTIMER
 70
     1
  9
$ANGBASE
 50
0.0
  9
$ANGDIR
 70
     0
  9
$PDMODE
 70
     0
  9
$PDSIZE
 40
0.0
  9
$PLINEWID
 40
0.0
  9
$SPLFRAME
 70
     0
  9
$SPLINETYPE
 70
     6
  9
$SPLINESEGS
 70
     8
  9
$HANDSEED
  5
8A6
  9
$SURFTAB1
 70
     6
  9
$SURFTAB2
 70
     6
  9
$SURFTYPE
 70
     6
  9
$SURFU
 70
     6
  9
$SURFV
 70
     6
  9
$UCSBASE
  2

  9
$UCSNAME
  2

  9
$UCSORG
 10
0.0
 20
0.0
 30
0.0
  9
$UCSXDIR
 10
1.0
 20
0.0
 30
0.0
  9
$UCSYDIR
 10
0.0
 20
1.0
 30
0.0
  9
$UCSORTHOREF
  2

  9
$UCSORTHOVIEW
 70
     0
  9
$UCSORGTOP
 10
0.0
 20
0.0
 30
0.0
  9
$UCSORGBOTTOM
 10
0.0
 20
0.0
 30
0.0
  9
$UCSORGLEFT
 10
0.0
 20
0.0
 30
0.0
  9
$UCSORGRIGHT
 10
0.0
 20
0.0
 30
0.0
  9
$UCSORGFRONT
 10
0.0
 20
0.0
 30
0.0
  9
$UCSORGBACK
 10
0.0
 20
0.0
 30
0.0
  9
$PUCSBASE
  2

  9
$PUCSNAME
  2

  9
$PUCSORG
 10
0.0
 20
0.0
 30
0.0
  9
$PUCSXDIR
 10
1.0
 20
0.0
 30
0.0
  9
$PUCSYDIR
 10
0.0
 20
1.0
 30
0.0
  9
$PUCSORTHOREF
  2

  9
$PUCSORTHOVIEW
 70
     0
  9
$PUCSORGTOP
 10
0.0
 20
0.0
 30
0.0
  9
$PUCSORGBOTTOM
 10
0.0
 20
0.0
 30
0.0
  9
$PUCSORGLEFT
 10
0.0
 20
0.0
 30
0.0
  9
$PUCSORGRIGHT
 10
0.0
 20
0.0
 30
0.0
  9
$PUCSORGFRONT
 10
0.0
 20
0.0
 30
0.0
  9
$PUCSORGBACK
 10
0.0
 20
0.0
 30
0.0
  9
$USERI1
 70
     0
  9
$USERI2
 70
     0
  9
$USERI3
 70
     0
  9
$USERI4
 70
     0
  9
$USERI5
 70
     0
  9
$USERR1
 40
0.0
  9
$USERR2
 40
0.0
  9
$USERR3
 40
0.0
  9
$USERR4
 40
0.0
  9
$USERR5
 40
0.0
  9
$WORLDVIEW
 70
     1
  9
$SHADEDGE
 70
     3
  9
$SHADEDIF
 70
    70
  9
$TILEMODE
 70
     1
  9
$MAXACTVP
 70
    48
  9
$PINSBASE
 10
0.0
 20
0.0
 30
0.0
  9
$PLIMCHECK
 70
     0
  9
$PEXTMIN
 10
1.000000000000000E+20
 20
1.000000000000000E+20
 30
1.000000000000000E+20
  9
$PEXTMAX
 10
-1.000000000000000E+20
 20
-1.000000000000000E+20
 30
-1.000000000000000E+20
  9
$PLIMMIN
 10
0.0
 20
0.0
  9
$PLIMMAX
 10
420.0
 20
297.0
  9
$UNITMODE
 70
     0
  9
$VISRETAIN
 70
     1
  9
$PLINEGEN
 70
     0
  9
$PSLTSCALE
 70
     1
  9
$TREEDEPTH
 70
  3020
  9
$CMLSTYLE
  2
Standard
  9
$CMLJUST
 70
     0
  9
$CMLSCALE
 40
20.0
  9
$PROXYGRAPHICS
 70
     1
  9
$MEASUREMENT
 70
     1
  9
$CELWEIGHT
370
    -1
  9
$ENDCAPS
280
     0
  9
$JOINSTYLE
280
     0
  9
$LWDISPLAY
290
     0
  9
$INSUNITS
 70
     4
  9
$HYPERLINKBASE
  1

  9
$STYLESHEET
  1

  9
$XEDIT
290
     1
  9
$CEPSNTYPE
380
     0
  9
$PSTYLEMODE
290
     1
  9
$FINGERPRINTGUID
  2
{9C079773-E80E-4585-A7F4-852C8B38093D}
  9
$VERSIONGUID
  2
{D6EDC63F-B7CC-4BA9-B477-F19624CDD769}
  9
$EXTNAMES
290
     1
  9
$PSVPSCALE
 40
0.0
  9
$OLESTARTUP
290
     0
  0
ENDSEC
  0
SECTION
  2
CLASSES
  0
CLASS
  1
ACDBDICTIONARYWDFLT
  2
AcDbDictionaryWithDefault
  3
AutoCAD 2000
 90
        0
280
     0
281
     0
  0
CLASS
  1
ACDBPLACEHOLDER
  2
AcDbPlaceHolder
  3
AutoCAD 2000
 90
        0
280
     0
281
     0
  0
CLASS
  1
LAYOUT
  2
AcDbLayout
  3
AutoCAD 2000
 90
        0
280
     0
281
     0
  0
CLASS
  1
LONG_TRANSACTION
  2
AcDbLongTransaction
  3
AutoCAD 2000
 90
    32768
280
     0
281
     0
  0
CLASS
  1
LWPOLYLINE
  2
AcDbPolyline
  3
AutoCAD 2000
 90
    32768
280
     0
281
     1
  0
CLASS
  1
HATCH
  2
AcDbHatch
  3
AutoCAD 2000
 90
    32768
280
     0
281
     1
  0
CLASS
  1
XRECORD
  2
AcDbXrecord
  3
AutoCAD 2000
 90
    32768
280
     0
281
     0
  0
CLASS
  1
DICTIONARYVAR
  2
AcDbDictionaryVar
  3
AutoCAD 2000
 90
        0
280
     0
281
     0
  0
ENDSEC
  0
SECTION
  2
TABLES
  0
TABLE
  2
VPORT
  5
8
330
0
100
AcDbSymbolTable
 70
     2
  0
VPORT
  5
8A5
330
8
100
AcDbSymbolTableRecord
100
AcDbViewportTableRecord
  2
*Active
 70
     0
 10
0.0
 20
0.0
 11
1.0
 21
1.0
 12
2995.102835720465
 22
489.1949233004107
 13
0.0
 23
0.0
 14
10.0
 24
10.0
 15
10.0
 25
10.0
 16
0.0
 26
0.0
 36
1.0
 17
0.0
 27
0.0
 37
0.0
 40
1463.787013683057
 41
2.031862745098039
 42
50.0
 43
0.0
 44
0.0
 50
0.0
 51
0.0
 71
     0
 72
   100
 73
     1
 74
     3
 75
     0
 76
     0
 77
     0
 78
     0
281
     0
 65
     1
110
0.0
120
0.0
130
0.0
111
1.0
121
0.0
131
0.0
112
0.0
122
1.0
132
0.0
 79
     0
146
0.0
  0
ENDTAB
  0
TABLE
  2
LTYPE
  5
5
330
0
100
AcDbSymbolTable
 70
     4
  0
LTYPE
  5
14
330
5
100
AcDbSymbolTableRecord
100
AcDbLinetypeTableRecord
  2
ByBlock
 70
     0
  3

 72
    65
 73
     0
 40
0.0
  0
LTYPE
  5
15
330
5
100
AcDbSymbolTableRecord
100
AcDbLinetypeTableRecord
  2
ByLayer
 70
     0
  3

 72
    65
 73
     0
 40
0.0
  0
LTYPE
  5
16
330
5
100
AcDbSymbolTableRecord
100
AcDbLinetypeTableRecord
  2
Continuous
 70
     0
  3
Solid line
 72
    65
 73
     0
 40
0.0
  0
LTYPE
  5
3F
330
5
100
AcDbSymbolTableRecord
100
AcDbLinetypeTableRecord
  2
IZOLACE
 70
     0
  3
Izolace SSSSSSSSSSSSSSSSSSSSSSSSSSSSSSSSSSSSSSS
 72
    65
 73
     4
 40
10.16253999999999
 49
0.00254
 74
     0
 49
-2.54
 74
     4
 75
   134
340
4A
 46
2.54
 50
0.0
 44
-2.54
 45
0.0
 49
-5.08
 74
     4
 75
   134
340
4A
 46
2.54
 50
180.0
 44
2.54
 45
0.0
 49
-2.54
 74
     0
  0
LTYPE
  5
40
330
5
100
AcDbSymbolTableRecord
100
AcDbLinetypeTableRecord
  2
DASHED
 70
     0
  3
Dashed __ __ __ __ __ __ __ __ __ __ __ __ __ _
 72
    65
 73
     2
 40
19.04999999999999
 49
12.7
 74
     0
 49
-6.349999999999999
 74
     0
  0
LTYPE
  5
41
330
5
100
AcDbSymbolTableRecord
100
AcDbLinetypeTableRecord
  2
DASHDOT2
 70
     0
  3
Dash dot (.5x) _._._._._._._._._._._._._._._.
 72
    65
 73
     4
 40
12.7
 49
6.349999999999999
 74
     0
 49
-3.174999999999999
 74
     0
 49
0.0
 74
     0
 49
-3.174999999999999
 74
     0
  0
ENDTAB
  0
TABLE
  2
LAYER
  5
2
330
0
100
AcDbSymbolTable
 70
     8
  0
LAYER
  5
10
330
2
100
AcDbSymbolTableRecord
100
AcDbLayerTableRecord
  2
0
 70
     0
 62
     7
  6
Continuous
370
    -3
390
F
  0
LAYER
  5
42
330
2
100
AcDbSymbolTableRecord
100
AcDbLayerTableRecord
  2
POPIS
 70
     0
 62
    30
  6
Continuous
370
    -3
390
F
  0
LAYER
  5
43
330
2
100
AcDbSymbolTableRecord
100
AcDbLayerTableRecord
  2
SPOJOVACÍ
 70
     0
 62
   180
  6
Continuous
370
    -3
390
F
  0
LAYER
  5
44
330
2
100
AcDbSymbolTableRecord
100
AcDbLayerTableRecord
  2
CETRIS
 70
     0
 62
     1
  6
Continuous
370
    -3
390
F
  0
LAYER
  5
45
330
2
100
AcDbSymbolTableRecord
100
AcDbLayerTableRecord
  2
NOSNÉ KONSTRUKCE
 70
     0
 62
    33
  6
Continuous
370
    -3
390
F
  0
LAYER
  5
46
330
2
100
AcDbSymbolTableRecord
100
AcDbLayerTableRecord
  2
PROFILY
 70
     0
 62
    73
  6
Continuous
370
    -3
390
F
  0
LAYER
  5
47
330
2
100
AcDbSymbolTableRecord
100
AcDbLayerTableRecord
  2
STAVBA OBRYS
 70
     0
 62
     6
  6
Continuous
370
    -3
390
F
  0
LAYER
  5
48
330
2
100
AcDbSymbolTableRecord
100
AcDbLayerTableRecord
  2
Defpoints
 70
     0
 62
     7
  6
Continuous
290
     0
370
    -3
390
F
  0
ENDTAB
  0
TABLE
  2
STYLE
  5
3
330
0
100
AcDbSymbolTable
 70
     3
  0
STYLE
  5
11
330
3
100
AcDbSymbolTableRecord
100
AcDbTextStyleTableRecord
  2
Standard
 70
     0
 40
0.0
 41
1.0
 50
0.0
 71
     0
 42
2.5
  3
txt
  4

  0
STYLE
  5
49
330
3
100
AcDbSymbolTableRecord
100
AcDbTextStyleTableRecord
  2
SIMPLEX7
 70
     0
 40
0.0
 41
0.85
 50
0.0
 71
     0
 42
102.0
  3
ARIAL.TTF
  4

1001
ACAD
1000
Arial CE
1071
    60962
  0
STYLE
  5
4A
330
3
100
AcDbSymbolTableRecord
100
AcDbTextStyleTableRecord
  2

 70
     1
 40
0.0
 41
1.0
 50
0.0
 71
     0
 42
2.5
  3
ltypeshp.shx
  4

  0
ENDTAB
  0
TABLE
  2
VIEW
  5
6
330
0
100
AcDbSymbolTable
 70
     0
  0
ENDTAB
  0
TABLE
  2
UCS
  5
7
330
0
100
AcDbSymbolTable
 70
     0
  0
ENDTAB
  0
TABLE
  2
APPID
  5
9
330
0
100
AcDbSymbolTable
 70
     1
  0
APPID
  5
12
330
9
100
AcDbSymbolTableRecord
100
AcDbRegAppTableRecord
  2
ACAD
 70
     0
  0
ENDTAB
  0
TABLE
  2
DIMSTYLE
  5
A
330
0
100
AcDbSymbolTable
 70
     1
100
AcDbDimStyleTable
 71
     0
  0
DIMSTYLE
105
27
330
A
100
AcDbSymbolTableRecord
100
AcDbDimStyleTableRecord
  2
ISO-25
 70
     0
 41
2.5
 42
0.625
 43
3.75
 44
1.25
 73
     0
 74
     0
 77
     1
 78
     8
140
2.5
141
2.5
143
0.03937007874016
147
0.625
171
     3
172
     1
271
     2
272
     2
274
     3
278
    44
283
     0
284
     8
340
11
  0
ENDTAB
  0
TABLE
  2
BLOCK_RECORD
  5
1
330
0
100
AcDbSymbolTable
 70
     3
  0
BLOCK_RECORD
  5
1F
102
{ACAD_XDICTIONARY
360
82C
102
}
330
1
100
AcDbSymbolTableRecord
100
AcDbBlockTableRecord
  2
*Model_Space
340
22
  0
BLOCK_RECORD
  5
1B
102
{ACAD_XDICTIONARY
360
82E
102
}
330
1
100
AcDbSymbolTableRecord
100
AcDbBlockTableRecord
  2
*Paper_Space
340
1E
  0
BLOCK_RECORD
  5
23
102
{ACAD_XDICTIONARY
360
830
102
}
330
1
100
AcDbSymbolTableRecord
100
AcDbBlockTableRecord
  2
*Paper_Space0
340
26
  0
BLOCK_RECORD
  5
2B
330
1
100
AcDbSymbolTableRecord
100
AcDbBlockTableRecord
  2
E_PUNKT
340
0
102
{BLKREFS
331
649
331
64A
331
6CF
331
6DF
331
76C
331
76F
331
770
331
7F0
331
819
331
895
102
}
  0
BLOCK_RECORD
  5
871
330
1
100
AcDbSymbolTableRecord
100
AcDbBlockTableRecord
  2
_ArchTick
340
0
102
{BLKREFS
331
890
331
892
102
}
  0
ENDTAB
  0
ENDSEC
  0
SECTION
  2
BLOCKS
  0
BLOCK
  5
20
330
1F
100
AcDbEntity
  8
0
100
AcDbBlockBegin
  2
*Model_Space
 70
     0
 10
0.0
 20
0.0
 30
0.0
  3
*Model_Space
  1

  0
ENDBLK
  5
21
330
1F
100
AcDbEntity
  8
0
100
AcDbBlockEnd
  0
BLOCK
  5
1C
330
1B
100
AcDbEntity
 67
     1
  8
0
100
AcDbBlockBegin
  2
*Paper_Space
 70
     0
 10
0.0
 20
0.0
 30
0.0
  3
*Paper_Space
  1

  0
ENDBLK
  5
1D
330
1B
100
AcDbEntity
 67
     1
  8
0
100
AcDbBlockEnd
  0
BLOCK
  5
24
330
23
100
AcDbEntity
  8
0
100
AcDbBlockBegin
  2
*Paper_Space0
 70
     0
 10
0.0
 20
0.0
 30
0.0
  3
*Paper_Space0
  1

  0
ENDBLK
  5
25
330
23
100
AcDbEntity
  8
0
100
AcDbBlockEnd
  0
BLOCK
  5
2D
330
2B
100
AcDbEntity
  8
0
100
AcDbBlockBegin
  2
E_PUNKT
 70
     0
 10
0.0
 20
0.0
 30
0.0
  3
E_PUNKT
  1

  0
LWPOLYLINE
  5
2C
330
2B
100
AcDbEntity
  8
POPIS
100
AcDbPolyline
 90
        2
 70
     1
 43
2.5
 10
1.27761037562675
 20
0.0290683308725193
 42
-1.0
 10
-1.222389624373249
 20
0.0290683308725193
 42
-1.0
  0
ENDBLK
  5
2E
330
2B
100
AcDbEntity
  8
0
100
AcDbBlockEnd
  0
BLOCK
  5
873
330
871
100
AcDbEntity
  8
0
100
AcDbBlockBegin
  2
_ArchTick
 70
     0
 10
0.0
 20
0.0
 30
0.0
  3
_ArchTick
  1

  0
LWPOLYLINE
  5
872
330
871
100
AcDbEntity
  8
0
  6
ByBlock
 62
     0
100
AcDbPolyline
 90
        2
 70
     0
 43
0.15
 10
-0.5
 20
-0.5
 10
0.5
 20
0.5
  0
ENDBLK
  5
874
330
871
100
AcDbEntity
  8
0
100
AcDbBlockEnd
  0
ENDSEC
  0
SECTION
  2
ENTITIES
  0
HATCH
  5
646
330
1F
100
AcDbEntity
  8
PROFILY
100
AcDbHatch
 10
0.0
 20
0.0
 30
0.0
210
0.0
220
0.0
230
1.0
  2
SOLID
 70
     1
 71
     0
 91
        6
 92
        7
 72
     1
 73
     1
 93
        9
 10
2637.86038727787
 20
494.7879442783214
 42
0.0
 10
2682.2870564298
 20
501.7596468900456
 42
0.0
 10
2682.287056429803
 20
510.1038839719458
 42
0.0
 10
2680.792777049978
 20
510.1038839719458
 42
0.0
 10
2680.792777049974
 20
503.0435125158565
 42
0.0
 10
2636.36038727787
 20
496.0709121896861
 42
0.0
 10
2636.36038727787
 20
481.0131111228783
 42
0.0
 10
2636.716224495268
 20
481.0131111228783
 42
-0.3343810803908438
 10
2637.86038727787
 20
481.9889235176333
 42
0.0
 97
        0
 92
        7
 72
     1
 73
     1
 93
        9
 10
2645.318860485674
 20
485.2158725421868
 42
0.0
 10
2644.252417618169
 20
486.270718317809
 42
0.0
 10
2639.134684039033
 20
481.096719805977
 42
-0.0722180248406262
 10
2639.186298679747
 20
480.7412306631831
 42
-1.0
 10
2636.686298679746
 20
480.7412306631831
 42
-0.054869187843659
 10
2636.716224495268
 20
481.0131111228783
 42
0.0
 10
2636.36038727787
 20
481.0131111228774
 42
0.0
 10
2636.36038727787
 20
478.0035601601958
 42
0.5463219135040115
 10
2637.586809059584
 20
477.3988140819528
 42
0.0
 97
        0
 92
       23
 72
     1
 73
     1
 93
        7
 10
2637.86038727787
 20
481.0131111228783
 42
0.0
 10
2636.716224495268
 20
481.0131111228783
 42
0.054869187843659
 10
2636.686298679746
 20
480.7412306631831
 42
1.0
 10
2639.186298679747
 20
480.7412306631831
 42
0.054869187843659
 10
2639.156372864226
 20
481.0131111228783
 42
0.0
 10
2639.051984563183
 20
481.0131111228793
 42
0.0
 10
2637.860387277866
 20
479.8084132843596
 42
0.0
 97
        0
 92
       23
 72
     1
 73
     1
 93
        3
 10
2637.86038727787
 20
481.9889235176406
 42
0.3343810803921581
 10
2636.716224495268
 20
481.0131111228783
 42
0.0
 10
2637.860387277866
 20
481.0131111228774
 42
0.0
 97
        0
 92
        7
 72
     0
 73
     1
 93
        4
 10
2682.2870564298
 20
529.3305047005341
 10
2680.792777049978
 20
529.3305047005351
 10
2680.792777049978
 20
510.1038839719467
 10
2682.2870564298
 20
510.1038839719467
 97
        0
 92
        7
 72
     0
 73
     1
 93
        4
 10
2682.2870564298
 20
536.7461824853371
 10
2680.792777049978
 20
536.7461824853353
 10
2680.792777049978
 20
529.3305047005333
 10
2682.2870564298
 20
529.3305047005324
 97
        0
 75
     0
 76
     1
 47
0.1603768791210048
 98
        6
 10
2636.859785928148
 20
488.8635185191378
 10
2636.915074893773
 20
478.1943547873525
 10
2637.758928883854
 20
480.3353392924764
 10
2637.559019077908
 20
481.3029761619254
 10
2681.707258124156
 20
515.2846263419633
 10
2681.867710968004
 20
533.567579815237
  0
LINE
  5
647
330
1F
100
AcDbEntity
  8
PROFILY
100
AcDbLine
 10
2697.251414480231
 20
529.3305047005341
 30
0.0
 11
2673.179386348613
 21
529.3305047005341
 31
0.0
  0
HATCH
  5
648
330
1F
100
AcDbEntity
  8
STAVBA OBRYS
100
AcDbHatch
 10
0.0
 20
0.0
 30
0.0
210
0.0
220
0.0
230
1.0
  2
BRICK
 70
     0
 71
     0
 91
        2
 92
        7
 72
     0
 73
     1
 93
       14
 10
3030.473364784547
 20
1045.803407731453
 10
2792.929357675625
 20
1065.043596632831
 10
2792.929357675618
 20
951.9811240177878
 10
2792.929357675618
 20
734.3632319862936
 10
2875.001557301349
 20
734.3632319862936
 10
2878.7904184429
 20
727.8007319862936
 10
2875.001557301342
 20
721.2382319862899
 10
2792.929357675622
 20
721.2382319862918
 10
2792.929357675622
 20
568.8044394217031
 10
2850.727637976387
 20
568.8044394217013
 10
2854.516499117941
 20
562.2419394217049
 10
2867.182925510203
 20
562.2419394217049
 10
2867.18292551021
 20
577.1559507517486
 10
3029.638253144433
 20
577.1559507517467
 97
        0
 92
        7
 72
     0
 73
     1
 93
       12
 10
3029.607292599548
 20
471.3154311063026
 10
2867.182925510203
 20
471.3154311063062
 10
2867.182925510206
 20
562.2419394217031
 10
2854.516499117941
 20
562.2419394217013
 10
2850.727637976383
 20
555.6794394217049
 10
2792.929357675614
 20
555.6794394217013
 10
2792.929357675614
 20
512.0822592853674
 10
2792.929357675614
 20
492.1772187611277
 10
2720.742507305848
 20
492.1772187611277
 10
2651.938368772088
 20
447.4607915569013
 10
2651.938368772088
 20
416.4334935799397
 10
3029.522228250263
 20
423.5790698166165
 97
        0
 75
     0
 76
     1
 52
0.0
 41
10.0
 77
     0
 78
     3
 53
0.0
 43
-18960.61867168117
 44
-8864.810647292056
 45
0.0
 46
63.5
 79
     0
 53
90.0
 43
-18960.61867168117
 44
-8864.810647292056
 45
-127.0
 46
0.0000000000000078
 79
     2
 49
63.5
 49
-63.5
 53
90.0
 43
-18897.11867168117
 44
-8864.810647292056
 45
-127.0
 46
0.0000000000000078
 79
     2
 49
-63.5
 49
63.5
 47
1.838467778900941
 98
        2
 10
2992.64088487993
 20
681.4212557785067
 10
2825.248950383972
 20
462.6435881091383
  0
INSERT
  5
649
330
1F
100
AcDbEntity
  8
POPIS
100
AcDbBlockReference
  2
E_PUNKT
 10
2707.822813773874
 20
907.5084782572776
 30
0.0
  0
INSERT
  5
64A
330
1F
100
AcDbEntity
  8
POPIS
100
AcDbBlockReference
  2
E_PUNKT
 10
2747.704244588426
 20
818.9857234685877
 30
0.0
  0
LINE
  5
64B
330
1F
100
AcDbEntity
  8
POPIS
100
AcDbLine
 10
2509.118769765465
 20
818.9661087266358
 30
0.0
 11
2746.481854964052
 21
819.01479179946
 31
0.0
  0
TEXT
  5
64C
330
1F
100
AcDbEntity
  8
POPIS
100
AcDbText
 10
2467.73915972747
 20
805.5227672772653
 30
0.0
 40
25.0
  1
08
 41
0.7
  7
SIMPLEX7
100
AcDbText
  0
LINE
  5
64D
330
1F
100
AcDbEntity
  8
STAVBA OBRYS
  6
DASHDOT2
100
AcDbLine
 10
2680.872981567046
 20
727.8007319862936
 30
0.0
 11
2893.649470633144
 21
727.8007319862918
 31
0.0
  0
TEXT
  5
64E
330
1F
100
AcDbEntity
  8
POPIS
100
AcDbText
 10
2502.870626875706
 20
169.740856597109
 30
0.0
 40
25.0
  1
Svislá dřevěné lať 50x25 (100x25), impregnovaná
 41
0.7
  7
SIMPLEX7
100
AcDbText
  0
TEXT
  5
64F
330
1F
100
AcDbEntity
  8
POPIS
100
AcDbText
 10
2502.870626875706
 20
133.6340351099206
 30
0.0
 40
25.0
  1
Pojistná fólie - parozábrana
 41
0.7
  7
SIMPLEX7
100
AcDbText
  0
TEXT
  5
650
330
1F
100
AcDbEntity
  8
POPIS
100
AcDbText
 10
2502.870626875706
 20
98.01514641183167
 30
0.0
 40
25.0
  1
Vodorovná dřevěná lať š=100 mm (tloušťka dle izolace)
 41
0.7
  7
SIMPLEX7
100
AcDbText
  0
TEXT
  5
651
330
1F
100
AcDbEntity
  8
POPIS
100
AcDbText
 10
2503.606510238544
 20
-113.7677129623953
 30
0.0
 40
25.0
  1
Talířová hmoždinka
 41
0.7
  7
SIMPLEX7
100
AcDbText
  0
TEXT
  5
652
330
1F
100
AcDbEntity
  8
POPIS
100
AcDbText
 10
2449.262807078795
 20
-113.7677129623953
 30
0.0
 40
25.0
  1
09
 41
0.85
  7
SIMPLEX7
100
AcDbText
  0
LINE
  5
653
330
1F
100
AcDbEntity
  8
NOSNÉ KONSTRUKCE
100
AcDbLine
 10
2684.518741347078
 20
626.6534518264834
 30
0.0
 11
2682.698864977564
 21
681.1538560608314
 31
0.0
  0
LINE
  5
654
330
1F
100
AcDbEntity
  8
NOSNÉ KONSTRUKCE
100
AcDbLine
 10
2686.774950163629
 20
678.496130760619
 30
0.0
 11
2688.773454154166
 21
624.9125454311852
 31
0.0
  0
LINE
  5
655
330
1F
100
AcDbEntity
  8
NOSNÉ KONSTRUKCE
100
AcDbLine
 10
2694.452154688298
 20
630.0726493526108
 30
0.0
 11
2695.323488300958
 21
675.8437582596362
 31
0.0
  0
LINE
  5
656
330
1F
100
AcDbEntity
  8
NOSNÉ KONSTRUKCE
100
AcDbLine
 10
2700.307678853184
 20
614.2517329186248
 30
0.0
 11
2701.496774219439
 21
669.0635139818787
 31
0.0
  0
HATCH
  5
657
330
1F
100
AcDbEntity
  8
PROFILY
100
AcDbHatch
 10
0.0
 20
0.0
 30
0.0
210
0.0
220
0.0
230
1.0
  2
SOLID
 70
     1
 71
     0
 91
        5
 92
        7
 72
     0
 73
     1
 93
        4
 10
2792.578461860613
 20
511.7612356779373
 10
2778.319072933279
 20
511.7612356779373
 10
2778.319072933279
 20
510.1038839719458
 10
2792.578461860617
 20
510.1038839719458
 97
        0
 92
        7
 72
     1
 73
     1
 93
        6
 10
2764.059684005941
 20
511.7612356779354
 42
0.0
 10
2749.800295078604
 20
511.7612356779373
 42
0.0
 10
2749.800295078604
 20
511.5441453550629
 42
-0.3580247877900602
 10
2750.807384543413
 20
510.3179747014037
 42
-0.0430568766275296
 10
2750.788914144989
 20
510.1038839719458
 42
0.0
 10
2764.059684005945
 20
510.1038839719458
 42
0.0
 97
        0
 92
        7
 72
     0
 73
     1
 93
        4
 10
2735.540906151266
 20
511.7612356779354
 10
2721.281517223932
 20
511.7612356779373
 10
2721.281517223932
 20
510.1038839719458
 10
2735.540906151262
 20
510.1038839719458
 97
        0
 92
        7
 72
     0
 73
     1
 93
        4
 10
2706.943481864306
 20
511.7612356779337
 10
2692.762739369261
 20
511.7612356779337
 10
2692.762739369257
 20
510.1038839719458
 10
2706.943481864299
 20
510.103883971944
 97
        0
 92
        7
 72
     0
 73
     1
 93
        4
 10
2684.622496764809
 20
511.7612356779354
 10
2682.419195636777
 20
511.7612356779337
 10
2682.41919563678
 20
510.1038839719458
 10
2684.622496764809
 20
510.103883971944
 97
        0
 75
     0
 76
     1
 47
0.1643367947355104
 98
        5
 10
2784.426583371253
 20
511.0799753380197
 10
2759.26935587241
 20
510.5869549964409
 10
2725.397446950589
 20
510.7513083113663
 10
2700.075792709406
 20
510.9156616262989
 10
2683.633118475523
 20
510.7513083113663
  0
LINE
  5
658
330
1F
100
AcDbEntity
  8
PROFILY
100
AcDbLine
 10
2637.586809059591
 20
477.3988140819583
 30
0.0
 11
2645.318860485674
 21
485.2158725421868
 31
0.0
  0
LINE
  5
659
330
1F
100
AcDbEntity
  8
PROFILY
100
AcDbLine
 10
2636.36038727787
 20
496.070912189687
 30
0.0
 11
2636.36038727787
 21
478.0035601601958
 31
0.0
  0
LINE
  5
65A
330
1F
100
AcDbEntity
  8
PROFILY
100
AcDbLine
 10
2636.36038727787
 20
496.070912189687
 30
0.0
 11
2680.792777049978
 21
503.0435125158573
 31
0.0
  0
LINE
  5
65B
330
1F
100
AcDbEntity
  8
PROFILY
100
AcDbLine
 10
2680.792777049978
 20
503.0435125158573
 30
0.0
 11
2680.792777049978
 21
536.7461824853353
 31
0.0
  0
HATCH
  5
65C
330
1F
100
AcDbEntity
  8
PROFILY
100
AcDbHatch
 10
0.0
 20
0.0
 30
0.0
210
0.0
220
0.0
230
1.0
  2
SOLID
 70
     1
 71
     0
 91
        1
 92
        7
 72
     0
 73
     1
 93
        4
 10
2706.943481864292
 20
660.5947902697389
 10
2708.943481864295
 20
660.5947902697389
 10
2708.943481864295
 20
641.4124351251903
 10
2706.943481864295
 20
641.4124351251903
 97
        0
 75
     0
 76
     1
 47
0.0801976285649081
 98
        1
 10
2707.28115493459
 20
647.2538510177964
  0
LINE
  5
65D
330
1F
100
AcDbEntity
  8
NOSNÉ KONSTRUKCE
100
AcDbLine
 10
2707.236024501844
 20
657.9021849456348
 30
0.0
 11
2707.550004659672
 21
637.660948335777
 31
0.0
  0
LINE
  5
65E
330
1F
100
AcDbEntity
  8
SPOJOVACÍ
100
AcDbLine
 10
2833.068458421397
 20
563.2931696860141
 30
0.0
 11
2833.652687957944
 21
561.1127953723371
 31
0.0
  0
LINE
  5
65F
330
1F
100
AcDbEntity
  8
SPOJOVACÍ
100
AcDbLine
 10
2831.148527015449
 20
563.4608559758598
 30
0.0
 11
2831.821426130042
 21
560.949562291833
 31
0.0
  0
LINE
  5
660
330
1F
100
AcDbEntity
  8
SPOJOVACÍ
100
AcDbLine
 10
2829.231478190541
 20
563.617784326816
 30
0.0
 11
2829.997131134591
 21
560.7603286386693
 31
0.0
  0
LINE
  5
661
330
1F
100
AcDbEntity
  8
SPOJOVACÍ
100
AcDbLine
 10
2823.577257359238
 20
563.7268379538727
 30
0.0
 11
2824.471173030001
 21
560.3906992529173
 31
0.0
  0
LINE
  5
662
330
1F
100
AcDbEntity
  8
SPOJOVACÍ
100
AcDbLine
 10
2815.89149132629
 20
564.4201262271581
 30
0.0
 11
2817.080225152622
 21
559.9837111906236
 31
0.0
  0
LINE
  5
663
330
1F
100
AcDbEntity
  8
SPOJOVACÍ
100
AcDbLine
 10
2817.788809005779
 20
564.3368355134043
 30
0.0
 11
2818.92488878276
 21
560.0969280642566
 31
0.0
  0
LINE
  5
664
330
1F
100
AcDbEntity
  8
SPOJOVACÍ
100
AcDbLine
 10
2819.688900271104
 20
564.2431936363863
 30
0.0
 11
2820.780818126605
 21
560.1681007219759
 31
0.0
  0
LINE
  5
665
330
1F
100
AcDbEntity
  8
SPOJOVACÍ
100
AcDbLine
 10
2821.591779542094
 20
564.1391467805788
 30
0.0
 11
2822.62727115666
 21
560.2746394641944
 31
0.0
  0
LINE
  5
666
330
1F
100
AcDbEntity
  8
SPOJOVACÍ
100
AcDbLine
 10
2813.988013442042
 20
564.526407138077
 30
0.0
 11
2815.226067842323
 21
559.905925213683
 31
0.0
  0
LINE
  5
667
330
1F
100
AcDbEntity
  8
SPOJOVACÍ
100
AcDbLine
 10
2812.130799004165
 20
564.4600305165913
 30
0.0
 11
2813.228231937905
 21
560.3643550499764
 31
0.0
  0
LINE
  5
668
330
1F
100
AcDbEntity
  8
SPOJOVACÍ
100
AcDbLine
 10
2825.416541270516
 20
563.8601322116519
 30
0.0
 11
2826.312531790962
 21
560.5162500662317
 31
0.0
  0
LINE
  5
669
330
1F
100
AcDbEntity
  8
SPOJOVACÍ
100
AcDbLine
 10
2827.317295181707
 20
563.764017306581
 30
0.0
 11
2828.151355234983
 21
560.6512628111905
 31
0.0
  0
LINE
  5
66A
330
1F
100
AcDbEntity
  8
SPOJOVACÍ
  6
DASHDOT2
100
AcDbLine
 10
2703.875958888818
 20
562.2419394217013
 30
0.0
 11
2889.122944250103
 21
562.2419394217031
 31
0.0
  0
LINE
  5
66B
330
1F
100
AcDbEntity
  8
SPOJOVACÍ
  6
DASHED
100
AcDbLine
 10
2842.50733851476
 20
557.6794394216959
 30
0.0
 11
2716.883758191649
 21
557.6794394216976
 31
0.0
  0
LINE
  5
66C
330
1F
100
AcDbEntity
  8
SPOJOVACÍ
  6
DASHED
100
AcDbLine
 10
2842.507338514763
 20
566.8044394217031
 30
0.0
 11
2716.883758191649
 21
566.8044394217012
 31
0.0
  0
LINE
  5
66D
330
1F
100
AcDbEntity
  8
SPOJOVACÍ
  6
DASHED
100
AcDbLine
 10
2854.516499117941
 20
562.2419394217031
 30
0.0
 11
2850.727637976383
 21
555.6794394217031
 31
0.0
  0
LINE
  5
66E
330
1F
100
AcDbEntity
  8
SPOJOVACÍ
  6
DASHED
100
AcDbLine
 10
2845.141499117941
 20
562.2419394217031
 30
0.0
 11
2842.50733851476
 21
557.6794394216959
 31
0.0
  0
LINE
  5
66F
330
1F
100
AcDbEntity
  8
SPOJOVACÍ
100
AcDbLine
 10
2836.917038159726
 20
562.9252650939815
 30
0.0
 11
2837.307698543297
 21
561.4673006939901
 31
0.0
  0
LINE
  5
670
330
1F
100
AcDbEntity
  8
SPOJOVACÍ
100
AcDbLine
 10
2842.711971100162
 20
562.2910667263786
 30
0.0
 11
2842.771527316259
 21
562.0687999019974
 31
0.0
  0
LINE
  5
671
330
1F
100
AcDbEntity
  8
SPOJOVACÍ
100
AcDbLine
 10
2840.777360161931
 20
562.5135377765636
 30
0.0
 11
2840.952734556239
 21
561.8590316266472
 31
0.0
  0
LINE
  5
672
330
1F
100
AcDbEntity
  8
SPOJOVACÍ
100
AcDbLine
 10
2838.845722175913
 20
562.7249136180108
 30
0.0
 11
2839.131460271387
 21
561.6585245280512
 31
0.0
  0
LINE
  5
673
330
1F
100
AcDbEntity
  8
SPOJOVACÍ
100
AcDbLine
 10
2834.991289596034
 20
563.1146613120763
 30
0.0
 11
2835.481443228921
 21
561.2853830506337
 31
0.0
  0
LINE
  5
674
330
1F
100
AcDbEntity
  8
SPOJOVACÍ
  6
DASHED
100
AcDbLine
 10
2845.141499117941
 20
562.2419394217031
 30
0.0
 11
2842.507338514763
 21
566.8044394217031
 31
0.0
  0
LINE
  5
675
330
1F
100
AcDbEntity
  8
SPOJOVACÍ
  6
DASHED
100
AcDbLine
 10
2854.516499117941
 20
562.2419394217031
 30
0.0
 11
2850.727637976387
 21
568.8044394217013
 31
0.0
  0
LINE
  5
676
330
1F
100
AcDbEntity
  8
SPOJOVACÍ
  6
DASHED
100
AcDbLine
 10
2850.727637976383
 20
555.6794394217031
 30
0.0
 11
2717.870118920627
 21
555.6794394216977
 31
0.0
  0
LINE
  5
677
330
1F
100
AcDbEntity
  8
SPOJOVACÍ
  6
DASHED
100
AcDbLine
 10
2850.727637976387
 20
568.8044394217013
 30
0.0
 11
2717.870118920627
 21
568.8044394217013
 31
0.0
  0
LINE
  5
678
330
1F
100
AcDbEntity
  8
STAVBA OBRYS
100
AcDbLine
 10
2709.257944743863
 20
512.0822592853674
 30
0.0
 11
2791.29939405586
 21
512.0822592853674
 31
0.0
  0
LINE
  5
679
330
1F
100
AcDbEntity
  8
SPOJOVACÍ
100
AcDbLine
 10
2795.531269550371
 20
563.4319604421635
 30
0.0
 11
2796.097439381575
 21
561.3189858663954
 31
0.0
  0
LINE
  5
67A
330
1F
100
AcDbEntity
  8
SPOJOVACÍ
100
AcDbLine
 10
2797.365502569749
 20
563.584104885118
 30
0.0
 11
2798.003900543856
 21
561.2015712102966
 31
0.0
  0
LINE
  5
67B
330
1F
100
AcDbEntity
  8
SPOJOVACÍ
100
AcDbLine
 10
2797.067938992118
 20
564.6946272753248
 30
0.0
 11
2798.421106738006
 21
559.6445364964948
 31
0.0
  0
LINE
  5
67C
330
1F
100
AcDbEntity
  8
SPOJOVACÍ
100
AcDbLine
 10
2795.192938992117
 20
564.6946272753248
 30
0.0
 11
2796.540636182141
 21
559.6649528889302
 31
0.0
  0
LINE
  5
67D
330
1F
100
AcDbEntity
  8
SPOJOVACÍ
100
AcDbLine
 10
2798.938237778534
 20
564.7121724432763
 30
0.0
 11
2800.298897067726
 21
559.6341228442124
 31
0.0
  0
LINE
  5
67E
330
1F
100
AcDbEntity
  8
SPOJOVACÍ
100
AcDbLine
 10
2800.811184707648
 20
564.7198346081313
 30
0.0
 11
2802.174018834373
 21
559.6336684048983
 31
0.0
  0
LINE
  5
67F
330
1F
100
AcDbEntity
  8
SPOJOVACÍ
100
AcDbLine
 10
2802.686790886892
 20
564.7175723163782
 30
0.0
 11
2804.046483393122
 21
559.6431308004539
 31
0.0
  0
LINE
  5
680
330
1F
100
AcDbEntity
  8
SPOJOVACÍ
100
AcDbLine
 10
2804.565067727021
 20
564.7053429825355
 30
0.0
 11
2805.91630179685
 21
559.6624687810108
 31
0.0
  0
LINE
  5
681
330
1F
100
AcDbEntity
  8
SPOJOVACÍ
100
AcDbLine
 10
2806.446026947707
 20
564.6831028681626
 30
0.0
 11
2807.783484801502
 21
559.6916422048234
 31
0.0
  0
LINE
  5
682
330
1F
100
AcDbEntity
  8
SPOJOVACÍ
100
AcDbLine
 10
2808.329680583393
 20
564.6508070601048
 30
0.0
 11
2809.648042871305
 21
559.7306120188404
 31
0.0
  0
LINE
  5
683
330
1F
100
AcDbEntity
  8
SPOJOVACÍ
100
AcDbLine
 10
2810.276172143073
 20
564.3839969270721
 30
0.0
 11
2811.5099861838
 21
559.7793402400021
 31
0.0
  0
LWPOLYLINE
  5
684
330
1F
100
AcDbEntity
  8
NOSNÉ KONSTRUKCE
100
AcDbPolyline
 90
        2
 70
     0
 43
0.0
 10
2787.315720286654
 20
594.9035222639504
 10
2792.929357675614
 20
592.3162652050741
  0
LWPOLYLINE
  5
685
330
1F
100
AcDbEntity
  8
NOSNÉ KONSTRUKCE
100
AcDbPolyline
 90
        9
 70
     0
 43
0.0
 10
2719.12239955807
 20
612.2419394216994
 42
-0.0064239028828688
 10
2719.083531117886
 20
612.0228257623494
 42
-0.0832048017309575
 10
2718.299348515208
 20
609.6926121826945
 42
-0.0336767237692336
 10
2716.596531956286
 20
606.9643376632338
 42
-0.0844635135812105
 10
2715.676722196393
 20
606.0599160582387
 42
-0.0495829410719565
 10
2713.92804375904
 20
605.083266550926
 42
-0.0322692699774654
 10
2711.036689577948
 20
604.0417430495254
 42
-0.0276160659512937
 10
2710.181113139658
 20
603.8450076205808
 42
-0.0126891984598699
 10
2709.257944743866
 20
603.7098052310393
  0
LWPOLYLINE
  5
690
330
1F
100
AcDbEntity
  8
NOSNÉ KONSTRUKCE
100
AcDbPolyline
 90
       11
 70
     0
 43
0.0
 10
2726.350450578805
 20
612.2419394216994
 42
-0.0072417954699014
 10
2726.294880210965
 20
611.830534210425
 42
-0.0707158694326265
 10
2725.763753694545
 20
609.8944307578313
 42
-0.033952657250207
 10
2723.515097855136
 20
605.5413930326576
 42
-0.0571374688189033
 10
2721.728941095284
 20
603.2344687489712
 42
-0.0274923553235744
 10
2719.131635364731
 20
600.8493934258368
 42
-0.0255412025538677
 10
2716.08020532702
 20
598.5926797488173
 42
-0.0272796991712396
 10
2711.967206173835
 20
596.1763438671551
 42
-0.056967459841729
 10
2709.8262588931
 20
595.3636080319556
 42
-0.0373408083348504
 10
2709.603904517627
 20
595.3244424910044
 42
-0.0052305969362967
 10
2709.257944743866
 20
595.2934855241001
  0
LWPOLYLINE
  5
69D
330
1F
100
AcDbEntity
  8
NOSNÉ KONSTRUKCE
100
AcDbPolyline
 90
        3
 70
     0
 43
0.0
 10
2735.258919826815
 20
605.7427698524461
 10
2755.255172258808
 20
596.5267408019262
 10
2759.255109892522
 20
595.8813433265841
  0
LWPOLYLINE
  5
69E
330
1F
100
AcDbEntity
  8
NOSNÉ KONSTRUKCE
100
AcDbPolyline
 90
        3
 70
     0
 43
0.0
 10
2714.870000762025
 20
562.3857691117191
 10
2734.866253194018
 20
553.1697400611992
 10
2738.866190827732
 20
552.5243425858571
  0
LWPOLYLINE
  5
69F
330
1F
100
AcDbEntity
  8
NOSNÉ KONSTRUKCE
100
AcDbPolyline
 90
        2
 70
     0
 43
0.0
 10
2742.888912673367
 20
556.8053449316358
 42
-0.1134617175825293
 10
2709.063825934679
 20
540.8652488887327
  0
LWPOLYLINE
  5
6A0
330
1F
100
AcDbEntity
  8
NOSNÉ KONSTRUKCE
100
AcDbPolyline
 90
        3
 70
     0
 43
0.0
 10
2756.472091735745
 20
581.2389693725781
 10
2773.227309355473
 20
572.8552285046098
 10
2781.394414004598
 20
564.6739268035125
  0
LWPOLYLINE
  5
6A1
330
1F
100
AcDbEntity
  8
STAVBA OBRYS
100
AcDbPolyline
 90
        2
 70
     0
 43
0.0
 10
2792.929357675614
 20
569.2790368543247
 42
-0.0020939004487291
 10
2792.420287438825
 20
568.4213134113305
  0
LWPOLYLINE
  5
6A2
330
1F
100
AcDbEntity
  8
NOSNÉ KONSTRUKCE
100
AcDbPolyline
 90
        6
 70
     0
 43
0.0
 10
2771.364163627947
 20
612.1651898987748
 42
-0.0128837512779301
 10
2770.936975687608
 20
607.1654426661552
 42
-0.0351641677647434
 10
2769.995336105324
 20
601.7598784846468
 42
-0.0187319685742942
 10
2764.919312283838
 20
584.1225224714325
 42
-0.0582629403736403
 10
2762.430062481715
 20
578.7527711730344
 42
-0.0636293101863209
 10
2749.16859288819
 20
562.2714628728099
 42
-0.0636293101863209
  0
LWPOLYLINE
  5
6A3
330
1F
100
AcDbEntity
  8
NOSNÉ KONSTRUKCE
100
AcDbPolyline
 90
        4
 70
     0
 43
0.0
 10
2786.648758033949
 20
612.1651898987748
 42
-0.0135911980674875
 10
2781.070060998111
 20
581.6721501250758
 42
-0.0219777111230329
 10
2779.710892245134
 20
576.3949802413226
 42
-0.2158759397126542
 10
2709.257944743866
 20
527.2904129532617
 42
-0.0618986513001703
  0
LWPOLYLINE
  5
6A4
330
1F
100
AcDbEntity
  8
NOSNÉ KONSTRUKCE
100
AcDbPolyline
 90
       10
 70
     0
 43
0.0
 10
2733.30022860249
 20
612.2419394217013
 42
-0.0168162630274194
 10
2733.16520302343
 20
610.550901269582
 42
-0.0575155827655532
 10
2732.485170743083
 20
607.4512766088646
 42
-0.0310289133982999
 10
2729.482369398259
 20
600.2062490842199
 42
-0.0882970623535771
 10
2727.845147478166
 20
597.96588003342
 42
-0.0171636441953577
 10
2725.031783416304
 20
595.4519626781748
 42
-0.0157521173632038
 10
2721.792928579267
 20
592.9204666256683
 42
-0.0073640874174249
 10
2717.159279222947
 20
589.6320651999322
 42
-0.0194185739168057
 10
2715.33723590327
 20
588.480496200651
 42
-0.0567960585128809
 10
2709.257944743866
 20
585.8286319952749
 42
-0.0229547400386702
  0
LWPOLYLINE
  5
6A5
330
1F
100
AcDbEntity
  8
NOSNÉ KONSTRUKCE
100
AcDbPolyline
 90
        3
 70
     0
 43
0.0
 10
2715.96634220157
 20
606.7246087261828
 10
2732.721559821298
 20
598.3408678582145
 10
2740.888664470422
 20
590.1595661571173
  0
LWPOLYLINE
  5
6A6
330
1F
100
AcDbEntity
  8
NOSNÉ KONSTRUKCE
100
AcDbPolyline
 90
        8
 70
     0
 43
0.0
 10
2742.167287826004
 20
612.2419394217013
 42
-0.0120721047703132
 10
2742.098305135963
 20
610.5080512829572
 42
-0.044358077361292
 10
2741.702677401289
 20
607.8122512645404
 42
-0.0188067511131767
 10
2739.682853952906
 20
600.570022089234
 42
-0.0457786284636091
 10
2738.47483106329
 20
597.721411706354
 42
-0.0295006114745606
 10
2736.058770608991
 20
593.794512492952
 42
-0.0258674098621065
 10
2732.826095295027
 20
589.6487324141981
 42
-0.2409478365688615
 10
2709.257944743866
 20
575.2241849692254
 42
-0.0884720560394402
  0
LWPOLYLINE
  5
6A7
330
1F
100
AcDbEntity
  8
NOSNÉ KONSTRUKCE
100
AcDbPolyline
 90
        4
 70
     0
 43
0.0
 10
2760.98123281005
 20
612.2419394217013
 42
-0.0135911980674876
 10
2757.262101452824
 20
591.9132462392354
 42
-0.0219777111230329
 10
2756.355988950836
 20
588.3951329833998
 42
-0.2163722049316613
 10
2709.257944743866
 20
555.6348680293703
  0
LWPOLYLINE
  5
6A8
330
1F
100
AcDbEntity
  8
NOSNÉ KONSTRUKCE
100
AcDbPolyline
 90
        6
 70
     0
 43
0.0
 10
2750.791503206045
 20
612.2419394217013
 42
-0.0128837512779302
 10
2750.506711245817
 20
608.908774599955
 42
-0.0351641677647434
 10
2749.878951524294
 20
605.305065145616
 42
-0.0187319685742942
 10
2746.494935643303
 20
593.5468278034732
 42
-0.0582629403736403
 10
2744.835435775222
 20
589.9669936045411
 42
-0.2042445348716764
 10
2709.257944743866
 20
564.7086454150066
  0
LINE
  5
6A9
330
1F
100
AcDbEntity
  8
SPOJOVACÍ
100
AcDbLine
 10
2787.939520177054
 20
564.3839969270721
 30
0.0
 11
2789.17333421778
 21
559.7793402400021
 31
0.0
  0
LINE
  5
6AA
330
1F
100
AcDbEntity
  8
SPOJOVACÍ
100
AcDbLine
 10
2785.993028617374
 20
564.6508070601048
 30
0.0
 11
2787.311390905285
 21
559.7306120188404
 31
0.0
  0
LINE
  5
6AB
330
1F
100
AcDbEntity
  8
SPOJOVACÍ
100
AcDbLine
 10
2784.109374981687
 20
564.6831028681626
 30
0.0
 11
2785.446832835482
 21
559.6916422048234
 31
0.0
  0
LINE
  5
6AC
330
1F
100
AcDbEntity
  8
SPOJOVACÍ
100
AcDbLine
 10
2782.228415761002
 20
564.7053429825355
 30
0.0
 11
2783.57964983083
 21
559.6624687810108
 31
0.0
  0
LINE
  5
6AD
330
1F
100
AcDbEntity
  8
SPOJOVACÍ
100
AcDbLine
 10
2780.350138920873
 20
564.7175723163782
 30
0.0
 11
2781.709831427103
 21
559.6431308004539
 31
0.0
  0
LINE
  5
6AE
330
1F
100
AcDbEntity
  8
SPOJOVACÍ
100
AcDbLine
 10
2778.474532741628
 20
564.7198346081313
 30
0.0
 11
2779.837366868353
 21
559.6336684048983
 31
0.0
  0
LINE
  5
6AF
330
1F
100
AcDbEntity
  8
SPOJOVACÍ
100
AcDbLine
 10
2776.601585812514
 20
564.7121724432763
 30
0.0
 11
2777.962245101706
 21
559.6341228442124
 31
0.0
  0
LINE
  5
6B0
330
1F
100
AcDbEntity
  8
SPOJOVACÍ
100
AcDbLine
 10
2771.432302229329
 20
564.6300482051229
 30
0.0
 11
2772.754532750875
 21
559.6954167194053
 31
0.0
  0
LINE
  5
6B1
330
1F
100
AcDbEntity
  8
SPOJOVACÍ
100
AcDbLine
 10
2772.856287026098
 20
564.6946272753248
 30
0.0
 11
2774.203984216122
 21
559.6649528889302
 31
0.0
  0
LINE
  5
6B2
330
1F
100
AcDbEntity
  8
SPOJOVACÍ
100
AcDbLine
 10
2774.731287026098
 20
564.6946272753248
 30
0.0
 11
2776.084454771987
 21
559.6445364964948
 31
0.0
  0
LINE
  5
6B3
330
1F
100
AcDbEntity
  8
SPOJOVACÍ
100
AcDbLine
 10
2775.028850603729
 20
563.584104885118
 30
0.0
 11
2775.667248577837
 21
561.2015712102966
 31
0.0
  0
LINE
  5
6B4
330
1F
100
AcDbEntity
  8
SPOJOVACÍ
100
AcDbLine
 10
2773.194617584352
 20
563.4319604421635
 30
0.0
 11
2773.760787415556
 21
561.3189858663954
 31
0.0
  0
LINE
  5
6B5
330
1F
100
AcDbEntity
  8
SPOJOVACÍ
100
AcDbLine
 10
2771.79661051642
 20
563.2704311680754
 30
0.0
 11
2772.287273907107
 21
561.4392504646129
 31
0.0
  0
LINE
  5
6B6
330
1F
100
AcDbEntity
  8
SPOJOVACÍ
100
AcDbLine
 10
2767.710072769547
 20
564.526407138077
 30
0.0
 11
2768.980081112878
 21
559.7866714747287
 31
0.0
  0
LINE
  5
6B7
330
1F
100
AcDbEntity
  8
SPOJOVACÍ
100
AcDbLine
 10
2769.539998319623
 20
564.6946272753248
 30
0.0
 11
2770.868665492734
 21
559.7359738789054
 31
0.0
  0
LINE
  5
6B8
330
1F
100
AcDbEntity
  8
SPOJOVACÍ
100
AcDbLine
 10
2711.129475509992
 20
550.1794394216995
 30
0.0
 11
2716.883758191649
 21
557.6794394216976
 31
0.0
  0
LINE
  5
6B9
330
1F
100
AcDbEntity
  8
SPOJOVACÍ
100
AcDbLine
 10
2711.129475509992
 20
574.3044394216995
 30
0.0
 11
2716.883758191649
 21
566.8044394217012
 31
0.0
  0
LINE
  5
6BA
330
1F
100
AcDbEntity
  8
SPOJOVACÍ
100
AcDbLine
 10
2712.115836238973
 20
548.1794394216994
 30
0.0
 11
2717.870118920627
 21
555.6794394216977
 31
0.0
  0
LINE
  5
6BB
330
1F
100
AcDbEntity
  8
SPOJOVACÍ
100
AcDbLine
 10
2712.115836238973
 20
576.3044394216994
 30
0.0
 11
2717.870118920627
 21
568.8044394217013
 31
0.0
  0
LINE
  5
6BC
330
1F
100
AcDbEntity
  8
SPOJOVACÍ
100
AcDbLine
 10
2791.442938992117
 20
564.6946272753248
 30
0.0
 11
2792.771606165229
 21
559.7359738789054
 31
0.0
  0
LINE
  5
6BD
330
1F
100
AcDbEntity
  8
SPOJOVACÍ
100
AcDbLine
 10
2765.1323694297
 20
564.4600305165913
 30
0.0
 11
2766.368277754606
 21
559.8475578545439
 31
0.0
  0
LINE
  5
6BE
330
1F
100
AcDbEntity
  8
SPOJOVACÍ
100
AcDbLine
 10
2763.277742568608
 20
564.3839969270721
 30
0.0
 11
2764.474219928107
 21
559.9186826313235
 31
0.0
  0
LINE
  5
6BF
330
1F
100
AcDbEntity
  8
SPOJOVACÍ
100
AcDbLine
 10
2761.425694158393
 20
564.2983404278875
 30
0.0
 11
2762.577405091685
 21
560.0000967091927
 31
0.0
  0
LINE
  5
6C0
330
1F
100
AcDbEntity
  8
SPOJOVACÍ
100
AcDbLine
 10
2789.613013442043
 20
564.526407138077
 30
0.0
 11
2790.883021785373
 21
559.7866714747287
 31
0.0
  0
LINE
  5
6C1
330
1F
100
AcDbEntity
  8
SPOJOVACÍ
100
AcDbLine
 10
2757.729297507478
 20
564.0982900056497
 30
0.0
 11
2758.775448057092
 21
560.1940030021178
 31
0.0
  0
LINE
  5
6C2
330
1F
100
AcDbEntity
  8
SPOJOVACÍ
100
AcDbLine
 10
2759.576215338057
 20
564.203094088707
 30
0.0
 11
2760.677819252495
 21
560.0918523102081
 31
0.0
  0
LINE
  5
6C3
330
1F
100
AcDbEntity
  8
SPOJOVACÍ
100
AcDbLine
 10
2752.20382778478
 20
563.7268379538727
 30
0.0
 11
2753.05147322665
 21
560.563382097991
 31
0.0
  0
LINE
  5
6C4
330
1F
100
AcDbEntity
  8
SPOJOVACÍ
100
AcDbLine
 10
2755.884932323473
 20
563.9839593158758
 30
0.0
 11
2756.87027678375
 21
560.3066037271528
 31
0.0
  0
LINE
  5
6C5
330
1F
100
AcDbEntity
  8
SPOJOVACÍ
100
AcDbLine
 10
2754.04311169605
 20
563.8601322116519
 30
0.0
 11
2754.962290334465
 21
560.4297108318497
 31
0.0
  0
LINE
  5
6C6
330
1F
100
AcDbEntity
  8
SPOJOVACÍ
100
AcDbLine
 10
2750.367072995283
 20
563.584104885118
 30
0.0
 11
2751.137809584562
 21
560.7076767746711
 31
0.0
  0
LINE
  5
6C7
330
1F
100
AcDbEntity
  8
SPOJOVACÍ
100
AcDbLine
 10
2748.532839975906
 20
563.4319604421635
 30
0.0
 11
2749.221283130374
 21
560.8626556115669
 31
0.0
  0
LINE
  5
6C8
330
1F
100
AcDbEntity
  8
SPOJOVACÍ
100
AcDbLine
 10
2746.70112161445
 20
563.2704311680754
 30
0.0
 11
2747.301877174931
 21
561.0283808934254
 31
0.0
  0
LINE
  5
6C9
330
1F
100
AcDbEntity
  8
SPOJOVACÍ
100
AcDbLine
 10
2744.871911035098
 20
563.0995427237831
 30
0.0
 11
2745.379574608193
 21
561.2049164758373
 31
0.0
  0
LINE
  5
6CA
330
1F
100
AcDbEntity
  8
SPOJOVACÍ
100
AcDbLine
 10
2743.045201595389
 20
562.9193198992379
 30
0.0
 11
2743.45435788923
 21
561.3923278223774
 31
0.0
  0
LINE
  5
6CB
330
1F
100
AcDbEntity
  8
SPOJOVACÍ
100
AcDbLine
 10
2793.699551188915
 20
563.2704311680754
 30
0.0
 11
2794.190214579602
 21
561.4392504646129
 31
0.0
  0
LINE
  5
6CC
330
1F
100
AcDbEntity
  8
SPOJOVACÍ
100
AcDbLine
 10
2793.335242901824
 20
564.6300482051229
 30
0.0
 11
2794.65747342337
 21
559.6954167194053
 31
0.0
  0
LINE
  5
6CD
330
1F
100
AcDbEntity
  8
SPOJOVACÍ
100
AcDbLine
 10
2741.2209868834
 20
562.7297866241133
 30
0.0
 11
2741.465517419257
 21
561.8171862402887
 31
0.0
  0
LINE
  5
6CE
330
1F
100
AcDbEntity
  8
SPOJOVACÍ
100
AcDbLine
 10
2739.399260714938
 20
562.5309659780832
 30
0.0
 11
2739.55522667788
 21
561.948893080138
 31
0.0
  0
INSERT
  5
6CF
330
1F
100
AcDbEntity
  8
POPIS
100
AcDbBlockReference
  2
E_PUNKT
 10
2740.083796558102
 20
598.6828439468281
 30
0.0
  0
LWPOLYLINE
  5
6D0
330
1F
100
AcDbEntity
  8
NOSNÉ KONSTRUKCE
100
AcDbPolyline
 90
        2
 70
     0
 43
0.0
 10
2790.393837433298
 20
565.1597746481602
 42
-0.2104338366210547
 10
2710.309183473517
 20
512.2419394217013
  0
LWPOLYLINE
  5
6D1
330
1F
100
AcDbEntity
  8
NOSNÉ KONSTRUKCE
100
AcDbPolyline
 90
        2
 70
     0
 43
0.0
 10
2792.929357675614
 20
537.8705560973903
 42
-0.1112051866389916
 10
2761.658466247951
 20
512.2419394217013
  0
LWPOLYLINE
  5
6D2
330
1F
100
AcDbEntity
  8
NOSNÉ KONSTRUKCE
100
AcDbPolyline
 90
        4
 70
     1
 43
0.0
 10
2709.257944743866
 20
512.0822592853674
 10
2792.929357675614
 20
512.0822592853674
 10
2792.929357675614
 20
612.0822592853674
 10
2709.257944743866
 20
612.0822592853674
  0
LINE
  5
6D3
330
1F
100
AcDbEntity
  8
PROFILY
100
AcDbLine
 10
2706.943481864303
 20
510.1038839719477
 30
0.0
 11
2706.943481864292
 21
1074.392324543167
 31
0.0
  0
LINE
  5
6D4
330
1F
100
AcDbEntity
  8
PROFILY
100
AcDbLine
 10
2708.943481864295
 20
1074.392324543167
 30
0.0
 11
2708.943481864299
 21
510.7964460479816
 31
0.0
  0
HATCH
  5
6D5
330
1F
100
AcDbEntity
  8
PROFILY
100
AcDbHatch
 10
0.0
 20
0.0
 30
0.0
210
0.0
220
0.0
230
1.0
  2
SOLID
 70
     1
 71
     0
 91
        1
 92
        7
 72
     0
 73
     1
 93
        4
 10
2706.943481864292
 20
530.2869675026104
 10
2708.943481864295
 20
530.2869675026104
 10
2708.943481864295
 20
511.1046123580617
 10
2706.943481864295
 20
511.1046123580617
 97
        0
 75
     0
 76
     1
 47
0.0801976285649081
 98
        1
 10
2707.28115493459
 20
516.9460282506679
  0
LINE
  5
6D6
330
1F
100
AcDbEntity
  8
NOSNÉ KONSTRUKCE
100
AcDbLine
 10
2706.69886497756
 20
511.9415468917723
 30
0.0
 11
2706.698864977575
 21
1071.850872148787
 31
0.0
  0
LINE
  5
6D7
330
1F
100
AcDbEntity
  8
NOSNÉ KONSTRUKCE
100
AcDbLine
 10
2682.698864977567
 20
511.9415468917723
 30
0.0
 11
2706.698864977568
 21
511.9415468917723
 31
0.0
  0
LINE
  5
6D8
330
1F
100
AcDbEntity
  8
CETRIS
100
AcDbLine
 10
2668.412146379488
 20
509.2999410169013
 30
0.0
 11
2672.412146379488
 21
509.2999410169013
 31
0.0
  0
SOLID
  5
6D9
330
1F
100
AcDbEntity
  8
CETRIS
100
AcDbTrace
 10
2668.412146379488
 20
1072.262463994495
 30
0.0
 11
2680.412146379488
 21
1072.161079780951
 31
0.0
 12
2668.412146379488
 22
509.2999410169013
 32
0.0
 13
2680.412146379488
 23
509.2999410169013
 33
0.0
  0
LINE
  5
6DA
330
1F
100
AcDbEntity
  8
CETRIS
100
AcDbLine
 10
2668.412146379488
 20
509.2999410169013
 30
0.0
 11
2668.412146379488
 21
963.6735191251936
 31
0.0
  0
LINE
  5
6DB
330
1F
100
AcDbEntity
  8
NOSNÉ KONSTRUKCE
100
AcDbLine
 10
2682.698864977564
 20
511.9415468917723
 30
0.0
 11
2682.698864977567
 21
1072.134094383018
 31
0.0
  0
LINE
  5
6DC
330
1F
100
AcDbEntity
  8
NOSNÉ KONSTRUKCE
100
AcDbLine
 10
2702.997423719216
 20
522.9397357917641
 30
0.0
 11
2702.71527297123
 21
511.9415468917723
 31
0.0
  0
LINE
  5
6DD
330
1F
100
AcDbEntity
  8
NOSNÉ KONSTRUKCE
100
AcDbLine
 10
2694.78983667534
 20
511.9415468917723
 30
0.0
 11
2694.59462351328
 21
524.0396249563437
 31
0.0
  0
LINE
  5
6DE
330
1F
100
AcDbEntity
  8
NOSNÉ KONSTRUKCE
100
AcDbLine
 10
2685.629335043672
 20
511.9415468917723
 30
0.0
 11
2688.050427056507
 21
522.6575972909322
 31
0.0
  0
INSERT
  5
6DF
330
1F
100
AcDbEntity
  8
POPIS
100
AcDbBlockReference
  2
E_PUNKT
 10
2676.37491923483
 20
599.0686197674804
 30
0.0
  0
LINE
  5
6E0
330
1F
100
AcDbEntity
  8
SPOJOVACÍ
100
AcDbLine
 10
2696.622421550038
 20
556.4052475192183
 30
0.0
 11
2667.855431777178
 21
556.4052475192183
 31
0.0
  0
LINE
  5
6E1
330
1F
100
AcDbEntity
  8
SPOJOVACÍ
100
AcDbLine
 10
2696.622421550038
 20
562.0891879770206
 30
0.0
 11
2667.855431777178
 21
562.0891879770206
 31
0.0
  0
LINE
  5
6E2
330
1F
100
AcDbEntity
  8
SPOJOVACÍ
100
AcDbLine
 10
2690.512120601678
 20
556.4052475192183
 30
0.0
 11
2692.035127857169
 21
562.0891879770206
 31
0.0
  0
LINE
  5
6E3
330
1F
100
AcDbEntity
  8
SPOJOVACÍ
100
AcDbLine
 10
2667.855431777178
 20
566.3663583731195
 30
0.0
 11
2667.855431777178
 21
559.2472177481194
 31
0.0
  0
LINE
  5
6E4
330
1F
100
AcDbEntity
  8
SPOJOVACÍ
100
AcDbLine
 10
2682.601964351678
 20
556.4052475192183
 30
0.0
 11
2684.124971607173
 21
562.0891879770206
 31
0.0
  0
LINE
  5
6E5
330
1F
100
AcDbEntity
  8
SPOJOVACÍ
100
AcDbLine
 10
2671.527745601678
 20
556.4052475192183
 30
0.0
 11
2673.050752857173
 21
562.0891879770206
 31
0.0
  0
LINE
  5
6E6
330
1F
100
AcDbEntity
  8
SPOJOVACÍ
100
AcDbLine
 10
2669.945714351678
 20
556.4052475192183
 30
0.0
 11
2671.468721607169
 21
562.0891879770206
 31
0.0
  0
LINE
  5
6E7
330
1F
100
AcDbEntity
  8
SPOJOVACÍ
100
AcDbLine
 10
2666.1686119187
 20
552.1280771231195
 30
0.0
 11
2667.855431777178
 21
552.1280771231195
 31
0.0
  0
LINE
  5
6E8
330
1F
100
AcDbEntity
  8
SPOJOVACÍ
100
AcDbLine
 10
2667.855431777178
 20
559.2472177481194
 30
0.0
 11
2667.855431777178
 21
552.1280771231195
 31
0.0
  0
LINE
  5
6E9
330
1F
100
AcDbEntity
  8
SPOJOVACÍ
100
AcDbLine
 10
2676.273839351678
 20
556.4052475192183
 30
0.0
 11
2677.796846607173
 21
562.0891879770206
 31
0.0
  0
LINE
  5
6EA
330
1F
100
AcDbEntity
  8
SPOJOVACÍ
100
AcDbLine
 10
2674.691808101678
 20
556.4052475192183
 30
0.0
 11
2676.214815357173
 21
562.0891879770206
 31
0.0
  0
LINE
  5
6EB
330
1F
100
AcDbEntity
  8
SPOJOVACÍ
100
AcDbLine
 10
2673.109776851678
 20
556.4052475192183
 30
0.0
 11
2674.632784107173
 21
562.0891879770206
 31
0.0
  0
LINE
  5
6EC
330
1F
100
AcDbEntity
  8
SPOJOVACÍ
100
AcDbLine
 10
2681.019933101678
 20
556.4052475192183
 30
0.0
 11
2682.542940357169
 21
562.0891879770206
 31
0.0
  0
LINE
  5
6ED
330
1F
100
AcDbEntity
  8
SPOJOVACÍ
100
AcDbLine
 10
2679.437901851678
 20
556.4052475192183
 30
0.0
 11
2680.96090910717
 21
562.0891879770206
 31
0.0
  0
LINE
  5
6EE
330
1F
100
AcDbEntity
  8
SPOJOVACÍ
100
AcDbLine
 10
2677.855870601678
 20
556.4052475192183
 30
0.0
 11
2679.378877857173
 21
562.0891879770206
 31
0.0
  0
LINE
  5
6EF
330
1F
100
AcDbEntity
  8
SPOJOVACÍ
100
AcDbLine
 10
2688.930089351678
 20
556.4052475192183
 30
0.0
 11
2690.45309660717
 21
562.0891879770206
 31
0.0
  0
LINE
  5
6F0
330
1F
100
AcDbEntity
  8
SPOJOVACÍ
100
AcDbLine
 10
2687.348058101674
 20
556.4052475192183
 30
0.0
 11
2688.87106535717
 21
562.0891879770206
 31
0.0
  0
LINE
  5
6F1
330
1F
100
AcDbEntity
  8
SPOJOVACÍ
100
AcDbLine
 10
2685.766026851678
 20
556.4052475192183
 30
0.0
 11
2687.28903410717
 21
562.0891879770206
 31
0.0
  0
LINE
  5
6F2
330
1F
100
AcDbEntity
  8
SPOJOVACÍ
100
AcDbLine
 10
2684.183995601678
 20
556.4052475192183
 30
0.0
 11
2685.707002857169
 21
562.0891879770206
 31
0.0
  0
LINE
  5
6F3
330
1F
100
AcDbEntity
  8
SPOJOVACÍ
100
AcDbLine
 10
2667.855431777178
 20
566.3663583731195
 30
0.0
 11
2666.1686119187
 21
566.3663583731195
 31
0.0
  0
LINE
  5
6F4
330
1F
100
AcDbEntity
  8
SPOJOVACÍ
100
AcDbLine
 10
2695.258214351678
 20
556.4052475192183
 30
0.0
 11
2696.78122160717
 21
562.0891879770206
 31
0.0
  0
LINE
  5
6F5
330
1F
100
AcDbEntity
  8
SPOJOVACÍ
100
AcDbLine
 10
2692.094151851678
 20
556.4052475192183
 30
0.0
 11
2693.617159107169
 21
562.0891879770206
 31
0.0
  0
LINE
  5
6F6
330
1F
100
AcDbEntity
  8
SPOJOVACÍ
100
AcDbLine
 10
2693.676183101678
 20
556.4052475192183
 30
0.0
 11
2695.19919035717
 21
562.0891879770206
 31
0.0
  0
LINE
  5
6F7
330
1F
100
AcDbEntity
  8
SPOJOVACÍ
100
AcDbLine
 10
2696.840245601678
 20
556.4052475192183
 30
0.0
 11
2697.914047169365
 21
560.4127295270846
 31
0.0
  0
LINE
  5
6F8
330
1F
100
AcDbEntity
  8
SPOJOVACÍ
100
AcDbLine
 10
2698.812014472642
 20
559.2472177481194
 30
0.0
 11
2696.622421550038
 21
556.4052475192183
 31
0.0
  0
LINE
  5
6F9
330
1F
100
AcDbEntity
  8
SPOJOVACÍ
100
AcDbLine
 10
2698.812014472642
 20
559.2472177481194
 30
0.0
 11
2696.622421550038
 21
562.0891879770206
 31
0.0
  0
LINE
  5
6FA
330
1F
100
AcDbEntity
  8
PROFILY
100
AcDbLine
 10
2680.792777049978
 20
536.7461824853353
 30
0.0
 11
2682.287056429796
 21
536.7461824853362
 31
0.0
  0
HATCH
  5
6FB
330
1F
100
AcDbEntity
  8
PROFILY
100
AcDbHatch
 10
0.0
 20
0.0
 30
0.0
210
0.0
220
0.0
230
1.0
  2
SOLID
 70
     1
 71
     0
 91
        1
 92
        7
 72
     0
 73
     1
 93
        4
 10
2706.943481864292
 20
558.7838917544377
 10
2708.943481864295
 20
558.7838917544377
 10
2708.943481864295
 20
539.601536609889
 10
2706.943481864295
 20
539.601536609889
 97
        0
 75
     0
 76
     1
 47
0.0801976285649081
 98
        1
 10
2707.28115493459
 20
545.4429525024952
  0
LWPOLYLINE
  5
6FC
330
1F
100
AcDbEntity
  8
PROFILY
100
AcDbPolyline
 90
        4
 70
     1
 43
0.0
 10
2706.943481864295
 20
569.678988310583
 10
2706.943481864295
 20
588.8613434551316
 10
2708.943481864295
 20
588.8613434551316
 10
2708.943481864295
 20
569.678988310583
  0
HATCH
  5
6FD
330
1F
100
AcDbEntity
  8
PROFILY
100
AcDbHatch
 10
0.0
 20
0.0
 30
0.0
210
0.0
220
0.0
230
1.0
  2
SOLID
 70
     1
 71
     0
 91
        1
 92
        7
 72
     0
 73
     1
 93
        4
 10
2706.943481864292
 20
588.8618552926873
 10
2708.943481864295
 20
588.8618552926873
 10
2708.943481864295
 20
569.6795001481387
 10
2706.943481864295
 20
569.6795001481387
 97
        0
 75
     0
 76
     1
 47
0.0801976285649081
 98
        1
 10
2707.28115493459
 20
575.5209160407448
  0
LWPOLYLINE
  5
6FE
330
1F
100
AcDbEntity
  8
NOSNÉ KONSTRUKCE
100
AcDbPolyline
 90
        7
 70
     0
 43
0.0
 10
2713.77271322355
 20
612.2419394217013
 42
-0.0203924744732807
 10
2712.87062923914
 20
611.2288093925472
 42
-0.0273961979096945
 10
2712.020764888945
 20
610.4406330185211
 42
-0.0243529190212958
 10
2710.857644396526
 20
609.5668736738534
 42
-0.0398020282482987
 10
2710.082685858969
 20
609.1272449304069
 42
-0.104168275620852
 10
2709.696274722625
 20
609.0372284702298
 42
-0.007272956268647
 10
2709.257944743866
 20
609.018775118935
 42
-0.007272956268647
  0
LINE
  5
6FF
330
1F
100
AcDbEntity
  8
SPOJOVACÍ
100
AcDbLine
 10
2709.257944743866
 20
550.1794394216995
 30
0.0
 11
2711.129475509992
 21
550.1794394216995
 31
0.0
  0
LINE
  5
700
330
1F
100
AcDbEntity
  8
SPOJOVACÍ
100
AcDbLine
 10
2709.257944743866
 20
574.3044394216995
 30
0.0
 11
2711.129475509992
 21
574.3044394216995
 31
0.0
  0
LINE
  5
701
330
1F
100
AcDbEntity
  8
SPOJOVACÍ
100
AcDbLine
 10
2712.115836238973
 20
548.1794394216994
 30
0.0
 11
2709.257944743866
 21
548.1794394216994
 31
0.0
  0
LINE
  5
702
330
1F
100
AcDbEntity
  8
SPOJOVACÍ
100
AcDbLine
 10
2709.257944743866
 20
576.3044394216994
 30
0.0
 11
2712.115836238973
 21
576.3044394216994
 31
0.0
  0
LINE
  5
703
330
1F
100
AcDbEntity
  8
SPOJOVACÍ
100
AcDbLine
 10
2709.257944743866
 20
562.2419394216994
 30
0.0
 11
2709.257944743866
 21
548.1794394216994
 31
0.0
  0
LINE
  5
704
330
1F
100
AcDbEntity
  8
SPOJOVACÍ
100
AcDbLine
 10
2709.257944743866
 20
554.6647183312016
 30
0.0
 11
2709.257944743866
 21
576.3044394216994
 31
0.0
  0
HATCH
  5
705
330
1F
100
AcDbEntity
  8
PROFILY
100
AcDbHatch
 10
0.0
 20
0.0
 30
0.0
210
0.0
220
0.0
230
1.0
  2
SOLID
 70
     1
 71
     0
 91
        1
 92
        7
 72
     0
 73
     1
 93
        4
 10
2706.943481864292
 20
626.9814483160899
 10
2708.943481864295
 20
626.9814483160899
 10
2708.943481864295
 20
607.7990931715412
 10
2706.943481864295
 20
607.7990931715412
 97
        0
 75
     0
 76
     1
 47
0.0801976285649081
 98
        1
 10
2707.28115493459
 20
613.6405090641474
  0
LINE
  5
706
330
1F
100
AcDbEntity
  8
NOSNÉ KONSTRUKCE
100
AcDbLine
 10
2706.765973701281
 20
601.0039953782925
 30
0.0
 11
2705.1960437237
 21
574.0156798984844
 31
0.0
  0
LINE
  5
707
330
1F
100
AcDbEntity
  8
NOSNÉ KONSTRUKCE
100
AcDbLine
 10
2689.328589286802
 20
595.284142381277
 30
0.0
 11
2689.328589286802
 21
614.4815747753437
 31
0.0
  0
LINE
  5
708
330
1F
100
AcDbEntity
  8
NOSNÉ KONSTRUKCE
100
AcDbLine
 10
2689.328589286802
 20
614.4815747753437
 30
0.0
 11
2688.773454154166
 21
624.9125454311852
 31
0.0
  0
LINE
  5
709
330
1F
100
AcDbEntity
  8
NOSNÉ KONSTRUKCE
100
AcDbLine
 10
2699.037251562172
 20
589.37426080576
 30
0.0
 11
2700.307678853184
 21
614.2517329186248
 31
0.0
  0
LINE
  5
70A
330
1F
100
AcDbEntity
  8
NOSNÉ KONSTRUKCE
100
AcDbLine
 10
2693.870078616216
 20
593.4216133662467
 30
0.0
 11
2694.161116652256
 21
620.7644420057931
 31
0.0
  0
LINE
  5
70B
330
1F
100
AcDbEntity
  8
NOSNÉ KONSTRUKCE
100
AcDbLine
 10
2694.161116652256
 20
620.7644420057931
 30
0.0
 11
2694.452154688298
 21
630.0726493526108
 31
0.0
  0
LINE
  5
70C
330
1F
100
AcDbEntity
  8
NOSNÉ KONSTRUKCE
100
AcDbLine
 10
2685.393723516005
 20
605.0819610484922
 30
0.0
 11
2684.518741347078
 21
626.6534518264834
 31
0.0
  0
LINE
  5
70D
330
1F
100
AcDbEntity
  8
NOSNÉ KONSTRUKCE
100
AcDbLine
 10
2683.908540852507
 20
588.7538784704811
 30
0.0
 11
2685.393723516005
 21
605.0819610484922
 31
0.0
  0
LINE
  5
70E
330
1F
100
AcDbEntity
  8
NOSNÉ KONSTRUKCE
100
AcDbLine
 10
2693.580178929726
 20
583.7426572682106
 30
0.0
 11
2693.870078616216
 21
593.4216133662467
 31
0.0
  0
LINE
  5
70F
330
1F
100
AcDbEntity
  8
NOSNÉ KONSTRUKCE
100
AcDbLine
 10
2687.188608878584
 20
577.0734010000833
 30
0.0
 11
2689.328589286802
 21
595.284142381277
 31
0.0
  0
LINE
  5
710
330
1F
100
AcDbEntity
  8
NOSNÉ KONSTRUKCE
100
AcDbLine
 10
2697.556375545872
 20
572.459137664211
 30
0.0
 11
2699.037251562172
 21
589.37426080576
 31
0.0
  0
LINE
  5
711
330
1F
100
AcDbEntity
  8
NOSNÉ KONSTRUKCE
100
AcDbLine
 10
2695.863941643184
 20
545.183524373393
 30
0.0
 11
2697.556375545872
 21
572.459137664211
 31
0.0
  0
LINE
  5
712
330
1F
100
AcDbEntity
  8
NOSNÉ KONSTRUKCE
100
AcDbLine
 10
2686.157380936217
 20
554.5571070352361
 30
0.0
 11
2685.602099861339
 21
569.9379667819321
 31
0.0
  0
LINE
  5
713
330
1F
100
AcDbEntity
  8
NOSNÉ KONSTRUKCE
100
AcDbLine
 10
2692.852569245399
 20
545.6372189575249
 30
0.0
 11
2691.979455137277
 21
555.3817307660483
 31
0.0
  0
LINE
  5
714
330
1F
100
AcDbEntity
  8
NOSNÉ KONSTRUKCE
100
AcDbLine
 10
2691.979455137277
 20
555.3817307660483
 30
0.0
 11
2692.852569245399
 21
567.5987427615054
 31
0.0
  0
LINE
  5
715
330
1F
100
AcDbEntity
  8
NOSNÉ KONSTRUKCE
100
AcDbLine
 10
2692.852569245399
 20
567.5987427615054
 30
0.0
 11
2693.580178929726
 21
576.7615152877533
 31
0.0
  0
LINE
  5
716
330
1F
100
AcDbEntity
  8
NOSNÉ KONSTRUKCE
100
AcDbLine
 10
2685.602099861339
 20
569.9379667819321
 30
0.0
 11
2687.188608878584
 21
577.0734010000833
 31
0.0
  0
LINE
  5
717
330
1F
100
AcDbEntity
  8
NOSNÉ KONSTRUKCE
100
AcDbLine
 10
2693.580178929726
 20
576.7615152877533
 30
0.0
 11
2693.580178929726
 21
583.7426572682106
 31
0.0
  0
LINE
  5
718
330
1F
100
AcDbEntity
  8
NOSNÉ KONSTRUKCE
100
AcDbLine
 10
2705.1960437237
 20
574.0156798984844
 30
0.0
 11
2702.52643888825
 21
537.375341362951
 31
0.0
  0
LINE
  5
719
330
1F
100
AcDbEntity
  8
NOSNÉ KONSTRUKCE
100
AcDbLine
 10
2685.125948674701
 20
538.1756658251815
 30
0.0
 11
2685.681229749586
 21
544.2011448120338
 31
0.0
  0
LINE
  5
71A
330
1F
100
AcDbEntity
  8
NOSNÉ KONSTRUKCE
100
AcDbLine
 10
2685.681229749586
 20
544.2011448120338
 30
0.0
 11
2686.157380936217
 21
554.5571070352361
 31
0.0
  0
LINE
  5
71B
330
1F
100
AcDbEntity
  8
NOSNÉ KONSTRUKCE
100
AcDbLine
 10
2692.852569245399
 20
541.2739939450239
 30
0.0
 11
2692.852569245399
 21
545.6372189575249
 31
0.0
  0
LINE
  5
71C
330
1F
100
AcDbEntity
  8
NOSNÉ KONSTRUKCE
100
AcDbLine
 10
2694.59462351328
 20
524.0396249563437
 30
0.0
 11
2695.863941643184
 21
545.183524373393
 31
0.0
  0
LINE
  5
71D
330
1F
100
AcDbEntity
  8
NOSNÉ KONSTRUKCE
100
AcDbLine
 10
2685.681229749586
 20
532.5465878240811
 30
0.0
 11
2685.125948674701
 21
538.1756658251815
 31
0.0
  0
LINE
  5
71E
330
1F
100
AcDbEntity
  8
NOSNÉ KONSTRUKCE
100
AcDbLine
 10
2689.942188884998
 20
532.5475619595691
 30
0.0
 11
2692.852569245399
 21
541.2739939450239
 31
0.0
  0
LINE
  5
71F
330
1F
100
AcDbEntity
  8
NOSNÉ KONSTRUKCE
100
AcDbLine
 10
2702.52643888825
 20
537.375341362951
 30
0.0
 11
2702.997423719216
 21
522.9397357917641
 31
0.0
  0
LINE
  5
720
330
1F
100
AcDbEntity
  8
NOSNÉ KONSTRUKCE
100
AcDbLine
 10
2688.050427056507
 20
522.6575972909322
 30
0.0
 11
2689.942188884998
 21
532.5475619595691
 31
0.0
  0
LINE
  5
721
330
1F
100
AcDbEntity
  8
NOSNÉ KONSTRUKCE
100
AcDbLine
 10
2683.90854085251
 20
523.6879747088642
 30
0.0
 11
2685.681229749586
 21
532.5465878240811
 31
0.0
  0
ELLIPSE
  5
722
330
1F
100
AcDbEntity
  8
SPOJOVACÍ
100
AcDbEllipse
 10
2665.922221538663
 20
559.2472177481194
 30
0.0
 11
0.0000000000000018
 21
7.321312510456553
 31
0.0
210
0.0
220
0.0
230
1.0
 40
0.3214803388886193
 41
-0.2355512395776302
 42
3.377143893167422
  0
HATCH
  5
723
330
1F
100
AcDbEntity
  8
SPOJOVACÍ
100
AcDbHatch
 10
0.0
 20
0.0
 30
0.0
210
0.0
220
0.0
230
1.0
  2
ANSI37
 70
     0
 71
     0
 91
        1
 92
        7
 72
     0
 73
     1
 93
        6
 10
2666.471515985963
 20
559.2472177481194
 10
2666.471515985967
 20
552.1280771231213
 10
2667.855431777178
 20
552.1280771231195
 10
2667.855431777178
 20
559.2472177481194
 10
2667.855431777178
 20
566.3663583731195
 10
2666.471515985963
 20
566.3663583731176
 97
        0
 75
     0
 76
     1
 52
-90.00000000000001
 41
0.9
 77
     0
 78
     2
 53
315.0
 43
-1174.374783666367
 44
10642.108529819
 45
2.02055762724056
 46
2.020557627240558
 79
     0
 53
44.99999999999999
 43
-1174.374783666367
 44
10642.108529819
 45
-2.020557627240558
 46
2.02055762724056
 79
     0
 47
0.0246402553748132
 98
        1
 10
2666.942467427937
 20
559.6480634098061
  0
LINE
  5
724
330
1F
100
AcDbEntity
  8
SPOJOVACÍ
100
AcDbLine
 10
2666.984888247222
 20
564.4679208731194
 30
0.0
 11
2666.980142153473
 21
564.4679208731194
 31
0.0
  0
LINE
  5
725
330
1F
100
AcDbEntity
  8
SPOJOVACÍ
100
AcDbLine
 10
2667.855431777178
 20
566.3663583731195
 30
0.0
 11
2666.471515985963
 21
566.3663583731176
 31
0.0
  0
LINE
  5
726
330
1F
100
AcDbEntity
  8
SPOJOVACÍ
100
AcDbLine
 10
2666.984888247222
 20
564.4679208731194
 30
0.0
 11
2666.980142153473
 21
564.4679208731194
 31
0.0
  0
LINE
  5
727
330
1F
100
AcDbEntity
  8
SPOJOVACÍ
100
AcDbLine
 10
2666.471515985963
 20
559.2472177481194
 30
0.0
 11
2666.471515985963
 21
566.3663583731195
 31
0.0
  0
LINE
  5
728
330
1F
100
AcDbEntity
  8
SPOJOVACÍ
100
AcDbLine
 10
2666.471515985963
 20
563.0831859251848
 30
0.0
 11
2666.471515985963
 21
552.1280771231195
 31
0.0
  0
LINE
  5
729
330
1F
100
AcDbEntity
  8
SPOJOVACÍ
100
AcDbLine
 10
2666.471515985963
 20
552.1280771231213
 30
0.0
 11
2667.855431777178
 21
552.1280771231195
 31
0.0
  0
LINE
  5
72A
330
1F
100
AcDbEntity
  8
STAVBA OBRYS
  6
DASHED
100
AcDbLine
 10
2875.001557301345
 20
721.2382319862918
 30
0.0
 11
2714.631226068719
 21
721.2382319862954
 31
0.0
  0
LINE
  5
72B
330
1F
100
AcDbEntity
  8
STAVBA OBRYS
  6
DASHED
100
AcDbLine
 10
2878.7904184429
 20
727.8007319862918
 30
0.0
 11
2875.001557301345
 21
721.2382319862918
 31
0.0
  0
LINE
  5
72C
330
1F
100
AcDbEntity
  8
STAVBA OBRYS
  6
DASHED
100
AcDbLine
 10
2878.7904184429
 20
727.8007319862918
 30
0.0
 11
2875.001557301345
 21
734.3632319862917
 31
0.0
  0
LINE
  5
72D
330
1F
100
AcDbEntity
  8
STAVBA OBRYS
  6
DASHED
100
AcDbLine
 10
2875.001557301345
 20
734.3632319862917
 30
0.0
 11
2714.631226068719
 21
734.3632319862954
 31
0.0
  0
LWPOLYLINE
  5
72E
330
1F
100
AcDbEntity
  8
STAVBA OBRYS
  6
DASHED
100
AcDbPolyline
 90
        4
 70
     1
 43
0.0
 10
2709.257944743863
 20
702.7409459767804
 10
2714.631226068719
 20
702.7409459767804
 10
2714.631226068719
 20
752.8605179958031
 10
2709.257944743863
 20
752.8605179958031
  0
LINE
  5
72F
330
1F
100
AcDbEntity
  8
NOSNÉ KONSTRUKCE
100
AcDbLine
 10
2706.026348626904
 20
815.3680662976331
 30
0.0
 11
2706.340328784733
 21
795.1268296877751
 31
0.0
  0
LINE
  5
730
330
1F
100
AcDbEntity
  8
NOSNÉ KONSTRUKCE
100
AcDbLine
 10
2704.992435347129
 20
842.1841943100226
 30
0.0
 11
2706.026348626904
 21
815.3680662976331
 31
0.0
  0
LINE
  5
731
330
1F
100
AcDbEntity
  8
NOSNÉ KONSTRUKCE
100
AcDbLine
 10
2695.972133660843
 20
803.13288111152
 30
0.0
 11
2696.442116714345
 21
808.5847279400404
 31
0.0
  0
LINE
  5
732
330
1F
100
AcDbEntity
  8
NOSNÉ KONSTRUKCE
100
AcDbLine
 10
2699.098002978244
 20
807.4507981519891
 30
0.0
 11
2698.67488720546
 21
830.2861936476038
 31
0.0
  0
LINE
  5
733
330
1F
100
AcDbEntity
  8
NOSNÉ KONSTRUKCE
100
AcDbLine
 10
2699.098002978244
 20
771.717614270623
 30
0.0
 11
2699.098002978244
 21
780.2428602977633
 31
0.0
  0
LINE
  5
734
330
1F
100
AcDbEntity
  8
NOSNÉ KONSTRUKCE
100
AcDbLine
 10
2687.384659238342
 20
803.13288111152
 30
0.0
 11
2687.341712550799
 21
808.1090972678648
 31
0.0
  0
LINE
  5
735
330
1F
100
AcDbEntity
  8
NOSNÉ KONSTRUKCE
100
AcDbLine
 10
2685.565274288689
 20
835.9620121126171
 30
0.0
 11
2685.787310828674
 21
852.3852329114161
 31
0.0
  0
LINE
  5
736
330
1F
100
AcDbEntity
  8
NOSNÉ KONSTRUKCE
100
AcDbLine
 10
2699.52094362033
 20
849.1042543874209
 30
0.0
 11
2699.942337274559
 21
870.1982203408952
 31
0.0
  0
LINE
  5
737
330
1F
100
AcDbEntity
  8
NOSNÉ KONSTRUKCE
100
AcDbLine
 10
2698.67488720546
 20
830.2861936476038
 30
0.0
 11
2699.52094362033
 21
849.1042543874209
 31
0.0
  0
LINE
  5
738
330
1F
100
AcDbEntity
  8
NOSNÉ KONSTRUKCE
100
AcDbLine
 10
2693.822774389978
 20
846.9810539314057
 30
0.0
 11
2693.820585256225
 21
862.6451345516944
 31
0.0
  0
LINE
  5
739
330
1F
100
AcDbEntity
  8
NOSNÉ KONSTRUKCE
100
AcDbLine
 10
2696.442116714345
 20
808.5847279400404
 30
0.0
 11
2694.113812426019
 21
833.3096396116342
 31
0.0
  0
LINE
  5
73A
330
1F
100
AcDbEntity
  8
NOSNÉ KONSTRUKCE
100
AcDbLine
 10
2694.113812426019
 20
833.3096396116342
 30
0.0
 11
2693.822774389978
 21
846.9810539314057
 31
0.0
  0
LINE
  5
73B
330
1F
100
AcDbEntity
  8
NOSNÉ KONSTRUKCE
100
AcDbLine
 10
2687.341712550799
 20
808.1090972678648
 30
0.0
 11
2685.565274288689
 21
835.9620121126171
 31
0.0
  0
LINE
  5
73C
330
1F
100
AcDbEntity
  8
NOSNÉ KONSTRUKCE
100
AcDbLine
 10
2703.646439158788
 20
849.4710885571366
 30
0.0
 11
2704.992435347129
 21
842.1841943100226
 31
0.0
  0
LINE
  5
73D
330
1F
100
AcDbEntity
  8
NOSNÉ KONSTRUKCE
100
AcDbLine
 10
2703.534267945019
 20
869.0896541546463
 30
0.0
 11
2703.646439158788
 21
849.4710885571366
 31
0.0
  0
LINE
  5
73E
330
1F
100
AcDbEntity
  8
NOSNÉ KONSTRUKCE
100
AcDbLine
 10
2683.309065472139
 20
784.1193331784816
 30
0.0
 11
2682.698864977567
 21
793.8875782464074
 31
0.0
  0
LINE
  5
73F
330
1F
100
AcDbEntity
  8
NOSNÉ KONSTRUKCE
100
AcDbLine
 10
2684.184047641066
 20
762.5478424004905
 30
0.0
 11
2683.309065472139
 21
784.1193331784816
 31
0.0
  0
LINE
  5
740
330
1F
100
AcDbEntity
  8
NOSNÉ KONSTRUKCE
100
AcDbLine
 10
2692.951440777317
 20
778.2303233577914
 30
0.0
 11
2693.014366405922
 21
780.2428602977633
 31
0.0
  0
LINE
  5
741
330
1F
100
AcDbEntity
  8
NOSNÉ KONSTRUKCE
100
AcDbLine
 10
2688.118913411862
 20
771.9474561273418
 30
0.0
 11
2687.677432897119
 21
780.2428602977633
 31
0.0
  0
LINE
  5
742
330
1F
100
AcDbEntity
  8
NOSNÉ KONSTRUKCE
100
AcDbLine
 10
2682.698864977567
 20
746.2197598224811
 30
0.0
 11
2684.184047641066
 21
762.5478424004905
 31
0.0
  0
LINE
  5
743
330
1F
100
AcDbEntity
  8
NOSNÉ KONSTRUKCE
100
AcDbLine
 10
2692.660402741276
 20
750.8874947182448
 30
0.0
 11
2692.951440777317
 21
778.2303233577914
 31
0.0
  0
LINE
  5
744
330
1F
100
AcDbEntity
  8
NOSNÉ KONSTRUKCE
100
AcDbLine
 10
2697.827575687233
 20
746.8401421577582
 30
0.0
 11
2699.098002978244
 21
771.717614270623
 31
0.0
  0
LINE
  5
745
330
1F
100
AcDbEntity
  8
NOSNÉ KONSTRUKCE
100
AcDbLine
 10
2705.556297826341
 20
758.4698767302906
 30
0.0
 11
2703.986367848761
 21
731.4815612504826
 31
0.0
  0
LINE
  5
746
330
1F
100
AcDbEntity
  8
NOSNÉ KONSTRUKCE
100
AcDbLine
 10
2692.370503054787
 20
734.2273966397515
 30
0.0
 11
2692.370503054787
 21
741.2085386202088
 31
0.0
  0
LINE
  5
747
330
1F
100
AcDbEntity
  8
NOSNÉ KONSTRUKCE
100
AcDbLine
 10
2692.370503054787
 20
741.2085386202088
 30
0.0
 11
2692.660402741276
 21
750.8874947182448
 31
0.0
  0
LINE
  5
748
330
1F
100
AcDbEntity
  8
NOSNÉ KONSTRUKCE
100
AcDbLine
 10
2696.346699670933
 20
729.9250190162092
 30
0.0
 11
2697.827575687233
 21
746.8401421577582
 31
0.0
  0
LINE
  5
749
330
1F
100
AcDbEntity
  8
NOSNÉ KONSTRUKCE
100
AcDbLine
 10
2688.118913411862
 20
752.7500237332751
 30
0.0
 11
2688.118913411862
 21
771.9474561273418
 31
0.0
  0
LINE
  5
74A
330
1F
100
AcDbEntity
  8
NOSNÉ KONSTRUKCE
100
AcDbLine
 10
2684.3924239864
 20
727.4038481339303
 30
0.0
 11
2685.978933003644
 21
734.5392823520815
 31
0.0
  0
LINE
  5
74B
330
1F
100
AcDbEntity
  8
NOSNÉ KONSTRUKCE
100
AcDbLine
 10
2685.978933003644
 20
734.5392823520815
 30
0.0
 11
2688.118913411862
 21
752.7500237332751
 31
0.0
  0
LINE
  5
74C
330
1F
100
AcDbEntity
  8
NOSNÉ KONSTRUKCE
100
AcDbLine
 10
2691.64289337046
 20
725.0646241135036
 30
0.0
 11
2692.370503054787
 21
734.2273966397515
 31
0.0
  0
LINE
  5
74D
330
1F
100
AcDbEntity
  8
NOSNÉ KONSTRUKCE
100
AcDbLine
 10
2690.769779262337
 20
712.8476121180465
 30
0.0
 11
2691.64289337046
 21
725.0646241135036
 31
0.0
  0
LINE
  5
74E
330
1F
100
AcDbEntity
  8
NOSNÉ KONSTRUKCE
100
AcDbLine
 10
2684.947705061278
 20
712.0229883872343
 30
0.0
 11
2684.3924239864
 21
727.4038481339303
 31
0.0
  0
LINE
  5
74F
330
1F
100
AcDbEntity
  8
NOSNÉ KONSTRUKCE
100
AcDbLine
 10
2694.654265768245
 20
702.6494057253913
 30
0.0
 11
2696.346699670933
 21
729.9250190162092
 31
0.0
  0
LINE
  5
750
330
1F
100
AcDbEntity
  8
NOSNÉ KONSTRUKCE
100
AcDbLine
 10
2703.986367848761
 20
731.4815612504826
 30
0.0
 11
2701.316763013311
 21
694.8412227149492
 31
0.0
  0
LINE
  5
751
330
1F
100
AcDbEntity
  8
NOSNÉ KONSTRUKCE
100
AcDbLine
 10
2706.340328784733
 20
795.1268296877751
 30
0.0
 11
2705.556297826341
 21
758.4698767302906
 31
0.0
  0
HATCH
  5
752
330
1F
100
AcDbEntity
  8
PROFILY
100
AcDbHatch
 10
0.0
 20
0.0
 30
0.0
210
0.0
220
0.0
230
1.0
  2
SOLID
 70
     1
 71
     0
 91
        1
 92
        7
 72
     0
 73
     1
 93
        4
 10
2706.943481864292
 20
798.9351337840726
 10
2708.943481864295
 20
798.9351337840726
 10
2708.943481864295
 20
779.752778639524
 10
2706.943481864295
 20
779.752778639524
 97
        0
 75
     0
 76
     1
 47
0.0801976285649081
 98
        1
 10
2707.28115493459
 20
785.5941945321301
  0
HATCH
  5
753
330
1F
100
AcDbEntity
  8
PROFILY
100
AcDbHatch
 10
0.0
 20
0.0
 30
0.0
210
0.0
220
0.0
230
1.0
  2
SOLID
 70
     1
 71
     0
 91
        1
 92
        7
 72
     0
 73
     1
 93
        4
 10
2706.943481864292
 20
695.4250596116344
 10
2708.943481864295
 20
695.4250596116344
 10
2708.943481864295
 20
676.2427044670857
 10
2706.943481864295
 20
676.2427044670857
 97
        0
 75
     0
 76
     1
 47
0.0801976285649081
 98
        1
 10
2707.28115493459
 20
682.0841203596919
  0
HATCH
  5
754
330
1F
100
AcDbEntity
  8
PROFILY
100
AcDbHatch
 10
0.0
 20
0.0
 30
0.0
210
0.0
220
0.0
230
1.0
  2
SOLID
 70
     1
 71
     0
 91
        1
 92
        7
 72
     0
 73
     1
 93
        4
 10
2706.943481864292
 20
732.0130777559043
 10
2708.943481864295
 20
732.0130777559043
 10
2708.943481864295
 20
712.8307226113556
 10
2706.943481864295
 20
712.8307226113556
 97
        0
 75
     0
 76
     1
 47
0.0801976285649081
 98
        1
 10
2707.28115493459
 20
718.6721385039618
  0
LWPOLYLINE
  5
755
330
1F
100
AcDbEntity
  8
PROFILY
100
AcDbPolyline
 90
        4
 70
     1
 43
0.0
 10
2706.943481864295
 20
712.8302107738
 10
2706.943481864295
 20
732.0125659183486
 10
2708.943481864295
 20
732.0125659183486
 10
2708.943481864295
 20
712.8302107738
  0
HATCH
  5
756
330
1F
100
AcDbEntity
  8
PROFILY
100
AcDbHatch
 10
0.0
 20
0.0
 30
0.0
210
0.0
220
0.0
230
1.0
  2
SOLID
 70
     1
 71
     0
 91
        1
 92
        7
 72
     0
 73
     1
 93
        4
 10
2706.943481864292
 20
764.5281435337401
 10
2708.943481864295
 20
764.5281435337401
 10
2708.943481864295
 20
745.3457883891915
 10
2706.943481864295
 20
745.3457883891915
 97
        0
 75
     0
 76
     1
 47
0.0801976285649081
 98
        1
 10
2707.28115493459
 20
751.1872042817977
  0
LINE
  5
757
330
1F
100
AcDbEntity
  8
NOSNÉ KONSTRUKCE
100
AcDbLine
 10
2691.64289337046
 20
698.7398752970221
 30
0.0
 11
2691.64289337046
 21
703.1031003095231
 31
0.0
  0
LINE
  5
758
330
1F
100
AcDbEntity
  8
NOSNÉ KONSTRUKCE
100
AcDbLine
 10
2691.64289337046
 20
703.1031003095231
 30
0.0
 11
2690.769779262337
 21
712.8476121180465
 31
0.0
  0
LINE
  5
759
330
1F
100
AcDbEntity
  8
NOSNÉ KONSTRUKCE
100
AcDbLine
 10
2684.471553874647
 20
701.667026164032
 30
0.0
 11
2684.947705061278
 21
712.0229883872343
 31
0.0
  0
LINE
  5
75A
330
1F
100
AcDbEntity
  8
NOSNÉ KONSTRUKCE
100
AcDbLine
 10
2693.384947638341
 20
681.5055063083418
 30
0.0
 11
2694.654265768245
 21
702.6494057253913
 31
0.0
  0
LINE
  5
75B
330
1F
100
AcDbEntity
  8
NOSNÉ KONSTRUKCE
100
AcDbLine
 10
2706.202111222069
 20
684.7183129580244
 30
0.0
 11
2707.236024501844
 21
657.9021849456348
 31
0.0
  0
LINE
  5
75C
330
1F
100
AcDbEntity
  8
NOSNÉ KONSTRUKCE
100
AcDbLine
 10
2695.323488300958
 20
675.8437582596362
 30
0.0
 11
2693.384947638341
 21
681.5055063083418
 31
0.0
  0
LINE
  5
75D
330
1F
100
AcDbEntity
  8
NOSNÉ KONSTRUKCE
100
AcDbLine
 10
2701.787747844276
 20
680.4056171437623
 30
0.0
 11
2701.496774219439
 21
669.0635139818787
 31
0.0
  0
LINE
  5
75E
330
1F
100
AcDbEntity
  8
NOSNÉ KONSTRUKCE
100
AcDbLine
 10
2682.698864977571
 20
681.1538560608624
 30
0.0
 11
2684.471553874647
 21
690.0124691760793
 31
0.0
  0
LINE
  5
75F
330
1F
100
AcDbEntity
  8
NOSNÉ KONSTRUKCE
100
AcDbLine
 10
2686.774950163629
 20
678.496130760619
 30
0.0
 11
2688.732513010059
 21
690.0134433115672
 31
0.0
  0
LINE
  5
760
330
1F
100
AcDbEntity
  8
NOSNÉ KONSTRUKCE
100
AcDbLine
 10
2701.316763013311
 20
694.8412227149492
 30
0.0
 11
2701.787747844276
 21
680.4056171437623
 31
0.0
  0
LINE
  5
761
330
1F
100
AcDbEntity
  8
NOSNÉ KONSTRUKCE
100
AcDbLine
 10
2684.471553874647
 20
690.0124691760793
 30
0.0
 11
2683.916272799761
 21
695.6415471771797
 31
0.0
  0
LINE
  5
762
330
1F
100
AcDbEntity
  8
NOSNÉ KONSTRUKCE
100
AcDbLine
 10
2688.732513010059
 20
690.0134433115672
 30
0.0
 11
2691.64289337046
 21
698.7398752970221
 31
0.0
  0
LINE
  5
763
330
1F
100
AcDbEntity
  8
NOSNÉ KONSTRUKCE
100
AcDbLine
 10
2683.916272799761
 20
695.6415471771797
 30
0.0
 11
2684.471553874647
 21
701.667026164032
 31
0.0
  0
LINE
  5
764
330
1F
100
AcDbEntity
  8
POPIS
100
AcDbLine
 10
2696.369920856469
 20
793.9951423018101
 30
0.0
 11
2697.895666804427
 21
781.0594984027265
 31
0.0
  0
LINE
  5
765
330
1F
100
AcDbEntity
  8
POPIS
100
AcDbLine
 10
2692.582465176904
 20
793.9951423018101
 30
0.0
 11
2691.056719228946
 21
781.0594984027265
 31
0.0
  0
LINE
  5
766
330
1F
100
AcDbEntity
  8
POPIS
100
AcDbLine
 10
2694.476193016686
 20
801.7912732879159
 30
0.0
 11
2700.048762194067
 21
793.9904212050187
 31
0.0
  0
LINE
  5
767
330
1F
100
AcDbEntity
  8
POPIS
100
AcDbLine
 10
2700.048762194067
 20
793.9904212050187
 30
0.0
 11
2696.369920856469
 21
793.9904212050187
 31
0.0
  0
LINE
  5
768
330
1F
100
AcDbEntity
  8
POPIS
100
AcDbLine
 10
2688.903623839306
 20
793.9904212050187
 30
0.0
 11
2692.582465176904
 21
793.9904212050187
 31
0.0
  0
LINE
  5
769
330
1F
100
AcDbEntity
  8
POPIS
100
AcDbLine
 10
2694.476193016686
 20
801.7912732879159
 30
0.0
 11
2688.903623839306
 21
793.9904212050187
 31
0.0
  0
HATCH
  5
76A
330
1F
100
AcDbEntity
  8
POPIS
100
AcDbHatch
 10
0.0
 20
0.0
 30
0.0
210
0.0
220
0.0
230
1.0
  2
SOLID
 70
     1
 71
     0
 91
        1
 92
        7
 72
     0
 73
     1
 93
        8
 10
2696.369920856469
 20
793.9951423018101
 10
2700.048762194071
 20
793.9951423018101
 10
2694.47619301669
 20
801.7959943847055
 10
2688.903623839306
 20
793.9951423018101
 10
2692.582465176904
 20
793.9951423018101
 10
2691.056719228946
 20
781.0594984027248
 10
2694.476193016683
 20
786.4407950502082
 10
2697.895666804424
 20
781.0594984027248
 97
        0
 75
     0
 76
     1
 47
0.3835833255279223
 98
        1
 10
2694.884375763941
 20
791.0869591213104
  0
LINE
  5
76B
330
1F
100
AcDbEntity
  8
NOSNÉ KONSTRUKCE
100
AcDbLine
 10
2699.098002978244
 20
803.13288111152
 30
0.0
 11
2699.098002978244
 21
807.4507981519891
 31
0.0
  0
INSERT
  5
76C
330
1F
100
AcDbEntity
  8
POPIS
100
AcDbBlockReference
  2
E_PUNKT
 10
2714.425066518769
 20
733.9643675424704
 30
0.0
  0
HATCH
  5
76D
330
1F
100
AcDbEntity
  8
PROFILY
100
AcDbHatch
 10
0.0
 20
0.0
 30
0.0
210
0.0
220
0.0
230
1.0
  2
SOLID
 70
     1
 71
     0
 91
        1
 92
        7
 72
     0
 73
     1
 93
        4
 10
2706.943481864292
 20
833.684929406454
 10
2708.943481864295
 20
833.684929406454
 10
2708.943481864295
 20
814.5025742619054
 10
2706.943481864295
 20
814.5025742619054
 97
        0
 75
     0
 76
     1
 47
0.0801976285649081
 98
        1
 10
2707.28115493459
 20
820.3439901545117
  0
LWPOLYLINE
  5
76E
330
1F
100
AcDbEntity
  8
PROFILY
100
AcDbPolyline
 90
        4
 70
     1
 43
0.0
 10
2706.943481864295
 20
814.5020624243498
 10
2706.943481864295
 20
833.6844175688984
 10
2708.943481864295
 20
833.6844175688984
 10
2708.943481864295
 20
814.5020624243498
  0
INSERT
  5
76F
330
1F
100
AcDbEntity
  8
POPIS
100
AcDbBlockReference
  2
E_PUNKT
 10
2662.781305774014
 20
1018.662809261122
 30
0.0
  0
INSERT
  5
770
330
1F
100
AcDbEntity
  8
POPIS
100
AcDbBlockReference
  2
E_PUNKT
 10
2692.697639922852
 20
967.6199395475414
 30
0.0
  0
LINE
  5
771
330
1F
100
AcDbEntity
  8
CETRIS
100
AcDbLine
 10
2668.412146379488
 20
963.6735191251936
 30
0.0
 11
2668.412146379488
 21
1069.929727487422
 31
0.0
  0
LINE
  5
772
330
1F
100
AcDbEntity
  8
STAVBA OBRYS
100
AcDbLine
 10
2709.25794474387
 20
965.9449454783553
 30
0.0
 11
2709.257944743873
 21
1071.820672636746
 31
0.0
  0
LINE
  5
773
330
1F
100
AcDbEntity
  8
SPOJOVACÍ
100
AcDbLine
 10
2690.512120601678
 20
1015.483966999783
 30
0.0
 11
2692.035127857169
 21
1021.167907457584
 31
0.0
  0
LINE
  5
774
330
1F
100
AcDbEntity
  8
SPOJOVACÍ
100
AcDbLine
 10
2696.622421550038
 20
1015.483966999783
 30
0.0
 11
2667.855431777178
 21
1015.483966999783
 31
0.0
  0
LINE
  5
775
330
1F
100
AcDbEntity
  8
SPOJOVACÍ
100
AcDbLine
 10
2696.622421550038
 20
1021.167907457584
 30
0.0
 11
2667.855431777178
 21
1021.167907457584
 31
0.0
  0
LINE
  5
776
330
1F
100
AcDbEntity
  8
SPOJOVACÍ
100
AcDbLine
 10
2682.601964351678
 20
1015.483966999783
 30
0.0
 11
2684.124971607173
 21
1021.167907457584
 31
0.0
  0
LINE
  5
777
330
1F
100
AcDbEntity
  8
SPOJOVACÍ
100
AcDbLine
 10
2671.527745601678
 20
1015.483966999783
 30
0.0
 11
2673.050752857173
 21
1021.167907457584
 31
0.0
  0
LINE
  5
778
330
1F
100
AcDbEntity
  8
SPOJOVACÍ
100
AcDbLine
 10
2669.945714351678
 20
1015.483966999783
 30
0.0
 11
2671.468721607169
 21
1021.167907457584
 31
0.0
  0
LINE
  5
779
330
1F
100
AcDbEntity
  8
SPOJOVACÍ
100
AcDbLine
 10
2676.273839351678
 20
1015.483966999783
 30
0.0
 11
2677.796846607173
 21
1021.167907457584
 31
0.0
  0
LINE
  5
77A
330
1F
100
AcDbEntity
  8
SPOJOVACÍ
100
AcDbLine
 10
2674.691808101678
 20
1015.483966999783
 30
0.0
 11
2676.214815357173
 21
1021.167907457584
 31
0.0
  0
LINE
  5
77B
330
1F
100
AcDbEntity
  8
SPOJOVACÍ
100
AcDbLine
 10
2673.109776851678
 20
1015.483966999783
 30
0.0
 11
2674.632784107173
 21
1021.167907457584
 31
0.0
  0
LINE
  5
77C
330
1F
100
AcDbEntity
  8
SPOJOVACÍ
100
AcDbLine
 10
2681.019933101678
 20
1015.483966999783
 30
0.0
 11
2682.542940357169
 21
1021.167907457584
 31
0.0
  0
LINE
  5
77D
330
1F
100
AcDbEntity
  8
SPOJOVACÍ
100
AcDbLine
 10
2679.437901851678
 20
1015.483966999783
 30
0.0
 11
2680.96090910717
 21
1021.167907457584
 31
0.0
  0
LINE
  5
77E
330
1F
100
AcDbEntity
  8
SPOJOVACÍ
100
AcDbLine
 10
2677.855870601678
 20
1015.483966999783
 30
0.0
 11
2679.378877857173
 21
1021.167907457584
 31
0.0
  0
LINE
  5
77F
330
1F
100
AcDbEntity
  8
SPOJOVACÍ
100
AcDbLine
 10
2688.930089351678
 20
1015.483966999783
 30
0.0
 11
2690.45309660717
 21
1021.167907457584
 31
0.0
  0
LINE
  5
780
330
1F
100
AcDbEntity
  8
SPOJOVACÍ
100
AcDbLine
 10
2687.348058101674
 20
1015.483966999783
 30
0.0
 11
2688.87106535717
 21
1021.167907457584
 31
0.0
  0
LINE
  5
781
330
1F
100
AcDbEntity
  8
SPOJOVACÍ
100
AcDbLine
 10
2685.766026851678
 20
1015.483966999783
 30
0.0
 11
2687.28903410717
 21
1021.167907457584
 31
0.0
  0
LINE
  5
782
330
1F
100
AcDbEntity
  8
SPOJOVACÍ
100
AcDbLine
 10
2684.183995601678
 20
1015.483966999783
 30
0.0
 11
2685.707002857169
 21
1021.167907457584
 31
0.0
  0
LINE
  5
783
330
1F
100
AcDbEntity
  8
SPOJOVACÍ
100
AcDbLine
 10
2695.258214351678
 20
1015.483966999783
 30
0.0
 11
2696.78122160717
 21
1021.167907457584
 31
0.0
  0
LINE
  5
784
330
1F
100
AcDbEntity
  8
SPOJOVACÍ
100
AcDbLine
 10
2692.094151851678
 20
1015.483966999783
 30
0.0
 11
2693.617159107169
 21
1021.167907457584
 31
0.0
  0
LINE
  5
785
330
1F
100
AcDbEntity
  8
SPOJOVACÍ
100
AcDbLine
 10
2693.676183101678
 20
1015.483966999783
 30
0.0
 11
2695.19919035717
 21
1021.167907457584
 31
0.0
  0
LINE
  5
786
330
1F
100
AcDbEntity
  8
SPOJOVACÍ
100
AcDbLine
 10
2696.840245601678
 20
1015.483966999783
 30
0.0
 11
2697.914047169365
 21
1019.491449007649
 31
0.0
  0
LINE
  5
787
330
1F
100
AcDbEntity
  8
SPOJOVACÍ
100
AcDbLine
 10
2698.812014472642
 20
1018.325937228684
 30
0.0
 11
2696.622421550038
 21
1015.483966999783
 31
0.0
  0
LINE
  5
788
330
1F
100
AcDbEntity
  8
SPOJOVACÍ
100
AcDbLine
 10
2698.812014472642
 20
1018.325937228684
 30
0.0
 11
2696.622421550038
 21
1021.167907457584
 31
0.0
  0
LINE
  5
789
330
1F
100
AcDbEntity
  8
NOSNÉ KONSTRUKCE
100
AcDbLine
 10
2699.942337274559
 20
870.1982203408952
 30
0.0
 11
2700.153895160948
 21
908.2572248599463
 31
0.0
  0
LINE
  5
78A
330
1F
100
AcDbEntity
  8
NOSNÉ KONSTRUKCE
100
AcDbLine
 10
2705.328832234642
 20
888.8902387721937
 30
0.0
 11
2703.534267945019
 21
869.0896541546463
 31
0.0
  0
LINE
  5
78B
330
1F
100
AcDbEntity
  8
NOSNÉ KONSTRUKCE
100
AcDbLine
 10
2689.983325662594
 20
918.543969344806
 30
0.0
 11
2687.756392861499
 21
938.8228725268964
 31
0.0
  0
LINE
  5
78C
330
1F
100
AcDbEntity
  8
NOSNÉ KONSTRUKCE
100
AcDbLine
 10
2684.184047641066
 20
916.939622313399
 30
0.0
 11
2683.309065472139
 21
938.5111130913902
 31
0.0
  0
LINE
  5
78D
330
1F
100
AcDbEntity
  8
NOSNÉ KONSTRUKCE
100
AcDbLine
 10
2696.29442315679
 20
910.7859723515829
 30
0.0
 11
2695.417572927058
 21
924.515654405226
 31
0.0
  0
LINE
  5
78E
330
1F
100
AcDbEntity
  8
NOSNÉ KONSTRUKCE
100
AcDbLine
 10
2688.993574507833
 20
895.2973984751915
 30
0.0
 11
2689.983325662594
 21
918.543969344806
 31
0.0
  0
LINE
  5
78F
330
1F
100
AcDbEntity
  8
NOSNÉ KONSTRUKCE
100
AcDbLine
 10
2694.839203788136
 20
890.7151733731735
 30
0.0
 11
2696.29442315679
 21
910.7859723515829
 31
0.0
  0
LINE
  5
790
330
1F
100
AcDbEntity
  8
NOSNÉ KONSTRUKCE
100
AcDbLine
 10
2682.434054114762
 20
897.700211895586
 30
0.0
 11
2684.184047641066
 21
916.939622313399
 31
0.0
  0
LINE
  5
791
330
1F
100
AcDbEntity
  8
NOSNÉ KONSTRUKCE
100
AcDbLine
 10
2686.563344151728
 20
872.3382877725052
 30
0.0
 11
2688.993574507833
 21
895.2973984751915
 31
0.0
  0
LINE
  5
792
330
1F
100
AcDbEntity
  8
NOSNÉ KONSTRUKCE
100
AcDbLine
 10
2693.820585256225
 20
862.6451345516944
 30
0.0
 11
2694.257127716054
 21
878.4981613777199
 31
0.0
  0
LINE
  5
793
330
1F
100
AcDbEntity
  8
NOSNÉ KONSTRUKCE
100
AcDbLine
 10
2685.787310828674
 20
852.3852329114161
 30
0.0
 11
2686.563344151728
 21
872.3382877725052
 31
0.0
  0
LINE
  5
794
330
1F
100
AcDbEntity
  8
NOSNÉ KONSTRUKCE
100
AcDbLine
 10
2694.257127716054
 20
878.4981613777199
 30
0.0
 11
2694.839203788136
 21
890.7151733731735
 31
0.0
  0
LINE
  5
795
330
1F
100
AcDbEntity
  8
NOSNÉ KONSTRUKCE
100
AcDbLine
 10
2703.113428871337
 20
981.7517427103521
 30
0.0
 11
2704.805862774033
 21
948.767262506084
 31
0.0
  0
LINE
  5
796
330
1F
100
AcDbEntity
  8
NOSNÉ KONSTRUKCE
100
AcDbLine
 10
2685.529430871953
 20
964.0478764951659
 30
0.0
 11
2686.024321043559
 21
989.0255582865538
 31
0.0
  0
LINE
  5
797
330
1F
100
AcDbEntity
  8
NOSNÉ KONSTRUKCE
100
AcDbLine
 10
2694.558605417541
 20
937.4854848703998
 30
0.0
 11
2692.943735026486
 21
970.7657673795438
 31
0.0
  0
LINE
  5
798
330
1F
100
AcDbEntity
  8
NOSNÉ KONSTRUKCE
100
AcDbLine
 10
2699.517003179565
 20
965.2595026082199
 30
0.0
 11
2698.873151769546
 21
975.5554885301625
 31
0.0
  0
LINE
  5
799
330
1F
100
AcDbEntity
  8
NOSNÉ KONSTRUKCE
100
AcDbLine
 10
2700.365453047344
 20
937.6472353082899
 30
0.0
 11
2699.517003179565
 21
965.2595026082199
 31
0.0
  0
LINE
  5
79A
330
1F
100
AcDbEntity
  8
NOSNÉ KONSTRUKCE
100
AcDbLine
 10
2687.756392861499
 20
938.8228725268964
 30
0.0
 11
2685.529430871953
 21
964.0478764951659
 31
0.0
  0
LINE
  5
79B
330
1F
100
AcDbEntity
  8
NOSNÉ KONSTRUKCE
100
AcDbLine
 10
2695.417572927058
 20
924.515654405226
 30
0.0
 11
2694.39892520669
 21
933.0966515701112
 31
0.0
  0
LINE
  5
79C
330
1F
100
AcDbEntity
  8
NOSNÉ KONSTRUKCE
100
AcDbLine
 10
2694.39892520669
 20
933.0966515701112
 30
0.0
 11
2694.558605417541
 21
937.4854848703998
 31
0.0
  0
LINE
  5
79D
330
1F
100
AcDbEntity
  8
NOSNÉ KONSTRUKCE
100
AcDbLine
 10
2700.153895160948
 20
908.2572248599463
 30
0.0
 11
2700.365453047344
 21
937.6472353082899
 31
0.0
  0
LINE
  5
79E
330
1F
100
AcDbEntity
  8
NOSNÉ KONSTRUKCE
100
AcDbLine
 10
2704.805862774033
 20
948.767262506084
 30
0.0
 11
2706.698864977568
 21
931.1105962862056
 31
0.0
  0
LINE
  5
79F
330
1F
100
AcDbEntity
  8
NOSNÉ KONSTRUKCE
100
AcDbLine
 10
2703.113428871337
 20
981.7517427103521
 30
0.0
 11
2703.986367848761
 21
987.7934212095933
 31
0.0
  0
LINE
  5
7A0
330
1F
100
AcDbEntity
  8
NOSNÉ KONSTRUKCE
100
AcDbLine
 10
2705.556297826341
 20
1014.781736689401
 30
0.0
 11
2703.986367848761
 21
987.7934212095933
 31
0.0
  0
LINE
  5
7A1
330
1F
100
AcDbEntity
  8
NOSNÉ KONSTRUKCE
100
AcDbLine
 10
2692.394864158979
 20
998.3337490897701
 30
0.0
 11
2692.660402741276
 21
1007.199354677355
 31
0.0
  0
LINE
  5
7A2
330
1F
100
AcDbEntity
  8
NOSNÉ KONSTRUKCE
100
AcDbLine
 10
2687.508962369925
 20
1001.390765153126
 30
0.0
 11
2688.118913411862
 21
1009.061883692385
 31
0.0
  0
LINE
  5
7A3
330
1F
100
AcDbEntity
  8
NOSNÉ KONSTRUKCE
100
AcDbLine
 10
2697.827575687233
 20
1003.152002116869
 30
0.0
 11
2701.339076939054
 21
1071.91412261309
 31
0.0
  0
LINE
  5
7A4
330
1F
100
AcDbEntity
  8
NOSNÉ KONSTRUKCE
100
AcDbLine
 10
2692.660402741276
 20
1007.199354677355
 30
0.0
 11
2693.350232496833
 21
1072.008398378582
 31
0.0
  0
LINE
  5
7A5
330
1F
100
AcDbEntity
  8
NOSNÉ KONSTRUKCE
100
AcDbLine
 10
2688.118913411862
 20
1009.061883692385
 30
0.0
 11
2688.118913411862
 21
1072.070132790218
 31
0.0
  0
LINE
  5
7A6
330
1F
100
AcDbEntity
  8
NOSNÉ KONSTRUKCE
100
AcDbLine
 10
2682.698864977567
 20
1002.531619781599
 30
0.0
 11
2689.023033622671
 21
1072.059463334129
 31
0.0
  0
LINE
  5
7A7
330
1F
100
AcDbEntity
  8
NOSNÉ KONSTRUKCE
100
AcDbLine
 10
2706.776891559152
 20
1071.849951362837
 30
0.0
 11
2705.556297826341
 21
1014.781736689401
 31
0.0
  0
LINE
  5
7A8
330
1F
100
AcDbEntity
  8
NOSNÉ KONSTRUKCE
100
AcDbLine
 10
2697.688719611376
 20
998.3337490897701
 30
0.0
 11
2697.827575687233
 21
1003.152002116869
 31
0.0
  0
LINE
  5
7A9
330
1F
100
AcDbEntity
  8
NOSNÉ KONSTRUKCE
100
AcDbLine
 10
2686.024321043559
 20
989.0255582865538
 30
0.0
 11
2687.508962369925
 21
1001.390765153126
 31
0.0
  0
HATCH
  5
7AA
330
1F
100
AcDbEntity
  8
POPIS
100
AcDbHatch
 10
0.0
 20
0.0
 30
0.0
210
0.0
220
0.0
230
1.0
  2
SOLID
 70
     1
 71
     0
 91
        1
 92
        7
 72
     0
 73
     1
 93
        8
 10
2696.369920856469
 20
989.1009822200613
 10
2700.048762194071
 20
989.1009822200613
 10
2694.47619301669
 20
996.9018343029565
 10
2688.903623839306
 20
989.1009822200613
 10
2692.582465176904
 20
989.1009822200613
 10
2691.056719228946
 20
976.1653383209759
 10
2694.476193016683
 20
981.5466349684593
 10
2697.895666804424
 20
976.1653383209759
 97
        0
 75
     0
 76
     1
 47
0.3835833255279223
 98
        1
 10
2694.884375763941
 20
986.1927990395615
  0
LINE
  5
7AB
330
1F
100
AcDbEntity
  8
POPIS
100
AcDbLine
 10
2694.476193016686
 20
996.8971132061669
 30
0.0
 11
2688.903623839306
 21
989.0962611232698
 31
0.0
  0
LINE
  5
7AC
330
1F
100
AcDbEntity
  8
POPIS
100
AcDbLine
 10
2688.903623839306
 20
989.0962611232698
 30
0.0
 11
2692.582465176904
 21
989.0962611232698
 31
0.0
  0
LINE
  5
7AD
330
1F
100
AcDbEntity
  8
POPIS
100
AcDbLine
 10
2692.582465176904
 20
989.1009822200613
 30
0.0
 11
2691.056719228946
 21
976.1653383209777
 31
0.0
  0
LINE
  5
7AE
330
1F
100
AcDbEntity
  8
POPIS
100
AcDbLine
 10
2696.369920856469
 20
989.1009822200613
 30
0.0
 11
2697.895666804427
 21
976.1653383209777
 31
0.0
  0
LINE
  5
7AF
330
1F
100
AcDbEntity
  8
POPIS
100
AcDbLine
 10
2700.048762194067
 20
989.0962611232698
 30
0.0
 11
2696.369920856469
 21
989.0962611232698
 31
0.0
  0
LINE
  5
7B0
330
1F
100
AcDbEntity
  8
POPIS
100
AcDbLine
 10
2694.476193016686
 20
996.8971132061669
 30
0.0
 11
2700.048762194067
 21
989.0962611232698
 31
0.0
  0
LINE
  5
7B1
330
1F
100
AcDbEntity
  8
SPOJOVACÍ
100
AcDbLine
 10
2666.471515985963
 20
1011.206796603684
 30
0.0
 11
2667.855431777178
 21
1011.206796603683
 31
0.0
  0
LINE
  5
7B2
330
1F
100
AcDbEntity
  8
SPOJOVACÍ
100
AcDbLine
 10
2666.471515985963
 20
1022.161905405748
 30
0.0
 11
2666.471515985963
 21
1011.206796603683
 31
0.0
  0
LINE
  5
7B3
330
1F
100
AcDbEntity
  8
SPOJOVACÍ
100
AcDbLine
 10
2666.471515985963
 20
1018.325937228683
 30
0.0
 11
2666.471515985963
 21
1025.445077853682
 31
0.0
  0
LINE
  5
7B4
330
1F
100
AcDbEntity
  8
SPOJOVACÍ
100
AcDbLine
 10
2666.984888247222
 20
1023.546640353683
 30
0.0
 11
2666.980142153473
 21
1023.546640353683
 31
0.0
  0
LINE
  5
7B5
330
1F
100
AcDbEntity
  8
SPOJOVACÍ
100
AcDbLine
 10
2667.855431777178
 20
1025.445077853682
 30
0.0
 11
2666.471515985963
 21
1025.445077853681
 31
0.0
  0
LINE
  5
7B6
330
1F
100
AcDbEntity
  8
SPOJOVACÍ
100
AcDbLine
 10
2666.984888247222
 20
1023.546640353683
 30
0.0
 11
2666.980142153473
 21
1023.546640353683
 31
0.0
  0
HATCH
  5
7B7
330
1F
100
AcDbEntity
  8
SPOJOVACÍ
100
AcDbHatch
 10
0.0
 20
0.0
 30
0.0
210
0.0
220
0.0
230
1.0
  2
ANSI37
 70
     0
 71
     0
 91
        1
 92
        7
 72
     0
 73
     1
 93
        6
 10
2666.471515985963
 20
1018.325937228683
 10
2666.471515985967
 20
1011.206796603684
 10
2667.855431777178
 20
1011.206796603683
 10
2667.855431777178
 20
1018.325937228683
 10
2667.855431777178
 20
1025.445077853682
 10
2666.471515985963
 20
1025.445077853681
 97
        0
 75
     0
 76
     1
 52
-90.00000000000001
 41
0.9
 77
     0
 78
     2
 53
315.0
 43
-1174.374783666367
 44
11101.18724929956
 45
2.02055762724056
 46
2.020557627240558
 79
     0
 53
44.99999999999999
 43
-1174.374783666367
 44
11101.18724929956
 45
-2.020557627240558
 46
2.02055762724056
 79
     0
 47
0.0246402553748132
 98
        1
 10
2666.942467427937
 20
1018.726782890369
  0
ELLIPSE
  5
7B8
330
1F
100
AcDbEntity
  8
SPOJOVACÍ
100
AcDbEllipse
 10
2665.922221538663
 20
1018.325937228683
 30
0.0
 11
0.0000000000000018
 21
7.321312510456553
 31
0.0
210
0.0
220
0.0
230
1.0
 40
0.3214803388886193
 41
-0.2355512395776302
 42
3.377143893167422
  0
LINE
  5
7B9
330
1F
100
AcDbEntity
  8
SPOJOVACÍ
100
AcDbLine
 10
2667.855431777178
 20
1025.445077853682
 30
0.0
 11
2666.1686119187
 21
1025.445077853682
 31
0.0
  0
LINE
  5
7BA
330
1F
100
AcDbEntity
  8
SPOJOVACÍ
100
AcDbLine
 10
2667.855431777178
 20
1018.325937228683
 30
0.0
 11
2667.855431777178
 21
1011.206796603683
 31
0.0
  0
LINE
  5
7BB
330
1F
100
AcDbEntity
  8
SPOJOVACÍ
100
AcDbLine
 10
2666.1686119187
 20
1011.206796603683
 30
0.0
 11
2667.855431777178
 21
1011.206796603683
 31
0.0
  0
LINE
  5
7BC
330
1F
100
AcDbEntity
  8
SPOJOVACÍ
100
AcDbLine
 10
2667.855431777178
 20
1025.445077853682
 30
0.0
 11
2667.855431777178
 21
1018.325937228683
 31
0.0
  0
HATCH
  5
7BD
330
1F
100
AcDbEntity
  8
PROFILY
100
AcDbHatch
 10
0.0
 20
0.0
 30
0.0
210
0.0
220
0.0
230
1.0
  2
SOLID
 70
     1
 71
     0
 91
        1
 92
        7
 72
     0
 73
     1
 93
        4
 10
2706.943481864292
 20
1043.758207897839
 10
2708.943481864295
 20
1043.758207897839
 10
2708.943481864295
 20
1024.57585275329
 10
2706.943481864295
 20
1024.57585275329
 97
        0
 75
     0
 76
     1
 47
0.0801976285649081
 98
        1
 10
2707.28115493459
 20
1030.417268645896
  0
HATCH
  5
7BE
330
1F
100
AcDbEntity
  8
PROFILY
100
AcDbHatch
 10
0.0
 20
0.0
 30
0.0
210
0.0
220
0.0
230
1.0
  2
SOLID
 70
     1
 71
     0
 91
        1
 92
        7
 72
     0
 73
     1
 93
        4
 10
2706.943481864292
 20
1009.351217647507
 10
2708.943481864295
 20
1009.351217647507
 10
2708.943481864295
 20
990.1688625029583
 10
2706.943481864295
 20
990.1688625029583
 97
        0
 75
     0
 76
     1
 47
0.0801976285649081
 98
        1
 10
2707.28115493459
 20
996.0102783955644
  0
LWPOLYLINE
  5
7BF
330
1F
100
AcDbEntity
  8
PROFILY
100
AcDbPolyline
 90
        4
 70
     1
 43
0.0
 10
2706.943481864295
 20
957.6532848875668
 10
2706.943481864295
 20
976.8356400321154
 10
2708.943481864295
 20
976.8356400321154
 10
2708.943481864295
 20
957.6532848875668
  0
HATCH
  5
7C0
330
1F
100
AcDbEntity
  8
PROFILY
100
AcDbHatch
 10
0.0
 20
0.0
 30
0.0
210
0.0
220
0.0
230
1.0
  2
SOLID
 70
     1
 71
     0
 91
        1
 92
        7
 72
     0
 73
     1
 93
        4
 10
2706.943481864292
 20
940.2481337254013
 10
2708.943481864295
 20
940.2481337254013
 10
2708.943481864295
 20
921.0657785808525
 10
2706.943481864295
 20
921.0657785808525
 97
        0
 75
     0
 76
     1
 47
0.0801976285649081
 98
        1
 10
2707.28115493459
 20
926.9071944734587
  0
HATCH
  5
7C1
330
1F
100
AcDbEntity
  8
PROFILY
100
AcDbHatch
 10
0.0
 20
0.0
 30
0.0
210
0.0
220
0.0
230
1.0
  2
SOLID
 70
     1
 71
     0
 91
        1
 92
        7
 72
     0
 73
     1
 93
        4
 10
2706.943481864292
 20
976.836151869671
 10
2708.943481864295
 20
976.836151869671
 10
2708.943481864295
 20
957.6537967251224
 10
2706.943481864295
 20
957.6537967251224
 97
        0
 75
     0
 76
     1
 47
0.0801976285649081
 98
        1
 10
2707.28115493459
 20
963.4952126177285
  0
HATCH
  5
7C2
330
1F
100
AcDbEntity
  8
PROFILY
100
AcDbHatch
 10
0.0
 20
0.0
 30
0.0
210
0.0
220
0.0
230
1.0
  2
SOLID
 70
     1
 71
     0
 91
        1
 92
        7
 72
     0
 73
     1
 93
        4
 10
2706.943481864292
 20
905.4178643835056
 10
2708.943481864295
 20
905.4178643835056
 10
2708.943481864295
 20
886.235509238957
 10
2706.943481864295
 20
886.235509238957
 97
        0
 75
     0
 76
     1
 47
0.0801976285649081
 98
        1
 10
2707.28115493459
 20
892.0769251315633
  0
HATCH
  5
7C3
330
1F
100
AcDbEntity
  8
PROFILY
100
AcDbHatch
 10
0.0
 20
0.0
 30
0.0
210
0.0
220
0.0
230
1.0
  2
SOLID
 70
     1
 71
     0
 91
        1
 92
        7
 72
     0
 73
     1
 93
        4
 10
2706.943481864292
 20
871.8045224298567
 10
2708.943481864295
 20
871.8045224298567
 10
2708.943481864295
 20
852.6221672853079
 10
2706.943481864295
 20
852.6221672853079
 97
        0
 75
     0
 76
     1
 47
0.0801976285649081
 98
        1
 10
2707.28115493459
 20
858.4635831779142
  0
HATCH
  5
7C4
330
1F
100
AcDbEntity
  8
PROFILY
100
AcDbHatch
 10
0.0
 20
0.0
 30
0.0
210
0.0
220
0.0
230
1.0
  2
SOLID
 70
     1
 71
     0
 91
        1
 92
        7
 72
     0
 73
     1
 93
        4
 10
2706.943481864292
 20
1075.108503712903
 10
2708.943481864295
 20
1075.108503712903
 10
2708.943481864295
 20
1055.926148568354
 10
2706.943481864295
 20
1055.926148568354
 97
        0
 75
     0
 76
     1
 47
0.0801976285649081
 98
        1
 10
2707.28115493459
 20
1061.76756446096
  0
LWPOLYLINE
  5
7C5
330
1F
100
AcDbEntity
  8
PROFILY
100
AcDbPolyline
 90
        4
 70
     1
 43
0.0
 10
2706.943481864295
 20
1055.925636730798
 10
2706.943481864295
 20
1075.107991875347
 10
2708.943481864295
 20
1075.107991875347
 10
2708.943481864295
 20
1055.925636730798
  0
CIRCLE
  5
7C6
330
1F
100
AcDbEntity
  8
POPIS
100
AcDbCircle
 10
2675.51809357655
 20
307.1472167589236
 30
0.0
 40
11.13656048292026
  0
TEXT
  5
7C7
330
1F
100
AcDbEntity
  8
POPIS
100
AcDbText
 10
2671.13581006623
 20
301.0370553909779
 30
0.0
 40
12.0
  1
R
 41
0.85
  7
SIMPLEX7
100
AcDbText
  0
LINE
  5
7C8
330
1F
100
AcDbEntity
  8
STAVBA OBRYS
100
AcDbLine
 10
2651.938368772088
 20
416.4334935799397
 30
0.0
 11
2366.77939830802
 21
416.4334935799379
 31
0.0
  0
HATCH
  5
7C9
330
1F
100
AcDbEntity
  8
STAVBA OBRYS
100
AcDbHatch
 10
0.0
 20
0.0
 30
0.0
210
0.0
220
0.0
230
1.0
  2
AR-SAND
 70
     0
 71
     0
 91
        1
 92
        7
 72
     0
 73
     1
 93
        4
 10
3175.997448646577
 20
621.5500734740817
 10
3029.875004920858
 20
621.5500734740817
 10
3029.795896311426
 20
577.1559507517486
 10
3164.632997966503
 20
577.1559507517486
 97
        0
 75
     0
 76
     1
 52
0.0
 41
0.35
 77
     0
 78
     4
 53
37.5
 43
1772.131701486502
 44
379.6427993345205
 45
-0.560010953594416
 46
17.12946330652698
 79
     6
 49
0.0
 49
-13.5128
 49
0.0
 49
-15.113
 49
0.0
 49
-14.44625
 53
7.499999999999999
 43
1772.131701486502
 44
379.6427993345205
 45
15.73331490983009
 46
25.08887851989239
 79
     6
 49
0.0
 49
-7.2898
 49
0.0
 49
-12.17929999999999
 49
0.0
 49
-4.66725
 53
327.4999999999999
 43
1761.197001486504
 44
379.6427993345205
 45
27.68473295845102
 46
0.0503014637490992
 79
     6
 49
0.0
 49
-4.444999999999999
 49
0.0
 49
-16.002
 49
0.0
 49
-20.89149999999999
 53
317.5
 43
1761.197001486504
 44
379.6427993345205
 45
26.7244758365304
 46
7.802526314002567
 79
     6
 49
0.0
 49
-2.222499999999999
 49
0.0
 49
-10.49019999999999
 49
0.0
 49
-12.00149999999999
 47
4.017849295243367
 98
        1
 10
3116.491314375381
 20
610.4946778729535
  0
LINE
  5
7CA
330
1F
100
AcDbEntity
  8
STAVBA OBRYS
100
AcDbLine
 10
3029.739719188333
 20
634.0966053391094
 30
0.0
 11
3179.209235113853
 21
634.0966053391094
 31
0.0
  0
LINE
  5
7CB
330
1F
100
AcDbEntity
  8
STAVBA OBRYS
100
AcDbLine
 10
2867.182925510206
 20
471.3154311063044
 30
0.0
 11
2867.182925510206
 21
577.1559507517486
 31
0.0
  0
LINE
  5
7CC
330
1F
100
AcDbEntity
  8
STAVBA OBRYS
100
AcDbLine
 10
3029.875004920862
 20
621.5500734740817
 30
0.0
 11
3175.997448646577
 21
621.5500734740817
 31
0.0
  0
HATCH
  5
7CD
330
1F
100
AcDbEntity
  8
STAVBA OBRYS
100
AcDbHatch
 10
0.0
 20
0.0
 30
0.0
210
0.0
220
0.0
230
1.0
  2
AR-CONC
 70
     0
 71
     0
 91
        1
 92
        7
 72
     0
 73
     1
 93
        5
 10
3164.632997966503
 20
577.1559507517486
 10
2867.182925510203
 20
577.1559507517486
 10
2867.182925510203
 20
471.3154311063044
 10
2922.687544123099
 20
471.3154311063044
 10
3137.538885239294
 20
471.3154311063044
 97
        0
 75
     0
 76
     1
 52
0.0
 41
0.35
 77
     0
 78
    13
 53
50.0
 43
1772.131701486502
 44
-1072.351914571976
 45
63.7646341486014
 46
-5.57867993861608
 79
     2
 49
6.667499999999999
 49
-73.3425
 53
355.0
 43
1772.131701486502
 44
-1072.351914571976
 45
-12.33498909148344
 46
66.86982500876299
 79
     2
 49
5.333999999999999
 49
-58.67399999999999
 53
100.451
 43
1777.445401486501
 44
-1072.816802071976
 45
51.42987558308573
 46
61.29084073710215
 79
     2
 49
5.6665
 49
-62.3315
 53
46.1842
 43
1772.131701486502
 44
-1054.571914571976
 45
94.87766431224546
 46
-14.7148147764545
 79
     2
 49
10.00124999999999
 49
-110.0137499999999
 53
96.63559999999998
 43
1780.038166486502
 44
-1055.798139571976
 45
83.09148206318299
 46
86.59894456151723
 79
     2
 49
8.499749999999977
 49
-93.49724999999983
 53
351.184
 43
1772.131701486502
 44
-1054.571914571976
 45
83.09161203487688
 46
86.59879125120918
 79
     2
 49
8.000999999999999
 49
-88.01099999999999
 53
21.0
 43
1781.021701486502
 44
-1059.016914571976
 45
53.06520794238414
 46
-35.79293148086687
 79
     2
 49
6.667499999999999
 49
-73.3425
 53
326.0
 43
1781.021701486502
 44
-1059.016914571976
 45
21.63070992167647
 46
64.46578814281174
 79
     2
 49
5.333999999999999
 49
-58.67399999999999
 53
71.45140000000001
 43
1785.443776486504
 44
-1061.999649571977
 45
74.69577176954356
 46
28.6730002006201
 79
     2
 49
5.6665
 49
-62.3315
 53
37.5
 43
1772.131701486502
 44
-1072.351914571976
 45
1.081011137707135
 46
29.59426360560359
 79
     6
 49
0.0
 49
-57.96279999999999
 49
0.0
 49
-59.56299999999999
 49
0.0
 49
-58.89624999999999
 53
7.499999999999999
 43
1772.131701486502
 44
-1072.351914571976
 45
23.38688187860701
 46
35.06320118634183
 79
     6
 49
0.0
 49
-33.95979999999999
 49
0.0
 49
-56.62929999999999
 49
0.0
 49
-22.44725
 53
327.4999999999999
 43
1752.307001486501
 44
-1072.351914571976
 45
47.45670830840498
 46
-2.005060397435712
 79
     6
 49
0.0
 49
-22.22499999999999
 49
0.0
 49
-69.342
 49
0.0
 49
-92.01149999999998
 53
317.5
 43
1743.417001486502
 44
-1072.351914571976
 45
51.84521348510632
 46
8.899271861666553
 79
     6
 49
0.0
 49
-28.8925
 49
0.0
 49
-46.05019999999999
 49
0.0
 49
-65.3415
 47
1.943322863705773
 98
        1
 10
2981.769672374543
 20
534.7707192012166
  0
LINE
  5
7CE
330
1F
100
AcDbEntity
  8
STAVBA OBRYS
100
AcDbLine
 10
2867.182925510203
 20
577.1559507517486
 30
0.0
 11
3164.632997966503
 21
577.1559507517486
 31
0.0
  0
LINE
  5
7CF
330
1F
100
AcDbEntity
  8
STAVBA OBRYS
100
AcDbLine
 10
2867.182925510206
 20
471.3154311063044
 30
0.0
 11
3137.538885239294
 21
471.3154311063044
 31
0.0
  0
LINE
  5
7D0
330
1F
100
AcDbEntity
  8
STAVBA OBRYS
100
AcDbLine
 10
3029.638253144437
 20
577.1559507517486
 30
0.0
 11
3030.473364784547
 21
1045.803407731453
 31
0.0
  0
LINE
  5
7D1
330
1F
100
AcDbEntity
  8
STAVBA OBRYS
100
AcDbLine
 10
3029.522228250263
 20
423.5790698166165
 30
0.0
 11
3029.607292599544
 21
471.3154311063044
 31
0.0
  0
LINE
  5
7D2
330
1F
100
AcDbEntity
  8
POPIS
100
AcDbLine
 10
2509.118769765465
 20
907.8377035706653
 30
0.0
 11
2706.943481864295
 21
907.8377035706635
 31
0.0
  0
TEXT
  5
7D3
330
1F
100
AcDbEntity
  8
POPIS
100
AcDbText
 10
2467.73915972747
 20
897.1373725584181
 30
0.0
 40
25.0
  1
05
 41
0.7
  7
SIMPLEX7
100
AcDbText
  0
TEXT
  5
7D4
330
1F
100
AcDbEntity
  8
POPIS
100
AcDbText
 10
2448.789176122577
 20
98.95148964186592
 30
0.0
 40
25.0
  1
06
 41
0.85
  7
SIMPLEX7
100
AcDbText
  0
TEXT
  5
7D5
330
1F
100
AcDbEntity
  8
POPIS
100
AcDbText
 10
2448.789176122577
 20
134.5703783399549
 30
0.0
 40
25.0
  1
05
 41
0.85
  7
SIMPLEX7
100
AcDbText
  0
TEXT
  5
7D6
330
1F
100
AcDbEntity
  8
POPIS
100
AcDbText
 10
2503.132879282323
 20
-78.04228894889639
 30
0.0
 40
25.0
  1
Tepelná izolace (np. ORSIL, ROCKWOOL, ISOVER, NOBASIL)
 41
0.7
  7
SIMPLEX7
100
AcDbText
  0
TEXT
  5
7D7
330
1F
100
AcDbEntity
  8
POPIS
100
AcDbText
 10
2448.789176122577
 20
-78.04228894889639
 30
0.0
 40
25.0
  1
08
 41
0.85
  7
SIMPLEX7
100
AcDbText
  0
LINE
  5
7D8
330
1F
100
AcDbEntity
  8
STAVBA OBRYS
100
AcDbLine
 10
2792.929357675618
 20
951.9811240177878
 30
0.0
 11
2792.929357675625
 21
1065.043596632829
 31
0.0
  0
LINE
  5
7D9
330
1F
100
AcDbEntity
  8
STAVBA OBRYS
100
AcDbLine
 10
2709.25794474387
 20
949.3405023893956
 30
0.0
 11
2709.257944743873
 21
1012.720307774343
 31
0.0
  0
LINE
  5
7DA
330
1F
100
AcDbEntity
  8
STAVBA OBRYS
100
AcDbLine
 10
2709.257944743866
 20
512.0822592853674
 30
0.0
 11
2709.257944743873
 21
949.3405023893956
 31
0.0
  0
TEXT
  5
7DB
330
1F
100
AcDbEntity
  8
POPIS
100
AcDbText
 10
2503.132879282323
 20
60.76814979934169
 30
0.0
 40
25.0
  1
Oplechování - klempířský výrobek
 41
0.7
  7
SIMPLEX7
100
AcDbText
  0
TEXT
  5
7DC
330
1F
100
AcDbEntity
  8
POPIS
100
AcDbText
 10
2448.789176122577
 20
60.76814979934169
 30
0.0
 40
25.0
  1
07
 41
0.85
  7
SIMPLEX7
100
AcDbText
  0
TEXT
  5
7DD
330
1F
100
AcDbEntity
  8
POPIS
100
AcDbText
 10
2448.789176122577
 20
170.6771998271433
 30
0.0
 40
25.0
  1
04
 41
0.85
  7
SIMPLEX7
100
AcDbText
  0
TEXT
  5
7DE
330
1F
100
AcDbEntity
  8
POPIS
100
AcDbText
 10
2503.132879282323
 20
206.0813610453078
 30
0.0
 40
25.0
  1
Vzduchová mezera - min. 25 mm
 41
0.7
  7
SIMPLEX7
100
AcDbText
  0
TEXT
  5
7DF
330
1F
100
AcDbEntity
  8
POPIS
100
AcDbText
 10
2448.789176122577
 20
206.0813610453078
 30
0.0
 40
25.0
  1
03
 41
0.85
  7
SIMPLEX7
100
AcDbText
  0
TEXT
  5
7E0
330
1F
100
AcDbEntity
  8
POPIS
100
AcDbText
 10
2503.132879282323
 20
240.0315492900299
 30
0.0
 40
25.0
  1
Nerezový vrut s podložkou (np. SFS, EJOT)
 41
0.7
  7
SIMPLEX7
100
AcDbText
  0
TEXT
  5
7E1
330
1F
100
AcDbEntity
  8
POPIS
100
AcDbText
 10
2448.789176122577
 20
240.0315492900299
 30
0.0
 40
25.0
  1
02
 41
0.85
  7
SIMPLEX7
100
AcDbText
  0
TEXT
  5
7E2
330
1F
100
AcDbEntity
  8
POPIS
100
AcDbText
 10
2503.132879282323
 20
276.6265609056572
 30
0.0
 40
25.0
  1
Deska CETRIS   (BASIC,FINISH,LASUR)
 41
0.7
  7
SIMPLEX7
100
AcDbText
  0
TEXT
  5
7E3
330
1F
100
AcDbEntity
  8
POPIS
100
AcDbText
 10
2448.789176122577
 20
276.6265609056572
 30
0.0
 40
25.0
  1
01
 41
0.85
  7
SIMPLEX7
100
AcDbText
  0
TEXT
  5
7E4
330
1F
100
AcDbEntity
  8
POPIS
100
AcDbText
 10
2469.141283422196
 20
585.3013985180478
 30
0.0
 40
25.0
  1
06
 41
0.7
  7
SIMPLEX7
100
AcDbText
  0
LINE
  5
7E5
330
1F
100
AcDbEntity
  8
POPIS
100
AcDbLine
 10
2509.118769765465
 20
598.7447399674165
 30
0.0
 11
2738.980398025288
 21
598.7447399674165
 31
0.0
  0
TEXT
  5
7E6
330
1F
100
AcDbEntity
  8
POPIS
100
AcDbText
 10
2468.583334470914
 20
1004.968115598072
 30
0.0
 40
25.0
  1
02
 41
0.7
  7
SIMPLEX7
100
AcDbText
  0
LINE
  5
7E7
330
1F
100
AcDbEntity
  8
POPIS
100
AcDbLine
 10
2509.118769765465
 20
1018.411457047443
 30
0.0
 11
2663.568724088873
 21
1018.411457047443
 31
0.0
  0
LINE
  5
7E8
330
1F
100
AcDbEntity
  8
STAVBA OBRYS
100
AcDbLine
 10
2659.095828886483
 20
486.2159054121666
 30
0.0
 11
2792.929357675618
 21
486.2159054121685
 31
0.0
  0
LINE
  5
7E9
330
1F
100
AcDbEntity
  8
STAVBA OBRYS
100
AcDbLine
 10
2659.095828886483
 20
416.4334935799397
 30
0.0
 11
2659.095828886483
 21
486.2159054121666
 31
0.0
  0
TEXT
  5
7EA
330
1F
100
AcDbEntity
  8
POPIS
100
AcDbText
 10
2470.815118667743
 20
1048.907762086935
 30
0.0
 40
25.0
  1
01
 41
0.7
  7
SIMPLEX7
100
AcDbText
  0
LINE
  5
7EB
330
1F
100
AcDbEntity
  8
POPIS
100
AcDbLine
 10
2509.118769765465
 20
1062.351103536306
 30
0.0
 11
2671.955300220787
 21
1062.351103536304
 31
0.0
  0
TEXT
  5
7EC
330
1F
100
AcDbEntity
  8
POPIS
100
AcDbText
 10
2467.73915972747
 20
720.5014113511479
 30
0.0
 40
25.0
  1
09
 41
0.7
  7
SIMPLEX7
100
AcDbText
  0
LINE
  5
7ED
330
1F
100
AcDbEntity
  8
POPIS
100
AcDbLine
 10
2509.118769765465
 20
733.9447528005185
 30
0.0
 11
2714.631226068719
 21
733.9934358733426
 31
0.0
  0
LINE
  5
7EE
330
1F
100
AcDbEntity
  8
STAVBA OBRYS
  6
IZOLACE
 48
4.0
100
AcDbLine
 10
2750.011557020469
 20
612.0822592853674
 30
0.0
 11
2750.011557020481
 21
1068.51978027512
 31
0.0
  0
LINE
  5
7EF
330
1F
100
AcDbEntity
  8
STAVBA OBRYS
100
AcDbLine
 10
2792.929357675618
 20
486.2159054121685
 30
0.0
 11
2792.929357675622
 21
951.9811240177878
 31
0.0
  0
INSERT
  5
7F0
330
1F
100
AcDbEntity
  8
POPIS
100
AcDbBlockReference
  2
E_PUNKT
 10
2636.546725846919
 20
480.7121623323109
 30
0.0
  0
TEXT
  5
7F1
330
1F
100
AcDbEntity
  8
POPIS
100
AcDbText
 10
2467.73915972747
 20
467.5697696735078
 30
0.0
 40
25.0
  1
07
 41
0.7
  7
SIMPLEX7
100
AcDbText
  0
LINE
  5
7F2
330
1F
100
AcDbEntity
  8
POPIS
100
AcDbLine
 10
2509.118769765465
 20
481.0131111228802
 30
0.0
 11
2639.156372864226
 21
481.0131111228783
 31
0.0
  0
LINE
  5
7F3
330
1F
100
AcDbEntity
  8
PROFILY
100
AcDbLine
 10
2637.86038727787
 20
494.7879442783214
 30
0.0
 11
2637.86038727787
 21
479.8084132843596
 31
0.0
  0
ARC
  5
7F4
330
1F
100
AcDbEntity
  8
PROFILY
100
AcDbCircle
 10
2637.167736888551
 20
478.0948993967431
 30
0.0
 40
0.8125
100
AcDbArc
 50
180.0
 51
315.3132330916637
  0
LINE
  5
7F5
330
1F
100
AcDbEntity
  8
PROFILY
100
AcDbLine
 10
2645.318860485674
 20
485.2158725421868
 30
0.0
 11
2644.252417618169
 21
486.2707183178081
 31
0.0
  0
LINE
  5
7F6
330
1F
100
AcDbEntity
  8
PROFILY
100
AcDbLine
 10
2637.86038727787
 20
479.8084132843596
 30
0.0
 11
2644.252417618169
 21
486.2707183178081
 31
0.0
  0
LINE
  5
7F7
330
1F
100
AcDbEntity
  8
PROFILY
100
AcDbLine
 10
2637.86038727787
 20
494.7879442783214
 30
0.0
 11
2682.287056429803
 21
501.7596468900465
 31
0.0
  0
LINE
  5
7F8
330
1F
100
AcDbEntity
  8
PROFILY
100
AcDbLine
 10
2682.287056429803
 20
501.7596468900465
 30
0.0
 11
2682.287056429796
 21
536.7461824853362
 31
0.0
  0
LINE
  5
7F9
330
1F
100
AcDbEntity
  8
POPIS
100
AcDbLine
 10
2509.118769765465
 20
967.6622690573495
 30
0.0
 11
2694.646276699282
 21
967.6622690573495
 31
0.0
  0
TEXT
  5
7FA
330
1F
100
AcDbEntity
  8
POPIS
100
AcDbText
 10
2437.300615071476
 20
954.2189276079808
 30
0.0
 40
25.0
  1
03,04
 41
0.7
  7
SIMPLEX7
100
AcDbText
  0
TEXT
  5
7FB
330
1F
100
AcDbEntity
  8
POPIS
100
AcDbText
 10
2390.974521831497
 20
1100.216300283151
 30
0.0
 40
35.0
  1
ŘEZ-ŘEŠENÍ OPLECHOVÁNÍM
 41
0.85
  7
SIMPLEX7
100
AcDbText
  0
TEXT
  5
7FC
330
1F
100
AcDbEntity
  8
POPIS
100
AcDbText
 10
2390.974521831497
 20
1154.841043308951
 30
0.0
 40
50.0
  1
SPODNÍ ZAKONČENÍ
 41
0.85
  7
SIMPLEX7
100
AcDbText
  0
TEXT
  5
7FD
330
1F
100
AcDbEntity
  8
POPIS
100
AcDbText
 10
2388.328728021574
 20
382.502050756666
 30
0.0
 40
25.0
  1
TERÉN
 41
0.7
  7
SIMPLEX7
100
AcDbText
  0
LINE
  5
7FE
330
1F
100
AcDbEntity
  8
STAVBA OBRYS
100
AcDbLine
 10
3039.739735065254
 20
634.0966053391094
 30
0.0
 11
3040.473348907658
 21
1045.785588146565
 31
0.0
  0
HATCH
  5
7FF
330
1F
100
AcDbEntity
  8
STAVBA OBRYS
100
AcDbHatch
 10
0.0
 20
0.0
 30
0.0
210
0.0
220
0.0
230
1.0
  2
AR-SAND
 70
     0
 71
     0
 91
        1
 92
        7
 72
     0
 73
     1
 93
        4
 10
3040.473348907658
 20
1045.785588146565
 10
3030.473364784547
 20
1045.803407731451
 10
3029.739719188333
 20
634.0966053391094
 10
3039.739735065251
 20
634.0966053391094
 97
        0
 75
     0
 76
     1
 52
0.0
 41
0.1
 77
     0
 78
     4
 53
37.5
 43
-7593.972909492524
 44
4102.757225764704
 45
-0.1600031295984046
 46
4.894132373293423
 79
     6
 49
0.0
 49
-3.8608
 49
0.0
 49
-4.318
 49
0.0
 49
-4.1275
 53
7.499999999999999
 43
-7593.972909492524
 44
4102.757225764704
 45
4.495232831380026
 46
7.168251005683543
 79
     6
 49
0.0
 49
-2.0828
 49
0.0
 49
-3.4798
 49
0.0
 49
-1.3335
 53
327.4999999999999
 43
-7597.097109492523
 44
4102.757225764704
 45
7.909923702414579
 46
0.0143718467854569
 79
     6
 49
0.0
 49
-1.27
 49
0.0
 49
-4.572
 49
0.0
 49
-5.969
 53
317.5
 43
-7597.097109492523
 44
4102.757225764704
 45
7.635564524722972
 46
2.229293232572162
 79
     6
 49
0.0
 49
-0.635
 49
0.0
 49
-2.997199999999999
 49
0.0
 49
-3.429
 47
0.6547511084991024
 98
        1
 10
3035.423659743381
 20
949.5685582171645
  0
LINE
  5
800
330
1F
100
AcDbEntity
  8
PROFILY
100
AcDbLine
 10
2578.145549446472
 20
-11.32323777644705
 30
0.0
 11
2578.145549446472
 21
52.62952784336812
 31
0.0
  0
LINE
  5
801
330
1F
100
AcDbEntity
  8
PROFILY
100
AcDbLine
 10
2575.804452116744
 20
-9.442993693104654
 30
0.0
 11
2575.804452116744
 21
52.62952784336448
 31
0.0
  0
LINE
  5
802
330
1F
100
AcDbEntity
  8
PROFILY
100
AcDbLine
 10
2533.586741087562
 20
-18.31567647467091
 30
0.0
 11
2578.145549446472
 21
-11.32323777644705
 31
0.0
  0
LINE
  5
803
330
1F
100
AcDbEntity
  8
PROFILY
100
AcDbLine
 10
2531.149241087562
 20
-16.2159983344718
 30
0.0
 11
2575.804452116744
 21
-9.442993693104654
 31
0.0
  0
HATCH
  5
804
330
1F
100
AcDbEntity
  8
PROFILY
100
AcDbHatch
 10
0.0
 20
0.0
 30
0.0
210
0.0
220
0.0
230
1.0
  2
SOLID
 70
     1
 71
     0
 91
        5
 92
        7
 72
     1
 73
     1
 93
        9
 10
2531.149241087562
 20
-16.2159983344718
 42
0.0
 10
2531.149241087562
 20
-17.29578064889938
 42
0.0
 10
2532.257322575443
 20
-17.29578064889938
 42
-0.8959696833012131
 10
2534.727396759925
 20
-17.56766110859462
 42
-0.1240761635642614
 10
2534.578080617107
 20
-18.16010945785092
 42
0.0
 10
2578.145549446472
 20
-11.32323777644705
 42
0.0
 10
2578.145549446472
 20
41.17613818860263
 42
0.0
 10
2575.804452116744
 20
41.17613818860263
 42
0.0
 10
2575.804452116744
 20
-9.442993693104654
 42
0.0
 97
        0
 92
        7
 72
     1
 73
     1
 93
        8
 10
2541.711741087562
 20
-28.54702682056267
 42
0.0
 10
2539.978771427862
 20
-26.83290243518422
 42
0.0
 10
2533.586741087562
 20
-33.29520746863272
 42
0.0
 10
2533.586741087562
 20
-18.81286945180909
 42
-0.5072240797221012
 10
2532.257322575443
 20
-17.29578064889938
 42
0.0
 10
2531.149241087562
 20
-17.29578064889938
 42
0.0
 10
2531.149241087562
 20
-37.2488372371572
 42
0.6701573805505898
 10
2532.539397640798
 20
-37.82021203228578
 42
0.0
 97
        0
 92
        7
 72
     0
 73
     1
 93
        4
 10
2578.145549446472
 20
52.62952784336812
 10
2575.804452116744
 20
52.62952784336448
 10
2575.804452116744
 20
47.49162758615966
 10
2578.145549446472
 20
47.49162758615966
 97
        0
 92
        7
 72
     0
 73
     1
 93
        5
 10
2575.973667888994
 20
41.17613818860263
 10
2577.731480388994
 20
41.17613818860263
 10
2578.145549446472
 20
42.7214649489506
 10
2578.145549446472
 20
47.49162758615966
 10
2577.665898172873
 20
47.49162758615966
 97
        0
 92
        7
 72
     0
 73
     1
 93
        5
 10
2577.665898172873
 20
47.49162758615966
 10
2575.908085672876
 20
47.49162758615966
 10
2575.804452116744
 20
47.10486188930736
 10
2575.804452116744
 20
41.17613818860263
 10
2575.973667888994
 20
41.17613818860263
 97
        0
 75
     0
 76
     1
 47
0.0616332266500822
 98
        5
 10
2540.335903266639
 20
-15.54193322759783
 10
2533.294010231152
 20
-35.01267837926025
 10
2577.11248481631
 20
50.64987850135185
 10
2577.280732092164
 20
44.31155334313189
 10
2576.510423751964
 20
45.65877973610804
  0
LINE
  5
805
330
1F
100
AcDbEntity
  8
PROFILY
100
AcDbLine
 10
2533.586741087562
 20
-33.29520746863272
 30
0.0
 11
2539.978771427862
 21
-26.83290243518422
 31
0.0
  0
LINE
  5
806
330
1F
100
AcDbEntity
  8
PROFILY
100
AcDbLine
 10
2532.539397640795
 20
-37.8202120322876
 30
0.0
 11
2541.711741087562
 21
-28.54702682056267
 31
0.0
  0
LINE
  5
807
330
1F
100
AcDbEntity
  8
PROFILY
100
AcDbLine
 10
2533.586741087562
 20
-18.31567647467091
 30
0.0
 11
2533.586741087562
 21
-33.29520746863272
 31
0.0
  0
LINE
  5
808
330
1F
100
AcDbEntity
  8
PROFILY
100
AcDbLine
 10
2531.149241087562
 20
-16.2159983344718
 30
0.0
 11
2531.149241087562
 21
-37.2488372371572
 31
0.0
  0
TEXT
  5
809
330
1F
100
AcDbEntity
  8
POPIS
100
AcDbText
 10
2646.638128449832
 20
26.97657432738378
 30
0.0
 40
25.0
  1
- PROTECTOR profil 9083
 41
0.7
  7
SIMPLEX7
100
AcDbText
  0
LINE
  5
80A
330
1F
100
AcDbEntity
  8
PROFILY
100
AcDbLine
 10
2792.578461860617
 20
510.1038839719458
 30
0.0
 11
2680.792777049981
 21
510.1038839719458
 31
0.0
  0
LINE
  5
80B
330
1F
100
AcDbEntity
  8
PROFILY
100
AcDbLine
 10
2792.578461860617
 20
511.7612356779373
 30
0.0
 11
2682.287056429803
 21
511.7612356779354
 31
0.0
  0
LINE
  5
80C
330
1F
100
AcDbEntity
  8
PROFILY
100
AcDbLine
 10
2682.287056429803
 20
511.7612356779354
 30
0.0
 11
2682.2870564298
 21
532.8051432868724
 31
0.0
  0
LINE
  5
80D
330
1F
100
AcDbEntity
  8
PROFILY
100
AcDbLine
 10
2680.792777049971
 20
532.8051432868724
 30
0.0
 11
2680.792777049981
 21
510.1038839719458
 31
0.0
  0
LINE
  5
80E
330
1F
100
AcDbEntity
  8
PROFILY
100
AcDbLine
 10
2684.622496764813
 20
510.1038839719458
 30
0.0
 11
2684.622496764813
 21
511.7465824908231
 31
0.0
  0
LINE
  5
80F
330
1F
100
AcDbEntity
  8
PROFILY
100
AcDbLine
 10
2692.762739369257
 20
510.1038839719458
 30
0.0
 11
2692.762739369257
 21
511.7465824908231
 31
0.0
  0
LINE
  5
810
330
1F
100
AcDbEntity
  8
PROFILY
100
AcDbLine
 10
2735.540906151266
 20
510.1038839719458
 30
0.0
 11
2735.540906151266
 21
511.7465824908231
 31
0.0
  0
LINE
  5
811
330
1F
100
AcDbEntity
  8
PROFILY
100
AcDbLine
 10
2721.281517223932
 20
510.1038839719458
 30
0.0
 11
2721.281517223932
 21
511.7465824908231
 31
0.0
  0
LINE
  5
812
330
1F
100
AcDbEntity
  8
PROFILY
100
AcDbLine
 10
2778.319072933279
 20
510.1038839719458
 30
0.0
 11
2778.319072933279
 21
511.7465824908231
 31
0.0
  0
LINE
  5
813
330
1F
100
AcDbEntity
  8
PROFILY
100
AcDbLine
 10
2764.059684005941
 20
510.1038839719458
 30
0.0
 11
2764.059684005941
 21
511.7465824908231
 31
0.0
  0
LINE
  5
814
330
1F
100
AcDbEntity
  8
PROFILY
100
AcDbLine
 10
2749.800295078604
 20
510.1038839719458
 30
0.0
 11
2749.800295078604
 21
511.7465824908231
 31
0.0
  0
LINE
  5
815
330
1F
100
AcDbEntity
  8
PROFILY
100
AcDbLine
 10
2792.578461860617
 20
510.1038839719458
 30
0.0
 11
2792.578461860617
 21
511.7465824908231
 31
0.0
  0
LINE
  5
816
330
1F
100
AcDbEntity
  8
POPIS
100
AcDbLine
 10
2509.118769765465
 20
439.1536576879407
 30
0.0
 11
2639.156372864226
 21
439.1536576879389
 31
0.0
  0
TEXT
  5
817
330
1F
100
AcDbEntity
  8
POPIS
100
AcDbText
 10
2467.73915972747
 20
425.7103162385683
 30
0.0
 40
25.0
  1
10
 41
0.7
  7
SIMPLEX7
100
AcDbText
  0
LINE
  5
818
330
1F
100
AcDbEntity
  8
POPIS
100
AcDbLine
 10
2639.156372864226
 20
439.1536576879389
 30
0.0
 11
2748.325854941836
 21
510.1038839719458
 31
0.0
  0
INSERT
  5
819
330
1F
100
AcDbEntity
  8
POPIS
100
AcDbBlockReference
  2
E_PUNKT
 10
2749.529774167787
 20
510.2889063705315
 30
0.0
  0
HATCH
  5
81A
330
1F
100
AcDbEntity
  8
PROFILY
100
AcDbHatch
 10
0.0
 20
0.0
 30
0.0
210
0.0
220
0.0
230
1.0
  2
SOLID
 70
     1
 71
     0
 91
        1
 92
        7
 72
     0
 73
     1
 93
        4
 10
2514.012761265743
 20
-175.6571280861171
 10
2512.513178632767
 20
-175.6571280861171
 10
2512.513178632767
 20
-180.0956961274714
 10
2514.012761265743
 20
-180.0956961274714
 97
        0
 75
     0
 76
     1
 47
0.0099002372419542
 98
        1
 10
2513.547192056456
 20
-176.8880058109716
  0
LWPOLYLINE
  5
81B
330
1F
100
AcDbEntity
  8
PROFILY
100
AcDbPolyline
 90
        4
 70
     1
 43
0.0
 10
2512.513178632767
 20
-175.6571280861171
 10
2514.012761265743
 20
-175.6571280861171
 10
2514.012761265743
 20
-180.0956961274714
 10
2512.513178632767
 20
-180.0956961274714
  0
LINE
  5
81C
330
1F
100
AcDbEntity
  8
PROFILY
100
AcDbLine
 10
2630.418788226664
 20
-193.7258599956858
 30
0.0
 11
2630.418788226664
 21
-192.0831614768085
 31
0.0
  0
LINE
  5
81D
330
1F
100
AcDbEntity
  8
PROFILY
100
AcDbLine
 10
2644.678177154001
 20
-193.7258599956858
 30
0.0
 11
2644.678177154001
 21
-192.0831614768085
 31
0.0
  0
LINE
  5
81E
330
1F
100
AcDbEntity
  8
PROFILY
100
AcDbLine
 10
2587.640621444651
 20
-193.7258599956858
 30
0.0
 11
2587.640621444651
 21
-192.0831614768085
 31
0.0
  0
LINE
  5
81F
330
1F
100
AcDbEntity
  8
PROFILY
100
AcDbLine
 10
2601.900010371989
 20
-193.7258599956858
 30
0.0
 11
2601.900010371989
 21
-192.0831614768085
 31
0.0
  0
LINE
  5
820
330
1F
100
AcDbEntity
  8
PROFILY
100
AcDbLine
 10
2616.159399299327
 20
-193.7258599956858
 30
0.0
 11
2616.159399299327
 21
-192.0831614768085
 31
0.0
  0
LINE
  5
821
330
1F
100
AcDbEntity
  8
PROFILY
100
AcDbLine
 10
2573.381232517317
 20
-193.7258599956858
 30
0.0
 11
2573.381232517317
 21
-192.0831614768085
 31
0.0
  0
LINE
  5
822
330
1F
100
AcDbEntity
  8
PROFILY
100
AcDbLine
 10
2544.862454662642
 20
-193.7258599956858
 30
0.0
 11
2544.862454662642
 21
-192.0831614768085
 31
0.0
  0
HATCH
  5
823
330
1F
100
AcDbEntity
  8
PROFILY
100
AcDbHatch
 10
0.0
 20
0.0
 30
0.0
210
0.0
220
0.0
230
1.0
  2
SOLID
 70
     1
 71
     0
 91
        5
 92
        7
 72
     0
 73
     1
 93
        4
 10
2644.678177154001
 20
-192.0831614768067
 10
2630.418788226664
 20
-192.0831614768085
 10
2630.418788226664
 20
-193.7258599956858
 10
2644.678177154001
 20
-193.7258599956858
 97
        0
 92
        7
 72
     0
 73
     1
 93
        4
 10
2616.159399299327
 20
-192.0831614768085
 10
2601.900010371989
 20
-192.0831614768085
 10
2601.900010371989
 20
-193.7258599956858
 10
2616.159399299327
 20
-193.7258599956858
 97
        0
 92
        7
 72
     0
 73
     1
 93
        4
 10
2587.640621444651
 20
-192.0831614768085
 10
2573.381232517317
 20
-192.0831614768085
 10
2573.381232517317
 20
-193.7258599956876
 10
2587.640621444651
 20
-193.7258599956858
 97
        0
 92
        7
 72
     0
 73
     1
 93
        4
 10
2559.121843589976
 20
-192.0831614768085
 10
2544.862454662642
 20
-192.0831614768103
 10
2544.862454662642
 20
-193.7258599956858
 10
2559.121843589976
 20
-193.7258599956858
 97
        0
 92
        7
 72
     0
 73
     1
 93
        4
 10
2530.603065735304
 20
-192.0831614768103
 10
2516.343676807967
 20
-192.0831614768103
 10
2516.343676807967
 20
-193.7258599956858
 10
2530.603065735304
 20
-193.7258599956858
 97
        0
 75
     0
 76
     1
 47
0.2346926121939802
 98
        5
 10
2637.472248555125
 20
-192.6320652394861
 10
2608.117881624262
 20
-192.8667510926207
 10
2583.225399880343
 20
-192.8667510926207
 10
2551.467286060834
 20
-192.8618674958524
 10
2524.696118846784
 20
-192.8618674958524
  0
LINE
  5
824
330
1F
100
AcDbEntity
  8
PROFILY
100
AcDbLine
 10
2644.678177154001
 20
-193.7258599956858
 30
0.0
 11
2512.513957093139
 21
-193.7258599956858
 31
0.0
  0
LINE
  5
825
330
1F
100
AcDbEntity
  8
PROFILY
100
AcDbLine
 10
2644.678177154001
 20
-192.0831614768085
 30
0.0
 11
2514.008236472958
 21
-192.0831614768103
 31
0.0
  0
HATCH
  5
826
330
1F
100
AcDbEntity
  8
PROFILY
100
AcDbHatch
 10
0.0
 20
0.0
 30
0.0
210
0.0
220
0.0
230
1.0
  2
SOLID
 70
     1
 71
     0
 91
        2
 92
        7
 72
     0
 73
     1
 93
        4
 10
2514.008236472958
 20
-170.0744642379195
 10
2512.513957093132
 20
-170.0744642379195
 10
2512.513957093132
 20
-175.6592655221029
 10
2514.008236472958
 20
-175.6592655221029
 97
        0
 92
        7
 72
     0
 73
     1
 93
        7
 10
2514.008236472958
 20
-180.0801081003919
 10
2512.513957093132
 20
-180.0801081003919
 10
2512.513957093132
 20
-188.469787208478
 10
2512.513957093132
 20
-193.7258599956876
 10
2516.343676807967
 20
-193.7258599956876
 10
2516.343676807967
 20
-192.0831614768103
 10
2514.008236472958
 20
-192.0831614768103
 97
        0
 75
     0
 76
     1
 47
0.169069331426656
 98
        2
 10
2513.387885208122
 20
-172.8928061552069
 10
2513.218736167034
 20
-187.0946299950483
  0
LINE
  5
827
330
1F
100
AcDbEntity
  8
PROFILY
100
AcDbLine
 10
2514.008236472958
 20
-175.6592655221029
 30
0.0
 11
2514.008236472958
 21
-170.0744642379195
 31
0.0
  0
LINE
  5
828
330
1F
100
AcDbEntity
  8
PROFILY
100
AcDbLine
 10
2512.513957093139
 20
-170.0744642379195
 30
0.0
 11
2514.008236472958
 21
-170.0744642379195
 31
0.0
  0
TEXT
  5
829
330
1F
100
AcDbEntity
  8
POPIS
100
AcDbText
 10
2503.509039483878
 20
-149.0577314392939
 30
0.0
 40
25.0
  1
Perforovaný odvětrávací profil (PROTECTOR 3613)
 41
0.7
  7
SIMPLEX7
100
AcDbText
  0
TEXT
  5
82A
330
1F
100
AcDbEntity
  8
POPIS
100
AcDbText
 10
2449.165336324132
 20
-149.0577314392939
 30
0.0
 40
25.0
  1
10
 41
0.85
  7
SIMPLEX7
100
AcDbText
  0
LINE
  5
888
330
1F
100
AcDbEntity
  8
PROFILY
100
AcDbLine
 10
2681.2551287121
 20
509.0987879095703
 30
0.0
 11
2681.2551287121
 21
1072.075550159466
 31
0.0
  0
LINE
  5
889
330
1F
100
AcDbEntity
  8
PROFILY
  6
DASHED
370
    40
100
AcDbLine
 10
2681.4551287121
 20
509.0987879095703
 30
0.0
 11
2681.4551287121
 21
1072.075550159466
 31
0.0
  0
LINE
  5
88A
330
1F
100
AcDbEntity
  8
PROFILY
100
AcDbLine
 10
2681.6551287121
 20
509.0987879095703
 30
0.0
 11
2681.6551287121
 21
1072.075550159466
 31
0.0
  0
TEXT
  5
88B
330
1F
100
AcDbEntity
  8
POPIS
100
AcDbText
 10
2503.016034970213
 20
-232.3360430138345
 30
0.0
 40
25.0
  1
Podkladní EPDM páska tl.1 mm
 41
0.7
  7
SIMPLEX7
100
AcDbText
  0
TEXT
  5
88C
330
1F
100
AcDbEntity
  8
POPIS
100
AcDbText
 10
2448.672331810471
 20
-232.3360430138345
 30
0.0
 40
25.0
  1
11
 41
0.85
  7
SIMPLEX7
100
AcDbText
  0
LINE
  5
88D
330
1F
100
AcDbEntity
  8
POPIS
100
AcDbLine
 10
2613.849896418239
 20
570.2258361002
 30
0.0
 11
2613.849896418239
 21
505.8315513537031
 31
0.0
  0
LINE
  5
88E
330
1F
100
AcDbEntity
  8
POPIS
100
AcDbLine
 10
2644.832906274142
 20
560.9346200173304
 30
0.0
 11
2601.349896418239
 21
560.9346200173304
 31
0.0
  0
LINE
  5
88F
330
1F
100
AcDbEntity
  8
POPIS
100
AcDbLine
 10
2642.643964041139
 20
509.9717526822892
 30
0.0
 11
2601.349896418239
 21
509.9717526822892
 31
0.0
  0
INSERT
  5
890
330
1F
100
AcDbEntity
  8
POPIS
100
AcDbBlockReference
  2
_ArchTick
 10
2613.849896418239
 20
509.9717526822892
 30
0.0
 41
15.0
 42
15.0
 43
15.0
 50
270.0
  0
TEXT
  5
891
330
1F
100
AcDbEntity
  8
POPIS
100
AcDbText
 10
2608.239986025947
 20
526.0523719115585
 30
0.0
 40
25.0
  1
70
 50
90.0
 41
0.7
  7
SIMPLEX7
100
AcDbText
  0
INSERT
  5
892
330
1F
100
AcDbEntity
  8
POPIS
100
AcDbBlockReference
  2
_ArchTick
 10
2613.849896418239
 20
560.9346200173304
 30
0.0
 41
15.0
 42
15.0
 43
15.0
 50
90.0
  0
LINE
  5
893
330
1F
100
AcDbEntity
  8
POPIS
100
AcDbLine
 10
2509.872684521597
 20
870.2623932214864
 30
0.0
 11
2681.4551287121
 21
870.2623932214846
 31
0.0
  0
TEXT
  5
894
330
1F
100
AcDbEntity
  8
POPIS
100
AcDbText
 10
2467.077111773293
 20
856.8190517721159
 30
0.0
 40
25.0
  1
11
 41
0.7
  7
SIMPLEX7
100
AcDbText
  0
INSERT
  5
895
330
1F
100
AcDbEntity
  8
POPIS
100
AcDbBlockReference
  2
E_PUNKT
 10
2681.515445374244
 20
870.6831362876974
 30
0.0
  0
LINE
  5
896
330
1F
100
AcDbEntity
  8
NOSNÉ KONSTRUKCE
100
AcDbLine
 10
2682.181456033461
 20
897.6452522760503
 30
0.0
 11
2683.931449559765
 21
916.8846626938632
 31
0.0
  0
ENDSEC
  0
SECTION
  2
OBJECTS
  0
DICTIONARY
  5
C
330
0
100
AcDbDictionary
281
     1
  3
ACAD_GROUP
350
D
  3
ACAD_LAYOUT
350
1A
  3
ACAD_MLINESTYLE
350
17
  3
ACAD_PLOTSETTINGS
350
19
  3
ACAD_PLOTSTYLENAME
350
E
  3
AcDbVariableDictionary
350
898
  0
DICTIONARY
  5
82C
330
1F
100
AcDbDictionary
280
     1
281
     1
  3
ACAD_LAYOUTSELFREF
360
868
  0
DICTIONARY
  5
82E
330
1B
100
AcDbDictionary
280
     1
281
     1
  3
ACAD_LAYOUTSELFREF
360
867
  0
DICTIONARY
  5
830
330
23
100
AcDbDictionary
280
     1
281
     1
  3
ACAD_LAYOUTSELFREF
360
869
  0
DICTIONARY
  5
D
102
{ACAD_REACTORS
330
C
102
}
330
C
100
AcDbDictionary
281
     1
  0
DICTIONARY
  5
1A
102
{ACAD_REACTORS
330
C
102
}
330
C
100
AcDbDictionary
281
     1
  3
Model
350
22
  3
Rozvržení1
350
1E
  3
Rozvržení2
350
26
  0
DICTIONARY
  5
17
102
{ACAD_REACTORS
330
C
102
}
330
C
100
AcDbDictionary
281
     1
  3
Standard
350
18
  0
DICTIONARY
  5
19
102
{ACAD_REACTORS
330
C
102
}
330
C
100
AcDbDictionary
281
     1
  0
ACDBDICTIONARYWDFLT
  5
E
102
{ACAD_REACTORS
330
C
102
}
330
C
100
AcDbDictionary
281
     1
  3
Normal
350
F
100
AcDbDictionaryWithDefault
340
F
  0
DICTIONARY
  5
898
102
{ACAD_REACTORS
330
C
102
}
330
C
100
AcDbDictionary
281
     1
  3
DIMASSOC
350
899
  0
XRECORD
  5
868
102
{ACAD_REACTORS
330
82C
102
}
330
82C
100
AcDbXrecord
280
     1
340
1F
  0
XRECORD
  5
867
102
{ACAD_REACTORS
330
82E
102
}
330
82E
100
AcDbXrecord
280
     1
340
1B
  0
XRECORD
  5
869
102
{ACAD_REACTORS
330
830
102
}
330
830
100
AcDbXrecord
280
     1
340
23
  0
LAYOUT
  5
22
102
{ACAD_REACTORS
330
1A
102
}
330
1A
100
AcDbPlotSettings
  1

  2
HP DeskJet 690C
  4

  6

 40
0.0
 41
0.0
 42
0.0
 43
0.0
 44
0.0
 45
0.0
 46
0.0
 47
0.0
 48
0.0
 49
0.0
140
0.0
141
0.0
142
1.0
143
1.0
 70
  1712
 72
     0
 73
     0
 74
     0
  7
monochrome.ctb
 75
     0
147
1.0
148
0.0
149
0.0
100
AcDbLayout
  1
Model
 70
     1
 71
     0
 10
0.0
 20
0.0
 11
12.0
 21
9.0
 12
0.0
 22
0.0
 32
0.0
 14
0.0
 24
0.0
 34
0.0
 15
0.0
 25
0.0
 35
0.0
146
0.0
 13
0.0
 23
0.0
 33
0.0
 16
1.0
 26
0.0
 36
0.0
 17
0.0
 27
1.0
 37
0.0
 76
     0
330
1F
  0
LAYOUT
  5
1E
102
{ACAD_REACTORS
330
1A
102
}
330
1A
100
AcDbPlotSettings
  1

  2
HP DeskJet 690C
  4

  6

 40
0.0
 41
0.0
 42
0.0
 43
0.0
 44
0.0
 45
0.0
 46
0.0
 47
0.0
 48
0.0
 49
0.0
140
0.0
141
0.0
142
1.0
143
1.0
 70
   688
 72
     0
 73
     0
 74
     5
  7
monochrome.ctb
 75
    16
147
1.0
148
0.0
149
0.0
100
AcDbLayout
  1
Rozvržení1
 70
     1
 71
     1
 10
0.0
 20
0.0
 11
420.0
 21
297.0
 12
0.0
 22
0.0
 32
0.0
 14
1.000000000000000E+20
 24
1.000000000000000E+20
 34
1.000000000000000E+20
 15
-1.000000000000000E+20
 25
-1.000000000000000E+20
 35
-1.000000000000000E+20
146
0.0
 13
0.0
 23
0.0
 33
0.0
 16
1.0
 26
0.0
 36
0.0
 17
0.0
 27
1.0
 37
0.0
 76
     0
330
1B
  0
LAYOUT
  5
26
102
{ACAD_REACTORS
330
1A
102
}
330
1A
100
AcDbPlotSettings
  1

  2
HP DeskJet 690C
  4

  6

 40
0.0
 41
0.0
 42
0.0
 43
0.0
 44
0.0
 45
0.0
 46
0.0
 47
0.0
 48
0.0
 49
0.0
140
0.0
141
0.0
142
1.0
143
1.0
 70
   688
 72
     0
 73
     0
 74
     5
  7
monochrome.ctb
 75
    16
147
1.0
148
0.0
149
0.0
100
AcDbLayout
  1
Rozvržení2
 70
     1
 71
     2
 10
0.0
 20
0.0
 11
12.0
 21
9.0
 12
0.0
 22
0.0
 32
0.0
 14
0.0
 24
0.0
 34
0.0
 15
0.0
 25
0.0
 35
0.0
146
0.0
 13
0.0
 23
0.0
 33
0.0
 16
1.0
 26
0.0
 36
0.0
 17
0.0
 27
1.0
 37
0.0
 76
     0
330
23
  0
MLINESTYLE
  5
18
102
{ACAD_REACTORS
330
17
102
}
330
17
100
AcDbMlineStyle
  2
STANDARD
 70
     0
  3

 62
   256
 51
90.0
 52
90.0
 71
     2
 49
0.5
 62
   256
  6
BYLAYER
 49
-0.5
 62
   256
  6
BYLAYER
  0
ACDBPLACEHOLDER
  5
F
102
{ACAD_REACTORS
330
E
102
}
330
E
  0
DICTIONARYVAR
  5
899
102
{ACAD_REACTORS
330
898
102
}
330
898
100
DictionaryVariables
280
     0
  1
1
  0
ENDSEC
  0
EOF
