  0
SECTION
  2
HEADER
  9
$ACADVER
  1
AC1015
  9
$ACADMAINTVER
 70
    14
  9
$DWGCODEPAGE
  3
ANSI_1250
  9
$INSBASE
 10
0.0
 20
0.0
 30
0.0
  9
$EXTMIN
 10
1212.364782476174
 20
-235.9158189487475
 30
-0.0015258207003583
  9
$EXTMAX
 10
1993.017732473336
 20
1129.353809792801
 30
0.0000000349246037
  9
$LIMMIN
 10
0.0
 20
0.0
  9
$LIMMAX
 10
420.0
 20
297.0
  9
$ORTHOMODE
 70
     1
  9
$REGENMODE
 70
     1
  9
$FILLMODE
 70
     1
  9
$QTEXTMODE
 70
     0
  9
$MIRRTEXT
 70
     1
  9
$LTSCALE
 40
1.0
  9
$ATTMODE
 70
     1
  9
$TEXTSIZE
 40
2.5
  9
$TRACEWID
 40
1.0
  9
$TEXTSTYLE
  7
Standard
  9
$CLAYER
  8
0
  9
$CELTYPE
  6
ByLayer
  9
$CECOLOR
 62
   256
  9
$CELTSCALE
 40
1.0
  9
$DISPSILH
 70
     0
  9
$DIMSCALE
 40
1.0
  9
$DIMASZ
 40
2.5
  9
$DIMEXO
 40
0.625
  9
$DIMDLI
 40
3.75
  9
$DIMRND
 40
0.0
  9
$DIMDLE
 40
0.0
  9
$DIMEXE
 40
1.25
  9
$DIMTP
 40
0.0
  9
$DIMTM
 40
0.0
  9
$DIMTXT
 40
2.5
  9
$DIMCEN
 40
2.5
  9
$DIMTSZ
 40
0.0
  9
$DIMTOL
 70
     0
  9
$DIMLIM
 70
     0
  9
$DIMTIH
 70
     0
  9
$DIMTOH
 70
     0
  9
$DIMSE1
 70
     0
  9
$DIMSE2
 70
     0
  9
$DIMTAD
 70
     1
  9
$DIMZIN
 70
     8
  9
$DIMBLK
  1

  9
$DIMASO
 70
     1
  9
$DIMSHO
 70
     1
  9
$DIMPOST
  1

  9
$DIMAPOST
  1

  9
$DIMALT
 70
     0
  9
$DIMALTD
 70
     3
  9
$DIMALTF
 40
0.03937007874016
  9
$DIMLFAC
 40
1.0
  9
$DIMTOFL
 70
     1
  9
$DIMTVP
 40
0.0
  9
$DIMTIX
 70
     0
  9
$DIMSOXD
 70
     0
  9
$DIMSAH
 70
     0
  9
$DIMBLK1
  1

  9
$DIMBLK2
  1

  9
$DIMSTYLE
  2
ISO-25
  9
$DIMCLRD
 70
     0
  9
$DIMCLRE
 70
     0
  9
$DIMCLRT
 70
     0
  9
$DIMTFAC
 40
1.0
  9
$DIMGAP
 40
0.625
  9
$DIMJUST
 70
     0
  9
$DIMSD1
 70
     0
  9
$DIMSD2
 70
     0
  9
$DIMTOLJ
 70
     0
  9
$DIMTZIN
 70
     8
  9
$DIMALTZ
 70
     0
  9
$DIMALTTZ
 70
     0
  9
$DIMUPT
 70
     0
  9
$DIMDEC
 70
     2
  9
$DIMTDEC
 70
     2
  9
$DIMALTU
 70
     2
  9
$DIMALTTD
 70
     3
  9
$DIMTXSTY
  7
Standard
  9
$DIMAUNIT
 70
     0
  9
$DIMADEC
 70
     0
  9
$DIMALTRND
 40
0.0
  9
$DIMAZIN
 70
     0
  9
$DIMDSEP
 70
    44
  9
$DIMATFIT
 70
     3
  9
$DIMFRAC
 70
     0
  9
$DIMLDRBLK
  1

  9
$DIMLUNIT
 70
     2
  9
$DIMLWD
 70
    -2
  9
$DIMLWE
 70
    -2
  9
$DIMTMOVE
 70
     0
  9
$LUNITS
 70
     2
  9
$LUPREC
 70
     4
  9
$SKETCHINC
 40
1.0
  9
$FILLETRAD
 40
10.0
  9
$AUNITS
 70
     0
  9
$AUPREC
 70
     0
  9
$MENU
  1
.
  9
$ELEVATION
 40
0.0
  9
$PELEVATION
 40
0.0
  9
$THICKNESS
 40
0.0
  9
$LIMCHECK
 70
     0
  9
$CHAMFERA
 40
10.0
  9
$CHAMFERB
 40
10.0
  9
$CHAMFERC
 40
20.0
  9
$CHAMFERD
 40
0.0
  9
$SKPOLY
 70
     0
  9
$TDCREATE
 40
2452339.360978703
  9
$TDUCREATE
 40
2452339.319312037
  9
$TDUPDATE
 40
2455610.256413182
  9
$TDUUPDATE
 40
2455610.214746516
  9
$TDINDWG
 40
0.0060118981
  9
$TDUSRTIMER
 40
0.0060112037
  9
$USRTIMER
 70
     1
  9
$ANGBASE
 50
0.0
  9
$ANGDIR
 70
     0
  9
$PDMODE
 70
     0
  9
$PDSIZE
 40
0.0
  9
$PLINEWID
 40
0.0
  9
$SPLFRAME
 70
     0
  9
$SPLINETYPE
 70
     6
  9
$SPLINESEGS
 70
     8
  9
$HANDSEED
  5
492
  9
$SURFTAB1
 70
     6
  9
$SURFTAB2
 70
     6
  9
$SURFTYPE
 70
     6
  9
$SURFU
 70
     6
  9
$SURFV
 70
     6
  9
$UCSBASE
  2

  9
$UCSNAME
  2

  9
$UCSORG
 10
0.0
 20
0.0
 30
0.0
  9
$UCSXDIR
 10
1.0
 20
0.0
 30
0.0
  9
$UCSYDIR
 10
0.0
 20
1.0
 30
0.0
  9
$UCSORTHOREF
  2

  9
$UCSORTHOVIEW
 70
     0
  9
$UCSORGTOP
 10
0.0
 20
0.0
 30
0.0
  9
$UCSORGBOTTOM
 10
0.0
 20
0.0
 30
0.0
  9
$UCSORGLEFT
 10
0.0
 20
0.0
 30
0.0
  9
$UCSORGRIGHT
 10
0.0
 20
0.0
 30
0.0
  9
$UCSORGFRONT
 10
0.0
 20
0.0
 30
0.0
  9
$UCSORGBACK
 10
0.0
 20
0.0
 30
0.0
  9
$PUCSBASE
  2

  9
$PUCSNAME
  2

  9
$PUCSORG
 10
0.0
 20
0.0
 30
0.0
  9
$PUCSXDIR
 10
1.0
 20
0.0
 30
0.0
  9
$PUCSYDIR
 10
0.0
 20
1.0
 30
0.0
  9
$PUCSORTHOREF
  2

  9
$PUCSORTHOVIEW
 70
     0
  9
$PUCSORGTOP
 10
0.0
 20
0.0
 30
0.0
  9
$PUCSORGBOTTOM
 10
0.0
 20
0.0
 30
0.0
  9
$PUCSORGLEFT
 10
0.0
 20
0.0
 30
0.0
  9
$PUCSORGRIGHT
 10
0.0
 20
0.0
 30
0.0
  9
$PUCSORGFRONT
 10
0.0
 20
0.0
 30
0.0
  9
$PUCSORGBACK
 10
0.0
 20
0.0
 30
0.0
  9
$USERI1
 70
     0
  9
$USERI2
 70
     0
  9
$USERI3
 70
     0
  9
$USERI4
 70
     0
  9
$USERI5
 70
     0
  9
$USERR1
 40
0.0
  9
$USERR2
 40
0.0
  9
$USERR3
 40
0.0
  9
$USERR4
 40
0.0
  9
$USERR5
 40
0.0
  9
$WORLDVIEW
 70
     1
  9
$SHADEDGE
 70
     3
  9
$SHADEDIF
 70
    70
  9
$TILEMODE
 70
     1
  9
$MAXACTVP
 70
    48
  9
$PINSBASE
 10
0.0
 20
0.0
 30
0.0
  9
$PLIMCHECK
 70
     0
  9
$PEXTMIN
 10
1.000000000000000E+20
 20
1.000000000000000E+20
 30
1.000000000000000E+20
  9
$PEXTMAX
 10
-1.000000000000000E+20
 20
-1.000000000000000E+20
 30
-1.000000000000000E+20
  9
$PLIMMIN
 10
0.0
 20
0.0
  9
$PLIMMAX
 10
420.0
 20
297.0
  9
$UNITMODE
 70
     0
  9
$VISRETAIN
 70
     1
  9
$PLINEGEN
 70
     0
  9
$PSLTSCALE
 70
     1
  9
$TREEDEPTH
 70
  3020
  9
$CMLSTYLE
  2
Standard
  9
$CMLJUST
 70
     0
  9
$CMLSCALE
 40
20.0
  9
$PROXYGRAPHICS
 70
     1
  9
$MEASUREMENT
 70
     1
  9
$CELWEIGHT
370
    -1
  9
$ENDCAPS
280
     0
  9
$JOINSTYLE
280
     0
  9
$LWDISPLAY
290
     0
  9
$INSUNITS
 70
     4
  9
$HYPERLINKBASE
  1

  9
$STYLESHEET
  1

  9
$XEDIT
290
     1
  9
$CEPSNTYPE
380
     0
  9
$PSTYLEMODE
290
     1
  9
$FINGERPRINTGUID
  2
{9C079773-E80E-4585-A7F4-852C8B38093D}
  9
$VERSIONGUID
  2
{92DEE401-1710-4C6C-8105-A651072F0252}
  9
$EXTNAMES
290
     1
  9
$PSVPSCALE
 40
0.0
  9
$OLESTARTUP
290
     0
  0
ENDSEC
  0
SECTION
  2
CLASSES
  0
CLASS
  1
ACDBDICTIONARYWDFLT
  2
AcDbDictionaryWithDefault
  3
AutoCAD 2000
 90
        0
280
     0
281
     0
  0
CLASS
  1
ACDBPLACEHOLDER
  2
AcDbPlaceHolder
  3
AutoCAD 2000
 90
        0
280
     0
281
     0
  0
CLASS
  1
LAYOUT
  2
AcDbLayout
  3
AutoCAD 2000
 90
        0
280
     0
281
     0
  0
CLASS
  1
LONG_TRANSACTION
  2
AcDbLongTransaction
  3
AutoCAD 2000
 90
    32768
280
     0
281
     0
  0
CLASS
  1
LWPOLYLINE
  2
AcDbPolyline
  3
AutoCAD 2000
 90
    32768
280
     0
281
     1
  0
CLASS
  1
HATCH
  2
AcDbHatch
  3
AutoCAD 2000
 90
    32768
280
     0
281
     1
  0
CLASS
  1
XRECORD
  2
AcDbXrecord
  3
AutoCAD 2000
 90
    32768
280
     0
281
     0
  0
CLASS
  1
DICTIONARYVAR
  2
AcDbDictionaryVar
  3
AutoCAD 2000
 90
        0
280
     0
281
     0
  0
ENDSEC
  0
SECTION
  2
TABLES
  0
TABLE
  2
VPORT
  5
8
330
0
100
AcDbSymbolTable
 70
     2
  0
VPORT
  5
491
330
8
100
AcDbSymbolTableRecord
100
AcDbViewportTableRecord
  2
*Active
 70
     0
 10
0.0
 20
0.0
 11
1.0
 21
1.0
 12
1615.63100691334
 22
428.0613756820221
 13
0.0
 23
0.0
 14
10.0
 24
10.0
 15
10.0
 25
10.0
 16
0.0
 26
0.0
 36
1.0
 17
0.0
 27
0.0
 37
0.0
 40
1458.41497091605
 41
2.031862745098039
 42
50.0
 43
0.0
 44
0.0
 50
0.0
 51
0.0
 71
     0
 72
   100
 73
     1
 74
     3
 75
     0
 76
     0
 77
     0
 78
     0
281
     0
 65
     1
110
0.0
120
0.0
130
0.0
111
1.0
121
0.0
131
0.0
112
0.0
122
1.0
132
0.0
 79
     0
146
0.0
  0
ENDTAB
  0
TABLE
  2
LTYPE
  5
5
330
0
100
AcDbSymbolTable
 70
     4
  0
LTYPE
  5
14
330
5
100
AcDbSymbolTableRecord
100
AcDbLinetypeTableRecord
  2
ByBlock
 70
     0
  3

 72
    65
 73
     0
 40
0.0
  0
LTYPE
  5
15
330
5
100
AcDbSymbolTableRecord
100
AcDbLinetypeTableRecord
  2
ByLayer
 70
     0
  3

 72
    65
 73
     0
 40
0.0
  0
LTYPE
  5
16
330
5
100
AcDbSymbolTableRecord
100
AcDbLinetypeTableRecord
  2
Continuous
 70
     0
  3
Solid line
 72
    65
 73
     0
 40
0.0
  0
LTYPE
  5
3F
330
5
100
AcDbSymbolTableRecord
100
AcDbLinetypeTableRecord
  2
IZOLACE
 70
     0
  3
Izolace SSSSSSSSSSSSSSSSSSSSSSSSSSSSSSSSSSSSSSS
 72
    65
 73
     4
 40
10.16253999999999
 49
0.00254
 74
     0
 49
-2.54
 74
     4
 75
   134
340
4A
 46
2.54
 50
0.0
 44
-2.54
 45
0.0
 49
-5.08
 74
     4
 75
   134
340
4A
 46
2.54
 50
180.0
 44
2.54
 45
0.0
 49
-2.54
 74
     0
  0
LTYPE
  5
40
330
5
100
AcDbSymbolTableRecord
100
AcDbLinetypeTableRecord
  2
DASHED
 70
     0
  3
Dashed __ __ __ __ __ __ __ __ __ __ __ __ __ _
 72
    65
 73
     2
 40
19.04999999999999
 49
12.7
 74
     0
 49
-6.349999999999999
 74
     0
  0
LTYPE
  5
41
330
5
100
AcDbSymbolTableRecord
100
AcDbLinetypeTableRecord
  2
DASHDOT2
 70
     0
  3
Dash dot (.5x) _._._._._._._._._._._._._._._.
 72
    65
 73
     4
 40
12.7
 49
6.349999999999999
 74
     0
 49
-3.174999999999999
 74
     0
 49
0.0
 74
     0
 49
-3.174999999999999
 74
     0
  0
ENDTAB
  0
TABLE
  2
LAYER
  5
2
330
0
100
AcDbSymbolTable
 70
     8
  0
LAYER
  5
10
330
2
100
AcDbSymbolTableRecord
100
AcDbLayerTableRecord
  2
0
 70
     0
 62
     7
  6
Continuous
370
    -3
390
F
  0
LAYER
  5
42
330
2
100
AcDbSymbolTableRecord
100
AcDbLayerTableRecord
  2
POPIS
 70
     0
 62
    30
  6
Continuous
370
    -3
390
F
  0
LAYER
  5
43
330
2
100
AcDbSymbolTableRecord
100
AcDbLayerTableRecord
  2
SPOJOVACÍ
 70
     0
 62
   180
  6
Continuous
370
    -3
390
F
  0
LAYER
  5
44
330
2
100
AcDbSymbolTableRecord
100
AcDbLayerTableRecord
  2
CETRIS
 70
     0
 62
     1
  6
Continuous
370
    -3
390
F
  0
LAYER
  5
45
330
2
100
AcDbSymbolTableRecord
100
AcDbLayerTableRecord
  2
NOSNÉ KONSTRUKCE
 70
     0
 62
    33
  6
Continuous
370
    -3
390
F
  0
LAYER
  5
46
330
2
100
AcDbSymbolTableRecord
100
AcDbLayerTableRecord
  2
PROFILY
 70
     0
 62
    73
  6
Continuous
370
    -3
390
F
  0
LAYER
  5
47
330
2
100
AcDbSymbolTableRecord
100
AcDbLayerTableRecord
  2
STAVBA OBRYS
 70
     0
 62
     6
  6
Continuous
370
    -3
390
F
  0
LAYER
  5
48
330
2
100
AcDbSymbolTableRecord
100
AcDbLayerTableRecord
  2
Defpoints
 70
     0
 62
     7
  6
Continuous
290
     0
370
    -3
390
F
  0
ENDTAB
  0
TABLE
  2
STYLE
  5
3
330
0
100
AcDbSymbolTable
 70
     3
  0
STYLE
  5
11
330
3
100
AcDbSymbolTableRecord
100
AcDbTextStyleTableRecord
  2
Standard
 70
     0
 40
0.0
 41
1.0
 50
0.0
 71
     0
 42
2.5
  3
txt
  4

  0
STYLE
  5
49
330
3
100
AcDbSymbolTableRecord
100
AcDbTextStyleTableRecord
  2
SIMPLEX7
 70
     0
 40
0.0
 41
0.85
 50
0.0
 71
     0
 42
102.0
  3
ARIAL.TTF
  4

1001
ACAD
1000
Arial CE
1071
    60962
  0
STYLE
  5
4A
330
3
100
AcDbSymbolTableRecord
100
AcDbTextStyleTableRecord
  2

 70
     1
 40
0.0
 41
1.0
 50
0.0
 71
     0
 42
2.5
  3
ltypeshp.shx
  4

  0
ENDTAB
  0
TABLE
  2
VIEW
  5
6
330
0
100
AcDbSymbolTable
 70
     0
  0
ENDTAB
  0
TABLE
  2
UCS
  5
7
330
0
100
AcDbSymbolTable
 70
     0
  0
ENDTAB
  0
TABLE
  2
APPID
  5
9
330
0
100
AcDbSymbolTable
 70
     1
  0
APPID
  5
12
330
9
100
AcDbSymbolTableRecord
100
AcDbRegAppTableRecord
  2
ACAD
 70
     0
  0
ENDTAB
  0
TABLE
  2
DIMSTYLE
  5
A
330
0
100
AcDbSymbolTable
 70
     1
100
AcDbDimStyleTable
 71
     0
  0
DIMSTYLE
105
27
330
A
100
AcDbSymbolTableRecord
100
AcDbDimStyleTableRecord
  2
ISO-25
 70
     0
 41
2.5
 42
0.625
 43
3.75
 44
1.25
 73
     0
 74
     0
 77
     1
 78
     8
140
2.5
141
2.5
143
0.03937007874016
147
0.625
171
     3
172
     1
271
     2
272
     2
274
     3
278
    44
283
     0
284
     8
340
11
  0
ENDTAB
  0
TABLE
  2
BLOCK_RECORD
  5
1
330
0
100
AcDbSymbolTable
 70
     3
  0
BLOCK_RECORD
  5
1F
102
{ACAD_XDICTIONARY
360
419
102
}
330
1
100
AcDbSymbolTableRecord
100
AcDbBlockTableRecord
  2
*Model_Space
340
22
  0
BLOCK_RECORD
  5
1B
102
{ACAD_XDICTIONARY
360
41B
102
}
330
1
100
AcDbSymbolTableRecord
100
AcDbBlockTableRecord
  2
*Paper_Space
340
1E
  0
BLOCK_RECORD
  5
23
102
{ACAD_XDICTIONARY
360
41D
102
}
330
1
100
AcDbSymbolTableRecord
100
AcDbBlockTableRecord
  2
*Paper_Space0
340
26
  0
BLOCK_RECORD
  5
2B
330
1
100
AcDbSymbolTableRecord
100
AcDbBlockTableRecord
  2
E_PUNKT
340
0
102
{BLKREFS
331
237
331
23A
331
23D
331
2F2
331
376
331
3E3
331
3E4
331
3E5
331
479
102
}
  0
BLOCK_RECORD
  5
45E
330
1
100
AcDbSymbolTableRecord
100
AcDbBlockTableRecord
  2
_ArchTick
340
0
102
{BLKREFS
331
47A
331
47F
102
}
  0
ENDTAB
  0
ENDSEC
  0
SECTION
  2
BLOCKS
  0
BLOCK
  5
20
330
1F
100
AcDbEntity
  8
0
100
AcDbBlockBegin
  2
*Model_Space
 70
     0
 10
0.0
 20
0.0
 30
0.0
  3
*Model_Space
  1

  0
ENDBLK
  5
21
330
1F
100
AcDbEntity
  8
0
100
AcDbBlockEnd
  0
BLOCK
  5
1C
330
1B
100
AcDbEntity
 67
     1
  8
0
100
AcDbBlockBegin
  2
*Paper_Space
 70
     0
 10
0.0
 20
0.0
 30
0.0
  3
*Paper_Space
  1

  0
ENDBLK
  5
1D
330
1B
100
AcDbEntity
 67
     1
  8
0
100
AcDbBlockEnd
  0
BLOCK
  5
24
330
23
100
AcDbEntity
  8
0
100
AcDbBlockBegin
  2
*Paper_Space0
 70
     0
 10
0.0
 20
0.0
 30
0.0
  3
*Paper_Space0
  1

  0
ENDBLK
  5
25
330
23
100
AcDbEntity
  8
0
100
AcDbBlockEnd
  0
BLOCK
  5
2D
330
2B
100
AcDbEntity
  8
0
100
AcDbBlockBegin
  2
E_PUNKT
 70
     0
 10
0.0
 20
0.0
 30
0.0
  3
E_PUNKT
  1

  0
LWPOLYLINE
  5
2C
330
2B
100
AcDbEntity
  8
POPIS
100
AcDbPolyline
 90
        2
 70
     1
 43
2.5
 10
1.27761037562675
 20
0.0290683308725193
 42
-1.0
 10
-1.222389624373249
 20
0.0290683308725193
 42
-1.0
  0
ENDBLK
  5
2E
330
2B
100
AcDbEntity
  8
0
100
AcDbBlockEnd
  0
BLOCK
  5
460
330
45E
100
AcDbEntity
  8
0
100
AcDbBlockBegin
  2
_ArchTick
 70
     0
 10
0.0
 20
0.0
 30
0.0
  3
_ArchTick
  1

  0
LWPOLYLINE
  5
45F
330
45E
100
AcDbEntity
  8
0
  6
ByBlock
 62
     0
100
AcDbPolyline
 90
        2
 70
     0
 43
0.15
 10
-0.5
 20
-0.5
 10
0.5
 20
0.5
  0
ENDBLK
  5
461
330
45E
100
AcDbEntity
  8
0
100
AcDbBlockEnd
  0
ENDSEC
  0
SECTION
  2
ENTITIES
  0
LINE
  5
22A
330
1F
100
AcDbEntity
  8
PROFILY
100
AcDbLine
 10
1493.273818499553
 20
384.9150016021265
 30
0.0
 11
1469.201790367936
 21
384.9150016021265
 31
0.0
  0
LWPOLYLINE
  5
22B
330
1F
100
AcDbEntity
  8
PROFILY
100
AcDbPolyline
 90
        4
 70
     1
 43
0.0
 10
1503.895018187151
 20
916.4148826439502
 10
1503.895018187151
 20
935.5972377884988
 10
1505.895018187151
 20
935.5972377884988
 10
1505.895018187151
 20
916.4148826439502
  0
HATCH
  5
22C
330
1F
100
AcDbEntity
  8
PROFILY
100
AcDbHatch
 10
0.0
 20
0.0
 30
0.0
210
0.0
220
0.0
230
1.0
  2
SOLID
 70
     1
 71
     0
 91
        1
 92
        7
 72
     0
 73
     1
 93
        4
 10
1503.895018187147
 20
935.5977496260546
 10
1505.895018187151
 20
935.5977496260546
 10
1505.895018187151
 20
916.4153944815058
 10
1503.895018187151
 20
916.4153944815058
 97
        0
 75
     0
 76
     1
 47
0.0801976285649081
 98
        1
 10
1504.232691257445
 20
922.2568103741121
  0
LWPOLYLINE
  5
22D
330
1F
100
AcDbEntity
  8
PROFILY
100
AcDbPolyline
 90
        4
 70
     1
 43
0.0
 10
1503.895018187151
 20
674.9913083375011
 10
1503.895018187151
 20
694.1736634820497
 10
1505.895018187151
 20
694.1736634820497
 10
1505.895018187151
 20
674.9913083375011
  0
HATCH
  5
22E
330
1F
100
AcDbEntity
  8
PROFILY
100
AcDbHatch
 10
0.0
 20
0.0
 30
0.0
210
0.0
220
0.0
230
1.0
  2
SOLID
 70
     1
 71
     0
 91
        1
 92
        7
 72
     0
 73
     1
 93
        4
 10
1503.895018187147
 20
694.1741753196054
 10
1505.895018187151
 20
694.1741753196054
 10
1505.895018187151
 20
674.9918201750567
 10
1503.895018187151
 20
674.9918201750567
 97
        0
 75
     0
 76
     1
 47
0.0801976285649081
 98
        1
 10
1504.232691257445
 20
680.8332360676629
  0
HATCH
  5
22F
330
1F
100
AcDbEntity
  8
PROFILY
100
AcDbHatch
 10
0.0
 20
0.0
 30
0.0
210
0.0
220
0.0
230
1.0
  2
SOLID
 70
     1
 71
     0
 91
        1
 92
        7
 72
     0
 73
     1
 93
        4
 10
1503.895018187147
 20
732.293768343008
 10
1505.895018187151
 20
732.293768343008
 10
1505.895018187151
 20
713.1114131984593
 10
1503.895018187151
 20
713.1114131984593
 97
        0
 75
     0
 76
     1
 47
0.0801976285649081
 98
        1
 10
1504.232691257445
 20
718.9528290910654
  0
HATCH
  5
230
330
1F
100
AcDbEntity
  8
PROFILY
100
AcDbHatch
 10
0.0
 20
0.0
 30
0.0
210
0.0
220
0.0
230
1.0
  2
SOLID
 70
     1
 71
     0
 91
        1
 92
        7
 72
     0
 73
     1
 93
        4
 10
1503.895018187147
 20
765.907110296657
 10
1505.895018187151
 20
765.907110296657
 10
1505.895018187151
 20
746.7247551521084
 10
1503.895018187151
 20
746.7247551521084
 97
        0
 75
     0
 76
     1
 47
0.0801976285649081
 98
        1
 10
1504.232691257445
 20
752.5661710447145
  0
HATCH
  5
231
330
1F
100
AcDbEntity
  8
PROFILY
100
AcDbHatch
 10
0.0
 20
0.0
 30
0.0
210
0.0
220
0.0
230
1.0
  2
SOLID
 70
     1
 71
     0
 91
        1
 92
        7
 72
     0
 73
     1
 93
        4
 10
1503.895018187147
 20
837.3253977828223
 10
1505.895018187151
 20
837.3253977828223
 10
1505.895018187151
 20
818.1430426382737
 10
1503.895018187151
 20
818.1430426382737
 97
        0
 75
     0
 76
     1
 47
0.0801976285649081
 98
        1
 10
1504.232691257445
 20
823.9844585308798
  0
HATCH
  5
232
330
1F
100
AcDbEntity
  8
PROFILY
100
AcDbHatch
 10
0.0
 20
0.0
 30
0.0
210
0.0
220
0.0
230
1.0
  2
SOLID
 70
     1
 71
     0
 91
        1
 92
        7
 72
     0
 73
     1
 93
        4
 10
1503.895018187147
 20
800.7373796385525
 10
1505.895018187151
 20
800.7373796385525
 10
1505.895018187151
 20
781.5550244940038
 10
1503.895018187151
 20
781.5550244940038
 97
        0
 75
     0
 76
     1
 47
0.0801976285649081
 98
        1
 10
1504.232691257445
 20
787.39644038661
  0
LWPOLYLINE
  5
233
330
1F
100
AcDbEntity
  8
PROFILY
100
AcDbPolyline
 90
        4
 70
     1
 43
0.0
 10
1503.895018187151
 20
818.1425308007181
 10
1503.895018187151
 20
837.3248859452667
 10
1505.895018187151
 20
837.3248859452667
 10
1505.895018187151
 20
818.1425308007181
  0
HATCH
  5
234
330
1F
100
AcDbEntity
  8
PROFILY
100
AcDbHatch
 10
0.0
 20
0.0
 30
0.0
210
0.0
220
0.0
230
1.0
  2
SOLID
 70
     1
 71
     0
 91
        1
 92
        7
 72
     0
 73
     1
 93
        4
 10
1503.895018187147
 20
869.8404635606582
 10
1505.895018187151
 20
869.8404635606582
 10
1505.895018187151
 20
850.6581084161096
 10
1503.895018187151
 20
850.6581084161096
 97
        0
 75
     0
 76
     1
 47
0.0801976285649081
 98
        1
 10
1504.232691257445
 20
856.4995243087157
  0
HATCH
  5
235
330
1F
100
AcDbEntity
  8
PROFILY
100
AcDbHatch
 10
0.0
 20
0.0
 30
0.0
210
0.0
220
0.0
230
1.0
  2
SOLID
 70
     1
 71
     0
 91
        1
 92
        7
 72
     0
 73
     1
 93
        4
 10
1503.895018187147
 20
904.2474538109907
 10
1505.895018187151
 20
904.2474538109907
 10
1505.895018187151
 20
885.0650986664421
 10
1503.895018187151
 20
885.0650986664421
 97
        0
 75
     0
 76
     1
 47
0.0801976285649081
 98
        1
 10
1504.232691257445
 20
890.9065145590481
  0
HATCH
  5
236
330
1F
100
AcDbEntity
  8
STAVBA OBRYS
100
AcDbHatch
 10
0.0
 20
0.0
 30
0.0
210
0.0
220
0.0
230
1.0
  2
BRICK
 70
     0
 71
     0
 91
        2
 92
        7
 72
     0
 73
     1
 93
       14
 10
1827.43491940807
 20
928.5191607857685
 10
1589.880893998473
 20
931.3225183619032
 10
1589.880893998473
 20
829.0748130198988
 10
1589.880893998473
 20
594.8524778994449
 10
1671.953093624204
 20
594.8524778994431
 10
1675.741954765755
 20
588.289977899443
 10
1671.9530936242
 20
581.7274778994413
 10
1589.880893998473
 20
581.7274778994449
 10
1589.880893998466
 20
429.2936853348526
 10
1647.679174299242
 20
429.2936853348526
 10
1651.468035440796
 20
422.7311853348562
 10
1664.134461833061
 20
422.7311853348562
 10
1664.134461833061
 20
454.2496397538614
 10
1826.589789467295
 20
454.2496397538614
 97
        0
 92
        7
 72
     0
 73
     1
 93
        9
 10
1826.558828922392
 20
348.4091201084154
 10
1664.134461833061
 20
348.4091201084154
 10
1664.134461833061
 20
422.7311853348544
 10
1651.468035440796
 20
422.7311853348526
 10
1647.679174299242
 20
416.1686853348562
 10
1589.880893998469
 20
416.1686853348526
 10
1589.880893998469
 20
372.5715051985186
 10
1589.880893998466
 20
339.7891869300544
 10
1826.47376457311
 20
300.6727588187275
 97
        0
 75
     0
 76
     1
 52
0.0
 41
10.0
 77
     0
 78
     3
 53
0.0
 43
-21264.92469504928
 44
-8964.726236634616
 45
0.0
 46
63.5
 79
     0
 53
90.0
 43
-21264.92469504928
 44
-8964.726236634616
 45
-127.0
 46
0.0000000000000078
 79
     2
 49
63.5
 49
-63.5
 53
90.0
 43
-21201.42469504928
 44
-8964.726236634616
 45
-127.0
 46
0.0000000000000078
 79
     2
 49
-63.5
 49
63.5
 47
1.206585406395078
 98
        2
 10
1800.416550407833
 20
542.0485542546846
 10
1760.577475819583
 20
333.3092702356332
  0
INSERT
  5
237
330
1F
100
AcDbEntity
  8
POPIS
100
AcDbBlockReference
  2
E_PUNKT
 10
1547.138137720128
 20
680.752133249978
 30
0.0
  0
TEXT
  5
238
330
1F
100
AcDbEntity
  8
POPIS
100
AcDbText
 10
1269.567108790768
 20
667.1248692428123
 30
0.0
 40
25.0
  1
08
 41
0.7
  7
SIMPLEX7
100
AcDbText
  0
LINE
  5
239
330
1F
100
AcDbEntity
  8
POPIS
100
AcDbLine
 10
1310.946718828763
 20
680.5682106921828
 30
0.0
 11
1545.934027802286
 21
680.568210692181
 31
0.0
  0
INSERT
  5
23A
330
1F
100
AcDbEntity
  8
POPIS
100
AcDbBlockReference
  2
E_PUNKT
 10
1511.224479269406
 20
613.0500524288398
 30
0.0
  0
TEXT
  5
23B
330
1F
100
AcDbEntity
  8
POPIS
100
AcDbText
 10
1269.567108790768
 20
599.4227884216741
 30
0.0
 40
25.0
  1
09
 41
0.7
  7
SIMPLEX7
100
AcDbText
  0
LINE
  5
23C
330
1F
100
AcDbEntity
  8
POPIS
100
AcDbLine
 10
1310.946718828763
 20
612.8661298710446
 30
0.0
 11
1511.252089645032
 21
613.0791207597119
 31
0.0
  0
INSERT
  5
23D
330
1F
100
AcDbEntity
  8
POPIS
100
AcDbBlockReference
  2
E_PUNKT
 10
1504.767173247495
 20
554.5764300426778
 30
0.0
  0
TEXT
  5
23E
330
1F
100
AcDbEntity
  8
POPIS
100
AcDbText
 10
1298.693698552589
 20
-25.62240834370118
 30
0.0
 40
25.0
  1
Vodorovná dřevěná lať š=100 mm (tloušťka dle izolace)
 41
0.7
  7
SIMPLEX7
100
AcDbText
  0
TEXT
  5
23F
330
1F
100
AcDbEntity
  8
POPIS
100
AcDbText
 10
1298.693698552589
 20
9.996480354387813
 30
0.0
 40
25.0
  1
Pojistná fólie - parozábrana
 41
0.7
  7
SIMPLEX7
100
AcDbText
  0
TEXT
  5
240
330
1F
100
AcDbEntity
  8
POPIS
100
AcDbText
 10
1298.693698552589
 20
46.10330184157624
 30
0.0
 40
25.0
  1
Svislá dřevěné lať 50x25 (100x25), impregnovaná
 41
0.7
  7
SIMPLEX7
100
AcDbText
  0
TEXT
  5
241
330
1F
100
AcDbEntity
  8
POPIS
100
AcDbText
 10
1244.349995392839
 20
-188.2906755449005
 30
0.0
 40
25.0
  1
09
 41
0.85
  7
SIMPLEX7
100
AcDbText
  0
TEXT
  5
242
330
1F
100
AcDbEntity
  8
POPIS
100
AcDbText
 10
1298.693698552589
 20
-188.2906755449005
 30
0.0
 40
25.0
  1
Talířová hmoždinka
 41
0.7
  7
SIMPLEX7
100
AcDbText
  0
LINE
  5
243
330
1F
100
AcDbEntity
  8
SPOJOVACÍ
100
AcDbLine
 10
1464.806968100034
 20
885.9343237668342
 30
0.0
 11
1464.806968100034
 21
878.8151831418343
 31
0.0
  0
LINE
  5
244
330
1F
100
AcDbEntity
  8
SPOJOVACÍ
100
AcDbLine
 10
1463.120148241555
 20
871.6960425168343
 30
0.0
 11
1464.806968100034
 21
871.6960425168343
 31
0.0
  0
LINE
  5
245
330
1F
100
AcDbEntity
  8
SPOJOVACÍ
100
AcDbLine
 10
1464.806968100034
 20
878.8151831418343
 30
0.0
 11
1464.806968100034
 21
871.6960425168343
 31
0.0
  0
LINE
  5
246
330
1F
100
AcDbEntity
  8
SPOJOVACÍ
100
AcDbLine
 10
1464.806968100034
 20
885.9343237668342
 30
0.0
 11
1463.120148241555
 21
885.9343237668342
 31
0.0
  0
ELLIPSE
  5
247
330
1F
100
AcDbEntity
  8
SPOJOVACÍ
100
AcDbEllipse
 10
1462.873757861517
 20
878.8151831418343
 30
0.0
 11
0.0000000000000018
 21
7.321312510456553
 31
0.0
210
0.0
220
0.0
230
1.0
 40
0.3214803388886193
 41
-0.2355512395776302
 42
3.377143893167422
  0
HATCH
  5
248
330
1F
100
AcDbEntity
  8
SPOJOVACÍ
100
AcDbHatch
 10
0.0
 20
0.0
 30
0.0
210
0.0
220
0.0
230
1.0
  2
ANSI37
 70
     0
 71
     0
 91
        1
 92
        7
 72
     0
 73
     1
 93
        6
 10
1463.423052308818
 20
878.8151831418343
 10
1463.423052308822
 20
871.6960425168361
 10
1464.806968100034
 20
871.6960425168343
 10
1464.806968100034
 20
878.8151831418343
 10
1464.806968100034
 20
885.9343237668342
 10
1463.423052308818
 20
885.9343237668324
 97
        0
 75
     0
 76
     1
 52
-90.00000000000001
 41
0.9
 77
     0
 78
     2
 53
315.0
 43
-2377.423247343511
 44
10961.67649521271
 45
2.02055762724056
 46
2.020557627240558
 79
     0
 53
44.99999999999999
 43
-2377.423247343511
 44
10961.67649521271
 45
-2.020557627240558
 46
2.02055762724056
 79
     0
 47
0.0246402553748132
 98
        1
 10
1463.894003750792
 20
879.2160288035208
  0
LINE
  5
249
330
1F
100
AcDbEntity
  8
SPOJOVACÍ
100
AcDbLine
 10
1463.936424570077
 20
884.0358862668342
 30
0.0
 11
1463.931678476328
 21
884.0358862668342
 31
0.0
  0
LINE
  5
24A
330
1F
100
AcDbEntity
  8
SPOJOVACÍ
100
AcDbLine
 10
1464.806968100034
 20
885.9343237668342
 30
0.0
 11
1463.423052308818
 21
885.9343237668324
 31
0.0
  0
LINE
  5
24B
330
1F
100
AcDbEntity
  8
SPOJOVACÍ
100
AcDbLine
 10
1463.936424570077
 20
884.0358862668342
 30
0.0
 11
1463.931678476328
 21
884.0358862668342
 31
0.0
  0
LINE
  5
24C
330
1F
100
AcDbEntity
  8
SPOJOVACÍ
100
AcDbLine
 10
1463.423052308818
 20
878.8151831418343
 30
0.0
 11
1463.423052308818
 21
885.9343237668342
 31
0.0
  0
LINE
  5
24D
330
1F
100
AcDbEntity
  8
SPOJOVACÍ
100
AcDbLine
 10
1463.423052308818
 20
882.6511513188995
 30
0.0
 11
1463.423052308818
 21
871.6960425168343
 31
0.0
  0
LINE
  5
24E
330
1F
100
AcDbEntity
  8
SPOJOVACÍ
100
AcDbLine
 10
1463.423052308818
 20
871.6960425168361
 30
0.0
 11
1464.806968100034
 21
871.6960425168343
 31
0.0
  0
LINE
  5
24F
330
1F
100
AcDbEntity
  8
NOSNÉ KONSTRUKCE
100
AcDbLine
 10
1496.0495393011
 20
663.6221270246712
 30
0.0
 11
1496.0495393011
 21
667.9400440651404
 31
0.0
  0
HATCH
  5
250
330
1F
100
AcDbEntity
  8
POPIS
100
AcDbHatch
 10
0.0
 20
0.0
 30
0.0
210
0.0
220
0.0
230
1.0
  2
SOLID
 70
     1
 71
     0
 91
        1
 92
        7
 72
     0
 73
     1
 93
        8
 10
1493.321457179324
 20
654.4843882149613
 10
1497.000298516926
 20
654.4843882149613
 10
1491.427729339545
 20
662.2852402978566
 10
1485.855160162161
 20
654.4843882149613
 10
1489.534001499759
 20
654.4843882149613
 10
1488.008255551801
 20
641.548744315876
 10
1491.427729339538
 20
646.9300409633595
 10
1494.847203127279
 20
641.548744315876
 97
        0
 75
     0
 76
     1
 47
0.3835833255279223
 98
        1
 10
1491.835912086796
 20
651.5762050344617
  0
LINE
  5
251
330
1F
100
AcDbEntity
  8
POPIS
100
AcDbLine
 10
1491.427729339542
 20
662.2805192010671
 30
0.0
 11
1485.855160162161
 21
654.47966711817
 31
0.0
  0
LINE
  5
252
330
1F
100
AcDbEntity
  8
POPIS
100
AcDbLine
 10
1485.855160162161
 20
654.47966711817
 30
0.0
 11
1489.534001499759
 21
654.47966711817
 31
0.0
  0
LINE
  5
253
330
1F
100
AcDbEntity
  8
POPIS
100
AcDbLine
 10
1497.000298516922
 20
654.47966711817
 30
0.0
 11
1493.321457179324
 21
654.47966711817
 31
0.0
  0
LINE
  5
254
330
1F
100
AcDbEntity
  8
POPIS
100
AcDbLine
 10
1491.427729339542
 20
662.2805192010671
 30
0.0
 11
1497.000298516922
 21
654.47966711817
 31
0.0
  0
LINE
  5
255
330
1F
100
AcDbEntity
  8
POPIS
100
AcDbLine
 10
1489.534001499759
 20
654.4843882149613
 30
0.0
 11
1488.008255551801
 21
641.5487443158779
 31
0.0
  0
LINE
  5
256
330
1F
100
AcDbEntity
  8
POPIS
100
AcDbLine
 10
1493.321457179324
 20
654.4843882149613
 30
0.0
 11
1494.847203127282
 21
641.5487443158779
 31
0.0
  0
LINE
  5
257
330
1F
100
AcDbEntity
  8
SPOJOVACÍ
100
AcDbLine
 10
1463.423052308818
 20
412.6173230362726
 30
0.0
 11
1464.806968100034
 21
412.6173230362708
 31
0.0
  0
LINE
  5
258
330
1F
100
AcDbEntity
  8
SPOJOVACÍ
100
AcDbLine
 10
1463.423052308818
 20
423.572431838336
 30
0.0
 11
1463.423052308818
 21
412.6173230362708
 31
0.0
  0
LINE
  5
259
330
1F
100
AcDbEntity
  8
SPOJOVACÍ
100
AcDbLine
 10
1463.423052308818
 20
419.7364636612708
 30
0.0
 11
1463.423052308818
 21
426.8556042862708
 31
0.0
  0
LINE
  5
25A
330
1F
100
AcDbEntity
  8
SPOJOVACÍ
100
AcDbLine
 10
1463.936424570077
 20
424.9571667862708
 30
0.0
 11
1463.931678476328
 21
424.9571667862708
 31
0.0
  0
LINE
  5
25B
330
1F
100
AcDbEntity
  8
SPOJOVACÍ
100
AcDbLine
 10
1464.806968100034
 20
426.8556042862708
 30
0.0
 11
1463.423052308818
 21
426.855604286269
 31
0.0
  0
LINE
  5
25C
330
1F
100
AcDbEntity
  8
SPOJOVACÍ
100
AcDbLine
 10
1463.936424570077
 20
424.9571667862708
 30
0.0
 11
1463.931678476328
 21
424.9571667862708
 31
0.0
  0
HATCH
  5
25D
330
1F
100
AcDbEntity
  8
SPOJOVACÍ
100
AcDbHatch
 10
0.0
 20
0.0
 30
0.0
210
0.0
220
0.0
230
1.0
  2
ANSI37
 70
     0
 71
     0
 91
        1
 92
        7
 72
     0
 73
     1
 93
        6
 10
1463.423052308818
 20
419.7364636612708
 10
1463.423052308822
 20
412.6173230362726
 10
1464.806968100034
 20
412.6173230362708
 10
1464.806968100034
 20
419.7364636612708
 10
1464.806968100034
 20
426.8556042862708
 10
1463.423052308818
 20
426.855604286269
 97
        0
 75
     0
 76
     1
 52
-90.00000000000001
 41
0.9
 77
     0
 78
     2
 53
315.0
 43
-2377.423247343511
 44
10502.59777573215
 45
2.02055762724056
 46
2.020557627240558
 79
     0
 53
44.99999999999999
 43
-2377.423247343511
 44
10502.59777573215
 45
-2.020557627240558
 46
2.02055762724056
 79
     0
 47
0.0246402553748132
 98
        1
 10
1463.894003750792
 20
420.1373093229574
  0
ELLIPSE
  5
25E
330
1F
100
AcDbEntity
  8
SPOJOVACÍ
100
AcDbEllipse
 10
1462.873757861517
 20
419.7364636612708
 30
0.0
 11
0.0000000000000018
 21
7.321312510456553
 31
0.0
210
0.0
220
0.0
230
1.0
 40
0.3214803388886193
 41
-0.2355512395776302
 42
3.377143893167422
  0
HATCH
  5
25F
330
1F
100
AcDbEntity
  8
PROFILY
100
AcDbHatch
 10
0.0
 20
0.0
 30
0.0
210
0.0
220
0.0
230
1.0
  2
SOLID
 70
     1
 71
     0
 91
        5
 92
        7
 72
     0
 73
     1
 93
        7
 10
1479.2028499992
 20
383.2887453375512
 10
1479.2028499992
 20
393.2943892000218
 10
1477.708570619371
 20
393.29438920002
 10
1477.708570619371
 20
369.6429934422574
 10
1488.435207887359
 20
369.6429934422574
 10
1488.435207887352
 20
371.2856919611329
 10
1479.2028499992
 20
371.2856919611347
 97
        0
 92
        7
 72
     1
 73
     1
 93
        6
 10
1516.953985742031
 20
371.2856919611347
 42
0.0
 10
1502.694596814689
 20
371.2856919611329
 42
0.0
 10
1502.694596814689
 20
370.9952663014535
 42
-0.2943207934482748
 10
1503.428236341765
 20
369.8569026240636
 42
-0.0430199547372228
 10
1503.409797490039
 20
369.6429934422574
 42
0.0
 10
1516.953985742034
 20
369.6429934422592
 42
0.0
 97
        0
 92
        7
 72
     0
 73
     1
 93
        4
 10
1545.472763596702
 20
371.2856919611347
 10
1531.213374669372
 20
371.2856919611329
 10
1531.213374669375
 20
369.6429934422574
 10
1545.472763596702
 20
369.6429934422574
 97
        0
 92
        7
 72
     0
 73
     1
 93
        4
 10
1573.991541451377
 20
371.2856919611365
 10
1559.732152524043
 20
371.2856919611347
 10
1559.732152524043
 20
369.6429934422574
 10
1573.991541451377
 20
369.6429934422574
 97
        0
 92
        7
 72
     0
 73
     1
 93
        4
 10
1589.880893998469
 20
371.2856919611383
 10
1588.250930378718
 20
371.2856919611383
 10
1588.250930378718
 20
369.6429934422574
 10
1589.880893998469
 20
369.6429934422574
 97
        0
 75
     0
 76
     1
 47
0.145140214399549
 98
        5
 10
1478.756703667844
 20
372.666463522062
 10
1507.219767346446
 20
370.1990648280514
 10
1535.101890710917
 20
370.7796082602324
 10
1565.597989172914
 20
370.7796082602324
 10
1589.268775852564
 20
370.4893563457478
  0
LINE
  5
260
330
1F
100
AcDbEntity
  8
PROFILY
100
AcDbLine
 10
1588.250930378718
 20
369.6429934422574
 30
0.0
 11
1588.250930378718
 21
371.2856919611347
 31
0.0
  0
LINE
  5
261
330
1F
100
AcDbEntity
  8
PROFILY
100
AcDbLine
 10
1559.732152524043
 20
369.6429934422574
 30
0.0
 11
1559.732152524043
 21
371.2856919611347
 31
0.0
  0
LINE
  5
262
330
1F
100
AcDbEntity
  8
PROFILY
100
AcDbLine
 10
1531.213374669372
 20
369.6429934422574
 30
0.0
 11
1531.213374669372
 21
371.2856919611347
 31
0.0
  0
HATCH
  5
263
330
1F
100
AcDbEntity
  8
PROFILY
100
AcDbHatch
 10
0.0
 20
0.0
 30
0.0
210
0.0
220
0.0
230
1.0
  2
SOLID
 70
     1
 71
     0
 91
        1
 92
        7
 72
     0
 73
     1
 93
        4
 10
1503.895018187147
 20
390.7762134157617
 10
1505.895018187151
 20
390.7762134157617
 10
1505.895018187151
 20
371.593858271213
 10
1503.895018187151
 20
371.593858271213
 97
        0
 75
     0
 76
     1
 47
0.0801976285649081
 98
        1
 10
1504.232691257445
 20
377.4352741638192
  0
LINE
  5
264
330
1F
100
AcDbEntity
  8
NOSNÉ KONSTRUKCE
100
AcDbLine
 10
1479.650401300422
 20
372.0868785430281
 30
0.0
 11
1503.650401300422
 21
372.0868785430281
 31
0.0
  0
LWPOLYLINE
  5
265
330
1F
100
AcDbEntity
  8
NOSNÉ KONSTRUKCE
100
AcDbPolyline
 90
        4
 70
     1
 43
0.0
 10
1506.209481066721
 20
372.5715051985186
 10
1589.880893998469
 20
372.5715051985186
 10
1589.880893998469
 20
472.5715051985186
 10
1506.209481066721
 20
472.5715051985186
  0
LWPOLYLINE
  5
266
330
1F
100
AcDbEntity
  8
NOSNÉ KONSTRUKCE
100
AcDbPolyline
 90
        2
 70
     0
 43
0.0
 10
1589.880893998469
 20
398.3598020105416
 42
-0.1112051866389916
 10
1558.610002570807
 20
372.7311853348526
  0
LWPOLYLINE
  5
267
330
1F
100
AcDbEntity
  8
NOSNÉ KONSTRUKCE
100
AcDbPolyline
 90
        2
 70
     0
 43
0.0
 10
1587.345373756153
 20
425.6490205613115
 42
-0.2104338366210547
 10
1507.260719796373
 20
372.7311853348526
  0
LINE
  5
268
330
1F
100
AcDbEntity
  8
NOSNÉ KONSTRUKCE
100
AcDbLine
 10
1482.503170344083
 20
372.0868785430318
 30
0.0
 11
1485.001963379363
 21
383.1468432040835
 31
0.0
  0
LINE
  5
269
330
1F
100
AcDbEntity
  8
NOSNÉ KONSTRUKCE
100
AcDbLine
 10
1491.746922358204
 20
372.08687854303
 30
0.0
 11
1491.546159836135
 21
384.5288708694949
 31
0.0
  0
LINE
  5
26A
330
1F
100
AcDbEntity
  8
NOSNÉ KONSTRUKCE
100
AcDbLine
 10
1499.94896004207
 20
383.4289817049155
 30
0.0
 11
1499.657986417234
 21
372.0868785430318
 31
0.0
  0
LINE
  5
26B
330
1F
100
AcDbEntity
  8
NOSNÉ KONSTRUKCE
100
AcDbLine
 10
1480.860077175365
 20
384.1772206220155
 30
0.0
 11
1482.632766072441
 21
393.0358337372324
 31
0.0
  0
LINE
  5
26C
330
1F
100
AcDbEntity
  8
NOSNÉ KONSTRUKCE
100
AcDbLine
 10
1485.001963379363
 20
383.1468432040835
 30
0.0
 11
1486.893725207853
 21
393.0368078727203
 31
0.0
  0
LINE
  5
26D
330
1F
100
AcDbEntity
  8
NOSNÉ KONSTRUKCE
100
AcDbLine
 10
1499.477975211105
 20
397.8645872761024
 30
0.0
 11
1499.94896004207
 21
383.4289817049155
 31
0.0
  0
LINE
  5
26E
330
1F
100
AcDbEntity
  8
NOSNÉ KONSTRUKCE
100
AcDbLine
 10
1486.893725207853
 20
393.0368078727203
 30
0.0
 11
1489.804105568254
 21
401.7632398581752
 31
0.0
  0
LINE
  5
26F
330
1F
100
AcDbEntity
  8
NOSNÉ KONSTRUKCE
100
AcDbLine
 10
1482.632766072441
 20
393.0358337372324
 30
0.0
 11
1482.077484997556
 21
398.6649117383328
 31
0.0
  0
LINE
  5
270
330
1F
100
AcDbEntity
  8
NOSNÉ KONSTRUKCE
100
AcDbLine
 10
1491.546159836135
 20
384.5288708694949
 30
0.0
 11
1492.815477966039
 21
405.6727702865443
 31
0.0
  0
LINE
  5
271
330
1F
100
AcDbEntity
  8
NOSNÉ KONSTRUKCE
100
AcDbLine
 10
1489.804105568254
 20
401.7632398581752
 30
0.0
 11
1489.804105568254
 21
406.1264648706762
 31
0.0
  0
LINE
  5
272
330
1F
100
AcDbEntity
  8
NOSNÉ KONSTRUKCE
100
AcDbLine
 10
1482.632766072441
 20
404.690390725185
 30
0.0
 11
1483.108917259072
 21
415.0463529483874
 31
0.0
  0
LINE
  5
273
330
1F
100
AcDbEntity
  8
NOSNÉ KONSTRUKCE
100
AcDbLine
 10
1482.077484997556
 20
398.6649117383328
 30
0.0
 11
1482.632766072441
 21
404.690390725185
 31
0.0
  0
LINE
  5
274
330
1F
100
AcDbEntity
  8
NOSNÉ KONSTRUKCE
100
AcDbLine
 10
1502.147580046555
 20
434.5049258116358
 30
0.0
 11
1499.477975211105
 21
397.8645872761024
 31
0.0
  0
LINE
  5
275
330
1F
100
AcDbEntity
  8
NOSNÉ KONSTRUKCE
100
AcDbLine
 10
1490.531715252581
 20
437.2507612009046
 30
0.0
 11
1490.531715252581
 21
444.2319031813619
 31
0.0
  0
LINE
  5
276
330
1F
100
AcDbEntity
  8
NOSNÉ KONSTRUKCE
100
AcDbLine
 10
1482.553636184194
 20
430.4272126950833
 30
0.0
 11
1484.140145201439
 21
437.5626469132346
 31
0.0
  0
LINE
  5
277
330
1F
100
AcDbEntity
  8
NOSNÉ KONSTRUKCE
100
AcDbLine
 10
1489.804105568254
 20
428.0879886746568
 30
0.0
 11
1490.531715252581
 21
437.2507612009046
 31
0.0
  0
LINE
  5
278
330
1F
100
AcDbEntity
  8
NOSNÉ KONSTRUKCE
100
AcDbLine
 10
1488.930991460132
 20
415.8709766791996
 30
0.0
 11
1489.804105568254
 21
428.0879886746568
 31
0.0
  0
LINE
  5
279
330
1F
100
AcDbEntity
  8
NOSNÉ KONSTRUKCE
100
AcDbLine
 10
1489.804105568254
 20
406.1264648706762
 30
0.0
 11
1488.930991460132
 21
415.8709766791996
 31
0.0
  0
LINE
  5
27A
330
1F
100
AcDbEntity
  8
NOSNÉ KONSTRUKCE
100
AcDbLine
 10
1483.108917259072
 20
415.0463529483874
 30
0.0
 11
1482.553636184194
 21
430.4272126950833
 31
0.0
  0
LINE
  5
27B
330
1F
100
AcDbEntity
  8
NOSNÉ KONSTRUKCE
100
AcDbLine
 10
1492.815477966039
 20
405.6727702865443
 30
0.0
 11
1494.507911868727
 21
432.9483835773624
 31
0.0
  0
LINE
  5
27C
330
1F
100
AcDbEntity
  8
NOSNÉ KONSTRUKCE
100
AcDbLine
 10
1494.507911868727
 20
432.9483835773624
 30
0.0
 11
1495.988787885027
 21
449.8635067189113
 31
0.0
  0
LINE
  5
27D
330
1F
100
AcDbEntity
  8
NOSNÉ KONSTRUKCE
100
AcDbLine
 10
1484.140145201439
 20
437.5626469132346
 30
0.0
 11
1486.280125609656
 21
455.7733882944282
 31
0.0
  0
LINE
  5
27E
330
1F
100
AcDbEntity
  8
NOSNÉ KONSTRUKCE
100
AcDbLine
 10
1490.531715252581
 20
444.2319031813619
 30
0.0
 11
1490.821614939071
 21
453.9108592793979
 31
0.0
  0
LINE
  5
27F
330
1F
100
AcDbEntity
  8
NOSNÉ KONSTRUKCE
100
AcDbLine
 10
1480.860077175362
 20
449.2431243836324
 30
0.0
 11
1482.34525983886
 21
465.5712069616436
 31
0.0
  0
LINE
  5
280
330
1F
100
AcDbEntity
  8
NOSNÉ KONSTRUKCE
100
AcDbLine
 10
1482.34525983886
 20
465.5712069616436
 30
0.0
 11
1481.470277669933
 21
487.1426977396347
 31
0.0
  0
LINE
  5
281
330
1F
100
AcDbEntity
  8
NOSNÉ KONSTRUKCE
100
AcDbLine
 10
1491.112652975112
 20
481.2536879189444
 30
0.0
 11
1491.403691011153
 21
490.5618952657621
 31
0.0
  0
LINE
  5
282
330
1F
100
AcDbEntity
  8
NOSNÉ KONSTRUKCE
100
AcDbLine
 10
1490.821614939071
 20
453.9108592793979
 30
0.0
 11
1491.112652975112
 21
481.2536879189444
 31
0.0
  0
LINE
  5
283
330
1F
100
AcDbEntity
  8
NOSNÉ KONSTRUKCE
100
AcDbLine
 10
1495.988787885027
 20
449.8635067189113
 30
0.0
 11
1497.259215176039
 21
474.7409788317761
 31
0.0
  0
LINE
  5
284
330
1F
100
AcDbEntity
  8
NOSNÉ KONSTRUKCE
100
AcDbLine
 10
1486.280125609656
 20
474.970820688495
 30
0.0
 11
1485.724990477021
 21
485.4017913443365
 31
0.0
  0
LINE
  5
285
330
1F
100
AcDbEntity
  8
NOSNÉ KONSTRUKCE
100
AcDbLine
 10
1486.280125609656
 20
455.7733882944282
 30
0.0
 11
1486.280125609656
 21
474.970820688495
 31
0.0
  0
LINE
  5
286
330
1F
100
AcDbEntity
  8
NOSNÉ KONSTRUKCE
100
AcDbLine
 10
1491.403691011153
 20
490.5618952657621
 30
0.0
 11
1493.440986451881
 21
498.1248126075822
 31
0.0
  0
LINE
  5
287
330
1F
100
AcDbEntity
  8
NOSNÉ KONSTRUKCE
100
AcDbLine
 10
1503.717510024136
 20
461.4932412914438
 30
0.0
 11
1502.147580046555
 21
434.5049258116358
 31
0.0
  0
LINE
  5
288
330
1F
100
AcDbEntity
  8
NOSNÉ KONSTRUKCE
100
AcDbLine
 10
1504.501540982527
 20
498.1501942489282
 30
0.0
 11
1503.717510024136
 21
461.4932412914438
 31
0.0
  0
LINE
  5
289
330
1F
100
AcDbEntity
  8
NOSNÉ KONSTRUKCE
100
AcDbLine
 10
1480.867809122617
 20
556.130793090331
 30
0.0
 11
1481.423090197502
 21
562.1562720771833
 31
0.0
  0
LINE
  5
28A
330
1F
100
AcDbEntity
  8
NOSNÉ KONSTRUKCE
100
AcDbLine
 10
1485.684049332914
 20
550.5026892247185
 30
0.0
 11
1488.594429693315
 21
559.2291212101733
 31
0.0
  0
LINE
  5
28B
330
1F
100
AcDbEntity
  8
NOSNÉ KONSTRUKCE
100
AcDbLine
 10
1481.423090197502
 20
550.5017150892306
 30
0.0
 11
1480.867809122617
 21
556.130793090331
 31
0.0
  0
LINE
  5
28C
330
1F
100
AcDbEntity
  8
NOSNÉ KONSTRUKCE
100
AcDbLine
 10
1498.268299336166
 20
555.3304686281006
 30
0.0
 11
1498.739284167131
 21
540.8948630569136
 31
0.0
  0
LINE
  5
28D
330
1F
100
AcDbEntity
  8
NOSNÉ KONSTRUKCE
100
AcDbLine
 10
1483.726486486484
 20
538.9853766737703
 30
0.0
 11
1485.684049332914
 21
550.5026892247185
 31
0.0
  0
LINE
  5
28E
330
1F
100
AcDbEntity
  8
NOSNÉ KONSTRUKCE
100
AcDbLine
 10
1479.650401300426
 20
541.6431019740136
 30
0.0
 11
1481.423090197502
 21
550.5017150892306
 31
0.0
  0
LINE
  5
28F
330
1F
100
AcDbEntity
  8
NOSNÉ KONSTRUKCE
100
AcDbLine
 10
1498.739284167131
 20
540.8948630569136
 30
0.0
 11
1498.448310542294
 21
529.5527598950299
 31
0.0
  0
LINE
  5
290
330
1F
100
AcDbEntity
  8
NOSNÉ KONSTRUKCE
100
AcDbLine
 10
1492.275024623813
 20
536.3330041727874
 30
0.0
 11
1490.336483961196
 21
541.9947522214932
 31
0.0
  0
LINE
  5
291
330
1F
100
AcDbEntity
  8
NOSNÉ KONSTRUKCE
100
AcDbLine
 10
1497.259215176039
 20
474.7409788317761
 30
0.0
 11
1497.259215176039
 21
510.4741627131422
 31
0.0
  0
LINE
  5
292
330
1F
100
AcDbEntity
  8
NOSNÉ KONSTRUKCE
100
AcDbLine
 10
1485.724990477021
 20
485.4017913443365
 30
0.0
 11
1485.502924748594
 21
511.1324618290179
 31
0.0
  0
LINE
  5
293
330
1F
100
AcDbEntity
  8
NOSNÉ KONSTRUKCE
100
AcDbLine
 10
1493.440986451881
 20
498.1248126075822
 30
0.0
 11
1494.60332891214
 21
511.6080925011935
 31
0.0
  0
LINE
  5
294
330
1F
100
AcDbEntity
  8
NOSNÉ KONSTRUKCE
100
AcDbLine
 10
1485.502924748594
 20
511.1324618290179
 30
0.0
 11
1483.726486486484
 21
538.9853766737703
 31
0.0
  0
LINE
  5
295
330
1F
100
AcDbEntity
  8
NOSNÉ KONSTRUKCE
100
AcDbLine
 10
1494.60332891214
 20
511.6080925011935
 30
0.0
 11
1492.275024623813
 21
536.3330041727874
 31
0.0
  0
LINE
  5
296
330
1F
100
AcDbEntity
  8
NOSNÉ KONSTRUKCE
100
AcDbLine
 10
1497.259215176039
 20
510.4741627131422
 30
0.0
 11
1498.448310542294
 21
529.5527598950299
 31
0.0
  0
LINE
  5
297
330
1F
100
AcDbEntity
  8
NOSNÉ KONSTRUKCE
100
AcDbLine
 10
1504.187560824698
 20
518.3914308587861
 30
0.0
 11
1504.501540982527
 21
498.1501942489282
 31
0.0
  0
LINE
  5
298
330
1F
100
AcDbEntity
  8
NOSNÉ KONSTRUKCE
100
AcDbLine
 10
1503.153647544924
 20
545.2075588711757
 30
0.0
 11
1504.187560824698
 21
518.3914308587861
 31
0.0
  0
LINE
  5
299
330
1F
100
AcDbEntity
  8
NOSNÉ KONSTRUKCE
100
AcDbLine
 10
1490.336483961196
 20
541.9947522214932
 30
0.0
 11
1491.6058020911
 21
563.1386516385425
 31
0.0
  0
LINE
  5
29A
330
1F
100
AcDbEntity
  8
NOSNÉ KONSTRUKCE
100
AcDbLine
 10
1481.423090197502
 20
562.1562720771833
 30
0.0
 11
1481.899241384132
 21
572.5122343003857
 31
0.0
  0
LINE
  5
29B
330
1F
100
AcDbEntity
  8
NOSNÉ KONSTRUKCE
100
AcDbLine
 10
1488.594429693315
 20
563.5923462226744
 30
0.0
 11
1487.721315585192
 21
573.3368580311978
 31
0.0
  0
LINE
  5
29C
330
1F
100
AcDbEntity
  8
NOSNÉ KONSTRUKCE
100
AcDbLine
 10
1488.594429693315
 20
559.2291212101733
 30
0.0
 11
1488.594429693315
 21
563.5923462226744
 31
0.0
  0
HATCH
  5
29D
330
1F
100
AcDbEntity
  8
PROFILY
100
AcDbHatch
 10
0.0
 20
0.0
 30
0.0
210
0.0
220
0.0
230
1.0
  2
SOLID
 70
     1
 71
     0
 91
        1
 92
        7
 72
     0
 73
     1
 93
        4
 10
1503.895018187147
 20
625.0173894468915
 10
1505.895018187151
 20
625.0173894468915
 10
1505.895018187151
 20
605.8350343023428
 10
1503.895018187151
 20
605.8350343023428
 97
        0
 75
     0
 76
     1
 47
0.0801976285649081
 98
        1
 10
1504.232691257445
 20
611.6764501949489
  0
LWPOLYLINE
  5
29E
330
1F
100
AcDbEntity
  8
PROFILY
100
AcDbPolyline
 90
        4
 70
     1
 43
0.0
 10
1503.895018187151
 20
573.3194566869513
 10
1503.895018187151
 20
592.5018118314999
 10
1505.895018187151
 20
592.5018118314999
 10
1505.895018187151
 20
573.3194566869513
  0
HATCH
  5
29F
330
1F
100
AcDbEntity
  8
PROFILY
100
AcDbHatch
 10
0.0
 20
0.0
 30
0.0
210
0.0
220
0.0
230
1.0
  2
SOLID
 70
     1
 71
     0
 91
        1
 92
        7
 72
     0
 73
     1
 93
        4
 10
1503.895018187147
 20
592.5023236690556
 10
1505.895018187151
 20
592.5023236690556
 10
1505.895018187151
 20
573.3199685245069
 10
1503.895018187151
 20
573.3199685245069
 97
        0
 75
     0
 76
     1
 47
0.0801976285649081
 98
        1
 10
1504.232691257445
 20
579.1613844171131
  0
HATCH
  5
2A0
330
1F
100
AcDbEntity
  8
PROFILY
100
AcDbHatch
 10
0.0
 20
0.0
 30
0.0
210
0.0
220
0.0
230
1.0
  2
SOLID
 70
     1
 71
     0
 91
        1
 92
        7
 72
     0
 73
     1
 93
        4
 10
1503.895018187147
 20
555.9143055247857
 10
1505.895018187151
 20
555.9143055247857
 10
1505.895018187151
 20
536.731950380237
 10
1503.895018187151
 20
536.731950380237
 97
        0
 75
     0
 76
     1
 47
0.0801976285649081
 98
        1
 10
1504.232691257445
 20
542.5733662728432
  0
HATCH
  5
2A1
330
1F
100
AcDbEntity
  8
PROFILY
100
AcDbHatch
 10
0.0
 20
0.0
 30
0.0
210
0.0
220
0.0
230
1.0
  2
SOLID
 70
     1
 71
     0
 91
        1
 92
        7
 72
     0
 73
     1
 93
        4
 10
1503.895018187147
 20
659.4243796972238
 10
1505.895018187151
 20
659.4243796972238
 10
1505.895018187151
 20
640.2420245526752
 10
1503.895018187151
 20
640.2420245526752
 97
        0
 75
     0
 76
     1
 47
0.0801976285649081
 98
        1
 10
1504.232691257445
 20
646.0834404452814
  0
HATCH
  5
2A2
330
1F
100
AcDbEntity
  8
PROFILY
100
AcDbHatch
 10
0.0
 20
0.0
 30
0.0
210
0.0
220
0.0
230
1.0
  2
SOLID
 70
     1
 71
     0
 91
        1
 92
        7
 72
     0
 73
     1
 93
        4
 10
1503.895018187147
 20
487.4706942292411
 10
1505.895018187151
 20
487.4706942292411
 10
1505.895018187151
 20
468.2883390846925
 10
1503.895018187151
 20
468.2883390846925
 97
        0
 75
     0
 76
     1
 47
0.0801976285649081
 98
        1
 10
1504.232691257445
 20
474.1297549772987
  0
LINE
  5
2A3
330
1F
100
AcDbEntity
  8
PROFILY
100
AcDbLine
 10
1505.895018187151
 20
934.8815704563183
 30
0.0
 11
1505.895018187154
 21
371.2856919611329
 31
0.0
  0
LINE
  5
2A4
330
1F
100
AcDbEntity
  8
PROFILY
100
AcDbLine
 10
1503.895018187154
 20
371.2856919611329
 30
0.0
 11
1503.895018187147
 21
934.8815704563183
 31
0.0
  0
HATCH
  5
2A5
330
1F
100
AcDbEntity
  8
PROFILY
100
AcDbHatch
 10
0.0
 20
0.0
 30
0.0
210
0.0
220
0.0
230
1.0
  2
SOLID
 70
     1
 71
     0
 91
        1
 92
        7
 72
     0
 73
     1
 93
        4
 10
1503.895018187147
 20
521.0840361828902
 10
1505.895018187151
 20
521.0840361828902
 10
1505.895018187151
 20
501.9016810383416
 10
1503.895018187151
 20
501.9016810383416
 97
        0
 75
     0
 76
     1
 47
0.0801976285649081
 98
        1
 10
1504.232691257445
 20
507.7430969309477
  0
LINE
  5
2A6
330
1F
100
AcDbEntity
  8
NOSNÉ KONSTRUKCE
100
AcDbLine
 10
1503.650401300422
 20
372.0868785430281
 30
0.0
 11
1503.65040130043
 21
932.3401180619383
 31
0.0
  0
LINE
  5
2A7
330
1F
100
AcDbEntity
  8
POPIS
100
AcDbLine
 10
1491.427729339542
 20
857.3863591193182
 30
0.0
 11
1497.000298516922
 21
849.5855070364211
 31
0.0
  0
LINE
  5
2A8
330
1F
100
AcDbEntity
  8
POPIS
100
AcDbLine
 10
1497.000298516922
 20
849.5855070364211
 30
0.0
 11
1493.321457179324
 21
849.5855070364211
 31
0.0
  0
LINE
  5
2A9
330
1F
100
AcDbEntity
  8
POPIS
100
AcDbLine
 10
1493.321457179324
 20
849.5902281332126
 30
0.0
 11
1494.847203127282
 21
836.654584234129
 31
0.0
  0
LINE
  5
2AA
330
1F
100
AcDbEntity
  8
POPIS
100
AcDbLine
 10
1489.534001499759
 20
849.5902281332126
 30
0.0
 11
1488.008255551801
 21
836.654584234129
 31
0.0
  0
LINE
  5
2AB
330
1F
100
AcDbEntity
  8
POPIS
100
AcDbLine
 10
1485.855160162161
 20
849.5855070364211
 30
0.0
 11
1489.534001499759
 21
849.5855070364211
 31
0.0
  0
LINE
  5
2AC
330
1F
100
AcDbEntity
  8
POPIS
100
AcDbLine
 10
1491.427729339542
 20
857.3863591193182
 30
0.0
 11
1485.855160162161
 21
849.5855070364211
 31
0.0
  0
HATCH
  5
2AD
330
1F
100
AcDbEntity
  8
POPIS
100
AcDbHatch
 10
0.0
 20
0.0
 30
0.0
210
0.0
220
0.0
230
1.0
  2
SOLID
 70
     1
 71
     0
 91
        1
 92
        7
 72
     0
 73
     1
 93
        8
 10
1493.321457179324
 20
849.5902281332126
 10
1497.000298516926
 20
849.5902281332126
 10
1491.427729339545
 20
857.3910802161078
 10
1485.855160162161
 20
849.5902281332126
 10
1489.534001499759
 20
849.5902281332126
 10
1488.008255551801
 20
836.6545842341272
 10
1491.427729339538
 20
842.0358808816105
 10
1494.847203127279
 20
836.6545842341272
 97
        0
 75
     0
 76
     1
 47
0.3835833255279223
 98
        1
 10
1491.835912086796
 20
846.6820449527128
  0
LINE
  5
2AE
330
1F
100
AcDbEntity
  8
NOSNÉ KONSTRUKCE
100
AcDbLine
 10
1482.975857366414
 20
849.5148041997051
 30
0.0
 11
1484.46049869278
 21
861.8800110662775
 31
0.0
  0
LINE
  5
2AF
330
1F
100
AcDbEntity
  8
NOSNÉ KONSTRUKCE
100
AcDbLine
 10
1494.640255934231
 20
858.8229950029214
 30
0.0
 11
1494.779112010087
 21
863.6412480300203
 31
0.0
  0
LINE
  5
2B0
330
1F
100
AcDbEntity
  8
NOSNÉ KONSTRUKCE
100
AcDbLine
 10
1503.728427882007
 20
932.3391972759889
 30
0.0
 11
1502.507834149196
 21
875.2709826025528
 31
0.0
  0
LINE
  5
2B1
330
1F
100
AcDbEntity
  8
NOSNÉ KONSTRUKCE
100
AcDbLine
 10
1479.650401300422
 20
863.0208656947504
 30
0.0
 11
1485.974569945526
 21
932.548709247281
 31
0.0
  0
LINE
  5
2B2
330
1F
100
AcDbEntity
  8
NOSNÉ KONSTRUKCE
100
AcDbLine
 10
1485.070449734717
 20
869.5511296055371
 30
0.0
 11
1485.070449734717
 21
932.5593787033701
 31
0.0
  0
LINE
  5
2B3
330
1F
100
AcDbEntity
  8
NOSNÉ KONSTRUKCE
100
AcDbLine
 10
1489.611939064132
 20
867.6886005905069
 30
0.0
 11
1490.301768819688
 21
932.4976442917339
 31
0.0
  0
LINE
  5
2B4
330
1F
100
AcDbEntity
  8
NOSNÉ KONSTRUKCE
100
AcDbLine
 10
1494.779112010087
 20
863.6412480300203
 30
0.0
 11
1498.290613261909
 21
932.4033685262419
 31
0.0
  0
LINE
  5
2B5
330
1F
100
AcDbEntity
  8
NOSNÉ KONSTRUKCE
100
AcDbLine
 10
1484.46049869278
 20
861.8800110662775
 30
0.0
 11
1485.070449734717
 21
869.5511296055371
 31
0.0
  0
LINE
  5
2B6
330
1F
100
AcDbEntity
  8
NOSNÉ KONSTRUKCE
100
AcDbLine
 10
1489.346400481833
 20
858.8229950029214
 30
0.0
 11
1489.611939064132
 21
867.6886005905069
 31
0.0
  0
LINE
  5
2B7
330
1F
100
AcDbEntity
  8
NOSNÉ KONSTRUKCE
100
AcDbLine
 10
1502.507834149196
 20
875.2709826025528
 30
0.0
 11
1500.937904171616
 21
848.2826671227446
 31
0.0
  0
LINE
  5
2B8
330
1F
100
AcDbEntity
  8
NOSNÉ KONSTRUKCE
100
AcDbLine
 10
1500.064965194192
 20
842.2409886235033
 30
0.0
 11
1500.937904171616
 21
848.2826671227446
 31
0.0
  0
LINE
  5
2B9
330
1F
100
AcDbEntity
  8
NOSNÉ KONSTRUKCE
100
AcDbLine
 10
1501.757399096888
 20
809.2565084192354
 30
0.0
 11
1503.650401300422
 21
791.5998421993569
 31
0.0
  0
LINE
  5
2BA
330
1F
100
AcDbEntity
  8
NOSNÉ KONSTRUKCE
100
AcDbLine
 10
1497.105431483803
 20
768.7464707730976
 30
0.0
 11
1497.316989370199
 21
798.1364812214413
 31
0.0
  0
LINE
  5
2BB
330
1F
100
AcDbEntity
  8
NOSNÉ KONSTRUKCE
100
AcDbLine
 10
1491.350461529545
 20
793.5858974832624
 30
0.0
 11
1491.510141740396
 21
797.9747307835512
 31
0.0
  0
LINE
  5
2BC
330
1F
100
AcDbEntity
  8
NOSNÉ KONSTRUKCE
100
AcDbLine
 10
1492.369109249913
 20
785.0049003183774
 30
0.0
 11
1491.350461529545
 21
793.5858974832624
 31
0.0
  0
LINE
  5
2BD
330
1F
100
AcDbEntity
  8
NOSNÉ KONSTRUKCE
100
AcDbLine
 10
1484.707929184354
 20
799.3121184400477
 30
0.0
 11
1482.480967194809
 21
824.5371224083172
 31
0.0
  0
LINE
  5
2BE
330
1F
100
AcDbEntity
  8
NOSNÉ KONSTRUKCE
100
AcDbLine
 10
1497.316989370199
 20
798.1364812214413
 30
0.0
 11
1496.46853950242
 21
825.7487485213712
 31
0.0
  0
LINE
  5
2BF
330
1F
100
AcDbEntity
  8
NOSNÉ KONSTRUKCE
100
AcDbLine
 10
1496.46853950242
 20
825.7487485213712
 30
0.0
 11
1495.824688092401
 21
836.0447344433138
 31
0.0
  0
LINE
  5
2C0
330
1F
100
AcDbEntity
  8
NOSNÉ KONSTRUKCE
100
AcDbLine
 10
1491.510141740396
 20
797.9747307835512
 30
0.0
 11
1489.895271349341
 21
831.2550132926951
 31
0.0
  0
LINE
  5
2C1
330
1F
100
AcDbEntity
  8
NOSNÉ KONSTRUKCE
100
AcDbLine
 10
1482.480967194809
 20
824.5371224083172
 30
0.0
 11
1482.975857366414
 21
849.5148041997051
 31
0.0
  0
LINE
  5
2C2
330
1F
100
AcDbEntity
  8
NOSNÉ KONSTRUKCE
100
AcDbLine
 10
1500.064965194192
 20
842.2409886235033
 30
0.0
 11
1501.757399096888
 21
809.2565084192354
 31
0.0
  0
LINE
  5
2C3
330
1F
100
AcDbEntity
  8
NOSNÉ KONSTRUKCE
100
AcDbLine
 10
1491.208664038909
 20
738.9874072908712
 30
0.0
 11
1491.790740110991
 21
751.2044192863247
 31
0.0
  0
LINE
  5
2C4
330
1F
100
AcDbEntity
  8
NOSNÉ KONSTRUKCE
100
AcDbLine
 10
1503.291865107588
 20
655.6160756009265
 30
0.0
 11
1502.507834149196
 21
618.959122643442
 31
0.0
  0
LINE
  5
2C5
330
1F
100
AcDbEntity
  8
NOSNÉ KONSTRUKCE
100
AcDbLine
 10
1500.937904171616
 20
591.9708071636339
 30
0.0
 11
1498.268299336166
 21
555.3304686281006
 31
0.0
  0
LINE
  5
2C6
330
1F
100
AcDbEntity
  8
NOSNÉ KONSTRUKCE
100
AcDbLine
 10
1491.6058020911
 20
563.1386516385425
 30
0.0
 11
1493.298235993788
 21
590.4142649293605
 31
0.0
  0
LINE
  5
2C7
330
1F
100
AcDbEntity
  8
NOSNÉ KONSTRUKCE
100
AcDbLine
 10
1481.899241384132
 20
572.5122343003857
 30
0.0
 11
1481.343960309255
 21
587.8930940470816
 31
0.0
  0
LINE
  5
2C8
330
1F
100
AcDbEntity
  8
NOSNÉ KONSTRUKCE
100
AcDbLine
 10
1487.721315585192
 20
573.3368580311978
 30
0.0
 11
1488.594429693315
 21
585.5538700266549
 31
0.0
  0
LINE
  5
2C9
330
1F
100
AcDbEntity
  8
NOSNÉ KONSTRUKCE
100
AcDbLine
 10
1488.594429693315
 20
585.5538700266549
 30
0.0
 11
1489.322039377642
 21
594.7166425529028
 31
0.0
  0
LINE
  5
2CA
330
1F
100
AcDbEntity
  8
NOSNÉ KONSTRUKCE
100
AcDbLine
 10
1482.930469326499
 20
595.0285282652328
 30
0.0
 11
1485.070449734717
 21
613.2392696464265
 31
0.0
  0
LINE
  5
2CB
330
1F
100
AcDbEntity
  8
NOSNÉ KONSTRUKCE
100
AcDbLine
 10
1481.343960309255
 20
587.8930940470816
 30
0.0
 11
1482.930469326499
 21
595.0285282652328
 31
0.0
  0
LINE
  5
2CC
330
1F
100
AcDbEntity
  8
NOSNÉ KONSTRUKCE
100
AcDbLine
 10
1485.070449734717
 20
613.2392696464265
 30
0.0
 11
1485.070449734717
 21
632.4367020404931
 31
0.0
  0
LINE
  5
2CD
330
1F
100
AcDbEntity
  8
NOSNÉ KONSTRUKCE
100
AcDbLine
 10
1493.298235993788
 20
590.4142649293605
 30
0.0
 11
1494.779112010087
 21
607.3293880709095
 31
0.0
  0
LINE
  5
2CE
330
1F
100
AcDbEntity
  8
NOSNÉ KONSTRUKCE
100
AcDbLine
 10
1489.322039377642
 20
601.6977845333602
 30
0.0
 11
1489.611939064132
 21
611.3767406313961
 31
0.0
  0
LINE
  5
2CF
330
1F
100
AcDbEntity
  8
NOSNÉ KONSTRUKCE
100
AcDbLine
 10
1489.322039377642
 20
594.7166425529028
 30
0.0
 11
1489.322039377642
 21
601.6977845333602
 31
0.0
  0
LINE
  5
2D0
330
1F
100
AcDbEntity
  8
NOSNÉ KONSTRUKCE
100
AcDbLine
 10
1502.507834149196
 20
618.959122643442
 30
0.0
 11
1500.937904171616
 21
591.9708071636339
 31
0.0
  0
LINE
  5
2D1
330
1F
100
AcDbEntity
  8
NOSNÉ KONSTRUKCE
100
AcDbLine
 10
1494.779112010087
 20
607.3293880709095
 30
0.0
 11
1496.0495393011
 21
632.2068601837742
 31
0.0
  0
LINE
  5
2D2
330
1F
100
AcDbEntity
  8
NOSNÉ KONSTRUKCE
100
AcDbLine
 10
1489.611939064132
 20
611.3767406313961
 30
0.0
 11
1489.902977100173
 21
638.7195692709426
 31
0.0
  0
LINE
  5
2D3
330
1F
100
AcDbEntity
  8
NOSNÉ KONSTRUKCE
100
AcDbLine
 10
1479.650401300422
 20
606.7090057356324
 30
0.0
 11
1481.135583963921
 21
623.0370883136417
 31
0.0
  0
LINE
  5
2D4
330
1F
100
AcDbEntity
  8
NOSNÉ KONSTRUKCE
100
AcDbLine
 10
1485.070449734717
 20
632.4367020404931
 30
0.0
 11
1484.628969219975
 21
640.7321062109147
 31
0.0
  0
LINE
  5
2D5
330
1F
100
AcDbEntity
  8
NOSNÉ KONSTRUKCE
100
AcDbLine
 10
1489.902977100173
 20
638.7195692709426
 30
0.0
 11
1489.965902728777
 21
640.7321062109147
 31
0.0
  0
LINE
  5
2D6
330
1F
100
AcDbEntity
  8
NOSNÉ KONSTRUKCE
100
AcDbLine
 10
1481.135583963921
 20
623.0370883136417
 30
0.0
 11
1480.260601794994
 21
644.6085790916328
 31
0.0
  0
LINE
  5
2D7
330
1F
100
AcDbEntity
  8
NOSNÉ KONSTRUKCE
100
AcDbLine
 10
1480.260601794994
 20
644.6085790916328
 30
0.0
 11
1479.650401300422
 21
654.3768241595587
 31
0.0
  0
LINE
  5
2D8
330
1F
100
AcDbEntity
  8
NOSNÉ KONSTRUKCE
100
AcDbLine
 10
1500.485804267874
 20
729.5789000677975
 30
0.0
 11
1500.597975481643
 21
709.9603344702879
 31
0.0
  0
LINE
  5
2D9
330
1F
100
AcDbEntity
  8
NOSNÉ KONSTRUKCE
100
AcDbLine
 10
1500.597975481643
 20
709.9603344702879
 30
0.0
 11
1501.943971669985
 21
702.6734402231738
 31
0.0
  0
LINE
  5
2DA
330
1F
100
AcDbEntity
  8
NOSNÉ KONSTRUKCE
100
AcDbLine
 10
1484.293248873654
 20
668.5983431810162
 30
0.0
 11
1482.516810611544
 21
696.4512580257685
 31
0.0
  0
LINE
  5
2DB
330
1F
100
AcDbEntity
  8
NOSNÉ KONSTRUKCE
100
AcDbLine
 10
1491.065348748874
 20
693.7988855247856
 30
0.0
 11
1490.774310712833
 21
707.470299844557
 31
0.0
  0
LINE
  5
2DC
330
1F
100
AcDbEntity
  8
NOSNÉ KONSTRUKCE
100
AcDbLine
 10
1493.3936530372
 20
669.0739738531918
 30
0.0
 11
1491.065348748874
 21
693.7988855247856
 31
0.0
  0
LINE
  5
2DD
330
1F
100
AcDbEntity
  8
NOSNÉ KONSTRUKCE
100
AcDbLine
 10
1490.774310712833
 20
707.470299844557
 30
0.0
 11
1490.337739064546
 21
716.7785071913783
 31
0.0
  0
LINE
  5
2DE
330
1F
100
AcDbEntity
  8
NOSNÉ KONSTRUKCE
100
AcDbLine
 10
1482.738847151529
 20
712.8744788245674
 30
0.0
 11
1483.514880474583
 21
732.8275336856566
 31
0.0
  0
LINE
  5
2DF
330
1F
100
AcDbEntity
  8
NOSNÉ KONSTRUKCE
100
AcDbLine
 10
1495.626423528315
 20
690.775439560755
 30
0.0
 11
1496.472479943185
 21
709.5935003005722
 31
0.0
  0
LINE
  5
2E0
330
1F
100
AcDbEntity
  8
NOSNÉ KONSTRUKCE
100
AcDbLine
 10
1496.472479943185
 20
709.5935003005722
 30
0.0
 11
1496.893873597414
 21
730.6874662540465
 31
0.0
  0
LINE
  5
2E1
330
1F
100
AcDbEntity
  8
NOSNÉ KONSTRUKCE
100
AcDbLine
 10
1482.516810611544
 20
696.4512580257685
 30
0.0
 11
1482.738847151529
 21
712.8744788245674
 31
0.0
  0
LINE
  5
2E2
330
1F
100
AcDbEntity
  8
NOSNÉ KONSTRUKCE
100
AcDbLine
 10
1490.77212157908
 20
723.1343804648457
 30
0.0
 11
1491.208664038909
 21
738.9874072908712
 31
0.0
  0
LINE
  5
2E3
330
1F
100
AcDbEntity
  8
NOSNÉ KONSTRUKCE
100
AcDbLine
 10
1483.514880474583
 20
732.8275336856566
 30
0.0
 11
1485.945110830688
 21
755.7866443883429
 31
0.0
  0
LINE
  5
2E4
330
1F
100
AcDbEntity
  8
NOSNÉ KONSTRUKCE
100
AcDbLine
 10
1479.385590437617
 20
758.1894578087374
 30
0.0
 11
1481.135583963921
 21
777.4288682265503
 31
0.0
  0
LINE
  5
2E5
330
1F
100
AcDbEntity
  8
NOSNÉ KONSTRUKCE
100
AcDbLine
 10
1491.790740110991
 20
751.2044192863247
 30
0.0
 11
1493.245959479645
 21
771.2752182647343
 31
0.0
  0
LINE
  5
2E6
330
1F
100
AcDbEntity
  8
NOSNÉ KONSTRUKCE
100
AcDbLine
 10
1485.945110830688
 20
755.7866443883429
 30
0.0
 11
1486.934861985449
 21
779.0332152579574
 31
0.0
  0
LINE
  5
2E7
330
1F
100
AcDbEntity
  8
NOSNÉ KONSTRUKCE
100
AcDbLine
 10
1493.245959479645
 20
771.2752182647343
 30
0.0
 11
1492.369109249913
 21
785.0049003183774
 31
0.0
  0
LINE
  5
2E8
330
1F
100
AcDbEntity
  8
NOSNÉ KONSTRUKCE
100
AcDbLine
 10
1481.135583963921
 20
777.4288682265503
 30
0.0
 11
1480.260601794994
 21
799.0003590045414
 31
0.0
  0
LINE
  5
2E9
330
1F
100
AcDbEntity
  8
NOSNÉ KONSTRUKCE
100
AcDbLine
 10
1486.934861985449
 20
779.0332152579574
 30
0.0
 11
1484.707929184354
 21
799.3121184400477
 31
0.0
  0
LINE
  5
2EA
330
1F
100
AcDbEntity
  8
NOSNÉ KONSTRUKCE
100
AcDbLine
 10
1502.280368557497
 20
749.3794846853449
 30
0.0
 11
1500.485804267874
 21
729.5789000677975
 31
0.0
  0
LINE
  5
2EB
330
1F
100
AcDbEntity
  8
NOSNÉ KONSTRUKCE
100
AcDbLine
 10
1496.893873597414
 20
730.6874662540465
 30
0.0
 11
1497.105431483803
 21
768.7464707730976
 31
0.0
  0
LINE
  5
2EC
330
1F
100
AcDbEntity
  8
NOSNÉ KONSTRUKCE
100
AcDbLine
 10
1479.650401300422
 20
372.0868785430281
 30
0.0
 11
1479.650401300422
 21
932.6233402961696
 31
0.0
  0
LINE
  5
2ED
330
1F
100
AcDbEntity
  8
NOSNÉ KONSTRUKCE
100
AcDbLine
 10
1484.336195561197
 20
663.6221270246712
 30
0.0
 11
1484.293248873654
 21
668.5983431810162
 31
0.0
  0
LINE
  5
2EE
330
1F
100
AcDbEntity
  8
NOSNÉ KONSTRUKCE
100
AcDbLine
 10
1496.0495393011
 20
632.2068601837742
 30
0.0
 11
1496.0495393011
 21
640.7321062109147
 31
0.0
  0
LINE
  5
2EF
330
1F
100
AcDbEntity
  8
NOSNÉ KONSTRUKCE
100
AcDbLine
 10
1490.194015136213
 20
648.0277766177603
 30
0.0
 11
1492.231310576942
 21
655.5906939595804
 31
0.0
  0
LINE
  5
2F0
330
1F
100
AcDbEntity
  8
NOSNÉ KONSTRUKCE
100
AcDbLine
 10
1496.0495393011
 20
667.9400440651404
 30
0.0
 11
1495.626423528315
 21
690.775439560755
 31
0.0
  0
LINE
  5
2F1
330
1F
100
AcDbEntity
  8
NOSNÉ KONSTRUKCE
100
AcDbLine
 10
1492.923669983698
 20
663.6221270246712
 30
0.0
 11
1493.3936530372
 21
669.0739738531918
 31
0.0
  0
INSERT
  5
2F2
330
1F
100
AcDbEntity
  8
POPIS
100
AcDbBlockReference
  2
E_PUNKT
 10
1537.035332880957
 20
459.1720898599795
 30
0.0
  0
LINE
  5
2F3
330
1F
100
AcDbEntity
  8
SPOJOVACÍ
  6
DASHED
100
AcDbLine
 10
1647.679174299242
 20
429.2936853348526
 30
0.0
 11
1514.821655243482
 21
429.2936853348526
 31
0.0
  0
LINE
  5
2F4
330
1F
100
AcDbEntity
  8
SPOJOVACÍ
  6
DASHED
100
AcDbLine
 10
1647.679174299238
 20
416.1686853348544
 30
0.0
 11
1514.821655243482
 21
416.168685334849
 31
0.0
  0
LINE
  5
2F5
330
1F
100
AcDbEntity
  8
SPOJOVACÍ
  6
DASHED
100
AcDbLine
 10
1651.468035440796
 20
422.7311853348544
 30
0.0
 11
1647.679174299242
 21
429.2936853348526
 31
0.0
  0
LINE
  5
2F6
330
1F
100
AcDbEntity
  8
SPOJOVACÍ
  6
DASHED
100
AcDbLine
 10
1642.093035440796
 20
422.7311853348544
 30
0.0
 11
1639.458874837618
 21
427.2936853348544
 31
0.0
  0
LINE
  5
2F7
330
1F
100
AcDbEntity
  8
SPOJOVACÍ
100
AcDbLine
 10
1631.942825918889
 20
423.6039072252276
 30
0.0
 11
1632.432979551776
 21
421.774628963785
 31
0.0
  0
LINE
  5
2F8
330
1F
100
AcDbEntity
  8
SPOJOVACÍ
100
AcDbLine
 10
1635.797258498769
 20
423.214159531162
 30
0.0
 11
1636.082996594242
 21
422.1477704412024
 31
0.0
  0
LINE
  5
2F9
330
1F
100
AcDbEntity
  8
SPOJOVACÍ
100
AcDbLine
 10
1637.728896484786
 20
423.0027836897149
 30
0.0
 11
1637.904270879094
 21
422.3482775397985
 31
0.0
  0
LINE
  5
2FA
330
1F
100
AcDbEntity
  8
SPOJOVACÍ
100
AcDbLine
 10
1639.663507423017
 20
422.7803126395299
 30
0.0
 11
1639.723063639113
 21
422.5580458151487
 31
0.0
  0
LINE
  5
2FB
330
1F
100
AcDbEntity
  8
SPOJOVACÍ
100
AcDbLine
 10
1633.868574482581
 20
423.4145110071328
 30
0.0
 11
1634.259234866152
 21
421.9565466071414
 31
0.0
  0
LINE
  5
2FC
330
1F
100
AcDbEntity
  8
SPOJOVACÍ
  6
DASHED
100
AcDbLine
 10
1642.093035440796
 20
422.7311853348544
 30
0.0
 11
1639.458874837615
 21
418.1686853348471
 31
0.0
  0
LINE
  5
2FD
330
1F
100
AcDbEntity
  8
SPOJOVACÍ
  6
DASHED
100
AcDbLine
 10
1651.468035440796
 20
422.7311853348544
 30
0.0
 11
1647.679174299238
 21
416.1686853348544
 31
0.0
  0
LINE
  5
2FE
330
1F
100
AcDbEntity
  8
SPOJOVACÍ
  6
DASHED
100
AcDbLine
 10
1639.458874837618
 20
427.2936853348544
 30
0.0
 11
1513.835294514504
 21
427.2936853348526
 31
0.0
  0
LINE
  5
2FF
330
1F
100
AcDbEntity
  8
SPOJOVACÍ
  6
DASHED
100
AcDbLine
 10
1639.458874837615
 20
418.1686853348471
 30
0.0
 11
1513.835294514504
 21
418.1686853348489
 31
0.0
  0
LINE
  5
300
330
1F
100
AcDbEntity
  8
SPOJOVACÍ
  6
DASHDOT2
100
AcDbLine
 10
1500.827495211673
 20
422.7311853348526
 30
0.0
 11
1686.074480572958
 21
422.7311853348544
 31
0.0
  0
LINE
  5
301
330
1F
100
AcDbEntity
  8
NOSNÉ KONSTRUKCE
100
AcDbLine
 10
1501.943971669985
 20
702.6734402231738
 30
0.0
 11
1502.977884949759
 21
675.8573122107844
 31
0.0
  0
LINE
  5
302
330
1F
100
AcDbEntity
  8
NOSNÉ KONSTRUKCE
100
AcDbLine
 10
1502.977884949759
 20
675.8573122107844
 30
0.0
 11
1503.291865107588
 21
655.6160756009265
 31
0.0
  0
LINE
  5
303
330
1F
100
AcDbEntity
  8
SPOJOVACÍ
100
AcDbLine
 10
1506.209481066721
 20
415.1539642443529
 30
0.0
 11
1506.209481066721
 21
436.7936853348508
 31
0.0
  0
LINE
  5
304
330
1F
100
AcDbEntity
  8
SPOJOVACÍ
100
AcDbLine
 10
1506.209481066721
 20
422.7311853348508
 30
0.0
 11
1506.209481066721
 21
408.6686853348508
 31
0.0
  0
LINE
  5
305
330
1F
100
AcDbEntity
  8
SPOJOVACÍ
100
AcDbLine
 10
1536.350797037793
 20
423.0202118912345
 30
0.0
 11
1536.506763000735
 21
422.4381389932894
 31
0.0
  0
LINE
  5
306
330
1F
100
AcDbEntity
  8
SPOJOVACÍ
100
AcDbLine
 10
1538.172523206255
 20
423.2190325372646
 30
0.0
 11
1538.417053742112
 21
422.3064321534399
 31
0.0
  0
LINE
  5
307
330
1F
100
AcDbEntity
  8
SPOJOVACÍ
100
AcDbLine
 10
1506.209481066721
 20
436.7936853348508
 30
0.0
 11
1509.067372561828
 21
436.7936853348508
 31
0.0
  0
LINE
  5
308
330
1F
100
AcDbEntity
  8
SPOJOVACÍ
100
AcDbLine
 10
1509.067372561828
 20
408.6686853348508
 30
0.0
 11
1506.209481066721
 21
408.6686853348508
 31
0.0
  0
LINE
  5
309
330
1F
100
AcDbEntity
  8
SPOJOVACÍ
100
AcDbLine
 10
1590.286779224679
 20
425.1192941182742
 30
0.0
 11
1591.609009746225
 21
420.1846626325566
 31
0.0
  0
LINE
  5
30A
330
1F
100
AcDbEntity
  8
SPOJOVACÍ
100
AcDbLine
 10
1590.65108751177
 20
423.7596770812267
 30
0.0
 11
1591.141750902457
 21
421.9284963777643
 31
0.0
  0
LINE
  5
30B
330
1F
100
AcDbEntity
  8
SPOJOVACÍ
100
AcDbLine
 10
1539.996737918245
 20
423.4085658123892
 30
0.0
 11
1540.405894212086
 21
421.8815737355287
 31
0.0
  0
LINE
  5
30C
330
1F
100
AcDbEntity
  8
SPOJOVACÍ
100
AcDbLine
 10
1541.823447357953
 20
423.5887886369344
 30
0.0
 11
1542.331110931048
 21
421.6941623889885
 31
0.0
  0
LINE
  5
30D
330
1F
100
AcDbEntity
  8
SPOJOVACÍ
100
AcDbLine
 10
1543.652657937305
 20
423.7596770812267
 30
0.0
 11
1544.253413497786
 21
421.5176268065768
 31
0.0
  0
LINE
  5
30E
330
1F
100
AcDbEntity
  8
SPOJOVACÍ
100
AcDbLine
 10
1545.484376298761
 20
423.9212063553147
 30
0.0
 11
1546.172819453229
 21
421.3519015247181
 31
0.0
  0
LINE
  5
30F
330
1F
100
AcDbEntity
  8
SPOJOVACÍ
100
AcDbLine
 10
1547.318609318138
 20
424.0733507982692
 30
0.0
 11
1548.089345907417
 21
421.1969226878225
 31
0.0
  0
LINE
  5
310
330
1F
100
AcDbEntity
  8
SPOJOVACÍ
100
AcDbLine
 10
1550.994648018906
 20
424.3493781248032
 30
0.0
 11
1551.91382665732
 21
420.9189567450009
 31
0.0
  0
LINE
  5
311
330
1F
100
AcDbEntity
  8
SPOJOVACÍ
100
AcDbLine
 10
1552.836468646328
 20
424.4732052290271
 30
0.0
 11
1553.821813106605
 21
420.7958496403041
 31
0.0
  0
LINE
  5
312
330
1F
100
AcDbEntity
  8
SPOJOVACÍ
100
AcDbLine
 10
1549.155364107634
 20
424.216083867024
 30
0.0
 11
1550.003009549505
 21
421.0526280111423
 31
0.0
  0
LINE
  5
313
330
1F
100
AcDbEntity
  8
SPOJOVACÍ
100
AcDbLine
 10
1556.527751660912
 20
424.6923400018584
 30
0.0
 11
1557.62935557535
 21
420.5810982233595
 31
0.0
  0
LINE
  5
314
330
1F
100
AcDbEntity
  8
SPOJOVACÍ
100
AcDbLine
 10
1554.680833830333
 20
424.5875359188009
 30
0.0
 11
1555.726984379947
 21
420.6832489152691
 31
0.0
  0
LINE
  5
315
330
1F
100
AcDbEntity
  8
SPOJOVACÍ
100
AcDbLine
 10
1586.564549764898
 20
425.0156530512283
 30
0.0
 11
1587.834558108228
 21
420.2759173878801
 31
0.0
  0
LINE
  5
316
330
1F
100
AcDbEntity
  8
SPOJOVACÍ
100
AcDbLine
 10
1558.377230481247
 20
424.7875863410388
 30
0.0
 11
1559.52894141454
 21
420.489342622344
 31
0.0
  0
LINE
  5
317
330
1F
100
AcDbEntity
  8
SPOJOVACÍ
100
AcDbLine
 10
1560.229278891463
 20
424.8732428402234
 30
0.0
 11
1561.425756250962
 21
420.4079285444747
 31
0.0
  0
LINE
  5
318
330
1F
100
AcDbEntity
  8
SPOJOVACÍ
100
AcDbLine
 10
1562.083905752555
 20
424.9492764297427
 30
0.0
 11
1563.319814077461
 21
420.3368037676953
 31
0.0
  0
LINE
  5
319
330
1F
100
AcDbEntity
  8
SPOJOVACÍ
100
AcDbLine
 10
1588.394475314973
 20
425.1838731884761
 30
0.0
 11
1589.723142488084
 21
420.2252197920568
 31
0.0
  0
LINE
  5
31A
330
1F
100
AcDbEntity
  8
SPOJOVACÍ
100
AcDbLine
 10
1509.067372561828
 20
436.7936853348508
 30
0.0
 11
1514.821655243482
 21
429.2936853348526
 31
0.0
  0
LINE
  5
31B
330
1F
100
AcDbEntity
  8
SPOJOVACÍ
100
AcDbLine
 10
1509.067372561828
 20
408.6686853348508
 30
0.0
 11
1514.821655243482
 21
416.168685334849
 31
0.0
  0
LINE
  5
31C
330
1F
100
AcDbEntity
  8
SPOJOVACÍ
100
AcDbLine
 10
1508.081011832847
 20
434.7936853348508
 30
0.0
 11
1513.835294514504
 21
427.2936853348526
 31
0.0
  0
LINE
  5
31D
330
1F
100
AcDbEntity
  8
SPOJOVACÍ
100
AcDbLine
 10
1506.209481066721
 20
434.7936853348508
 30
0.0
 11
1508.081011832847
 21
434.7936853348508
 31
0.0
  0
LINE
  5
31E
330
1F
100
AcDbEntity
  8
SPOJOVACÍ
100
AcDbLine
 10
1508.081011832847
 20
410.6686853348508
 30
0.0
 11
1513.835294514504
 21
418.1686853348489
 31
0.0
  0
LINE
  5
31F
330
1F
100
AcDbEntity
  8
SPOJOVACÍ
100
AcDbLine
 10
1506.209481066721
 20
410.6686853348508
 30
0.0
 11
1508.081011832847
 21
410.6686853348508
 31
0.0
  0
LINE
  5
320
330
1F
100
AcDbEntity
  8
SPOJOVACÍ
100
AcDbLine
 10
1566.491534642478
 20
425.1838731884761
 30
0.0
 11
1567.820201815589
 21
420.2252197920568
 31
0.0
  0
LINE
  5
321
330
1F
100
AcDbEntity
  8
SPOJOVACÍ
100
AcDbLine
 10
1564.661609092403
 20
425.0156530512283
 30
0.0
 11
1565.931617435733
 21
420.2759173878801
 31
0.0
  0
LINE
  5
322
330
1F
100
AcDbEntity
  8
SPOJOVACÍ
100
AcDbLine
 10
1568.748146839275
 20
423.7596770812267
 30
0.0
 11
1569.238810229962
 21
421.9284963777643
 31
0.0
  0
LINE
  5
323
330
1F
100
AcDbEntity
  8
SPOJOVACÍ
100
AcDbLine
 10
1570.146153907207
 20
423.9212063553147
 30
0.0
 11
1570.71232373841
 21
421.8082317795468
 31
0.0
  0
LINE
  5
324
330
1F
100
AcDbEntity
  8
SPOJOVACÍ
100
AcDbLine
 10
1571.980386926584
 20
424.0733507982692
 30
0.0
 11
1572.618784900692
 21
421.6908171234479
 31
0.0
  0
LINE
  5
325
330
1F
100
AcDbEntity
  8
SPOJOVACÍ
100
AcDbLine
 10
1571.682823348953
 20
425.1838731884761
 30
0.0
 11
1573.035991094842
 21
420.133782409646
 31
0.0
  0
LINE
  5
326
330
1F
100
AcDbEntity
  8
SPOJOVACÍ
100
AcDbLine
 10
1569.807823348953
 20
425.1838731884761
 30
0.0
 11
1571.155520538977
 21
420.1541988020815
 31
0.0
  0
LINE
  5
327
330
1F
100
AcDbEntity
  8
SPOJOVACÍ
100
AcDbLine
 10
1568.383838552184
 20
425.1192941182742
 30
0.0
 11
1569.70606907373
 21
420.1846626325566
 31
0.0
  0
LINE
  5
328
330
1F
100
AcDbEntity
  8
SPOJOVACÍ
100
AcDbLine
 10
1573.553122135369
 20
425.2014183564276
 30
0.0
 11
1574.913781424561
 21
420.1233687573638
 31
0.0
  0
LINE
  5
329
330
1F
100
AcDbEntity
  8
SPOJOVACÍ
100
AcDbLine
 10
1575.426069064483
 20
425.2090805212827
 30
0.0
 11
1576.788903191208
 21
420.1229143180496
 31
0.0
  0
LINE
  5
32A
330
1F
100
AcDbEntity
  8
SPOJOVACÍ
100
AcDbLine
 10
1577.301675243728
 20
425.2068182295294
 30
0.0
 11
1578.661367749958
 21
420.1323767136052
 31
0.0
  0
LINE
  5
32B
330
1F
100
AcDbEntity
  8
SPOJOVACÍ
100
AcDbLine
 10
1579.179952083857
 20
425.1945888956868
 30
0.0
 11
1580.531186153686
 21
420.1517146941621
 31
0.0
  0
LINE
  5
32C
330
1F
100
AcDbEntity
  8
SPOJOVACÍ
100
AcDbLine
 10
1581.060911304542
 20
425.172348781314
 30
0.0
 11
1582.398369158337
 21
420.1808881179747
 31
0.0
  0
LINE
  5
32D
330
1F
100
AcDbEntity
  8
SPOJOVACÍ
100
AcDbLine
 10
1582.944564940229
 20
425.1400529732562
 30
0.0
 11
1584.26292722814
 21
420.2198579319917
 31
0.0
  0
LINE
  5
32E
330
1F
100
AcDbEntity
  8
SPOJOVACÍ
100
AcDbLine
 10
1584.891056499909
 20
424.8732428402234
 30
0.0
 11
1586.124870540635
 21
420.2685861531533
 31
0.0
  0
LWPOLYLINE
  5
32F
330
1F
100
AcDbEntity
  8
NOSNÉ KONSTRUKCE
100
AcDbPolyline
 90
        6
 70
     0
 43
0.0
 10
1547.7430395289
 20
472.7311853348526
 42
-0.0128837512779302
 10
1547.458247568672
 20
469.3980205131063
 42
-0.0351641677647434
 10
1546.830487847149
 20
465.7943110587673
 42
-0.0187319685742942
 10
1543.446471966158
 20
454.0360737166245
 42
-0.0582629403736403
 10
1541.786972098077
 20
450.4562395176924
 42
-0.2042445348716764
 10
1506.209481066721
 20
425.197891328158
  0
LWPOLYLINE
  5
330
330
1F
100
AcDbEntity
  8
NOSNÉ KONSTRUKCE
100
AcDbPolyline
 90
        4
 70
     0
 43
0.0
 10
1557.932769132905
 20
472.7311853348526
 42
-0.0135911980674876
 10
1554.213637775679
 20
452.4024921523866
 42
-0.0219777111230329
 10
1553.307525273692
 20
448.8843788965511
 42
-0.2163722049316613
 10
1506.209481066721
 20
416.1241139425217
  0
LWPOLYLINE
  5
331
330
1F
100
AcDbEntity
  8
NOSNÉ KONSTRUKCE
100
AcDbPolyline
 90
        8
 70
     0
 43
0.0
 10
1539.118824148859
 20
472.7311853348526
 42
-0.0120721047703132
 10
1539.049841458817
 20
470.9972971961085
 42
-0.044358077361292
 10
1538.654213724144
 20
468.3014971776917
 42
-0.0188067511131767
 10
1536.634390275761
 20
461.0592680023853
 42
-0.0457786284636091
 10
1535.426367386145
 20
458.2106576195053
 42
-0.0295006114745606
 10
1533.010306931846
 20
454.2837584061032
 42
-0.0258674098621065
 10
1529.777631617882
 20
450.1379783273494
 42
-0.2409478365688615
 10
1506.209481066721
 20
435.7134308823767
 42
-0.0884720560394402
  0
LWPOLYLINE
  5
332
330
1F
100
AcDbEntity
  8
NOSNÉ KONSTRUKCE
100
AcDbPolyline
 90
        3
 70
     0
 43
0.0
 10
1512.917878524425
 20
467.2138546393341
 10
1529.673096144153
 20
458.8301137713658
 10
1537.840200793277
 20
450.6488120702686
  0
LWPOLYLINE
  5
333
330
1F
100
AcDbEntity
  8
NOSNÉ KONSTRUKCE
100
AcDbPolyline
 90
       10
 70
     0
 43
0.0
 10
1530.251764925345
 20
472.7311853348526
 42
-0.0168162630274194
 10
1530.116739346285
 20
471.0401471827333
 42
-0.0575155827655532
 10
1529.436707065938
 20
467.9405225220159
 42
-0.0310289133982999
 10
1526.433905721114
 20
460.6954949973713
 42
-0.0882970623535771
 10
1524.796683801021
 20
458.4551259465713
 42
-0.0171636441953577
 10
1521.983319739159
 20
455.9412085913261
 42
-0.0157521173632038
 10
1518.744464902123
 20
453.4097125388195
 42
-0.0073640874174249
 10
1514.110815545802
 20
450.1213111130835
 42
-0.0194185739168057
 10
1512.288772226125
 20
448.9697421138023
 42
-0.0567960585128809
 10
1506.209481066721
 20
446.3178779084262
 42
-0.0229547400386702
  0
LWPOLYLINE
  5
334
330
1F
100
AcDbEntity
  8
NOSNÉ KONSTRUKCE
100
AcDbPolyline
 90
        4
 70
     0
 43
0.0
 10
1583.600294356805
 20
472.654435811926
 42
-0.0135911980674875
 10
1578.021597320966
 20
442.1613960382272
 42
-0.0219777111230329
 10
1576.662428567989
 20
436.8842261544739
 42
-0.2158759397126542
 10
1506.209481066721
 20
387.7796588664129
 42
-0.0618986513001703
  0
LWPOLYLINE
  5
335
330
1F
100
AcDbEntity
  8
NOSNÉ KONSTRUKCE
100
AcDbPolyline
 90
        6
 70
     0
 43
0.0
 10
1568.315699950802
 20
472.654435811926
 42
-0.0128837512779301
 10
1567.888512010464
 20
467.6546885793065
 42
-0.0351641677647434
 10
1566.946872428179
 20
462.2491243977981
 42
-0.0187319685742942
 10
1561.870848606693
 20
444.6117683845839
 42
-0.0582629403736403
 10
1559.381598804571
 20
439.2420170861858
 42
-0.0636293101863209
 10
1546.120129211045
 20
422.7607087859612
 42
-0.0636293101863209
  0
LWPOLYLINE
  5
336
330
1F
100
AcDbEntity
  8
STAVBA OBRYS
100
AcDbPolyline
 90
        2
 70
     0
 43
0.0
 10
1589.880893998469
 20
429.7682827674759
 42
-0.0020939004487291
 10
1589.37182376168
 20
428.9105593244819
  0
LWPOLYLINE
  5
337
330
1F
100
AcDbEntity
  8
NOSNÉ KONSTRUKCE
100
AcDbPolyline
 90
        3
 70
     0
 43
0.0
 10
1553.4236280586
 20
441.7282152857294
 10
1570.178845678328
 20
433.3444744177611
 10
1578.345950327453
 20
425.1631727166638
  0
LWPOLYLINE
  5
338
330
1F
100
AcDbEntity
  8
NOSNÉ KONSTRUKCE
100
AcDbPolyline
 90
        2
 70
     0
 43
0.0
 10
1539.840448996222
 20
417.2945908447871
 42
-0.1134617175825293
 10
1506.015362257534
 20
401.3544948018841
  0
LWPOLYLINE
  5
339
330
1F
100
AcDbEntity
  8
NOSNÉ KONSTRUKCE
100
AcDbPolyline
 90
        3
 70
     0
 43
0.0
 10
1511.82153708488
 20
422.8750150248704
 10
1531.817789516873
 20
413.6589859743505
 10
1535.817727150587
 20
413.0135884990083
  0
LWPOLYLINE
  5
33A
330
1F
100
AcDbEntity
  8
NOSNÉ KONSTRUKCE
100
AcDbPolyline
 90
        3
 70
     0
 43
0.0
 10
1532.21045614967
 20
466.2320157655974
 10
1552.206708581663
 20
457.0159867150776
 10
1556.206646215377
 20
456.3705892397353
  0
LWPOLYLINE
  5
33B
330
1F
100
AcDbEntity
  8
NOSNÉ KONSTRUKCE
100
AcDbPolyline
 90
       11
 70
     0
 43
0.0
 10
1523.30198690166
 20
472.7311853348508
 42
-0.0072417954699014
 10
1523.24641653382
 20
472.3197801235762
 42
-0.0707158694326265
 10
1522.7152900174
 20
470.3836766709826
 42
-0.033952657250207
 10
1520.466634177991
 20
466.030638945809
 42
-0.0571374688189033
 10
1518.680477418139
 20
463.7237146621226
 42
-0.0274923553235744
 10
1516.083171687586
 20
461.338639338988
 42
-0.0255412025538677
 10
1513.031741649876
 20
459.0819256619686
 42
-0.0272796991712396
 10
1508.918742496691
 20
456.6655897803063
 42
-0.056967459841729
 10
1506.777795215955
 20
455.8528539451069
 42
-0.0373408083348504
 10
1506.555440840481
 20
455.8136884041557
 42
-0.0052305969362967
 10
1506.209481066721
 20
455.7827314372514
  0
LWPOLYLINE
  5
348
330
1F
100
AcDbEntity
  8
NOSNÉ KONSTRUKCE
100
AcDbPolyline
 90
        9
 70
     0
 43
0.0
 10
1516.073935880925
 20
472.7311853348508
 42
-0.0064239028828688
 10
1516.035067440741
 20
472.5120716755006
 42
-0.0832048017309575
 10
1515.250884838063
 20
470.1818580958458
 42
-0.0336767237692336
 10
1513.548068279141
 20
467.4535835763852
 42
-0.0844635135812105
 10
1512.628258519248
 20
466.54916197139
 42
-0.0495829410719565
 10
1510.879580081894
 20
465.5725124640773
 42
-0.0322692699774654
 10
1507.988225900804
 20
464.5309889626767
 42
-0.0276160659512937
 10
1507.132649462513
 20
464.3342535337321
 42
-0.0126891984598699
 10
1506.209481066721
 20
464.1990511441906
  0
LWPOLYLINE
  5
353
330
1F
100
AcDbEntity
  8
NOSNÉ KONSTRUKCE
100
AcDbPolyline
 90
        2
 70
     0
 43
0.0
 10
1584.267256609509
 20
455.3927681771017
 10
1589.880893998469
 20
452.8055111182254
  0
LWPOLYLINE
  5
354
330
1F
100
AcDbEntity
  8
NOSNÉ KONSTRUKCE
100
AcDbPolyline
 90
        7
 70
     0
 43
0.0
 10
1510.724249546404
 20
472.7311853348526
 42
-0.0203924744732807
 10
1509.822165561995
 20
471.7180553056985
 42
-0.0273961979096945
 10
1508.9723012118
 20
470.9298789316724
 42
-0.0243529190212958
 10
1507.80918071938
 20
470.0561195870047
 42
-0.0398020282482987
 10
1507.034222181824
 20
469.6164908435583
 42
-0.104168275620852
 10
1506.64781104548
 20
469.5264743833811
 42
-0.007272956268647
 10
1506.209481066721
 20
469.5080210320863
 42
-0.007272956268647
  0
LINE
  5
355
330
1F
100
AcDbEntity
  8
SPOJOVACÍ
100
AcDbLine
 10
1624.268831504562
 20
424.2532632197323
 30
0.0
 11
1625.102891557838
 21
421.1405087243417
 31
0.0
  0
LINE
  5
356
330
1F
100
AcDbEntity
  8
SPOJOVACÍ
100
AcDbLine
 10
1622.368077593371
 20
424.3493781248032
 30
0.0
 11
1623.264068113817
 21
421.0054959793831
 31
0.0
  0
LINE
  5
357
330
1F
100
AcDbEntity
  8
SPOJOVACÍ
100
AcDbLine
 10
1607.227708465928
 20
424.8732428402234
 30
0.0
 11
1608.461522506654
 21
420.2685861531533
 31
0.0
  0
LINE
  5
358
330
1F
100
AcDbEntity
  8
SPOJOVACÍ
100
AcDbLine
 10
1609.08233532702
 20
424.9492764297427
 30
0.0
 11
1610.17976826076
 21
420.8536009631277
 31
0.0
  0
LINE
  5
359
330
1F
100
AcDbEntity
  8
SPOJOVACÍ
100
AcDbLine
 10
1610.939549764897
 20
425.0156530512283
 30
0.0
 11
1612.177604165179
 21
420.3951711268343
 31
0.0
  0
LINE
  5
35A
330
1F
100
AcDbEntity
  8
SPOJOVACÍ
100
AcDbLine
 10
1618.54331586495
 20
424.6283926937301
 30
0.0
 11
1619.578807479516
 21
420.7638853773458
 31
0.0
  0
LINE
  5
35B
330
1F
100
AcDbEntity
  8
SPOJOVACÍ
100
AcDbLine
 10
1616.640436593959
 20
424.7324395495377
 30
0.0
 11
1617.73235444946
 21
420.6573466351271
 31
0.0
  0
LINE
  5
35C
330
1F
100
AcDbEntity
  8
SPOJOVACÍ
100
AcDbLine
 10
1614.740345328634
 20
424.8260814265556
 30
0.0
 11
1615.876425105615
 21
420.5861739774079
 31
0.0
  0
LINE
  5
35D
330
1F
100
AcDbEntity
  8
SPOJOVACÍ
100
AcDbLine
 10
1612.843027649145
 20
424.9093721403093
 30
0.0
 11
1614.031761475478
 21
420.4729571037749
 31
0.0
  0
LINE
  5
35E
330
1F
100
AcDbEntity
  8
SPOJOVACÍ
100
AcDbLine
 10
1620.528793682092
 20
424.216083867024
 30
0.0
 11
1621.422709352856
 21
420.8799451660686
 31
0.0
  0
LINE
  5
35F
330
1F
100
AcDbEntity
  8
SPOJOVACÍ
100
AcDbLine
 10
1626.183014513396
 20
424.1070302399673
 30
0.0
 11
1626.948667457447
 21
421.2495745518205
 31
0.0
  0
LINE
  5
360
330
1F
100
AcDbEntity
  8
SPOJOVACÍ
100
AcDbLine
 10
1628.100063338304
 20
423.9501018890112
 30
0.0
 11
1628.772962452897
 21
421.4388082049842
 31
0.0
  0
LINE
  5
361
330
1F
100
AcDbEntity
  8
SPOJOVACÍ
100
AcDbLine
 10
1630.019994744252
 20
423.7824155991654
 30
0.0
 11
1630.604224280799
 21
421.6020412854884
 31
0.0
  0
LINE
  5
362
330
1F
100
AcDbEntity
  8
SPOJOVACÍ
100
AcDbLine
 10
1605.281216906248
 20
425.1400529732562
 30
0.0
 11
1606.59957919416
 21
420.2198579319917
 31
0.0
  0
LINE
  5
363
330
1F
100
AcDbEntity
  8
SPOJOVACÍ
100
AcDbLine
 10
1603.397563270561
 20
425.172348781314
 30
0.0
 11
1604.735021124357
 21
420.1808881179747
 31
0.0
  0
LINE
  5
364
330
1F
100
AcDbEntity
  8
SPOJOVACÍ
100
AcDbLine
 10
1601.516604049876
 20
425.1945888956868
 30
0.0
 11
1602.867838119705
 21
420.1517146941621
 31
0.0
  0
LINE
  5
365
330
1F
100
AcDbEntity
  8
SPOJOVACÍ
100
AcDbLine
 10
1599.638327209747
 20
425.2068182295294
 30
0.0
 11
1600.998019715978
 21
420.1323767136052
 31
0.0
  0
LINE
  5
366
330
1F
100
AcDbEntity
  8
SPOJOVACÍ
100
AcDbLine
 10
1597.762721030503
 20
425.2090805212827
 30
0.0
 11
1599.125555157228
 21
420.1229143180496
 31
0.0
  0
LINE
  5
367
330
1F
100
AcDbEntity
  8
SPOJOVACÍ
100
AcDbLine
 10
1595.889774101389
 20
425.2014183564276
 30
0.0
 11
1597.250433390581
 21
420.1233687573638
 31
0.0
  0
LINE
  5
368
330
1F
100
AcDbEntity
  8
SPOJOVACÍ
100
AcDbLine
 10
1592.144475314973
 20
425.1838731884761
 30
0.0
 11
1593.492172504996
 21
420.1541988020815
 31
0.0
  0
LINE
  5
369
330
1F
100
AcDbEntity
  8
SPOJOVACÍ
100
AcDbLine
 10
1594.019475314973
 20
425.1838731884761
 30
0.0
 11
1595.372643060861
 21
420.133782409646
 31
0.0
  0
LINE
  5
36A
330
1F
100
AcDbEntity
  8
SPOJOVACÍ
100
AcDbLine
 10
1594.317038892604
 20
424.0733507982692
 30
0.0
 11
1594.955436866712
 21
421.6908171234479
 31
0.0
  0
LINE
  5
36B
330
1F
100
AcDbEntity
  8
SPOJOVACÍ
100
AcDbLine
 10
1592.482805873227
 20
423.9212063553147
 30
0.0
 11
1593.04897570443
 21
421.8082317795468
 31
0.0
  0
HATCH
  5
36C
330
1F
100
AcDbEntity
  8
PROFILY
100
AcDbHatch
 10
0.0
 20
0.0
 30
0.0
210
0.0
220
0.0
230
1.0
  2
SOLID
 70
     1
 71
     0
 91
        1
 92
        7
 72
     0
 73
     1
 93
        4
 10
1503.895018187147
 20
449.3511012058386
 10
1505.895018187151
 20
449.3511012058386
 10
1505.895018187151
 20
430.16874606129
 10
1503.895018187151
 20
430.16874606129
 97
        0
 75
     0
 76
     1
 47
0.0801976285649081
 98
        1
 10
1504.232691257445
 20
436.0101619538961
  0
LWPOLYLINE
  5
36D
330
1F
100
AcDbEntity
  8
PROFILY
100
AcDbPolyline
 90
        4
 70
     1
 43
0.0
 10
1503.895018187151
 20
430.1682342237342
 10
1503.895018187151
 20
449.3505893682829
 10
1505.895018187151
 20
449.3505893682829
 10
1505.895018187151
 20
430.1682342237342
  0
HATCH
  5
36E
330
1F
100
AcDbEntity
  8
PROFILY
100
AcDbHatch
 10
0.0
 20
0.0
 30
0.0
210
0.0
220
0.0
230
1.0
  2
SOLID
 70
     1
 71
     0
 91
        1
 92
        7
 72
     0
 73
     1
 93
        4
 10
1503.895018187147
 20
419.273137667589
 10
1505.895018187151
 20
419.273137667589
 10
1505.895018187151
 20
400.0907825230403
 10
1503.895018187151
 20
400.0907825230403
 97
        0
 75
     0
 76
     1
 47
0.0801976285649081
 98
        1
 10
1504.232691257445
 20
405.9321984156465
  0
LWPOLYLINE
  5
36F
330
1F
100
AcDbEntity
  8
STAVBA OBRYS
  6
DASHED
100
AcDbPolyline
 90
        4
 70
     1
 43
0.0
 10
1506.209481066718
 20
563.2301918899318
 10
1511.582762391575
 20
563.2301918899318
 10
1511.582762391575
 20
613.3497639089544
 10
1506.209481066718
 20
613.3497639089544
  0
LINE
  5
370
330
1F
100
AcDbEntity
  8
STAVBA OBRYS
  6
DASHED
100
AcDbLine
 10
1671.9530936242
 20
594.8524778994431
 30
0.0
 11
1511.582762391575
 21
594.8524778994467
 31
0.0
  0
LINE
  5
371
330
1F
100
AcDbEntity
  8
STAVBA OBRYS
  6
DASHED
100
AcDbLine
 10
1675.741954765755
 20
588.289977899443
 30
0.0
 11
1671.9530936242
 21
594.8524778994431
 31
0.0
  0
LINE
  5
372
330
1F
100
AcDbEntity
  8
STAVBA OBRYS
  6
DASHED
100
AcDbLine
 10
1675.741954765755
 20
588.289977899443
 30
0.0
 11
1671.9530936242
 21
581.7274778994431
 31
0.0
  0
LINE
  5
373
330
1F
100
AcDbEntity
  8
STAVBA OBRYS
  6
DASHDOT2
100
AcDbLine
 10
1477.824517889901
 20
588.2899778994449
 30
0.0
 11
1690.601006955999
 21
588.289977899443
 31
0.0
  0
LINE
  5
374
330
1F
100
AcDbEntity
  8
STAVBA OBRYS
  6
DASHED
100
AcDbLine
 10
1671.9530936242
 20
581.7274778994431
 30
0.0
 11
1511.582762391575
 21
581.7274778994467
 31
0.0
  0
LINE
  5
375
330
1F
100
AcDbEntity
  8
POPIS
100
AcDbLine
 10
1484.198819265023
 20
369.8569026240636
 30
0.0
 11
1433.83700002278
 21
272.4492767339595
 31
0.0
  0
INSERT
  5
376
330
1F
100
AcDbEntity
  8
POPIS
100
AcDbBlockReference
  2
E_PUNKT
 10
1484.171208889397
 20
369.8278342931914
 30
0.0
  0
TEXT
  5
377
330
1F
100
AcDbEntity
  8
POPIS
100
AcDbText
 10
1270.411283534212
 20
259.0059352845889
 30
0.0
 40
25.0
  1
07
 41
0.7
  7
SIMPLEX7
100
AcDbText
  0
LINE
  5
378
330
1F
100
AcDbEntity
  8
POPIS
100
AcDbLine
 10
1310.946718828763
 20
272.4492767339595
 30
0.0
 11
1433.83700002278
 21
272.4492767339595
 31
0.0
  0
TEXT
  5
379
330
1F
100
AcDbEntity
  8
POPIS
100
AcDbText
 10
1219.765137819474
 20
305.8577441067789
 30
0.0
 40
25.0
  1
TERÉN
 41
0.7
  7
SIMPLEX7
100
AcDbText
  0
LINE
  5
37B
330
1F
100
AcDbEntity
  8
PROFILY
100
AcDbLine
 10
1488.435207887355
 20
369.6429934422574
 30
0.0
 11
1488.435207887355
 21
371.2856919611347
 31
0.0
  0
LINE
  5
37C
330
1F
100
AcDbEntity
  8
NOSNÉ KONSTRUKCE
100
AcDbLine
 10
1502.694596814689
 20
369.6429934422574
 30
0.0
 11
1502.694596814689
 21
371.2856919611347
 31
0.0
  0
LINE
  5
37D
330
1F
100
AcDbEntity
  8
PROFILY
100
AcDbLine
 10
1516.953985742031
 20
369.6429934422574
 30
0.0
 11
1516.953985742031
 21
371.2856919611347
 31
0.0
  0
LINE
  5
37E
330
1F
100
AcDbEntity
  8
PROFILY
100
AcDbLine
 10
1545.472763596702
 20
369.6429934422574
 30
0.0
 11
1545.472763596702
 21
371.2856919611347
 31
0.0
  0
LINE
  5
37F
330
1F
100
AcDbEntity
  8
PROFILY
100
AcDbLine
 10
1573.991541451377
 20
369.6429934422574
 30
0.0
 11
1573.991541451377
 21
371.2856919611347
 31
0.0
  0
LINE
  5
380
330
1F
100
AcDbEntity
  8
PROFILY
100
AcDbLine
 10
1477.708570619375
 20
393.2943892000218
 30
0.0
 11
1477.708570619375
 21
369.6429934422574
 31
0.0
  0
LINE
  5
381
330
1F
100
AcDbEntity
  8
PROFILY
100
AcDbLine
 10
1479.2028499992
 20
371.2856919611329
 30
0.0
 11
1479.2028499992
 21
383.2887453375512
 31
0.0
  0
LINE
  5
382
330
1F
100
AcDbEntity
  8
PROFILY
100
AcDbLine
 10
1479.2028499992
 20
383.2887453375512
 30
0.0
 11
1479.2028499992
 21
393.2943892000237
 31
0.0
  0
LINE
  5
383
330
1F
100
AcDbEntity
  8
PROFILY
100
AcDbLine
 10
1477.708570619375
 20
393.2943892000218
 30
0.0
 11
1479.2028499992
 21
393.2943892000237
 31
0.0
  0
LINE
  5
384
330
1F
100
AcDbEntity
  8
PROFILY
100
AcDbLine
 10
1589.880893998469
 20
369.6429934422574
 30
0.0
 11
1477.708570619382
 21
369.6429934422574
 31
0.0
  0
LINE
  5
385
330
1F
100
AcDbEntity
  8
PROFILY
100
AcDbLine
 10
1589.880893998469
 20
371.2856919611365
 30
0.0
 11
1479.2028499992
 21
371.2856919611329
 31
0.0
  0
LINE
  5
386
330
1F
100
AcDbEntity
  8
STAVBA OBRYS
100
AcDbLine
 10
1506.209481066718
 20
372.5715051985186
 30
0.0
 11
1588.250930378715
 21
372.5715051985186
 31
0.0
  0
LINE
  5
387
330
1F
100
AcDbEntity
  8
STAVBA OBRYS
100
AcDbLine
 10
1826.691255511195
 20
511.1902943412203
 30
0.0
 11
1976.160771436708
 21
511.1902943412203
 31
0.0
  0
LINE
  5
388
330
1F
100
AcDbEntity
  8
STAVBA OBRYS
100
AcDbLine
 10
1826.826541243717
 20
498.6437624761927
 30
0.0
 11
1972.948984969436
 21
498.6437624761927
 31
0.0
  0
HATCH
  5
389
330
1F
100
AcDbEntity
  8
STAVBA OBRYS
100
AcDbHatch
 10
0.0
 20
0.0
 30
0.0
210
0.0
220
0.0
230
1.0
  2
AR-SAND
 70
     0
 71
     0
 91
        1
 92
        7
 72
     0
 73
     1
 93
        4
 10
1972.948984969436
 20
498.6437624761927
 10
1826.826541243717
 20
498.6437624761927
 10
1826.747432634277
 20
454.2496397538595
 10
1961.584534289358
 20
454.2496397538595
 97
        0
 75
     0
 76
     1
 52
0.0
 41
0.35
 77
     0
 78
     4
 53
37.5
 43
569.0832378093579
 44
256.7364883366315
 45
-0.560010953594416
 46
17.12946330652698
 79
     6
 49
0.0
 49
-13.5128
 49
0.0
 49
-15.113
 49
0.0
 49
-14.44625
 53
7.499999999999999
 43
569.0832378093579
 44
256.7364883366315
 45
15.73331490983009
 46
25.08887851989239
 79
     6
 49
0.0
 49
-7.2898
 49
0.0
 49
-12.17929999999999
 49
0.0
 49
-4.66725
 53
327.4999999999999
 43
558.1485378093563
 44
256.7364883366315
 45
27.68473295845102
 46
0.0503014637490992
 79
     6
 49
0.0
 49
-4.444999999999999
 49
0.0
 49
-16.002
 49
0.0
 49
-20.89149999999999
 53
317.5
 43
558.1485378093563
 44
256.7364883366315
 45
26.7244758365304
 46
7.802526314002567
 79
     6
 49
0.0
 49
-2.222499999999999
 49
0.0
 49
-10.49019999999999
 49
0.0
 49
-12.00149999999999
 47
4.017849295243367
 98
        1
 10
1913.442850698236
 20
487.5883668750645
  0
LINE
  5
38A
330
1F
100
AcDbEntity
  8
STAVBA OBRYS
100
AcDbLine
 10
1826.473764573118
 20
300.6727588187275
 30
0.0
 11
1826.558828922395
 21
348.4091201084154
 31
0.0
  0
LINE
  5
38B
330
1F
100
AcDbEntity
  8
STAVBA OBRYS
100
AcDbLine
 10
1826.589789467299
 20
454.2496397538595
 30
0.0
 11
1827.434740878026
 21
928.4189734005737
 31
0.0
  0
LINE
  5
38C
330
1F
100
AcDbEntity
  8
STAVBA OBRYS
100
AcDbLine
 10
1664.134461833061
 20
348.4091201084154
 30
0.0
 11
1664.134461833061
 21
454.2496397538595
 31
0.0
  0
LINE
  5
38D
330
1F
100
AcDbEntity
  8
STAVBA OBRYS
100
AcDbLine
 10
1589.880893998466
 20
339.7891869300526
 30
0.0
 11
1589.880893998473
 21
829.0748130198988
 31
0.0
  0
LINE
  5
38E
330
1F
100
AcDbEntity
  8
SPOJOVACÍ
100
AcDbLine
 10
1495.763550795498
 20
878.815183141836
 30
0.0
 11
1493.573957872893
 21
881.6571533707353
 31
0.0
  0
LINE
  5
38F
330
1F
100
AcDbEntity
  8
SPOJOVACÍ
100
AcDbLine
 10
1495.763550795498
 20
878.815183141836
 30
0.0
 11
1493.573957872893
 21
875.973212912935
 31
0.0
  0
LINE
  5
390
330
1F
100
AcDbEntity
  8
SPOJOVACÍ
100
AcDbLine
 10
1493.791781924533
 20
875.973212912935
 30
0.0
 11
1494.86558349222
 21
879.9806949208011
 31
0.0
  0
LINE
  5
391
330
1F
100
AcDbEntity
  8
SPOJOVACÍ
100
AcDbLine
 10
1490.627719424533
 20
875.973212912935
 30
0.0
 11
1492.150726680025
 21
881.6571533707353
 31
0.0
  0
LINE
  5
392
330
1F
100
AcDbEntity
  8
SPOJOVACÍ
100
AcDbLine
 10
1489.045688174533
 20
875.973212912935
 30
0.0
 11
1490.568695430025
 21
881.6571533707353
 31
0.0
  0
LINE
  5
393
330
1F
100
AcDbEntity
  8
SPOJOVACÍ
100
AcDbLine
 10
1492.209750674533
 20
875.973212912935
 30
0.0
 11
1493.732757930025
 21
881.6571533707353
 31
0.0
  0
LINE
  5
394
330
1F
100
AcDbEntity
  8
SPOJOVACÍ
100
AcDbLine
 10
1481.135531924533
 20
875.973212912935
 30
0.0
 11
1482.658539180025
 21
881.6571533707353
 31
0.0
  0
LINE
  5
395
330
1F
100
AcDbEntity
  8
SPOJOVACÍ
100
AcDbLine
 10
1482.717563174533
 20
875.973212912935
 30
0.0
 11
1484.240570430024
 21
881.6571533707353
 31
0.0
  0
LINE
  5
396
330
1F
100
AcDbEntity
  8
SPOJOVACÍ
100
AcDbLine
 10
1484.29959442453
 20
875.973212912935
 30
0.0
 11
1485.822601680025
 21
881.6571533707353
 31
0.0
  0
LINE
  5
397
330
1F
100
AcDbEntity
  8
SPOJOVACÍ
100
AcDbLine
 10
1485.881625674533
 20
875.973212912935
 30
0.0
 11
1487.404632930025
 21
881.6571533707353
 31
0.0
  0
LINE
  5
398
330
1F
100
AcDbEntity
  8
SPOJOVACÍ
100
AcDbLine
 10
1474.807406924533
 20
875.973212912935
 30
0.0
 11
1476.330414180028
 21
881.6571533707353
 31
0.0
  0
LINE
  5
399
330
1F
100
AcDbEntity
  8
SPOJOVACÍ
100
AcDbLine
 10
1476.389438174533
 20
875.973212912935
 30
0.0
 11
1477.912445430025
 21
881.6571533707353
 31
0.0
  0
LINE
  5
39A
330
1F
100
AcDbEntity
  8
SPOJOVACÍ
100
AcDbLine
 10
1477.971469424533
 20
875.973212912935
 30
0.0
 11
1479.494476680025
 21
881.6571533707353
 31
0.0
  0
LINE
  5
39B
330
1F
100
AcDbEntity
  8
SPOJOVACÍ
100
AcDbLine
 10
1470.061313174533
 20
875.973212912935
 30
0.0
 11
1471.584320430028
 21
881.6571533707353
 31
0.0
  0
LINE
  5
39C
330
1F
100
AcDbEntity
  8
SPOJOVACÍ
100
AcDbLine
 10
1471.643344424533
 20
875.973212912935
 30
0.0
 11
1473.166351680028
 21
881.6571533707353
 31
0.0
  0
LINE
  5
39D
330
1F
100
AcDbEntity
  8
SPOJOVACÍ
100
AcDbLine
 10
1473.225375674533
 20
875.973212912935
 30
0.0
 11
1474.748382930028
 21
881.6571533707353
 31
0.0
  0
LINE
  5
39E
330
1F
100
AcDbEntity
  8
SPOJOVACÍ
100
AcDbLine
 10
1466.897250674533
 20
875.973212912935
 30
0.0
 11
1468.420257930024
 21
881.6571533707353
 31
0.0
  0
LINE
  5
39F
330
1F
100
AcDbEntity
  8
SPOJOVACÍ
100
AcDbLine
 10
1468.479281924533
 20
875.973212912935
 30
0.0
 11
1470.002289180028
 21
881.6571533707353
 31
0.0
  0
LINE
  5
3A0
330
1F
100
AcDbEntity
  8
SPOJOVACÍ
100
AcDbLine
 10
1479.553500674533
 20
875.973212912935
 30
0.0
 11
1481.076507930028
 21
881.6571533707353
 31
0.0
  0
LINE
  5
3A1
330
1F
100
AcDbEntity
  8
SPOJOVACÍ
100
AcDbLine
 10
1493.573957872893
 20
881.6571533707353
 30
0.0
 11
1464.806968100034
 21
881.6571533707353
 31
0.0
  0
LINE
  5
3A2
330
1F
100
AcDbEntity
  8
SPOJOVACÍ
100
AcDbLine
 10
1493.573957872893
 20
875.973212912935
 30
0.0
 11
1464.806968100034
 21
875.973212912935
 31
0.0
  0
LINE
  5
3A3
330
1F
100
AcDbEntity
  8
SPOJOVACÍ
100
AcDbLine
 10
1487.463656924533
 20
875.973212912935
 30
0.0
 11
1488.986664180025
 21
881.6571533707353
 31
0.0
  0
LINE
  5
3A4
330
1F
100
AcDbEntity
  8
SPOJOVACÍ
100
AcDbLine
 10
1495.763550795498
 20
419.7364636612708
 30
0.0
 11
1493.573957872893
 21
422.5784338901719
 31
0.0
  0
LINE
  5
3A5
330
1F
100
AcDbEntity
  8
SPOJOVACÍ
100
AcDbLine
 10
1495.763550795498
 20
419.7364636612708
 30
0.0
 11
1493.573957872893
 21
416.8944934323697
 31
0.0
  0
LINE
  5
3A6
330
1F
100
AcDbEntity
  8
SPOJOVACÍ
100
AcDbLine
 10
1493.791781924533
 20
416.8944934323697
 30
0.0
 11
1494.86558349222
 21
420.9019754402358
 31
0.0
  0
LINE
  5
3A7
330
1F
100
AcDbEntity
  8
SPOJOVACÍ
100
AcDbLine
 10
1490.627719424533
 20
416.8944934323697
 30
0.0
 11
1492.150726680025
 21
422.5784338901719
 31
0.0
  0
LINE
  5
3A8
330
1F
100
AcDbEntity
  8
SPOJOVACÍ
100
AcDbLine
 10
1489.045688174533
 20
416.8944934323697
 30
0.0
 11
1490.568695430025
 21
422.5784338901719
 31
0.0
  0
LINE
  5
3A9
330
1F
100
AcDbEntity
  8
SPOJOVACÍ
100
AcDbLine
 10
1492.209750674533
 20
416.8944934323697
 30
0.0
 11
1493.732757930025
 21
422.5784338901719
 31
0.0
  0
LINE
  5
3AA
330
1F
100
AcDbEntity
  8
CETRIS
100
AcDbLine
 10
1465.363682702343
 20
369.7891869300526
 30
0.0
 11
1469.363682702343
 21
369.7891869300526
 31
0.0
  0
LINE
  5
3AB
330
1F
100
AcDbEntity
  8
SPOJOVACÍ
100
AcDbLine
 10
1464.806968100034
 20
426.8556042862708
 30
0.0
 11
1463.120148241555
 21
426.8556042862708
 31
0.0
  0
LINE
  5
3AC
330
1F
100
AcDbEntity
  8
SPOJOVACÍ
100
AcDbLine
 10
1481.135531924533
 20
416.8944934323697
 30
0.0
 11
1482.658539180025
 21
422.5784338901719
 31
0.0
  0
LINE
  5
3AD
330
1F
100
AcDbEntity
  8
SPOJOVACÍ
100
AcDbLine
 10
1482.717563174533
 20
416.8944934323697
 30
0.0
 11
1484.240570430024
 21
422.5784338901719
 31
0.0
  0
LINE
  5
3AE
330
1F
100
AcDbEntity
  8
SPOJOVACÍ
100
AcDbLine
 10
1484.29959442453
 20
416.8944934323697
 30
0.0
 11
1485.822601680025
 21
422.5784338901719
 31
0.0
  0
LINE
  5
3AF
330
1F
100
AcDbEntity
  8
SPOJOVACÍ
100
AcDbLine
 10
1485.881625674533
 20
416.8944934323697
 30
0.0
 11
1487.404632930025
 21
422.5784338901719
 31
0.0
  0
LINE
  5
3B0
330
1F
100
AcDbEntity
  8
SPOJOVACÍ
100
AcDbLine
 10
1474.807406924533
 20
416.8944934323697
 30
0.0
 11
1476.330414180028
 21
422.5784338901719
 31
0.0
  0
LINE
  5
3B1
330
1F
100
AcDbEntity
  8
SPOJOVACÍ
100
AcDbLine
 10
1476.389438174533
 20
416.8944934323697
 30
0.0
 11
1477.912445430025
 21
422.5784338901719
 31
0.0
  0
LINE
  5
3B2
330
1F
100
AcDbEntity
  8
SPOJOVACÍ
100
AcDbLine
 10
1477.971469424533
 20
416.8944934323697
 30
0.0
 11
1479.494476680025
 21
422.5784338901719
 31
0.0
  0
LINE
  5
3B3
330
1F
100
AcDbEntity
  8
SPOJOVACÍ
100
AcDbLine
 10
1470.061313174533
 20
416.8944934323697
 30
0.0
 11
1471.584320430028
 21
422.5784338901719
 31
0.0
  0
LINE
  5
3B4
330
1F
100
AcDbEntity
  8
SPOJOVACÍ
100
AcDbLine
 10
1471.643344424533
 20
416.8944934323697
 30
0.0
 11
1473.166351680028
 21
422.5784338901719
 31
0.0
  0
LINE
  5
3B5
330
1F
100
AcDbEntity
  8
SPOJOVACÍ
100
AcDbLine
 10
1473.225375674533
 20
416.8944934323697
 30
0.0
 11
1474.748382930028
 21
422.5784338901719
 31
0.0
  0
LINE
  5
3B6
330
1F
100
AcDbEntity
  8
SPOJOVACÍ
100
AcDbLine
 10
1464.806968100034
 20
419.7364636612708
 30
0.0
 11
1464.806968100034
 21
412.6173230362708
 31
0.0
  0
LINE
  5
3B7
330
1F
100
AcDbEntity
  8
SPOJOVACÍ
100
AcDbLine
 10
1463.120148241555
 20
412.6173230362708
 30
0.0
 11
1464.806968100034
 21
412.6173230362708
 31
0.0
  0
LINE
  5
3B8
330
1F
100
AcDbEntity
  8
SPOJOVACÍ
100
AcDbLine
 10
1466.897250674533
 20
416.8944934323697
 30
0.0
 11
1468.420257930024
 21
422.5784338901719
 31
0.0
  0
LINE
  5
3B9
330
1F
100
AcDbEntity
  8
SPOJOVACÍ
100
AcDbLine
 10
1468.479281924533
 20
416.8944934323697
 30
0.0
 11
1470.002289180028
 21
422.5784338901719
 31
0.0
  0
LINE
  5
3BA
330
1F
100
AcDbEntity
  8
SPOJOVACÍ
100
AcDbLine
 10
1479.553500674533
 20
416.8944934323697
 30
0.0
 11
1481.076507930028
 21
422.5784338901719
 31
0.0
  0
LINE
  5
3BB
330
1F
100
AcDbEntity
  8
SPOJOVACÍ
100
AcDbLine
 10
1464.806968100034
 20
426.8556042862708
 30
0.0
 11
1464.806968100034
 21
419.7364636612708
 31
0.0
  0
LINE
  5
3BC
330
1F
100
AcDbEntity
  8
SPOJOVACÍ
100
AcDbLine
 10
1487.463656924533
 20
416.8944934323697
 30
0.0
 11
1488.986664180025
 21
422.5784338901719
 31
0.0
  0
LINE
  5
3BD
330
1F
100
AcDbEntity
  8
SPOJOVACÍ
100
AcDbLine
 10
1493.573957872893
 20
422.5784338901719
 30
0.0
 11
1464.806968100034
 21
422.5784338901719
 31
0.0
  0
LINE
  5
3BE
330
1F
100
AcDbEntity
  8
SPOJOVACÍ
100
AcDbLine
 10
1493.573957872893
 20
416.8944934323697
 30
0.0
 11
1464.806968100034
 21
416.8944934323697
 31
0.0
  0
LINE
  5
3BF
330
1F
100
AcDbEntity
  8
STAVBA OBRYS
100
AcDbLine
 10
1506.209481066721
 20
372.5715051985186
 30
0.0
 11
1506.209481066725
 21
826.4341913915066
 31
0.0
  0
LINE
  5
3C0
330
1F
100
AcDbEntity
  8
CETRIS
100
AcDbLine
 10
1465.363682702343
 20
369.7891869300526
 30
0.0
 11
1465.363682702343
 21
824.1627650383449
 31
0.0
  0
SOLID
  5
3C1
330
1F
100
AcDbEntity
  8
CETRIS
100
AcDbTrace
 10
1465.363682702343
 20
932.7517099076464
 30
0.0
 11
1477.363682702343
 21
932.650325694103
 31
0.0
 12
1465.363682702343
 22
369.7891869300526
 32
0.0
 13
1477.363682702343
 23
369.7891869300526
 33
0.0
  0
LINE
  5
3C2
330
1F
100
AcDbEntity
  8
STAVBA OBRYS
100
AcDbLine
 10
1221.959598535049
 20
339.7891869300526
 30
0.0
 11
1589.880893998466
 21
339.7891869300526
 31
0.0
  0
LINE
  5
3C3
330
1F
100
AcDbEntity
  8
STAVBA OBRYS
100
AcDbLine
 10
1506.209481066725
 20
826.4341913915066
 30
0.0
 11
1506.209481066728
 21
932.3099185498975
 31
0.0
  0
LINE
  5
3C4
330
1F
100
AcDbEntity
  8
CETRIS
100
AcDbLine
 10
1465.363682702343
 20
824.1627650383449
 30
0.0
 11
1465.363682702343
 21
930.4189734005738
 31
0.0
  0
LINE
  5
3C5
330
1F
100
AcDbEntity
  8
STAVBA OBRYS
  6
IZOLACE
 48
4.0
100
AcDbLine
 10
1546.963093343328
 20
472.5715051985186
 30
0.0
 11
1546.963093343336
 21
928.4189734005737
 31
0.0
  0
LINE
  5
3C6
330
1F
100
AcDbEntity
  8
STAVBA OBRYS
100
AcDbLine
 10
1589.880893998473
 20
829.0748130198988
 30
0.0
 11
1589.880893998469
 21
931.3225183619032
 31
0.0
  0
HATCH
  5
3C7
330
1F
100
AcDbEntity
  8
STAVBA OBRYS
100
AcDbHatch
 10
0.0
 20
0.0
 30
0.0
210
0.0
220
0.0
230
1.0
  2
AR-CONC
 70
     0
 71
     0
 91
        1
 92
        7
 72
     0
 73
     1
 93
        5
 10
1961.584534289358
 20
454.2496397538595
 10
1664.134461833058
 20
454.2496397538595
 10
1664.134461833058
 20
348.4091201084154
 10
1719.639080445954
 20
348.4091201084154
 10
1934.490421562149
 20
348.4091201084154
 97
        0
 75
     0
 76
     1
 52
0.0
 41
0.35
 77
     0
 78
    13
 53
50.0
 43
569.0832378093579
 44
-1195.258225569865
 45
63.7646341486014
 46
-5.57867993861608
 79
     2
 49
6.667499999999999
 49
-73.3425
 53
355.0
 43
569.0832378093579
 44
-1195.258225569865
 45
-12.33498909148344
 46
66.86982500876299
 79
     2
 49
5.333999999999999
 49
-58.67399999999999
 53
100.451
 43
574.3969378093567
 44
-1195.723113069866
 45
51.42987558308573
 46
61.29084073710215
 79
     2
 49
5.6665
 49
-62.3315
 53
46.1842
 43
569.0832378093579
 44
-1177.478225569865
 45
94.87766431224546
 46
-14.7148147764545
 79
     2
 49
10.00124999999999
 49
-110.0137499999999
 53
96.63559999999998
 43
576.9897028093579
 44
-1178.704450569865
 45
83.09148206318299
 46
86.59894456151723
 79
     2
 49
8.499749999999973
 49
-93.49724999999979
 53
351.184
 43
569.0832378093579
 44
-1177.478225569865
 45
83.09161203487688
 46
86.59879125120918
 79
     2
 49
8.000999999999999
 49
-88.01099999999999
 53
21.0
 43
577.9732378093573
 44
-1181.923225569865
 45
53.06520794238414
 46
-35.79293148086687
 79
     2
 49
6.667499999999999
 49
-73.3425
 53
326.0
 43
577.9732378093573
 44
-1181.923225569865
 45
21.63070992167647
 46
64.46578814281174
 79
     2
 49
5.333999999999999
 49
-58.67399999999999
 53
71.45140000000001
 43
582.3953128093559
 44
-1184.905960569865
 45
74.69577176954356
 46
28.6730002006201
 79
     2
 49
5.6665
 49
-62.3315
 53
37.5
 43
569.0832378093579
 44
-1195.258225569865
 45
1.081011137707135
 46
29.59426360560359
 79
     6
 49
0.0
 49
-57.96279999999999
 49
0.0
 49
-59.56299999999999
 49
0.0
 49
-58.89624999999999
 53
7.499999999999999
 43
569.0832378093579
 44
-1195.258225569865
 45
23.38688187860701
 46
35.06320118634183
 79
     6
 49
0.0
 49
-33.95979999999999
 49
0.0
 49
-56.62929999999999
 49
0.0
 49
-22.44725
 53
327.4999999999999
 43
549.2585378093568
 44
-1195.258225569865
 45
47.45670830840498
 46
-2.005060397435712
 79
     6
 49
0.0
 49
-22.22499999999999
 49
0.0
 49
-69.342
 49
0.0
 49
-92.01149999999998
 53
317.5
 43
540.3685378093574
 44
-1195.258225569865
 45
51.84521348510632
 46
8.899271861666553
 79
     6
 49
0.0
 49
-28.8925
 49
0.0
 49
-46.05019999999999
 49
0.0
 49
-65.3415
 47
1.943322863705773
 98
        1
 10
1778.721208697399
 20
411.8644082033276
  0
LINE
  5
3C8
330
1F
100
AcDbEntity
  8
STAVBA OBRYS
100
AcDbLine
 10
1664.134461833061
 20
348.4091201084154
 30
0.0
 11
1934.490421562149
 21
348.4091201084154
 31
0.0
  0
LINE
  5
3C9
330
1F
100
AcDbEntity
  8
STAVBA OBRYS
100
AcDbLine
 10
1664.134461833058
 20
454.2496397538595
 30
0.0
 11
1961.584534289358
 21
454.2496397538595
 31
0.0
  0
TEXT
  5
3CA
330
1F
100
AcDbEntity
  8
POPIS
100
AcDbText
 10
1245.740712445432
 20
153.7202499077336
 30
0.0
 40
25.0
  1
01
 41
0.85
  7
SIMPLEX7
100
AcDbText
  0
TEXT
  5
3CB
330
1F
100
AcDbEntity
  8
POPIS
100
AcDbText
 10
1300.084415605178
 20
153.7202499077336
 30
0.0
 40
25.0
  1
Deska CETRIS   (BASIC,FINISH,LASUR)
 41
0.7
  7
SIMPLEX7
100
AcDbText
  0
TEXT
  5
3CC
330
1F
100
AcDbEntity
  8
POPIS
100
AcDbText
 10
1245.740712445432
 20
117.1252382921063
 30
0.0
 40
25.0
  1
02
 41
0.85
  7
SIMPLEX7
100
AcDbText
  0
TEXT
  5
3CD
330
1F
100
AcDbEntity
  8
POPIS
100
AcDbText
 10
1300.084415605178
 20
117.1252382921063
 30
0.0
 40
25.0
  1
Nerezový vrut s podložkou (np. SFS, EJOT)
 41
0.7
  7
SIMPLEX7
100
AcDbText
  0
TEXT
  5
3CE
330
1F
100
AcDbEntity
  8
POPIS
100
AcDbText
 10
1245.740712445432
 20
83.17505004738427
 30
0.0
 40
25.0
  1
03
 41
0.85
  7
SIMPLEX7
100
AcDbText
  0
TEXT
  5
3CF
330
1F
100
AcDbEntity
  8
POPIS
100
AcDbText
 10
1300.084415605178
 20
83.17505004738427
 30
0.0
 40
25.0
  1
Vzduchová mezera - min. 25 mm
 41
0.7
  7
SIMPLEX7
100
AcDbText
  0
TEXT
  5
3D0
330
1F
100
AcDbEntity
  8
POPIS
100
AcDbText
 10
1245.740712445432
 20
47.77088882922157
 30
0.0
 40
25.0
  1
04
 41
0.85
  7
SIMPLEX7
100
AcDbText
  0
TEXT
  5
3D1
330
1F
100
AcDbEntity
  8
POPIS
100
AcDbText
 10
1245.740712445432
 20
-62.13816119858188
 30
0.0
 40
25.0
  1
07
 41
0.85
  7
SIMPLEX7
100
AcDbText
  0
TEXT
  5
3D2
330
1F
100
AcDbEntity
  8
POPIS
100
AcDbText
 10
1300.084415605178
 20
-62.13816119858188
 30
0.0
 40
25.0
  1
Perforovaný odvětrávací profil (PROTECTOR 3613)
 41
0.7
  7
SIMPLEX7
100
AcDbText
  0
TEXT
  5
3D3
330
1F
100
AcDbEntity
  8
POPIS
100
AcDbText
 10
1245.740712445432
 20
-152.3444130195532
 30
0.0
 40
25.0
  1
08
 41
0.85
  7
SIMPLEX7
100
AcDbText
  0
TEXT
  5
3D4
330
1F
100
AcDbEntity
  8
POPIS
100
AcDbText
 10
1300.084415605178
 20
-152.3444130195532
 30
0.0
 40
25.0
  1
Tepelná izolace (np. ORSIL, ROCKWOOL, ISOVER, NOBASIL)
 41
0.7
  7
SIMPLEX7
100
AcDbText
  0
TEXT
  5
3D5
330
1F
100
AcDbEntity
  8
POPIS
100
AcDbText
 10
1245.740712445432
 20
11.66406734203315
 30
0.0
 40
25.0
  1
05
 41
0.85
  7
SIMPLEX7
100
AcDbText
  0
TEXT
  5
3D6
330
1F
100
AcDbEntity
  8
POPIS
100
AcDbText
 10
1245.740712445432
 20
-23.95482135605584
 30
0.0
 40
25.0
  1
06
 41
0.85
  7
SIMPLEX7
100
AcDbText
  0
TEXT
  5
3D7
330
1F
100
AcDbEntity
  8
POPIS
100
AcDbText
 10
1467.71060084422
 20
178.6955600160142
 30
0.0
 40
12.0
  1
R
 41
0.85
  7
SIMPLEX7
100
AcDbText
  0
CIRCLE
  5
3D8
330
1F
100
AcDbEntity
  8
POPIS
100
AcDbCircle
 10
1472.469629899405
 20
184.2409057610018
 30
0.0
 40
11.13656048292026
  0
TEXT
  5
3D9
330
1F
100
AcDbEntity
  8
POPIS
100
AcDbText
 10
1244.045731126239
 20
778.0456280344967
 30
0.0
 40
25.0
  1
03,04
 41
0.7
  7
SIMPLEX7
100
AcDbText
  0
LINE
  5
3DA
330
1F
100
AcDbEntity
  8
POPIS
100
AcDbLine
 10
1310.946718828763
 20
791.4889694838673
 30
0.0
 11
1489.676786621333
 21
791.4889694838655
 31
0.0
  0
LINE
  5
3DB
330
1F
100
AcDbEntity
  8
POPIS
100
AcDbLine
 10
1310.946718828763
 20
554.3925074848828
 30
0.0
 11
1504.989176972005
 21
554.3925074848809
 31
0.0
  0
TEXT
  5
3DC
330
1F
100
AcDbEntity
  8
POPIS
100
AcDbText
 10
1269.567108790768
 20
540.9491660355122
 30
0.0
 40
25.0
  1
05
 41
0.7
  7
SIMPLEX7
100
AcDbText
  0
LINE
  5
3DD
330
1F
100
AcDbEntity
  8
POPIS
100
AcDbLine
 10
1312.970499766709
 20
923.1207699940094
 30
0.0
 11
1475.807030222032
 21
923.1207699940094
 31
0.0
  0
TEXT
  5
3DE
330
1F
100
AcDbEntity
  8
POPIS
100
AcDbText
 10
1274.666848668988
 20
909.6774285446388
 30
0.0
 40
25.0
  1
01
 41
0.7
  7
SIMPLEX7
100
AcDbText
  0
LINE
  5
3DF
330
1F
100
AcDbEntity
  8
POPIS
100
AcDbLine
 10
1312.970499766709
 20
879.1811235051461
 30
0.0
 11
1459.091665229563
 21
879.1811235051461
 31
0.0
  0
TEXT
  5
3E0
330
1F
100
AcDbEntity
  8
POPIS
100
AcDbText
 10
1272.435064472159
 20
865.7377820557774
 30
0.0
 40
25.0
  1
02
 41
0.7
  7
SIMPLEX7
100
AcDbText
  0
LINE
  5
3E1
330
1F
100
AcDbEntity
  8
POPIS
100
AcDbLine
 10
1310.946718828763
 20
459.2218731946702
 30
0.0
 11
1535.926444288288
 21
459.2218731946702
 31
0.0
  0
TEXT
  5
3E2
330
1F
100
AcDbEntity
  8
POPIS
100
AcDbText
 10
1268.407930335055
 20
445.7785317452996
 30
0.0
 40
25.0
  1
06
 41
0.7
  7
SIMPLEX7
100
AcDbText
  0
INSERT
  5
3E3
330
1F
100
AcDbEntity
  8
POPIS
100
AcDbBlockReference
  2
E_PUNKT
 10
1473.326455557685
 20
459.5578656806317
 30
0.0
  0
INSERT
  5
3E4
330
1F
100
AcDbEntity
  8
POPIS
100
AcDbBlockReference
  2
E_PUNKT
 10
1489.649176245707
 20
791.4599011529933
 30
0.0
  0
INSERT
  5
3E5
330
1F
100
AcDbEntity
  8
POPIS
100
AcDbBlockReference
  2
E_PUNKT
 10
1459.732842096869
 20
879.152055174274
 30
0.0
  0
TEXT
  5
3E6
330
1F
100
AcDbEntity
  8
POPIS
100
AcDbText
 10
1212.388386918937
 20
1066.078856576365
 30
0.0
 40
50.0
  1
SPODNÍ ZAKONČENÍ
 41
0.85
  7
SIMPLEX7
100
AcDbText
  0
TEXT
  5
3E7
330
1F
100
AcDbEntity
  8
POPIS
100
AcDbText
 10
1212.388386918937
 20
1011.454113550563
 30
0.0
 40
35.0
  1
ŘEZ-ŘEŠENÍ PŘESAHEM
 41
0.85
  7
SIMPLEX7
100
AcDbText
  0
LINE
  5
3E8
330
1F
100
AcDbEntity
  8
NOSNÉ KONSTRUKCE
100
AcDbLine
 10
1586.880893998422
 20
479.3186361038858
 30
0.0
 11
1586.880893998422
 21
530.1053634429588
 31
0.0
  0
LINE
  5
3E9
330
1F
100
AcDbEntity
  8
STAVBA OBRYS
100
AcDbLine
 10
1836.691271388113
 20
511.1902943412203
 30
0.0
 11
1837.434725001133
 21
928.4011538156844
 31
0.0
  0
HATCH
  5
3EA
330
1F
100
AcDbEntity
  8
STAVBA OBRYS
100
AcDbHatch
 10
0.0
 20
0.0
 30
0.0
210
0.0
220
0.0
230
1.0
  2
AR-SAND
 70
     0
 71
     0
 91
        1
 92
        7
 72
     0
 73
     1
 93
        4
 10
1837.434725001133
 20
928.4011538156844
 10
1827.43474087803
 20
928.4189734005737
 10
1826.691255511192
 20
511.1902943412203
 10
1836.691271388117
 20
511.1902943412203
 97
        0
 75
     0
 76
     1
 52
0.0
 41
0.1
 77
     0
 78
     4
 53
37.5
 43
-9898.27893286063
 44
4002.841636422145
 45
-0.1600031295984046
 46
4.894132373293423
 79
     6
 49
0.0
 49
-3.8608
 49
0.0
 49
-4.318
 49
0.0
 49
-4.1275
 53
7.499999999999999
 43
-9898.27893286063
 44
4002.841636422145
 45
4.495232831380026
 46
7.168251005683543
 79
     6
 49
0.0
 49
-2.0828
 49
0.0
 49
-3.4798
 49
0.0
 49
-1.3335
 53
327.4999999999999
 43
-9901.403132860631
 44
4002.841636422145
 45
7.909923702414579
 46
0.0143718467854569
 79
     6
 49
0.0
 49
-1.27
 49
0.0
 49
-4.572
 49
0.0
 49
-5.969
 53
317.5
 43
-9901.403132860631
 44
4002.841636422145
 45
7.635564524722972
 46
2.229293232572162
 79
     6
 49
0.0
 49
-0.635
 49
0.0
 49
-2.997199999999999
 49
0.0
 49
-3.429
 47
0.6630861309027388
 98
        1
 10
1831.326101746795
 20
808.0939336492917
  0
LINE
  5
3EB
330
1F
100
AcDbEntity
  8
PROFILY
100
AcDbLine
 10
1309.08933321444
 20
-83.15489399720741
 30
0.0
 11
1310.583612594258
 21
-83.15489399720741
 31
0.0
  0
LINE
  5
3EC
330
1F
100
AcDbEntity
  8
PROFILY
100
AcDbLine
 10
1310.583612594258
 20
-88.73969528139083
 30
0.0
 11
1310.583612594258
 21
-83.15489399720741
 31
0.0
  0
HATCH
  5
3ED
330
1F
100
AcDbEntity
  8
PROFILY
100
AcDbHatch
 10
0.0
 20
0.0
 30
0.0
210
0.0
220
0.0
230
1.0
  2
SOLID
 70
     1
 71
     0
 91
        2
 92
        7
 72
     0
 73
     1
 93
        4
 10
1310.583612594258
 20
-83.15489399720741
 10
1309.089333214433
 20
-83.15489399720741
 10
1309.089333214433
 20
-88.73969528139083
 10
1310.583612594258
 20
-88.73969528139083
 97
        0
 92
        7
 72
     0
 73
     1
 93
        7
 10
1310.583612594258
 20
-93.16053785967984
 10
1309.089333214433
 20
-93.16053785967984
 10
1309.089333214433
 20
-101.5502169677658
 10
1309.089333214433
 20
-106.8062897549755
 10
1312.919052929268
 20
-106.8062897549755
 10
1312.919052929268
 20
-105.1635912360982
 10
1310.583612594258
 20
-105.1635912360982
 97
        0
 75
     0
 76
     1
 47
0.169069331426656
 98
        2
 10
1309.963261329422
 20
-85.9732359144948
 10
1309.794112288334
 20
-100.1750597543361
  0
LINE
  5
3EE
330
1F
100
AcDbEntity
  8
PROFILY
100
AcDbLine
 10
1441.253553275302
 20
-105.1635912360964
 30
0.0
 11
1310.583612594258
 21
-105.1635912360982
 31
0.0
  0
LINE
  5
3EF
330
1F
100
AcDbEntity
  8
PROFILY
100
AcDbLine
 10
1441.253553275302
 20
-106.8062897549737
 30
0.0
 11
1309.08933321444
 21
-106.8062897549737
 31
0.0
  0
HATCH
  5
3F0
330
1F
100
AcDbEntity
  8
PROFILY
100
AcDbHatch
 10
0.0
 20
0.0
 30
0.0
210
0.0
220
0.0
230
1.0
  2
SOLID
 70
     1
 71
     0
 91
        5
 92
        7
 72
     0
 73
     1
 93
        4
 10
1441.253553275302
 20
-105.1635912360946
 10
1426.994164347964
 20
-105.1635912360964
 10
1426.994164347964
 20
-106.8062897549737
 10
1441.253553275302
 20
-106.8062897549737
 97
        0
 92
        7
 72
     0
 73
     1
 93
        4
 10
1412.734775420627
 20
-105.1635912360964
 10
1398.475386493289
 20
-105.1635912360964
 10
1398.475386493289
 20
-106.8062897549737
 10
1412.734775420627
 20
-106.8062897549737
 97
        0
 92
        7
 72
     0
 73
     1
 93
        4
 10
1384.215997565952
 20
-105.1635912360964
 10
1369.956608638618
 20
-105.1635912360964
 10
1369.956608638618
 20
-106.8062897549755
 10
1384.215997565952
 20
-106.8062897549737
 97
        0
 92
        7
 72
     0
 73
     1
 93
        4
 10
1355.697219711276
 20
-105.1635912360964
 10
1341.437830783942
 20
-105.1635912360982
 10
1341.437830783942
 20
-106.8062897549737
 10
1355.697219711276
 20
-106.8062897549737
 97
        0
 92
        7
 72
     0
 73
     1
 93
        4
 10
1327.178441856605
 20
-105.1635912360982
 10
1312.919052929268
 20
-105.1635912360982
 10
1312.919052929268
 20
-106.8062897549737
 10
1327.178441856605
 20
-106.8062897549737
 97
        0
 75
     0
 76
     1
 47
0.2346926121939802
 98
        5
 10
1434.047624676426
 20
-105.7124949987739
 10
1404.693257745562
 20
-105.9471808519085
 10
1379.800776001643
 20
-105.9471808519085
 10
1348.042662182134
 20
-105.9422972551403
 10
1321.271494968084
 20
-105.9422972551403
  0
LINE
  5
3F1
330
1F
100
AcDbEntity
  8
PROFILY
100
AcDbLine
 10
1341.437830783942
 20
-106.8062897549737
 30
0.0
 11
1341.437830783942
 21
-105.1635912360964
 31
0.0
  0
LINE
  5
3F2
330
1F
100
AcDbEntity
  8
PROFILY
100
AcDbLine
 10
1369.956608638618
 20
-106.8062897549737
 30
0.0
 11
1369.956608638618
 21
-105.1635912360964
 31
0.0
  0
LINE
  5
3F3
330
1F
100
AcDbEntity
  8
PROFILY
100
AcDbLine
 10
1412.734775420627
 20
-106.8062897549737
 30
0.0
 11
1412.734775420627
 21
-105.1635912360964
 31
0.0
  0
LINE
  5
3F4
330
1F
100
AcDbEntity
  8
PROFILY
100
AcDbLine
 10
1398.475386493289
 20
-106.8062897549737
 30
0.0
 11
1398.475386493289
 21
-105.1635912360964
 31
0.0
  0
LINE
  5
3F5
330
1F
100
AcDbEntity
  8
PROFILY
100
AcDbLine
 10
1384.215997565952
 20
-106.8062897549737
 30
0.0
 11
1384.215997565952
 21
-105.1635912360964
 31
0.0
  0
LINE
  5
3F6
330
1F
100
AcDbEntity
  8
PROFILY
100
AcDbLine
 10
1441.253553275302
 20
-106.8062897549737
 30
0.0
 11
1441.253553275302
 21
-105.1635912360964
 31
0.0
  0
LINE
  5
3F7
330
1F
100
AcDbEntity
  8
PROFILY
100
AcDbLine
 10
1426.994164347964
 20
-106.8062897549737
 30
0.0
 11
1426.994164347964
 21
-105.1635912360964
 31
0.0
  0
LWPOLYLINE
  5
3F8
330
1F
100
AcDbEntity
  8
PROFILY
100
AcDbPolyline
 90
        4
 70
     1
 43
0.0
 10
1309.088554754067
 20
-88.73755784540504
 10
1310.588137387043
 20
-88.73755784540504
 10
1310.588137387043
 20
-93.17612588675933
 10
1309.088554754067
 20
-93.17612588675933
  0
HATCH
  5
3F9
330
1F
100
AcDbEntity
  8
PROFILY
100
AcDbHatch
 10
0.0
 20
0.0
 30
0.0
210
0.0
220
0.0
230
1.0
  2
SOLID
 70
     1
 71
     0
 91
        1
 92
        7
 72
     0
 73
     1
 93
        4
 10
1310.588137387043
 20
-88.73755784540504
 10
1309.088554754067
 20
-88.73755784540504
 10
1309.088554754067
 20
-93.17612588675933
 10
1310.588137387043
 20
-93.17612588675933
 97
        0
 75
     0
 76
     1
 47
0.0099002372419542
 98
        1
 10
1310.122568177757
 20
-89.96843557025954
  0
HATCH
  5
3FA
330
1F
100
AcDbEntity
  8
POPIS
100
AcDbHatch
 10
0.0
 20
0.0
 30
0.0
210
0.0
220
0.0
230
1.0
  2
SOLID
 70
     1
 71
     0
 91
        1
 92
        7
 72
     0
 73
     1
 93
        8
 10
1494.435637283065
 20
357.6478944627904
 10
1498.114478620667
 20
357.6478944627904
 10
1492.541909443287
 20
365.4487465456875
 10
1486.969340265902
 20
357.6478944627904
 10
1490.648181603504
 20
357.6478944627904
 10
1489.122435655546
 20
344.7122505637141
 10
1492.541909443287
 20
350.0935472111921
 10
1495.961383231027
 20
344.7122505637068
 97
        0
 75
     0
 76
     1
 47
0.3835833255279223
 98
        1
 10
1492.950092190541
 20
354.7397112822907
  0
LINE
  5
3FB
330
1F
100
AcDbEntity
  8
POPIS
100
AcDbLine
 10
1492.541909443287
 20
365.4487465456875
 30
0.0
 11
1486.969340265906
 21
357.6478944627904
 31
0.0
  0
LINE
  5
3FC
330
1F
100
AcDbEntity
  8
POPIS
100
AcDbLine
 10
1486.969340265906
 20
357.6478944627904
 30
0.0
 11
1490.648181603504
 21
357.6478944627904
 31
0.0
  0
LINE
  5
3FD
330
1F
100
AcDbEntity
  8
POPIS
100
AcDbLine
 10
1490.648181603504
 20
357.6478944627904
 30
0.0
 11
1489.122435655546
 21
344.7122505637068
 31
0.0
  0
LINE
  5
3FE
330
1F
100
AcDbEntity
  8
POPIS
100
AcDbLine
 10
1494.435637283069
 20
357.6478944627904
 30
0.0
 11
1495.961383231027
 21
344.7122505637068
 31
0.0
  0
LINE
  5
3FF
330
1F
100
AcDbEntity
  8
POPIS
100
AcDbLine
 10
1498.114478620667
 20
357.6478944627904
 30
0.0
 11
1494.435637283069
 21
357.6478944627904
 31
0.0
  0
LINE
  5
400
330
1F
100
AcDbEntity
  8
POPIS
100
AcDbLine
 10
1492.541909443287
 20
365.4487465456875
 30
0.0
 11
1498.114478620667
 21
357.6478944627904
 31
0.0
  0
LINE
  5
401
330
1F
100
AcDbEntity
  8
POPIS
100
AcDbLine
 10
1489.122435655546
 20
344.7122505637068
 30
0.0
 11
1492.541909443283
 21
350.0935472111848
 31
0.0
  0
LINE
  5
402
330
1F
100
AcDbEntity
  8
POPIS
100
AcDbLine
 10
1495.961383231027
 20
344.7122505637068
 30
0.0
 11
1492.54190944329
 21
350.0935472111848
 31
0.0
  0
LINE
  5
474
330
1F
100
AcDbEntity
  8
PROFILY
100
AcDbLine
 10
1478.859263116256
 20
369.6429934422574
 30
0.0
 11
1478.859263116256
 21
932.6197556921538
 31
0.0
  0
LINE
  5
475
330
1F
100
AcDbEntity
  8
PROFILY
100
AcDbLine
 10
1478.459263116256
 20
369.6429934422574
 30
0.0
 11
1478.459263116256
 21
932.6197556921538
 31
0.0
  0
LINE
  5
476
330
1F
100
AcDbEntity
  8
PROFILY
  6
DASHED
370
    40
100
AcDbLine
 10
1478.659263116256
 20
369.6429934422574
 30
0.0
 11
1478.659263116256
 21
932.6197556921538
 31
0.0
  0
LINE
  5
477
330
1F
100
AcDbEntity
  8
POPIS
100
AcDbLine
 10
1310.858424175004
 20
751.7675370781612
 30
0.0
 11
1478.659263116256
 21
751.7675370781594
 31
0.0
  0
TEXT
  5
478
330
1F
100
AcDbEntity
  8
POPIS
100
AcDbText
 10
1273.963909544326
 20
738.3241956287906
 30
0.0
 40
25.0
  1
10
 41
0.7
  7
SIMPLEX7
100
AcDbText
  0
INSERT
  5
479
330
1F
100
AcDbEntity
  8
POPIS
100
AcDbBlockReference
  2
E_PUNKT
 10
1478.7195797784
 20
752.1882801443721
 30
0.0
  0
INSERT
  5
47A
330
1F
100
AcDbEntity
  8
POPIS
100
AcDbBlockReference
  2
_ArchTick
 10
1411.054030822395
 20
370.5159582149763
 30
0.0
 41
15.0
 42
15.0
 43
15.0
 50
270.0
  0
LINE
  5
47B
330
1F
100
AcDbEntity
  8
POPIS
100
AcDbLine
 10
1411.054030822395
 20
430.7700416328871
 30
0.0
 11
1411.054030822395
 21
366.3757568863902
 31
0.0
  0
LINE
  5
47C
330
1F
100
AcDbEntity
  8
POPIS
100
AcDbLine
 10
1439.848098445296
 20
370.5159582149763
 30
0.0
 11
1398.554030822395
 21
370.5159582149763
 31
0.0
  0
TEXT
  5
47D
330
1F
100
AcDbEntity
  8
POPIS
100
AcDbText
 10
1405.444120430103
 20
386.5965774442456
 30
0.0
 40
25.0
  1
70
 50
90.0
 41
0.7
  7
SIMPLEX7
100
AcDbText
  0
LINE
  5
47E
330
1F
100
AcDbEntity
  8
POPIS
100
AcDbLine
 10
1442.037040678298
 20
421.4788255500175
 30
0.0
 11
1398.554030822395
 21
421.4788255500175
 31
0.0
  0
INSERT
  5
47F
330
1F
100
AcDbEntity
  8
POPIS
100
AcDbBlockReference
  2
_ArchTick
 10
1411.054030822395
 20
421.4788255500175
 30
0.0
 41
15.0
 42
15.0
 43
15.0
 50
90.0
  0
TEXT
  5
480
330
1F
100
AcDbEntity
  8
POPIS
100
AcDbText
 10
1300.22016937437
 20
-228.4730685423878
 30
0.0
 40
25.0
  1
Podkladní EPDM páska tl.1 mm
 41
0.7
  7
SIMPLEX7
100
AcDbText
  0
TEXT
  5
481
330
1F
100
AcDbEntity
  8
POPIS
100
AcDbText
 10
1245.876466214627
 20
-228.4730685423878
 30
0.0
 40
25.0
  1
10
 41
0.85
  7
SIMPLEX7
100
AcDbText
  0
ENDSEC
  0
SECTION
  2
OBJECTS
  0
DICTIONARY
  5
C
330
0
100
AcDbDictionary
281
     1
  3
ACAD_GROUP
350
D
  3
ACAD_LAYOUT
350
1A
  3
ACAD_MLINESTYLE
350
17
  3
ACAD_PLOTSETTINGS
350
19
  3
ACAD_PLOTSTYLENAME
350
E
  3
AcDbVariableDictionary
350
484
  0
DICTIONARY
  5
419
330
1F
100
AcDbDictionary
280
     1
281
     1
  3
ACAD_LAYOUTSELFREF
360
455
  0
DICTIONARY
  5
41B
330
1B
100
AcDbDictionary
280
     1
281
     1
  3
ACAD_LAYOUTSELFREF
360
454
  0
DICTIONARY
  5
41D
330
23
100
AcDbDictionary
280
     1
281
     1
  3
ACAD_LAYOUTSELFREF
360
456
  0
DICTIONARY
  5
D
102
{ACAD_REACTORS
330
C
102
}
330
C
100
AcDbDictionary
281
     1
  0
DICTIONARY
  5
1A
102
{ACAD_REACTORS
330
C
102
}
330
C
100
AcDbDictionary
281
     1
  3
Model
350
22
  3
Rozvržení1
350
1E
  3
Rozvržení2
350
26
  0
DICTIONARY
  5
17
102
{ACAD_REACTORS
330
C
102
}
330
C
100
AcDbDictionary
281
     1
  3
Standard
350
18
  0
DICTIONARY
  5
19
102
{ACAD_REACTORS
330
C
102
}
330
C
100
AcDbDictionary
281
     1
  0
ACDBDICTIONARYWDFLT
  5
E
102
{ACAD_REACTORS
330
C
102
}
330
C
100
AcDbDictionary
281
     1
  3
Normal
350
F
100
AcDbDictionaryWithDefault
340
F
  0
DICTIONARY
  5
484
102
{ACAD_REACTORS
330
C
102
}
330
C
100
AcDbDictionary
281
     1
  3
DIMASSOC
350
485
  0
XRECORD
  5
455
102
{ACAD_REACTORS
330
419
102
}
330
419
100
AcDbXrecord
280
     1
340
1F
  0
XRECORD
  5
454
102
{ACAD_REACTORS
330
41B
102
}
330
41B
100
AcDbXrecord
280
     1
340
1B
  0
XRECORD
  5
456
102
{ACAD_REACTORS
330
41D
102
}
330
41D
100
AcDbXrecord
280
     1
340
23
  0
LAYOUT
  5
22
102
{ACAD_REACTORS
330
1A
102
}
330
1A
100
AcDbPlotSettings
  1

  2
HP DeskJet 690C
  4

  6

 40
0.0
 41
0.0
 42
0.0
 43
0.0
 44
0.0
 45
0.0
 46
0.0
 47
0.0
 48
0.0
 49
0.0
140
0.0
141
0.0
142
1.0
143
1.0
 70
  1712
 72
     0
 73
     0
 74
     0
  7
monochrome.ctb
 75
     0
147
1.0
148
0.0
149
0.0
100
AcDbLayout
  1
Model
 70
     1
 71
     0
 10
0.0
 20
0.0
 11
12.0
 21
9.0
 12
0.0
 22
0.0
 32
0.0
 14
0.0
 24
0.0
 34
0.0
 15
0.0
 25
0.0
 35
0.0
146
0.0
 13
0.0
 23
0.0
 33
0.0
 16
1.0
 26
0.0
 36
0.0
 17
0.0
 27
1.0
 37
0.0
 76
     0
330
1F
  0
LAYOUT
  5
1E
102
{ACAD_REACTORS
330
1A
102
}
330
1A
100
AcDbPlotSettings
  1

  2
HP DeskJet 690C
  4

  6

 40
0.0
 41
0.0
 42
0.0
 43
0.0
 44
0.0
 45
0.0
 46
0.0
 47
0.0
 48
0.0
 49
0.0
140
0.0
141
0.0
142
1.0
143
1.0
 70
   688
 72
     0
 73
     0
 74
     5
  7
monochrome.ctb
 75
    16
147
1.0
148
0.0
149
0.0
100
AcDbLayout
  1
Rozvržení1
 70
     1
 71
     1
 10
0.0
 20
0.0
 11
420.0
 21
297.0
 12
0.0
 22
0.0
 32
0.0
 14
1.000000000000000E+20
 24
1.000000000000000E+20
 34
1.000000000000000E+20
 15
-1.000000000000000E+20
 25
-1.000000000000000E+20
 35
-1.000000000000000E+20
146
0.0
 13
0.0
 23
0.0
 33
0.0
 16
1.0
 26
0.0
 36
0.0
 17
0.0
 27
1.0
 37
0.0
 76
     0
330
1B
  0
LAYOUT
  5
26
102
{ACAD_REACTORS
330
1A
102
}
330
1A
100
AcDbPlotSettings
  1

  2
HP DeskJet 690C
  4

  6

 40
0.0
 41
0.0
 42
0.0
 43
0.0
 44
0.0
 45
0.0
 46
0.0
 47
0.0
 48
0.0
 49
0.0
140
0.0
141
0.0
142
1.0
143
1.0
 70
   688
 72
     0
 73
     0
 74
     5
  7
monochrome.ctb
 75
    16
147
1.0
148
0.0
149
0.0
100
AcDbLayout
  1
Rozvržení2
 70
     1
 71
     2
 10
0.0
 20
0.0
 11
12.0
 21
9.0
 12
0.0
 22
0.0
 32
0.0
 14
0.0
 24
0.0
 34
0.0
 15
0.0
 25
0.0
 35
0.0
146
0.0
 13
0.0
 23
0.0
 33
0.0
 16
1.0
 26
0.0
 36
0.0
 17
0.0
 27
1.0
 37
0.0
 76
     0
330
23
  0
MLINESTYLE
  5
18
102
{ACAD_REACTORS
330
17
102
}
330
17
100
AcDbMlineStyle
  2
STANDARD
 70
     0
  3

 62
   256
 51
90.0
 52
90.0
 71
     2
 49
0.5
 62
   256
  6
BYLAYER
 49
-0.5
 62
   256
  6
BYLAYER
  0
ACDBPLACEHOLDER
  5
F
102
{ACAD_REACTORS
330
E
102
}
330
E
  0
DICTIONARYVAR
  5
485
102
{ACAD_REACTORS
330
484
102
}
330
484
100
DictionaryVariables
280
     0
  1
1
  0
ENDSEC
  0
EOF
