  0
SECTION
  2
HEADER
  9
$ACADVER
  1
AC1015
  9
$ACADMAINTVER
 70
    14
  9
$DWGCODEPAGE
  3
ANSI_1250
  9
$INSBASE
 10
0.0
 20
0.0
 30
0.0
  9
$EXTMIN
 10
-890.6623146355741
 20
-8682.854688299281
 30
-0.0015258207003583
  9
$EXTMAX
 10
434.1640270127391
 20
-8093.583249475502
 30
0.0000000349246037
  9
$LIMMIN
 10
0.0
 20
0.0
  9
$LIMMAX
 10
420.0
 20
297.0
  9
$ORTHOMODE
 70
     1
  9
$REGENMODE
 70
     1
  9
$FILLMODE
 70
     1
  9
$QTEXTMODE
 70
     0
  9
$MIRRTEXT
 70
     1
  9
$LTSCALE
 40
1.0
  9
$ATTMODE
 70
     1
  9
$TEXTSIZE
 40
102.0
  9
$TRACEWID
 40
1.0
  9
$TEXTSTYLE
  7
SIMPLEX7
  9
$CLAYER
  8
STAVBA OBRYS
  9
$CELTYPE
  6
ByLayer
  9
$CECOLOR
 62
   256
  9
$CELTSCALE
 40
1.0
  9
$DISPSILH
 70
     0
  9
$DIMSCALE
 40
1.0
  9
$DIMASZ
 40
2.5
  9
$DIMEXO
 40
0.625
  9
$DIMDLI
 40
3.75
  9
$DIMRND
 40
0.0
  9
$DIMDLE
 40
0.0
  9
$DIMEXE
 40
1.25
  9
$DIMTP
 40
0.0
  9
$DIMTM
 40
0.0
  9
$DIMTXT
 40
2.5
  9
$DIMCEN
 40
2.5
  9
$DIMTSZ
 40
0.0
  9
$DIMTOL
 70
     0
  9
$DIMLIM
 70
     0
  9
$DIMTIH
 70
     0
  9
$DIMTOH
 70
     0
  9
$DIMSE1
 70
     0
  9
$DIMSE2
 70
     0
  9
$DIMTAD
 70
     1
  9
$DIMZIN
 70
     8
  9
$DIMBLK
  1

  9
$DIMASO
 70
     1
  9
$DIMSHO
 70
     1
  9
$DIMPOST
  1

  9
$DIMAPOST
  1

  9
$DIMALT
 70
     0
  9
$DIMALTD
 70
     3
  9
$DIMALTF
 40
0.03937007874016
  9
$DIMLFAC
 40
1.0
  9
$DIMTOFL
 70
     1
  9
$DIMTVP
 40
0.0
  9
$DIMTIX
 70
     0
  9
$DIMSOXD
 70
     0
  9
$DIMSAH
 70
     0
  9
$DIMBLK1
  1

  9
$DIMBLK2
  1

  9
$DIMSTYLE
  2
ISO-25
  9
$DIMCLRD
 70
     0
  9
$DIMCLRE
 70
     0
  9
$DIMCLRT
 70
     0
  9
$DIMTFAC
 40
1.0
  9
$DIMGAP
 40
0.625
  9
$DIMJUST
 70
     0
  9
$DIMSD1
 70
     0
  9
$DIMSD2
 70
     0
  9
$DIMTOLJ
 70
     0
  9
$DIMTZIN
 70
     8
  9
$DIMALTZ
 70
     0
  9
$DIMALTTZ
 70
     0
  9
$DIMUPT
 70
     0
  9
$DIMDEC
 70
     2
  9
$DIMTDEC
 70
     2
  9
$DIMALTU
 70
     2
  9
$DIMALTTD
 70
     3
  9
$DIMTXSTY
  7
Standard
  9
$DIMAUNIT
 70
     0
  9
$DIMADEC
 70
     0
  9
$DIMALTRND
 40
0.0
  9
$DIMAZIN
 70
     0
  9
$DIMDSEP
 70
    44
  9
$DIMATFIT
 70
     3
  9
$DIMFRAC
 70
     0
  9
$DIMLDRBLK
  1

  9
$DIMLUNIT
 70
     2
  9
$DIMLWD
 70
    -2
  9
$DIMLWE
 70
    -2
  9
$DIMTMOVE
 70
     0
  9
$LUNITS
 70
     2
  9
$LUPREC
 70
     4
  9
$SKETCHINC
 40
1.0
  9
$FILLETRAD
 40
0.0
  9
$AUNITS
 70
     0
  9
$AUPREC
 70
     0
  9
$MENU
  1
.
  9
$ELEVATION
 40
0.0
  9
$PELEVATION
 40
0.0
  9
$THICKNESS
 40
0.0
  9
$LIMCHECK
 70
     0
  9
$CHAMFERA
 40
10.0
  9
$CHAMFERB
 40
10.0
  9
$CHAMFERC
 40
20.0
  9
$CHAMFERD
 40
0.0
  9
$SKPOLY
 70
     0
  9
$TDCREATE
 40
2452681.284131944
  9
$TDUCREATE
 40
2452681.242465277
  9
$TDUPDATE
 40
2455601.580862685
  9
$TDUUPDATE
 40
2455601.539196018
  9
$TDINDWG
 40
0.6497021759
  9
$TDUSRTIMER
 40
0.6497021759
  9
$USRTIMER
 70
     1
  9
$ANGBASE
 50
0.0
  9
$ANGDIR
 70
     0
  9
$PDMODE
 70
     0
  9
$PDSIZE
 40
0.0
  9
$PLINEWID
 40
0.0
  9
$SPLFRAME
 70
     0
  9
$SPLINETYPE
 70
     6
  9
$SPLINESEGS
 70
     8
  9
$HANDSEED
  5
6118
  9
$SURFTAB1
 70
     6
  9
$SURFTAB2
 70
     6
  9
$SURFTYPE
 70
     6
  9
$SURFU
 70
     6
  9
$SURFV
 70
     6
  9
$UCSBASE
  2

  9
$UCSNAME
  2

  9
$UCSORG
 10
0.0
 20
0.0
 30
0.0
  9
$UCSXDIR
 10
1.0
 20
0.0
 30
0.0
  9
$UCSYDIR
 10
0.0
 20
1.0
 30
0.0
  9
$UCSORTHOREF
  2

  9
$UCSORTHOVIEW
 70
     0
  9
$UCSORGTOP
 10
0.0
 20
0.0
 30
0.0
  9
$UCSORGBOTTOM
 10
0.0
 20
0.0
 30
0.0
  9
$UCSORGLEFT
 10
0.0
 20
0.0
 30
0.0
  9
$UCSORGRIGHT
 10
0.0
 20
0.0
 30
0.0
  9
$UCSORGFRONT
 10
0.0
 20
0.0
 30
0.0
  9
$UCSORGBACK
 10
0.0
 20
0.0
 30
0.0
  9
$PUCSBASE
  2

  9
$PUCSNAME
  2

  9
$PUCSORG
 10
0.0
 20
0.0
 30
0.0
  9
$PUCSXDIR
 10
1.0
 20
0.0
 30
0.0
  9
$PUCSYDIR
 10
0.0
 20
1.0
 30
0.0
  9
$PUCSORTHOREF
  2

  9
$PUCSORTHOVIEW
 70
     0
  9
$PUCSORGTOP
 10
0.0
 20
0.0
 30
0.0
  9
$PUCSORGBOTTOM
 10
0.0
 20
0.0
 30
0.0
  9
$PUCSORGLEFT
 10
0.0
 20
0.0
 30
0.0
  9
$PUCSORGRIGHT
 10
0.0
 20
0.0
 30
0.0
  9
$PUCSORGFRONT
 10
0.0
 20
0.0
 30
0.0
  9
$PUCSORGBACK
 10
0.0
 20
0.0
 30
0.0
  9
$USERI1
 70
     0
  9
$USERI2
 70
     0
  9
$USERI3
 70
     0
  9
$USERI4
 70
     0
  9
$USERI5
 70
     0
  9
$USERR1
 40
0.0
  9
$USERR2
 40
0.0
  9
$USERR3
 40
0.0
  9
$USERR4
 40
0.0
  9
$USERR5
 40
0.0
  9
$WORLDVIEW
 70
     1
  9
$SHADEDGE
 70
     3
  9
$SHADEDIF
 70
    70
  9
$TILEMODE
 70
     1
  9
$MAXACTVP
 70
    64
  9
$PINSBASE
 10
0.0
 20
0.0
 30
0.0
  9
$PLIMCHECK
 70
     0
  9
$PEXTMIN
 10
1.000000000000000E+20
 20
1.000000000000000E+20
 30
1.000000000000000E+20
  9
$PEXTMAX
 10
-1.000000000000000E+20
 20
-1.000000000000000E+20
 30
-1.000000000000000E+20
  9
$PLIMMIN
 10
0.0
 20
0.0
  9
$PLIMMAX
 10
420.0
 20
297.0
  9
$UNITMODE
 70
     0
  9
$VISRETAIN
 70
     1
  9
$PLINEGEN
 70
     0
  9
$PSLTSCALE
 70
     1
  9
$TREEDEPTH
 70
  3020
  9
$CMLSTYLE
  2
Standard
  9
$CMLJUST
 70
     0
  9
$CMLSCALE
 40
20.0
  9
$PROXYGRAPHICS
 70
     1
  9
$MEASUREMENT
 70
     1
  9
$CELWEIGHT
370
    -1
  9
$ENDCAPS
280
     0
  9
$JOINSTYLE
280
     0
  9
$LWDISPLAY
290
     1
  9
$INSUNITS
 70
     4
  9
$HYPERLINKBASE
  1

  9
$STYLESHEET
  1

  9
$XEDIT
290
     1
  9
$CEPSNTYPE
380
     0
  9
$PSTYLEMODE
290
     1
  9
$FINGERPRINTGUID
  2
{CED30962-9BF9-4233-B154-46CCBBBAD92E}
  9
$VERSIONGUID
  2
{AC5C7749-B70D-44DD-B41C-2720A8F602B4}
  9
$EXTNAMES
290
     1
  9
$PSVPSCALE
 40
0.0
  9
$OLESTARTUP
290
     0
  0
ENDSEC
  0
SECTION
  2
CLASSES
  0
CLASS
  1
ACDBDICTIONARYWDFLT
  2
AcDbDictionaryWithDefault
  3
AutoCAD 2000
 90
        0
280
     0
281
     0
  0
CLASS
  1
ACDBPLACEHOLDER
  2
AcDbPlaceHolder
  3
AutoCAD 2000
 90
        0
280
     0
281
     0
  0
CLASS
  1
LAYOUT
  2
AcDbLayout
  3
AutoCAD 2000
 90
        0
280
     0
281
     0
  0
CLASS
  1
DICTIONARYVAR
  2
AcDbDictionaryVar
  3
AutoCAD 2000
 90
        0
280
     0
281
     0
  0
ENDSEC
  0
SECTION
  2
TABLES
  0
TABLE
  2
VPORT
  5
8
330
0
100
AcDbSymbolTable
 70
     2
  0
VPORT
  5
6117
330
8
100
AcDbSymbolTableRecord
100
AcDbViewportTableRecord
  2
*Active
 70
     0
 10
0.0
 20
0.0
 11
1.0
 21
1.0
 12
-228.2491438114175
 22
-8388.218968887391
 13
0.0
 23
0.0
 14
10.0
 24
10.0
 15
10.0
 25
10.0
 16
0.0
 26
0.0
 36
1.0
 17
0.0
 27
0.0
 37
0.0
 40
654.3821829946396
 41
2.031862745098039
 42
50.0
 43
0.0
 44
0.0
 50
0.0
 51
0.0
 71
     0
 72
   100
 73
     1
 74
     3
 75
     0
 76
     0
 77
     0
 78
     0
281
     0
 65
     1
110
0.0
120
0.0
130
0.0
111
1.0
121
0.0
131
0.0
112
0.0
122
1.0
132
0.0
 79
     0
146
0.0
  0
ENDTAB
  0
TABLE
  2
LTYPE
  5
5
330
0
100
AcDbSymbolTable
 70
     5
  0
LTYPE
  5
14
330
5
100
AcDbSymbolTableRecord
100
AcDbLinetypeTableRecord
  2
ByBlock
 70
     0
  3

 72
    65
 73
     0
 40
0.0
  0
LTYPE
  5
15
330
5
100
AcDbSymbolTableRecord
100
AcDbLinetypeTableRecord
  2
ByLayer
 70
     0
  3

 72
    65
 73
     0
 40
0.0
  0
LTYPE
  5
16
330
5
100
AcDbSymbolTableRecord
100
AcDbLinetypeTableRecord
  2
Continuous
 70
     0
  3
Solid line
 72
    65
 73
     0
 40
0.0
  0
LTYPE
  5
2F
330
5
100
AcDbSymbolTableRecord
100
AcDbLinetypeTableRecord
  2
DASHED
 70
     0
  3
Dashed __ __ __ __ __ __ __ __ __ __ __ __ __ _
 72
    65
 73
     2
 40
19.04999999999999
 49
12.7
 74
     0
 49
-6.349999999999999
 74
     0
  0
LTYPE
  5
30
330
5
100
AcDbSymbolTableRecord
100
AcDbLinetypeTableRecord
  2
IZOLACE
 70
     0
  3
Izolace SSSSSSSSSSSSSSSSSSSSSSSSSSSSSSSSSSSSSSS
 72
    65
 73
     4
 40
10.16253999999999
 49
0.00254
 74
     0
 49
-2.54
 74
     4
 75
   134
340
38
 46
2.54
 50
0.0
 44
-2.54
 45
0.0
 49
-5.08
 74
     4
 75
   134
340
38
 46
2.54
 50
180.0
 44
2.54
 45
0.0
 49
-2.54
 74
     0
  0
LTYPE
  5
11D2
330
5
100
AcDbSymbolTableRecord
100
AcDbLinetypeTableRecord
  2
DASHDOT2
 70
     0
  3
Dash dot (.5x) _._._._._._._._._._._._._._._.
 72
    65
 73
     4
 40
12.7
 49
6.349999999999999
 74
     0
 49
-3.174999999999999
 74
     0
 49
0.0
 74
     0
 49
-3.174999999999999
 74
     0
  0
LTYPE
  5
11D3
330
5
100
AcDbSymbolTableRecord
100
AcDbLinetypeTableRecord
  2
CIKCAK
 70
     0
  3
Cik-cak /\/\/\/\/\/\/\/\/\/\/\/\/\/\/\/\/\/\/\/
 72
    65
 73
     4
 40
20.32254
 49
0.00254
 74
     0
 49
-5.08
 74
     4
 75
   131
340
38
 46
5.08
 50
0.0
 44
-5.08
 45
0.0
 49
-10.16
 74
     4
 75
   131
340
38
 46
5.08
 50
180.0
 44
5.08
 45
0.0
 49
-5.08
 74
     0
  0
ENDTAB
  0
TABLE
  2
LAYER
  5
2
330
0
100
AcDbSymbolTable
 70
     8
  0
LAYER
  5
10
330
2
100
AcDbSymbolTableRecord
100
AcDbLayerTableRecord
  2
0
 70
     0
 62
     7
  6
Continuous
370
    -3
390
F
  0
LAYER
  5
31
330
2
100
AcDbSymbolTableRecord
100
AcDbLayerTableRecord
  2
POPIS
 70
     0
 62
    30
  6
Continuous
370
    -3
390
F
  0
LAYER
  5
32
330
2
100
AcDbSymbolTableRecord
100
AcDbLayerTableRecord
  2
SPOJOVACÍ
 70
     0
 62
     5
  6
Continuous
370
    -3
390
F
  0
LAYER
  5
33
330
2
100
AcDbSymbolTableRecord
100
AcDbLayerTableRecord
  2
CETRIS
 70
     0
 62
     1
  6
Continuous
370
    -3
390
F
  0
LAYER
  5
34
330
2
100
AcDbSymbolTableRecord
100
AcDbLayerTableRecord
  2
izolace
 70
     0
 62
     3
  6
Continuous
370
    -3
390
F
  0
LAYER
  5
35
330
2
100
AcDbSymbolTableRecord
100
AcDbLayerTableRecord
  2
nášlap_vrstvy
 70
     0
 62
     6
  6
Continuous
370
    -3
390
F
  0
LAYER
  5
36
330
2
100
AcDbSymbolTableRecord
100
AcDbLayerTableRecord
  2
STAVBA OBRYS
 70
     0
 62
    40
  6
Continuous
370
    -3
390
F
  0
LAYER
  5
8B0
330
2
100
AcDbSymbolTableRecord
100
AcDbLayerTableRecord
  2
Defpoints
 70
     0
 62
     7
  6
Continuous
290
     0
370
    -3
390
F
  0
ENDTAB
  0
TABLE
  2
STYLE
  5
3
330
0
100
AcDbSymbolTable
 70
     3
  0
STYLE
  5
11
330
3
100
AcDbSymbolTableRecord
100
AcDbTextStyleTableRecord
  2
Standard
 70
     0
 40
0.0
 41
1.0
 50
0.0
 71
     0
 42
2.5
  3
verdana.TTF
  4

1001
ACAD
1000
Verdana
1071
       34
  0
STYLE
  5
37
330
3
100
AcDbSymbolTableRecord
100
AcDbTextStyleTableRecord
  2
SIMPLEX7
 70
     0
 40
0.0
 41
0.85
 50
0.0
 71
     0
 42
102.0
  3
ARIAL.TTF
  4

1001
ACAD
1000
Arial CE
1071
    60962
  0
STYLE
  5
38
330
3
100
AcDbSymbolTableRecord
100
AcDbTextStyleTableRecord
  2

 70
     1
 40
0.0
 41
1.0
 50
0.0
 71
     0
 42
2.5
  3
ltypeshp.shx
  4

  0
ENDTAB
  0
TABLE
  2
VIEW
  5
6
330
0
100
AcDbSymbolTable
 70
     0
  0
ENDTAB
  0
TABLE
  2
UCS
  5
7
330
0
100
AcDbSymbolTable
 70
     0
  0
ENDTAB
  0
TABLE
  2
APPID
  5
9
330
0
100
AcDbSymbolTable
 70
     1
  0
APPID
  5
12
330
9
100
AcDbSymbolTableRecord
100
AcDbRegAppTableRecord
  2
ACAD
 70
     0
  0
ENDTAB
  0
TABLE
  2
DIMSTYLE
  5
A
330
0
100
AcDbSymbolTable
 70
     2
100
AcDbDimStyleTable
 71
     1
340
27
  0
DIMSTYLE
105
27
330
A
100
AcDbSymbolTableRecord
100
AcDbDimStyleTableRecord
  2
ISO-25
 70
     0
 41
2.5
 42
0.625
 43
3.75
 44
1.25
 73
     0
 74
     0
 77
     1
 78
     8
140
2.5
141
2.5
143
0.03937007874016
147
0.625
171
     3
172
     1
271
     2
272
     2
274
     3
278
    44
283
     0
284
     8
340
11
  0
DIMSTYLE
105
5925
330
A
100
AcDbSymbolTableRecord
100
AcDbDimStyleTableRecord
  2
STANDARD
 70
     0
340
11
  0
ENDTAB
  0
TABLE
  2
BLOCK_RECORD
  5
1
330
0
100
AcDbSymbolTable
 70
     3
  0
BLOCK_RECORD
  5
1F
330
1
100
AcDbSymbolTableRecord
100
AcDbBlockTableRecord
  2
*Model_Space
340
22
  0
BLOCK_RECORD
  5
1B
330
1
100
AcDbSymbolTableRecord
100
AcDbBlockTableRecord
  2
*Paper_Space
340
1E
  0
BLOCK_RECORD
  5
23
330
1
100
AcDbSymbolTableRecord
100
AcDbBlockTableRecord
  2
*Paper_Space0
340
26
  0
BLOCK_RECORD
  5
2B
330
1
100
AcDbSymbolTableRecord
100
AcDbBlockTableRecord
  2
E_PUNKT
340
0
102
{BLKREFS
331
6B5
331
6B1
331
842
331
83F
331
75F
331
79A
331
73F
331
766
331
649
331
60D
331
60C
331
197D
331
1A72
331
1A77
331
1AC8
331
1AC9
331
1ACB
331
1AE2
331
181B
331
183F
331
1FA2
331
1FB8
331
1FBA
331
1FC4
331
1FCC
331
2008
331
224F
331
2272
331
227D
331
22F0
331
2313
331
2314
331
2355
331
23A6
331
23B1
331
24C9
331
2A02
331
2A12
331
2AC1
331
2BCD
331
2BE5
331
2C54
331
2CD0
331
2CC6
331
2CCF
331
2BE0
331
2BEB
331
2DA0
331
2DA5
331
2DE7
331
2DED
331
2DEE
331
2DEF
331
2DF2
331
2DF3
331
2DF6
331
2E8E
331
314E
331
3236
331
3206
331
32FE
331
32BF
331
3304
331
2ECD
331
3239
331
2FB9
331
3150
331
4E7F
331
4E9C
331
4EA7
331
4EAE
331
4EB8
331
5B4F
331
5B54
102
}
  0
ENDTAB
  0
ENDSEC
  0
SECTION
  2
BLOCKS
  0
BLOCK
  5
20
330
1F
100
AcDbEntity
  8
0
100
AcDbBlockBegin
  2
*Model_Space
 70
     0
 10
0.0
 20
0.0
 30
0.0
  3
*Model_Space
  1

  0
ENDBLK
  5
21
330
1F
100
AcDbEntity
  8
0
100
AcDbBlockEnd
  0
BLOCK
  5
1C
330
1B
100
AcDbEntity
 67
     1
  8
0
100
AcDbBlockBegin
  2
*Paper_Space
 70
     0
 10
0.0
 20
0.0
 30
0.0
  3
*Paper_Space
  1

  0
ENDBLK
  5
1D
330
1B
100
AcDbEntity
 67
     1
  8
0
100
AcDbBlockEnd
  0
BLOCK
  5
24
330
23
100
AcDbEntity
  8
0
100
AcDbBlockBegin
  2
*Paper_Space0
 70
     0
 10
0.0
 20
0.0
 30
0.0
  3
*Paper_Space0
  1

  0
ENDBLK
  5
25
330
23
100
AcDbEntity
  8
0
100
AcDbBlockEnd
  0
BLOCK
  5
2D
330
2B
100
AcDbEntity
  8
0
100
AcDbBlockBegin
  2
E_PUNKT
 70
     0
 10
0.0
 20
0.0
 30
0.0
  3
E_PUNKT
  1

  0
LWPOLYLINE
  5
2C
330
2B
100
AcDbEntity
  8
POPIS
100
AcDbPolyline
 90
        2
 70
     1
 43
2.5
 10
1.27761037562675
 20
0.0290683308725193
 42
-1.0
 10
-1.222389624373249
 20
0.0290683308725193
 42
-1.0
  0
ENDBLK
  5
2E
330
2B
100
AcDbEntity
  8
0
100
AcDbBlockEnd
  0
ENDSEC
  0
SECTION
  2
ENTITIES
  0
HATCH
  5
1DC2
330
1F
100
AcDbEntity
  8
CETRIS
370
    20
100
AcDbHatch
 10
0.0
 20
0.0
 30
0.0
210
0.0
220
0.0
230
1.0
  2
ANSI31
 70
     0
 71
     0
 91
        2
 92
        7
 72
     0
 73
     1
 93
       24
 10
-527.1911617533874
 20
-8354.742002501446
 10
-542.486366386896
 20
-8354.742002501446
 10
-542.6166587143957
 20
-8354.872294829698
 10
-543.0041491679799
 20
-8354.742002501446
 10
-543.2757254708517
 20
-8354.742002501446
 10
-543.2757254708554
 20
-8357.12393308116
 10
-542.6166587143775
 20
-8357.345390425106
 10
-542.2465603708656
 20
-8357.559609910886
 10
-542.6166587143957
 20
-8357.92970825628
 10
-543.2757254708481
 20
-8357.708250912388
 10
-543.2757254708481
 20
-8360.182106500708
 10
-542.6166587143775
 20
-8360.403715423881
 10
-542.2465603708656
 20
-8360.617023337466
 10
-542.6166587143921
 20
-8360.988033255322
 10
-543.2757254708481
 20
-8360.766424332153
 10
-543.2757254708517
 20
-8363.239519927516
 10
-542.616658714403
 20
-8363.46112885073
 10
-542.2465603708656
 20
-8363.67443676406
 10
-542.6166587143957
 20
-8364.045446681911
 10
-543.2757254708481
 20
-8363.823837758742
 10
-543.2757254708517
 20
-8366.296933354098
 10
-542.6166587143884
 20
-8366.518542277317
 10
-542.2960921222069
 20
-8366.704091906862
 10
-527.1911617533874
 20
-8366.704091906862
 97
        0
 92
        7
 72
     0
 73
     1
 93
       44
 10
-545.9211082303295
 20
-8359.87692350549
 10
-546.5801749867819
 20
-8359.655314582324
 10
-546.9502733345975
 20
-8359.441095096533
 10
-546.5801749867892
 20
-8359.070996750871
 10
-545.9211082303331
 20
-8359.29260567404
 10
-545.9211082303331
 20
-8356.819358499361
 10
-546.5801749867928
 20
-8356.597901155465
 10
-546.9502733345939
 20
-8356.383681669681
 10
-546.5801749867928
 20
-8356.013583324017
 10
-545.9211082303331
 20
-8356.235040667954
 10
-545.9211082303331
 20
-8354.742002501446
 10
-695.7648748444767
 20
-8354.742002501446
 10
-695.8951671719837
 20
-8354.872294829696
 10
-696.2826576255606
 20
-8354.742002501446
 10
-696.5542339284361
 20
-8354.742002501446
 10
-696.5542339284325
 20
-8357.123933081162
 10
-695.8951671719765
 20
-8357.345390425098
 10
-695.5250688284499
 20
-8357.559609910884
 10
-695.8951671719728
 20
-8357.92970825628
 10
-696.5542339284361
 20
-8357.708250912386
 10
-696.5542339284325
 20
-8360.18210650071
 10
-695.8951671719765
 20
-8360.403715423879
 10
-695.5250688284499
 20
-8360.617023337468
 10
-695.8951671719765
 20
-8360.988033255322
 10
-696.5542339284361
 20
-8360.766424332153
 10
-696.5542339284434
 20
-8363.239519927518
 10
-695.8951671719801
 20
-8363.461128850728
 10
-695.5250688284499
 20
-8363.674436764059
 10
-695.8951671719765
 20
-8364.045446681911
 10
-696.5542339284325
 20
-8363.823837758742
 10
-696.5542339284361
 20
-8366.296933354099
 10
-695.8951671719765
 20
-8366.518542277312
 10
-695.5324283493569
 20
-8366.72850194186
 10
-545.9211082303331
 20
-8366.72850194186
 10
-545.9211082303331
 20
-8365.991750358706
 10
-546.5801749868001
 20
-8365.770141435493
 10
-546.9502733345975
 20
-8365.556833522168
 10
-546.5801749867928
 20
-8365.185823604042
 10
-545.9211082303331
 20
-8365.407432527254
 10
-545.9211082303331
 20
-8362.934336932072
 10
-546.5801749868001
 20
-8362.712728008903
 10
-546.9502733345975
 20
-8362.498508523124
 10
-546.5801749867928
 20
-8362.12841017746
 10
-545.9211082303331
 20
-8362.350019100672
 97
        0
 75
     0
 76
     1
 52
0.0
 41
1.0
 77
     0
 78
     1
 53
45.0
 43
-30170.30208396045
 44
-3618.948278409486
 45
-2.245064030267287
 46
2.245064030267288
 79
     0
 47
0.3060829619389045
 98
        2
 10
-537.5432646765252
 20
-8362.069378430799
 10
-577.3584977548884
 20
-8362.069378430799
  0
HATCH
  5
1DC3
330
1F
100
AcDbEntity
  8
CETRIS
370
    20
100
AcDbHatch
 10
0.0
 20
0.0
 30
0.0
210
0.0
220
0.0
230
1.0
  2
ANSI31
 70
     0
 71
     0
 91
        4
 92
        7
 72
     0
 73
     1
 93
       25
 10
-496.1065980359194
 20
-8357.708250912386
 10
-496.7656647923863
 20
-8357.92970825628
 10
-497.1357631359092
 20
-8357.559609910886
 10
-496.7656647923827
 20
-8357.3453904251
 10
-496.1065980359194
 20
-8357.123933081163
 10
-496.1065980359267
 20
-8354.742002501446
 10
-496.3781743388022
 20
-8354.742002501446
 10
-496.7656647923827
 20
-8354.872294829698
 10
-496.8959571198897
 20
-8354.742002501446
 10
-512.1911617533874
 20
-8354.742002501446
 10
-512.1911617533874
 20
-8366.742002501444
 10
-497.1727260892944
 20
-8366.742002501444
 10
-497.1357631358983
 20
-8366.732761763095
 10
-496.7656647923863
 20
-8366.518542277319
 10
-496.106598035923
 20
-8366.296933354103
 10
-496.106598035923
 20
-8363.823837758738
 10
-496.7656647923827
 20
-8364.045446681911
 10
-497.1357631359092
 20
-8363.674436764059
 10
-496.7656647923936
 20
-8363.461128850737
 10
-496.1065980359194
 20
-8363.239519927519
 10
-496.1065980359194
 20
-8360.766424332153
 10
-496.7656647923754
 20
-8360.988033255322
 10
-497.1357631359128
 20
-8360.617023337471
 10
-496.765664792379
 20
-8360.403715423874
 10
-496.106598035923
 20
-8360.18210650071
 97
        0
 92
        7
 72
     1
 73
     1
 93
       51
 10
-325.2889061291384
 20
-8360.187299937136
 42
0.0
 10
-325.288906129142
 20
-8354.742002501446
 42
0.0
 10
-493.4612152764416
 20
-8354.742002501444
 42
0.0
 10
-493.4612152764416
 20
-8356.235040667954
 42
0.0
 10
-492.8021485199856
 20
-8356.013583324017
 42
0.0
 10
-492.4320501721772
 20
-8356.383681669681
 42
0.0
 10
-492.8021485199783
 20
-8356.597901155465
 42
0.0
 10
-493.461215276438
 20
-8356.819358499359
 42
0.0
 10
-493.4612152764489
 20
-8359.29260567404
 42
0.0
 10
-492.802148519982
 20
-8359.070996750869
 42
0.0
 10
-492.4320501721735
 20
-8359.441095096533
 42
0.0
 10
-492.8021485199892
 20
-8359.655314582324
 42
0.0
 10
-493.461215276438
 20
-8359.87692350549
 42
0.0
 10
-493.4612152764416
 20
-8362.350019100674
 42
0.0
 10
-492.8021485199783
 20
-8362.12841017746
 42
0.0
 10
-492.4320501721808
 20
-8362.498508523126
 42
0.0
 10
-492.8021485199783
 20
-8362.712728008899
 42
0.0
 10
-493.461215276438
 20
-8362.934336932072
 42
0.0
 10
-493.4612152764416
 20
-8365.407432527257
 42
0.0
 10
-492.8021485199783
 20
-8365.185823604043
 42
0.0
 10
-492.4320501721772
 20
-8365.556833522168
 42
0.0
 10
-492.8021485199929
 20
-8365.770141435495
 42
0.0
 10
-493.4612152764453
 20
-8365.991750358704
 42
0.0
 10
-493.4612152764416
 20
-8366.742002501444
 42
0.0
 10
-452.1911617533874
 20
-8366.742002501444
 42
0.0
 10
-278.7580351100109
 20
-8366.742002501444
 42
0.0
 10
-278.7210721566402
 20
-8366.732761763101
 42
0.0
 10
-278.3509738130955
 20
-8366.51854227731
 42
0.0
 10
-277.6919070566468
 20
-8366.296933354098
 42
0.0
 10
-277.6919070566468
 20
-8363.82383775874
 42
0.0
 10
-278.3509738131028
 20
-8364.045446681913
 42
0.0
 10
-278.721072156633
 20
-8363.674436764059
 42
0.0
 10
-278.3509738131101
 20
-8363.46112885073
 42
0.0
 10
-277.6919070566432
 20
-8363.239519927516
 42
0.0
 10
-277.6919070566468
 20
-8360.766424332156
 42
0.0
 10
-278.3509738131065
 20
-8360.988033255321
 42
0.0
 10
-278.7210721566366
 20
-8360.617023337468
 42
0.0
 10
-278.3509738131101
 20
-8360.403715423883
 42
0.0
 10
-277.6919070566541
 20
-8360.182106500712
 42
0.0
 10
-277.6919070566504
 20
-8357.708250912386
 42
0.0
 10
-278.3509738131101
 20
-8357.92970825628
 42
0.0
 10
-278.7210721566366
 20
-8357.559609910886
 42
0.0
 10
-278.3509738131028
 20
-8357.345390425102
 42
0.0
 10
-277.6919070566432
 20
-8357.123933081162
 42
0.0
 10
-277.6919070566432
 20
-8354.742002501446
 42
0.0
 10
-277.9634833595332
 20
-8354.742002501446
 42
0.0
 10
-278.3509738131065
 20
-8354.872294829698
 42
0.0
 10
-278.4812661406062
 20
-8354.742002501446
 42
0.0
 10
-325.2889061291384
 20
-8354.742002501444
 42
0.0
 10
-325.2889061291384
 20
-8360.187299937136
 42
-1.0
 10
-325.2889061291384
 20
-8362.687299937137
 42
-1.0
 97
        0
 92
        7
 72
     0
 73
     1
 93
       24
 10
-207.1755423857534
 20
-8354.742002501446
 10
-275.046524297169
 20
-8354.742002501446
 10
-275.0465242971654
 20
-8356.235040667954
 10
-274.3874575407057
 20
-8356.013583324017
 10
-274.017359192901
 20
-8356.383681669681
 10
-274.3874575407021
 20
-8356.597901155472
 10
-275.0465242971654
 20
-8356.819358499366
 10
-275.0465242971654
 20
-8359.29260567404
 10
-274.3874575407021
 20
-8359.070996750871
 10
-274.0173591928974
 20
-8359.441095096533
 10
-274.387457540713
 20
-8359.655314582324
 10
-275.0465242971654
 20
-8359.876923505487
 10
-275.0465242971581
 20
-8362.35001910067
 10
-274.3874575407057
 20
-8362.128410177458
 10
-274.0173591928974
 20
-8362.498508523126
 10
-274.387457540713
 20
-8362.712728008911
 10
-275.046524297169
 20
-8362.934336932079
 10
-275.0465242971654
 20
-8365.407432527254
 10
-274.3874575407057
 20
-8365.185823604042
 10
-274.017359192901
 20
-8365.556833522168
 10
-274.3874575407021
 20
-8365.77014143549
 10
-275.0465242971618
 20
-8365.991750358704
 10
-275.0465242971618
 20
-8366.742002501444
 10
-207.1755423857571
 20
-8366.742002501444
 97
        0
 92
        7
 72
     0
 73
     1
 93
       24
 10
-699.1996166879139
 20
-8359.876923505492
 10
-699.8586834443845
 20
-8359.655314582321
 10
-700.2287817921892
 20
-8359.441095096535
 10
-699.8586834443772
 20
-8359.070996750871
 10
-699.1996166879212
 20
-8359.29260567404
 10
-699.1996166879212
 20
-8356.819358499361
 10
-699.8586834443772
 20
-8356.597901155469
 10
-700.2287817921819
 20
-8356.383681669683
 10
-699.8586834443772
 20
-8356.013583324015
 10
-699.1996166879175
 20
-8356.235040667952
 10
-699.1996166879175
 20
-8354.742002501446
 10
-865.1212048968295
 20
-8354.742002501446
 10
-865.1212048968368
 20
-8366.742002501444
 10
-699.1996166879139
 20
-8366.742002501444
 10
-699.1996166879175
 20
-8365.991750358706
 10
-699.8586834443845
 20
-8365.770141435493
 10
-700.2287817921783
 20
-8365.556833522168
 10
-699.8586834443772
 20
-8365.185823604042
 10
-699.1996166879175
 20
-8365.407432527256
 10
-699.1996166879212
 20
-8362.934336932072
 10
-699.8586834443808
 20
-8362.712728008903
 10
-700.2287817921892
 20
-8362.498508523124
 10
-699.8586834443772
 20
-8362.12841017746
 10
-699.1996166879139
 20
-8362.350019100674
 97
        0
 75
     0
 76
     1
 52
0.0
 41
1.0
 77
     0
 78
     1
 53
45.0
 43
-30170.30208396045
 44
-3618.948278409486
 45
-2.245064030267287
 46
2.245064030267288
 79
     0
 47
0.6180841145061156
 98
        8
 10
-242.6657301774025
 20
-8360.782724776564
 10
-307.6044394319319
 20
-8361.400816665613
 10
-501.802015756009
 20
-8362.018908554663
 10
-533.9621395750505
 20
-8361.400816665613
 10
-499.9466309066843
 20
-8360.164650627366
 10
-466.5496137957738
 20
-8360.782724776564
 10
-250.0872995157255
 20
-8360.164650627366
 10
-746.0951925989934
 20
-8360.164650627366
  0
HATCH
  5
1DC4
330
1F
100
AcDbEntity
  8
CETRIS
370
    20
100
AcDbHatch
 10
0.0
 20
0.0
 30
0.0
210
0.0
220
0.0
230
1.0
  2
ANSI31
 70
     0
 71
     0
 91
        7
 92
        7
 72
     0
 73
     1
 93
       15
 10
-699.1996166879212
 20
-8349.209607827068
 10
-699.2643383202043
 20
-8348.438417678439
 10
-699.6836615672214
 20
-8346.987194608731
 10
-700.4639674369387
 20
-8345.694585116021
 10
-701.5523847393155
 20
-8344.64718856638
 10
-702.8750761211735
 20
-8343.917930742639
 10
-702.8750761211772
 20
-8342.742002501443
 10
-865.1212048968332
 20
-8342.742002501445
 10
-865.1212048968295
 20
-8354.742002501444
 10
-699.1996166879175
 20
-8354.742002501446
 10
-699.1996166879175
 20
-8353.76118507964
 10
-699.8586834443772
 20
-8353.539576156427
 10
-700.2287817921819
 20
-8353.326268243101
 10
-699.8586834443735
 20
-8352.955258325248
 10
-699.1996166879175
 20
-8353.176867248414
 97
        0
 92
        7
 72
     0
 73
     1
 93
       24
 10
-546.4051531096479
 20
-8346.987194608724
 10
-547.1854589793543
 20
-8345.694585116017
 10
-548.2738762817093
 20
-8344.647188566387
 10
-549.5965676635928
 20
-8343.917930742643
 10
-549.5965676635928
 20
-8342.742002501443
 10
-692.8787744994511
 20
-8342.742002501445
 10
-692.8787744994547
 20
-8343.917930742646
 10
-693.5797735818846
 20
-8344.247919907763
 10
-694.7921647146172
 20
-8345.147641748006
 10
-695.7310841631911
 20
-8346.33086256724
 10
-696.3318102953703
 20
-8347.716452432747
 10
-696.5542339284361
 20
-8349.2096078271
 10
-696.5542339284361
 20
-8354.066368075079
 10
-695.8951671719801
 20
-8354.287976998246
 10
-695.5250688284572
 20
-8354.50219648403
 10
-695.7648748444767
 20
-8354.742002501446
 10
-545.9211082303331
 20
-8354.742002501446
 10
-545.9211082303331
 20
-8353.761185079639
 10
-546.5801749867928
 20
-8353.539576156427
 10
-546.9502733345975
 20
-8353.326268243097
 10
-546.5801749867928
 20
-8352.955258325247
 10
-545.9211082303331
 20
-8353.176867248414
 10
-545.9211082303331
 20
-8349.209607827139
 10
-545.9858298626127
 20
-8348.438417678437
 97
        0
 92
        7
 72
     0
 73
     1
 93
       13
 10
-527.1911617533874
 20
-8342.742002501443
 10
-539.6002660418703
 20
-8342.742002501443
 10
-539.6002660418703
 20
-8343.917930742644
 10
-540.3012651243038
 20
-8344.247919907767
 10
-541.5136562570328
 20
-8345.147641747997
 10
-542.4525757056139
 20
-8346.330862567251
 10
-543.0533018377823
 20
-8347.716452432766
 10
-543.2757254708554
 20
-8349.209607827123
 10
-543.2757254708517
 20
-8354.066368075079
 10
-542.6166587143884
 20
-8354.287976998246
 10
-542.2465603708619
 20
-8354.50219648403
 10
-542.4863663868887
 20
-8354.742002501446
 10
-527.191161753391
 20
-8354.742002501446
 97
        0
 92
        7
 72
     0
 73
     1
 93
       13
 10
-496.106598035923
 20
-8349.209607827118
 10
-496.3290216689888
 20
-8347.716452432722
 10
-496.9297478011571
 20
-8346.330862567246
 10
-497.8686672497347
 20
-8345.147641747997
 10
-499.0810583824636
 20
-8344.247919907767
 10
-499.7820574649044
 20
-8343.917930742639
 10
-499.7820574649081
 20
-8342.742002501443
 10
-512.1911617533874
 20
-8342.742002501443
 10
-512.1911617533874
 20
-8354.742002501446
 10
-496.8959571198861
 20
-8354.742002501446
 10
-497.1357631359092
 20
-8354.502196484032
 10
-496.765664792379
 20
-8354.287976998241
 10
-496.106598035923
 20
-8354.066368075075
 97
        0
 92
        7
 72
     1
 73
     1
 93
       20
 10
-372.1712209433058
 20
-8348.546187831516
 42
0.0
 10
-372.1712209433094
 20
-8342.742002501443
 42
0.0
 10
-489.785755843182
 20
-8342.742002501443
 42
0.0
 10
-489.7857558431856
 20
-8343.917930742644
 42
0.0
 10
-491.108447225069
 20
-8344.647188566394
 42
0.0
 10
-492.1968645274096
 20
-8345.694585116001
 42
0.0
 10
-492.977170397145
 20
-8346.987194608747
 42
0.0
 10
-493.3964936441584
 20
-8348.438417678442
 42
0.0
 10
-493.4612152764453
 20
-8349.209607827189
 42
0.0
 10
-493.4612152764416
 20
-8353.176867248414
 42
0.0
 10
-492.802148519982
 20
-8352.955258325243
 42
0.0
 10
-492.4320501721699
 20
-8353.326268243097
 42
0.0
 10
-492.8021485199929
 20
-8353.539576156428
 42
0.0
 10
-493.4612152764489
 20
-8353.76118507964
 42
0.0
 10
-493.4612152764453
 20
-8354.742002501446
 42
0.0
 10
-325.2889061291384
 20
-8354.742002501444
 42
0.0
 10
-325.2889061291384
 20
-8342.742002501443
 42
0.0
 10
-372.1712209433058
 20
-8342.742002501443
 42
0.0
 10
-372.1712209433058
 20
-8348.546187831516
 42
-1.0
 10
-372.1712209433058
 20
-8351.046187831517
 42
-1.0
 97
        0
 92
        7
 72
     0
 73
     1
 93
       13
 10
-277.6919070566504
 20
-8349.209607827082
 10
-277.9143306897126
 20
-8347.716452432749
 10
-278.5150568218737
 20
-8346.330862567237
 10
-279.4539762704621
 20
-8345.147641748003
 10
-280.6663674031874
 20
-8344.247919907763
 10
-281.3673664856283
 20
-8343.917930742643
 10
-281.3673664856283
 20
-8342.742002501443
 10
-325.2889061291348
 20
-8342.742002501443
 10
-325.288906129142
 20
-8354.742002501446
 10
-278.4812661406026
 20
-8354.742002501446
 10
-278.7210721566293
 20
-8354.50219648403
 10
-278.3509738131028
 20
-8354.287976998246
 10
-277.6919070566396
 20
-8354.066368075079
 97
        0
 92
        7
 72
     1
 73
     1
 93
       17
 10
-207.1755423857571
 20
-8342.742002501443
 42
0.0
 10
-271.3710648639021
 20
-8342.742002501443
 42
0.0
 10
-271.3710648639057
 20
-8343.917930742639
 42
0.0
 10
-272.6937562458037
 20
-8344.647188566391
 42
0.0
 10
-273.7821735481334
 20
-8345.694585116
 42
0.0
 10
-274.5624794178798
 20
-8346.987194608754
 42
0.0
 10
-274.9818026648786
 20
-8348.438417678432
 42
0.0
 10
-275.046524297169
 20
-8349.209607827157
 42
0.0
 10
-275.046524297169
 20
-8349.315467116831
 42
-0.1999781356998725
 10
-275.0465242971654
 20
-8350.276908546193
 42
0.0
 10
-275.0465242971618
 20
-8353.176867248413
 42
0.0
 10
-274.3874575407094
 20
-8352.955258325248
 42
0.0
 10
-274.017359192901
 20
-8353.326268243097
 42
0.0
 10
-274.3874575407021
 20
-8353.539576156427
 42
0.0
 10
-275.046524297169
 20
-8353.76118507964
 42
0.0
 10
-275.0465242971654
 20
-8354.742002501446
 42
0.0
 10
-207.1755423857571
 20
-8354.742002501446
 42
0.0
 97
        0
 75
     0
 76
     1
 52
90.0
 41
1.0
 77
     0
 78
     1
 53
135.0
 43
-30170.30208396045
 44
-3618.948278409486
 45
-2.245064030267288
 46
-2.245064030267287
 79
     0
 47
0.6180841145061156
 98
        9
 10
-728.7782074565834
 20
-8358.310392700071
 10
-658.8918052705261
 20
-8360.164650627366
 10
-739.2920848771169
 20
-8349.657212692486
 10
-640.9563585116843
 20
-8347.184880615991
 10
-533.9621395750505
 20
-8349.657212692486
 10
-507.368200245
 20
-8349.657212692486
 10
-459.1280444574581
 20
-8349.657212692486
 10
-296.4720704539427
 20
-8349.657212692486
 10
-254.4165607718309
 20
-8349.039138543288
  0
TEXT
  5
1DC5
330
1F
100
AcDbEntity
  8
POPIS
100
AcDbText
 10
-608.2934119837172
 20
-8566.989435128759
 30
0.0
 40
25.0
  1
08
 41
0.85
  7
SIMPLEX7
100
AcDbText
  0
HATCH
  5
1DC6
330
1F
100
AcDbEntity
  8
izolace
100
AcDbHatch
 10
0.0
 20
0.0
 30
0.0
210
0.0
220
0.0
230
1.0
  2
SOLID
 70
     1
 71
     0
 91
        1
 92
        7
 72
     0
 73
     1
 93
        4
 10
-611.2899603715191
 20
-8486.742002501445
 10
-611.2899603715191
 20
-8489.742002501445
 10
-587.6482276616838
 20
-8489.742002501445
 10
-587.6482276616838
 20
-8486.742002501445
 97
        0
 75
     0
 76
     1
 47
0.1901250437635136
 98
        1
 10
-601.9321656131792
 20
-8487.558814052524
  0
LWPOLYLINE
  5
1DC7
330
1F
100
AcDbEntity
  8
izolace
100
AcDbPolyline
 90
        4
 70
     1
 43
0.0
 10
-587.6482276616875
 20
-8486.742002501445
 10
-611.2899603715227
 20
-8486.742002501445
 10
-611.2899603715227
 20
-8489.742002501445
 10
-587.6482276616875
 20
-8489.742002501445
  0
LWPOLYLINE
  5
1DC9
330
1F
100
AcDbEntity
  8
nášlap_vrstvy
100
AcDbPolyline
 90
        2
 70
     0
 43
0.0
 10
-525.0099214098622
 20
-8335.78175311298
 10
-865.1212048968332
 20
-8335.78175311298
  0
LINE
  5
1DCA
330
1F
100
AcDbEntity
  8
STAVBA OBRYS
100
AcDbLine
 10
-865.1212048968336
 20
-8619.564930602342
 30
0.0
 11
-207.1755423857612
 21
-8619.564930602342
 31
0.0
  0
LINE
  5
1DCB
330
1F
100
AcDbEntity
  8
STAVBA OBRYS
100
AcDbLine
 10
-865.12120489683
 20
-8609.564930602344
 30
0.0
 11
-207.1755423857612
 21
-8609.56493060234
 31
0.0
  0
LWPOLYLINE
  5
1DCC
330
1F
100
AcDbEntity
  8
izolace
100
AcDbPolyline
 90
        4
 70
     0
 43
0.0
 10
-865.1212048968332
 20
-8486.742002501445
 10
-207.1755423857644
 20
-8486.742002501445
 10
-207.1755423857644
 20
-8489.742002501445
 10
-865.1212048968332
 20
-8489.742002501445
  0
LWPOLYLINE
  5
1DCD
330
1F
100
AcDbEntity
  8
nášlap_vrstvy
100
AcDbPolyline
 90
        2
 70
     0
 43
0.0
 10
-865.1212048968332
 20
-8340.120242138928
 10
-525.0099214098622
 20
-8340.120242138928
  0
LINE
  5
1DCE
330
1F
100
AcDbEntity
  8
CETRIS
100
AcDbLine
 10
-865.1212048968336
 20
-8354.742002501446
 30
0.0
 11
-527.1911617533878
 21
-8354.742002501446
 31
0.0
  0
LINE
  5
1DD0
330
1F
100
AcDbEntity
  8
CETRIS
100
AcDbLine
 10
-865.1212048968336
 20
-8366.742002501444
 30
0.0
 11
-527.1911617533878
 21
-8366.742002501444
 31
0.0
  0
LINE
  5
1DD1
330
1F
100
AcDbEntity
  8
CETRIS
100
AcDbLine
 10
-865.1212048968336
 20
-8342.742002501445
 30
0.0
 11
-207.1755423857612
 21
-8342.742002501443
 31
0.0
  0
HATCH
  5
1DD2
330
1F
100
AcDbEntity
  8
STAVBA OBRYS
370
    20
100
AcDbHatch
 10
0.0
 20
0.0
 30
0.0
210
0.0
220
0.0
230
1.0
  2
AR-CONC
 70
     0
 71
     0
 91
        1
 92
        7
 72
     0
 73
     1
 93
        4
 10
-207.1755423857644
 20
-8609.56493060234
 10
-865.1212048968332
 20
-8609.564930602344
 10
-865.1212048968332
 20
-8619.564930602342
 10
-207.1755423857607
 20
-8619.564930602342
 97
        0
 75
     0
 76
     1
 52
90.0
 41
0.1
 77
     0
 78
    13
 53
140.0
 43
-30038.79890061799
 44
-4602.151875497503
 45
1.593908553890309
 46
18.2184668996004
 79
     2
 49
1.905
 49
-20.955
 53
85.00000000000001
 43
-30038.79890061799
 44
-4602.151875497503
 45
-19.10566428821799
 46
-3.524282597566697
 79
     2
 49
1.524
 49
-16.764
 53
190.4509999999999
 43
-30038.66607561799
 44
-4600.633675497503
 45
-17.51166878202918
 46
14.69425016659592
 79
     2
 49
1.619
 49
-17.809
 53
136.1841999999999
 43
-30043.87890061799
 44
-4602.151875497503
 45
4.204232793272717
 46
27.10790408921299
 79
     2
 49
2.857499999999999
 49
-31.4325
 53
186.6355999999999
 43
-30043.52855061799
 44
-4599.892885497502
 45
-24.74255558900492
 46
23.74042344662371
 79
     2
 49
2.4285
 49
-26.7135
 53
81.18400000000004
 43
-30043.87890061799
 44
-4602.151875497503
 45
-24.74251178605976
 46
23.74046058139339
 79
     2
 49
2.286
 49
-25.146
 53
111.0
 43
-30042.60890061799
 44
-4599.611875497504
 45
10.22655185167625
 46
15.16148798353833
 79
     2
 49
1.905
 49
-20.955
 53
56.00000000000004
 43
-30042.60890061799
 44
-4599.611875497504
 45
-18.41879661223192
 46
6.180202834764708
 79
     2
 49
1.524
 49
-16.764
 53
161.4514
 43
-30041.75669061799
 44
-4598.348425497503
 45
-8.192285771605742
 46
21.34164907701245
 79
     2
 49
1.618999999999996
 49
-17.80899999999994
 53
127.5
 43
-30038.79890061799
 44
-4602.151875497503
 45
-8.455503887315311
 46
0.3088603250591822
 79
     6
 49
0.0
 49
-16.5608
 49
0.0
 49
-17.018
 49
0.0
 49
-16.8275
 53
97.49999999999985
 43
-30038.79890061799
 44
-4602.151875497503
 45
-10.01805748181195
 46
6.681966251030575
 79
     6
 49
0.0
 49
-9.702799999999998
 49
0.0
 49
-16.17979999999999
 49
0.0
 49
-6.413499999999999
 53
57.5
 43
-30038.79890061799
 44
-4607.816075497503
 45
0.5728743992673473
 46
13.55905951668713
 79
     6
 49
0.0
 49
-6.35
 49
0.0
 49
-19.812
 49
0.0
 49
-26.289
 53
47.5
 43
-30038.79890061799
 44
-4610.356075497503
 45
-2.5426491033333
 46
14.8129181386018
 79
     6
 49
0.0
 49
-8.255
 49
0.0
 49
-13.1572
 49
0.0
 49
-18.669
 47
1.084445008349079
 98
        1
 10
-498.9766692651678
 20
-8615.966211408299
  0
LINE
  5
1DD3
330
1F
100
AcDbEntity
  8
izolace
100
AcDbLine
 10
-865.1212048968336
 20
-8489.742002501445
 30
0.0
 11
-826.2305867043361
 21
-8489.742002501445
 31
0.0
  0
LWPOLYLINE
  5
1DD4
330
1F
100
AcDbEntity
  8
izolace
100
AcDbPolyline
 90
        4
 70
     1
 43
0.0
 10
-776.782089340369
 20
-8486.742002501445
 10
-800.4238220502042
 20
-8486.742002501445
 10
-800.4238220502042
 20
-8489.742002501445
 10
-776.782089340369
 20
-8489.742002501445
  0
HATCH
  5
1DD5
330
1F
100
AcDbEntity
  8
izolace
100
AcDbHatch
 10
0.0
 20
0.0
 30
0.0
210
0.0
220
0.0
230
1.0
  2
SOLID
 70
     1
 71
     0
 91
        1
 92
        7
 72
     0
 73
     1
 93
        4
 10
-800.4238220502006
 20
-8486.742002501445
 10
-800.4238220502042
 20
-8489.742002501445
 10
-776.7820893403654
 20
-8489.742002501445
 10
-776.7820893403654
 20
-8486.742002501445
 97
        0
 75
     0
 76
     1
 47
0.1901250437635136
 98
        1
 10
-791.0660272918607
 20
-8487.558814052524
  0
LWPOLYLINE
  5
1DD6
330
1F
100
AcDbEntity
  8
izolace
100
AcDbPolyline
 90
        4
 70
     1
 43
0.0
 10
-824.0655547600395
 20
-8486.742002501445
 10
-847.7072874698746
 20
-8486.742002501445
 10
-847.7072874698746
 20
-8489.742002501445
 10
-824.0655547600395
 20
-8489.742002501445
  0
HATCH
  5
1DD7
330
1F
100
AcDbEntity
  8
izolace
100
AcDbHatch
 10
0.0
 20
0.0
 30
0.0
210
0.0
220
0.0
230
1.0
  2
SOLID
 70
     1
 71
     0
 91
        1
 92
        7
 72
     0
 73
     1
 93
        4
 10
-847.7072874698746
 20
-8486.742002501445
 10
-847.7072874698711
 20
-8489.742002501445
 10
-824.0655547600358
 20
-8489.742002501445
 10
-824.0655547600358
 20
-8486.742002501445
 97
        0
 75
     0
 76
     1
 47
0.1901250437635136
 98
        1
 10
-838.3494927115311
 20
-8487.558814052524
  0
LWPOLYLINE
  5
1DD8
330
1F
100
AcDbEntity
  8
izolace
100
AcDbPolyline
 90
        4
 70
     1
 43
0.0
 10
-729.4986239206987
 20
-8486.742002501445
 10
-753.1403566305339
 20
-8486.742002501445
 10
-753.1403566305339
 20
-8489.742002501445
 10
-729.4986239206987
 20
-8489.742002501445
  0
HATCH
  5
1DD9
330
1F
100
AcDbEntity
  8
izolace
100
AcDbHatch
 10
0.0
 20
0.0
 30
0.0
210
0.0
220
0.0
230
1.0
  2
SOLID
 70
     1
 71
     0
 91
        1
 92
        7
 72
     0
 73
     1
 93
        4
 10
-753.1403566305339
 20
-8486.742002501445
 10
-753.1403566305339
 20
-8489.742002501445
 10
-729.498623920695
 20
-8489.742002501445
 10
-729.498623920695
 20
-8486.742002501445
 97
        0
 75
     0
 76
     1
 47
0.1901250437635136
 98
        1
 10
-743.7825618721904
 20
-8487.558814052524
  0
LINE
  5
1DDA
330
1F
100
AcDbEntity
  8
SPOJOVACÍ
  6
DASHED
100
AcDbLine
 10
-743.2286901152365
 20
-8345.694585116012
 30
0.0
 11
-744.0089959849683
 21
-8346.987194608741
 31
0.0
  0
LINE
  5
1DDB
330
1F
100
AcDbEntity
  8
SPOJOVACÍ
  6
DASHED
100
AcDbLine
 10
-747.9615733889768
 20
-8346.33086256724
 30
0.0
 11
-748.9004928375615
 21
-8345.147641748001
 31
0.0
  0
LINE
  5
1DDC
330
1F
100
AcDbEntity
  8
SPOJOVACÍ
  6
DASHED
100
AcDbLine
 10
-743.8339741078053
 20
-8362.12841017746
 30
0.0
 11
-747.797490380206
 21
-8363.461128850731
 31
0.0
  0
LINE
  5
1DDD
330
1F
100
AcDbEntity
  8
SPOJOVACÍ
  6
DASHED
100
AcDbLine
 10
-743.8339741078053
 20
-8362.712728008904
 30
0.0
 11
-747.797490380206
 21
-8364.045446681911
 31
0.0
  0
LINE
  5
1DDE
330
1F
100
AcDbEntity
  8
SPOJOVACÍ
  6
DASHED
100
AcDbLine
 10
-744.4930408642648
 20
-8362.93332850054
 30
0.0
 11
-744.4930408642648
 21
-8365.40095466228
 31
0.0
  0
LINE
  5
1DDF
330
1F
100
AcDbEntity
  8
SPOJOVACÍ
  6
DASHED
100
AcDbLine
 10
-747.1384236237463
 20
-8360.758317040746
 30
0.0
 11
-747.1384236237463
 21
-8363.228677919321
 31
0.0
  0
LINE
  5
1DE0
330
1F
100
AcDbEntity
  8
SPOJOVACÍ
  6
DASHED
100
AcDbLine
 10
-743.4638757600005
 20
-8362.498508523126
 30
0.0
 11
-748.1675887237324
 21
-8363.674436764059
 31
0.0
  0
LINE
  5
1DE1
330
1F
100
AcDbEntity
  8
SPOJOVACÍ
  6
DASHED
100
AcDbLine
 10
-744.2660593665168
 20
-8371.526720383046
 30
0.0
 11
-747.3198265046193
 21
-8372.14750110548
 31
0.0
  0
LINE
  5
1DE2
330
1F
100
AcDbEntity
  8
SPOJOVACÍ
  6
DASHED
100
AcDbLine
 10
-744.6361577143216
 20
-8371.155710464922
 30
0.0
 11
-746.9497281610929
 21
-8371.934193192153
 31
0.0
  0
LINE
  5
1DE3
330
1F
100
AcDbEntity
  8
SPOJOVACÍ
  6
DASHED
100
AcDbLine
 10
-744.2660593665168
 20
-8371.526720383046
 30
0.0
 11
-744.6361577143216
 21
-8371.740028296374
 31
0.0
  0
LINE
  5
1DE4
330
1F
100
AcDbEntity
  8
SPOJOVACÍ
  6
DASHED
100
AcDbLine
 10
-746.5659562277978
 20
-8371.791987916424
 30
0.0
 11
-746.8275774740286
 21
-8369.698106389627
 31
0.0
  0
LINE
  5
1DE5
330
1F
100
AcDbEntity
  8
SPOJOVACÍ
  6
DASHED
100
AcDbLine
 10
-744.8193837427789
 20
-8374.4802145698
 30
0.0
 11
-746.9305851414064
 21
-8374.784679711259
 31
0.0
  0
LINE
  5
1DE6
330
1F
100
AcDbEntity
  8
SPOJOVACÍ
  6
DASHED
100
AcDbLine
 10
-745.1894820863053
 20
-8374.110116224134
 30
0.0
 11
-746.5604867978799
 21
-8374.571371797667
 31
0.0
  0
LINE
  5
1DE7
330
1F
100
AcDbEntity
  8
SPOJOVACÍ
  6
DASHED
100
AcDbLine
 10
-745.1894820863053
 20
-8374.694434055578
 30
0.0
 11
-746.5604867978799
 21
-8375.155689629112
 31
0.0
  0
LINE
  5
1DE8
330
1F
100
AcDbEntity
  8
SPOJOVACÍ
  6
DASHED
100
AcDbLine
 10
-746.9305851414064
 20
-8374.784679711259
 30
0.0
 11
-746.5604867978799
 21
-8374.571371797667
 31
0.0
  0
LINE
  5
1DE9
330
1F
100
AcDbEntity
  8
SPOJOVACÍ
  6
DASHED
100
AcDbLine
 10
-746.9305851414064
 20
-8374.784679711259
 30
0.0
 11
-746.5604867978799
 21
-8375.155689629112
 31
0.0
  0
LINE
  5
1DEA
330
1F
100
AcDbEntity
  8
SPOJOVACÍ
  6
DASHED
100
AcDbLine
 10
-744.8193837427789
 20
-8374.4802145698
 30
0.0
 11
-745.1894820863053
 21
-8374.110116224134
 31
0.0
  0
LINE
  5
1DEB
330
1F
100
AcDbEntity
  8
SPOJOVACÍ
  6
DASHED
100
AcDbLine
 10
-744.8193837427789
 20
-8374.4802145698
 30
0.0
 11
-745.1894820863053
 21
-8374.694434055578
 31
0.0
  0
LINE
  5
1DEC
330
1F
100
AcDbEntity
  8
SPOJOVACÍ
  6
DASHED
100
AcDbLine
 10
-744.6361577143216
 20
-8371.740028296374
 30
0.0
 11
-746.9497281610929
 21
-8372.518511023335
 31
0.0
  0
LINE
  5
1DED
330
1F
100
AcDbEntity
  8
SPOJOVACÍ
  6
DASHED
100
AcDbLine
 10
-747.3198265046193
 20
-8372.14750110548
 30
0.0
 11
-746.9497281610929
 21
-8371.934193192153
 31
0.0
  0
LINE
  5
1DEE
330
1F
100
AcDbEntity
  8
SPOJOVACÍ
  6
DASHED
100
AcDbLine
 10
-747.3198265046193
 20
-8372.14750110548
 30
0.0
 11
-746.9497281610929
 21
-8372.518511023335
 31
0.0
  0
LINE
  5
1DEF
330
1F
100
AcDbEntity
  8
SPOJOVACÍ
  6
DASHED
100
AcDbLine
 10
-746.2332323498522
 20
-8374.454690545869
 30
0.0
 11
-746.4957651655968
 21
-8372.352604868584
 31
0.0
  0
LINE
  5
1DF0
330
1F
100
AcDbEntity
  8
SPOJOVACÍ
  6
DASHED
100
AcDbLine
 10
-745.4374297470458
 20
-8374.764625120988
 30
0.0
 11
-745.8157322418665
 21
-8377.791956662438
 31
0.0
  0
LINE
  5
1DF1
330
1F
100
AcDbEntity
  8
SPOJOVACÍ
  6
DASHED
100
AcDbLine
 10
-745.0773586981195
 20
-8371.882233572103
 30
0.0
 11
-745.3617692463703
 21
-8374.156606410251
 31
0.0
  0
LINE
  5
1DF2
330
1F
100
AcDbEntity
  8
SPOJOVACÍ
  6
DASHED
100
AcDbLine
 10
-745.8157322418665
 20
-8377.791956662438
 30
0.0
 11
-746.1630412833728
 21
-8375.012572781193
 31
0.0
  0
LINE
  5
1DF3
330
1F
100
AcDbEntity
  8
SPOJOVACÍ
  6
DASHED
100
AcDbLine
 10
-743.8339741078053
 20
-8365.185823604042
 30
0.0
 11
-747.797490380206
 21
-8366.518542277313
 31
0.0
  0
LINE
  5
1DF4
330
1F
100
AcDbEntity
  8
SPOJOVACÍ
  6
DASHED
100
AcDbLine
 10
-743.8339741078053
 20
-8365.770141435495
 30
0.0
 11
-747.797490380206
 21
-8367.102860108765
 31
0.0
  0
LINE
  5
1DF5
330
1F
100
AcDbEntity
  8
SPOJOVACÍ
  6
DASHED
100
AcDbLine
 10
-748.1675887237324
 20
-8366.732761763101
 30
0.0
 11
-747.797490380206
 21
-8366.518542277313
 31
0.0
  0
LINE
  5
1DF6
330
1F
100
AcDbEntity
  8
SPOJOVACÍ
  6
DASHED
100
AcDbLine
 10
-748.1675887237324
 20
-8366.732761763101
 30
0.0
 11
-747.797490380206
 21
-8367.102860108765
 31
0.0
  0
LINE
  5
1DF7
330
1F
100
AcDbEntity
  8
SPOJOVACÍ
  6
DASHED
100
AcDbLine
 10
-748.1675887237324
 20
-8363.674436764059
 30
0.0
 11
-747.797490380206
 21
-8363.461128850731
 31
0.0
  0
LINE
  5
1DF8
330
1F
100
AcDbEntity
  8
SPOJOVACÍ
  6
DASHED
100
AcDbLine
 10
-748.1675887237324
 20
-8363.674436764059
 30
0.0
 11
-747.797490380206
 21
-8364.045446681911
 31
0.0
  0
LINE
  5
1DF9
330
1F
100
AcDbEntity
  8
SPOJOVACÍ
  6
DASHED
100
AcDbLine
 10
-744.2660593665168
 20
-8371.526720383046
 30
0.0
 11
-744.6361577143216
 21
-8371.155710464922
 31
0.0
  0
LINE
  5
1DFA
330
1F
100
AcDbEntity
  8
SPOJOVACÍ
  6
DASHED
100
AcDbLine
 10
-743.712734994533
 20
-8368.572314623834
 30
0.0
 11
-747.7555580542212
 21
-8369.525819228492
 31
0.0
  0
LINE
  5
1DFB
330
1F
100
AcDbEntity
  8
SPOJOVACÍ
  6
DASHED
100
AcDbLine
 10
-744.0837449118516
 20
-8368.202216278168
 30
0.0
 11
-747.3854597106947
 21
-8369.312511315165
 31
0.0
  0
LINE
  5
1DFC
330
1F
100
AcDbEntity
  8
SPOJOVACÍ
  6
DASHED
100
AcDbLine
 10
-744.0837449118516
 20
-8368.78653410962
 30
0.0
 11
-747.3854597106947
 21
-8369.896829146616
 31
0.0
  0
LINE
  5
1DFD
330
1F
100
AcDbEntity
  8
SPOJOVACÍ
  6
DASHED
100
AcDbLine
 10
-747.7555580542212
 20
-8369.525819228492
 30
0.0
 11
-747.3854597106947
 21
-8369.312511315165
 31
0.0
  0
LINE
  5
1DFE
330
1F
100
AcDbEntity
  8
SPOJOVACÍ
  6
DASHED
100
AcDbLine
 10
-747.7555580542212
 20
-8369.525819228492
 30
0.0
 11
-747.3854597106947
 21
-8369.896829146616
 31
0.0
  0
LINE
  5
1DFF
330
1F
100
AcDbEntity
  8
SPOJOVACÍ
  6
DASHED
100
AcDbLine
 10
-743.712734994533
 20
-8368.572314623834
 30
0.0
 11
-744.0837449118516
 21
-8368.202216278168
 31
0.0
  0
LINE
  5
1E00
330
1F
100
AcDbEntity
  8
SPOJOVACÍ
  6
DASHED
100
AcDbLine
 10
-743.712734994533
 20
-8368.572314623834
 30
0.0
 11
-744.0837449118516
 21
-8368.78653410962
 31
0.0
  0
LINE
  5
1E01
330
1F
100
AcDbEntity
  8
SPOJOVACÍ
  6
DASHED
100
AcDbLine
 10
-746.897768540508
 20
-8369.139312581843
 30
0.0
 11
-747.1384236237463
 21
-8367.207690920784
 31
0.0
  0
LINE
  5
1E02
330
1F
100
AcDbEntity
  8
SPOJOVACÍ
  6
DASHED
100
AcDbLine
 10
-744.7154645016089
 20
-8368.988903155889
 30
0.0
 11
-744.999875054138
 21
-8371.264187566232
 31
0.0
  0
LINE
  5
1E03
330
1F
100
AcDbEntity
  8
SPOJOVACÍ
  6
DASHED
100
AcDbLine
 10
-744.4930408642648
 20
-8367.207690920784
 30
0.0
 11
-744.6398040009334
 21
-8368.380884445151
 31
0.0
  0
LINE
  5
1E04
330
1F
100
AcDbEntity
  8
SPOJOVACÍ
  6
DASHED
100
AcDbLine
 10
-747.1384236237463
 20
-8366.877701755656
 30
0.0
 11
-747.1384236237463
 21
-8367.207690920784
 31
0.0
  0
LINE
  5
1E05
330
1F
100
AcDbEntity
  8
SPOJOVACÍ
  6
DASHED
100
AcDbLine
 10
-747.1384236237463
 20
-8363.817553611976
 30
0.0
 11
-747.1384236237463
 21
-8366.286091345903
 31
0.0
  0
LINE
  5
1E06
330
1F
100
AcDbEntity
  8
SPOJOVACÍ
  6
DASHED
100
AcDbLine
 10
-744.4930408642648
 20
-8365.985272493732
 30
0.0
 11
-744.4930408642648
 21
-8367.207690920784
 31
0.0
  0
LINE
  5
1E07
330
1F
100
AcDbEntity
  8
SPOJOVACÍ
  6
DASHED
100
AcDbLine
 10
-743.4638757600005
 20
-8365.556833522168
 30
0.0
 11
-743.8339741078053
 21
-8365.185823604042
 31
0.0
  0
LINE
  5
1E08
330
1F
100
AcDbEntity
  8
SPOJOVACÍ
  6
DASHED
100
AcDbLine
 10
-743.4638757600005
 20
-8365.556833522168
 30
0.0
 11
-743.8339741078053
 21
-8365.770141435495
 31
0.0
  0
LINE
  5
1E09
330
1F
100
AcDbEntity
  8
SPOJOVACÍ
  6
DASHED
100
AcDbLine
 10
-743.4638757600005
 20
-8365.556833522168
 30
0.0
 11
-748.1675887237324
 21
-8366.732761763101
 31
0.0
  0
LINE
  5
1E0A
330
1F
100
AcDbEntity
  8
SPOJOVACÍ
  6
DASHED
100
AcDbLine
 10
-743.8339741078053
 20
-8353.539576156427
 30
0.0
 11
-747.797490380206
 21
-8354.872294829698
 31
0.0
  0
LINE
  5
1E0B
330
1F
100
AcDbEntity
  8
SPOJOVACÍ
  6
DASHED
100
AcDbLine
 10
-748.1675887237324
 20
-8354.502196484032
 30
0.0
 11
-747.797490380206
 21
-8354.872294829698
 31
0.0
  0
LINE
  5
1E0C
330
1F
100
AcDbEntity
  8
SPOJOVACÍ
  6
DASHED
100
AcDbLine
 10
-744.4930408642648
 20
-8353.75014935319
 30
0.0
 11
-744.4930408642648
 21
-8356.218687087119
 31
0.0
  0
LINE
  5
1E0D
330
1F
100
AcDbEntity
  8
SPOJOVACÍ
  6
DASHED
100
AcDbLine
 10
-743.8339741078053
 20
-8359.070996750871
 30
0.0
 11
-747.797490380206
 21
-8360.403715423878
 31
0.0
  0
LINE
  5
1E0E
330
1F
100
AcDbEntity
  8
SPOJOVACÍ
  6
DASHED
100
AcDbLine
 10
-743.8339741078053
 20
-8359.655314582322
 30
0.0
 11
-747.797490380206
 21
-8360.988033255322
 31
0.0
  0
LINE
  5
1E0F
330
1F
100
AcDbEntity
  8
SPOJOVACÍ
  6
DASHED
100
AcDbLine
 10
-748.1675887237324
 20
-8360.617023337468
 30
0.0
 11
-747.797490380206
 21
-8360.403715423878
 31
0.0
  0
LINE
  5
1E10
330
1F
100
AcDbEntity
  8
SPOJOVACÍ
  6
DASHED
100
AcDbLine
 10
-748.1675887237324
 20
-8360.617023337468
 30
0.0
 11
-747.797490380206
 21
-8360.988033255322
 31
0.0
  0
LINE
  5
1E11
330
1F
100
AcDbEntity
  8
SPOJOVACÍ
  6
DASHED
100
AcDbLine
 10
-743.8339741078053
 20
-8356.013583324017
 30
0.0
 11
-747.797490380206
 21
-8357.3453904251
 31
0.0
  0
LINE
  5
1E12
330
1F
100
AcDbEntity
  8
SPOJOVACÍ
  6
DASHED
100
AcDbLine
 10
-743.8339741078053
 20
-8356.597901155469
 30
0.0
 11
-747.797490380206
 21
-8357.92970825628
 31
0.0
  0
LINE
  5
1E13
330
1F
100
AcDbEntity
  8
SPOJOVACÍ
  6
DASHED
100
AcDbLine
 10
-748.1675887237324
 20
-8357.559609910886
 30
0.0
 11
-747.797490380206
 21
-8357.3453904251
 31
0.0
  0
LINE
  5
1E14
330
1F
100
AcDbEntity
  8
SPOJOVACÍ
  6
DASHED
100
AcDbLine
 10
-748.1675887237324
 20
-8357.559609910886
 30
0.0
 11
-747.797490380206
 21
-8357.92970825628
 31
0.0
  0
LINE
  5
1E15
330
1F
100
AcDbEntity
  8
SPOJOVACÍ
  6
DASHED
100
AcDbLine
 10
-747.1384236237463
 20
-8357.69816889733
 30
0.0
 11
-747.1384236237463
 21
-8360.175822353943
 31
0.0
  0
LINE
  5
1E16
330
1F
100
AcDbEntity
  8
SPOJOVACÍ
  6
DASHED
100
AcDbLine
 10
-747.1384236237463
 20
-8354.64531333195
 30
0.0
 11
-747.1384236237463
 21
-8357.113851065879
 31
0.0
  0
LINE
  5
1E17
330
1F
100
AcDbEntity
  8
SPOJOVACÍ
  6
DASHED
100
AcDbLine
 10
-744.4930408642648
 20
-8359.863153061988
 30
0.0
 11
-744.4930408642648
 21
-8362.3408065186
 31
0.0
  0
LINE
  5
1E18
330
1F
100
AcDbEntity
  8
SPOJOVACÍ
  6
DASHED
100
AcDbLine
 10
-744.4930408642648
 20
-8356.810297496608
 30
0.0
 11
-744.4930408642648
 21
-8359.280658375181
 31
0.0
  0
LINE
  5
1E19
330
1F
100
AcDbEntity
  8
SPOJOVACÍ
  6
DASHED
100
AcDbLine
 10
-743.4638757600005
 20
-8362.498508523126
 30
0.0
 11
-743.8339741078053
 21
-8362.12841017746
 31
0.0
  0
LINE
  5
1E1A
330
1F
100
AcDbEntity
  8
SPOJOVACÍ
  6
DASHED
100
AcDbLine
 10
-743.4638757600005
 20
-8362.498508523126
 30
0.0
 11
-743.8339741078053
 21
-8362.712728008904
 31
0.0
  0
LINE
  5
1E1B
330
1F
100
AcDbEntity
  8
SPOJOVACÍ
  6
DASHED
100
AcDbLine
 10
-743.4638757600005
 20
-8359.441095096535
 30
0.0
 11
-743.8339741078053
 21
-8359.070996750871
 31
0.0
  0
LINE
  5
1E1C
330
1F
100
AcDbEntity
  8
SPOJOVACÍ
  6
DASHED
100
AcDbLine
 10
-743.4638757600005
 20
-8359.441095096535
 30
0.0
 11
-743.8339741078053
 21
-8359.655314582322
 31
0.0
  0
LINE
  5
1E1D
330
1F
100
AcDbEntity
  8
SPOJOVACÍ
  6
DASHED
100
AcDbLine
 10
-743.4638757600005
 20
-8359.441095096535
 30
0.0
 11
-748.1675887237324
 21
-8360.617023337468
 31
0.0
  0
LINE
  5
1E1E
330
1F
100
AcDbEntity
  8
SPOJOVACÍ
  6
DASHED
100
AcDbLine
 10
-743.4638757600005
 20
-8356.383681669681
 30
0.0
 11
-743.8339741078053
 21
-8356.013583324017
 31
0.0
  0
LINE
  5
1E1F
330
1F
100
AcDbEntity
  8
SPOJOVACÍ
  6
DASHED
100
AcDbLine
 10
-743.4638757600005
 20
-8356.383681669681
 30
0.0
 11
-743.8339741078053
 21
-8356.597901155469
 31
0.0
  0
LINE
  5
1E20
330
1F
100
AcDbEntity
  8
SPOJOVACÍ
  6
DASHED
100
AcDbLine
 10
-743.4638757600005
 20
-8356.383681669681
 30
0.0
 11
-748.1675887237324
 21
-8357.559609910886
 31
0.0
  0
LINE
  5
1E21
330
1F
100
AcDbEntity
  8
SPOJOVACÍ
  6
DASHED
100
AcDbLine
 10
-744.0089959849683
 20
-8346.987194608741
 30
0.0
 11
-744.4283192319817
 21
-8348.438417678451
 31
0.0
  0
LINE
  5
1E22
330
1F
100
AcDbEntity
  8
SPOJOVACÍ
  6
DASHED
100
AcDbLine
 10
-744.4283192319817
 20
-8348.438417678451
 30
0.0
 11
-744.4930408642648
 21
-8349.209607827111
 31
0.0
  0
LINE
  5
1E23
330
1F
100
AcDbEntity
  8
SPOJOVACÍ
  6
DASHED
100
AcDbLine
 10
-747.1384236237463
 20
-8349.209607827111
 30
0.0
 11
-747.3608472568121
 21
-8347.71645243275
 31
0.0
  0
LINE
  5
1E24
330
1F
100
AcDbEntity
  8
SPOJOVACÍ
  6
DASHED
100
AcDbLine
 10
-747.3608472568121
 20
-8347.71645243275
 30
0.0
 11
-747.9615733889768
 21
-8346.33086256724
 31
0.0
  0
LINE
  5
1E25
330
1F
100
AcDbEntity
  8
SPOJOVACÍ
  6
DASHED
100
AcDbLine
 10
-743.8339741078053
 20
-8352.955258325247
 30
0.0
 11
-747.797490380206
 21
-8354.287976998246
 31
0.0
  0
LINE
  5
1E26
330
1F
100
AcDbEntity
  8
SPOJOVACÍ
  6
DASHED
100
AcDbLine
 10
-748.1675887237324
 20
-8354.502196484032
 30
0.0
 11
-747.797490380206
 21
-8354.287976998246
 31
0.0
  0
LINE
  5
1E27
330
1F
100
AcDbEntity
  8
SPOJOVACÍ
  6
DASHED
100
AcDbLine
 10
-744.4930408642648
 20
-8349.209607827111
 30
0.0
 11
-744.4930408642648
 21
-8353.166743094197
 31
0.0
  0
LINE
  5
1E28
330
1F
100
AcDbEntity
  8
SPOJOVACÍ
  6
DASHED
100
AcDbLine
 10
-747.1384236237463
 20
-8349.209607827111
 30
0.0
 11
-747.1384236237463
 21
-8354.053702922461
 31
0.0
  0
LINE
  5
1E29
330
1F
100
AcDbEntity
  8
SPOJOVACÍ
  6
DASHED
100
AcDbLine
 10
-743.4638757600005
 20
-8353.326268243099
 30
0.0
 11
-743.8339741078053
 21
-8352.955258325247
 31
0.0
  0
LINE
  5
1E2A
330
1F
100
AcDbEntity
  8
SPOJOVACÍ
  6
DASHED
100
AcDbLine
 10
-743.4638757600005
 20
-8353.326268243099
 30
0.0
 11
-743.8339741078053
 21
-8353.539576156427
 31
0.0
  0
LINE
  5
1E2B
330
1F
100
AcDbEntity
  8
SPOJOVACÍ
  6
DASHED
100
AcDbLine
 10
-743.4638757600005
 20
-8353.326268243099
 30
0.0
 11
-748.1675887237324
 21
-8354.502196484032
 31
0.0
  0
LINE
  5
1E2C
330
1F
100
AcDbEntity
  8
SPOJOVACÍ
  6
DASHED
100
AcDbLine
 10
-742.1402728128851
 20
-8344.647188566387
 30
0.0
 11
-743.2286901152365
 21
-8345.694585116012
 31
0.0
  0
LINE
  5
1E2D
330
1F
100
AcDbEntity
  8
SPOJOVACÍ
  6
DASHED
100
AcDbLine
 10
-740.8175814310052
 20
-8343.917930742643
 30
0.0
 11
-750.8138830527277
 21
-8343.917930742643
 31
0.0
  0
LINE
  5
1E2E
330
1F
100
AcDbEntity
  8
SPOJOVACÍ
  6
DASHED
100
AcDbLine
 10
-740.8175814310052
 20
-8342.742002501445
 30
0.0
 11
-750.8138830527277
 21
-8342.742002501445
 31
0.0
  0
LINE
  5
1E2F
330
1F
100
AcDbEntity
  8
SPOJOVACÍ
  6
DASHED
100
AcDbLine
 10
-750.1128839702833
 20
-8344.247919907768
 30
0.0
 11
-750.8138830527277
 21
-8343.917930742643
 31
0.0
  0
LINE
  5
1E30
330
1F
100
AcDbEntity
  8
SPOJOVACÍ
  6
DASHED
100
AcDbLine
 10
-750.8138830527277
 20
-8342.742002501445
 30
0.0
 11
-750.8138830527277
 21
-8343.917930742643
 31
0.0
  0
LINE
  5
1E31
330
1F
100
AcDbEntity
  8
SPOJOVACÍ
  6
DASHED
100
AcDbLine
 10
-748.9004928375615
 20
-8345.147641748001
 30
0.0
 11
-750.1128839702833
 21
-8344.247919907768
 31
0.0
  0
LINE
  5
1E32
330
1F
100
AcDbEntity
  8
SPOJOVACÍ
  6
DASHED
100
AcDbLine
 10
-740.8175814310052
 20
-8343.917930742643
 30
0.0
 11
-742.1402728128851
 21
-8344.647188566387
 31
0.0
  0
LINE
  5
1E33
330
1F
100
AcDbEntity
  8
SPOJOVACÍ
  6
DASHED
100
AcDbLine
 10
-740.8175814310052
 20
-8342.742002501445
 30
0.0
 11
-740.8175814310052
 21
-8343.917930742643
 31
0.0
  0
LWPOLYLINE
  5
1E34
330
1F
100
AcDbEntity
  8
izolace
100
AcDbPolyline
 90
        4
 70
     1
 43
0.0
 10
-682.2151585010283
 20
-8486.742002501445
 10
-705.8568912108635
 20
-8486.742002501445
 10
-705.8568912108635
 20
-8489.742002501445
 10
-682.2151585010283
 20
-8489.742002501445
  0
HATCH
  5
1E35
330
1F
100
AcDbEntity
  8
izolace
100
AcDbHatch
 10
0.0
 20
0.0
 30
0.0
210
0.0
220
0.0
230
1.0
  2
SOLID
 70
     1
 71
     0
 91
        1
 92
        7
 72
     0
 73
     1
 93
        4
 10
-705.8568912108635
 20
-8486.742002501445
 10
-705.8568912108598
 20
-8489.742002501445
 10
-682.2151585010247
 20
-8489.742002501445
 10
-682.2151585010247
 20
-8486.742002501445
 97
        0
 75
     0
 76
     1
 47
0.1901250437635136
 98
        1
 10
-696.49909645252
 20
-8487.558814052524
  0
LWPOLYLINE
  5
1E36
330
1F
100
AcDbEntity
  8
izolace
100
AcDbPolyline
 90
        4
 70
     1
 43
0.0
 10
-634.9316930813579
 20
-8486.742002501445
 10
-658.5734257911931
 20
-8486.742002501445
 10
-658.5734257911931
 20
-8489.742002501445
 10
-634.9316930813579
 20
-8489.742002501445
  0
HATCH
  5
1E37
330
1F
100
AcDbEntity
  8
izolace
100
AcDbHatch
 10
0.0
 20
0.0
 30
0.0
210
0.0
220
0.0
230
1.0
  2
SOLID
 70
     1
 71
     0
 91
        1
 92
        7
 72
     0
 73
     1
 93
        4
 10
-658.5734257911894
 20
-8486.742002501445
 10
-658.5734257911894
 20
-8489.742002501445
 10
-634.9316930813543
 20
-8489.742002501445
 10
-634.9316930813543
 20
-8486.742002501445
 97
        0
 75
     0
 76
     1
 47
0.1901250437635136
 98
        1
 10
-649.2156310328496
 20
-8487.558814052524
  0
LINE
  5
1E38
330
1F
100
AcDbEntity
  8
SPOJOVACÍ
  6
DASHED
100
AcDbLine
 10
-700.4639674369464
 20
-8345.694585116012
 30
0.0
 11
-699.6836615672146
 21
-8346.987194608741
 31
0.0
  0
LINE
  5
1E39
330
1F
100
AcDbEntity
  8
SPOJOVACÍ
  6
DASHED
100
AcDbLine
 10
-695.7310841632061
 20
-8346.33086256724
 30
0.0
 11
-694.7921647146213
 21
-8345.147641748001
 31
0.0
  0
LINE
  5
1E3A
330
1F
100
AcDbEntity
  8
CETRIS
100
AcDbLine
 10
-721.8463287760914
 20
-8342.742002501447
 30
0.0
 11
-721.8463287760914
 21
-8354.742002501446
 31
0.0
  0
LINE
  5
1E3B
330
1F
100
AcDbEntity
  8
SPOJOVACÍ
  6
DASHED
100
AcDbLine
 10
-699.8586834443776
 20
-8365.185823604042
 30
0.0
 11
-695.8951671719769
 21
-8366.518542277313
 31
0.0
  0
LINE
  5
1E3C
330
1F
100
AcDbEntity
  8
SPOJOVACÍ
  6
DASHED
100
AcDbLine
 10
-699.8586834443776
 20
-8365.770141435495
 30
0.0
 11
-695.8951671719769
 21
-8367.102860108765
 31
0.0
  0
LINE
  5
1E3D
330
1F
100
AcDbEntity
  8
SPOJOVACÍ
  6
DASHED
100
AcDbLine
 10
-700.2287817921824
 20
-8365.556833522168
 30
0.0
 11
-695.5250688284504
 21
-8366.732761763101
 31
0.0
  0
LINE
  5
1E3E
330
1F
100
AcDbEntity
  8
SPOJOVACÍ
  6
DASHED
100
AcDbLine
 10
-699.8586834443776
 20
-8362.12841017746
 30
0.0
 11
-695.8951671719769
 21
-8363.461128850731
 31
0.0
  0
LINE
  5
1E3F
330
1F
100
AcDbEntity
  8
SPOJOVACÍ
  6
DASHED
100
AcDbLine
 10
-699.8586834443776
 20
-8362.712728008904
 30
0.0
 11
-695.8951671719769
 21
-8364.045446681911
 31
0.0
  0
LINE
  5
1E40
330
1F
100
AcDbEntity
  8
SPOJOVACÍ
  6
DASHED
100
AcDbLine
 10
-700.2287817921824
 20
-8362.498508523126
 30
0.0
 11
-695.5250688284504
 21
-8363.674436764059
 31
0.0
  0
LINE
  5
1E41
330
1F
100
AcDbEntity
  8
SPOJOVACÍ
  6
DASHED
100
AcDbLine
 10
-699.8586834443776
 20
-8359.070996750871
 30
0.0
 11
-695.8951671719769
 21
-8360.403715423878
 31
0.0
  0
LINE
  5
1E42
330
1F
100
AcDbEntity
  8
SPOJOVACÍ
  6
DASHED
100
AcDbLine
 10
-699.8586834443776
 20
-8359.655314582322
 30
0.0
 11
-695.8951671719769
 21
-8360.988033255322
 31
0.0
  0
LINE
  5
1E43
330
1F
100
AcDbEntity
  8
SPOJOVACÍ
  6
DASHED
100
AcDbLine
 10
-700.2287817921824
 20
-8359.441095096535
 30
0.0
 11
-695.5250688284504
 21
-8360.617023337468
 31
0.0
  0
LINE
  5
1E44
330
1F
100
AcDbEntity
  8
SPOJOVACÍ
  6
DASHED
100
AcDbLine
 10
-699.9799225576498
 20
-8368.572314623834
 30
0.0
 11
-695.9370994979617
 21
-8369.525819228492
 31
0.0
  0
LINE
  5
1E45
330
1F
100
AcDbEntity
  8
SPOJOVACÍ
  6
DASHED
100
AcDbLine
 10
-695.9370994979617
 20
-8369.525819228492
 30
0.0
 11
-696.3071978414882
 21
-8369.312511315165
 31
0.0
  0
LINE
  5
1E46
330
1F
100
AcDbEntity
  8
SPOJOVACÍ
  6
DASHED
100
AcDbLine
 10
-695.9370994979617
 20
-8369.525819228492
 30
0.0
 11
-696.3071978414882
 21
-8369.896829146616
 31
0.0
  0
LINE
  5
1E47
330
1F
100
AcDbEntity
  8
SPOJOVACÍ
  6
DASHED
100
AcDbLine
 10
-699.8586834443776
 20
-8356.013583324017
 30
0.0
 11
-695.8951671719769
 21
-8357.3453904251
 31
0.0
  0
LINE
  5
1E48
330
1F
100
AcDbEntity
  8
SPOJOVACÍ
  6
DASHED
100
AcDbLine
 10
-699.8586834443776
 20
-8356.597901155469
 30
0.0
 11
-695.8951671719769
 21
-8357.92970825628
 31
0.0
  0
LINE
  5
1E49
330
1F
100
AcDbEntity
  8
SPOJOVACÍ
  6
DASHED
100
AcDbLine
 10
-700.2287817921824
 20
-8356.383681669681
 30
0.0
 11
-695.5250688284504
 21
-8357.559609910886
 31
0.0
  0
LINE
  5
1E4A
330
1F
100
AcDbEntity
  8
SPOJOVACÍ
  6
DASHED
100
AcDbLine
 10
-699.8586834443776
 20
-8352.955258325247
 30
0.0
 11
-695.8951671719769
 21
-8354.287976998246
 31
0.0
  0
LINE
  5
1E4B
330
1F
100
AcDbEntity
  8
SPOJOVACÍ
  6
DASHED
100
AcDbLine
 10
-699.8586834443776
 20
-8353.539576156427
 30
0.0
 11
-695.8951671719769
 21
-8354.872294829698
 31
0.0
  0
LINE
  5
1E4C
330
1F
100
AcDbEntity
  8
SPOJOVACÍ
  6
DASHED
100
AcDbLine
 10
-700.2287817921824
 20
-8353.326268243099
 30
0.0
 11
-695.5250688284504
 21
-8354.502196484032
 31
0.0
  0
LINE
  5
1E4D
330
1F
100
AcDbEntity
  8
SPOJOVACÍ
  6
DASHED
100
AcDbLine
 10
-696.3318102953707
 20
-8347.71645243275
 30
0.0
 11
-695.7310841632061
 21
-8346.33086256724
 31
0.0
  0
LINE
  5
1E4E
330
1F
100
AcDbEntity
  8
SPOJOVACÍ
  6
DASHED
100
AcDbLine
 10
-699.199616687918
 20
-8362.93332850054
 30
0.0
 11
-699.199616687918
 21
-8365.40095466228
 31
0.0
  0
LINE
  5
1E4F
330
1F
100
AcDbEntity
  8
SPOJOVACÍ
  6
DASHED
100
AcDbLine
 10
-696.5542339284366
 20
-8360.758317040746
 30
0.0
 11
-696.5542339284366
 21
-8363.228677919321
 31
0.0
  0
LINE
  5
1E50
330
1F
100
AcDbEntity
  8
SPOJOVACÍ
  6
DASHED
100
AcDbLine
 10
-699.4265981856661
 20
-8371.526720383046
 30
0.0
 11
-696.3728310475635
 21
-8372.14750110548
 31
0.0
  0
LINE
  5
1E51
330
1F
100
AcDbEntity
  8
SPOJOVACÍ
  6
DASHED
100
AcDbLine
 10
-699.0564998378613
 20
-8371.155710464922
 30
0.0
 11
-696.74292939109
 21
-8371.934193192153
 31
0.0
  0
LINE
  5
1E52
330
1F
100
AcDbEntity
  8
SPOJOVACÍ
  6
DASHED
100
AcDbLine
 10
-699.4265981856661
 20
-8371.526720383046
 30
0.0
 11
-699.0564998378613
 21
-8371.740028296374
 31
0.0
  0
LINE
  5
1E53
330
1F
100
AcDbEntity
  8
SPOJOVACÍ
  6
DASHED
100
AcDbLine
 10
-697.126701324385
 20
-8371.791987916424
 30
0.0
 11
-696.8650800781542
 21
-8369.698106389627
 31
0.0
  0
LINE
  5
1E54
330
1F
100
AcDbEntity
  8
SPOJOVACÍ
  6
DASHED
100
AcDbLine
 10
-698.873273809404
 20
-8374.4802145698
 30
0.0
 11
-696.7620724107765
 21
-8374.784679711259
 31
0.0
  0
LINE
  5
1E55
330
1F
100
AcDbEntity
  8
SPOJOVACÍ
  6
DASHED
100
AcDbLine
 10
-698.5031754658775
 20
-8374.110116224134
 30
0.0
 11
-697.1321707543029
 21
-8374.571371797667
 31
0.0
  0
LINE
  5
1E56
330
1F
100
AcDbEntity
  8
SPOJOVACÍ
  6
DASHED
100
AcDbLine
 10
-698.5031754658775
 20
-8374.694434055578
 30
0.0
 11
-697.1321707543029
 21
-8375.155689629112
 31
0.0
  0
LINE
  5
1E57
330
1F
100
AcDbEntity
  8
SPOJOVACÍ
  6
DASHED
100
AcDbLine
 10
-696.7620724107765
 20
-8374.784679711259
 30
0.0
 11
-697.1321707543029
 21
-8374.571371797667
 31
0.0
  0
LINE
  5
1E58
330
1F
100
AcDbEntity
  8
SPOJOVACÍ
  6
DASHED
100
AcDbLine
 10
-696.7620724107765
 20
-8374.784679711259
 30
0.0
 11
-697.1321707543029
 21
-8375.155689629112
 31
0.0
  0
LINE
  5
1E59
330
1F
100
AcDbEntity
  8
SPOJOVACÍ
  6
DASHED
100
AcDbLine
 10
-698.873273809404
 20
-8374.4802145698
 30
0.0
 11
-698.5031754658775
 21
-8374.110116224134
 31
0.0
  0
LINE
  5
1E5A
330
1F
100
AcDbEntity
  8
SPOJOVACÍ
  6
DASHED
100
AcDbLine
 10
-698.873273809404
 20
-8374.4802145698
 30
0.0
 11
-698.5031754658775
 21
-8374.694434055578
 31
0.0
  0
LINE
  5
1E5B
330
1F
100
AcDbEntity
  8
SPOJOVACÍ
  6
DASHED
100
AcDbLine
 10
-699.0564998378613
 20
-8371.740028296374
 30
0.0
 11
-696.74292939109
 21
-8372.518511023335
 31
0.0
  0
LINE
  5
1E5C
330
1F
100
AcDbEntity
  8
SPOJOVACÍ
  6
DASHED
100
AcDbLine
 10
-696.3728310475635
 20
-8372.14750110548
 30
0.0
 11
-696.74292939109
 21
-8371.934193192153
 31
0.0
  0
LINE
  5
1E5D
330
1F
100
AcDbEntity
  8
SPOJOVACÍ
  6
DASHED
100
AcDbLine
 10
-696.3728310475635
 20
-8372.14750110548
 30
0.0
 11
-696.74292939109
 21
-8372.518511023335
 31
0.0
  0
LINE
  5
1E5E
330
1F
100
AcDbEntity
  8
SPOJOVACÍ
  6
DASHED
100
AcDbLine
 10
-697.4594252023307
 20
-8374.454690545869
 30
0.0
 11
-697.1968923865861
 21
-8372.352604868584
 31
0.0
  0
LINE
  5
1E5F
330
1F
100
AcDbEntity
  8
SPOJOVACÍ
  6
DASHED
100
AcDbLine
 10
-698.2552278051371
 20
-8374.764625120988
 30
0.0
 11
-697.8769253103164
 21
-8377.791956662438
 31
0.0
  0
LINE
  5
1E60
330
1F
100
AcDbEntity
  8
SPOJOVACÍ
  6
DASHED
100
AcDbLine
 10
-698.6152988540634
 20
-8371.882233572103
 30
0.0
 11
-698.3308883058125
 21
-8374.156606410251
 31
0.0
  0
LINE
  5
1E61
330
1F
100
AcDbEntity
  8
SPOJOVACÍ
  6
DASHED
100
AcDbLine
 10
-697.8769253103164
 20
-8377.791956662438
 30
0.0
 11
-697.52961626881
 21
-8375.012572781193
 31
0.0
  0
LINE
  5
1E62
330
1F
100
AcDbEntity
  8
SPOJOVACÍ
  6
DASHED
100
AcDbLine
 10
-700.2287817921824
 20
-8365.556833522168
 30
0.0
 11
-699.8586834443776
 21
-8365.185823604042
 31
0.0
  0
LINE
  5
1E63
330
1F
100
AcDbEntity
  8
SPOJOVACÍ
  6
DASHED
100
AcDbLine
 10
-700.2287817921824
 20
-8365.556833522168
 30
0.0
 11
-699.8586834443776
 21
-8365.770141435495
 31
0.0
  0
LINE
  5
1E64
330
1F
100
AcDbEntity
  8
SPOJOVACÍ
  6
DASHED
100
AcDbLine
 10
-699.4265981856661
 20
-8371.526720383046
 30
0.0
 11
-699.0564998378613
 21
-8371.155710464922
 31
0.0
  0
LINE
  5
1E65
330
1F
100
AcDbEntity
  8
SPOJOVACÍ
  6
DASHED
100
AcDbLine
 10
-699.6089126403312
 20
-8368.202216278168
 30
0.0
 11
-696.3071978414882
 21
-8369.312511315165
 31
0.0
  0
LINE
  5
1E66
330
1F
100
AcDbEntity
  8
SPOJOVACÍ
  6
DASHED
100
AcDbLine
 10
-699.6089126403312
 20
-8368.78653410962
 30
0.0
 11
-696.3071978414882
 21
-8369.896829146616
 31
0.0
  0
LINE
  5
1E67
330
1F
100
AcDbEntity
  8
SPOJOVACÍ
  6
DASHED
100
AcDbLine
 10
-699.9799225576498
 20
-8368.572314623834
 30
0.0
 11
-699.6089126403312
 21
-8368.202216278168
 31
0.0
  0
LINE
  5
1E68
330
1F
100
AcDbEntity
  8
SPOJOVACÍ
  6
DASHED
100
AcDbLine
 10
-699.9799225576498
 20
-8368.572314623834
 30
0.0
 11
-699.6089126403312
 21
-8368.78653410962
 31
0.0
  0
LINE
  5
1E69
330
1F
100
AcDbEntity
  8
SPOJOVACÍ
  6
DASHED
100
AcDbLine
 10
-696.7948890116749
 20
-8369.139312581843
 30
0.0
 11
-696.5542339284366
 21
-8367.207690920784
 31
0.0
  0
LINE
  5
1E6A
330
1F
100
AcDbEntity
  8
SPOJOVACÍ
  6
DASHED
100
AcDbLine
 10
-698.977193050574
 20
-8368.988903155889
 30
0.0
 11
-698.6927824980448
 21
-8371.264187566232
 31
0.0
  0
LINE
  5
1E6B
330
1F
100
AcDbEntity
  8
SPOJOVACÍ
  6
DASHED
100
AcDbLine
 10
-699.199616687918
 20
-8367.207690920784
 30
0.0
 11
-699.0528535512494
 21
-8368.380884445151
 31
0.0
  0
LINE
  5
1E6C
330
1F
100
AcDbEntity
  8
SPOJOVACÍ
  6
DASHED
100
AcDbLine
 10
-696.5542339284366
 20
-8366.877701755656
 30
0.0
 11
-696.5542339284366
 21
-8367.207690920784
 31
0.0
  0
LINE
  5
1E6D
330
1F
100
AcDbEntity
  8
SPOJOVACÍ
  6
DASHED
100
AcDbLine
 10
-696.5542339284366
 20
-8363.817553611976
 30
0.0
 11
-696.5542339284366
 21
-8366.286091345903
 31
0.0
  0
LINE
  5
1E6E
330
1F
100
AcDbEntity
  8
SPOJOVACÍ
  6
DASHED
100
AcDbLine
 10
-699.199616687918
 20
-8365.985272493732
 30
0.0
 11
-699.199616687918
 21
-8367.207690920784
 31
0.0
  0
LINE
  5
1E6F
330
1F
100
AcDbEntity
  8
SPOJOVACÍ
  6
DASHED
100
AcDbLine
 10
-699.199616687918
 20
-8353.75014935319
 30
0.0
 11
-699.199616687918
 21
-8356.218687087119
 31
0.0
  0
LINE
  5
1E70
330
1F
100
AcDbEntity
  8
SPOJOVACÍ
  6
DASHED
100
AcDbLine
 10
-700.2287817921824
 20
-8362.498508523126
 30
0.0
 11
-699.8586834443776
 21
-8362.12841017746
 31
0.0
  0
LINE
  5
1E71
330
1F
100
AcDbEntity
  8
SPOJOVACÍ
  6
DASHED
100
AcDbLine
 10
-700.2287817921824
 20
-8362.498508523126
 30
0.0
 11
-699.8586834443776
 21
-8362.712728008904
 31
0.0
  0
LINE
  5
1E72
330
1F
100
AcDbEntity
  8
SPOJOVACÍ
  6
DASHED
100
AcDbLine
 10
-700.2287817921824
 20
-8359.441095096535
 30
0.0
 11
-699.8586834443776
 21
-8359.070996750871
 31
0.0
  0
LINE
  5
1E73
330
1F
100
AcDbEntity
  8
SPOJOVACÍ
  6
DASHED
100
AcDbLine
 10
-700.2287817921824
 20
-8359.441095096535
 30
0.0
 11
-699.8586834443776
 21
-8359.655314582322
 31
0.0
  0
LINE
  5
1E74
330
1F
100
AcDbEntity
  8
SPOJOVACÍ
  6
DASHED
100
AcDbLine
 10
-700.2287817921824
 20
-8356.383681669681
 30
0.0
 11
-699.8586834443776
 21
-8356.013583324017
 31
0.0
  0
LINE
  5
1E75
330
1F
100
AcDbEntity
  8
SPOJOVACÍ
  6
DASHED
100
AcDbLine
 10
-700.2287817921824
 20
-8356.383681669681
 30
0.0
 11
-699.8586834443776
 21
-8356.597901155469
 31
0.0
  0
LINE
  5
1E76
330
1F
100
AcDbEntity
  8
SPOJOVACÍ
  6
DASHED
100
AcDbLine
 10
-696.5542339284366
 20
-8357.69816889733
 30
0.0
 11
-696.5542339284366
 21
-8360.175822353943
 31
0.0
  0
LINE
  5
1E77
330
1F
100
AcDbEntity
  8
SPOJOVACÍ
  6
DASHED
100
AcDbLine
 10
-696.5542339284366
 20
-8354.64531333195
 30
0.0
 11
-696.5542339284366
 21
-8357.113851065879
 31
0.0
  0
LINE
  5
1E78
330
1F
100
AcDbEntity
  8
SPOJOVACÍ
  6
DASHED
100
AcDbLine
 10
-699.199616687918
 20
-8359.863153061988
 30
0.0
 11
-699.199616687918
 21
-8362.3408065186
 31
0.0
  0
LINE
  5
1E79
330
1F
100
AcDbEntity
  8
SPOJOVACÍ
  6
DASHED
100
AcDbLine
 10
-699.199616687918
 20
-8356.810297496608
 30
0.0
 11
-699.199616687918
 21
-8359.280658375181
 31
0.0
  0
LINE
  5
1E7A
330
1F
100
AcDbEntity
  8
SPOJOVACÍ
  6
DASHED
100
AcDbLine
 10
-700.2287817921824
 20
-8353.326268243099
 30
0.0
 11
-699.8586834443776
 21
-8352.955258325247
 31
0.0
  0
LINE
  5
1E7B
330
1F
100
AcDbEntity
  8
SPOJOVACÍ
  6
DASHED
100
AcDbLine
 10
-700.2287817921824
 20
-8353.326268243099
 30
0.0
 11
-699.8586834443776
 21
-8353.539576156427
 31
0.0
  0
LINE
  5
1E7C
330
1F
100
AcDbEntity
  8
SPOJOVACÍ
  6
DASHED
100
AcDbLine
 10
-699.199616687918
 20
-8349.209607827111
 30
0.0
 11
-699.199616687918
 21
-8353.166743094197
 31
0.0
  0
LINE
  5
1E7D
330
1F
100
AcDbEntity
  8
SPOJOVACÍ
  6
DASHED
100
AcDbLine
 10
-696.5542339284366
 20
-8349.209607827111
 30
0.0
 11
-696.5542339284366
 21
-8354.053702922461
 31
0.0
  0
LINE
  5
1E7E
330
1F
100
AcDbEntity
  8
SPOJOVACÍ
  6
DASHED
100
AcDbLine
 10
-699.6836615672146
 20
-8346.987194608741
 30
0.0
 11
-699.2643383202012
 21
-8348.438417678451
 31
0.0
  0
LINE
  5
1E7F
330
1F
100
AcDbEntity
  8
SPOJOVACÍ
  6
DASHED
100
AcDbLine
 10
-699.2643383202012
 20
-8348.438417678451
 30
0.0
 11
-699.199616687918
 21
-8349.209607827111
 31
0.0
  0
LINE
  5
1E80
330
1F
100
AcDbEntity
  8
SPOJOVACÍ
  6
DASHED
100
AcDbLine
 10
-696.5542339284366
 20
-8349.209607827111
 30
0.0
 11
-696.3318102953707
 21
-8347.71645243275
 31
0.0
  0
LINE
  5
1E81
330
1F
100
AcDbEntity
  8
SPOJOVACÍ
  6
DASHED
100
AcDbLine
 10
-695.5250688284504
 20
-8366.732761763101
 30
0.0
 11
-695.8951671719769
 21
-8366.518542277313
 31
0.0
  0
LINE
  5
1E82
330
1F
100
AcDbEntity
  8
SPOJOVACÍ
  6
DASHED
100
AcDbLine
 10
-695.5250688284504
 20
-8366.732761763101
 30
0.0
 11
-695.8951671719769
 21
-8367.102860108765
 31
0.0
  0
LINE
  5
1E83
330
1F
100
AcDbEntity
  8
SPOJOVACÍ
  6
DASHED
100
AcDbLine
 10
-695.5250688284504
 20
-8363.674436764059
 30
0.0
 11
-695.8951671719769
 21
-8363.461128850731
 31
0.0
  0
LINE
  5
1E84
330
1F
100
AcDbEntity
  8
SPOJOVACÍ
  6
DASHED
100
AcDbLine
 10
-695.5250688284504
 20
-8363.674436764059
 30
0.0
 11
-695.8951671719769
 21
-8364.045446681911
 31
0.0
  0
LINE
  5
1E85
330
1F
100
AcDbEntity
  8
SPOJOVACÍ
  6
DASHED
100
AcDbLine
 10
-695.5250688284504
 20
-8354.502196484032
 30
0.0
 11
-695.8951671719769
 21
-8354.872294829698
 31
0.0
  0
LINE
  5
1E86
330
1F
100
AcDbEntity
  8
SPOJOVACÍ
  6
DASHED
100
AcDbLine
 10
-695.5250688284504
 20
-8360.617023337468
 30
0.0
 11
-695.8951671719769
 21
-8360.403715423878
 31
0.0
  0
LINE
  5
1E87
330
1F
100
AcDbEntity
  8
SPOJOVACÍ
  6
DASHED
100
AcDbLine
 10
-695.5250688284504
 20
-8360.617023337468
 30
0.0
 11
-695.8951671719769
 21
-8360.988033255322
 31
0.0
  0
LINE
  5
1E88
330
1F
100
AcDbEntity
  8
SPOJOVACÍ
  6
DASHED
100
AcDbLine
 10
-695.5250688284504
 20
-8357.559609910886
 30
0.0
 11
-695.8951671719769
 21
-8357.3453904251
 31
0.0
  0
LINE
  5
1E89
330
1F
100
AcDbEntity
  8
SPOJOVACÍ
  6
DASHED
100
AcDbLine
 10
-695.5250688284504
 20
-8357.559609910886
 30
0.0
 11
-695.8951671719769
 21
-8357.92970825628
 31
0.0
  0
LINE
  5
1E8A
330
1F
100
AcDbEntity
  8
SPOJOVACÍ
  6
DASHED
100
AcDbLine
 10
-695.5250688284504
 20
-8354.502196484032
 30
0.0
 11
-695.8951671719769
 21
-8354.287976998246
 31
0.0
  0
LINE
  5
1E8B
330
1F
100
AcDbEntity
  8
SPOJOVACÍ
  6
DASHED
100
AcDbLine
 10
-702.8750761211776
 20
-8343.917930742643
 30
0.0
 11
-692.8787744994552
 21
-8343.917930742643
 31
0.0
  0
LINE
  5
1E8C
330
1F
100
AcDbEntity
  8
SPOJOVACÍ
  6
DASHED
100
AcDbLine
 10
-702.8750761211776
 20
-8342.742002501445
 30
0.0
 11
-692.8787744994552
 21
-8342.742002501445
 31
0.0
  0
LINE
  5
1E8D
330
1F
100
AcDbEntity
  8
SPOJOVACÍ
  6
DASHED
100
AcDbLine
 10
-702.8750761211776
 20
-8343.917930742643
 30
0.0
 11
-701.5523847392978
 21
-8344.647188566387
 31
0.0
  0
LINE
  5
1E8E
330
1F
100
AcDbEntity
  8
SPOJOVACÍ
  6
DASHED
100
AcDbLine
 10
-701.5523847392978
 20
-8344.647188566387
 30
0.0
 11
-700.4639674369464
 21
-8345.694585116012
 31
0.0
  0
LINE
  5
1E8F
330
1F
100
AcDbEntity
  8
SPOJOVACÍ
  6
DASHED
100
AcDbLine
 10
-702.8750761211776
 20
-8342.742002501445
 30
0.0
 11
-702.8750761211776
 21
-8343.917930742643
 31
0.0
  0
LINE
  5
1E90
330
1F
100
AcDbEntity
  8
SPOJOVACÍ
  6
DASHED
100
AcDbLine
 10
-694.7921647146213
 20
-8345.147641748001
 30
0.0
 11
-693.5797735818996
 21
-8344.247919907768
 31
0.0
  0
LINE
  5
1E91
330
1F
100
AcDbEntity
  8
SPOJOVACÍ
  6
DASHED
100
AcDbLine
 10
-693.5797735818996
 20
-8344.247919907768
 30
0.0
 11
-692.8787744994552
 21
-8343.917930742643
 31
0.0
  0
LINE
  5
1E92
330
1F
100
AcDbEntity
  8
SPOJOVACÍ
  6
DASHED
100
AcDbLine
 10
-692.8787744994552
 20
-8342.742002501445
 30
0.0
 11
-692.8787744994552
 21
-8343.917930742643
 31
0.0
  0
TEXT
  5
1E93
330
1F
100
AcDbEntity
  8
POPIS
100
AcDbText
 10
-299.2587207609267
 20
-8566.989435128759
 30
0.0
 40
25.0
  1
12
 41
0.85
  7
SIMPLEX7
100
AcDbText
  0
TEXT
  5
1E94
330
1F
100
AcDbEntity
  8
POPIS
100
AcDbText
 10
-346.184655627303
 20
-8566.989435128759
 30
0.0
 40
25.0
  1
11
 41
0.85
  7
SIMPLEX7
100
AcDbText
  0
TEXT
  5
1E95
330
1F
100
AcDbEntity
  8
POPIS
100
AcDbText
 10
-400.8254841503494
 20
-8566.989435128759
 30
0.0
 40
25.0
  1
10
 41
0.85
  7
SIMPLEX7
100
AcDbText
  0
TEXT
  5
1E96
330
1F
100
AcDbEntity
  8
POPIS
100
AcDbText
 10
-480.3405720108512
 20
-8566.989435128759
 30
0.0
 40
25.0
  1
09
 41
0.85
  7
SIMPLEX7
100
AcDbText
  0
TEXT
  5
1E97
330
1F
100
AcDbEntity
  8
POPIS
100
AcDbText
 10
-545.3200909207971
 20
-8566.989435128759
 30
0.0
 40
25.0
  1
03
 41
0.85
  7
SIMPLEX7
100
AcDbText
  0
LWPOLYLINE
  5
1E98
330
1F
100
AcDbEntity
  8
nášlap_vrstvy
100
AcDbPolyline
 90
        4
 70
     0
 43
0.0
 10
-514.3724020969125
 20
-8340.120242138928
 10
-207.1755423857644
 20
-8340.120242138928
 10
-207.1755423857644
 20
-8335.78175311298
 10
-514.3724020969125
 20
-8335.78175311298
  0
LINE
  5
1E99
330
1F
100
AcDbEntity
  8
CETRIS
100
AcDbLine
 10
-512.1911617533869
 20
-8366.742002501444
 30
0.0
 11
-207.1755423857612
 21
-8366.742002501444
 31
0.0
  0
LINE
  5
1E9A
330
1F
100
AcDbEntity
  8
CETRIS
100
AcDbLine
 10
-512.1911617533879
 20
-8354.742002501446
 30
0.0
 11
-207.1755423857612
 21
-8354.742002501446
 31
0.0
  0
LWPOLYLINE
  5
1E9C
330
1F
100
AcDbEntity
  8
izolace
100
AcDbPolyline
 90
        4
 70
     1
 43
0.0
 10
-351.2309005633355
 20
-8486.742002501445
 10
-374.8726332731707
 20
-8486.742002501445
 10
-374.8726332731707
 20
-8489.742002501445
 10
-351.2309005633355
 20
-8489.742002501445
  0
HATCH
  5
1E9D
330
1F
100
AcDbEntity
  8
izolace
100
AcDbHatch
 10
0.0
 20
0.0
 30
0.0
210
0.0
220
0.0
230
1.0
  2
SOLID
 70
     1
 71
     0
 91
        1
 92
        7
 72
     0
 73
     1
 93
        4
 10
-374.8726332731707
 20
-8486.742002501445
 10
-374.8726332731671
 20
-8489.742002501445
 10
-351.2309005633319
 20
-8489.742002501445
 10
-351.2309005633319
 20
-8486.742002501445
 97
        0
 75
     0
 76
     1
 47
0.1901250437635136
 98
        1
 10
-365.5148385148272
 20
-8487.558814052524
  0
LINE
  5
1E9E
330
1F
100
AcDbEntity
  8
POPIS
370
    20
100
AcDbLine
 10
-519.7460301735191
 20
-8270.448543748258
 30
0.0
 11
-519.7460301735191
 21
-8335.280280114993
 31
0.0
  0
LINE
  5
1E9F
330
1F
100
AcDbEntity
  8
POPIS
370
    20
100
AcDbLine
 10
-372.1712209433062
 20
-8270.448543748258
 30
0.0
 11
-372.1712209433062
 21
-8349.796187831517
 31
0.0
  0
LINE
  5
1EA0
330
1F
100
AcDbEntity
  8
POPIS
370
    20
100
AcDbLine
 10
-424.3258474541544
 20
-8270.448543748258
 30
0.0
 11
-424.3258474541544
 21
-8335.860599549638
 31
0.0
  0
LINE
  5
1EA4
330
1F
100
AcDbEntity
  8
POPIS
370
    20
100
AcDbLine
 10
-585.3855903695512
 20
-8534.357597081827
 30
0.0
 11
-585.3855903695512
 21
-8383.949589290685
 31
0.0
  0
LINE
  5
1EA5
330
1F
100
AcDbEntity
  8
POPIS
370
    20
100
AcDbLine
 10
-522.412269306631
 20
-8534.357597081827
 30
0.0
 11
-522.412269306631
 21
-8371.899677851743
 31
0.0
  0
LWPOLYLINE
  5
1ECC
330
1F
100
AcDbEntity
  8
izolace
100
AcDbPolyline
 90
        4
 70
     1
 43
0.0
 10
-540.3647622420171
 20
-8486.742002501445
 10
-564.0064949518523
 20
-8486.742002501445
 10
-564.0064949518523
 20
-8489.742002501445
 10
-540.3647622420171
 20
-8489.742002501445
  0
HATCH
  5
1ECD
330
1F
100
AcDbEntity
  8
izolace
100
AcDbHatch
 10
0.0
 20
0.0
 30
0.0
210
0.0
220
0.0
230
1.0
  2
SOLID
 70
     1
 71
     0
 91
        1
 92
        7
 72
     0
 73
     1
 93
        4
 10
-564.0064949518523
 20
-8486.742002501445
 10
-564.0064949518487
 20
-8489.742002501445
 10
-540.3647622420171
 20
-8489.742002501445
 10
-540.3647622420135
 20
-8486.742002501445
 97
        0
 75
     0
 76
     1
 47
0.1901250437635136
 98
        1
 10
-554.6487001935088
 20
-8487.558814052524
  0
LWPOLYLINE
  5
1ECE
330
1F
100
AcDbEntity
  8
izolace
100
AcDbPolyline
 90
        4
 70
     1
 43
0.0
 10
-493.0812968223468
 20
-8486.742002501445
 10
-516.7230295321819
 20
-8486.742002501445
 10
-516.7230295321819
 20
-8489.742002501445
 10
-493.0812968223468
 20
-8489.742002501445
  0
HATCH
  5
1ECF
330
1F
100
AcDbEntity
  8
izolace
100
AcDbHatch
 10
0.0
 20
0.0
 30
0.0
210
0.0
220
0.0
230
1.0
  2
SOLID
 70
     1
 71
     0
 91
        1
 92
        7
 72
     0
 73
     1
 93
        4
 10
-516.7230295321819
 20
-8486.742002501445
 10
-516.7230295321783
 20
-8489.742002501445
 10
-493.0812968223431
 20
-8489.742002501445
 10
-493.0812968223431
 20
-8486.742002501445
 97
        0
 75
     0
 76
     1
 47
0.1901250437635136
 98
        1
 10
-507.3652347738384
 20
-8487.558814052524
  0
LINE
  5
1ED0
330
1F
100
AcDbEntity
  8
SPOJOVACÍ
  6
DASHED
100
AcDbLine
 10
-549.5965676635933
 20
-8342.742002501445
 30
0.0
 11
-539.6002660418708
 21
-8342.742002501445
 31
0.0
  0
LINE
  5
1ED1
330
1F
100
AcDbEntity
  8
SPOJOVACÍ
  6
DASHED
100
AcDbLine
 10
-549.5965676635933
 20
-8343.917930742643
 30
0.0
 11
-539.6002660418708
 21
-8343.917930742643
 31
0.0
  0
LINE
  5
1ED2
330
1F
100
AcDbEntity
  8
SPOJOVACÍ
  6
DASHED
100
AcDbLine
 10
-541.5136562570369
 20
-8345.147641748001
 30
0.0
 11
-540.3012651243152
 21
-8344.247919907768
 31
0.0
  0
LINE
  5
1ED3
330
1F
100
AcDbEntity
  8
SPOJOVACÍ
  6
DASHED
100
AcDbLine
 10
-542.4525757056216
 20
-8346.33086256724
 30
0.0
 11
-541.5136562570369
 21
-8345.147641748001
 31
0.0
  0
LINE
  5
1ED4
330
1F
100
AcDbEntity
  8
SPOJOVACÍ
  6
DASHED
100
AcDbLine
 10
-547.185458979362
 20
-8345.694585116012
 30
0.0
 11
-546.4051531096301
 21
-8346.987194608741
 31
0.0
  0
LINE
  5
1EE2
330
1F
100
AcDbEntity
  8
SPOJOVACÍ
  6
DASHED
100
AcDbLine
 10
-543.2757254708522
 20
-8360.758317040746
 30
0.0
 11
-543.2757254708522
 21
-8363.228677919321
 31
0.0
  0
LINE
  5
1EE3
330
1F
100
AcDbEntity
  8
SPOJOVACÍ
  6
DASHED
100
AcDbLine
 10
-545.9211082303336
 20
-8362.93332850054
 30
0.0
 11
-545.9211082303336
 21
-8365.40095466228
 31
0.0
  0
LINE
  5
1EE4
330
1F
100
AcDbEntity
  8
SPOJOVACÍ
  6
DASHED
100
AcDbLine
 10
-546.950273334598
 20
-8362.498508523126
 30
0.0
 11
-542.246560370866
 21
-8363.674436764059
 31
0.0
  0
LINE
  5
1EE5
330
1F
100
AcDbEntity
  8
SPOJOVACÍ
  6
DASHED
100
AcDbLine
 10
-546.5801749867932
 20
-8362.712728008904
 30
0.0
 11
-542.6166587143925
 21
-8364.045446681911
 31
0.0
  0
LINE
  5
1EE6
330
1F
100
AcDbEntity
  8
SPOJOVACÍ
  6
DASHED
100
AcDbLine
 10
-546.5801749867932
 20
-8362.12841017746
 30
0.0
 11
-542.6166587143925
 21
-8363.461128850731
 31
0.0
  0
LINE
  5
1EE7
330
1F
100
AcDbEntity
  8
SPOJOVACÍ
  6
DASHED
100
AcDbLine
 10
-543.8481928668006
 20
-8371.791987916424
 30
0.0
 11
-543.5865716205698
 21
-8369.698106389627
 31
0.0
  0
LINE
  5
1EE8
330
1F
100
AcDbEntity
  8
SPOJOVACÍ
  6
DASHED
100
AcDbLine
 10
-546.1480897280816
 20
-8371.526720383046
 30
0.0
 11
-545.7779913802769
 21
-8371.740028296374
 31
0.0
  0
LINE
  5
1EE9
330
1F
100
AcDbEntity
  8
SPOJOVACÍ
  6
DASHED
100
AcDbLine
 10
-545.7779913802769
 20
-8371.155710464922
 30
0.0
 11
-543.4644209335056
 21
-8371.934193192153
 31
0.0
  0
LINE
  5
1EEA
330
1F
100
AcDbEntity
  8
SPOJOVACÍ
  6
DASHED
100
AcDbLine
 10
-546.1480897280816
 20
-8371.526720383046
 30
0.0
 11
-543.0943225899791
 21
-8372.14750110548
 31
0.0
  0
LINE
  5
1EEB
330
1F
100
AcDbEntity
  8
SPOJOVACÍ
  6
DASHED
100
AcDbLine
 10
-544.598416852732
 20
-8377.791956662438
 30
0.0
 11
-544.2511078112256
 21
-8375.012572781193
 31
0.0
  0
LINE
  5
1EEC
330
1F
100
AcDbEntity
  8
SPOJOVACÍ
  6
DASHED
100
AcDbLine
 10
-545.336790396479
 20
-8371.882233572103
 30
0.0
 11
-545.0523798482281
 21
-8374.156606410251
 31
0.0
  0
LINE
  5
1EED
330
1F
100
AcDbEntity
  8
SPOJOVACÍ
  6
DASHED
100
AcDbLine
 10
-544.9767193475527
 20
-8374.764625120988
 30
0.0
 11
-544.598416852732
 21
-8377.791956662438
 31
0.0
  0
LINE
  5
1EEE
330
1F
100
AcDbEntity
  8
SPOJOVACÍ
  6
DASHED
100
AcDbLine
 10
-544.1809167447464
 20
-8374.454690545869
 30
0.0
 11
-543.9183839290016
 21
-8372.352604868584
 31
0.0
  0
LINE
  5
1EEF
330
1F
100
AcDbEntity
  8
SPOJOVACÍ
  6
DASHED
100
AcDbLine
 10
-543.0943225899791
 20
-8372.14750110548
 30
0.0
 11
-543.4644209335056
 21
-8372.518511023335
 31
0.0
  0
LINE
  5
1EF0
330
1F
100
AcDbEntity
  8
SPOJOVACÍ
  6
DASHED
100
AcDbLine
 10
-543.0943225899791
 20
-8372.14750110548
 30
0.0
 11
-543.4644209335056
 21
-8371.934193192153
 31
0.0
  0
LINE
  5
1EF1
330
1F
100
AcDbEntity
  8
SPOJOVACÍ
  6
DASHED
100
AcDbLine
 10
-545.7779913802769
 20
-8371.740028296374
 30
0.0
 11
-543.4644209335056
 21
-8372.518511023335
 31
0.0
  0
LINE
  5
1EF2
330
1F
100
AcDbEntity
  8
SPOJOVACÍ
  6
DASHED
100
AcDbLine
 10
-545.5947653518196
 20
-8374.4802145698
 30
0.0
 11
-545.2246670082931
 21
-8374.694434055578
 31
0.0
  0
LINE
  5
1EF3
330
1F
100
AcDbEntity
  8
SPOJOVACÍ
  6
DASHED
100
AcDbLine
 10
-545.5947653518196
 20
-8374.4802145698
 30
0.0
 11
-545.2246670082931
 21
-8374.110116224134
 31
0.0
  0
LINE
  5
1EF4
330
1F
100
AcDbEntity
  8
SPOJOVACÍ
  6
DASHED
100
AcDbLine
 10
-543.483563953192
 20
-8374.784679711259
 30
0.0
 11
-543.8536622967185
 21
-8375.155689629112
 31
0.0
  0
LINE
  5
1EF5
330
1F
100
AcDbEntity
  8
SPOJOVACÍ
  6
DASHED
100
AcDbLine
 10
-543.483563953192
 20
-8374.784679711259
 30
0.0
 11
-543.8536622967185
 21
-8374.571371797667
 31
0.0
  0
LINE
  5
1EF6
330
1F
100
AcDbEntity
  8
SPOJOVACÍ
  6
DASHED
100
AcDbLine
 10
-545.2246670082931
 20
-8374.694434055578
 30
0.0
 11
-543.8536622967185
 21
-8375.155689629112
 31
0.0
  0
LINE
  5
1EF7
330
1F
100
AcDbEntity
  8
SPOJOVACÍ
  6
DASHED
100
AcDbLine
 10
-545.2246670082931
 20
-8374.110116224134
 30
0.0
 11
-543.8536622967185
 21
-8374.571371797667
 31
0.0
  0
LINE
  5
1EF8
330
1F
100
AcDbEntity
  8
SPOJOVACÍ
  6
DASHED
100
AcDbLine
 10
-545.5947653518196
 20
-8374.4802145698
 30
0.0
 11
-543.483563953192
 21
-8374.784679711259
 31
0.0
  0
LINE
  5
1EF9
330
1F
100
AcDbEntity
  8
SPOJOVACÍ
  6
DASHED
100
AcDbLine
 10
-545.9211082303336
 20
-8365.985272493732
 30
0.0
 11
-545.9211082303336
 21
-8367.207690920784
 31
0.0
  0
LINE
  5
1EFA
330
1F
100
AcDbEntity
  8
SPOJOVACÍ
  6
DASHED
100
AcDbLine
 10
-543.2757254708522
 20
-8363.817553611976
 30
0.0
 11
-543.2757254708522
 21
-8366.286091345903
 31
0.0
  0
LINE
  5
1EFB
330
1F
100
AcDbEntity
  8
SPOJOVACÍ
  6
DASHED
100
AcDbLine
 10
-543.2757254708522
 20
-8366.877701755656
 30
0.0
 11
-543.2757254708522
 21
-8367.207690920784
 31
0.0
  0
LINE
  5
1EFC
330
1F
100
AcDbEntity
  8
SPOJOVACÍ
  6
DASHED
100
AcDbLine
 10
-545.9211082303336
 20
-8367.207690920784
 30
0.0
 11
-545.774345093665
 21
-8368.380884445151
 31
0.0
  0
LINE
  5
1EFD
330
1F
100
AcDbEntity
  8
SPOJOVACÍ
  6
DASHED
100
AcDbLine
 10
-545.6986845929896
 20
-8368.988903155889
 30
0.0
 11
-545.4142740404604
 21
-8371.264187566232
 31
0.0
  0
LINE
  5
1EFE
330
1F
100
AcDbEntity
  8
SPOJOVACÍ
  6
DASHED
100
AcDbLine
 10
-543.5163805540906
 20
-8369.139312581843
 30
0.0
 11
-543.2757254708522
 21
-8367.207690920784
 31
0.0
  0
LINE
  5
1EFF
330
1F
100
AcDbEntity
  8
SPOJOVACÍ
  6
DASHED
100
AcDbLine
 10
-546.7014141000654
 20
-8368.572314623834
 30
0.0
 11
-546.3304041827468
 21
-8368.78653410962
 31
0.0
  0
LINE
  5
1F00
330
1F
100
AcDbEntity
  8
SPOJOVACÍ
  6
DASHED
100
AcDbLine
 10
-546.7014141000654
 20
-8368.572314623834
 30
0.0
 11
-546.3304041827468
 21
-8368.202216278168
 31
0.0
  0
LINE
  5
1F01
330
1F
100
AcDbEntity
  8
SPOJOVACÍ
  6
DASHED
100
AcDbLine
 10
-542.6585910403773
 20
-8369.525819228492
 30
0.0
 11
-543.0286893839038
 21
-8369.896829146616
 31
0.0
  0
LINE
  5
1F02
330
1F
100
AcDbEntity
  8
SPOJOVACÍ
  6
DASHED
100
AcDbLine
 10
-542.6585910403773
 20
-8369.525819228492
 30
0.0
 11
-543.0286893839038
 21
-8369.312511315165
 31
0.0
  0
LINE
  5
1F03
330
1F
100
AcDbEntity
  8
SPOJOVACÍ
  6
DASHED
100
AcDbLine
 10
-546.3304041827468
 20
-8368.78653410962
 30
0.0
 11
-543.0286893839038
 21
-8369.896829146616
 31
0.0
  0
LINE
  5
1F04
330
1F
100
AcDbEntity
  8
SPOJOVACÍ
  6
DASHED
100
AcDbLine
 10
-546.3304041827468
 20
-8368.202216278168
 30
0.0
 11
-543.0286893839038
 21
-8369.312511315165
 31
0.0
  0
LINE
  5
1F05
330
1F
100
AcDbEntity
  8
SPOJOVACÍ
  6
DASHED
100
AcDbLine
 10
-546.7014141000654
 20
-8368.572314623834
 30
0.0
 11
-542.6585910403773
 21
-8369.525819228492
 31
0.0
  0
LINE
  5
1F06
330
1F
100
AcDbEntity
  8
SPOJOVACÍ
  6
DASHED
100
AcDbLine
 10
-546.1480897280816
 20
-8371.526720383046
 30
0.0
 11
-545.7779913802769
 21
-8371.155710464922
 31
0.0
  0
LINE
  5
1F07
330
1F
100
AcDbEntity
  8
SPOJOVACÍ
  6
DASHED
100
AcDbLine
 10
-542.246560370866
 20
-8363.674436764059
 30
0.0
 11
-542.6166587143925
 21
-8364.045446681911
 31
0.0
  0
LINE
  5
1F08
330
1F
100
AcDbEntity
  8
SPOJOVACÍ
  6
DASHED
100
AcDbLine
 10
-542.246560370866
 20
-8363.674436764059
 30
0.0
 11
-542.6166587143925
 21
-8363.461128850731
 31
0.0
  0
LINE
  5
1F09
330
1F
100
AcDbEntity
  8
SPOJOVACÍ
  6
DASHED
100
AcDbLine
 10
-546.950273334598
 20
-8365.556833522168
 30
0.0
 11
-542.246560370866
 21
-8366.732761763101
 31
0.0
  0
LINE
  5
1F0A
330
1F
100
AcDbEntity
  8
SPOJOVACÍ
  6
DASHED
100
AcDbLine
 10
-546.950273334598
 20
-8365.556833522168
 30
0.0
 11
-546.5801749867932
 21
-8365.770141435495
 31
0.0
  0
LINE
  5
1F0B
330
1F
100
AcDbEntity
  8
SPOJOVACÍ
  6
DASHED
100
AcDbLine
 10
-546.950273334598
 20
-8365.556833522168
 30
0.0
 11
-546.5801749867932
 21
-8365.185823604042
 31
0.0
  0
LINE
  5
1F0C
330
1F
100
AcDbEntity
  8
SPOJOVACÍ
  6
DASHED
100
AcDbLine
 10
-542.246560370866
 20
-8366.732761763101
 30
0.0
 11
-542.6166587143925
 21
-8367.102860108765
 31
0.0
  0
LINE
  5
1F0D
330
1F
100
AcDbEntity
  8
SPOJOVACÍ
  6
DASHED
100
AcDbLine
 10
-542.246560370866
 20
-8366.732761763101
 30
0.0
 11
-542.6166587143925
 21
-8366.518542277313
 31
0.0
  0
LINE
  5
1F0E
330
1F
100
AcDbEntity
  8
SPOJOVACÍ
  6
DASHED
100
AcDbLine
 10
-546.5801749867932
 20
-8365.770141435495
 30
0.0
 11
-542.6166587143925
 21
-8367.102860108765
 31
0.0
  0
LINE
  5
1F0F
330
1F
100
AcDbEntity
  8
SPOJOVACÍ
  6
DASHED
100
AcDbLine
 10
-546.5801749867932
 20
-8365.185823604042
 30
0.0
 11
-542.6166587143925
 21
-8366.518542277313
 31
0.0
  0
LINE
  5
1F10
330
1F
100
AcDbEntity
  8
SPOJOVACÍ
  6
DASHED
100
AcDbLine
 10
-545.9211082303336
 20
-8353.75014935319
 30
0.0
 11
-545.9211082303336
 21
-8356.218687087119
 31
0.0
  0
LINE
  5
1F11
330
1F
100
AcDbEntity
  8
SPOJOVACÍ
  6
DASHED
100
AcDbLine
 10
-542.246560370866
 20
-8354.502196484032
 30
0.0
 11
-542.6166587143925
 21
-8354.872294829698
 31
0.0
  0
LINE
  5
1F12
330
1F
100
AcDbEntity
  8
SPOJOVACÍ
  6
DASHED
100
AcDbLine
 10
-546.5801749867932
 20
-8353.539576156427
 30
0.0
 11
-542.6166587143925
 21
-8354.872294829698
 31
0.0
  0
LINE
  5
1F13
330
1F
100
AcDbEntity
  8
SPOJOVACÍ
  6
DASHED
100
AcDbLine
 10
-545.9211082303336
 20
-8356.810297496608
 30
0.0
 11
-545.9211082303336
 21
-8359.280658375181
 31
0.0
  0
LINE
  5
1F14
330
1F
100
AcDbEntity
  8
SPOJOVACÍ
  6
DASHED
100
AcDbLine
 10
-545.9211082303336
 20
-8359.863153061988
 30
0.0
 11
-545.9211082303336
 21
-8362.3408065186
 31
0.0
  0
LINE
  5
1F15
330
1F
100
AcDbEntity
  8
SPOJOVACÍ
  6
DASHED
100
AcDbLine
 10
-543.2757254708522
 20
-8354.64531333195
 30
0.0
 11
-543.2757254708522
 21
-8357.113851065879
 31
0.0
  0
LINE
  5
1F16
330
1F
100
AcDbEntity
  8
SPOJOVACÍ
  6
DASHED
100
AcDbLine
 10
-543.2757254708522
 20
-8357.69816889733
 30
0.0
 11
-543.2757254708522
 21
-8360.175822353943
 31
0.0
  0
LINE
  5
1F17
330
1F
100
AcDbEntity
  8
SPOJOVACÍ
  6
DASHED
100
AcDbLine
 10
-546.950273334598
 20
-8356.383681669681
 30
0.0
 11
-542.246560370866
 21
-8357.559609910886
 31
0.0
  0
LINE
  5
1F18
330
1F
100
AcDbEntity
  8
SPOJOVACÍ
  6
DASHED
100
AcDbLine
 10
-546.950273334598
 20
-8356.383681669681
 30
0.0
 11
-546.5801749867932
 21
-8356.597901155469
 31
0.0
  0
LINE
  5
1F19
330
1F
100
AcDbEntity
  8
SPOJOVACÍ
  6
DASHED
100
AcDbLine
 10
-546.950273334598
 20
-8356.383681669681
 30
0.0
 11
-546.5801749867932
 21
-8356.013583324017
 31
0.0
  0
LINE
  5
1F1A
330
1F
100
AcDbEntity
  8
SPOJOVACÍ
  6
DASHED
100
AcDbLine
 10
-542.246560370866
 20
-8357.559609910886
 30
0.0
 11
-542.6166587143925
 21
-8357.92970825628
 31
0.0
  0
LINE
  5
1F1B
330
1F
100
AcDbEntity
  8
SPOJOVACÍ
  6
DASHED
100
AcDbLine
 10
-542.246560370866
 20
-8357.559609910886
 30
0.0
 11
-542.6166587143925
 21
-8357.3453904251
 31
0.0
  0
LINE
  5
1F1C
330
1F
100
AcDbEntity
  8
SPOJOVACÍ
  6
DASHED
100
AcDbLine
 10
-546.5801749867932
 20
-8356.597901155469
 30
0.0
 11
-542.6166587143925
 21
-8357.92970825628
 31
0.0
  0
LINE
  5
1F1D
330
1F
100
AcDbEntity
  8
SPOJOVACÍ
  6
DASHED
100
AcDbLine
 10
-546.5801749867932
 20
-8356.013583324017
 30
0.0
 11
-542.6166587143925
 21
-8357.3453904251
 31
0.0
  0
LINE
  5
1F1E
330
1F
100
AcDbEntity
  8
SPOJOVACÍ
  6
DASHED
100
AcDbLine
 10
-546.950273334598
 20
-8359.441095096535
 30
0.0
 11
-542.246560370866
 21
-8360.617023337468
 31
0.0
  0
LINE
  5
1F1F
330
1F
100
AcDbEntity
  8
SPOJOVACÍ
  6
DASHED
100
AcDbLine
 10
-546.950273334598
 20
-8359.441095096535
 30
0.0
 11
-546.5801749867932
 21
-8359.655314582322
 31
0.0
  0
LINE
  5
1F20
330
1F
100
AcDbEntity
  8
SPOJOVACÍ
  6
DASHED
100
AcDbLine
 10
-546.950273334598
 20
-8359.441095096535
 30
0.0
 11
-546.5801749867932
 21
-8359.070996750871
 31
0.0
  0
LINE
  5
1F21
330
1F
100
AcDbEntity
  8
SPOJOVACÍ
  6
DASHED
100
AcDbLine
 10
-542.246560370866
 20
-8360.617023337468
 30
0.0
 11
-542.6166587143925
 21
-8360.988033255322
 31
0.0
  0
LINE
  5
1F22
330
1F
100
AcDbEntity
  8
SPOJOVACÍ
  6
DASHED
100
AcDbLine
 10
-542.246560370866
 20
-8360.617023337468
 30
0.0
 11
-542.6166587143925
 21
-8360.403715423878
 31
0.0
  0
LINE
  5
1F23
330
1F
100
AcDbEntity
  8
SPOJOVACÍ
  6
DASHED
100
AcDbLine
 10
-546.5801749867932
 20
-8359.655314582322
 30
0.0
 11
-542.6166587143925
 21
-8360.988033255322
 31
0.0
  0
LINE
  5
1F24
330
1F
100
AcDbEntity
  8
SPOJOVACÍ
  6
DASHED
100
AcDbLine
 10
-546.5801749867932
 20
-8359.070996750871
 30
0.0
 11
-542.6166587143925
 21
-8360.403715423878
 31
0.0
  0
LINE
  5
1F25
330
1F
100
AcDbEntity
  8
SPOJOVACÍ
  6
DASHED
100
AcDbLine
 10
-546.950273334598
 20
-8362.498508523126
 30
0.0
 11
-546.5801749867932
 21
-8362.712728008904
 31
0.0
  0
LINE
  5
1F26
330
1F
100
AcDbEntity
  8
SPOJOVACÍ
  6
DASHED
100
AcDbLine
 10
-546.950273334598
 20
-8362.498508523126
 30
0.0
 11
-546.5801749867932
 21
-8362.12841017746
 31
0.0
  0
LINE
  5
1F27
330
1F
100
AcDbEntity
  8
SPOJOVACÍ
  6
DASHED
100
AcDbLine
 10
-543.0533018377864
 20
-8347.71645243275
 30
0.0
 11
-542.4525757056216
 21
-8346.33086256724
 31
0.0
  0
LINE
  5
1F28
330
1F
100
AcDbEntity
  8
SPOJOVACÍ
  6
DASHED
100
AcDbLine
 10
-543.2757254708522
 20
-8349.209607827111
 30
0.0
 11
-543.0533018377864
 21
-8347.71645243275
 31
0.0
  0
LINE
  5
1F29
330
1F
100
AcDbEntity
  8
SPOJOVACÍ
  6
DASHED
100
AcDbLine
 10
-545.9858298626167
 20
-8348.438417678451
 30
0.0
 11
-545.9211082303336
 21
-8349.209607827111
 31
0.0
  0
LINE
  5
1F2A
330
1F
100
AcDbEntity
  8
SPOJOVACÍ
  6
DASHED
100
AcDbLine
 10
-546.4051531096301
 20
-8346.987194608741
 30
0.0
 11
-545.9858298626167
 21
-8348.438417678451
 31
0.0
  0
LINE
  5
1F2B
330
1F
100
AcDbEntity
  8
SPOJOVACÍ
  6
DASHED
100
AcDbLine
 10
-543.2757254708522
 20
-8349.209607827111
 30
0.0
 11
-543.2757254708522
 21
-8354.053702922461
 31
0.0
  0
LINE
  5
1F2C
330
1F
100
AcDbEntity
  8
SPOJOVACÍ
  6
DASHED
100
AcDbLine
 10
-545.9211082303336
 20
-8349.209607827111
 30
0.0
 11
-545.9211082303336
 21
-8353.166743094197
 31
0.0
  0
LINE
  5
1F2D
330
1F
100
AcDbEntity
  8
SPOJOVACÍ
  6
DASHED
100
AcDbLine
 10
-546.950273334598
 20
-8353.326268243099
 30
0.0
 11
-542.246560370866
 21
-8354.502196484032
 31
0.0
  0
LINE
  5
1F2E
330
1F
100
AcDbEntity
  8
SPOJOVACÍ
  6
DASHED
100
AcDbLine
 10
-546.950273334598
 20
-8353.326268243099
 30
0.0
 11
-546.5801749867932
 21
-8353.539576156427
 31
0.0
  0
LINE
  5
1F2F
330
1F
100
AcDbEntity
  8
SPOJOVACÍ
  6
DASHED
100
AcDbLine
 10
-546.950273334598
 20
-8353.326268243099
 30
0.0
 11
-546.5801749867932
 21
-8352.955258325247
 31
0.0
  0
LINE
  5
1F30
330
1F
100
AcDbEntity
  8
SPOJOVACÍ
  6
DASHED
100
AcDbLine
 10
-542.246560370866
 20
-8354.502196484032
 30
0.0
 11
-542.6166587143925
 21
-8354.287976998246
 31
0.0
  0
LINE
  5
1F31
330
1F
100
AcDbEntity
  8
SPOJOVACÍ
  6
DASHED
100
AcDbLine
 10
-546.5801749867932
 20
-8352.955258325247
 30
0.0
 11
-542.6166587143925
 21
-8354.287976998246
 31
0.0
  0
LINE
  5
1F32
330
1F
100
AcDbEntity
  8
SPOJOVACÍ
  6
DASHED
100
AcDbLine
 10
-549.5965676635933
 20
-8343.917930742643
 30
0.0
 11
-548.2738762817134
 21
-8344.647188566387
 31
0.0
  0
LINE
  5
1F33
330
1F
100
AcDbEntity
  8
SPOJOVACÍ
  6
DASHED
100
AcDbLine
 10
-549.5965676635933
 20
-8342.742002501445
 30
0.0
 11
-549.5965676635933
 21
-8343.917930742643
 31
0.0
  0
LINE
  5
1F34
330
1F
100
AcDbEntity
  8
SPOJOVACÍ
  6
DASHED
100
AcDbLine
 10
-548.2738762817134
 20
-8344.647188566387
 30
0.0
 11
-547.185458979362
 21
-8345.694585116012
 31
0.0
  0
LINE
  5
1F35
330
1F
100
AcDbEntity
  8
SPOJOVACÍ
  6
DASHED
100
AcDbLine
 10
-492.1968645274136
 20
-8345.694585116012
 30
0.0
 11
-492.9771703971455
 21
-8346.987194608741
 31
0.0
  0
LINE
  5
1F36
330
1F
100
AcDbEntity
  8
SPOJOVACÍ
  6
DASHED
100
AcDbLine
 10
-496.9297478011539
 20
-8346.33086256724
 30
0.0
 11
-497.8686672497388
 21
-8345.147641748001
 31
0.0
  0
LINE
  5
1F43
330
1F
100
AcDbEntity
  8
SPOJOVACÍ
  6
DASHED
100
AcDbLine
 10
-492.8021485199824
 20
-8362.12841017746
 30
0.0
 11
-496.7656647923831
 21
-8363.461128850731
 31
0.0
  0
LINE
  5
1F44
330
1F
100
AcDbEntity
  8
SPOJOVACÍ
  6
DASHED
100
AcDbLine
 10
-492.8021485199824
 20
-8362.712728008904
 30
0.0
 11
-496.7656647923831
 21
-8364.045446681911
 31
0.0
  0
LINE
  5
1F45
330
1F
100
AcDbEntity
  8
SPOJOVACÍ
  6
DASHED
100
AcDbLine
 10
-492.4320501721776
 20
-8362.498508523126
 30
0.0
 11
-497.1357631359096
 21
-8363.674436764059
 31
0.0
  0
LINE
  5
1F46
330
1F
100
AcDbEntity
  8
SPOJOVACÍ
  6
DASHED
100
AcDbLine
 10
-493.4612152764421
 20
-8362.93332850054
 30
0.0
 11
-493.4612152764421
 21
-8365.40095466228
 31
0.0
  0
LINE
  5
1F47
330
1F
100
AcDbEntity
  8
SPOJOVACÍ
  6
DASHED
100
AcDbLine
 10
-496.1065980359235
 20
-8360.758317040746
 30
0.0
 11
-496.1065980359235
 21
-8363.228677919321
 31
0.0
  0
LINE
  5
1F48
330
1F
100
AcDbEntity
  8
SPOJOVACÍ
  6
DASHED
100
AcDbLine
 10
-492.8021485199824
 20
-8365.185823604042
 30
0.0
 11
-496.7656647923831
 21
-8366.518542277313
 31
0.0
  0
LINE
  5
1F49
330
1F
100
AcDbEntity
  8
SPOJOVACÍ
  6
DASHED
100
AcDbLine
 10
-492.8021485199824
 20
-8365.770141435495
 30
0.0
 11
-496.7656647923831
 21
-8367.102860108765
 31
0.0
  0
LINE
  5
1F4A
330
1F
100
AcDbEntity
  8
SPOJOVACÍ
  6
DASHED
100
AcDbLine
 10
-492.4320501721776
 20
-8365.556833522168
 30
0.0
 11
-497.1357631359096
 21
-8366.732761763101
 31
0.0
  0
LINE
  5
1F4B
330
1F
100
AcDbEntity
  8
SPOJOVACÍ
  6
DASHED
100
AcDbLine
 10
-493.787558154956
 20
-8374.4802145698
 30
0.0
 11
-495.8987595535837
 21
-8374.784679711259
 31
0.0
  0
LINE
  5
1F4C
330
1F
100
AcDbEntity
  8
SPOJOVACÍ
  6
DASHED
100
AcDbLine
 10
-494.1576564984825
 20
-8374.110116224134
 30
0.0
 11
-495.5286612100572
 21
-8374.571371797667
 31
0.0
  0
LINE
  5
1F4D
330
1F
100
AcDbEntity
  8
SPOJOVACÍ
  6
DASHED
100
AcDbLine
 10
-494.1576564984825
 20
-8374.694434055578
 30
0.0
 11
-495.5286612100572
 21
-8375.155689629112
 31
0.0
  0
LINE
  5
1F4E
330
1F
100
AcDbEntity
  8
SPOJOVACÍ
  6
DASHED
100
AcDbLine
 10
-493.234233778694
 20
-8371.526720383046
 30
0.0
 11
-496.2880009167966
 21
-8372.14750110548
 31
0.0
  0
LINE
  5
1F4F
330
1F
100
AcDbEntity
  8
SPOJOVACÍ
  6
DASHED
100
AcDbLine
 10
-493.6043321264987
 20
-8371.155710464922
 30
0.0
 11
-495.9179025732701
 21
-8371.934193192153
 31
0.0
  0
LINE
  5
1F50
330
1F
100
AcDbEntity
  8
SPOJOVACÍ
  6
DASHED
100
AcDbLine
 10
-493.6043321264987
 20
-8371.740028296374
 30
0.0
 11
-495.9179025732701
 21
-8372.518511023335
 31
0.0
  0
LINE
  5
1F51
330
1F
100
AcDbEntity
  8
SPOJOVACÍ
  6
DASHED
100
AcDbLine
 10
-492.6809094067102
 20
-8368.572314623834
 30
0.0
 11
-496.7237324663983
 21
-8369.525819228492
 31
0.0
  0
LINE
  5
1F52
330
1F
100
AcDbEntity
  8
SPOJOVACÍ
  6
DASHED
100
AcDbLine
 10
-493.0519193240288
 20
-8368.202216278168
 30
0.0
 11
-496.3536341228718
 21
-8369.312511315165
 31
0.0
  0
LINE
  5
1F53
330
1F
100
AcDbEntity
  8
SPOJOVACÍ
  6
DASHED
100
AcDbLine
 10
-493.0519193240288
 20
-8368.78653410962
 30
0.0
 11
-496.3536341228718
 21
-8369.896829146616
 31
0.0
  0
LINE
  5
1F54
330
1F
100
AcDbEntity
  8
SPOJOVACÍ
  6
DASHED
100
AcDbLine
 10
-494.7839066540437
 20
-8377.791956662438
 30
0.0
 11
-495.13121569555
 21
-8375.012572781193
 31
0.0
  0
LINE
  5
1F55
330
1F
100
AcDbEntity
  8
SPOJOVACÍ
  6
DASHED
100
AcDbLine
 10
-495.534130639975
 20
-8371.791987916424
 30
0.0
 11
-495.7957518862058
 21
-8369.698106389627
 31
0.0
  0
LINE
  5
1F56
330
1F
100
AcDbEntity
  8
SPOJOVACÍ
  6
DASHED
100
AcDbLine
 10
-495.8987595535837
 20
-8374.784679711259
 30
0.0
 11
-495.5286612100572
 21
-8374.571371797667
 31
0.0
  0
LINE
  5
1F57
330
1F
100
AcDbEntity
  8
SPOJOVACÍ
  6
DASHED
100
AcDbLine
 10
-495.8987595535837
 20
-8374.784679711259
 30
0.0
 11
-495.5286612100572
 21
-8375.155689629112
 31
0.0
  0
LINE
  5
1F58
330
1F
100
AcDbEntity
  8
SPOJOVACÍ
  6
DASHED
100
AcDbLine
 10
-496.2880009167966
 20
-8372.14750110548
 30
0.0
 11
-495.9179025732701
 21
-8371.934193192153
 31
0.0
  0
LINE
  5
1F59
330
1F
100
AcDbEntity
  8
SPOJOVACÍ
  6
DASHED
100
AcDbLine
 10
-496.2880009167966
 20
-8372.14750110548
 30
0.0
 11
-495.9179025732701
 21
-8372.518511023335
 31
0.0
  0
LINE
  5
1F5A
330
1F
100
AcDbEntity
  8
SPOJOVACÍ
  6
DASHED
100
AcDbLine
 10
-495.2014067620293
 20
-8374.454690545869
 30
0.0
 11
-495.4639395777739
 21
-8372.352604868584
 31
0.0
  0
LINE
  5
1F5B
330
1F
100
AcDbEntity
  8
SPOJOVACÍ
  6
DASHED
100
AcDbLine
 10
-497.1357631359096
 20
-8366.732761763101
 30
0.0
 11
-496.7656647923831
 21
-8366.518542277313
 31
0.0
  0
LINE
  5
1F5C
330
1F
100
AcDbEntity
  8
SPOJOVACÍ
  6
DASHED
100
AcDbLine
 10
-497.1357631359096
 20
-8366.732761763101
 30
0.0
 11
-496.7656647923831
 21
-8367.102860108765
 31
0.0
  0
LINE
  5
1F5D
330
1F
100
AcDbEntity
  8
SPOJOVACÍ
  6
DASHED
100
AcDbLine
 10
-497.1357631359096
 20
-8363.674436764059
 30
0.0
 11
-496.7656647923831
 21
-8363.461128850731
 31
0.0
  0
LINE
  5
1F5E
330
1F
100
AcDbEntity
  8
SPOJOVACÍ
  6
DASHED
100
AcDbLine
 10
-497.1357631359096
 20
-8363.674436764059
 30
0.0
 11
-496.7656647923831
 21
-8364.045446681911
 31
0.0
  0
LINE
  5
1F5F
330
1F
100
AcDbEntity
  8
SPOJOVACÍ
  6
DASHED
100
AcDbLine
 10
-496.7237324663983
 20
-8369.525819228492
 30
0.0
 11
-496.3536341228718
 21
-8369.312511315165
 31
0.0
  0
LINE
  5
1F60
330
1F
100
AcDbEntity
  8
SPOJOVACÍ
  6
DASHED
100
AcDbLine
 10
-496.7237324663983
 20
-8369.525819228492
 30
0.0
 11
-496.3536341228718
 21
-8369.896829146616
 31
0.0
  0
LINE
  5
1F61
330
1F
100
AcDbEntity
  8
SPOJOVACÍ
  6
DASHED
100
AcDbLine
 10
-495.8659429526851
 20
-8369.139312581843
 30
0.0
 11
-496.1065980359235
 21
-8367.207690920784
 31
0.0
  0
LINE
  5
1F62
330
1F
100
AcDbEntity
  8
SPOJOVACÍ
  6
DASHED
100
AcDbLine
 10
-496.1065980359235
 20
-8366.877701755656
 30
0.0
 11
-496.1065980359235
 21
-8367.207690920784
 31
0.0
  0
LINE
  5
1F63
330
1F
100
AcDbEntity
  8
SPOJOVACÍ
  6
DASHED
100
AcDbLine
 10
-496.1065980359235
 20
-8363.817553611976
 30
0.0
 11
-496.1065980359235
 21
-8366.286091345903
 31
0.0
  0
LINE
  5
1F64
330
1F
100
AcDbEntity
  8
SPOJOVACÍ
  6
DASHED
100
AcDbLine
 10
-493.234233778694
 20
-8371.526720383046
 30
0.0
 11
-493.6043321264987
 21
-8371.740028296374
 31
0.0
  0
LINE
  5
1F65
330
1F
100
AcDbEntity
  8
SPOJOVACÍ
  6
DASHED
100
AcDbLine
 10
-493.787558154956
 20
-8374.4802145698
 30
0.0
 11
-494.1576564984825
 21
-8374.110116224134
 31
0.0
  0
LINE
  5
1F66
330
1F
100
AcDbEntity
  8
SPOJOVACÍ
  6
DASHED
100
AcDbLine
 10
-493.787558154956
 20
-8374.4802145698
 30
0.0
 11
-494.1576564984825
 21
-8374.694434055578
 31
0.0
  0
LINE
  5
1F67
330
1F
100
AcDbEntity
  8
SPOJOVACÍ
  6
DASHED
100
AcDbLine
 10
-494.4056041592229
 20
-8374.764625120988
 30
0.0
 11
-494.7839066540437
 21
-8377.791956662438
 31
0.0
  0
LINE
  5
1F68
330
1F
100
AcDbEntity
  8
SPOJOVACÍ
  6
DASHED
100
AcDbLine
 10
-494.0455331102966
 20
-8371.882233572103
 30
0.0
 11
-494.3299436585475
 21
-8374.156606410251
 31
0.0
  0
LINE
  5
1F69
330
1F
100
AcDbEntity
  8
SPOJOVACÍ
  6
DASHED
100
AcDbLine
 10
-492.4320501721776
 20
-8365.556833522168
 30
0.0
 11
-492.8021485199824
 21
-8365.185823604042
 31
0.0
  0
LINE
  5
1F6A
330
1F
100
AcDbEntity
  8
SPOJOVACÍ
  6
DASHED
100
AcDbLine
 10
-492.4320501721776
 20
-8365.556833522168
 30
0.0
 11
-492.8021485199824
 21
-8365.770141435495
 31
0.0
  0
LINE
  5
1F6B
330
1F
100
AcDbEntity
  8
SPOJOVACÍ
  6
DASHED
100
AcDbLine
 10
-493.234233778694
 20
-8371.526720383046
 30
0.0
 11
-493.6043321264987
 21
-8371.155710464922
 31
0.0
  0
LINE
  5
1F6C
330
1F
100
AcDbEntity
  8
SPOJOVACÍ
  6
DASHED
100
AcDbLine
 10
-492.6809094067102
 20
-8368.572314623834
 30
0.0
 11
-493.0519193240288
 21
-8368.202216278168
 31
0.0
  0
LINE
  5
1F6D
330
1F
100
AcDbEntity
  8
SPOJOVACÍ
  6
DASHED
100
AcDbLine
 10
-492.6809094067102
 20
-8368.572314623834
 30
0.0
 11
-493.0519193240288
 21
-8368.78653410962
 31
0.0
  0
LINE
  5
1F6E
330
1F
100
AcDbEntity
  8
SPOJOVACÍ
  6
DASHED
100
AcDbLine
 10
-493.6836389137861
 20
-8368.988903155889
 30
0.0
 11
-493.9680494663153
 21
-8371.264187566232
 31
0.0
  0
LINE
  5
1F6F
330
1F
100
AcDbEntity
  8
SPOJOVACÍ
  6
DASHED
100
AcDbLine
 10
-493.4612152764421
 20
-8367.207690920784
 30
0.0
 11
-493.6079784131107
 21
-8368.380884445151
 31
0.0
  0
LINE
  5
1F70
330
1F
100
AcDbEntity
  8
SPOJOVACÍ
  6
DASHED
100
AcDbLine
 10
-493.4612152764421
 20
-8365.985272493732
 30
0.0
 11
-493.4612152764421
 21
-8367.207690920784
 31
0.0
  0
LINE
  5
1F71
330
1F
100
AcDbEntity
  8
SPOJOVACÍ
  6
DASHED
100
AcDbLine
 10
-492.8021485199824
 20
-8359.070996750871
 30
0.0
 11
-496.7656647923831
 21
-8360.403715423878
 31
0.0
  0
LINE
  5
1F72
330
1F
100
AcDbEntity
  8
SPOJOVACÍ
  6
DASHED
100
AcDbLine
 10
-492.8021485199824
 20
-8359.655314582322
 30
0.0
 11
-496.7656647923831
 21
-8360.988033255322
 31
0.0
  0
LINE
  5
1F73
330
1F
100
AcDbEntity
  8
SPOJOVACÍ
  6
DASHED
100
AcDbLine
 10
-492.4320501721776
 20
-8359.441095096535
 30
0.0
 11
-497.1357631359096
 21
-8360.617023337468
 31
0.0
  0
LINE
  5
1F74
330
1F
100
AcDbEntity
  8
SPOJOVACÍ
  6
DASHED
100
AcDbLine
 10
-492.8021485199824
 20
-8356.013583324017
 30
0.0
 11
-496.7656647923831
 21
-8357.3453904251
 31
0.0
  0
LINE
  5
1F75
330
1F
100
AcDbEntity
  8
SPOJOVACÍ
  6
DASHED
100
AcDbLine
 10
-492.8021485199824
 20
-8356.597901155469
 30
0.0
 11
-496.7656647923831
 21
-8357.92970825628
 31
0.0
  0
LINE
  5
1F76
330
1F
100
AcDbEntity
  8
SPOJOVACÍ
  6
DASHED
100
AcDbLine
 10
-492.4320501721776
 20
-8356.383681669681
 30
0.0
 11
-497.1357631359096
 21
-8357.559609910886
 31
0.0
  0
LINE
  5
1F77
330
1F
100
AcDbEntity
  8
SPOJOVACÍ
  6
DASHED
100
AcDbLine
 10
-492.8021485199824
 20
-8352.955258325247
 30
0.0
 11
-496.7656647923831
 21
-8354.287976998246
 31
0.0
  0
LINE
  5
1F78
330
1F
100
AcDbEntity
  8
SPOJOVACÍ
  6
DASHED
100
AcDbLine
 10
-492.8021485199824
 20
-8353.539576156427
 30
0.0
 11
-496.7656647923831
 21
-8354.872294829698
 31
0.0
  0
LINE
  5
1F79
330
1F
100
AcDbEntity
  8
SPOJOVACÍ
  6
DASHED
100
AcDbLine
 10
-492.4320501721776
 20
-8353.326268243099
 30
0.0
 11
-497.1357631359096
 21
-8354.502196484032
 31
0.0
  0
LINE
  5
1F7A
330
1F
100
AcDbEntity
  8
SPOJOVACÍ
  6
DASHED
100
AcDbLine
 10
-497.1357631359096
 20
-8354.502196484032
 30
0.0
 11
-496.7656647923831
 21
-8354.872294829698
 31
0.0
  0
LINE
  5
1F7B
330
1F
100
AcDbEntity
  8
SPOJOVACÍ
  6
DASHED
100
AcDbLine
 10
-497.1357631359096
 20
-8360.617023337468
 30
0.0
 11
-496.7656647923831
 21
-8360.403715423878
 31
0.0
  0
LINE
  5
1F7C
330
1F
100
AcDbEntity
  8
SPOJOVACÍ
  6
DASHED
100
AcDbLine
 10
-497.1357631359096
 20
-8360.617023337468
 30
0.0
 11
-496.7656647923831
 21
-8360.988033255322
 31
0.0
  0
LINE
  5
1F7D
330
1F
100
AcDbEntity
  8
SPOJOVACÍ
  6
DASHED
100
AcDbLine
 10
-497.1357631359096
 20
-8357.559609910886
 30
0.0
 11
-496.7656647923831
 21
-8357.3453904251
 31
0.0
  0
LINE
  5
1F7E
330
1F
100
AcDbEntity
  8
SPOJOVACÍ
  6
DASHED
100
AcDbLine
 10
-497.1357631359096
 20
-8357.559609910886
 30
0.0
 11
-496.7656647923831
 21
-8357.92970825628
 31
0.0
  0
LINE
  5
1F7F
330
1F
100
AcDbEntity
  8
SPOJOVACÍ
  6
DASHED
100
AcDbLine
 10
-496.1065980359235
 20
-8357.69816889733
 30
0.0
 11
-496.1065980359235
 21
-8360.175822353943
 31
0.0
  0
LINE
  5
1F80
330
1F
100
AcDbEntity
  8
SPOJOVACÍ
  6
DASHED
100
AcDbLine
 10
-496.1065980359235
 20
-8354.64531333195
 30
0.0
 11
-496.1065980359235
 21
-8357.113851065879
 31
0.0
  0
LINE
  5
1F81
330
1F
100
AcDbEntity
  8
SPOJOVACÍ
  6
DASHED
100
AcDbLine
 10
-497.1357631359096
 20
-8354.502196484032
 30
0.0
 11
-496.7656647923831
 21
-8354.287976998246
 31
0.0
  0
LINE
  5
1F82
330
1F
100
AcDbEntity
  8
SPOJOVACÍ
  6
DASHED
100
AcDbLine
 10
-496.1065980359235
 20
-8349.209607827111
 30
0.0
 11
-496.1065980359235
 21
-8354.053702922461
 31
0.0
  0
LINE
  5
1F83
330
1F
100
AcDbEntity
  8
SPOJOVACÍ
  6
DASHED
100
AcDbLine
 10
-496.1065980359235
 20
-8349.209607827111
 30
0.0
 11
-496.3290216689893
 21
-8347.71645243275
 31
0.0
  0
LINE
  5
1F84
330
1F
100
AcDbEntity
  8
SPOJOVACÍ
  6
DASHED
100
AcDbLine
 10
-496.3290216689893
 20
-8347.71645243275
 30
0.0
 11
-496.9297478011539
 21
-8346.33086256724
 31
0.0
  0
LINE
  5
1F85
330
1F
100
AcDbEntity
  8
SPOJOVACÍ
  6
DASHED
100
AcDbLine
 10
-493.4612152764421
 20
-8353.75014935319
 30
0.0
 11
-493.4612152764421
 21
-8356.218687087119
 31
0.0
  0
LINE
  5
1F86
330
1F
100
AcDbEntity
  8
SPOJOVACÍ
  6
DASHED
100
AcDbLine
 10
-492.4320501721776
 20
-8362.498508523126
 30
0.0
 11
-492.8021485199824
 21
-8362.12841017746
 31
0.0
  0
LINE
  5
1F87
330
1F
100
AcDbEntity
  8
SPOJOVACÍ
  6
DASHED
100
AcDbLine
 10
-492.4320501721776
 20
-8362.498508523126
 30
0.0
 11
-492.8021485199824
 21
-8362.712728008904
 31
0.0
  0
LINE
  5
1F88
330
1F
100
AcDbEntity
  8
SPOJOVACÍ
  6
DASHED
100
AcDbLine
 10
-492.4320501721776
 20
-8359.441095096535
 30
0.0
 11
-492.8021485199824
 21
-8359.070996750871
 31
0.0
  0
LINE
  5
1F89
330
1F
100
AcDbEntity
  8
SPOJOVACÍ
  6
DASHED
100
AcDbLine
 10
-492.4320501721776
 20
-8359.441095096535
 30
0.0
 11
-492.8021485199824
 21
-8359.655314582322
 31
0.0
  0
LINE
  5
1F8A
330
1F
100
AcDbEntity
  8
SPOJOVACÍ
  6
DASHED
100
AcDbLine
 10
-492.4320501721776
 20
-8356.383681669681
 30
0.0
 11
-492.8021485199824
 21
-8356.013583324017
 31
0.0
  0
LINE
  5
1F8B
330
1F
100
AcDbEntity
  8
SPOJOVACÍ
  6
DASHED
100
AcDbLine
 10
-492.4320501721776
 20
-8356.383681669681
 30
0.0
 11
-492.8021485199824
 21
-8356.597901155469
 31
0.0
  0
LINE
  5
1F8C
330
1F
100
AcDbEntity
  8
SPOJOVACÍ
  6
DASHED
100
AcDbLine
 10
-493.4612152764421
 20
-8359.863153061988
 30
0.0
 11
-493.4612152764421
 21
-8362.3408065186
 31
0.0
  0
LINE
  5
1F8D
330
1F
100
AcDbEntity
  8
SPOJOVACÍ
  6
DASHED
100
AcDbLine
 10
-493.4612152764421
 20
-8356.810297496608
 30
0.0
 11
-493.4612152764421
 21
-8359.280658375181
 31
0.0
  0
LINE
  5
1F8E
330
1F
100
AcDbEntity
  8
SPOJOVACÍ
  6
DASHED
100
AcDbLine
 10
-492.4320501721776
 20
-8353.326268243099
 30
0.0
 11
-492.8021485199824
 21
-8352.955258325247
 31
0.0
  0
LINE
  5
1F8F
330
1F
100
AcDbEntity
  8
SPOJOVACÍ
  6
DASHED
100
AcDbLine
 10
-492.4320501721776
 20
-8353.326268243099
 30
0.0
 11
-492.8021485199824
 21
-8353.539576156427
 31
0.0
  0
LINE
  5
1F90
330
1F
100
AcDbEntity
  8
SPOJOVACÍ
  6
DASHED
100
AcDbLine
 10
-493.4612152764421
 20
-8349.209607827111
 30
0.0
 11
-493.4612152764421
 21
-8353.166743094197
 31
0.0
  0
LINE
  5
1F91
330
1F
100
AcDbEntity
  8
SPOJOVACÍ
  6
DASHED
100
AcDbLine
 10
-492.9771703971455
 20
-8346.987194608741
 30
0.0
 11
-493.3964936441589
 21
-8348.438417678451
 31
0.0
  0
LINE
  5
1F92
330
1F
100
AcDbEntity
  8
SPOJOVACÍ
  6
DASHED
100
AcDbLine
 10
-493.3964936441589
 20
-8348.438417678451
 30
0.0
 11
-493.4612152764421
 21
-8349.209607827111
 31
0.0
  0
LINE
  5
1F93
330
1F
100
AcDbEntity
  8
izolace
100
AcDbLine
 10
-504.6655370309672
 20
-8341.738326116113
 30
0.0
 11
-516.2164096282721
 21
-8341.738326116113
 31
0.0
  0
LINE
  5
1F94
330
1F
100
AcDbEntity
  8
izolace
100
AcDbLine
 10
-504.6655370309672
 20
-8340.800634389404
 30
0.0
 11
-515.1544781157572
 21
-8340.800634389404
 31
0.0
  0
HATCH
  5
1F95
330
1F
100
AcDbEntity
  8
izolace
100
AcDbHatch
 10
0.0
 20
0.0
 30
0.0
210
0.0
220
0.0
230
1.0
  2
SOLID
 70
     1
 71
     0
 91
        1
 92
        7
 72
     0
 73
     1
 93
       12
 10
-515.1544781157567
 20
-8335.781753112978
 10
-524.227845391018
 20
-8335.78175311298
 10
-524.227845391018
 20
-8340.800634389404
 10
-534.716786475808
 20
-8340.800634389404
 10
-534.716786475808
 20
-8341.738326116113
 10
-523.165913878503
 20
-8341.738326116113
 10
-523.165913878503
 20
-8336.877533760402
 10
-516.2164096282717
 20
-8336.877533760404
 10
-516.2164096282681
 20
-8341.738326116113
 10
-504.6655370309667
 20
-8341.738326116113
 10
-504.6655370309704
 20
-8340.800634389404
 10
-515.1544781157567
 20
-8340.800634389404
 97
        0
 75
     0
 76
     1
 47
0.1079746841384943
 98
        1
 10
-522.6402399546928
 20
-8336.2091413611
  0
LINE
  5
1F96
330
1F
100
AcDbEntity
  8
izolace
100
AcDbLine
 10
-534.7167864758084
 20
-8340.800634389404
 30
0.0
 11
-524.2278453910184
 21
-8340.800634389404
 31
0.0
  0
LINE
  5
1F97
330
1F
100
AcDbEntity
  8
izolace
100
AcDbLine
 10
-534.7167864758084
 20
-8341.738326116113
 30
0.0
 11
-523.1659138785034
 21
-8341.738326116113
 31
0.0
  0
LINE
  5
1F98
330
1F
100
AcDbEntity
  8
SPOJOVACÍ
  6
DASHED
100
AcDbLine
 10
-539.6002660418708
 20
-8342.742002501445
 30
0.0
 11
-539.6002660418708
 21
-8343.917930742643
 31
0.0
  0
LINE
  5
1F99
330
1F
100
AcDbEntity
  8
SPOJOVACÍ
  6
DASHED
100
AcDbLine
 10
-540.3012651243152
 20
-8344.247919907768
 30
0.0
 11
-539.6002660418708
 21
-8343.917930742643
 31
0.0
  0
LINE
  5
1F9A
330
1F
100
AcDbEntity
  8
izolace
100
AcDbLine
 10
-534.7167864758084
 20
-8341.738326116113
 30
0.0
 11
-534.7167864758084
 21
-8340.800634389404
 31
0.0
  0
LINE
  5
1F9B
330
1F
100
AcDbEntity
  8
nášlap_vrstvy
100
AcDbLine
 10
-525.0099214098627
 20
-8340.120242138928
 30
0.0
 11
-525.0099214098627
 21
-8335.78175311298
 31
0.0
  0
LINE
  5
1F9C
330
1F
100
AcDbEntity
  8
nášlap_vrstvy
100
AcDbLine
 10
-514.372402096913
 20
-8335.78175311298
 30
0.0
 11
-514.372402096913
 21
-8340.120242138928
 31
0.0
  0
LINE
  5
1F9D
330
1F
100
AcDbEntity
  8
izolace
100
AcDbLine
 10
-523.1659138785034
 20
-8336.877533760402
 30
0.0
 11
-523.1659138785034
 21
-8341.738326116113
 31
0.0
  0
LINE
  5
1F9E
330
1F
100
AcDbEntity
  8
izolace
100
AcDbLine
 10
-524.2278453910184
 20
-8335.78175311298
 30
0.0
 11
-524.2278453910184
 21
-8340.800634389404
 31
0.0
  0
LINE
  5
1F9F
330
1F
100
AcDbEntity
  8
izolace
100
AcDbLine
 10
-515.1544781157572
 20
-8335.781753112978
 30
0.0
 11
-515.1544781157572
 21
-8340.800634389404
 31
0.0
  0
LINE
  5
1FA0
330
1F
100
AcDbEntity
  8
izolace
100
AcDbLine
 10
-516.2164096282721
 20
-8336.877533760404
 30
0.0
 11
-516.2164096282721
 21
-8341.738326116113
 31
0.0
  0
LINE
  5
1FA1
330
1F
100
AcDbEntity
  8
nášlap_vrstvy
100
AcDbLine
 10
-514.372402096913
 20
-8340.120242138928
 30
0.0
 11
-514.372402096913
 21
-8335.78175311298
 31
0.0
  0
INSERT
  5
1FA2
330
1F
100
AcDbEntity
  8
POPIS
100
AcDbBlockReference
  2
E_PUNKT
 10
-520.2321358004519
 20
-8334.089219306383
 30
0.0
 50
270.0
  0
LINE
  5
1FA3
330
1F
100
AcDbEntity
  8
izolace
100
AcDbLine
 10
-524.2278453910184
 20
-8335.78175311298
 30
0.0
 11
-515.1544781157572
 21
-8335.781753112978
 31
0.0
  0
LINE
  5
1FA4
330
1F
100
AcDbEntity
  8
izolace
100
AcDbLine
 10
-523.1659138785034
 20
-8336.877533760402
 30
0.0
 11
-516.2164096282721
 21
-8336.877533760404
 31
0.0
  0
LINE
  5
1FA5
330
1F
100
AcDbEntity
  8
SPOJOVACÍ
  6
DASHED
100
AcDbLine
 10
-489.7857558431824
 20
-8343.917930742643
 30
0.0
 11
-499.7820574649049
 21
-8343.917930742643
 31
0.0
  0
LINE
  5
1FA6
330
1F
100
AcDbEntity
  8
SPOJOVACÍ
  6
DASHED
100
AcDbLine
 10
-489.7857558431824
 20
-8342.742002501445
 30
0.0
 11
-499.7820574649049
 21
-8342.742002501445
 31
0.0
  0
LINE
  5
1FA7
330
1F
100
AcDbEntity
  8
izolace
100
AcDbLine
 10
-504.6655370309672
 20
-8341.738326116113
 30
0.0
 11
-504.6655370309672
 21
-8340.800634389404
 31
0.0
  0
LINE
  5
1FA8
330
1F
100
AcDbEntity
  8
SPOJOVACÍ
  6
DASHED
100
AcDbLine
 10
-497.8686672497388
 20
-8345.147641748001
 30
0.0
 11
-499.0810583824604
 21
-8344.247919907768
 31
0.0
  0
LINE
  5
1FA9
330
1F
100
AcDbEntity
  8
SPOJOVACÍ
  6
DASHED
100
AcDbLine
 10
-499.0810583824604
 20
-8344.247919907768
 30
0.0
 11
-499.7820574649049
 21
-8343.917930742643
 31
0.0
  0
LINE
  5
1FAA
330
1F
100
AcDbEntity
  8
SPOJOVACÍ
  6
DASHED
100
AcDbLine
 10
-499.7820574649049
 20
-8342.742002501445
 30
0.0
 11
-499.7820574649049
 21
-8343.917930742643
 31
0.0
  0
LINE
  5
1FAB
330
1F
100
AcDbEntity
  8
SPOJOVACÍ
  6
DASHED
100
AcDbLine
 10
-489.7857558431824
 20
-8343.917930742643
 30
0.0
 11
-491.1084472250622
 21
-8344.647188566387
 31
0.0
  0
LINE
  5
1FAC
330
1F
100
AcDbEntity
  8
SPOJOVACÍ
  6
DASHED
100
AcDbLine
 10
-491.1084472250622
 20
-8344.647188566387
 30
0.0
 11
-492.1968645274136
 21
-8345.694585116012
 31
0.0
  0
LINE
  5
1FAD
330
1F
100
AcDbEntity
  8
SPOJOVACÍ
  6
DASHED
100
AcDbLine
 10
-489.7857558431824
 20
-8342.742002501445
 30
0.0
 11
-489.7857558431824
 21
-8343.917930742643
 31
0.0
  0
LINE
  5
1FAE
330
1F
100
AcDbEntity
  8
POPIS
370
    20
100
AcDbLine
 10
-377.9176625361824
 20
-8534.357597081827
 30
0.0
 11
-377.9176625361833
 21
-8397.733529987787
 31
0.0
  0
LINE
  5
1FAF
330
1F
100
AcDbEntity
  8
POPIS
370
    20
100
AcDbLine
 10
-457.4327503966851
 20
-8534.357597081827
 30
0.0
 11
-457.4327503966851
 21
-8413.176616021303
 31
0.0
  0
LWPOLYLINE
  5
1FB3
330
1F
100
AcDbEntity
  8
izolace
100
AcDbPolyline
 90
        4
 70
     1
 43
0.0
 10
-398.5143659830059
 20
-8486.742002501445
 10
-422.1560986928412
 20
-8486.742002501445
 10
-422.1560986928412
 20
-8489.742002501445
 10
-398.5143659830059
 20
-8489.742002501445
  0
HATCH
  5
1FB4
330
1F
100
AcDbEntity
  8
izolace
100
AcDbHatch
 10
0.0
 20
0.0
 30
0.0
210
0.0
220
0.0
230
1.0
  2
SOLID
 70
     1
 71
     0
 91
        1
 92
        7
 72
     0
 73
     1
 93
        4
 10
-422.1560986928412
 20
-8486.742002501445
 10
-422.1560986928375
 20
-8489.742002501445
 10
-398.5143659830023
 20
-8489.742002501445
 10
-398.5143659830132
 20
-8486.742002501445
 97
        0
 75
     0
 76
     1
 47
0.1901250437635136
 98
        1
 10
-412.7983039344976
 20
-8487.558814052524
  0
LWPOLYLINE
  5
1FB5
330
1F
100
AcDbEntity
  8
izolace
100
AcDbPolyline
 90
        4
 70
     1
 43
0.0
 10
-445.7978314026763
 20
-8486.742002501445
 10
-469.4395641125115
 20
-8486.742002501445
 10
-469.4395641125115
 20
-8489.742002501445
 10
-445.7978314026763
 20
-8489.742002501445
  0
HATCH
  5
1FB6
330
1F
100
AcDbEntity
  8
izolace
100
AcDbHatch
 10
0.0
 20
0.0
 30
0.0
210
0.0
220
0.0
230
1.0
  2
SOLID
 70
     1
 71
     0
 91
        1
 92
        7
 72
     0
 73
     1
 93
        4
 10
-469.4395641125079
 20
-8486.742002501445
 10
-469.4395641125079
 20
-8489.742002501445
 10
-445.7978314026727
 20
-8489.742002501445
 10
-445.7978314026727
 20
-8486.742002501445
 97
        0
 75
     0
 76
     1
 47
0.1901250437635136
 98
        1
 10
-460.081769354168
 20
-8487.558814052524
  0
INSERT
  5
1FB8
330
1F
100
AcDbEntity
  8
POPIS
100
AcDbBlockReference
  2
E_PUNKT
 10
-424.2741152999769
 20
-8334.089219306383
 30
0.0
 50
270.0
  0
INSERT
  5
1FBA
330
1F
100
AcDbEntity
  8
POPIS
100
AcDbBlockReference
  2
E_PUNKT
 10
-372.2002892741802
 20
-8349.768577455888
 30
0.0
 50
270.0
  0
TEXT
  5
1FBB
330
1F
100
AcDbEntity
  8
POPIS
100
AcDbText
 10
-543.04234136802
 20
-8261.599182675535
 30
0.0
 40
25.0
  1
01
 41
0.85
  7
SIMPLEX7
100
AcDbText
  0
TEXT
  5
1FBC
330
1F
100
AcDbEntity
  8
POPIS
100
AcDbText
 10
-395.4675321378072
 20
-8261.599182675535
 30
0.0
 40
25.0
  1
04
 41
0.85
  7
SIMPLEX7
100
AcDbText
  0
TEXT
  5
1FBD
330
1F
100
AcDbEntity
  8
POPIS
100
AcDbText
 10
-449.5200811285631
 20
-8261.599182675535
 30
0.0
 40
25.0
  1
02
 41
0.85
  7
SIMPLEX7
100
AcDbText
  0
LINE
  5
1FBE
330
1F
100
AcDbEntity
  8
POPIS
370
    20
100
AcDbLine
 10
-276.2003906648533
 20
-8270.448543748258
 30
0.0
 11
-276.2003906648533
 21
-8349.796187831517
 31
0.0
  0
LINE
  5
1FBF
330
1F
100
AcDbEntity
  8
POPIS
370
    20
100
AcDbLine
 10
-325.2889061291389
 20
-8270.448543748258
 30
0.0
 11
-325.2889061291389
 21
-8360.187299937136
 31
0.0
  0
LINE
  5
1FC0
330
1F
100
AcDbEntity
  8
SPOJOVACÍ
  6
DASHED
100
AcDbLine
 10
-232.1058681721988
 20
-8344.647188566387
 30
0.0
 11
-231.0174508698473
 21
-8345.694585116012
 31
0.0
  0
LINE
  5
1FC1
330
1F
100
AcDbEntity
  8
SPOJOVACÍ
  6
DASHED
100
AcDbLine
 10
-233.4285595540786
 20
-8343.917930742643
 30
0.0
 11
-223.4322579323561
 21
-8343.917930742643
 31
0.0
  0
LINE
  5
1FC2
330
1F
100
AcDbEntity
  8
SPOJOVACÍ
  6
DASHED
100
AcDbLine
 10
-233.4285595540786
 20
-8342.742002501445
 30
0.0
 11
-223.4322579323561
 21
-8342.742002501445
 31
0.0
  0
LINE
  5
1FC3
330
1F
100
AcDbEntity
  8
POPIS
370
    20
100
AcDbLine
 10
-323.2768340131369
 20
-8534.357597081827
 30
0.0
 11
-323.2768340131369
 21
-8460.469065455583
 31
0.0
  0
INSERT
  5
1FC4
330
1F
100
AcDbEntity
  8
POPIS
100
AcDbBlockReference
  2
E_PUNKT
 10
-323.3059023440109
 20
-8461.130898897941
 30
0.0
 50
270.0
  0
HATCH
  5
1FC5
330
1F
100
AcDbEntity
  8
izolace
100
AcDbHatch
 10
0.0
 20
0.0
 30
0.0
210
0.0
220
0.0
230
1.0
  2
SOLID
 70
     1
 71
     0
 91
        1
 92
        7
 72
     0
 73
     1
 93
        4
 10
-327.5891678535003
 20
-8486.742002501445
 10
-327.5891678534967
 20
-8489.742002501445
 10
-303.9474351436615
 20
-8489.742002501445
 10
-303.9474351436615
 20
-8486.742002501445
 97
        0
 75
     0
 76
     1
 47
0.1901250437635136
 98
        1
 10
-318.2313730951568
 20
-8487.558814052524
  0
LWPOLYLINE
  5
1FC6
330
1F
100
AcDbEntity
  8
izolace
100
AcDbPolyline
 90
        4
 70
     1
 43
0.0
 10
-303.9474351436652
 20
-8486.742002501445
 10
-327.5891678535003
 20
-8486.742002501445
 10
-327.5891678535003
 20
-8489.742002501445
 10
-303.9474351436652
 20
-8489.742002501445
  0
LINE
  5
1FC7
330
1F
100
AcDbEntity
  8
POPIS
370
    20
100
AcDbLine
 10
-276.3508991467606
 20
-8534.357597081827
 30
0.0
 11
-276.3508991467606
 21
-8490.69147871482
 31
0.0
  0
HATCH
  5
1FC8
330
1F
100
AcDbEntity
  8
izolace
100
AcDbHatch
 10
0.0
 20
0.0
 30
0.0
210
0.0
220
0.0
230
1.0
  2
SOLID
 70
     1
 71
     0
 91
        1
 92
        7
 72
     0
 73
     1
 93
        4
 10
-280.30570243383
 20
-8486.742002501445
 10
-280.3057024338263
 20
-8489.742002501445
 10
-256.6639697239911
 20
-8489.742002501445
 10
-256.6639697239911
 20
-8486.742002501445
 97
        0
 75
     0
 76
     1
 47
0.1901250437635136
 98
        1
 10
-270.9479076754864
 20
-8487.558814052524
  0
LWPOLYLINE
  5
1FC9
330
1F
100
AcDbEntity
  8
izolace
100
AcDbPolyline
 90
        4
 70
     1
 43
0.0
 10
-256.6639697239947
 20
-8486.742002501445
 10
-280.30570243383
 20
-8486.742002501445
 10
-280.30570243383
 20
-8489.742002501445
 10
-256.6639697239947
 20
-8489.742002501445
  0
HATCH
  5
1FCA
330
1F
100
AcDbEntity
  8
izolace
100
AcDbHatch
 10
0.0
 20
0.0
 30
0.0
210
0.0
220
0.0
230
1.0
  2
SOLID
 70
     1
 71
     0
 91
        1
 92
        7
 72
     0
 73
     1
 93
        4
 10
-287.1075460348833
 20
-8486.742002501445
 10
-287.1075460348797
 20
-8489.742002501445
 10
-263.4658133250445
 20
-8489.742002501445
 10
-263.4658133250445
 20
-8486.742002501445
 97
        0
 75
     0
 76
     1
 47
0.1901250437635136
 98
        1
 10
-277.7497512765398
 20
-8487.558814052524
  0
LWPOLYLINE
  5
1FCB
330
1F
100
AcDbEntity
  8
izolace
100
AcDbPolyline
 90
        4
 70
     1
 43
0.0
 10
-263.4658133250482
 20
-8486.742002501445
 10
-287.1075460348833
 20
-8486.742002501445
 10
-287.1075460348833
 20
-8489.742002501445
 10
-263.4658133250482
 20
-8489.742002501445
  0
INSERT
  5
1FCC
330
1F
100
AcDbEntity
  8
POPIS
100
AcDbBlockReference
  2
E_PUNKT
 10
-325.3179744600129
 20
-8361.40968956151
 30
0.0
 50
270.0
  0
LINE
  5
1FCD
330
1F
100
AcDbEntity
  8
SPOJOVACÍ
  6
DASHED
100
AcDbLine
 10
-278.5150568218778
 20
-8346.33086256724
 30
0.0
 11
-279.4539762704626
 21
-8345.147641748001
 31
0.0
  0
LINE
  5
1FCE
330
1F
100
AcDbEntity
  8
SPOJOVACÍ
  6
DASHED
100
AcDbLine
 10
-273.7821735481375
 20
-8345.694585116012
 30
0.0
 11
-274.5624794178693
 21
-8346.987194608741
 31
0.0
  0
LINE
  5
1FCF
330
1F
100
AcDbEntity
  8
CETRIS
100
AcDbLine
 10
-252.3998122089924
 20
-8342.742002501447
 30
0.0
 11
-252.3998122089924
 21
-8354.742002501446
 31
0.0
  0
LINE
  5
1FD0
330
1F
100
AcDbEntity
  8
SPOJOVACÍ
  6
DASHED
100
AcDbLine
 10
-277.6919070566473
 20
-8360.758317040746
 30
0.0
 11
-277.6919070566473
 21
-8363.228677919321
 31
0.0
  0
LINE
  5
1FD1
330
1F
100
AcDbEntity
  8
SPOJOVACÍ
  6
DASHED
100
AcDbLine
 10
-275.0465242971658
 20
-8362.93332850054
 30
0.0
 11
-275.0465242971658
 21
-8365.40095466228
 31
0.0
  0
LINE
  5
1FD2
330
1F
100
AcDbEntity
  8
SPOJOVACÍ
  6
DASHED
100
AcDbLine
 10
-274.0173591929015
 20
-8362.498508523126
 30
0.0
 11
-278.7210721566334
 21
-8363.674436764059
 31
0.0
  0
LINE
  5
1FD3
330
1F
100
AcDbEntity
  8
SPOJOVACÍ
  6
DASHED
100
AcDbLine
 10
-274.3874575407062
 20
-8362.712728008904
 30
0.0
 11
-278.3509738131069
 21
-8364.045446681911
 31
0.0
  0
LINE
  5
1FD4
330
1F
100
AcDbEntity
  8
SPOJOVACÍ
  6
DASHED
100
AcDbLine
 10
-274.3874575407062
 20
-8362.12841017746
 30
0.0
 11
-278.3509738131069
 21
-8363.461128850731
 31
0.0
  0
LINE
  5
1FD5
330
1F
100
AcDbEntity
  8
SPOJOVACÍ
  6
DASHED
100
AcDbLine
 10
-274.0173591929015
 20
-8365.556833522168
 30
0.0
 11
-278.7210721566334
 21
-8366.732761763101
 31
0.0
  0
LINE
  5
1FD6
330
1F
100
AcDbEntity
  8
SPOJOVACÍ
  6
DASHED
100
AcDbLine
 10
-274.3874575407062
 20
-8365.770141435495
 30
0.0
 11
-278.3509738131069
 21
-8367.102860108765
 31
0.0
  0
LINE
  5
1FD7
330
1F
100
AcDbEntity
  8
SPOJOVACÍ
  6
DASHED
100
AcDbLine
 10
-274.3874575407062
 20
-8365.185823604042
 30
0.0
 11
-278.3509738131069
 21
-8366.518542277313
 31
0.0
  0
LINE
  5
1FD8
330
1F
100
AcDbEntity
  8
SPOJOVACÍ
  6
DASHED
100
AcDbLine
 10
-278.7210721566334
 20
-8363.674436764059
 30
0.0
 11
-278.3509738131069
 21
-8364.045446681911
 31
0.0
  0
LINE
  5
1FD9
330
1F
100
AcDbEntity
  8
SPOJOVACÍ
  6
DASHED
100
AcDbLine
 10
-278.7210721566334
 20
-8363.674436764059
 30
0.0
 11
-278.3509738131069
 21
-8363.461128850731
 31
0.0
  0
LINE
  5
1FDA
330
1F
100
AcDbEntity
  8
SPOJOVACÍ
  6
DASHED
100
AcDbLine
 10
-278.7210721566334
 20
-8366.732761763101
 30
0.0
 11
-278.3509738131069
 21
-8367.102860108765
 31
0.0
  0
LINE
  5
1FDB
330
1F
100
AcDbEntity
  8
SPOJOVACÍ
  6
DASHED
100
AcDbLine
 10
-278.7210721566334
 20
-8366.732761763101
 30
0.0
 11
-278.3509738131069
 21
-8366.518542277313
 31
0.0
  0
LINE
  5
1FDC
330
1F
100
AcDbEntity
  8
SPOJOVACÍ
  6
DASHED
100
AcDbLine
 10
-277.1194396606988
 20
-8371.791987916424
 30
0.0
 11
-277.3810609069296
 21
-8369.698106389627
 31
0.0
  0
LINE
  5
1FDD
330
1F
100
AcDbEntity
  8
SPOJOVACÍ
  6
DASHED
100
AcDbLine
 10
-274.8195427994178
 20
-8371.526720383046
 30
0.0
 11
-275.1896411472225
 21
-8371.740028296374
 31
0.0
  0
LINE
  5
1FDE
330
1F
100
AcDbEntity
  8
SPOJOVACÍ
  6
DASHED
100
AcDbLine
 10
-275.1896411472225
 20
-8371.155710464922
 30
0.0
 11
-277.5032115939939
 21
-8371.934193192153
 31
0.0
  0
LINE
  5
1FDF
330
1F
100
AcDbEntity
  8
SPOJOVACÍ
  6
DASHED
100
AcDbLine
 10
-274.8195427994178
 20
-8371.526720383046
 30
0.0
 11
-277.8733099375203
 21
-8372.14750110548
 31
0.0
  0
LINE
  5
1FE0
330
1F
100
AcDbEntity
  8
SPOJOVACÍ
  6
DASHED
100
AcDbLine
 10
-276.3692156747674
 20
-8377.791956662438
 30
0.0
 11
-276.7165247162738
 21
-8375.012572781193
 31
0.0
  0
LINE
  5
1FE1
330
1F
100
AcDbEntity
  8
SPOJOVACÍ
  6
DASHED
100
AcDbLine
 10
-275.6308421310204
 20
-8371.882233572103
 30
0.0
 11
-275.9152526792713
 21
-8374.156606410251
 31
0.0
  0
LINE
  5
1FE2
330
1F
100
AcDbEntity
  8
SPOJOVACÍ
  6
DASHED
100
AcDbLine
 10
-275.9909131799468
 20
-8374.764625120988
 30
0.0
 11
-276.3692156747674
 21
-8377.791956662438
 31
0.0
  0
LINE
  5
1FE3
330
1F
100
AcDbEntity
  8
SPOJOVACÍ
  6
DASHED
100
AcDbLine
 10
-276.7867157827531
 20
-8374.454690545869
 30
0.0
 11
-277.0492485984977
 21
-8372.352604868584
 31
0.0
  0
LINE
  5
1FE4
330
1F
100
AcDbEntity
  8
SPOJOVACÍ
  6
DASHED
100
AcDbLine
 10
-277.8733099375203
 20
-8372.14750110548
 30
0.0
 11
-277.5032115939939
 21
-8372.518511023335
 31
0.0
  0
LINE
  5
1FE5
330
1F
100
AcDbEntity
  8
SPOJOVACÍ
  6
DASHED
100
AcDbLine
 10
-277.8733099375203
 20
-8372.14750110548
 30
0.0
 11
-277.5032115939939
 21
-8371.934193192153
 31
0.0
  0
LINE
  5
1FE6
330
1F
100
AcDbEntity
  8
SPOJOVACÍ
  6
DASHED
100
AcDbLine
 10
-275.1896411472225
 20
-8371.740028296374
 30
0.0
 11
-277.5032115939939
 21
-8372.518511023335
 31
0.0
  0
LINE
  5
1FE7
330
1F
100
AcDbEntity
  8
SPOJOVACÍ
  6
DASHED
100
AcDbLine
 10
-275.3728671756798
 20
-8374.4802145698
 30
0.0
 11
-275.7429655192063
 21
-8374.694434055578
 31
0.0
  0
LINE
  5
1FE8
330
1F
100
AcDbEntity
  8
SPOJOVACÍ
  6
DASHED
100
AcDbLine
 10
-275.3728671756798
 20
-8374.4802145698
 30
0.0
 11
-275.7429655192063
 21
-8374.110116224134
 31
0.0
  0
LINE
  5
1FE9
330
1F
100
AcDbEntity
  8
SPOJOVACÍ
  6
DASHED
100
AcDbLine
 10
-277.4840685743074
 20
-8374.784679711259
 30
0.0
 11
-277.1139702307809
 21
-8375.155689629112
 31
0.0
  0
LINE
  5
1FEA
330
1F
100
AcDbEntity
  8
SPOJOVACÍ
  6
DASHED
100
AcDbLine
 10
-277.4840685743074
 20
-8374.784679711259
 30
0.0
 11
-277.1139702307809
 21
-8374.571371797667
 31
0.0
  0
LINE
  5
1FEB
330
1F
100
AcDbEntity
  8
SPOJOVACÍ
  6
DASHED
100
AcDbLine
 10
-275.7429655192063
 20
-8374.694434055578
 30
0.0
 11
-277.1139702307809
 21
-8375.155689629112
 31
0.0
  0
LINE
  5
1FEC
330
1F
100
AcDbEntity
  8
SPOJOVACÍ
  6
DASHED
100
AcDbLine
 10
-275.7429655192063
 20
-8374.110116224134
 30
0.0
 11
-277.1139702307809
 21
-8374.571371797667
 31
0.0
  0
LINE
  5
1FED
330
1F
100
AcDbEntity
  8
SPOJOVACÍ
  6
DASHED
100
AcDbLine
 10
-275.3728671756798
 20
-8374.4802145698
 30
0.0
 11
-277.4840685743074
 21
-8374.784679711259
 31
0.0
  0
LINE
  5
1FEE
330
1F
100
AcDbEntity
  8
SPOJOVACÍ
  6
DASHED
100
AcDbLine
 10
-275.0465242971658
 20
-8365.985272493732
 30
0.0
 11
-275.0465242971658
 21
-8367.207690920784
 31
0.0
  0
LINE
  5
1FEF
330
1F
100
AcDbEntity
  8
SPOJOVACÍ
  6
DASHED
100
AcDbLine
 10
-277.6919070566473
 20
-8363.817553611976
 30
0.0
 11
-277.6919070566473
 21
-8366.286091345903
 31
0.0
  0
LINE
  5
1FF0
330
1F
100
AcDbEntity
  8
SPOJOVACÍ
  6
DASHED
100
AcDbLine
 10
-277.6919070566473
 20
-8366.877701755656
 30
0.0
 11
-277.6919070566473
 21
-8367.207690920784
 31
0.0
  0
LINE
  5
1FF1
330
1F
100
AcDbEntity
  8
SPOJOVACÍ
  6
DASHED
100
AcDbLine
 10
-275.0465242971658
 20
-8367.207690920784
 30
0.0
 11
-275.1932874338344
 21
-8368.380884445151
 31
0.0
  0
LINE
  5
1FF2
330
1F
100
AcDbEntity
  8
SPOJOVACÍ
  6
DASHED
100
AcDbLine
 10
-275.2689479345099
 20
-8368.988903155889
 30
0.0
 11
-275.5533584870391
 21
-8371.264187566232
 31
0.0
  0
LINE
  5
1FF3
330
1F
100
AcDbEntity
  8
SPOJOVACÍ
  6
DASHED
100
AcDbLine
 10
-277.4512519734089
 20
-8369.139312581843
 30
0.0
 11
-277.6919070566473
 21
-8367.207690920784
 31
0.0
  0
LINE
  5
1FF4
330
1F
100
AcDbEntity
  8
SPOJOVACÍ
  6
DASHED
100
AcDbLine
 10
-274.266218427434
 20
-8368.572314623834
 30
0.0
 11
-274.6372283447526
 21
-8368.78653410962
 31
0.0
  0
LINE
  5
1FF5
330
1F
100
AcDbEntity
  8
SPOJOVACÍ
  6
DASHED
100
AcDbLine
 10
-274.266218427434
 20
-8368.572314623834
 30
0.0
 11
-274.6372283447526
 21
-8368.202216278168
 31
0.0
  0
LINE
  5
1FF6
330
1F
100
AcDbEntity
  8
SPOJOVACÍ
  6
DASHED
100
AcDbLine
 10
-278.3090414871221
 20
-8369.525819228492
 30
0.0
 11
-277.9389431435956
 21
-8369.896829146616
 31
0.0
  0
LINE
  5
1FF7
330
1F
100
AcDbEntity
  8
SPOJOVACÍ
  6
DASHED
100
AcDbLine
 10
-278.3090414871221
 20
-8369.525819228492
 30
0.0
 11
-277.9389431435956
 21
-8369.312511315165
 31
0.0
  0
LINE
  5
1FF8
330
1F
100
AcDbEntity
  8
SPOJOVACÍ
  6
DASHED
100
AcDbLine
 10
-274.6372283447526
 20
-8368.78653410962
 30
0.0
 11
-277.9389431435956
 21
-8369.896829146616
 31
0.0
  0
LINE
  5
1FF9
330
1F
100
AcDbEntity
  8
SPOJOVACÍ
  6
DASHED
100
AcDbLine
 10
-274.6372283447526
 20
-8368.202216278168
 30
0.0
 11
-277.9389431435956
 21
-8369.312511315165
 31
0.0
  0
LINE
  5
1FFA
330
1F
100
AcDbEntity
  8
SPOJOVACÍ
  6
DASHED
100
AcDbLine
 10
-274.266218427434
 20
-8368.572314623834
 30
0.0
 11
-278.3090414871221
 21
-8369.525819228492
 31
0.0
  0
LINE
  5
1FFB
330
1F
100
AcDbEntity
  8
SPOJOVACÍ
  6
DASHED
100
AcDbLine
 10
-274.8195427994178
 20
-8371.526720383046
 30
0.0
 11
-275.1896411472225
 21
-8371.155710464922
 31
0.0
  0
LINE
  5
1FFC
330
1F
100
AcDbEntity
  8
SPOJOVACÍ
  6
DASHED
100
AcDbLine
 10
-274.0173591929015
 20
-8365.556833522168
 30
0.0
 11
-274.3874575407062
 21
-8365.770141435495
 31
0.0
  0
LINE
  5
1FFD
330
1F
100
AcDbEntity
  8
SPOJOVACÍ
  6
DASHED
100
AcDbLine
 10
-274.0173591929015
 20
-8365.556833522168
 30
0.0
 11
-274.3874575407062
 21
-8365.185823604042
 31
0.0
  0
LINE
  5
1FFE
330
1F
100
AcDbEntity
  8
SPOJOVACÍ
  6
DASHED
100
AcDbLine
 10
-277.9143306897131
 20
-8347.71645243275
 30
0.0
 11
-278.5150568218778
 21
-8346.33086256724
 31
0.0
  0
LINE
  5
1FFF
330
1F
100
AcDbEntity
  8
SPOJOVACÍ
  6
DASHED
100
AcDbLine
 10
-274.0173591929015
 20
-8353.326268243099
 30
0.0
 11
-278.7210721566334
 21
-8354.502196484032
 31
0.0
  0
LINE
  5
2000
330
1F
100
AcDbEntity
  8
SPOJOVACÍ
  6
DASHED
100
AcDbLine
 10
-274.3874575407062
 20
-8353.539576156427
 30
0.0
 11
-278.3509738131069
 21
-8354.872294829698
 31
0.0
  0
LINE
  5
2001
330
1F
100
AcDbEntity
  8
SPOJOVACÍ
  6
DASHED
100
AcDbLine
 10
-274.3874575407062
 20
-8352.955258325247
 30
0.0
 11
-278.3509738131069
 21
-8354.287976998246
 31
0.0
  0
LINE
  5
2002
330
1F
100
AcDbEntity
  8
SPOJOVACÍ
  6
DASHED
100
AcDbLine
 10
-274.0173591929015
 20
-8356.383681669681
 30
0.0
 11
-278.7210721566334
 21
-8357.559609910886
 31
0.0
  0
LINE
  5
2003
330
1F
100
AcDbEntity
  8
SPOJOVACÍ
  6
DASHED
100
AcDbLine
 10
-274.3874575407062
 20
-8356.597901155469
 30
0.0
 11
-278.3509738131069
 21
-8357.92970825628
 31
0.0
  0
LINE
  5
2004
330
1F
100
AcDbEntity
  8
SPOJOVACÍ
  6
DASHED
100
AcDbLine
 10
-274.3874575407062
 20
-8356.013583324017
 30
0.0
 11
-278.3509738131069
 21
-8357.3453904251
 31
0.0
  0
LINE
  5
2005
330
1F
100
AcDbEntity
  8
SPOJOVACÍ
  6
DASHED
100
AcDbLine
 10
-274.0173591929015
 20
-8359.441095096535
 30
0.0
 11
-278.7210721566334
 21
-8360.617023337468
 31
0.0
  0
LINE
  5
2006
330
1F
100
AcDbEntity
  8
SPOJOVACÍ
  6
DASHED
100
AcDbLine
 10
-274.3874575407062
 20
-8359.655314582322
 30
0.0
 11
-278.3509738131069
 21
-8360.988033255322
 31
0.0
  0
LINE
  5
2007
330
1F
100
AcDbEntity
  8
SPOJOVACÍ
  6
DASHED
100
AcDbLine
 10
-274.3874575407062
 20
-8359.070996750871
 30
0.0
 11
-278.3509738131069
 21
-8360.403715423878
 31
0.0
  0
INSERT
  5
2008
330
1F
100
AcDbEntity
  8
POPIS
100
AcDbBlockReference
  2
E_PUNKT
 10
-276.2294589957273
 20
-8349.768577455888
 30
0.0
 50
270.0
  0
LINE
  5
2009
330
1F
100
AcDbEntity
  8
SPOJOVACÍ
  6
DASHED
100
AcDbLine
 10
-278.7210721566334
 20
-8354.502196484032
 30
0.0
 11
-278.3509738131069
 21
-8354.872294829698
 31
0.0
  0
LINE
  5
200A
330
1F
100
AcDbEntity
  8
SPOJOVACÍ
  6
DASHED
100
AcDbLine
 10
-278.7210721566334
 20
-8357.559609910886
 30
0.0
 11
-278.3509738131069
 21
-8357.92970825628
 31
0.0
  0
LINE
  5
200B
330
1F
100
AcDbEntity
  8
SPOJOVACÍ
  6
DASHED
100
AcDbLine
 10
-278.7210721566334
 20
-8357.559609910886
 30
0.0
 11
-278.3509738131069
 21
-8357.3453904251
 31
0.0
  0
LINE
  5
200C
330
1F
100
AcDbEntity
  8
SPOJOVACÍ
  6
DASHED
100
AcDbLine
 10
-278.7210721566334
 20
-8360.617023337468
 30
0.0
 11
-278.3509738131069
 21
-8360.988033255322
 31
0.0
  0
LINE
  5
200D
330
1F
100
AcDbEntity
  8
SPOJOVACÍ
  6
DASHED
100
AcDbLine
 10
-278.7210721566334
 20
-8360.617023337468
 30
0.0
 11
-278.3509738131069
 21
-8360.403715423878
 31
0.0
  0
LINE
  5
200E
330
1F
100
AcDbEntity
  8
SPOJOVACÍ
  6
DASHED
100
AcDbLine
 10
-278.7210721566334
 20
-8354.502196484032
 30
0.0
 11
-278.3509738131069
 21
-8354.287976998246
 31
0.0
  0
LINE
  5
200F
330
1F
100
AcDbEntity
  8
SPOJOVACÍ
  6
DASHED
100
AcDbLine
 10
-275.0465242971658
 20
-8353.75014935319
 30
0.0
 11
-275.0465242971658
 21
-8356.218687087119
 31
0.0
  0
LINE
  5
2010
330
1F
100
AcDbEntity
  8
SPOJOVACÍ
  6
DASHED
100
AcDbLine
 10
-275.0465242971658
 20
-8356.810297496608
 30
0.0
 11
-275.0465242971658
 21
-8359.280658375181
 31
0.0
  0
LINE
  5
2011
330
1F
100
AcDbEntity
  8
SPOJOVACÍ
  6
DASHED
100
AcDbLine
 10
-275.0465242971658
 20
-8359.863153061988
 30
0.0
 11
-275.0465242971658
 21
-8362.3408065186
 31
0.0
  0
LINE
  5
2012
330
1F
100
AcDbEntity
  8
SPOJOVACÍ
  6
DASHED
100
AcDbLine
 10
-277.6919070566473
 20
-8354.64531333195
 30
0.0
 11
-277.6919070566473
 21
-8357.113851065879
 31
0.0
  0
LINE
  5
2013
330
1F
100
AcDbEntity
  8
SPOJOVACÍ
  6
DASHED
100
AcDbLine
 10
-277.6919070566473
 20
-8357.69816889733
 30
0.0
 11
-277.6919070566473
 21
-8360.175822353943
 31
0.0
  0
LINE
  5
2014
330
1F
100
AcDbEntity
  8
SPOJOVACÍ
  6
DASHED
100
AcDbLine
 10
-274.0173591929015
 20
-8356.383681669681
 30
0.0
 11
-274.3874575407062
 21
-8356.597901155469
 31
0.0
  0
LINE
  5
2015
330
1F
100
AcDbEntity
  8
SPOJOVACÍ
  6
DASHED
100
AcDbLine
 10
-274.0173591929015
 20
-8356.383681669681
 30
0.0
 11
-274.3874575407062
 21
-8356.013583324017
 31
0.0
  0
LINE
  5
2016
330
1F
100
AcDbEntity
  8
SPOJOVACÍ
  6
DASHED
100
AcDbLine
 10
-274.0173591929015
 20
-8359.441095096535
 30
0.0
 11
-274.3874575407062
 21
-8359.655314582322
 31
0.0
  0
LINE
  5
2017
330
1F
100
AcDbEntity
  8
SPOJOVACÍ
  6
DASHED
100
AcDbLine
 10
-274.0173591929015
 20
-8359.441095096535
 30
0.0
 11
-274.3874575407062
 21
-8359.070996750871
 31
0.0
  0
LINE
  5
2018
330
1F
100
AcDbEntity
  8
SPOJOVACÍ
  6
DASHED
100
AcDbLine
 10
-274.0173591929015
 20
-8362.498508523126
 30
0.0
 11
-274.3874575407062
 21
-8362.712728008904
 31
0.0
  0
LINE
  5
2019
330
1F
100
AcDbEntity
  8
SPOJOVACÍ
  6
DASHED
100
AcDbLine
 10
-274.0173591929015
 20
-8362.498508523126
 30
0.0
 11
-274.3874575407062
 21
-8362.12841017746
 31
0.0
  0
LINE
  5
201A
330
1F
100
AcDbEntity
  8
SPOJOVACÍ
  6
DASHED
100
AcDbLine
 10
-277.6919070566473
 20
-8349.209607827111
 30
0.0
 11
-277.9143306897131
 21
-8347.71645243275
 31
0.0
  0
LINE
  5
201B
330
1F
100
AcDbEntity
  8
SPOJOVACÍ
  6
DASHED
100
AcDbLine
 10
-274.9818026648827
 20
-8348.438417678451
 30
0.0
 11
-275.0465242971658
 21
-8349.209607827111
 31
0.0
  0
LINE
  5
201C
330
1F
100
AcDbEntity
  8
SPOJOVACÍ
  6
DASHED
100
AcDbLine
 10
-274.5624794178693
 20
-8346.987194608741
 30
0.0
 11
-274.9818026648827
 21
-8348.438417678451
 31
0.0
  0
LINE
  5
201D
330
1F
100
AcDbEntity
  8
SPOJOVACÍ
  6
DASHED
100
AcDbLine
 10
-277.6919070566473
 20
-8349.209607827111
 30
0.0
 11
-277.6919070566473
 21
-8354.053702922461
 31
0.0
  0
LINE
  5
201E
330
1F
100
AcDbEntity
  8
SPOJOVACÍ
  6
DASHED
100
AcDbLine
 10
-275.0465242971658
 20
-8349.209607827111
 30
0.0
 11
-275.0465242971658
 21
-8353.166743094197
 31
0.0
  0
LINE
  5
201F
330
1F
100
AcDbEntity
  8
SPOJOVACÍ
  6
DASHED
100
AcDbLine
 10
-274.0173591929015
 20
-8353.326268243099
 30
0.0
 11
-274.3874575407062
 21
-8353.539576156427
 31
0.0
  0
LINE
  5
2020
330
1F
100
AcDbEntity
  8
SPOJOVACÍ
  6
DASHED
100
AcDbLine
 10
-274.0173591929015
 20
-8353.326268243099
 30
0.0
 11
-274.3874575407062
 21
-8352.955258325247
 31
0.0
  0
LINE
  5
2021
330
1F
100
AcDbEntity
  8
SPOJOVACÍ
  6
DASHED
100
AcDbLine
 10
-271.3710648639062
 20
-8342.742002501445
 30
0.0
 11
-281.3673664856287
 21
-8342.742002501445
 31
0.0
  0
LINE
  5
2022
330
1F
100
AcDbEntity
  8
SPOJOVACÍ
  6
DASHED
100
AcDbLine
 10
-271.3710648639062
 20
-8343.917930742643
 30
0.0
 11
-281.3673664856287
 21
-8343.917930742643
 31
0.0
  0
LINE
  5
2023
330
1F
100
AcDbEntity
  8
SPOJOVACÍ
  6
DASHED
100
AcDbLine
 10
-281.3673664856287
 20
-8342.742002501445
 30
0.0
 11
-281.3673664856287
 21
-8343.917930742643
 31
0.0
  0
LINE
  5
2024
330
1F
100
AcDbEntity
  8
SPOJOVACÍ
  6
DASHED
100
AcDbLine
 10
-280.6663674031842
 20
-8344.247919907768
 30
0.0
 11
-281.3673664856287
 21
-8343.917930742643
 31
0.0
  0
LINE
  5
2025
330
1F
100
AcDbEntity
  8
SPOJOVACÍ
  6
DASHED
100
AcDbLine
 10
-279.4539762704626
 20
-8345.147641748001
 30
0.0
 11
-280.6663674031842
 21
-8344.247919907768
 31
0.0
  0
LINE
  5
2026
330
1F
100
AcDbEntity
  8
SPOJOVACÍ
  6
DASHED
100
AcDbLine
 10
-271.3710648639062
 20
-8342.742002501445
 30
0.0
 11
-271.3710648639062
 21
-8343.917930742643
 31
0.0
  0
LINE
  5
2027
330
1F
100
AcDbEntity
  8
SPOJOVACÍ
  6
DASHED
100
AcDbLine
 10
-272.693756245786
 20
-8344.647188566387
 30
0.0
 11
-273.7821735481375
 21
-8345.694585116012
 31
0.0
  0
LINE
  5
2028
330
1F
100
AcDbEntity
  8
SPOJOVACÍ
  6
DASHED
100
AcDbLine
 10
-271.3710648639062
 20
-8343.917930742643
 30
0.0
 11
-272.693756245786
 21
-8344.647188566387
 31
0.0
  0
LINE
  5
2029
330
1F
100
AcDbEntity
  8
SPOJOVACÍ
  6
DASHED
100
AcDbLine
 10
-233.4285595540786
 20
-8343.917930742643
 30
0.0
 11
-232.1058681721988
 21
-8344.647188566387
 31
0.0
  0
LINE
  5
202A
330
1F
100
AcDbEntity
  8
SPOJOVACÍ
  6
DASHED
100
AcDbLine
 10
-233.4285595540786
 20
-8342.742002501445
 30
0.0
 11
-233.4285595540786
 21
-8343.917930742643
 31
0.0
  0
LINE
  5
202B
330
1F
100
AcDbEntity
  8
SPOJOVACÍ
  6
DASHED
100
AcDbLine
 10
-231.0174508698473
 20
-8345.694585116012
 30
0.0
 11
-230.2371450001155
 21
-8346.987194608741
 31
0.0
  0
LINE
  5
202C
330
1F
100
AcDbEntity
  8
SPOJOVACÍ
  6
DASHED
100
AcDbLine
 10
-226.284567596107
 20
-8346.33086256724
 30
0.0
 11
-225.3456481475223
 21
-8345.147641748001
 31
0.0
  0
LINE
  5
202D
330
1F
100
AcDbEntity
  8
SPOJOVACÍ
  6
DASHED
100
AcDbLine
 10
-230.4121668772786
 20
-8362.12841017746
 30
0.0
 11
-226.4486506048779
 21
-8363.461128850731
 31
0.0
  0
LINE
  5
202E
330
1F
100
AcDbEntity
  8
SPOJOVACÍ
  6
DASHED
100
AcDbLine
 10
-230.4121668772786
 20
-8362.712728008904
 30
0.0
 11
-226.4486506048779
 21
-8364.045446681911
 31
0.0
  0
LINE
  5
202F
330
1F
100
AcDbEntity
  8
SPOJOVACÍ
  6
DASHED
100
AcDbLine
 10
-229.753100120819
 20
-8362.93332850054
 30
0.0
 11
-229.753100120819
 21
-8365.40095466228
 31
0.0
  0
LINE
  5
2030
330
1F
100
AcDbEntity
  8
SPOJOVACÍ
  6
DASHED
100
AcDbLine
 10
-227.1077173613375
 20
-8360.758317040746
 30
0.0
 11
-227.1077173613375
 21
-8363.228677919321
 31
0.0
  0
LINE
  5
2031
330
1F
100
AcDbEntity
  8
SPOJOVACÍ
  6
DASHED
100
AcDbLine
 10
-230.7822652250834
 20
-8362.498508523126
 30
0.0
 11
-226.0785522613514
 21
-8363.674436764059
 31
0.0
  0
LINE
  5
2032
330
1F
100
AcDbEntity
  8
SPOJOVACÍ
  6
DASHED
100
AcDbLine
 10
-229.980081618567
 20
-8371.526720383046
 30
0.0
 11
-226.9263144804645
 21
-8372.14750110548
 31
0.0
  0
LINE
  5
2033
330
1F
100
AcDbEntity
  8
SPOJOVACÍ
  6
DASHED
100
AcDbLine
 10
-229.6099832707623
 20
-8371.155710464922
 30
0.0
 11
-227.2964128239909
 21
-8371.934193192153
 31
0.0
  0
LINE
  5
2034
330
1F
100
AcDbEntity
  8
SPOJOVACÍ
  6
DASHED
100
AcDbLine
 10
-229.980081618567
 20
-8371.526720383046
 30
0.0
 11
-229.6099832707623
 21
-8371.740028296374
 31
0.0
  0
LINE
  5
2035
330
1F
100
AcDbEntity
  8
SPOJOVACÍ
  6
DASHED
100
AcDbLine
 10
-227.680184757286
 20
-8371.791987916424
 30
0.0
 11
-227.4185635110552
 21
-8369.698106389627
 31
0.0
  0
LINE
  5
2036
330
1F
100
AcDbEntity
  8
SPOJOVACÍ
  6
DASHED
100
AcDbLine
 10
-229.426757242305
 20
-8374.4802145698
 30
0.0
 11
-227.3155558436774
 21
-8374.784679711259
 31
0.0
  0
LINE
  5
2037
330
1F
100
AcDbEntity
  8
SPOJOVACÍ
  6
DASHED
100
AcDbLine
 10
-229.0566588987785
 20
-8374.110116224134
 30
0.0
 11
-227.6856541872039
 21
-8374.571371797667
 31
0.0
  0
LINE
  5
2038
330
1F
100
AcDbEntity
  8
SPOJOVACÍ
  6
DASHED
100
AcDbLine
 10
-229.0566588987785
 20
-8374.694434055578
 30
0.0
 11
-227.6856541872039
 21
-8375.155689629112
 31
0.0
  0
LINE
  5
2039
330
1F
100
AcDbEntity
  8
SPOJOVACÍ
  6
DASHED
100
AcDbLine
 10
-227.3155558436774
 20
-8374.784679711259
 30
0.0
 11
-227.6856541872039
 21
-8374.571371797667
 31
0.0
  0
LINE
  5
203A
330
1F
100
AcDbEntity
  8
SPOJOVACÍ
  6
DASHED
100
AcDbLine
 10
-227.3155558436774
 20
-8374.784679711259
 30
0.0
 11
-227.6856541872039
 21
-8375.155689629112
 31
0.0
  0
LINE
  5
203B
330
1F
100
AcDbEntity
  8
SPOJOVACÍ
  6
DASHED
100
AcDbLine
 10
-229.426757242305
 20
-8374.4802145698
 30
0.0
 11
-229.0566588987785
 21
-8374.110116224134
 31
0.0
  0
LINE
  5
203C
330
1F
100
AcDbEntity
  8
SPOJOVACÍ
  6
DASHED
100
AcDbLine
 10
-229.426757242305
 20
-8374.4802145698
 30
0.0
 11
-229.0566588987785
 21
-8374.694434055578
 31
0.0
  0
LINE
  5
203D
330
1F
100
AcDbEntity
  8
SPOJOVACÍ
  6
DASHED
100
AcDbLine
 10
-229.6099832707623
 20
-8371.740028296374
 30
0.0
 11
-227.2964128239909
 21
-8372.518511023335
 31
0.0
  0
LINE
  5
203E
330
1F
100
AcDbEntity
  8
SPOJOVACÍ
  6
DASHED
100
AcDbLine
 10
-226.9263144804645
 20
-8372.14750110548
 30
0.0
 11
-227.2964128239909
 21
-8371.934193192153
 31
0.0
  0
LINE
  5
203F
330
1F
100
AcDbEntity
  8
SPOJOVACÍ
  6
DASHED
100
AcDbLine
 10
-226.9263144804645
 20
-8372.14750110548
 30
0.0
 11
-227.2964128239909
 21
-8372.518511023335
 31
0.0
  0
LINE
  5
2040
330
1F
100
AcDbEntity
  8
SPOJOVACÍ
  6
DASHED
100
AcDbLine
 10
-228.0129086352317
 20
-8374.454690545869
 30
0.0
 11
-227.7503758194871
 21
-8372.352604868584
 31
0.0
  0
LINE
  5
2041
330
1F
100
AcDbEntity
  8
SPOJOVACÍ
  6
DASHED
100
AcDbLine
 10
-228.808711238038
 20
-8374.764625120988
 30
0.0
 11
-228.4304087432174
 21
-8377.791956662438
 31
0.0
  0
LINE
  5
2042
330
1F
100
AcDbEntity
  8
SPOJOVACÍ
  6
DASHED
100
AcDbLine
 10
-229.1687822869644
 20
-8371.882233572103
 30
0.0
 11
-228.8843717387135
 21
-8374.156606410251
 31
0.0
  0
LINE
  5
2043
330
1F
100
AcDbEntity
  8
SPOJOVACÍ
  6
DASHED
100
AcDbLine
 10
-228.4304087432174
 20
-8377.791956662438
 30
0.0
 11
-228.083099701711
 21
-8375.012572781193
 31
0.0
  0
LINE
  5
2044
330
1F
100
AcDbEntity
  8
SPOJOVACÍ
  6
DASHED
100
AcDbLine
 10
-230.4121668772786
 20
-8365.185823604042
 30
0.0
 11
-226.4486506048779
 21
-8366.518542277313
 31
0.0
  0
LINE
  5
2045
330
1F
100
AcDbEntity
  8
SPOJOVACÍ
  6
DASHED
100
AcDbLine
 10
-230.4121668772786
 20
-8365.770141435495
 30
0.0
 11
-226.4486506048779
 21
-8367.102860108765
 31
0.0
  0
LINE
  5
2046
330
1F
100
AcDbEntity
  8
SPOJOVACÍ
  6
DASHED
100
AcDbLine
 10
-226.0785522613514
 20
-8366.732761763101
 30
0.0
 11
-226.4486506048779
 21
-8366.518542277313
 31
0.0
  0
LINE
  5
2047
330
1F
100
AcDbEntity
  8
SPOJOVACÍ
  6
DASHED
100
AcDbLine
 10
-226.0785522613514
 20
-8366.732761763101
 30
0.0
 11
-226.4486506048779
 21
-8367.102860108765
 31
0.0
  0
LINE
  5
2048
330
1F
100
AcDbEntity
  8
SPOJOVACÍ
  6
DASHED
100
AcDbLine
 10
-226.0785522613514
 20
-8363.674436764059
 30
0.0
 11
-226.4486506048779
 21
-8363.461128850731
 31
0.0
  0
LINE
  5
2049
330
1F
100
AcDbEntity
  8
SPOJOVACÍ
  6
DASHED
100
AcDbLine
 10
-226.0785522613514
 20
-8363.674436764059
 30
0.0
 11
-226.4486506048779
 21
-8364.045446681911
 31
0.0
  0
LINE
  5
204A
330
1F
100
AcDbEntity
  8
SPOJOVACÍ
  6
DASHED
100
AcDbLine
 10
-229.980081618567
 20
-8371.526720383046
 30
0.0
 11
-229.6099832707623
 21
-8371.155710464922
 31
0.0
  0
LINE
  5
204B
330
1F
100
AcDbEntity
  8
SPOJOVACÍ
  6
DASHED
100
AcDbLine
 10
-230.5334059905508
 20
-8368.572314623834
 30
0.0
 11
-226.4905829308627
 21
-8369.525819228492
 31
0.0
  0
LINE
  5
204C
330
1F
100
AcDbEntity
  8
SPOJOVACÍ
  6
DASHED
100
AcDbLine
 10
-230.1623960732322
 20
-8368.202216278168
 30
0.0
 11
-226.8606812743892
 21
-8369.312511315165
 31
0.0
  0
LINE
  5
204D
330
1F
100
AcDbEntity
  8
SPOJOVACÍ
  6
DASHED
100
AcDbLine
 10
-230.1623960732322
 20
-8368.78653410962
 30
0.0
 11
-226.8606812743892
 21
-8369.896829146616
 31
0.0
  0
LINE
  5
204E
330
1F
100
AcDbEntity
  8
SPOJOVACÍ
  6
DASHED
100
AcDbLine
 10
-226.4905829308627
 20
-8369.525819228492
 30
0.0
 11
-226.8606812743892
 21
-8369.312511315165
 31
0.0
  0
LINE
  5
204F
330
1F
100
AcDbEntity
  8
SPOJOVACÍ
  6
DASHED
100
AcDbLine
 10
-226.4905829308627
 20
-8369.525819228492
 30
0.0
 11
-226.8606812743892
 21
-8369.896829146616
 31
0.0
  0
LINE
  5
2050
330
1F
100
AcDbEntity
  8
SPOJOVACÍ
  6
DASHED
100
AcDbLine
 10
-230.5334059905508
 20
-8368.572314623834
 30
0.0
 11
-230.1623960732322
 21
-8368.202216278168
 31
0.0
  0
LINE
  5
2051
330
1F
100
AcDbEntity
  8
SPOJOVACÍ
  6
DASHED
100
AcDbLine
 10
-230.5334059905508
 20
-8368.572314623834
 30
0.0
 11
-230.1623960732322
 21
-8368.78653410962
 31
0.0
  0
LINE
  5
2052
330
1F
100
AcDbEntity
  8
SPOJOVACÍ
  6
DASHED
100
AcDbLine
 10
-227.3483724445759
 20
-8369.139312581843
 30
0.0
 11
-227.1077173613375
 21
-8367.207690920784
 31
0.0
  0
LINE
  5
2053
330
1F
100
AcDbEntity
  8
SPOJOVACÍ
  6
DASHED
100
AcDbLine
 10
-229.5306764834749
 20
-8368.988903155889
 30
0.0
 11
-229.2462659309458
 21
-8371.264187566232
 31
0.0
  0
LINE
  5
2054
330
1F
100
AcDbEntity
  8
SPOJOVACÍ
  6
DASHED
100
AcDbLine
 10
-229.753100120819
 20
-8367.207690920784
 30
0.0
 11
-229.6063369841504
 21
-8368.380884445151
 31
0.0
  0
LINE
  5
2055
330
1F
100
AcDbEntity
  8
SPOJOVACÍ
  6
DASHED
100
AcDbLine
 10
-227.1077173613375
 20
-8366.877701755656
 30
0.0
 11
-227.1077173613375
 21
-8367.207690920784
 31
0.0
  0
LINE
  5
2056
330
1F
100
AcDbEntity
  8
SPOJOVACÍ
  6
DASHED
100
AcDbLine
 10
-227.1077173613375
 20
-8363.817553611976
 30
0.0
 11
-227.1077173613375
 21
-8366.286091345903
 31
0.0
  0
LINE
  5
2057
330
1F
100
AcDbEntity
  8
SPOJOVACÍ
  6
DASHED
100
AcDbLine
 10
-229.753100120819
 20
-8365.985272493732
 30
0.0
 11
-229.753100120819
 21
-8367.207690920784
 31
0.0
  0
LINE
  5
2058
330
1F
100
AcDbEntity
  8
SPOJOVACÍ
  6
DASHED
100
AcDbLine
 10
-230.7822652250834
 20
-8365.556833522168
 30
0.0
 11
-230.4121668772786
 21
-8365.185823604042
 31
0.0
  0
LINE
  5
2059
330
1F
100
AcDbEntity
  8
SPOJOVACÍ
  6
DASHED
100
AcDbLine
 10
-230.7822652250834
 20
-8365.556833522168
 30
0.0
 11
-230.4121668772786
 21
-8365.770141435495
 31
0.0
  0
LINE
  5
205A
330
1F
100
AcDbEntity
  8
SPOJOVACÍ
  6
DASHED
100
AcDbLine
 10
-230.7822652250834
 20
-8365.556833522168
 30
0.0
 11
-226.0785522613514
 21
-8366.732761763101
 31
0.0
  0
LINE
  5
205B
330
1F
100
AcDbEntity
  8
SPOJOVACÍ
  6
DASHED
100
AcDbLine
 10
-230.4121668772786
 20
-8353.539576156427
 30
0.0
 11
-226.4486506048779
 21
-8354.872294829698
 31
0.0
  0
LINE
  5
205C
330
1F
100
AcDbEntity
  8
SPOJOVACÍ
  6
DASHED
100
AcDbLine
 10
-226.0785522613514
 20
-8354.502196484032
 30
0.0
 11
-226.4486506048779
 21
-8354.872294829698
 31
0.0
  0
LINE
  5
205D
330
1F
100
AcDbEntity
  8
SPOJOVACÍ
  6
DASHED
100
AcDbLine
 10
-229.753100120819
 20
-8353.75014935319
 30
0.0
 11
-229.753100120819
 21
-8356.218687087119
 31
0.0
  0
LINE
  5
205E
330
1F
100
AcDbEntity
  8
SPOJOVACÍ
  6
DASHED
100
AcDbLine
 10
-230.4121668772786
 20
-8359.070996750871
 30
0.0
 11
-226.4486506048779
 21
-8360.403715423878
 31
0.0
  0
LINE
  5
205F
330
1F
100
AcDbEntity
  8
SPOJOVACÍ
  6
DASHED
100
AcDbLine
 10
-230.4121668772786
 20
-8359.655314582322
 30
0.0
 11
-226.4486506048779
 21
-8360.988033255322
 31
0.0
  0
LINE
  5
2060
330
1F
100
AcDbEntity
  8
SPOJOVACÍ
  6
DASHED
100
AcDbLine
 10
-226.0785522613514
 20
-8360.617023337468
 30
0.0
 11
-226.4486506048779
 21
-8360.403715423878
 31
0.0
  0
LINE
  5
2061
330
1F
100
AcDbEntity
  8
SPOJOVACÍ
  6
DASHED
100
AcDbLine
 10
-226.0785522613514
 20
-8360.617023337468
 30
0.0
 11
-226.4486506048779
 21
-8360.988033255322
 31
0.0
  0
LINE
  5
2062
330
1F
100
AcDbEntity
  8
SPOJOVACÍ
  6
DASHED
100
AcDbLine
 10
-230.4121668772786
 20
-8356.013583324017
 30
0.0
 11
-226.4486506048779
 21
-8357.3453904251
 31
0.0
  0
LINE
  5
2063
330
1F
100
AcDbEntity
  8
SPOJOVACÍ
  6
DASHED
100
AcDbLine
 10
-230.4121668772786
 20
-8356.597901155469
 30
0.0
 11
-226.4486506048779
 21
-8357.92970825628
 31
0.0
  0
LINE
  5
2064
330
1F
100
AcDbEntity
  8
SPOJOVACÍ
  6
DASHED
100
AcDbLine
 10
-226.0785522613514
 20
-8357.559609910886
 30
0.0
 11
-226.4486506048779
 21
-8357.3453904251
 31
0.0
  0
LINE
  5
2065
330
1F
100
AcDbEntity
  8
SPOJOVACÍ
  6
DASHED
100
AcDbLine
 10
-226.0785522613514
 20
-8357.559609910886
 30
0.0
 11
-226.4486506048779
 21
-8357.92970825628
 31
0.0
  0
LINE
  5
2066
330
1F
100
AcDbEntity
  8
SPOJOVACÍ
  6
DASHED
100
AcDbLine
 10
-227.1077173613375
 20
-8357.69816889733
 30
0.0
 11
-227.1077173613375
 21
-8360.175822353943
 31
0.0
  0
LINE
  5
2067
330
1F
100
AcDbEntity
  8
SPOJOVACÍ
  6
DASHED
100
AcDbLine
 10
-227.1077173613375
 20
-8354.64531333195
 30
0.0
 11
-227.1077173613375
 21
-8357.113851065879
 31
0.0
  0
LINE
  5
2068
330
1F
100
AcDbEntity
  8
SPOJOVACÍ
  6
DASHED
100
AcDbLine
 10
-229.753100120819
 20
-8359.863153061988
 30
0.0
 11
-229.753100120819
 21
-8362.3408065186
 31
0.0
  0
LINE
  5
2069
330
1F
100
AcDbEntity
  8
SPOJOVACÍ
  6
DASHED
100
AcDbLine
 10
-229.753100120819
 20
-8356.810297496608
 30
0.0
 11
-229.753100120819
 21
-8359.280658375181
 31
0.0
  0
LINE
  5
206A
330
1F
100
AcDbEntity
  8
SPOJOVACÍ
  6
DASHED
100
AcDbLine
 10
-230.7822652250834
 20
-8362.498508523126
 30
0.0
 11
-230.4121668772786
 21
-8362.12841017746
 31
0.0
  0
LINE
  5
206B
330
1F
100
AcDbEntity
  8
SPOJOVACÍ
  6
DASHED
100
AcDbLine
 10
-230.7822652250834
 20
-8362.498508523126
 30
0.0
 11
-230.4121668772786
 21
-8362.712728008904
 31
0.0
  0
LINE
  5
206C
330
1F
100
AcDbEntity
  8
SPOJOVACÍ
  6
DASHED
100
AcDbLine
 10
-230.7822652250834
 20
-8359.441095096535
 30
0.0
 11
-230.4121668772786
 21
-8359.070996750871
 31
0.0
  0
LINE
  5
206D
330
1F
100
AcDbEntity
  8
SPOJOVACÍ
  6
DASHED
100
AcDbLine
 10
-230.7822652250834
 20
-8359.441095096535
 30
0.0
 11
-230.4121668772786
 21
-8359.655314582322
 31
0.0
  0
LINE
  5
206E
330
1F
100
AcDbEntity
  8
SPOJOVACÍ
  6
DASHED
100
AcDbLine
 10
-230.7822652250834
 20
-8359.441095096535
 30
0.0
 11
-226.0785522613514
 21
-8360.617023337468
 31
0.0
  0
LINE
  5
206F
330
1F
100
AcDbEntity
  8
SPOJOVACÍ
  6
DASHED
100
AcDbLine
 10
-230.7822652250834
 20
-8356.383681669681
 30
0.0
 11
-230.4121668772786
 21
-8356.013583324017
 31
0.0
  0
LINE
  5
2070
330
1F
100
AcDbEntity
  8
SPOJOVACÍ
  6
DASHED
100
AcDbLine
 10
-230.7822652250834
 20
-8356.383681669681
 30
0.0
 11
-230.4121668772786
 21
-8356.597901155469
 31
0.0
  0
LINE
  5
2071
330
1F
100
AcDbEntity
  8
SPOJOVACÍ
  6
DASHED
100
AcDbLine
 10
-230.7822652250834
 20
-8356.383681669681
 30
0.0
 11
-226.0785522613514
 21
-8357.559609910886
 31
0.0
  0
LINE
  5
2072
330
1F
100
AcDbEntity
  8
SPOJOVACÍ
  6
DASHED
100
AcDbLine
 10
-230.2371450001155
 20
-8346.987194608741
 30
0.0
 11
-229.8178217531021
 21
-8348.438417678451
 31
0.0
  0
LINE
  5
2073
330
1F
100
AcDbEntity
  8
SPOJOVACÍ
  6
DASHED
100
AcDbLine
 10
-229.8178217531021
 20
-8348.438417678451
 30
0.0
 11
-229.753100120819
 21
-8349.209607827111
 31
0.0
  0
LINE
  5
2074
330
1F
100
AcDbEntity
  8
SPOJOVACÍ
  6
DASHED
100
AcDbLine
 10
-227.1077173613375
 20
-8349.209607827111
 30
0.0
 11
-226.8852937282717
 21
-8347.71645243275
 31
0.0
  0
LINE
  5
2075
330
1F
100
AcDbEntity
  8
SPOJOVACÍ
  6
DASHED
100
AcDbLine
 10
-226.8852937282717
 20
-8347.71645243275
 30
0.0
 11
-226.284567596107
 21
-8346.33086256724
 31
0.0
  0
LINE
  5
2076
330
1F
100
AcDbEntity
  8
SPOJOVACÍ
  6
DASHED
100
AcDbLine
 10
-230.4121668772786
 20
-8352.955258325247
 30
0.0
 11
-226.4486506048779
 21
-8354.287976998246
 31
0.0
  0
LINE
  5
2077
330
1F
100
AcDbEntity
  8
SPOJOVACÍ
  6
DASHED
100
AcDbLine
 10
-226.0785522613514
 20
-8354.502196484032
 30
0.0
 11
-226.4486506048779
 21
-8354.287976998246
 31
0.0
  0
LINE
  5
2078
330
1F
100
AcDbEntity
  8
SPOJOVACÍ
  6
DASHED
100
AcDbLine
 10
-229.753100120819
 20
-8349.209607827111
 30
0.0
 11
-229.753100120819
 21
-8353.166743094197
 31
0.0
  0
LINE
  5
2079
330
1F
100
AcDbEntity
  8
SPOJOVACÍ
  6
DASHED
100
AcDbLine
 10
-227.1077173613375
 20
-8349.209607827111
 30
0.0
 11
-227.1077173613375
 21
-8354.053702922461
 31
0.0
  0
LINE
  5
207A
330
1F
100
AcDbEntity
  8
SPOJOVACÍ
  6
DASHED
100
AcDbLine
 10
-230.7822652250834
 20
-8353.326268243099
 30
0.0
 11
-230.4121668772786
 21
-8352.955258325247
 31
0.0
  0
LINE
  5
207B
330
1F
100
AcDbEntity
  8
SPOJOVACÍ
  6
DASHED
100
AcDbLine
 10
-230.7822652250834
 20
-8353.326268243099
 30
0.0
 11
-230.4121668772786
 21
-8353.539576156427
 31
0.0
  0
LINE
  5
207C
330
1F
100
AcDbEntity
  8
SPOJOVACÍ
  6
DASHED
100
AcDbLine
 10
-230.7822652250834
 20
-8353.326268243099
 30
0.0
 11
-226.0785522613514
 21
-8354.502196484032
 31
0.0
  0
LINE
  5
207D
330
1F
100
AcDbEntity
  8
SPOJOVACÍ
  6
DASHED
100
AcDbLine
 10
-225.3456481475223
 20
-8345.147641748001
 30
0.0
 11
-224.1332570148006
 21
-8344.247919907768
 31
0.0
  0
LINE
  5
207E
330
1F
100
AcDbEntity
  8
SPOJOVACÍ
  6
DASHED
100
AcDbLine
 10
-224.1332570148006
 20
-8344.247919907768
 30
0.0
 11
-223.4322579323561
 21
-8343.917930742643
 31
0.0
  0
LINE
  5
207F
330
1F
100
AcDbEntity
  8
SPOJOVACÍ
  6
DASHED
100
AcDbLine
 10
-223.4322579323561
 20
-8342.742002501445
 30
0.0
 11
-223.4322579323561
 21
-8343.917930742643
 31
0.0
  0
TEXT
  5
2080
330
1F
100
AcDbEntity
  8
POPIS
100
AcDbText
 10
-299.4967018593543
 20
-8261.599182675535
 30
0.0
 40
25.0
  1
06
 41
0.85
  7
SIMPLEX7
100
AcDbText
  0
TEXT
  5
2081
330
1F
100
AcDbEntity
  8
POPIS
100
AcDbText
 10
-348.5852173236398
 20
-8261.599182675535
 30
0.0
 40
25.0
  1
05
 41
0.85
  7
SIMPLEX7
100
AcDbText
  0
LINE
  5
2082
330
1F
100
AcDbEntity
  8
izolace
  6
IZOLACE
 48
3.0
100
AcDbLine
 10
-865.1212048968336
 20
-8456.742002501446
 30
0.0
 11
-207.1755423857648
 21
-8456.742002501446
 31
0.0
  0
LINE
  5
2083
330
1F
100
AcDbEntity
  8
izolace
  6
IZOLACE
 48
3.0
100
AcDbLine
 10
-432.1911617533869
 20
-8396.742002501445
 30
0.0
 11
-207.1755423857648
 21
-8396.742002501445
 31
0.0
  0
LINE
  5
2084
330
1F
100
AcDbEntity
  8
izolace
100
AcDbLine
 10
-865.1212048968336
 20
-8426.742002501443
 30
0.0
 11
-229.7898259175881
 21
-8426.742002501447
 31
0.0
  0
LINE
  5
2085
330
1F
100
AcDbEntity
  8
0
100
AcDbLine
 10
-432.1911617533869
 20
-8396.742002501445
 30
0.0
 11
-607.1911617533878
 21
-8396.742002501445
 31
0.0
  0
LINE
  5
2086
330
1F
100
AcDbEntity
  8
izolace
  6
IZOLACE
 48
1.45
100
AcDbLine
 10
-607.1911617533878
 20
-8411.742002501446
 30
0.0
 11
-432.3498969280508
 21
-8411.742002501446
 31
0.0
  0
LINE
  5
2087
330
1F
100
AcDbEntity
  8
STAVBA OBRYS
100
AcDbLine
 10
-453.8228604780925
 20
-8377.384485216252
 30
0.0
 11
-432.1911617533869
 21
-8378.121206474629
 31
0.0
  0
LINE
  5
2088
330
1F
100
AcDbEntity
  8
STAVBA OBRYS
100
AcDbLine
 10
-446.9400480159093
 20
-8373.946451257166
 30
0.0
 11
-432.1911617533869
 21
-8374.437599117749
 31
0.0
  0
LINE
  5
2089
330
1F
100
AcDbEntity
  8
STAVBA OBRYS
100
AcDbLine
 10
-456.2810095972545
 20
-8370.508418363078
 30
0.0
 11
-432.3054452852147
 21
-8370.987459813406
 31
0.0
  0
LINE
  5
208A
330
1F
100
AcDbEntity
  8
STAVBA OBRYS
100
AcDbLine
 10
-443.9902703407815
 20
-8386.225142446761
 30
0.0
 11
-431.9453453622909
 21
-8387.944158361312
 31
0.0
  0
LINE
  5
208B
330
1F
100
AcDbEntity
  8
STAVBA OBRYS
100
AcDbLine
 10
-461.934748556414
 20
-8387.453011565723
 30
0.0
 11
-436.6158272095208
 21
-8393.101208234943
 31
0.0
  0
LINE
  5
208C
330
1F
100
AcDbEntity
  8
STAVBA OBRYS
100
AcDbLine
 10
-453.3312319221277
 20
-8380.822518110342
 30
0.0
 11
-439.5656048846476
 21
-8381.068091508138
 31
0.0
  0
LINE
  5
208D
330
1F
100
AcDbEntity
  8
STAVBA OBRYS
100
AcDbLine
 10
-473.7338571438085
 20
-8376.893337355669
 30
0.0
 11
-453.8228604780925
 21
-8377.384485216252
 31
0.0
  0
LINE
  5
208E
330
1F
100
AcDbEntity
  8
STAVBA OBRYS
100
AcDbLine
 10
-483.0748187251547
 20
-8370.26284390029
 30
0.0
 11
-456.2810095972545
 21
-8370.508418363078
 31
0.0
  0
LINE
  5
208F
330
1F
100
AcDbEntity
  8
STAVBA OBRYS
100
AcDbLine
 10
-453.8228604780925
 20
-8371.981860879831
 30
0.0
 11
-466.6052282905293
 21
-8392.364486976566
 31
0.0
  0
LINE
  5
2090
330
1F
100
AcDbEntity
  8
STAVBA OBRYS
100
AcDbLine
 10
-472.5047836407838
 20
-8392.118913578771
 30
0.0
 11
-457.0184524312017
 21
-8392.85563483715
 31
0.0
  0
LINE
  5
2091
330
1F
100
AcDbEntity
  8
STAVBA OBRYS
100
AcDbLine
 10
-464.8845262315408
 20
-8384.014977606637
 30
0.0
 11
-443.9902703407815
 21
-8386.225142446761
 31
0.0
  0
LINE
  5
2092
330
1F
100
AcDbEntity
  8
STAVBA OBRYS
100
AcDbLine
 10
-457.0184524312017
 20
-8392.85563483715
 30
0.0
 11
-447.6774908498555
 21
-8396.048094333444
 31
0.0
  0
LINE
  5
2093
330
1F
100
AcDbEntity
  8
STAVBA OBRYS
100
AcDbLine
 10
-444.2360846187638
 20
-8382.541535089883
 30
0.0
 11
-450.3814542470008
 21
-8388.926454082476
 31
0.0
  0
LINE
  5
2094
330
1F
100
AcDbEntity
  8
STAVBA OBRYS
100
AcDbLine
 10
-469.8008202436394
 20
-8373.209729998791
 30
0.0
 11
-446.9400480159093
 21
-8373.946451257166
 31
0.0
  0
LINE
  5
2095
330
1F
100
AcDbEntity
  8
STAVBA OBRYS
100
AcDbLine
 10
-470.292450912717
 20
-8379.594648991382
 30
0.0
 11
-453.3312319221277
 21
-8380.822518110342
 31
0.0
  0
LINE
  5
2097
330
1F
100
AcDbEntity
  8
STAVBA OBRYS
100
AcDbLine
 10
-509.1311850191077
 20
-8396.29366773124
 30
0.0
 11
-498.0695192656594
 21
-8391.382192320394
 31
0.0
  0
LINE
  5
2098
330
1F
100
AcDbEntity
  8
STAVBA OBRYS
100
AcDbLine
 10
-507.1646665690232
 20
-8377.630058614046
 30
0.0
 11
-494.6281130345678
 21
-8391.627765718189
 31
0.0
  0
LINE
  5
2099
330
1F
100
AcDbEntity
  8
STAVBA OBRYS
100
AcDbLine
 10
-512.3267769722169
 20
-8389.908748738648
 30
0.0
 11
-486.7620392342287
 21
-8385.242846725597
 31
0.0
  0
LINE
  5
209A
330
1F
100
AcDbEntity
  8
STAVBA OBRYS
100
AcDbLine
 10
-512.5725912501994
 20
-8385.242846725597
 30
0.0
 11
-485.532965731204
 21
-8381.313665970923
 31
0.0
  0
LINE
  5
209B
330
1F
100
AcDbEntity
  8
STAVBA OBRYS
100
AcDbLine
 10
-486.7620392342287
 20
-8385.242846725597
 30
0.0
 11
-464.8845262315408
 21
-8384.014977606637
 31
0.0
  0
LWPOLYLINE
  5
209C
330
1F
100
AcDbEntity
  8
STAVBA OBRYS
370
    20
100
AcDbPolyline
 90
        8
 70
     0
 43
0.0
 10
-488.263161426591
 20
-8366.742002501444
 42
-0.0168162630274195
 10
-488.398187005655
 20
-8368.433040653565
 42
-0.0575155827655532
 10
-489.0782192859979
 20
-8371.532665314282
 42
-0.0310289133982999
 10
-492.081020630826
 20
-8378.777692838927
 42
-0.0882970623535771
 10
-493.718242550919
 20
-8381.018061889726
 42
-0.0171636441953577
 10
-496.531606612777
 20
-8383.531979244972
 42
-0.0157521173632038
 10
-499.7704614498133
 20
-8386.063475297479
 42
-0.0014948023799519
 10
-500.7031732973254
 20
-8386.742002501446
 42
-0.0014948023799519
  0
LINE
  5
209D
330
1F
100
AcDbEntity
  8
STAVBA OBRYS
100
AcDbLine
 10
-494.1364823654894
 20
-8396.29366773124
 30
0.0
 11
-482.8290044471723
 21
-8393.346782697731
 31
0.0
  0
LINE
  5
209E
330
1F
100
AcDbEntity
  8
STAVBA OBRYS
100
AcDbLine
 10
-498.0695192656594
 20
-8391.382192320394
 30
0.0
 11
-480.1250410500269
 21
-8387.453011565723
 31
0.0
  0
LINE
  5
209F
330
1F
100
AcDbEntity
  8
STAVBA OBRYS
100
AcDbLine
 10
-512.3267769722169
 20
-8370.999566223657
 30
0.0
 11
-483.0748187251547
 21
-8370.26284390029
 31
0.0
  0
LINE
  5
20A0
330
1F
100
AcDbEntity
  8
STAVBA OBRYS
100
AcDbLine
 10
-512.0809626942355
 20
-8375.911041634505
 30
0.0
 11
-487.4994841812886
 21
-8373.946451257166
 31
0.0
  0
LINE
  5
20A1
330
1F
100
AcDbEntity
  8
STAVBA OBRYS
100
AcDbLine
 10
-512.0809626942355
 20
-8379.103501130799
 30
0.0
 11
-487.745298459271
 21
-8377.630058614046
 31
0.0
  0
LINE
  5
20A2
330
1F
100
AcDbEntity
  8
STAVBA OBRYS
100
AcDbLine
 10
-489.7118169093555
 20
-8372.473008740414
 30
0.0
 11
-475.4545613159116
 21
-8392.118913578771
 31
0.0
  0
LINE
  5
20A3
330
1F
100
AcDbEntity
  8
CETRIS
100
AcDbLine
 10
-512.1911617533879
 20
-8342.742002501445
 30
0.0
 11
-512.1911617533869
 21
-8366.742002501444
 31
0.0
  0
LINE
  5
20A6
330
1F
100
AcDbEntity
  8
izolace
100
AcDbLine
 10
-512.1911617533869
 20
-8366.742002501444
 30
0.0
 11
-512.1911617533869
 21
-8396.742002501445
 31
0.0
  0
LINE
  5
20A8
330
1F
100
AcDbEntity
  8
izolace
100
AcDbLine
 10
-512.1911617533869
 20
-8426.742002501447
 30
0.0
 11
-207.1755423857648
 21
-8426.742002501447
 31
0.0
  0
LINE
  5
20A9
330
1F
100
AcDbEntity
  8
izolace
100
AcDbLine
 10
-432.1911617533869
 20
-8366.742002501444
 30
0.0
 11
-432.1911617533869
 21
-8426.742002501447
 31
0.0
  0
LINE
  5
23C2
330
1F
100
AcDbEntity
  8
SPOJOVACÍ
  6
DASHED
100
AcDbLine
 10
-473.3074101910242
 20
-8354.742002501446
 30
0.0
 11
-473.3074101910242
 21
-8355.917930742641
 31
0.0
  0
LINE
  5
23C3
330
1F
100
AcDbEntity
  8
SPOJOVACÍ
  6
DASHED
100
AcDbLine
 10
-474.6301015729041
 20
-8356.647188566387
 30
0.0
 11
-475.7185188752555
 21
-8357.694585116011
 31
0.0
  0
LINE
  5
23C4
330
1F
100
AcDbEntity
  8
SPOJOVACÍ
  6
DASHED
100
AcDbLine
 10
-473.3074101910242
 20
-8355.917930742641
 30
0.0
 11
-474.6301015729041
 21
-8356.647188566387
 31
0.0
  0
LINE
  5
23C5
330
1F
100
AcDbEntity
  8
SPOJOVACÍ
  6
DASHED
100
AcDbLine
 10
-483.3037118127467
 20
-8354.742002501446
 30
0.0
 11
-483.3037118127467
 21
-8355.917930742641
 31
0.0
  0
LINE
  5
23C6
330
1F
100
AcDbEntity
  8
SPOJOVACÍ
  6
DASHED
100
AcDbLine
 10
-482.6027127303023
 20
-8356.247919907769
 30
0.0
 11
-483.3037118127467
 21
-8355.917930742641
 31
0.0
  0
LINE
  5
23C7
330
1F
100
AcDbEntity
  8
SPOJOVACÍ
  6
DASHED
100
AcDbLine
 10
-481.3903215975805
 20
-8357.147641748001
 30
0.0
 11
-482.6027127303023
 21
-8356.247919907769
 31
0.0
  0
LINE
  5
23C8
330
1F
100
AcDbEntity
  8
SPOJOVACÍ
  6
DASHED
100
AcDbLine
 10
-473.3074101910242
 20
-8354.742002501446
 30
0.0
 11
-483.3037118127467
 21
-8354.742002501446
 31
0.0
  0
LINE
  5
23C9
330
1F
100
AcDbEntity
  8
SPOJOVACÍ
  6
DASHED
100
AcDbLine
 10
-473.3074101910242
 20
-8355.917930742641
 30
0.0
 11
-483.3037118127467
 21
-8355.917930742641
 31
0.0
  0
LINE
  5
23CA
330
1F
100
AcDbEntity
  8
SPOJOVACÍ
  6
DASHED
100
AcDbLine
 10
-476.9181479920007
 20
-8360.438417678452
 30
0.0
 11
-476.9828696242838
 21
-8361.209607827111
 31
0.0
  0
LINE
  5
23CB
330
1F
100
AcDbEntity
  8
SPOJOVACÍ
  6
DASHED
100
AcDbLine
 10
-476.4988247449873
 20
-8358.987194608742
 30
0.0
 11
-476.9181479920007
 21
-8360.438417678452
 31
0.0
  0
LINE
  5
23CC
330
1F
100
AcDbEntity
  8
SPOJOVACÍ
  6
DASHED
100
AcDbLine
 10
-476.9828696242838
 20
-8361.209607827111
 30
0.0
 11
-476.9828696242838
 21
-8365.166743094198
 31
0.0
  0
LINE
  5
23CD
330
1F
100
AcDbEntity
  8
SPOJOVACÍ
  6
DASHED
100
AcDbLine
 10
-475.9537045200195
 20
-8365.3262682431
 30
0.0
 11
-476.3238028678243
 21
-8365.539576156427
 31
0.0
  0
LINE
  5
23CE
330
1F
100
AcDbEntity
  8
SPOJOVACÍ
  6
DASHED
100
AcDbLine
 10
-475.9537045200195
 20
-8365.3262682431
 30
0.0
 11
-476.3238028678243
 21
-8364.955258325245
 31
0.0
  0
LINE
  5
23CF
330
1F
100
AcDbEntity
  8
SPOJOVACÍ
  6
DASHED
100
AcDbLine
 10
-476.9828696242838
 20
-8368.810297496608
 30
0.0
 11
-476.9828696242838
 21
-8371.280658375182
 31
0.0
  0
LINE
  5
23D0
330
1F
100
AcDbEntity
  8
SPOJOVACÍ
  6
DASHED
100
AcDbLine
 10
-476.9828696242838
 20
-8371.863153061987
 30
0.0
 11
-476.9828696242838
 21
-8374.340806518601
 31
0.0
  0
LINE
  5
23D1
330
1F
100
AcDbEntity
  8
SPOJOVACÍ
  6
DASHED
100
AcDbLine
 10
-475.9537045200195
 20
-8368.383681669682
 30
0.0
 11
-476.3238028678243
 21
-8368.597901155467
 31
0.0
  0
LINE
  5
23D2
330
1F
100
AcDbEntity
  8
SPOJOVACÍ
  6
DASHED
100
AcDbLine
 10
-475.9537045200195
 20
-8368.383681669682
 30
0.0
 11
-476.3238028678243
 21
-8368.013583324017
 31
0.0
  0
LINE
  5
23D3
330
1F
100
AcDbEntity
  8
SPOJOVACÍ
  6
DASHED
100
AcDbLine
 10
-475.9537045200195
 20
-8371.441095096535
 30
0.0
 11
-476.3238028678243
 21
-8371.655314582323
 31
0.0
  0
LINE
  5
23D4
330
1F
100
AcDbEntity
  8
SPOJOVACÍ
  6
DASHED
100
AcDbLine
 10
-475.9537045200195
 20
-8371.441095096535
 30
0.0
 11
-476.3238028678243
 21
-8371.070996750871
 31
0.0
  0
LINE
  5
23D5
330
1F
100
AcDbEntity
  8
SPOJOVACÍ
  6
DASHED
100
AcDbLine
 10
-475.9537045200195
 20
-8374.498508523126
 30
0.0
 11
-476.3238028678243
 21
-8374.712728008905
 31
0.0
  0
LINE
  5
23D6
330
1F
100
AcDbEntity
  8
SPOJOVACÍ
  6
DASHED
100
AcDbLine
 10
-475.9537045200195
 20
-8374.498508523126
 30
0.0
 11
-476.3238028678243
 21
-8374.12841017746
 31
0.0
  0
LINE
  5
23D7
330
1F
100
AcDbEntity
  8
SPOJOVACÍ
  6
DASHED
100
AcDbLine
 10
-476.9828696242838
 20
-8365.750149353191
 30
0.0
 11
-476.9828696242838
 21
-8368.21868708712
 31
0.0
  0
LINE
  5
23D8
330
1F
100
AcDbEntity
  8
SPOJOVACÍ
  6
DASHED
100
AcDbLine
 10
-479.8506760168311
 20
-8359.716452432751
 30
0.0
 11
-480.4514021489958
 21
-8358.330862567241
 31
0.0
  0
LINE
  5
23D9
330
1F
100
AcDbEntity
  8
SPOJOVACÍ
  6
DASHED
100
AcDbLine
 10
-479.6282523837653
 20
-8361.209607827111
 30
0.0
 11
-479.8506760168311
 21
-8359.716452432751
 31
0.0
  0
LINE
  5
23DA
330
1F
100
AcDbEntity
  8
SPOJOVACÍ
  6
DASHED
100
AcDbLine
 10
-479.6282523837653
 20
-8361.209607827111
 30
0.0
 11
-479.6282523837653
 21
-8366.053702922462
 31
0.0
  0
LINE
  5
23DB
330
1F
100
AcDbEntity
  8
SPOJOVACÍ
  6
DASHED
100
AcDbLine
 10
-480.6574174837514
 20
-8366.502196484033
 30
0.0
 11
-480.287319140225
 21
-8366.287976998247
 31
0.0
  0
LINE
  5
23DC
330
1F
100
AcDbEntity
  8
SPOJOVACÍ
  6
DASHED
100
AcDbLine
 10
-479.6282523837653
 20
-8366.64531333195
 30
0.0
 11
-479.6282523837653
 21
-8369.113851065879
 31
0.0
  0
LINE
  5
23DD
330
1F
100
AcDbEntity
  8
SPOJOVACÍ
  6
DASHED
100
AcDbLine
 10
-479.6282523837653
 20
-8369.698168897331
 30
0.0
 11
-479.6282523837653
 21
-8372.175822353943
 31
0.0
  0
LINE
  5
23DE
330
1F
100
AcDbEntity
  8
SPOJOVACÍ
  6
DASHED
100
AcDbLine
 10
-480.6574174837514
 20
-8369.559609910886
 30
0.0
 11
-480.287319140225
 21
-8369.929708256281
 31
0.0
  0
LINE
  5
23DF
330
1F
100
AcDbEntity
  8
SPOJOVACÍ
  6
DASHED
100
AcDbLine
 10
-480.6574174837514
 20
-8369.559609910886
 30
0.0
 11
-480.287319140225
 21
-8369.345390425101
 31
0.0
  0
LINE
  5
23E0
330
1F
100
AcDbEntity
  8
SPOJOVACÍ
  6
DASHED
100
AcDbLine
 10
-480.6574174837514
 20
-8372.617023337468
 30
0.0
 11
-480.287319140225
 21
-8372.988033255323
 31
0.0
  0
LINE
  5
23E1
330
1F
100
AcDbEntity
  8
SPOJOVACÍ
  6
DASHED
100
AcDbLine
 10
-480.6574174837514
 20
-8372.617023337468
 30
0.0
 11
-480.287319140225
 21
-8372.403715423876
 31
0.0
  0
LINE
  5
23E2
330
1F
100
AcDbEntity
  8
SPOJOVACÍ
  6
DASHED
100
AcDbLine
 10
-480.6574174837514
 20
-8366.502196484033
 30
0.0
 11
-480.287319140225
 21
-8366.872294829699
 31
0.0
  0
LINE
  5
23E3
330
1F
100
AcDbEntity
  8
SPOJOVACÍ
  6
DASHED
100
AcDbLine
 10
-475.9537045200195
 20
-8365.3262682431
 30
0.0
 11
-480.6574174837514
 21
-8366.502196484033
 31
0.0
  0
LINE
  5
23E4
330
1F
100
AcDbEntity
  8
SPOJOVACÍ
  6
DASHED
100
AcDbLine
 10
-476.3238028678243
 20
-8365.539576156427
 30
0.0
 11
-480.287319140225
 21
-8366.872294829699
 31
0.0
  0
LINE
  5
23E5
330
1F
100
AcDbEntity
  8
SPOJOVACÍ
  6
DASHED
100
AcDbLine
 10
-476.3238028678243
 20
-8364.955258325245
 30
0.0
 11
-480.287319140225
 21
-8366.287976998247
 31
0.0
  0
LINE
  5
23E6
330
1F
100
AcDbEntity
  8
SPOJOVACÍ
  6
DASHED
100
AcDbLine
 10
-475.9537045200195
 20
-8368.383681669682
 30
0.0
 11
-480.6574174837514
 21
-8369.559609910886
 31
0.0
  0
LINE
  5
23E7
330
1F
100
AcDbEntity
  8
SPOJOVACÍ
  6
DASHED
100
AcDbLine
 10
-476.3238028678243
 20
-8368.597901155467
 30
0.0
 11
-480.287319140225
 21
-8369.929708256281
 31
0.0
  0
LINE
  5
23E8
330
1F
100
AcDbEntity
  8
SPOJOVACÍ
  6
DASHED
100
AcDbLine
 10
-476.3238028678243
 20
-8368.013583324017
 30
0.0
 11
-480.287319140225
 21
-8369.345390425101
 31
0.0
  0
LINE
  5
23E9
330
1F
100
AcDbEntity
  8
SPOJOVACÍ
  6
DASHED
100
AcDbLine
 10
-475.9537045200195
 20
-8371.441095096535
 30
0.0
 11
-480.6574174837514
 21
-8372.617023337468
 31
0.0
  0
LINE
  5
23EA
330
1F
100
AcDbEntity
  8
SPOJOVACÍ
  6
DASHED
100
AcDbLine
 10
-476.3238028678243
 20
-8371.655314582323
 30
0.0
 11
-480.287319140225
 21
-8372.988033255323
 31
0.0
  0
LINE
  5
23EB
330
1F
100
AcDbEntity
  8
SPOJOVACÍ
  6
DASHED
100
AcDbLine
 10
-476.3238028678243
 20
-8371.070996750871
 30
0.0
 11
-480.287319140225
 21
-8372.403715423876
 31
0.0
  0
LINE
  5
23EC
330
1F
100
AcDbEntity
  8
SPOJOVACÍ
  6
DASHED
100
AcDbLine
 10
-476.9828696242838
 20
-8377.985272493731
 30
0.0
 11
-476.9828696242838
 21
-8379.207690920782
 31
0.0
  0
LINE
  5
23ED
330
1F
100
AcDbEntity
  8
SPOJOVACÍ
  6
DASHED
100
AcDbLine
 10
-476.9828696242838
 20
-8379.207690920782
 30
0.0
 11
-477.1296327609525
 21
-8380.380884445152
 31
0.0
  0
LINE
  5
23EE
330
1F
100
AcDbEntity
  8
SPOJOVACÍ
  6
DASHED
100
AcDbLine
 10
-477.2052932616279
 20
-8380.988903155888
 30
0.0
 11
-477.489703814157
 21
-8383.264187566231
 31
0.0
  0
LINE
  5
23EF
330
1F
100
AcDbEntity
  8
SPOJOVACÍ
  6
DASHED
100
AcDbLine
 10
-476.202563754552
 20
-8380.572314623835
 30
0.0
 11
-476.5735736718706
 21
-8380.786534109621
 31
0.0
  0
LINE
  5
23F0
330
1F
100
AcDbEntity
  8
SPOJOVACÍ
  6
DASHED
100
AcDbLine
 10
-476.202563754552
 20
-8380.572314623835
 30
0.0
 11
-476.5735736718706
 21
-8380.202216278169
 31
0.0
  0
LINE
  5
23F1
330
1F
100
AcDbEntity
  8
SPOJOVACÍ
  6
DASHED
100
AcDbLine
 10
-476.7558881265358
 20
-8383.526720383047
 30
0.0
 11
-477.1259864743406
 21
-8383.155710464922
 31
0.0
  0
LINE
  5
23F2
330
1F
100
AcDbEntity
  8
SPOJOVACÍ
  6
DASHED
100
AcDbLine
 10
-475.9537045200195
 20
-8377.556833522168
 30
0.0
 11
-476.3238028678243
 21
-8377.770141435496
 31
0.0
  0
LINE
  5
23F3
330
1F
100
AcDbEntity
  8
SPOJOVACÍ
  6
DASHED
100
AcDbLine
 10
-475.9537045200195
 20
-8377.556833522168
 30
0.0
 11
-476.3238028678243
 21
-8377.185823604042
 31
0.0
  0
LINE
  5
23F4
330
1F
100
AcDbEntity
  8
SPOJOVACÍ
  6
DASHED
100
AcDbLine
 10
-477.5671874581385
 20
-8383.882233572103
 30
0.0
 11
-477.8515980063893
 21
-8386.156606410251
 31
0.0
  0
LINE
  5
23F5
330
1F
100
AcDbEntity
  8
SPOJOVACÍ
  6
DASHED
100
AcDbLine
 10
-477.9272585070648
 20
-8386.764625120987
 30
0.0
 11
-478.3055610018855
 21
-8389.791956662437
 31
0.0
  0
LINE
  5
23F6
330
1F
100
AcDbEntity
  8
SPOJOVACÍ
  6
DASHED
100
AcDbLine
 10
-477.3092125027979
 20
-8386.480214569798
 30
0.0
 11
-477.6793108463244
 21
-8386.694434055579
 31
0.0
  0
LINE
  5
23F7
330
1F
100
AcDbEntity
  8
SPOJOVACÍ
  6
DASHED
100
AcDbLine
 10
-477.3092125027979
 20
-8386.480214569798
 30
0.0
 11
-477.6793108463244
 21
-8386.110116224134
 31
0.0
  0
LINE
  5
23F8
330
1F
100
AcDbEntity
  8
SPOJOVACÍ
  6
DASHED
100
AcDbLine
 10
-476.7558881265358
 20
-8383.526720383047
 30
0.0
 11
-477.1259864743406
 21
-8383.740028296374
 31
0.0
  0
LINE
  5
23F9
330
1F
100
AcDbEntity
  8
SPOJOVACÍ
  6
DASHED
100
AcDbLine
 10
-479.6282523837653
 20
-8375.817553611977
 30
0.0
 11
-479.6282523837653
 21
-8378.286091345904
 31
0.0
  0
LINE
  5
23FA
330
1F
100
AcDbEntity
  8
SPOJOVACÍ
  6
DASHED
100
AcDbLine
 10
-479.6282523837653
 20
-8378.877701755657
 30
0.0
 11
-479.6282523837653
 21
-8379.207690920782
 31
0.0
  0
LINE
  5
23FB
330
1F
100
AcDbEntity
  8
SPOJOVACÍ
  6
DASHED
100
AcDbLine
 10
-479.387597300527
 20
-8381.139312581842
 30
0.0
 11
-479.6282523837653
 21
-8379.207690920782
 31
0.0
  0
LINE
  5
23FC
330
1F
100
AcDbEntity
  8
SPOJOVACÍ
  6
DASHED
100
AcDbLine
 10
-480.2453868142402
 20
-8381.525819228492
 30
0.0
 11
-479.8752884707137
 21
-8381.896829146617
 31
0.0
  0
LINE
  5
23FD
330
1F
100
AcDbEntity
  8
SPOJOVACÍ
  6
DASHED
100
AcDbLine
 10
-480.2453868142402
 20
-8381.525819228492
 30
0.0
 11
-479.8752884707137
 21
-8381.312511315165
 31
0.0
  0
LINE
  5
23FE
330
1F
100
AcDbEntity
  8
SPOJOVACÍ
  6
DASHED
100
AcDbLine
 10
-480.6574174837514
 20
-8375.674436764059
 30
0.0
 11
-480.287319140225
 21
-8376.045446681912
 31
0.0
  0
LINE
  5
23FF
330
1F
100
AcDbEntity
  8
SPOJOVACÍ
  6
DASHED
100
AcDbLine
 10
-480.6574174837514
 20
-8375.674436764059
 30
0.0
 11
-480.287319140225
 21
-8375.461128850732
 31
0.0
  0
LINE
  5
2400
330
1F
100
AcDbEntity
  8
SPOJOVACÍ
  6
DASHED
100
AcDbLine
 10
-480.6574174837514
 20
-8378.732761763101
 30
0.0
 11
-480.287319140225
 21
-8379.102860108766
 31
0.0
  0
LINE
  5
2401
330
1F
100
AcDbEntity
  8
SPOJOVACÍ
  6
DASHED
100
AcDbLine
 10
-480.6574174837514
 20
-8378.732761763101
 30
0.0
 11
-480.287319140225
 21
-8378.518542277314
 31
0.0
  0
LINE
  5
2402
330
1F
100
AcDbEntity
  8
SPOJOVACÍ
  6
DASHED
100
AcDbLine
 10
-478.7230611098712
 20
-8386.454690545868
 30
0.0
 11
-478.9855939256158
 21
-8384.352604868583
 31
0.0
  0
LINE
  5
2403
330
1F
100
AcDbEntity
  8
SPOJOVACÍ
  6
DASHED
100
AcDbLine
 10
-479.8096552646383
 20
-8384.147501105481
 30
0.0
 11
-479.4395569211119
 21
-8384.518511023335
 31
0.0
  0
LINE
  5
2404
330
1F
100
AcDbEntity
  8
SPOJOVACÍ
  6
DASHED
100
AcDbLine
 10
-479.8096552646383
 20
-8384.147501105481
 30
0.0
 11
-479.4395569211119
 21
-8383.934193192153
 31
0.0
  0
LINE
  5
2405
330
1F
100
AcDbEntity
  8
SPOJOVACÍ
  6
DASHED
100
AcDbLine
 10
-479.4204139014254
 20
-8386.784679711258
 30
0.0
 11
-479.0503155578989
 21
-8387.155689629111
 31
0.0
  0
LINE
  5
2406
330
1F
100
AcDbEntity
  8
SPOJOVACÍ
  6
DASHED
100
AcDbLine
 10
-479.4204139014254
 20
-8386.784679711258
 30
0.0
 11
-479.0503155578989
 21
-8386.571371797668
 31
0.0
  0
LINE
  5
2407
330
1F
100
AcDbEntity
  8
SPOJOVACÍ
  6
DASHED
100
AcDbLine
 10
-479.0557849878168
 20
-8383.791987916422
 30
0.0
 11
-479.3174062340476
 21
-8381.698106389627
 31
0.0
  0
LINE
  5
2408
330
1F
100
AcDbEntity
  8
SPOJOVACÍ
  6
DASHED
100
AcDbLine
 10
-478.3055610018855
 20
-8389.791956662437
 30
0.0
 11
-478.6528700433918
 21
-8387.012572781193
 31
0.0
  0
LINE
  5
2409
330
1F
100
AcDbEntity
  8
SPOJOVACÍ
  6
DASHED
100
AcDbLine
 10
-476.5735736718706
 20
-8380.786534109621
 30
0.0
 11
-479.8752884707137
 21
-8381.896829146617
 31
0.0
  0
LINE
  5
240A
330
1F
100
AcDbEntity
  8
SPOJOVACÍ
  6
DASHED
100
AcDbLine
 10
-476.5735736718706
 20
-8380.202216278169
 30
0.0
 11
-479.8752884707137
 21
-8381.312511315165
 31
0.0
  0
LINE
  5
240B
330
1F
100
AcDbEntity
  8
SPOJOVACÍ
  6
DASHED
100
AcDbLine
 10
-476.202563754552
 20
-8380.572314623835
 30
0.0
 11
-480.2453868142402
 21
-8381.525819228492
 31
0.0
  0
LINE
  5
240C
330
1F
100
AcDbEntity
  8
SPOJOVACÍ
  6
DASHED
100
AcDbLine
 10
-477.1259864743406
 20
-8383.740028296374
 30
0.0
 11
-479.4395569211119
 21
-8384.518511023335
 31
0.0
  0
LINE
  5
240D
330
1F
100
AcDbEntity
  8
SPOJOVACÍ
  6
DASHED
100
AcDbLine
 10
-477.1259864743406
 20
-8383.155710464922
 30
0.0
 11
-479.4395569211119
 21
-8383.934193192153
 31
0.0
  0
LINE
  5
240E
330
1F
100
AcDbEntity
  8
SPOJOVACÍ
  6
DASHED
100
AcDbLine
 10
-476.7558881265358
 20
-8383.526720383047
 30
0.0
 11
-479.8096552646383
 21
-8384.147501105481
 31
0.0
  0
LINE
  5
240F
330
1F
100
AcDbEntity
  8
SPOJOVACÍ
  6
DASHED
100
AcDbLine
 10
-477.6793108463244
 20
-8386.694434055579
 30
0.0
 11
-479.0503155578989
 21
-8387.155689629111
 31
0.0
  0
LINE
  5
2410
330
1F
100
AcDbEntity
  8
SPOJOVACÍ
  6
DASHED
100
AcDbLine
 10
-477.6793108463244
 20
-8386.110116224134
 30
0.0
 11
-479.0503155578989
 21
-8386.571371797668
 31
0.0
  0
LINE
  5
2411
330
1F
100
AcDbEntity
  8
SPOJOVACÍ
  6
DASHED
100
AcDbLine
 10
-477.3092125027979
 20
-8386.480214569798
 30
0.0
 11
-479.4204139014254
 21
-8386.784679711258
 31
0.0
  0
LINE
  5
2412
330
1F
100
AcDbEntity
  8
SPOJOVACÍ
  6
DASHED
100
AcDbLine
 10
-475.9537045200195
 20
-8377.556833522168
 30
0.0
 11
-480.6574174837514
 21
-8378.732761763101
 31
0.0
  0
LINE
  5
2413
330
1F
100
AcDbEntity
  8
SPOJOVACÍ
  6
DASHED
100
AcDbLine
 10
-476.3238028678243
 20
-8377.770141435496
 30
0.0
 11
-480.287319140225
 21
-8379.102860108766
 31
0.0
  0
LINE
  5
2414
330
1F
100
AcDbEntity
  8
SPOJOVACÍ
  6
DASHED
100
AcDbLine
 10
-476.3238028678243
 20
-8377.185823604042
 30
0.0
 11
-480.287319140225
 21
-8378.518542277314
 31
0.0
  0
LINE
  5
2415
330
1F
100
AcDbEntity
  8
SPOJOVACÍ
  6
DASHED
100
AcDbLine
 10
-479.6282523837653
 20
-8372.758317040746
 30
0.0
 11
-479.6282523837653
 21
-8375.228677919322
 31
0.0
  0
LINE
  5
2416
330
1F
100
AcDbEntity
  8
SPOJOVACÍ
  6
DASHED
100
AcDbLine
 10
-476.9828696242838
 20
-8374.933328500539
 30
0.0
 11
-476.9828696242838
 21
-8377.400954662281
 31
0.0
  0
LINE
  5
2417
330
1F
100
AcDbEntity
  8
SPOJOVACÍ
  6
DASHED
100
AcDbLine
 10
-475.9537045200195
 20
-8374.498508523126
 30
0.0
 11
-480.6574174837514
 21
-8375.674436764059
 31
0.0
  0
LINE
  5
2418
330
1F
100
AcDbEntity
  8
SPOJOVACÍ
  6
DASHED
100
AcDbLine
 10
-476.3238028678243
 20
-8374.712728008905
 30
0.0
 11
-480.287319140225
 21
-8376.045446681912
 31
0.0
  0
LINE
  5
2419
330
1F
100
AcDbEntity
  8
SPOJOVACÍ
  6
DASHED
100
AcDbLine
 10
-476.3238028678243
 20
-8374.12841017746
 30
0.0
 11
-480.287319140225
 21
-8375.461128850732
 31
0.0
  0
LINE
  5
241A
330
1F
100
AcDbEntity
  8
SPOJOVACÍ
  6
DASHED
100
AcDbLine
 10
-480.4514021489958
 20
-8358.330862567241
 30
0.0
 11
-481.3903215975805
 21
-8357.147641748001
 31
0.0
  0
LINE
  5
241B
330
1F
100
AcDbEntity
  8
SPOJOVACÍ
  6
DASHED
100
AcDbLine
 10
-475.7185188752555
 20
-8357.694585116011
 30
0.0
 11
-476.4988247449873
 21
-8358.987194608742
 31
0.0
  0
LINE
  5
241C
330
1F
100
AcDbEntity
  8
STAVBA OBRYS
100
AcDbLine
 10
-487.4994841812886
 20
-8373.946451257166
 30
0.0
 11
-469.8008202436394
 21
-8373.209729998791
 31
0.0
  0
LINE
  5
241D
330
1F
100
AcDbEntity
  8
STAVBA OBRYS
100
AcDbLine
 10
-487.745298459271
 20
-8377.630058614046
 30
0.0
 11
-473.7338571438085
 21
-8376.893337355669
 31
0.0
  0
LINE
  5
241E
330
1F
100
AcDbEntity
  8
STAVBA OBRYS
100
AcDbLine
 10
-485.532965731204
 20
-8381.313665970923
 30
0.0
 11
-470.292450912717
 21
-8379.594648991382
 31
0.0
  0
LINE
  5
241F
330
1F
100
AcDbEntity
  8
izolace
  6
IZOLACE
 48
0.7
370
    20
100
AcDbLine
 10
-519.6911617533878
 20
-8396.742002501445
 30
0.0
 11
-519.6911617533878
 21
-8342.742002501445
 31
0.0
  0
LINE
  5
2420
330
1F
100
AcDbEntity
  8
CETRIS
100
AcDbLine
 10
-527.1911617533878
 20
-8342.742002501445
 30
0.0
 11
-527.1911617533878
 21
-8396.742002501445
 31
0.0
  0
LINE
  5
2421
330
1F
100
AcDbEntity
  8
izolace
100
AcDbLine
 10
-607.1911617533878
 20
-8366.742002501444
 30
0.0
 11
-607.1911617533878
 21
-8426.742002501447
 31
0.0
  0
LINE
  5
2424
330
1F
100
AcDbEntity
  8
STAVBA OBRYS
100
AcDbLine
 10
-607.0809626942355
 20
-8379.103501130799
 30
0.0
 11
-582.7452984592719
 21
-8377.630058614046
 31
0.0
  0
LINE
  5
2425
330
1F
100
AcDbEntity
  8
STAVBA OBRYS
100
AcDbLine
 10
-607.0809626942355
 20
-8375.911041634505
 30
0.0
 11
-582.4994841812895
 21
-8373.946451257166
 31
0.0
  0
LINE
  5
2426
330
1F
100
AcDbEntity
  8
STAVBA OBRYS
100
AcDbLine
 10
-607.3267769722178
 20
-8370.999566223657
 30
0.0
 11
-578.0748187251556
 21
-8370.26284390029
 31
0.0
  0
LINE
  5
2427
330
1F
100
AcDbEntity
  8
STAVBA OBRYS
100
AcDbLine
 10
-607.5725912502003
 20
-8385.242846725597
 30
0.0
 11
-580.5329657312049
 21
-8381.313665970923
 31
0.0
  0
LINE
  5
2428
330
1F
100
AcDbEntity
  8
STAVBA OBRYS
100
AcDbLine
 10
-607.3267769722178
 20
-8389.908748738648
 30
0.0
 11
-581.7620392342296
 21
-8385.242846725597
 31
0.0
  0
LINE
  5
2429
330
1F
100
AcDbEntity
  8
STAVBA OBRYS
100
AcDbLine
 10
-602.1646665690241
 20
-8377.630058614046
 30
0.0
 11
-589.6281130345687
 21
-8391.627765718189
 31
0.0
  0
LINE
  5
242A
330
1F
100
AcDbEntity
  8
STAVBA OBRYS
100
AcDbLine
 10
-604.1311850191086
 20
-8396.29366773124
 30
0.0
 11
-593.0695192656603
 21
-8391.382192320394
 31
0.0
  0
LWPOLYLINE
  5
242B
330
1F
100
AcDbEntity
  8
STAVBA OBRYS
370
    20
100
AcDbPolyline
 90
        8
 70
     0
 43
0.0
 10
-583.263161426592
 20
-8366.742002501444
 42
-0.0168162630274195
 10
-583.3981870056559
 20
-8368.433040653565
 42
-0.0575155827655532
 10
-584.0782192859988
 20
-8371.532665314282
 42
-0.0310289133982999
 10
-587.0810206308269
 20
-8378.777692838927
 42
-0.0882970623535771
 10
-588.7182425509199
 20
-8381.018061889726
 42
-0.0171636441953577
 10
-591.5316066127779
 20
-8383.531979244972
 42
-0.0157521173632038
 10
-594.7704614498142
 20
-8386.063475297479
 42
-0.0014948023799519
 10
-595.7031732973264
 20
-8386.742002501446
 42
-0.0014948023799519
  0
LINE
  5
242C
330
1F
100
AcDbEntity
  8
SPOJOVACÍ
  6
DASHED
100
AcDbLine
 10
-574.6282523837662
 20
-8366.64531333195
 30
0.0
 11
-574.6282523837662
 21
-8369.113851065879
 31
0.0
  0
LINE
  5
242D
330
1F
100
AcDbEntity
  8
SPOJOVACÍ
  6
DASHED
100
AcDbLine
 10
-571.9828696242848
 20
-8365.750149353191
 30
0.0
 11
-571.9828696242848
 21
-8368.21868708712
 31
0.0
  0
LINE
  5
242E
330
1F
100
AcDbEntity
  8
STAVBA OBRYS
100
AcDbLine
 10
-584.7118169093564
 20
-8372.473008740414
 30
0.0
 11
-570.4545613159125
 21
-8392.118913578771
 31
0.0
  0
LINE
  5
242F
330
1F
100
AcDbEntity
  8
STAVBA OBRYS
100
AcDbLine
 10
-581.7620392342296
 20
-8385.242846725597
 30
0.0
 11
-559.8845262315417
 21
-8384.014977606637
 31
0.0
  0
LINE
  5
2430
330
1F
100
AcDbEntity
  8
STAVBA OBRYS
100
AcDbLine
 10
-565.2924509127179
 20
-8379.594648991382
 30
0.0
 11
-548.3312319221286
 21
-8380.822518110342
 31
0.0
  0
LINE
  5
2431
330
1F
100
AcDbEntity
  8
STAVBA OBRYS
100
AcDbLine
 10
-567.5047836407848
 20
-8392.118913578771
 30
0.0
 11
-552.0184524312026
 21
-8392.85563483715
 31
0.0
  0
LINE
  5
2432
330
1F
100
AcDbEntity
  8
STAVBA OBRYS
100
AcDbLine
 10
-580.5329657312049
 20
-8381.313665970923
 30
0.0
 11
-565.2924509127179
 21
-8379.594648991382
 31
0.0
  0
LINE
  5
2433
330
1F
100
AcDbEntity
  8
SPOJOVACÍ
  6
DASHED
100
AcDbLine
 10
-571.3238028678252
 20
-8374.12841017746
 30
0.0
 11
-575.2873191402259
 21
-8375.461128850732
 31
0.0
  0
LINE
  5
2434
330
1F
100
AcDbEntity
  8
SPOJOVACÍ
  6
DASHED
100
AcDbLine
 10
-571.3238028678252
 20
-8374.712728008905
 30
0.0
 11
-575.2873191402259
 21
-8376.045446681912
 31
0.0
  0
LINE
  5
2435
330
1F
100
AcDbEntity
  8
SPOJOVACÍ
  6
DASHED
100
AcDbLine
 10
-570.9537045200204
 20
-8374.498508523126
 30
0.0
 11
-575.6574174837523
 21
-8375.674436764059
 31
0.0
  0
LINE
  5
2436
330
1F
100
AcDbEntity
  8
SPOJOVACÍ
  6
DASHED
100
AcDbLine
 10
-571.9828696242848
 20
-8374.933328500539
 30
0.0
 11
-571.9828696242848
 21
-8377.400954662281
 31
0.0
  0
LINE
  5
2437
330
1F
100
AcDbEntity
  8
SPOJOVACÍ
  6
DASHED
100
AcDbLine
 10
-574.6282523837662
 20
-8372.758317040746
 30
0.0
 11
-574.6282523837662
 21
-8375.228677919322
 31
0.0
  0
LINE
  5
2438
330
1F
100
AcDbEntity
  8
SPOJOVACÍ
  6
DASHED
100
AcDbLine
 10
-571.3238028678252
 20
-8377.185823604042
 30
0.0
 11
-575.2873191402259
 21
-8378.518542277314
 31
0.0
  0
LINE
  5
2439
330
1F
100
AcDbEntity
  8
SPOJOVACÍ
  6
DASHED
100
AcDbLine
 10
-571.3238028678252
 20
-8377.770141435496
 30
0.0
 11
-575.2873191402259
 21
-8379.102860108766
 31
0.0
  0
LINE
  5
243A
330
1F
100
AcDbEntity
  8
SPOJOVACÍ
  6
DASHED
100
AcDbLine
 10
-570.9537045200204
 20
-8377.556833522168
 30
0.0
 11
-575.6574174837523
 21
-8378.732761763101
 31
0.0
  0
LINE
  5
243B
330
1F
100
AcDbEntity
  8
SPOJOVACÍ
  6
DASHED
100
AcDbLine
 10
-571.2025637545529
 20
-8380.572314623835
 30
0.0
 11
-575.2453868142411
 21
-8381.525819228492
 31
0.0
  0
LINE
  5
243C
330
1F
100
AcDbEntity
  8
SPOJOVACÍ
  6
DASHED
100
AcDbLine
 10
-571.5735736718715
 20
-8380.202216278169
 30
0.0
 11
-574.8752884707146
 21
-8381.312511315165
 31
0.0
  0
LINE
  5
243D
330
1F
100
AcDbEntity
  8
SPOJOVACÍ
  6
DASHED
100
AcDbLine
 10
-571.5735736718715
 20
-8380.786534109621
 30
0.0
 11
-574.8752884707146
 21
-8381.896829146617
 31
0.0
  0
LINE
  5
243E
330
1F
100
AcDbEntity
  8
SPOJOVACÍ
  6
DASHED
100
AcDbLine
 10
-574.0557849878178
 20
-8383.791987916422
 30
0.0
 11
-574.3174062340485
 21
-8381.698106389627
 31
0.0
  0
LINE
  5
243F
330
1F
100
AcDbEntity
  8
SPOJOVACÍ
  6
DASHED
100
AcDbLine
 10
-575.6574174837523
 20
-8378.732761763101
 30
0.0
 11
-575.2873191402259
 21
-8378.518542277314
 31
0.0
  0
LINE
  5
2440
330
1F
100
AcDbEntity
  8
SPOJOVACÍ
  6
DASHED
100
AcDbLine
 10
-575.6574174837523
 20
-8378.732761763101
 30
0.0
 11
-575.2873191402259
 21
-8379.102860108766
 31
0.0
  0
LINE
  5
2441
330
1F
100
AcDbEntity
  8
SPOJOVACÍ
  6
DASHED
100
AcDbLine
 10
-575.6574174837523
 20
-8375.674436764059
 30
0.0
 11
-575.2873191402259
 21
-8375.461128850732
 31
0.0
  0
LINE
  5
2442
330
1F
100
AcDbEntity
  8
SPOJOVACÍ
  6
DASHED
100
AcDbLine
 10
-575.6574174837523
 20
-8375.674436764059
 30
0.0
 11
-575.2873191402259
 21
-8376.045446681912
 31
0.0
  0
LINE
  5
2443
330
1F
100
AcDbEntity
  8
SPOJOVACÍ
  6
DASHED
100
AcDbLine
 10
-575.2453868142411
 20
-8381.525819228492
 30
0.0
 11
-574.8752884707146
 21
-8381.312511315165
 31
0.0
  0
LINE
  5
2444
330
1F
100
AcDbEntity
  8
SPOJOVACÍ
  6
DASHED
100
AcDbLine
 10
-575.2453868142411
 20
-8381.525819228492
 30
0.0
 11
-574.8752884707146
 21
-8381.896829146617
 31
0.0
  0
LINE
  5
2445
330
1F
100
AcDbEntity
  8
SPOJOVACÍ
  6
DASHED
100
AcDbLine
 10
-574.3875973005279
 20
-8381.139312581842
 30
0.0
 11
-574.6282523837662
 21
-8379.207690920782
 31
0.0
  0
LINE
  5
2446
330
1F
100
AcDbEntity
  8
SPOJOVACÍ
  6
DASHED
100
AcDbLine
 10
-574.6282523837662
 20
-8378.877701755657
 30
0.0
 11
-574.6282523837662
 21
-8379.207690920782
 31
0.0
  0
LINE
  5
2447
330
1F
100
AcDbEntity
  8
SPOJOVACÍ
  6
DASHED
100
AcDbLine
 10
-574.6282523837662
 20
-8375.817553611977
 30
0.0
 11
-574.6282523837662
 21
-8378.286091345904
 31
0.0
  0
LINE
  5
2448
330
1F
100
AcDbEntity
  8
SPOJOVACÍ
  6
DASHED
100
AcDbLine
 10
-570.9537045200204
 20
-8377.556833522168
 30
0.0
 11
-571.3238028678252
 21
-8377.185823604042
 31
0.0
  0
LINE
  5
2449
330
1F
100
AcDbEntity
  8
SPOJOVACÍ
  6
DASHED
100
AcDbLine
 10
-570.9537045200204
 20
-8377.556833522168
 30
0.0
 11
-571.3238028678252
 21
-8377.770141435496
 31
0.0
  0
LINE
  5
244A
330
1F
100
AcDbEntity
  8
SPOJOVACÍ
  6
DASHED
100
AcDbLine
 10
-571.2025637545529
 20
-8380.572314623835
 30
0.0
 11
-571.5735736718715
 21
-8380.202216278169
 31
0.0
  0
LINE
  5
244B
330
1F
100
AcDbEntity
  8
SPOJOVACÍ
  6
DASHED
100
AcDbLine
 10
-571.2025637545529
 20
-8380.572314623835
 30
0.0
 11
-571.5735736718715
 21
-8380.786534109621
 31
0.0
  0
LINE
  5
244C
330
1F
100
AcDbEntity
  8
SPOJOVACÍ
  6
DASHED
100
AcDbLine
 10
-572.2052932616288
 20
-8380.988903155888
 30
0.0
 11
-572.489703814158
 21
-8383.264187566231
 31
0.0
  0
LINE
  5
244D
330
1F
100
AcDbEntity
  8
SPOJOVACÍ
  6
DASHED
100
AcDbLine
 10
-571.9828696242848
 20
-8379.207690920782
 30
0.0
 11
-572.1296327609534
 21
-8380.380884445152
 31
0.0
  0
LINE
  5
244E
330
1F
100
AcDbEntity
  8
SPOJOVACÍ
  6
DASHED
100
AcDbLine
 10
-571.9828696242848
 20
-8377.985272493731
 30
0.0
 11
-571.9828696242848
 21
-8379.207690920782
 31
0.0
  0
LINE
  5
244F
330
1F
100
AcDbEntity
  8
SPOJOVACÍ
  6
DASHED
100
AcDbLine
 10
-571.3238028678252
 20
-8371.070996750871
 30
0.0
 11
-575.2873191402259
 21
-8372.403715423876
 31
0.0
  0
LINE
  5
2450
330
1F
100
AcDbEntity
  8
SPOJOVACÍ
  6
DASHED
100
AcDbLine
 10
-571.3238028678252
 20
-8371.655314582323
 30
0.0
 11
-575.2873191402259
 21
-8372.988033255323
 31
0.0
  0
LINE
  5
2451
330
1F
100
AcDbEntity
  8
SPOJOVACÍ
  6
DASHED
100
AcDbLine
 10
-570.9537045200204
 20
-8371.441095096535
 30
0.0
 11
-575.6574174837523
 21
-8372.617023337468
 31
0.0
  0
LINE
  5
2452
330
1F
100
AcDbEntity
  8
SPOJOVACÍ
  6
DASHED
100
AcDbLine
 10
-571.3238028678252
 20
-8368.013583324017
 30
0.0
 11
-575.2873191402259
 21
-8369.345390425101
 31
0.0
  0
LINE
  5
2453
330
1F
100
AcDbEntity
  8
SPOJOVACÍ
  6
DASHED
100
AcDbLine
 10
-571.3238028678252
 20
-8368.597901155467
 30
0.0
 11
-575.2873191402259
 21
-8369.929708256281
 31
0.0
  0
LINE
  5
2454
330
1F
100
AcDbEntity
  8
SPOJOVACÍ
  6
DASHED
100
AcDbLine
 10
-570.9537045200204
 20
-8368.383681669682
 30
0.0
 11
-575.6574174837523
 21
-8369.559609910886
 31
0.0
  0
LINE
  5
2455
330
1F
100
AcDbEntity
  8
SPOJOVACÍ
  6
DASHED
100
AcDbLine
 10
-575.6574174837523
 20
-8372.617023337468
 30
0.0
 11
-575.2873191402259
 21
-8372.403715423876
 31
0.0
  0
LINE
  5
2456
330
1F
100
AcDbEntity
  8
SPOJOVACÍ
  6
DASHED
100
AcDbLine
 10
-575.6574174837523
 20
-8372.617023337468
 30
0.0
 11
-575.2873191402259
 21
-8372.988033255323
 31
0.0
  0
LINE
  5
2457
330
1F
100
AcDbEntity
  8
SPOJOVACÍ
  6
DASHED
100
AcDbLine
 10
-575.6574174837523
 20
-8369.559609910886
 30
0.0
 11
-575.2873191402259
 21
-8369.345390425101
 31
0.0
  0
LINE
  5
2458
330
1F
100
AcDbEntity
  8
SPOJOVACÍ
  6
DASHED
100
AcDbLine
 10
-575.6574174837523
 20
-8369.559609910886
 30
0.0
 11
-575.2873191402259
 21
-8369.929708256281
 31
0.0
  0
LINE
  5
2459
330
1F
100
AcDbEntity
  8
SPOJOVACÍ
  6
DASHED
100
AcDbLine
 10
-574.6282523837662
 20
-8369.698168897331
 30
0.0
 11
-574.6282523837662
 21
-8372.175822353943
 31
0.0
  0
LINE
  5
245A
330
1F
100
AcDbEntity
  8
SPOJOVACÍ
  6
DASHED
100
AcDbLine
 10
-570.9537045200204
 20
-8374.498508523126
 30
0.0
 11
-571.3238028678252
 21
-8374.12841017746
 31
0.0
  0
LINE
  5
245B
330
1F
100
AcDbEntity
  8
SPOJOVACÍ
  6
DASHED
100
AcDbLine
 10
-570.9537045200204
 20
-8374.498508523126
 30
0.0
 11
-571.3238028678252
 21
-8374.712728008905
 31
0.0
  0
LINE
  5
245C
330
1F
100
AcDbEntity
  8
SPOJOVACÍ
  6
DASHED
100
AcDbLine
 10
-570.9537045200204
 20
-8371.441095096535
 30
0.0
 11
-571.3238028678252
 21
-8371.070996750871
 31
0.0
  0
LINE
  5
245D
330
1F
100
AcDbEntity
  8
SPOJOVACÍ
  6
DASHED
100
AcDbLine
 10
-570.9537045200204
 20
-8371.441095096535
 30
0.0
 11
-571.3238028678252
 21
-8371.655314582323
 31
0.0
  0
LINE
  5
245E
330
1F
100
AcDbEntity
  8
SPOJOVACÍ
  6
DASHED
100
AcDbLine
 10
-570.9537045200204
 20
-8368.383681669682
 30
0.0
 11
-571.3238028678252
 21
-8368.013583324017
 31
0.0
  0
LINE
  5
245F
330
1F
100
AcDbEntity
  8
SPOJOVACÍ
  6
DASHED
100
AcDbLine
 10
-570.9537045200204
 20
-8368.383681669682
 30
0.0
 11
-571.3238028678252
 21
-8368.597901155467
 31
0.0
  0
LINE
  5
2460
330
1F
100
AcDbEntity
  8
SPOJOVACÍ
  6
DASHED
100
AcDbLine
 10
-571.9828696242848
 20
-8371.863153061987
 30
0.0
 11
-571.9828696242848
 21
-8374.340806518601
 31
0.0
  0
LINE
  5
2461
330
1F
100
AcDbEntity
  8
SPOJOVACÍ
  6
DASHED
100
AcDbLine
 10
-571.9828696242848
 20
-8368.810297496608
 30
0.0
 11
-571.9828696242848
 21
-8371.280658375182
 31
0.0
  0
LINE
  5
2462
330
1F
100
AcDbEntity
  8
STAVBA OBRYS
100
AcDbLine
 10
-593.0695192656603
 20
-8391.382192320394
 30
0.0
 11
-575.1250410500278
 21
-8387.453011565723
 31
0.0
  0
LINE
  5
2463
330
1F
100
AcDbEntity
  8
STAVBA OBRYS
100
AcDbLine
 10
-589.1364823654903
 20
-8396.29366773124
 30
0.0
 11
-577.8290044471732
 21
-8393.346782697731
 31
0.0
  0
LINE
  5
2464
330
1F
100
AcDbEntity
  8
STAVBA OBRYS
100
AcDbLine
 10
-564.8008202436403
 20
-8373.209729998791
 30
0.0
 11
-541.9400480159102
 21
-8373.946451257166
 31
0.0
  0
LINE
  5
2465
330
1F
100
AcDbEntity
  8
STAVBA OBRYS
100
AcDbLine
 10
-578.0748187251556
 20
-8370.26284390029
 30
0.0
 11
-551.2810095972554
 21
-8370.508418363078
 31
0.0
  0
LINE
  5
2466
330
1F
100
AcDbEntity
  8
STAVBA OBRYS
100
AcDbLine
 10
-568.7338571438094
 20
-8376.893337355669
 30
0.0
 11
-548.8228604780934
 21
-8377.384485216252
 31
0.0
  0
LINE
  5
2467
330
1F
100
AcDbEntity
  8
STAVBA OBRYS
100
AcDbLine
 10
-582.7452984592719
 20
-8377.630058614046
 30
0.0
 11
-568.7338571438094
 21
-8376.893337355669
 31
0.0
  0
LINE
  5
2468
330
1F
100
AcDbEntity
  8
STAVBA OBRYS
100
AcDbLine
 10
-582.4994841812895
 20
-8373.946451257166
 30
0.0
 11
-564.8008202436403
 21
-8373.209729998791
 31
0.0
  0
LINE
  5
2469
330
1F
100
AcDbEntity
  8
SPOJOVACÍ
  6
DASHED
100
AcDbLine
 10
-570.7185188752564
 20
-8357.694585116011
 30
0.0
 11
-571.4988247449882
 21
-8358.987194608742
 31
0.0
  0
LINE
  5
246A
330
1F
100
AcDbEntity
  8
SPOJOVACÍ
  6
DASHED
100
AcDbLine
 10
-575.4514021489967
 20
-8358.330862567241
 30
0.0
 11
-576.3903215975815
 21
-8357.147641748001
 31
0.0
  0
LINE
  5
246B
330
1F
100
AcDbEntity
  8
SPOJOVACÍ
  6
DASHED
100
AcDbLine
 10
-571.3238028678252
 20
-8364.955258325245
 30
0.0
 11
-575.2873191402259
 21
-8366.287976998247
 31
0.0
  0
LINE
  5
246C
330
1F
100
AcDbEntity
  8
SPOJOVACÍ
  6
DASHED
100
AcDbLine
 10
-571.3238028678252
 20
-8365.539576156427
 30
0.0
 11
-575.2873191402259
 21
-8366.872294829699
 31
0.0
  0
LINE
  5
246D
330
1F
100
AcDbEntity
  8
SPOJOVACÍ
  6
DASHED
100
AcDbLine
 10
-570.9537045200204
 20
-8365.3262682431
 30
0.0
 11
-575.6574174837523
 21
-8366.502196484033
 31
0.0
  0
LINE
  5
246E
330
1F
100
AcDbEntity
  8
SPOJOVACÍ
  6
DASHED
100
AcDbLine
 10
-575.6574174837523
 20
-8366.502196484033
 30
0.0
 11
-575.2873191402259
 21
-8366.872294829699
 31
0.0
  0
LINE
  5
246F
330
1F
100
AcDbEntity
  8
SPOJOVACÍ
  6
DASHED
100
AcDbLine
 10
-575.6574174837523
 20
-8366.502196484033
 30
0.0
 11
-575.2873191402259
 21
-8366.287976998247
 31
0.0
  0
LINE
  5
2470
330
1F
100
AcDbEntity
  8
SPOJOVACÍ
  6
DASHED
100
AcDbLine
 10
-574.6282523837662
 20
-8361.209607827111
 30
0.0
 11
-574.6282523837662
 21
-8366.053702922462
 31
0.0
  0
LINE
  5
2471
330
1F
100
AcDbEntity
  8
SPOJOVACÍ
  6
DASHED
100
AcDbLine
 10
-574.6282523837662
 20
-8361.209607827111
 30
0.0
 11
-574.850676016832
 21
-8359.716452432751
 31
0.0
  0
LINE
  5
2472
330
1F
100
AcDbEntity
  8
SPOJOVACÍ
  6
DASHED
100
AcDbLine
 10
-574.850676016832
 20
-8359.716452432751
 30
0.0
 11
-575.4514021489967
 21
-8358.330862567241
 31
0.0
  0
LINE
  5
2473
330
1F
100
AcDbEntity
  8
SPOJOVACÍ
  6
DASHED
100
AcDbLine
 10
-570.9537045200204
 20
-8365.3262682431
 30
0.0
 11
-571.3238028678252
 21
-8364.955258325245
 31
0.0
  0
LINE
  5
2474
330
1F
100
AcDbEntity
  8
SPOJOVACÍ
  6
DASHED
100
AcDbLine
 10
-570.9537045200204
 20
-8365.3262682431
 30
0.0
 11
-571.3238028678252
 21
-8365.539576156427
 31
0.0
  0
LINE
  5
2475
330
1F
100
AcDbEntity
  8
SPOJOVACÍ
  6
DASHED
100
AcDbLine
 10
-571.9828696242848
 20
-8361.209607827111
 30
0.0
 11
-571.9828696242848
 21
-8365.166743094198
 31
0.0
  0
LINE
  5
2476
330
1F
100
AcDbEntity
  8
SPOJOVACÍ
  6
DASHED
100
AcDbLine
 10
-571.4988247449882
 20
-8358.987194608742
 30
0.0
 11
-571.9181479920016
 21
-8360.438417678452
 31
0.0
  0
LINE
  5
2477
330
1F
100
AcDbEntity
  8
SPOJOVACÍ
  6
DASHED
100
AcDbLine
 10
-571.9181479920016
 20
-8360.438417678452
 30
0.0
 11
-571.9828696242848
 21
-8361.209607827111
 31
0.0
  0
LINE
  5
2478
330
1F
100
AcDbEntity
  8
SPOJOVACÍ
  6
DASHED
100
AcDbLine
 10
-568.3074101910251
 20
-8355.917930742641
 30
0.0
 11
-578.3037118127476
 21
-8355.917930742641
 31
0.0
  0
LINE
  5
2479
330
1F
100
AcDbEntity
  8
SPOJOVACÍ
  6
DASHED
100
AcDbLine
 10
-576.3903215975815
 20
-8357.147641748001
 30
0.0
 11
-577.6027127303032
 21
-8356.247919907769
 31
0.0
  0
LINE
  5
247A
330
1F
100
AcDbEntity
  8
SPOJOVACÍ
  6
DASHED
100
AcDbLine
 10
-577.6027127303032
 20
-8356.247919907769
 30
0.0
 11
-578.3037118127476
 21
-8355.917930742641
 31
0.0
  0
LINE
  5
247B
330
1F
100
AcDbEntity
  8
SPOJOVACÍ
  6
DASHED
100
AcDbLine
 10
-578.3037118127476
 20
-8354.742002501446
 30
0.0
 11
-578.3037118127476
 21
-8355.917930742641
 31
0.0
  0
LINE
  5
247C
330
1F
100
AcDbEntity
  8
SPOJOVACÍ
  6
DASHED
100
AcDbLine
 10
-568.3074101910251
 20
-8355.917930742641
 30
0.0
 11
-569.630101572905
 21
-8356.647188566387
 31
0.0
  0
LINE
  5
247D
330
1F
100
AcDbEntity
  8
SPOJOVACÍ
  6
DASHED
100
AcDbLine
 10
-569.630101572905
 20
-8356.647188566387
 30
0.0
 11
-570.7185188752564
 21
-8357.694585116011
 31
0.0
  0
LINE
  5
247E
330
1F
100
AcDbEntity
  8
SPOJOVACÍ
  6
DASHED
100
AcDbLine
 10
-568.3074101910251
 20
-8354.742002501446
 30
0.0
 11
-568.3074101910251
 21
-8355.917930742641
 31
0.0
  0
LINE
  5
247F
330
1F
100
AcDbEntity
  8
SPOJOVACÍ
  6
DASHED
100
AcDbLine
 10
-572.3092125027988
 20
-8386.480214569798
 30
0.0
 11
-574.4204139014263
 21
-8386.784679711258
 31
0.0
  0
LINE
  5
2480
330
1F
100
AcDbEntity
  8
SPOJOVACÍ
  6
DASHED
100
AcDbLine
 10
-572.6793108463253
 20
-8386.110116224134
 30
0.0
 11
-574.0503155578998
 21
-8386.571371797668
 31
0.0
  0
LINE
  5
2481
330
1F
100
AcDbEntity
  8
SPOJOVACÍ
  6
DASHED
100
AcDbLine
 10
-572.6793108463253
 20
-8386.694434055579
 30
0.0
 11
-574.0503155578998
 21
-8387.155689629111
 31
0.0
  0
LINE
  5
2482
330
1F
100
AcDbEntity
  8
SPOJOVACÍ
  6
DASHED
100
AcDbLine
 10
-571.7558881265367
 20
-8383.526720383047
 30
0.0
 11
-574.8096552646393
 21
-8384.147501105481
 31
0.0
  0
LINE
  5
2483
330
1F
100
AcDbEntity
  8
SPOJOVACÍ
  6
DASHED
100
AcDbLine
 10
-572.1259864743415
 20
-8383.155710464922
 30
0.0
 11
-574.4395569211128
 21
-8383.934193192153
 31
0.0
  0
LINE
  5
2484
330
1F
100
AcDbEntity
  8
SPOJOVACÍ
  6
DASHED
100
AcDbLine
 10
-572.1259864743415
 20
-8383.740028296374
 30
0.0
 11
-574.4395569211128
 21
-8384.518511023335
 31
0.0
  0
LINE
  5
2485
330
1F
100
AcDbEntity
  8
SPOJOVACÍ
  6
DASHED
100
AcDbLine
 10
-573.3055610018864
 20
-8389.791956662437
 30
0.0
 11
-573.6528700433928
 21
-8387.012572781193
 31
0.0
  0
LINE
  5
2486
330
1F
100
AcDbEntity
  8
SPOJOVACÍ
  6
DASHED
100
AcDbLine
 10
-574.4204139014263
 20
-8386.784679711258
 30
0.0
 11
-574.0503155578998
 21
-8386.571371797668
 31
0.0
  0
LINE
  5
2487
330
1F
100
AcDbEntity
  8
SPOJOVACÍ
  6
DASHED
100
AcDbLine
 10
-574.4204139014263
 20
-8386.784679711258
 30
0.0
 11
-574.0503155578998
 21
-8387.155689629111
 31
0.0
  0
LINE
  5
2488
330
1F
100
AcDbEntity
  8
SPOJOVACÍ
  6
DASHED
100
AcDbLine
 10
-574.8096552646393
 20
-8384.147501105481
 30
0.0
 11
-574.4395569211128
 21
-8383.934193192153
 31
0.0
  0
LINE
  5
2489
330
1F
100
AcDbEntity
  8
SPOJOVACÍ
  6
DASHED
100
AcDbLine
 10
-574.8096552646393
 20
-8384.147501105481
 30
0.0
 11
-574.4395569211128
 21
-8384.518511023335
 31
0.0
  0
LINE
  5
248A
330
1F
100
AcDbEntity
  8
SPOJOVACÍ
  6
DASHED
100
AcDbLine
 10
-573.7230611098721
 20
-8386.454690545868
 30
0.0
 11
-573.9855939256167
 21
-8384.352604868583
 31
0.0
  0
LINE
  5
248B
330
1F
100
AcDbEntity
  8
SPOJOVACÍ
  6
DASHED
100
AcDbLine
 10
-571.7558881265367
 20
-8383.526720383047
 30
0.0
 11
-572.1259864743415
 21
-8383.740028296374
 31
0.0
  0
LINE
  5
248C
330
1F
100
AcDbEntity
  8
SPOJOVACÍ
  6
DASHED
100
AcDbLine
 10
-572.3092125027988
 20
-8386.480214569798
 30
0.0
 11
-572.6793108463253
 21
-8386.110116224134
 31
0.0
  0
LINE
  5
248D
330
1F
100
AcDbEntity
  8
SPOJOVACÍ
  6
DASHED
100
AcDbLine
 10
-572.3092125027988
 20
-8386.480214569798
 30
0.0
 11
-572.6793108463253
 21
-8386.694434055579
 31
0.0
  0
LINE
  5
248E
330
1F
100
AcDbEntity
  8
SPOJOVACÍ
  6
DASHED
100
AcDbLine
 10
-572.9272585070657
 20
-8386.764625120987
 30
0.0
 11
-573.3055610018864
 21
-8389.791956662437
 31
0.0
  0
LINE
  5
248F
330
1F
100
AcDbEntity
  8
SPOJOVACÍ
  6
DASHED
100
AcDbLine
 10
-572.5671874581394
 20
-8383.882233572103
 30
0.0
 11
-572.8515980063902
 21
-8386.156606410251
 31
0.0
  0
LINE
  5
2490
330
1F
100
AcDbEntity
  8
SPOJOVACÍ
  6
DASHED
100
AcDbLine
 10
-571.7558881265367
 20
-8383.526720383047
 30
0.0
 11
-572.1259864743415
 21
-8383.155710464922
 31
0.0
  0
LINE
  5
2491
330
1F
100
AcDbEntity
  8
SPOJOVACÍ
  6
DASHED
100
AcDbLine
 10
-568.3074101910251
 20
-8354.742002501446
 30
0.0
 11
-578.3037118127476
 21
-8354.742002501446
 31
0.0
  0
LINE
  5
2492
330
1F
100
AcDbEntity
  8
STAVBA OBRYS
100
AcDbLine
 10
-548.8228604780934
 20
-8371.981860879831
 30
0.0
 11
-561.6052282905302
 21
-8392.364486976566
 31
0.0
  0
LINE
  5
2493
330
1F
100
AcDbEntity
  8
STAVBA OBRYS
100
AcDbLine
 10
-539.2360846187648
 20
-8382.541535089883
 30
0.0
 11
-545.3814542470017
 21
-8388.926454082476
 31
0.0
  0
LINE
  5
2494
330
1F
100
AcDbEntity
  8
STAVBA OBRYS
100
AcDbLine
 10
-552.0184524312026
 20
-8392.85563483715
 30
0.0
 11
-542.6774908498564
 21
-8396.048094333444
 31
0.0
  0
LINE
  5
2495
330
1F
100
AcDbEntity
  8
STAVBA OBRYS
100
AcDbLine
 10
-559.8845262315417
 20
-8384.014977606637
 30
0.0
 11
-538.9902703407824
 21
-8386.225142446761
 31
0.0
  0
LINE
  5
2496
330
1F
100
AcDbEntity
  8
STAVBA OBRYS
100
AcDbLine
 10
-548.3312319221286
 20
-8380.822518110342
 30
0.0
 11
-534.5656048846485
 21
-8381.068091508138
 31
0.0
  0
LINE
  5
2497
330
1F
100
AcDbEntity
  8
STAVBA OBRYS
100
AcDbLine
 10
-556.9347485564139
 20
-8387.453011565723
 30
0.0
 11
-531.6158272095217
 21
-8393.101208234943
 31
0.0
  0
LINE
  5
2498
330
1F
100
AcDbEntity
  8
STAVBA OBRYS
100
AcDbLine
 10
-538.9902703407824
 20
-8386.225142446761
 30
0.0
 11
-526.9453453622918
 21
-8387.944158361312
 31
0.0
  0
LINE
  5
2499
330
1F
100
AcDbEntity
  8
STAVBA OBRYS
100
AcDbLine
 10
-548.8228604780934
 20
-8377.384485216252
 30
0.0
 11
-527.1911617533878
 21
-8378.121206474629
 31
0.0
  0
LINE
  5
249A
330
1F
100
AcDbEntity
  8
STAVBA OBRYS
100
AcDbLine
 10
-551.2810095972554
 20
-8370.508418363078
 30
0.0
 11
-527.3054452852156
 21
-8370.987459813406
 31
0.0
  0
LINE
  5
249B
330
1F
100
AcDbEntity
  8
STAVBA OBRYS
100
AcDbLine
 10
-541.9400480159102
 20
-8373.946451257166
 30
0.0
 11
-527.1911617533878
 21
-8374.437599117749
 31
0.0
  0
LINE
  5
249D
330
1F
100
AcDbEntity
  8
izolace
  6
IZOLACE
 48
3.0
100
AcDbLine
 10
-607.1911617533878
 20
-8396.742002501445
 30
0.0
 11
-865.1212048968336
 21
-8396.742002501445
 31
0.0
  0
LWPOLYLINE
  5
24A0
330
1F
100
AcDbEntity
  8
izolace
100
AcDbPolyline
 90
        4
 70
     1
 43
0.0
 10
-216.1823479053778
 20
-8486.742002501445
 10
-239.824080615213
 20
-8486.742002501445
 10
-239.824080615213
 20
-8489.742002501445
 10
-216.1823479053778
 20
-8489.742002501445
  0
HATCH
  5
24A1
330
1F
100
AcDbEntity
  8
izolace
100
AcDbHatch
 10
0.0
 20
0.0
 30
0.0
210
0.0
220
0.0
230
1.0
  2
SOLID
 70
     1
 71
     0
 91
        1
 92
        7
 72
     0
 73
     1
 93
        4
 10
-239.824080615213
 20
-8486.742002501445
 10
-239.8240806152093
 20
-8489.742002501445
 10
-216.1823479053741
 20
-8489.742002501445
 10
-216.1823479053741
 20
-8486.742002501445
 97
        0
 75
     0
 76
     1
 47
0.1901250437635136
 98
        1
 10
-230.4662858568694
 20
-8487.558814052524
  0
LWPOLYLINE
  5
24A2
330
1F
100
AcDbEntity
  8
izolace
100
AcDbPolyline
 90
        4
 70
     1
 43
0.0
 10
-209.3805043043244
 20
-8486.742002501445
 10
-233.0222370141596
 20
-8486.742002501445
 10
-233.0222370141596
 20
-8489.742002501445
 10
-209.3805043043244
 20
-8489.742002501445
  0
HATCH
  5
24A3
330
1F
100
AcDbEntity
  8
izolace
100
AcDbHatch
 10
0.0
 20
0.0
 30
0.0
210
0.0
220
0.0
230
1.0
  2
SOLID
 70
     1
 71
     0
 91
        1
 92
        7
 72
     0
 73
     1
 93
        4
 10
-233.0222370141596
 20
-8486.742002501445
 10
-233.0222370141559
 20
-8489.742002501445
 10
-209.3805043043207
 20
-8489.742002501445
 10
-209.3805043043207
 20
-8486.742002501445
 97
        0
 75
     0
 76
     1
 47
0.1901250437635136
 98
        1
 10
-223.664442255816
 20
-8487.558814052524
  0
INSERT
  5
2DED
330
1F
100
AcDbEntity
  8
POPIS
100
AcDbBlockReference
  2
E_PUNKT
 10
-522.1733581470271
 20
-8370.651130543805
 30
0.0
 50
270.0
  0
INSERT
  5
2DEE
330
1F
100
AcDbEntity
  8
POPIS
100
AcDbBlockReference
  2
E_PUNKT
 10
-276.3799674776328
 20
-8489.413868339195
 30
0.0
 50
270.0
  0
INSERT
  5
2DEF
330
1F
100
AcDbEntity
  8
POPIS
100
AcDbBlockReference
  2
E_PUNKT
 10
-377.9467308670573
 20
-8396.174110081068
 30
0.0
 50
270.0
  0
INSERT
  5
2DF2
330
1F
100
AcDbEntity
  8
POPIS
100
AcDbBlockReference
  2
E_PUNKT
 10
-457.4618187275573
 20
-8413.149005645676
 30
0.0
 50
270.0
  0
INSERT
  5
2DF3
330
1F
100
AcDbEntity
  8
POPIS
100
AcDbBlockReference
  2
E_PUNKT
 10
-585.4146587004233
 20
-8383.921978915058
 30
0.0
 50
270.0
  0
TEXT
  5
2DF4
330
1F
100
AcDbEntity
  8
POPIS
100
AcDbText
 10
-248.1356197267905
 20
-8566.989435128759
 30
0.0
 40
25.0
  1
13
 41
0.85
  7
SIMPLEX7
100
AcDbText
  0
LINE
  5
2DF5
330
1F
100
AcDbEntity
  8
POPIS
370
    20
100
AcDbLine
 10
-225.2277981126244
 20
-8534.357597081827
 30
0.0
 11
-225.2277981126244
 21
-8507.949943734832
 31
0.0
  0
INSERT
  5
2DF6
330
1F
100
AcDbEntity
  8
POPIS
100
AcDbBlockReference
  2
E_PUNKT
 10
-225.2568664434966
 20
-8507.532381504324
 30
0.0
 50
270.0
  0
LINE
  5
4EB0
330
1F
100
AcDbEntity
  8
CETRIS
100
AcDbLine
 10
-432.1911617533869
 20
-8367.242002501447
 30
0.0
 11
-207.1755423857612
 21
-8367.242002501447
 31
0.0
  0
LINE
  5
4EB1
330
1F
100
AcDbEntity
  8
CETRIS
100
AcDbLine
 10
-865.1212048968336
 20
-8367.242002501447
 30
0.0
 11
-607.1911617533878
 21
-8367.242002501447
 31
0.0
  0
LINE
  5
4EB2
330
1F
100
AcDbEntity
  8
CETRIS
100
AcDbLine
 10
-432.1911617533869
 20
-8367.742002501445
 30
0.0
 11
-207.1755423857612
 21
-8367.742002501445
 31
0.0
  0
LINE
  5
4EB3
330
1F
100
AcDbEntity
  8
CETRIS
100
AcDbLine
 10
-432.1911617533869
 20
-8368.242002501444
 30
0.0
 11
-207.1755423857612
 21
-8368.242002501444
 31
0.0
  0
LINE
  5
4EB4
330
1F
100
AcDbEntity
  8
CETRIS
100
AcDbLine
 10
-865.1212048968336
 20
-8367.742002501445
 30
0.0
 11
-607.1911617533878
 21
-8367.742002501445
 31
0.0
  0
LINE
  5
4EB5
330
1F
100
AcDbEntity
  8
CETRIS
100
AcDbLine
 10
-865.1212048968336
 20
-8368.242002501444
 30
0.0
 11
-607.1911617533878
 21
-8368.242002501444
 31
0.0
  0
LINE
  5
4EB6
330
1F
100
AcDbEntity
  8
POPIS
370
    20
100
AcDbLine
 10
-237.024669366132
 20
-8270.448543748258
 30
0.0
 11
-237.024669366132
 21
-8368.790395343031
 31
0.0
  0
TEXT
  5
4EB7
330
1F
100
AcDbEntity
  8
POPIS
100
AcDbText
 10
-251.9602851138533
 20
-8261.599182675535
 30
0.0
 40
25.0
  1
07
 41
0.85
  7
SIMPLEX7
100
AcDbText
  0
INSERT
  5
4EB8
330
1F
100
AcDbEntity
  8
POPIS
100
AcDbBlockReference
  2
E_PUNKT
 10
-237.053737697006
 20
-8368.500480360394
 30
0.0
 50
270.0
  0
LINE
  5
5BD0
330
1F
100
AcDbEntity
  8
POPIS
100
AcDbLine
 10
-865.1212048968291
 20
-8504.403007731136
 30
0.0
 11
-850.4601996671372
 21
-8489.742002501445
 31
0.0
  0
LINE
  5
5BD3
330
1F
100
AcDbEntity
  8
POPIS
100
AcDbLine
 10
-865.12120489683
 20
-8531.343776094345
 30
0.0
 11
-823.5194313039301
 21
-8489.742002501445
 31
0.0
  0
LINE
  5
5BD6
330
1F
100
AcDbEntity
  8
POPIS
100
AcDbLine
 10
-865.12120489683
 20
-8558.284544457553
 30
0.0
 11
-796.5786629407221
 21
-8489.742002501445
 31
0.0
  0
LINE
  5
5BD9
330
1F
100
AcDbEntity
  8
POPIS
100
AcDbLine
 10
-865.12120489683
 20
-8585.225312820758
 30
0.0
 11
-769.6378945775149
 21
-8489.742002501445
 31
0.0
  0
LINE
  5
5BDD
330
1F
100
AcDbEntity
  8
POPIS
100
AcDbLine
 10
-862.5200543152041
 20
-8609.564930602344
 30
0.0
 11
-742.6971262143078
 21
-8489.742002501445
 31
0.0
  0
LINE
  5
5BE0
330
1F
100
AcDbEntity
  8
POPIS
100
AcDbLine
 10
-835.579285951997
 20
-8609.564930602344
 30
0.0
 11
-715.7563578510998
 21
-8489.742002501445
 31
0.0
  0
LINE
  5
5BE3
330
1F
100
AcDbEntity
  8
POPIS
100
AcDbLine
 10
-808.6385175887899
 20
-8609.564930602344
 30
0.0
 11
-688.8155894878927
 21
-8489.742002501445
 31
0.0
  0
LINE
  5
5BE6
330
1F
100
AcDbEntity
  8
POPIS
100
AcDbLine
 10
-781.6977492255818
 20
-8609.564930602344
 30
0.0
 11
-661.8748211246847
 21
-8489.742002501445
 31
0.0
  0
LINE
  5
5BE8
330
1F
100
AcDbEntity
  8
POPIS
100
AcDbLine
 10
-754.7569808623748
 20
-8609.564930602344
 30
0.0
 11
-634.9340527614777
 21
-8489.742002501445
 31
0.0
  0
LINE
  5
5BEA
330
1F
100
AcDbEntity
  8
POPIS
100
AcDbLine
 10
-727.8162124991667
 20
-8609.564930602344
 30
0.0
 11
-607.9932843982696
 21
-8489.742002501445
 31
0.0
  0
LINE
  5
5BEC
330
1F
100
AcDbEntity
  8
POPIS
100
AcDbLine
 10
-700.8754441359597
 20
-8609.564930602344
 30
0.0
 11
-581.0525160350626
 21
-8489.742002501445
 31
0.0
  0
LINE
  5
5BEE
330
1F
100
AcDbEntity
  8
POPIS
100
AcDbLine
 10
-673.9346757727526
 20
-8609.564930602344
 30
0.0
 11
-614.6755743302382
 21
-8550.305829159828
 31
0.0
  0
LINE
  5
5BF0
330
1F
100
AcDbEntity
  8
POPIS
100
AcDbLine
 10
-599.8746987166305
 20
-8535.504953546221
 30
0.0
 11
-554.1117476718555
 21
-8489.742002501445
 31
0.0
  0
LINE
  5
5BF1
330
1F
100
AcDbEntity
  8
POPIS
100
AcDbLine
 10
-646.9939074095446
 20
-8609.564930602344
 30
0.0
 11
-611.2269044325503
 21
-8573.797927625347
 31
0.0
  0
LINE
  5
5BF3
330
1F
100
AcDbEntity
  8
POPIS
100
AcDbLine
 10
-572.9339303534234
 20
-8535.504953546221
 30
0.0
 11
-527.1709793086484
 21
-8489.742002501445
 31
0.0
  0
LINE
  5
5BF4
330
1F
100
AcDbEntity
  8
POPIS
100
AcDbLine
 10
-620.0531390463375
 20
-8609.564930602344
 30
0.0
 11
-584.2861360693423
 21
-8573.797927625347
 31
0.0
  0
LINE
  5
5BF6
330
1F
100
AcDbEntity
  8
POPIS
100
AcDbLine
 10
-563.0640463629807
 20
-8552.575837918984
 30
0.0
 11
-551.706516568819
 21
-8541.218308124824
 31
0.0
  0
LINE
  5
5BF7
330
1F
100
AcDbEntity
  8
POPIS
100
AcDbLine
 10
-545.9888986887153
 20
-8535.50069024472
 30
0.0
 11
-500.2302109454404
 21
-8489.742002501445
 31
0.0
  0
LINE
  5
5BF8
330
1F
100
AcDbEntity
  8
POPIS
100
AcDbLine
 10
-593.1123706831295
 20
-8609.564930602344
 30
0.0
 11
-551.706516568819
 21
-8568.159076488031
 31
0.0
  0
LINE
  5
5BFA
330
1F
100
AcDbEntity
  8
POPIS
100
AcDbLine
 10
-519.0481303255073
 20
-8535.50069024472
 30
0.0
 11
-473.2894425822324
 21
-8489.742002501445
 31
0.0
  0
LINE
  5
5BFB
330
1F
100
AcDbEntity
  8
POPIS
100
AcDbLine
 10
-566.1716023199224
 20
-8609.564930602344
 30
0.0
 11
-530.4259158504319
 21
-8573.819244132851
 31
0.0
  0
LINE
  5
5BFD
330
1F
100
AcDbEntity
  8
POPIS
100
AcDbLine
 10
-500.0864619985596
 20
-8543.479790280979
 30
0.0
 11
-446.3486742190252
 21
-8489.742002501445
 31
0.0
  0
LINE
  5
5BFE
330
1F
100
AcDbEntity
  8
POPIS
100
AcDbLine
 10
-539.2308339567152
 20
-8609.564930602344
 30
0.0
 11
-503.4851474872239
 21
-8573.819244132851
 31
0.0
  0
LINE
  5
5C00
330
1F
100
AcDbEntity
  8
POPIS
100
AcDbLine
 10
-500.0864619985596
 20
-8570.420558644185
 30
0.0
 11
-486.7227343573722
 21
-8557.056831003
 31
0.0
  0
LINE
  5
5C01
330
1F
100
AcDbEntity
  8
POPIS
100
AcDbLine
 10
-465.1708569005932
 20
-8535.504953546221
 30
0.0
 11
-419.4079058558181
 21
-8489.742002501445
 31
0.0
  0
LINE
  5
5C02
330
1F
100
AcDbEntity
  8
POPIS
100
AcDbLine
 10
-512.2900655935072
 20
-8609.564930602344
 30
0.0
 11
-476.5230626165121
 21
-8573.797927625347
 31
0.0
  0
LINE
  5
5C04
330
1F
100
AcDbEntity
  8
POPIS
100
AcDbLine
 10
-438.2300885373861
 20
-8535.504953546221
 30
0.0
 11
-392.467137492611
 21
-8489.742002501445
 31
0.0
  0
LINE
  5
5C05
330
1F
100
AcDbEntity
  8
POPIS
100
AcDbLine
 10
-485.3492972302992
 20
-8609.564930602344
 30
0.0
 11
-449.582294253305
 21
-8573.797927625347
 31
0.0
  0
LINE
  5
5C07
330
1F
100
AcDbEntity
  8
POPIS
100
AcDbLine
 10
-435.1112063901146
 20
-8559.326839762158
 30
0.0
 11
-365.526369129403
 21
-8489.742002501445
 31
0.0
  0
LINE
  5
5C08
330
1F
100
AcDbEntity
  8
POPIS
100
AcDbLine
 10
-458.4085288670921
 20
-8609.564930602344
 30
0.0
 11
-407.2076464968704
 21
-8558.364048232121
 31
0.0
  0
LINE
  5
5C09
330
1F
100
AcDbEntity
  8
POPIS
100
AcDbLine
 10
-384.348551810971
 20
-8535.504953546221
 30
0.0
 11
-338.585600766195
 21
-8489.742002501445
 31
0.0
  0
LINE
  5
5C0A
330
1F
100
AcDbEntity
  8
POPIS
100
AcDbLine
 10
-431.467760503885
 20
-8609.564930602344
 30
0.0
 11
-395.7007575268908
 21
-8573.797927625347
 31
0.0
  0
LINE
  5
5C0B
330
1F
100
AcDbEntity
  8
POPIS
100
AcDbLine
 10
-357.4077834477638
 20
-8535.504953546221
 30
0.0
 11
-311.6448324029879
 21
-8489.742002501445
 31
0.0
  0
LINE
  5
5C0C
330
1F
100
AcDbEntity
  8
POPIS
100
AcDbLine
 10
-404.5269921406779
 20
-8609.564930602344
 30
0.0
 11
-368.7599891636827
 21
-8573.797927625347
 31
0.0
  0
LINE
  5
5C0D
330
1F
100
AcDbEntity
  8
POPIS
100
AcDbLine
 10
-330.4670150845558
 20
-8535.504953546221
 30
0.0
 11
-284.7040640397808
 21
-8489.742002501445
 31
0.0
  0
LINE
  5
5C0E
330
1F
100
AcDbEntity
  8
POPIS
100
AcDbLine
 10
-355.5961185296128
 20
-8560.634056991277
 30
0.0
 11
-352.566817973824
 21
-8557.604756435488
 31
0.0
  0
LINE
  5
5C0F
330
1F
100
AcDbEntity
  8
POPIS
100
AcDbLine
 10
-377.5862237774699
 20
-8609.564930602344
 30
0.0
 11
-341.8192208004747
 21
-8573.797927625347
 31
0.0
  0
LINE
  5
5C10
330
1F
100
AcDbEntity
  8
POPIS
100
AcDbLine
 10
-303.5262467213488
 20
-8535.504953546221
 30
0.0
 11
-257.7632956765728
 21
-8489.742002501445
 31
0.0
  0
LINE
  5
5C11
330
1F
100
AcDbEntity
  8
POPIS
100
AcDbLine
 10
-350.6454554142628
 20
-8609.564930602344
 30
0.0
 11
-314.8784524372676
 21
-8573.797927625347
 31
0.0
  0
LINE
  5
5C12
330
1F
100
AcDbEntity
  8
POPIS
100
AcDbLine
 10
-276.6920608956588
 20
-8535.611536083738
 30
0.0
 11
-230.8225273133657
 21
-8489.742002501445
 31
0.0
  0
LINE
  5
5C13
330
1F
100
AcDbEntity
  8
POPIS
100
AcDbLine
 10
-323.7046870510548
 20
-8609.564930602344
 30
0.0
 11
-287.4047713864756
 21
-8573.265014937762
 31
0.0
  0
LINE
  5
5C14
330
1F
100
AcDbEntity
  8
POPIS
100
AcDbLine
 10
-249.7512925324508
 20
-8535.611536083738
 30
0.0
 11
-207.1755423857648
 21
-8493.035785937051
 31
0.0
  0
LINE
  5
5C15
330
1F
100
AcDbEntity
  8
POPIS
100
AcDbLine
 10
-296.7639186878477
 20
-8609.564930602344
 30
0.0
 11
-260.4640030232676
 21
-8573.265014937762
 31
0.0
  0
LINE
  5
5C16
330
1F
100
AcDbEntity
  8
POPIS
100
AcDbLine
 10
-222.8105241692428
 20
-8535.611536083738
 30
0.0
 11
-207.1755423857648
 21
-8519.97655430026
 31
0.0
  0
LINE
  5
5C17
330
1F
100
AcDbEntity
  8
POPIS
100
AcDbLine
 10
-269.8231503246406
 20
-8609.564930602344
 30
0.0
 11
-233.5232346600605
 21
-8573.265014937762
 31
0.0
  0
LINE
  5
5C18
330
1F
100
AcDbEntity
  8
POPIS
100
AcDbLine
 10
-242.8823819614335
 20
-8609.564930602344
 30
0.0
 11
-207.1755423857648
 21
-8573.858091026673
 31
0.0
  0
LINE
  5
5C19
330
1F
100
AcDbEntity
  8
POPIS
100
AcDbLine
 10
-215.9416135982264
 20
-8609.564930602344
 30
0.0
 11
-207.1755423857648
 21
-8600.798859389881
 31
0.0
  0
LINE
  5
5E4B
330
1F
100
AcDbEntity
  8
POPIS
100
AcDbLine
 10
-865.12120489683
 20
-8490.932629367931
 30
0.0
 11
-863.9305780303448
 21
-8489.742002501445
 31
0.0
  0
LINE
  5
5E56
330
1F
100
AcDbEntity
  8
POPIS
100
AcDbLine
 10
-862.6306041528961
 20
-8515.382796987204
 30
0.0
 11
-862.6306041528961
 21
-8515.382796987204
 31
0.0
  0
LINE
  5
5E57
330
1F
100
AcDbEntity
  8
POPIS
100
AcDbLine
 10
-859.2630081074949
 20
-8512.015200941803
 30
0.0
 11
-842.4250278804901
 21
-8495.177220714799
 31
0.0
  0
LINE
  5
5E58
330
1F
100
AcDbEntity
  8
POPIS
100
AcDbLine
 10
-839.0574318350891
 20
-8491.809624669397
 30
0.0
 11
-839.0574318350891
 21
-8491.809624669397
 31
0.0
  0
LINE
  5
5E64
330
1F
100
AcDbEntity
  8
POPIS
100
AcDbLine
 10
-865.12120489683
 20
-8544.814166094345
 30
0.0
 11
-852.5278160166926
 21
-8532.220777214208
 31
0.0
  0
LINE
  5
5E65
330
1F
100
AcDbEntity
  8
POPIS
100
AcDbLine
 10
-849.1602199712925
 20
-8528.853181168809
 30
0.0
 11
-849.1602199712925
 21
-8528.853181168809
 31
0.0
  0
LINE
  5
5E66
330
1F
100
AcDbEntity
  8
POPIS
100
AcDbLine
 10
-845.7926239258913
 20
-8525.485585123407
 30
0.0
 11
-828.9546436988867
 21
-8508.647604896401
 31
0.0
  0
LINE
  5
5E67
330
1F
100
AcDbEntity
  8
POPIS
100
AcDbLine
 10
-825.5870476534855
 20
-8505.280008851
 30
0.0
 11
-825.5870476534855
 21
-8505.280008851
 31
0.0
  0
LINE
  5
5E68
330
1F
100
AcDbEntity
  8
POPIS
100
AcDbLine
 10
-822.2194516080854
 20
-8501.9124128056
 30
0.0
 11
-810.0490413039297
 21
-8489.742002501445
 31
0.0
  0
LINE
  5
5E72
330
1F
100
AcDbEntity
  8
POPIS
100
AcDbLine
 10
-865.12120489683
 20
-8571.754934457553
 30
0.0
 11
-862.6306041528961
 21
-8569.264333713617
 31
0.0
  0
LINE
  5
5E73
330
1F
100
AcDbEntity
  8
POPIS
100
AcDbLine
 10
-859.2630081074949
 20
-8565.896737668218
 30
0.0
 11
-859.2630081074949
 21
-8565.896737668218
 31
0.0
  0
LINE
  5
5E74
330
1F
100
AcDbEntity
  8
POPIS
100
AcDbLine
 10
-855.8954120620937
 20
-8562.529141622817
 30
0.0
 11
-839.0574318350891
 21
-8545.691161395813
 31
0.0
  0
LINE
  5
5E75
330
1F
100
AcDbEntity
  8
POPIS
100
AcDbLine
 10
-835.6898357896879
 20
-8542.323565350411
 30
0.0
 11
-835.6898357896879
 21
-8542.323565350411
 31
0.0
  0
LINE
  5
5E76
330
1F
100
AcDbEntity
  8
POPIS
100
AcDbLine
 10
-832.3222397442878
 20
-8538.95596930501
 30
0.0
 11
-815.4842595172832
 21
-8522.117989078006
 31
0.0
  0
LINE
  5
5E77
330
1F
100
AcDbEntity
  8
POPIS
100
AcDbLine
 10
-812.116663471882
 20
-8518.750393032606
 30
0.0
 11
-812.116663471882
 21
-8518.750393032606
 31
0.0
  0
LINE
  5
5E78
330
1F
100
AcDbEntity
  8
POPIS
100
AcDbLine
 10
-808.749067426481
 20
-8515.382796987204
 30
0.0
 11
-791.9110871994762
 21
-8498.544816760199
 31
0.0
  0
LINE
  5
5E79
330
1F
100
AcDbEntity
  8
POPIS
100
AcDbLine
 10
-788.543491154076
 20
-8495.177220714799
 30
0.0
 11
-788.543491154076
 21
-8495.177220714799
 31
0.0
  0
LINE
  5
5E7A
330
1F
100
AcDbEntity
  8
POPIS
100
AcDbLine
 10
-785.1758951086749
 20
-8491.809624669397
 30
0.0
 11
-783.1082729407226
 21
-8489.742002501445
 31
0.0
  0
LINE
  5
5E83
330
1F
100
AcDbEntity
  8
POPIS
100
AcDbLine
 10
-865.12120489683
 20
-8598.69570282076
 30
0.0
 11
-849.1602199712925
 21
-8582.734717895222
 31
0.0
  0
LINE
  5
5E84
330
1F
100
AcDbEntity
  8
POPIS
100
AcDbLine
 10
-845.7926239258913
 20
-8579.367121849822
 30
0.0
 11
-845.7926239258913
 21
-8579.367121849822
 31
0.0
  0
LINE
  5
5E85
330
1F
100
AcDbEntity
  8
POPIS
100
AcDbLine
 10
-842.4250278804901
 20
-8575.999525804419
 30
0.0
 11
-825.5870476534855
 21
-8559.161545577415
 31
0.0
  0
LINE
  5
5E86
330
1F
100
AcDbEntity
  8
POPIS
100
AcDbLine
 10
-822.2194516080843
 20
-8555.793949532015
 30
0.0
 11
-822.2194516080843
 21
-8555.793949532015
 31
0.0
  0
LINE
  5
5E87
330
1F
100
AcDbEntity
  8
POPIS
100
AcDbLine
 10
-818.8518555626833
 20
-8552.426353486614
 30
0.0
 11
-802.0138753356786
 21
-8535.588373259608
 31
0.0
  0
LINE
  5
5E88
330
1F
100
AcDbEntity
  8
POPIS
100
AcDbLine
 10
-798.6462792902784
 20
-8532.220777214208
 30
0.0
 11
-798.6462792902784
 21
-8532.220777214208
 31
0.0
  0
LINE
  5
5E89
330
1F
100
AcDbEntity
  8
POPIS
100
AcDbLine
 10
-795.2786832448773
 20
-8528.853181168809
 30
0.0
 11
-778.4407030178726
 21
-8512.015200941803
 31
0.0
  0
LINE
  5
5E8A
330
1F
100
AcDbEntity
  8
POPIS
100
AcDbLine
 10
-775.0731069724715
 20
-8508.647604896401
 30
0.0
 11
-775.0731069724715
 21
-8508.647604896401
 31
0.0
  0
LINE
  5
5E8B
330
1F
100
AcDbEntity
  8
POPIS
100
AcDbLine
 10
-771.7055109270713
 20
-8505.280008851
 30
0.0
 11
-756.1675045775155
 21
-8489.742002501445
 31
0.0
  0
LINE
  5
5E96
330
1F
100
AcDbEntity
  8
POPIS
100
AcDbLine
 10
-849.0496643152045
 20
-8609.564930602344
 30
0.0
 11
-835.689835789689
 21
-8596.205102076828
 31
0.0
  0
LINE
  5
5E97
330
1F
100
AcDbEntity
  8
POPIS
100
AcDbLine
 10
-832.3222397442878
 20
-8592.837506031425
 30
0.0
 11
-832.3222397442878
 21
-8592.837506031425
 31
0.0
  0
LINE
  5
5E98
330
1F
100
AcDbEntity
  8
POPIS
100
AcDbLine
 10
-828.9546436988867
 20
-8589.469909986025
 30
0.0
 11
-812.116663471882
 21
-8572.631929759019
 31
0.0
  0
LINE
  5
5E99
330
1F
100
AcDbEntity
  8
POPIS
100
AcDbLine
 10
-808.749067426481
 20
-8569.264333713617
 30
0.0
 11
-808.749067426481
 21
-8569.264333713617
 31
0.0
  0
LINE
  5
5E9A
330
1F
100
AcDbEntity
  8
POPIS
100
AcDbLine
 10
-805.3814713810806
 20
-8565.896737668218
 30
0.0
 11
-788.543491154076
 21
-8549.058757441214
 31
0.0
  0
LINE
  5
5E9B
330
1F
100
AcDbEntity
  8
POPIS
100
AcDbLine
 10
-785.1758951086749
 20
-8545.691161395813
 30
0.0
 11
-785.1758951086749
 21
-8545.691161395813
 31
0.0
  0
LINE
  5
5E9C
330
1F
100
AcDbEntity
  8
POPIS
100
AcDbLine
 10
-781.8082990632738
 20
-8542.323565350411
 30
0.0
 11
-764.9703188362691
 21
-8525.485585123407
 31
0.0
  0
LINE
  5
5E9D
330
1F
100
AcDbEntity
  8
POPIS
100
AcDbLine
 10
-761.6027227908689
 20
-8522.117989078006
 30
0.0
 11
-761.6027227908689
 21
-8522.117989078006
 31
0.0
  0
LINE
  5
5E9E
330
1F
100
AcDbEntity
  8
POPIS
100
AcDbLine
 10
-758.2351267454678
 20
-8518.750393032606
 30
0.0
 11
-741.3971465184631
 21
-8501.9124128056
 31
0.0
  0
LINE
  5
5E9F
330
1F
100
AcDbEntity
  8
POPIS
100
AcDbLine
 10
-738.029550473062
 20
-8498.544816760199
 30
0.0
 11
-738.029550473062
 21
-8498.544816760199
 31
0.0
  0
LINE
  5
5EA0
330
1F
100
AcDbEntity
  8
POPIS
100
AcDbLine
 10
-734.6619544276609
 20
-8495.177220714799
 30
0.0
 11
-729.2267362143084
 21
-8489.742002501445
 31
0.0
  0
LINE
  5
5EAA
330
1F
100
AcDbEntity
  8
POPIS
100
AcDbLine
 10
-818.8518555626833
 20
-8606.307890213029
 30
0.0
 11
-818.8518555626833
 21
-8606.307890213029
 31
0.0
  0
LINE
  5
5EAB
330
1F
100
AcDbEntity
  8
POPIS
100
AcDbLine
 10
-815.4842595172832
 20
-8602.940294167627
 30
0.0
 11
-798.6462792902784
 21
-8586.102313940623
 31
0.0
  0
LINE
  5
5EAC
330
1F
100
AcDbEntity
  8
POPIS
100
AcDbLine
 10
-795.2786832448773
 20
-8582.734717895222
 30
0.0
 11
-795.2786832448773
 21
-8582.734717895222
 31
0.0
  0
LINE
  5
5EAD
330
1F
100
AcDbEntity
  8
POPIS
100
AcDbLine
 10
-791.9110871994762
 20
-8579.367121849822
 30
0.0
 11
-775.0731069724715
 21
-8562.529141622817
 31
0.0
  0
LINE
  5
5EAE
330
1F
100
AcDbEntity
  8
POPIS
100
AcDbLine
 10
-771.7055109270704
 20
-8559.161545577415
 30
0.0
 11
-771.7055109270704
 21
-8559.161545577415
 31
0.0
  0
LINE
  5
5EAF
330
1F
100
AcDbEntity
  8
POPIS
100
AcDbLine
 10
-768.3379148816693
 20
-8555.793949532015
 30
0.0
 11
-751.4999346546646
 21
-8538.95596930501
 31
0.0
  0
LINE
  5
5EB0
330
1F
100
AcDbEntity
  8
POPIS
100
AcDbLine
 10
-748.1323386092644
 20
-8535.588373259608
 30
0.0
 11
-748.1323386092644
 21
-8535.588373259608
 31
0.0
  0
LINE
  5
5EB1
330
1F
100
AcDbEntity
  8
POPIS
100
AcDbLine
 10
-744.7647425638633
 20
-8532.220777214208
 30
0.0
 11
-727.9267623368586
 21
-8515.382796987204
 31
0.0
  0
LINE
  5
5EB2
330
1F
100
AcDbEntity
  8
POPIS
100
AcDbLine
 10
-724.5591662914575
 20
-8512.015200941803
 30
0.0
 11
-724.5591662914575
 21
-8512.015200941803
 31
0.0
  0
LINE
  5
5EB3
330
1F
100
AcDbEntity
  8
POPIS
100
AcDbLine
 10
-721.1915702460573
 20
-8508.647604896401
 30
0.0
 11
-704.3535900190526
 21
-8491.809624669397
 31
0.0
  0
LINE
  5
5EBE
330
1F
100
AcDbEntity
  8
POPIS
100
AcDbLine
 10
-795.1681275887895
 20
-8609.564930602344
 30
0.0
 11
-785.175895108674
 21
-8599.572698122228
 31
0.0
  0
LINE
  5
5EBF
330
1F
100
AcDbEntity
  8
POPIS
100
AcDbLine
 10
-781.8082990632738
 20
-8596.205102076828
 30
0.0
 11
-781.8082990632738
 21
-8596.205102076828
 31
0.0
  0
LINE
  5
5EC0
330
1F
100
AcDbEntity
  8
POPIS
100
AcDbLine
 10
-778.4407030178726
 20
-8592.837506031425
 30
0.0
 11
-761.602722790868
 21
-8575.999525804419
 31
0.0
  0
LINE
  5
5EC1
330
1F
100
AcDbEntity
  8
POPIS
100
AcDbLine
 10
-758.2351267454669
 20
-8572.631929759019
 30
0.0
 11
-758.2351267454669
 21
-8572.631929759019
 31
0.0
  0
LINE
  5
5EC2
330
1F
100
AcDbEntity
  8
POPIS
100
AcDbLine
 10
-754.8675307000666
 20
-8569.264333713617
 30
0.0
 11
-738.029550473062
 21
-8552.426353486614
 31
0.0
  0
LINE
  5
5EC3
330
1F
100
AcDbEntity
  8
POPIS
100
AcDbLine
 10
-734.6619544276609
 20
-8549.058757441214
 30
0.0
 11
-734.6619544276609
 21
-8549.058757441214
 31
0.0
  0
LINE
  5
5EC4
330
1F
100
AcDbEntity
  8
POPIS
100
AcDbLine
 10
-731.2943583822598
 20
-8545.691161395813
 30
0.0
 11
-714.4563781552551
 21
-8528.853181168809
 31
0.0
  0
LINE
  5
5EC5
330
1F
100
AcDbEntity
  8
POPIS
100
AcDbLine
 10
-711.088782109854
 20
-8525.485585123407
 30
0.0
 11
-711.088782109854
 21
-8525.485585123407
 31
0.0
  0
LINE
  5
5EC6
330
1F
100
AcDbEntity
  8
POPIS
100
AcDbLine
 10
-707.7211860644529
 20
-8522.117989078006
 30
0.0
 11
-690.8832058374482
 21
-8505.280008851
 31
0.0
  0
LINE
  5
5EC7
330
1F
100
AcDbEntity
  8
POPIS
100
AcDbLine
 10
-687.5156097920481
 20
-8501.9124128056
 30
0.0
 11
-687.5156097920481
 21
-8501.9124128056
 31
0.0
  0
LINE
  5
5EC8
330
1F
100
AcDbEntity
  8
POPIS
100
AcDbLine
 10
-684.1480137466469
 20
-8498.544816760199
 30
0.0
 11
-675.3451994878933
 21
-8489.742002501445
 31
0.0
  0
LINE
  5
5ED4
330
1F
100
AcDbEntity
  8
POPIS
100
AcDbLine
 10
-764.9703188362691
 20
-8606.307890213029
 30
0.0
 11
-748.1323386092644
 21
-8589.469909986025
 31
0.0
  0
LINE
  5
5ED5
330
1F
100
AcDbEntity
  8
POPIS
100
AcDbLine
 10
-744.7647425638633
 20
-8586.102313940623
 30
0.0
 11
-744.7647425638633
 21
-8586.102313940623
 31
0.0
  0
LINE
  5
5ED6
330
1F
100
AcDbEntity
  8
POPIS
100
AcDbLine
 10
-741.3971465184622
 20
-8582.734717895222
 30
0.0
 11
-724.5591662914575
 21
-8565.896737668218
 31
0.0
  0
LINE
  5
5ED7
330
1F
100
AcDbEntity
  8
POPIS
100
AcDbLine
 10
-721.1915702460564
 20
-8562.529141622817
 30
0.0
 11
-721.1915702460564
 21
-8562.529141622817
 31
0.0
  0
LINE
  5
5ED8
330
1F
100
AcDbEntity
  8
POPIS
100
AcDbLine
 10
-717.8239742006553
 20
-8559.161545577415
 30
0.0
 11
-700.9859939736506
 21
-8542.323565350411
 31
0.0
  0
LINE
  5
5ED9
330
1F
100
AcDbEntity
  8
POPIS
100
AcDbLine
 10
-697.6183979282504
 20
-8538.95596930501
 30
0.0
 11
-697.6183979282504
 21
-8538.95596930501
 31
0.0
  0
LINE
  5
5EDA
330
1F
100
AcDbEntity
  8
POPIS
100
AcDbLine
 10
-694.2508018828493
 20
-8535.588373259608
 30
0.0
 11
-677.4128216558446
 21
-8518.750393032606
 31
0.0
  0
LINE
  5
5EDB
330
1F
100
AcDbEntity
  8
POPIS
100
AcDbLine
 10
-674.0452256104435
 20
-8515.382796987204
 30
0.0
 11
-674.0452256104435
 21
-8515.382796987204
 31
0.0
  0
LINE
  5
5EDC
330
1F
100
AcDbEntity
  8
POPIS
100
AcDbLine
 10
-670.6776295650434
 20
-8512.015200941803
 30
0.0
 11
-653.8396493380387
 21
-8495.177220714799
 31
0.0
  0
LINE
  5
5EDD
330
1F
100
AcDbEntity
  8
POPIS
100
AcDbLine
 10
-650.4720532926376
 20
-8491.809624669397
 30
0.0
 11
-650.4720532926376
 21
-8491.809624669397
 31
0.0
  0
LINE
  5
5EE9
330
1F
100
AcDbEntity
  8
POPIS
100
AcDbLine
 10
-741.2865908623744
 20
-8609.564930602344
 30
0.0
 11
-734.66195442766
 21
-8602.940294167627
 31
0.0
  0
LINE
  5
5EEA
330
1F
100
AcDbEntity
  8
POPIS
100
AcDbLine
 10
-731.2943583822598
 20
-8599.572698122228
 30
0.0
 11
-731.2943583822598
 21
-8599.572698122228
 31
0.0
  0
LINE
  5
5EEB
330
1F
100
AcDbEntity
  8
POPIS
100
AcDbLine
 10
-727.9267623368586
 20
-8596.205102076828
 30
0.0
 11
-711.088782109854
 21
-8579.367121849822
 31
0.0
  0
LINE
  5
5EEC
330
1F
100
AcDbEntity
  8
POPIS
100
AcDbLine
 10
-707.7211860644529
 20
-8575.999525804419
 30
0.0
 11
-707.7211860644529
 21
-8575.999525804419
 31
0.0
  0
LINE
  5
5EED
330
1F
100
AcDbEntity
  8
POPIS
100
AcDbLine
 10
-704.3535900190526
 20
-8572.631929759019
 30
0.0
 11
-687.5156097920481
 21
-8555.793949532015
 31
0.0
  0
LINE
  5
5EEE
330
1F
100
AcDbEntity
  8
POPIS
100
AcDbLine
 10
-684.1480137466469
 20
-8552.426353486614
 30
0.0
 11
-684.1480137466469
 21
-8552.426353486614
 31
0.0
  0
LINE
  5
5EEF
330
1F
100
AcDbEntity
  8
POPIS
100
AcDbLine
 10
-680.7804177012457
 20
-8549.058757441214
 30
0.0
 11
-663.9424374742411
 21
-8532.220777214208
 31
0.0
  0
LINE
  5
5EF0
330
1F
100
AcDbEntity
  8
POPIS
100
AcDbLine
 10
-660.57484142884
 20
-8528.853181168809
 30
0.0
 11
-660.57484142884
 21
-8528.853181168809
 31
0.0
  0
LINE
  5
5EF1
330
1F
100
AcDbEntity
  8
POPIS
100
AcDbLine
 10
-657.2072453834389
 20
-8525.485585123407
 30
0.0
 11
-640.3692651564342
 21
-8508.647604896401
 31
0.0
  0
LINE
  5
5EF2
330
1F
100
AcDbEntity
  8
POPIS
100
AcDbLine
 10
-637.0016691110341
 20
-8505.280008851
 30
0.0
 11
-637.0016691110341
 21
-8505.280008851
 31
0.0
  0
LINE
  5
5EF3
330
1F
100
AcDbEntity
  8
POPIS
100
AcDbLine
 10
-633.6340730656329
 20
-8501.9124128056
 30
0.0
 11
-621.4636627614781
 21
-8489.742002501445
 31
0.0
  0
LINE
  5
5EFF
330
1F
100
AcDbEntity
  8
POPIS
100
AcDbLine
 10
-714.3458224991673
 20
-8609.564930602344
 30
0.0
 11
-697.6183979282504
 21
-8592.837506031425
 31
0.0
  0
LINE
  5
5F00
330
1F
100
AcDbEntity
  8
POPIS
100
AcDbLine
 10
-694.2508018828493
 20
-8589.469909986025
 30
0.0
 11
-694.2508018828493
 21
-8589.469909986025
 31
0.0
  0
LINE
  5
5F01
330
1F
100
AcDbEntity
  8
POPIS
100
AcDbLine
 10
-690.8832058374482
 20
-8586.102313940623
 30
0.0
 11
-674.0452256104435
 21
-8569.264333713617
 31
0.0
  0
LINE
  5
5F02
330
1F
100
AcDbEntity
  8
POPIS
100
AcDbLine
 10
-670.6776295650434
 20
-8565.896737668218
 30
0.0
 11
-670.6776295650434
 21
-8565.896737668218
 31
0.0
  0
LINE
  5
5F03
330
1F
100
AcDbEntity
  8
POPIS
100
AcDbLine
 10
-667.3100335196423
 20
-8562.529141622817
 30
0.0
 11
-650.4720532926376
 21
-8545.691161395813
 31
0.0
  0
LINE
  5
5F04
330
1F
100
AcDbEntity
  8
POPIS
100
AcDbLine
 10
-647.1044572472365
 20
-8542.323565350411
 30
0.0
 11
-647.1044572472365
 21
-8542.323565350411
 31
0.0
  0
LINE
  5
5F05
330
1F
100
AcDbEntity
  8
POPIS
100
AcDbLine
 10
-643.7368612018353
 20
-8538.95596930501
 30
0.0
 11
-626.8988809748307
 21
-8522.117989078006
 31
0.0
  0
LINE
  5
5F06
330
1F
100
AcDbEntity
  8
POPIS
100
AcDbLine
 10
-623.5312849294295
 20
-8518.750393032606
 30
0.0
 11
-623.5312849294295
 21
-8518.750393032606
 31
0.0
  0
LINE
  5
5F07
330
1F
100
AcDbEntity
  8
POPIS
100
AcDbLine
 10
-620.1636888840294
 20
-8515.382796987204
 30
0.0
 11
-603.3257086570247
 21
-8498.544816760199
 31
0.0
  0
LINE
  5
5F08
330
1F
100
AcDbEntity
  8
POPIS
100
AcDbLine
 10
-599.9581126116236
 20
-8495.177220714799
 30
0.0
 11
-599.9581126116236
 21
-8495.177220714799
 31
0.0
  0
LINE
  5
5F09
330
1F
100
AcDbEntity
  8
POPIS
100
AcDbLine
 10
-596.5905165662225
 20
-8491.809624669397
 30
0.0
 11
-594.522894398271
 21
-8489.742002501445
 31
0.0
  0
LINE
  5
5F15
330
1F
100
AcDbEntity
  8
POPIS
100
AcDbLine
 10
-687.4050541359593
 20
-8609.564930602344
 30
0.0
 11
-684.1480137466469
 21
-8606.307890213029
 31
0.0
  0
LINE
  5
5F16
330
1F
100
AcDbEntity
  8
POPIS
100
AcDbLine
 10
-680.7804177012457
 20
-8602.940294167627
 30
0.0
 11
-680.7804177012457
 21
-8602.940294167627
 31
0.0
  0
LINE
  5
5F17
330
1F
100
AcDbEntity
  8
POPIS
100
AcDbLine
 10
-677.4128216558446
 20
-8599.572698122228
 30
0.0
 11
-660.57484142884
 21
-8582.734717895222
 31
0.0
  0
LINE
  5
5F18
330
1F
100
AcDbEntity
  8
POPIS
100
AcDbLine
 10
-657.2072453834389
 20
-8579.367121849822
 30
0.0
 11
-657.2072453834389
 21
-8579.367121849822
 31
0.0
  0
LINE
  5
5F19
330
1F
100
AcDbEntity
  8
POPIS
100
AcDbLine
 10
-653.8396493380387
 20
-8575.999525804419
 30
0.0
 11
-637.0016691110341
 21
-8559.161545577415
 31
0.0
  0
LINE
  5
5F1A
330
1F
100
AcDbEntity
  8
POPIS
100
AcDbLine
 10
-633.6340730656329
 20
-8555.793949532015
 30
0.0
 11
-633.6340730656329
 21
-8555.793949532015
 31
0.0
  0
LINE
  5
5F1B
330
1F
100
AcDbEntity
  8
POPIS
100
AcDbLine
 10
-630.2664770202318
 20
-8552.426353486614
 30
0.0
 11
-614.6755743302392
 21
-8536.835450796621
 31
0.0
  0
LINE
  5
5F27
330
1F
100
AcDbEntity
  8
POPIS
100
AcDbLine
 10
-610.0609007478261
 20
-8532.220777214208
 30
0.0
 11
-610.0609007478261
 21
-8532.220777214208
 31
0.0
  0
LINE
  5
5F28
330
1F
100
AcDbEntity
  8
POPIS
100
AcDbLine
 10
-606.6933047024249
 20
-8528.853181168809
 30
0.0
 11
-589.8553244754203
 21
-8512.015200941803
 31
0.0
  0
LINE
  5
5F29
330
1F
100
AcDbEntity
  8
POPIS
100
AcDbLine
 10
-586.4877284300201
 20
-8508.647604896401
 30
0.0
 11
-586.4877284300201
 21
-8508.647604896401
 31
0.0
  0
LINE
  5
5F2A
330
1F
100
AcDbEntity
  8
POPIS
100
AcDbLine
 10
-583.1201323846189
 20
-8505.280008851
 30
0.0
 11
-567.582126035063
 21
-8489.742002501445
 31
0.0
  0
LINE
  5
5F2B
330
1F
100
AcDbEntity
  8
POPIS
100
AcDbLine
 10
-660.4642857727522
 20
-8609.564930602344
 30
0.0
 11
-647.1044572472365
 21
-8596.205102076828
 31
0.0
  0
LINE
  5
5F2C
330
1F
100
AcDbEntity
  8
POPIS
100
AcDbLine
 10
-643.7368612018353
 20
-8592.837506031425
 30
0.0
 11
-643.7368612018353
 21
-8592.837506031425
 31
0.0
  0
LINE
  5
5F2D
330
1F
100
AcDbEntity
  8
POPIS
100
AcDbLine
 10
-640.3692651564342
 20
-8589.469909986025
 30
0.0
 11
-623.5312849294295
 21
-8572.631929759019
 31
0.0
  0
LINE
  5
5F2E
330
1F
100
AcDbEntity
  8
POPIS
100
AcDbLine
 10
-620.1636888840284
 20
-8569.264333713617
 30
0.0
 11
-620.1636888840284
 21
-8569.264333713617
 31
0.0
  0
LINE
  5
5F2F
330
1F
100
AcDbEntity
  8
POPIS
100
AcDbLine
 10
-616.7960928386273
 20
-8565.896737668218
 30
0.0
 11
-614.6755743302382
 21
-8563.776219159828
 31
0.0
  0
LINE
  5
5F3B
330
1F
100
AcDbEntity
  8
POPIS
100
AcDbLine
 10
-586.404308716631
 20
-8535.504953546221
 30
0.0
 11
-576.3849402938167
 21
-8525.485585123407
 31
0.0
  0
LINE
  5
5F3C
330
1F
100
AcDbEntity
  8
POPIS
100
AcDbLine
 10
-573.0173442484156
 20
-8522.117989078006
 30
0.0
 11
-573.0173442484156
 21
-8522.117989078006
 31
0.0
  0
LINE
  5
5F3D
330
1F
100
AcDbEntity
  8
POPIS
100
AcDbLine
 10
-569.6497482030145
 20
-8518.750393032604
 30
0.0
 11
-552.8117679760098
 21
-8501.9124128056
 31
0.0
  0
LINE
  5
5F3E
330
1F
100
AcDbEntity
  8
POPIS
100
AcDbLine
 10
-549.4441719306087
 20
-8498.544816760199
 30
0.0
 11
-549.4441719306087
 21
-8498.544816760199
 31
0.0
  0
LINE
  5
5F3F
330
1F
100
AcDbEntity
  8
POPIS
100
AcDbLine
 10
-546.0765758852075
 20
-8495.177220714799
 30
0.0
 11
-540.641357671855
 21
-8489.742002501445
 31
0.0
  0
LINE
  5
5F40
330
1F
100
AcDbEntity
  8
POPIS
100
AcDbLine
 10
-630.2664770202318
 20
-8606.307890213029
 30
0.0
 11
-630.2664770202318
 21
-8606.307890213029
 31
0.0
  0
LINE
  5
5F41
330
1F
100
AcDbEntity
  8
POPIS
100
AcDbLine
 10
-626.8988809748307
 20
-8602.940294167627
 30
0.0
 11
-610.0609007478261
 21
-8586.102313940623
 31
0.0
  0
LINE
  5
5F42
330
1F
100
AcDbEntity
  8
POPIS
100
AcDbLine
 10
-606.6933047024249
 20
-8582.734717895222
 30
0.0
 11
-606.6933047024249
 21
-8582.734717895222
 31
0.0
  0
LINE
  5
5F43
330
1F
100
AcDbEntity
  8
POPIS
100
AcDbLine
 10
-603.3257086570247
 20
-8579.367121849822
 30
0.0
 11
-597.7565144325508
 21
-8573.797927625347
 31
0.0
  0
LINE
  5
5F4F
330
1F
100
AcDbEntity
  8
POPIS
100
AcDbLine
 10
-563.0640463629807
 20
-8539.105459555777
 30
0.0
 11
-562.9145561122132
 21
-8538.95596930501
 31
0.0
  0
LINE
  5
5F50
330
1F
100
AcDbEntity
  8
POPIS
100
AcDbLine
 10
-559.5469600668121
 20
-8535.588373259608
 30
0.0
 11
-559.5469600668121
 21
-8535.588373259608
 31
0.0
  0
LINE
  5
5F51
330
1F
100
AcDbEntity
  8
POPIS
100
AcDbLine
 10
-556.1793640214109
 20
-8532.220777214208
 30
0.0
 11
-539.3413837944063
 21
-8515.382796987204
 31
0.0
  0
LINE
  5
5F52
330
1F
100
AcDbEntity
  8
POPIS
100
AcDbLine
 10
-535.9737877490052
 20
-8512.015200941803
 30
0.0
 11
-535.9737877490052
 21
-8512.015200941803
 31
0.0
  0
LINE
  5
5F53
330
1F
100
AcDbEntity
  8
POPIS
100
AcDbLine
 10
-532.6061917036041
 20
-8508.647604896401
 30
0.0
 11
-515.7682114765994
 21
-8491.809624669397
 31
0.0
  0
LINE
  5
5F54
330
1F
100
AcDbEntity
  8
POPIS
100
AcDbLine
 10
-606.582749046337
 20
-8609.564930602344
 30
0.0
 11
-596.5905165662225
 21
-8599.572698122228
 31
0.0
  0
LINE
  5
5F55
330
1F
100
AcDbEntity
  8
POPIS
100
AcDbLine
 10
-593.2229205208214
 20
-8596.205102076828
 30
0.0
 11
-593.2229205208214
 21
-8596.205102076828
 31
0.0
  0
LINE
  5
5F56
330
1F
100
AcDbEntity
  8
POPIS
100
AcDbLine
 10
-589.8553244754203
 20
-8592.837506031425
 30
0.0
 11
-573.0173442484156
 21
-8575.999525804419
 31
0.0
  0
LINE
  5
5F62
330
1F
100
AcDbEntity
  8
POPIS
100
AcDbLine
 10
-563.0640463629807
 20
-8566.046227918986
 30
0.0
 11
-551.706516568819
 21
-8554.688698124826
 31
0.0
  0
LINE
  5
5F63
330
1F
100
AcDbEntity
  8
POPIS
100
AcDbLine
 10
-532.5185086887159
 20
-8535.50069024472
 30
0.0
 11
-525.8709996128027
 21
-8528.853181168809
 31
0.0
  0
LINE
  5
5F64
330
1F
100
AcDbEntity
  8
POPIS
100
AcDbLine
 10
-522.5034035674016
 20
-8525.485585123407
 30
0.0
 11
-522.5034035674016
 21
-8525.485585123407
 31
0.0
  0
LINE
  5
5F65
330
1F
100
AcDbEntity
  8
POPIS
100
AcDbLine
 10
-519.1358075220005
 20
-8522.117989078006
 30
0.0
 11
-502.2978272949958
 21
-8505.280008851
 31
0.0
  0
LINE
  5
5F66
330
1F
100
AcDbEntity
  8
POPIS
100
AcDbLine
 10
-498.9302312495947
 20
-8501.9124128056
 30
0.0
 11
-498.9302312495947
 21
-8501.9124128056
 31
0.0
  0
LINE
  5
5F67
330
1F
100
AcDbEntity
  8
POPIS
100
AcDbLine
 10
-495.5626352041936
 20
-8498.544816760199
 30
0.0
 11
-486.7598209454399
 21
-8489.742002501445
 31
0.0
  0
LINE
  5
5F68
330
1F
100
AcDbEntity
  8
POPIS
100
AcDbLine
 10
-576.3849402938167
 20
-8606.307890213029
 30
0.0
 11
-559.5469600668121
 21
-8589.469909986025
 31
0.0
  0
LINE
  5
5F69
330
1F
100
AcDbEntity
  8
POPIS
100
AcDbLine
 10
-556.1793640214109
 20
-8586.102313940623
 30
0.0
 11
-556.1793640214109
 21
-8586.102313940623
 31
0.0
  0
LINE
  5
5F6A
330
1F
100
AcDbEntity
  8
POPIS
100
AcDbLine
 10
-552.8117679760098
 20
-8582.734717895222
 30
0.0
 11
-543.8962942136385
 21
-8573.819244132851
 31
0.0
  0
LINE
  5
5F74
330
1F
100
AcDbEntity
  8
POPIS
100
AcDbLine
 10
-505.5777403255079
 20
-8535.50069024472
 30
0.0
 11
-488.8274431133923
 21
-8518.750393032606
 31
0.0
  0
LINE
  5
5F75
330
1F
100
AcDbEntity
  8
POPIS
100
AcDbLine
 10
-485.4598470679921
 20
-8515.382796987204
 30
0.0
 11
-485.4598470679921
 21
-8515.382796987204
 31
0.0
  0
LINE
  5
5F76
330
1F
100
AcDbEntity
  8
POPIS
100
AcDbLine
 10
-482.0922510225901
 20
-8512.015200941803
 30
0.0
 11
-465.2542707955854
 21
-8495.177220714799
 31
0.0
  0
LINE
  5
5F77
330
1F
100
AcDbEntity
  8
POPIS
100
AcDbLine
 10
-461.8866747501852
 20
-8491.809624669397
 30
0.0
 11
-461.8866747501852
 21
-8491.809624669397
 31
0.0
  0
LINE
  5
5F78
330
1F
100
AcDbEntity
  8
POPIS
100
AcDbLine
 10
-552.7012123199219
 20
-8609.564930602344
 30
0.0
 11
-546.0765758852085
 21
-8602.940294167629
 31
0.0
  0
LINE
  5
5F79
330
1F
100
AcDbEntity
  8
POPIS
100
AcDbLine
 10
-542.7089798398074
 20
-8599.572698122228
 30
0.0
 11
-542.7089798398074
 21
-8599.572698122228
 31
0.0
  0
LINE
  5
5F7A
330
1F
100
AcDbEntity
  8
POPIS
100
AcDbLine
 10
-539.3413837944063
 20
-8596.205102076828
 30
0.0
 11
-522.5034035674016
 21
-8579.367121849822
 31
0.0
  0
LINE
  5
5F7B
330
1F
100
AcDbEntity
  8
POPIS
100
AcDbLine
 10
-519.1358075220005
 20
-8575.999525804419
 30
0.0
 11
-519.1358075220005
 21
-8575.999525804419
 31
0.0
  0
LINE
  5
5F83
330
1F
100
AcDbEntity
  8
POPIS
100
AcDbLine
 10
-500.0864619985596
 20
-8556.950180280979
 30
0.0
 11
-498.9302312495947
 21
-8555.793949532015
 31
0.0
  0
LINE
  5
5F84
330
1F
100
AcDbEntity
  8
POPIS
100
AcDbLine
 10
-495.5626352041945
 20
-8552.426353486614
 30
0.0
 11
-495.5626352041945
 21
-8552.426353486614
 31
0.0
  0
LINE
  5
5F85
330
1F
100
AcDbEntity
  8
POPIS
100
AcDbLine
 10
-492.1950391587925
 20
-8549.058757441214
 30
0.0
 11
-486.7227343573722
 21
-8543.586452639793
 31
0.0
  0
LINE
  5
5F86
330
1F
100
AcDbEntity
  8
POPIS
100
AcDbLine
 10
-478.6412352638008
 20
-8535.504953546221
 30
0.0
 11
-475.3570589317887
 21
-8532.220777214208
 31
0.0
  0
LINE
  5
5F87
330
1F
100
AcDbEntity
  8
POPIS
100
AcDbLine
 10
-471.9894628863876
 20
-8528.853181168809
 30
0.0
 11
-471.9894628863876
 21
-8528.853181168809
 31
0.0
  0
LINE
  5
5F88
330
1F
100
AcDbEntity
  8
POPIS
100
AcDbLine
 10
-468.6218668409865
 20
-8525.485585123407
 30
0.0
 11
-451.7838866139818
 21
-8508.647604896401
 31
0.0
  0
LINE
  5
5F89
330
1F
100
AcDbEntity
  8
POPIS
100
AcDbLine
 10
-448.4162905685807
 20
-8505.280008851
 30
0.0
 11
-448.4162905685807
 21
-8505.280008851
 31
0.0
  0
LINE
  5
5F8A
330
1F
100
AcDbEntity
  8
POPIS
100
AcDbLine
 10
-445.0486945231796
 20
-8501.9124128056
 30
0.0
 11
-432.8782842190248
 21
-8489.742002501445
 31
0.0
  0
LINE
  5
5F8B
330
1F
100
AcDbEntity
  8
POPIS
100
AcDbLine
 10
-525.7604439567148
 20
-8609.564930602344
 30
0.0
 11
-509.0330193857972
 21
-8592.837506031425
 31
0.0
  0
LINE
  5
5F8C
330
1F
100
AcDbEntity
  8
POPIS
100
AcDbLine
 10
-505.6654233403969
 20
-8589.469909986025
 30
0.0
 11
-505.6654233403969
 21
-8589.469909986025
 31
0.0
  0
LINE
  5
5F8D
330
1F
100
AcDbEntity
  8
POPIS
100
AcDbLine
 10
-502.2978272949949
 20
-8586.102313940624
 30
0.0
 11
-486.7227343573713
 21
-8570.527221003001
 31
0.0
  0
LINE
  5
5F93
330
1F
100
AcDbEntity
  8
POPIS
100
AcDbLine
 10
-451.7004669005936
 20
-8535.504953546221
 30
0.0
 11
-438.3135024323783
 21
-8522.117989078006
 31
0.0
  0
LINE
  5
5F94
330
1F
100
AcDbEntity
  8
POPIS
100
AcDbLine
 10
-434.945906386978
 20
-8518.750393032604
 30
0.0
 11
-434.945906386978
 21
-8518.750393032604
 31
0.0
  0
LINE
  5
5F95
330
1F
100
AcDbEntity
  8
POPIS
100
AcDbLine
 10
-431.578310341576
 20
-8515.382796987204
 30
0.0
 11
-414.7403301145714
 21
-8498.544816760199
 31
0.0
  0
LINE
  5
5F96
330
1F
100
AcDbEntity
  8
POPIS
100
AcDbLine
 10
-411.3727340691712
 20
-8495.177220714799
 30
0.0
 11
-411.3727340691712
 21
-8495.177220714799
 31
0.0
  0
LINE
  5
5F97
330
1F
100
AcDbEntity
  8
POPIS
100
AcDbLine
 10
-408.0051380237692
 20
-8491.809624669397
 30
0.0
 11
-405.9375158558177
 21
-8489.742002501445
 31
0.0
  0
LINE
  5
5F98
330
1F
100
AcDbEntity
  8
POPIS
100
AcDbLine
 10
-498.8196755935077
 20
-8609.564930602344
 30
0.0
 11
-495.5626352041945
 21
-8606.307890213029
 31
0.0
  0
LINE
  5
5F99
330
1F
100
AcDbEntity
  8
POPIS
100
AcDbLine
 10
-492.1950391587925
 20
-8602.940294167627
 30
0.0
 11
-492.1950391587925
 21
-8602.940294167627
 31
0.0
  0
LINE
  5
5F9A
330
1F
100
AcDbEntity
  8
POPIS
100
AcDbLine
 10
-488.8274431133923
 20
-8599.572698122228
 30
0.0
 11
-471.9894628863876
 21
-8582.734717895222
 31
0.0
  0
LINE
  5
5F9B
330
1F
100
AcDbEntity
  8
POPIS
100
AcDbLine
 10
-468.6218668409856
 20
-8579.367121849822
 30
0.0
 11
-468.6218668409856
 21
-8579.367121849822
 31
0.0
  0
LINE
  5
5F9C
330
1F
100
AcDbEntity
  8
POPIS
100
AcDbLine
 10
-465.2542707955854
 20
-8575.999525804419
 30
0.0
 11
-463.0526726165117
 21
-8573.797927625347
 31
0.0
  0
LINE
  5
5F9F
330
1F
100
AcDbEntity
  8
POPIS
100
AcDbLine
 10
-435.1112063901146
 20
-8545.856461398949
 30
0.0
 11
-424.8431182507747
 21
-8535.588373259608
 31
0.0
  0
LINE
  5
5FA0
330
1F
100
AcDbEntity
  8
POPIS
100
AcDbLine
 10
-421.4755222053736
 20
-8532.220777214208
 30
0.0
 11
-421.4755222053736
 21
-8532.220777214208
 31
0.0
  0
LINE
  5
5FA1
330
1F
100
AcDbEntity
  8
POPIS
100
AcDbLine
 10
-418.1079261599725
 20
-8528.853181168809
 30
0.0
 11
-401.2699459329678
 21
-8512.015200941803
 31
0.0
  0
LINE
  5
5FA2
330
1F
100
AcDbEntity
  8
POPIS
100
AcDbLine
 10
-397.9023498875667
 20
-8508.647604896401
 30
0.0
 11
-397.9023498875667
 21
-8508.647604896401
 31
0.0
  0
LINE
  5
5FA3
330
1F
100
AcDbEntity
  8
POPIS
100
AcDbLine
 10
-394.5347538421656
 20
-8505.280008851
 30
0.0
 11
-378.9967474926097
 21
-8489.742002501445
 31
0.0
  0
LINE
  5
5FA4
330
1F
100
AcDbEntity
  8
POPIS
100
AcDbLine
 10
-471.8789072302997
 20
-8609.564930602344
 30
0.0
 11
-458.5190787047832
 21
-8596.205102076828
 31
0.0
  0
LINE
  5
5FA5
330
1F
100
AcDbEntity
  8
POPIS
100
AcDbLine
 10
-455.1514826593829
 20
-8592.837506031425
 30
0.0
 11
-455.1514826593829
 21
-8592.837506031425
 31
0.0
  0
LINE
  5
5FA6
330
1F
100
AcDbEntity
  8
POPIS
100
AcDbLine
 10
-451.7838866139809
 20
-8589.469909986025
 30
0.0
 11
-436.1119042533045
 21
-8573.797927625347
 31
0.0
  0
LINE
  5
5FA7
330
1F
100
AcDbEntity
  8
POPIS
100
AcDbLine
 10
-397.8189301741786
 20
-8535.504953546221
 30
0.0
 11
-387.7995617513643
 21
-8525.485585123407
 31
0.0
  0
LINE
  5
5FA8
330
1F
100
AcDbEntity
  8
POPIS
100
AcDbLine
 10
-384.4319657059632
 20
-8522.117989078006
 30
0.0
 11
-384.4319657059632
 21
-8522.117989078006
 31
0.0
  0
LINE
  5
5FA9
330
1F
100
AcDbEntity
  8
POPIS
100
AcDbLine
 10
-381.064369660562
 20
-8518.750393032606
 30
0.0
 11
-364.2263894335574
 21
-8501.9124128056
 31
0.0
  0
LINE
  5
5FAA
330
1F
100
AcDbEntity
  8
POPIS
100
AcDbLine
 10
-360.8587933881563
 20
-8498.544816760199
 30
0.0
 11
-360.8587933881563
 21
-8498.544816760199
 31
0.0
  0
LINE
  5
5FAB
330
1F
100
AcDbEntity
  8
POPIS
100
AcDbLine
 10
-357.4911973427552
 20
-8495.177220714799
 30
0.0
 11
-352.0559791294017
 21
-8489.742002501445
 31
0.0
  0
LINE
  5
5FAC
330
1F
100
AcDbEntity
  8
POPIS
100
AcDbLine
 10
-435.1112063901146
 20
-8572.797229762157
 30
0.0
 11
-434.9459063869772
 21
-8572.631929759019
 31
0.0
  0
LINE
  5
5FAD
330
1F
100
AcDbEntity
  8
POPIS
100
AcDbLine
 10
-431.578310341576
 20
-8569.264333713617
 30
0.0
 11
-431.578310341576
 21
-8569.264333713617
 31
0.0
  0
LINE
  5
5FAE
330
1F
100
AcDbEntity
  8
POPIS
100
AcDbLine
 10
-428.2107142961749
 20
-8565.896737668218
 30
0.0
 11
-411.3727340691703
 21
-8549.058757441214
 31
0.0
  0
LINE
  5
5FAF
330
1F
100
AcDbEntity
  8
POPIS
100
AcDbLine
 10
-408.0051380237692
 20
-8545.691161395813
 30
0.0
 11
-408.0051380237692
 21
-8545.691161395813
 31
0.0
  0
LINE
  5
5FB0
330
1F
100
AcDbEntity
  8
POPIS
100
AcDbLine
 10
-441.6810984777794
 20
-8606.307890213029
 30
0.0
 11
-441.6810984777794
 21
-8606.307890213029
 31
0.0
  0
LINE
  5
5FB1
330
1F
100
AcDbEntity
  8
POPIS
100
AcDbLine
 10
-438.3135024323783
 20
-8602.940294167627
 30
0.0
 11
-421.4755222053736
 21
-8586.102313940624
 31
0.0
  0
LINE
  5
5FB2
330
1F
100
AcDbEntity
  8
POPIS
100
AcDbLine
 10
-418.1079261599725
 20
-8582.734717895222
 30
0.0
 11
-418.1079261599725
 21
-8582.734717895222
 31
0.0
  0
LINE
  5
5FB3
330
1F
100
AcDbEntity
  8
POPIS
100
AcDbLine
 10
-414.7403301145714
 20
-8579.367121849822
 30
0.0
 11
-407.2076464968704
 21
-8571.834438232121
 31
0.0
  0
LINE
  5
5FB4
330
1F
100
AcDbEntity
  8
POPIS
100
AcDbLine
 10
-367.5939854789594
 20
-8532.220777214208
 30
0.0
 11
-350.7560052519547
 21
-8515.382796987204
 31
0.0
  0
LINE
  5
5FB5
330
1F
100
AcDbEntity
  8
POPIS
100
AcDbLine
 10
-347.3884092065527
 20
-8512.015200941803
 30
0.0
 11
-347.3884092065527
 21
-8512.015200941803
 31
0.0
  0
LINE
  5
5FB6
330
1F
100
AcDbEntity
  8
POPIS
100
AcDbLine
 10
-344.0208131611525
 20
-8508.647604896401
 30
0.0
 11
-327.1828329341478
 21
-8491.809624669397
 31
0.0
  0
LINE
  5
5FB7
330
1F
100
AcDbEntity
  8
POPIS
100
AcDbLine
 10
-417.9973705038846
 20
-8609.564930602344
 30
0.0
 11
-408.00513802377
 21
-8599.572698122228
 31
0.0
  0
LINE
  5
5FB8
330
1F
100
AcDbEntity
  8
POPIS
100
AcDbLine
 10
-404.6375419783689
 20
-8596.205102076828
 30
0.0
 11
-404.6375419783689
 21
-8596.205102076828
 31
0.0
  0
LINE
  5
5FB9
330
1F
100
AcDbEntity
  8
POPIS
100
AcDbLine
 10
-401.2699459329678
 20
-8592.837506031425
 30
0.0
 11
-384.4319657059632
 21
-8575.999525804419
 31
0.0
  0
LINE
  5
5FBA
330
1F
100
AcDbEntity
  8
POPIS
100
AcDbLine
 10
-343.9373934477635
 20
-8535.504953546221
 30
0.0
 11
-337.2856210703503
 21
-8528.853181168809
 31
0.0
  0
LINE
  5
5FBB
330
1F
100
AcDbEntity
  8
POPIS
100
AcDbLine
 10
-333.9180250249501
 20
-8525.485585123407
 30
0.0
 11
-333.9180250249501
 21
-8525.485585123407
 31
0.0
  0
LINE
  5
5FBC
330
1F
100
AcDbEntity
  8
POPIS
100
AcDbLine
 10
-330.550428979548
 20
-8522.117989078006
 30
0.0
 11
-313.7124487525434
 21
-8505.280008851
 31
0.0
  0
LINE
  5
5FBD
330
1F
100
AcDbEntity
  8
POPIS
100
AcDbLine
 10
-310.3448527071432
 20
-8501.9124128056
 30
0.0
 11
-310.3448527071432
 21
-8501.9124128056
 31
0.0
  0
LINE
  5
5FBE
330
1F
100
AcDbEntity
  8
POPIS
100
AcDbLine
 10
-306.9772566617412
 20
-8498.544816760199
 30
0.0
 11
-298.1744424029875
 21
-8489.742002501445
 31
0.0
  0
LINE
  5
5FBF
330
1F
100
AcDbEntity
  8
POPIS
100
AcDbLine
 10
-354.1236012973549
 20
-8545.691161395813
 30
0.0
 11
-352.566817973824
 21
-8544.134378072282
 31
0.0
  0
LINE
  5
5FC0
330
1F
100
AcDbEntity
  8
POPIS
100
AcDbLine
 10
-387.7995617513643
 20
-8606.307890213029
 30
0.0
 11
-370.9615815243596
 21
-8589.469909986025
 31
0.0
  0
LINE
  5
5FC1
330
1F
100
AcDbEntity
  8
POPIS
100
AcDbLine
 10
-367.5939854789585
 20
-8586.102313940624
 30
0.0
 11
-367.5939854789585
 21
-8586.102313940624
 31
0.0
  0
LINE
  5
5FC2
330
1F
100
AcDbEntity
  8
POPIS
100
AcDbLine
 10
-364.2263894335574
 20
-8582.734717895222
 30
0.0
 11
-352.566817973824
 21
-8571.075146435488
 31
0.0
  0
LINE
  5
5FC3
330
1F
100
AcDbEntity
  8
POPIS
100
AcDbLine
 10
-316.9966250845563
 20
-8535.504953546221
 30
0.0
 11
-300.2420645709408
 21
-8518.750393032604
 31
0.0
  0
LINE
  5
5FC4
330
1F
100
AcDbEntity
  8
POPIS
100
AcDbLine
 10
-296.8744685255387
 20
-8515.382796987204
 30
0.0
 11
-296.8744685255387
 21
-8515.382796987204
 31
0.0
  0
LINE
  5
5FC5
330
1F
100
AcDbEntity
  8
POPIS
100
AcDbLine
 10
-293.5068724801385
 20
-8512.015200941803
 30
0.0
 11
-276.6688922531339
 21
-8495.177220714799
 31
0.0
  0
LINE
  5
5FC6
330
1F
100
AcDbEntity
  8
POPIS
100
AcDbLine
 10
-273.3012962077318
 20
-8491.809624669397
 30
0.0
 11
-273.3012962077318
 21
-8491.809624669397
 31
0.0
  0
LINE
  5
5FC7
330
1F
100
AcDbEntity
  8
POPIS
100
AcDbLine
 10
-364.1158337774704
 20
-8609.564930602344
 30
0.0
 11
-357.491197342756
 21
-8602.940294167627
 31
0.0
  0
LINE
  5
5FC8
330
1F
100
AcDbEntity
  8
POPIS
100
AcDbLine
 10
-354.1236012973549
 20
-8599.572698122228
 30
0.0
 11
-354.1236012973549
 21
-8599.572698122228
 31
0.0
  0
LINE
  5
5FC9
330
1F
100
AcDbEntity
  8
POPIS
100
AcDbLine
 10
-350.7560052519538
 20
-8596.205102076828
 30
0.0
 11
-333.9180250249492
 21
-8579.367121849822
 31
0.0
  0
LINE
  5
5FCA
330
1F
100
AcDbEntity
  8
POPIS
100
AcDbLine
 10
-330.550428979548
 20
-8575.999525804419
 30
0.0
 11
-330.550428979548
 21
-8575.999525804419
 31
0.0
  0
LINE
  5
5FCB
330
1F
100
AcDbEntity
  8
POPIS
100
AcDbLine
 10
-290.1624392588655
 20
-8535.611536083738
 30
0.0
 11
-286.7716803893363
 21
-8532.220777214208
 31
0.0
  0
LINE
  5
5FCC
330
1F
100
AcDbEntity
  8
POPIS
100
AcDbLine
 10
-283.4040843439352
 20
-8528.853181168809
 30
0.0
 11
-283.4040843439352
 21
-8528.853181168809
 31
0.0
  0
LINE
  5
5FCD
330
1F
100
AcDbEntity
  8
POPIS
100
AcDbLine
 10
-280.036488298534
 20
-8525.485585123407
 30
0.0
 11
-263.1985080715294
 21
-8508.647604896401
 31
0.0
  0
LINE
  5
5FCE
330
1F
100
AcDbEntity
  8
POPIS
100
AcDbLine
 10
-259.8309120261283
 20
-8505.280008851
 30
0.0
 11
-259.8309120261283
 21
-8505.280008851
 31
0.0
  0
LINE
  5
5FCF
330
1F
100
AcDbEntity
  8
POPIS
100
AcDbLine
 10
-256.4633159807272
 20
-8501.9124128056
 30
0.0
 11
-244.2929056765724
 21
-8489.742002501445
 31
0.0
  0
LINE
  5
5FD0
330
1F
100
AcDbEntity
  8
POPIS
100
AcDbLine
 10
-337.1750654142633
 20
-8609.564930602344
 30
0.0
 11
-320.4476408433456
 21
-8592.837506031425
 31
0.0
  0
LINE
  5
5FD1
330
1F
100
AcDbEntity
  8
POPIS
100
AcDbLine
 10
-317.0800447979454
 20
-8589.469909986025
 30
0.0
 11
-317.0800447979454
 21
-8589.469909986025
 31
0.0
  0
LINE
  5
5FD2
330
1F
100
AcDbEntity
  8
POPIS
100
AcDbLine
 10
-313.7124487525434
 20
-8586.102313940623
 30
0.0
 11
-301.4080624372681
 21
-8573.797927625347
 31
0.0
  0
LINE
  5
5FD3
330
1F
100
AcDbEntity
  8
POPIS
100
AcDbLine
 10
-263.2216708956584
 20
-8535.611536083738
 30
0.0
 11
-249.7281238899268
 21
-8522.117989078006
 31
0.0
  0
LINE
  5
5FD4
330
1F
100
AcDbEntity
  8
POPIS
100
AcDbLine
 10
-246.3605278445247
 20
-8518.750393032604
 30
0.0
 11
-246.3605278445247
 21
-8518.750393032604
 31
0.0
  0
LINE
  5
5FD5
330
1F
100
AcDbEntity
  8
POPIS
100
AcDbLine
 10
-242.9929317991245
 20
-8515.382796987204
 30
0.0
 11
-226.1549515721199
 21
-8498.544816760199
 31
0.0
  0
LINE
  5
5FD6
330
1F
100
AcDbEntity
  8
POPIS
100
AcDbLine
 10
-222.7873555267178
 20
-8495.177220714799
 30
0.0
 11
-222.7873555267178
 21
-8495.177220714799
 31
0.0
  0
LINE
  5
5FD7
330
1F
100
AcDbEntity
  8
POPIS
100
AcDbLine
 10
-219.4197594813176
 20
-8491.809624669397
 30
0.0
 11
-217.3521373133644
 21
-8489.742002501445
 31
0.0
  0
LINE
  5
5FD8
330
1F
100
AcDbEntity
  8
POPIS
100
AcDbLine
 10
-300.9552900065664
 20
-8573.345155194646
 30
0.0
 11
-300.8751497496832
 21
-8573.265014937762
 31
0.0
  0
LINE
  5
5FD9
330
1F
100
AcDbEntity
  8
POPIS
100
AcDbLine
 10
-310.2342970510553
 20
-8609.564930602344
 30
0.0
 11
-306.977256661742
 21
-8606.307890213029
 31
0.0
  0
LINE
  5
5FDA
330
1F
100
AcDbEntity
  8
POPIS
100
AcDbLine
 10
-303.6096606163409
 20
-8602.940294167627
 30
0.0
 11
-303.6096606163409
 21
-8602.940294167627
 31
0.0
  0
LINE
  5
5FDB
330
1F
100
AcDbEntity
  8
POPIS
100
AcDbLine
 10
-300.2420645709398
 20
-8599.572698122228
 30
0.0
 11
-283.4040843439352
 21
-8582.734717895222
 31
0.0
  0
LINE
  5
5FDC
330
1F
100
AcDbEntity
  8
POPIS
100
AcDbLine
 10
-280.036488298534
 20
-8579.367121849822
 30
0.0
 11
-280.036488298534
 21
-8579.367121849822
 31
0.0
  0
LINE
  5
5FDD
330
1F
100
AcDbEntity
  8
POPIS
100
AcDbLine
 10
-276.6688922531329
 20
-8575.999525804419
 30
0.0
 11
-273.9343813864743
 21
-8573.265014937762
 31
0.0
  0
LINE
  5
5FDE
330
1F
100
AcDbEntity
  8
POPIS
100
AcDbLine
 10
-236.2809025324513
 20
-8535.611536083738
 30
0.0
 11
-236.2577397083223
 21
-8535.588373259608
 31
0.0
  0
LINE
  5
5FDF
330
1F
100
AcDbEntity
  8
POPIS
100
AcDbLine
 10
-232.8901436629212
 20
-8532.220777214208
 30
0.0
 11
-232.8901436629212
 21
-8532.220777214208
 31
0.0
  0
LINE
  5
5FE0
330
1F
100
AcDbEntity
  8
POPIS
100
AcDbLine
 10
-229.52254761752
 20
-8528.853181168809
 30
0.0
 11
-212.6845673905154
 21
-8512.015200941803
 31
0.0
  0
LINE
  5
5FE1
330
1F
100
AcDbEntity
  8
POPIS
100
AcDbLine
 10
-209.3169713451143
 20
-8508.647604896401
 30
0.0
 11
-209.3169713451143
 21
-8508.647604896401
 31
0.0
  0
LINE
  5
5FE2
330
1F
100
AcDbEntity
  8
POPIS
100
AcDbLine
 10
-283.2935286878482
 20
-8609.564930602344
 30
0.0
 11
-269.9337001623316
 21
-8596.205102076828
 31
0.0
  0
LINE
  5
5FE3
330
1F
100
AcDbEntity
  8
POPIS
100
AcDbLine
 10
-266.5661041169314
 20
-8592.837506031425
 30
0.0
 11
-266.5661041169314
 21
-8592.837506031425
 31
0.0
  0
LINE
  5
5FE4
330
1F
100
AcDbEntity
  8
POPIS
100
AcDbLine
 10
-263.1985080715294
 20
-8589.469909986025
 30
0.0
 11
-246.9936130232681
 21
-8573.265014937762
 31
0.0
  0
LINE
  5
5FE5
330
1F
100
AcDbEntity
  8
POPIS
100
AcDbLine
 10
-209.3401341692442
 20
-8535.611536083738
 30
0.0
 11
-207.1755423857648
 21
-8533.446944300258
 31
0.0
  0
LINE
  5
5FE6
330
1F
100
AcDbEntity
  8
POPIS
100
AcDbLine
 10
-253.095719935327
 20
-8606.307890213029
 30
0.0
 11
-253.095719935327
 21
-8606.307890213029
 31
0.0
  0
LINE
  5
5FE7
330
1F
100
AcDbEntity
  8
POPIS
100
AcDbLine
 10
-249.7281238899258
 20
-8602.940294167627
 30
0.0
 11
-232.8901436629212
 21
-8586.102313940624
 31
0.0
  0
LINE
  5
5FE8
330
1F
100
AcDbEntity
  8
POPIS
100
AcDbLine
 10
-229.52254761752
 20
-8582.734717895222
 30
0.0
 11
-229.52254761752
 21
-8582.734717895222
 31
0.0
  0
LINE
  5
5FE9
330
1F
100
AcDbEntity
  8
POPIS
100
AcDbLine
 10
-226.1549515721189
 20
-8579.367121849822
 30
0.0
 11
-220.0528446600601
 21
-8573.265014937762
 31
0.0
  0
LINE
  5
5FEA
330
1F
100
AcDbEntity
  8
POPIS
100
AcDbLine
 10
-229.4119919614331
 20
-8609.564930602344
 30
0.0
 11
-219.4197594813176
 21
-8599.572698122228
 31
0.0
  0
LINE
  5
5FEB
330
1F
100
AcDbEntity
  8
POPIS
100
AcDbLine
 10
-216.0521634359165
 20
-8596.205102076828
 30
0.0
 11
-216.0521634359165
 21
-8596.205102076828
 31
0.0
  0
LINE
  5
5FEC
330
1F
100
AcDbEntity
  8
POPIS
100
AcDbLine
 10
-212.6845673905154
 20
-8592.837506031425
 30
0.0
 11
-207.175542385763
 21
-8587.328481026673
 31
0.0
  0
TEXT
  5
60CA
330
1F
100
AcDbEntity
  8
POPIS
100
AcDbText
 10
-889.7712710788564
 20
-8157.205729358116
 30
0.0
 40
50.0
  1
Řešení dilatace
 41
0.85
  7
SIMPLEX7
100
AcDbText
  0
TEXT
  5
60CC
330
1F
100
AcDbEntity
  8
POPIS
100
AcDbText
 10
-52.24397898104689
 20
-8566.294501940182
 30
0.0
 40
25.0
  1
Izolace EPS
 41
0.7
  7
SIMPLEX7
100
AcDbText
  0
TEXT
  5
60CD
330
1F
100
AcDbEntity
  8
POPIS
100
AcDbText
 10
-106.5876821407891
 20
-8459.386005956288
 30
0.0
 40
25.0
  1
07
 41
0.85
  7
SIMPLEX7
100
AcDbText
  0
TEXT
  5
60CE
330
1F
100
AcDbEntity
  8
POPIS
100
AcDbText
 10
-106.5876821407891
 20
-8315.617476545623
 30
0.0
 40
25.0
  1
03
 41
0.85
  7
SIMPLEX7
100
AcDbText
  0
TEXT
  5
60CF
330
1F
100
AcDbEntity
  8
POPIS
100
AcDbText
 10
-52.24397898104689
 20
-8389.931056369091
 30
0.0
 40
25.0
  1
Deska CETRIS    tl. 12 mm, spodní
 41
0.7
  7
SIMPLEX7
100
AcDbText
  0
TEXT
  5
60D0
330
1F
100
AcDbEntity
  8
POPIS
100
AcDbText
 10
-106.5876821407891
 20
-8352.212488161251
 30
0.0
 40
25.0
  1
04
 41
0.85
  7
SIMPLEX7
100
AcDbText
  0
TEXT
  5
60D1
330
1F
100
AcDbEntity
  8
POPIS
100
AcDbText
 10
-52.24397898104689
 20
-8426.526067984717
 30
0.0
 40
25.0
  1
Vrut 4,2x35 mm
 41
0.7
  7
SIMPLEX7
100
AcDbText
  0
TEXT
  5
60D2
330
1F
100
AcDbEntity
  8
POPIS
100
AcDbText
 10
-106.5876821407891
 20
-8390.096573198837
 30
0.0
 40
25.0
  1
05
 41
0.85
  7
SIMPLEX7
100
AcDbText
  0
TEXT
  5
60D3
330
1F
100
AcDbEntity
  8
POPIS
100
AcDbText
 10
-52.24397898104689
 20
-8497.005069182732
 30
0.0
 40
25.0
  1
Podkladní dřevěná lišta
 41
0.7
  7
SIMPLEX7
100
AcDbText
  0
TEXT
  5
60D4
330
1F
100
AcDbEntity
  8
POPIS
100
AcDbText
 10
-106.5876821407891
 20
-8425.500734417001
 30
0.0
 40
25.0
  1
06
 41
0.85
  7
SIMPLEX7
100
AcDbText
  0
TEXT
  5
60D5
330
1F
100
AcDbEntity
  8
POPIS
100
AcDbText
 10
-52.24397898104689
 20
-8532.409230400896
 30
0.0
 40
25.0
  1
Izolace EPS
 41
0.7
  7
SIMPLEX7
100
AcDbText
  0
TEXT
  5
60D6
330
1F
100
AcDbEntity
  8
POPIS
100
AcDbText
 10
-52.24397898104689
 20
-8603.130041943073
 30
0.0
 40
25.0
  1
Izolace EPS
 41
0.7
  7
SIMPLEX7
100
AcDbText
  0
TEXT
  5
60D7
330
1F
100
AcDbEntity
  8
POPIS
100
AcDbText
 10
-106.5876821407891
 20
-8496.221545959178
 30
0.0
 40
25.0
  1
08
 41
0.85
  7
SIMPLEX7
100
AcDbText
  0
TEXT
  5
60D8
330
1F
100
AcDbEntity
  8
POPIS
100
AcDbText
 10
-106.5876821407891
 20
-8531.747186860481
 30
0.0
 40
25.0
  1
09
 41
0.85
  7
SIMPLEX7
100
AcDbText
  0
TEXT
  5
60D9
330
1F
100
AcDbEntity
  8
POPIS
100
AcDbText
 10
-106.5876821407891
 20
-8567.032813053179
 30
0.0
 40
25.0
  1
10
 41
0.85
  7
SIMPLEX7
100
AcDbText
  0
TEXT
  5
60DA
330
1F
100
AcDbEntity
  8
POPIS
100
AcDbText
 10
-52.24397898104689
 20
-8316.43455424782
 30
0.0
 40
25.0
  1
Dilatační spára tl. 15 mm
 41
0.7
  7
SIMPLEX7
100
AcDbText
  0
TEXT
  5
60DB
330
1F
100
AcDbEntity
  8
POPIS
100
AcDbText
 10
-52.24397898104689
 20
-8279.839542632194
 30
0.0
 40
25.0
  1
Nášlapná vrstva
 41
0.7
  7
SIMPLEX7
100
AcDbText
  0
CIRCLE
  5
60DC
330
1F
100
AcDbEntity
  8
POPIS
100
AcDbCircle
 10
121.0645410942142
 20
-8367.355446960555
 30
0.0
 40
7.795592338044182
  0
TEXT
  5
60DD
330
1F
100
AcDbEntity
  8
POPIS
100
AcDbText
 10
117.7332207555864
 20
-8371.237188982046
 30
0.0
 40
8.399999999999998
  1
R
 41
0.85
  7
SIMPLEX7
100
AcDbText
  0
CIRCLE
  5
60DE
330
1F
100
AcDbEntity
  8
POPIS
100
AcDbCircle
 10
121.4499568026203
 20
-8326.286694422854
 30
0.0
 40
7.795592338044182
  0
TEXT
  5
60DF
330
1F
100
AcDbEntity
  8
POPIS
100
AcDbText
 10
118.1186364639925
 20
-8330.168436444349
 30
0.0
 40
8.399999999999998
  1
R
 41
0.85
  7
SIMPLEX7
100
AcDbText
  0
TEXT
  5
60E0
330
1F
100
AcDbEntity
  8
POPIS
100
AcDbText
 10
-52.24397898104689
 20
-8245.873327283701
 30
0.0
 40
25.0
  1
Dilatační profil Schlűter DILEX-BWB
 41
0.7
  7
SIMPLEX7
100
AcDbText
  0
TEXT
  5
60E1
330
1F
100
AcDbEntity
  8
POPIS
100
AcDbText
 10
-52.24397898104689
 20
-8351.791572762605
 30
0.0
 40
25.0
  1
Deska CETRIS    tl. 12 mm horní, předvrtaná
 41
0.7
  7
SIMPLEX7
100
AcDbText
  0
TEXT
  5
60E2
330
1F
100
AcDbEntity
  8
POPIS
100
AcDbText
 10
-106.5876821407891
 20
-8244.903439516058
 30
0.0
 40
25.0
  1
01
 41
0.85
  7
SIMPLEX7
100
AcDbText
  0
TEXT
  5
60E3
330
1F
100
AcDbEntity
  8
POPIS
100
AcDbText
 10
-106.5876821407891
 20
-8281.498451131685
 30
0.0
 40
25.0
  1
02
 41
0.85
  7
SIMPLEX7
100
AcDbText
  0
TEXT
  5
6101
330
1F
100
AcDbEntity
  8
POPIS
100
AcDbText
 10
-106.5876821407891
 20
-8674.22501868789
 30
0.0
 40
25.0
  1
13
 41
0.85
  7
SIMPLEX7
100
AcDbText
  0
TEXT
  5
6102
330
1F
100
AcDbEntity
  8
POPIS
100
AcDbText
 10
-106.5876821407891
 20
-8638.939392495192
 30
0.0
 40
25.0
  1
12
 41
0.85
  7
SIMPLEX7
100
AcDbText
  0
TEXT
  5
6103
330
1F
100
AcDbEntity
  8
POPIS
100
AcDbText
 10
-106.5876821407891
 20
-8603.413751593889
 30
0.0
 40
25.0
  1
11
 41
0.85
  7
SIMPLEX7
100
AcDbText
  0
TEXT
  5
6104
330
1F
100
AcDbEntity
  8
POPIS
100
AcDbText
 10
-52.24397898104689
 20
-8674.774287651311
 30
0.0
 40
25.0
  1
Stropní konstrukce
 41
0.7
  7
SIMPLEX7
100
AcDbText
  0
TEXT
  5
6105
330
1F
100
AcDbEntity
  8
POPIS
100
AcDbText
 10
-52.24397898104689
 20
-8637.938747648419
 30
0.0
 40
25.0
  1
Parozábrana
 41
0.7
  7
SIMPLEX7
100
AcDbText
  0
TEXT
  5
6106
330
1F
100
AcDbEntity
  8
POPIS
100
AcDbText
 10
-52.66236128981654
 20
-8460.109342327788
 30
0.0
 40
25.0
  1
Separační fólie-pěnová fólie tl. 2 mm
 41
0.7
  7
SIMPLEX7
100
AcDbText
  0
ENDSEC
  0
SECTION
  2
OBJECTS
  0
DICTIONARY
  5
C
330
0
100
AcDbDictionary
281
     1
  3
ACAD_GROUP
350
D
  3
ACAD_LAYOUT
350
1A
  3
ACAD_MLINESTYLE
350
17
  3
ACAD_PLOTSETTINGS
350
19
  3
ACAD_PLOTSTYLENAME
350
E
  3
AcDbVariableDictionary
350
8A0
  0
DICTIONARY
  5
D
102
{ACAD_REACTORS
330
C
102
}
330
C
100
AcDbDictionary
281
     1
  0
DICTIONARY
  5
1A
102
{ACAD_REACTORS
330
C
102
}
330
C
100
AcDbDictionary
281
     1
  3
Model
350
22
  3
Rozvržení1
350
1E
  3
Rozvržení2
350
26
  0
DICTIONARY
  5
17
102
{ACAD_REACTORS
330
C
102
}
330
C
100
AcDbDictionary
281
     1
  3
Standard
350
18
  0
DICTIONARY
  5
19
102
{ACAD_REACTORS
330
C
102
}
330
C
100
AcDbDictionary
281
     1
  0
ACDBDICTIONARYWDFLT
  5
E
102
{ACAD_REACTORS
330
C
102
}
330
C
100
AcDbDictionary
281
     1
  3
Normal
350
F
100
AcDbDictionaryWithDefault
340
F
  0
DICTIONARY
  5
8A0
102
{ACAD_REACTORS
330
C
102
}
330
C
100
AcDbDictionary
281
     1
  3
DIMASSOC
350
8A1
  0
LAYOUT
  5
22
102
{ACAD_REACTORS
330
1A
102
}
330
1A
100
AcDbPlotSettings
  1

  2
HP DeskJet 690C
  4

  6

 40
0.0
 41
0.0
 42
0.0
 43
0.0
 44
0.0
 45
0.0
 46
0.0
 47
0.0
 48
0.0
 49
0.0
140
0.0
141
0.0
142
1.0
143
1.0
 70
  1712
 72
     0
 73
     0
 74
     0
  7
monochrome.ctb
 75
     0
147
1.0
148
0.0
149
0.0
100
AcDbLayout
  1
Model
 70
     1
 71
     0
 10
0.0
 20
0.0
 11
12.0
 21
9.0
 12
0.0
 22
0.0
 32
0.0
 14
0.0
 24
0.0
 34
0.0
 15
0.0
 25
0.0
 35
0.0
146
0.0
 13
0.0
 23
0.0
 33
0.0
 16
1.0
 26
0.0
 36
0.0
 17
0.0
 27
1.0
 37
0.0
 76
     0
330
1F
  0
LAYOUT
  5
1E
102
{ACAD_REACTORS
330
1A
102
}
330
1A
100
AcDbPlotSettings
  1

  2
HP DeskJet 690C
  4

  6

 40
0.0
 41
0.0
 42
0.0
 43
0.0
 44
0.0
 45
0.0
 46
0.0
 47
0.0
 48
0.0
 49
0.0
140
0.0
141
0.0
142
1.0
143
1.0
 70
   688
 72
     0
 73
     0
 74
     5
  7
monochrome.ctb
 75
    16
147
1.0
148
0.0
149
0.0
100
AcDbLayout
  1
Rozvržení1
 70
     1
 71
     1
 10
0.0
 20
0.0
 11
420.0
 21
297.0
 12
0.0
 22
0.0
 32
0.0
 14
1.000000000000000E+20
 24
1.000000000000000E+20
 34
1.000000000000000E+20
 15
-1.000000000000000E+20
 25
-1.000000000000000E+20
 35
-1.000000000000000E+20
146
0.0
 13
0.0
 23
0.0
 33
0.0
 16
1.0
 26
0.0
 36
0.0
 17
0.0
 27
1.0
 37
0.0
 76
     0
330
1B
  0
LAYOUT
  5
26
102
{ACAD_REACTORS
330
1A
102
}
330
1A
100
AcDbPlotSettings
  1

  2
HP DeskJet 690C
  4

  6

 40
0.0
 41
0.0
 42
0.0
 43
0.0
 44
0.0
 45
0.0
 46
0.0
 47
0.0
 48
0.0
 49
0.0
140
0.0
141
0.0
142
1.0
143
1.0
 70
   688
 72
     0
 73
     0
 74
     5
  7
monochrome.ctb
 75
    16
147
1.0
148
0.0
149
0.0
100
AcDbLayout
  1
Rozvržení2
 70
     1
 71
     2
 10
0.0
 20
0.0
 11
12.0
 21
9.0
 12
0.0
 22
0.0
 32
0.0
 14
0.0
 24
0.0
 34
0.0
 15
0.0
 25
0.0
 35
0.0
146
0.0
 13
0.0
 23
0.0
 33
0.0
 16
1.0
 26
0.0
 36
0.0
 17
0.0
 27
1.0
 37
0.0
 76
     0
330
23
  0
MLINESTYLE
  5
18
102
{ACAD_REACTORS
330
17
102
}
330
17
100
AcDbMlineStyle
  2
STANDARD
 70
     0
  3

 62
   256
 51
90.0
 52
90.0
 71
     2
 49
0.5
 62
   256
  6
BYLAYER
 49
-0.5
 62
   256
  6
BYLAYER
  0
ACDBPLACEHOLDER
  5
F
102
{ACAD_REACTORS
330
E
102
}
330
E
  0
DICTIONARYVAR
  5
8A1
102
{ACAD_REACTORS
330
8A0
102
}
330
8A0
100
DictionaryVariables
280
     0
  1
1
  0
ENDSEC
  0
EOF
