  0
SECTION
  2
HEADER
  9
$ACADVER
  1
AC1015
  9
$ACADMAINTVER
 70
    14
  9
$DWGCODEPAGE
  3
ANSI_1250
  9
$INSBASE
 10
0.0
 20
0.0
 30
0.0
  9
$EXTMIN
 10
-2968.274619427913
 20
-7222.29708618312
 30
-0.0015258207003583
  9
$EXTMAX
 10
-1679.981950885623
 20
-6613.876501205258
 30
0.0000000349246037
  9
$LIMMIN
 10
0.0
 20
0.0
  9
$LIMMAX
 10
420.0
 20
297.0
  9
$ORTHOMODE
 70
     1
  9
$REGENMODE
 70
     1
  9
$FILLMODE
 70
     1
  9
$QTEXTMODE
 70
     0
  9
$MIRRTEXT
 70
     1
  9
$LTSCALE
 40
1.0
  9
$ATTMODE
 70
     1
  9
$TEXTSIZE
 40
102.0
  9
$TRACEWID
 40
1.0
  9
$TEXTSTYLE
  7
SIMPLEX7
  9
$CLAYER
  8
STAVBA OBRYS
  9
$CELTYPE
  6
ByLayer
  9
$CECOLOR
 62
   256
  9
$CELTSCALE
 40
1.0
  9
$DISPSILH
 70
     0
  9
$DIMSCALE
 40
1.0
  9
$DIMASZ
 40
2.5
  9
$DIMEXO
 40
0.625
  9
$DIMDLI
 40
3.75
  9
$DIMRND
 40
0.0
  9
$DIMDLE
 40
0.0
  9
$DIMEXE
 40
1.25
  9
$DIMTP
 40
0.0
  9
$DIMTM
 40
0.0
  9
$DIMTXT
 40
2.5
  9
$DIMCEN
 40
2.5
  9
$DIMTSZ
 40
0.0
  9
$DIMTOL
 70
     0
  9
$DIMLIM
 70
     0
  9
$DIMTIH
 70
     0
  9
$DIMTOH
 70
     0
  9
$DIMSE1
 70
     0
  9
$DIMSE2
 70
     0
  9
$DIMTAD
 70
     1
  9
$DIMZIN
 70
     8
  9
$DIMBLK
  1

  9
$DIMASO
 70
     1
  9
$DIMSHO
 70
     1
  9
$DIMPOST
  1

  9
$DIMAPOST
  1

  9
$DIMALT
 70
     0
  9
$DIMALTD
 70
     3
  9
$DIMALTF
 40
0.03937007874016
  9
$DIMLFAC
 40
1.0
  9
$DIMTOFL
 70
     1
  9
$DIMTVP
 40
0.0
  9
$DIMTIX
 70
     0
  9
$DIMSOXD
 70
     0
  9
$DIMSAH
 70
     0
  9
$DIMBLK1
  1

  9
$DIMBLK2
  1

  9
$DIMSTYLE
  2
ISO-25
  9
$DIMCLRD
 70
     0
  9
$DIMCLRE
 70
     0
  9
$DIMCLRT
 70
     0
  9
$DIMTFAC
 40
1.0
  9
$DIMGAP
 40
0.625
  9
$DIMJUST
 70
     0
  9
$DIMSD1
 70
     0
  9
$DIMSD2
 70
     0
  9
$DIMTOLJ
 70
     0
  9
$DIMTZIN
 70
     8
  9
$DIMALTZ
 70
     0
  9
$DIMALTTZ
 70
     0
  9
$DIMUPT
 70
     0
  9
$DIMDEC
 70
     2
  9
$DIMTDEC
 70
     2
  9
$DIMALTU
 70
     2
  9
$DIMALTTD
 70
     3
  9
$DIMTXSTY
  7
Standard
  9
$DIMAUNIT
 70
     0
  9
$DIMADEC
 70
     0
  9
$DIMALTRND
 40
0.0
  9
$DIMAZIN
 70
     0
  9
$DIMDSEP
 70
    44
  9
$DIMATFIT
 70
     3
  9
$DIMFRAC
 70
     0
  9
$DIMLDRBLK
  1

  9
$DIMLUNIT
 70
     2
  9
$DIMLWD
 70
    -2
  9
$DIMLWE
 70
    -2
  9
$DIMTMOVE
 70
     0
  9
$LUNITS
 70
     2
  9
$LUPREC
 70
     4
  9
$SKETCHINC
 40
1.0
  9
$FILLETRAD
 40
0.0
  9
$AUNITS
 70
     0
  9
$AUPREC
 70
     0
  9
$MENU
  1
.
  9
$ELEVATION
 40
0.0
  9
$PELEVATION
 40
0.0
  9
$THICKNESS
 40
0.0
  9
$LIMCHECK
 70
     0
  9
$CHAMFERA
 40
10.0
  9
$CHAMFERB
 40
10.0
  9
$CHAMFERC
 40
20.0
  9
$CHAMFERD
 40
0.0
  9
$SKPOLY
 70
     0
  9
$TDCREATE
 40
2452681.284131944
  9
$TDUCREATE
 40
2452681.242465277
  9
$TDUPDATE
 40
2455601.579889236
  9
$TDUUPDATE
 40
2455601.538222569
  9
$TDINDWG
 40
0.6496556944
  9
$TDUSRTIMER
 40
0.6496556944
  9
$USRTIMER
 70
     1
  9
$ANGBASE
 50
0.0
  9
$ANGDIR
 70
     0
  9
$PDMODE
 70
     0
  9
$PDSIZE
 40
0.0
  9
$PLINEWID
 40
0.0
  9
$SPLFRAME
 70
     0
  9
$SPLINETYPE
 70
     6
  9
$SPLINESEGS
 70
     8
  9
$HANDSEED
  5
6118
  9
$SURFTAB1
 70
     6
  9
$SURFTAB2
 70
     6
  9
$SURFTYPE
 70
     6
  9
$SURFU
 70
     6
  9
$SURFV
 70
     6
  9
$UCSBASE
  2

  9
$UCSNAME
  2

  9
$UCSORG
 10
0.0
 20
0.0
 30
0.0
  9
$UCSXDIR
 10
1.0
 20
0.0
 30
0.0
  9
$UCSYDIR
 10
0.0
 20
1.0
 30
0.0
  9
$UCSORTHOREF
  2

  9
$UCSORTHOVIEW
 70
     0
  9
$UCSORGTOP
 10
0.0
 20
0.0
 30
0.0
  9
$UCSORGBOTTOM
 10
0.0
 20
0.0
 30
0.0
  9
$UCSORGLEFT
 10
0.0
 20
0.0
 30
0.0
  9
$UCSORGRIGHT
 10
0.0
 20
0.0
 30
0.0
  9
$UCSORGFRONT
 10
0.0
 20
0.0
 30
0.0
  9
$UCSORGBACK
 10
0.0
 20
0.0
 30
0.0
  9
$PUCSBASE
  2

  9
$PUCSNAME
  2

  9
$PUCSORG
 10
0.0
 20
0.0
 30
0.0
  9
$PUCSXDIR
 10
1.0
 20
0.0
 30
0.0
  9
$PUCSYDIR
 10
0.0
 20
1.0
 30
0.0
  9
$PUCSORTHOREF
  2

  9
$PUCSORTHOVIEW
 70
     0
  9
$PUCSORGTOP
 10
0.0
 20
0.0
 30
0.0
  9
$PUCSORGBOTTOM
 10
0.0
 20
0.0
 30
0.0
  9
$PUCSORGLEFT
 10
0.0
 20
0.0
 30
0.0
  9
$PUCSORGRIGHT
 10
0.0
 20
0.0
 30
0.0
  9
$PUCSORGFRONT
 10
0.0
 20
0.0
 30
0.0
  9
$PUCSORGBACK
 10
0.0
 20
0.0
 30
0.0
  9
$USERI1
 70
     0
  9
$USERI2
 70
     0
  9
$USERI3
 70
     0
  9
$USERI4
 70
     0
  9
$USERI5
 70
     0
  9
$USERR1
 40
0.0
  9
$USERR2
 40
0.0
  9
$USERR3
 40
0.0
  9
$USERR4
 40
0.0
  9
$USERR5
 40
0.0
  9
$WORLDVIEW
 70
     1
  9
$SHADEDGE
 70
     3
  9
$SHADEDIF
 70
    70
  9
$TILEMODE
 70
     1
  9
$MAXACTVP
 70
    64
  9
$PINSBASE
 10
0.0
 20
0.0
 30
0.0
  9
$PLIMCHECK
 70
     0
  9
$PEXTMIN
 10
1.000000000000000E+20
 20
1.000000000000000E+20
 30
1.000000000000000E+20
  9
$PEXTMAX
 10
-1.000000000000000E+20
 20
-1.000000000000000E+20
 30
-1.000000000000000E+20
  9
$PLIMMIN
 10
0.0
 20
0.0
  9
$PLIMMAX
 10
420.0
 20
297.0
  9
$UNITMODE
 70
     0
  9
$VISRETAIN
 70
     1
  9
$PLINEGEN
 70
     0
  9
$PSLTSCALE
 70
     1
  9
$TREEDEPTH
 70
  3020
  9
$CMLSTYLE
  2
Standard
  9
$CMLJUST
 70
     0
  9
$CMLSCALE
 40
20.0
  9
$PROXYGRAPHICS
 70
     1
  9
$MEASUREMENT
 70
     1
  9
$CELWEIGHT
370
    -1
  9
$ENDCAPS
280
     0
  9
$JOINSTYLE
280
     0
  9
$LWDISPLAY
290
     1
  9
$INSUNITS
 70
     4
  9
$HYPERLINKBASE
  1

  9
$STYLESHEET
  1

  9
$XEDIT
290
     1
  9
$CEPSNTYPE
380
     0
  9
$PSTYLEMODE
290
     1
  9
$FINGERPRINTGUID
  2
{CED30962-9BF9-4233-B154-46CCBBBAD92E}
  9
$VERSIONGUID
  2
{5556D83D-5CB3-4647-8CA1-743C5AA7938E}
  9
$EXTNAMES
290
     1
  9
$PSVPSCALE
 40
0.0
  9
$OLESTARTUP
290
     0
  0
ENDSEC
  0
SECTION
  2
CLASSES
  0
CLASS
  1
ACDBDICTIONARYWDFLT
  2
AcDbDictionaryWithDefault
  3
AutoCAD 2000
 90
        0
280
     0
281
     0
  0
CLASS
  1
ACDBPLACEHOLDER
  2
AcDbPlaceHolder
  3
AutoCAD 2000
 90
        0
280
     0
281
     0
  0
CLASS
  1
LAYOUT
  2
AcDbLayout
  3
AutoCAD 2000
 90
        0
280
     0
281
     0
  0
CLASS
  1
DICTIONARYVAR
  2
AcDbDictionaryVar
  3
AutoCAD 2000
 90
        0
280
     0
281
     0
  0
ENDSEC
  0
SECTION
  2
TABLES
  0
TABLE
  2
VPORT
  5
8
330
0
100
AcDbSymbolTable
 70
     2
  0
VPORT
  5
6117
330
8
100
AcDbSymbolTableRecord
100
AcDbViewportTableRecord
  2
*Active
 70
     0
 10
0.0
 20
0.0
 11
1.0
 21
1.0
 12
-2324.128285156768
 22
-6918.08679369419
 13
0.0
 23
0.0
 14
10.0
 24
10.0
 15
10.0
 25
10.0
 16
0.0
 26
0.0
 36
1.0
 17
0.0
 27
0.0
 37
0.0
 40
636.3368105496837
 41
2.031862745098039
 42
50.0
 43
0.0
 44
0.0
 50
0.0
 51
0.0
 71
     0
 72
   100
 73
     1
 74
     3
 75
     0
 76
     0
 77
     0
 78
     0
281
     0
 65
     1
110
0.0
120
0.0
130
0.0
111
1.0
121
0.0
131
0.0
112
0.0
122
1.0
132
0.0
 79
     0
146
0.0
  0
ENDTAB
  0
TABLE
  2
LTYPE
  5
5
330
0
100
AcDbSymbolTable
 70
     5
  0
LTYPE
  5
14
330
5
100
AcDbSymbolTableRecord
100
AcDbLinetypeTableRecord
  2
ByBlock
 70
     0
  3

 72
    65
 73
     0
 40
0.0
  0
LTYPE
  5
15
330
5
100
AcDbSymbolTableRecord
100
AcDbLinetypeTableRecord
  2
ByLayer
 70
     0
  3

 72
    65
 73
     0
 40
0.0
  0
LTYPE
  5
16
330
5
100
AcDbSymbolTableRecord
100
AcDbLinetypeTableRecord
  2
Continuous
 70
     0
  3
Solid line
 72
    65
 73
     0
 40
0.0
  0
LTYPE
  5
2F
330
5
100
AcDbSymbolTableRecord
100
AcDbLinetypeTableRecord
  2
DASHED
 70
     0
  3
Dashed __ __ __ __ __ __ __ __ __ __ __ __ __ _
 72
    65
 73
     2
 40
19.04999999999999
 49
12.7
 74
     0
 49
-6.349999999999999
 74
     0
  0
LTYPE
  5
30
330
5
100
AcDbSymbolTableRecord
100
AcDbLinetypeTableRecord
  2
IZOLACE
 70
     0
  3
Izolace SSSSSSSSSSSSSSSSSSSSSSSSSSSSSSSSSSSSSSS
 72
    65
 73
     4
 40
10.16253999999999
 49
0.00254
 74
     0
 49
-2.54
 74
     4
 75
   134
340
38
 46
2.54
 50
0.0
 44
-2.54
 45
0.0
 49
-5.08
 74
     4
 75
   134
340
38
 46
2.54
 50
180.0
 44
2.54
 45
0.0
 49
-2.54
 74
     0
  0
LTYPE
  5
11D2
330
5
100
AcDbSymbolTableRecord
100
AcDbLinetypeTableRecord
  2
DASHDOT2
 70
     0
  3
Dash dot (.5x) _._._._._._._._._._._._._._._.
 72
    65
 73
     4
 40
12.7
 49
6.349999999999999
 74
     0
 49
-3.174999999999999
 74
     0
 49
0.0
 74
     0
 49
-3.174999999999999
 74
     0
  0
LTYPE
  5
11D3
330
5
100
AcDbSymbolTableRecord
100
AcDbLinetypeTableRecord
  2
CIKCAK
 70
     0
  3
Cik-cak /\/\/\/\/\/\/\/\/\/\/\/\/\/\/\/\/\/\/\/
 72
    65
 73
     4
 40
20.32254
 49
0.00254
 74
     0
 49
-5.08
 74
     4
 75
   131
340
38
 46
5.08
 50
0.0
 44
-5.08
 45
0.0
 49
-10.16
 74
     4
 75
   131
340
38
 46
5.08
 50
180.0
 44
5.08
 45
0.0
 49
-5.08
 74
     0
  0
ENDTAB
  0
TABLE
  2
LAYER
  5
2
330
0
100
AcDbSymbolTable
 70
     8
  0
LAYER
  5
10
330
2
100
AcDbSymbolTableRecord
100
AcDbLayerTableRecord
  2
0
 70
     0
 62
     7
  6
Continuous
370
    -3
390
F
  0
LAYER
  5
31
330
2
100
AcDbSymbolTableRecord
100
AcDbLayerTableRecord
  2
POPIS
 70
     0
 62
    30
  6
Continuous
370
    -3
390
F
  0
LAYER
  5
32
330
2
100
AcDbSymbolTableRecord
100
AcDbLayerTableRecord
  2
SPOJOVACÍ
 70
     0
 62
     5
  6
Continuous
370
    -3
390
F
  0
LAYER
  5
33
330
2
100
AcDbSymbolTableRecord
100
AcDbLayerTableRecord
  2
CETRIS
 70
     0
 62
     1
  6
Continuous
370
    -3
390
F
  0
LAYER
  5
34
330
2
100
AcDbSymbolTableRecord
100
AcDbLayerTableRecord
  2
izolace
 70
     0
 62
     3
  6
Continuous
370
    -3
390
F
  0
LAYER
  5
35
330
2
100
AcDbSymbolTableRecord
100
AcDbLayerTableRecord
  2
nášlap_vrstvy
 70
     0
 62
     6
  6
Continuous
370
    -3
390
F
  0
LAYER
  5
36
330
2
100
AcDbSymbolTableRecord
100
AcDbLayerTableRecord
  2
STAVBA OBRYS
 70
     0
 62
    40
  6
Continuous
370
    -3
390
F
  0
LAYER
  5
8B0
330
2
100
AcDbSymbolTableRecord
100
AcDbLayerTableRecord
  2
Defpoints
 70
     0
 62
     7
  6
Continuous
290
     0
370
    -3
390
F
  0
ENDTAB
  0
TABLE
  2
STYLE
  5
3
330
0
100
AcDbSymbolTable
 70
     3
  0
STYLE
  5
11
330
3
100
AcDbSymbolTableRecord
100
AcDbTextStyleTableRecord
  2
Standard
 70
     0
 40
0.0
 41
1.0
 50
0.0
 71
     0
 42
2.5
  3
verdana.TTF
  4

1001
ACAD
1000
Verdana
1071
       34
  0
STYLE
  5
37
330
3
100
AcDbSymbolTableRecord
100
AcDbTextStyleTableRecord
  2
SIMPLEX7
 70
     0
 40
0.0
 41
0.85
 50
0.0
 71
     0
 42
102.0
  3
ARIAL.TTF
  4

1001
ACAD
1000
Arial CE
1071
    60962
  0
STYLE
  5
38
330
3
100
AcDbSymbolTableRecord
100
AcDbTextStyleTableRecord
  2

 70
     1
 40
0.0
 41
1.0
 50
0.0
 71
     0
 42
2.5
  3
ltypeshp.shx
  4

  0
ENDTAB
  0
TABLE
  2
VIEW
  5
6
330
0
100
AcDbSymbolTable
 70
     0
  0
ENDTAB
  0
TABLE
  2
UCS
  5
7
330
0
100
AcDbSymbolTable
 70
     0
  0
ENDTAB
  0
TABLE
  2
APPID
  5
9
330
0
100
AcDbSymbolTable
 70
     1
  0
APPID
  5
12
330
9
100
AcDbSymbolTableRecord
100
AcDbRegAppTableRecord
  2
ACAD
 70
     0
  0
ENDTAB
  0
TABLE
  2
DIMSTYLE
  5
A
330
0
100
AcDbSymbolTable
 70
     2
100
AcDbDimStyleTable
 71
     1
340
27
  0
DIMSTYLE
105
27
330
A
100
AcDbSymbolTableRecord
100
AcDbDimStyleTableRecord
  2
ISO-25
 70
     0
 41
2.5
 42
0.625
 43
3.75
 44
1.25
 73
     0
 74
     0
 77
     1
 78
     8
140
2.5
141
2.5
143
0.03937007874016
147
0.625
171
     3
172
     1
271
     2
272
     2
274
     3
278
    44
283
     0
284
     8
340
11
  0
DIMSTYLE
105
5925
330
A
100
AcDbSymbolTableRecord
100
AcDbDimStyleTableRecord
  2
STANDARD
 70
     0
340
11
  0
ENDTAB
  0
TABLE
  2
BLOCK_RECORD
  5
1
330
0
100
AcDbSymbolTable
 70
     3
  0
BLOCK_RECORD
  5
1F
330
1
100
AcDbSymbolTableRecord
100
AcDbBlockTableRecord
  2
*Model_Space
340
22
  0
BLOCK_RECORD
  5
1B
330
1
100
AcDbSymbolTableRecord
100
AcDbBlockTableRecord
  2
*Paper_Space
340
1E
  0
BLOCK_RECORD
  5
23
330
1
100
AcDbSymbolTableRecord
100
AcDbBlockTableRecord
  2
*Paper_Space0
340
26
  0
BLOCK_RECORD
  5
2B
330
1
100
AcDbSymbolTableRecord
100
AcDbBlockTableRecord
  2
E_PUNKT
340
0
102
{BLKREFS
331
6B5
331
6B1
331
842
331
83F
331
75F
331
79A
331
73F
331
766
331
649
331
60D
331
60C
331
197D
331
1A72
331
1A77
331
1AC8
331
1AC9
331
1ACB
331
1AE2
331
181B
331
183F
331
1FA2
331
1FB8
331
1FBA
331
1FC4
331
1FCC
331
2008
331
224F
331
2272
331
227D
331
22F0
331
2313
331
2314
331
2355
331
23A6
331
23B1
331
24C9
331
2A02
331
2A12
331
2AC1
331
2BCD
331
2BE5
331
2C54
331
2CD0
331
2CC6
331
2CCF
331
2BE0
331
2BEB
331
2DA0
331
2DA5
331
2DE7
331
2DED
331
2DEE
331
2DEF
331
2DF2
331
2DF3
331
2DF6
331
2E8E
331
314E
331
3236
331
3206
331
32FE
331
32BF
331
3304
331
2ECD
331
3239
331
2FB9
331
3150
331
4E7F
331
4E9C
331
4EA7
331
4EAE
331
4EB8
331
5B4F
331
5B54
102
}
  0
ENDTAB
  0
ENDSEC
  0
SECTION
  2
BLOCKS
  0
BLOCK
  5
20
330
1F
100
AcDbEntity
  8
0
100
AcDbBlockBegin
  2
*Model_Space
 70
     0
 10
0.0
 20
0.0
 30
0.0
  3
*Model_Space
  1

  0
ENDBLK
  5
21
330
1F
100
AcDbEntity
  8
0
100
AcDbBlockEnd
  0
BLOCK
  5
1C
330
1B
100
AcDbEntity
 67
     1
  8
0
100
AcDbBlockBegin
  2
*Paper_Space
 70
     0
 10
0.0
 20
0.0
 30
0.0
  3
*Paper_Space
  1

  0
ENDBLK
  5
1D
330
1B
100
AcDbEntity
 67
     1
  8
0
100
AcDbBlockEnd
  0
BLOCK
  5
24
330
23
100
AcDbEntity
  8
0
100
AcDbBlockBegin
  2
*Paper_Space0
 70
     0
 10
0.0
 20
0.0
 30
0.0
  3
*Paper_Space0
  1

  0
ENDBLK
  5
25
330
23
100
AcDbEntity
  8
0
100
AcDbBlockEnd
  0
BLOCK
  5
2D
330
2B
100
AcDbEntity
  8
0
100
AcDbBlockBegin
  2
E_PUNKT
 70
     0
 10
0.0
 20
0.0
 30
0.0
  3
E_PUNKT
  1

  0
LWPOLYLINE
  5
2C
330
2B
100
AcDbEntity
  8
POPIS
100
AcDbPolyline
 90
        2
 70
     1
 43
2.5
 10
1.27761037562675
 20
0.0290683308725193
 42
-1.0
 10
-1.222389624373249
 20
0.0290683308725193
 42
-1.0
  0
ENDBLK
  5
2E
330
2B
100
AcDbEntity
  8
0
100
AcDbBlockEnd
  0
ENDSEC
  0
SECTION
  2
ENTITIES
  0
LINE
  5
5DA
330
1F
100
AcDbEntity
  8
STAVBA OBRYS
100
AcDbLine
 10
-2963.866783561355
 20
-7156.285582428276
 30
0.0
 11
-2305.921121050286
 21
-7156.285582428276
 31
0.0
  0
LINE
  5
5DB
330
1F
100
AcDbEntity
  8
STAVBA OBRYS
100
AcDbLine
 10
-2963.866783561359
 20
-7166.285582428276
 30
0.0
 11
-2305.921121050286
 21
-7166.285582428276
 31
0.0
  0
HATCH
  5
5DC
330
1F
100
AcDbEntity
  8
STAVBA OBRYS
370
    20
100
AcDbHatch
 10
0.0
 20
0.0
 30
0.0
210
0.0
220
0.0
230
1.0
  2
AR-CONC
 70
     0
 71
     0
 91
        1
 92
        7
 72
     0
 73
     1
 93
        4
 10
-2305.921121050286
 20
-7156.285582428274
 10
-2960.961642294085
 20
-7156.285582428276
 10
-2963.866783561359
 20
-7166.285582428276
 10
-2305.921121050283
 20
-7166.285582428276
 97
        0
 75
     0
 76
     1
 52
90.0
 41
0.1
 77
     0
 78
    13
 53
140.0
 43
-30474.24757214197
 44
-3148.872527323437
 45
1.593908553890309
 46
18.2184668996004
 79
     2
 49
1.905
 49
-20.955
 53
85.00000000000001
 43
-30474.24757214197
 44
-3148.872527323437
 45
-19.10566428821799
 46
-3.524282597566697
 79
     2
 49
1.524
 49
-16.764
 53
190.4509999999999
 43
-30474.11474714197
 44
-3147.354327323437
 45
-17.51166878202918
 46
14.69425016659592
 79
     2
 49
1.619
 49
-17.809
 53
136.1841999999999
 43
-30479.32757214196
 44
-3148.872527323437
 45
4.204232793272717
 46
27.10790408921299
 79
     2
 49
2.857499999999999
 49
-31.4325
 53
186.6355999999999
 43
-30478.97722214197
 44
-3146.613537323437
 45
-24.74255558900492
 46
23.74042344662371
 79
     2
 49
2.4285
 49
-26.7135
 53
81.18400000000004
 43
-30479.32757214196
 44
-3148.872527323437
 45
-24.74251178605976
 46
23.74046058139339
 79
     2
 49
2.286
 49
-25.146
 53
111.0
 43
-30478.05757214196
 44
-3146.332527323437
 45
10.22655185167625
 46
15.16148798353833
 79
     2
 49
1.905
 49
-20.955
 53
56.00000000000004
 43
-30478.05757214196
 44
-3146.332527323437
 45
-18.41879661223192
 46
6.180202834764708
 79
     2
 49
1.524
 49
-16.764
 53
161.4514
 43
-30477.20536214197
 44
-3145.069077323437
 45
-8.192285771605742
 46
21.34164907701245
 79
     2
 49
1.618999999999997
 49
-17.80899999999996
 53
127.5
 43
-30474.24757214197
 44
-3148.872527323437
 45
-8.455503887315311
 46
0.3088603250591822
 79
     6
 49
0.0
 49
-16.5608
 49
0.0
 49
-17.018
 49
0.0
 49
-16.8275
 53
97.49999999999989
 43
-30474.24757214197
 44
-3148.872527323437
 45
-10.01805748181195
 46
6.681966251030575
 79
     6
 49
0.0
 49
-9.702799999999998
 49
0.0
 49
-16.17979999999999
 49
0.0
 49
-6.413499999999999
 53
57.5
 43
-30474.24757214197
 44
-3154.536727323437
 45
0.5728743992673473
 46
13.55905951668713
 79
     6
 49
0.0
 49
-6.35
 49
0.0
 49
-19.812
 49
0.0
 49
-26.289
 53
47.5
 43
-30474.24757214197
 44
-3157.076727323437
 45
-2.5426491033333
 46
14.8129181386018
 79
     6
 49
0.0
 49
-8.255
 49
0.0
 49
-13.1572
 49
0.0
 49
-18.669
 47
1.084445008349079
 98
        1
 10
-2431.891235131763
 20
-7160.778030277445
  0
TEXT
  5
5DD
330
1F
100
AcDbEntity
  8
POPIS
100
AcDbText
 10
-2702.405232810732
 20
-7113.710086954693
 30
0.0
 40
25.0
  1
13
 41
0.85
  7
SIMPLEX7
100
AcDbText
  0
LINE
  5
5DE
330
1F
100
AcDbEntity
  8
CETRIS
100
AcDbLine
 10
-2963.866783561359
 20
-6959.46265432738
 30
0.0
 11
-2648.436740417913
 21
-6959.462654327379
 31
0.0
  0
LINE
  5
5DF
330
1F
100
AcDbEntity
  8
CETRIS
100
AcDbLine
 10
-2963.866783561359
 20
-6983.462654327379
 30
0.0
 11
-2648.436740417913
 21
-6983.462654327379
 31
0.0
  0
LINE
  5
5E0
330
1F
100
AcDbEntity
  8
CETRIS
100
AcDbLine
 10
-2963.866783561359
 20
-6971.462654327379
 30
0.0
 11
-2648.436740417913
 21
-6971.462654327379
 31
0.0
  0
LWPOLYLINE
  5
5E1
330
1F
100
AcDbEntity
  8
nášlap_vrstvy
100
AcDbPolyline
 90
        2
 70
     0
 43
0.0
 10
-2963.866783561359
 20
-6956.91974040152
 10
-2633.436740417913
 20
-6956.91974040152
  0
LWPOLYLINE
  5
5E2
330
1F
100
AcDbEntity
  8
izolace
100
AcDbPolyline
 90
        4
 70
     0
 43
0.0
 10
-2963.866783561359
 20
-7033.462654327379
 10
-2305.92112105029
 20
-7033.462654327379
 10
-2305.92112105029
 20
-7036.462654327379
 10
-2963.866783561359
 20
-7036.462654327379
  0
LWPOLYLINE
  5
5E3
330
1F
100
AcDbEntity
  8
nášlap_vrstvy
100
AcDbPolyline
 90
        2
 70
     0
 43
0.0
 10
-2633.436740417913
 20
-6952.581251375573
 10
-2963.866783561359
 20
-6952.581251375573
  0
HATCH
  5
5E4
330
1F
100
AcDbEntity
  8
CETRIS
370
    20
100
AcDbHatch
 10
0.0
 20
0.0
 30
0.0
210
0.0
220
0.0
230
1.0
  2
ANSI31
 70
     0
 71
     0
 91
        6
 92
        7
 72
     0
 73
     1
 93
       15
 10
-2305.921121050286
 20
-6959.462654327379
 10
-2566.031334507707
 20
-6959.462654327379
 10
-2566.031334507707
 20
-6960.638582568579
 10
-2567.354025889591
 20
-6961.367840392323
 10
-2568.442443191932
 20
-6962.415236941933
 10
-2569.222749061664
 20
-6963.70784643467
 10
-2569.642072308684
 20
-6965.159069504375
 10
-2569.706793940968
 20
-6965.930259653049
 10
-2569.706793940968
 20
-6969.89751907435
 10
-2569.047727184508
 20
-6969.67591015118
 10
-2568.677628836707
 20
-6970.046920069034
 10
-2569.047727184508
 20
-6970.260227982361
 10
-2569.706793940964
 20
-6970.481836905574
 10
-2569.706793940968
 20
-6971.462654327379
 10
-2305.921121050286
 20
-6971.462654327379
 97
        0
 92
        7
 72
     0
 73
     1
 93
       13
 10
-2572.352176700445
 20
-6965.930259653068
 10
-2572.574600333511
 20
-6964.437104258682
 10
-2573.175326465676
 20
-6963.051514393189
 10
-2574.114245914261
 20
-6961.868293573934
 10
-2575.326637046975
 20
-6960.968571733705
 10
-2576.02763612943
 20
-6960.638582568576
 10
-2576.027636129434
 20
-6959.462654327379
 10
-2588.436740417913
 20
-6959.462654327379
 10
-2588.436740417916
 20
-6971.462654327379
 10
-2573.141535784404
 20
-6971.462654327379
 10
-2573.381341800435
 20
-6971.222848309965
 10
-2573.011243456916
 20
-6971.008628824183
 10
-2572.352176700449
 20
-6970.787019901014
 97
        0
 92
        7
 72
     0
 73
     1
 93
       13
 10
-2648.436740417913
 20
-6959.462654327379
 10
-2660.845844706392
 20
-6959.462654327379
 10
-2660.845844706392
 20
-6960.638582568575
 10
-2661.54684378884
 20
-6960.968571733697
 10
-2662.759234921569
 20
-6961.868293573937
 10
-2663.698154370136
 20
-6963.051514393178
 10
-2664.2988805023
 20
-6964.437104258661
 10
-2664.521304135377
 20
-6965.930259653031
 10
-2664.521304135381
 20
-6970.787019901012
 10
-2663.862237378914
 20
-6971.008628824183
 10
-2663.492139035395
 20
-6971.222848309968
 10
-2663.731945051418
 20
-6971.462654327379
 10
-2648.436740417909
 20
-6971.462654327379
 97
        0
 92
        7
 72
     0
 73
     1
 93
       24
 10
-2667.231408527153
 20
-6965.159069504372
 10
-2667.650731774159
 20
-6963.707846434683
 10
-2668.431037643876
 20
-6962.415236941946
 10
-2669.519454946239
 20
-6961.367840392322
 10
-2670.842146328118
 20
-6960.638582568576
 10
-2670.842146328118
 20
-6959.462654327379
 10
-2791.62435316398
 20
-6959.462654327379
 10
-2791.62435316398
 20
-6960.638582568576
 10
-2792.325352246418
 20
-6960.968571733703
 10
-2793.537743379139
 20
-6961.868293573941
 10
-2794.476662827731
 20
-6963.051514393178
 10
-2795.077388959892
 20
-6964.437104258674
 10
-2795.299812592958
 20
-6965.930259653028
 10
-2795.299812592958
 20
-6970.787019901012
 10
-2794.64074583651
 20
-6971.008628824178
 10
-2794.270647492979
 20
-6971.222848309967
 10
-2794.510453509003
 20
-6971.462654327379
 10
-2667.166686894866
 20
-6971.462654327379
 10
-2667.166686894855
 20
-6970.481836905576
 10
-2667.825753651319
 20
-6970.260227982359
 10
-2668.19585199912
 20
-6970.046920069032
 10
-2667.825753651315
 20
-6969.67591015118
 10
-2667.166686894859
 20
-6969.897519074347
 10
-2667.166686894859
 20
-6965.930259653031
 97
        0
 92
        7
 72
     0
 73
     1
 93
       15
 10
-2798.42924023174
 20
-6963.70784643467
 10
-2799.209546101468
 20
-6962.415236941954
 10
-2800.297963403812
 20
-6961.367840392326
 10
-2801.620654785703
 20
-6960.638582568574
 10
-2801.620654785703
 20
-6959.46265432738
 10
-2845.707639016069
 20
-6959.462654327379
 10
-2845.707639016069
 20
-6971.462654327379
 10
-2797.945195352443
 20
-6971.462654327379
 10
-2797.945195352447
 20
-6970.481836905574
 10
-2798.604262108896
 20
-6970.260227982359
 10
-2798.974360456704
 20
-6970.046920069034
 10
-2798.604262108903
 20
-6969.67591015118
 10
-2797.945195352443
 20
-6969.897519074348
 10
-2797.945195352443
 20
-6965.930259653011
 10
-2798.009916984726
 20
-6965.159069504387
 97
        0
 92
        7
 72
     1
 73
     1
 93
        9
 10
-2845.707639016065
 20
-6959.46265432738
 42
0.0
 10
-2892.589953830232
 20
-6959.46265432738
 42
0.0
 10
-2892.589953830232
 20
-6965.266839657449
 42
-1.0
 10
-2892.589953830232
 20
-6967.76683965745
 42
-1.0
 10
-2892.589953830232
 20
-6965.266839657449
 42
0.0
 10
-2892.589953830229
 20
-6959.462654327379
 42
0.0
 10
-2963.866783561355
 20
-6959.46265432738
 42
0.0
 10
-2963.866783561355
 20
-6971.462654327379
 42
0.0
 10
-2845.707639016069
 20
-6971.462654327379
 42
0.0
 97
        0
 75
     0
 76
     1
 52
0.0
 41
1.0
 77
     0
 78
     1
 53
45.0
 43
-30474.24757214197
 44
-3118.872527323437
 45
-2.245064030267287
 46
2.245064030267288
 79
     0
 47
0.6180772498725088
 98
        6
 10
-2459.877602687923
 20
-6965.164746924116
 10
-2582.95051087857
 20
-6967.637060526397
 10
-2655.92842743103
 20
-6966.400903725257
 10
-2674.482116748578
 20
-6965.782832270713
 10
-2809.924158966514
 20
-6964.546675469576
 10
-2869.296030433633
 20
-6966.400903725257
  0
HATCH
  5
5E5
330
1F
100
AcDbEntity
  8
CETRIS
370
    20
100
AcDbHatch
 10
0.0
 20
0.0
 30
0.0
210
0.0
220
0.0
230
1.0
  2
ANSI31
 70
     0
 71
     0
 91
        2
 92
        7
 72
     1
 73
     1
 93
       29
 10
-2797.945195352447
 20
-6973.540010325296
 42
0.0
 10
-2798.604262108892
 20
-6973.318552981407
 42
0.0
 10
-2798.974360456711
 20
-6973.104333495616
 42
0.0
 10
-2798.604262108899
 20
-6972.734235149951
 42
0.0
 10
-2797.945195352443
 20
-6972.955692493887
 42
0.0
 10
-2797.945195352443
 20
-6971.462654327379
 42
0.0
 10
-2845.707639016069
 20
-6971.462654327379
 42
0.0
 10
-2845.707639016065
 20
-6976.907951763071
 42
-1.0
 10
-2845.707639016065
 20
-6979.407951763071
 42
-1.0
 10
-2845.707639016065
 20
-6976.907951763071
 42
0.0
 10
-2845.707639016065
 20
-6971.462654327379
 42
0.0
 10
-2963.866783561359
 20
-6971.462654327379
 42
0.0
 10
-2963.866783561359
 20
-6983.462654327379
 42
0.0
 10
-2797.945195352443
 20
-6983.462654327379
 42
0.0
 10
-2797.945195352443
 20
-6982.712402184643
 42
0.0
 10
-2798.60426210891
 20
-6982.490793261428
 42
0.0
 10
-2798.974360456711
 20
-6982.277485348101
 42
0.0
 10
-2798.604262108907
 20
-6981.906475429977
 42
0.0
 10
-2797.94519535244
 20
-6982.128084353192
 42
0.0
 10
-2797.945195352451
 20
-6979.654988758006
 42
0.0
 10
-2798.604262108907
 20
-6979.433379834837
 42
0.0
 10
-2798.974360456715
 20
-6979.219160349058
 42
0.0
 10
-2798.604262108907
 20
-6978.849062003394
 42
0.0
 10
-2797.945195352443
 20
-6979.070670926609
 42
0.0
 10
-2797.945195352443
 20
-6976.597575331424
 42
0.0
 10
-2798.604262108888
 20
-6976.375966408261
 42
0.0
 10
-2798.974360456711
 20
-6976.161746922469
 42
0.0
 10
-2798.604262108907
 20
-6975.791648576805
 42
0.0
 10
-2797.945195352443
 20
-6976.013257499975
 42
0.0
 97
        0
 92
        7
 72
     0
 73
     1
 93
       23
 10
-2648.436740417913
 20
-6971.462654327379
 10
-2663.731945051422
 20
-6971.462654327379
 10
-2663.862237378921
 20
-6971.592946655633
 10
-2664.249727832502
 20
-6971.462654327379
 10
-2664.521304135381
 20
-6971.462654327379
 10
-2664.521304135374
 20
-6973.844584907097
 10
-2663.862237378921
 20
-6974.066042251031
 10
-2663.492139035388
 20
-6974.280261736821
 10
-2663.862237378918
 20
-6974.650360082215
 10
-2664.521304135374
 20
-6974.428902738321
 10
-2664.52130413537
 20
-6976.902758326644
 10
-2663.862237378911
 20
-6977.124367249814
 10
-2663.492139035391
 20
-6977.337675163401
 10
-2663.862237378918
 20
-6977.708685081255
 10
-2664.521304135377
 20
-6977.487076158087
 10
-2664.521304135381
 20
-6979.960171753451
 10
-2663.862237378914
 20
-6980.181780676663
 10
-2663.492139035395
 20
-6980.395088589992
 10
-2663.862237378921
 20
-6980.766098507846
 10
-2664.521304135377
 20
-6980.544489584676
 10
-2664.521304135377
 20
-6983.196122314037
 10
-2663.455176082013
 20
-6983.462654327379
 10
-2648.436740417913
 20
-6983.46265432738
 97
        0
 75
     0
 76
     1
 52
90.0
 41
1.0
 77
     0
 78
     1
 53
135.0
 43
-30474.24757214197
 44
-3118.872527323437
 45
-2.245064030267288
 46
-2.245064030267287
 79
     0
 47
0.4519862576681119
 98
        3
 10
-2703.185163761783
 20
-6977.424083296892
 10
-2830.723556746532
 20
-6974.712159516196
 10
-2650.722540442002
 20
-6976.068121406543
  0
HATCH
  5
5E6
330
1F
100
AcDbEntity
  8
CETRIS
370
    20
100
AcDbHatch
 10
0.0
 20
0.0
 30
0.0
210
0.0
220
0.0
230
1.0
  2
ANSI31
 70
     0
 71
     0
 91
        1
 92
        7
 72
     0
 73
     1
 93
       44
 10
-2667.166686894859
 20
-6976.597575331424
 10
-2667.825753651315
 20
-6976.375966408255
 10
-2668.195851999131
 20
-6976.161746922469
 10
-2667.825753651319
 20
-6975.791648576805
 10
-2667.166686894852
 20
-6976.013257499975
 10
-2667.166686894852
 20
-6973.540010325296
 10
-2667.825753651308
 20
-6973.318552981405
 10
-2668.195851999127
 20
-6973.104333495614
 10
-2667.825753651319
 20
-6972.734235149949
 10
-2667.166686894859
 20
-6972.955692493887
 10
-2667.166686894862
 20
-6971.462654327379
 10
-2794.510453509006
 20
-6971.462654327379
 10
-2794.640745836506
 20
-6971.592946655632
 10
-2795.028236290082
 20
-6971.462654327379
 10
-2795.299812592969
 20
-6971.462654327379
 10
-2795.299812592958
 20
-6973.844584907097
 10
-2794.640745836495
 20
-6974.066042251035
 10
-2794.270647492972
 20
-6974.280261736822
 10
-2794.640745836503
 20
-6974.650360082215
 10
-2795.299812592962
 20
-6974.428902738321
 10
-2795.299812592965
 20
-6976.902758326642
 10
-2794.640745836499
 20
-6977.124367249811
 10
-2794.270647492979
 20
-6977.337675163399
 10
-2794.640745836499
 20
-6977.708685081255
 10
-2795.299812592958
 20
-6977.487076158087
 10
-2795.299812592958
 20
-6979.960171753453
 10
-2794.640745836491
 20
-6980.181780676668
 10
-2794.270647492979
 20
-6980.395088589991
 10
-2794.640745836503
 20
-6980.766098507846
 10
-2795.299812592962
 20
-6980.544489584677
 10
-2795.299812592962
 20
-6983.006743171838
 10
-2795.299812592969
 20
-6983.196122314035
 10
-2794.233684539598
 20
-6983.462654327379
 10
-2667.166686894859
 20
-6983.462654327379
 10
-2667.166686894862
 20
-6982.712402184642
 10
-2667.825753651329
 20
-6982.490793261425
 10
-2668.19585199912
 20
-6982.277485348101
 10
-2667.825753651315
 20
-6981.906475429977
 10
-2667.166686894859
 20
-6982.128084353191
 10
-2667.166686894859
 20
-6979.654988758007
 10
-2667.825753651326
 20
-6979.433379834836
 10
-2668.195851999124
 20
-6979.21916034906
 10
-2667.825753651319
 20
-6978.849062003394
 10
-2667.166686894855
 20
-6979.070670926609
 97
        0
 75
     0
 76
     1
 52
90.0
 41
1.0
 77
     0
 78
     1
 53
135.0
 43
-30474.24757214197
 44
-3118.872527323437
 45
-2.245064030267288
 46
-2.245064030267287
 79
     0
 47
0.1764240455755443
 98
        1
 10
-2756.063404578155
 20
-6978.736576944647
  0
HATCH
  5
5E7
330
1F
100
AcDbEntity
  8
STAVBA OBRYS
370
    20
100
AcDbHatch
 10
0.0
 20
0.0
 30
0.0
210
0.0
220
0.0
230
1.0
  2
ANSI31
 70
     0
 71
     0
 91
        2
 92
        7
 72
     0
 73
     1
 93
        4
 10
-2659.564975015702
 20
-6747.25849214025
 10
-2673.712872394629
 20
-6749.495529469552
 10
-2673.712872394636
 20
-6951.372436086005
 10
-2659.564975015695
 20
-6951.372436086005
 97
        0
 92
        7
 72
     0
 73
     1
 93
        4
 10
-2673.712872394625
 20
-6749.495529469552
 10
-2688.712872394633
 20
-6751.867299566605
 10
-2688.712872394637
 20
-6951.372436086005
 10
-2673.712872394636
 20
-6951.372436086005
 97
        0
 75
     0
 76
     1
 52
90.0
 41
2.5
 77
     0
 78
     1
 53
135.0
 43
-30474.24757214197
 44
-3118.872527323437
 45
-5.612660075668221
 46
-5.61266007566822
 79
     0
 47
0.7248081470428233
 98
        2
 10
-2661.89109555077
 20
-6852.740642647612
 10
-2679.297157931985
 20
-6845.492562668328
  0
LWPOLYLINE
  5
5E8
330
1F
100
AcDbEntity
  8
izolace
100
AcDbPolyline
 90
        4
 70
     1
 43
0.0
 10
-2648.436740417913
 20
-7008.462654327378
 10
-2728.436740417913
 20
-7008.462654327378
 10
-2728.436740417913
 20
-6983.462654327379
 10
-2648.436740417913
 20
-6983.462654327379
  0
LINE
  5
5E9
330
1F
100
AcDbEntity
  8
STAVBA OBRYS
100
AcDbLine
 10
-2659.564975015695
 20
-6951.372436086005
 30
0.0
 11
-2688.712872394633
 21
-6951.372436086005
 31
0.0
  0
LWPOLYLINE
  5
5EA
330
1F
100
AcDbEntity
  8
STAVBA OBRYS
370
    20
100
AcDbPolyline
 90
        3
 70
     0
 43
0.0
 10
-2701.72834296021
 20
-6988.979985022898
 10
-2684.973125340482
 20
-6997.363725890865
 10
-2678.884780403655
 20
-7003.462654327378
  0
LWPOLYLINE
  5
5EB
330
1F
100
AcDbEntity
  8
STAVBA OBRYS
370
    20
100
AcDbPolyline
 90
        8
 70
     0
 43
0.0
 10
-2684.394456559289
 20
-6983.462654327379
 42
-0.0168162630274195
 10
-2684.529482138353
 20
-6985.153692479499
 42
-0.0575155827655532
 10
-2685.209514418696
 20
-6988.253317140216
 42
-0.0310289133982999
 10
-2688.212315763525
 20
-6995.498344664859
 42
-0.0882970623535771
 10
-2689.849537683617
 20
-6997.738713715659
 42
-0.0171636441953577
 10
-2692.662901745475
 20
-7000.252631070906
 42
-0.0157521173632038
 10
-2695.901756582512
 20
-7002.784127123412
 42
-0.0129211249237282
 10
-2704.094712050374
 20
-7008.462654327378
 42
-0.0014948023799519
  0
POLYLINE
  5
5EC
330
1F
100
AcDbEntity
  8
STAVBA OBRYS
370
    20
100
AcDb2dPolyline
 66
     1
 10
0.0
 20
0.0
 30
0.0
  0
VERTEX
  5
5ED
330
5EC
100
AcDbEntity
  8
STAVBA OBRYS
370
    20
100
AcDbVertex
100
AcDb2dVertex
 10
-2691.344234582975
 20
-6983.462654327381
 30
0.0
 42
-0.0072417954699014
  0
VERTEX
  5
5EE
330
5EC
100
AcDbEntity
  8
STAVBA OBRYS
370
    20
100
AcDbVertex
100
AcDb2dVertex
 10
-2691.399804950818
 20
-6983.874059538655
 30
0.0
 42
-0.0707158694326265
  0
VERTEX
  5
5EF
330
5EC
100
AcDbEntity
  8
STAVBA OBRYS
370
    20
100
AcDbVertex
100
AcDb2dVertex
 10
-2691.930931467238
 20
-6985.810162991249
 30
0.0
 42
-0.033952657250207
  0
VERTEX
  5
5F0
330
5EC
100
AcDbEntity
  8
STAVBA OBRYS
370
    20
100
AcDbVertex
100
AcDb2dVertex
 10
-2694.179587306647
 20
-6990.163200716422
 30
0.0
 42
-0.0571374688189033
  0
VERTEX
  5
5F1
330
5EC
100
AcDbEntity
  8
STAVBA OBRYS
370
    20
100
AcDbVertex
100
AcDb2dVertex
 10
-2695.965744066499
 20
-6992.470125000109
 30
0.0
 42
-0.0274923553235744
  0
VERTEX
  5
5F2
330
5EC
100
AcDbEntity
  8
STAVBA OBRYS
370
    20
100
AcDbVertex
100
AcDb2dVertex
 10
-2698.563049797051
 20
-6994.855200323243
 30
0.0
 42
-0.0255412025538677
  0
VERTEX
  5
5F3
330
5EC
100
AcDbEntity
  8
STAVBA OBRYS
370
    20
100
AcDbVertex
100
AcDb2dVertex
 10
-2701.614479834763
 20
-6997.111914000263
 30
0.0
 42
-0.0272796991712396
  0
VERTEX
  5
5F4
330
5EC
100
AcDbEntity
  8
STAVBA OBRYS
370
    20
100
AcDbVertex
100
AcDb2dVertex
 10
-2705.727478987947
 20
-6999.528249881925
 30
0.0
 42
-0.056967459841729
  0
VERTEX
  5
5F5
330
5EC
100
AcDbEntity
  8
STAVBA OBRYS
370
    20
100
AcDbVertex
100
AcDb2dVertex
 10
-2707.86842626868
 20
-7000.340985717125
 30
0.0
 42
-0.0373408083348504
  0
VERTEX
  5
5F6
330
5EC
100
AcDbEntity
  8
STAVBA OBRYS
370
    20
100
AcDbVertex
100
AcDb2dVertex
 10
-2708.090780644153
 20
-7000.380151258076
 30
0.0
 42
-0.3086229257275778
  0
VERTEX
  5
5F7
330
5EC
100
AcDbEntity
  8
STAVBA OBRYS
370
    20
100
AcDbVertex
100
AcDb2dVertex
 10
-2728.583741247074
 20
-6991.140919824103
 30
0.0
  0
SEQEND
  5
5F8
330
5EC
100
AcDbEntity
  8
STAVBA OBRYS
370
    20
  0
HATCH
  5
5F9
330
1F
100
AcDbEntity
  8
izolace
100
AcDbHatch
 10
0.0
 20
0.0
 30
0.0
210
0.0
220
0.0
230
1.0
  2
SOLID
 70
     1
 71
     0
 91
        1
 92
        7
 72
     0
 73
     1
 93
        4
 10
-2946.4528661344
 20
-7033.462654327379
 10
-2946.452866134396
 20
-7036.462654327379
 10
-2922.811133424561
 20
-7036.462654327379
 10
-2922.811133424561
 20
-7033.462654327379
 97
        0
 75
     0
 76
     1
 47
0.1901250437635136
 98
        1
 10
-2937.095071376057
 20
-7034.279465878459
  0
LWPOLYLINE
  5
5FA
330
1F
100
AcDbEntity
  8
izolace
100
AcDbPolyline
 90
        4
 70
     1
 43
0.0
 10
-2922.811133424565
 20
-7033.462654327379
 10
-2946.4528661344
 20
-7033.462654327379
 10
-2946.4528661344
 20
-7036.462654327379
 10
-2922.811133424565
 20
-7036.462654327379
  0
LINE
  5
5FB
330
1F
100
AcDbEntity
  8
izolace
100
AcDbLine
 10
-2963.866783561359
 20
-7036.462654327379
 30
0.0
 11
-2924.976165368861
 21
-7036.462654327379
 31
0.0
  0
HATCH
  5
5FC
330
1F
100
AcDbEntity
  8
izolace
100
AcDbHatch
 10
0.0
 20
0.0
 30
0.0
210
0.0
220
0.0
230
1.0
  2
SOLID
 70
     1
 71
     0
 91
        1
 92
        7
 72
     0
 73
     1
 93
        4
 10
-2899.169400714726
 20
-7033.462654327379
 10
-2899.16940071473
 20
-7036.462654327379
 10
-2875.527668004891
 20
-7036.462654327379
 10
-2875.527668004891
 20
-7033.462654327379
 97
        0
 75
     0
 76
     1
 47
0.1901250437635136
 98
        1
 10
-2889.811605956387
 20
-7034.279465878459
  0
LWPOLYLINE
  5
5FD
330
1F
100
AcDbEntity
  8
izolace
100
AcDbPolyline
 90
        4
 70
     1
 43
0.0
 10
-2875.527668004895
 20
-7033.462654327379
 10
-2899.16940071473
 20
-7033.462654327379
 10
-2899.16940071473
 20
-7036.462654327379
 10
-2875.527668004895
 20
-7036.462654327379
  0
HATCH
  5
5FE
330
1F
100
AcDbEntity
  8
izolace
100
AcDbHatch
 10
0.0
 20
0.0
 30
0.0
210
0.0
220
0.0
230
1.0
  2
SOLID
 70
     1
 71
     0
 91
        1
 92
        7
 72
     0
 73
     1
 93
        4
 10
-2851.88593529506
 20
-7033.462654327379
 10
-2851.88593529506
 20
-7036.462654327379
 10
-2828.244202585221
 20
-7036.462654327379
 10
-2828.244202585221
 20
-7033.462654327379
 97
        0
 75
     0
 76
     1
 47
0.1901250437635136
 98
        1
 10
-2842.528140536716
 20
-7034.279465878459
  0
LWPOLYLINE
  5
5FF
330
1F
100
AcDbEntity
  8
izolace
100
AcDbPolyline
 90
        4
 70
     1
 43
0.0
 10
-2828.244202585224
 20
-7033.462654327379
 10
-2851.88593529506
 20
-7033.462654327379
 10
-2851.88593529506
 20
-7036.462654327379
 10
-2828.244202585224
 20
-7036.462654327379
  0
HATCH
  5
600
330
1F
100
AcDbEntity
  8
izolace
100
AcDbHatch
 10
0.0
 20
0.0
 30
0.0
210
0.0
220
0.0
230
1.0
  2
SOLID
 70
     1
 71
     0
 91
        1
 92
        7
 72
     0
 73
     1
 93
        4
 10
-2757.319004455715
 20
-7033.462654327379
 10
-2757.319004455715
 20
-7036.46265432738
 10
-2733.67727174588
 20
-7036.462654327379
 10
-2733.67727174588
 20
-7033.462654327379
 97
        0
 75
     0
 76
     1
 47
0.1901250437635136
 98
        1
 10
-2747.961209697376
 20
-7034.279465878459
  0
LWPOLYLINE
  5
601
330
1F
100
AcDbEntity
  8
izolace
100
AcDbPolyline
 90
        4
 70
     1
 43
0.0
 10
-2733.677271745884
 20
-7033.462654327379
 10
-2757.319004455719
 20
-7033.462654327379
 10
-2757.319004455719
 20
-7036.462654327379
 10
-2733.677271745884
 20
-7036.462654327379
  0
HATCH
  5
602
330
1F
100
AcDbEntity
  8
izolace
100
AcDbHatch
 10
0.0
 20
0.0
 30
0.0
210
0.0
220
0.0
230
1.0
  2
SOLID
 70
     1
 71
     0
 91
        1
 92
        7
 72
     0
 73
     1
 93
        4
 10
-2804.602469875389
 20
-7033.462654327379
 10
-2804.602469875385
 20
-7036.46265432738
 10
-2780.96073716555
 20
-7036.462654327379
 10
-2780.96073716555
 20
-7033.462654327379
 97
        0
 75
     0
 76
     1
 47
0.1901250437635136
 98
        1
 10
-2795.244675117046
 20
-7034.279465878459
  0
LWPOLYLINE
  5
603
330
1F
100
AcDbEntity
  8
izolace
100
AcDbPolyline
 90
        4
 70
     1
 43
0.0
 10
-2780.960737165554
 20
-7033.462654327379
 10
-2804.602469875389
 20
-7033.462654327379
 10
-2804.602469875389
 20
-7036.462654327379
 10
-2780.960737165554
 20
-7036.462654327379
  0
HATCH
  5
604
330
1F
100
AcDbEntity
  8
izolace
100
AcDbHatch
 10
0.0
 20
0.0
 30
0.0
210
0.0
220
0.0
230
1.0
  2
SOLID
 70
     1
 71
     0
 91
        1
 92
        7
 72
     0
 73
     1
 93
        4
 10
-2711.81729234512
 20
-7033.462654327379
 10
-2711.817292345116
 20
-7036.46265432738
 10
-2688.175559635284
 20
-7036.462654327379
 10
-2688.175559635281
 20
-7033.462654327379
 97
        0
 75
     0
 76
     1
 47
0.1901250437635136
 98
        1
 10
-2702.459497586776
 20
-7034.279465878459
  0
LINE
  5
605
330
1F
100
AcDbEntity
  8
izolace
  6
IZOLACE
 48
2.5
370
    20
100
AcDbLine
 10
-2963.866783561359
 20
-7008.462654327378
 30
0.0
 11
-2728.534520308963
 21
-7008.434402737066
 31
0.0
  0
LINE
  5
606
330
1F
100
AcDbEntity
  8
POPIS
370
    20
100
AcDbLine
 10
-2944.74458034108
 20
-6887.169195574192
 30
0.0
 11
-2944.74458034108
 21
-6952.581251375573
 31
0.0
  0
TEXT
  5
607
330
1F
100
AcDbEntity
  8
POPIS
100
AcDbText
 10
-2963.540173752793
 20
-6878.319834501468
 30
0.0
 40
25.0
  1
04
 41
0.85
  7
SIMPLEX7
100
AcDbText
  0
LINE
  5
608
330
1F
100
AcDbEntity
  8
STAVBA OBRYS
100
AcDbLine
 10
-2688.712872394633
 20
-6951.372436086005
 30
0.0
 11
-2688.712872394633
 21
-6751.867299566605
 31
0.0
  0
TEXT
  5
609
330
1F
100
AcDbEntity
  8
POPIS
100
AcDbText
 10
-2813.516794483584
 20
-6878.319834501468
 30
0.0
 40
25.0
  1
07
 41
0.85
  7
SIMPLEX7
100
AcDbText
  0
LINE
  5
60A
330
1F
100
AcDbEntity
  8
POPIS
370
    20
100
AcDbLine
 10
-2892.589953830232
 20
-6887.169195574192
 30
0.0
 11
-2892.589953830232
 21
-6966.51683965745
 31
0.0
  0
LINE
  5
60B
330
1F
100
AcDbEntity
  8
POPIS
370
    20
100
AcDbLine
 10
-2845.707639016065
 20
-6887.169195574192
 30
0.0
 11
-2845.707639016065
 21
-6976.907951763071
 31
0.0
  0
INSERT
  5
60C
330
1F
100
AcDbEntity
  8
POPIS
100
AcDbBlockReference
  2
E_PUNKT
 10
-2892.619022161106
 20
-6966.489229281823
 30
0.0
 50
270.0
  0
INSERT
  5
60D
330
1F
100
AcDbEntity
  8
POPIS
100
AcDbBlockReference
  2
E_PUNKT
 10
-2845.736707346939
 20
-6978.130341387444
 30
0.0
 50
270.0
  0
TEXT
  5
60E
330
1F
100
AcDbEntity
  8
POPIS
100
AcDbText
 10
-2909.487624762037
 20
-6878.319834501468
 30
0.0
 40
25.0
  1
05
 41
0.85
  7
SIMPLEX7
100
AcDbText
  0
TEXT
  5
60F
330
1F
100
AcDbEntity
  8
POPIS
100
AcDbText
 10
-2862.60530994787
 20
-6878.319834501468
 30
0.0
 40
25.0
  1
06
 41
0.85
  7
SIMPLEX7
100
AcDbText
  0
LINE
  5
610
330
1F
100
AcDbEntity
  8
POPIS
370
    20
100
AcDbLine
 10
-2796.619123551779
 20
-6887.169195574192
 30
0.0
 11
-2796.619123551779
 21
-6966.51683965745
 31
0.0
  0
LINE
  5
611
330
1F
100
AcDbEntity
  8
SPOJOVACÍ
  6
DASHED
100
AcDbLine
 10
-2797.945195352443
 20
-6976.583804887922
 30
0.0
 11
-2797.945195352443
 21
-6979.061458344533
 31
0.0
  0
LINE
  5
612
330
1F
100
AcDbEntity
  8
SPOJOVACÍ
  6
DASHED
100
AcDbLine
 10
-2798.974360456708
 20
-6976.161746922469
 30
0.0
 11
-2794.270647492976
 21
-6977.337675163401
 31
0.0
  0
LINE
  5
613
330
1F
100
AcDbEntity
  8
SPOJOVACÍ
  6
DASHED
100
AcDbLine
 10
-2798.604262108903
 20
-6976.375966408255
 30
0.0
 11
-2794.640745836503
 21
-6977.708685081255
 31
0.0
  0
LINE
  5
614
330
1F
100
AcDbEntity
  8
SPOJOVACÍ
  6
DASHED
100
AcDbLine
 10
-2798.604262108903
 20
-6975.791648576803
 30
0.0
 11
-2794.640745836503
 21
-6977.124367249811
 31
0.0
  0
LINE
  5
615
330
1F
100
AcDbEntity
  8
SPOJOVACÍ
  6
DASHED
100
AcDbLine
 10
-2797.722771715099
 20
-6985.709554981823
 30
0.0
 11
-2797.43836116257
 21
-6987.984839392166
 31
0.0
  0
LINE
  5
616
330
1F
100
AcDbEntity
  8
SPOJOVACÍ
  6
DASHED
100
AcDbLine
 10
-2795.87227998891
 20
-6988.512639742357
 30
0.0
 11
-2795.610658742679
 21
-6986.418758215561
 31
0.0
  0
LINE
  5
617
330
1F
100
AcDbEntity
  8
SPOJOVACÍ
  6
DASHED
100
AcDbLine
 10
-2798.172176850191
 20
-6988.24737220898
 30
0.0
 11
-2797.802078502387
 21
-6988.460680122307
 31
0.0
  0
LINE
  5
618
330
1F
100
AcDbEntity
  8
SPOJOVACÍ
  6
DASHED
100
AcDbLine
 10
-2798.172176850191
 20
-6988.24737220898
 30
0.0
 11
-2797.802078502387
 21
-6987.876362290855
 31
0.0
  0
LINE
  5
619
330
1F
100
AcDbEntity
  8
SPOJOVACÍ
  6
DASHED
100
AcDbLine
 10
-2798.172176850191
 20
-6988.24737220898
 30
0.0
 11
-2795.118409712089
 21
-6988.868152931414
 31
0.0
  0
LINE
  5
61A
330
1F
100
AcDbEntity
  8
SPOJOVACÍ
  6
DASHED
100
AcDbLine
 10
-2796.622503974842
 20
-6994.512608488371
 30
0.0
 11
-2796.275194933335
 21
-6991.733224607127
 31
0.0
  0
LINE
  5
61B
330
1F
100
AcDbEntity
  8
SPOJOVACÍ
  6
DASHED
100
AcDbLine
 10
-2797.360877518589
 20
-6988.602885398037
 30
0.0
 11
-2797.076466970338
 21
-6990.877258236185
 31
0.0
  0
LINE
  5
61C
330
1F
100
AcDbEntity
  8
SPOJOVACÍ
  6
DASHED
100
AcDbLine
 10
-2797.000806469663
 20
-6991.485276946922
 30
0.0
 11
-2796.622503974842
 21
-6994.512608488371
 31
0.0
  0
LINE
  5
61D
330
1F
100
AcDbEntity
  8
SPOJOVACÍ
  6
DASHED
100
AcDbLine
 10
-2796.205003866856
 20
-6991.175342371803
 30
0.0
 11
-2795.942471051111
 21
-6989.073256694517
 31
0.0
  0
LINE
  5
61E
330
1F
100
AcDbEntity
  8
SPOJOVACÍ
  6
DASHED
100
AcDbLine
 10
-2795.118409712089
 20
-6988.868152931414
 30
0.0
 11
-2795.488508055615
 21
-6989.239162849267
 31
0.0
  0
LINE
  5
61F
330
1F
100
AcDbEntity
  8
SPOJOVACÍ
  6
DASHED
100
AcDbLine
 10
-2795.118409712089
 20
-6988.868152931414
 30
0.0
 11
-2795.488508055615
 21
-6988.654845018086
 31
0.0
  0
LINE
  5
620
330
1F
100
AcDbEntity
  8
SPOJOVACÍ
  6
DASHED
100
AcDbLine
 10
-2797.802078502387
 20
-6988.460680122307
 30
0.0
 11
-2795.488508055615
 21
-6989.239162849267
 31
0.0
  0
LINE
  5
621
330
1F
100
AcDbEntity
  8
SPOJOVACÍ
  6
DASHED
100
AcDbLine
 10
-2797.802078502387
 20
-6987.876362290855
 30
0.0
 11
-2795.488508055615
 21
-6988.654845018086
 31
0.0
  0
LINE
  5
622
330
1F
100
AcDbEntity
  8
SPOJOVACÍ
  6
DASHED
100
AcDbLine
 10
-2797.618852473929
 20
-6991.200866395733
 30
0.0
 11
-2797.248754130403
 21
-6991.415085881512
 31
0.0
  0
LINE
  5
623
330
1F
100
AcDbEntity
  8
SPOJOVACÍ
  6
DASHED
100
AcDbLine
 10
-2797.618852473929
 20
-6991.200866395733
 30
0.0
 11
-2797.248754130403
 21
-6990.830768050066
 31
0.0
  0
LINE
  5
624
330
1F
100
AcDbEntity
  8
SPOJOVACÍ
  6
DASHED
100
AcDbLine
 10
-2795.507651075302
 20
-6991.505331537192
 30
0.0
 11
-2795.877749418828
 21
-6991.876341455045
 31
0.0
  0
LINE
  5
625
330
1F
100
AcDbEntity
  8
SPOJOVACÍ
  6
DASHED
100
AcDbLine
 10
-2795.507651075302
 20
-6991.505331537192
 30
0.0
 11
-2795.877749418828
 21
-6991.2920236236
 31
0.0
  0
LINE
  5
626
330
1F
100
AcDbEntity
  8
SPOJOVACÍ
  6
DASHED
100
AcDbLine
 10
-2797.248754130403
 20
-6991.415085881512
 30
0.0
 11
-2795.877749418828
 21
-6991.876341455045
 31
0.0
  0
LINE
  5
627
330
1F
100
AcDbEntity
  8
SPOJOVACÍ
  6
DASHED
100
AcDbLine
 10
-2797.248754130403
 20
-6990.830768050066
 30
0.0
 11
-2795.877749418828
 21
-6991.2920236236
 31
0.0
  0
LINE
  5
628
330
1F
100
AcDbEntity
  8
SPOJOVACÍ
  6
DASHED
100
AcDbLine
 10
-2797.618852473929
 20
-6991.200866395733
 30
0.0
 11
-2795.507651075302
 21
-6991.505331537192
 31
0.0
  0
LINE
  5
629
330
1F
100
AcDbEntity
  8
SPOJOVACÍ
  6
DASHED
100
AcDbLine
 10
-2798.354491304857
 20
-6985.507185935555
 30
0.0
 11
-2795.052776506013
 21
-6986.617480972551
 31
0.0
  0
LINE
  5
62A
330
1F
100
AcDbEntity
  8
SPOJOVACÍ
  6
DASHED
100
AcDbLine
 10
-2798.354491304857
 20
-6984.922868104103
 30
0.0
 11
-2795.052776506013
 21
-6986.033163141098
 31
0.0
  0
LINE
  5
62B
330
1F
100
AcDbEntity
  8
SPOJOVACÍ
  6
DASHED
100
AcDbLine
 10
-2798.725501222175
 20
-6985.292966449768
 30
0.0
 11
-2794.682678162487
 21
-6986.246471054426
 31
0.0
  0
LINE
  5
62C
330
1F
100
AcDbEntity
  8
SPOJOVACÍ
  6
DASHED
100
AcDbLine
 10
-2798.974360456708
 20
-6979.219160349059
 30
0.0
 11
-2794.270647492976
 21
-6980.395088589992
 31
0.0
  0
LINE
  5
62D
330
1F
100
AcDbEntity
  8
SPOJOVACÍ
  6
DASHED
100
AcDbLine
 10
-2798.604262108903
 20
-6979.433379834837
 30
0.0
 11
-2794.640745836503
 21
-6980.766098507846
 31
0.0
  0
LINE
  5
62E
330
1F
100
AcDbEntity
  8
SPOJOVACÍ
  6
DASHED
100
AcDbLine
 10
-2798.604262108903
 20
-6978.849062003394
 30
0.0
 11
-2794.640745836503
 21
-6980.181780676665
 31
0.0
  0
LINE
  5
62F
330
1F
100
AcDbEntity
  8
SPOJOVACÍ
  6
DASHED
100
AcDbLine
 10
-2798.974360456708
 20
-6982.277485348101
 30
0.0
 11
-2794.270647492976
 21
-6983.453413589034
 31
0.0
  0
LINE
  5
630
330
1F
100
AcDbEntity
  8
SPOJOVACÍ
  6
DASHED
100
AcDbLine
 10
-2798.604262108903
 20
-6982.490793261428
 30
0.0
 11
-2794.640745836503
 21
-6983.823511934699
 31
0.0
  0
LINE
  5
631
330
1F
100
AcDbEntity
  8
SPOJOVACÍ
  6
DASHED
100
AcDbLine
 10
-2798.604262108903
 20
-6981.906475429976
 30
0.0
 11
-2794.640745836503
 21
-6983.239194103247
 31
0.0
  0
LINE
  5
632
330
1F
100
AcDbEntity
  8
SPOJOVACÍ
  6
DASHED
100
AcDbLine
 10
-2798.725501222175
 20
-6985.292966449768
 30
0.0
 11
-2798.354491304857
 21
-6985.507185935555
 31
0.0
  0
LINE
  5
633
330
1F
100
AcDbEntity
  8
SPOJOVACÍ
  6
DASHED
100
AcDbLine
 10
-2798.725501222175
 20
-6985.292966449768
 30
0.0
 11
-2798.354491304857
 21
-6984.922868104103
 31
0.0
  0
LINE
  5
634
330
1F
100
AcDbEntity
  8
SPOJOVACÍ
  6
DASHED
100
AcDbLine
 10
-2798.974360456708
 20
-6979.219160349059
 30
0.0
 11
-2798.604262108903
 21
-6979.433379834837
 31
0.0
  0
LINE
  5
635
330
1F
100
AcDbEntity
  8
SPOJOVACÍ
  6
DASHED
100
AcDbLine
 10
-2798.974360456708
 20
-6979.219160349059
 30
0.0
 11
-2798.604262108903
 21
-6978.849062003394
 31
0.0
  0
LINE
  5
636
330
1F
100
AcDbEntity
  8
SPOJOVACÍ
  6
DASHED
100
AcDbLine
 10
-2798.974360456708
 20
-6982.277485348101
 30
0.0
 11
-2798.604262108903
 21
-6982.490793261428
 31
0.0
  0
LINE
  5
637
330
1F
100
AcDbEntity
  8
SPOJOVACÍ
  6
DASHED
100
AcDbLine
 10
-2798.974360456708
 20
-6982.277485348101
 30
0.0
 11
-2798.604262108903
 21
-6981.906475429976
 31
0.0
  0
LINE
  5
638
330
1F
100
AcDbEntity
  8
SPOJOVACÍ
  6
DASHED
100
AcDbLine
 10
-2795.299812592962
 20
-6977.478968866681
 30
0.0
 11
-2795.299812592962
 21
-6979.949329745256
 31
0.0
  0
LINE
  5
639
330
1F
100
AcDbEntity
  8
SPOJOVACÍ
  6
DASHED
100
AcDbLine
 10
-2797.945195352443
 20
-6979.653980326474
 30
0.0
 11
-2797.945195352443
 21
-6982.121606488213
 31
0.0
  0
LINE
  5
63A
330
1F
100
AcDbEntity
  8
SPOJOVACÍ
  6
DASHED
100
AcDbLine
 10
-2797.945195352443
 20
-6982.705924319666
 30
0.0
 11
-2797.945195352443
 21
-6983.928342746716
 31
0.0
  0
LINE
  5
63B
330
1F
100
AcDbEntity
  8
SPOJOVACÍ
  6
DASHED
100
AcDbLine
 10
-2795.299812592962
 20
-6980.538205437909
 30
0.0
 11
-2795.299812592962
 21
-6983.006743171838
 31
0.0
  0
LINE
  5
63C
330
1F
100
AcDbEntity
  8
SPOJOVACÍ
  6
DASHED
100
AcDbLine
 10
-2795.299812592962
 20
-6983.59835358159
 30
0.0
 11
-2795.299812592962
 21
-6983.928342746716
 31
0.0
  0
LINE
  5
63D
330
1F
100
AcDbEntity
  8
SPOJOVACÍ
  6
DASHED
100
AcDbLine
 10
-2797.945195352443
 20
-6983.928342746716
 30
0.0
 11
-2797.798432215774
 21
-6985.101536271087
 31
0.0
  0
LINE
  5
63E
330
1F
100
AcDbEntity
  8
SPOJOVACÍ
  6
DASHED
100
AcDbLine
 10
-2795.5404676762
 20
-6985.859964407777
 30
0.0
 11
-2795.299812592962
 21
-6983.928342746716
 31
0.0
  0
LINE
  5
63F
330
1F
100
AcDbEntity
  8
SPOJOVACÍ
  6
DASHED
100
AcDbLine
 10
-2794.682678162487
 20
-6986.246471054426
 30
0.0
 11
-2795.052776506013
 21
-6986.617480972551
 31
0.0
  0
LINE
  5
640
330
1F
100
AcDbEntity
  8
SPOJOVACÍ
  6
DASHED
100
AcDbLine
 10
-2794.682678162487
 20
-6986.246471054426
 30
0.0
 11
-2795.052776506013
 21
-6986.033163141098
 31
0.0
  0
LINE
  5
641
330
1F
100
AcDbEntity
  8
SPOJOVACÍ
  6
DASHED
100
AcDbLine
 10
-2794.270647492976
 20
-6977.337675163401
 30
0.0
 11
-2794.640745836503
 21
-6977.708685081255
 31
0.0
  0
LINE
  5
642
330
1F
100
AcDbEntity
  8
SPOJOVACÍ
  6
DASHED
100
AcDbLine
 10
-2794.270647492976
 20
-6977.337675163401
 30
0.0
 11
-2794.640745836503
 21
-6977.124367249811
 31
0.0
  0
LINE
  5
643
330
1F
100
AcDbEntity
  8
SPOJOVACÍ
  6
DASHED
100
AcDbLine
 10
-2794.270647492976
 20
-6980.395088589992
 30
0.0
 11
-2794.640745836503
 21
-6980.766098507846
 31
0.0
  0
LINE
  5
644
330
1F
100
AcDbEntity
  8
SPOJOVACÍ
  6
DASHED
100
AcDbLine
 10
-2794.270647492976
 20
-6980.395088589992
 30
0.0
 11
-2794.640745836503
 21
-6980.181780676665
 31
0.0
  0
LINE
  5
645
330
1F
100
AcDbEntity
  8
SPOJOVACÍ
  6
DASHED
100
AcDbLine
 10
-2794.270647492976
 20
-6983.453413589034
 30
0.0
 11
-2794.640745836503
 21
-6983.823511934699
 31
0.0
  0
LINE
  5
646
330
1F
100
AcDbEntity
  8
SPOJOVACÍ
  6
DASHED
100
AcDbLine
 10
-2794.270647492976
 20
-6983.453413589034
 30
0.0
 11
-2794.640745836503
 21
-6983.239194103247
 31
0.0
  0
LINE
  5
647
330
1F
100
AcDbEntity
  8
SPOJOVACÍ
  6
DASHED
100
AcDbLine
 10
-2795.299812592962
 20
-6965.930259653045
 30
0.0
 11
-2795.299812592962
 21
-6970.774354748396
 31
0.0
  0
LINE
  5
648
330
1F
100
AcDbEntity
  8
SPOJOVACÍ
  6
DASHED
100
AcDbLine
 10
-2797.945195352443
 20
-6965.930259653045
 30
0.0
 11
-2797.945195352443
 21
-6969.887394920132
 31
0.0
  0
INSERT
  5
649
330
1F
100
AcDbEntity
  8
POPIS
100
AcDbBlockReference
  2
E_PUNKT
 10
-2796.648191882653
 20
-6966.489229281823
 30
0.0
 50
270.0
  0
LINE
  5
64A
330
1F
100
AcDbEntity
  8
SPOJOVACÍ
  6
DASHED
100
AcDbLine
 10
-2798.974360456708
 20
-6970.046920069034
 30
0.0
 11
-2794.270647492976
 21
-6971.222848309967
 31
0.0
  0
LINE
  5
64B
330
1F
100
AcDbEntity
  8
SPOJOVACÍ
  6
DASHED
100
AcDbLine
 10
-2798.604262108903
 20
-6970.260227982361
 30
0.0
 11
-2794.640745836503
 21
-6971.592946655632
 31
0.0
  0
LINE
  5
64C
330
1F
100
AcDbEntity
  8
SPOJOVACÍ
  6
DASHED
100
AcDbLine
 10
-2798.604262108903
 20
-6969.67591015118
 30
0.0
 11
-2794.640745836503
 21
-6971.008628824179
 31
0.0
  0
LINE
  5
64D
330
1F
100
AcDbEntity
  8
SPOJOVACÍ
  6
DASHED
100
AcDbLine
 10
-2798.974360456708
 20
-6973.104333495616
 30
0.0
 11
-2794.270647492976
 21
-6974.28026173682
 31
0.0
  0
LINE
  5
64E
330
1F
100
AcDbEntity
  8
SPOJOVACÍ
  6
DASHED
100
AcDbLine
 10
-2798.604262108903
 20
-6973.318552981402
 30
0.0
 11
-2794.640745836503
 21
-6974.650360082215
 31
0.0
  0
LINE
  5
64F
330
1F
100
AcDbEntity
  8
SPOJOVACÍ
  6
DASHED
100
AcDbLine
 10
-2798.604262108903
 20
-6972.73423514995
 30
0.0
 11
-2794.640745836503
 21
-6974.066042251035
 31
0.0
  0
LINE
  5
650
330
1F
100
AcDbEntity
  8
SPOJOVACÍ
  6
DASHED
100
AcDbLine
 10
-2798.974360456708
 20
-6970.046920069034
 30
0.0
 11
-2798.604262108903
 21
-6970.260227982361
 31
0.0
  0
LINE
  5
651
330
1F
100
AcDbEntity
  8
SPOJOVACÍ
  6
DASHED
100
AcDbLine
 10
-2798.974360456708
 20
-6970.046920069034
 30
0.0
 11
-2798.604262108903
 21
-6969.67591015118
 31
0.0
  0
LINE
  5
652
330
1F
100
AcDbEntity
  8
SPOJOVACÍ
  6
DASHED
100
AcDbLine
 10
-2798.974360456708
 20
-6973.104333495616
 30
0.0
 11
-2798.604262108903
 21
-6973.318552981402
 31
0.0
  0
LINE
  5
653
330
1F
100
AcDbEntity
  8
SPOJOVACÍ
  6
DASHED
100
AcDbLine
 10
-2798.974360456708
 20
-6973.104333495616
 30
0.0
 11
-2798.604262108903
 21
-6972.73423514995
 31
0.0
  0
LINE
  5
654
330
1F
100
AcDbEntity
  8
SPOJOVACÍ
  6
DASHED
100
AcDbLine
 10
-2798.974360456708
 20
-6976.161746922469
 30
0.0
 11
-2798.604262108903
 21
-6976.375966408255
 31
0.0
  0
LINE
  5
655
330
1F
100
AcDbEntity
  8
SPOJOVACÍ
  6
DASHED
100
AcDbLine
 10
-2798.974360456708
 20
-6976.161746922469
 30
0.0
 11
-2798.604262108903
 21
-6975.791648576803
 31
0.0
  0
LINE
  5
656
330
1F
100
AcDbEntity
  8
SPOJOVACÍ
  6
DASHED
100
AcDbLine
 10
-2797.945195352443
 20
-6970.470801179124
 30
0.0
 11
-2797.945195352443
 21
-6972.939338913054
 31
0.0
  0
LINE
  5
657
330
1F
100
AcDbEntity
  8
SPOJOVACÍ
  6
DASHED
100
AcDbLine
 10
-2797.945195352443
 20
-6973.530949322541
 30
0.0
 11
-2797.945195352443
 21
-6976.001310201116
 31
0.0
  0
LINE
  5
658
330
1F
100
AcDbEntity
  8
SPOJOVACÍ
  6
DASHED
100
AcDbLine
 10
-2795.299812592962
 20
-6971.365965157883
 30
0.0
 11
-2795.299812592962
 21
-6973.834502891811
 31
0.0
  0
LINE
  5
659
330
1F
100
AcDbEntity
  8
SPOJOVACÍ
  6
DASHED
100
AcDbLine
 10
-2795.299812592962
 20
-6974.418820723264
 30
0.0
 11
-2795.299812592962
 21
-6976.896474179875
 31
0.0
  0
LINE
  5
65A
330
1F
100
AcDbEntity
  8
SPOJOVACÍ
  6
DASHED
100
AcDbLine
 10
-2794.270647492976
 20
-6971.222848309967
 30
0.0
 11
-2794.640745836503
 21
-6971.592946655632
 31
0.0
  0
LINE
  5
65B
330
1F
100
AcDbEntity
  8
SPOJOVACÍ
  6
DASHED
100
AcDbLine
 10
-2794.270647492976
 20
-6971.222848309967
 30
0.0
 11
-2794.640745836503
 21
-6971.008628824179
 31
0.0
  0
LINE
  5
65C
330
1F
100
AcDbEntity
  8
SPOJOVACÍ
  6
DASHED
100
AcDbLine
 10
-2794.270647492976
 20
-6974.28026173682
 30
0.0
 11
-2794.640745836503
 21
-6974.650360082215
 31
0.0
  0
LINE
  5
65D
330
1F
100
AcDbEntity
  8
SPOJOVACÍ
  6
DASHED
100
AcDbLine
 10
-2794.270647492976
 20
-6974.28026173682
 30
0.0
 11
-2794.640745836503
 21
-6974.066042251035
 31
0.0
  0
LINE
  5
65E
330
1F
100
AcDbEntity
  8
SPOJOVACÍ
  6
DASHED
100
AcDbLine
 10
-2801.620654785703
 20
-6959.462654327379
 30
0.0
 11
-2791.62435316398
 21
-6959.462654327379
 31
0.0
  0
LINE
  5
65F
330
1F
100
AcDbEntity
  8
SPOJOVACÍ
  6
DASHED
100
AcDbLine
 10
-2801.620654785703
 20
-6960.638582568576
 30
0.0
 11
-2791.62435316398
 21
-6960.638582568576
 31
0.0
  0
LINE
  5
660
330
1F
100
AcDbEntity
  8
SPOJOVACÍ
  6
DASHED
100
AcDbLine
 10
-2798.42924023174
 20
-6963.707846434676
 30
0.0
 11
-2798.009916984726
 21
-6965.159069504385
 31
0.0
  0
LINE
  5
661
330
1F
100
AcDbEntity
  8
SPOJOVACÍ
  6
DASHED
100
AcDbLine
 10
-2801.620654785703
 20
-6959.462654327379
 30
0.0
 11
-2801.620654785703
 21
-6960.638582568576
 31
0.0
  0
LINE
  5
662
330
1F
100
AcDbEntity
  8
SPOJOVACÍ
  6
DASHED
100
AcDbLine
 10
-2799.209546101472
 20
-6962.415236941945
 30
0.0
 11
-2798.42924023174
 21
-6963.707846434676
 31
0.0
  0
LINE
  5
663
330
1F
100
AcDbEntity
  8
SPOJOVACÍ
  6
DASHED
100
AcDbLine
 10
-2800.297963403823
 20
-6961.36784039232
 30
0.0
 11
-2799.209546101472
 21
-6962.415236941945
 31
0.0
  0
LINE
  5
664
330
1F
100
AcDbEntity
  8
SPOJOVACÍ
  6
DASHED
100
AcDbLine
 10
-2801.620654785703
 20
-6960.638582568576
 30
0.0
 11
-2800.297963403823
 21
-6961.36784039232
 31
0.0
  0
LINE
  5
665
330
1F
100
AcDbEntity
  8
SPOJOVACÍ
  6
DASHED
100
AcDbLine
 10
-2794.476662827731
 20
-6963.051514393176
 30
0.0
 11
-2793.537743379147
 21
-6961.868293573934
 31
0.0
  0
LINE
  5
666
330
1F
100
AcDbEntity
  8
SPOJOVACÍ
  6
DASHED
100
AcDbLine
 10
-2795.077388959896
 20
-6964.437104258684
 30
0.0
 11
-2794.476662827731
 21
-6963.051514393176
 31
0.0
  0
LINE
  5
667
330
1F
100
AcDbEntity
  8
SPOJOVACÍ
  6
DASHED
100
AcDbLine
 10
-2795.299812592962
 20
-6965.930259653045
 30
0.0
 11
-2795.077388959896
 21
-6964.437104258684
 31
0.0
  0
LINE
  5
668
330
1F
100
AcDbEntity
  8
SPOJOVACÍ
  6
DASHED
100
AcDbLine
 10
-2791.62435316398
 20
-6959.462654327379
 30
0.0
 11
-2791.62435316398
 21
-6960.638582568576
 31
0.0
  0
LINE
  5
669
330
1F
100
AcDbEntity
  8
SPOJOVACÍ
  6
DASHED
100
AcDbLine
 10
-2792.325352246425
 20
-6960.968571733701
 30
0.0
 11
-2791.62435316398
 21
-6960.638582568576
 31
0.0
  0
LINE
  5
66A
330
1F
100
AcDbEntity
  8
SPOJOVACÍ
  6
DASHED
100
AcDbLine
 10
-2793.537743379147
 20
-6961.868293573934
 30
0.0
 11
-2792.325352246425
 21
-6960.968571733701
 31
0.0
  0
LINE
  5
66B
330
1F
100
AcDbEntity
  8
SPOJOVACÍ
  6
DASHED
100
AcDbLine
 10
-2798.009916984726
 20
-6965.159069504385
 30
0.0
 11
-2797.945195352443
 21
-6965.930259653045
 31
0.0
  0
POLYLINE
  5
66C
330
1F
100
AcDbEntity
  8
STAVBA OBRYS
370
    20
100
AcDb2dPolyline
 66
     1
 10
0.0
 20
0.0
 30
0.0
  0
VERTEX
  5
66D
330
66C
100
AcDbEntity
  8
STAVBA OBRYS
370
    20
100
AcDbVertex
100
AcDb2dVertex
 10
-2698.572285603713
 20
-6983.462654327381
 30
0.0
 42
-0.0064239028828688
  0
VERTEX
  5
66E
330
66C
100
AcDbEntity
  8
STAVBA OBRYS
370
    20
100
AcDbVertex
100
AcDb2dVertex
 10
-2698.611154043893
 20
-6983.68176798673
 30
0.0
 42
-0.0832048017309575
  0
VERTEX
  5
66F
330
66C
100
AcDbEntity
  8
STAVBA OBRYS
370
    20
100
AcDbVertex
100
AcDb2dVertex
 10
-2699.395336646575
 20
-6986.011981566386
 30
0.0
 42
-0.0336767237692336
  0
VERTEX
  5
670
330
66C
100
AcDbEntity
  8
STAVBA OBRYS
370
    20
100
AcDbVertex
100
AcDb2dVertex
 10
-2701.098153205497
 20
-6988.740256085846
 30
0.0
 42
-0.0844635135812105
  0
VERTEX
  5
671
330
66C
100
AcDbEntity
  8
STAVBA OBRYS
370
    20
100
AcDbVertex
100
AcDb2dVertex
 10
-2702.01796296539
 20
-6989.644677690842
 30
0.0
 42
-0.0495829410719565
  0
VERTEX
  5
672
330
66C
100
AcDbEntity
  8
STAVBA OBRYS
370
    20
100
AcDbVertex
100
AcDb2dVertex
 10
-2703.766641402744
 20
-6990.621327198154
 30
0.0
 42
-0.0322692699774654
  0
VERTEX
  5
673
330
66C
100
AcDbEntity
  8
STAVBA OBRYS
370
    20
100
AcDbVertex
100
AcDb2dVertex
 10
-2706.657995583834
 20
-6991.662850699555
 30
0.0
 42
-0.0276160659512937
  0
VERTEX
  5
674
330
66C
100
AcDbEntity
  8
STAVBA OBRYS
370
    20
100
AcDbVertex
100
AcDb2dVertex
 10
-2707.513572022122
 20
-6991.8595861285
 30
0.0
 42
-0.3050950297317707
  0
VERTEX
  5
675
330
66C
100
AcDbEntity
  8
STAVBA OBRYS
370
    20
100
AcDbVertex
100
AcDb2dVertex
 10
-2726.243585700776
 20
-6983.462654327379
 30
0.0
  0
SEQEND
  5
676
330
66C
100
AcDbEntity
  8
STAVBA OBRYS
370
    20
  0
LWPOLYLINE
  5
677
330
1F
100
AcDbEntity
  8
STAVBA OBRYS
370
    20
100
AcDbPolyline
 90
        7
 70
     0
 43
0.0
 10
-2703.92197193823
 20
-6983.462654327379
 42
-0.0203924744732807
 10
-2704.824055922639
 20
-6984.475784356533
 42
-0.0273961979096945
 10
-2705.673920272834
 20
-6985.263960730559
 42
-0.0243529190212958
 10
-2706.837040765254
 20
-6986.137720075227
 42
-0.0398020282482987
 10
-2707.611999302814
 20
-6986.577348818673
 42
-0.104168275620852
 10
-2707.998410439154
 20
-6986.667365278851
 42
-0.1828126674292254
 10
-2718.177383768595
 20
-6983.462654327379
 42
-0.007272956268647
  0
LINE
  5
678
330
1F
100
AcDbEntity
  8
POPIS
370
    20
100
AcDbLine
 10
-2621.157847971156
 20
-7081.078248907759
 30
0.0
 11
-2621.157847971156
 21
-6987.778916075509
 31
0.0
  0
LINE
  5
679
330
1F
100
AcDbEntity
  8
POPIS
370
    20
100
AcDbLine
 10
-2556.178329061211
 20
-7081.078248907759
 30
0.0
 11
-2556.178329061211
 21
-7000.533943147814
 31
0.0
  0
LINE
  5
67A
330
1F
100
AcDbEntity
  8
POPIS
370
    20
100
AcDbLine
 10
-2680.840131264819
 20
-7081.078248907759
 30
0.0
 11
-2641.096444377359
 21
-6987.200414864466
 31
0.0
  0
LINE
  5
67B
330
1F
100
AcDbEntity
  8
POPIS
370
    20
100
AcDbLine
 10
-2462.549169912277
 20
-7081.078248907759
 30
0.0
 11
-2462.549169912277
 21
-7006.261668350482
 31
0.0
  0
LWPOLYLINE
  5
67F
330
1F
100
AcDbEntity
  8
izolace
100
AcDbPolyline
 90
        4
 70
     1
 43
0.0
 10
-2603.436740417913
 20
-6959.462654327379
 10
-2588.436740417913
 20
-6959.462654327379
 10
-2588.436740417913
 20
-7033.462654327379
 10
-2603.436740417913
 20
-7033.462654327379
  0
LWPOLYLINE
  5
680
330
1F
100
AcDbEntity
  8
izolace
100
AcDbPolyline
 90
        4
 70
     0
 43
0.0
 10
-2648.436740417913
 20
-6959.462654327379
 10
-2648.436740417913
 20
-7033.462654327379
 10
-2633.436740417914
 20
-7033.462654327379
 10
-2633.436740417913
 20
-6959.462654327379
  0
LINE
  5
681
330
1F
100
AcDbEntity
  8
izolace
  6
IZOLACE
 48
0.7
370
    20
100
AcDbLine
 10
-2640.936740417913
 20
-7033.462654327379
 30
0.0
 11
-2640.936740417913
 21
-6959.462654327379
 31
0.0
  0
LINE
  5
682
330
1F
100
AcDbEntity
  8
izolace
  6
IZOLACE
 48
0.7
370
    20
100
AcDbLine
 10
-2595.936740417914
 20
-7033.462654327379
 30
0.0
 11
-2595.936740417913
 21
-6959.462654327379
 31
0.0
  0
LWPOLYLINE
  5
683
330
1F
100
AcDbEntity
  8
STAVBA OBRYS
370
    20
100
AcDbPolyline
 90
        5
 70
     0
 43
0.0
 10
-2666.903181955738
 20
-6983.462654327379
 42
-0.0128837512779298
 10
-2667.187973915963
 20
-6986.795819149126
 42
-0.0351641677647434
 10
-2667.815733637485
 20
-6990.399528603465
 42
-0.0187319685742942
 10
-2671.199749518476
 20
-7002.157765945607
 42
-0.1091451068841891
 10
-2674.937347534468
 20
-7008.462654327378
 42
-0.0205166500055637
  0
LWPOLYLINE
  5
684
330
1F
100
AcDbEntity
  8
STAVBA OBRYS
370
    20
100
AcDbPolyline
 90
        3
 70
     0
 43
0.0
 10
-2682.435765334965
 20
-6989.961823896634
 10
-2662.439512902972
 20
-6999.177852947155
 10
-2658.439575269257
 20
-6999.823250422496
  0
LWPOLYLINE
  5
685
330
1F
100
AcDbEntity
  8
STAVBA OBRYS
370
    20
100
AcDbPolyline
 90
        2
 70
     0
 43
0.0
 10
-2656.713452351734
 20
-6983.462654327379
 42
-0.0167354774094603
 10
-2661.449826326974
 20
-7008.462654327378
 42
-0.0133702840819155
  0
LWPOLYLINE
  5
686
330
1F
100
AcDbEntity
  8
STAVBA OBRYS
370
    20
100
AcDbPolyline
 90
        7
 70
     0
 43
0.0
 10
-2675.527397335779
 20
-6983.462654327379
 42
-0.0120721047703132
 10
-2675.596380025817
 20
-6985.196542466123
 42
-0.044358077361292
 10
-2675.99200776049
 20
-6987.892342484539
 42
-0.0188067511131767
 10
-2678.011831208873
 20
-6995.134571659846
 42
-0.0457786284636091
 10
-2679.219854098489
 20
-6997.983182042727
 42
-0.0295006114745606
 10
-2681.635914552789
 20
-7001.910081256129
 42
-0.0420069540385954
 10
-2687.093886841363
 20
-7008.462654327378
 42
-0.0094449184784486
  0
LWPOLYLINE
  5
687
330
1F
100
AcDbEntity
  8
STAVBA OBRYS
100
AcDbPolyline
 90
        2
 70
     0
 43
0.0
 10
-2648.436740417913
 20
-6996.846177217704
 42
-0.0070027860950108
 10
-2650.260711617884
 20
-7003.462654327378
  0
LWPOLYLINE
  5
695
330
1F
100
AcDbEntity
  8
STAVBA OBRYS
100
AcDbPolyline
 90
        4
 70
     1
 43
0.0
 10
-2633.436740417913
 20
-6974.742638686618
 10
-2603.436740417913
 20
-6974.742638686618
 10
-2603.436740417913
 20
-7033.462654327379
 10
-2633.436740417914
 20
-7033.462654327379
  0
LWPOLYLINE
  5
696
330
1F
100
AcDbEntity
  8
STAVBA OBRYS
370
    20
100
AcDbPolyline
 90
        8
 70
     0
 43
0.0
 10
-2609.394456559289
 20
-6974.742638686618
 42
-0.0168162630274195
 10
-2609.529482138353
 20
-6976.433676838737
 42
-0.0575155827655532
 10
-2610.209514418696
 20
-6979.533301499454
 42
-0.0310289133982999
 10
-2613.212315763524
 20
-6986.778329024099
 42
-0.0882970623535771
 10
-2614.849537683618
 20
-6989.018698074899
 42
-0.0171636441953577
 10
-2617.662901745475
 20
-6991.532615430144
 42
-0.0157521173632038
 10
-2620.901756582512
 20
-6994.06411148265
 42
-0.0195937963304537
 10
-2633.436740417913
 20
-7002.506769111717
 42
-0.0014948023799519
  0
LWPOLYLINE
  5
697
330
1F
100
AcDbEntity
  8
STAVBA OBRYS
370
    20
100
AcDbPolyline
 90
        4
 70
     0
 43
0.0
 10
-2603.436740417913
 20
-6987.591215042413
 42
-0.027278836128071
 10
-2604.219854098489
 20
-6989.263166401965
 42
-0.0295006114745606
 10
-2606.635914552789
 20
-6993.190065615367
 42
-0.1674698908043404
 10
-2633.436740417914
 20
-7012.664854047208
  0
TEXT
  5
69D
330
1F
100
AcDbEntity
  8
POPIS
100
AcDbText
 10
-2572.687510412681
 20
-7113.710086954693
 30
0.0
 40
25.0
  1
09
 41
0.85
  7
SIMPLEX7
100
AcDbText
  0
HATCH
  5
69E
330
1F
100
AcDbEntity
  8
izolace
100
AcDbHatch
 10
0.0
 20
0.0
 30
0.0
210
0.0
220
0.0
230
1.0
  2
SOLID
 70
     1
 71
     0
 91
        1
 92
        7
 72
     0
 73
     1
 93
        4
 10
-2568.185142777034
 20
-7033.462654327379
 10
-2568.185142777034
 20
-7036.46265432738
 10
-2544.543410067198
 20
-7036.462654327379
 10
-2544.543410067198
 20
-7033.462654327379
 97
        0
 75
     0
 76
     1
 47
0.1901250437635136
 98
        1
 10
-2558.827348018694
 20
-7034.279465878459
  0
LWPOLYLINE
  5
69F
330
1F
100
AcDbEntity
  8
STAVBA OBRYS
100
AcDbPolyline
 90
        4
 70
     1
 43
0.0
 10
-2544.543410067202
 20
-7033.462654327379
 10
-2568.185142777037
 20
-7033.462654327379
 10
-2568.185142777037
 20
-7036.462654327379
 10
-2544.543410067202
 20
-7036.462654327379
  0
TEXT
  5
6A0
330
1F
100
AcDbEntity
  8
POPIS
100
AcDbText
 10
-2637.667029322626
 20
-7113.710086954693
 30
0.0
 40
25.0
  1
03
 41
0.85
  7
SIMPLEX7
100
AcDbText
  0
HATCH
  5
6A1
330
1F
100
AcDbEntity
  8
izolace
100
AcDbHatch
 10
0.0
 20
0.0
 30
0.0
210
0.0
220
0.0
230
1.0
  2
SOLID
 70
     1
 71
     0
 91
        1
 92
        7
 72
     0
 73
     1
 93
        4
 10
-2662.752073616378
 20
-7033.462654327379
 10
-2662.752073616374
 20
-7036.46265432738
 10
-2639.110340906543
 20
-7036.462654327379
 10
-2639.110340906539
 20
-7033.462654327379
 97
        0
 75
     0
 76
     1
 47
0.1901250437635136
 98
        1
 10
-2653.394278858034
 20
-7034.279465878459
  0
LWPOLYLINE
  5
6A2
330
1F
100
AcDbEntity
  8
STAVBA OBRYS
100
AcDbPolyline
 90
        4
 70
     1
 43
0.0
 10
-2639.110340906543
 20
-7033.462654327379
 10
-2662.752073616378
 20
-7033.462654327379
 10
-2662.752073616378
 20
-7036.462654327379
 10
-2639.110340906543
 20
-7036.462654327379
  0
HATCH
  5
6A3
330
1F
100
AcDbEntity
  8
izolace
100
AcDbHatch
 10
0.0
 20
0.0
 30
0.0
210
0.0
220
0.0
230
1.0
  2
SOLID
 70
     1
 71
     0
 91
        1
 92
        7
 72
     0
 73
     1
 93
        4
 10
-2615.468608196708
 20
-7033.462654327379
 10
-2615.468608196704
 20
-7036.46265432738
 10
-2591.826875486869
 20
-7036.462654327379
 10
-2591.826875486869
 20
-7033.462654327379
 97
        0
 75
     0
 76
     1
 47
0.1901250437635136
 98
        1
 10
-2606.110813438364
 20
-7034.279465878459
  0
LWPOLYLINE
  5
6A4
330
1F
100
AcDbEntity
  8
STAVBA OBRYS
100
AcDbPolyline
 90
        4
 70
     1
 43
0.0
 10
-2591.826875486872
 20
-7033.462654327379
 10
-2615.468608196708
 20
-7033.462654327379
 10
-2615.468608196708
 20
-7036.462654327379
 10
-2591.826875486872
 20
-7036.462654327379
  0
TEXT
  5
6A5
330
1F
100
AcDbEntity
  8
POPIS
100
AcDbText
 10
-2479.058351263747
 20
-7113.710086954693
 30
0.0
 40
25.0
  1
11
 41
0.85
  7
SIMPLEX7
100
AcDbText
  0
HATCH
  5
6A6
330
1F
100
AcDbEntity
  8
izolace
100
AcDbHatch
 10
0.0
 20
0.0
 30
0.0
210
0.0
220
0.0
230
1.0
  2
SOLID
 70
     1
 71
     0
 91
        1
 92
        7
 72
     0
 73
     1
 93
        4
 10
-2520.901677357367
 20
-7033.462654327379
 10
-2520.901677357363
 20
-7036.46265432738
 10
-2497.259944647528
 20
-7036.46265432738
 10
-2497.259944647539
 20
-7033.462654327379
 97
        0
 75
     0
 76
     1
 47
0.1901250437635136
 98
        1
 10
-2511.543882599023
 20
-7034.279465878459
  0
LWPOLYLINE
  5
6A7
330
1F
100
AcDbEntity
  8
izolace
100
AcDbPolyline
 90
        4
 70
     1
 43
0.0
 10
-2497.259944647532
 20
-7033.462654327379
 10
-2520.901677357367
 20
-7033.462654327379
 10
-2520.901677357367
 20
-7036.462654327379
 10
-2497.259944647532
 20
-7036.462654327379
  0
HATCH
  5
6A8
330
1F
100
AcDbEntity
  8
izolace
100
AcDbHatch
 10
0.0
 20
0.0
 30
0.0
210
0.0
220
0.0
230
1.0
  2
SOLID
 70
     1
 71
     0
 91
        1
 92
        7
 72
     0
 73
     1
 93
        4
 10
-2459.504140649265
 20
-7033.462654327379
 10
-2459.504140649261
 20
-7036.46265432738
 10
-2435.862407939426
 20
-7036.462654327379
 10
-2435.862407939426
 20
-7033.462654327379
 97
        0
 75
     0
 76
     1
 47
0.1901250437635136
 98
        1
 10
-2450.146345890921
 20
-7034.279465878459
  0
LWPOLYLINE
  5
6A9
330
1F
100
AcDbEntity
  8
izolace
100
AcDbPolyline
 90
        4
 70
     1
 43
0.0
 10
-2435.862407939429
 20
-7033.462654327379
 10
-2459.504140649265
 20
-7033.462654327379
 10
-2459.504140649265
 20
-7036.462654327379
 10
-2435.862407939429
 20
-7036.462654327379
  0
LWPOLYLINE
  5
6AA
330
1F
100
AcDbEntity
  8
izolace
100
AcDbPolyline
 90
        4
 70
     1
 43
0.0
 10
-2308.12608296885
 20
-7033.462654327379
 10
-2331.767815678685
 20
-7033.462654327379
 10
-2331.767815678685
 20
-7036.462654327379
 10
-2308.12608296885
 20
-7036.462654327379
  0
HATCH
  5
6AB
330
1F
100
AcDbEntity
  8
izolace
100
AcDbHatch
 10
0.0
 20
0.0
 30
0.0
210
0.0
220
0.0
230
1.0
  2
SOLID
 70
     1
 71
     0
 91
        1
 92
        7
 72
     0
 73
     1
 93
        4
 10
-2331.767815678685
 20
-7033.462654327379
 10
-2331.767815678682
 20
-7036.46265432738
 10
-2308.126082968847
 20
-7036.462654327379
 10
-2308.126082968847
 20
-7033.462654327379
 97
        0
 75
     0
 76
     1
 47
0.1901250437635136
 98
        1
 10
-2322.410020920341
 20
-7034.279465878459
  0
TEXT
  5
6AC
330
1F
100
AcDbEntity
  8
POPIS
100
AcDbText
 10
-2428.209462886532
 20
-7113.710086954693
 30
0.0
 40
25.0
  1
12
 41
0.85
  7
SIMPLEX7
100
AcDbText
  0
TEXT
  5
6AD
330
1F
100
AcDbEntity
  8
POPIS
100
AcDbText
 10
-2373.036128379102
 20
-7113.710086954693
 30
0.0
 40
25.0
  1
14
 41
0.85
  7
SIMPLEX7
100
AcDbText
  0
LINE
  5
6AE
330
1F
100
AcDbEntity
  8
POPIS
370
    20
100
AcDbLine
 10
-2407.908341389231
 20
-7081.078248907759
 30
0.0
 11
-2407.908341389231
 21
-7036.462654327379
 31
0.0
  0
LWPOLYLINE
  5
6AF
330
1F
100
AcDbEntity
  8
izolace
100
AcDbPolyline
 90
        4
 70
     1
 43
0.0
 10
-2388.578942519759
 20
-7033.462654327379
 10
-2412.220675229594
 20
-7033.462654327379
 10
-2412.220675229594
 20
-7036.462654327379
 10
-2388.578942519759
 20
-7036.462654327379
  0
HATCH
  5
6B0
330
1F
100
AcDbEntity
  8
izolace
100
AcDbHatch
 10
0.0
 20
0.0
 30
0.0
210
0.0
220
0.0
230
1.0
  2
SOLID
 70
     1
 71
     0
 91
        1
 92
        7
 72
     0
 73
     1
 93
        4
 10
-2412.220675229594
 20
-7033.462654327379
 10
-2412.22067522959
 20
-7036.46265432738
 10
-2388.578942519755
 20
-7036.462654327379
 10
-2388.578942519755
 20
-7033.462654327379
 97
        0
 75
     0
 76
     1
 47
0.1901250437635136
 98
        1
 10
-2402.862880471251
 20
-7034.279465878459
  0
INSERT
  5
6B1
330
1F
100
AcDbEntity
  8
POPIS
100
AcDbBlockReference
  2
E_PUNKT
 10
-2407.937409720105
 20
-7036.435043951752
 30
0.0
 50
270.0
  0
LINE
  5
6B2
330
1F
100
AcDbEntity
  8
POPIS
370
    20
100
AcDbLine
 10
-2350.839036808885
 20
-7081.078248907759
 30
0.0
 11
-2350.839036808885
 21
-7019.829920836035
 31
0.0
  0
LWPOLYLINE
  5
6B3
330
1F
100
AcDbEntity
  8
izolace
100
AcDbPolyline
 90
        4
 70
     1
 43
0.0
 10
-2355.409548388521
 20
-7033.462654327379
 10
-2379.051281098356
 20
-7033.462654327379
 10
-2379.051281098356
 20
-7036.462654327379
 10
-2355.409548388521
 20
-7036.462654327379
  0
HATCH
  5
6B4
330
1F
100
AcDbEntity
  8
izolace
100
AcDbHatch
 10
0.0
 20
0.0
 30
0.0
210
0.0
220
0.0
230
1.0
  2
SOLID
 70
     1
 71
     0
 91
        1
 92
        7
 72
     0
 73
     1
 93
        4
 10
-2379.051281098356
 20
-7033.462654327379
 10
-2379.051281098352
 20
-7036.46265432738
 10
-2355.409548388517
 20
-7036.462654327379
 10
-2355.409548388517
 20
-7033.462654327379
 97
        0
 75
     0
 76
     1
 47
0.1901250437635136
 98
        1
 10
-2369.693486340012
 20
-7034.279465878459
  0
INSERT
  5
6B5
330
1F
100
AcDbEntity
  8
POPIS
100
AcDbBlockReference
  2
E_PUNKT
 10
-2350.868105139759
 20
-7019.647952024296
 30
0.0
 50
270.0
  0
LINE
  5
6B6
330
1F
100
AcDbEntity
  8
izolace
  6
IZOLACE
 48
1.199999999999999
370
    20
100
AcDbLine
 10
-2728.436740417913
 20
-7020.962654327378
 30
0.0
 11
-2648.436740417913
 21
-7020.962654327378
 31
0.0
  0
LINE
  5
6B7
330
1F
100
AcDbEntity
  8
CETRIS
100
AcDbLine
 10
-2588.436740417913
 20
-6971.462654327379
 30
0.0
 11
-2305.921121050286
 21
-6971.462654327379
 31
0.0
  0
LINE
  5
6B8
330
1F
100
AcDbEntity
  8
CETRIS
100
AcDbLine
 10
-2588.436740417913
 20
-6983.462654327379
 30
0.0
 11
-2305.921121050286
 21
-6983.46265432738
 31
0.0
  0
LWPOLYLINE
  5
6B9
330
1F
100
AcDbEntity
  8
nášlap_vrstvy
100
AcDbPolyline
 90
        4
 70
     0
 43
0.0
 10
-2603.436740417913
 20
-6956.91974040152
 10
-2305.92112105029
 20
-6956.91974040152
 10
-2305.92112105029
 20
-6952.581251375573
 10
-2603.436740417913
 20
-6952.581251375573
  0
HATCH
  5
6BA
330
1F
100
AcDbEntity
  8
CETRIS
370
    20
100
AcDbHatch
 10
0.0
 20
0.0
 30
0.0
210
0.0
220
0.0
230
1.0
  2
ANSI31
 70
     0
 71
     0
 91
        3
 92
        7
 72
     0
 73
     1
 93
       24
 10
-2305.921121050286
 20
-6971.462654327379
 10
-2319.706793940971
 20
-6971.462654327379
 10
-2319.706793940964
 20
-6972.955692493887
 10
-2319.047727184511
 20
-6972.734235149951
 10
-2318.677628836706
 20
-6973.104333495616
 10
-2319.047727184519
 20
-6973.318552981405
 10
-2319.706793940967
 20
-6973.540010325293
 10
-2319.706793940967
 20
-6976.013257499976
 10
-2319.047727184511
 20
-6975.791648576803
 10
-2318.677628836703
 20
-6976.161746922471
 10
-2319.047727184508
 20
-6976.375966408257
 10
-2319.706793940964
 20
-6976.597575331425
 10
-2319.706793940967
 20
-6979.070670926606
 10
-2319.047727184515
 20
-6978.849062003394
 10
-2318.677628836703
 20
-6979.219160349058
 10
-2319.047727184511
 20
-6979.433379834841
 10
-2319.706793940967
 20
-6979.654988758008
 10
-2319.706793940967
 20
-6982.128084353188
 10
-2319.047727184508
 20
-6981.906475429976
 10
-2318.677628836699
 20
-6982.277485348101
 10
-2319.047727184504
 20
-6982.490793261423
 10
-2319.706793940967
 20
-6982.712402184642
 10
-2319.706793940967
 20
-6983.462654327381
 10
-2305.92112105029
 20
-6983.462654327379
 97
        0
 92
        7
 72
     0
 73
     1
 93
       45
 10
-2322.35217670046
 20
-6974.428902738324
 10
-2323.011243456908
 20
-6974.650360082215
 10
-2323.381341800435
 20
-6974.28026173682
 10
-2323.011243456905
 20
-6974.066042251035
 10
-2322.352176700449
 20
-6973.844584907095
 10
-2322.352176700449
 20
-6971.462654327379
 10
-2322.623753003328
 20
-6971.462654327379
 10
-2323.011243456908
 20
-6971.592946655632
 10
-2323.141535784408
 20
-6971.462654327379
 10
-2569.706793940964
 20
-6971.462654327379
 10
-2569.706793940975
 20
-6972.955692493889
 10
-2569.047727184508
 20
-6972.734235149949
 10
-2568.677628836707
 20
-6973.104333495616
 10
-2569.047727184511
 20
-6973.318552981405
 10
-2569.706793940968
 20
-6973.540010325297
 10
-2569.706793940964
 20
-6976.013257499973
 10
-2569.047727184511
 20
-6975.791648576805
 10
-2568.677628836703
 20
-6976.161746922471
 10
-2569.047727184515
 20
-6976.375966408259
 10
-2569.706793940968
 20
-6976.597575331424
 10
-2569.706793940968
 20
-6979.070670926607
 10
-2569.047727184515
 20
-6978.849062003394
 10
-2568.677628836707
 20
-6979.219160349058
 10
-2569.047727184511
 20
-6979.433379834841
 10
-2569.706793940968
 20
-6979.654988758008
 10
-2569.706793940971
 20
-6982.128084353188
 10
-2569.047727184508
 20
-6981.906475429976
 10
-2568.677628836703
 20
-6982.277485348099
 10
-2569.047727184515
 20
-6982.490793261425
 10
-2569.706793940968
 20
-6982.712402184638
 10
-2569.706793940968
 20
-6983.46265432738
 10
-2323.418304753827
 20
-6983.46265432738
 10
-2323.381341800435
 20
-6983.453413589032
 10
-2323.011243456901
 20
-6983.239194103243
 10
-2322.352176700445
 20
-6983.017585180032
 10
-2322.352176700438
 20
-6980.544489584675
 10
-2323.011243456908
 20
-6980.766098507844
 10
-2323.381341800438
 20
-6980.395088589993
 10
-2323.011243456908
 20
-6980.181780676661
 10
-2322.352176700449
 20
-6979.960171753448
 10
-2322.352176700445
 20
-6977.48707615809
 10
-2323.011243456912
 20
-6977.708685081255
 10
-2323.381341800435
 20
-6977.337675163403
 10
-2323.011243456901
 20
-6977.124367249813
 10
-2322.352176700449
 20
-6976.902758326646
 97
        0
 92
        7
 72
     0
 73
     1
 93
       25
 10
-2572.352176700449
 20
-6974.428902738321
 10
-2573.011243456905
 20
-6974.650360082216
 10
-2573.381341800431
 20
-6974.280261736821
 10
-2573.011243456901
 20
-6974.066042251035
 10
-2572.352176700449
 20
-6973.844584907098
 10
-2572.352176700445
 20
-6971.462654327379
 10
-2572.623753003328
 20
-6971.462654327379
 10
-2573.011243456909
 20
-6971.59294665563
 10
-2573.141535784408
 20
-6971.462654327379
 10
-2588.436740417909
 20
-6971.462654327379
 10
-2588.436740417909
 20
-6983.46265432738
 10
-2573.418304753824
 20
-6983.462654327381
 10
-2573.381341800431
 20
-6983.453413589035
 10
-2573.011243456912
 20
-6983.239194103247
 10
-2572.352176700449
 20
-6983.017585180035
 10
-2572.352176700449
 20
-6980.544489584677
 10
-2573.011243456916
 20
-6980.766098507844
 10
-2573.381341800438
 20
-6980.395088589995
 10
-2573.011243456919
 20
-6980.181780676663
 10
-2572.352176700449
 20
-6979.96017175345
 10
-2572.352176700445
 20
-6977.487076158086
 10
-2573.011243456909
 20
-6977.708685081257
 10
-2573.381341800435
 20
-6977.337675163404
 10
-2573.011243456901
 20
-6977.124367249813
 10
-2572.352176700452
 20
-6976.902758326644
 97
        0
 75
     0
 76
     1
 52
90.0
 41
1.0
 77
     0
 78
     1
 53
135.0
 43
-30474.24757214197
 44
-3118.872527323437
 45
-2.245064030267288
 46
-2.245064030267287
 79
     0
 47
0.4519862576681119
 98
        3
 10
-2314.885760204393
 20
-6975.615448768341
 10
-2348.353285259839
 20
-6975.615448768341
 10
-2581.269166240024
 20
-6975.163470732929
  0
LINE
  5
6BB
330
1F
100
AcDbEntity
  8
CETRIS
100
AcDbLine
 10
-2588.436740417913
 20
-6959.462654327379
 30
0.0
 11
-2305.921121050286
 21
-6959.462654327378
 31
0.0
  0
LINE
  5
6BC
330
1F
100
AcDbEntity
  8
STAVBA OBRYS
100
AcDbLine
 10
-2573.70879939783
 20
-6933.372436086004
 30
0.0
 11
-2573.70879939783
 21
-6733.820563980495
 31
0.0
  0
LINE
  5
6BD
330
1F
100
AcDbEntity
  8
STAVBA OBRYS
100
AcDbLine
 10
-2659.564975015695
 20
-6951.372436086005
 30
0.0
 11
-2659.564975015705
 21
-6747.258492140251
 31
0.0
  0
LINE
  5
6BE
330
1F
100
AcDbEntity
  8
STAVBA OBRYS
  6
DASHED
100
AcDbLine
 10
-2673.712872394633
 20
-6951.372436086005
 30
0.0
 11
-2673.712872394629
 21
-6749.495529469554
 31
0.0
  0
LINE
  5
6BF
330
1F
100
AcDbEntity
  8
POPIS
370
    20
100
AcDbLine
 10
-2605.936740417917
 20
-6961.708181168496
 30
0.0
 11
-2487.983343161267
 21
-6883.72927966692
 31
0.0
  0
LINE
  5
6C0
330
1F
100
AcDbEntity
  8
POPIS
370
    20
100
AcDbLine
 10
-2540.41904958575
 20
-6882.61431716057
 30
0.0
 11
-2631.807135047045
 21
-6936.625213131671
 31
0.0
  0
LINE
  5
6C1
330
1F
100
AcDbEntity
  8
SPOJOVACÍ
  6
DASHED
100
AcDbLine
 10
-2566.031334507707
 20
-6959.462654327379
 30
0.0
 11
-2576.02763612943
 21
-6959.462654327379
 31
0.0
  0
LINE
  5
6C2
330
1F
100
AcDbEntity
  8
SPOJOVACÍ
  6
DASHED
100
AcDbLine
 10
-2566.031334507707
 20
-6960.638582568576
 30
0.0
 11
-2576.02763612943
 21
-6960.638582568576
 31
0.0
  0
LINE
  5
6C3
330
1F
100
AcDbEntity
  8
SPOJOVACÍ
  6
DASHED
100
AcDbLine
 10
-2567.354025889588
 20
-6961.36784039232
 30
0.0
 11
-2568.442443191939
 21
-6962.415236941945
 31
0.0
  0
LINE
  5
6C4
330
1F
100
AcDbEntity
  8
STAVBA OBRYS
100
AcDbLine
 10
-2658.712872394636
 20
-6951.372436086005
 30
0.0
 11
-2573.70879939783
 21
-6951.372436086005
 31
0.0
  0
LINE
  5
6C5
330
1F
100
AcDbEntity
  8
STAVBA OBRYS
100
AcDbLine
 10
-2656.712872394633
 20
-6931.372436086005
 30
0.0
 11
-2575.70879939783
 21
-6931.372436086005
 31
0.0
  0
LINE
  5
6C6
330
1F
100
AcDbEntity
  8
izolace
100
AcDbLine
 10
-2632.436740417913
 20
-6960.411357759683
 30
0.0
 11
-2604.436740417909
 21
-6960.411357759683
 31
0.0
  0
LINE
  5
6C7
330
1F
100
AcDbEntity
  8
izolace
100
AcDbLine
 10
-2630.936740417913
 20
-6961.708181168496
 30
0.0
 11
-2605.936740417917
 21
-6961.708181168496
 31
0.0
  0
HATCH
  5
6C8
330
1F
100
AcDbEntity
  8
izolace
100
AcDbHatch
 10
0.0
 20
0.0
 30
0.0
210
0.0
220
0.0
230
1.0
  2
SOLID
 70
     1
 71
     0
 91
        2
 92
        7
 72
     0
 73
     1
 93
        6
 10
-2604.436740417913
 20
-6960.411357759683
 10
-2618.436740417913
 20
-6960.411357759683
 10
-2618.43674041791
 20
-6961.708181168496
 10
-2605.936740417917
 20
-6961.708181168496
 10
-2605.936740417909
 20
-6970.638869835446
 10
-2604.43674041792
 20
-6970.638869835446
 97
        0
 92
        7
 72
     0
 73
     1
 93
        6
 10
-2618.43674041791
 20
-6960.411357759683
 10
-2632.436740417917
 20
-6960.411357759685
 10
-2632.43674041791
 20
-6970.638869835446
 10
-2630.936740417913
 20
-6970.638869835446
 10
-2630.936740417917
 20
-6961.708181168496
 10
-2618.436740417913
 20
-6961.708181168496
 97
        0
 75
     0
 76
     1
 47
0.1904839148977221
 98
        2
 10
-2615.723870775265
 20
-6961.113295555081
 10
-2621.251283361198
 20
-6960.922807685969
  0
POLYLINE
  5
6C9
330
1F
100
AcDbEntity
  8
STAVBA OBRYS
370
    20
100
AcDb2dPolyline
 66
     1
 10
0.0
 20
0.0
 30
0.0
  0
VERTEX
  5
6CA
330
6C9
100
AcDbEntity
  8
STAVBA OBRYS
370
    20
100
AcDbVertex
100
AcDb2dVertex
 10
-2623.572285603713
 20
-6974.74263868662
 30
0.0
 42
-0.0064239028828688
  0
VERTEX
  5
6CB
330
6C9
100
AcDbEntity
  8
STAVBA OBRYS
370
    20
100
AcDbVertex
100
AcDb2dVertex
 10
-2623.611154043894
 20
-6974.961752345969
 30
0.0
 42
-0.0832048017309575
  0
VERTEX
  5
6CC
330
6C9
100
AcDbEntity
  8
STAVBA OBRYS
370
    20
100
AcDbVertex
100
AcDb2dVertex
 10
-2624.395336646575
 20
-6977.291965925624
 30
0.0
 42
-0.0336767237692336
  0
VERTEX
  5
6CD
330
6C9
100
AcDbEntity
  8
STAVBA OBRYS
370
    20
100
AcDbVertex
100
AcDb2dVertex
 10
-2626.098153205496
 20
-6980.020240445084
 30
0.0
 42
-0.0844635135812105
  0
VERTEX
  5
6CE
330
6C9
100
AcDbEntity
  8
STAVBA OBRYS
370
    20
100
AcDbVertex
100
AcDb2dVertex
 10
-2627.01796296539
 20
-6980.92466205008
 30
0.0
 42
-0.0495829410719565
  0
VERTEX
  5
6CF
330
6C9
100
AcDbEntity
  8
STAVBA OBRYS
370
    20
100
AcDbVertex
100
AcDb2dVertex
 10
-2628.766641402744
 20
-6981.901311557392
 30
0.0
 42
-0.0322692699774654
  0
VERTEX
  5
6D0
330
6C9
100
AcDbEntity
  8
STAVBA OBRYS
370
    20
100
AcDbVertex
100
AcDb2dVertex
 10
-2631.657995583834
 20
-6982.942835058793
 30
0.0
 42
-0.0276160659512937
  0
VERTEX
  5
6D1
330
6C9
100
AcDbEntity
  8
STAVBA OBRYS
370
    20
100
AcDbVertex
100
AcDb2dVertex
 10
-2632.513572022121
 20
-6983.139570487738
 30
0.0
 42
-0.0126891984598699
  0
VERTEX
  5
6D2
330
6C9
100
AcDbEntity
  8
STAVBA OBRYS
370
    20
100
AcDbVertex
100
AcDb2dVertex
 10
-2633.436740417913
 20
-6983.274772877279
 30
0.0
  0
SEQEND
  5
6D3
330
6C9
100
AcDbEntity
  8
STAVBA OBRYS
370
    20
  0
POLYLINE
  5
6D4
330
1F
100
AcDbEntity
  8
STAVBA OBRYS
370
    20
100
AcDb2dPolyline
 66
     1
 10
0.0
 20
0.0
 30
0.0
  0
VERTEX
  5
6D5
330
6D4
100
AcDbEntity
  8
STAVBA OBRYS
370
    20
100
AcDbVertex
100
AcDb2dVertex
 10
-2616.344234582975
 20
-6974.74263868662
 30
0.0
 42
-0.0072417954699014
  0
VERTEX
  5
6D6
330
6D4
100
AcDbEntity
  8
STAVBA OBRYS
370
    20
100
AcDbVertex
100
AcDb2dVertex
 10
-2616.399804950818
 20
-6975.154043897894
 30
0.0
 42
-0.0707158694326265
  0
VERTEX
  5
6D7
330
6D4
100
AcDbEntity
  8
STAVBA OBRYS
370
    20
100
AcDbVertex
100
AcDb2dVertex
 10
-2616.930931467238
 20
-6977.090147350487
 30
0.0
 42
-0.033952657250207
  0
VERTEX
  5
6D8
330
6D4
100
AcDbEntity
  8
STAVBA OBRYS
370
    20
100
AcDbVertex
100
AcDb2dVertex
 10
-2619.179587306647
 20
-6981.443185075661
 30
0.0
 42
-0.0571374688189033
  0
VERTEX
  5
6D9
330
6D4
100
AcDbEntity
  8
STAVBA OBRYS
370
    20
100
AcDbVertex
100
AcDb2dVertex
 10
-2620.965744066499
 20
-6983.750109359347
 30
0.0
 42
-0.0274923553235744
  0
VERTEX
  5
6DA
330
6D4
100
AcDbEntity
  8
STAVBA OBRYS
370
    20
100
AcDbVertex
100
AcDb2dVertex
 10
-2623.563049797052
 20
-6986.135184682481
 30
0.0
 42
-0.0255412025538677
  0
VERTEX
  5
6DB
330
6D4
100
AcDbEntity
  8
STAVBA OBRYS
370
    20
100
AcDbVertex
100
AcDb2dVertex
 10
-2626.614479834763
 20
-6988.391898359501
 30
0.0
 42
-0.0272796991712396
  0
VERTEX
  5
6DC
330
6D4
100
AcDbEntity
  8
STAVBA OBRYS
370
    20
100
AcDbVertex
100
AcDb2dVertex
 10
-2630.727478987948
 20
-6990.808234241163
 30
0.0
 42
-0.056967459841729
  0
VERTEX
  5
6DD
330
6D4
100
AcDbEntity
  8
STAVBA OBRYS
370
    20
100
AcDbVertex
100
AcDb2dVertex
 10
-2632.86842626868
 20
-6991.620970076363
 30
0.0
 42
-0.0373408083348504
  0
VERTEX
  5
6DE
330
6D4
100
AcDbEntity
  8
STAVBA OBRYS
370
    20
100
AcDbVertex
100
AcDb2dVertex
 10
-2633.090780644153
 20
-6991.660135617315
 30
0.0
 42
-0.0052305969362967
  0
VERTEX
  5
6DF
330
6D4
100
AcDbEntity
  8
STAVBA OBRYS
370
    20
100
AcDbVertex
100
AcDb2dVertex
 10
-2633.436740417913
 20
-6991.691092584218
 30
0.0
  0
SEQEND
  5
6E0
330
6D4
100
AcDbEntity
  8
STAVBA OBRYS
370
    20
  0
LWPOLYLINE
  5
6E1
330
1F
100
AcDbEntity
  8
STAVBA OBRYS
370
    20
100
AcDbPolyline
 90
        7
 70
     0
 43
0.0
 10
-2623.803529312499
 20
-6951.372436086005
 42
0.0120721047703132
 10
-2623.872512002537
 20
-6949.638547947261
 42
0.044358077361292
 10
-2624.26813973721
 20
-6946.942747928844
 42
0.0188067511131767
 10
-2626.287963185593
 20
-6939.700518753538
 42
0.0457786284636091
 10
-2627.495986075209
 20
-6936.851908370657
 42
0.0295006114745606
 10
-2629.912046529508
 20
-6932.925009157256
 42
0.0094449184784486
 10
-2631.042712970028
 20
-6931.372436086005
 42
0.0094449184784486
  0
LWPOLYLINE
  5
6E2
330
1F
100
AcDbEntity
  8
STAVBA OBRYS
370
    20
100
AcDbPolyline
 90
        3
 70
     0
 43
0.0
 10
-2630.711897311684
 20
-6944.87326651675
 10
-2610.715644879691
 20
-6935.65723746623
 10
-2606.715707245977
 20
-6935.011839990888
  0
LINE
  5
6E3
330
1F
100
AcDbEntity
  8
nášlap_vrstvy
100
AcDbLine
 10
-2633.436740417913
 20
-6956.91974040152
 30
0.0
 11
-2633.436740417913
 21
-6952.581251375573
 31
0.0
  0
LINE
  5
6E4
330
1F
100
AcDbEntity
  8
SPOJOVACÍ
  6
DASHED
100
AcDbLine
 10
-2667.825753651319
 20
-6975.791648576803
 30
0.0
 11
-2663.862237378918
 21
-6977.124367249811
 31
0.0
  0
LINE
  5
6E5
330
1F
100
AcDbEntity
  8
SPOJOVACÍ
  6
DASHED
100
AcDbLine
 10
-2667.825753651319
 20
-6976.375966408255
 30
0.0
 11
-2663.862237378918
 21
-6977.708685081255
 31
0.0
  0
LINE
  5
6E6
330
1F
100
AcDbEntity
  8
SPOJOVACÍ
  6
DASHED
100
AcDbLine
 10
-2668.195851999124
 20
-6976.161746922469
 30
0.0
 11
-2663.492139035391
 21
-6977.337675163401
 31
0.0
  0
LINE
  5
6E7
330
1F
100
AcDbEntity
  8
SPOJOVACÍ
  6
DASHED
100
AcDbLine
 10
-2667.166686894859
 20
-6976.583804887922
 30
0.0
 11
-2667.166686894859
 21
-6979.061458344533
 31
0.0
  0
LINE
  5
6E8
330
1F
100
AcDbEntity
  8
SPOJOVACÍ
  6
DASHED
100
AcDbLine
 10
-2665.093771531326
 20
-6988.512639742357
 30
0.0
 11
-2664.832150285095
 21
-6986.418758215561
 31
0.0
  0
LINE
  5
6E9
330
1F
100
AcDbEntity
  8
SPOJOVACÍ
  6
DASHED
100
AcDbLine
 10
-2666.944263257515
 20
-6985.709554981823
 30
0.0
 11
-2666.659852704986
 21
-6987.984839392166
 31
0.0
  0
LINE
  5
6EA
330
1F
100
AcDbEntity
  8
SPOJOVACÍ
  6
DASHED
100
AcDbLine
 10
-2666.840344016345
 20
-6991.200866395733
 30
0.0
 11
-2664.729142617717
 21
-6991.505331537192
 31
0.0
  0
LINE
  5
6EB
330
1F
100
AcDbEntity
  8
SPOJOVACÍ
  6
DASHED
100
AcDbLine
 10
-2666.470245672818
 20
-6990.830768050066
 30
0.0
 11
-2665.099240961244
 21
-6991.2920236236
 31
0.0
  0
LINE
  5
6EC
330
1F
100
AcDbEntity
  8
SPOJOVACÍ
  6
DASHED
100
AcDbLine
 10
-2666.470245672818
 20
-6991.415085881512
 30
0.0
 11
-2665.099240961244
 21
-6991.876341455045
 31
0.0
  0
LINE
  5
6ED
330
1F
100
AcDbEntity
  8
SPOJOVACÍ
  6
DASHED
100
AcDbLine
 10
-2664.729142617717
 20
-6991.505331537192
 30
0.0
 11
-2665.099240961244
 21
-6991.2920236236
 31
0.0
  0
LINE
  5
6EE
330
1F
100
AcDbEntity
  8
SPOJOVACÍ
  6
DASHED
100
AcDbLine
 10
-2664.729142617717
 20
-6991.505331537192
 30
0.0
 11
-2665.099240961244
 21
-6991.876341455045
 31
0.0
  0
LINE
  5
6EF
330
1F
100
AcDbEntity
  8
SPOJOVACÍ
  6
DASHED
100
AcDbLine
 10
-2666.840344016345
 20
-6991.200866395733
 30
0.0
 11
-2666.470245672818
 21
-6990.830768050066
 31
0.0
  0
LINE
  5
6F0
330
1F
100
AcDbEntity
  8
SPOJOVACÍ
  6
DASHED
100
AcDbLine
 10
-2666.840344016345
 20
-6991.200866395733
 30
0.0
 11
-2666.470245672818
 21
-6991.415085881512
 31
0.0
  0
LINE
  5
6F1
330
1F
100
AcDbEntity
  8
SPOJOVACÍ
  6
DASHED
100
AcDbLine
 10
-2667.393668392607
 20
-6988.24737220898
 30
0.0
 11
-2664.339901254504
 21
-6988.868152931414
 31
0.0
  0
LINE
  5
6F2
330
1F
100
AcDbEntity
  8
SPOJOVACÍ
  6
DASHED
100
AcDbLine
 10
-2667.023570044802
 20
-6987.876362290855
 30
0.0
 11
-2664.709999598031
 21
-6988.654845018086
 31
0.0
  0
LINE
  5
6F3
330
1F
100
AcDbEntity
  8
SPOJOVACÍ
  6
DASHED
100
AcDbLine
 10
-2667.023570044802
 20
-6988.460680122307
 30
0.0
 11
-2664.709999598031
 21
-6989.239162849267
 31
0.0
  0
LINE
  5
6F4
330
1F
100
AcDbEntity
  8
SPOJOVACÍ
  6
DASHED
100
AcDbLine
 10
-2664.339901254504
 20
-6988.868152931414
 30
0.0
 11
-2664.709999598031
 21
-6988.654845018086
 31
0.0
  0
LINE
  5
6F5
330
1F
100
AcDbEntity
  8
SPOJOVACÍ
  6
DASHED
100
AcDbLine
 10
-2664.339901254504
 20
-6988.868152931414
 30
0.0
 11
-2664.709999598031
 21
-6989.239162849267
 31
0.0
  0
LINE
  5
6F6
330
1F
100
AcDbEntity
  8
SPOJOVACÍ
  6
DASHED
100
AcDbLine
 10
-2667.393668392607
 20
-6988.24737220898
 30
0.0
 11
-2667.023570044802
 21
-6987.876362290855
 31
0.0
  0
LINE
  5
6F7
330
1F
100
AcDbEntity
  8
SPOJOVACÍ
  6
DASHED
100
AcDbLine
 10
-2667.393668392607
 20
-6988.24737220898
 30
0.0
 11
-2667.023570044802
 21
-6988.460680122307
 31
0.0
  0
LINE
  5
6F8
330
1F
100
AcDbEntity
  8
SPOJOVACÍ
  6
DASHED
100
AcDbLine
 10
-2665.426495409272
 20
-6991.175342371803
 30
0.0
 11
-2665.163962593527
 21
-6989.073256694517
 31
0.0
  0
LINE
  5
6F9
330
1F
100
AcDbEntity
  8
SPOJOVACÍ
  6
DASHED
370
    20
100
AcDbLine
 10
-2666.222298012078
 20
-6991.485276946922
 30
0.0
 11
-2665.843995517257
 21
-6994.512608488371
 31
0.0
  0
LINE
  5
6FA
330
1F
100
AcDbEntity
  8
SPOJOVACÍ
  6
DASHED
100
AcDbLine
 10
-2666.582369061004
 20
-6988.602885398037
 30
0.0
 11
-2666.297958512753
 21
-6990.877258236185
 31
0.0
  0
LINE
  5
6FB
330
1F
100
AcDbEntity
  8
SPOJOVACÍ
  6
DASHED
370
    20
100
AcDbLine
 10
-2665.843995517257
 20
-6994.512608488371
 30
0.0
 11
-2665.496686475751
 21
-6991.733224607127
 31
0.0
  0
LINE
  5
6FC
330
1F
100
AcDbEntity
  8
SPOJOVACÍ
  6
DASHED
100
AcDbLine
 10
-2667.825753651319
 20
-6981.906475429976
 30
0.0
 11
-2663.862237378918
 21
-6983.239194103247
 31
0.0
  0
LINE
  5
6FD
330
1F
100
AcDbEntity
  8
SPOJOVACÍ
  6
DASHED
100
AcDbLine
 10
-2667.825753651319
 20
-6982.490793261428
 30
0.0
 11
-2663.862237378918
 21
-6983.823511934699
 31
0.0
  0
LINE
  5
6FE
330
1F
100
AcDbEntity
  8
SPOJOVACÍ
  6
DASHED
100
AcDbLine
 10
-2668.195851999124
 20
-6982.277485348101
 30
0.0
 11
-2663.492139035391
 21
-6983.453413589034
 31
0.0
  0
LINE
  5
6FF
330
1F
100
AcDbEntity
  8
SPOJOVACÍ
  6
DASHED
100
AcDbLine
 10
-2667.825753651319
 20
-6978.849062003394
 30
0.0
 11
-2663.862237378918
 21
-6980.181780676665
 31
0.0
  0
LINE
  5
700
330
1F
100
AcDbEntity
  8
SPOJOVACÍ
  6
DASHED
100
AcDbLine
 10
-2667.825753651319
 20
-6979.433379834837
 30
0.0
 11
-2663.862237378918
 21
-6980.766098507846
 31
0.0
  0
LINE
  5
701
330
1F
100
AcDbEntity
  8
SPOJOVACÍ
  6
DASHED
100
AcDbLine
 10
-2668.195851999124
 20
-6979.219160349059
 30
0.0
 11
-2663.492139035391
 21
-6980.395088589992
 31
0.0
  0
LINE
  5
702
330
1F
100
AcDbEntity
  8
SPOJOVACÍ
  6
DASHED
100
AcDbLine
 10
-2667.946992764591
 20
-6985.292966449768
 30
0.0
 11
-2663.904169704903
 21
-6986.246471054426
 31
0.0
  0
LINE
  5
703
330
1F
100
AcDbEntity
  8
SPOJOVACÍ
  6
DASHED
100
AcDbLine
 10
-2663.904169704903
 20
-6986.246471054426
 30
0.0
 11
-2664.274268048429
 21
-6986.033163141098
 31
0.0
  0
LINE
  5
704
330
1F
100
AcDbEntity
  8
SPOJOVACÍ
  6
DASHED
100
AcDbLine
 10
-2663.904169704903
 20
-6986.246471054426
 30
0.0
 11
-2664.274268048429
 21
-6986.617480972551
 31
0.0
  0
LINE
  5
705
330
1F
100
AcDbEntity
  8
SPOJOVACÍ
  6
DASHED
100
AcDbLine
 10
-2668.195851999124
 20
-6982.277485348101
 30
0.0
 11
-2667.825753651319
 21
-6981.906475429976
 31
0.0
  0
LINE
  5
706
330
1F
100
AcDbEntity
  8
SPOJOVACÍ
  6
DASHED
100
AcDbLine
 10
-2668.195851999124
 20
-6982.277485348101
 30
0.0
 11
-2667.825753651319
 21
-6982.490793261428
 31
0.0
  0
LINE
  5
707
330
1F
100
AcDbEntity
  8
SPOJOVACÍ
  6
DASHED
100
AcDbLine
 10
-2668.195851999124
 20
-6979.219160349059
 30
0.0
 11
-2667.825753651319
 21
-6978.849062003394
 31
0.0
  0
LINE
  5
708
330
1F
100
AcDbEntity
  8
SPOJOVACÍ
  6
DASHED
100
AcDbLine
 10
-2668.195851999124
 20
-6979.219160349059
 30
0.0
 11
-2667.825753651319
 21
-6979.433379834837
 31
0.0
  0
LINE
  5
709
330
1F
100
AcDbEntity
  8
SPOJOVACÍ
  6
DASHED
100
AcDbLine
 10
-2667.575982847272
 20
-6984.922868104103
 30
0.0
 11
-2664.274268048429
 21
-6986.033163141098
 31
0.0
  0
LINE
  5
70A
330
1F
100
AcDbEntity
  8
SPOJOVACÍ
  6
DASHED
100
AcDbLine
 10
-2667.575982847272
 20
-6985.507185935555
 30
0.0
 11
-2664.274268048429
 21
-6986.617480972551
 31
0.0
  0
LINE
  5
70B
330
1F
100
AcDbEntity
  8
SPOJOVACÍ
  6
DASHED
100
AcDbLine
 10
-2667.946992764591
 20
-6985.292966449768
 30
0.0
 11
-2667.575982847272
 21
-6984.922868104103
 31
0.0
  0
LINE
  5
70C
330
1F
100
AcDbEntity
  8
SPOJOVACÍ
  6
DASHED
100
AcDbLine
 10
-2667.946992764591
 20
-6985.292966449768
 30
0.0
 11
-2667.575982847272
 21
-6985.507185935555
 31
0.0
  0
LINE
  5
70D
330
1F
100
AcDbEntity
  8
SPOJOVACÍ
  6
DASHED
100
AcDbLine
 10
-2664.761959218616
 20
-6985.859964407777
 30
0.0
 11
-2664.521304135377
 21
-6983.928342746716
 31
0.0
  0
LINE
  5
70E
330
1F
100
AcDbEntity
  8
SPOJOVACÍ
  6
DASHED
100
AcDbLine
 10
-2667.166686894859
 20
-6983.928342746716
 30
0.0
 11
-2667.01992375819
 21
-6985.101536271087
 31
0.0
  0
LINE
  5
70F
330
1F
100
AcDbEntity
  8
SPOJOVACÍ
  6
DASHED
100
AcDbLine
 10
-2664.521304135377
 20
-6983.59835358159
 30
0.0
 11
-2664.521304135377
 21
-6983.928342746716
 31
0.0
  0
LINE
  5
710
330
1F
100
AcDbEntity
  8
SPOJOVACÍ
  6
DASHED
100
AcDbLine
 10
-2664.521304135377
 20
-6980.538205437909
 30
0.0
 11
-2664.521304135377
 21
-6983.006743171838
 31
0.0
  0
LINE
  5
711
330
1F
100
AcDbEntity
  8
SPOJOVACÍ
  6
DASHED
100
AcDbLine
 10
-2667.166686894859
 20
-6982.705924319666
 30
0.0
 11
-2667.166686894859
 21
-6983.928342746716
 31
0.0
  0
LINE
  5
712
330
1F
100
AcDbEntity
  8
SPOJOVACÍ
  6
DASHED
100
AcDbLine
 10
-2667.166686894859
 20
-6979.653980326474
 30
0.0
 11
-2667.166686894859
 21
-6982.121606488213
 31
0.0
  0
LINE
  5
713
330
1F
100
AcDbEntity
  8
SPOJOVACÍ
  6
DASHED
100
AcDbLine
 10
-2664.521304135377
 20
-6977.478968866681
 30
0.0
 11
-2664.521304135377
 21
-6979.949329745256
 31
0.0
  0
LINE
  5
714
330
1F
100
AcDbEntity
  8
SPOJOVACÍ
  6
DASHED
100
AcDbLine
 10
-2663.492139035391
 20
-6983.453413589034
 30
0.0
 11
-2663.862237378918
 21
-6983.239194103247
 31
0.0
  0
LINE
  5
715
330
1F
100
AcDbEntity
  8
SPOJOVACÍ
  6
DASHED
100
AcDbLine
 10
-2663.492139035391
 20
-6983.453413589034
 30
0.0
 11
-2663.862237378918
 21
-6983.823511934699
 31
0.0
  0
LINE
  5
716
330
1F
100
AcDbEntity
  8
SPOJOVACÍ
  6
DASHED
100
AcDbLine
 10
-2663.492139035391
 20
-6980.395088589992
 30
0.0
 11
-2663.862237378918
 21
-6980.181780676665
 31
0.0
  0
LINE
  5
717
330
1F
100
AcDbEntity
  8
SPOJOVACÍ
  6
DASHED
100
AcDbLine
 10
-2663.492139035391
 20
-6980.395088589992
 30
0.0
 11
-2663.862237378918
 21
-6980.766098507846
 31
0.0
  0
LINE
  5
718
330
1F
100
AcDbEntity
  8
SPOJOVACÍ
  6
DASHED
100
AcDbLine
 10
-2663.492139035391
 20
-6977.337675163401
 30
0.0
 11
-2663.862237378918
 21
-6977.124367249811
 31
0.0
  0
LINE
  5
719
330
1F
100
AcDbEntity
  8
SPOJOVACÍ
  6
DASHED
100
AcDbLine
 10
-2663.492139035391
 20
-6977.337675163401
 30
0.0
 11
-2663.862237378918
 21
-6977.708685081255
 31
0.0
  0
LINE
  5
71A
330
1F
100
AcDbEntity
  8
SPOJOVACÍ
  6
DASHED
100
AcDbLine
 10
-2667.166686894859
 20
-6965.930259653045
 30
0.0
 11
-2667.166686894859
 21
-6969.887394920132
 31
0.0
  0
LINE
  5
71B
330
1F
100
AcDbEntity
  8
SPOJOVACÍ
  6
DASHED
100
AcDbLine
 10
-2664.521304135377
 20
-6965.930259653045
 30
0.0
 11
-2664.521304135377
 21
-6970.774354748396
 31
0.0
  0
LINE
  5
71C
330
1F
100
AcDbEntity
  8
SPOJOVACÍ
  6
DASHED
100
AcDbLine
 10
-2667.825753651319
 20
-6972.73423514995
 30
0.0
 11
-2663.862237378918
 21
-6974.066042251035
 31
0.0
  0
LINE
  5
71D
330
1F
100
AcDbEntity
  8
SPOJOVACÍ
  6
DASHED
100
AcDbLine
 10
-2667.825753651319
 20
-6973.318552981402
 30
0.0
 11
-2663.862237378918
 21
-6974.650360082215
 31
0.0
  0
LINE
  5
71E
330
1F
100
AcDbEntity
  8
SPOJOVACÍ
  6
DASHED
100
AcDbLine
 10
-2668.195851999124
 20
-6973.104333495616
 30
0.0
 11
-2663.492139035391
 21
-6974.28026173682
 31
0.0
  0
LINE
  5
71F
330
1F
100
AcDbEntity
  8
SPOJOVACÍ
  6
DASHED
100
AcDbLine
 10
-2667.825753651319
 20
-6969.67591015118
 30
0.0
 11
-2663.862237378918
 21
-6971.008628824179
 31
0.0
  0
LINE
  5
720
330
1F
100
AcDbEntity
  8
SPOJOVACÍ
  6
DASHED
100
AcDbLine
 10
-2667.825753651319
 20
-6970.260227982361
 30
0.0
 11
-2663.862237378918
 21
-6971.592946655632
 31
0.0
  0
LINE
  5
721
330
1F
100
AcDbEntity
  8
SPOJOVACÍ
  6
DASHED
100
AcDbLine
 10
-2668.195851999124
 20
-6970.046920069034
 30
0.0
 11
-2663.492139035391
 21
-6971.222848309967
 31
0.0
  0
LINE
  5
722
330
1F
100
AcDbEntity
  8
SPOJOVACÍ
  6
DASHED
100
AcDbLine
 10
-2668.195851999124
 20
-6976.161746922469
 30
0.0
 11
-2667.825753651319
 21
-6975.791648576803
 31
0.0
  0
LINE
  5
723
330
1F
100
AcDbEntity
  8
SPOJOVACÍ
  6
DASHED
100
AcDbLine
 10
-2668.195851999124
 20
-6976.161746922469
 30
0.0
 11
-2667.825753651319
 21
-6976.375966408255
 31
0.0
  0
LINE
  5
724
330
1F
100
AcDbEntity
  8
SPOJOVACÍ
  6
DASHED
100
AcDbLine
 10
-2668.195851999124
 20
-6973.104333495616
 30
0.0
 11
-2667.825753651319
 21
-6972.73423514995
 31
0.0
  0
LINE
  5
725
330
1F
100
AcDbEntity
  8
SPOJOVACÍ
  6
DASHED
100
AcDbLine
 10
-2668.195851999124
 20
-6973.104333495616
 30
0.0
 11
-2667.825753651319
 21
-6973.318552981402
 31
0.0
  0
LINE
  5
726
330
1F
100
AcDbEntity
  8
SPOJOVACÍ
  6
DASHED
100
AcDbLine
 10
-2668.195851999124
 20
-6970.046920069034
 30
0.0
 11
-2667.825753651319
 21
-6969.67591015118
 31
0.0
  0
LINE
  5
727
330
1F
100
AcDbEntity
  8
SPOJOVACÍ
  6
DASHED
100
AcDbLine
 10
-2668.195851999124
 20
-6970.046920069034
 30
0.0
 11
-2667.825753651319
 21
-6970.260227982361
 31
0.0
  0
LINE
  5
728
330
1F
100
AcDbEntity
  8
SPOJOVACÍ
  6
DASHED
100
AcDbLine
 10
-2664.521304135377
 20
-6974.418820723264
 30
0.0
 11
-2664.521304135377
 21
-6976.896474179875
 31
0.0
  0
LINE
  5
729
330
1F
100
AcDbEntity
  8
SPOJOVACÍ
  6
DASHED
100
AcDbLine
 10
-2664.521304135377
 20
-6971.365965157883
 30
0.0
 11
-2664.521304135377
 21
-6973.834502891811
 31
0.0
  0
LINE
  5
72A
330
1F
100
AcDbEntity
  8
SPOJOVACÍ
  6
DASHED
100
AcDbLine
 10
-2667.166686894859
 20
-6973.530949322541
 30
0.0
 11
-2667.166686894859
 21
-6976.001310201116
 31
0.0
  0
LINE
  5
72B
330
1F
100
AcDbEntity
  8
SPOJOVACÍ
  6
DASHED
100
AcDbLine
 10
-2667.166686894859
 20
-6970.470801179124
 30
0.0
 11
-2667.166686894859
 21
-6972.939338913054
 31
0.0
  0
LINE
  5
72C
330
1F
100
AcDbEntity
  8
SPOJOVACÍ
  6
DASHED
100
AcDbLine
 10
-2663.492139035391
 20
-6974.28026173682
 30
0.0
 11
-2663.862237378918
 21
-6974.066042251035
 31
0.0
  0
LINE
  5
72D
330
1F
100
AcDbEntity
  8
SPOJOVACÍ
  6
DASHED
100
AcDbLine
 10
-2663.492139035391
 20
-6974.28026173682
 30
0.0
 11
-2663.862237378918
 21
-6974.650360082215
 31
0.0
  0
LINE
  5
72E
330
1F
100
AcDbEntity
  8
SPOJOVACÍ
  6
DASHED
100
AcDbLine
 10
-2663.492139035391
 20
-6971.222848309967
 30
0.0
 11
-2663.862237378918
 21
-6971.008628824179
 31
0.0
  0
LINE
  5
72F
330
1F
100
AcDbEntity
  8
SPOJOVACÍ
  6
DASHED
100
AcDbLine
 10
-2663.492139035391
 20
-6971.222848309967
 30
0.0
 11
-2663.862237378918
 21
-6971.592946655632
 31
0.0
  0
LINE
  5
730
330
1F
100
AcDbEntity
  8
SPOJOVACÍ
  6
DASHED
100
AcDbLine
 10
-2670.842146328118
 20
-6960.638582568576
 30
0.0
 11
-2660.845844706396
 21
-6960.638582568576
 31
0.0
  0
LINE
  5
731
330
1F
100
AcDbEntity
  8
SPOJOVACÍ
  6
DASHED
100
AcDbLine
 10
-2670.842146328118
 20
-6959.462654327379
 30
0.0
 11
-2660.845844706396
 21
-6959.462654327379
 31
0.0
  0
LINE
  5
732
330
1F
100
AcDbEntity
  8
SPOJOVACÍ
  6
DASHED
100
AcDbLine
 10
-2664.298880502312
 20
-6964.437104258684
 30
0.0
 11
-2663.698154370147
 21
-6963.051514393176
 31
0.0
  0
LINE
  5
733
330
1F
100
AcDbEntity
  8
SPOJOVACÍ
  6
DASHED
100
AcDbLine
 10
-2670.842146328118
 20
-6960.638582568576
 30
0.0
 11
-2669.519454946239
 21
-6961.36784039232
 31
0.0
  0
LINE
  5
734
330
1F
100
AcDbEntity
  8
SPOJOVACÍ
  6
DASHED
100
AcDbLine
 10
-2669.519454946239
 20
-6961.36784039232
 30
0.0
 11
-2668.431037643888
 21
-6962.415236941945
 31
0.0
  0
LINE
  5
735
330
1F
100
AcDbEntity
  8
SPOJOVACÍ
  6
DASHED
100
AcDbLine
 10
-2668.431037643888
 20
-6962.415236941945
 30
0.0
 11
-2667.650731774156
 21
-6963.707846434676
 31
0.0
  0
LINE
  5
736
330
1F
100
AcDbEntity
  8
SPOJOVACÍ
  6
DASHED
100
AcDbLine
 10
-2667.650731774156
 20
-6963.707846434676
 30
0.0
 11
-2667.231408527142
 21
-6965.159069504385
 31
0.0
  0
LINE
  5
737
330
1F
100
AcDbEntity
  8
SPOJOVACÍ
  6
DASHED
100
AcDbLine
 10
-2667.231408527142
 20
-6965.159069504385
 30
0.0
 11
-2667.166686894859
 21
-6965.930259653045
 31
0.0
  0
LINE
  5
738
330
1F
100
AcDbEntity
  8
SPOJOVACÍ
  6
DASHED
100
AcDbLine
 10
-2670.842146328118
 20
-6959.462654327379
 30
0.0
 11
-2670.842146328118
 21
-6960.638582568576
 31
0.0
  0
LINE
  5
739
330
1F
100
AcDbEntity
  8
SPOJOVACÍ
  6
DASHED
100
AcDbLine
 10
-2664.521304135377
 20
-6965.930259653045
 30
0.0
 11
-2664.298880502312
 21
-6964.437104258684
 31
0.0
  0
LINE
  5
73A
330
1F
100
AcDbEntity
  8
SPOJOVACÍ
  6
DASHED
100
AcDbLine
 10
-2662.759234921562
 20
-6961.868293573934
 30
0.0
 11
-2661.54684378884
 21
-6960.968571733701
 31
0.0
  0
LINE
  5
73B
330
1F
100
AcDbEntity
  8
SPOJOVACÍ
  6
DASHED
100
AcDbLine
 10
-2661.54684378884
 20
-6960.968571733701
 30
0.0
 11
-2660.845844706396
 21
-6960.638582568576
 31
0.0
  0
LINE
  5
73C
330
1F
100
AcDbEntity
  8
SPOJOVACÍ
  6
DASHED
100
AcDbLine
 10
-2660.845844706396
 20
-6959.462654327379
 30
0.0
 11
-2660.845844706396
 21
-6960.638582568576
 31
0.0
  0
LINE
  5
73D
330
1F
100
AcDbEntity
  8
SPOJOVACÍ
  6
DASHED
100
AcDbLine
 10
-2663.698154370147
 20
-6963.051514393176
 30
0.0
 11
-2662.759234921562
 21
-6961.868293573934
 31
0.0
  0
LWPOLYLINE
  5
73E
330
1F
100
AcDbEntity
  8
STAVBA OBRYS
370
    20
100
AcDbPolyline
 90
        7
 70
     0
 43
0.0
 10
-2628.92197193823
 20
-6974.742638686618
 42
-0.0203924744732807
 10
-2629.824055922639
 20
-6975.755768715771
 42
-0.0273961979096945
 10
-2630.673920272834
 20
-6976.543945089797
 42
-0.0243529190212958
 10
-2631.837040765254
 20
-6977.417704434465
 42
-0.0398020282482987
 10
-2632.611999302814
 20
-6977.857333177912
 42
-0.104168275620852
 10
-2632.998410439154
 20
-6977.947349638089
 42
-0.007272956268647
 10
-2633.436740417913
 20
-6977.965802989384
 42
-0.007272956268647
  0
INSERT
  5
73F
330
1F
100
AcDbEntity
  8
POPIS
100
AcDbBlockReference
  2
E_PUNKT
 10
-2640.957915175476
 20
-6987.799156655147
 30
0.0
 50
270.0
  0
LINE
  5
740
330
1F
100
AcDbEntity
  8
STAVBA OBRYS
100
AcDbLine
 10
-2633.436740417913
 20
-6959.462654327379
 30
0.0
 11
-2648.436740417913
 21
-6959.462654327379
 31
0.0
  0
LINE
  5
741
330
1F
100
AcDbEntity
  8
izolace
100
AcDbLine
 10
-2632.43674041791
 20
-6970.638869835446
 30
0.0
 11
-2632.436740417913
 21
-6960.411357759683
 31
0.0
  0
LINE
  5
742
330
1F
100
AcDbEntity
  8
izolace
100
AcDbLine
 10
-2630.936740417913
 20
-6970.638869835446
 30
0.0
 11
-2630.936740417913
 21
-6961.708181168496
 31
0.0
  0
LINE
  5
743
330
1F
100
AcDbEntity
  8
izolace
100
AcDbLine
 10
-2632.43674041791
 20
-6970.638869835446
 30
0.0
 11
-2630.936740417913
 21
-6970.638869835446
 31
0.0
  0
LINE
  5
744
330
1F
100
AcDbEntity
  8
STAVBA OBRYS
100
AcDbLine
 10
-2656.712872394633
 20
-6931.372436086005
 30
0.0
 11
-2658.712872394633
 21
-6933.372436086004
 31
0.0
  0
POLYLINE
  5
745
330
1F
100
AcDbEntity
  8
STAVBA OBRYS
370
    20
100
AcDb2dPolyline
 66
     1
 10
0.0
 20
0.0
 30
0.0
  0
VERTEX
  5
746
330
745
100
AcDbEntity
  8
STAVBA OBRYS
370
    20
100
AcDbVertex
100
AcDb2dVertex
 10
-2639.620366559694
 20
-6951.372436086003
 30
0.0
 42
0.0072417954699014
  0
VERTEX
  5
747
330
745
100
AcDbEntity
  8
STAVBA OBRYS
370
    20
100
AcDbVertex
100
AcDb2dVertex
 10
-2639.675936927538
 20
-6950.961030874728
 30
0.0
 42
0.0707158694326265
  0
VERTEX
  5
748
330
745
100
AcDbEntity
  8
STAVBA OBRYS
370
    20
100
AcDbVertex
100
AcDb2dVertex
 10
-2640.207063443958
 20
-6949.024927422136
 30
0.0
 42
0.033952657250207
  0
VERTEX
  5
749
330
745
100
AcDbEntity
  8
STAVBA OBRYS
370
    20
100
AcDbVertex
100
AcDb2dVertex
 10
-2642.455719283367
 20
-6944.671889696961
 30
0.0
 42
0.0571374688189033
  0
VERTEX
  5
74A
330
745
100
AcDbEntity
  8
STAVBA OBRYS
370
    20
100
AcDbVertex
100
AcDb2dVertex
 10
-2644.241876043219
 20
-6942.364965413275
 30
0.0
 42
0.0274923553235744
  0
VERTEX
  5
74B
330
745
100
AcDbEntity
  8
STAVBA OBRYS
370
    20
100
AcDbVertex
100
AcDb2dVertex
 10
-2646.839181773771
 20
-6939.97989009014
 30
0.0
 42
0.0255412025538677
  0
VERTEX
  5
74C
330
745
100
AcDbEntity
  8
STAVBA OBRYS
370
    20
100
AcDbVertex
100
AcDb2dVertex
 10
-2649.890611811482
 20
-6937.723176413121
 30
0.0
 42
0.0272796991712396
  0
VERTEX
  5
74D
330
745
100
AcDbEntity
  8
STAVBA OBRYS
370
    20
100
AcDbVertex
100
AcDb2dVertex
 10
-2654.003610964668
 20
-6935.306840531459
 30
0.0
 42
0.056967459841729
  0
VERTEX
  5
74E
330
745
100
AcDbEntity
  8
STAVBA OBRYS
370
    20
100
AcDbVertex
100
AcDb2dVertex
 10
-2656.144558245399
 20
-6934.49410469626
 30
0.0
 42
0.0373408083348504
  0
VERTEX
  5
74F
330
745
100
AcDbEntity
  8
STAVBA OBRYS
370
    20
100
AcDbVertex
100
AcDb2dVertex
 10
-2656.366912620873
 20
-6934.454939155308
 30
0.0
 42
0.0353857343953589
  0
VERTEX
  5
750
330
745
100
AcDbEntity
  8
STAVBA OBRYS
370
    20
100
AcDbVertex
100
AcDb2dVertex
 10
-2658.712872394633
 20
-6934.386974422583
 30
0.0
  0
SEQEND
  5
751
330
745
100
AcDbEntity
  8
STAVBA OBRYS
370
    20
  0
POLYLINE
  5
752
330
1F
100
AcDbEntity
  8
STAVBA OBRYS
370
    20
100
AcDb2dPolyline
 66
     1
 10
0.0
 20
0.0
 30
0.0
  0
VERTEX
  5
753
330
752
100
AcDbEntity
  8
STAVBA OBRYS
370
    20
100
AcDbVertex
100
AcDb2dVertex
 10
-2646.848417580432
 20
-6951.372436086003
 30
0.0
 42
0.0064239028828688
  0
VERTEX
  5
754
330
752
100
AcDbEntity
  8
STAVBA OBRYS
370
    20
100
AcDbVertex
100
AcDb2dVertex
 10
-2646.887286020613
 20
-6951.153322426653
 30
0.0
 42
0.0832048017309575
  0
VERTEX
  5
755
330
752
100
AcDbEntity
  8
STAVBA OBRYS
370
    20
100
AcDbVertex
100
AcDb2dVertex
 10
-2647.671468623295
 20
-6948.823108846998
 30
0.0
 42
0.0336767237692336
  0
VERTEX
  5
756
330
752
100
AcDbEntity
  8
STAVBA OBRYS
370
    20
100
AcDbVertex
100
AcDb2dVertex
 10
-2649.374285182216
 20
-6946.094834327538
 30
0.0
 42
0.0844635135812105
  0
VERTEX
  5
757
330
752
100
AcDbEntity
  8
STAVBA OBRYS
370
    20
100
AcDbVertex
100
AcDb2dVertex
 10
-2650.294094942109
 20
-6945.190412722543
 30
0.0
 42
0.0495829410719565
  0
VERTEX
  5
758
330
752
100
AcDbEntity
  8
STAVBA OBRYS
370
    20
100
AcDbVertex
100
AcDb2dVertex
 10
-2652.042773379463
 20
-6944.21376321523
 30
0.0
 42
0.0322692699774654
  0
VERTEX
  5
759
330
752
100
AcDbEntity
  8
STAVBA OBRYS
370
    20
100
AcDbVertex
100
AcDb2dVertex
 10
-2654.934127560554
 20
-6943.172239713828
 30
0.0
 42
0.0276160659512937
  0
VERTEX
  5
75A
330
752
100
AcDbEntity
  8
STAVBA OBRYS
370
    20
100
AcDbVertex
100
AcDb2dVertex
 10
-2655.789703998841
 20
-6942.975504284885
 30
0.0
 42
0.0399777644099327
  0
VERTEX
  5
75B
330
752
100
AcDbEntity
  8
STAVBA OBRYS
370
    20
100
AcDbVertex
100
AcDb2dVertex
 10
-2658.712872394633
 20
-6942.709098286371
 30
0.0
  0
SEQEND
  5
75C
330
752
100
AcDbEntity
  8
STAVBA OBRYS
370
    20
  0
LWPOLYLINE
  5
75D
330
1F
100
AcDbEntity
  8
STAVBA OBRYS
370
    20
100
AcDbPolyline
 90
        7
 70
     0
 43
0.0
 10
-2652.19810391495
 20
-6951.372436086005
 42
0.0203924744732807
 10
-2653.100187899358
 20
-6950.35930605685
 42
0.0273961979096945
 10
-2653.950052249554
 20
-6949.571129682825
 42
0.0243529190212958
 10
-2655.113172741974
 20
-6948.697370338158
 42
0.0398020282482987
 10
-2655.888131279534
 20
-6948.25774159471
 42
0.104168275620852
 10
-2656.274542415874
 20
-6948.167725134533
 42
0.0404981389143456
 10
-2658.712872394636
 20
-6948.227066308469
 42
0.007272956268647
  0
LINE
  5
75E
330
1F
100
AcDbEntity
  8
STAVBA OBRYS
100
AcDbLine
 10
-2658.712872394636
 20
-6951.372436086005
 30
0.0
 11
-2658.712872394633
 21
-6933.372436086004
 31
0.0
  0
INSERT
  5
75F
330
1F
100
AcDbEntity
  8
POPIS
100
AcDbBlockReference
  2
E_PUNKT
 10
-2631.836203377919
 20
-6937.847602756043
 30
0.0
 50
270.0
  0
LWPOLYLINE
  5
760
330
1F
100
AcDbEntity
  8
STAVBA OBRYS
370
    20
100
AcDbPolyline
 90
        8
 70
     0
 43
0.0
 10
-2632.670588536009
 20
-6951.372436086005
 42
0.0168162630274195
 10
-2632.805614115073
 20
-6949.681397933885
 42
0.0575155827655532
 10
-2633.485646395416
 20
-6946.581773273168
 42
0.0310289133982999
 10
-2636.488447740244
 20
-6939.336745748524
 42
0.0882970623535771
 10
-2638.125669660337
 20
-6937.096376697724
 42
0.0171636441953577
 10
-2640.939033722195
 20
-6934.582459342479
 42
0.0157521173632038
 10
-2644.177888559231
 20
-6932.050963289973
 42
0.0014948023799519
 10
-2645.110600406743
 20
-6931.372436086006
 42
0.0014948023799519
  0
LWPOLYLINE
  5
761
330
1F
100
AcDbEntity
  8
STAVBA OBRYS
370
    20
100
AcDbPolyline
 90
        3
 70
     0
 43
0.0
 10
-2650.004474936929
 20
-6945.855105390487
 10
-2633.249257317201
 20
-6937.471364522519
 10
-2627.160912380375
 20
-6931.372436086005
  0
LINE
  5
762
330
1F
100
AcDbEntity
  8
nášlap_vrstvy
100
AcDbLine
 10
-2603.436740417913
 20
-6952.581251375573
 30
0.0
 11
-2603.436740417913
 21
-6956.91974040152
 31
0.0
  0
LINE
  5
763
330
1F
100
AcDbEntity
  8
STAVBA OBRYS
  6
DASHED
100
AcDbLine
 10
-2619.083187930449
 20
-6955.503577478743
 30
0.0
 11
-2619.083187930449
 21
-6957.973938357318
 31
0.0
  0
LINE
  5
764
330
1F
100
AcDbEntity
  8
STAVBA OBRYS
  6
DASHED
100
AcDbLine
 10
-2616.437805170968
 20
-6954.608413499984
 30
0.0
 11
-2616.437805170968
 21
-6957.086066956596
 31
0.0
  0
LWPOLYLINE
  5
765
330
1F
100
AcDbEntity
  8
STAVBA OBRYS
370
    20
100
AcDbPolyline
 90
        3
 70
     0
 43
0.0
 10
-2626.728342960209
 20
-6980.259969382136
 10
-2609.973125340482
 20
-6988.643710250105
 10
-2603.884780403655
 20
-6994.742638686616
  0
INSERT
  5
766
330
1F
100
AcDbEntity
  8
POPIS
100
AcDbBlockReference
  2
E_PUNKT
 10
-2621.289026998048
 20
-6987.799156655147
 30
0.0
 50
270.0
  0
LWPOLYLINE
  5
767
330
1F
100
AcDbEntity
  8
STAVBA OBRYS
370
    20
100
AcDbPolyline
 90
        2
 70
     0
 43
0.0
 10
-2607.435765334964
 20
-6981.241808255872
 10
-2603.436740417913
 20
-6983.084910103814
  0
LINE
  5
768
330
1F
100
AcDbEntity
  8
izolace
  6
DASHED
100
AcDbLine
 10
-2616.210823673219
 20
-6966.271980821042
 30
0.0
 11
-2619.264590811322
 21
-6966.892761543476
 31
0.0
  0
LINE
  5
769
330
1F
100
AcDbEntity
  8
izolace
  6
DASHED
100
AcDbLine
 10
-2616.580922021024
 20
-6966.48528873437
 30
0.0
 11
-2618.894492467795
 21
-6967.26377146133
 31
0.0
  0
LINE
  5
76A
330
1F
100
AcDbEntity
  8
izolace
  6
DASHED
100
AcDbLine
 10
-2619.264590811322
 20
-6966.892761543476
 30
0.0
 11
-2618.894492467795
 21
-6966.679453630149
 31
0.0
  0
LINE
  5
76B
330
1F
100
AcDbEntity
  8
izolace
  6
DASHED
100
AcDbLine
 10
-2617.022123004822
 20
-6966.627494010099
 30
0.0
 11
-2617.306533553073
 21
-6968.901866848248
 31
0.0
  0
LINE
  5
76C
330
1F
100
AcDbEntity
  8
izolace
  6
DASHED
100
AcDbLine
 10
-2616.764148049481
 20
-6969.225475007795
 30
0.0
 11
-2618.875349448109
 21
-6969.529940149254
 31
0.0
  0
LINE
  5
76D
330
1F
100
AcDbEntity
  8
izolace
  6
DASHED
100
AcDbLine
 10
-2617.134246393008
 20
-6968.85537666213
 30
0.0
 11
-2618.505251104583
 21
-6969.316632235663
 31
0.0
  0
LINE
  5
76E
330
1F
100
AcDbEntity
  8
izolace
  6
DASHED
100
AcDbLine
 10
-2617.134246393008
 20
-6969.439694493575
 30
0.0
 11
-2618.505251104583
 21
-6969.900950067106
 31
0.0
  0
LINE
  5
76F
330
1F
100
AcDbEntity
  8
izolace
  6
DASHED
100
AcDbLine
 10
-2618.875349448109
 20
-6969.529940149254
 30
0.0
 11
-2618.505251104583
 21
-6969.316632235663
 31
0.0
  0
LINE
  5
770
330
1F
100
AcDbEntity
  8
izolace
  6
DASHED
100
AcDbLine
 10
-2618.875349448109
 20
-6969.529940149254
 30
0.0
 11
-2618.505251104583
 21
-6969.900950067106
 31
0.0
  0
LINE
  5
771
330
1F
100
AcDbEntity
  8
izolace
  6
DASHED
100
AcDbLine
 10
-2616.764148049481
 20
-6969.225475007795
 30
0.0
 11
-2617.134246393008
 21
-6968.85537666213
 31
0.0
  0
LINE
  5
772
330
1F
100
AcDbEntity
  8
izolace
  6
DASHED
100
AcDbLine
 10
-2616.764148049481
 20
-6969.225475007795
 30
0.0
 11
-2617.134246393008
 21
-6969.439694493575
 31
0.0
  0
LINE
  5
773
330
1F
100
AcDbEntity
  8
izolace
  6
DASHED
100
AcDbLine
 10
-2619.264590811322
 20
-6966.892761543476
 30
0.0
 11
-2618.894492467795
 21
-6967.26377146133
 31
0.0
  0
LINE
  5
774
330
1F
100
AcDbEntity
  8
izolace
  6
DASHED
100
AcDbLine
 10
-2618.177996656555
 20
-6969.199950983863
 30
0.0
 11
-2618.440529472299
 21
-6967.09786530658
 31
0.0
  0
LINE
  5
775
330
1F
100
AcDbEntity
  8
izolace
  6
DASHED
100
AcDbLine
 10
-2617.382194053748
 20
-6969.509885558984
 30
0.0
 11
-2617.760496548569
 21
-6972.537217100432
 31
0.0
  0
LINE
  5
776
330
1F
100
AcDbEntity
  8
izolace
  6
DASHED
100
AcDbLine
 10
-2617.760496548569
 20
-6972.537217100432
 30
0.0
 11
-2618.107805590076
 21
-6969.75783321919
 31
0.0
  0
LINE
  5
777
330
1F
100
AcDbEntity
  8
izolace
  6
DASHED
100
AcDbLine
 10
-2615.778738414508
 20
-6959.931084042039
 30
0.0
 11
-2619.742254686908
 21
-6961.263802715309
 31
0.0
  0
LINE
  5
778
330
1F
100
AcDbEntity
  8
izolace
  6
DASHED
100
AcDbLine
 10
-2615.778738414508
 20
-6960.51540187349
 30
0.0
 11
-2619.742254686908
 21
-6961.848120546761
 31
0.0
  0
LINE
  5
779
330
1F
100
AcDbEntity
  8
izolace
  6
DASHED
100
AcDbLine
 10
-2615.408640066703
 20
-6960.302093960163
 30
0.0
 11
-2620.112353030435
 21
-6961.478022201096
 31
0.0
  0
LINE
  5
77A
330
1F
100
AcDbEntity
  8
STAVBA OBRYS
  6
DASHED
100
AcDbLine
 10
-2615.778738414508
 20
-6956.873670615457
 30
0.0
 11
-2619.742254686908
 21
-6958.206389288728
 31
0.0
  0
LINE
  5
77B
330
1F
100
AcDbEntity
  8
STAVBA OBRYS
  6
DASHED
100
AcDbLine
 10
-2615.778738414508
 20
-6957.4579884469
 30
0.0
 11
-2619.742254686908
 21
-6958.790707119908
 31
0.0
  0
LINE
  5
77C
330
1F
100
AcDbEntity
  8
STAVBA OBRYS
  6
DASHED
100
AcDbLine
 10
-2615.408640066703
 20
-6957.243768961122
 30
0.0
 11
-2620.112353030435
 21
-6958.419697202055
 31
0.0
  0
LINE
  5
77D
330
1F
100
AcDbEntity
  8
izolace
  6
DASHED
100
AcDbLine
 10
-2615.657499301236
 20
-6963.317575061831
 30
0.0
 11
-2619.700322360924
 21
-6964.271079666488
 31
0.0
  0
LINE
  5
77E
330
1F
100
AcDbEntity
  8
izolace
  6
DASHED
100
AcDbLine
 10
-2619.700322360924
 20
-6964.271079666488
 30
0.0
 11
-2619.330224017398
 21
-6964.057771753161
 31
0.0
  0
LINE
  5
77F
330
1F
100
AcDbEntity
  8
izolace
  6
DASHED
100
AcDbLine
 10
-2619.700322360924
 20
-6964.271079666488
 30
0.0
 11
-2619.330224017398
 21
-6964.642089584613
 31
0.0
  0
LINE
  5
780
330
1F
100
AcDbEntity
  8
izolace
  6
DASHED
100
AcDbLine
 10
-2620.112353030435
 20
-6961.478022201096
 30
0.0
 11
-2619.742254686908
 21
-6961.263802715309
 31
0.0
  0
LINE
  5
781
330
1F
100
AcDbEntity
  8
izolace
  6
DASHED
100
AcDbLine
 10
-2620.112353030435
 20
-6961.478022201096
 30
0.0
 11
-2619.742254686908
 21
-6961.848120546761
 31
0.0
  0
LINE
  5
782
330
1F
100
AcDbEntity
  8
izolace
  6
DASHED
100
AcDbLine
 10
-2620.112353030435
 20
-6958.419697202055
 30
0.0
 11
-2619.742254686908
 21
-6958.206389288728
 31
0.0
  0
LINE
  5
783
330
1F
100
AcDbEntity
  8
izolace
  6
DASHED
100
AcDbLine
 10
-2620.112353030435
 20
-6958.419697202055
 30
0.0
 11
-2619.742254686908
 21
-6958.790707119908
 31
0.0
  0
LINE
  5
784
330
1F
100
AcDbEntity
  8
izolace
  6
DASHED
100
AcDbLine
 10
-2615.408640066703
 20
-6960.302093960163
 30
0.0
 11
-2615.778738414508
 21
-6959.931084042039
 31
0.0
  0
LINE
  5
785
330
1F
100
AcDbEntity
  8
izolace
  6
DASHED
100
AcDbLine
 10
-2615.408640066703
 20
-6960.302093960163
 30
0.0
 11
-2615.778738414508
 21
-6960.51540187349
 31
0.0
  0
LINE
  5
786
330
1F
100
AcDbEntity
  8
STAVBA OBRYS
  6
DASHED
100
AcDbLine
 10
-2615.408640066703
 20
-6957.243768961122
 30
0.0
 11
-2615.778738414508
 21
-6956.873670615457
 31
0.0
  0
LINE
  5
787
330
1F
100
AcDbEntity
  8
STAVBA OBRYS
  6
DASHED
100
AcDbLine
 10
-2615.408640066703
 20
-6957.243768961122
 30
0.0
 11
-2615.778738414508
 21
-6957.4579884469
 31
0.0
  0
LINE
  5
788
330
1F
100
AcDbEntity
  8
izolace
  6
DASHED
100
AcDbLine
 10
-2616.580922021024
 20
-6965.900970902918
 30
0.0
 11
-2618.894492467795
 21
-6966.679453630149
 31
0.0
  0
LINE
  5
789
330
1F
100
AcDbEntity
  8
izolace
  6
DASHED
100
AcDbLine
 10
-2616.210823673219
 20
-6966.271980821042
 30
0.0
 11
-2616.580922021024
 21
-6965.900970902918
 31
0.0
  0
LINE
  5
78A
330
1F
100
AcDbEntity
  8
izolace
  6
DASHED
100
AcDbLine
 10
-2616.210823673219
 20
-6966.271980821042
 30
0.0
 11
-2616.580922021024
 21
-6966.48528873437
 31
0.0
  0
LINE
  5
78B
330
1F
100
AcDbEntity
  8
izolace
  6
DASHED
100
AcDbLine
 10
-2616.028509218554
 20
-6962.947476716165
 30
0.0
 11
-2619.330224017398
 21
-6964.057771753161
 31
0.0
  0
LINE
  5
78C
330
1F
100
AcDbEntity
  8
izolace
  6
DASHED
100
AcDbLine
 10
-2616.028509218554
 20
-6963.531794547616
 30
0.0
 11
-2619.330224017398
 21
-6964.642089584613
 31
0.0
  0
LINE
  5
78D
330
1F
100
AcDbEntity
  8
izolace
  6
DASHED
100
AcDbLine
 10
-2615.657499301236
 20
-6963.317575061831
 30
0.0
 11
-2616.028509218554
 21
-6962.947476716165
 31
0.0
  0
LINE
  5
78E
330
1F
100
AcDbEntity
  8
izolace
  6
DASHED
100
AcDbLine
 10
-2615.657499301236
 20
-6963.317575061831
 30
0.0
 11
-2616.028509218554
 21
-6963.531794547616
 31
0.0
  0
LINE
  5
78F
330
1F
100
AcDbEntity
  8
izolace
  6
DASHED
100
AcDbLine
 10
-2618.84253284721
 20
-6963.884573019839
 30
0.0
 11
-2619.083187930449
 21
-6961.952951358779
 31
0.0
  0
LINE
  5
790
330
1F
100
AcDbEntity
  8
izolace
  6
DASHED
100
AcDbLine
 10
-2618.510720534501
 20
-6966.53724835442
 30
0.0
 11
-2618.772341780731
 21
-6964.443366827623
 31
0.0
  0
LINE
  5
791
330
1F
100
AcDbEntity
  8
izolace
  6
DASHED
100
AcDbLine
 10
-2616.660228808312
 20
-6963.734163593885
 30
0.0
 11
-2616.944639360841
 21
-6966.009448004228
 31
0.0
  0
LINE
  5
792
330
1F
100
AcDbEntity
  8
izolace
  6
DASHED
100
AcDbLine
 10
-2616.437805170968
 20
-6961.952951358779
 30
0.0
 11
-2616.584568307636
 21
-6963.126144883148
 31
0.0
  0
LINE
  5
793
330
1F
100
AcDbEntity
  8
izolace
  6
DASHED
100
AcDbLine
 10
-2619.083187930449
 20
-6961.622962193652
 30
0.0
 11
-2619.083187930449
 21
-6961.952951358779
 31
0.0
  0
LINE
  5
794
330
1F
100
AcDbEntity
  8
izolace
  6
DASHED
100
AcDbLine
 10
-2619.083187930449
 20
-6958.562814049972
 30
0.0
 11
-2619.083187930449
 21
-6961.0313517839
 31
0.0
  0
LINE
  5
795
330
1F
100
AcDbEntity
  8
izolace
  6
DASHED
100
AcDbLine
 10
-2616.437805170968
 20
-6960.730532931728
 30
0.0
 11
-2616.437805170968
 21
-6961.952951358779
 31
0.0
  0
LINE
  5
796
330
1F
100
AcDbEntity
  8
izolace
  6
DASHED
100
AcDbLine
 10
-2616.437805170968
 20
-6957.678588938536
 30
0.0
 11
-2616.437805170968
 21
-6960.146215100277
 31
0.0
  0
LINE
  5
797
330
1F
100
AcDbEntity
  8
izolace
100
AcDbLine
 10
-2605.936740417913
 20
-6970.638869835446
 30
0.0
 11
-2605.936740417917
 21
-6961.708181168496
 31
0.0
  0
LINE
  5
798
330
1F
100
AcDbEntity
  8
izolace
100
AcDbLine
 10
-2604.436740417916
 20
-6970.638869835446
 30
0.0
 11
-2604.436740417909
 21
-6960.411357759683
 31
0.0
  0
LINE
  5
799
330
1F
100
AcDbEntity
  8
izolace
100
AcDbLine
 10
-2604.436740417916
 20
-6970.638869835446
 30
0.0
 11
-2605.936740417913
 21
-6970.638869835446
 31
0.0
  0
INSERT
  5
79A
330
1F
100
AcDbEntity
  8
POPIS
100
AcDbBlockReference
  2
E_PUNKT
 10
-2605.687638091363
 20
-6961.379689482878
 30
0.0
 50
270.0
  0
LINE
  5
79B
330
1F
100
AcDbEntity
  8
SPOJOVACÍ
  6
DASHED
100
AcDbLine
 10
-2568.677628836703
 20
-6976.161746922469
 30
0.0
 11
-2573.381341800435
 21
-6977.337675163401
 31
0.0
  0
LINE
  5
79C
330
1F
100
AcDbEntity
  8
SPOJOVACÍ
  6
DASHED
100
AcDbLine
 10
-2569.706793940968
 20
-6976.583804887922
 30
0.0
 11
-2569.706793940968
 21
-6979.061458344533
 31
0.0
  0
LINE
  5
79D
330
1F
100
AcDbEntity
  8
SPOJOVACÍ
  6
DASHED
100
AcDbLine
 10
-2569.047727184508
 20
-6976.375966408255
 30
0.0
 11
-2573.011243456909
 21
-6977.708685081255
 31
0.0
  0
LINE
  5
79E
330
1F
100
AcDbEntity
  8
SPOJOVACÍ
  6
DASHED
100
AcDbLine
 10
-2569.047727184508
 20
-6975.791648576803
 30
0.0
 11
-2573.011243456909
 21
-6977.124367249811
 31
0.0
  0
LINE
  5
7AB
330
1F
100
AcDbEntity
  8
SPOJOVACÍ
  6
DASHED
100
AcDbLine
 10
-2569.929217578311
 20
-6985.709554981823
 30
0.0
 11
-2570.21362813084
 21
-6987.984839392166
 31
0.0
  0
LINE
  5
7AC
330
1F
100
AcDbEntity
  8
SPOJOVACÍ
  6
DASHED
100
AcDbLine
 10
-2571.7797093045
 20
-6988.512639742357
 30
0.0
 11
-2572.041330550731
 21
-6986.418758215561
 31
0.0
  0
LINE
  5
7AD
330
1F
100
AcDbEntity
  8
SPOJOVACÍ
  6
DASHED
100
AcDbLine
 10
-2571.029485318569
 20
-6994.512608488371
 30
0.0
 11
-2571.376794360075
 21
-6991.733224607127
 31
0.0
  0
LINE
  5
7AE
330
1F
100
AcDbEntity
  8
SPOJOVACÍ
  6
DASHED
100
AcDbLine
 10
-2570.291111774822
 20
-6988.602885398037
 30
0.0
 11
-2570.575522323073
 21
-6990.877258236185
 31
0.0
  0
LINE
  5
7AF
330
1F
100
AcDbEntity
  8
SPOJOVACÍ
  6
DASHED
100
AcDbLine
 10
-2570.651182823748
 20
-6991.485276946922
 30
0.0
 11
-2571.029485318569
 21
-6994.512608488371
 31
0.0
  0
LINE
  5
7B0
330
1F
100
AcDbEntity
  8
SPOJOVACÍ
  6
DASHED
100
AcDbLine
 10
-2571.446985426554
 20
-6991.175342371803
 30
0.0
 11
-2571.709518242299
 21
-6989.073256694517
 31
0.0
  0
LINE
  5
7B1
330
1F
100
AcDbEntity
  8
SPOJOVACÍ
  6
DASHED
100
AcDbLine
 10
-2569.479812443219
 20
-6988.24737220898
 30
0.0
 11
-2569.849910791024
 21
-6988.460680122307
 31
0.0
  0
LINE
  5
7B2
330
1F
100
AcDbEntity
  8
SPOJOVACÍ
  6
DASHED
100
AcDbLine
 10
-2569.479812443219
 20
-6988.24737220898
 30
0.0
 11
-2569.849910791024
 21
-6987.876362290855
 31
0.0
  0
LINE
  5
7B3
330
1F
100
AcDbEntity
  8
SPOJOVACÍ
  6
DASHED
100
AcDbLine
 10
-2572.533579581322
 20
-6988.868152931414
 30
0.0
 11
-2572.163481237796
 21
-6989.239162849267
 31
0.0
  0
LINE
  5
7B4
330
1F
100
AcDbEntity
  8
SPOJOVACÍ
  6
DASHED
100
AcDbLine
 10
-2572.533579581322
 20
-6988.868152931414
 30
0.0
 11
-2572.163481237796
 21
-6988.654845018086
 31
0.0
  0
LINE
  5
7B5
330
1F
100
AcDbEntity
  8
SPOJOVACÍ
  6
DASHED
100
AcDbLine
 10
-2569.849910791024
 20
-6988.460680122307
 30
0.0
 11
-2572.163481237796
 21
-6989.239162849267
 31
0.0
  0
LINE
  5
7B6
330
1F
100
AcDbEntity
  8
SPOJOVACÍ
  6
DASHED
100
AcDbLine
 10
-2569.849910791024
 20
-6987.876362290855
 30
0.0
 11
-2572.163481237796
 21
-6988.654845018086
 31
0.0
  0
LINE
  5
7B7
330
1F
100
AcDbEntity
  8
SPOJOVACÍ
  6
DASHED
100
AcDbLine
 10
-2569.479812443219
 20
-6988.24737220898
 30
0.0
 11
-2572.533579581322
 21
-6988.868152931414
 31
0.0
  0
LINE
  5
7B8
330
1F
100
AcDbEntity
  8
SPOJOVACÍ
  6
DASHED
100
AcDbLine
 10
-2570.033136819481
 20
-6991.200866395733
 30
0.0
 11
-2570.403235163007
 21
-6991.415085881512
 31
0.0
  0
LINE
  5
7B9
330
1F
100
AcDbEntity
  8
SPOJOVACÍ
  6
DASHED
100
AcDbLine
 10
-2570.033136819481
 20
-6991.200866395733
 30
0.0
 11
-2570.403235163007
 21
-6990.830768050066
 31
0.0
  0
LINE
  5
7BA
330
1F
100
AcDbEntity
  8
SPOJOVACÍ
  6
DASHED
100
AcDbLine
 10
-2572.144338218109
 20
-6991.505331537192
 30
0.0
 11
-2571.774239874582
 21
-6991.876341455045
 31
0.0
  0
LINE
  5
7BB
330
1F
100
AcDbEntity
  8
SPOJOVACÍ
  6
DASHED
100
AcDbLine
 10
-2572.144338218109
 20
-6991.505331537192
 30
0.0
 11
-2571.774239874582
 21
-6991.2920236236
 31
0.0
  0
LINE
  5
7BC
330
1F
100
AcDbEntity
  8
SPOJOVACÍ
  6
DASHED
100
AcDbLine
 10
-2570.403235163007
 20
-6991.415085881512
 30
0.0
 11
-2571.774239874582
 21
-6991.876341455045
 31
0.0
  0
LINE
  5
7BD
330
1F
100
AcDbEntity
  8
SPOJOVACÍ
  6
DASHED
100
AcDbLine
 10
-2570.403235163007
 20
-6990.830768050066
 30
0.0
 11
-2571.774239874582
 21
-6991.2920236236
 31
0.0
  0
LINE
  5
7BE
330
1F
100
AcDbEntity
  8
SPOJOVACÍ
  6
DASHED
100
AcDbLine
 10
-2570.033136819481
 20
-6991.200866395733
 30
0.0
 11
-2572.144338218109
 21
-6991.505331537192
 31
0.0
  0
LINE
  5
7BF
330
1F
100
AcDbEntity
  8
SPOJOVACÍ
  6
DASHED
100
AcDbLine
 10
-2568.926488071236
 20
-6985.292966449768
 30
0.0
 11
-2569.297497988554
 21
-6985.507185935555
 31
0.0
  0
LINE
  5
7C0
330
1F
100
AcDbEntity
  8
SPOJOVACÍ
  6
DASHED
100
AcDbLine
 10
-2568.926488071236
 20
-6985.292966449768
 30
0.0
 11
-2569.297497988554
 21
-6984.922868104103
 31
0.0
  0
LINE
  5
7C1
330
1F
100
AcDbEntity
  8
SPOJOVACÍ
  6
DASHED
100
AcDbLine
 10
-2568.926488071236
 20
-6985.292966449768
 30
0.0
 11
-2572.969311130924
 21
-6986.246471054426
 31
0.0
  0
LINE
  5
7C2
330
1F
100
AcDbEntity
  8
SPOJOVACÍ
  6
DASHED
100
AcDbLine
 10
-2568.677628836703
 20
-6979.219160349059
 30
0.0
 11
-2573.381341800435
 21
-6980.395088589992
 31
0.0
  0
LINE
  5
7C3
330
1F
100
AcDbEntity
  8
SPOJOVACÍ
  6
DASHED
100
AcDbLine
 10
-2568.677628836703
 20
-6979.219160349059
 30
0.0
 11
-2569.047727184508
 21
-6979.433379834837
 31
0.0
  0
LINE
  5
7C4
330
1F
100
AcDbEntity
  8
SPOJOVACÍ
  6
DASHED
100
AcDbLine
 10
-2568.677628836703
 20
-6979.219160349059
 30
0.0
 11
-2569.047727184508
 21
-6978.849062003394
 31
0.0
  0
LINE
  5
7C5
330
1F
100
AcDbEntity
  8
SPOJOVACÍ
  6
DASHED
100
AcDbLine
 10
-2568.677628836703
 20
-6982.277485348101
 30
0.0
 11
-2573.381341800435
 21
-6983.453413589034
 31
0.0
  0
LINE
  5
7C6
330
1F
100
AcDbEntity
  8
SPOJOVACÍ
  6
DASHED
100
AcDbLine
 10
-2568.677628836703
 20
-6982.277485348101
 30
0.0
 11
-2569.047727184508
 21
-6982.490793261428
 31
0.0
  0
LINE
  5
7C7
330
1F
100
AcDbEntity
  8
SPOJOVACÍ
  6
DASHED
100
AcDbLine
 10
-2568.677628836703
 20
-6982.277485348101
 30
0.0
 11
-2569.047727184508
 21
-6981.906475429976
 31
0.0
  0
LINE
  5
7C8
330
1F
100
AcDbEntity
  8
SPOJOVACÍ
  6
DASHED
100
AcDbLine
 10
-2572.352176700449
 20
-6977.478968866681
 30
0.0
 11
-2572.352176700449
 21
-6979.949329745256
 31
0.0
  0
LINE
  5
7C9
330
1F
100
AcDbEntity
  8
SPOJOVACÍ
  6
DASHED
100
AcDbLine
 10
-2569.706793940968
 20
-6979.653980326474
 30
0.0
 11
-2569.706793940968
 21
-6982.121606488213
 31
0.0
  0
LINE
  5
7CA
330
1F
100
AcDbEntity
  8
SPOJOVACÍ
  6
DASHED
100
AcDbLine
 10
-2569.706793940968
 20
-6982.705924319666
 30
0.0
 11
-2569.706793940968
 21
-6983.928342746716
 31
0.0
  0
LINE
  5
7CB
330
1F
100
AcDbEntity
  8
SPOJOVACÍ
  6
DASHED
100
AcDbLine
 10
-2572.352176700449
 20
-6980.538205437909
 30
0.0
 11
-2572.352176700449
 21
-6983.006743171838
 31
0.0
  0
LINE
  5
7CC
330
1F
100
AcDbEntity
  8
SPOJOVACÍ
  6
DASHED
100
AcDbLine
 10
-2572.352176700449
 20
-6983.59835358159
 30
0.0
 11
-2572.352176700449
 21
-6983.928342746716
 31
0.0
  0
LINE
  5
7CD
330
1F
100
AcDbEntity
  8
SPOJOVACÍ
  6
DASHED
100
AcDbLine
 10
-2569.706793940968
 20
-6983.928342746716
 30
0.0
 11
-2569.853557077636
 21
-6985.101536271087
 31
0.0
  0
LINE
  5
7CE
330
1F
100
AcDbEntity
  8
SPOJOVACÍ
  6
DASHED
100
AcDbLine
 10
-2572.111521617211
 20
-6985.859964407777
 30
0.0
 11
-2572.352176700449
 21
-6983.928342746716
 31
0.0
  0
LINE
  5
7CF
330
1F
100
AcDbEntity
  8
SPOJOVACÍ
  6
DASHED
100
AcDbLine
 10
-2572.969311130924
 20
-6986.246471054426
 30
0.0
 11
-2572.599212787397
 21
-6986.617480972551
 31
0.0
  0
LINE
  5
7D0
330
1F
100
AcDbEntity
  8
SPOJOVACÍ
  6
DASHED
100
AcDbLine
 10
-2572.969311130924
 20
-6986.246471054426
 30
0.0
 11
-2572.599212787397
 21
-6986.033163141098
 31
0.0
  0
LINE
  5
7D1
330
1F
100
AcDbEntity
  8
SPOJOVACÍ
  6
DASHED
100
AcDbLine
 10
-2569.297497988554
 20
-6985.507185935555
 30
0.0
 11
-2572.599212787397
 21
-6986.617480972551
 31
0.0
  0
LINE
  5
7D2
330
1F
100
AcDbEntity
  8
SPOJOVACÍ
  6
DASHED
100
AcDbLine
 10
-2569.297497988554
 20
-6984.922868104103
 30
0.0
 11
-2572.599212787397
 21
-6986.033163141098
 31
0.0
  0
LINE
  5
7D3
330
1F
100
AcDbEntity
  8
SPOJOVACÍ
  6
DASHED
100
AcDbLine
 10
-2573.381341800435
 20
-6977.337675163401
 30
0.0
 11
-2573.011243456909
 21
-6977.708685081255
 31
0.0
  0
LINE
  5
7D4
330
1F
100
AcDbEntity
  8
SPOJOVACÍ
  6
DASHED
100
AcDbLine
 10
-2573.381341800435
 20
-6977.337675163401
 30
0.0
 11
-2573.011243456909
 21
-6977.124367249811
 31
0.0
  0
LINE
  5
7D5
330
1F
100
AcDbEntity
  8
SPOJOVACÍ
  6
DASHED
100
AcDbLine
 10
-2573.381341800435
 20
-6980.395088589992
 30
0.0
 11
-2573.011243456909
 21
-6980.766098507846
 31
0.0
  0
LINE
  5
7D6
330
1F
100
AcDbEntity
  8
SPOJOVACÍ
  6
DASHED
100
AcDbLine
 10
-2573.381341800435
 20
-6980.395088589992
 30
0.0
 11
-2573.011243456909
 21
-6980.181780676665
 31
0.0
  0
LINE
  5
7D7
330
1F
100
AcDbEntity
  8
SPOJOVACÍ
  6
DASHED
100
AcDbLine
 10
-2569.047727184508
 20
-6979.433379834837
 30
0.0
 11
-2573.011243456909
 21
-6980.766098507846
 31
0.0
  0
LINE
  5
7D8
330
1F
100
AcDbEntity
  8
SPOJOVACÍ
  6
DASHED
100
AcDbLine
 10
-2569.047727184508
 20
-6978.849062003394
 30
0.0
 11
-2573.011243456909
 21
-6980.181780676665
 31
0.0
  0
LINE
  5
7D9
330
1F
100
AcDbEntity
  8
SPOJOVACÍ
  6
DASHED
100
AcDbLine
 10
-2573.381341800435
 20
-6983.453413589034
 30
0.0
 11
-2573.011243456909
 21
-6983.823511934699
 31
0.0
  0
LINE
  5
7DA
330
1F
100
AcDbEntity
  8
SPOJOVACÍ
  6
DASHED
100
AcDbLine
 10
-2573.381341800435
 20
-6983.453413589034
 30
0.0
 11
-2573.011243456909
 21
-6983.239194103247
 31
0.0
  0
LINE
  5
7DB
330
1F
100
AcDbEntity
  8
SPOJOVACÍ
  6
DASHED
100
AcDbLine
 10
-2569.047727184508
 20
-6982.490793261428
 30
0.0
 11
-2573.011243456909
 21
-6983.823511934699
 31
0.0
  0
LINE
  5
7DC
330
1F
100
AcDbEntity
  8
SPOJOVACÍ
  6
DASHED
100
AcDbLine
 10
-2569.047727184508
 20
-6981.906475429976
 30
0.0
 11
-2573.011243456909
 21
-6983.239194103247
 31
0.0
  0
LINE
  5
7DD
330
1F
100
AcDbEntity
  8
SPOJOVACÍ
  6
DASHED
100
AcDbLine
 10
-2572.352176700449
 20
-6965.930259653045
 30
0.0
 11
-2572.352176700449
 21
-6970.774354748396
 31
0.0
  0
LINE
  5
7DE
330
1F
100
AcDbEntity
  8
SPOJOVACÍ
  6
DASHED
100
AcDbLine
 10
-2569.706793940968
 20
-6965.930259653045
 30
0.0
 11
-2569.706793940968
 21
-6969.887394920132
 31
0.0
  0
LINE
  5
7DF
330
1F
100
AcDbEntity
  8
SPOJOVACÍ
  6
DASHED
100
AcDbLine
 10
-2568.677628836703
 20
-6970.046920069034
 30
0.0
 11
-2573.381341800435
 21
-6971.222848309967
 31
0.0
  0
LINE
  5
7E0
330
1F
100
AcDbEntity
  8
SPOJOVACÍ
  6
DASHED
100
AcDbLine
 10
-2568.677628836703
 20
-6970.046920069034
 30
0.0
 11
-2569.047727184508
 21
-6970.260227982361
 31
0.0
  0
LINE
  5
7E1
330
1F
100
AcDbEntity
  8
SPOJOVACÍ
  6
DASHED
100
AcDbLine
 10
-2568.677628836703
 20
-6970.046920069034
 30
0.0
 11
-2569.047727184508
 21
-6969.67591015118
 31
0.0
  0
LINE
  5
7E2
330
1F
100
AcDbEntity
  8
SPOJOVACÍ
  6
DASHED
100
AcDbLine
 10
-2568.677628836703
 20
-6973.104333495616
 30
0.0
 11
-2573.381341800435
 21
-6974.28026173682
 31
0.0
  0
LINE
  5
7E3
330
1F
100
AcDbEntity
  8
SPOJOVACÍ
  6
DASHED
100
AcDbLine
 10
-2568.677628836703
 20
-6973.104333495616
 30
0.0
 11
-2569.047727184508
 21
-6973.318552981402
 31
0.0
  0
LINE
  5
7E4
330
1F
100
AcDbEntity
  8
SPOJOVACÍ
  6
DASHED
100
AcDbLine
 10
-2568.677628836703
 20
-6973.104333495616
 30
0.0
 11
-2569.047727184508
 21
-6972.73423514995
 31
0.0
  0
LINE
  5
7E5
330
1F
100
AcDbEntity
  8
SPOJOVACÍ
  6
DASHED
100
AcDbLine
 10
-2568.677628836703
 20
-6976.161746922469
 30
0.0
 11
-2569.047727184508
 21
-6976.375966408255
 31
0.0
  0
LINE
  5
7E6
330
1F
100
AcDbEntity
  8
SPOJOVACÍ
  6
DASHED
100
AcDbLine
 10
-2568.677628836703
 20
-6976.161746922469
 30
0.0
 11
-2569.047727184508
 21
-6975.791648576803
 31
0.0
  0
LINE
  5
7E7
330
1F
100
AcDbEntity
  8
SPOJOVACÍ
  6
DASHED
100
AcDbLine
 10
-2569.706793940968
 20
-6970.470801179124
 30
0.0
 11
-2569.706793940968
 21
-6972.939338913054
 31
0.0
  0
LINE
  5
7E8
330
1F
100
AcDbEntity
  8
SPOJOVACÍ
  6
DASHED
100
AcDbLine
 10
-2569.706793940968
 20
-6973.530949322541
 30
0.0
 11
-2569.706793940968
 21
-6976.001310201116
 31
0.0
  0
LINE
  5
7E9
330
1F
100
AcDbEntity
  8
SPOJOVACÍ
  6
DASHED
100
AcDbLine
 10
-2572.352176700449
 20
-6971.365965157883
 30
0.0
 11
-2572.352176700449
 21
-6973.834502891811
 31
0.0
  0
LINE
  5
7EA
330
1F
100
AcDbEntity
  8
SPOJOVACÍ
  6
DASHED
100
AcDbLine
 10
-2572.352176700449
 20
-6974.418820723264
 30
0.0
 11
-2572.352176700449
 21
-6976.896474179875
 31
0.0
  0
LINE
  5
7EB
330
1F
100
AcDbEntity
  8
SPOJOVACÍ
  6
DASHED
100
AcDbLine
 10
-2573.381341800435
 20
-6971.222848309967
 30
0.0
 11
-2573.011243456909
 21
-6971.592946655632
 31
0.0
  0
LINE
  5
7EC
330
1F
100
AcDbEntity
  8
SPOJOVACÍ
  6
DASHED
100
AcDbLine
 10
-2573.381341800435
 20
-6971.222848309967
 30
0.0
 11
-2573.011243456909
 21
-6971.008628824179
 31
0.0
  0
LINE
  5
7ED
330
1F
100
AcDbEntity
  8
SPOJOVACÍ
  6
DASHED
100
AcDbLine
 10
-2569.047727184508
 20
-6970.260227982361
 30
0.0
 11
-2573.011243456909
 21
-6971.592946655632
 31
0.0
  0
LINE
  5
7EE
330
1F
100
AcDbEntity
  8
SPOJOVACÍ
  6
DASHED
100
AcDbLine
 10
-2569.047727184508
 20
-6969.67591015118
 30
0.0
 11
-2573.011243456909
 21
-6971.008628824179
 31
0.0
  0
LINE
  5
7EF
330
1F
100
AcDbEntity
  8
SPOJOVACÍ
  6
DASHED
100
AcDbLine
 10
-2573.381341800435
 20
-6974.28026173682
 30
0.0
 11
-2573.011243456909
 21
-6974.650360082215
 31
0.0
  0
LINE
  5
7F0
330
1F
100
AcDbEntity
  8
SPOJOVACÍ
  6
DASHED
100
AcDbLine
 10
-2573.381341800435
 20
-6974.28026173682
 30
0.0
 11
-2573.011243456909
 21
-6974.066042251035
 31
0.0
  0
LINE
  5
7F1
330
1F
100
AcDbEntity
  8
SPOJOVACÍ
  6
DASHED
100
AcDbLine
 10
-2569.047727184508
 20
-6973.318552981402
 30
0.0
 11
-2573.011243456909
 21
-6974.650360082215
 31
0.0
  0
LINE
  5
7F2
330
1F
100
AcDbEntity
  8
SPOJOVACÍ
  6
DASHED
100
AcDbLine
 10
-2569.047727184508
 20
-6972.73423514995
 30
0.0
 11
-2573.011243456909
 21
-6974.066042251035
 31
0.0
  0
LINE
  5
7F3
330
1F
100
AcDbEntity
  8
SPOJOVACÍ
  6
DASHED
100
AcDbLine
 10
-2574.114245914264
 20
-6961.868293573934
 30
0.0
 11
-2575.326637046986
 21
-6960.968571733701
 31
0.0
  0
LINE
  5
7F4
330
1F
100
AcDbEntity
  8
SPOJOVACÍ
  6
DASHED
100
AcDbLine
 10
-2576.02763612943
 20
-6959.462654327379
 30
0.0
 11
-2576.02763612943
 21
-6960.638582568576
 31
0.0
  0
LINE
  5
7F5
330
1F
100
AcDbEntity
  8
SPOJOVACÍ
  6
DASHED
100
AcDbLine
 10
-2575.326637046986
 20
-6960.968571733701
 30
0.0
 11
-2576.02763612943
 21
-6960.638582568576
 31
0.0
  0
LINE
  5
7F6
330
1F
100
AcDbEntity
  8
SPOJOVACÍ
  6
DASHED
100
AcDbLine
 10
-2568.442443191939
 20
-6962.415236941945
 30
0.0
 11
-2569.222749061671
 21
-6963.707846434676
 31
0.0
  0
LINE
  5
7F7
330
1F
100
AcDbEntity
  8
SPOJOVACÍ
  6
DASHED
100
AcDbLine
 10
-2573.175326465679
 20
-6963.051514393176
 30
0.0
 11
-2574.114245914264
 21
-6961.868293573934
 31
0.0
  0
LINE
  5
7F8
330
1F
100
AcDbEntity
  8
SPOJOVACÍ
  6
DASHED
100
AcDbLine
 10
-2572.574600333515
 20
-6964.437104258684
 30
0.0
 11
-2573.175326465679
 21
-6963.051514393176
 31
0.0
  0
LINE
  5
7F9
330
1F
100
AcDbEntity
  8
SPOJOVACÍ
  6
DASHED
100
AcDbLine
 10
-2572.352176700449
 20
-6965.930259653045
 30
0.0
 11
-2572.574600333515
 21
-6964.437104258684
 31
0.0
  0
LINE
  5
7FA
330
1F
100
AcDbEntity
  8
SPOJOVACÍ
  6
DASHED
100
AcDbLine
 10
-2569.642072308684
 20
-6965.159069504385
 30
0.0
 11
-2569.706793940968
 21
-6965.930259653045
 31
0.0
  0
LINE
  5
7FB
330
1F
100
AcDbEntity
  8
SPOJOVACÍ
  6
DASHED
100
AcDbLine
 10
-2569.222749061671
 20
-6963.707846434676
 30
0.0
 11
-2569.642072308684
 21
-6965.159069504385
 31
0.0
  0
LWPOLYLINE
  5
7FC
330
1F
100
AcDbEntity
  8
STAVBA OBRYS
370
    20
100
AcDbPolyline
 90
        2
 70
     0
 43
0.0
 10
-2593.622201996673
 20
-6951.372436086005
 42
0.0210218643580087
 10
-2598.536843594603
 20
-6931.372436086006
  0
LWPOLYLINE
  5
7FD
330
1F
100
AcDbEntity
  8
STAVBA OBRYS
370
    20
100
AcDbPolyline
 90
        3
 70
     0
 43
0.0
 10
-2603.606654085149
 20
-6949.743140569056
 10
-2583.610401653157
 20
-6940.527111518537
 10
-2579.610464019442
 20
-6939.881714043194
  0
LWPOLYLINE
  5
7FE
330
1F
100
AcDbEntity
  8
STAVBA OBRYS
100
AcDbPolyline
 90
        5
 70
     0
 43
0.0
 10
-2616.728974584795
 20
-6951.372436086005
 42
0.0128837512779298
 10
-2617.013766545019
 20
-6948.039271264258
 42
0.0351641677647434
 10
-2617.641526266543
 20
-6944.435561809919
 42
0.0187319685742942
 10
-2621.025542147533
 20
-6932.677324467777
 42
0.0205166500055637
 10
-2621.514790376444
 20
-6931.372436086005
 42
0.0205166500055637
  0
LWPOLYLINE
  5
7FF
330
1F
100
AcDbEntity
  8
STAVBA OBRYS
370
    20
100
AcDbPolyline
 90
        2
 70
     0
 43
0.0
 10
-2604.989584328453
 20
-6951.372436086005
 42
0.0133702840819155
 10
-2608.639451389266
 20
-6931.372436086005
 42
0.0133702840819155
  0
LINE
  5
800
330
1F
100
AcDbEntity
  8
STAVBA OBRYS
  6
DASHED
100
AcDbLine
 10
-2615.953760291671
 20
-6935.617628193302
 30
0.0
 11
-2616.373083538684
 21
-6937.068851263011
 31
0.0
  0
LINE
  5
801
330
1F
100
AcDbEntity
  8
STAVBA OBRYS
  6
DASHED
100
AcDbLine
 10
-2619.305611563515
 20
-6936.346886017311
 30
0.0
 11
-2619.906337695679
 21
-6934.961296151802
 31
0.0
  0
LINE
  5
802
330
1F
100
AcDbEntity
  8
STAVBA OBRYS
  6
DASHED
100
AcDbLine
 10
-2615.408640066703
 20
-6945.013203682055
 30
0.0
 11
-2620.112353030435
 21
-6946.189131923258
 31
0.0
  0
LINE
  5
803
330
1F
100
AcDbEntity
  8
STAVBA OBRYS
  6
DASHED
100
AcDbLine
 10
-2620.112353030435
 20
-6946.189131923258
 30
0.0
 11
-2619.742254686908
 21
-6945.974912437472
 31
0.0
  0
LINE
  5
804
330
1F
100
AcDbEntity
  8
STAVBA OBRYS
  6
DASHED
100
AcDbLine
 10
-2615.778738414508
 20
-6945.22742316784
 30
0.0
 11
-2619.742254686908
 21
-6946.559230268653
 31
0.0
  0
LINE
  5
805
330
1F
100
AcDbEntity
  8
STAVBA OBRYS
  6
DASHED
100
AcDbLine
 10
-2616.437805170968
 20
-6945.43981950898
 30
0.0
 11
-2616.437805170968
 21
-6947.910180387555
 31
0.0
  0
LINE
  5
806
330
1F
100
AcDbEntity
  8
STAVBA OBRYS
  6
DASHED
100
AcDbLine
 10
-2615.778738414508
 20
-6953.816257188866
 30
0.0
 11
-2619.742254686908
 21
-6955.148975861874
 31
0.0
  0
LINE
  5
807
330
1F
100
AcDbEntity
  8
STAVBA OBRYS
  6
DASHED
100
AcDbLine
 10
-2615.778738414508
 20
-6954.400575020319
 30
0.0
 11
-2619.742254686908
 21
-6955.733293693318
 31
0.0
  0
LINE
  5
808
330
1F
100
AcDbEntity
  8
STAVBA OBRYS
  6
DASHED
100
AcDbLine
 10
-2615.408640066703
 20
-6954.186355534531
 30
0.0
 11
-2620.112353030435
 21
-6955.362283775464
 31
0.0
  0
LINE
  5
809
330
1F
100
AcDbEntity
  8
STAVBA OBRYS
  6
DASHED
100
AcDbLine
 10
-2615.778738414508
 20
-6950.758843762013
 30
0.0
 11
-2619.742254686908
 21
-6952.090650863095
 31
0.0
  0
LINE
  5
80A
330
1F
100
AcDbEntity
  8
STAVBA OBRYS
  6
DASHED
100
AcDbLine
 10
-2615.778738414508
 20
-6951.343161593465
 30
0.0
 11
-2619.742254686908
 21
-6952.674968694276
 31
0.0
  0
LINE
  5
80B
330
1F
100
AcDbEntity
  8
STAVBA OBRYS
  6
DASHED
100
AcDbLine
 10
-2615.408640066703
 20
-6951.128942107678
 30
0.0
 11
-2620.112353030435
 21
-6952.304870348882
 31
0.0
  0
LINE
  5
80C
330
1F
100
AcDbEntity
  8
STAVBA OBRYS
  6
DASHED
100
AcDbLine
 10
-2615.778738414508
 20
-6947.700518763243
 30
0.0
 11
-2619.742254686908
 21
-6949.033237436243
 31
0.0
  0
LINE
  5
80D
330
1F
100
AcDbEntity
  8
STAVBA OBRYS
  6
DASHED
100
AcDbLine
 10
-2615.778738414508
 20
-6948.284836594424
 30
0.0
 11
-2619.742254686908
 21
-6949.617555267694
 31
0.0
  0
LINE
  5
80E
330
1F
100
AcDbEntity
  8
STAVBA OBRYS
  6
DASHED
100
AcDbLine
 10
-2615.408640066703
 20
-6948.071528681096
 30
0.0
 11
-2620.112353030435
 21
-6949.247456922029
 31
0.0
  0
LINE
  5
80F
330
1F
100
AcDbEntity
  8
STAVBA OBRYS
  6
DASHED
100
AcDbLine
 10
-2620.112353030435
 20
-6955.362283775464
 30
0.0
 11
-2619.742254686908
 21
-6955.148975861874
 31
0.0
  0
LINE
  5
810
330
1F
100
AcDbEntity
  8
STAVBA OBRYS
  6
DASHED
100
AcDbLine
 10
-2620.112353030435
 20
-6955.362283775464
 30
0.0
 11
-2619.742254686908
 21
-6955.733293693318
 31
0.0
  0
LINE
  5
811
330
1F
100
AcDbEntity
  8
STAVBA OBRYS
  6
DASHED
100
AcDbLine
 10
-2620.112353030435
 20
-6952.304870348882
 30
0.0
 11
-2619.742254686908
 21
-6952.090650863095
 31
0.0
  0
LINE
  5
812
330
1F
100
AcDbEntity
  8
STAVBA OBRYS
  6
DASHED
100
AcDbLine
 10
-2620.112353030435
 20
-6952.304870348882
 30
0.0
 11
-2619.742254686908
 21
-6952.674968694276
 31
0.0
  0
LINE
  5
813
330
1F
100
AcDbEntity
  8
STAVBA OBRYS
  6
DASHED
100
AcDbLine
 10
-2620.112353030435
 20
-6949.247456922029
 30
0.0
 11
-2619.742254686908
 21
-6949.033237436243
 31
0.0
  0
LINE
  5
814
330
1F
100
AcDbEntity
  8
STAVBA OBRYS
  6
DASHED
100
AcDbLine
 10
-2620.112353030435
 20
-6949.247456922029
 30
0.0
 11
-2619.742254686908
 21
-6949.617555267694
 31
0.0
  0
LINE
  5
815
330
1F
100
AcDbEntity
  8
STAVBA OBRYS
  6
DASHED
100
AcDbLine
 10
-2620.112353030435
 20
-6946.189131923258
 30
0.0
 11
-2619.742254686908
 21
-6946.559230268653
 31
0.0
  0
LINE
  5
816
330
1F
100
AcDbEntity
  8
STAVBA OBRYS
  6
DASHED
100
AcDbLine
 10
-2615.408640066703
 20
-6954.186355534531
 30
0.0
 11
-2615.778738414508
 21
-6953.816257188866
 31
0.0
  0
LINE
  5
817
330
1F
100
AcDbEntity
  8
STAVBA OBRYS
  6
DASHED
100
AcDbLine
 10
-2615.408640066703
 20
-6954.186355534531
 30
0.0
 11
-2615.778738414508
 21
-6954.400575020319
 31
0.0
  0
LINE
  5
818
330
1F
100
AcDbEntity
  8
STAVBA OBRYS
  6
DASHED
100
AcDbLine
 10
-2615.408640066703
 20
-6951.128942107678
 30
0.0
 11
-2615.778738414508
 21
-6950.758843762013
 31
0.0
  0
LINE
  5
819
330
1F
100
AcDbEntity
  8
STAVBA OBRYS
  6
DASHED
100
AcDbLine
 10
-2615.408640066703
 20
-6951.128942107678
 30
0.0
 11
-2615.778738414508
 21
-6951.343161593465
 31
0.0
  0
LINE
  5
81A
330
1F
100
AcDbEntity
  8
STAVBA OBRYS
  6
DASHED
100
AcDbLine
 10
-2615.408640066703
 20
-6948.071528681096
 30
0.0
 11
-2615.778738414508
 21
-6947.700518763243
 31
0.0
  0
LINE
  5
81B
330
1F
100
AcDbEntity
  8
STAVBA OBRYS
  6
DASHED
100
AcDbLine
 10
-2615.408640066703
 20
-6948.071528681096
 30
0.0
 11
-2615.778738414508
 21
-6948.284836594424
 31
0.0
  0
LINE
  5
81C
330
1F
100
AcDbEntity
  8
STAVBA OBRYS
  6
DASHED
100
AcDbLine
 10
-2619.083187930449
 20
-6952.443429335326
 30
0.0
 11
-2619.083187930449
 21
-6954.921082791938
 31
0.0
  0
LINE
  5
81D
330
1F
100
AcDbEntity
  8
STAVBA OBRYS
  6
DASHED
100
AcDbLine
 10
-2619.083187930449
 20
-6949.390573769946
 30
0.0
 11
-2619.083187930449
 21
-6951.859111503875
 31
0.0
  0
LINE
  5
81E
330
1F
100
AcDbEntity
  8
STAVBA OBRYS
  6
DASHED
100
AcDbLine
 10
-2616.437805170968
 20
-6951.555557934604
 30
0.0
 11
-2616.437805170968
 21
-6954.025918813178
 31
0.0
  0
LINE
  5
81F
330
1F
100
AcDbEntity
  8
STAVBA OBRYS
  6
DASHED
100
AcDbLine
 10
-2616.437805170968
 20
-6948.495409791187
 30
0.0
 11
-2616.437805170968
 21
-6950.963947525115
 31
0.0
  0
LINE
  5
820
330
1F
100
AcDbEntity
  8
STAVBA OBRYS
  6
DASHED
100
AcDbLine
 10
-2619.083187930449
 20
-6946.327690909702
 30
0.0
 11
-2619.083187930449
 21
-6948.805344366313
 31
0.0
  0
LINE
  5
821
330
1F
100
AcDbEntity
  8
STAVBA OBRYS
  6
DASHED
100
AcDbLine
 10
-2615.408640066703
 20
-6941.955790255471
 30
0.0
 11
-2620.112353030435
 21
-6943.131718496404
 31
0.0
  0
LINE
  5
822
330
1F
100
AcDbEntity
  8
STAVBA OBRYS
  6
DASHED
100
AcDbLine
 10
-2615.778738414508
 20
-6942.169098168799
 30
0.0
 11
-2619.742254686908
 21
-6943.501816842069
 31
0.0
  0
LINE
  5
823
330
1F
100
AcDbEntity
  8
STAVBA OBRYS
  6
DASHED
100
AcDbLine
 10
-2615.778738414508
 20
-6941.584780337618
 30
0.0
 11
-2619.742254686908
 21
-6942.917499010619
 31
0.0
  0
LINE
  5
824
330
1F
100
AcDbEntity
  8
STAVBA OBRYS
  6
DASHED
100
AcDbLine
 10
-2615.778738414508
 20
-6944.643105336388
 30
0.0
 11
-2619.742254686908
 21
-6945.974912437472
 31
0.0
  0
LINE
  5
825
330
1F
100
AcDbEntity
  8
STAVBA OBRYS
  6
DASHED
100
AcDbLine
 10
-2620.112353030435
 20
-6943.131718496404
 30
0.0
 11
-2619.742254686908
 21
-6943.501816842069
 31
0.0
  0
LINE
  5
826
330
1F
100
AcDbEntity
  8
STAVBA OBRYS
  6
DASHED
100
AcDbLine
 10
-2620.112353030435
 20
-6943.131718496404
 30
0.0
 11
-2619.742254686908
 21
-6942.917499010619
 31
0.0
  0
LINE
  5
827
330
1F
100
AcDbEntity
  8
STAVBA OBRYS
  6
DASHED
100
AcDbLine
 10
-2616.437805170968
 20
-6937.840041411671
 30
0.0
 11
-2616.437805170968
 21
-6941.797176678758
 31
0.0
  0
LINE
  5
828
330
1F
100
AcDbEntity
  8
STAVBA OBRYS
  6
DASHED
100
AcDbLine
 10
-2619.083187930449
 20
-6937.840041411671
 30
0.0
 11
-2619.083187930449
 21
-6942.684136507022
 31
0.0
  0
LINE
  5
829
330
1F
100
AcDbEntity
  8
STAVBA OBRYS
  6
DASHED
100
AcDbLine
 10
-2616.373083538684
 20
-6937.068851263011
 30
0.0
 11
-2616.437805170968
 21
-6937.840041411671
 31
0.0
  0
LINE
  5
82A
330
1F
100
AcDbEntity
  8
STAVBA OBRYS
  6
DASHED
100
AcDbLine
 10
-2619.083187930449
 20
-6937.840041411671
 30
0.0
 11
-2619.305611563515
 21
-6936.346886017311
 31
0.0
  0
LINE
  5
82B
330
1F
100
AcDbEntity
  8
STAVBA OBRYS
  6
DASHED
100
AcDbLine
 10
-2616.437805170968
 20
-6942.379671365563
 30
0.0
 11
-2616.437805170968
 21
-6944.848209099491
 31
0.0
  0
LINE
  5
82C
330
1F
100
AcDbEntity
  8
STAVBA OBRYS
  6
DASHED
100
AcDbLine
 10
-2619.083187930449
 20
-6943.274835344322
 30
0.0
 11
-2619.083187930449
 21
-6945.743373078251
 31
0.0
  0
LINE
  5
82D
330
1F
100
AcDbEntity
  8
STAVBA OBRYS
  6
DASHED
100
AcDbLine
 10
-2615.408640066703
 20
-6941.955790255471
 30
0.0
 11
-2615.778738414508
 21
-6942.169098168799
 31
0.0
  0
LINE
  5
82E
330
1F
100
AcDbEntity
  8
STAVBA OBRYS
  6
DASHED
100
AcDbLine
 10
-2615.408640066703
 20
-6941.955790255471
 30
0.0
 11
-2615.778738414508
 21
-6941.584780337618
 31
0.0
  0
LINE
  5
82F
330
1F
100
AcDbEntity
  8
STAVBA OBRYS
  6
DASHED
100
AcDbLine
 10
-2615.408640066703
 20
-6945.013203682055
 30
0.0
 11
-2615.778738414508
 21
-6945.22742316784
 31
0.0
  0
LINE
  5
830
330
1F
100
AcDbEntity
  8
STAVBA OBRYS
  6
DASHED
100
AcDbLine
 10
-2615.408640066703
 20
-6945.013203682055
 30
0.0
 11
-2615.778738414508
 21
-6944.643105336388
 31
0.0
  0
LINE
  5
831
330
1F
100
AcDbEntity
  8
STAVBA OBRYS
  6
DASHED
100
AcDbLine
 10
-2612.762345737708
 20
-6932.548364327202
 30
0.0
 11
-2622.758647359431
 21
-6932.548364327202
 31
0.0
  0
LINE
  5
832
330
1F
100
AcDbEntity
  8
STAVBA OBRYS
  6
DASHED
100
AcDbLine
 10
-2612.762345737708
 20
-6931.372436086005
 30
0.0
 11
-2622.758647359431
 21
-6931.372436086005
 31
0.0
  0
LINE
  5
833
330
1F
100
AcDbEntity
  8
izolace
  6
DASHED
100
AcDbLine
 10
-2620.845257144264
 20
-6933.77807533256
 30
0.0
 11
-2622.057648276986
 21
-6932.878353492327
 31
0.0
  0
LINE
  5
834
330
1F
100
AcDbEntity
  8
izolace
  6
DASHED
100
AcDbLine
 10
-2622.057648276986
 20
-6932.878353492327
 30
0.0
 11
-2622.758647359431
 21
-6932.548364327202
 31
0.0
  0
LINE
  5
835
330
1F
100
AcDbEntity
  8
izolace
  6
DASHED
100
AcDbLine
 10
-2622.758647359431
 20
-6931.372436086005
 30
0.0
 11
-2622.758647359431
 21
-6932.548364327202
 31
0.0
  0
LINE
  5
836
330
1F
100
AcDbEntity
  8
STAVBA OBRYS
  6
DASHED
100
AcDbLine
 10
-2619.906337695679
 20
-6934.961296151802
 30
0.0
 11
-2620.845257144264
 21
-6933.77807533256
 31
0.0
  0
LINE
  5
837
330
1F
100
AcDbEntity
  8
STAVBA OBRYS
  6
DASHED
100
AcDbLine
 10
-2612.762345737708
 20
-6932.548364327202
 30
0.0
 11
-2614.085037119588
 21
-6933.277622150946
 31
0.0
  0
LINE
  5
838
330
1F
100
AcDbEntity
  8
STAVBA OBRYS
  6
DASHED
100
AcDbLine
 10
-2614.085037119588
 20
-6933.277622150946
 30
0.0
 11
-2615.173454421939
 21
-6934.325018700571
 31
0.0
  0
LINE
  5
839
330
1F
100
AcDbEntity
  8
STAVBA OBRYS
  6
DASHED
100
AcDbLine
 10
-2615.173454421939
 20
-6934.325018700571
 30
0.0
 11
-2615.953760291671
 21
-6935.617628193302
 31
0.0
  0
LINE
  5
83A
330
1F
100
AcDbEntity
  8
STAVBA OBRYS
  6
DASHED
100
AcDbLine
 10
-2612.762345737708
 20
-6931.372436086005
 30
0.0
 11
-2612.762345737708
 21
-6932.548364327202
 31
0.0
  0
LINE
  5
83B
330
1F
100
AcDbEntity
  8
STAVBA OBRYS
100
AcDbLine
 10
-2573.70879939783
 20
-6951.372436086005
 30
0.0
 11
-2573.70879939783
 21
-6933.372436086004
 31
0.0
  0
LWPOLYLINE
  5
83C
330
1F
100
AcDbEntity
  8
STAVBA OBRYS
370
    20
100
AcDbPolyline
 90
        2
 70
     0
 43
0.0
 10
-2583.498776431853
 20
-6951.065852306581
 42
0.0206960265964444
 10
-2588.324479981936
 20
-6931.372436086005
 42
0.0206960265964444
  0
LWPOLYLINE
  5
83D
330
1F
100
AcDbEntity
  8
STAVBA OBRYS
370
    20
100
AcDbPolyline
 90
        2
 70
     0
 43
0.0
 10
-2573.70879939783
 20
-6949.440054303261
 42
0.0190020593122753
 10
-2578.201030970343
 20
-6931.372436086005
 42
0.0190020593122753
  0
LINE
  5
83E
330
1F
100
AcDbEntity
  8
STAVBA OBRYS
100
AcDbLine
 10
-2575.70879939783
 20
-6931.372436086005
 30
0.0
 11
-2573.70879939783
 21
-6933.372436086004
 31
0.0
  0
INSERT
  5
83F
330
1F
100
AcDbEntity
  8
POPIS
100
AcDbBlockReference
  2
E_PUNKT
 10
-2556.309508088102
 20
-6999.657902013701
 30
0.0
 50
270.0
  0
LINE
  5
840
330
1F
100
AcDbEntity
  8
SPOJOVACÍ
  6
DASHED
100
AcDbLine
 10
-2566.031334507707
 20
-6959.462654327379
 30
0.0
 11
-2566.031334507707
 21
-6960.638582568576
 31
0.0
  0
LINE
  5
841
330
1F
100
AcDbEntity
  8
SPOJOVACÍ
  6
DASHED
100
AcDbLine
 10
-2566.031334507707
 20
-6960.638582568576
 30
0.0
 11
-2567.354025889588
 21
-6961.36784039232
 31
0.0
  0
INSERT
  5
842
330
1F
100
AcDbEntity
  8
POPIS
100
AcDbBlockReference
  2
E_PUNKT
 10
-2462.578238243151
 20
-7004.89924949753
 30
0.0
 50
270.0
  0
TEXT
  5
843
330
1F
100
AcDbEntity
  8
POPIS
100
AcDbText
 10
-2555.336359184096
 20
-6878.319834501468
 30
0.0
 40
25.0
  1
01
 41
0.85
  7
SIMPLEX7
100
AcDbText
  0
TEXT
  5
844
330
1F
100
AcDbEntity
  8
POPIS
100
AcDbText
 10
-2503.1957069499
 20
-6878.319834501468
 30
0.0
 40
25.0
  1
02
 41
0.85
  7
SIMPLEX7
100
AcDbText
  0
LINE
  5
845
330
1F
100
AcDbEntity
  8
SPOJOVACÍ
  6
DASHED
100
AcDbLine
 10
-2319.047727184508
 20
-6975.791648576803
 30
0.0
 11
-2323.011243456908
 21
-6977.124367249811
 31
0.0
  0
LINE
  5
846
330
1F
100
AcDbEntity
  8
SPOJOVACÍ
  6
DASHED
100
AcDbLine
 10
-2319.047727184508
 20
-6976.375966408255
 30
0.0
 11
-2323.011243456908
 21
-6977.708685081255
 31
0.0
  0
LINE
  5
847
330
1F
100
AcDbEntity
  8
SPOJOVACÍ
  6
DASHED
100
AcDbLine
 10
-2318.677628836703
 20
-6976.161746922469
 30
0.0
 11
-2323.381341800435
 21
-6977.337675163401
 31
0.0
  0
LINE
  5
848
330
1F
100
AcDbEntity
  8
SPOJOVACÍ
  6
DASHED
100
AcDbLine
 10
-2319.706793940967
 20
-6976.583804887922
 30
0.0
 11
-2319.706793940967
 21
-6979.061458344533
 31
0.0
  0
LINE
  5
849
330
1F
100
AcDbEntity
  8
SPOJOVACÍ
  6
DASHED
100
AcDbLine
 10
-2321.7797093045
 20
-6988.512639742357
 30
0.0
 11
-2322.041330550731
 21
-6986.418758215561
 31
0.0
  0
LINE
  5
84A
330
1F
100
AcDbEntity
  8
SPOJOVACÍ
  6
DASHED
100
AcDbLine
 10
-2319.929217578311
 20
-6985.709554981823
 30
0.0
 11
-2320.21362813084
 21
-6987.984839392166
 31
0.0
  0
LINE
  5
84B
330
1F
100
AcDbEntity
  8
SPOJOVACÍ
  6
DASHED
100
AcDbLine
 10
-2319.479812443219
 20
-6988.24737220898
 30
0.0
 11
-2322.533579581322
 21
-6988.868152931414
 31
0.0
  0
LINE
  5
84C
330
1F
100
AcDbEntity
  8
SPOJOVACÍ
  6
DASHED
100
AcDbLine
 10
-2322.533579581322
 20
-6988.868152931414
 30
0.0
 11
-2322.163481237795
 21
-6988.654845018086
 31
0.0
  0
LINE
  5
84D
330
1F
100
AcDbEntity
  8
SPOJOVACÍ
  6
DASHED
100
AcDbLine
 10
-2322.533579581322
 20
-6988.868152931414
 30
0.0
 11
-2322.163481237795
 21
-6989.239162849267
 31
0.0
  0
LINE
  5
84E
330
1F
100
AcDbEntity
  8
SPOJOVACÍ
  6
DASHED
100
AcDbLine
 10
-2320.033136819481
 20
-6991.200866395733
 30
0.0
 11
-2322.144338218109
 21
-6991.505331537192
 31
0.0
  0
LINE
  5
84F
330
1F
100
AcDbEntity
  8
SPOJOVACÍ
  6
DASHED
100
AcDbLine
 10
-2320.403235163007
 20
-6990.830768050066
 30
0.0
 11
-2321.774239874582
 21
-6991.2920236236
 31
0.0
  0
LINE
  5
850
330
1F
100
AcDbEntity
  8
SPOJOVACÍ
  6
DASHED
100
AcDbLine
 10
-2320.403235163007
 20
-6991.415085881512
 30
0.0
 11
-2321.774239874582
 21
-6991.876341455045
 31
0.0
  0
LINE
  5
851
330
1F
100
AcDbEntity
  8
SPOJOVACÍ
  6
DASHED
100
AcDbLine
 10
-2322.144338218109
 20
-6991.505331537192
 30
0.0
 11
-2321.774239874582
 21
-6991.2920236236
 31
0.0
  0
LINE
  5
852
330
1F
100
AcDbEntity
  8
SPOJOVACÍ
  6
DASHED
100
AcDbLine
 10
-2322.144338218109
 20
-6991.505331537192
 30
0.0
 11
-2321.774239874582
 21
-6991.876341455045
 31
0.0
  0
LINE
  5
853
330
1F
100
AcDbEntity
  8
SPOJOVACÍ
  6
DASHED
100
AcDbLine
 10
-2320.033136819481
 20
-6991.200866395733
 30
0.0
 11
-2320.403235163007
 21
-6990.830768050066
 31
0.0
  0
LINE
  5
854
330
1F
100
AcDbEntity
  8
SPOJOVACÍ
  6
DASHED
100
AcDbLine
 10
-2320.033136819481
 20
-6991.200866395733
 30
0.0
 11
-2320.403235163007
 21
-6991.415085881512
 31
0.0
  0
LINE
  5
855
330
1F
100
AcDbEntity
  8
SPOJOVACÍ
  6
DASHED
100
AcDbLine
 10
-2319.849910791024
 20
-6987.876362290855
 30
0.0
 11
-2322.163481237795
 21
-6988.654845018086
 31
0.0
  0
LINE
  5
856
330
1F
100
AcDbEntity
  8
SPOJOVACÍ
  6
DASHED
100
AcDbLine
 10
-2319.849910791024
 20
-6988.460680122307
 30
0.0
 11
-2322.163481237795
 21
-6989.239162849267
 31
0.0
  0
LINE
  5
857
330
1F
100
AcDbEntity
  8
SPOJOVACÍ
  6
DASHED
100
AcDbLine
 10
-2319.479812443219
 20
-6988.24737220898
 30
0.0
 11
-2319.849910791024
 21
-6987.876362290855
 31
0.0
  0
LINE
  5
858
330
1F
100
AcDbEntity
  8
SPOJOVACÍ
  6
DASHED
100
AcDbLine
 10
-2319.479812443219
 20
-6988.24737220898
 30
0.0
 11
-2319.849910791024
 21
-6988.460680122307
 31
0.0
  0
LINE
  5
859
330
1F
100
AcDbEntity
  8
SPOJOVACÍ
  6
DASHED
100
AcDbLine
 10
-2321.446985426554
 20
-6991.175342371803
 30
0.0
 11
-2321.709518242299
 21
-6989.073256694517
 31
0.0
  0
LINE
  5
85A
330
1F
100
AcDbEntity
  8
SPOJOVACÍ
  6
DASHED
100
AcDbLine
 10
-2320.651182823748
 20
-6991.485276946922
 30
0.0
 11
-2321.029485318569
 21
-6994.512608488371
 31
0.0
  0
LINE
  5
85B
330
1F
100
AcDbEntity
  8
SPOJOVACÍ
  6
DASHED
100
AcDbLine
 10
-2320.291111774822
 20
-6988.602885398037
 30
0.0
 11
-2320.575522323073
 21
-6990.877258236185
 31
0.0
  0
LINE
  5
85C
330
1F
100
AcDbEntity
  8
SPOJOVACÍ
  6
DASHED
100
AcDbLine
 10
-2321.029485318569
 20
-6994.512608488371
 30
0.0
 11
-2321.376794360075
 21
-6991.733224607127
 31
0.0
  0
LINE
  5
85D
330
1F
100
AcDbEntity
  8
SPOJOVACÍ
  6
DASHED
100
AcDbLine
 10
-2319.047727184508
 20
-6981.906475429976
 30
0.0
 11
-2323.011243456908
 21
-6983.239194103247
 31
0.0
  0
LINE
  5
85E
330
1F
100
AcDbEntity
  8
SPOJOVACÍ
  6
DASHED
100
AcDbLine
 10
-2319.047727184508
 20
-6982.490793261428
 30
0.0
 11
-2323.011243456908
 21
-6983.823511934699
 31
0.0
  0
LINE
  5
85F
330
1F
100
AcDbEntity
  8
SPOJOVACÍ
  6
DASHED
100
AcDbLine
 10
-2318.677628836703
 20
-6982.277485348101
 30
0.0
 11
-2323.381341800435
 21
-6983.453413589034
 31
0.0
  0
LINE
  5
860
330
1F
100
AcDbEntity
  8
SPOJOVACÍ
  6
DASHED
100
AcDbLine
 10
-2319.047727184508
 20
-6978.849062003394
 30
0.0
 11
-2323.011243456908
 21
-6980.181780676665
 31
0.0
  0
LINE
  5
861
330
1F
100
AcDbEntity
  8
SPOJOVACÍ
  6
DASHED
100
AcDbLine
 10
-2319.047727184508
 20
-6979.433379834837
 30
0.0
 11
-2323.011243456908
 21
-6980.766098507846
 31
0.0
  0
LINE
  5
862
330
1F
100
AcDbEntity
  8
SPOJOVACÍ
  6
DASHED
100
AcDbLine
 10
-2318.677628836703
 20
-6979.219160349059
 30
0.0
 11
-2323.381341800435
 21
-6980.395088589992
 31
0.0
  0
LINE
  5
863
330
1F
100
AcDbEntity
  8
SPOJOVACÍ
  6
DASHED
100
AcDbLine
 10
-2318.926488071235
 20
-6985.292966449768
 30
0.0
 11
-2322.969311130923
 21
-6986.246471054426
 31
0.0
  0
LINE
  5
864
330
1F
100
AcDbEntity
  8
SPOJOVACÍ
  6
DASHED
100
AcDbLine
 10
-2319.297497988554
 20
-6984.922868104103
 30
0.0
 11
-2322.599212787397
 21
-6986.033163141098
 31
0.0
  0
LINE
  5
865
330
1F
100
AcDbEntity
  8
SPOJOVACÍ
  6
DASHED
100
AcDbLine
 10
-2319.297497988554
 20
-6985.507185935555
 30
0.0
 11
-2322.599212787397
 21
-6986.617480972551
 31
0.0
  0
LINE
  5
866
330
1F
100
AcDbEntity
  8
SPOJOVACÍ
  6
DASHED
100
AcDbLine
 10
-2322.11152161721
 20
-6985.859964407777
 30
0.0
 11
-2322.352176700449
 21
-6983.928342746716
 31
0.0
  0
LINE
  5
867
330
1F
100
AcDbEntity
  8
SPOJOVACÍ
  6
DASHED
100
AcDbLine
 10
-2323.381341800435
 20
-6983.453413589034
 30
0.0
 11
-2323.011243456908
 21
-6983.239194103247
 31
0.0
  0
LINE
  5
868
330
1F
100
AcDbEntity
  8
SPOJOVACÍ
  6
DASHED
100
AcDbLine
 10
-2323.381341800435
 20
-6983.453413589034
 30
0.0
 11
-2323.011243456908
 21
-6983.823511934699
 31
0.0
  0
LINE
  5
869
330
1F
100
AcDbEntity
  8
SPOJOVACÍ
  6
DASHED
100
AcDbLine
 10
-2323.381341800435
 20
-6980.395088589992
 30
0.0
 11
-2323.011243456908
 21
-6980.181780676665
 31
0.0
  0
LINE
  5
86A
330
1F
100
AcDbEntity
  8
SPOJOVACÍ
  6
DASHED
100
AcDbLine
 10
-2323.381341800435
 20
-6980.395088589992
 30
0.0
 11
-2323.011243456908
 21
-6980.766098507846
 31
0.0
  0
LINE
  5
86B
330
1F
100
AcDbEntity
  8
SPOJOVACÍ
  6
DASHED
100
AcDbLine
 10
-2323.381341800435
 20
-6977.337675163401
 30
0.0
 11
-2323.011243456908
 21
-6977.124367249811
 31
0.0
  0
LINE
  5
86C
330
1F
100
AcDbEntity
  8
SPOJOVACÍ
  6
DASHED
100
AcDbLine
 10
-2323.381341800435
 20
-6977.337675163401
 30
0.0
 11
-2323.011243456908
 21
-6977.708685081255
 31
0.0
  0
LINE
  5
86D
330
1F
100
AcDbEntity
  8
SPOJOVACÍ
  6
DASHED
100
AcDbLine
 10
-2322.969311130923
 20
-6986.246471054426
 30
0.0
 11
-2322.599212787397
 21
-6986.033163141098
 31
0.0
  0
LINE
  5
86E
330
1F
100
AcDbEntity
  8
SPOJOVACÍ
  6
DASHED
100
AcDbLine
 10
-2322.969311130923
 20
-6986.246471054426
 30
0.0
 11
-2322.599212787397
 21
-6986.617480972551
 31
0.0
  0
LINE
  5
86F
330
1F
100
AcDbEntity
  8
SPOJOVACÍ
  6
DASHED
100
AcDbLine
 10
-2322.352176700449
 20
-6983.59835358159
 30
0.0
 11
-2322.352176700449
 21
-6983.928342746716
 31
0.0
  0
LINE
  5
870
330
1F
100
AcDbEntity
  8
SPOJOVACÍ
  6
DASHED
100
AcDbLine
 10
-2322.352176700449
 20
-6980.538205437909
 30
0.0
 11
-2322.352176700449
 21
-6983.006743171838
 31
0.0
  0
LINE
  5
871
330
1F
100
AcDbEntity
  8
SPOJOVACÍ
  6
DASHED
100
AcDbLine
 10
-2322.352176700449
 20
-6977.478968866681
 30
0.0
 11
-2322.352176700449
 21
-6979.949329745256
 31
0.0
  0
LINE
  5
872
330
1F
100
AcDbEntity
  8
SPOJOVACÍ
  6
DASHED
100
AcDbLine
 10
-2318.677628836703
 20
-6982.277485348101
 30
0.0
 11
-2319.047727184508
 21
-6981.906475429976
 31
0.0
  0
LINE
  5
873
330
1F
100
AcDbEntity
  8
SPOJOVACÍ
  6
DASHED
100
AcDbLine
 10
-2318.677628836703
 20
-6982.277485348101
 30
0.0
 11
-2319.047727184508
 21
-6982.490793261428
 31
0.0
  0
LINE
  5
874
330
1F
100
AcDbEntity
  8
SPOJOVACÍ
  6
DASHED
100
AcDbLine
 10
-2318.677628836703
 20
-6979.219160349059
 30
0.0
 11
-2319.047727184508
 21
-6978.849062003394
 31
0.0
  0
LINE
  5
875
330
1F
100
AcDbEntity
  8
SPOJOVACÍ
  6
DASHED
100
AcDbLine
 10
-2318.677628836703
 20
-6979.219160349059
 30
0.0
 11
-2319.047727184508
 21
-6979.433379834837
 31
0.0
  0
LINE
  5
876
330
1F
100
AcDbEntity
  8
SPOJOVACÍ
  6
DASHED
100
AcDbLine
 10
-2318.926488071235
 20
-6985.292966449768
 30
0.0
 11
-2319.297497988554
 21
-6984.922868104103
 31
0.0
  0
LINE
  5
877
330
1F
100
AcDbEntity
  8
SPOJOVACÍ
  6
DASHED
100
AcDbLine
 10
-2318.926488071235
 20
-6985.292966449768
 30
0.0
 11
-2319.297497988554
 21
-6985.507185935555
 31
0.0
  0
LINE
  5
878
330
1F
100
AcDbEntity
  8
SPOJOVACÍ
  6
DASHED
100
AcDbLine
 10
-2319.706793940967
 20
-6983.928342746716
 30
0.0
 11
-2319.853557077636
 21
-6985.101536271087
 31
0.0
  0
LINE
  5
879
330
1F
100
AcDbEntity
  8
SPOJOVACÍ
  6
DASHED
100
AcDbLine
 10
-2319.706793940967
 20
-6982.705924319666
 30
0.0
 11
-2319.706793940967
 21
-6983.928342746716
 31
0.0
  0
LINE
  5
87A
330
1F
100
AcDbEntity
  8
SPOJOVACÍ
  6
DASHED
100
AcDbLine
 10
-2319.706793940967
 20
-6979.653980326474
 30
0.0
 11
-2319.706793940967
 21
-6982.121606488213
 31
0.0
  0
LINE
  5
87B
330
1F
100
AcDbEntity
  8
SPOJOVACÍ
  6
DASHED
100
AcDbLine
 10
-2319.706793940967
 20
-6965.930259653045
 30
0.0
 11
-2319.706793940967
 21
-6969.887394920132
 31
0.0
  0
LINE
  5
87C
330
1F
100
AcDbEntity
  8
SPOJOVACÍ
  6
DASHED
100
AcDbLine
 10
-2322.352176700449
 20
-6965.930259653045
 30
0.0
 11
-2322.352176700449
 21
-6970.774354748396
 31
0.0
  0
LINE
  5
87D
330
1F
100
AcDbEntity
  8
SPOJOVACÍ
  6
DASHED
100
AcDbLine
 10
-2319.047727184508
 20
-6972.73423514995
 30
0.0
 11
-2323.011243456908
 21
-6974.066042251035
 31
0.0
  0
LINE
  5
87E
330
1F
100
AcDbEntity
  8
SPOJOVACÍ
  6
DASHED
100
AcDbLine
 10
-2319.047727184508
 20
-6973.318552981402
 30
0.0
 11
-2323.011243456908
 21
-6974.650360082215
 31
0.0
  0
LINE
  5
87F
330
1F
100
AcDbEntity
  8
SPOJOVACÍ
  6
DASHED
100
AcDbLine
 10
-2318.677628836703
 20
-6973.104333495616
 30
0.0
 11
-2323.381341800435
 21
-6974.28026173682
 31
0.0
  0
LINE
  5
880
330
1F
100
AcDbEntity
  8
SPOJOVACÍ
  6
DASHED
100
AcDbLine
 10
-2319.047727184508
 20
-6969.67591015118
 30
0.0
 11
-2323.011243456908
 21
-6971.008628824179
 31
0.0
  0
LINE
  5
881
330
1F
100
AcDbEntity
  8
SPOJOVACÍ
  6
DASHED
100
AcDbLine
 10
-2319.047727184508
 20
-6970.260227982361
 30
0.0
 11
-2323.011243456908
 21
-6971.592946655632
 31
0.0
  0
LINE
  5
882
330
1F
100
AcDbEntity
  8
SPOJOVACÍ
  6
DASHED
100
AcDbLine
 10
-2318.677628836703
 20
-6970.046920069034
 30
0.0
 11
-2323.381341800435
 21
-6971.222848309967
 31
0.0
  0
LINE
  5
883
330
1F
100
AcDbEntity
  8
SPOJOVACÍ
  6
DASHED
100
AcDbLine
 10
-2323.381341800435
 20
-6974.28026173682
 30
0.0
 11
-2323.011243456908
 21
-6974.066042251035
 31
0.0
  0
LINE
  5
884
330
1F
100
AcDbEntity
  8
SPOJOVACÍ
  6
DASHED
100
AcDbLine
 10
-2323.381341800435
 20
-6974.28026173682
 30
0.0
 11
-2323.011243456908
 21
-6974.650360082215
 31
0.0
  0
LINE
  5
885
330
1F
100
AcDbEntity
  8
SPOJOVACÍ
  6
DASHED
100
AcDbLine
 10
-2323.381341800435
 20
-6971.222848309967
 30
0.0
 11
-2323.011243456908
 21
-6971.008628824179
 31
0.0
  0
LINE
  5
886
330
1F
100
AcDbEntity
  8
SPOJOVACÍ
  6
DASHED
100
AcDbLine
 10
-2323.381341800435
 20
-6971.222848309967
 30
0.0
 11
-2323.011243456908
 21
-6971.592946655632
 31
0.0
  0
LINE
  5
887
330
1F
100
AcDbEntity
  8
SPOJOVACÍ
  6
DASHED
100
AcDbLine
 10
-2322.352176700449
 20
-6974.418820723264
 30
0.0
 11
-2322.352176700449
 21
-6976.896474179875
 31
0.0
  0
LINE
  5
888
330
1F
100
AcDbEntity
  8
SPOJOVACÍ
  6
DASHED
100
AcDbLine
 10
-2322.352176700449
 20
-6971.365965157883
 30
0.0
 11
-2322.352176700449
 21
-6973.834502891811
 31
0.0
  0
LINE
  5
889
330
1F
100
AcDbEntity
  8
SPOJOVACÍ
  6
DASHED
100
AcDbLine
 10
-2318.677628836703
 20
-6976.161746922469
 30
0.0
 11
-2319.047727184508
 21
-6975.791648576803
 31
0.0
  0
LINE
  5
88A
330
1F
100
AcDbEntity
  8
SPOJOVACÍ
  6
DASHED
100
AcDbLine
 10
-2318.677628836703
 20
-6976.161746922469
 30
0.0
 11
-2319.047727184508
 21
-6976.375966408255
 31
0.0
  0
LINE
  5
88B
330
1F
100
AcDbEntity
  8
SPOJOVACÍ
  6
DASHED
100
AcDbLine
 10
-2318.677628836703
 20
-6973.104333495616
 30
0.0
 11
-2319.047727184508
 21
-6972.73423514995
 31
0.0
  0
LINE
  5
88C
330
1F
100
AcDbEntity
  8
SPOJOVACÍ
  6
DASHED
100
AcDbLine
 10
-2318.677628836703
 20
-6973.104333495616
 30
0.0
 11
-2319.047727184508
 21
-6973.318552981402
 31
0.0
  0
LINE
  5
88D
330
1F
100
AcDbEntity
  8
SPOJOVACÍ
  6
DASHED
100
AcDbLine
 10
-2318.677628836703
 20
-6970.046920069034
 30
0.0
 11
-2319.047727184508
 21
-6969.67591015118
 31
0.0
  0
LINE
  5
88E
330
1F
100
AcDbEntity
  8
SPOJOVACÍ
  6
DASHED
100
AcDbLine
 10
-2318.677628836703
 20
-6970.046920069034
 30
0.0
 11
-2319.047727184508
 21
-6970.260227982361
 31
0.0
  0
LINE
  5
88F
330
1F
100
AcDbEntity
  8
SPOJOVACÍ
  6
DASHED
100
AcDbLine
 10
-2319.706793940967
 20
-6973.530949322541
 30
0.0
 11
-2319.706793940967
 21
-6976.001310201116
 31
0.0
  0
LINE
  5
890
330
1F
100
AcDbEntity
  8
SPOJOVACÍ
  6
DASHED
100
AcDbLine
 10
-2319.706793940967
 20
-6970.470801179124
 30
0.0
 11
-2319.706793940967
 21
-6972.939338913054
 31
0.0
  0
LINE
  5
891
330
1F
100
AcDbEntity
  8
SPOJOVACÍ
  6
DASHED
100
AcDbLine
 10
-2316.031334507707
 20
-6960.638582568576
 30
0.0
 11
-2326.02763612943
 21
-6960.638582568576
 31
0.0
  0
LINE
  5
892
330
1F
100
AcDbEntity
  8
SPOJOVACÍ
  6
DASHED
100
AcDbLine
 10
-2316.031334507707
 20
-6959.462654327379
 30
0.0
 11
-2326.02763612943
 21
-6959.462654327379
 31
0.0
  0
LINE
  5
893
330
1F
100
AcDbEntity
  8
SPOJOVACÍ
  6
DASHED
100
AcDbLine
 10
-2324.114245914264
 20
-6961.868293573934
 30
0.0
 11
-2325.326637046985
 21
-6960.968571733701
 31
0.0
  0
LINE
  5
894
330
1F
100
AcDbEntity
  8
SPOJOVACÍ
  6
DASHED
100
AcDbLine
 10
-2325.326637046985
 20
-6960.968571733701
 30
0.0
 11
-2326.02763612943
 21
-6960.638582568576
 31
0.0
  0
LINE
  5
895
330
1F
100
AcDbEntity
  8
SPOJOVACÍ
  6
DASHED
100
AcDbLine
 10
-2326.02763612943
 20
-6959.462654327379
 30
0.0
 11
-2326.02763612943
 21
-6960.638582568576
 31
0.0
  0
LINE
  5
896
330
1F
100
AcDbEntity
  8
SPOJOVACÍ
  6
DASHED
100
AcDbLine
 10
-2322.352176700449
 20
-6965.930259653045
 30
0.0
 11
-2322.574600333515
 21
-6964.437104258684
 31
0.0
  0
LINE
  5
897
330
1F
100
AcDbEntity
  8
SPOJOVACÍ
  6
DASHED
100
AcDbLine
 10
-2322.574600333515
 20
-6964.437104258684
 30
0.0
 11
-2323.175326465679
 21
-6963.051514393176
 31
0.0
  0
LINE
  5
898
330
1F
100
AcDbEntity
  8
SPOJOVACÍ
  6
DASHED
100
AcDbLine
 10
-2323.175326465679
 20
-6963.051514393176
 30
0.0
 11
-2324.114245914264
 21
-6961.868293573934
 31
0.0
  0
LINE
  5
899
330
1F
100
AcDbEntity
  8
SPOJOVACÍ
  6
DASHED
100
AcDbLine
 10
-2316.031334507707
 20
-6960.638582568576
 30
0.0
 11
-2317.354025889588
 21
-6961.36784039232
 31
0.0
  0
LINE
  5
89A
330
1F
100
AcDbEntity
  8
SPOJOVACÍ
  6
DASHED
100
AcDbLine
 10
-2317.354025889588
 20
-6961.36784039232
 30
0.0
 11
-2318.442443191939
 21
-6962.415236941945
 31
0.0
  0
LINE
  5
89B
330
1F
100
AcDbEntity
  8
SPOJOVACÍ
  6
DASHED
100
AcDbLine
 10
-2318.442443191939
 20
-6962.415236941945
 30
0.0
 11
-2319.222749061671
 21
-6963.707846434676
 31
0.0
  0
LINE
  5
89C
330
1F
100
AcDbEntity
  8
SPOJOVACÍ
  6
DASHED
100
AcDbLine
 10
-2319.222749061671
 20
-6963.707846434676
 30
0.0
 11
-2319.642072308684
 21
-6965.159069504385
 31
0.0
  0
LINE
  5
89D
330
1F
100
AcDbEntity
  8
SPOJOVACÍ
  6
DASHED
100
AcDbLine
 10
-2319.642072308684
 20
-6965.159069504385
 30
0.0
 11
-2319.706793940967
 21
-6965.930259653045
 31
0.0
  0
LINE
  5
89E
330
1F
100
AcDbEntity
  8
SPOJOVACÍ
  6
DASHED
100
AcDbLine
 10
-2316.031334507707
 20
-6959.462654327379
 30
0.0
 11
-2316.031334507707
 21
-6960.638582568576
 31
0.0
  0
LINE
  5
8A8
330
1F
100
AcDbEntity
  8
0
100
AcDbLine
 10
-2728.436740417913
 20
-7008.462654327378
 30
0.0
 11
-2728.436740417913
 21
-7033.462654327379
 31
0.0
  0
LWPOLYLINE
  5
8AA
330
1F
100
AcDbEntity
  8
STAVBA OBRYS
370
    20
100
AcDbPolyline
 90
        4
 70
     0
 43
0.0
 10
-2603.436740417913
 20
-7000.938244628021
 42
-0.027278836128071
 10
-2604.219854098489
 20
-7002.610195987573
 42
-0.0295006114745606
 10
-2606.635914552789
 20
-7006.537095200975
 42
-0.1674698908043404
 10
-2633.436740417914
 20
-7026.011883632818
  0
LWPOLYLINE
  5
8AB
330
1F
100
AcDbEntity
  8
STAVBA OBRYS
370
    20
100
AcDbPolyline
 90
        4
 70
     0
 43
0.0
 10
-2603.436740417913
 20
-7019.141690959073
 42
-0.027278836128071
 10
-2604.219854098489
 20
-7020.813642318625
 42
-0.0295006114745606
 10
-2606.635914552789
 20
-7024.740541532027
 42
-0.0575103654596281
 10
-2614.370185453047
 20
-7033.462654327379
 42
-0.0575103654596281
  0
LWPOLYLINE
  5
8AD
330
1F
100
AcDbEntity
  8
STAVBA OBRYS
370
    20
100
AcDbPolyline
 90
        4
 70
     0
 43
0.0
 10
-2728.436740417913
 20
-7002.328433772209
 42
0.0091633840917308
 10
-2726.70021765934
 20
-7003.349983034611
 42
0.0157521173632038
 10
-2723.057620744503
 20
-7005.255275829765
 42
0.0099613453131199
 10
-2716.073320261427
 20
-7008.462654327378
 42
0.0099613453131199
  0
LINE
  5
8BD
330
1F
100
AcDbEntity
  8
izolace
  6
IZOLACE
 48
1.199999999999999
370
    20
100
AcDbLine
 10
-2508.436740417913
 20
-7020.962654327378
 30
0.0
 11
-2588.436740417913
 21
-7020.962654327378
 31
0.0
  0
LWPOLYLINE
  5
8BE
330
1F
100
AcDbEntity
  8
STAVBA OBRYS
370
    20
100
AcDbPolyline
 90
        7
 70
     0
 43
0.0
 10
-2561.346083500047
 20
-6983.462654327379
 42
0.0120721047703132
 10
-2561.277100810009
 20
-6985.196542466123
 42
0.044358077361292
 10
-2560.881473075336
 20
-6987.892342484539
 42
0.0188067511131767
 10
-2558.861649626953
 20
-6995.134571659846
 42
0.0457786284636091
 10
-2557.653626737337
 20
-6997.983182042727
 42
0.0295006114745606
 10
-2555.237566283038
 20
-7001.910081256129
 42
0.0420069540385954
 10
-2549.779593994464
 20
-7008.462654327378
 42
0.0094449184784486
  0
LWPOLYLINE
  5
8BF
330
1F
100
AcDbEntity
  8
STAVBA OBRYS
370
    20
100
AcDbPolyline
 90
        8
 70
     0
 43
0.0
 10
-2552.479024276537
 20
-6983.462654327379
 42
0.0168162630274195
 10
-2552.343998697473
 20
-6985.153692479499
 42
0.0575155827655532
 10
-2551.66396641713
 20
-6988.253317140216
 42
0.0310289133982999
 10
-2548.661165072302
 20
-6995.498344664859
 42
0.0882970623535771
 10
-2547.023943152209
 20
-6997.738713715659
 42
0.0171636441953577
 10
-2544.210579090351
 20
-7000.252631070906
 42
0.0157521173632038
 10
-2540.971724253314
 20
-7002.784127123412
 42
0.0129211249237282
 10
-2532.778768785453
 20
-7008.462654327378
 42
0.0014948023799519
  0
LWPOLYLINE
  5
8C0
330
1F
100
AcDbEntity
  8
izolace
100
AcDbPolyline
 90
        4
 70
     1
 43
0.0
 10
-2588.436740417913
 20
-7008.462654327378
 10
-2508.436740417913
 20
-7008.462654327378
 10
-2508.436740417913
 20
-6983.462654327379
 10
-2588.436740417913
 20
-6983.462654327379
  0
LWPOLYLINE
  5
8C1
330
1F
100
AcDbEntity
  8
STAVBA OBRYS
370
    20
100
AcDbPolyline
 90
        3
 70
     0
 43
0.0
 10
-2535.145137875617
 20
-6988.979985022898
 10
-2551.900355495344
 20
-6997.363725890865
 10
-2557.988700432171
 20
-7003.462654327378
  0
LINE
  5
8C2
330
1F
100
AcDbEntity
  8
izolace
  6
IZOLACE
 48
2.5
370
    20
100
AcDbLine
 10
-2309.605621443552
 20
-7008.462654327378
 30
0.0
 11
-2510.161776117366
 21
-7008.434402737066
 31
0.0
  0
POLYLINE
  5
8C3
330
1F
100
AcDbEntity
  8
STAVBA OBRYS
370
    20
100
AcDb2dPolyline
 66
     1
 10
0.0
 20
0.0
 30
0.0
  0
VERTEX
  5
8C4
330
8C3
100
AcDbEntity
  8
STAVBA OBRYS
370
    20
100
AcDbVertex
100
AcDb2dVertex
 10
-2545.529246252852
 20
-6983.462654327381
 30
0.0
 42
0.0072417954699014
  0
VERTEX
  5
8C5
330
8C3
100
AcDbEntity
  8
STAVBA OBRYS
370
    20
100
AcDbVertex
100
AcDb2dVertex
 10
-2545.473675885008
 20
-6983.874059538655
 30
0.0
 42
0.0707158694326265
  0
VERTEX
  5
8C6
330
8C3
100
AcDbEntity
  8
STAVBA OBRYS
370
    20
100
AcDbVertex
100
AcDb2dVertex
 10
-2544.942549368588
 20
-6985.810162991249
 30
0.0
 42
0.033952657250207
  0
VERTEX
  5
8C7
330
8C3
100
AcDbEntity
  8
STAVBA OBRYS
370
    20
100
AcDbVertex
100
AcDb2dVertex
 10
-2542.693893529179
 20
-6990.163200716422
 30
0.0
 42
0.0571374688189033
  0
VERTEX
  5
8C8
330
8C3
100
AcDbEntity
  8
STAVBA OBRYS
370
    20
100
AcDbVertex
100
AcDb2dVertex
 10
-2540.907736769327
 20
-6992.470125000109
 30
0.0
 42
0.0274923553235744
  0
VERTEX
  5
8C9
330
8C3
100
AcDbEntity
  8
STAVBA OBRYS
370
    20
100
AcDbVertex
100
AcDb2dVertex
 10
-2538.310431038775
 20
-6994.855200323243
 30
0.0
 42
0.0255412025538677
  0
VERTEX
  5
8CA
330
8C3
100
AcDbEntity
  8
STAVBA OBRYS
370
    20
100
AcDbVertex
100
AcDb2dVertex
 10
-2535.259001001064
 20
-6997.111914000263
 30
0.0
 42
0.0272796991712396
  0
VERTEX
  5
8CB
330
8C3
100
AcDbEntity
  8
STAVBA OBRYS
370
    20
100
AcDbVertex
100
AcDb2dVertex
 10
-2531.146001847878
 20
-6999.528249881925
 30
0.0
 42
0.056967459841729
  0
VERTEX
  5
8CC
330
8C3
100
AcDbEntity
  8
STAVBA OBRYS
370
    20
100
AcDbVertex
100
AcDb2dVertex
 10
-2529.005054567146
 20
-7000.340985717125
 30
0.0
 42
0.0373408083348504
  0
VERTEX
  5
8CD
330
8C3
100
AcDbEntity
  8
STAVBA OBRYS
370
    20
100
AcDbVertex
100
AcDb2dVertex
 10
-2528.782700191673
 20
-7000.380151258076
 30
0.0
 42
0.3086229257275778
  0
VERTEX
  5
8CE
330
8C3
100
AcDbEntity
  8
STAVBA OBRYS
370
    20
100
AcDbVertex
100
AcDb2dVertex
 10
-2508.289739588753
 20
-6991.140919824103
 30
0.0
  0
SEQEND
  5
8CF
330
8C3
100
AcDbEntity
  8
STAVBA OBRYS
370
    20
  0
POLYLINE
  5
8D0
330
1F
100
AcDbEntity
  8
STAVBA OBRYS
370
    20
100
AcDb2dPolyline
 66
     1
 10
0.0
 20
0.0
 30
0.0
  0
VERTEX
  5
8D1
330
8D0
100
AcDbEntity
  8
STAVBA OBRYS
370
    20
100
AcDbVertex
100
AcDb2dVertex
 10
-2538.301195232113
 20
-6983.462654327381
 30
0.0
 42
0.0064239028828688
  0
VERTEX
  5
8D2
330
8D0
100
AcDbEntity
  8
STAVBA OBRYS
370
    20
100
AcDbVertex
100
AcDb2dVertex
 10
-2538.262326791933
 20
-6983.68176798673
 30
0.0
 42
0.0832048017309575
  0
VERTEX
  5
8D3
330
8D0
100
AcDbEntity
  8
STAVBA OBRYS
370
    20
100
AcDbVertex
100
AcDb2dVertex
 10
-2537.478144189251
 20
-6986.011981566386
 30
0.0
 42
0.0336767237692336
  0
VERTEX
  5
8D4
330
8D0
100
AcDbEntity
  8
STAVBA OBRYS
370
    20
100
AcDbVertex
100
AcDb2dVertex
 10
-2535.77532763033
 20
-6988.740256085846
 30
0.0
 42
0.0844635135812105
  0
VERTEX
  5
8D5
330
8D0
100
AcDbEntity
  8
STAVBA OBRYS
370
    20
100
AcDbVertex
100
AcDb2dVertex
 10
-2534.855517870437
 20
-6989.644677690842
 30
0.0
 42
0.0495829410719565
  0
VERTEX
  5
8D6
330
8D0
100
AcDbEntity
  8
STAVBA OBRYS
370
    20
100
AcDbVertex
100
AcDb2dVertex
 10
-2533.106839433083
 20
-6990.621327198154
 30
0.0
 42
0.0322692699774654
  0
VERTEX
  5
8D7
330
8D0
100
AcDbEntity
  8
STAVBA OBRYS
370
    20
100
AcDbVertex
100
AcDb2dVertex
 10
-2530.215485251992
 20
-6991.662850699555
 30
0.0
 42
0.0276160659512937
  0
VERTEX
  5
8D8
330
8D0
100
AcDbEntity
  8
STAVBA OBRYS
370
    20
100
AcDbVertex
100
AcDb2dVertex
 10
-2529.359908813705
 20
-6991.8595861285
 30
0.0
 42
0.3050950297317707
  0
VERTEX
  5
8D9
330
8D0
100
AcDbEntity
  8
STAVBA OBRYS
370
    20
100
AcDbVertex
100
AcDb2dVertex
 10
-2510.62989513505
 20
-6983.462654327379
 30
0.0
  0
SEQEND
  5
8DA
330
8D0
100
AcDbEntity
  8
STAVBA OBRYS
370
    20
  0
LWPOLYLINE
  5
8DB
330
1F
100
AcDbEntity
  8
STAVBA OBRYS
370
    20
100
AcDbPolyline
 90
        7
 70
     0
 43
0.0
 10
-2532.951508897596
 20
-6983.462654327379
 42
0.0203924744732807
 10
-2532.049424913187
 20
-6984.475784356533
 42
0.0273961979096945
 10
-2531.199560562992
 20
-6985.263960730559
 42
0.0243529190212958
 10
-2530.036440070572
 20
-6986.137720075227
 42
0.0398020282482987
 10
-2529.261481533012
 20
-6986.577348818673
 42
0.104168275620852
 10
-2528.875070396672
 20
-6986.667365278851
 42
0.1828126674292254
 10
-2518.696097067231
 20
-6983.462654327379
 42
0.007272956268647
  0
LINE
  5
8DC
330
1F
100
AcDbEntity
  8
0
100
AcDbLine
 10
-2508.436740417913
 20
-7008.462654327378
 30
0.0
 11
-2508.436740417913
 21
-7033.462654327379
 31
0.0
  0
LWPOLYLINE
  5
8DD
330
1F
100
AcDbEntity
  8
STAVBA OBRYS
370
    20
100
AcDbPolyline
 90
        4
 70
     0
 43
0.0
 10
-2508.436740417913
 20
-7002.328433772209
 42
-0.0091633840917308
 10
-2510.173263176486
 20
-7003.349983034611
 42
-0.0157521173632038
 10
-2513.815860091324
 20
-7005.255275829765
 42
-0.0099613453131199
 10
-2520.800160574399
 20
-7008.462654327378
 42
-0.0099613453131199
  0
LWPOLYLINE
  5
8DE
330
1F
100
AcDbEntity
  8
STAVBA OBRYS
370
    20
100
AcDbPolyline
 90
        5
 70
     0
 43
0.0
 10
-2569.970298880088
 20
-6983.462654327379
 42
0.0128837512779298
 10
-2569.685506919864
 20
-6986.795819149126
 42
0.0351641677647434
 10
-2569.057747198341
 20
-6990.399528603465
 42
0.0187319685742942
 10
-2565.67373131735
 20
-7002.157765945607
 42
0.1091451068841891
 10
-2561.936133301359
 20
-7008.462654327378
 42
0.0205166500055637
  0
LWPOLYLINE
  5
8DF
330
1F
100
AcDbEntity
  8
STAVBA OBRYS
370
    20
100
AcDbPolyline
 90
        3
 70
     0
 43
0.0
 10
-2554.437715500862
 20
-6989.961823896634
 10
-2574.433967932854
 20
-6999.177852947155
 10
-2578.433905566569
 20
-6999.823250422496
  0
LWPOLYLINE
  5
8E0
330
1F
100
AcDbEntity
  8
STAVBA OBRYS
100
AcDbPolyline
 90
        2
 70
     0
 43
0.0
 10
-2588.436740417913
 20
-6996.846177217704
 42
0.0070027860950108
 10
-2586.612769217943
 20
-7003.462654327378
  0
LWPOLYLINE
  5
8E1
330
1F
100
AcDbEntity
  8
STAVBA OBRYS
370
    20
100
AcDbPolyline
 90
        2
 70
     0
 43
0.0
 10
-2580.160028484093
 20
-6983.462654327379
 42
0.0167354774094603
 10
-2575.423654508853
 20
-7008.462654327378
 42
0.0133702840819155
  0
LINE
  5
8E4
330
1F
100
AcDbEntity
  8
SPOJOVACÍ
  6
DASHED
100
AcDbLine
 10
-2689.496825066984
 20
-6995.928342746721
 30
0.0
 11
-2689.350061930315
 21
-6997.101536271092
 31
0.0
  0
LINE
  5
8E5
330
1F
100
AcDbEntity
  8
SPOJOVACÍ
  6
DASHED
100
AcDbLine
 10
-2687.092097390741
 20
-6997.859964407782
 30
0.0
 11
-2686.851442307502
 21
-6995.928342746721
 31
0.0
  0
LINE
  5
8E6
330
1F
100
AcDbEntity
  8
SPOJOVACÍ
  6
DASHED
100
AcDbLine
 10
-2686.234307877027
 20
-6998.246471054432
 30
0.0
 11
-2686.604406220554
 21
-6998.617480972557
 31
0.0
  0
LINE
  5
8E7
330
1F
100
AcDbEntity
  8
SPOJOVACÍ
  6
DASHED
100
AcDbLine
 10
-2686.234307877027
 20
-6998.246471054432
 30
0.0
 11
-2686.604406220554
 21
-6998.033163141105
 31
0.0
  0
LINE
  5
8E8
330
1F
100
AcDbEntity
  8
SPOJOVACÍ
  6
DASHED
100
AcDbLine
 10
-2690.277130936715
 20
-6997.292966449774
 30
0.0
 11
-2686.234307877027
 21
-6998.246471054432
 31
0.0
  0
LINE
  5
8E9
330
1F
100
AcDbEntity
  8
SPOJOVACÍ
  6
DASHED
100
AcDbLine
 10
-2690.277130936715
 20
-6997.292966449774
 30
0.0
 11
-2689.906121019397
 21
-6997.507185935559
 31
0.0
  0
LINE
  5
8EA
330
1F
100
AcDbEntity
  8
SPOJOVACÍ
  6
DASHED
100
AcDbLine
 10
-2690.277130936715
 20
-6997.292966449774
 30
0.0
 11
-2689.906121019397
 21
-6996.922868104107
 31
0.0
  0
LINE
  5
8EB
330
1F
100
AcDbEntity
  8
SPOJOVACÍ
  6
DASHED
100
AcDbLine
 10
-2689.906121019397
 20
-6997.507185935559
 30
0.0
 11
-2686.604406220554
 21
-6998.617480972557
 31
0.0
  0
LINE
  5
8EC
330
1F
100
AcDbEntity
  8
SPOJOVACÍ
  6
DASHED
100
AcDbLine
 10
-2689.906121019397
 20
-6996.922868104107
 30
0.0
 11
-2686.604406220554
 21
-6998.033163141105
 31
0.0
  0
LINE
  5
8ED
330
1F
100
AcDbEntity
  8
SPOJOVACÍ
  6
DASHED
370
    20
100
AcDbLine
 10
-2688.174133689382
 20
-7006.512608488375
 30
0.0
 11
-2687.826824647876
 21
-7003.733224607133
 31
0.0
  0
LINE
  5
8EE
330
1F
100
AcDbEntity
  8
SPOJOVACÍ
  6
DASHED
100
AcDbLine
 10
-2688.912507233129
 20
-7000.602885398042
 30
0.0
 11
-2688.628096684878
 21
-7002.877258236191
 31
0.0
  0
LINE
  5
8EF
330
1F
100
AcDbEntity
  8
SPOJOVACÍ
  6
DASHED
370
    20
100
AcDbLine
 10
-2688.552436184203
 20
-7003.485276946927
 30
0.0
 11
-2688.174133689382
 21
-7006.512608488375
 31
0.0
  0
LINE
  5
8F0
330
1F
100
AcDbEntity
  8
SPOJOVACÍ
  6
DASHED
100
AcDbLine
 10
-2687.756633581396
 20
-7003.175342371807
 30
0.0
 11
-2687.494100765652
 21
-7001.073256694522
 31
0.0
  0
LINE
  5
8F1
330
1F
100
AcDbEntity
  8
SPOJOVACÍ
  6
DASHED
100
AcDbLine
 10
-2689.723806564732
 20
-7000.247372208986
 30
0.0
 11
-2689.353708216927
 21
-7000.460680122313
 31
0.0
  0
LINE
  5
8F2
330
1F
100
AcDbEntity
  8
SPOJOVACÍ
  6
DASHED
100
AcDbLine
 10
-2689.723806564732
 20
-7000.247372208986
 30
0.0
 11
-2689.353708216927
 21
-6999.876362290861
 31
0.0
  0
LINE
  5
8F3
330
1F
100
AcDbEntity
  8
SPOJOVACÍ
  6
DASHED
100
AcDbLine
 10
-2686.670039426629
 20
-7000.86815293142
 30
0.0
 11
-2687.040137770156
 21
-7001.239162849273
 31
0.0
  0
LINE
  5
8F4
330
1F
100
AcDbEntity
  8
SPOJOVACÍ
  6
DASHED
100
AcDbLine
 10
-2686.670039426629
 20
-7000.86815293142
 30
0.0
 11
-2687.040137770156
 21
-7000.654845018093
 31
0.0
  0
LINE
  5
8F5
330
1F
100
AcDbEntity
  8
SPOJOVACÍ
  6
DASHED
100
AcDbLine
 10
-2689.353708216927
 20
-7000.460680122313
 30
0.0
 11
-2687.040137770156
 21
-7001.239162849273
 31
0.0
  0
LINE
  5
8F6
330
1F
100
AcDbEntity
  8
SPOJOVACÍ
  6
DASHED
100
AcDbLine
 10
-2689.353708216927
 20
-6999.876362290861
 30
0.0
 11
-2687.040137770156
 21
-7000.654845018093
 31
0.0
  0
LINE
  5
8F7
330
1F
100
AcDbEntity
  8
SPOJOVACÍ
  6
DASHED
100
AcDbLine
 10
-2689.723806564732
 20
-7000.247372208986
 30
0.0
 11
-2686.670039426629
 21
-7000.86815293142
 31
0.0
  0
LINE
  5
8F8
330
1F
100
AcDbEntity
  8
SPOJOVACÍ
  6
DASHED
100
AcDbLine
 10
-2689.17048218847
 20
-7003.200866395738
 30
0.0
 11
-2688.800383844943
 21
-7003.415085881518
 31
0.0
  0
LINE
  5
8F9
330
1F
100
AcDbEntity
  8
SPOJOVACÍ
  6
DASHED
100
AcDbLine
 10
-2689.17048218847
 20
-7003.200866395738
 30
0.0
 11
-2688.800383844943
 21
-7002.830768050073
 31
0.0
  0
LINE
  5
8FA
330
1F
100
AcDbEntity
  8
SPOJOVACÍ
  6
DASHED
100
AcDbLine
 10
-2687.059280789842
 20
-7003.505331537197
 30
0.0
 11
-2687.429379133368
 21
-7003.87634145505
 31
0.0
  0
LINE
  5
8FB
330
1F
100
AcDbEntity
  8
SPOJOVACÍ
  6
DASHED
100
AcDbLine
 10
-2687.059280789842
 20
-7003.505331537197
 30
0.0
 11
-2687.429379133368
 21
-7003.292023623607
 31
0.0
  0
LINE
  5
8FC
330
1F
100
AcDbEntity
  8
SPOJOVACÍ
  6
DASHED
100
AcDbLine
 10
-2688.800383844943
 20
-7003.415085881518
 30
0.0
 11
-2687.429379133368
 21
-7003.87634145505
 31
0.0
  0
LINE
  5
8FD
330
1F
100
AcDbEntity
  8
SPOJOVACÍ
  6
DASHED
100
AcDbLine
 10
-2688.800383844943
 20
-7002.830768050073
 30
0.0
 11
-2687.429379133368
 21
-7003.292023623607
 31
0.0
  0
LINE
  5
8FE
330
1F
100
AcDbEntity
  8
SPOJOVACÍ
  6
DASHED
100
AcDbLine
 10
-2689.17048218847
 20
-7003.200866395738
 30
0.0
 11
-2687.059280789842
 21
-7003.505331537197
 31
0.0
  0
LINE
  5
8FF
330
1F
100
AcDbEntity
  8
SPOJOVACÍ
  6
DASHED
100
AcDbLine
 10
-2689.27440142964
 20
-6997.709554981828
 30
0.0
 11
-2688.989990877111
 21
-6999.984839392171
 31
0.0
  0
LINE
  5
900
330
1F
100
AcDbEntity
  8
SPOJOVACÍ
  6
DASHED
100
AcDbLine
 10
-2687.423909703451
 20
-7000.512639742362
 30
0.0
 11
-2687.16228845722
 21
-6998.418758215567
 31
0.0
  0
LINE
  5
901
330
1F
100
AcDbEntity
  8
SPOJOVACÍ
  6
DASHED
100
AcDbLine
 10
-2689.98086994628
 20
-6975.707846434682
 30
0.0
 11
-2689.561546699267
 21
-6977.159069504391
 31
0.0
  0
LINE
  5
902
330
1F
100
AcDbEntity
  8
SPOJOVACÍ
  6
DASHED
100
AcDbLine
 10
-2686.629018674437
 20
-6976.43710425869
 30
0.0
 11
-2686.028292542272
 21
-6975.051514393181
 31
0.0
  0
LINE
  5
903
330
1F
100
AcDbEntity
  8
SPOJOVACÍ
  6
DASHED
100
AcDbLine
 10
-2685.822277207516
 20
-6986.280261736826
 30
0.0
 11
-2686.192375551042
 21
-6986.066042251039
 31
0.0
  0
LINE
  5
904
330
1F
100
AcDbEntity
  8
SPOJOVACÍ
  6
DASHED
100
AcDbLine
 10
-2689.496825066984
 20
-6985.530949322548
 30
0.0
 11
-2689.496825066984
 21
-6988.001310201122
 31
0.0
  0
LINE
  5
905
330
1F
100
AcDbEntity
  8
SPOJOVACÍ
  6
DASHED
100
AcDbLine
 10
-2690.525990171248
 20
-6985.104333495621
 30
0.0
 11
-2685.822277207516
 21
-6986.280261736826
 31
0.0
  0
LINE
  5
906
330
1F
100
AcDbEntity
  8
SPOJOVACÍ
  6
DASHED
100
AcDbLine
 10
-2690.155891823443
 20
-6985.318552981407
 30
0.0
 11
-2686.192375551042
 21
-6986.65036008222
 31
0.0
  0
LINE
  5
907
330
1F
100
AcDbEntity
  8
SPOJOVACÍ
  6
DASHED
100
AcDbLine
 10
-2690.525990171248
 20
-6991.219160349065
 30
0.0
 11
-2685.822277207516
 21
-6992.395088589998
 31
0.0
  0
LINE
  5
908
330
1F
100
AcDbEntity
  8
SPOJOVACÍ
  6
DASHED
100
AcDbLine
 10
-2690.155891823443
 20
-6991.433379834844
 30
0.0
 11
-2686.192375551042
 21
-6992.766098507852
 31
0.0
  0
LINE
  5
909
330
1F
100
AcDbEntity
  8
SPOJOVACÍ
  6
DASHED
100
AcDbLine
 10
-2690.155891823443
 20
-6990.849062003398
 30
0.0
 11
-2686.192375551042
 21
-6992.181780676671
 31
0.0
  0
LINE
  5
90A
330
1F
100
AcDbEntity
  8
SPOJOVACÍ
  6
DASHED
100
AcDbLine
 10
-2690.525990171248
 20
-6994.277485348106
 30
0.0
 11
-2685.822277207516
 21
-6995.453413589039
 31
0.0
  0
LINE
  5
90B
330
1F
100
AcDbEntity
  8
SPOJOVACÍ
  6
DASHED
100
AcDbLine
 10
-2690.155891823443
 20
-6994.490793261433
 30
0.0
 11
-2686.192375551042
 21
-6995.823511934705
 31
0.0
  0
LINE
  5
90C
330
1F
100
AcDbEntity
  8
SPOJOVACÍ
  6
DASHED
100
AcDbLine
 10
-2690.155891823443
 20
-6993.906475429982
 30
0.0
 11
-2686.192375551042
 21
-6995.239194103253
 31
0.0
  0
LINE
  5
90D
330
1F
100
AcDbEntity
  8
SPOJOVACÍ
  6
DASHED
100
AcDbLine
 10
-2690.525990171248
 20
-6988.161746922475
 30
0.0
 11
-2685.822277207516
 21
-6989.337675163408
 31
0.0
  0
LINE
  5
90E
330
1F
100
AcDbEntity
  8
SPOJOVACÍ
  6
DASHED
100
AcDbLine
 10
-2690.155891823443
 20
-6988.37596640826
 30
0.0
 11
-2686.192375551042
 21
-6989.708685081261
 31
0.0
  0
LINE
  5
90F
330
1F
100
AcDbEntity
  8
SPOJOVACÍ
  6
DASHED
100
AcDbLine
 10
-2690.155891823443
 20
-6987.791648576809
 30
0.0
 11
-2686.192375551042
 21
-6989.124367249816
 31
0.0
  0
LINE
  5
910
330
1F
100
AcDbEntity
  8
SPOJOVACÍ
  6
DASHED
100
AcDbLine
 10
-2686.851442307502
 20
-6986.418820723269
 30
0.0
 11
-2686.851442307502
 21
-6988.896474179881
 31
0.0
  0
LINE
  5
911
330
1F
100
AcDbEntity
  8
SPOJOVACÍ
  6
DASHED
100
AcDbLine
 10
-2690.525990171248
 20
-6988.161746922475
 30
0.0
 11
-2690.155891823443
 21
-6988.37596640826
 31
0.0
  0
LINE
  5
912
330
1F
100
AcDbEntity
  8
SPOJOVACÍ
  6
DASHED
100
AcDbLine
 10
-2690.525990171248
 20
-6988.161746922475
 30
0.0
 11
-2690.155891823443
 21
-6987.791648576809
 31
0.0
  0
LINE
  5
913
330
1F
100
AcDbEntity
  8
SPOJOVACÍ
  6
DASHED
100
AcDbLine
 10
-2686.851442307502
 20
-6989.478968866686
 30
0.0
 11
-2686.851442307502
 21
-6991.94932974526
 31
0.0
  0
LINE
  5
914
330
1F
100
AcDbEntity
  8
SPOJOVACÍ
  6
DASHED
100
AcDbLine
 10
-2689.496825066984
 20
-6991.653980326479
 30
0.0
 11
-2689.496825066984
 21
-6994.12160648822
 31
0.0
  0
LINE
  5
915
330
1F
100
AcDbEntity
  8
SPOJOVACÍ
  6
DASHED
100
AcDbLine
 10
-2689.496825066984
 20
-6994.705924319671
 30
0.0
 11
-2689.496825066984
 21
-6995.928342746721
 31
0.0
  0
LINE
  5
916
330
1F
100
AcDbEntity
  8
SPOJOVACÍ
  6
DASHED
100
AcDbLine
 10
-2686.851442307502
 20
-6992.538205437916
 30
0.0
 11
-2686.851442307502
 21
-6995.006743171844
 31
0.0
  0
LINE
  5
917
330
1F
100
AcDbEntity
  8
SPOJOVACÍ
  6
DASHED
100
AcDbLine
 10
-2686.851442307502
 20
-6995.598353581596
 30
0.0
 11
-2686.851442307502
 21
-6995.928342746721
 31
0.0
  0
LINE
  5
918
330
1F
100
AcDbEntity
  8
SPOJOVACÍ
  6
DASHED
100
AcDbLine
 10
-2690.525990171248
 20
-6991.219160349065
 30
0.0
 11
-2690.155891823443
 21
-6991.433379834844
 31
0.0
  0
LINE
  5
919
330
1F
100
AcDbEntity
  8
SPOJOVACÍ
  6
DASHED
100
AcDbLine
 10
-2690.525990171248
 20
-6991.219160349065
 30
0.0
 11
-2690.155891823443
 21
-6990.849062003398
 31
0.0
  0
LINE
  5
91A
330
1F
100
AcDbEntity
  8
SPOJOVACÍ
  6
DASHED
100
AcDbLine
 10
-2690.525990171248
 20
-6994.277485348106
 30
0.0
 11
-2690.155891823443
 21
-6994.490793261433
 31
0.0
  0
LINE
  5
91B
330
1F
100
AcDbEntity
  8
SPOJOVACÍ
  6
DASHED
100
AcDbLine
 10
-2690.525990171248
 20
-6994.277485348106
 30
0.0
 11
-2690.155891823443
 21
-6993.906475429982
 31
0.0
  0
LINE
  5
91C
330
1F
100
AcDbEntity
  8
SPOJOVACÍ
  6
DASHED
100
AcDbLine
 10
-2689.496825066984
 20
-6988.583804887927
 30
0.0
 11
-2689.496825066984
 21
-6991.061458344539
 31
0.0
  0
LINE
  5
91D
330
1F
100
AcDbEntity
  8
SPOJOVACÍ
  6
DASHED
100
AcDbLine
 10
-2685.822277207516
 20
-6986.280261736826
 30
0.0
 11
-2686.192375551042
 21
-6986.65036008222
 31
0.0
  0
LINE
  5
91E
330
1F
100
AcDbEntity
  8
SPOJOVACÍ
  6
DASHED
100
AcDbLine
 10
-2685.822277207516
 20
-6989.337675163408
 30
0.0
 11
-2686.192375551042
 21
-6989.708685081261
 31
0.0
  0
LINE
  5
91F
330
1F
100
AcDbEntity
  8
SPOJOVACÍ
  6
DASHED
100
AcDbLine
 10
-2685.822277207516
 20
-6989.337675163408
 30
0.0
 11
-2686.192375551042
 21
-6989.124367249816
 31
0.0
  0
LINE
  5
920
330
1F
100
AcDbEntity
  8
SPOJOVACÍ
  6
DASHED
100
AcDbLine
 10
-2685.822277207516
 20
-6992.395088589998
 30
0.0
 11
-2686.192375551042
 21
-6992.766098507852
 31
0.0
  0
LINE
  5
921
330
1F
100
AcDbEntity
  8
SPOJOVACÍ
  6
DASHED
100
AcDbLine
 10
-2685.822277207516
 20
-6992.395088589998
 30
0.0
 11
-2686.192375551042
 21
-6992.181780676671
 31
0.0
  0
LINE
  5
922
330
1F
100
AcDbEntity
  8
SPOJOVACÍ
  6
DASHED
100
AcDbLine
 10
-2685.822277207516
 20
-6995.453413589039
 30
0.0
 11
-2686.192375551042
 21
-6995.823511934705
 31
0.0
  0
LINE
  5
923
330
1F
100
AcDbEntity
  8
SPOJOVACÍ
  6
DASHED
100
AcDbLine
 10
-2685.822277207516
 20
-6995.453413589039
 30
0.0
 11
-2686.192375551042
 21
-6995.239194103253
 31
0.0
  0
LINE
  5
924
330
1F
100
AcDbEntity
  8
SPOJOVACÍ
  6
DASHED
100
AcDbLine
 10
-2690.525990171248
 20
-6982.046920069038
 30
0.0
 11
-2685.822277207516
 21
-6983.222848309971
 31
0.0
  0
LINE
  5
925
330
1F
100
AcDbEntity
  8
SPOJOVACÍ
  6
DASHED
100
AcDbLine
 10
-2690.155891823443
 20
-6982.260227982365
 30
0.0
 11
-2686.192375551042
 21
-6983.592946655638
 31
0.0
  0
LINE
  5
926
330
1F
100
AcDbEntity
  8
SPOJOVACÍ
  6
DASHED
100
AcDbLine
 10
-2690.155891823443
 20
-6981.675910151185
 30
0.0
 11
-2686.192375551042
 21
-6983.008628824186
 31
0.0
  0
LINE
  5
927
330
1F
100
AcDbEntity
  8
SPOJOVACÍ
  6
DASHED
100
AcDbLine
 10
-2690.155891823443
 20
-6984.734235149956
 30
0.0
 11
-2686.192375551042
 21
-6986.066042251039
 31
0.0
  0
LINE
  5
928
330
1F
100
AcDbEntity
  8
SPOJOVACÍ
  6
DASHED
100
AcDbLine
 10
-2686.851442307502
 20
-6977.930259653051
 30
0.0
 11
-2686.629018674437
 21
-6976.43710425869
 31
0.0
  0
LINE
  5
929
330
1F
100
AcDbEntity
  8
SPOJOVACÍ
  6
DASHED
100
AcDbLine
 10
-2689.561546699267
 20
-6977.159069504391
 30
0.0
 11
-2689.496825066984
 21
-6977.930259653051
 31
0.0
  0
LINE
  5
92A
330
1F
100
AcDbEntity
  8
SPOJOVACÍ
  6
DASHED
100
AcDbLine
 10
-2689.496825066984
 20
-6982.47080117913
 30
0.0
 11
-2689.496825066984
 21
-6984.939338913058
 31
0.0
  0
LINE
  5
92B
330
1F
100
AcDbEntity
  8
SPOJOVACÍ
  6
DASHED
100
AcDbLine
 10
-2686.851442307502
 20
-6983.36596515789
 30
0.0
 11
-2686.851442307502
 21
-6985.834502891818
 31
0.0
  0
LINE
  5
92C
330
1F
100
AcDbEntity
  8
SPOJOVACÍ
  6
DASHED
100
AcDbLine
 10
-2690.525990171248
 20
-6982.046920069038
 30
0.0
 11
-2690.155891823443
 21
-6982.260227982365
 31
0.0
  0
LINE
  5
92D
330
1F
100
AcDbEntity
  8
SPOJOVACÍ
  6
DASHED
100
AcDbLine
 10
-2690.525990171248
 20
-6982.046920069038
 30
0.0
 11
-2690.155891823443
 21
-6981.675910151185
 31
0.0
  0
LINE
  5
92E
330
1F
100
AcDbEntity
  8
SPOJOVACÍ
  6
DASHED
100
AcDbLine
 10
-2690.525990171248
 20
-6985.104333495621
 30
0.0
 11
-2690.155891823443
 21
-6985.318552981407
 31
0.0
  0
LINE
  5
92F
330
1F
100
AcDbEntity
  8
SPOJOVACÍ
  6
DASHED
100
AcDbLine
 10
-2690.525990171248
 20
-6985.104333495621
 30
0.0
 11
-2690.155891823443
 21
-6984.734235149956
 31
0.0
  0
LINE
  5
930
330
1F
100
AcDbEntity
  8
SPOJOVACÍ
  6
DASHED
100
AcDbLine
 10
-2686.851442307502
 20
-6977.930259653051
 30
0.0
 11
-2686.851442307502
 21
-6982.7743547484
 31
0.0
  0
LINE
  5
931
330
1F
100
AcDbEntity
  8
SPOJOVACÍ
  6
DASHED
100
AcDbLine
 10
-2689.496825066984
 20
-6977.930259653051
 30
0.0
 11
-2689.496825066984
 21
-6981.887394920137
 31
0.0
  0
LINE
  5
932
330
1F
100
AcDbEntity
  8
SPOJOVACÍ
  6
DASHED
100
AcDbLine
 10
-2685.822277207516
 20
-6983.222848309971
 30
0.0
 11
-2686.192375551042
 21
-6983.592946655638
 31
0.0
  0
LINE
  5
933
330
1F
100
AcDbEntity
  8
SPOJOVACÍ
  6
DASHED
100
AcDbLine
 10
-2685.822277207516
 20
-6983.222848309971
 30
0.0
 11
-2686.192375551042
 21
-6983.008628824186
 31
0.0
  0
LINE
  5
934
330
1F
100
AcDbEntity
  8
SPOJOVACÍ
  6
DASHED
100
AcDbLine
 10
-2693.172284500243
 20
-6971.462654327385
 30
0.0
 11
-2683.175982878521
 21
-6971.462654327385
 31
0.0
  0
LINE
  5
935
330
1F
100
AcDbEntity
  8
SPOJOVACÍ
  6
DASHED
100
AcDbLine
 10
-2693.172284500243
 20
-6972.638582568581
 30
0.0
 11
-2683.175982878521
 21
-6972.638582568581
 31
0.0
  0
LINE
  5
936
330
1F
100
AcDbEntity
  8
SPOJOVACÍ
  6
DASHED
100
AcDbLine
 10
-2693.172284500243
 20
-6971.462654327385
 30
0.0
 11
-2693.172284500243
 21
-6972.638582568581
 31
0.0
  0
LINE
  5
937
330
1F
100
AcDbEntity
  8
SPOJOVACÍ
  6
DASHED
100
AcDbLine
 10
-2690.761175816012
 20
-6974.41523694195
 30
0.0
 11
-2689.98086994628
 21
-6975.707846434682
 31
0.0
  0
LINE
  5
938
330
1F
100
AcDbEntity
  8
SPOJOVACÍ
  6
DASHED
100
AcDbLine
 10
-2691.849593118364
 20
-6973.367840392326
 30
0.0
 11
-2690.761175816012
 21
-6974.41523694195
 31
0.0
  0
LINE
  5
939
330
1F
100
AcDbEntity
  8
SPOJOVACÍ
  6
DASHED
100
AcDbLine
 10
-2693.172284500243
 20
-6972.638582568581
 30
0.0
 11
-2691.849593118364
 21
-6973.367840392326
 31
0.0
  0
LINE
  5
93A
330
1F
100
AcDbEntity
  8
SPOJOVACÍ
  6
DASHED
100
AcDbLine
 10
-2686.028292542272
 20
-6975.051514393181
 30
0.0
 11
-2685.089373093687
 21
-6973.86829357394
 31
0.0
  0
LINE
  5
93B
330
1F
100
AcDbEntity
  8
SPOJOVACÍ
  6
DASHED
100
AcDbLine
 10
-2683.175982878521
 20
-6971.462654327385
 30
0.0
 11
-2683.175982878521
 21
-6972.638582568581
 31
0.0
  0
LINE
  5
93C
330
1F
100
AcDbEntity
  8
SPOJOVACÍ
  6
DASHED
100
AcDbLine
 10
-2683.876981960965
 20
-6972.968571733708
 30
0.0
 11
-2683.175982878521
 21
-6972.638582568581
 31
0.0
  0
LINE
  5
93D
330
1F
100
AcDbEntity
  8
SPOJOVACÍ
  6
DASHED
100
AcDbLine
 10
-2685.089373093687
 20
-6973.86829357394
 30
0.0
 11
-2683.876981960965
 21
-6972.968571733708
 31
0.0
  0
LINE
  5
93E
330
1F
100
AcDbEntity
  8
SPOJOVACÍ
  6
DASHED
100
AcDbLine
 10
-2552.349356312234
 20
-6972.638582568581
 30
0.0
 11
-2542.353054690511
 21
-6972.638582568581
 31
0.0
  0
LINE
  5
93F
330
1F
100
AcDbEntity
  8
SPOJOVACÍ
  6
DASHED
100
AcDbLine
 10
-2552.349356312234
 20
-6971.462654327385
 30
0.0
 11
-2542.353054690511
 21
-6971.462654327385
 31
0.0
  0
LINE
  5
940
330
1F
100
AcDbEntity
  8
SPOJOVACÍ
  6
DASHED
100
AcDbLine
 10
-2549.332963635434
 20
-6984.734235149956
 30
0.0
 11
-2545.369447363033
 21
-6986.066042251039
 31
0.0
  0
LINE
  5
941
330
1F
100
AcDbEntity
  8
SPOJOVACÍ
  6
DASHED
100
AcDbLine
 10
-2549.332963635434
 20
-6981.675910151185
 30
0.0
 11
-2545.369447363033
 21
-6983.008628824186
 31
0.0
  0
LINE
  5
942
330
1F
100
AcDbEntity
  8
SPOJOVACÍ
  6
DASHED
100
AcDbLine
 10
-2549.332963635434
 20
-6982.260227982365
 30
0.0
 11
-2545.369447363033
 21
-6983.592946655638
 31
0.0
  0
LINE
  5
943
330
1F
100
AcDbEntity
  8
SPOJOVACÍ
  6
DASHED
100
AcDbLine
 10
-2549.703061983239
 20
-6982.046920069038
 30
0.0
 11
-2544.999349019506
 21
-6983.222848309971
 31
0.0
  0
LINE
  5
944
330
1F
100
AcDbEntity
  8
SPOJOVACÍ
  6
DASHED
100
AcDbLine
 10
-2549.332963635434
 20
-6987.791648576809
 30
0.0
 11
-2545.369447363033
 21
-6989.124367249816
 31
0.0
  0
LINE
  5
945
330
1F
100
AcDbEntity
  8
SPOJOVACÍ
  6
DASHED
100
AcDbLine
 10
-2549.332963635434
 20
-6988.37596640826
 30
0.0
 11
-2545.369447363033
 21
-6989.708685081261
 31
0.0
  0
LINE
  5
946
330
1F
100
AcDbEntity
  8
SPOJOVACÍ
  6
DASHED
100
AcDbLine
 10
-2549.703061983239
 20
-6988.161746922475
 30
0.0
 11
-2544.999349019506
 21
-6989.337675163408
 31
0.0
  0
LINE
  5
947
330
1F
100
AcDbEntity
  8
SPOJOVACÍ
  6
DASHED
100
AcDbLine
 10
-2549.332963635434
 20
-6993.906475429982
 30
0.0
 11
-2545.369447363033
 21
-6995.239194103253
 31
0.0
  0
LINE
  5
948
330
1F
100
AcDbEntity
  8
SPOJOVACÍ
  6
DASHED
100
AcDbLine
 10
-2549.332963635434
 20
-6994.490793261433
 30
0.0
 11
-2545.369447363033
 21
-6995.823511934705
 31
0.0
  0
LINE
  5
949
330
1F
100
AcDbEntity
  8
SPOJOVACÍ
  6
DASHED
100
AcDbLine
 10
-2549.703061983239
 20
-6994.277485348106
 30
0.0
 11
-2544.999349019506
 21
-6995.453413589039
 31
0.0
  0
LINE
  5
94A
330
1F
100
AcDbEntity
  8
SPOJOVACÍ
  6
DASHED
100
AcDbLine
 10
-2549.332963635434
 20
-6990.849062003398
 30
0.0
 11
-2545.369447363033
 21
-6992.181780676671
 31
0.0
  0
LINE
  5
94B
330
1F
100
AcDbEntity
  8
SPOJOVACÍ
  6
DASHED
100
AcDbLine
 10
-2549.332963635434
 20
-6991.433379834844
 30
0.0
 11
-2545.369447363033
 21
-6992.766098507852
 31
0.0
  0
LINE
  5
94C
330
1F
100
AcDbEntity
  8
SPOJOVACÍ
  6
DASHED
100
AcDbLine
 10
-2549.703061983239
 20
-6991.219160349065
 30
0.0
 11
-2544.999349019506
 21
-6992.395088589998
 31
0.0
  0
LINE
  5
94D
330
1F
100
AcDbEntity
  8
SPOJOVACÍ
  6
DASHED
100
AcDbLine
 10
-2549.332963635434
 20
-6985.318552981407
 30
0.0
 11
-2545.369447363033
 21
-6986.65036008222
 31
0.0
  0
LINE
  5
94E
330
1F
100
AcDbEntity
  8
SPOJOVACÍ
  6
DASHED
100
AcDbLine
 10
-2549.703061983239
 20
-6985.104333495621
 30
0.0
 11
-2544.999349019506
 21
-6986.280261736826
 31
0.0
  0
LINE
  5
94F
330
1F
100
AcDbEntity
  8
SPOJOVACÍ
  6
DASHED
100
AcDbLine
 10
-2545.806090486427
 20
-6976.43710425869
 30
0.0
 11
-2545.205364354262
 21
-6975.051514393181
 31
0.0
  0
LINE
  5
950
330
1F
100
AcDbEntity
  8
SPOJOVACÍ
  6
DASHED
100
AcDbLine
 10
-2549.454202748706
 20
-6997.292966449774
 30
0.0
 11
-2545.411379689018
 21
-6998.246471054432
 31
0.0
  0
LINE
  5
951
330
1F
100
AcDbEntity
  8
SPOJOVACÍ
  6
DASHED
100
AcDbLine
 10
-2545.411379689018
 20
-6998.246471054432
 30
0.0
 11
-2545.781478032544
 21
-6998.033163141105
 31
0.0
  0
LINE
  5
952
330
1F
100
AcDbEntity
  8
SPOJOVACÍ
  6
DASHED
100
AcDbLine
 10
-2545.411379689018
 20
-6998.246471054432
 30
0.0
 11
-2545.781478032544
 21
-6998.617480972557
 31
0.0
  0
LINE
  5
953
330
1F
100
AcDbEntity
  8
SPOJOVACÍ
  6
DASHED
100
AcDbLine
 10
-2552.349356312234
 20
-6971.462654327385
 30
0.0
 11
-2552.349356312234
 21
-6972.638582568581
 31
0.0
  0
LINE
  5
954
330
1F
100
AcDbEntity
  8
SPOJOVACÍ
  6
DASHED
100
AcDbLine
 10
-2546.028514119492
 20
-6992.538205437916
 30
0.0
 11
-2546.028514119492
 21
-6995.006743171844
 31
0.0
  0
LINE
  5
955
330
1F
100
AcDbEntity
  8
SPOJOVACÍ
  6
DASHED
100
AcDbLine
 10
-2548.673896878974
 20
-6991.653980326479
 30
0.0
 11
-2548.673896878974
 21
-6994.12160648822
 31
0.0
  0
LINE
  5
956
330
1F
100
AcDbEntity
  8
SPOJOVACÍ
  6
DASHED
100
AcDbLine
 10
-2548.34755400046
 20
-7003.200866395738
 30
0.0
 11
-2546.236352601832
 21
-7003.505331537197
 31
0.0
  0
LINE
  5
957
330
1F
100
AcDbEntity
  8
SPOJOVACÍ
  6
DASHED
100
AcDbLine
 10
-2546.236352601832
 20
-7003.505331537197
 30
0.0
 11
-2546.606450945359
 21
-7003.292023623607
 31
0.0
  0
LINE
  5
958
330
1F
100
AcDbEntity
  8
SPOJOVACÍ
  6
DASHED
100
AcDbLine
 10
-2548.34755400046
 20
-7003.200866395738
 30
0.0
 11
-2547.977455656933
 21
-7003.415085881518
 31
0.0
  0
LINE
  5
959
330
1F
100
AcDbEntity
  8
SPOJOVACÍ
  6
DASHED
100
AcDbLine
 10
-2547.977455656933
 20
-7003.415085881518
 30
0.0
 11
-2546.606450945359
 21
-7003.87634145505
 31
0.0
  0
LINE
  5
95A
330
1F
100
AcDbEntity
  8
SPOJOVACÍ
  6
DASHED
100
AcDbLine
 10
-2546.236352601832
 20
-7003.505331537197
 30
0.0
 11
-2546.606450945359
 21
-7003.87634145505
 31
0.0
  0
LINE
  5
95B
330
1F
100
AcDbEntity
  8
SPOJOVACÍ
  6
DASHED
370
    20
100
AcDbLine
 10
-2547.729507996193
 20
-7003.485276946927
 30
0.0
 11
-2547.351205501372
 21
-7006.512608488375
 31
0.0
  0
LINE
  5
95C
330
1F
100
AcDbEntity
  8
SPOJOVACÍ
  6
DASHED
370
    20
100
AcDbLine
 10
-2547.351205501372
 20
-7006.512608488375
 30
0.0
 11
-2547.003896459866
 21
-7003.733224607133
 31
0.0
  0
LINE
  5
95D
330
1F
100
AcDbEntity
  8
SPOJOVACÍ
  6
DASHED
100
AcDbLine
 10
-2549.703061983239
 20
-6994.277485348106
 30
0.0
 11
-2549.332963635434
 21
-6993.906475429982
 31
0.0
  0
LINE
  5
95E
330
1F
100
AcDbEntity
  8
SPOJOVACÍ
  6
DASHED
100
AcDbLine
 10
-2549.703061983239
 20
-6994.277485348106
 30
0.0
 11
-2549.332963635434
 21
-6994.490793261433
 31
0.0
  0
LINE
  5
95F
330
1F
100
AcDbEntity
  8
SPOJOVACÍ
  6
DASHED
100
AcDbLine
 10
-2546.028514119492
 20
-6995.598353581596
 30
0.0
 11
-2546.028514119492
 21
-6995.928342746721
 31
0.0
  0
LINE
  5
960
330
1F
100
AcDbEntity
  8
SPOJOVACÍ
  6
DASHED
100
AcDbLine
 10
-2548.673896878974
 20
-6994.705924319671
 30
0.0
 11
-2548.673896878974
 21
-6995.928342746721
 31
0.0
  0
LINE
  5
961
330
1F
100
AcDbEntity
  8
SPOJOVACÍ
  6
DASHED
100
AcDbLine
 10
-2546.600981515441
 20
-7000.512639742362
 30
0.0
 11
-2546.33936026921
 21
-6998.418758215567
 31
0.0
  0
LINE
  5
962
330
1F
100
AcDbEntity
  8
SPOJOVACÍ
  6
DASHED
100
AcDbLine
 10
-2548.45147324163
 20
-6997.709554981828
 30
0.0
 11
-2548.167062689101
 21
-6999.984839392171
 31
0.0
  0
LINE
  5
963
330
1F
100
AcDbEntity
  8
SPOJOVACÍ
  6
DASHED
100
AcDbLine
 10
-2547.977455656933
 20
-7002.830768050073
 30
0.0
 11
-2546.606450945359
 21
-7003.292023623607
 31
0.0
  0
LINE
  5
964
330
1F
100
AcDbEntity
  8
SPOJOVACÍ
  6
DASHED
100
AcDbLine
 10
-2548.34755400046
 20
-7003.200866395738
 30
0.0
 11
-2547.977455656933
 21
-7002.830768050073
 31
0.0
  0
LINE
  5
965
330
1F
100
AcDbEntity
  8
SPOJOVACÍ
  6
DASHED
100
AcDbLine
 10
-2548.900878376722
 20
-7000.247372208986
 30
0.0
 11
-2545.847111238619
 21
-7000.86815293142
 31
0.0
  0
LINE
  5
966
330
1F
100
AcDbEntity
  8
SPOJOVACÍ
  6
DASHED
100
AcDbLine
 10
-2548.530780028917
 20
-6999.876362290861
 30
0.0
 11
-2546.217209582146
 21
-7000.654845018093
 31
0.0
  0
LINE
  5
967
330
1F
100
AcDbEntity
  8
SPOJOVACÍ
  6
DASHED
100
AcDbLine
 10
-2548.530780028917
 20
-7000.460680122313
 30
0.0
 11
-2546.217209582146
 21
-7001.239162849273
 31
0.0
  0
LINE
  5
968
330
1F
100
AcDbEntity
  8
SPOJOVACÍ
  6
DASHED
100
AcDbLine
 10
-2545.847111238619
 20
-7000.86815293142
 30
0.0
 11
-2546.217209582146
 21
-7000.654845018093
 31
0.0
  0
LINE
  5
969
330
1F
100
AcDbEntity
  8
SPOJOVACÍ
  6
DASHED
100
AcDbLine
 10
-2545.847111238619
 20
-7000.86815293142
 30
0.0
 11
-2546.217209582146
 21
-7001.239162849273
 31
0.0
  0
LINE
  5
96A
330
1F
100
AcDbEntity
  8
SPOJOVACÍ
  6
DASHED
100
AcDbLine
 10
-2548.900878376722
 20
-7000.247372208986
 30
0.0
 11
-2548.530780028917
 21
-6999.876362290861
 31
0.0
  0
LINE
  5
96B
330
1F
100
AcDbEntity
  8
SPOJOVACÍ
  6
DASHED
100
AcDbLine
 10
-2548.900878376722
 20
-7000.247372208986
 30
0.0
 11
-2548.530780028917
 21
-7000.460680122313
 31
0.0
  0
LINE
  5
96C
330
1F
100
AcDbEntity
  8
SPOJOVACÍ
  6
DASHED
100
AcDbLine
 10
-2546.933705393387
 20
-7003.175342371807
 30
0.0
 11
-2546.671172577642
 21
-7001.073256694522
 31
0.0
  0
LINE
  5
96D
330
1F
100
AcDbEntity
  8
SPOJOVACÍ
  6
DASHED
100
AcDbLine
 10
-2548.089579045119
 20
-7000.602885398042
 30
0.0
 11
-2547.805168496868
 21
-7002.877258236191
 31
0.0
  0
LINE
  5
96E
330
1F
100
AcDbEntity
  8
SPOJOVACÍ
  6
DASHED
100
AcDbLine
 10
-2549.083192831387
 20
-6996.922868104107
 30
0.0
 11
-2545.781478032544
 21
-6998.033163141105
 31
0.0
  0
LINE
  5
96F
330
1F
100
AcDbEntity
  8
SPOJOVACÍ
  6
DASHED
100
AcDbLine
 10
-2549.083192831387
 20
-6997.507185935559
 30
0.0
 11
-2545.781478032544
 21
-6998.617480972557
 31
0.0
  0
LINE
  5
970
330
1F
100
AcDbEntity
  8
SPOJOVACÍ
  6
DASHED
100
AcDbLine
 10
-2549.454202748706
 20
-6997.292966449774
 30
0.0
 11
-2549.083192831387
 21
-6996.922868104107
 31
0.0
  0
LINE
  5
971
330
1F
100
AcDbEntity
  8
SPOJOVACÍ
  6
DASHED
100
AcDbLine
 10
-2549.454202748706
 20
-6997.292966449774
 30
0.0
 11
-2549.083192831387
 21
-6997.507185935559
 31
0.0
  0
LINE
  5
972
330
1F
100
AcDbEntity
  8
SPOJOVACÍ
  6
DASHED
100
AcDbLine
 10
-2546.269169202731
 20
-6997.859964407782
 30
0.0
 11
-2546.028514119492
 21
-6995.928342746721
 31
0.0
  0
LINE
  5
973
330
1F
100
AcDbEntity
  8
SPOJOVACÍ
  6
DASHED
100
AcDbLine
 10
-2548.673896878974
 20
-6995.928342746721
 30
0.0
 11
-2548.527133742306
 21
-6997.101536271092
 31
0.0
  0
LINE
  5
974
330
1F
100
AcDbEntity
  8
SPOJOVACÍ
  6
DASHED
100
AcDbLine
 10
-2548.673896878974
 20
-6982.47080117913
 30
0.0
 11
-2548.673896878974
 21
-6984.939338913058
 31
0.0
  0
LINE
  5
975
330
1F
100
AcDbEntity
  8
SPOJOVACÍ
  6
DASHED
100
AcDbLine
 10
-2549.703061983239
 20
-6985.104333495621
 30
0.0
 11
-2549.332963635434
 21
-6984.734235149956
 31
0.0
  0
LINE
  5
976
330
1F
100
AcDbEntity
  8
SPOJOVACÍ
  6
DASHED
100
AcDbLine
 10
-2549.703061983239
 20
-6985.104333495621
 30
0.0
 11
-2549.332963635434
 21
-6985.318552981407
 31
0.0
  0
LINE
  5
977
330
1F
100
AcDbEntity
  8
SPOJOVACÍ
  6
DASHED
100
AcDbLine
 10
-2546.028514119492
 20
-6983.36596515789
 30
0.0
 11
-2546.028514119492
 21
-6985.834502891818
 31
0.0
  0
LINE
  5
978
330
1F
100
AcDbEntity
  8
SPOJOVACÍ
  6
DASHED
100
AcDbLine
 10
-2548.673896878974
 20
-6988.583804887927
 30
0.0
 11
-2548.673896878974
 21
-6991.061458344539
 31
0.0
  0
LINE
  5
979
330
1F
100
AcDbEntity
  8
SPOJOVACÍ
  6
DASHED
100
AcDbLine
 10
-2549.703061983239
 20
-6991.219160349065
 30
0.0
 11
-2549.332963635434
 21
-6990.849062003398
 31
0.0
  0
LINE
  5
97A
330
1F
100
AcDbEntity
  8
SPOJOVACÍ
  6
DASHED
100
AcDbLine
 10
-2549.703061983239
 20
-6991.219160349065
 30
0.0
 11
-2549.332963635434
 21
-6991.433379834844
 31
0.0
  0
LINE
  5
97B
330
1F
100
AcDbEntity
  8
SPOJOVACÍ
  6
DASHED
100
AcDbLine
 10
-2546.028514119492
 20
-6989.478968866686
 30
0.0
 11
-2546.028514119492
 21
-6991.94932974526
 31
0.0
  0
LINE
  5
97C
330
1F
100
AcDbEntity
  8
SPOJOVACÍ
  6
DASHED
100
AcDbLine
 10
-2549.703061983239
 20
-6988.161746922475
 30
0.0
 11
-2549.332963635434
 21
-6987.791648576809
 31
0.0
  0
LINE
  5
97D
330
1F
100
AcDbEntity
  8
SPOJOVACÍ
  6
DASHED
100
AcDbLine
 10
-2549.703061983239
 20
-6988.161746922475
 30
0.0
 11
-2549.332963635434
 21
-6988.37596640826
 31
0.0
  0
LINE
  5
97E
330
1F
100
AcDbEntity
  8
SPOJOVACÍ
  6
DASHED
100
AcDbLine
 10
-2546.028514119492
 20
-6986.418820723269
 30
0.0
 11
-2546.028514119492
 21
-6988.896474179881
 31
0.0
  0
LINE
  5
97F
330
1F
100
AcDbEntity
  8
SPOJOVACÍ
  6
DASHED
100
AcDbLine
 10
-2548.673896878974
 20
-6985.530949322548
 30
0.0
 11
-2548.673896878974
 21
-6988.001310201122
 31
0.0
  0
LINE
  5
980
330
1F
100
AcDbEntity
  8
SPOJOVACÍ
  6
DASHED
100
AcDbLine
 10
-2552.349356312234
 20
-6972.638582568581
 30
0.0
 11
-2551.026664930354
 21
-6973.367840392326
 31
0.0
  0
LINE
  5
981
330
1F
100
AcDbEntity
  8
SPOJOVACÍ
  6
DASHED
100
AcDbLine
 10
-2551.026664930354
 20
-6973.367840392326
 30
0.0
 11
-2549.938247628002
 21
-6974.41523694195
 31
0.0
  0
LINE
  5
982
330
1F
100
AcDbEntity
  8
SPOJOVACÍ
  6
DASHED
100
AcDbLine
 10
-2549.938247628002
 20
-6974.41523694195
 30
0.0
 11
-2549.15794175827
 21
-6975.707846434682
 31
0.0
  0
LINE
  5
983
330
1F
100
AcDbEntity
  8
SPOJOVACÍ
  6
DASHED
100
AcDbLine
 10
-2548.673896878974
 20
-6977.930259653051
 30
0.0
 11
-2548.673896878974
 21
-6981.887394920137
 31
0.0
  0
LINE
  5
984
330
1F
100
AcDbEntity
  8
SPOJOVACÍ
  6
DASHED
100
AcDbLine
 10
-2546.028514119492
 20
-6977.930259653051
 30
0.0
 11
-2546.028514119492
 21
-6982.7743547484
 31
0.0
  0
LINE
  5
985
330
1F
100
AcDbEntity
  8
SPOJOVACÍ
  6
DASHED
100
AcDbLine
 10
-2549.703061983239
 20
-6982.046920069038
 30
0.0
 11
-2549.332963635434
 21
-6981.675910151185
 31
0.0
  0
LINE
  5
986
330
1F
100
AcDbEntity
  8
SPOJOVACÍ
  6
DASHED
100
AcDbLine
 10
-2549.703061983239
 20
-6982.046920069038
 30
0.0
 11
-2549.332963635434
 21
-6982.260227982365
 31
0.0
  0
LINE
  5
987
330
1F
100
AcDbEntity
  8
SPOJOVACÍ
  6
DASHED
100
AcDbLine
 10
-2548.738618511257
 20
-6977.159069504391
 30
0.0
 11
-2548.673896878974
 21
-6977.930259653051
 31
0.0
  0
LINE
  5
988
330
1F
100
AcDbEntity
  8
SPOJOVACÍ
  6
DASHED
100
AcDbLine
 10
-2546.028514119492
 20
-6977.930259653051
 30
0.0
 11
-2545.806090486427
 21
-6976.43710425869
 31
0.0
  0
LINE
  5
989
330
1F
100
AcDbEntity
  8
SPOJOVACÍ
  6
DASHED
100
AcDbLine
 10
-2549.15794175827
 20
-6975.707846434682
 30
0.0
 11
-2548.738618511257
 21
-6977.159069504391
 31
0.0
  0
LINE
  5
98A
330
1F
100
AcDbEntity
  8
SPOJOVACÍ
  6
DASHED
100
AcDbLine
 10
-2542.353054690511
 20
-6971.462654327385
 30
0.0
 11
-2542.353054690511
 21
-6972.638582568581
 31
0.0
  0
LINE
  5
98B
330
1F
100
AcDbEntity
  8
SPOJOVACÍ
  6
DASHED
100
AcDbLine
 10
-2544.999349019506
 20
-6995.453413589039
 30
0.0
 11
-2545.369447363033
 21
-6995.239194103253
 31
0.0
  0
LINE
  5
98C
330
1F
100
AcDbEntity
  8
SPOJOVACÍ
  6
DASHED
100
AcDbLine
 10
-2544.999349019506
 20
-6995.453413589039
 30
0.0
 11
-2545.369447363033
 21
-6995.823511934705
 31
0.0
  0
LINE
  5
98D
330
1F
100
AcDbEntity
  8
SPOJOVACÍ
  6
DASHED
100
AcDbLine
 10
-2544.999349019506
 20
-6983.222848309971
 30
0.0
 11
-2545.369447363033
 21
-6983.008628824186
 31
0.0
  0
LINE
  5
98E
330
1F
100
AcDbEntity
  8
SPOJOVACÍ
  6
DASHED
100
AcDbLine
 10
-2544.999349019506
 20
-6983.222848309971
 30
0.0
 11
-2545.369447363033
 21
-6983.592946655638
 31
0.0
  0
LINE
  5
98F
330
1F
100
AcDbEntity
  8
SPOJOVACÍ
  6
DASHED
100
AcDbLine
 10
-2544.999349019506
 20
-6992.395088589998
 30
0.0
 11
-2545.369447363033
 21
-6992.181780676671
 31
0.0
  0
LINE
  5
990
330
1F
100
AcDbEntity
  8
SPOJOVACÍ
  6
DASHED
100
AcDbLine
 10
-2544.999349019506
 20
-6992.395088589998
 30
0.0
 11
-2545.369447363033
 21
-6992.766098507852
 31
0.0
  0
LINE
  5
991
330
1F
100
AcDbEntity
  8
SPOJOVACÍ
  6
DASHED
100
AcDbLine
 10
-2544.999349019506
 20
-6989.337675163408
 30
0.0
 11
-2545.369447363033
 21
-6989.124367249816
 31
0.0
  0
LINE
  5
992
330
1F
100
AcDbEntity
  8
SPOJOVACÍ
  6
DASHED
100
AcDbLine
 10
-2544.999349019506
 20
-6989.337675163408
 30
0.0
 11
-2545.369447363033
 21
-6989.708685081261
 31
0.0
  0
LINE
  5
993
330
1F
100
AcDbEntity
  8
SPOJOVACÍ
  6
DASHED
100
AcDbLine
 10
-2544.999349019506
 20
-6986.280261736826
 30
0.0
 11
-2545.369447363033
 21
-6986.65036008222
 31
0.0
  0
LINE
  5
994
330
1F
100
AcDbEntity
  8
SPOJOVACÍ
  6
DASHED
100
AcDbLine
 10
-2544.999349019506
 20
-6986.280261736826
 30
0.0
 11
-2545.369447363033
 21
-6986.066042251039
 31
0.0
  0
LINE
  5
995
330
1F
100
AcDbEntity
  8
SPOJOVACÍ
  6
DASHED
100
AcDbLine
 10
-2544.266444905677
 20
-6973.86829357394
 30
0.0
 11
-2543.054053772956
 21
-6972.968571733708
 31
0.0
  0
LINE
  5
996
330
1F
100
AcDbEntity
  8
SPOJOVACÍ
  6
DASHED
100
AcDbLine
 10
-2543.054053772956
 20
-6972.968571733708
 30
0.0
 11
-2542.353054690511
 21
-6972.638582568581
 31
0.0
  0
LINE
  5
997
330
1F
100
AcDbEntity
  8
SPOJOVACÍ
  6
DASHED
100
AcDbLine
 10
-2545.205364354262
 20
-6975.051514393181
 30
0.0
 11
-2544.266444905677
 21
-6973.86829357394
 31
0.0
  0
LWPOLYLINE
  5
114E
330
1F
100
AcDbEntity
  8
STAVBA OBRYS
370
    20
100
AcDbPolyline
 90
        3
 70
     0
 43
0.0
 10
-2628.815656135573
 20
-7004.828372431784
 10
-2612.060438515845
 20
-7013.212113299752
 10
-2605.972093579019
 20
-7019.311041736266
  0
TEXT
  5
2DE5
330
1F
100
AcDbEntity
  8
POPIS
100
AcDbText
 10
-2528.08703707057
 20
-7113.710086954693
 30
0.0
 40
25.0
  1
10
 41
0.85
  7
SIMPLEX7
100
AcDbText
  0
LINE
  5
2DE6
330
1F
100
AcDbEntity
  8
POPIS
370
    20
100
AcDbLine
 10
-2511.5778557191
 20
-7081.078248907759
 30
0.0
 11
-2511.5778557191
 21
-7020.962654327378
 31
0.0
  0
INSERT
  5
2DE7
330
1F
100
AcDbEntity
  8
POPIS
100
AcDbBlockReference
  2
E_PUNKT
 10
-2511.506056039356
 20
-7020.909413618361
 30
0.0
 50
270.0
  0
LINE
  5
4E77
330
1F
100
AcDbEntity
  8
CETRIS
100
AcDbLine
 10
-2588.436740417913
 20
-6984.462654327379
 30
0.0
 11
-2305.921121050286
 21
-6984.46265432738
 31
0.0
  0
LINE
  5
4E78
330
1F
100
AcDbEntity
  8
CETRIS
100
AcDbLine
 10
-2588.436740417913
 20
-6985.462654327379
 30
0.0
 11
-2305.921121050286
 21
-6985.462654327379
 31
0.0
  0
LINE
  5
4E79
330
1F
100
AcDbEntity
  8
CETRIS
100
AcDbLine
 10
-2588.436740417913
 20
-6983.962654327379
 30
0.0
 11
-2305.921121050286
 21
-6983.962654327379
 31
0.0
  0
LINE
  5
4E7A
330
1F
100
AcDbEntity
  8
CETRIS
100
AcDbLine
 10
-2588.436740417913
 20
-6984.962654327379
 30
0.0
 11
-2305.921121050286
 21
-6984.96265432738
 31
0.0
  0
LINE
  5
4E7B
330
1F
100
AcDbEntity
  8
CETRIS
100
AcDbLine
 10
-2963.866783561359
 20
-6983.962654327379
 30
0.0
 11
-2648.436740417913
 21
-6983.962654327379
 31
0.0
  0
LINE
  5
4E7C
330
1F
100
AcDbEntity
  8
CETRIS
100
AcDbLine
 10
-2963.866783561359
 20
-6984.462654327379
 30
0.0
 11
-2648.436740417913
 21
-6984.462654327379
 31
0.0
  0
LINE
  5
4E7D
330
1F
100
AcDbEntity
  8
CETRIS
100
AcDbLine
 10
-2963.866783561359
 20
-6984.962654327379
 30
0.0
 11
-2648.436740417913
 21
-6984.962654327379
 31
0.0
  0
LINE
  5
4E7E
330
1F
100
AcDbEntity
  8
POPIS
370
    20
100
AcDbLine
 10
-2739.298256264533
 20
-6887.169195574192
 30
0.0
 11
-2739.298256264533
 21
-6985.169243538668
 31
0.0
  0
INSERT
  5
4E7F
330
1F
100
AcDbEntity
  8
POPIS
100
AcDbBlockReference
  2
E_PUNKT
 10
-2739.327324595407
 20
-6984.149230577289
 30
0.0
 50
270.0
  0
TEXT
  5
4E80
330
1F
100
AcDbEntity
  8
POPIS
100
AcDbText
 10
-2756.195927196338
 20
-6878.319834501468
 30
0.0
 40
25.0
  1
08
 41
0.85
  7
SIMPLEX7
100
AcDbText
  0
TEXT
  5
5B57
330
1F
100
AcDbEntity
  8
POPIS
100
AcDbText
 10
-2967.337621188136
 20
-6670.811120095288
 30
0.0
 40
45.0
  1
Přechod podlahy POLYCET přes práh
 41
0.7
  7
SIMPLEX7
100
AcDbText
  0
LINE
  5
5B58
330
1F
100
AcDbEntity
  8
POPIS
100
AcDbLine
 10
-2963.866783561355
 20
-7054.342246004478
 30
0.0
 11
-2945.987191884256
 21
-7036.462654327379
 31
0.0
  0
LINE
  5
5B59
330
1F
100
AcDbEntity
  8
POPIS
100
AcDbLine
 10
-2963.866783561356
 20
-7081.283014367686
 30
0.0
 11
-2919.046423521049
 21
-7036.462654327379
 31
0.0
  0
LINE
  5
5B5A
330
1F
100
AcDbEntity
  8
POPIS
100
AcDbLine
 10
-2963.866783561356
 20
-7108.223782730893
 30
0.0
 11
-2892.105655157841
 21
-7036.462654327379
 31
0.0
  0
LINE
  5
5B5B
330
1F
100
AcDbEntity
  8
POPIS
100
AcDbLine
 10
-2963.866783561356
 20
-7135.164551094101
 30
0.0
 11
-2865.164886794634
 21
-7036.462654327379
 31
0.0
  0
LINE
  5
5B5C
330
1F
100
AcDbEntity
  8
POPIS
100
AcDbLine
 10
-2958.047046532323
 20
-7156.285582428276
 30
0.0
 11
-2838.224118431426
 21
-7036.462654327379
 31
0.0
  0
LINE
  5
5B5D
330
1F
100
AcDbEntity
  8
POPIS
100
AcDbLine
 10
-2931.106278169116
 20
-7156.285582428276
 30
0.0
 11
-2811.283350068219
 21
-7036.462654327379
 31
0.0
  0
LINE
  5
5B5E
330
1F
100
AcDbEntity
  8
POPIS
100
AcDbLine
 10
-2904.165509805909
 20
-7156.285582428276
 30
0.0
 11
-2784.342581705012
 21
-7036.462654327379
 31
0.0
  0
LINE
  5
5B5F
330
1F
100
AcDbEntity
  8
POPIS
100
AcDbLine
 10
-2877.224741442701
 20
-7156.285582428276
 30
0.0
 11
-2757.401813341804
 21
-7036.462654327379
 31
0.0
  0
LINE
  5
5B60
330
1F
100
AcDbEntity
  8
POPIS
100
AcDbLine
 10
-2850.283973079493
 20
-7156.285582428276
 30
0.0
 11
-2730.461044978596
 21
-7036.462654327379
 31
0.0
  0
LINE
  5
5B61
330
1F
100
AcDbEntity
  8
POPIS
100
AcDbLine
 10
-2823.343204716286
 20
-7156.285582428276
 30
0.0
 11
-2703.520276615389
 21
-7036.462654327379
 31
0.0
  0
LINE
  5
5B62
330
1F
100
AcDbEntity
  8
POPIS
100
AcDbLine
 10
-2796.402436353079
 20
-7156.285582428276
 30
0.0
 11
-2676.579508252181
 21
-7036.462654327379
 31
0.0
  0
LINE
  5
5B63
330
1F
100
AcDbEntity
  8
POPIS
100
AcDbLine
 10
-2769.461667989872
 20
-7156.285582428276
 30
0.0
 11
-2708.680812619736
 21
-7095.50472705814
 31
0.0
  0
LINE
  5
5B64
330
1F
100
AcDbEntity
  8
POPIS
100
AcDbLine
 10
-2695.508273471267
 20
-7082.332187909671
 30
0.0
 11
-2649.638739888974
 21
-7036.462654327379
 31
0.0
  0
LINE
  5
5B65
330
1F
100
AcDbEntity
  8
POPIS
100
AcDbLine
 10
-2742.520899626663
 20
-7156.285582428276
 30
0.0
 11
-2706.220983962084
 21
-7119.985666763696
 31
0.0
  0
LINE
  5
5B66
330
1F
100
AcDbEntity
  8
POPIS
100
AcDbLine
 10
-2668.567505108059
 20
-7082.332187909671
 30
0.0
 11
-2622.697971525767
 21
-7036.462654327379
 31
0.0
  0
LINE
  5
5B67
330
1F
100
AcDbEntity
  8
POPIS
100
AcDbLine
 10
-2715.580131263456
 20
-7156.285582428276
 30
0.0
 11
-2679.280215598876
 21
-7119.985666763696
 31
0.0
  0
LINE
  5
5B68
330
1F
100
AcDbEntity
  8
POPIS
100
AcDbLine
 10
-2641.515890905834
 20
-7082.221342070655
 30
0.0
 11
-2595.757203162559
 21
-7036.462654327379
 31
0.0
  0
LINE
  5
5B69
330
1F
100
AcDbEntity
  8
POPIS
100
AcDbLine
 10
-2657.282449727512
 20
-7097.987900892332
 30
0.0
 11
-2644.053454970648
 21
-7084.758906135468
 31
0.0
  0
LINE
  5
5B6A
330
1F
100
AcDbEntity
  8
POPIS
100
AcDbLine
 10
-2688.639362900248
 20
-7156.285582428276
 30
0.0
 11
-2644.053454970648
 21
-7111.699674498675
 31
0.0
  0
LINE
  5
5B6B
330
1F
100
AcDbEntity
  8
POPIS
100
AcDbLine
 10
-2614.575122542627
 20
-7082.221342070655
 30
0.0
 11
-2568.816434799352
 21
-7036.462654327379
 31
0.0
  0
LINE
  5
5B6C
330
1F
100
AcDbEntity
  8
POPIS
100
AcDbLine
 10
-2661.698594537041
 20
-7156.285582428276
 30
0.0
 11
-2625.95290806755
 21
-7120.539895958785
 31
0.0
  0
LINE
  5
5B6D
330
1F
100
AcDbEntity
  8
POPIS
100
AcDbLine
 10
-2592.433400400389
 20
-7087.020388291624
 30
0.0
 11
-2541.875666436144
 21
-7036.462654327379
 31
0.0
  0
LINE
  5
5B6E
330
1F
100
AcDbEntity
  8
POPIS
100
AcDbLine
 10
-2634.757826173834
 20
-7156.285582428276
 30
0.0
 11
-2599.012139704343
 21
-7120.539895958785
 31
0.0
  0
LINE
  5
5B6F
330
1F
100
AcDbEntity
  8
POPIS
100
AcDbLine
 10
-2560.697849117712
 20
-7082.225605372155
 30
0.0
 11
-2514.934898072937
 21
-7036.462654327379
 31
0.0
  0
LINE
  5
5B70
330
1F
100
AcDbEntity
  8
POPIS
100
AcDbLine
 10
-2592.433400400389
 20
-7113.961156654831
 30
0.0
 11
-2579.069672759202
 21
-7100.597429013643
 31
0.0
  0
LINE
  5
5B71
330
1F
100
AcDbEntity
  8
POPIS
100
AcDbLine
 10
-2607.817057810626
 20
-7156.285582428276
 30
0.0
 11
-2572.050054833632
 21
-7120.518579451282
 31
0.0
  0
LINE
  5
5B72
330
1F
100
AcDbEntity
  8
POPIS
100
AcDbLine
 10
-2533.757080754505
 20
-7082.225605372155
 30
0.0
 11
-2487.994129709729
 21
-7036.462654327379
 31
0.0
  0
LINE
  5
5B73
330
1F
100
AcDbEntity
  8
POPIS
100
AcDbLine
 10
-2580.876289447419
 20
-7156.285582428276
 30
0.0
 11
-2545.109286470424
 21
-7120.518579451282
 31
0.0
  0
LINE
  5
5B74
330
1F
100
AcDbEntity
  8
POPIS
100
AcDbLine
 10
-2506.816312391297
 20
-7082.225605372155
 30
0.0
 11
-2461.053361346522
 21
-7036.462654327379
 31
0.0
  0
LINE
  5
5B75
330
1F
100
AcDbEntity
  8
POPIS
100
AcDbLine
 10
-2553.935521084211
 20
-7156.285582428276
 30
0.0
 11
-2518.168518107217
 21
-7120.518579451282
 31
0.0
  0
LINE
  5
5B76
330
1F
100
AcDbEntity
  8
POPIS
100
AcDbLine
 10
-2479.87554402809
 20
-7082.225605372155
 30
0.0
 11
-2434.112592983314
 21
-7036.462654327379
 31
0.0
  0
LINE
  5
5B77
330
1F
100
AcDbEntity
  8
POPIS
100
AcDbLine
 10
-2526.994752721004
 20
-7156.285582428276
 30
0.0
 11
-2491.22774974401
 21
-7120.518579451282
 31
0.0
  0
LINE
  5
5B78
330
1F
100
AcDbEntity
  8
POPIS
100
AcDbLine
 10
-2452.934775664883
 20
-7082.225605372155
 30
0.0
 11
-2408.34359763565
 21
-7037.634427342921
 31
0.0
  0
LINE
  5
5B79
330
1F
100
AcDbEntity
  8
POPIS
100
AcDbLine
 10
-2500.053984357797
 20
-7156.285582428276
 30
0.0
 11
-2464.286981380801
 21
-7120.518579451282
 31
0.0
  0
LINE
  5
5B7A
330
1F
100
AcDbEntity
  8
POPIS
100
AcDbLine
 10
-2426.100589839192
 20
-7082.332187909671
 30
0.0
 11
-2380.2310562569
 21
-7036.462654327379
 31
0.0
  0
LINE
  5
5B7B
330
1F
100
AcDbEntity
  8
POPIS
100
AcDbLine
 10
-2473.113215994589
 20
-7156.285582428276
 30
0.0
 11
-2437.346213017594
 21
-7120.518579451282
 31
0.0
  0
LINE
  5
5B7C
330
1F
100
AcDbEntity
  8
POPIS
100
AcDbLine
 10
-2399.159821475985
 20
-7082.332187909671
 30
0.0
 11
-2353.290287893691
 21
-7036.462654327379
 31
0.0
  0
LINE
  5
5B7D
330
1F
100
AcDbEntity
  8
POPIS
100
AcDbLine
 10
-2446.172447631382
 20
-7156.285582428276
 30
0.0
 11
-2409.872531966802
 21
-7119.985666763696
 31
0.0
  0
LINE
  5
5B7E
330
1F
100
AcDbEntity
  8
POPIS
100
AcDbLine
 10
-2372.108207273759
 20
-7082.221342070655
 30
0.0
 11
-2326.349519530484
 21
-7036.462654327379
 31
0.0
  0
LINE
  5
5B7F
330
1F
100
AcDbEntity
  8
POPIS
100
AcDbLine
 10
-2383.086679803312
 20
-7093.199814600206
 30
0.0
 11
-2379.422554027124
 21
-7089.535688824018
 31
0.0
  0
LINE
  5
5B81
330
1F
100
AcDbEntity
  8
POPIS
100
AcDbLine
 10
-2345.167438910552
 20
-7082.221342070655
 30
0.0
 11
-2305.92112105029
 21
-7042.975024210392
 31
0.0
  0
LINE
  5
5B82
330
1F
100
AcDbEntity
  8
POPIS
100
AcDbLine
 10
-2419.231679268174
 20
-7156.285582428276
 30
0.0
 11
-2379.422554027124
 21
-7116.476457187225
 31
0.0
  0
LINE
  5
5B84
330
1F
100
AcDbEntity
  8
POPIS
100
AcDbLine
 10
-2327.802499456865
 20
-7091.797170980175
 30
0.0
 11
-2305.92112105029
 21
-7069.9157925736
 31
0.0
  0
LINE
  5
5B85
330
1F
100
AcDbEntity
  8
POPIS
100
AcDbLine
 10
-2392.290910904967
 20
-7156.285582428276
 30
0.0
 11
-2356.545224435475
 21
-7120.539895958785
 31
0.0
  0
LINE
  5
5B87
330
1F
100
AcDbEntity
  8
POPIS
100
AcDbLine
 10
-2327.802499456866
 20
-7118.737939343382
 30
0.0
 11
-2305.92112105029
 21
-7096.856560936807
 31
0.0
  0
LINE
  5
5B88
330
1F
100
AcDbEntity
  8
POPIS
100
AcDbLine
 10
-2365.35014254176
 20
-7156.285582428276
 30
0.0
 11
-2329.604456072268
 21
-7120.539895958785
 31
0.0
  0
LINE
  5
5B8A
330
1F
100
AcDbEntity
  8
POPIS
100
AcDbLine
 10
-2338.409374178552
 20
-7156.285582428276
 30
0.0
 11
-2305.92112105029
 21
-7123.797329300014
 31
0.0
  0
LINE
  5
5B8C
330
1F
100
AcDbEntity
  8
POPIS
100
AcDbLine
 10
-2311.468605815345
 20
-7156.285582428276
 30
0.0
 11
-2305.92112105029
 21
-7150.738097663221
 31
0.0
  0
LINE
  5
5C1A
330
1F
100
AcDbEntity
  8
POPIS
100
AcDbLine
 10
-2962.837507147213
 20
-7039.842591227129
 30
0.0
 11
-2962.837507147213
 21
-7039.842591227129
 31
0.0
  0
LINE
  5
5C1B
330
1F
100
AcDbEntity
  8
POPIS
100
AcDbLine
 10
-2959.469911101813
 20
-7036.474995181727
 30
0.0
 11
-2959.457570247463
 21
-7036.462654327379
 31
0.0
  0
LINE
  5
5C1C
330
1F
100
AcDbEntity
  8
POPIS
100
AcDbLine
 10
-2963.866783561355
 20
-7067.812636004479
 30
0.0
 11
-2952.734719011011
 21
-7056.680571454133
 31
0.0
  0
LINE
  5
5C1D
330
1F
100
AcDbEntity
  8
POPIS
100
AcDbLine
 10
-2949.36712296561
 20
-7053.312975408733
 30
0.0
 11
-2949.36712296561
 21
-7053.312975408733
 31
0.0
  0
LINE
  5
5C1E
330
1F
100
AcDbEntity
  8
POPIS
100
AcDbLine
 10
-2945.999526920209
 20
-7049.945379363331
 30
0.0
 11
-2932.516801884256
 21
-7036.462654327379
 31
0.0
  0
LINE
  5
5C1F
330
1F
100
AcDbEntity
  8
POPIS
100
AcDbLine
 10
-2963.866783561356
 20
-7094.753404367686
 30
0.0
 11
-2962.837507147213
 21
-7093.724127953544
 31
0.0
  0
LINE
  5
5C20
330
1F
100
AcDbEntity
  8
POPIS
100
AcDbLine
 10
-2959.469911101813
 20
-7090.356531908142
 30
0.0
 11
-2959.469911101813
 21
-7090.356531908142
 31
0.0
  0
LINE
  5
5C21
330
1F
100
AcDbEntity
  8
POPIS
100
AcDbLine
 10
-2956.102315056412
 20
-7086.988935862741
 30
0.0
 11
-2939.264334829407
 21
-7070.150955635736
 31
0.0
  0
LINE
  5
5C22
330
1F
100
AcDbEntity
  8
POPIS
100
AcDbLine
 10
-2935.896738784006
 20
-7066.783359590336
 30
0.0
 11
-2935.896738784006
 21
-7066.783359590336
 31
0.0
  0
LINE
  5
5C23
330
1F
100
AcDbEntity
  8
POPIS
100
AcDbLine
 10
-2932.529142738605
 20
-7063.415763544935
 30
0.0
 11
-2915.691162511601
 21
-7046.577783317932
 31
0.0
  0
LINE
  5
5C24
330
1F
100
AcDbEntity
  8
POPIS
100
AcDbLine
 10
-2912.323566466199
 20
-7043.21018727253
 30
0.0
 11
-2912.323566466199
 21
-7043.21018727253
 31
0.0
  0
LINE
  5
5C25
330
1F
100
AcDbEntity
  8
POPIS
100
AcDbLine
 10
-2908.955970420799
 20
-7039.842591227129
 30
0.0
 11
-2905.576033521049
 21
-7036.462654327379
 31
0.0
  0
LINE
  5
5C26
330
1F
100
AcDbEntity
  8
POPIS
100
AcDbLine
 10
-2963.866783561356
 20
-7121.694172730894
 30
0.0
 11
-2949.36712296561
 21
-7107.194512135148
 31
0.0
  0
LINE
  5
5C27
330
1F
100
AcDbEntity
  8
POPIS
100
AcDbLine
 10
-2945.999526920209
 20
-7103.826916089746
 30
0.0
 11
-2945.999526920209
 21
-7103.826916089746
 31
0.0
  0
LINE
  5
5C28
330
1F
100
AcDbEntity
  8
POPIS
100
AcDbLine
 10
-2942.631930874808
 20
-7100.459320044345
 30
0.0
 11
-2925.793950647804
 21
-7083.62133981734
 31
0.0
  0
LINE
  5
5C29
330
1F
100
AcDbEntity
  8
POPIS
100
AcDbLine
 10
-2922.426354602402
 20
-7080.25374377194
 30
0.0
 11
-2922.426354602402
 21
-7080.25374377194
 31
0.0
  0
LINE
  5
5C2A
330
1F
100
AcDbEntity
  8
POPIS
100
AcDbLine
 10
-2919.058758557002
 20
-7076.886147726539
 30
0.0
 11
-2902.220778329997
 21
-7060.048167499535
 31
0.0
  0
LINE
  5
5C2B
330
1F
100
AcDbEntity
  8
POPIS
100
AcDbLine
 10
-2898.853182284596
 20
-7056.680571454133
 30
0.0
 11
-2898.853182284596
 21
-7056.680571454133
 31
0.0
  0
LINE
  5
5C2C
330
1F
100
AcDbEntity
  8
POPIS
100
AcDbLine
 10
-2895.485586239195
 20
-7053.312975408733
 30
0.0
 11
-2878.64760601219
 21
-7036.474995181727
 31
0.0
  0
LINE
  5
5C2D
330
1F
100
AcDbEntity
  8
POPIS
100
AcDbLine
 10
-2963.866783561355
 20
-7148.6349410941
 30
0.0
 11
-2959.469911101813
 21
-7144.238068634557
 31
0.0
  0
LINE
  5
5C2E
330
1F
100
AcDbEntity
  8
POPIS
100
AcDbLine
 10
-2956.102315056412
 20
-7140.870472589156
 30
0.0
 11
-2956.102315056412
 21
-7140.870472589156
 31
0.0
  0
LINE
  5
5C2F
330
1F
100
AcDbEntity
  8
POPIS
100
AcDbLine
 10
-2952.734719011011
 20
-7137.502876543756
 30
0.0
 11
-2935.896738784006
 21
-7120.664896316751
 31
0.0
  0
LINE
  5
5C30
330
1F
100
AcDbEntity
  8
POPIS
100
AcDbLine
 10
-2932.529142738605
 20
-7117.29730027135
 30
0.0
 11
-2932.529142738605
 21
-7117.29730027135
 31
0.0
  0
LINE
  5
5C31
330
1F
100
AcDbEntity
  8
POPIS
100
AcDbLine
 10
-2929.161546693204
 20
-7113.92970422595
 30
0.0
 11
-2912.323566466199
 21
-7097.091723998945
 31
0.0
  0
LINE
  5
5C32
330
1F
100
AcDbEntity
  8
POPIS
100
AcDbLine
 10
-2908.955970420799
 20
-7093.724127953544
 30
0.0
 11
-2908.955970420799
 21
-7093.724127953544
 31
0.0
  0
LINE
  5
5C33
330
1F
100
AcDbEntity
  8
POPIS
100
AcDbLine
 10
-2905.588374375398
 20
-7090.356531908142
 30
0.0
 11
-2888.750394148393
 21
-7073.518551681138
 31
0.0
  0
LINE
  5
5C34
330
1F
100
AcDbEntity
  8
POPIS
100
AcDbLine
 10
-2885.382798102993
 20
-7070.150955635736
 30
0.0
 11
-2885.382798102993
 21
-7070.150955635736
 31
0.0
  0
LINE
  5
5C35
330
1F
100
AcDbEntity
  8
POPIS
100
AcDbLine
 10
-2882.015202057591
 20
-7066.783359590336
 30
0.0
 11
-2865.177221830586
 21
-7049.945379363331
 31
0.0
  0
LINE
  5
5C36
330
1F
100
AcDbEntity
  8
POPIS
100
AcDbLine
 10
-2861.809625785186
 20
-7046.577783317932
 30
0.0
 11
-2861.809625785186
 21
-7046.577783317932
 31
0.0
  0
LINE
  5
5C37
330
1F
100
AcDbEntity
  8
POPIS
100
AcDbLine
 10
-2858.442029739785
 20
-7043.21018727253
 30
0.0
 11
-2851.694496794634
 21
-7036.462654327379
 31
0.0
  0
LINE
  5
5C38
330
1F
100
AcDbEntity
  8
POPIS
100
AcDbLine
 10
-2942.631930874808
 20
-7154.34085677076
 30
0.0
 11
-2942.631930874808
 21
-7154.34085677076
 31
0.0
  0
LINE
  5
5C39
330
1F
100
AcDbEntity
  8
POPIS
100
AcDbLine
 10
-2939.264334829407
 20
-7150.973260725359
 30
0.0
 11
-2922.426354602402
 21
-7134.135280498354
 31
0.0
  0
LINE
  5
5C3A
330
1F
100
AcDbEntity
  8
POPIS
100
AcDbLine
 10
-2919.058758557002
 20
-7130.767684452954
 30
0.0
 11
-2919.058758557002
 21
-7130.767684452954
 31
0.0
  0
LINE
  5
5C3B
330
1F
100
AcDbEntity
  8
POPIS
100
AcDbLine
 10
-2915.691162511601
 20
-7127.400088407553
 30
0.0
 11
-2898.853182284596
 21
-7110.562108180548
 31
0.0
  0
LINE
  5
5C3C
330
1F
100
AcDbEntity
  8
POPIS
100
AcDbLine
 10
-2895.485586239195
 20
-7107.194512135148
 30
0.0
 11
-2895.485586239195
 21
-7107.194512135148
 31
0.0
  0
LINE
  5
5C3D
330
1F
100
AcDbEntity
  8
POPIS
100
AcDbLine
 10
-2892.117990193794
 20
-7103.826916089746
 30
0.0
 11
-2875.28000996679
 21
-7086.988935862741
 31
0.0
  0
LINE
  5
5C3E
330
1F
100
AcDbEntity
  8
POPIS
100
AcDbLine
 10
-2871.912413921389
 20
-7083.62133981734
 30
0.0
 11
-2871.912413921389
 21
-7083.62133981734
 31
0.0
  0
LINE
  5
5C3F
330
1F
100
AcDbEntity
  8
POPIS
100
AcDbLine
 10
-2868.544817875988
 20
-7080.25374377194
 30
0.0
 11
-2851.706837648983
 21
-7063.415763544935
 31
0.0
  0
LINE
  5
5C40
330
1F
100
AcDbEntity
  8
POPIS
100
AcDbLine
 10
-2848.339241603582
 20
-7060.048167499535
 30
0.0
 11
-2848.339241603582
 21
-7060.048167499535
 31
0.0
  0
LINE
  5
5C41
330
1F
100
AcDbEntity
  8
POPIS
100
AcDbLine
 10
-2844.971645558181
 20
-7056.680571454133
 30
0.0
 11
-2828.133665331177
 21
-7039.842591227129
 31
0.0
  0
LINE
  5
5C42
330
1F
100
AcDbEntity
  8
POPIS
100
AcDbLine
 10
-2824.766069285776
 20
-7036.474995181727
 30
0.0
 11
-2824.766069285776
 21
-7036.474995181727
 31
0.0
  0
LINE
  5
5C43
330
1F
100
AcDbEntity
  8
POPIS
100
AcDbLine
 10
-2917.635888169116
 20
-7156.285582428276
 30
0.0
 11
-2908.955970420798
 21
-7147.605664679959
 31
0.0
  0
LINE
  5
5C44
330
1F
100
AcDbEntity
  8
POPIS
100
AcDbLine
 10
-2905.588374375398
 20
-7144.238068634557
 30
0.0
 11
-2905.588374375398
 21
-7144.238068634557
 31
0.0
  0
LINE
  5
5C45
330
1F
100
AcDbEntity
  8
POPIS
100
AcDbLine
 10
-2902.220778329997
 20
-7140.870472589156
 30
0.0
 11
-2885.382798102992
 21
-7124.032492362151
 31
0.0
  0
LINE
  5
5C46
330
1F
100
AcDbEntity
  8
POPIS
100
AcDbLine
 10
-2882.015202057591
 20
-7120.664896316751
 30
0.0
 11
-2882.015202057591
 21
-7120.664896316751
 31
0.0
  0
LINE
  5
5C47
330
1F
100
AcDbEntity
  8
POPIS
100
AcDbLine
 10
-2878.64760601219
 20
-7117.29730027135
 30
0.0
 11
-2861.809625785186
 21
-7100.459320044345
 31
0.0
  0
LINE
  5
5C48
330
1F
100
AcDbEntity
  8
POPIS
100
AcDbLine
 10
-2858.442029739785
 20
-7097.091723998945
 30
0.0
 11
-2858.442029739785
 21
-7097.091723998945
 31
0.0
  0
LINE
  5
5C49
330
1F
100
AcDbEntity
  8
POPIS
100
AcDbLine
 10
-2855.074433694383
 20
-7093.724127953544
 30
0.0
 11
-2838.236453467379
 21
-7076.886147726539
 31
0.0
  0
LINE
  5
5C4A
330
1F
100
AcDbEntity
  8
POPIS
100
AcDbLine
 10
-2834.868857421978
 20
-7073.518551681138
 30
0.0
 11
-2834.868857421978
 21
-7073.518551681138
 31
0.0
  0
LINE
  5
5C4B
330
1F
100
AcDbEntity
  8
POPIS
100
AcDbLine
 10
-2831.501261376578
 20
-7070.150955635736
 30
0.0
 11
-2814.663281149572
 21
-7053.312975408733
 31
0.0
  0
LINE
  5
5C4C
330
1F
100
AcDbEntity
  8
POPIS
100
AcDbLine
 10
-2811.295685104172
 20
-7049.945379363331
 30
0.0
 11
-2811.295685104172
 21
-7049.945379363331
 31
0.0
  0
LINE
  5
5C4D
330
1F
100
AcDbEntity
  8
POPIS
100
AcDbLine
 10
-2807.928089058771
 20
-7046.577783317932
 30
0.0
 11
-2797.812960068219
 21
-7036.462654327379
 31
0.0
  0
LINE
  5
5C4E
330
1F
100
AcDbEntity
  8
POPIS
100
AcDbLine
 10
-2888.750394148393
 20
-7154.34085677076
 30
0.0
 11
-2871.912413921388
 21
-7137.502876543756
 31
0.0
  0
LINE
  5
5C4F
330
1F
100
AcDbEntity
  8
POPIS
100
AcDbLine
 10
-2868.544817875988
 20
-7134.135280498354
 30
0.0
 11
-2868.544817875988
 21
-7134.135280498354
 31
0.0
  0
LINE
  5
5C50
330
1F
100
AcDbEntity
  8
POPIS
100
AcDbLine
 10
-2865.177221830586
 20
-7130.767684452954
 30
0.0
 11
-2848.339241603582
 21
-7113.92970422595
 31
0.0
  0
LINE
  5
5C51
330
1F
100
AcDbEntity
  8
POPIS
100
AcDbLine
 10
-2844.971645558181
 20
-7110.562108180548
 30
0.0
 11
-2844.971645558181
 21
-7110.562108180548
 31
0.0
  0
LINE
  5
5C52
330
1F
100
AcDbEntity
  8
POPIS
100
AcDbLine
 10
-2841.60404951278
 20
-7107.194512135148
 30
0.0
 11
-2824.766069285775
 21
-7090.356531908142
 31
0.0
  0
LINE
  5
5C53
330
1F
100
AcDbEntity
  8
POPIS
100
AcDbLine
 10
-2821.398473240375
 20
-7086.988935862741
 30
0.0
 11
-2821.398473240375
 21
-7086.988935862741
 31
0.0
  0
LINE
  5
5C54
330
1F
100
AcDbEntity
  8
POPIS
100
AcDbLine
 10
-2818.030877194974
 20
-7083.62133981734
 30
0.0
 11
-2801.192896967969
 21
-7066.783359590336
 31
0.0
  0
LINE
  5
5C55
330
1F
100
AcDbEntity
  8
POPIS
100
AcDbLine
 10
-2797.825300922568
 20
-7063.415763544935
 30
0.0
 11
-2797.825300922568
 21
-7063.415763544935
 31
0.0
  0
LINE
  5
5C56
330
1F
100
AcDbEntity
  8
POPIS
100
AcDbLine
 10
-2794.457704877167
 20
-7060.048167499535
 30
0.0
 11
-2777.619724650163
 21
-7043.21018727253
 31
0.0
  0
LINE
  5
5C57
330
1F
100
AcDbEntity
  8
POPIS
100
AcDbLine
 10
-2774.252128604762
 20
-7039.842591227129
 30
0.0
 11
-2774.252128604762
 21
-7039.842591227129
 31
0.0
  0
LINE
  5
5C58
330
1F
100
AcDbEntity
  8
POPIS
100
AcDbLine
 10
-2770.884532559361
 20
-7036.474995181727
 30
0.0
 11
-2770.872191705012
 21
-7036.462654327379
 31
0.0
  0
LINE
  5
5C59
330
1F
100
AcDbEntity
  8
POPIS
100
AcDbLine
 10
-2863.754351442701
 20
-7156.285582428276
 30
0.0
 11
-2858.442029739785
 21
-7150.973260725359
 31
0.0
  0
LINE
  5
5C5A
330
1F
100
AcDbEntity
  8
POPIS
100
AcDbLine
 10
-2855.074433694383
 20
-7147.605664679959
 30
0.0
 11
-2855.074433694383
 21
-7147.605664679959
 31
0.0
  0
LINE
  5
5C5B
330
1F
100
AcDbEntity
  8
POPIS
100
AcDbLine
 10
-2851.706837648983
 20
-7144.238068634557
 30
0.0
 11
-2834.868857421978
 21
-7127.400088407553
 31
0.0
  0
LINE
  5
5C5C
330
1F
100
AcDbEntity
  8
POPIS
100
AcDbLine
 10
-2831.501261376578
 20
-7124.032492362151
 30
0.0
 11
-2831.501261376578
 21
-7124.032492362151
 31
0.0
  0
LINE
  5
5C5D
330
1F
100
AcDbEntity
  8
POPIS
100
AcDbLine
 10
-2828.133665331176
 20
-7120.664896316751
 30
0.0
 11
-2811.295685104171
 21
-7103.826916089746
 31
0.0
  0
LINE
  5
5C5E
330
1F
100
AcDbEntity
  8
POPIS
100
AcDbLine
 10
-2807.928089058771
 20
-7100.459320044345
 30
0.0
 11
-2807.928089058771
 21
-7100.459320044345
 31
0.0
  0
LINE
  5
5C5F
330
1F
100
AcDbEntity
  8
POPIS
100
AcDbLine
 10
-2804.56049301337
 20
-7097.091723998945
 30
0.0
 11
-2787.722512786365
 21
-7080.25374377194
 31
0.0
  0
LINE
  5
5C60
330
1F
100
AcDbEntity
  8
POPIS
100
AcDbLine
 10
-2784.354916740964
 20
-7076.886147726539
 30
0.0
 11
-2784.354916740964
 21
-7076.886147726539
 31
0.0
  0
LINE
  5
5C61
330
1F
100
AcDbEntity
  8
POPIS
100
AcDbLine
 10
-2780.987320695563
 20
-7073.518551681138
 30
0.0
 11
-2764.149340468559
 21
-7056.680571454133
 31
0.0
  0
LINE
  5
5C62
330
1F
100
AcDbEntity
  8
POPIS
100
AcDbLine
 10
-2760.781744423158
 20
-7053.312975408733
 30
0.0
 11
-2760.781744423158
 21
-7053.312975408733
 31
0.0
  0
LINE
  5
5C63
330
1F
100
AcDbEntity
  8
POPIS
100
AcDbLine
 10
-2757.414148377757
 20
-7049.945379363331
 30
0.0
 11
-2743.931423341804
 21
-7036.462654327379
 31
0.0
  0
LINE
  5
5C64
330
1F
100
AcDbEntity
  8
POPIS
100
AcDbLine
 10
-2836.813583079493
 20
-7156.285582428276
 30
0.0
 11
-2821.398473240375
 21
-7140.870472589156
 31
0.0
  0
LINE
  5
5C65
330
1F
100
AcDbEntity
  8
POPIS
100
AcDbLine
 10
-2818.030877194973
 20
-7137.502876543756
 30
0.0
 11
-2818.030877194973
 21
-7137.502876543756
 31
0.0
  0
LINE
  5
5C66
330
1F
100
AcDbEntity
  8
POPIS
100
AcDbLine
 10
-2814.663281149572
 20
-7134.135280498354
 30
0.0
 11
-2797.825300922568
 21
-7117.29730027135
 31
0.0
  0
LINE
  5
5C67
330
1F
100
AcDbEntity
  8
POPIS
100
AcDbLine
 10
-2794.457704877167
 20
-7113.92970422595
 30
0.0
 11
-2794.457704877167
 21
-7113.92970422595
 31
0.0
  0
LINE
  5
5C68
330
1F
100
AcDbEntity
  8
POPIS
100
AcDbLine
 10
-2791.090108831766
 20
-7110.562108180548
 30
0.0
 11
-2774.252128604762
 21
-7093.724127953542
 31
0.0
  0
LINE
  5
5C69
330
1F
100
AcDbEntity
  8
POPIS
100
AcDbLine
 10
-2770.884532559361
 20
-7090.356531908142
 30
0.0
 11
-2770.884532559361
 21
-7090.356531908142
 31
0.0
  0
LINE
  5
5C6A
330
1F
100
AcDbEntity
  8
POPIS
100
AcDbLine
 10
-2767.51693651396
 20
-7086.988935862741
 30
0.0
 11
-2750.678956286955
 21
-7070.150955635736
 31
0.0
  0
LINE
  5
5C6B
330
1F
100
AcDbEntity
  8
POPIS
100
AcDbLine
 10
-2747.311360241554
 20
-7066.783359590336
 30
0.0
 11
-2747.311360241554
 21
-7066.783359590336
 31
0.0
  0
LINE
  5
5C6C
330
1F
100
AcDbEntity
  8
POPIS
100
AcDbLine
 10
-2743.943764196153
 20
-7063.415763544934
 30
0.0
 11
-2727.105783969149
 21
-7046.57778331793
 31
0.0
  0
LINE
  5
5C6D
330
1F
100
AcDbEntity
  8
POPIS
100
AcDbLine
 10
-2723.738187923748
 20
-7043.210187272528
 30
0.0
 11
-2723.738187923748
 21
-7043.210187272528
 31
0.0
  0
LINE
  5
5C6E
330
1F
100
AcDbEntity
  8
POPIS
100
AcDbLine
 10
-2720.370591878347
 20
-7039.842591227129
 30
0.0
 11
-2716.990654978597
 21
-7036.462654327379
 31
0.0
  0
LINE
  5
5C6F
330
1F
100
AcDbEntity
  8
POPIS
100
AcDbLine
 10
-2809.872814716286
 20
-7156.285582428276
 30
0.0
 11
-2807.928089058771
 21
-7154.34085677076
 31
0.0
  0
LINE
  5
5C70
330
1F
100
AcDbEntity
  8
POPIS
100
AcDbLine
 10
-2804.56049301337
 20
-7150.973260725359
 30
0.0
 11
-2804.56049301337
 21
-7150.973260725359
 31
0.0
  0
LINE
  5
5C71
330
1F
100
AcDbEntity
  8
POPIS
100
AcDbLine
 10
-2801.192896967969
 20
-7147.605664679959
 30
0.0
 11
-2784.354916740964
 21
-7130.767684452954
 31
0.0
  0
LINE
  5
5C72
330
1F
100
AcDbEntity
  8
POPIS
100
AcDbLine
 10
-2780.987320695563
 20
-7127.400088407552
 30
0.0
 11
-2780.987320695563
 21
-7127.400088407552
 31
0.0
  0
LINE
  5
5C73
330
1F
100
AcDbEntity
  8
POPIS
100
AcDbLine
 10
-2777.619724650162
 20
-7124.032492362151
 30
0.0
 11
-2760.781744423157
 21
-7107.194512135148
 31
0.0
  0
LINE
  5
5C74
330
1F
100
AcDbEntity
  8
POPIS
100
AcDbLine
 10
-2757.414148377757
 20
-7103.826916089746
 30
0.0
 11
-2757.414148377757
 21
-7103.826916089746
 31
0.0
  0
LINE
  5
5C75
330
1F
100
AcDbEntity
  8
POPIS
100
AcDbLine
 10
-2754.046552332356
 20
-7100.459320044345
 30
0.0
 11
-2737.208572105351
 21
-7083.62133981734
 31
0.0
  0
LINE
  5
5C76
330
1F
100
AcDbEntity
  8
POPIS
100
AcDbLine
 10
-2733.84097605995
 20
-7080.25374377194
 30
0.0
 11
-2733.84097605995
 21
-7080.25374377194
 31
0.0
  0
LINE
  5
5C77
330
1F
100
AcDbEntity
  8
POPIS
100
AcDbLine
 10
-2730.473380014549
 20
-7076.886147726539
 30
0.0
 11
-2713.635399787545
 21
-7060.048167499534
 31
0.0
  0
LINE
  5
5C78
330
1F
100
AcDbEntity
  8
POPIS
100
AcDbLine
 10
-2710.267803742143
 20
-7056.680571454133
 30
0.0
 11
-2710.267803742143
 21
-7056.680571454133
 31
0.0
  0
LINE
  5
5C79
330
1F
100
AcDbEntity
  8
POPIS
100
AcDbLine
 10
-2706.900207696743
 20
-7053.312975408733
 30
0.0
 11
-2690.062227469738
 21
-7036.474995181727
 31
0.0
  0
LINE
  5
5C7A
330
1F
100
AcDbEntity
  8
POPIS
100
AcDbLine
 10
-2782.932046353079
 20
-7156.285582428276
 30
0.0
 11
-2770.88453255936
 21
-7144.238068634557
 31
0.0
  0
LINE
  5
5C7B
330
1F
100
AcDbEntity
  8
POPIS
100
AcDbLine
 10
-2767.516936513959
 20
-7140.870472589156
 30
0.0
 11
-2767.516936513959
 21
-7140.870472589156
 31
0.0
  0
LINE
  5
5C7C
330
1F
100
AcDbEntity
  8
POPIS
100
AcDbLine
 10
-2764.149340468559
 20
-7137.502876543756
 30
0.0
 11
-2747.311360241554
 21
-7120.664896316751
 31
0.0
  0
LINE
  5
5C7D
330
1F
100
AcDbEntity
  8
POPIS
100
AcDbLine
 10
-2743.943764196153
 20
-7117.29730027135
 30
0.0
 11
-2743.943764196153
 21
-7117.29730027135
 31
0.0
  0
LINE
  5
5C7E
330
1F
100
AcDbEntity
  8
POPIS
100
AcDbLine
 10
-2740.576168150752
 20
-7113.92970422595
 30
0.0
 11
-2723.738187923747
 21
-7097.091723998945
 31
0.0
  0
LINE
  5
5C7F
330
1F
100
AcDbEntity
  8
POPIS
100
AcDbLine
 10
-2720.370591878346
 20
-7093.724127953542
 30
0.0
 11
-2720.370591878346
 21
-7093.724127953542
 31
0.0
  0
LINE
  5
5C80
330
1F
100
AcDbEntity
  8
POPIS
100
AcDbLine
 10
-2717.002995832946
 20
-7090.356531908142
 30
0.0
 11
-2700.165015605941
 21
-7073.518551681138
 31
0.0
  0
LINE
  5
5C81
330
1F
100
AcDbEntity
  8
POPIS
100
AcDbLine
 10
-2696.79741956054
 20
-7070.150955635736
 30
0.0
 11
-2696.79741956054
 21
-7070.150955635736
 31
0.0
  0
LINE
  5
5C82
330
1F
100
AcDbEntity
  8
POPIS
100
AcDbLine
 10
-2693.429823515139
 20
-7066.783359590336
 30
0.0
 11
-2676.591843288134
 21
-7049.945379363331
 31
0.0
  0
LINE
  5
5C83
330
1F
100
AcDbEntity
  8
POPIS
100
AcDbLine
 10
-2673.224247242734
 20
-7046.57778331793
 30
0.0
 11
-2673.224247242734
 21
-7046.57778331793
 31
0.0
  0
LINE
  5
5C84
330
1F
100
AcDbEntity
  8
POPIS
100
AcDbLine
 10
-2669.856651197333
 20
-7043.210187272528
 30
0.0
 11
-2663.109118252182
 21
-7036.462654327379
 31
0.0
  0
LINE
  5
5C85
330
1F
100
AcDbEntity
  8
POPIS
100
AcDbLine
 10
-2754.046552332356
 20
-7154.34085677076
 30
0.0
 11
-2754.046552332356
 21
-7154.34085677076
 31
0.0
  0
LINE
  5
5C86
330
1F
100
AcDbEntity
  8
POPIS
100
AcDbLine
 10
-2750.678956286955
 20
-7150.973260725359
 30
0.0
 11
-2733.84097605995
 21
-7134.135280498354
 31
0.0
  0
LINE
  5
5C87
330
1F
100
AcDbEntity
  8
POPIS
100
AcDbLine
 10
-2730.473380014549
 20
-7130.767684452954
 30
0.0
 11
-2730.473380014549
 21
-7130.767684452954
 31
0.0
  0
LINE
  5
5C88
330
1F
100
AcDbEntity
  8
POPIS
100
AcDbLine
 10
-2727.105783969148
 20
-7127.400088407552
 30
0.0
 11
-2710.267803742143
 21
-7110.562108180548
 31
0.0
  0
LINE
  5
5C89
330
1F
100
AcDbEntity
  8
POPIS
100
AcDbLine
 10
-2679.959439333535
 20
-7080.25374377194
 30
0.0
 11
-2663.12145910653
 21
-7063.415763544935
 31
0.0
  0
LINE
  5
5C8A
330
1F
100
AcDbEntity
  8
POPIS
100
AcDbLine
 10
-2659.753863061129
 20
-7060.048167499535
 30
0.0
 11
-2659.753863061129
 21
-7060.048167499535
 31
0.0
  0
LINE
  5
5C8B
330
1F
100
AcDbEntity
  8
POPIS
100
AcDbLine
 10
-2656.386267015728
 20
-7056.680571454133
 30
0.0
 11
-2639.548286788723
 21
-7039.842591227129
 31
0.0
  0
LINE
  5
5C8C
330
1F
100
AcDbEntity
  8
POPIS
100
AcDbLine
 10
-2636.180690743323
 20
-7036.474995181727
 30
0.0
 11
-2636.180690743323
 21
-7036.474995181727
 31
0.0
  0
LINE
  5
5C8D
330
1F
100
AcDbEntity
  8
POPIS
100
AcDbLine
 10
-2729.050509626664
 20
-7156.285582428276
 30
0.0
 11
-2720.370591878346
 21
-7147.605664679959
 31
0.0
  0
LINE
  5
5C8E
330
1F
100
AcDbEntity
  8
POPIS
100
AcDbLine
 10
-2717.002995832946
 20
-7144.238068634557
 30
0.0
 11
-2717.002995832946
 21
-7144.238068634557
 31
0.0
  0
LINE
  5
5C8F
330
1F
100
AcDbEntity
  8
POPIS
100
AcDbLine
 10
-2713.635399787545
 20
-7140.870472589156
 30
0.0
 11
-2696.79741956054
 21
-7124.032492362151
 31
0.0
  0
LINE
  5
5C90
330
1F
100
AcDbEntity
  8
POPIS
100
AcDbLine
 10
-2693.429823515139
 20
-7120.664896316751
 30
0.0
 11
-2693.429823515139
 21
-7120.664896316751
 31
0.0
  0
LINE
  5
5C91
330
1F
100
AcDbEntity
  8
POPIS
100
AcDbLine
 10
-2657.282449727512
 20
-7084.517522529124
 30
0.0
 11
-2649.651074924927
 21
-7076.886147726539
 31
0.0
  0
LINE
  5
5C92
330
1F
100
AcDbEntity
  8
POPIS
100
AcDbLine
 10
-2646.283478879526
 20
-7073.518551681138
 30
0.0
 11
-2646.283478879526
 21
-7073.518551681138
 31
0.0
  0
LINE
  5
5C93
330
1F
100
AcDbEntity
  8
POPIS
100
AcDbLine
 10
-2642.915882834125
 20
-7070.150955635736
 30
0.0
 11
-2626.07790260712
 21
-7053.312975408733
 31
0.0
  0
LINE
  5
5C94
330
1F
100
AcDbEntity
  8
POPIS
100
AcDbLine
 10
-2622.71030656172
 20
-7049.945379363331
 30
0.0
 11
-2622.71030656172
 21
-7049.945379363331
 31
0.0
  0
LINE
  5
5C95
330
1F
100
AcDbEntity
  8
POPIS
100
AcDbLine
 10
-2619.342710516319
 20
-7046.577783317932
 30
0.0
 11
-2609.227581525767
 21
-7036.462654327379
 31
0.0
  0
LINE
  5
5C96
330
1F
100
AcDbEntity
  8
POPIS
100
AcDbLine
 10
-2700.165015605941
 20
-7154.34085677076
 30
0.0
 11
-2683.327035378936
 21
-7137.502876543756
 31
0.0
  0
LINE
  5
5C97
330
1F
100
AcDbEntity
  8
POPIS
100
AcDbLine
 10
-2679.959439333535
 20
-7134.135280498354
 30
0.0
 11
-2679.959439333535
 21
-7134.135280498354
 31
0.0
  0
LINE
  5
5C98
330
1F
100
AcDbEntity
  8
POPIS
100
AcDbLine
 10
-2676.591843288134
 20
-7130.767684452954
 30
0.0
 11
-2665.809825598876
 21
-7119.985666763696
 31
0.0
  0
LINE
  5
5C99
330
1F
100
AcDbEntity
  8
POPIS
100
AcDbLine
 10
-2628.045500905834
 20
-7082.221342070655
 30
0.0
 11
-2612.607518425517
 21
-7066.783359590336
 31
0.0
  0
LINE
  5
5C9A
330
1F
100
AcDbEntity
  8
POPIS
100
AcDbLine
 10
-2609.239922380115
 20
-7063.415763544935
 30
0.0
 11
-2609.239922380115
 21
-7063.415763544935
 31
0.0
  0
LINE
  5
5C9B
330
1F
100
AcDbEntity
  8
POPIS
100
AcDbLine
 10
-2605.872326334714
 20
-7060.048167499535
 30
0.0
 11
-2589.03434610771
 21
-7043.21018727253
 31
0.0
  0
LINE
  5
5C9C
330
1F
100
AcDbEntity
  8
POPIS
100
AcDbLine
 10
-2585.666750062309
 20
-7039.842591227129
 30
0.0
 11
-2585.666750062309
 21
-7039.842591227129
 31
0.0
  0
LINE
  5
5C9D
330
1F
100
AcDbEntity
  8
POPIS
100
AcDbLine
 10
-2582.299154016908
 20
-7036.474995181727
 30
0.0
 11
-2582.28681316256
 21
-7036.462654327379
 31
0.0
  0
LINE
  5
5C9E
330
1F
100
AcDbEntity
  8
POPIS
100
AcDbLine
 10
-2656.386267015728
 20
-7110.562108180548
 30
0.0
 11
-2656.386267015728
 21
-7110.562108180548
 31
0.0
  0
LINE
  5
5C9F
330
1F
100
AcDbEntity
  8
POPIS
100
AcDbLine
 10
-2653.018670970327
 20
-7107.194512135148
 30
0.0
 11
-2644.053454970648
 21
-7098.229296135468
 31
0.0
  0
LINE
  5
5CA0
330
1F
100
AcDbEntity
  8
POPIS
100
AcDbLine
 10
-2675.168972900249
 20
-7156.285582428276
 30
0.0
 11
-2669.856651197332
 21
-7150.973260725359
 31
0.0
  0
LINE
  5
5CA1
330
1F
100
AcDbEntity
  8
POPIS
100
AcDbLine
 10
-2666.489055151931
 20
-7147.605664679959
 30
0.0
 11
-2666.489055151931
 21
-7147.605664679959
 31
0.0
  0
LINE
  5
5CA2
330
1F
100
AcDbEntity
  8
POPIS
100
AcDbLine
 10
-2663.12145910653
 20
-7144.238068634557
 30
0.0
 11
-2646.283478879526
 21
-7127.400088407553
 31
0.0
  0
LINE
  5
5CA3
330
1F
100
AcDbEntity
  8
POPIS
100
AcDbLine
 10
-2642.915882834125
 20
-7124.032492362151
 30
0.0
 11
-2642.915882834125
 21
-7124.032492362151
 31
0.0
  0
LINE
  5
5CA4
330
1F
100
AcDbEntity
  8
POPIS
100
AcDbLine
 10
-2639.548286788723
 20
-7120.664896316751
 30
0.0
 11
-2639.423286430758
 21
-7120.539895958785
 31
0.0
  0
LINE
  5
5CA5
330
1F
100
AcDbEntity
  8
POPIS
100
AcDbLine
 10
-2601.104732542627
 20
-7082.221342070655
 30
0.0
 11
-2599.137134243913
 21
-7080.25374377194
 31
0.0
  0
LINE
  5
5CA6
330
1F
100
AcDbEntity
  8
POPIS
100
AcDbLine
 10
-2595.769538198512
 20
-7076.886147726539
 30
0.0
 11
-2595.769538198512
 21
-7076.886147726539
 31
0.0
  0
LINE
  5
5CA7
330
1F
100
AcDbEntity
  8
POPIS
100
AcDbLine
 10
-2592.401942153111
 20
-7073.518551681138
 30
0.0
 11
-2575.563961926106
 21
-7056.680571454133
 31
0.0
  0
LINE
  5
5CA8
330
1F
100
AcDbEntity
  8
POPIS
100
AcDbLine
 10
-2572.196365880705
 20
-7053.312975408733
 30
0.0
 11
-2572.196365880705
 21
-7053.312975408733
 31
0.0
  0
LINE
  5
5CA9
330
1F
100
AcDbEntity
  8
POPIS
100
AcDbLine
 10
-2568.828769835304
 20
-7049.945379363331
 30
0.0
 11
-2555.346044799352
 21
-7036.462654327379
 31
0.0
  0
LINE
  5
5CAA
330
1F
100
AcDbEntity
  8
POPIS
100
AcDbLine
 10
-2648.228204537041
 20
-7156.285582428276
 30
0.0
 11
-2632.813094697922
 21
-7140.870472589156
 31
0.0
  0
LINE
  5
5CAB
330
1F
100
AcDbEntity
  8
POPIS
100
AcDbLine
 10
-2629.445498652521
 20
-7137.502876543756
 30
0.0
 11
-2629.445498652521
 21
-7137.502876543756
 31
0.0
  0
LINE
  5
5CAC
330
1F
100
AcDbEntity
  8
POPIS
100
AcDbLine
 10
-2626.07790260712
 20
-7134.135280498354
 30
0.0
 11
-2612.482518067551
 21
-7120.539895958785
 31
0.0
  0
LINE
  5
5CAD
330
1F
100
AcDbEntity
  8
POPIS
100
AcDbLine
 10
-2574.16822748092
 20
-7082.225605372155
 30
0.0
 11
-2562.093577744503
 21
-7070.150955635736
 31
0.0
  0
LINE
  5
5CAE
330
1F
100
AcDbEntity
  8
POPIS
100
AcDbLine
 10
-2558.725981699101
 20
-7066.783359590336
 30
0.0
 11
-2558.725981699101
 21
-7066.783359590336
 31
0.0
  0
LINE
  5
5CAF
330
1F
100
AcDbEntity
  8
POPIS
100
AcDbLine
 10
-2555.3583856537
 20
-7063.415763544935
 30
0.0
 11
-2538.520405426696
 21
-7046.577783317932
 31
0.0
  0
LINE
  5
5CB0
330
1F
100
AcDbEntity
  8
POPIS
100
AcDbLine
 10
-2535.152809381295
 20
-7043.21018727253
 30
0.0
 11
-2535.152809381295
 21
-7043.21018727253
 31
0.0
  0
LINE
  5
5CB1
330
1F
100
AcDbEntity
  8
POPIS
100
AcDbLine
 10
-2531.785213335894
 20
-7039.842591227129
 30
0.0
 11
-2528.405276436145
 21
-7036.462654327379
 31
0.0
  0
LINE
  5
5CB2
330
1F
100
AcDbEntity
  8
POPIS
100
AcDbLine
 10
-2592.433400400389
 20
-7100.490778291623
 30
0.0
 11
-2585.666750062308
 21
-7093.724127953544
 31
0.0
  0
LINE
  5
5CB3
330
1F
100
AcDbEntity
  8
POPIS
100
AcDbLine
 10
-2582.299154016908
 20
-7090.356531908142
 30
0.0
 11
-2582.299154016908
 21
-7090.356531908142
 31
0.0
  0
LINE
  5
5CB4
330
1F
100
AcDbEntity
  8
POPIS
100
AcDbLine
 10
-2621.287436173834
 20
-7156.285582428276
 30
0.0
 11
-2619.342710516319
 21
-7154.34085677076
 31
0.0
  0
LINE
  5
5CB5
330
1F
100
AcDbEntity
  8
POPIS
100
AcDbLine
 10
-2615.975114470918
 20
-7150.973260725359
 30
0.0
 11
-2615.975114470918
 21
-7150.973260725359
 31
0.0
  0
LINE
  5
5CB6
330
1F
100
AcDbEntity
  8
POPIS
100
AcDbLine
 10
-2612.607518425517
 20
-7147.605664679959
 30
0.0
 11
-2595.769538198512
 21
-7130.767684452954
 31
0.0
  0
LINE
  5
5CB7
330
1F
100
AcDbEntity
  8
POPIS
100
AcDbLine
 10
-2592.401942153111
 20
-7127.400088407553
 30
0.0
 11
-2592.401942153111
 21
-7127.400088407553
 31
0.0
  0
LINE
  5
5CB8
330
1F
100
AcDbEntity
  8
POPIS
100
AcDbLine
 10
-2589.03434610771
 20
-7124.032492362151
 30
0.0
 11
-2579.069672759202
 21
-7114.067819013644
 31
0.0
  0
LINE
  5
5CB9
330
1F
100
AcDbEntity
  8
POPIS
100
AcDbLine
 10
-2545.255597517498
 20
-7080.25374377194
 30
0.0
 11
-2545.255597517498
 21
-7080.25374377194
 31
0.0
  0
LINE
  5
5CBA
330
1F
100
AcDbEntity
  8
POPIS
100
AcDbLine
 10
-2541.888001472097
 20
-7076.886147726539
 30
0.0
 11
-2525.050021245093
 21
-7060.048167499535
 31
0.0
  0
LINE
  5
5CBB
330
1F
100
AcDbEntity
  8
POPIS
100
AcDbLine
 10
-2521.682425199691
 20
-7056.680571454133
 30
0.0
 11
-2521.682425199691
 21
-7056.680571454133
 31
0.0
  0
LINE
  5
5CBC
330
1F
100
AcDbEntity
  8
POPIS
100
AcDbLine
 10
-2518.31482915429
 20
-7053.312975408733
 30
0.0
 11
-2501.476848927286
 21
-7036.474995181727
 31
0.0
  0
LINE
  5
5CBD
330
1F
100
AcDbEntity
  8
POPIS
100
AcDbLine
 10
-2594.346667810627
 20
-7156.285582428276
 30
0.0
 11
-2582.299154016908
 21
-7144.238068634557
 31
0.0
  0
LINE
  5
5CBE
330
1F
100
AcDbEntity
  8
POPIS
100
AcDbLine
 10
-2578.931557971507
 20
-7140.870472589156
 30
0.0
 11
-2578.931557971507
 21
-7140.870472589156
 31
0.0
  0
LINE
  5
5CBF
330
1F
100
AcDbEntity
  8
POPIS
100
AcDbLine
 10
-2575.563961926106
 20
-7137.502876543756
 30
0.0
 11
-2558.725981699101
 21
-7120.664896316751
 31
0.0
  0
LINE
  5
5CC0
330
1F
100
AcDbEntity
  8
POPIS
100
AcDbLine
 10
-2520.286690754505
 20
-7082.225605372155
 30
0.0
 11
-2511.579637063489
 21
-7073.518551681138
 31
0.0
  0
LINE
  5
5CC1
330
1F
100
AcDbEntity
  8
POPIS
100
AcDbLine
 10
-2508.212041018087
 20
-7070.150955635736
 30
0.0
 11
-2508.212041018087
 21
-7070.150955635736
 31
0.0
  0
LINE
  5
5CC2
330
1F
100
AcDbEntity
  8
POPIS
100
AcDbLine
 10
-2504.844444972687
 20
-7066.783359590336
 30
0.0
 11
-2488.006464745682
 21
-7049.945379363331
 31
0.0
  0
LINE
  5
5CC3
330
1F
100
AcDbEntity
  8
POPIS
100
AcDbLine
 10
-2484.638868700281
 20
-7046.577783317932
 30
0.0
 11
-2484.638868700281
 21
-7046.577783317932
 31
0.0
  0
LINE
  5
5CC4
330
1F
100
AcDbEntity
  8
POPIS
100
AcDbLine
 10
-2481.27127265488
 20
-7043.21018727253
 30
0.0
 11
-2474.523739709729
 21
-7036.462654327379
 31
0.0
  0
LINE
  5
5CC5
330
1F
100
AcDbEntity
  8
POPIS
100
AcDbLine
 10
-2565.461173789903
 20
-7154.34085677076
 30
0.0
 11
-2565.461173789903
 21
-7154.34085677076
 31
0.0
  0
LINE
  5
5CC6
330
1F
100
AcDbEntity
  8
POPIS
100
AcDbLine
 10
-2562.093577744503
 20
-7150.973260725359
 30
0.0
 11
-2545.255597517498
 21
-7134.135280498354
 31
0.0
  0
LINE
  5
5CC7
330
1F
100
AcDbEntity
  8
POPIS
100
AcDbLine
 10
-2541.888001472097
 20
-7130.767684452954
 30
0.0
 11
-2541.888001472097
 21
-7130.767684452954
 31
0.0
  0
LINE
  5
5CC8
330
1F
100
AcDbEntity
  8
POPIS
100
AcDbLine
 10
-2538.520405426696
 20
-7127.400088407553
 30
0.0
 11
-2531.638896470425
 21
-7120.518579451282
 31
0.0
  0
LINE
  5
5CC9
330
1F
100
AcDbEntity
  8
POPIS
100
AcDbLine
 10
-2491.374060791083
 20
-7080.25374377194
 30
0.0
 11
-2474.536080564078
 21
-7063.415763544934
 31
0.0
  0
LINE
  5
5CCA
330
1F
100
AcDbEntity
  8
POPIS
100
AcDbLine
 10
-2471.168484518677
 20
-7060.048167499534
 30
0.0
 11
-2471.168484518677
 21
-7060.048167499534
 31
0.0
  0
LINE
  5
5CCB
330
1F
100
AcDbEntity
  8
POPIS
100
AcDbLine
 10
-2467.800888473277
 20
-7056.680571454133
 30
0.0
 11
-2450.962908246272
 21
-7039.842591227129
 31
0.0
  0
LINE
  5
5CCC
330
1F
100
AcDbEntity
  8
POPIS
100
AcDbLine
 10
-2447.595312200871
 20
-7036.474995181727
 30
0.0
 11
-2447.595312200871
 21
-7036.474995181727
 31
0.0
  0
LINE
  5
5CCD
330
1F
100
AcDbEntity
  8
POPIS
100
AcDbLine
 10
-2540.465131084212
 20
-7156.285582428276
 30
0.0
 11
-2531.785213335894
 21
-7147.605664679959
 31
0.0
  0
LINE
  5
5CCE
330
1F
100
AcDbEntity
  8
POPIS
100
AcDbLine
 10
-2528.417617290493
 20
-7144.238068634557
 30
0.0
 11
-2528.417617290493
 21
-7144.238068634557
 31
0.0
  0
LINE
  5
5CCF
330
1F
100
AcDbEntity
  8
POPIS
100
AcDbLine
 10
-2525.050021245093
 20
-7140.870472589156
 30
0.0
 11
-2508.212041018087
 21
-7124.032492362151
 31
0.0
  0
LINE
  5
5CD0
330
1F
100
AcDbEntity
  8
POPIS
100
AcDbLine
 10
-2504.844444972687
 20
-7120.664896316751
 30
0.0
 11
-2504.844444972687
 21
-7120.664896316751
 31
0.0
  0
LINE
  5
5CD1
330
1F
100
AcDbEntity
  8
POPIS
100
AcDbLine
 10
-2466.405154028091
 20
-7082.225605372155
 30
0.0
 11
-2461.065696382474
 21
-7076.886147726539
 31
0.0
  0
LINE
  5
5CD2
330
1F
100
AcDbEntity
  8
POPIS
100
AcDbLine
 10
-2457.698100337074
 20
-7073.518551681138
 30
0.0
 11
-2457.698100337074
 21
-7073.518551681138
 31
0.0
  0
LINE
  5
5CD3
330
1F
100
AcDbEntity
  8
POPIS
100
AcDbLine
 10
-2454.330504291673
 20
-7070.150955635736
 30
0.0
 11
-2437.492524064668
 21
-7053.312975408733
 31
0.0
  0
LINE
  5
5CD4
330
1F
100
AcDbEntity
  8
POPIS
100
AcDbLine
 10
-2434.124928019267
 20
-7049.945379363331
 30
0.0
 11
-2434.124928019267
 21
-7049.945379363331
 31
0.0
  0
LINE
  5
5CD5
330
1F
100
AcDbEntity
  8
POPIS
100
AcDbLine
 10
-2430.757331973866
 20
-7046.577783317932
 30
0.0
 11
-2420.642202983315
 21
-7036.462654327379
 31
0.0
  0
LINE
  5
5CD6
330
1F
100
AcDbEntity
  8
POPIS
100
AcDbLine
 10
-2511.579637063489
 20
-7154.34085677076
 30
0.0
 11
-2494.741656836484
 21
-7137.502876543756
 31
0.0
  0
LINE
  5
5CD7
330
1F
100
AcDbEntity
  8
POPIS
100
AcDbLine
 10
-2491.374060791083
 20
-7134.135280498354
 30
0.0
 11
-2491.374060791083
 21
-7134.135280498354
 31
0.0
  0
LINE
  5
5CD8
330
1F
100
AcDbEntity
  8
POPIS
100
AcDbLine
 10
-2488.006464745682
 20
-7130.767684452954
 30
0.0
 11
-2477.757359744009
 21
-7120.518579451282
 31
0.0
  0
LINE
  5
5CD9
330
1F
100
AcDbEntity
  8
POPIS
100
AcDbLine
 10
-2439.464385664883
 20
-7082.225605372155
 30
0.0
 11
-2424.022139883064
 21
-7066.783359590336
 31
0.0
  0
LINE
  5
5CDA
330
1F
100
AcDbEntity
  8
POPIS
100
AcDbLine
 10
-2420.654543837664
 20
-7063.415763544935
 30
0.0
 11
-2420.654543837664
 21
-7063.415763544935
 31
0.0
  0
LINE
  5
5CDB
330
1F
100
AcDbEntity
  8
POPIS
100
AcDbLine
 10
-2417.286947792263
 20
-7060.048167499535
 30
0.0
 11
-2400.448967565258
 21
-7043.21018727253
 31
0.0
  0
LINE
  5
5CDC
330
1F
100
AcDbEntity
  8
POPIS
100
AcDbLine
 10
-2397.081371519857
 20
-7039.842591227129
 30
0.0
 11
-2397.081371519857
 21
-7039.842591227129
 31
0.0
  0
LINE
  5
5CDD
330
1F
100
AcDbEntity
  8
POPIS
100
AcDbLine
 10
-2393.713775474456
 20
-7036.474995181727
 30
0.0
 11
-2393.701434620107
 21
-7036.462654327379
 31
0.0
  0
LINE
  5
5CDE
330
1F
100
AcDbEntity
  8
POPIS
100
AcDbLine
 10
-2486.583594357796
 20
-7156.285582428276
 30
0.0
 11
-2481.27127265488
 21
-7150.973260725359
 31
0.0
  0
LINE
  5
5CDF
330
1F
100
AcDbEntity
  8
POPIS
100
AcDbLine
 10
-2477.903676609479
 20
-7147.605664679959
 30
0.0
 11
-2477.903676609479
 21
-7147.605664679959
 31
0.0
  0
LINE
  5
5CE0
330
1F
100
AcDbEntity
  8
POPIS
100
AcDbLine
 10
-2474.536080564078
 20
-7144.238068634557
 30
0.0
 11
-2457.698100337074
 21
-7127.400088407553
 31
0.0
  0
LINE
  5
5CE1
330
1F
100
AcDbEntity
  8
POPIS
100
AcDbLine
 10
-2454.330504291673
 20
-7124.032492362151
 30
0.0
 11
-2454.330504291673
 21
-7124.032492362151
 31
0.0
  0
LINE
  5
5CE2
330
1F
100
AcDbEntity
  8
POPIS
100
AcDbLine
 10
-2450.962908246272
 20
-7120.664896316751
 30
0.0
 11
-2450.816591380802
 21
-7120.518579451282
 31
0.0
  0
LINE
  5
5CE3
330
1F
100
AcDbEntity
  8
POPIS
100
AcDbLine
 10
-2412.630199839192
 20
-7082.332187909671
 30
0.0
 11
-2410.551755701461
 21
-7080.25374377194
 31
0.0
  0
LINE
  5
5CE4
330
1F
100
AcDbEntity
  8
POPIS
100
AcDbLine
 10
-2407.184159656059
 20
-7076.886147726539
 30
0.0
 11
-2407.184159656059
 21
-7076.886147726539
 31
0.0
  0
LINE
  5
5CE5
330
1F
100
AcDbEntity
  8
POPIS
100
AcDbLine
 10
-2403.816563610658
 20
-7073.518551681138
 30
0.0
 11
-2386.978583383654
 21
-7056.680571454133
 31
0.0
  0
LINE
  5
5CE6
330
1F
100
AcDbEntity
  8
POPIS
100
AcDbLine
 10
-2383.610987338253
 20
-7053.312975408733
 30
0.0
 11
-2383.610987338253
 21
-7053.312975408733
 31
0.0
  0
LINE
  5
5CE7
330
1F
100
AcDbEntity
  8
POPIS
100
AcDbLine
 10
-2380.243391292852
 20
-7049.945379363331
 30
0.0
 11
-2366.760666256899
 21
-7036.462654327379
 31
0.0
  0
LINE
  5
5CE8
330
1F
100
AcDbEntity
  8
POPIS
100
AcDbLine
 10
-2459.642825994589
 20
-7156.285582428276
 30
0.0
 11
-2444.22771615547
 21
-7140.870472589156
 31
0.0
  0
LINE
  5
5CE9
330
1F
100
AcDbEntity
  8
POPIS
100
AcDbLine
 10
-2440.860120110069
 20
-7137.502876543756
 30
0.0
 11
-2440.860120110069
 21
-7137.502876543756
 31
0.0
  0
LINE
  5
5CEA
330
1F
100
AcDbEntity
  8
POPIS
100
AcDbLine
 10
-2437.492524064668
 20
-7134.135280498354
 30
0.0
 11
-2423.342910330009
 21
-7119.985666763696
 31
0.0
  0
LINE
  5
5CEB
330
1F
100
AcDbEntity
  8
POPIS
100
AcDbLine
 10
-2385.689431475984
 20
-7082.332187909671
 30
0.0
 11
-2373.50819920205
 21
-7070.150955635736
 31
0.0
  0
LINE
  5
5CEC
330
1F
100
AcDbEntity
  8
POPIS
100
AcDbLine
 10
-2370.140603156649
 20
-7066.783359590336
 30
0.0
 11
-2370.140603156649
 21
-7066.783359590336
 31
0.0
  0
LINE
  5
5CED
330
1F
100
AcDbEntity
  8
POPIS
100
AcDbLine
 10
-2366.773007111248
 20
-7063.415763544935
 30
0.0
 11
-2349.935026884244
 21
-7046.577783317932
 31
0.0
  0
LINE
  5
5CEE
330
1F
100
AcDbEntity
  8
POPIS
100
AcDbLine
 10
-2346.567430838843
 20
-7043.21018727253
 30
0.0
 11
-2346.567430838843
 21
-7043.21018727253
 31
0.0
  0
LINE
  5
5CEF
330
1F
100
AcDbEntity
  8
POPIS
100
AcDbLine
 10
-2343.199834793442
 20
-7039.842591227129
 30
0.0
 11
-2339.819897893692
 21
-7036.462654327379
 31
0.0
  0
LINE
  5
5CF0
330
1F
100
AcDbEntity
  8
POPIS
100
AcDbLine
 10
-2432.702057631381
 20
-7156.285582428276
 30
0.0
 11
-2430.757331973866
 21
-7154.34085677076
 31
0.0
  0
LINE
  5
5CF1
330
1F
100
AcDbEntity
  8
POPIS
100
AcDbLine
 10
-2427.389735928465
 20
-7150.973260725359
 30
0.0
 11
-2427.389735928465
 21
-7150.973260725359
 31
0.0
  0
LINE
  5
5CF2
330
1F
100
AcDbEntity
  8
POPIS
100
AcDbLine
 10
-2424.022139883064
 20
-7147.605664679959
 30
0.0
 11
-2407.184159656059
 21
-7130.767684452954
 31
0.0
  0
LINE
  5
5CF3
330
1F
100
AcDbEntity
  8
POPIS
100
AcDbLine
 10
-2403.816563610658
 20
-7127.400088407553
 30
0.0
 11
-2403.816563610658
 21
-7127.400088407553
 31
0.0
  0
LINE
  5
5CF4
330
1F
100
AcDbEntity
  8
POPIS
100
AcDbLine
 10
-2400.448967565258
 20
-7124.032492362151
 30
0.0
 11
-2396.402141966802
 21
-7119.985666763696
 31
0.0
  0
LINE
  5
5CF5
330
1F
100
AcDbEntity
  8
POPIS
100
AcDbLine
 10
-2356.670218975045
 20
-7080.25374377194
 30
0.0
 11
-2356.670218975045
 21
-7080.25374377194
 31
0.0
  0
LINE
  5
5CF6
330
1F
100
AcDbEntity
  8
POPIS
100
AcDbLine
 10
-2353.302622929644
 20
-7076.886147726539
 30
0.0
 11
-2336.46464270264
 21
-7060.048167499535
 31
0.0
  0
LINE
  5
5CF7
330
1F
100
AcDbEntity
  8
POPIS
100
AcDbLine
 10
-2333.097046657239
 20
-7056.680571454133
 30
0.0
 11
-2333.097046657239
 21
-7056.680571454133
 31
0.0
  0
LINE
  5
5CF8
330
1F
100
AcDbEntity
  8
POPIS
100
AcDbLine
 10
-2329.729450611838
 20
-7053.312975408733
 30
0.0
 11
-2312.891470384834
 21
-7036.474995181727
 31
0.0
  0
LINE
  5
5CF9
330
1F
100
AcDbEntity
  8
POPIS
100
AcDbLine
 10
-2380.243391292852
 20
-7103.826916089746
 30
0.0
 11
-2380.243391292852
 21
-7103.826916089746
 31
0.0
  0
LINE
  5
5CFB
330
1F
100
AcDbEntity
  8
POPIS
100
AcDbLine
 10
-2331.697048910552
 20
-7082.221342070655
 30
0.0
 11
-2322.994258521036
 21
-7073.518551681138
 31
0.0
  0
LINE
  5
5CFC
330
1F
100
AcDbEntity
  8
POPIS
100
AcDbLine
 10
-2319.626662475635
 20
-7070.150955635736
 30
0.0
 11
-2319.626662475635
 21
-7070.150955635736
 31
0.0
  0
LINE
  5
5CFD
330
1F
100
AcDbEntity
  8
POPIS
100
AcDbLine
 10
-2316.259066430234
 20
-7066.783359590336
 30
0.0
 11
-2305.92112105029
 21
-7056.445414210391
 31
0.0
  0
LINE
  5
5CFE
330
1F
100
AcDbEntity
  8
POPIS
100
AcDbLine
 10
-2405.761289268174
 20
-7156.285582428276
 30
0.0
 11
-2393.713775474456
 21
-7144.238068634557
 31
0.0
  0
LINE
  5
5CFF
330
1F
100
AcDbEntity
  8
POPIS
100
AcDbLine
 10
-2390.346179429055
 20
-7140.870472589156
 30
0.0
 11
-2390.346179429055
 21
-7140.870472589156
 31
0.0
  0
LINE
  5
5D00
330
1F
100
AcDbEntity
  8
POPIS
100
AcDbLine
 10
-2386.978583383654
 20
-7137.502876543756
 30
0.0
 11
-2370.14060315665
 21
-7120.664896316751
 31
0.0
  0
LINE
  5
5D06
330
1F
100
AcDbEntity
  8
POPIS
100
AcDbLine
 10
-2326.361854566437
 20
-7103.826916089746
 30
0.0
 11
-2309.523874339432
 21
-7086.988935862741
 31
0.0
  0
LINE
  5
5D07
330
1F
100
AcDbEntity
  8
POPIS
100
AcDbLine
 10
-2306.156278294031
 20
-7083.62133981734
 30
0.0
 11
-2306.156278294031
 21
-7083.62133981734
 31
0.0
  0
LINE
  5
5D08
330
1F
100
AcDbEntity
  8
POPIS
100
AcDbLine
 10
-2376.875795247451
 20
-7154.34085677076
 30
0.0
 11
-2376.875795247451
 21
-7154.34085677076
 31
0.0
  0
LINE
  5
5D09
330
1F
100
AcDbEntity
  8
POPIS
100
AcDbLine
 10
-2373.50819920205
 20
-7150.973260725359
 30
0.0
 11
-2356.670218975045
 21
-7134.135280498354
 31
0.0
  0
LINE
  5
5D0A
330
1F
100
AcDbEntity
  8
POPIS
100
AcDbLine
 10
-2353.302622929645
 20
-7130.767684452954
 30
0.0
 11
-2353.302622929645
 21
-7130.767684452954
 31
0.0
  0
LINE
  5
5D0B
330
1F
100
AcDbEntity
  8
POPIS
100
AcDbLine
 10
-2349.935026884244
 20
-7127.400088407553
 30
0.0
 11
-2343.074834435476
 21
-7120.539895958785
 31
0.0
  0
LINE
  5
5D11
330
1F
100
AcDbEntity
  8
POPIS
100
AcDbLine
 10
-2351.87975254176
 20
-7156.285582428276
 30
0.0
 11
-2343.199834793442
 21
-7147.605664679957
 31
0.0
  0
LINE
  5
5D12
330
1F
100
AcDbEntity
  8
POPIS
100
AcDbLine
 10
-2339.832238748041
 20
-7144.238068634557
 30
0.0
 11
-2339.832238748041
 21
-7144.238068634557
 31
0.0
  0
LINE
  5
5D13
330
1F
100
AcDbEntity
  8
POPIS
100
AcDbLine
 10
-2336.46464270264
 20
-7140.870472589156
 30
0.0
 11
-2319.626662475635
 21
-7124.032492362151
 31
0.0
  0
LINE
  5
5D14
330
1F
100
AcDbEntity
  8
POPIS
100
AcDbLine
 10
-2316.259066430234
 20
-7120.664896316751
 30
0.0
 11
-2316.259066430234
 21
-7120.664896316751
 31
0.0
  0
LINE
  5
5D15
330
1F
100
AcDbEntity
  8
POPIS
100
AcDbLine
 10
-2312.891470384834
 20
-7117.29730027135
 30
0.0
 11
-2305.92112105029
 21
-7110.326950936806
 31
0.0
  0
LINE
  5
5D1F
330
1F
100
AcDbEntity
  8
POPIS
100
AcDbLine
 10
-2322.994258521036
 20
-7154.34085677076
 30
0.0
 11
-2306.156278294031
 21
-7137.502876543756
 31
0.0
  0
TEXT
  5
600F
330
1F
100
AcDbEntity
  8
POPIS
100
AcDbText
 10
-1996.940857683779
 20
-6877.952752213265
 30
0.0
 40
8.399999999999998
  1
R
 41
0.85
  7
SIMPLEX7
100
AcDbText
  0
CIRCLE
  5
6010
330
1F
100
AcDbEntity
  8
POPIS
100
AcDbCircle
 10
-1993.609537345151
 20
-6874.071010191774
 30
0.0
 40
7.795592338044182
  0
TEXT
  5
6011
330
1F
100
AcDbEntity
  8
POPIS
100
AcDbText
 10
-1997.326273392185
 20
-6919.021504750965
 30
0.0
 40
8.399999999999998
  1
R
 41
0.85
  7
SIMPLEX7
100
AcDbText
  0
CIRCLE
  5
6012
330
1F
100
AcDbEntity
  8
POPIS
100
AcDbCircle
 10
-1993.994953053557
 20
-6915.139762729474
 30
0.0
 40
7.795592338044182
  0
TEXT
  5
6013
330
1F
100
AcDbEntity
  8
POPIS
100
AcDbText
 10
-2221.647176288561
 20
-6795.312773438843
 30
0.0
 40
25.0
  1
02
 41
0.85
  7
SIMPLEX7
100
AcDbText
  0
TEXT
  5
6014
330
1F
100
AcDbEntity
  8
POPIS
100
AcDbText
 10
-2221.647176288561
 20
-6903.910895505998
 30
0.0
 40
25.0
  1
05
 41
0.85
  7
SIMPLEX7
100
AcDbText
  0
TEXT
  5
6015
330
1F
100
AcDbEntity
  8
POPIS
100
AcDbText
 10
-2221.647176288561
 20
-6866.026810468409
 30
0.0
 40
25.0
  1
04
 41
0.85
  7
SIMPLEX7
100
AcDbText
  0
TEXT
  5
6016
330
1F
100
AcDbEntity
  8
POPIS
100
AcDbText
 10
-2221.647176288561
 20
-6829.431798852782
 30
0.0
 40
25.0
  1
03
 41
0.85
  7
SIMPLEX7
100
AcDbText
  0
TEXT
  5
6017
330
1F
100
AcDbEntity
  8
POPIS
100
AcDbText
 10
-2221.647176288561
 20
-7045.561509167639
 30
0.0
 40
25.0
  1
09
 41
0.85
  7
SIMPLEX7
100
AcDbText
  0
TEXT
  5
6018
330
1F
100
AcDbEntity
  8
POPIS
100
AcDbText
 10
-2221.647176288561
 20
-7010.035868266337
 30
0.0
 40
25.0
  1
08
 41
0.85
  7
SIMPLEX7
100
AcDbText
  0
TEXT
  5
6019
330
1F
100
AcDbEntity
  8
POPIS
100
AcDbText
 10
-2221.647176288561
 20
-6973.200328263445
 30
0.0
 40
25.0
  1
07
 41
0.85
  7
SIMPLEX7
100
AcDbText
  0
TEXT
  5
601A
330
1F
100
AcDbEntity
  8
POPIS
100
AcDbText
 10
-2221.647176288561
 20
-6939.315056724159
 30
0.0
 40
25.0
  1
06
 41
0.85
  7
SIMPLEX7
100
AcDbText
  0
TEXT
  5
601B
330
1F
100
AcDbEntity
  8
POPIS
100
AcDbText
 10
-2221.647176288561
 20
-6758.717761823216
 30
0.0
 40
25.0
  1
01
 41
0.85
  7
SIMPLEX7
100
AcDbText
  0
TEXT
  5
601C
330
1F
100
AcDbEntity
  8
POPIS
100
AcDbText
 10
-2167.303473128819
 20
-6865.605895069762
 30
0.0
 40
25.0
  1
Nášlapná vrstva
 41
0.7
  7
SIMPLEX7
100
AcDbText
  0
TEXT
  5
601D
330
1F
100
AcDbEntity
  8
POPIS
100
AcDbText
 10
-2167.303473128819
 20
-6759.68764959086
 30
0.0
 40
25.0
  1
Dřevěný dveřní práh tl. 20 mm
 41
0.7
  7
SIMPLEX7
100
AcDbText
  0
TEXT
  5
601E
330
1F
100
AcDbEntity
  8
POPIS
100
AcDbText
 10
-2167.303473128819
 20
-6793.653864939351
 30
0.0
 40
25.0
  1
Prahová spojka zárubně
 41
0.7
  7
SIMPLEX7
100
AcDbText
  0
TEXT
  5
601F
330
1F
100
AcDbEntity
  8
POPIS
100
AcDbText
 10
-2167.303473128819
 20
-6830.248876554979
 30
0.0
 40
25.0
  1
Dřevěný podkladní profil pod zárubeň
 41
0.7
  7
SIMPLEX7
100
AcDbText
  0
TEXT
  5
6020
330
1F
100
AcDbEntity
  8
POPIS
100
AcDbText
 10
-2167.303473128819
 20
-7045.742366361304
 30
0.0
 40
25.0
  1
Podkladní dřevěná lišta
 41
0.7
  7
SIMPLEX7
100
AcDbText
  0
TEXT
  5
6021
330
1F
100
AcDbEntity
  8
POPIS
100
AcDbText
 10
-2167.303473128819
 20
-6974.290578536599
 30
0.0
 40
25.0
  1
Vrut 4,2x35 mm
 41
0.7
  7
SIMPLEX7
100
AcDbText
  0
TEXT
  5
6022
330
1F
100
AcDbEntity
  8
POPIS
100
AcDbText
 10
-2167.303473128819
 20
-6940.340390291876
 30
0.0
 40
25.0
  1
Deska CETRIS    tl. 12 mm, spodní
 41
0.7
  7
SIMPLEX7
100
AcDbText
  0
TEXT
  5
6023
330
1F
100
AcDbEntity
  8
POPIS
100
AcDbText
 10
-2167.303473128819
 20
-6903.74537867625
 30
0.0
 40
25.0
  1
Deska CETRIS    tl. 12 mm horní, předvrtaná
 41
0.7
  7
SIMPLEX7
100
AcDbText
  0
TEXT
  5
6024
330
1F
100
AcDbEntity
  8
POPIS
100
AcDbText
 10
-2167.303473128819
 20
-7079.62763790059
 30
0.0
 40
25.0
  1
Izolace EPS
 41
0.7
  7
SIMPLEX7
100
AcDbText
  0
TEXT
  5
6025
330
1F
100
AcDbEntity
  8
POPIS
100
AcDbText
 10
-2221.647176288561
 20
-7148.497057210597
 30
0.0
 40
25.0
  1
12
 41
0.85
  7
SIMPLEX7
100
AcDbText
  0
TEXT
  5
6026
330
1F
100
AcDbEntity
  8
POPIS
100
AcDbText
 10
-2221.647176288561
 20
-7115.182018085618
 30
0.0
 40
25.0
  1
11
 41
0.85
  7
SIMPLEX7
100
AcDbText
  0
TEXT
  5
6027
330
1F
100
AcDbEntity
  8
POPIS
100
AcDbText
 10
-2167.303473128819
 20
-7214.892369944877
 30
0.0
 40
25.0
  1
Stropní konstrukce
 41
0.7
  7
SIMPLEX7
100
AcDbText
  0
TEXT
  5
6028
330
1F
100
AcDbEntity
  8
POPIS
100
AcDbText
 10
-2167.303473128819
 20
-7181.577330819897
 30
0.0
 40
25.0
  1
Dilatační spára tl. 15 mm
 41
0.7
  7
SIMPLEX7
100
AcDbText
  0
TEXT
  5
6029
330
1F
100
AcDbEntity
  8
POPIS
100
AcDbText
 10
-2221.647176288561
 20
-7080.847135360338
 30
0.0
 40
25.0
  1
10
 41
0.85
  7
SIMPLEX7
100
AcDbText
  0
TEXT
  5
602A
330
1F
100
AcDbEntity
  8
POPIS
100
AcDbText
 10
-2167.303473128819
 20
-7147.242448094617
 30
0.0
 40
25.0
  1
Parozábrana
 41
0.7
  7
SIMPLEX7
100
AcDbText
  0
TEXT
  5
602B
330
1F
100
AcDbEntity
  8
POPIS
100
AcDbText
 10
-2221.647176288561
 20
-7182.046344403298
 30
0.0
 40
25.0
  1
13
 41
0.85
  7
SIMPLEX7
100
AcDbText
  0
TEXT
  5
602C
330
1F
100
AcDbEntity
  8
POPIS
100
AcDbText
 10
-2168.773061086607
 20
-7008.352351278027
 30
0.0
 40
25.0
  1
Separační fólie-pěnová fólie tl. 2 mm
 41
0.7
  7
SIMPLEX7
100
AcDbText
  0
TEXT
  5
602D
330
1F
100
AcDbEntity
  8
POPIS
100
AcDbText
 10
-2167.303473128819
 20
-7113.529452361385
 30
0.0
 40
25.0
  1
Izolace EPS
 41
0.7
  7
SIMPLEX7
100
AcDbText
  0
TEXT
  5
602E
330
1F
100
AcDbEntity
  8
POPIS
100
AcDbText
 10
-2221.647176288561
 20
-7214.609917709612
 30
0.0
 40
25.0
  1
14
 41
0.85
  7
SIMPLEX7
100
AcDbText
  0
ENDSEC
  0
SECTION
  2
OBJECTS
  0
DICTIONARY
  5
C
330
0
100
AcDbDictionary
281
     1
  3
ACAD_GROUP
350
D
  3
ACAD_LAYOUT
350
1A
  3
ACAD_MLINESTYLE
350
17
  3
ACAD_PLOTSETTINGS
350
19
  3
ACAD_PLOTSTYLENAME
350
E
  3
AcDbVariableDictionary
350
8A0
  0
DICTIONARY
  5
D
102
{ACAD_REACTORS
330
C
102
}
330
C
100
AcDbDictionary
281
     1
  0
DICTIONARY
  5
1A
102
{ACAD_REACTORS
330
C
102
}
330
C
100
AcDbDictionary
281
     1
  3
Model
350
22
  3
Rozvržení1
350
1E
  3
Rozvržení2
350
26
  0
DICTIONARY
  5
17
102
{ACAD_REACTORS
330
C
102
}
330
C
100
AcDbDictionary
281
     1
  3
Standard
350
18
  0
DICTIONARY
  5
19
102
{ACAD_REACTORS
330
C
102
}
330
C
100
AcDbDictionary
281
     1
  0
ACDBDICTIONARYWDFLT
  5
E
102
{ACAD_REACTORS
330
C
102
}
330
C
100
AcDbDictionary
281
     1
  3
Normal
350
F
100
AcDbDictionaryWithDefault
340
F
  0
DICTIONARY
  5
8A0
102
{ACAD_REACTORS
330
C
102
}
330
C
100
AcDbDictionary
281
     1
  3
DIMASSOC
350
8A1
  0
LAYOUT
  5
22
102
{ACAD_REACTORS
330
1A
102
}
330
1A
100
AcDbPlotSettings
  1

  2
HP DeskJet 690C
  4

  6

 40
0.0
 41
0.0
 42
0.0
 43
0.0
 44
0.0
 45
0.0
 46
0.0
 47
0.0
 48
0.0
 49
0.0
140
0.0
141
0.0
142
1.0
143
1.0
 70
  1712
 72
     0
 73
     0
 74
     0
  7
monochrome.ctb
 75
     0
147
1.0
148
0.0
149
0.0
100
AcDbLayout
  1
Model
 70
     1
 71
     0
 10
0.0
 20
0.0
 11
12.0
 21
9.0
 12
0.0
 22
0.0
 32
0.0
 14
0.0
 24
0.0
 34
0.0
 15
0.0
 25
0.0
 35
0.0
146
0.0
 13
0.0
 23
0.0
 33
0.0
 16
1.0
 26
0.0
 36
0.0
 17
0.0
 27
1.0
 37
0.0
 76
     0
330
1F
  0
LAYOUT
  5
1E
102
{ACAD_REACTORS
330
1A
102
}
330
1A
100
AcDbPlotSettings
  1

  2
HP DeskJet 690C
  4

  6

 40
0.0
 41
0.0
 42
0.0
 43
0.0
 44
0.0
 45
0.0
 46
0.0
 47
0.0
 48
0.0
 49
0.0
140
0.0
141
0.0
142
1.0
143
1.0
 70
   688
 72
     0
 73
     0
 74
     5
  7
monochrome.ctb
 75
    16
147
1.0
148
0.0
149
0.0
100
AcDbLayout
  1
Rozvržení1
 70
     1
 71
     1
 10
0.0
 20
0.0
 11
420.0
 21
297.0
 12
0.0
 22
0.0
 32
0.0
 14
1.000000000000000E+20
 24
1.000000000000000E+20
 34
1.000000000000000E+20
 15
-1.000000000000000E+20
 25
-1.000000000000000E+20
 35
-1.000000000000000E+20
146
0.0
 13
0.0
 23
0.0
 33
0.0
 16
1.0
 26
0.0
 36
0.0
 17
0.0
 27
1.0
 37
0.0
 76
     0
330
1B
  0
LAYOUT
  5
26
102
{ACAD_REACTORS
330
1A
102
}
330
1A
100
AcDbPlotSettings
  1

  2
HP DeskJet 690C
  4

  6

 40
0.0
 41
0.0
 42
0.0
 43
0.0
 44
0.0
 45
0.0
 46
0.0
 47
0.0
 48
0.0
 49
0.0
140
0.0
141
0.0
142
1.0
143
1.0
 70
   688
 72
     0
 73
     0
 74
     5
  7
monochrome.ctb
 75
    16
147
1.0
148
0.0
149
0.0
100
AcDbLayout
  1
Rozvržení2
 70
     1
 71
     2
 10
0.0
 20
0.0
 11
12.0
 21
9.0
 12
0.0
 22
0.0
 32
0.0
 14
0.0
 24
0.0
 34
0.0
 15
0.0
 25
0.0
 35
0.0
146
0.0
 13
0.0
 23
0.0
 33
0.0
 16
1.0
 26
0.0
 36
0.0
 17
0.0
 27
1.0
 37
0.0
 76
     0
330
23
  0
MLINESTYLE
  5
18
102
{ACAD_REACTORS
330
17
102
}
330
17
100
AcDbMlineStyle
  2
STANDARD
 70
     0
  3

 62
   256
 51
90.0
 52
90.0
 71
     2
 49
0.5
 62
   256
  6
BYLAYER
 49
-0.5
 62
   256
  6
BYLAYER
  0
ACDBPLACEHOLDER
  5
F
102
{ACAD_REACTORS
330
E
102
}
330
E
  0
DICTIONARYVAR
  5
8A1
102
{ACAD_REACTORS
330
8A0
102
}
330
8A0
100
DictionaryVariables
280
     0
  1
1
  0
ENDSEC
  0
EOF
