  0
SECTION
  2
HEADER
  9
$ACADVER
  1
AC1015
  9
$ACADMAINTVER
 70
    14
  9
$DWGCODEPAGE
  3
ANSI_1250
  9
$INSBASE
 10
0.0
 20
0.0
 30
0.0
  9
$EXTMIN
 10
236.9353289509999
 20
560.0728585981578
 30
0.0
  9
$EXTMAX
 10
1412.751221997326
 20
1219.455630737835
 30
0.0
  9
$LIMMIN
 10
0.0
 20
0.0
  9
$LIMMAX
 10
420.0
 20
297.0
  9
$ORTHOMODE
 70
     0
  9
$REGENMODE
 70
     1
  9
$FILLMODE
 70
     1
  9
$QTEXTMODE
 70
     0
  9
$MIRRTEXT
 70
     1
  9
$LTSCALE
 40
1.0
  9
$ATTMODE
 70
     1
  9
$TEXTSIZE
 40
2.5
  9
$TRACEWID
 40
1.0
  9
$TEXTSTYLE
  7
Standard
  9
$CLAYER
  8
0
  9
$CELTYPE
  6
ByLayer
  9
$CECOLOR
 62
   256
  9
$CELTSCALE
 40
1.0
  9
$DISPSILH
 70
     0
  9
$DIMSCALE
 40
1.0
  9
$DIMASZ
 40
2.5
  9
$DIMEXO
 40
0.625
  9
$DIMDLI
 40
3.75
  9
$DIMRND
 40
0.0
  9
$DIMDLE
 40
0.0
  9
$DIMEXE
 40
1.25
  9
$DIMTP
 40
0.0
  9
$DIMTM
 40
0.0
  9
$DIMTXT
 40
2.5
  9
$DIMCEN
 40
2.5
  9
$DIMTSZ
 40
0.0
  9
$DIMTOL
 70
     0
  9
$DIMLIM
 70
     0
  9
$DIMTIH
 70
     0
  9
$DIMTOH
 70
     0
  9
$DIMSE1
 70
     0
  9
$DIMSE2
 70
     0
  9
$DIMTAD
 70
     1
  9
$DIMZIN
 70
     8
  9
$DIMBLK
  1

  9
$DIMASO
 70
     1
  9
$DIMSHO
 70
     1
  9
$DIMPOST
  1

  9
$DIMAPOST
  1

  9
$DIMALT
 70
     0
  9
$DIMALTD
 70
     3
  9
$DIMALTF
 40
0.03937007874016
  9
$DIMLFAC
 40
1.0
  9
$DIMTOFL
 70
     1
  9
$DIMTVP
 40
0.0
  9
$DIMTIX
 70
     0
  9
$DIMSOXD
 70
     0
  9
$DIMSAH
 70
     0
  9
$DIMBLK1
  1

  9
$DIMBLK2
  1

  9
$DIMSTYLE
  2
ISO-25
  9
$DIMCLRD
 70
     0
  9
$DIMCLRE
 70
     0
  9
$DIMCLRT
 70
     0
  9
$DIMTFAC
 40
1.0
  9
$DIMGAP
 40
0.625
  9
$DIMJUST
 70
     0
  9
$DIMSD1
 70
     0
  9
$DIMSD2
 70
     0
  9
$DIMTOLJ
 70
     0
  9
$DIMTZIN
 70
     8
  9
$DIMALTZ
 70
     0
  9
$DIMALTTZ
 70
     0
  9
$DIMUPT
 70
     0
  9
$DIMDEC
 70
     2
  9
$DIMTDEC
 70
     2
  9
$DIMALTU
 70
     2
  9
$DIMALTTD
 70
     3
  9
$DIMTXSTY
  7
Standard
  9
$DIMAUNIT
 70
     0
  9
$DIMADEC
 70
     0
  9
$DIMALTRND
 40
0.0
  9
$DIMAZIN
 70
     0
  9
$DIMDSEP
 70
    44
  9
$DIMATFIT
 70
     3
  9
$DIMFRAC
 70
     0
  9
$DIMLDRBLK
  1

  9
$DIMLUNIT
 70
     2
  9
$DIMLWD
 70
    -2
  9
$DIMLWE
 70
    -2
  9
$DIMTMOVE
 70
     0
  9
$LUNITS
 70
     2
  9
$LUPREC
 70
     4
  9
$SKETCHINC
 40
1.0
  9
$FILLETRAD
 40
10.0
  9
$AUNITS
 70
     0
  9
$AUPREC
 70
     0
  9
$MENU
  1
.
  9
$ELEVATION
 40
0.0
  9
$PELEVATION
 40
0.0
  9
$THICKNESS
 40
0.0
  9
$LIMCHECK
 70
     0
  9
$CHAMFERA
 40
10.0
  9
$CHAMFERB
 40
10.0
  9
$CHAMFERC
 40
20.0
  9
$CHAMFERD
 40
0.0
  9
$SKPOLY
 70
     0
  9
$TDCREATE
 40
2452332.512107639
  9
$TDUCREATE
 40
2452332.470440972
  9
$TDUPDATE
 40
2455601.407351215
  9
$TDUUPDATE
 40
2455601.365684548
  9
$TDINDWG
 40
0.0348593866
  9
$TDUSRTIMER
 40
0.0348454977
  9
$USRTIMER
 70
     1
  9
$ANGBASE
 50
0.0
  9
$ANGDIR
 70
     0
  9
$PDMODE
 70
     0
  9
$PDSIZE
 40
0.0
  9
$PLINEWID
 40
0.0
  9
$SPLFRAME
 70
     0
  9
$SPLINETYPE
 70
     6
  9
$SPLINESEGS
 70
     8
  9
$HANDSEED
  5
AB54
  9
$SURFTAB1
 70
     6
  9
$SURFTAB2
 70
     6
  9
$SURFTYPE
 70
     6
  9
$SURFU
 70
     6
  9
$SURFV
 70
     6
  9
$UCSBASE
  2

  9
$UCSNAME
  2

  9
$UCSORG
 10
0.0
 20
0.0
 30
0.0
  9
$UCSXDIR
 10
1.0
 20
0.0
 30
0.0
  9
$UCSYDIR
 10
0.0
 20
1.0
 30
0.0
  9
$UCSORTHOREF
  2

  9
$UCSORTHOVIEW
 70
     0
  9
$UCSORGTOP
 10
0.0
 20
0.0
 30
0.0
  9
$UCSORGBOTTOM
 10
0.0
 20
0.0
 30
0.0
  9
$UCSORGLEFT
 10
0.0
 20
0.0
 30
0.0
  9
$UCSORGRIGHT
 10
0.0
 20
0.0
 30
0.0
  9
$UCSORGFRONT
 10
0.0
 20
0.0
 30
0.0
  9
$UCSORGBACK
 10
0.0
 20
0.0
 30
0.0
  9
$PUCSBASE
  2

  9
$PUCSNAME
  2

  9
$PUCSORG
 10
0.0
 20
0.0
 30
0.0
  9
$PUCSXDIR
 10
1.0
 20
0.0
 30
0.0
  9
$PUCSYDIR
 10
0.0
 20
1.0
 30
0.0
  9
$PUCSORTHOREF
  2

  9
$PUCSORTHOVIEW
 70
     0
  9
$PUCSORGTOP
 10
0.0
 20
0.0
 30
0.0
  9
$PUCSORGBOTTOM
 10
0.0
 20
0.0
 30
0.0
  9
$PUCSORGLEFT
 10
0.0
 20
0.0
 30
0.0
  9
$PUCSORGRIGHT
 10
0.0
 20
0.0
 30
0.0
  9
$PUCSORGFRONT
 10
0.0
 20
0.0
 30
0.0
  9
$PUCSORGBACK
 10
0.0
 20
0.0
 30
0.0
  9
$USERI1
 70
     0
  9
$USERI2
 70
     0
  9
$USERI3
 70
     0
  9
$USERI4
 70
     0
  9
$USERI5
 70
     0
  9
$USERR1
 40
0.0
  9
$USERR2
 40
0.0
  9
$USERR3
 40
0.0
  9
$USERR4
 40
0.0
  9
$USERR5
 40
0.0
  9
$WORLDVIEW
 70
     1
  9
$SHADEDGE
 70
     3
  9
$SHADEDIF
 70
    70
  9
$TILEMODE
 70
     1
  9
$MAXACTVP
 70
    64
  9
$PINSBASE
 10
0.0
 20
0.0
 30
0.0
  9
$PLIMCHECK
 70
     0
  9
$PEXTMIN
 10
1.000000000000000E+20
 20
1.000000000000000E+20
 30
1.000000000000000E+20
  9
$PEXTMAX
 10
-1.000000000000000E+20
 20
-1.000000000000000E+20
 30
-1.000000000000000E+20
  9
$PLIMMIN
 10
0.0
 20
0.0
  9
$PLIMMAX
 10
420.0
 20
297.0
  9
$UNITMODE
 70
     0
  9
$VISRETAIN
 70
     1
  9
$PLINEGEN
 70
     0
  9
$PSLTSCALE
 70
     1
  9
$TREEDEPTH
 70
  3020
  9
$CMLSTYLE
  2
Standard
  9
$CMLJUST
 70
     0
  9
$CMLSCALE
 40
20.0
  9
$PROXYGRAPHICS
 70
     1
  9
$MEASUREMENT
 70
     1
  9
$CELWEIGHT
370
    -1
  9
$ENDCAPS
280
     0
  9
$JOINSTYLE
280
     0
  9
$LWDISPLAY
290
     0
  9
$INSUNITS
 70
     4
  9
$HYPERLINKBASE
  1

  9
$STYLESHEET
  1

  9
$XEDIT
290
     1
  9
$CEPSNTYPE
380
     0
  9
$PSTYLEMODE
290
     1
  9
$FINGERPRINTGUID
  2
{D99C744E-04C5-44F1-9703-862C59725F9B}
  9
$VERSIONGUID
  2
{894A6731-522D-4D17-9F26-905F1A5714CC}
  9
$EXTNAMES
290
     1
  9
$PSVPSCALE
 40
0.0
  9
$OLESTARTUP
290
     0
  0
ENDSEC
  0
SECTION
  2
CLASSES
  0
CLASS
  1
ACDBDICTIONARYWDFLT
  2
AcDbDictionaryWithDefault
  3
AutoCAD 2000
 90
        0
280
     0
281
     0
  0
CLASS
  1
ACDBPLACEHOLDER
  2
AcDbPlaceHolder
  3
AutoCAD 2000
 90
        0
280
     0
281
     0
  0
CLASS
  1
LAYOUT
  2
AcDbLayout
  3
AutoCAD 2000
 90
        0
280
     0
281
     0
  0
CLASS
  1
DICTIONARYVAR
  2
AcDbDictionaryVar
  3
AutoCAD 2000
 90
        0
280
     0
281
     0
  0
ENDSEC
  0
SECTION
  2
TABLES
  0
TABLE
  2
VPORT
  5
8
330
0
100
AcDbSymbolTable
 70
     2
  0
VPORT
  5
AB53
330
8
100
AcDbSymbolTableRecord
100
AcDbViewportTableRecord
  2
*Active
 70
     0
 10
0.0
 20
0.0
 11
1.0
 21
1.0
 12
825.8751245524241
 22
826.9309342243129
 13
0.0
 23
0.0
 14
10.0
 24
10.0
 15
10.0
 25
10.0
 16
0.0
 26
0.0
 36
1.0
 17
0.0
 27
0.0
 37
0.0
 40
943.9718742159341
 41
2.031862745098039
 42
50.0
 43
0.0
 44
0.0
 50
0.0
 51
0.0
 71
     0
 72
   100
 73
     1
 74
     3
 75
     0
 76
     0
 77
     0
 78
     0
281
     0
 65
     1
110
0.0
120
0.0
130
0.0
111
1.0
121
0.0
131
0.0
112
0.0
122
1.0
132
0.0
 79
     0
146
0.0
  0
ENDTAB
  0
TABLE
  2
LTYPE
  5
5
330
0
100
AcDbSymbolTable
 70
     1
  0
LTYPE
  5
14
330
5
100
AcDbSymbolTableRecord
100
AcDbLinetypeTableRecord
  2
ByBlock
 70
     0
  3

 72
    65
 73
     0
 40
0.0
  0
LTYPE
  5
15
330
5
100
AcDbSymbolTableRecord
100
AcDbLinetypeTableRecord
  2
ByLayer
 70
     0
  3

 72
    65
 73
     0
 40
0.0
  0
LTYPE
  5
16
330
5
100
AcDbSymbolTableRecord
100
AcDbLinetypeTableRecord
  2
Continuous
 70
     0
  3
Solid line
 72
    65
 73
     0
 40
0.0
  0
ENDTAB
  0
TABLE
  2
LAYER
  5
2
330
0
100
AcDbSymbolTable
 70
     7
  0
LAYER
  5
10
330
2
100
AcDbSymbolTableRecord
100
AcDbLayerTableRecord
  2
0
 70
     0
 62
     7
  6
Continuous
370
    -3
390
F
  0
LAYER
  5
3405
330
2
100
AcDbSymbolTableRecord
100
AcDbLayerTableRecord
  2
POPIS
 70
     0
 62
    30
  6
Continuous
370
    -3
390
F
  0
LAYER
  5
3406
330
2
100
AcDbSymbolTableRecord
100
AcDbLayerTableRecord
  2
SPOJOVACÍ
 70
     0
 62
   180
  6
Continuous
370
    -3
390
F
  0
LAYER
  5
3407
330
2
100
AcDbSymbolTableRecord
100
AcDbLayerTableRecord
  2
CETRIS
 70
     0
 62
     1
  6
Continuous
370
    -3
390
F
  0
LAYER
  5
3408
330
2
100
AcDbSymbolTableRecord
100
AcDbLayerTableRecord
  2
izolace
 70
     0
 62
    73
  6
Continuous
370
    -3
390
F
  0
LAYER
  5
3409
330
2
100
AcDbSymbolTableRecord
100
AcDbLayerTableRecord
  2
STAVBA OBRYS
 70
     0
 62
     6
  6
Continuous
370
    -3
390
F
  0
LAYER
  5
3758
330
2
100
AcDbSymbolTableRecord
100
AcDbLayerTableRecord
  2
NOSNÉ KONSTRUKCE
 70
     0
 62
    33
  6
Continuous
370
    -3
390
F
  0
ENDTAB
  0
TABLE
  2
STYLE
  5
3
330
0
100
AcDbSymbolTable
 70
     2
  0
STYLE
  5
11
330
3
100
AcDbSymbolTableRecord
100
AcDbTextStyleTableRecord
  2
Standard
 70
     0
 40
0.0
 41
1.0
 50
0.0
 71
     0
 42
2.5
  3
txt
  4

  0
STYLE
  5
340A
330
3
100
AcDbSymbolTableRecord
100
AcDbTextStyleTableRecord
  2
SIMPLEX7
 70
     0
 40
0.0
 41
0.85
 50
0.0
 71
     0
 42
102.0
  3

  4

1001
ACAD
1000
Arial CE
1071
    60962
  0
ENDTAB
  0
TABLE
  2
VIEW
  5
6
330
0
100
AcDbSymbolTable
 70
     0
  0
ENDTAB
  0
TABLE
  2
UCS
  5
7
330
0
100
AcDbSymbolTable
 70
     0
  0
ENDTAB
  0
TABLE
  2
APPID
  5
9
330
0
100
AcDbSymbolTable
 70
     1
  0
APPID
  5
12
330
9
100
AcDbSymbolTableRecord
100
AcDbRegAppTableRecord
  2
ACAD
 70
     0
  0
ENDTAB
  0
TABLE
  2
DIMSTYLE
  5
A
330
0
100
AcDbSymbolTable
 70
     1
100
AcDbDimStyleTable
 71
     0
  0
DIMSTYLE
105
27
330
A
100
AcDbSymbolTableRecord
100
AcDbDimStyleTableRecord
  2
ISO-25
 70
     0
 41
2.5
 42
0.625
 43
3.75
 44
1.25
 73
     0
 74
     0
 77
     1
 78
     8
140
2.5
141
2.5
143
0.03937007874016
147
0.625
171
     3
172
     1
271
     2
272
     2
274
     3
278
    44
283
     0
284
     8
340
11
  0
ENDTAB
  0
TABLE
  2
BLOCK_RECORD
  5
1
330
0
100
AcDbSymbolTable
 70
     2
  0
BLOCK_RECORD
  5
1F
330
1
100
AcDbSymbolTableRecord
100
AcDbBlockTableRecord
  2
*Model_Space
340
22
  0
BLOCK_RECORD
  5
1B
330
1
100
AcDbSymbolTableRecord
100
AcDbBlockTableRecord
  2
*Paper_Space
340
1E
  0
BLOCK_RECORD
  5
23
330
1
100
AcDbSymbolTableRecord
100
AcDbBlockTableRecord
  2
*Paper_Space0
340
26
  0
BLOCK_RECORD
  5
33FA
330
1
100
AcDbSymbolTableRecord
100
AcDbBlockTableRecord
  2
E_PUNKT
340
0
102
{BLKREFS
331
A9A5
331
AB41
331
AB42
331
AB43
102
}
  0
ENDTAB
  0
ENDSEC
  0
SECTION
  2
BLOCKS
  0
BLOCK
  5
20
330
1F
100
AcDbEntity
  8
0
100
AcDbBlockBegin
  2
*Model_Space
 70
     0
 10
0.0
 20
0.0
 30
0.0
  3
*Model_Space
  1

  0
ENDBLK
  5
21
330
1F
100
AcDbEntity
  8
0
100
AcDbBlockEnd
  0
BLOCK
  5
1C
330
1B
100
AcDbEntity
 67
     1
  8
0
100
AcDbBlockBegin
  2
*Paper_Space
 70
     0
 10
0.0
 20
0.0
 30
0.0
  3
*Paper_Space
  1

  0
ENDBLK
  5
1D
330
1B
100
AcDbEntity
 67
     1
  8
0
100
AcDbBlockEnd
  0
BLOCK
  5
24
330
23
100
AcDbEntity
  8
0
100
AcDbBlockBegin
  2
*Paper_Space0
 70
     0
 10
0.0
 20
0.0
 30
0.0
  3
*Paper_Space0
  1

  0
ENDBLK
  5
25
330
23
100
AcDbEntity
  8
0
100
AcDbBlockEnd
  0
BLOCK
  5
33FC
330
33FA
100
AcDbEntity
  8
0
100
AcDbBlockBegin
  2
E_PUNKT
 70
     0
 10
0.0
 20
0.0
 30
0.0
  3
E_PUNKT
  1

  0
LWPOLYLINE
  5
33FB
330
33FA
100
AcDbEntity
  8
POPIS
100
AcDbPolyline
 90
        2
 70
     1
 43
2.5
 10
1.27761037562675
 20
0.0290683308725193
 42
-1.0
 10
-1.222389624373249
 20
0.0290683308725193
 42
-1.0
  0
ENDBLK
  5
33FD
330
33FA
100
AcDbEntity
  8
0
100
AcDbBlockEnd
  0
ENDSEC
  0
SECTION
  2
ENTITIES
  0
TEXT
  5
A6C3
330
1F
100
AcDbEntity
  8
POPIS
100
AcDbText
 10
335.5904308398639
 20
1156.222342879717
 30
0.0
 40
50.0
  1
Protipožární obklad nosníku
 41
0.85
  7
SIMPLEX7
100
AcDbText
  0
HATCH
  5
A6C4
330
1F
100
AcDbEntity
  8
NOSNÉ KONSTRUKCE
100
AcDbHatch
 10
0.0
 20
0.0
 30
0.0
210
0.0
220
0.0
230
1.0
  2
ANSI37
 70
     0
 71
     0
 91
        3
 92
        7
 72
     0
 73
     1
 93
      171
 10
648.9128694795945
 20
853.7016649747338
 10
648.4966750026578
 20
853.7536666359201
 10
648.3643678090447
 20
853.3604632900942
 10
648.1467066729964
 20
852.9828119191433
 10
647.7681251241738
 20
853.3604632900924
 10
647.9245357687869
 20
853.8252996087603
 10
645.7859871953842
 20
854.0923863334583
 10
645.6733692320085
 20
853.7576483546153
 10
645.4557080956801
 20
853.3799969836481
 10
645.0771265468501
 20
853.7576483545935
 10
645.2139575249239
 20
854.1643554523444
 10
642.3870581454902
 20
854.5176019831787
 10
645.3955162227794
 20
854.893546005368
 10
645.7663868114504
 20
855.5342841251048
 10
646.2950278856405
 20
855.0056430539653
 10
648.4107275579445
 20
855.2702115071397
 10
648.5624952537291
 20
855.7212494602746
 10
648.9128694795945
 20
856.329163719457
 10
648.9128694795945
 20
870.6554959826817
 10
648.7252342403917
 20
870.0970852914807
 10
648.5066429283688
 20
869.7194339205516
 10
648.1289915555135
 20
870.0970852914952
 10
648.3549684370373
 20
870.7696023899234
 10
645.8306259999808
 20
870.7696023899234
 10
645.6044944457317
 20
870.0970852914988
 10
645.3868333094069
 20
869.7194339205498
 10
645.0082517605806
 20
870.0970852914933
 10
645.2343833148334
 20
870.7696023899234
 10
642.7108163807824
 20
870.7696023899234
 10
642.4846848265115
 20
870.0970852915224
 10
642.2670236904341
 20
869.7194339205516
 10
641.8884421416041
 20
870.0970852914915
 10
642.1145736958606
 20
870.7696023899252
 10
639.5910067618242
 20
870.7696023899234
 10
639.3648752075314
 20
870.0970852914952
 10
639.1462838954939
 20
869.7194339205534
 10
638.7686325223694
 20
870.0970852914952
 10
638.9813708549336
 20
870.7297708385404
 10
636.6816107315972
 20
871.0162912141722
 10
636.5138863933935
 20
870.5175247502001
 10
636.2962252573415
 20
870.1398733792348
 10
635.9176437082351
 20
870.5175247501783
 10
636.1095335408062
 20
871.0881528074487
 10
633.9710079982324
 20
871.3553521262193
 10
633.8387008046229
 20
870.9621487804007
 10
633.6210396685819
 20
870.5844974094425
 10
633.2424581197519
 20
870.9621487803824
 10
633.3988687643759
 20
871.426985099054
 10
631.2603201909624
 20
871.6940718237538
 10
631.1477022275721
 20
871.3593338448891
 10
630.9300410912583
 20
870.9816824739455
 10
630.5514595424247
 20
871.3593338448871
 10
630.6882905204984
 20
871.7660409426398
 10
627.8613911410757
 20
872.1192874734743
 10
630.8698492183611
 20
872.4952314956672
 10
631.2407198070359
 20
873.1359696154004
 10
631.769360881226
 20
872.6073285442607
 10
633.8850605535299
 20
872.8718969974352
 10
634.0368282493
 20
873.3229349505519
 10
634.2544893853482
 20
873.7005863258682
 10
634.6330709344547
 20
873.322934950559
 10
634.5075645380748
 20
872.9499428732989
 10
636.8333782217705
 20
873.2406695850231
 10
637.0505978276087
 20
873.8866214836825
 10
637.2691891396425
 20
874.2652030319796
 10
637.6468405127707
 20
873.886621483688
 10
637.4556608360399
 20
873.3181052363262
 10
638.6616623060363
 20
873.4689725526596
 10
639.9024179816115
 20
873.4689725526614
 10
640.1285495359043
 20
874.1414896510805
 10
640.3462106719562
 20
874.5191410264023
 10
640.7247922210699
 20
874.1414896510878
 10
640.4986606667698
 20
873.4689725526596
 10
643.0222276006243
 20
873.4689725526596
 10
643.2483591548734
 20
874.1414896510878
 10
643.4669504669
 20
874.5191410264023
 10
643.8446018400318
 20
874.1414896510969
 10
643.6184702857245
 20
873.4689725526596
 10
646.1420372195971
 20
873.4689725526596
 10
646.368168773839
 20
874.1414896510733
 10
646.5867600858691
 20
874.5191410263968
 10
646.964411459001
 20
874.1414896510896
 10
646.7382799047445
 20
873.4689725526596
 10
648.9128694795945
 20
873.4689725526576
 10
648.9128694795945
 20
886.9070771768429
 10
623.9128694796054
 20
886.9070771768447
 10
623.9128694796018
 20
675.3463179685978
 10
648.9128694795981
 20
675.3463179685995
 10
648.9128694795981
 20
731.4434298343339
 10
648.4966750026505
 20
731.4954314955221
 10
648.3643678090593
 20
731.102228149698
 10
648.1467066729928
 20
730.7245767787508
 10
647.7681251241738
 20
731.1022281496962
 10
647.9245357687869
 20
731.5670644683623
 10
645.7859871953842
 20
731.8341511930584
 10
645.6733692319939
 20
731.4994132141974
 10
645.4557080956765
 20
731.121761843252
 10
645.0771265468501
 20
731.4994132141919
 10
645.2139575249239
 20
731.9061203119463
 10
642.3870581454902
 20
732.2593668427807
 10
645.3955162227794
 20
732.6353108649718
 10
645.7663868114504
 20
733.2760489847051
 10
646.2950278856442
 20
732.7474079135654
 10
648.4107275579518
 20
733.0119763667417
 10
648.5624952537291
 20
733.4630143198564
 10
648.9128694795945
 20
734.0709285790754
 10
648.9128694795945
 20
750.9176570481622
 10
648.5243126772584
 20
750.2463631722394
 10
648.146661304403
 20
750.6240145431811
 10
648.3726381859269
 20
751.2965316416166
 10
645.8482957488704
 20
751.2965316416166
 10
645.6221641946067
 20
750.6240145431665
 10
645.4045030583001
 20
750.2463631722412
 10
645.0259215094702
 20
750.6240145431884
 10
645.2520530637193
 20
751.2965316416185
 10
642.7284861296794
 20
751.2965316416185
 10
642.5023545753756
 20
750.6240145431738
 10
642.28469343932
 20
750.2463631722376
 10
641.9061118904937
 20
750.6240145431866
 10
642.1322434447501
 20
751.2965316416166
 10
639.6086765107066
 20
751.2965316416166
 10
639.382544956421
 20
750.6240145431993
 10
639.1639536443872
 20
750.2463631722412
 10
638.7863022712553
 20
750.6240145431884
 10
638.9990406038159
 20
751.2567000902336
 10
636.6992804804867
 20
751.5432204658655
 10
636.531556142283
 20
751.0444540018752
 10
636.3138950062311
 20
750.6668026309299
 10
635.9353134571247
 20
751.0444540018734
 10
636.1272032897032
 20
751.615082059142
 10
633.9886777471219
 20
751.8822813779106
 10
633.8563705535125
 20
751.4890780320775
 10
633.6387094174678
 20
751.1114266611321
 10
633.2601278686342
 20
751.4890780320793
 10
633.4165385132546
 20
751.9539143507472
 10
631.2779899398592
 20
752.221001075447
 10
631.1653719764508
 20
751.8862630965623
 10
630.9477108401369
 20
751.5086117256332
 10
630.5691292913143
 20
751.8862630965768
 10
630.7059602693953
 20
752.292970194333
 10
627.8790608899543
 20
752.6462167251675
 10
630.8875189672435
 20
753.0221607473586
 10
631.2583895559218
 20
753.66289886709
 10
631.7870306301228
 20
753.134257795954
 10
633.9027303024122
 20
753.3988262491284
 10
634.0544979982041
 20
753.8498642022741
 10
634.2721591342378
 20
754.2275155775669
 10
634.6507406833479
 20
753.8498642022523
 10
634.525234286968
 20
753.4768721249938
 10
636.8510479706637
 20
753.76759883672
 10
637.0682675765055
 20
754.4135507353976
 10
637.2868588885357
 20
754.7921322836709
 10
637.6645102616566
 20
754.413550735383
 10
637.4733305849258
 20
753.8450344880175
 10
638.6793320549222
 20
753.9959018043528
 10
639.9200877305047
 20
753.9959018043546
 10
640.1462192848048
 20
754.6684189027955
 10
640.3638804208494
 20
755.0460702780956
 10
640.7424619699486
 20
754.668418902781
 10
640.5163304156485
 20
753.9959018043528
 10
643.0398973495175
 20
753.9959018043528
 10
643.2660289037557
 20
754.6684189027664
 10
643.4846202157896
 20
755.0460702780883
 10
643.8622715889214
 20
754.6684189027828
 10
643.6361400346213
 20
753.9959018043528
 10
646.1597069684794
 20
753.9959018043528
 10
646.3858385227358
 20
754.6684189028028
 10
646.6044298347551
 20
755.0460702780919
 10
646.9820812078832
 20
754.6684189027773
 10
646.7559496536341
 20
753.9959018043528
 10
648.9128694795945
 20
753.9959018043528
 97
        0
 92
        7
 72
     1
 73
     1
 93
       10
 10
648.9128694795981
 20
675.3463179685959
 42
0.0
 10
623.9128694795981
 20
675.3463179685959
 42
0.0
 10
623.9128694795945
 20
609.5614796468389
 42
0.0
 10
648.9128694795945
 20
609.5614796468407
 42
0.0
 10
648.9128694795981
 20
620.4911636304341
 42
0.0
 10
638.5626246174942
 20
620.4911636304341
 42
-0.4142135623730951
 10
637.7501246174943
 20
619.6786636304341
 42
-1.0
 10
637.7501246174943
 20
621.3036636304341
 42
-0.4142135623730951
 10
638.5626246174942
 20
620.4911636304341
 42
0.0
 10
648.9128694795981
 20
620.4911636304341
 42
0.0
 97
        0
 92
        7
 72
     0
 73
     1
 93
      171
 10
511.9128694795981
 20
886.9070771768447
 10
486.9128694796054
 20
886.9070771768429
 10
486.9128694796054
 20
873.4689725526596
 10
489.0874590544663
 20
873.4689725526576
 10
488.8613275002062
 20
874.1414896510896
 10
489.238978873338
 20
874.519141026395
 10
489.4575701853536
 20
874.1414896511223
 10
489.683701739621
 20
873.4689725526596
 10
492.2072686734791
 20
873.4689725526614
 10
491.9811371191753
 20
874.1414896510896
 10
492.3587884922999
 20
874.5191410263988
 10
492.5773798043374
 20
874.1414896510569
 10
492.8035113585792
 20
873.4689725526596
 10
495.327078292441
 20
873.4689725526596
 10
495.1009467381299
 20
874.1414896510823
 10
495.4795282872437
 20
874.5191410263988
 10
495.6971894232919
 20
874.1414896510987
 10
495.9233209775921
 20
873.4689725526576
 10
497.1640766531563
 20
873.4689725526596
 10
498.3700781231564
 20
873.3181052363242
 10
498.1788984464255
 20
873.8866214836898
 10
498.5565498195573
 20
874.2652030319758
 10
498.7751411315766
 20
873.8866214837134
 10
498.992360737433
 20
873.2406695850269
 10
501.3181744211251
 20
872.9499428732969
 10
501.1926680247488
 20
873.3229349505627
 10
501.5712495738516
 20
873.7005863258699
 10
501.7889107099108
 20
873.3229349505645
 10
501.9406784056846
 20
872.8718969974352
 10
504.0563780779812
 20
872.6073285442589
 10
504.5850191521749
 20
873.1359696153985
 10
504.9558897408387
 20
872.4952314956617
 10
507.964347818146
 20
872.1192874734743
 10
505.1374484387052
 20
871.7660409426398
 10
505.2742794167825
 20
871.3593338448891
 10
504.8956978679452
 20
870.9816824739455
 10
504.678036731635
 20
871.3593338448763
 10
504.5654187682339
 20
871.6940718237538
 10
502.4268701948312
 20
871.4269850990559
 10
502.5832808394552
 20
870.9621487803879
 10
502.2046992906289
 20
870.5844974094407
 10
501.9870381545842
 20
870.9621487803806
 10
501.8547309609711
 20
871.3553521262156
 10
499.7162054183936
 20
871.0881528074487
 10
499.9080952509721
 20
870.517524750182
 10
499.529513701862
 20
870.1398733792329
 10
499.31185256581
 20
870.517524750182
 10
499.1441282276027
 20
871.0162912141722
 10
496.8443681042772
 20
870.7297708385366
 10
497.0571064368377
 20
870.0970852915006
 10
496.6794550637023
 20
869.7194339205479
 10
496.4608637516757
 20
870.0970852914879
 10
496.2347321973757
 20
870.7696023899234
 10
493.7111652633393
 20
870.7696023899234
 10
493.9372968175884
 20
870.0970852914952
 10
493.5587152687658
 20
869.7194339205516
 10
493.3410541327175
 20
870.0970852914807
 10
493.1149225784029
 20
870.7696023899234
 10
490.5913556443701
 20
870.7696023899234
 10
490.8174871986229
 20
870.0970852914897
 10
490.4389056497966
 20
869.7194339205498
 10
490.2212445134973
 20
870.0970852914879
 10
489.9951129592336
 20
870.7696023899215
 10
487.4707705221699
 20
870.7696023899234
 10
487.6967474036864
 20
870.0970852914933
 10
487.3190960308347
 20
869.7194339205534
 10
487.1005047188009
 20
870.0970852914952
 10
486.9128694796054
 20
870.6554959826853
 10
486.9128694796017
 20
856.3291637194698
 10
487.2632437054781
 20
855.7212494602618
 10
487.4150114012518
 20
855.2702115071397
 10
489.5307110735593
 20
855.0056430539635
 10
490.0593521477567
 20
855.5342841251048
 10
490.4302227364205
 20
854.8935460053662
 10
493.4386808137096
 20
854.5176019831769
 10
490.6117814342833
 20
854.1643554523444
 10
490.748612412357
 20
853.7576483545899
 10
490.3700308635343
 20
853.3799969836536
 10
490.1523697272132
 20
853.7576483545809
 10
490.0397517638157
 20
854.0923863334583
 10
487.9012031904203
 20
853.8252996087585
 10
488.0576138350407
 20
853.3604632900887
 10
487.6790322862071
 20
852.9828119191488
 10
487.4613711501551
 20
853.3604632900978
 10
487.3290639565493
 20
853.7536666359219
 10
486.9128694796017
 20
853.7016649747284
 10
486.9128694796017
 20
753.9959018043546
 10
489.0697893055694
 20
753.9959018043528
 10
488.8436577513166
 20
754.668418902781
 10
489.2213091244521
 20
755.0460702780956
 10
489.4399004364677
 20
754.6684189027664
 10
489.6660319907241
 20
753.9959018043528
 10
492.1895989245895
 20
753.9959018043528
 10
491.9634673702821
 20
754.6684189027792
 10
492.3411187434103
 20
755.0460702780919
 10
492.5597100554223
 20
754.6684189027937
 10
492.7858416096824
 20
753.9959018043528
 10
495.3094085435404
 20
753.9959018043528
 10
495.0832769892477
 20
754.6684189027828
 10
495.4618585383541
 20
755.0460702780919
 10
495.6795196744133
 20
754.6684189027756
 10
495.9056512287097
 20
753.9959018043528
 10
497.1464069042995
 20
753.9959018043528
 10
498.3524083742777
 20
753.8450344880193
 10
498.1612286975432
 20
754.4135507353849
 10
498.5388800706751
 20
754.7921322836728
 10
498.7574713826907
 20
754.4135507354012
 10
498.9746909885398
 20
753.7675988367182
 10
501.3005046722355
 20
753.476872124992
 10
501.1749982758629
 20
753.8498642022577
 10
501.5535798249693
 20
754.2275155775669
 10
501.7712409610176
 20
753.8498642022614
 10
501.923008656795
 20
753.3988262491338
 10
504.0387083290916
 20
753.1342577959521
 10
504.5673494032853
 20
753.6628988670936
 10
504.9382199919491
 20
753.0221607473622
 10
507.9466780692382
 20
752.6462167251657
 10
505.1197786898119
 20
752.292970194333
 10
505.2566096678856
 20
751.8862630965805
 10
504.8780281190556
 20
751.5086117256332
 10
504.6603669827309
 20
751.8862630965732
 10
504.5477490193333
 20
752.2210010754434
 10
502.4092004459525
 20
751.9539143507472
 10
502.565611090562
 20
751.4890780320756
 10
502.1870295417393
 20
751.1114266611357
 10
501.969368405691
 20
751.4890780320793
 10
501.8370612120852
 20
751.8822813779088
 10
499.6985356695076
 20
751.6150820591401
 10
499.8904255020825
 20
751.0444540018752
 10
499.5118439529724
 20
750.6668026309244
 10
499.2941828169241
 20
751.0444540018734
 10
499.1264584787204
 20
751.5432204658637
 10
496.8266983553876
 20
751.2567000902317
 10
497.0394366879409
 20
750.6240145431884
 10
496.6617853148236
 20
750.2463631722449
 10
496.4431940027825
 20
750.6240145431884
 10
496.2170624484825
 20
751.2965316416166
 10
493.6934955144497
 20
751.2965316416166
 10
493.9196270687025
 20
750.6240145431884
 10
493.5410455198689
 20
750.246363172243
 10
493.3233843838279
 20
750.6240145431938
 10
493.0972528295278
 20
751.2965316416166
 10
490.5736858954878
 20
751.2965316416185
 10
490.7998174497333
 20
750.6240145431866
 10
490.4212359009034
 20
750.2463631722412
 10
490.2035747645896
 20
750.6240145431974
 10
489.9774432103331
 20
751.2965316416166
 10
487.453100773273
 20
751.2965316416166
 10
487.6790776547932
 20
750.6240145431884
 10
487.3014262819415
 20
750.2463631722412
 10
486.9128694796054
 20
750.9176570481713
 10
486.9128694796017
 20
734.0709285790735
 10
487.2632437054708
 20
733.4630143198564
 10
487.4150114012445
 20
733.0119763667434
 10
489.530711073563
 20
732.7474079135654
 10
490.0593521477567
 20
733.2760489847087
 10
490.4302227364168
 20
732.63531086497
 10
493.4386808137205
 20
732.2593668427807
 10
490.6117814342796
 20
731.9061203119463
 10
490.7486124123606
 20
731.4994132141955
 10
490.3700308635343
 20
731.1217618432501
 10
490.1523697272168
 20
731.4994132141955
 10
490.0397517638229
 20
731.8341511930603
 10
487.9012031904239
 20
731.5670644683623
 10
488.057613835037
 20
731.1022281496907
 10
487.6790322862107
 20
730.7245767787471
 10
487.4613711501624
 20
731.1022281497034
 10
487.3290639565639
 20
731.4954314955257
 10
486.9128694796017
 20
731.4434298343321
 10
486.9128694796054
 20
609.5614796468389
 10
511.9128694796054
 20
609.5614796468389
 97
        0
 75
     0
 76
     1
 52
90.0
 41
2.0
 77
     0
 78
     2
 53
135.0
 43
-30352.96978354619
 44
-10439.7878754577
 45
-4.490128060534576
 46
-4.490128060534575
 79
     0
 53
225.0
 43
-30352.96978354619
 44
-10439.7878754577
 45
4.490128060534575
 46
-4.490128060534576
 79
     0
 47
0.7104484328466996
 98
        3
 10
634.5630421996938
 20
806.5909692736431
 10
637.4063953127952
 20
657.3967508594623
 10
501.6366877964937
 20
655.9758689274867
  0
HATCH
  5
A6C5
330
1F
100
AcDbEntity
  8
CETRIS
100
AcDbHatch
 10
0.0
 20
0.0
 30
0.0
210
0.0
220
0.0
230
1.0
  2
ANSI31
 70
     0
 71
     0
 91
       12
 92
        7
 72
     0
 73
     1
 93
       17
 10
471.6734214657699
 20
895.1987636247931
 10
457.6734214657663
 20
895.1987636247913
 10
457.6734214657663
 20
859.6177558718126
 10
458.8733482424941
 20
859.6177558718146
 10
459.6174888789719
 20
858.2680707882655
 10
460.6862608683877
 20
857.157440887885
 10
462.005250146678
 20
856.3612104085942
 10
463.4860900137246
 20
855.9333295442856
 10
464.273018736847
 20
855.867287062364
 10
468.3212426361388
 20
855.867287062364
 10
468.095111081886
 20
856.5398041607904
 10
468.4736926307232
 20
856.9174555361051
 10
468.6913537667678
 20
856.5398041607995
 10
468.9174853210679
 20
855.867287062364
 10
471.4418277581208
 20
855.8672870623622
 10
471.2158508765569
 20
856.5398041607977
 10
471.6734214657699
 20
856.9973747526573
 97
        0
 92
        7
 72
     0
 73
     1
 93
       27
 10
471.6734214657626
 20
853.1679168996278
 10
469.8251392260062
 20
853.1679168996278
 10
470.0512707803027
 20
852.4953998011996
 10
469.6736194071855
 20
852.1177484302542
 10
469.455028095148
 20
852.4953998012033
 10
469.2288965409025
 20
853.1679168996278
 10
464.273018736847
 20
853.1679168996278
 10
462.749390783425
 20
852.9409540087444
 10
461.3355235737144
 20
852.3279681595949
 10
459.8110992640504
 20
851.1182940151238
 10
458.8733482424904
 20
849.4174480945448
 10
457.6734214657699
 20
849.4174480945467
 10
457.6734214657663
 20
737.3595207314147
 10
458.8733482424941
 20
737.3595207314147
 10
459.6174888789537
 20
736.0098356478784
 10
460.6862608683732
 20
734.8992057475052
 10
462.0052501466853
 20
734.1029752681797
 10
463.4860900137355
 20
733.6750944038822
 10
464.2730187368361
 20
733.609051921966
 10
468.3212426361424
 20
733.6090519219679
 10
468.095111081886
 20
734.2815690203961
 10
468.4736926307159
 20
734.6592203957034
 10
468.6913537667606
 20
734.2815690203924
 10
468.9174853210642
 20
733.609051921966
 10
471.4418277581244
 20
733.609051921966
 10
471.215850876546
 20
734.2815690203906
 10
471.6734214657699
 20
734.7391396122593
 97
        0
 92
        7
 72
     0
 73
     1
 93
       27
 10
471.6734214657699
 20
730.9096817592317
 10
469.8251392260062
 20
730.9096817592299
 10
470.0512707803027
 20
730.237164660798
 10
469.6736194071782
 20
729.8595132898526
 10
469.4550280951553
 20
730.2371646607871
 10
469.2288965408952
 20
730.9096817592299
 10
464.2730187368543
 20
730.9096817592299
 10
462.7493907834287
 20
730.6827188683483
 10
461.3355235737071
 20
730.0697330191933
 10
459.8110992640431
 20
728.8600588747203
 10
458.8733482424977
 20
727.1592129541468
 10
457.6734214657663
 20
727.1592129541468
 10
457.6734214657663
 20
578.4229264928298
 10
458.8733482424977
 20
578.4229264928298
 10
459.6174888789683
 20
577.0732414092826
 10
460.6862608683695
 20
575.9626115089203
 10
462.0052501466707
 20
575.1663810296022
 10
463.4860900137391
 20
574.7385001652992
 10
464.2730187368543
 20
574.6724576833794
 10
468.3212426361388
 20
574.672457683383
 10
468.0951110818896
 20
575.3449747818149
 10
468.4736926307159
 20
575.7226261571203
 10
468.6913537667788
 20
575.3449747817803
 10
468.9174853210642
 20
574.6724576833812
 10
471.4418277581244
 20
574.672457683383
 10
471.2158508765496
 20
575.3449747818094
 10
471.6734214657699
 20
575.8025453736673
 97
        0
 92
        7
 72
     0
 73
     1
 93
       14
 10
471.6734214657626
 20
571.973087520645
 10
469.8251392260062
 20
571.973087520645
 10
470.0512707803027
 20
571.3005704222132
 10
469.6736194071782
 20
570.9229190512696
 10
469.4550280951443
 20
571.3005704222369
 10
469.2288965408988
 20
571.973087520645
 10
464.2730187368615
 20
571.9730875206469
 10
462.749390783425
 20
571.7461246297616
 10
461.3355235737071
 20
571.1331387806104
 10
459.8110992640504
 20
569.9234646361392
 10
458.8733482424941
 20
568.2226187155619
 10
457.6734214657663
 20
568.2226187155619
 10
457.673421465759
 20
566.3729099268212
 10
471.6734214657699
 20
566.372909926823
 97
        0
 92
        7
 72
     0
 73
     1
 93
       14
 10
674.4902153854964
 20
571.1331387806085
 10
673.0763481757967
 20
571.7461246297598
 10
671.5527202223492
 20
571.973087520645
 10
666.5968424183047
 20
571.9730875206469
 10
666.3707108640592
 20
571.3005704222005
 10
666.1521195520326
 20
570.9229190512696
 10
665.7744681789008
 20
571.300570422215
 10
666.0005997331973
 20
571.973087520645
 10
664.2341542479189
 20
571.973087520645
 10
664.2341542479153
 20
566.372909926823
 10
678.2341542479189
 20
566.3729099268212
 10
678.2341542479116
 20
568.2226187155619
 10
676.9523907167167
 20
568.2226187155619
 10
676.0146396951568
 20
569.9234646361283
 97
        0
 92
        7
 72
     0
 73
     1
 93
       17
 10
678.2341542479189
 20
620.4911636304341
 10
664.2341542479153
 20
620.4911636304359
 10
664.2341542479226
 20
575.7207086187272
 10
664.6098880826611
 20
575.3449747818094
 10
664.3839112010864
 20
574.6724576833812
 10
666.9082536381429
 20
574.6724576833794
 10
667.1343851924429
 20
575.3449747818203
 10
667.3520463284912
 20
575.722626157124
 10
667.7306278773212
 20
575.3449747818094
 10
667.5044963230611
 20
574.6724576833794
 10
671.5527202223784
 20
574.6724576833812
 10
672.3396489454826
 20
574.7385001653046
 10
673.8204888125364
 20
575.1663810296058
 10
675.1394780908412
 20
575.9626115089295
 10
676.2082500802352
 20
577.0732414092754
 10
676.9523907167131
 20
578.4229264928298
 10
678.2341542479152
 20
578.4229264928317
 97
        0
 92
        7
 72
     0
 73
     1
 93
        4
 10
678.2341542479152
 20
675.3463179685995
 10
664.2341542479153
 20
675.3463179685978
 10
664.2341542479189
 20
620.4911636304341
 10
678.2341542479189
 20
620.4911636304341
 97
        0
 92
        7
 72
     0
 73
     1
 93
       14
 10
678.2341542479152
 20
727.1592129541468
 10
676.9523907167167
 20
727.1592129541468
 10
676.0146396951568
 20
728.8600588747222
 10
674.4902153854927
 20
730.0697330192024
 10
673.0763481757785
 20
730.6827188683483
 10
671.5527202223529
 20
730.9096817592299
 10
666.596842418312
 20
730.9096817592299
 10
666.3707108640446
 20
730.2371646607834
 10
666.1521195520326
 20
729.8595132898562
 10
665.7744681789044
 20
730.2371646608016
 10
666.0005997332009
 20
730.9096817592299
 10
664.2341542479189
 20
730.9096817592281
 10
664.2341542479153
 20
675.3463179685959
 10
678.2341542479189
 20
675.3463179685941
 97
        0
 92
        7
 72
     0
 73
     1
 93
       17
 10
678.2341542479152
 20
794.6337105375978
 10
664.2341542479153
 20
794.6337105375978
 10
664.2341542479262
 20
734.6573028573084
 10
664.6098880826611
 20
734.2815690203924
 10
664.3839112010973
 20
733.609051921966
 10
666.9082536381429
 20
733.609051921966
 10
667.1343851924466
 20
734.2815690203979
 10
667.3520463284912
 20
734.6592203957052
 10
667.7306278773285
 20
734.2815690203997
 10
667.5044963230684
 20
733.6090519219642
 10
671.5527202223747
 20
733.609051921966
 10
672.3396489454789
 20
733.6750944038876
 10
673.8204888125255
 20
734.1029752681833
 10
675.139478090834
 20
734.8992057475125
 10
676.2082500802352
 20
736.0098356478638
 10
676.9523907167167
 20
737.3595207314147
 10
678.2341542479189
 20
737.3595207314147
 97
        0
 92
        7
 72
     0
 73
     1
 93
       14
 10
678.2341542479152
 20
849.4174480945448
 10
676.9523907167167
 20
849.4174480945448
 10
676.0146396951531
 20
851.1182940151183
 10
674.4902153854891
 20
852.3279681595932
 10
673.0763481757821
 20
852.9409540087463
 10
671.5527202223638
 20
853.1679168996278
 10
666.5968424183047
 20
853.1679168996278
 10
666.3707108640519
 20
852.4953998012051
 10
666.1521195520326
 20
852.1177484302562
 10
665.7744681789044
 20
852.4953998012016
 10
666.0005997332082
 20
853.1679168996298
 10
664.2341542479116
 20
853.1679168996298
 10
664.2341542479116
 20
794.6337105375978
 10
678.2341542479152
 20
794.6337105375978
 97
        0
 92
        7
 72
     1
 73
     1
 93
       18
 10
678.2341542479152
 20
894.3862636247931
 42
-0.4142135623724394
 10
677.4216542479153
 20
895.1987636247913
 42
0.0
 10
664.234154247908
 20
895.1987636247913
 42
0.0
 10
664.2341542479043
 20
856.9155379977191
 42
0.0
 10
664.6098880826611
 20
856.5398041607904
 42
0.0
 10
664.3839112010937
 20
855.867287062364
 42
0.0
 10
666.9082536381429
 20
855.867287062364
 42
0.0
 10
667.134385192432
 20
856.539804160765
 42
0.0
 10
667.3520463284948
 20
856.9174555361051
 42
0.0
 10
667.7306278773212
 20
856.5398041607959
 42
0.0
 10
667.5044963230647
 20
855.867287062364
 42
0.0
 10
671.5527202223638
 20
855.867287062364
 42
0.0
 10
672.3396489454789
 20
855.9333295442856
 42
0.0
 10
673.8204888125328
 20
856.3612104085832
 42
0.0
 10
675.139478090823
 20
857.1574408879069
 42
0.0
 10
676.2082500802498
 20
858.268070788271
 42
0.0
 10
676.9523907167167
 20
859.6177558718126
 42
0.0
 10
678.2341542479189
 20
859.6177558718126
 42
0.0
 97
        0
 92
        7
 72
     0
 73
     1
 93
      132
 10
631.2583895559182
 20
588.5280320934207
 10
631.7870306301083
 20
587.9993910222774
 10
633.9027303024122
 20
588.2639594754537
 10
634.054497998215
 20
588.7149974286176
 10
634.2721591342415
 20
589.0926488038921
 10
634.6507406833406
 20
588.714997428574
 10
634.525234286968
 20
588.3420053513154
 10
636.8510479706601
 20
588.6327320630416
 10
637.0682675765092
 20
589.2786839617119
 10
637.2868588885357
 20
589.6572655099908
 10
637.6645102616639
 20
589.2786839617101
 10
637.4733305849331
 20
588.7101677143446
 10
638.6793320549222
 20
588.861035030678
 10
639.9200877305047
 20
588.861035030678
 10
640.1462192848084
 20
589.5335521291026
 10
640.3638804208494
 20
589.9112035044153
 10
640.7424619699522
 20
589.5335521291026
 10
640.5163304156594
 20
588.861035030678
 10
643.0398973495139
 20
588.8610350306762
 10
643.266028903763
 20
589.5335521290917
 10
643.4846202157896
 20
589.911203504419
 10
643.8622715889214
 20
589.5335521291026
 10
643.6361400346213
 20
588.861035030678
 10
646.1597069684794
 20
588.861035030678
 10
646.3858385227358
 20
589.5335521291281
 10
646.6044298347551
 20
589.9112035044172
 10
646.9820812078832
 20
589.533552129108
 10
646.7559496536268
 20
588.8610350306762
 10
648.6865730143144
 20
588.8610350306762
 10
648.6865730143144
 20
594.8805121643135
 10
487.2210026993634
 20
594.8805121643135
 10
487.2210026993671
 20
588.861035030678
 10
489.0697893055658
 20
588.8610350306762
 10
488.8436577513239
 20
589.533552129108
 10
489.2213091244448
 20
589.911203504419
 10
489.4399004364786
 20
589.5335521290953
 10
489.6660319907241
 20
588.8610350306762
 10
492.1895989245858
 20
588.861035030678
 10
491.9634673702858
 20
589.533552129108
 10
492.3411187434139
 20
589.9112035044172
 10
492.5597100554186
 20
589.5335521291262
 10
492.7858416096824
 20
588.861035030678
 10
495.3094085435441
 20
588.861035030678
 10
495.083276989244
 20
589.5335521291062
 10
495.4618585383541
 20
589.9112035044153
 10
495.679519674406
 20
589.5335521290863
 10
495.9056512286988
 20
588.861035030678
 10
497.1464069042813
 20
588.861035030678
 10
498.352408374274
 20
588.7101677143464
 10
498.1612286975469
 20
589.2786839617137
 10
498.5388800706678
 20
589.657265509998
 10
498.7574713827052
 20
589.2786839616937
 10
498.9746909885507
 20
588.6327320630416
 10
501.3005046722355
 20
588.3420053513154
 10
501.1749982758629
 20
588.7149974285794
 10
501.5535798249693
 20
589.0926488038903
 10
501.7712409610139
 20
588.714997428603
 10
501.923008656795
 20
588.2639594754537
 10
504.0387083290916
 20
587.999391022281
 10
504.5673494032853
 20
588.5280320934207
 10
504.9382199919419
 20
587.8872939736838
 10
507.9466780692455
 20
587.5113499514927
 10
505.1197786898119
 20
587.1581034206619
 10
505.2566096678893
 20
586.7513963229075
 10
504.8780281190629
 20
586.3737449519639
 10
504.6603669827382
 20
586.7513963229148
 10
504.5477490193443
 20
587.0861343017704
 10
502.4092004459525
 20
586.8190475770725
 10
502.5656110905656
 20
586.3542112584027
 10
502.1870295417393
 20
585.9765598874609
 10
501.969368405691
 20
586.3542112584118
 10
501.8370612120852
 20
586.7474146042341
 10
499.6985356695076
 20
586.4802152854672
 10
499.8904255020752
 20
585.9095872281932
 10
499.5118439529797
 20
585.5319358572569
 10
499.2941828169241
 20
585.9095872281787
 10
499.1264584787095
 20
586.4083536921907
 10
496.8266983553876
 20
586.121833316557
 10
497.0394366879409
 20
585.4891477695137
 10
496.66178531482
 20
585.1114963985664
 10
496.4431940027752
 20
585.489147769501
 10
496.2170624484788
 20
586.1616648679419
 10
493.6934955144424
 20
586.1616648679419
 10
493.9196270687098
 20
585.4891477695154
 10
493.5410455198798
 20
585.1114963985719
 10
493.3233843838352
 20
585.4891477695264
 10
493.0972528295387
 20
586.1616648679419
 10
490.5736858954842
 20
586.1616648679419
 10
490.7998174497406
 20
585.4891477695191
 10
490.4212359009107
 20
585.1114963985719
 10
490.2035747645786
 20
585.4891477695154
 10
489.9774432103295
 20
586.1616648679419
 10
487.4531007732766
 20
586.1616648679419
 10
487.6790776548005
 20
585.4891477695137
 10
487.2210026993634
 20
585.0310728163958
 10
487.2210026993634
 20
580.8805121643117
 10
648.6865730143144
 20
580.8805121643136
 10
648.6865730143144
 20
584.9492360623253
 10
648.1466613044067
 20
585.4891477695118
 10
648.3726381859269
 20
586.1616648679419
 10
645.8482957488704
 20
586.1616648679419
 10
645.6221641946067
 20
585.48914776949
 10
645.4045030582965
 20
585.11149639857
 10
645.0259215094665
 20
585.4891477695154
 10
645.2520530637157
 20
586.1616648679419
 10
642.7284861296721
 20
586.16166486794
 10
642.5023545753756
 20
585.4891477695082
 10
642.2846934393346
 20
585.11149639857
 10
641.906111890501
 20
585.4891477695137
 10
642.1322434447538
 20
586.1616648679419
 10
639.6086765107066
 20
586.16166486794
 10
639.3825449564137
 20
585.4891477695064
 10
639.1639536443799
 20
585.11149639857
 10
638.7863022712553
 20
585.4891477695118
 10
638.9990406038086
 20
586.1218333165588
 10
636.6992804804904
 20
586.4083536921925
 10
636.5315561422721
 20
585.9095872281841
 10
636.3138950062275
 20
585.5319358572533
 10
635.9353134571283
 20
585.9095872281968
 10
636.1272032896995
 20
586.4802152854635
 10
633.9886777471183
 20
586.7474146042359
 10
633.8563705535234
 20
586.3542112584082
 10
633.6387094174678
 20
585.9765598874628
 10
633.2601278686379
 20
586.3542112584009
 10
633.4165385132619
 20
586.8190475770743
 10
631.2779899398556
 20
587.0861343017723
 10
631.1653719764653
 20
586.7513963229075
 10
630.9477108401515
 20
586.3737449519639
 10
630.5691292913143
 20
586.7513963229057
 10
630.7059602693953
 20
587.1581034206583
 10
627.8790608899543
 20
587.5113499514909
 10
630.8875189672471
 20
587.8872939736838
 97
        0
 75
     0
 76
     1
 52
90.0
 41
2.0
 77
     0
 78
     1
 53
135.0
 43
-30352.96978354619
 44
-10439.7878754577
 45
-4.490128060534576
 46
-4.490128060534575
 79
     0
 47
0.692700119325238
 98
       12
 10
467.3580720650971
 20
865.7356370372554
 10
463.1996402671975
 20
822.7882060166711
 10
467.3580720650971
 20
703.6437659431367
 10
465.9719537600358
 20
568.5672304562221
 10
670.4300546354389
 20
569.9526651781825
 10
671.8162498232013
 20
594.1971788578348
 10
673.2023681282626
 20
655.8474797029893
 10
671.1231522293128
 20
699.4876043263693
 10
668.3508387364891
 20
751.4400996996601
 10
671.1231522293128
 20
817.9393032807393
 10
669.0439363303775
 20
874.7407489063235
 10
565.7752395018506
 20
587.9628413999498
  0
HATCH
  5
A6C6
330
1F
100
AcDbEntity
  8
CETRIS
100
AcDbHatch
 10
0.0
 20
0.0
 30
0.0
210
0.0
220
0.0
230
1.0
  2
ANSI31
 70
     0
 71
     0
 91
       15
 92
        7
 72
     0
 73
     1
 93
      109
 10
645.7663868114504
 20
574.3394547461239
 10
646.2950278856442
 20
573.8108136749824
 10
648.2941341600344
 20
574.0608021122215
 10
648.7801563897664
 20
574.9040714565935
 10
649.4770364598044
 20
574.2089036189236
 10
651.3590452261923
 20
574.4441547157448
 10
651.7265874249642
 20
575.5371250312446
 10
652.1725075171961
 20
575.0901066144133
 10
651.9813278404654
 20
574.5215903670477
 10
653.1873293104472
 20
574.672457683383
 10
654.428084986037
 20
574.6724576833812
 10
654.8039760894535
 20
575.7903609100385
 10
655.2504592254881
 20
575.3449747818058
 10
655.0243276711917
 20
574.6724576833812
 10
657.5478946050461
 20
574.6724576833794
 10
657.9240617547366
 20
575.7911818741076
 10
658.3702688444536
 20
575.3449747818094
 10
658.1441372901536
 20
574.6724576833812
 10
660.6677042240043
 20
574.672457683383
 10
661.0438713737021
 20
575.7911818741058
 10
661.4900784634191
 20
575.3449747818076
 10
661.2639469091591
 20
574.6724576833794
 10
663.7261569923903
 20
574.672457683383
 10
663.7261569923903
 20
580.372909926823
 10
472.1814187212912
 20
580.372909926823
 10
472.1814187212985
 20
574.6724576833812
 10
474.5617920500444
 20
574.6724576833812
 10
474.3356604957916
 20
575.344974781813
 10
474.7818675855123
 20
575.7911818741113
 10
475.1580347352028
 20
574.6724576833812
 10
477.6816016690681
 20
574.672457683383
 10
477.4554701147535
 20
575.3449747818076
 10
477.9016772044742
 20
575.791181874104
 10
478.277844354161
 20
574.6724576833812
 10
480.8014112880191
 20
574.6724576833812
 10
480.5752797337154
 20
575.3449747818058
 10
481.0217628697537
 20
575.7903609100403
 10
481.3976539731702
 20
574.6724576833794
 10
482.638409648749
 20
574.6724576833812
 10
484.2667167866602
 20
574.4687611422278
 10
484.0308828151392
 20
575.4686881626958
 10
484.2494741271548
 20
575.0901066144079
 10
484.4666937330112
 20
574.4441547157484
 10
486.3487024994028
 20
574.2089036189217
 10
487.0455825694371
 20
574.9040714565953
 10
487.5175097372339
 20
572.5825501455774
 10
490.0397517638193
 20
572.8975569544754
 10
489.6817007746285
 20
573.9618033751766
 10
490.0593521477567
 20
574.3394547461202
 10
490.370030863527
 20
572.1851676046581
 10
489.9648346014291
 20
572.8882004311881
 10
487.5175097372375
 20
572.582550145581
 10
487.6790322862107
 20
571.7879825401714
 10
487.2410823756181
 20
572.547844347092
 10
485.1905384139718
 20
572.2916379381685
 10
485.3824282465502
 20
571.7210098809018
 10
485.0038466974438
 20
571.3433585099564
 10
484.2667167866602
 20
574.4687611422259
 10
482.6384096487818
 20
574.6724576833794
 10
481.3976539731775
 20
574.672457683383
 10
482.5314394324123
 20
571.300570422215
 10
482.0852323414182
 20
570.8543633337967
 10
481.7090651929611
 20
571.973087520645
 10
479.1854982589248
 20
571.9730875206432
 10
479.4116298131775
 20
571.3005704222204
 10
478.9651466761425
 20
570.8551842978113
 10
478.5892555739992
 20
571.9730875206432
 10
476.0656886399592
 20
571.9730875206469
 10
476.291820194212
 20
571.3005704222187
 10
475.8453370569477
 20
570.8551842975875
 10
475.4694459548045
 20
571.973087520645
 10
472.945103517748
 20
571.9730875206469
 10
473.1710803992719
 20
571.3005704222187
 10
472.7247964955059
 20
570.8542865207063
 10
472.3488608328262
 20
571.9730875206469
 10
472.1814187212949
 20
571.9730875206469
 10
472.1814187212949
 20
566.3729099268193
 10
663.7261569923903
 20
566.3729099268212
 10
663.7261569923939
 20
571.973087520645
 10
663.4768781263883
 20
571.973087520645
 10
663.1009424637049
 20
570.8542865207063
 10
662.6546585599389
 20
571.3005704222168
 10
662.8806354414628
 20
571.973087520645
 10
660.3562930044026
 20
571.973087520645
 10
659.9804019022558
 20
570.8551842975875
 10
659.5339187649988
 20
571.3005704222187
 10
659.7600503192516
 20
571.973087520645
 10
657.2364833852116
 20
571.9730875206469
 10
656.8605922830575
 20
570.8551842978058
 10
656.414109146026
 20
571.3005704222114
 10
656.640240700286
 20
571.973087520645
 10
654.1166737662424
 20
571.973087520645
 10
653.7405066177889
 20
570.8543633337949
 10
653.2942995267949
 20
571.3005704222132
 10
653.5070378593518
 20
571.9332559692602
 10
651.3189975908499
 20
572.2058574955126
 10
650.8218922617597
 20
571.3433585099583
 10
650.4433107126569
 20
571.7210098809054
 10
650.6352005452318
 20
572.2916379381685
 10
648.5846565835818
 20
572.547844347092
 10
648.1467066730074
 20
571.7879825401605
 10
647.7681251241665
 20
572.1656339111041
 10
647.9245357687942
 20
572.6304702297757
 10
645.8609043577889
 20
572.8882004311863
 10
645.4557080956728
 20
572.1851676046635
 10
645.0771265468465
 20
572.5628189756107
 10
645.2139575249239
 20
572.9695260733615
 10
642.3870581454902
 20
573.3227726041959
 10
645.3955162227758
 20
573.6987166263888
 97
        0
 92
        7
 72
     0
 73
     1
 93
       17
 10
486.1814187212949
 20
586.1616648679419
 10
484.3331364815348
 20
586.1616648679419
 10
484.5592680358277
 20
585.4891477695137
 10
484.1816166627068
 20
585.11149639857
 10
483.9630253506839
 20
585.4891477694954
 10
483.7368937964201
 20
586.1616648679419
 10
478.7810159923829
 20
586.1616648679419
 10
477.2573880389463
 20
585.9347019770584
 10
475.8435208292503
 20
585.3217161279144
 10
474.3190965195863
 20
584.112041983436
 10
473.3753292094188
 20
582.4002840193725
 10
473.3813454980227
 20
582.4002840193725
 10
473.3813454980227
 20
582.4111960628588
 10
473.3813454980227
 20
582.4002840193725
 10
472.1814187212912
 20
582.4002840193725
 10
472.1814187212876
 20
580.9116206983589
 10
486.1814187212949
 20
580.9116206983553
 97
        0
 92
        7
 72
     0
 73
     1
 93
       42
 10
486.1814187212949
 20
731.3520382935521
 10
485.1905384139754
 20
731.2282321767534
 10
485.3824282465539
 20
730.6576041194939
 10
485.0038466974438
 20
730.2799527485412
 10
484.7861855613882
 20
730.6576041194757
 10
484.6184612231809
 20
731.1563705834769
 10
482.3187010998626
 20
730.869850207845
 10
482.5314394324196
 20
730.2371646608053
 10
482.1537880592805
 20
729.8595132898526
 10
481.9351967472685
 20
730.2371646607744
 10
481.7090651929611
 20
730.9096817592299
 10
479.1854982589175
 20
730.9096817592299
 10
479.4116298131703
 20
730.2371646607999
 10
479.0330482643512
 20
729.8595132898562
 10
478.815387128303
 20
730.2371646607907
 10
478.5892555739992
 20
730.9096817592299
 10
476.065688639952
 20
730.9096817592299
 10
476.291820194212
 20
730.2371646608016
 10
475.9132386453821
 20
729.8595132898562
 10
475.6955775090682
 20
730.2371646608016
 10
475.4694459548154
 20
730.9096817592299
 10
472.9451035177407
 20
730.9096817592299
 10
473.1710803992719
 20
730.2371646608016
 10
472.7934290264202
 20
729.8595132898599
 10
472.5748377143863
 20
730.2371646607761
 10
472.348860832808
 20
730.9096817592299
 10
472.1814187212876
 20
730.9096817592299
 10
472.1814187212949
 20
592.6115038401267
 10
473.3813454980263
 20
592.6115038401267
 10
474.1254861344932
 20
591.2618187565867
 10
475.1942581239054
 20
590.1511888562208
 10
476.513247402192
 20
589.3549583768936
 10
477.9940872692459
 20
588.9270775126033
 10
478.7810159923792
 20
588.861035030678
 10
482.8292398916674
 20
588.861035030678
 10
482.6031083374109
 20
589.5335521291044
 10
482.9816898862445
 20
589.9112035044172
 10
483.1993510223001
 20
589.5335521291008
 10
483.4254825766001
 20
588.861035030678
 10
485.9498250136384
 20
588.861035030678
 10
485.7238481320782
 20
589.5335521291026
 10
486.1814187212912
 20
589.9911227209677
 97
        0
 92
        7
 72
     0
 73
     1
 93
       35
 10
486.1814187212876
 20
751.2965316416148
 10
484.3331364815348
 20
751.2965316416166
 10
484.559268035835
 20
750.6240145431884
 10
484.1816166627104
 20
750.2463631722412
 10
483.9630253506839
 20
750.6240145431793
 10
483.7368937964274
 20
751.2965316416166
 10
478.7810159923865
 20
751.2965316416185
 10
477.2573880389463
 20
751.0695687507332
 10
475.8435208292503
 20
750.4565829015874
 10
474.319096519579
 20
749.2469087571053
 10
473.3813454980263
 20
747.5460628365317
 10
472.1814187212876
 20
747.5460628365335
 10
472.1814187212912
 20
733.609051921966
 10
474.5617920500408
 20
733.609051921966
 10
474.335660495788
 20
734.2815690203961
 10
474.7133118689198
 20
734.6592203957034
 10
474.9319031809209
 20
734.2815690204124
 10
475.1580347351773
 20
733.609051921966
 10
477.6816016690572
 20
733.609051921966
 10
477.4554701147608
 20
734.2815690203906
 10
477.8331214878926
 20
734.6592203957052
 10
478.051712799901
 20
734.2815690203833
 10
478.2778443541501
 20
733.609051921966
 10
480.8014112880191
 20
733.6090519219642
 10
480.5752797337227
 20
734.2815690203924
 10
480.9538612828291
 20
734.6592203957071
 10
481.1715224188665
 20
734.2815690203961
 10
481.3976539731665
 20
733.609051921966
 10
482.638409648749
 20
733.609051921966
 10
483.8444111187454
 20
733.4581846056326
 10
483.653231442011
 20
734.0267008529999
 10
484.0308828151355
 20
734.4052824012878
 10
484.249474127173
 20
734.0267008529872
 10
484.4666937330112
 20
733.3807489543296
 10
486.1814187212949
 20
733.1664083298628
 97
        0
 92
        7
 72
     0
 73
     1
 93
       42
 10
486.1814187212949
 20
853.6102734339502
 10
485.1905384139754
 20
853.4864673171533
 10
485.3824282465539
 20
852.9158392598901
 10
485.0038466974438
 20
852.5381878889412
 10
484.7861855614028
 20
852.9158392598901
 10
484.6184612231918
 20
853.4146057238768
 10
482.3187010998553
 20
853.1280853482412
 10
482.5314394324123
 20
852.4953998011996
 10
482.1537880592877
 20
852.1177484302542
 10
481.9351967472503
 20
852.4953998011888
 10
481.7090651929466
 20
853.1679168996298
 10
479.1854982589175
 20
853.1679168996278
 10
479.4116298131775
 20
852.4953998011978
 10
479.0330482643512
 20
852.1177484302562
 10
478.8153871283066
 20
852.4953998012088
 10
478.5892555740065
 20
853.1679168996278
 10
476.0656886399556
 20
853.1679168996278
 10
476.2918201942157
 20
852.4953998012016
 10
475.9132386453821
 20
852.1177484302542
 10
475.6955775090682
 20
852.4953998011943
 10
475.4694459548082
 20
853.1679168996278
 10
472.945103517748
 20
853.1679168996278
 10
473.1710803992646
 20
852.4953998011996
 10
472.7934290264165
 20
852.1177484302562
 10
472.5748377143973
 20
852.4953998011906
 10
472.3488608328225
 20
853.1679168996278
 10
472.181418721284
 20
853.1679168996278
 10
472.1814187212876
 20
757.7463706138014
 10
473.3813454980227
 20
757.7463706137996
 10
474.1254861344932
 20
756.3966855302542
 10
475.1942581239091
 20
755.2860556298829
 10
476.5132474021993
 20
754.4898251505774
 10
477.9940872692532
 20
754.0619442862744
 10
478.7810159923756
 20
753.9959018043528
 10
482.8292398916674
 20
753.9959018043528
 10
482.6031083374109
 20
754.6684189027846
 10
482.9816898862445
 20
755.0460702780919
 10
483.1993510222928
 20
754.6684189027756
 10
483.4254825765892
 20
753.995901804351
 10
485.9498250136494
 20
753.9959018043528
 10
485.7238481320746
 20
754.6684189027846
 10
486.1814187212949
 20
755.1259894946388
 97
        0
 92
        7
 72
     0
 73
     1
 93
       35
 10
486.1814187212949
 20
870.7696023899234
 10
484.3508062304245
 20
870.7696023899234
 10
484.5769377847282
 20
870.0970852914933
 10
484.1992864115927
 20
869.7194339205479
 10
483.9806950995625
 20
870.0970852915006
 10
483.7545635453134
 20
870.7696023899234
 10
478.7986857412688
 20
870.7696023899234
 10
477.2750577878396
 20
870.54263949904
 10
475.8611905781362
 20
869.9296536498923
 10
474.3367662684686
 20
868.7199795054194
 10
473.3990152469086
 20
867.0191335848384
 10
472.1814187212876
 20
867.0191335848404
 10
472.181418721284
 20
855.867287062364
 10
474.5617920500444
 20
855.8672870623659
 10
474.3356604957916
 20
856.5398041607959
 10
474.7133118689125
 20
856.9174555361032
 10
474.9319031809391
 20
856.5398041607814
 10
475.1580347351882
 20
855.867287062364
 10
477.6816016690572
 20
855.8672870623622
 10
477.4554701147572
 20
856.5398041607904
 10
477.8331214878926
 20
856.9174555361051
 10
478.051712799901
 20
856.5398041607796
 10
478.2778443541465
 20
855.8672870623659
 10
480.8014112880191
 20
855.867287062364
 10
480.575279733719
 20
856.5398041607922
 10
480.9538612828219
 20
856.9174555361032
 10
481.1715224188847
 20
856.5398041607814
 10
481.3976539731811
 20
855.8672870623659
 10
482.6384096487672
 20
855.8672870623659
 10
483.8444111187454
 20
855.7164197460323
 10
483.6532314420219
 20
856.2849359934016
 10
484.0308828151392
 20
856.6635175416841
 10
484.2494741271694
 20
856.2849359934052
 10
484.4666937330148
 20
855.6389840947295
 10
486.1814187212949
 20
855.4246434702609
 97
        0
 92
        7
 72
     0
 73
     1
 93
       17
 10
486.1814187212949
 20
895.1987636247931
 10
472.1814187212876
 20
895.1987636247913
 10
472.181418721284
 20
877.2194413621082
 10
473.3990152469123
 20
877.2194413621082
 10
474.1431558833828
 20
875.8697562785519
 10
475.2119278727841
 20
874.7591263781968
 10
476.5309171510816
 20
873.9628958988751
 10
478.0117570181573
 20
873.535015034583
 10
478.7986857412688
 20
873.4689725526614
 10
482.8469096405497
 20
873.4689725526596
 10
482.6207780863005
 20
874.1414896510878
 10
482.9993596351341
 20
874.5191410264006
 10
483.2170207711824
 20
874.1414896510878
 10
483.4431523254752
 20
873.4689725526596
 10
485.9674947625389
 20
873.4689725526596
 10
485.7415178809642
 20
874.1414896510896
 10
486.1814187212949
 20
874.5813904939504
 97
        0
 92
        7
 72
     0
 73
     1
 93
       17
 10
663.7261569923866
 20
895.1987636247896
 10
649.7261569923939
 20
895.1987636247896
 10
649.7261569923976
 20
874.4995537389959
 10
650.084221078232
 20
874.1414896510841
 10
649.8582441966682
 20
873.4689725526614
 10
652.3825866337174
 20
873.4689725526576
 10
652.6087181880248
 20
874.1414896510878
 10
652.826379324073
 20
874.5191410264041
 10
653.204960872903
 20
874.1414896510914
 10
652.9788293186538
 20
873.4689725526614
 10
657.0270532179201
 20
873.4689725526576
 10
657.8139819410607
 20
873.535015034583
 10
659.2948218081073
 20
873.9628958988806
 10
660.6138110864121
 20
874.7591263781988
 10
661.6825830758061
 20
875.8697562785501
 10
662.4267237122912
 20
877.2194413621063
 10
663.7261569923903
 20
877.2194413621082
 97
        0
 92
        7
 72
     0
 73
     1
 93
       35
 10
663.7261569923939
 20
867.0191335848404
 10
662.4267237122949
 20
867.0191335848404
 10
661.4889726907313
 20
868.7199795054121
 10
659.9645483810563
 20
869.9296536498959
 10
658.5506811713603
 20
870.5426394990418
 10
657.0270532179311
 20
870.7696023899234
 10
652.0711754138901
 20
870.7696023899215
 10
651.8450438596483
 20
870.0970852914988
 10
651.6264525476072
 20
869.7194339205498
 10
651.2488011744863
 20
870.0970852914933
 10
651.4749327287863
 20
870.7696023899234
 10
649.7261569923976
 20
870.7696023899234
 10
649.7261569924012
 20
855.434873064617
 10
651.3590452261887
 20
855.6389840947295
 10
651.5762648320487
 20
856.2849359934071
 10
651.794856144068
 20
856.6635175416841
 10
652.1725075171925
 20
856.2849359934016
 10
651.9813278404654
 20
855.7164197460306
 10
653.1873293104472
 20
855.867287062364
 10
654.4280849860333
 20
855.867287062364
 10
654.6542165403407
 20
856.5398041607942
 10
654.8718776763889
 20
856.9174555361032
 10
655.2504592254845
 20
856.5398041607886
 10
655.0243276711917
 20
855.867287062364
 10
657.5478946050388
 20
855.8672870623622
 10
657.7740261592916
 20
856.5398041607814
 10
657.9926174713218
 20
856.9174555361032
 10
658.3702688444463
 20
856.5398041607904
 10
658.1441372901499
 20
855.867287062364
 10
660.667704224008
 20
855.867287062364
 10
660.8938357782608
 20
856.5398041607977
 10
661.112427090291
 20
856.9174555361032
 10
661.4900784634155
 20
856.5398041607886
 10
661.2639469091591
 20
855.867287062364
 10
663.7261569923866
 20
855.867287062364
 97
        0
 92
        7
 72
     1
 73
     1
 93
       48
 10
663.7261569923903
 20
853.1679168996278
 42
0.0
 10
663.4768781263883
 20
853.1679168996298
 42
0.0
 10
663.2509012448281
 20
852.4953998012051
 42
0.0
 10
663.032309932787
 20
852.1177484302542
 42
0.0
 10
662.6546585599462
 20
852.4953998012016
 42
0.0
 10
662.8806354414701
 20
853.1679168996278
 42
0.0
 10
660.3562930044026
 20
853.1679168996278
 42
0.0
 10
660.1301614501426
 20
852.4953998011888
 42
0.0
 10
659.9125003138251
 20
852.1177484302562
 42
0.0
 10
659.5339187649988
 20
852.4953998011996
 42
0.0
 10
659.7600503192588
 20
853.1679168996298
 42
0.0
 10
657.236483385208
 20
853.1679168996298
 42
0.0
 10
657.0103518309078
 20
852.4953998011961
 42
0.0
 10
656.7926906948596
 20
852.1177484302507
 42
0.0
 10
656.4141091460332
 20
852.4953998011978
 42
0.0
 10
656.640240700286
 20
853.1679168996298
 42
0.0
 10
654.1166737662424
 20
853.1679168996278
 42
0.0
 10
653.8905422119496
 20
852.4953998012124
 42
0.0
 10
653.6719508999194
 20
852.1177484302542
 42
0.0
 10
653.2942995267949
 20
852.4953998011996
 42
0.0
 10
653.5070378593554
 20
853.128085348243
 42
0.0
 10
651.207277736019
 20
853.4146057238768
 42
0.0
 10
651.0395533978189
 20
852.9158392598992
 42
0.0
 10
650.8218922617561
 20
852.5381878889357
 42
0.0
 10
650.4433107126533
 20
852.9158392598866
 42
0.0
 10
650.6352005452281
 20
853.4864673171513
 42
0.0
 10
649.7261569923976
 20
853.6000482930239
 42
0.0
 10
649.7261569923976
 20
755.0441527396879
 42
0.0
 10
650.1018908271253
 20
754.6684189027773
 42
0.0
 10
649.8759139455614
 20
753.9959018043528
 42
0.0
 10
652.400256382607
 20
753.9959018043528
 42
0.0
 10
652.6263879369107
 20
754.6684189027773
 42
0.0
 10
652.8440490729626
 20
755.0460702780902
 42
0.0
 10
653.2226306217962
 20
754.668418902781
 42
0.0
 10
652.9964990675398
 20
753.9959018043528
 42
0.0
 10
657.0447229668316
 20
753.9959018043528
 42
0.0
 10
657.8316516899467
 20
754.0619442862744
 42
0.0
 10
659.3124915569933
 20
754.4898251505737
 42
0.0
 10
660.6314808352981
 20
755.2860556298919
 42
0.0
 10
661.7002528247066
 20
756.396685530256
 42
0.0
 10
662.4443934611845
 20
757.7463706138014
 42
0.0
 10
663.7261569923903
 20
757.7463706137996
 42
0.0
 10
663.7261569923903
 20
794.6337105375978
 42
0.0
 10
657.6312067023427
 20
794.6337105375978
 42
-0.484314185978081
 10
656.8407155594904
 20
793.633380819313
 42
-1.0
 10
656.8407155594904
 20
795.258380819313
 42
-0.3474236242519916
 10
657.6312067023427
 20
794.6337105375978
 42
0.0
 10
663.7261569923939
 20
794.6337105375978
 42
0.0
 97
        0
 92
        7
 72
     0
 73
     1
 93
       35
 10
663.7261569923866
 20
747.5460628365335
 10
662.4443934611735
 20
747.5460628365317
 10
661.5066424396245
 20
749.2469087571089
 10
659.9822181299459
 20
750.4565829015837
 10
658.5683509202499
 20
751.0695687507332
 10
657.0447229668352
 20
751.2965316416148
 10
652.0888451627761
 20
751.2965316416166
 10
651.862713608516
 20
750.6240145431793
 10
651.6441222965004
 20
750.2463631722412
 10
651.2664709233686
 20
750.6240145431902
 10
651.4926024776687
 20
751.2965316416166
 10
649.7261569923939
 20
751.2965316416166
 10
649.7261569923939
 20
733.1766379242189
 10
651.3590452261923
 20
733.3807489543296
 10
651.5762648320378
 20
734.0267008529909
 10
651.7948561440643
 20
734.4052824012842
 10
652.1725075171998
 20
734.0267008529981
 10
651.981327840469
 20
733.4581846056326
 10
653.1873293104581
 20
733.609051921966
 10
654.428084986037
 20
733.609051921966
 10
654.6542165403443
 20
734.2815690204034
 10
654.8718776763816
 20
734.6592203957052
 10
655.2504592254917
 20
734.2815690203924
 10
655.0243276711881
 20
733.609051921966
 10
657.5478946050534
 20
733.609051921966
 10
657.7740261592843
 20
734.2815690203815
 10
657.9926174713254
 20
734.6592203957015
 10
658.3702688444463
 20
734.2815690203961
 10
658.1441372901463
 20
733.609051921966
 10
660.667704224008
 20
733.609051921966
 10
660.8938357782681
 20
734.2815690203997
 10
661.1124270902837
 20
734.6592203957034
 10
661.4900784634191
 20
734.2815690203942
 10
661.2639469091663
 20
733.609051921966
 10
663.7261569923866
 20
733.609051921966
 97
        0
 92
        7
 72
     0
 73
     1
 93
       29
 10
663.7261569923939
 20
730.9096817592299
 10
663.4768781263883
 20
730.9096817592317
 10
663.2509012448354
 20
730.2371646608471
 10
663.0323099327906
 20
729.8595132898545
 10
662.6546585599353
 20
730.2371646608016
 10
662.8806354414555
 20
730.9096817592299
 10
660.3562930044026
 20
730.9096817592299
 10
660.1301614501535
 20
730.237164660798
 10
659.9125003138287
 20
729.8595132898562
 10
659.5339187650024
 20
730.2371646608035
 10
659.7600503192516
 20
730.9096817592299
 10
657.2364833852116
 20
730.9096817592299
 10
657.0103518309151
 20
730.2371646608035
 10
656.7926906948596
 20
729.8595132898599
 10
656.4141091460332
 20
730.2371646608035
 10
656.6402407002897
 20
730.9096817592317
 10
654.116673766257
 20
730.9096817592317
 10
653.8905422119642
 20
730.2371646608198
 10
653.6719508999158
 20
729.8595132898526
 10
653.2942995267839
 20
730.2371646608016
 10
653.5070378593445
 20
730.8698502078469
 10
651.2072777360226
 20
731.1563705834787
 10
651.039553397808
 20
730.6576041194849
 10
650.821892261767
 20
730.2799527485395
 10
650.4433107126533
 20
730.6576041194812
 10
650.6352005452318
 20
731.2282321767552
 10
649.7261569923939
 20
731.3418131526277
 10
649.7261569923903
 20
675.3463179685978
 10
663.7261569923903
 20
675.3463179685959
 97
        0
 92
        7
 72
     0
 73
     1
 93
        4
 10
663.7261569923939
 20
675.3463179685978
 10
649.7261569923903
 20
675.3463179685959
 10
649.7261569923939
 20
620.4911636304341
 10
663.7261569923903
 20
620.4911636304341
 97
        0
 92
        7
 72
     0
 73
     1
 93
       17
 10
663.7261569923939
 20
620.4911636304341
 10
649.7261569923903
 20
620.4911636304341
 10
649.7261569923939
 20
589.9092859660113
 10
650.1018908271253
 20
589.5335521291062
 10
649.8759139455541
 20
588.861035030678
 10
652.400256382607
 20
588.8610350306762
 10
652.6263879369143
 20
589.5335521291099
 10
652.8440490729553
 20
589.9112035044172
 10
653.2226306217889
 20
589.533552129108
 10
652.9964990675361
 20
588.8610350306798
 10
657.0447229668279
 20
588.861035030678
 10
657.8316516899394
 20
588.9270775125978
 10
659.3124915570042
 20
589.3549583769027
 10
660.6314808352908
 20
590.1511888562153
 10
661.7002528247212
 20
591.2618187565885
 10
662.4443934611808
 20
592.6115038401267
 10
663.7261569923903
 20
592.6115038401267
 97
        0
 92
        7
 72
     0
 73
     1
 93
       15
 10
661.5066424396282
 20
584.1120419834306
 10
659.9822181299532
 20
585.3217161279108
 10
658.5683509202535
 20
585.9347019770584
 10
657.0447229668097
 20
586.1616648679419
 10
652.0888451627797
 20
586.1616648679419
 10
651.8627136085124
 20
585.4891477694954
 10
651.6441222964931
 20
585.1114963985683
 10
651.2664709233649
 20
585.4891477695173
 10
651.492602477665
 20
586.16166486794
 10
649.7261569923903
 20
586.1616648679419
 10
649.7261569923903
 20
580.9116206983572
 10
663.7261569923939
 20
580.9116206983572
 10
663.7261569923976
 20
582.4002840193725
 10
662.4443934611808
 20
582.4002840193725
 10
662.4443934611808
 20
582.4111960628569
 97
        0
 75
     0
 76
     1
 52
0.0
 41
2.0
 77
     0
 78
     1
 53
45.0
 43
-30352.96978354619
 44
-10439.7878754577
 45
-4.490128060534575
 46
4.490128060534576
 79
     0
 47
0.692700119325238
 98
       15
 10
547.7172601830861
 20
573.903983735433
 10
480.5266188180576
 20
584.4993733859783
 10
480.5266188180576
 20
603.8949368133371
 10
479.1404236302805
 20
743.1276814333878
 10
479.1404236302805
 20
775.6846133793124
 10
477.7543053252193
 20
863.6575087125065
 10
479.1404236302805
 20
883.7458132590299
 10
655.8753895774025
 20
880.282345245051
 10
657.2615847651795
 20
864.3502498316712
 10
657.9546823590535
 20
836.6422206216711
 10
657.2615847651795
 20
741.7422942277962
 10
655.8753895774025
 20
716.8050869453409
 10
657.9546823590535
 20
657.9255605113694
 10
657.9546823590535
 20
606.6657587408817
 10
653.7961736784673
 20
582.4212450612221
  0
LINE
  5
A6C7
330
1F
100
AcDbEntity
  8
SPOJOVACÍ
  6
Continuous
100
AcDbLine
 10
475.1439832622345
 20
855.867287062364
 30
0.0
 11
477.6722010751036
 21
855.867287062364
 31
0.0
  0
LINE
  5
A6C8
330
1F
100
AcDbEntity
  8
SPOJOVACÍ
  6
Continuous
100
AcDbLine
 10
476.0574158936215
 20
853.1679168996278
 30
0.0
 11
478.5781923003305
 21
853.1679168996278
 31
0.0
  0
LINE
  5
A6C9
330
1F
100
AcDbEntity
  8
SPOJOVACÍ
  6
Continuous
100
AcDbLine
 10
478.2768153423894
 20
855.867287062364
 30
0.0
 11
480.7948012217166
 21
855.867287062364
 31
0.0
  0
LINE
  5
A6CA
330
1F
100
AcDbEntity
  8
SPOJOVACÍ
  6
Continuous
100
AcDbLine
 10
481.3910439068713
 20
855.867287062364
 30
0.0
 11
482.63840964876
 21
855.867287062364
 31
0.0
  0
LINE
  5
A6CB
330
1F
100
AcDbEntity
  8
SPOJOVACÍ
  6
Continuous
100
AcDbLine
 10
479.1790858642634
 20
853.1679168996278
 30
0.0
 11
481.6980019192924
 21
853.1679168996278
 31
0.0
  0
LINE
  5
A6CC
330
1F
100
AcDbEntity
  8
SPOJOVACÍ
  6
Continuous
100
AcDbLine
 10
482.3016860108764
 20
853.1679168996278
 30
0.0
 11
482.63840964876
 21
853.1679168996278
 31
0.0
  0
LINE
  5
A6CD
330
1F
100
AcDbEntity
  8
SPOJOVACÍ
  6
Continuous
100
AcDbLine
 10
482.63840964876
 20
855.867287062364
 30
0.0
 11
483.8355458981168
 21
855.7175287596409
 31
0.0
  0
LINE
  5
A6CE
330
1F
100
AcDbEntity
  8
SPOJOVACÍ
  6
Continuous
100
AcDbLine
 10
493.4386808137133
 20
854.5176019831787
 30
0.0
 11
490.6025748124448
 21
854.1632050020497
 31
0.0
  0
LINE
  5
A6CF
330
1F
100
AcDbEntity
  8
SPOJOVACÍ
  6
Continuous
100
AcDbLine
 10
484.4559731539702
 20
855.640324167115
 30
0.0
 11
486.7776919400348
 21
855.3501093175954
 31
0.0
  0
LINE
  5
A6D0
330
1F
100
AcDbEntity
  8
SPOJOVACÍ
  6
Continuous
100
AcDbLine
 10
487.4083511296994
 20
855.2710443747573
 30
0.0
 11
489.7291397400549
 21
854.9808295296033
 31
0.0
  0
LINE
  5
A6D1
330
1F
100
AcDbEntity
  8
SPOJOVACÍ
  6
Continuous
100
AcDbLine
 10
490.3495669959084
 20
854.9036249370773
 30
0.0
 11
493.4386808137133
 21
854.5176019831787
 31
0.0
  0
LINE
  5
A6D2
330
1F
100
AcDbEntity
  8
SPOJOVACÍ
  6
Continuous
100
AcDbLine
 10
490.0333072253779
 20
854.0915814648259
 30
0.0
 11
487.8883218403935
 21
853.8236908365151
 31
0.0
  0
LINE
  5
A6D3
330
1F
100
AcDbEntity
  8
SPOJOVACÍ
  6
Continuous
100
AcDbLine
 10
487.3162637259447
 20
853.7520673036569
 30
0.0
 11
485.1796499230913
 21
853.4851068483193
 31
0.0
  0
LINE
  5
A6D4
330
1F
100
AcDbEntity
  8
SPOJOVACÍ
  6
Continuous
100
AcDbLine
 10
484.6094521600462
 20
853.4134833110956
 30
0.0
 11
482.63840964876
 21
853.1679168996278
 31
0.0
  0
LINE
  5
A6D5
330
1F
100
AcDbEntity
  8
SPOJOVACÍ
  6
Continuous
100
AcDbLine
 10
484.0308828151392
 20
856.6635175416822
 30
0.0
 11
484.2494741271657
 21
856.2849359933979
 31
0.0
  0
LINE
  5
A6D6
330
1F
100
AcDbEntity
  8
SPOJOVACÍ
  6
Continuous
100
AcDbLine
 10
484.0308828151392
 20
856.6635175416822
 30
0.0
 11
483.653231442011
 21
856.2849359933979
 31
0.0
  0
LINE
  5
A6D7
330
1F
100
AcDbEntity
  8
SPOJOVACÍ
  6
Continuous
100
AcDbLine
 10
485.0038466974438
 20
852.5381878889392
 30
0.0
 11
485.3824282465502
 21
852.9158392598846
 31
0.0
  0
LINE
  5
A6D8
330
1F
100
AcDbEntity
  8
SPOJOVACÍ
  6
Continuous
100
AcDbLine
 10
485.0038466974438
 20
852.5381878889392
 30
0.0
 11
484.7861855613955
 21
852.9158392598846
 31
0.0
  0
LINE
  5
A6D9
330
1F
100
AcDbEntity
  8
SPOJOVACÍ
  6
Continuous
100
AcDbLine
 10
484.2494741271657
 20
856.2849359933979
 30
0.0
 11
485.3824282465502
 21
852.9158392598846
 31
0.0
  0
LINE
  5
A6DA
330
1F
100
AcDbEntity
  8
SPOJOVACÍ
  6
Continuous
100
AcDbLine
 10
483.653231442011
 20
856.2849359933979
 30
0.0
 11
484.7861855613955
 21
852.9158392598846
 31
0.0
  0
LINE
  5
A6DB
330
1F
100
AcDbEntity
  8
SPOJOVACÍ
  6
Continuous
100
AcDbLine
 10
484.0308828151392
 20
856.6635175416822
 30
0.0
 11
485.0038466974438
 21
852.5381878889392
 31
0.0
  0
LINE
  5
A6DC
330
1F
100
AcDbEntity
  8
SPOJOVACÍ
  6
Continuous
100
AcDbLine
 10
487.0455825694371
 20
856.0989008355763
 30
0.0
 11
487.2632437054853
 21
855.7212494602653
 31
0.0
  0
LINE
  5
A6DD
330
1F
100
AcDbEntity
  8
SPOJOVACÍ
  6
Continuous
100
AcDbLine
 10
487.0455825694371
 20
856.0989008355763
 30
0.0
 11
486.6670010203306
 21
855.7212494602653
 31
0.0
  0
LINE
  5
A6DE
330
1F
100
AcDbEntity
  8
SPOJOVACÍ
  6
Continuous
100
AcDbLine
 10
487.6790322862071
 20
852.9828119191451
 30
0.0
 11
488.057613835037
 21
853.3604632900905
 31
0.0
  0
LINE
  5
A6DF
330
1F
100
AcDbEntity
  8
SPOJOVACÍ
  6
Continuous
100
AcDbLine
 10
487.6790322862071
 20
852.9828119191451
 30
0.0
 11
487.4613711501588
 21
853.3604632900905
 31
0.0
  0
LINE
  5
A6E0
330
1F
100
AcDbEntity
  8
SPOJOVACÍ
  6
Continuous
100
AcDbLine
 10
487.2632437054853
 20
855.7212494602653
 30
0.0
 11
488.057613835037
 21
853.3604632900905
 31
0.0
  0
LINE
  5
A6E1
330
1F
100
AcDbEntity
  8
SPOJOVACÍ
  6
Continuous
100
AcDbLine
 10
486.6670010203306
 20
855.7212494602653
 30
0.0
 11
487.4613711501588
 21
853.3604632900905
 31
0.0
  0
LINE
  5
A6E2
330
1F
100
AcDbEntity
  8
SPOJOVACÍ
  6
Continuous
100
AcDbLine
 10
487.0455825694371
 20
856.0989008355763
 30
0.0
 11
487.6790322862071
 21
852.9828119191451
 31
0.0
  0
LINE
  5
A6E3
330
1F
100
AcDbEntity
  8
SPOJOVACÍ
  6
Continuous
100
AcDbLine
 10
490.0593521477567
 20
855.5342841251048
 30
0.0
 11
490.277943459776
 21
855.1566327541594
 31
0.0
  0
LINE
  5
A6E4
330
1F
100
AcDbEntity
  8
SPOJOVACÍ
  6
Continuous
100
AcDbLine
 10
490.0593521477567
 20
855.5342841251048
 30
0.0
 11
489.6817007746285
 21
855.1566327541594
 31
0.0
  0
LINE
  5
A6E5
330
1F
100
AcDbEntity
  8
SPOJOVACÍ
  6
Continuous
100
AcDbLine
 10
490.3700308635307
 20
853.3799969836481
 30
0.0
 11
490.7486124123606
 21
853.7576483545935
 31
0.0
  0
LINE
  5
A6E6
330
1F
100
AcDbEntity
  8
SPOJOVACÍ
  6
Continuous
100
AcDbLine
 10
490.3700308635307
 20
853.3799969836481
 30
0.0
 11
490.1523697272132
 21
853.7576483545935
 31
0.0
  0
LINE
  5
A6E7
330
1F
100
AcDbEntity
  8
SPOJOVACÍ
  6
Continuous
100
AcDbLine
 10
490.277943459776
 20
855.1566327541594
 30
0.0
 11
490.7486124123606
 21
853.7576483545935
 31
0.0
  0
LINE
  5
A6E8
330
1F
100
AcDbEntity
  8
SPOJOVACÍ
  6
Continuous
100
AcDbLine
 10
489.6817007746285
 20
855.1566327541594
 30
0.0
 11
490.1523697272132
 21
853.7576483545935
 31
0.0
  0
LINE
  5
A6E9
330
1F
100
AcDbEntity
  8
SPOJOVACÍ
  6
Continuous
100
AcDbLine
 10
490.0593521477567
 20
855.5342841251048
 30
0.0
 11
490.3700308635307
 21
853.3799969836481
 31
0.0
  0
LINE
  5
A6EA
330
1F
100
AcDbEntity
  8
SPOJOVACÍ
  6
Continuous
100
AcDbLine
 10
477.8331214878853
 20
856.9174555361032
 30
0.0
 11
479.0330482643476
 21
852.1177484302542
 31
0.0
  0
LINE
  5
A6EB
330
1F
100
AcDbEntity
  8
SPOJOVACÍ
  6
Continuous
100
AcDbLine
 10
477.8331214878853
 20
856.9174555361032
 30
0.0
 11
478.0517127999046
 21
856.5398041607922
 31
0.0
  0
LINE
  5
A6EC
330
1F
100
AcDbEntity
  8
SPOJOVACÍ
  6
Continuous
100
AcDbLine
 10
477.8331214878853
 20
856.9174555361032
 30
0.0
 11
477.4554701147572
 21
856.5398041607922
 31
0.0
  0
LINE
  5
A6ED
330
1F
100
AcDbEntity
  8
SPOJOVACÍ
  6
Continuous
100
AcDbLine
 10
479.0330482643476
 20
852.1177484302542
 30
0.0
 11
479.4116298131775
 21
852.4953998011996
 31
0.0
  0
LINE
  5
A6EE
330
1F
100
AcDbEntity
  8
SPOJOVACÍ
  6
Continuous
100
AcDbLine
 10
479.0330482643476
 20
852.1177484302542
 30
0.0
 11
478.8153871282993
 21
852.4953998011996
 31
0.0
  0
LINE
  5
A6EF
330
1F
100
AcDbEntity
  8
SPOJOVACÍ
  6
Continuous
100
AcDbLine
 10
478.0517127999046
 20
856.5398041607922
 30
0.0
 11
479.4116298131775
 21
852.4953998011996
 31
0.0
  0
LINE
  5
A6F0
330
1F
100
AcDbEntity
  8
SPOJOVACÍ
  6
Continuous
100
AcDbLine
 10
477.4554701147572
 20
856.5398041607922
 30
0.0
 11
478.8153871282993
 21
852.4953998011996
 31
0.0
  0
LINE
  5
A6F1
330
1F
100
AcDbEntity
  8
SPOJOVACÍ
  6
Continuous
100
AcDbLine
 10
480.9538612828255
 20
856.9174555361032
 30
0.0
 11
482.1537880592877
 21
852.1177484302542
 31
0.0
  0
LINE
  5
A6F2
330
1F
100
AcDbEntity
  8
SPOJOVACÍ
  6
Continuous
100
AcDbLine
 10
480.9538612828255
 20
856.9174555361032
 30
0.0
 11
481.1715224188738
 21
856.5398041607922
 31
0.0
  0
LINE
  5
A6F3
330
1F
100
AcDbEntity
  8
SPOJOVACÍ
  6
Continuous
100
AcDbLine
 10
480.9538612828255
 20
856.9174555361032
 30
0.0
 11
480.575279733719
 21
856.5398041607922
 31
0.0
  0
LINE
  5
A6F4
330
1F
100
AcDbEntity
  8
SPOJOVACÍ
  6
Continuous
100
AcDbLine
 10
482.1537880592877
 20
852.1177484302542
 30
0.0
 11
482.5314394324159
 21
852.4953998011996
 31
0.0
  0
LINE
  5
A6F5
330
1F
100
AcDbEntity
  8
SPOJOVACÍ
  6
Continuous
100
AcDbLine
 10
482.1537880592877
 20
852.1177484302542
 30
0.0
 11
481.9351967472612
 21
852.4953998011996
 31
0.0
  0
LINE
  5
A6F6
330
1F
100
AcDbEntity
  8
SPOJOVACÍ
  6
Continuous
100
AcDbLine
 10
481.1715224188738
 20
856.5398041607922
 30
0.0
 11
482.5314394324159
 21
852.4953998011996
 31
0.0
  0
LINE
  5
A6F7
330
1F
100
AcDbEntity
  8
SPOJOVACÍ
  6
Continuous
100
AcDbLine
 10
480.575279733719
 20
856.5398041607922
 30
0.0
 11
481.9351967472612
 21
852.4953998011996
 31
0.0
  0
LINE
  5
A6F8
330
1F
100
AcDbEntity
  8
SPOJOVACÍ
  6
Continuous
100
AcDbLine
 10
461.3355235737181
 20
852.3279681595967
 30
0.0
 11
459.8110992640504
 21
851.1182940151202
 31
0.0
  0
LINE
  5
A6F9
330
1F
100
AcDbEntity
  8
SPOJOVACÍ
  6
Continuous
100
AcDbLine
 10
462.7493907834214
 20
852.9409540087444
 30
0.0
 11
461.3355235737181
 21
852.3279681595967
 31
0.0
  0
LINE
  5
A6FA
330
1F
100
AcDbEntity
  8
SPOJOVACÍ
  6
Continuous
100
AcDbLine
 10
464.2730187368506
 20
853.1679168996278
 30
0.0
 11
462.7493907834214
 21
852.9409540087444
 31
0.0
  0
LINE
  5
A6FB
330
1F
100
AcDbEntity
  8
SPOJOVACÍ
  6
Continuous
100
AcDbLine
 10
457.6734214657626
 20
859.6177558718126
 30
0.0
 11
458.8733482424941
 21
859.6177558718126
 31
0.0
  0
LINE
  5
A6FC
330
1F
100
AcDbEntity
  8
SPOJOVACÍ
  6
Continuous
100
AcDbLine
 10
463.4860900137282
 20
855.9333295442856
 30
0.0
 11
464.2730187368506
 21
855.867287062364
 31
0.0
  0
LINE
  5
A6FD
330
1F
100
AcDbEntity
  8
SPOJOVACÍ
  6
Continuous
100
AcDbLine
 10
462.005250146678
 20
856.361210408585
 30
0.0
 11
463.4860900137282
 21
855.9333295442856
 31
0.0
  0
LINE
  5
A6FE
330
1F
100
AcDbEntity
  8
SPOJOVACÍ
  6
Continuous
100
AcDbLine
 10
460.6862608683805
 20
857.1574408879031
 30
0.0
 11
462.005250146678
 21
856.361210408585
 31
0.0
  0
LINE
  5
A6FF
330
1F
100
AcDbEntity
  8
SPOJOVACÍ
  6
Continuous
100
AcDbLine
 10
459.6174888789683
 20
858.2680707882618
 30
0.0
 11
460.6862608683805
 21
857.1574408879031
 31
0.0
  0
LINE
  5
A700
330
1F
100
AcDbEntity
  8
SPOJOVACÍ
  6
Continuous
100
AcDbLine
 10
458.8733482424941
 20
859.6177558718126
 30
0.0
 11
459.6174888789683
 21
858.2680707882618
 31
0.0
  0
LINE
  5
A701
330
1F
100
AcDbEntity
  8
SPOJOVACÍ
  6
Continuous
100
AcDbLine
 10
464.2730187368506
 20
853.1679168996278
 30
0.0
 11
469.2159729157793
 21
853.1679168996278
 31
0.0
  0
LINE
  5
A702
330
1F
100
AcDbEntity
  8
SPOJOVACÍ
  6
Continuous
100
AcDbLine
 10
464.2730187368506
 20
855.867287062364
 30
0.0
 11
468.3109118665306
 21
855.867287062364
 31
0.0
  0
LINE
  5
A703
330
1F
100
AcDbEntity
  8
SPOJOVACÍ
  6
Continuous
100
AcDbLine
 10
468.9062243757071
 20
855.867287062364
 30
0.0
 11
471.425140430736
 21
855.867287062364
 31
0.0
  0
LINE
  5
A704
330
1F
100
AcDbEntity
  8
SPOJOVACÍ
  6
Continuous
100
AcDbLine
 10
472.0288245220508
 20
855.867287062364
 30
0.0
 11
474.5496009287599
 21
855.867287062364
 31
0.0
  0
LINE
  5
A705
330
1F
100
AcDbEntity
  8
SPOJOVACÍ
  6
Continuous
100
AcDbLine
 10
469.819657007094
 20
853.1679168996278
 30
0.0
 11
472.338573062123
 21
853.1679168996278
 31
0.0
  0
LINE
  5
A706
330
1F
100
AcDbEntity
  8
SPOJOVACÍ
  6
Continuous
100
AcDbLine
 10
472.9348157472777
 20
853.1679168996278
 30
0.0
 11
475.4630335601468
 21
853.1679168996278
 31
0.0
  0
LINE
  5
A707
330
1F
100
AcDbEntity
  8
SPOJOVACÍ
  6
Continuous
100
AcDbLine
 10
468.4736926307159
 20
856.9174555361032
 30
0.0
 11
469.6736194071782
 21
852.1177484302542
 31
0.0
  0
LINE
  5
A708
330
1F
100
AcDbEntity
  8
SPOJOVACÍ
  6
Continuous
100
AcDbLine
 10
468.4736926307159
 20
856.9174555361032
 30
0.0
 11
468.6913537667642
 21
856.5398041607922
 31
0.0
  0
LINE
  5
A709
330
1F
100
AcDbEntity
  8
SPOJOVACÍ
  6
Continuous
100
AcDbLine
 10
468.4736926307159
 20
856.9174555361032
 30
0.0
 11
468.095111081886
 21
856.5398041607922
 31
0.0
  0
LINE
  5
A70A
330
1F
100
AcDbEntity
  8
SPOJOVACÍ
  6
Continuous
100
AcDbLine
 10
469.6736194071782
 20
852.1177484302542
 30
0.0
 11
470.0512707803063
 21
852.4953998011996
 31
0.0
  0
LINE
  5
A70B
330
1F
100
AcDbEntity
  8
SPOJOVACÍ
  6
Continuous
100
AcDbLine
 10
469.6736194071782
 20
852.1177484302542
 30
0.0
 11
469.4550280951516
 21
852.4953998011996
 31
0.0
  0
LINE
  5
A70C
330
1F
100
AcDbEntity
  8
SPOJOVACÍ
  6
Continuous
100
AcDbLine
 10
468.6913537667642
 20
856.5398041607922
 30
0.0
 11
470.0512707803063
 21
852.4953998011996
 31
0.0
  0
LINE
  5
A70D
330
1F
100
AcDbEntity
  8
SPOJOVACÍ
  6
Continuous
100
AcDbLine
 10
468.095111081886
 20
856.5398041607922
 30
0.0
 11
469.4550280951516
 21
852.4953998011996
 31
0.0
  0
LINE
  5
A70E
330
1F
100
AcDbEntity
  8
SPOJOVACÍ
  6
Continuous
100
AcDbLine
 10
471.5935022496778
 20
856.9174555361032
 30
0.0
 11
472.7934290264165
 21
852.1177484302542
 31
0.0
  0
LINE
  5
A70F
330
1F
100
AcDbEntity
  8
SPOJOVACÍ
  6
Continuous
100
AcDbLine
 10
471.5935022496778
 20
856.9174555361032
 30
0.0
 11
471.8120935617044
 21
856.5398041607922
 31
0.0
  0
LINE
  5
A710
330
1F
100
AcDbEntity
  8
SPOJOVACÍ
  6
Continuous
100
AcDbLine
 10
471.5935022496778
 20
856.9174555361032
 30
0.0
 11
471.2158508765496
 21
856.5398041607922
 31
0.0
  0
LINE
  5
A711
330
1F
100
AcDbEntity
  8
SPOJOVACÍ
  6
Continuous
100
AcDbLine
 10
472.7934290264165
 20
852.1177484302542
 30
0.0
 11
473.1710803992682
 21
852.4953998011996
 31
0.0
  0
LINE
  5
A712
330
1F
100
AcDbEntity
  8
SPOJOVACÍ
  6
Continuous
100
AcDbLine
 10
472.7934290264165
 20
852.1177484302542
 30
0.0
 11
472.57483771439
 21
852.4953998011996
 31
0.0
  0
LINE
  5
A713
330
1F
100
AcDbEntity
  8
SPOJOVACÍ
  6
Continuous
100
AcDbLine
 10
471.8120935617044
 20
856.5398041607922
 30
0.0
 11
473.1710803992682
 21
852.4953998011996
 31
0.0
  0
LINE
  5
A714
330
1F
100
AcDbEntity
  8
SPOJOVACÍ
  6
Continuous
100
AcDbLine
 10
471.2158508765496
 20
856.5398041607922
 30
0.0
 11
472.57483771439
 21
852.4953998011996
 31
0.0
  0
LINE
  5
A715
330
1F
100
AcDbEntity
  8
SPOJOVACÍ
  6
Continuous
100
AcDbLine
 10
474.7133118689162
 20
856.9174555361032
 30
0.0
 11
475.9132386453784
 21
852.1177484302542
 31
0.0
  0
LINE
  5
A716
330
1F
100
AcDbEntity
  8
SPOJOVACÍ
  6
Continuous
100
AcDbLine
 10
474.7133118689162
 20
856.9174555361032
 30
0.0
 11
474.9319031809427
 21
856.5398041607922
 31
0.0
  0
LINE
  5
A717
330
1F
100
AcDbEntity
  8
SPOJOVACÍ
  6
Continuous
100
AcDbLine
 10
474.7133118689162
 20
856.9174555361032
 30
0.0
 11
474.335660495788
 21
856.5398041607922
 31
0.0
  0
LINE
  5
A718
330
1F
100
AcDbEntity
  8
SPOJOVACÍ
  6
Continuous
100
AcDbLine
 10
475.9132386453784
 20
852.1177484302542
 30
0.0
 11
476.2918201942084
 21
852.4953998011996
 31
0.0
  0
LINE
  5
A719
330
1F
100
AcDbEntity
  8
SPOJOVACÍ
  6
Continuous
100
AcDbLine
 10
475.9132386453784
 20
852.1177484302542
 30
0.0
 11
475.6955775090609
 21
852.4953998011996
 31
0.0
  0
LINE
  5
A71A
330
1F
100
AcDbEntity
  8
SPOJOVACÍ
  6
Continuous
100
AcDbLine
 10
474.9319031809427
 20
856.5398041607922
 30
0.0
 11
476.2918201942084
 21
852.4953998011996
 31
0.0
  0
LINE
  5
A71B
330
1F
100
AcDbEntity
  8
SPOJOVACÍ
  6
Continuous
100
AcDbLine
 10
474.335660495788
 20
856.5398041607922
 30
0.0
 11
475.6955775090609
 21
852.4953998011996
 31
0.0
  0
LINE
  5
A71C
330
1F
100
AcDbEntity
  8
SPOJOVACÍ
  6
Continuous
100
AcDbLine
 10
458.8733482424941
 20
859.6177558718126
 30
0.0
 11
458.8733482424941
 21
849.4174480945448
 31
0.0
  0
LINE
  5
A71D
330
1F
100
AcDbEntity
  8
SPOJOVACÍ
  6
Continuous
100
AcDbLine
 10
457.6734214657626
 20
849.4174480945448
 30
0.0
 11
458.8733482424941
 21
849.4174480945448
 31
0.0
  0
LINE
  5
A71E
330
1F
100
AcDbEntity
  8
SPOJOVACÍ
  6
Continuous
100
AcDbLine
 10
457.6734214657626
 20
859.6177558718126
 30
0.0
 11
457.6734214657626
 21
849.4174480945448
 31
0.0
  0
LINE
  5
A71F
330
1F
100
AcDbEntity
  8
SPOJOVACÍ
  6
Continuous
100
AcDbLine
 10
458.8733482424941
 20
849.4174480945448
 30
0.0
 11
459.8110992640504
 21
851.1182940151202
 31
0.0
  0
LINE
  5
A720
330
1F
100
AcDbEntity
  8
SPOJOVACÍ
  6
Continuous
100
AcDbLine
 10
676.9523907167131
 20
849.4174480945448
 30
0.0
 11
676.0146396951568
 21
851.1182940151202
 31
0.0
  0
LINE
  5
A721
330
1F
100
AcDbEntity
  8
SPOJOVACÍ
  6
Continuous
100
AcDbLine
 10
678.1523174934445
 20
859.6177558718126
 30
0.0
 11
678.1523174934445
 21
849.4174480945448
 31
0.0
  0
LINE
  5
A722
330
1F
100
AcDbEntity
  8
SPOJOVACÍ
  6
Continuous
100
AcDbLine
 10
678.1523174934445
 20
849.4174480945448
 30
0.0
 11
676.9523907167131
 21
849.4174480945448
 31
0.0
  0
LINE
  5
A723
330
1F
100
AcDbEntity
  8
SPOJOVACÍ
  6
Continuous
100
AcDbLine
 10
676.9523907167131
 20
859.6177558718126
 30
0.0
 11
676.9523907167131
 21
849.4174480945448
 31
0.0
  0
LINE
  5
A724
330
1F
100
AcDbEntity
  8
SPOJOVACÍ
  6
Continuous
100
AcDbLine
 10
661.4900784634191
 20
856.5398041607922
 30
0.0
 11
660.1301614501462
 21
852.4953998011996
 31
0.0
  0
LINE
  5
A725
330
1F
100
AcDbEntity
  8
SPOJOVACÍ
  6
Continuous
100
AcDbLine
 10
660.8938357782644
 20
856.5398041607922
 30
0.0
 11
659.5339187649988
 21
852.4953998011996
 31
0.0
  0
LINE
  5
A726
330
1F
100
AcDbEntity
  8
SPOJOVACÍ
  6
Continuous
100
AcDbLine
 10
659.9125003138287
 20
852.1177484302542
 30
0.0
 11
660.1301614501462
 21
852.4953998011996
 31
0.0
  0
LINE
  5
A727
330
1F
100
AcDbEntity
  8
SPOJOVACÍ
  6
Continuous
100
AcDbLine
 10
659.9125003138287
 20
852.1177484302542
 30
0.0
 11
659.5339187649988
 21
852.4953998011996
 31
0.0
  0
LINE
  5
A728
330
1F
100
AcDbEntity
  8
SPOJOVACÍ
  6
Continuous
100
AcDbLine
 10
661.112427090291
 20
856.9174555361032
 30
0.0
 11
661.4900784634191
 21
856.5398041607922
 31
0.0
  0
LINE
  5
A729
330
1F
100
AcDbEntity
  8
SPOJOVACÍ
  6
Continuous
100
AcDbLine
 10
661.112427090291
 20
856.9174555361032
 30
0.0
 11
660.8938357782644
 21
856.5398041607922
 31
0.0
  0
LINE
  5
A72A
330
1F
100
AcDbEntity
  8
SPOJOVACÍ
  6
Continuous
100
AcDbLine
 10
661.112427090291
 20
856.9174555361032
 30
0.0
 11
659.9125003138287
 21
852.1177484302542
 31
0.0
  0
LINE
  5
A72B
330
1F
100
AcDbEntity
  8
SPOJOVACÍ
  6
Continuous
100
AcDbLine
 10
664.6098880826575
 20
856.5398041607922
 30
0.0
 11
663.2509012448172
 21
852.4953998011996
 31
0.0
  0
LINE
  5
A72C
330
1F
100
AcDbEntity
  8
SPOJOVACÍ
  6
Continuous
100
AcDbLine
 10
664.0136453975028
 20
856.5398041607922
 30
0.0
 11
662.6546585599389
 21
852.4953998011996
 31
0.0
  0
LINE
  5
A72D
330
1F
100
AcDbEntity
  8
SPOJOVACÍ
  6
Continuous
100
AcDbLine
 10
663.0323099327906
 20
852.1177484302542
 30
0.0
 11
663.2509012448172
 21
852.4953998011996
 31
0.0
  0
LINE
  5
A72E
330
1F
100
AcDbEntity
  8
SPOJOVACÍ
  6
Continuous
100
AcDbLine
 10
663.0323099327906
 20
852.1177484302542
 30
0.0
 11
662.6546585599389
 21
852.4953998011996
 31
0.0
  0
LINE
  5
A72F
330
1F
100
AcDbEntity
  8
SPOJOVACÍ
  6
Continuous
100
AcDbLine
 10
664.2322367095293
 20
856.9174555361032
 30
0.0
 11
664.6098880826575
 21
856.5398041607922
 31
0.0
  0
LINE
  5
A730
330
1F
100
AcDbEntity
  8
SPOJOVACÍ
  6
Continuous
100
AcDbLine
 10
664.2322367095293
 20
856.9174555361032
 30
0.0
 11
664.0136453975028
 21
856.5398041607922
 31
0.0
  0
LINE
  5
A731
330
1F
100
AcDbEntity
  8
SPOJOVACÍ
  6
Continuous
100
AcDbLine
 10
664.2322367095293
 20
856.9174555361032
 30
0.0
 11
663.0323099327906
 21
852.1177484302542
 31
0.0
  0
LINE
  5
A732
330
1F
100
AcDbEntity
  8
SPOJOVACÍ
  6
Continuous
100
AcDbLine
 10
667.7306278773212
 20
856.5398041607922
 30
0.0
 11
666.3707108640555
 21
852.4953998011996
 31
0.0
  0
LINE
  5
A733
330
1F
100
AcDbEntity
  8
SPOJOVACÍ
  6
Continuous
100
AcDbLine
 10
667.1343851924429
 20
856.5398041607922
 30
0.0
 11
665.7744681789008
 21
852.4953998011996
 31
0.0
  0
LINE
  5
A734
330
1F
100
AcDbEntity
  8
SPOJOVACÍ
  6
Continuous
100
AcDbLine
 10
666.152119552029
 20
852.1177484302542
 30
0.0
 11
666.3707108640555
 21
852.4953998011996
 31
0.0
  0
LINE
  5
A735
330
1F
100
AcDbEntity
  8
SPOJOVACÍ
  6
Continuous
100
AcDbLine
 10
666.152119552029
 20
852.1177484302542
 30
0.0
 11
665.7744681789008
 21
852.4953998011996
 31
0.0
  0
LINE
  5
A736
330
1F
100
AcDbEntity
  8
SPOJOVACÍ
  6
Continuous
100
AcDbLine
 10
667.3520463284912
 20
856.9174555361032
 30
0.0
 11
667.7306278773212
 21
856.5398041607922
 31
0.0
  0
LINE
  5
A737
330
1F
100
AcDbEntity
  8
SPOJOVACÍ
  6
Continuous
100
AcDbLine
 10
667.3520463284912
 20
856.9174555361032
 30
0.0
 11
667.1343851924429
 21
856.5398041607922
 31
0.0
  0
LINE
  5
A738
330
1F
100
AcDbEntity
  8
SPOJOVACÍ
  6
Continuous
100
AcDbLine
 10
667.3520463284912
 20
856.9174555361032
 30
0.0
 11
666.152119552029
 21
852.1177484302542
 31
0.0
  0
LINE
  5
A739
330
1F
100
AcDbEntity
  8
SPOJOVACÍ
  6
Continuous
100
AcDbLine
 10
662.8909232119294
 20
853.1679168996278
 30
0.0
 11
660.3627053990603
 21
853.1679168996278
 31
0.0
  0
LINE
  5
A73A
330
1F
100
AcDbEntity
  8
SPOJOVACÍ
  6
Continuous
100
AcDbLine
 10
666.0060819521131
 20
853.1679168996278
 30
0.0
 11
663.4871658970841
 21
853.1679168996278
 31
0.0
  0
LINE
  5
A73B
330
1F
100
AcDbEntity
  8
SPOJOVACÍ
  6
Continuous
100
AcDbLine
 10
663.7969144371563
 20
855.867287062364
 30
0.0
 11
661.2761380304473
 21
855.867287062364
 31
0.0
  0
LINE
  5
A73C
330
1F
100
AcDbEntity
  8
SPOJOVACÍ
  6
Continuous
100
AcDbLine
 10
666.9195145835001
 20
855.867287062364
 30
0.0
 11
664.4005985284711
 21
855.867287062364
 31
0.0
  0
LINE
  5
A73D
330
1F
100
AcDbEntity
  8
SPOJOVACÍ
  6
Continuous
100
AcDbLine
 10
671.5527202223565
 20
855.867287062364
 30
0.0
 11
667.5148270926765
 21
855.867287062364
 31
0.0
  0
LINE
  5
A73E
330
1F
100
AcDbEntity
  8
SPOJOVACÍ
  6
Continuous
100
AcDbLine
 10
671.5527202223565
 20
853.1679168996278
 30
0.0
 11
666.6097660434279
 21
853.1679168996278
 31
0.0
  0
LINE
  5
A73F
330
1F
100
AcDbEntity
  8
SPOJOVACÍ
  6
Continuous
100
AcDbLine
 10
676.9523907167131
 20
859.6177558718126
 30
0.0
 11
676.2082500802389
 21
858.2680707882618
 31
0.0
  0
LINE
  5
A740
330
1F
100
AcDbEntity
  8
SPOJOVACÍ
  6
Continuous
100
AcDbLine
 10
676.2082500802389
 20
858.2680707882618
 30
0.0
 11
675.1394780908267
 21
857.1574408879031
 31
0.0
  0
LINE
  5
A741
330
1F
100
AcDbEntity
  8
SPOJOVACÍ
  6
Continuous
100
AcDbLine
 10
675.1394780908267
 20
857.1574408879031
 30
0.0
 11
673.8204888125292
 21
856.361210408585
 31
0.0
  0
LINE
  5
A742
330
1F
100
AcDbEntity
  8
SPOJOVACÍ
  6
Continuous
100
AcDbLine
 10
673.8204888125292
 20
856.361210408585
 30
0.0
 11
672.3396489454789
 21
855.9333295442856
 31
0.0
  0
LINE
  5
A743
330
1F
100
AcDbEntity
  8
SPOJOVACÍ
  6
Continuous
100
AcDbLine
 10
672.3396489454789
 20
855.9333295442856
 30
0.0
 11
671.5527202223565
 21
855.867287062364
 31
0.0
  0
LINE
  5
A744
330
1F
100
AcDbEntity
  8
SPOJOVACÍ
  6
Continuous
100
AcDbLine
 10
678.1523174934445
 20
859.6177558718126
 30
0.0
 11
676.9523907167131
 21
859.6177558718126
 31
0.0
  0
LINE
  5
A745
330
1F
100
AcDbEntity
  8
SPOJOVACÍ
  6
Continuous
100
AcDbLine
 10
671.5527202223565
 20
853.1679168996278
 30
0.0
 11
673.0763481757858
 21
852.9409540087444
 31
0.0
  0
LINE
  5
A746
330
1F
100
AcDbEntity
  8
SPOJOVACÍ
  6
Continuous
100
AcDbLine
 10
673.0763481757858
 20
852.9409540087444
 30
0.0
 11
674.4902153854891
 21
852.3279681595967
 31
0.0
  0
LINE
  5
A747
330
1F
100
AcDbEntity
  8
SPOJOVACÍ
  6
Continuous
100
AcDbLine
 10
674.4902153854891
 20
852.3279681595967
 30
0.0
 11
676.0146396951568
 21
851.1182940151202
 31
0.0
  0
LINE
  5
A748
330
1F
100
AcDbEntity
  8
SPOJOVACÍ
  6
Continuous
100
AcDbLine
 10
655.2504592254881
 20
856.5398041607922
 30
0.0
 11
653.890542211946
 21
852.4953998011996
 31
0.0
  0
LINE
  5
A749
330
1F
100
AcDbEntity
  8
SPOJOVACÍ
  6
Continuous
100
AcDbLine
 10
654.6542165403334
 20
856.5398041607922
 30
0.0
 11
653.2942995267912
 21
852.4953998011996
 31
0.0
  0
LINE
  5
A74A
330
1F
100
AcDbEntity
  8
SPOJOVACÍ
  6
Continuous
100
AcDbLine
 10
653.6719508999194
 20
852.1177484302542
 30
0.0
 11
653.890542211946
 21
852.4953998011996
 31
0.0
  0
LINE
  5
A74B
330
1F
100
AcDbEntity
  8
SPOJOVACÍ
  6
Continuous
100
AcDbLine
 10
653.6719508999194
 20
852.1177484302542
 30
0.0
 11
653.2942995267912
 21
852.4953998011996
 31
0.0
  0
LINE
  5
A74C
330
1F
100
AcDbEntity
  8
SPOJOVACÍ
  6
Continuous
100
AcDbLine
 10
654.8718776763816
 20
856.9174555361032
 30
0.0
 11
655.2504592254881
 21
856.5398041607922
 31
0.0
  0
LINE
  5
A74D
330
1F
100
AcDbEntity
  8
SPOJOVACÍ
  6
Continuous
100
AcDbLine
 10
654.8718776763816
 20
856.9174555361032
 30
0.0
 11
654.6542165403334
 21
856.5398041607922
 31
0.0
  0
LINE
  5
A74E
330
1F
100
AcDbEntity
  8
SPOJOVACÍ
  6
Continuous
100
AcDbLine
 10
654.8718776763816
 20
856.9174555361032
 30
0.0
 11
653.6719508999194
 21
852.1177484302542
 31
0.0
  0
LINE
  5
A74F
330
1F
100
AcDbEntity
  8
SPOJOVACÍ
  6
Continuous
100
AcDbLine
 10
658.37026884445
 20
856.5398041607922
 30
0.0
 11
657.0103518309078
 21
852.4953998011996
 31
0.0
  0
LINE
  5
A750
330
1F
100
AcDbEntity
  8
SPOJOVACÍ
  6
Continuous
100
AcDbLine
 10
657.7740261593025
 20
856.5398041607922
 30
0.0
 11
656.4141091460296
 21
852.4953998011996
 31
0.0
  0
LINE
  5
A751
330
1F
100
AcDbEntity
  8
SPOJOVACÍ
  6
Continuous
100
AcDbLine
 10
656.7926906948596
 20
852.1177484302542
 30
0.0
 11
657.0103518309078
 21
852.4953998011996
 31
0.0
  0
LINE
  5
A752
330
1F
100
AcDbEntity
  8
SPOJOVACÍ
  6
Continuous
100
AcDbLine
 10
656.7926906948596
 20
852.1177484302542
 30
0.0
 11
656.4141091460296
 21
852.4953998011996
 31
0.0
  0
LINE
  5
A753
330
1F
100
AcDbEntity
  8
SPOJOVACÍ
  6
Continuous
100
AcDbLine
 10
657.9926174713218
 20
856.9174555361032
 30
0.0
 11
658.37026884445
 21
856.5398041607922
 31
0.0
  0
LINE
  5
A754
330
1F
100
AcDbEntity
  8
SPOJOVACÍ
  6
Continuous
100
AcDbLine
 10
657.9926174713218
 20
856.9174555361032
 30
0.0
 11
657.7740261593025
 21
856.5398041607922
 31
0.0
  0
LINE
  5
A755
330
1F
100
AcDbEntity
  8
SPOJOVACÍ
  6
Continuous
100
AcDbLine
 10
657.9926174713218
 20
856.9174555361032
 30
0.0
 11
656.7926906948596
 21
852.1177484302542
 31
0.0
  0
LINE
  5
A756
330
1F
100
AcDbEntity
  8
SPOJOVACÍ
  6
Continuous
100
AcDbLine
 10
645.7663868114504
 20
855.5342841251048
 30
0.0
 11
645.4557080956765
 21
853.3799969836481
 31
0.0
  0
LINE
  5
A757
330
1F
100
AcDbEntity
  8
SPOJOVACÍ
  6
Continuous
100
AcDbLine
 10
646.1440381845786
 20
855.1566327541594
 30
0.0
 11
645.6733692319939
 21
853.7576483545935
 31
0.0
  0
LINE
  5
A758
330
1F
100
AcDbEntity
  8
SPOJOVACÍ
  6
Continuous
100
AcDbLine
 10
645.5477954994312
 20
855.1566327541594
 30
0.0
 11
645.0771265468465
 21
853.7576483545935
 31
0.0
  0
LINE
  5
A759
330
1F
100
AcDbEntity
  8
SPOJOVACÍ
  6
Continuous
100
AcDbLine
 10
645.4557080956765
 20
853.3799969836481
 30
0.0
 11
645.6733692319939
 21
853.7576483545935
 31
0.0
  0
LINE
  5
A75A
330
1F
100
AcDbEntity
  8
SPOJOVACÍ
  6
Continuous
100
AcDbLine
 10
645.4557080956765
 20
853.3799969836481
 30
0.0
 11
645.0771265468465
 21
853.7576483545935
 31
0.0
  0
LINE
  5
A75B
330
1F
100
AcDbEntity
  8
SPOJOVACÍ
  6
Continuous
100
AcDbLine
 10
645.7663868114504
 20
855.5342841251048
 30
0.0
 11
646.1440381845786
 21
855.1566327541594
 31
0.0
  0
LINE
  5
A75C
330
1F
100
AcDbEntity
  8
SPOJOVACÍ
  6
Continuous
100
AcDbLine
 10
645.7663868114504
 20
855.5342841251048
 30
0.0
 11
645.5477954994312
 21
855.1566327541594
 31
0.0
  0
LINE
  5
A75D
330
1F
100
AcDbEntity
  8
SPOJOVACÍ
  6
Continuous
100
AcDbLine
 10
648.7801563897701
 20
856.0989008355763
 30
0.0
 11
648.1467066730001
 21
852.9828119191451
 31
0.0
  0
LINE
  5
A75E
330
1F
100
AcDbEntity
  8
SPOJOVACÍ
  6
Continuous
100
AcDbLine
 10
649.1587379388765
 20
855.7212494602653
 30
0.0
 11
648.3643678090484
 21
853.3604632900905
 31
0.0
  0
LINE
  5
A75F
330
1F
100
AcDbEntity
  8
SPOJOVACÍ
  6
Continuous
100
AcDbLine
 10
648.5624952537218
 20
855.7212494602653
 30
0.0
 11
647.7681251241701
 21
853.3604632900905
 31
0.0
  0
LINE
  5
A760
330
1F
100
AcDbEntity
  8
SPOJOVACÍ
  6
Continuous
100
AcDbLine
 10
648.1467066730001
 20
852.9828119191451
 30
0.0
 11
648.3643678090484
 21
853.3604632900905
 31
0.0
  0
LINE
  5
A761
330
1F
100
AcDbEntity
  8
SPOJOVACÍ
  6
Continuous
100
AcDbLine
 10
648.1467066730001
 20
852.9828119191451
 30
0.0
 11
647.7681251241701
 21
853.3604632900905
 31
0.0
  0
LINE
  5
A762
330
1F
100
AcDbEntity
  8
SPOJOVACÍ
  6
Continuous
100
AcDbLine
 10
648.7801563897701
 20
856.0989008355763
 30
0.0
 11
649.1587379388765
 21
855.7212494602653
 31
0.0
  0
LINE
  5
A763
330
1F
100
AcDbEntity
  8
SPOJOVACÍ
  6
Continuous
100
AcDbLine
 10
648.7801563897701
 20
856.0989008355763
 30
0.0
 11
648.5624952537218
 21
855.7212494602653
 31
0.0
  0
LINE
  5
A764
330
1F
100
AcDbEntity
  8
SPOJOVACÍ
  6
Continuous
100
AcDbLine
 10
651.794856144068
 20
856.6635175416822
 30
0.0
 11
650.8218922617634
 21
852.5381878889392
 31
0.0
  0
LINE
  5
A765
330
1F
100
AcDbEntity
  8
SPOJOVACÍ
  6
Continuous
100
AcDbLine
 10
652.1725075171961
 20
856.2849359933979
 30
0.0
 11
651.0395533978116
 21
852.9158392598846
 31
0.0
  0
LINE
  5
A766
330
1F
100
AcDbEntity
  8
SPOJOVACÍ
  6
Continuous
100
AcDbLine
 10
651.5762648320414
 20
856.2849359933979
 30
0.0
 11
650.4433107126569
 21
852.9158392598846
 31
0.0
  0
LINE
  5
A767
330
1F
100
AcDbEntity
  8
SPOJOVACÍ
  6
Continuous
100
AcDbLine
 10
650.8218922617634
 20
852.5381878889392
 30
0.0
 11
651.0395533978116
 21
852.9158392598846
 31
0.0
  0
LINE
  5
A768
330
1F
100
AcDbEntity
  8
SPOJOVACÍ
  6
Continuous
100
AcDbLine
 10
650.8218922617634
 20
852.5381878889392
 30
0.0
 11
650.4433107126569
 21
852.9158392598846
 31
0.0
  0
LINE
  5
A769
330
1F
100
AcDbEntity
  8
SPOJOVACÍ
  6
Continuous
100
AcDbLine
 10
651.794856144068
 20
856.6635175416822
 30
0.0
 11
652.1725075171961
 21
856.2849359933979
 31
0.0
  0
LINE
  5
A76A
330
1F
100
AcDbEntity
  8
SPOJOVACÍ
  6
Continuous
100
AcDbLine
 10
651.794856144068
 20
856.6635175416822
 30
0.0
 11
651.5762648320414
 21
856.2849359933979
 31
0.0
  0
LINE
  5
A76B
330
1F
100
AcDbEntity
  8
SPOJOVACÍ
  6
Continuous
100
AcDbLine
 10
651.216286799161
 20
853.4134833110956
 30
0.0
 11
653.1873293104472
 21
853.1679168996278
 31
0.0
  0
LINE
  5
A76C
330
1F
100
AcDbEntity
  8
SPOJOVACÍ
  6
Continuous
100
AcDbLine
 10
648.5094752332624
 20
853.7520673036569
 30
0.0
 11
650.6460890361158
 21
853.4851068483193
 31
0.0
  0
LINE
  5
A76D
330
1F
100
AcDbEntity
  8
SPOJOVACÍ
  6
Continuous
100
AcDbLine
 10
645.7924317338292
 20
854.0915814648259
 30
0.0
 11
647.9374171188137
 21
853.8236908365151
 31
0.0
  0
LINE
  5
A76E
330
1F
100
AcDbEntity
  8
SPOJOVACÍ
  6
Continuous
100
AcDbLine
 10
645.4761719632988
 20
854.9036249370773
 30
0.0
 11
642.3870581454939
 21
854.5176019831787
 31
0.0
  0
LINE
  5
A76F
330
1F
100
AcDbEntity
  8
SPOJOVACÍ
  6
Continuous
100
AcDbLine
 10
648.4173878295077
 20
855.2710443747573
 30
0.0
 11
646.0965992191522
 21
854.9808295296033
 31
0.0
  0
LINE
  5
A770
330
1F
100
AcDbEntity
  8
SPOJOVACÍ
  6
Continuous
100
AcDbLine
 10
651.3697658052369
 20
855.640324167115
 30
0.0
 11
649.0480470191723
 21
855.3501093175954
 31
0.0
  0
LINE
  5
A771
330
1F
100
AcDbEntity
  8
SPOJOVACÍ
  6
Continuous
100
AcDbLine
 10
642.3870581454939
 20
854.5176019831787
 30
0.0
 11
645.2231641467624
 21
854.1632050020497
 31
0.0
  0
LINE
  5
A772
330
1F
100
AcDbEntity
  8
SPOJOVACÍ
  6
Continuous
100
AcDbLine
 10
653.1873293104472
 20
855.867287062364
 30
0.0
 11
651.9901930610903
 21
855.7175287596409
 31
0.0
  0
LINE
  5
A773
330
1F
100
AcDbEntity
  8
SPOJOVACÍ
  6
Continuous
100
AcDbLine
 10
653.5240529483307
 20
853.1679168996278
 30
0.0
 11
653.1873293104472
 21
853.1679168996278
 31
0.0
  0
LINE
  5
A774
330
1F
100
AcDbEntity
  8
SPOJOVACÍ
  6
Continuous
100
AcDbLine
 10
656.6466530949437
 20
853.1679168996278
 30
0.0
 11
654.1277370399147
 21
853.1679168996278
 31
0.0
  0
LINE
  5
A775
330
1F
100
AcDbEntity
  8
SPOJOVACÍ
  6
Continuous
100
AcDbLine
 10
654.4346950523358
 20
855.867287062364
 30
0.0
 11
653.1873293104472
 21
855.867287062364
 31
0.0
  0
LINE
  5
A776
330
1F
100
AcDbEntity
  8
SPOJOVACÍ
  6
Continuous
100
AcDbLine
 10
657.5489236168177
 20
855.867287062364
 30
0.0
 11
655.0309377374905
 21
855.867287062364
 31
0.0
  0
LINE
  5
A777
330
1F
100
AcDbEntity
  8
SPOJOVACÍ
  6
Continuous
100
AcDbLine
 10
659.7683230655857
 20
853.1679168996278
 30
0.0
 11
657.2475466588766
 21
853.1679168996278
 31
0.0
  0
LINE
  5
A778
330
1F
100
AcDbEntity
  8
SPOJOVACÍ
  6
Continuous
100
AcDbLine
 10
660.6817556969726
 20
855.867287062364
 30
0.0
 11
658.1535378841035
 21
855.867287062364
 31
0.0
  0
LINE
  5
A779
330
1F
100
AcDbEntity
  8
SPOJOVACÍ
  6
Continuous
100
AcDbLine
 10
475.1439832622345
 20
733.609051921966
 30
0.0
 11
477.6722010751036
 21
733.609051921966
 31
0.0
  0
LINE
  5
A77A
330
1F
100
AcDbEntity
  8
SPOJOVACÍ
  6
Continuous
100
AcDbLine
 10
476.0574158936215
 20
730.9096817592299
 30
0.0
 11
478.5781923003305
 21
730.9096817592299
 31
0.0
  0
LINE
  5
A77B
330
1F
100
AcDbEntity
  8
SPOJOVACÍ
  6
Continuous
100
AcDbLine
 10
478.2768153423894
 20
733.609051921966
 30
0.0
 11
480.7948012217166
 21
733.609051921966
 31
0.0
  0
LINE
  5
A77C
330
1F
100
AcDbEntity
  8
SPOJOVACÍ
  6
Continuous
100
AcDbLine
 10
481.3910439068713
 20
733.609051921966
 30
0.0
 11
482.63840964876
 21
733.609051921966
 31
0.0
  0
LINE
  5
A77D
330
1F
100
AcDbEntity
  8
SPOJOVACÍ
  6
Continuous
100
AcDbLine
 10
479.1790858642634
 20
730.9096817592299
 30
0.0
 11
481.6980019192924
 21
730.9096817592299
 31
0.0
  0
LINE
  5
A77E
330
1F
100
AcDbEntity
  8
SPOJOVACÍ
  6
Continuous
100
AcDbLine
 10
482.3016860108764
 20
730.9096817592299
 30
0.0
 11
482.63840964876
 21
730.9096817592299
 31
0.0
  0
LINE
  5
A77F
330
1F
100
AcDbEntity
  8
SPOJOVACÍ
  6
Continuous
100
AcDbLine
 10
482.63840964876
 20
733.609051921966
 30
0.0
 11
483.8355458981168
 21
733.459293619243
 31
0.0
  0
LINE
  5
A780
330
1F
100
AcDbEntity
  8
SPOJOVACÍ
  6
Continuous
100
AcDbLine
 10
493.4386808137133
 20
732.2593668427807
 30
0.0
 11
490.6025748124448
 21
731.9049698616518
 31
0.0
  0
LINE
  5
A781
330
1F
100
AcDbEntity
  8
SPOJOVACÍ
  6
Continuous
100
AcDbLine
 10
484.4559731539702
 20
733.382089026717
 30
0.0
 11
486.7776919400348
 21
733.0918741771975
 31
0.0
  0
LINE
  5
A782
330
1F
100
AcDbEntity
  8
SPOJOVACÍ
  6
Continuous
100
AcDbLine
 10
487.4083511296994
 20
733.0128092343593
 30
0.0
 11
489.7291397400549
 21
732.7225943892053
 31
0.0
  0
LINE
  5
A783
330
1F
100
AcDbEntity
  8
SPOJOVACÍ
  6
Continuous
100
AcDbLine
 10
490.3495669959084
 20
732.6453897966794
 30
0.0
 11
493.4386808137133
 21
732.2593668427807
 31
0.0
  0
LINE
  5
A784
330
1F
100
AcDbEntity
  8
SPOJOVACÍ
  6
Continuous
100
AcDbLine
 10
490.0333072253779
 20
731.833346324428
 30
0.0
 11
487.8883218403935
 21
731.5654556961171
 31
0.0
  0
LINE
  5
A785
330
1F
100
AcDbEntity
  8
SPOJOVACÍ
  6
Continuous
100
AcDbLine
 10
487.3162637259447
 20
731.4938321632589
 30
0.0
 11
485.1796499230913
 21
731.2268717079214
 31
0.0
  0
LINE
  5
A786
330
1F
100
AcDbEntity
  8
SPOJOVACÍ
  6
Continuous
100
AcDbLine
 10
484.6094521600462
 20
731.1552481706976
 30
0.0
 11
482.63840964876
 21
730.9096817592299
 31
0.0
  0
LINE
  5
A787
330
1F
100
AcDbEntity
  8
SPOJOVACÍ
  6
Continuous
100
AcDbLine
 10
484.0308828151392
 20
734.4052824012842
 30
0.0
 11
484.2494741271657
 21
734.0267008529999
 31
0.0
  0
LINE
  5
A788
330
1F
100
AcDbEntity
  8
SPOJOVACÍ
  6
Continuous
100
AcDbLine
 10
484.0308828151392
 20
734.4052824012842
 30
0.0
 11
483.653231442011
 21
734.0267008529999
 31
0.0
  0
LINE
  5
A789
330
1F
100
AcDbEntity
  8
SPOJOVACÍ
  6
Continuous
100
AcDbLine
 10
485.0038466974438
 20
730.2799527485412
 30
0.0
 11
485.3824282465502
 21
730.6576041194866
 31
0.0
  0
LINE
  5
A78A
330
1F
100
AcDbEntity
  8
SPOJOVACÍ
  6
Continuous
100
AcDbLine
 10
485.0038466974438
 20
730.2799527485412
 30
0.0
 11
484.7861855613955
 21
730.6576041194866
 31
0.0
  0
LINE
  5
A78B
330
1F
100
AcDbEntity
  8
SPOJOVACÍ
  6
Continuous
100
AcDbLine
 10
484.2494741271657
 20
734.0267008529999
 30
0.0
 11
485.3824282465502
 21
730.6576041194866
 31
0.0
  0
LINE
  5
A78C
330
1F
100
AcDbEntity
  8
SPOJOVACÍ
  6
Continuous
100
AcDbLine
 10
483.653231442011
 20
734.0267008529999
 30
0.0
 11
484.7861855613955
 21
730.6576041194866
 31
0.0
  0
LINE
  5
A78D
330
1F
100
AcDbEntity
  8
SPOJOVACÍ
  6
Continuous
100
AcDbLine
 10
484.0308828151392
 20
734.4052824012842
 30
0.0
 11
485.0038466974438
 21
730.2799527485412
 31
0.0
  0
LINE
  5
A78E
330
1F
100
AcDbEntity
  8
SPOJOVACÍ
  6
Continuous
100
AcDbLine
 10
487.0455825694371
 20
733.8406656951783
 30
0.0
 11
487.2632437054853
 21
733.4630143198674
 31
0.0
  0
LINE
  5
A78F
330
1F
100
AcDbEntity
  8
SPOJOVACÍ
  6
Continuous
100
AcDbLine
 10
487.0455825694371
 20
733.8406656951783
 30
0.0
 11
486.6670010203306
 21
733.4630143198674
 31
0.0
  0
LINE
  5
A790
330
1F
100
AcDbEntity
  8
SPOJOVACÍ
  6
Continuous
100
AcDbLine
 10
487.6790322862071
 20
730.7245767787471
 30
0.0
 11
488.057613835037
 21
731.1022281496925
 31
0.0
  0
LINE
  5
A791
330
1F
100
AcDbEntity
  8
SPOJOVACÍ
  6
Continuous
100
AcDbLine
 10
487.6790322862071
 20
730.7245767787471
 30
0.0
 11
487.4613711501588
 21
731.1022281496925
 31
0.0
  0
LINE
  5
A792
330
1F
100
AcDbEntity
  8
SPOJOVACÍ
  6
Continuous
100
AcDbLine
 10
487.2632437054853
 20
733.4630143198674
 30
0.0
 11
488.057613835037
 21
731.1022281496925
 31
0.0
  0
LINE
  5
A793
330
1F
100
AcDbEntity
  8
SPOJOVACÍ
  6
Continuous
100
AcDbLine
 10
486.6670010203306
 20
733.4630143198674
 30
0.0
 11
487.4613711501588
 21
731.1022281496925
 31
0.0
  0
LINE
  5
A794
330
1F
100
AcDbEntity
  8
SPOJOVACÍ
  6
Continuous
100
AcDbLine
 10
487.0455825694371
 20
733.8406656951783
 30
0.0
 11
487.6790322862071
 21
730.7245767787471
 31
0.0
  0
LINE
  5
A795
330
1F
100
AcDbEntity
  8
SPOJOVACÍ
  6
Continuous
100
AcDbLine
 10
490.0593521477567
 20
733.2760489847069
 30
0.0
 11
490.277943459776
 21
732.8983976137615
 31
0.0
  0
LINE
  5
A796
330
1F
100
AcDbEntity
  8
SPOJOVACÍ
  6
Continuous
100
AcDbLine
 10
490.0593521477567
 20
733.2760489847069
 30
0.0
 11
489.6817007746285
 21
732.8983976137615
 31
0.0
  0
LINE
  5
A797
330
1F
100
AcDbEntity
  8
SPOJOVACÍ
  6
Continuous
100
AcDbLine
 10
490.3700308635307
 20
731.1217618432501
 30
0.0
 11
490.7486124123606
 21
731.4994132141955
 31
0.0
  0
LINE
  5
A798
330
1F
100
AcDbEntity
  8
SPOJOVACÍ
  6
Continuous
100
AcDbLine
 10
490.3700308635307
 20
731.1217618432501
 30
0.0
 11
490.1523697272132
 21
731.4994132141955
 31
0.0
  0
LINE
  5
A799
330
1F
100
AcDbEntity
  8
SPOJOVACÍ
  6
Continuous
100
AcDbLine
 10
490.277943459776
 20
732.8983976137615
 30
0.0
 11
490.7486124123606
 21
731.4994132141955
 31
0.0
  0
LINE
  5
A79A
330
1F
100
AcDbEntity
  8
SPOJOVACÍ
  6
Continuous
100
AcDbLine
 10
489.6817007746285
 20
732.8983976137615
 30
0.0
 11
490.1523697272132
 21
731.4994132141955
 31
0.0
  0
LINE
  5
A79B
330
1F
100
AcDbEntity
  8
SPOJOVACÍ
  6
Continuous
100
AcDbLine
 10
490.0593521477567
 20
733.2760489847069
 30
0.0
 11
490.3700308635307
 21
731.1217618432501
 31
0.0
  0
LINE
  5
A79C
330
1F
100
AcDbEntity
  8
SPOJOVACÍ
  6
Continuous
100
AcDbLine
 10
477.8331214878853
 20
734.6592203957052
 30
0.0
 11
479.0330482643476
 21
729.8595132898562
 31
0.0
  0
LINE
  5
A79D
330
1F
100
AcDbEntity
  8
SPOJOVACÍ
  6
Continuous
100
AcDbLine
 10
477.8331214878853
 20
734.6592203957052
 30
0.0
 11
478.0517127999046
 21
734.2815690203942
 31
0.0
  0
LINE
  5
A79E
330
1F
100
AcDbEntity
  8
SPOJOVACÍ
  6
Continuous
100
AcDbLine
 10
477.8331214878853
 20
734.6592203957052
 30
0.0
 11
477.4554701147572
 21
734.2815690203942
 31
0.0
  0
LINE
  5
A79F
330
1F
100
AcDbEntity
  8
SPOJOVACÍ
  6
Continuous
100
AcDbLine
 10
479.0330482643476
 20
729.8595132898562
 30
0.0
 11
479.4116298131775
 21
730.2371646608016
 31
0.0
  0
LINE
  5
A7A0
330
1F
100
AcDbEntity
  8
SPOJOVACÍ
  6
Continuous
100
AcDbLine
 10
479.0330482643476
 20
729.8595132898562
 30
0.0
 11
478.8153871282993
 21
730.2371646608016
 31
0.0
  0
LINE
  5
A7A1
330
1F
100
AcDbEntity
  8
SPOJOVACÍ
  6
Continuous
100
AcDbLine
 10
478.0517127999046
 20
734.2815690203942
 30
0.0
 11
479.4116298131775
 21
730.2371646608016
 31
0.0
  0
LINE
  5
A7A2
330
1F
100
AcDbEntity
  8
SPOJOVACÍ
  6
Continuous
100
AcDbLine
 10
477.4554701147572
 20
734.2815690203942
 30
0.0
 11
478.8153871282993
 21
730.2371646608016
 31
0.0
  0
LINE
  5
A7A3
330
1F
100
AcDbEntity
  8
SPOJOVACÍ
  6
Continuous
100
AcDbLine
 10
480.9538612828255
 20
734.6592203957052
 30
0.0
 11
482.1537880592877
 21
729.8595132898562
 31
0.0
  0
LINE
  5
A7A4
330
1F
100
AcDbEntity
  8
SPOJOVACÍ
  6
Continuous
100
AcDbLine
 10
480.9538612828255
 20
734.6592203957052
 30
0.0
 11
481.1715224188738
 21
734.2815690203942
 31
0.0
  0
LINE
  5
A7A5
330
1F
100
AcDbEntity
  8
SPOJOVACÍ
  6
Continuous
100
AcDbLine
 10
480.9538612828255
 20
734.6592203957052
 30
0.0
 11
480.575279733719
 21
734.2815690203942
 31
0.0
  0
LINE
  5
A7A6
330
1F
100
AcDbEntity
  8
SPOJOVACÍ
  6
Continuous
100
AcDbLine
 10
482.1537880592877
 20
729.8595132898562
 30
0.0
 11
482.5314394324159
 21
730.2371646608016
 31
0.0
  0
LINE
  5
A7A7
330
1F
100
AcDbEntity
  8
SPOJOVACÍ
  6
Continuous
100
AcDbLine
 10
482.1537880592877
 20
729.8595132898562
 30
0.0
 11
481.9351967472612
 21
730.2371646608016
 31
0.0
  0
LINE
  5
A7A8
330
1F
100
AcDbEntity
  8
SPOJOVACÍ
  6
Continuous
100
AcDbLine
 10
481.1715224188738
 20
734.2815690203942
 30
0.0
 11
482.5314394324159
 21
730.2371646608016
 31
0.0
  0
LINE
  5
A7A9
330
1F
100
AcDbEntity
  8
SPOJOVACÍ
  6
Continuous
100
AcDbLine
 10
480.575279733719
 20
734.2815690203942
 30
0.0
 11
481.9351967472612
 21
730.2371646608016
 31
0.0
  0
LINE
  5
A7AA
330
1F
100
AcDbEntity
  8
SPOJOVACÍ
  6
Continuous
100
AcDbLine
 10
461.3355235737181
 20
730.0697330191987
 30
0.0
 11
459.8110992640504
 21
728.8600588747222
 31
0.0
  0
LINE
  5
A7AB
330
1F
100
AcDbEntity
  8
SPOJOVACÍ
  6
Continuous
100
AcDbLine
 10
462.7493907834214
 20
730.6827188683464
 30
0.0
 11
461.3355235737181
 21
730.0697330191987
 31
0.0
  0
LINE
  5
A7AC
330
1F
100
AcDbEntity
  8
SPOJOVACÍ
  6
Continuous
100
AcDbLine
 10
464.2730187368506
 20
730.9096817592299
 30
0.0
 11
462.7493907834214
 21
730.6827188683464
 31
0.0
  0
LINE
  5
A7AD
330
1F
100
AcDbEntity
  8
SPOJOVACÍ
  6
Continuous
100
AcDbLine
 10
457.6734214657626
 20
737.3595207314147
 30
0.0
 11
458.8733482424941
 21
737.3595207314147
 31
0.0
  0
LINE
  5
A7AE
330
1F
100
AcDbEntity
  8
SPOJOVACÍ
  6
Continuous
100
AcDbLine
 10
463.4860900137282
 20
733.6750944038876
 30
0.0
 11
464.2730187368506
 21
733.609051921966
 31
0.0
  0
LINE
  5
A7AF
330
1F
100
AcDbEntity
  8
SPOJOVACÍ
  6
Continuous
100
AcDbLine
 10
462.005250146678
 20
734.102975268187
 30
0.0
 11
463.4860900137282
 21
733.6750944038876
 31
0.0
  0
LINE
  5
A7B0
330
1F
100
AcDbEntity
  8
SPOJOVACÍ
  6
Continuous
100
AcDbLine
 10
460.6862608683805
 20
734.8992057475052
 30
0.0
 11
462.005250146678
 21
734.102975268187
 31
0.0
  0
LINE
  5
A7B1
330
1F
100
AcDbEntity
  8
SPOJOVACÍ
  6
Continuous
100
AcDbLine
 10
459.6174888789683
 20
736.0098356478638
 30
0.0
 11
460.6862608683805
 21
734.8992057475052
 31
0.0
  0
LINE
  5
A7B2
330
1F
100
AcDbEntity
  8
SPOJOVACÍ
  6
Continuous
100
AcDbLine
 10
458.8733482424941
 20
737.3595207314147
 30
0.0
 11
459.6174888789683
 21
736.0098356478638
 31
0.0
  0
LINE
  5
A7B3
330
1F
100
AcDbEntity
  8
SPOJOVACÍ
  6
Continuous
100
AcDbLine
 10
464.2730187368506
 20
730.9096817592299
 30
0.0
 11
469.2159729157793
 21
730.9096817592299
 31
0.0
  0
LINE
  5
A7B4
330
1F
100
AcDbEntity
  8
SPOJOVACÍ
  6
Continuous
100
AcDbLine
 10
464.2730187368506
 20
733.609051921966
 30
0.0
 11
468.3109118665306
 21
733.609051921966
 31
0.0
  0
LINE
  5
A7B5
330
1F
100
AcDbEntity
  8
SPOJOVACÍ
  6
Continuous
100
AcDbLine
 10
468.9062243757071
 20
733.609051921966
 30
0.0
 11
471.425140430736
 21
733.609051921966
 31
0.0
  0
LINE
  5
A7B6
330
1F
100
AcDbEntity
  8
SPOJOVACÍ
  6
Continuous
100
AcDbLine
 10
472.0288245220508
 20
733.609051921966
 30
0.0
 11
474.5496009287599
 21
733.609051921966
 31
0.0
  0
LINE
  5
A7B7
330
1F
100
AcDbEntity
  8
SPOJOVACÍ
  6
Continuous
100
AcDbLine
 10
469.819657007094
 20
730.9096817592299
 30
0.0
 11
472.338573062123
 21
730.9096817592299
 31
0.0
  0
LINE
  5
A7B8
330
1F
100
AcDbEntity
  8
SPOJOVACÍ
  6
Continuous
100
AcDbLine
 10
472.9348157472777
 20
730.9096817592299
 30
0.0
 11
475.4630335601468
 21
730.9096817592299
 31
0.0
  0
LINE
  5
A7B9
330
1F
100
AcDbEntity
  8
SPOJOVACÍ
  6
Continuous
100
AcDbLine
 10
468.4736926307159
 20
734.6592203957052
 30
0.0
 11
469.6736194071782
 21
729.8595132898562
 31
0.0
  0
LINE
  5
A7BA
330
1F
100
AcDbEntity
  8
SPOJOVACÍ
  6
Continuous
100
AcDbLine
 10
468.4736926307159
 20
734.6592203957052
 30
0.0
 11
468.6913537667642
 21
734.2815690203942
 31
0.0
  0
LINE
  5
A7BB
330
1F
100
AcDbEntity
  8
SPOJOVACÍ
  6
Continuous
100
AcDbLine
 10
468.4736926307159
 20
734.6592203957052
 30
0.0
 11
468.095111081886
 21
734.2815690203942
 31
0.0
  0
LINE
  5
A7BC
330
1F
100
AcDbEntity
  8
SPOJOVACÍ
  6
Continuous
100
AcDbLine
 10
469.6736194071782
 20
729.8595132898562
 30
0.0
 11
470.0512707803063
 21
730.2371646608016
 31
0.0
  0
LINE
  5
A7BD
330
1F
100
AcDbEntity
  8
SPOJOVACÍ
  6
Continuous
100
AcDbLine
 10
469.6736194071782
 20
729.8595132898562
 30
0.0
 11
469.4550280951516
 21
730.2371646608016
 31
0.0
  0
LINE
  5
A7BE
330
1F
100
AcDbEntity
  8
SPOJOVACÍ
  6
Continuous
100
AcDbLine
 10
468.6913537667642
 20
734.2815690203942
 30
0.0
 11
470.0512707803063
 21
730.2371646608016
 31
0.0
  0
LINE
  5
A7BF
330
1F
100
AcDbEntity
  8
SPOJOVACÍ
  6
Continuous
100
AcDbLine
 10
468.095111081886
 20
734.2815690203942
 30
0.0
 11
469.4550280951516
 21
730.2371646608016
 31
0.0
  0
LINE
  5
A7C0
330
1F
100
AcDbEntity
  8
SPOJOVACÍ
  6
Continuous
100
AcDbLine
 10
471.5935022496778
 20
734.6592203957052
 30
0.0
 11
472.7934290264165
 21
729.8595132898562
 31
0.0
  0
LINE
  5
A7C1
330
1F
100
AcDbEntity
  8
SPOJOVACÍ
  6
Continuous
100
AcDbLine
 10
471.5935022496778
 20
734.6592203957052
 30
0.0
 11
471.8120935617044
 21
734.2815690203942
 31
0.0
  0
LINE
  5
A7C2
330
1F
100
AcDbEntity
  8
SPOJOVACÍ
  6
Continuous
100
AcDbLine
 10
471.5935022496778
 20
734.6592203957052
 30
0.0
 11
471.2158508765496
 21
734.2815690203942
 31
0.0
  0
LINE
  5
A7C3
330
1F
100
AcDbEntity
  8
SPOJOVACÍ
  6
Continuous
100
AcDbLine
 10
472.7934290264165
 20
729.8595132898562
 30
0.0
 11
473.1710803992682
 21
730.2371646608016
 31
0.0
  0
LINE
  5
A7C4
330
1F
100
AcDbEntity
  8
SPOJOVACÍ
  6
Continuous
100
AcDbLine
 10
472.7934290264165
 20
729.8595132898562
 30
0.0
 11
472.57483771439
 21
730.2371646608016
 31
0.0
  0
LINE
  5
A7C5
330
1F
100
AcDbEntity
  8
SPOJOVACÍ
  6
Continuous
100
AcDbLine
 10
471.8120935617044
 20
734.2815690203942
 30
0.0
 11
473.1710803992682
 21
730.2371646608016
 31
0.0
  0
LINE
  5
A7C6
330
1F
100
AcDbEntity
  8
SPOJOVACÍ
  6
Continuous
100
AcDbLine
 10
471.2158508765496
 20
734.2815690203942
 30
0.0
 11
472.57483771439
 21
730.2371646608016
 31
0.0
  0
LINE
  5
A7C7
330
1F
100
AcDbEntity
  8
SPOJOVACÍ
  6
Continuous
100
AcDbLine
 10
474.7133118689162
 20
734.6592203957052
 30
0.0
 11
475.9132386453784
 21
729.8595132898562
 31
0.0
  0
LINE
  5
A7C8
330
1F
100
AcDbEntity
  8
SPOJOVACÍ
  6
Continuous
100
AcDbLine
 10
474.7133118689162
 20
734.6592203957052
 30
0.0
 11
474.9319031809427
 21
734.2815690203942
 31
0.0
  0
LINE
  5
A7C9
330
1F
100
AcDbEntity
  8
SPOJOVACÍ
  6
Continuous
100
AcDbLine
 10
474.7133118689162
 20
734.6592203957052
 30
0.0
 11
474.335660495788
 21
734.2815690203942
 31
0.0
  0
LINE
  5
A7CA
330
1F
100
AcDbEntity
  8
SPOJOVACÍ
  6
Continuous
100
AcDbLine
 10
475.9132386453784
 20
729.8595132898562
 30
0.0
 11
476.2918201942084
 21
730.2371646608016
 31
0.0
  0
LINE
  5
A7CB
330
1F
100
AcDbEntity
  8
SPOJOVACÍ
  6
Continuous
100
AcDbLine
 10
475.9132386453784
 20
729.8595132898562
 30
0.0
 11
475.6955775090609
 21
730.2371646608016
 31
0.0
  0
LINE
  5
A7CC
330
1F
100
AcDbEntity
  8
SPOJOVACÍ
  6
Continuous
100
AcDbLine
 10
474.9319031809427
 20
734.2815690203942
 30
0.0
 11
476.2918201942084
 21
730.2371646608016
 31
0.0
  0
LINE
  5
A7CD
330
1F
100
AcDbEntity
  8
SPOJOVACÍ
  6
Continuous
100
AcDbLine
 10
474.335660495788
 20
734.2815690203942
 30
0.0
 11
475.6955775090609
 21
730.2371646608016
 31
0.0
  0
LINE
  5
A7CE
330
1F
100
AcDbEntity
  8
SPOJOVACÍ
  6
Continuous
100
AcDbLine
 10
458.8733482424941
 20
737.3595207314147
 30
0.0
 11
458.8733482424941
 21
727.1592129541468
 31
0.0
  0
LINE
  5
A7CF
330
1F
100
AcDbEntity
  8
SPOJOVACÍ
  6
Continuous
100
AcDbLine
 10
457.6734214657626
 20
727.1592129541468
 30
0.0
 11
458.8733482424941
 21
727.1592129541468
 31
0.0
  0
LINE
  5
A7D0
330
1F
100
AcDbEntity
  8
SPOJOVACÍ
  6
Continuous
100
AcDbLine
 10
457.6734214657626
 20
737.3595207314147
 30
0.0
 11
457.6734214657626
 21
727.1592129541468
 31
0.0
  0
LINE
  5
A7D1
330
1F
100
AcDbEntity
  8
SPOJOVACÍ
  6
Continuous
100
AcDbLine
 10
458.8733482424941
 20
727.1592129541468
 30
0.0
 11
459.8110992640504
 21
728.8600588747222
 31
0.0
  0
LINE
  5
A7D2
330
1F
100
AcDbEntity
  8
SPOJOVACÍ
  6
Continuous
100
AcDbLine
 10
676.9523907167131
 20
727.1592129541468
 30
0.0
 11
676.0146396951568
 21
728.8600588747222
 31
0.0
  0
LINE
  5
A7D3
330
1F
100
AcDbEntity
  8
SPOJOVACÍ
  6
Continuous
100
AcDbLine
 10
678.1523174934445
 20
737.3595207314147
 30
0.0
 11
678.1523174934445
 21
727.1592129541468
 31
0.0
  0
LINE
  5
A7D4
330
1F
100
AcDbEntity
  8
SPOJOVACÍ
  6
Continuous
100
AcDbLine
 10
678.1523174934445
 20
727.1592129541468
 30
0.0
 11
676.9523907167131
 21
727.1592129541468
 31
0.0
  0
LINE
  5
A7D5
330
1F
100
AcDbEntity
  8
SPOJOVACÍ
  6
Continuous
100
AcDbLine
 10
676.9523907167131
 20
737.3595207314147
 30
0.0
 11
676.9523907167131
 21
727.1592129541468
 31
0.0
  0
LINE
  5
A7D6
330
1F
100
AcDbEntity
  8
SPOJOVACÍ
  6
Continuous
100
AcDbLine
 10
661.4900784634191
 20
734.2815690203942
 30
0.0
 11
660.1301614501462
 21
730.2371646608016
 31
0.0
  0
LINE
  5
A7D7
330
1F
100
AcDbEntity
  8
SPOJOVACÍ
  6
Continuous
100
AcDbLine
 10
660.8938357782644
 20
734.2815690203942
 30
0.0
 11
659.5339187649988
 21
730.2371646608016
 31
0.0
  0
LINE
  5
A7D8
330
1F
100
AcDbEntity
  8
SPOJOVACÍ
  6
Continuous
100
AcDbLine
 10
659.9125003138287
 20
729.8595132898562
 30
0.0
 11
660.1301614501462
 21
730.2371646608016
 31
0.0
  0
LINE
  5
A7D9
330
1F
100
AcDbEntity
  8
SPOJOVACÍ
  6
Continuous
100
AcDbLine
 10
659.9125003138287
 20
729.8595132898562
 30
0.0
 11
659.5339187649988
 21
730.2371646608016
 31
0.0
  0
LINE
  5
A7DA
330
1F
100
AcDbEntity
  8
SPOJOVACÍ
  6
Continuous
100
AcDbLine
 10
661.112427090291
 20
734.6592203957052
 30
0.0
 11
661.4900784634191
 21
734.2815690203942
 31
0.0
  0
LINE
  5
A7DB
330
1F
100
AcDbEntity
  8
SPOJOVACÍ
  6
Continuous
100
AcDbLine
 10
661.112427090291
 20
734.6592203957052
 30
0.0
 11
660.8938357782644
 21
734.2815690203942
 31
0.0
  0
LINE
  5
A7DC
330
1F
100
AcDbEntity
  8
SPOJOVACÍ
  6
Continuous
100
AcDbLine
 10
661.112427090291
 20
734.6592203957052
 30
0.0
 11
659.9125003138287
 21
729.8595132898562
 31
0.0
  0
LINE
  5
A7DD
330
1F
100
AcDbEntity
  8
SPOJOVACÍ
  6
Continuous
100
AcDbLine
 10
664.6098880826575
 20
734.2815690203942
 30
0.0
 11
663.2509012448172
 21
730.2371646608016
 31
0.0
  0
LINE
  5
A7DE
330
1F
100
AcDbEntity
  8
SPOJOVACÍ
  6
Continuous
100
AcDbLine
 10
664.0136453975028
 20
734.2815690203942
 30
0.0
 11
662.6546585599389
 21
730.2371646608016
 31
0.0
  0
LINE
  5
A7DF
330
1F
100
AcDbEntity
  8
SPOJOVACÍ
  6
Continuous
100
AcDbLine
 10
663.0323099327906
 20
729.8595132898562
 30
0.0
 11
663.2509012448172
 21
730.2371646608016
 31
0.0
  0
LINE
  5
A7E0
330
1F
100
AcDbEntity
  8
SPOJOVACÍ
  6
Continuous
100
AcDbLine
 10
663.0323099327906
 20
729.8595132898562
 30
0.0
 11
662.6546585599389
 21
730.2371646608016
 31
0.0
  0
LINE
  5
A7E1
330
1F
100
AcDbEntity
  8
SPOJOVACÍ
  6
Continuous
100
AcDbLine
 10
664.2322367095293
 20
734.6592203957052
 30
0.0
 11
664.6098880826575
 21
734.2815690203942
 31
0.0
  0
LINE
  5
A7E2
330
1F
100
AcDbEntity
  8
SPOJOVACÍ
  6
Continuous
100
AcDbLine
 10
664.2322367095293
 20
734.6592203957052
 30
0.0
 11
664.0136453975028
 21
734.2815690203942
 31
0.0
  0
LINE
  5
A7E3
330
1F
100
AcDbEntity
  8
SPOJOVACÍ
  6
Continuous
100
AcDbLine
 10
664.2322367095293
 20
734.6592203957052
 30
0.0
 11
663.0323099327906
 21
729.8595132898562
 31
0.0
  0
LINE
  5
A7E4
330
1F
100
AcDbEntity
  8
SPOJOVACÍ
  6
Continuous
100
AcDbLine
 10
667.7306278773212
 20
734.2815690203942
 30
0.0
 11
666.3707108640555
 21
730.2371646608016
 31
0.0
  0
LINE
  5
A7E5
330
1F
100
AcDbEntity
  8
SPOJOVACÍ
  6
Continuous
100
AcDbLine
 10
667.1343851924429
 20
734.2815690203942
 30
0.0
 11
665.7744681789008
 21
730.2371646608016
 31
0.0
  0
LINE
  5
A7E6
330
1F
100
AcDbEntity
  8
SPOJOVACÍ
  6
Continuous
100
AcDbLine
 10
666.152119552029
 20
729.8595132898562
 30
0.0
 11
666.3707108640555
 21
730.2371646608016
 31
0.0
  0
LINE
  5
A7E7
330
1F
100
AcDbEntity
  8
SPOJOVACÍ
  6
Continuous
100
AcDbLine
 10
666.152119552029
 20
729.8595132898562
 30
0.0
 11
665.7744681789008
 21
730.2371646608016
 31
0.0
  0
LINE
  5
A7E8
330
1F
100
AcDbEntity
  8
SPOJOVACÍ
  6
Continuous
100
AcDbLine
 10
667.3520463284912
 20
734.6592203957052
 30
0.0
 11
667.7306278773212
 21
734.2815690203942
 31
0.0
  0
LINE
  5
A7E9
330
1F
100
AcDbEntity
  8
SPOJOVACÍ
  6
Continuous
100
AcDbLine
 10
667.3520463284912
 20
734.6592203957052
 30
0.0
 11
667.1343851924429
 21
734.2815690203942
 31
0.0
  0
LINE
  5
A7EA
330
1F
100
AcDbEntity
  8
SPOJOVACÍ
  6
Continuous
100
AcDbLine
 10
667.3520463284912
 20
734.6592203957052
 30
0.0
 11
666.152119552029
 21
729.8595132898562
 31
0.0
  0
LINE
  5
A7EB
330
1F
100
AcDbEntity
  8
SPOJOVACÍ
  6
Continuous
100
AcDbLine
 10
662.8909232119294
 20
730.9096817592299
 30
0.0
 11
660.3627053990603
 21
730.9096817592299
 31
0.0
  0
LINE
  5
A7EC
330
1F
100
AcDbEntity
  8
SPOJOVACÍ
  6
Continuous
100
AcDbLine
 10
666.0060819521131
 20
730.9096817592299
 30
0.0
 11
663.4871658970841
 21
730.9096817592299
 31
0.0
  0
LINE
  5
A7ED
330
1F
100
AcDbEntity
  8
SPOJOVACÍ
  6
Continuous
100
AcDbLine
 10
663.7969144371563
 20
733.609051921966
 30
0.0
 11
661.2761380304473
 21
733.609051921966
 31
0.0
  0
LINE
  5
A7EE
330
1F
100
AcDbEntity
  8
SPOJOVACÍ
  6
Continuous
100
AcDbLine
 10
666.9195145835001
 20
733.609051921966
 30
0.0
 11
664.4005985284711
 21
733.609051921966
 31
0.0
  0
LINE
  5
A7EF
330
1F
100
AcDbEntity
  8
SPOJOVACÍ
  6
Continuous
100
AcDbLine
 10
671.5527202223565
 20
733.609051921966
 30
0.0
 11
667.5148270926765
 21
733.609051921966
 31
0.0
  0
LINE
  5
A7F0
330
1F
100
AcDbEntity
  8
SPOJOVACÍ
  6
Continuous
100
AcDbLine
 10
671.5527202223565
 20
730.9096817592299
 30
0.0
 11
666.6097660434279
 21
730.9096817592299
 31
0.0
  0
LINE
  5
A7F1
330
1F
100
AcDbEntity
  8
SPOJOVACÍ
  6
Continuous
100
AcDbLine
 10
676.9523907167131
 20
737.3595207314147
 30
0.0
 11
676.2082500802389
 21
736.0098356478638
 31
0.0
  0
LINE
  5
A7F2
330
1F
100
AcDbEntity
  8
SPOJOVACÍ
  6
Continuous
100
AcDbLine
 10
676.2082500802389
 20
736.0098356478638
 30
0.0
 11
675.1394780908267
 21
734.8992057475052
 31
0.0
  0
LINE
  5
A7F3
330
1F
100
AcDbEntity
  8
SPOJOVACÍ
  6
Continuous
100
AcDbLine
 10
675.1394780908267
 20
734.8992057475052
 30
0.0
 11
673.8204888125292
 21
734.102975268187
 31
0.0
  0
LINE
  5
A7F4
330
1F
100
AcDbEntity
  8
SPOJOVACÍ
  6
Continuous
100
AcDbLine
 10
673.8204888125292
 20
734.102975268187
 30
0.0
 11
672.3396489454789
 21
733.6750944038876
 31
0.0
  0
LINE
  5
A7F5
330
1F
100
AcDbEntity
  8
SPOJOVACÍ
  6
Continuous
100
AcDbLine
 10
672.3396489454789
 20
733.6750944038876
 30
0.0
 11
671.5527202223565
 21
733.609051921966
 31
0.0
  0
LINE
  5
A7F6
330
1F
100
AcDbEntity
  8
SPOJOVACÍ
  6
Continuous
100
AcDbLine
 10
678.1523174934445
 20
737.3595207314147
 30
0.0
 11
676.9523907167131
 21
737.3595207314147
 31
0.0
  0
LINE
  5
A7F7
330
1F
100
AcDbEntity
  8
SPOJOVACÍ
  6
Continuous
100
AcDbLine
 10
671.5527202223565
 20
730.9096817592299
 30
0.0
 11
673.0763481757858
 21
730.6827188683464
 31
0.0
  0
LINE
  5
A7F8
330
1F
100
AcDbEntity
  8
SPOJOVACÍ
  6
Continuous
100
AcDbLine
 10
673.0763481757858
 20
730.6827188683464
 30
0.0
 11
674.4902153854891
 21
730.0697330191987
 31
0.0
  0
LINE
  5
A7F9
330
1F
100
AcDbEntity
  8
SPOJOVACÍ
  6
Continuous
100
AcDbLine
 10
674.4902153854891
 20
730.0697330191987
 30
0.0
 11
676.0146396951568
 21
728.8600588747222
 31
0.0
  0
LINE
  5
A7FA
330
1F
100
AcDbEntity
  8
SPOJOVACÍ
  6
Continuous
100
AcDbLine
 10
655.2504592254881
 20
734.2815690203942
 30
0.0
 11
653.890542211946
 21
730.2371646608016
 31
0.0
  0
LINE
  5
A7FB
330
1F
100
AcDbEntity
  8
SPOJOVACÍ
  6
Continuous
100
AcDbLine
 10
654.6542165403334
 20
734.2815690203942
 30
0.0
 11
653.2942995267912
 21
730.2371646608016
 31
0.0
  0
LINE
  5
A7FC
330
1F
100
AcDbEntity
  8
SPOJOVACÍ
  6
Continuous
100
AcDbLine
 10
653.6719508999194
 20
729.8595132898562
 30
0.0
 11
653.890542211946
 21
730.2371646608016
 31
0.0
  0
LINE
  5
A7FD
330
1F
100
AcDbEntity
  8
SPOJOVACÍ
  6
Continuous
100
AcDbLine
 10
653.6719508999194
 20
729.8595132898562
 30
0.0
 11
653.2942995267912
 21
730.2371646608016
 31
0.0
  0
LINE
  5
A7FE
330
1F
100
AcDbEntity
  8
SPOJOVACÍ
  6
Continuous
100
AcDbLine
 10
654.8718776763816
 20
734.6592203957052
 30
0.0
 11
655.2504592254881
 21
734.2815690203942
 31
0.0
  0
LINE
  5
A7FF
330
1F
100
AcDbEntity
  8
SPOJOVACÍ
  6
Continuous
100
AcDbLine
 10
654.8718776763816
 20
734.6592203957052
 30
0.0
 11
654.6542165403334
 21
734.2815690203942
 31
0.0
  0
LINE
  5
A800
330
1F
100
AcDbEntity
  8
SPOJOVACÍ
  6
Continuous
100
AcDbLine
 10
654.8718776763816
 20
734.6592203957052
 30
0.0
 11
653.6719508999194
 21
729.8595132898562
 31
0.0
  0
LINE
  5
A801
330
1F
100
AcDbEntity
  8
SPOJOVACÍ
  6
Continuous
100
AcDbLine
 10
658.37026884445
 20
734.2815690203942
 30
0.0
 11
657.0103518309078
 21
730.2371646608016
 31
0.0
  0
LINE
  5
A802
330
1F
100
AcDbEntity
  8
SPOJOVACÍ
  6
Continuous
100
AcDbLine
 10
657.7740261593025
 20
734.2815690203942
 30
0.0
 11
656.4141091460296
 21
730.2371646608016
 31
0.0
  0
LINE
  5
A803
330
1F
100
AcDbEntity
  8
SPOJOVACÍ
  6
Continuous
100
AcDbLine
 10
656.7926906948596
 20
729.8595132898562
 30
0.0
 11
657.0103518309078
 21
730.2371646608016
 31
0.0
  0
LINE
  5
A804
330
1F
100
AcDbEntity
  8
SPOJOVACÍ
  6
Continuous
100
AcDbLine
 10
656.7926906948596
 20
729.8595132898562
 30
0.0
 11
656.4141091460296
 21
730.2371646608016
 31
0.0
  0
LINE
  5
A805
330
1F
100
AcDbEntity
  8
SPOJOVACÍ
  6
Continuous
100
AcDbLine
 10
657.9926174713218
 20
734.6592203957052
 30
0.0
 11
658.37026884445
 21
734.2815690203942
 31
0.0
  0
LINE
  5
A806
330
1F
100
AcDbEntity
  8
SPOJOVACÍ
  6
Continuous
100
AcDbLine
 10
657.9926174713218
 20
734.6592203957052
 30
0.0
 11
657.7740261593025
 21
734.2815690203942
 31
0.0
  0
LINE
  5
A807
330
1F
100
AcDbEntity
  8
SPOJOVACÍ
  6
Continuous
100
AcDbLine
 10
657.9926174713218
 20
734.6592203957052
 30
0.0
 11
656.7926906948596
 21
729.8595132898562
 31
0.0
  0
LINE
  5
A808
330
1F
100
AcDbEntity
  8
SPOJOVACÍ
  6
Continuous
100
AcDbLine
 10
645.7663868114504
 20
733.2760489847069
 30
0.0
 11
645.4557080956765
 21
731.1217618432501
 31
0.0
  0
LINE
  5
A809
330
1F
100
AcDbEntity
  8
SPOJOVACÍ
  6
Continuous
100
AcDbLine
 10
646.1440381845786
 20
732.8983976137615
 30
0.0
 11
645.6733692319939
 21
731.4994132141955
 31
0.0
  0
LINE
  5
A80A
330
1F
100
AcDbEntity
  8
SPOJOVACÍ
  6
Continuous
100
AcDbLine
 10
645.5477954994312
 20
732.8983976137615
 30
0.0
 11
645.0771265468465
 21
731.4994132141955
 31
0.0
  0
LINE
  5
A80B
330
1F
100
AcDbEntity
  8
SPOJOVACÍ
  6
Continuous
100
AcDbLine
 10
645.4557080956765
 20
731.1217618432501
 30
0.0
 11
645.6733692319939
 21
731.4994132141955
 31
0.0
  0
LINE
  5
A80C
330
1F
100
AcDbEntity
  8
SPOJOVACÍ
  6
Continuous
100
AcDbLine
 10
645.4557080956765
 20
731.1217618432501
 30
0.0
 11
645.0771265468465
 21
731.4994132141955
 31
0.0
  0
LINE
  5
A80D
330
1F
100
AcDbEntity
  8
SPOJOVACÍ
  6
Continuous
100
AcDbLine
 10
645.7663868114504
 20
733.2760489847069
 30
0.0
 11
646.1440381845786
 21
732.8983976137615
 31
0.0
  0
LINE
  5
A80E
330
1F
100
AcDbEntity
  8
SPOJOVACÍ
  6
Continuous
100
AcDbLine
 10
645.7663868114504
 20
733.2760489847069
 30
0.0
 11
645.5477954994312
 21
732.8983976137615
 31
0.0
  0
LINE
  5
A80F
330
1F
100
AcDbEntity
  8
SPOJOVACÍ
  6
Continuous
100
AcDbLine
 10
648.7801563897701
 20
733.8406656951783
 30
0.0
 11
648.1467066730001
 21
730.7245767787471
 31
0.0
  0
LINE
  5
A810
330
1F
100
AcDbEntity
  8
SPOJOVACÍ
  6
Continuous
100
AcDbLine
 10
649.1587379388765
 20
733.4630143198674
 30
0.0
 11
648.3643678090484
 21
731.1022281496925
 31
0.0
  0
LINE
  5
A811
330
1F
100
AcDbEntity
  8
SPOJOVACÍ
  6
Continuous
100
AcDbLine
 10
648.5624952537218
 20
733.4630143198674
 30
0.0
 11
647.7681251241701
 21
731.1022281496925
 31
0.0
  0
LINE
  5
A812
330
1F
100
AcDbEntity
  8
SPOJOVACÍ
  6
Continuous
100
AcDbLine
 10
648.1467066730001
 20
730.7245767787471
 30
0.0
 11
648.3643678090484
 21
731.1022281496925
 31
0.0
  0
LINE
  5
A813
330
1F
100
AcDbEntity
  8
SPOJOVACÍ
  6
Continuous
100
AcDbLine
 10
648.1467066730001
 20
730.7245767787471
 30
0.0
 11
647.7681251241701
 21
731.1022281496925
 31
0.0
  0
LINE
  5
A814
330
1F
100
AcDbEntity
  8
SPOJOVACÍ
  6
Continuous
100
AcDbLine
 10
648.7801563897701
 20
733.8406656951783
 30
0.0
 11
649.1587379388765
 21
733.4630143198674
 31
0.0
  0
LINE
  5
A815
330
1F
100
AcDbEntity
  8
SPOJOVACÍ
  6
Continuous
100
AcDbLine
 10
648.7801563897701
 20
733.8406656951783
 30
0.0
 11
648.5624952537218
 21
733.4630143198674
 31
0.0
  0
LINE
  5
A816
330
1F
100
AcDbEntity
  8
SPOJOVACÍ
  6
Continuous
100
AcDbLine
 10
651.794856144068
 20
734.4052824012842
 30
0.0
 11
650.8218922617634
 21
730.2799527485412
 31
0.0
  0
LINE
  5
A817
330
1F
100
AcDbEntity
  8
SPOJOVACÍ
  6
Continuous
100
AcDbLine
 10
652.1725075171961
 20
734.0267008529999
 30
0.0
 11
651.0395533978116
 21
730.6576041194866
 31
0.0
  0
LINE
  5
A818
330
1F
100
AcDbEntity
  8
SPOJOVACÍ
  6
Continuous
100
AcDbLine
 10
651.5762648320414
 20
734.0267008529999
 30
0.0
 11
650.4433107126569
 21
730.6576041194866
 31
0.0
  0
LINE
  5
A819
330
1F
100
AcDbEntity
  8
SPOJOVACÍ
  6
Continuous
100
AcDbLine
 10
650.8218922617634
 20
730.2799527485412
 30
0.0
 11
651.0395533978116
 21
730.6576041194866
 31
0.0
  0
LINE
  5
A81A
330
1F
100
AcDbEntity
  8
SPOJOVACÍ
  6
Continuous
100
AcDbLine
 10
650.8218922617634
 20
730.2799527485412
 30
0.0
 11
650.4433107126569
 21
730.6576041194866
 31
0.0
  0
LINE
  5
A81B
330
1F
100
AcDbEntity
  8
SPOJOVACÍ
  6
Continuous
100
AcDbLine
 10
651.794856144068
 20
734.4052824012842
 30
0.0
 11
652.1725075171961
 21
734.0267008529999
 31
0.0
  0
LINE
  5
A81C
330
1F
100
AcDbEntity
  8
SPOJOVACÍ
  6
Continuous
100
AcDbLine
 10
651.794856144068
 20
734.4052824012842
 30
0.0
 11
651.5762648320414
 21
734.0267008529999
 31
0.0
  0
LINE
  5
A81D
330
1F
100
AcDbEntity
  8
SPOJOVACÍ
  6
Continuous
100
AcDbLine
 10
651.216286799161
 20
731.1552481706976
 30
0.0
 11
653.1873293104472
 21
730.9096817592299
 31
0.0
  0
LINE
  5
A81E
330
1F
100
AcDbEntity
  8
SPOJOVACÍ
  6
Continuous
100
AcDbLine
 10
648.5094752332624
 20
731.4938321632589
 30
0.0
 11
650.6460890361158
 21
731.2268717079214
 31
0.0
  0
LINE
  5
A81F
330
1F
100
AcDbEntity
  8
SPOJOVACÍ
  6
Continuous
100
AcDbLine
 10
645.7924317338292
 20
731.833346324428
 30
0.0
 11
647.9374171188137
 21
731.5654556961171
 31
0.0
  0
LINE
  5
A820
330
1F
100
AcDbEntity
  8
SPOJOVACÍ
  6
Continuous
100
AcDbLine
 10
645.4761719632988
 20
732.6453897966794
 30
0.0
 11
642.3870581454939
 21
732.2593668427807
 31
0.0
  0
LINE
  5
A821
330
1F
100
AcDbEntity
  8
SPOJOVACÍ
  6
Continuous
100
AcDbLine
 10
648.4173878295077
 20
733.0128092343593
 30
0.0
 11
646.0965992191522
 21
732.7225943892053
 31
0.0
  0
LINE
  5
A822
330
1F
100
AcDbEntity
  8
SPOJOVACÍ
  6
Continuous
100
AcDbLine
 10
651.3697658052369
 20
733.382089026717
 30
0.0
 11
649.0480470191723
 21
733.0918741771975
 31
0.0
  0
LINE
  5
A823
330
1F
100
AcDbEntity
  8
SPOJOVACÍ
  6
Continuous
100
AcDbLine
 10
642.3870581454939
 20
732.2593668427807
 30
0.0
 11
645.2231641467624
 21
731.9049698616518
 31
0.0
  0
LINE
  5
A824
330
1F
100
AcDbEntity
  8
SPOJOVACÍ
  6
Continuous
100
AcDbLine
 10
653.1873293104472
 20
733.609051921966
 30
0.0
 11
651.9901930610903
 21
733.459293619243
 31
0.0
  0
LINE
  5
A825
330
1F
100
AcDbEntity
  8
SPOJOVACÍ
  6
Continuous
100
AcDbLine
 10
653.5240529483307
 20
730.9096817592299
 30
0.0
 11
653.1873293104472
 21
730.9096817592299
 31
0.0
  0
LINE
  5
A826
330
1F
100
AcDbEntity
  8
SPOJOVACÍ
  6
Continuous
100
AcDbLine
 10
656.6466530949437
 20
730.9096817592299
 30
0.0
 11
654.1277370399147
 21
730.9096817592299
 31
0.0
  0
LINE
  5
A827
330
1F
100
AcDbEntity
  8
SPOJOVACÍ
  6
Continuous
100
AcDbLine
 10
654.4346950523358
 20
733.609051921966
 30
0.0
 11
653.1873293104472
 21
733.609051921966
 31
0.0
  0
LINE
  5
A828
330
1F
100
AcDbEntity
  8
SPOJOVACÍ
  6
Continuous
100
AcDbLine
 10
657.5489236168177
 20
733.609051921966
 30
0.0
 11
655.0309377374905
 21
733.609051921966
 31
0.0
  0
LINE
  5
A829
330
1F
100
AcDbEntity
  8
SPOJOVACÍ
  6
Continuous
100
AcDbLine
 10
659.7683230655857
 20
730.9096817592299
 30
0.0
 11
657.2475466588766
 21
730.9096817592299
 31
0.0
  0
LINE
  5
A82A
330
1F
100
AcDbEntity
  8
SPOJOVACÍ
  6
Continuous
100
AcDbLine
 10
660.6817556969726
 20
733.609051921966
 30
0.0
 11
658.1535378841035
 21
733.609051921966
 31
0.0
  0
LINE
  5
A82B
330
1F
100
AcDbEntity
  8
SPOJOVACÍ
  6
Continuous
100
AcDbLine
 10
663.6443202379123
 20
582.4002840193725
 30
0.0
 11
662.4443934611808
 21
582.4002840193725
 31
0.0
  0
LINE
  5
A82C
330
1F
100
AcDbEntity
  8
SPOJOVACÍ
  6
Continuous
100
AcDbLine
 10
472.1814187212912
 20
582.4002840193725
 30
0.0
 11
473.3813454980227
 21
582.4002840193725
 31
0.0
  0
LINE
  5
A82D
330
1F
100
AcDbEntity
  8
SPOJOVACÍ
  6
Continuous
100
AcDbLine
 10
660.6817556969726
 20
574.6724576833812
 30
0.0
 11
658.1535378841035
 21
574.6724576833812
 31
0.0
  0
LINE
  5
A82E
330
1F
100
AcDbEntity
  8
SPOJOVACÍ
  6
Continuous
100
AcDbLine
 10
659.7683230655857
 20
571.973087520645
 30
0.0
 11
657.2475466588766
 21
571.973087520645
 31
0.0
  0
LINE
  5
A82F
330
1F
100
AcDbEntity
  8
SPOJOVACÍ
  6
Continuous
100
AcDbLine
 10
657.5489236168177
 20
574.6724576833812
 30
0.0
 11
655.0309377374905
 21
574.6724576833812
 31
0.0
  0
LINE
  5
A830
330
1F
100
AcDbEntity
  8
SPOJOVACÍ
  6
Continuous
100
AcDbLine
 10
654.4346950523358
 20
574.6724576833812
 30
0.0
 11
653.1873293104472
 21
574.6724576833812
 31
0.0
  0
LINE
  5
A831
330
1F
100
AcDbEntity
  8
SPOJOVACÍ
  6
Continuous
100
AcDbLine
 10
656.6466530949437
 20
571.973087520645
 30
0.0
 11
654.1277370399147
 21
571.973087520645
 31
0.0
  0
LINE
  5
A832
330
1F
100
AcDbEntity
  8
SPOJOVACÍ
  6
Continuous
100
AcDbLine
 10
653.5240529483307
 20
571.973087520645
 30
0.0
 11
653.1873293104472
 21
571.973087520645
 31
0.0
  0
LINE
  5
A833
330
1F
100
AcDbEntity
  8
SPOJOVACÍ
  6
Continuous
100
AcDbLine
 10
653.1873293104472
 20
574.6724576833812
 30
0.0
 11
651.9901930610903
 21
574.5226993806581
 31
0.0
  0
LINE
  5
A834
330
1F
100
AcDbEntity
  8
SPOJOVACÍ
  6
Continuous
100
AcDbLine
 10
642.3870581454939
 20
573.3227726041959
 30
0.0
 11
645.2231641467624
 21
572.9683756230669
 31
0.0
  0
LINE
  5
A835
330
1F
100
AcDbEntity
  8
SPOJOVACÍ
  6
Continuous
100
AcDbLine
 10
651.3697658052369
 20
574.4454947881322
 30
0.0
 11
649.0480470191723
 21
574.1552799386126
 31
0.0
  0
LINE
  5
A836
330
1F
100
AcDbEntity
  8
SPOJOVACÍ
  6
Continuous
100
AcDbLine
 10
648.4173878295077
 20
574.0762149957745
 30
0.0
 11
646.0965992191522
 21
573.7860001506205
 31
0.0
  0
LINE
  5
A837
330
1F
100
AcDbEntity
  8
SPOJOVACÍ
  6
Continuous
100
AcDbLine
 10
645.4761719632988
 20
573.7087955580945
 30
0.0
 11
642.3870581454939
 21
573.3227726041959
 31
0.0
  0
LINE
  5
A838
330
1F
100
AcDbEntity
  8
SPOJOVACÍ
  6
Continuous
100
AcDbLine
 10
645.7924317338292
 20
572.8967520858431
 30
0.0
 11
647.9374171188137
 21
572.6288614575323
 31
0.0
  0
LINE
  5
A839
330
1F
100
AcDbEntity
  8
SPOJOVACÍ
  6
Continuous
100
AcDbLine
 10
648.5094752332624
 20
572.5572379246741
 30
0.0
 11
650.6460890361158
 21
572.2902774693365
 31
0.0
  0
LINE
  5
A83A
330
1F
100
AcDbEntity
  8
SPOJOVACÍ
  6
Continuous
100
AcDbLine
 10
651.216286799161
 20
572.2186539321127
 30
0.0
 11
653.1873293104472
 21
571.973087520645
 31
0.0
  0
LINE
  5
A83B
330
1F
100
AcDbEntity
  8
SPOJOVACÍ
  6
Continuous
100
AcDbLine
 10
651.794856144068
 20
575.4686881626994
 30
0.0
 11
651.5762648320414
 21
575.0901066144151
 31
0.0
  0
LINE
  5
A83C
330
1F
100
AcDbEntity
  8
SPOJOVACÍ
  6
Continuous
100
AcDbLine
 10
651.794856144068
 20
575.4686881626994
 30
0.0
 11
652.1725075171961
 21
575.0901066144151
 31
0.0
  0
LINE
  5
A83D
330
1F
100
AcDbEntity
  8
SPOJOVACÍ
  6
Continuous
100
AcDbLine
 10
650.8218922617634
 20
571.3433585099564
 30
0.0
 11
650.4433107126569
 21
571.7210098809018
 31
0.0
  0
LINE
  5
A83E
330
1F
100
AcDbEntity
  8
SPOJOVACÍ
  6
Continuous
100
AcDbLine
 10
650.8218922617634
 20
571.3433585099564
 30
0.0
 11
651.0395533978116
 21
571.7210098809018
 31
0.0
  0
LINE
  5
A83F
330
1F
100
AcDbEntity
  8
SPOJOVACÍ
  6
Continuous
100
AcDbLine
 10
651.5762648320414
 20
575.0901066144151
 30
0.0
 11
650.4433107126569
 21
571.7210098809018
 31
0.0
  0
LINE
  5
A840
330
1F
100
AcDbEntity
  8
SPOJOVACÍ
  6
Continuous
100
AcDbLine
 10
652.1725075171961
 20
575.0901066144151
 30
0.0
 11
651.0395533978116
 21
571.7210098809018
 31
0.0
  0
LINE
  5
A841
330
1F
100
AcDbEntity
  8
SPOJOVACÍ
  6
Continuous
100
AcDbLine
 10
651.794856144068
 20
575.4686881626994
 30
0.0
 11
650.8218922617634
 21
571.3433585099564
 31
0.0
  0
LINE
  5
A842
330
1F
100
AcDbEntity
  8
SPOJOVACÍ
  6
Continuous
100
AcDbLine
 10
648.7801563897701
 20
574.9040714565935
 30
0.0
 11
648.5624952537218
 21
574.5264200812825
 31
0.0
  0
LINE
  5
A843
330
1F
100
AcDbEntity
  8
SPOJOVACÍ
  6
Continuous
100
AcDbLine
 10
648.7801563897701
 20
574.9040714565935
 30
0.0
 11
649.1587379388765
 21
574.5264200812825
 31
0.0
  0
LINE
  5
A844
330
1F
100
AcDbEntity
  8
SPOJOVACÍ
  6
Continuous
100
AcDbLine
 10
648.1467066730001
 20
571.7879825401623
 30
0.0
 11
647.7681251241701
 21
572.1656339111077
 31
0.0
  0
LINE
  5
A845
330
1F
100
AcDbEntity
  8
SPOJOVACÍ
  6
Continuous
100
AcDbLine
 10
648.1467066730001
 20
571.7879825401623
 30
0.0
 11
648.3643678090484
 21
572.1656339111077
 31
0.0
  0
LINE
  5
A846
330
1F
100
AcDbEntity
  8
SPOJOVACÍ
  6
Continuous
100
AcDbLine
 10
648.5624952537218
 20
574.5264200812825
 30
0.0
 11
647.7681251241701
 21
572.1656339111077
 31
0.0
  0
LINE
  5
A847
330
1F
100
AcDbEntity
  8
SPOJOVACÍ
  6
Continuous
100
AcDbLine
 10
649.1587379388765
 20
574.5264200812825
 30
0.0
 11
648.3643678090484
 21
572.1656339111077
 31
0.0
  0
LINE
  5
A848
330
1F
100
AcDbEntity
  8
SPOJOVACÍ
  6
Continuous
100
AcDbLine
 10
648.7801563897701
 20
574.9040714565935
 30
0.0
 11
648.1467066730001
 21
571.7879825401623
 31
0.0
  0
LINE
  5
A849
330
1F
100
AcDbEntity
  8
SPOJOVACÍ
  6
Continuous
100
AcDbLine
 10
645.7663868114504
 20
574.339454746122
 30
0.0
 11
645.5477954994312
 21
573.9618033751766
 31
0.0
  0
LINE
  5
A84A
330
1F
100
AcDbEntity
  8
SPOJOVACÍ
  6
Continuous
100
AcDbLine
 10
645.7663868114504
 20
574.339454746122
 30
0.0
 11
646.1440381845786
 21
573.9618033751766
 31
0.0
  0
LINE
  5
A84B
330
1F
100
AcDbEntity
  8
SPOJOVACÍ
  6
Continuous
100
AcDbLine
 10
645.4557080956765
 20
572.1851676046653
 30
0.0
 11
645.0771265468465
 21
572.5628189756107
 31
0.0
  0
LINE
  5
A84C
330
1F
100
AcDbEntity
  8
SPOJOVACÍ
  6
Continuous
100
AcDbLine
 10
645.4557080956765
 20
572.1851676046653
 30
0.0
 11
645.6733692319939
 21
572.5628189756107
 31
0.0
  0
LINE
  5
A84D
330
1F
100
AcDbEntity
  8
SPOJOVACÍ
  6
Continuous
100
AcDbLine
 10
645.5477954994312
 20
573.9618033751766
 30
0.0
 11
645.0771265468465
 21
572.5628189756107
 31
0.0
  0
LINE
  5
A84E
330
1F
100
AcDbEntity
  8
SPOJOVACÍ
  6
Continuous
100
AcDbLine
 10
646.1440381845786
 20
573.9618033751766
 30
0.0
 11
645.6733692319939
 21
572.5628189756107
 31
0.0
  0
LINE
  5
A84F
330
1F
100
AcDbEntity
  8
SPOJOVACÍ
  6
Continuous
100
AcDbLine
 10
645.7663868114504
 20
574.339454746122
 30
0.0
 11
645.4557080956765
 21
572.1851676046653
 31
0.0
  0
LINE
  5
A850
330
1F
100
AcDbEntity
  8
SPOJOVACÍ
  6
Continuous
100
AcDbLine
 10
657.9926174713218
 20
575.7226261571203
 30
0.0
 11
656.7926906948596
 21
570.9229190512714
 31
0.0
  0
LINE
  5
A851
330
1F
100
AcDbEntity
  8
SPOJOVACÍ
  6
Continuous
100
AcDbLine
 10
657.9926174713218
 20
575.7226261571203
 30
0.0
 11
657.7740261593025
 21
575.3449747818094
 31
0.0
  0
LINE
  5
A852
330
1F
100
AcDbEntity
  8
SPOJOVACÍ
  6
Continuous
100
AcDbLine
 10
657.9926174713218
 20
575.7226261571203
 30
0.0
 11
658.37026884445
 21
575.3449747818094
 31
0.0
  0
LINE
  5
A853
330
1F
100
AcDbEntity
  8
SPOJOVACÍ
  6
Continuous
100
AcDbLine
 10
656.7926906948596
 20
570.9229190512714
 30
0.0
 11
656.4141091460296
 21
571.3005704222168
 31
0.0
  0
LINE
  5
A854
330
1F
100
AcDbEntity
  8
SPOJOVACÍ
  6
Continuous
100
AcDbLine
 10
656.7926906948596
 20
570.9229190512714
 30
0.0
 11
657.0103518309078
 21
571.3005704222168
 31
0.0
  0
LINE
  5
A855
330
1F
100
AcDbEntity
  8
SPOJOVACÍ
  6
Continuous
100
AcDbLine
 10
657.7740261593025
 20
575.3449747818094
 30
0.0
 11
656.4141091460296
 21
571.3005704222168
 31
0.0
  0
LINE
  5
A856
330
1F
100
AcDbEntity
  8
SPOJOVACÍ
  6
Continuous
100
AcDbLine
 10
658.37026884445
 20
575.3449747818094
 30
0.0
 11
657.0103518309078
 21
571.3005704222168
 31
0.0
  0
LINE
  5
A857
330
1F
100
AcDbEntity
  8
SPOJOVACÍ
  6
Continuous
100
AcDbLine
 10
654.8718776763816
 20
575.7226261571203
 30
0.0
 11
653.6719508999194
 21
570.9229190512714
 31
0.0
  0
LINE
  5
A858
330
1F
100
AcDbEntity
  8
SPOJOVACÍ
  6
Continuous
100
AcDbLine
 10
654.8718776763816
 20
575.7226261571203
 30
0.0
 11
654.6542165403334
 21
575.3449747818094
 31
0.0
  0
LINE
  5
A859
330
1F
100
AcDbEntity
  8
SPOJOVACÍ
  6
Continuous
100
AcDbLine
 10
654.8718776763816
 20
575.7226261571203
 30
0.0
 11
655.2504592254881
 21
575.3449747818094
 31
0.0
  0
LINE
  5
A85A
330
1F
100
AcDbEntity
  8
SPOJOVACÍ
  6
Continuous
100
AcDbLine
 10
653.6719508999194
 20
570.9229190512714
 30
0.0
 11
653.2942995267912
 21
571.3005704222168
 31
0.0
  0
LINE
  5
A85B
330
1F
100
AcDbEntity
  8
SPOJOVACÍ
  6
Continuous
100
AcDbLine
 10
653.6719508999194
 20
570.9229190512714
 30
0.0
 11
653.890542211946
 21
571.3005704222168
 31
0.0
  0
LINE
  5
A85C
330
1F
100
AcDbEntity
  8
SPOJOVACÍ
  6
Continuous
100
AcDbLine
 10
654.6542165403334
 20
575.3449747818094
 30
0.0
 11
653.2942995267912
 21
571.3005704222168
 31
0.0
  0
LINE
  5
A85D
330
1F
100
AcDbEntity
  8
SPOJOVACÍ
  6
Continuous
100
AcDbLine
 10
655.2504592254881
 20
575.3449747818094
 30
0.0
 11
653.890542211946
 21
571.3005704222168
 31
0.0
  0
LINE
  5
A85E
330
1F
100
AcDbEntity
  8
SPOJOVACÍ
  6
Continuous
100
AcDbLine
 10
674.4902153854891
 20
571.1331387806139
 30
0.0
 11
676.0146396951568
 21
569.9234646361373
 31
0.0
  0
LINE
  5
A85F
330
1F
100
AcDbEntity
  8
SPOJOVACÍ
  6
Continuous
100
AcDbLine
 10
673.0763481757858
 20
571.7461246297616
 30
0.0
 11
674.4902153854891
 21
571.1331387806139
 31
0.0
  0
LINE
  5
A860
330
1F
100
AcDbEntity
  8
SPOJOVACÍ
  6
Continuous
100
AcDbLine
 10
671.5527202223565
 20
571.973087520645
 30
0.0
 11
673.0763481757858
 21
571.7461246297616
 31
0.0
  0
LINE
  5
A861
330
1F
100
AcDbEntity
  8
SPOJOVACÍ
  6
Continuous
100
AcDbLine
 10
678.1523174934445
 20
578.4229264928298
 30
0.0
 11
676.9523907167131
 21
578.4229264928298
 31
0.0
  0
LINE
  5
A862
330
1F
100
AcDbEntity
  8
SPOJOVACÍ
  6
Continuous
100
AcDbLine
 10
672.3396489454789
 20
574.7385001653028
 30
0.0
 11
671.5527202223565
 21
574.6724576833812
 31
0.0
  0
LINE
  5
A863
330
1F
100
AcDbEntity
  8
SPOJOVACÍ
  6
Continuous
100
AcDbLine
 10
673.8204888125292
 20
575.1663810296022
 30
0.0
 11
672.3396489454789
 21
574.7385001653028
 31
0.0
  0
LINE
  5
A864
330
1F
100
AcDbEntity
  8
SPOJOVACÍ
  6
Continuous
100
AcDbLine
 10
675.1394780908267
 20
575.9626115089203
 30
0.0
 11
673.8204888125292
 21
575.1663810296022
 31
0.0
  0
LINE
  5
A865
330
1F
100
AcDbEntity
  8
SPOJOVACÍ
  6
Continuous
100
AcDbLine
 10
676.2082500802389
 20
577.073241409279
 30
0.0
 11
675.1394780908267
 21
575.9626115089203
 31
0.0
  0
LINE
  5
A866
330
1F
100
AcDbEntity
  8
SPOJOVACÍ
  6
Continuous
100
AcDbLine
 10
676.9523907167131
 20
578.4229264928298
 30
0.0
 11
676.2082500802389
 21
577.073241409279
 31
0.0
  0
LINE
  5
A867
330
1F
100
AcDbEntity
  8
SPOJOVACÍ
  6
Continuous
100
AcDbLine
 10
671.5527202223565
 20
571.973087520645
 30
0.0
 11
666.6097660434279
 21
571.973087520645
 31
0.0
  0
LINE
  5
A868
330
1F
100
AcDbEntity
  8
SPOJOVACÍ
  6
Continuous
100
AcDbLine
 10
671.5527202223565
 20
574.6724576833812
 30
0.0
 11
667.5148270926765
 21
574.6724576833812
 31
0.0
  0
LINE
  5
A869
330
1F
100
AcDbEntity
  8
SPOJOVACÍ
  6
Continuous
100
AcDbLine
 10
666.9195145835001
 20
574.6724576833812
 30
0.0
 11
664.4005985284711
 21
574.6724576833812
 31
0.0
  0
LINE
  5
A86A
330
1F
100
AcDbEntity
  8
SPOJOVACÍ
  6
Continuous
100
AcDbLine
 10
663.7969144371563
 20
574.6724576833812
 30
0.0
 11
661.2761380304473
 21
574.6724576833812
 31
0.0
  0
LINE
  5
A86B
330
1F
100
AcDbEntity
  8
SPOJOVACÍ
  6
Continuous
100
AcDbLine
 10
666.0060819521131
 20
571.973087520645
 30
0.0
 11
663.4871658970841
 21
571.973087520645
 31
0.0
  0
LINE
  5
A86C
330
1F
100
AcDbEntity
  8
SPOJOVACÍ
  6
Continuous
100
AcDbLine
 10
662.8909232119294
 20
571.973087520645
 30
0.0
 11
660.3627053990603
 21
571.973087520645
 31
0.0
  0
LINE
  5
A86D
330
1F
100
AcDbEntity
  8
SPOJOVACÍ
  6
Continuous
100
AcDbLine
 10
667.3520463284912
 20
575.7226261571203
 30
0.0
 11
666.152119552029
 21
570.9229190512714
 31
0.0
  0
LINE
  5
A86E
330
1F
100
AcDbEntity
  8
SPOJOVACÍ
  6
Continuous
100
AcDbLine
 10
667.3520463284912
 20
575.7226261571203
 30
0.0
 11
667.1343851924429
 21
575.3449747818094
 31
0.0
  0
LINE
  5
A86F
330
1F
100
AcDbEntity
  8
SPOJOVACÍ
  6
Continuous
100
AcDbLine
 10
667.3520463284912
 20
575.7226261571203
 30
0.0
 11
667.7306278773212
 21
575.3449747818094
 31
0.0
  0
LINE
  5
A870
330
1F
100
AcDbEntity
  8
SPOJOVACÍ
  6
Continuous
100
AcDbLine
 10
666.152119552029
 20
570.9229190512714
 30
0.0
 11
665.7744681789008
 21
571.3005704222168
 31
0.0
  0
LINE
  5
A871
330
1F
100
AcDbEntity
  8
SPOJOVACÍ
  6
Continuous
100
AcDbLine
 10
666.152119552029
 20
570.9229190512714
 30
0.0
 11
666.3707108640555
 21
571.3005704222168
 31
0.0
  0
LINE
  5
A872
330
1F
100
AcDbEntity
  8
SPOJOVACÍ
  6
Continuous
100
AcDbLine
 10
667.1343851924429
 20
575.3449747818094
 30
0.0
 11
665.7744681789008
 21
571.3005704222168
 31
0.0
  0
LINE
  5
A873
330
1F
100
AcDbEntity
  8
SPOJOVACÍ
  6
Continuous
100
AcDbLine
 10
667.7306278773212
 20
575.3449747818094
 30
0.0
 11
666.3707108640555
 21
571.3005704222168
 31
0.0
  0
LINE
  5
A874
330
1F
100
AcDbEntity
  8
SPOJOVACÍ
  6
Continuous
100
AcDbLine
 10
664.2322367095293
 20
575.7226261571203
 30
0.0
 11
663.0323099327906
 21
570.9229190512714
 31
0.0
  0
LINE
  5
A875
330
1F
100
AcDbEntity
  8
SPOJOVACÍ
  6
Continuous
100
AcDbLine
 10
664.2322367095293
 20
575.7226261571203
 30
0.0
 11
664.0136453975028
 21
575.3449747818094
 31
0.0
  0
LINE
  5
A876
330
1F
100
AcDbEntity
  8
SPOJOVACÍ
  6
Continuous
100
AcDbLine
 10
664.2322367095293
 20
575.7226261571203
 30
0.0
 11
664.6098880826575
 21
575.3449747818094
 31
0.0
  0
LINE
  5
A877
330
1F
100
AcDbEntity
  8
SPOJOVACÍ
  6
Continuous
100
AcDbLine
 10
663.0323099327906
 20
570.9229190512714
 30
0.0
 11
662.6546585599389
 21
571.3005704222168
 31
0.0
  0
LINE
  5
A878
330
1F
100
AcDbEntity
  8
SPOJOVACÍ
  6
Continuous
100
AcDbLine
 10
663.0323099327906
 20
570.9229190512714
 30
0.0
 11
663.2509012448172
 21
571.3005704222168
 31
0.0
  0
LINE
  5
A879
330
1F
100
AcDbEntity
  8
SPOJOVACÍ
  6
Continuous
100
AcDbLine
 10
664.0136453975028
 20
575.3449747818094
 30
0.0
 11
662.6546585599389
 21
571.3005704222168
 31
0.0
  0
LINE
  5
A87A
330
1F
100
AcDbEntity
  8
SPOJOVACÍ
  6
Continuous
100
AcDbLine
 10
664.6098880826575
 20
575.3449747818094
 30
0.0
 11
663.2509012448172
 21
571.3005704222168
 31
0.0
  0
LINE
  5
A87B
330
1F
100
AcDbEntity
  8
SPOJOVACÍ
  6
Continuous
100
AcDbLine
 10
661.112427090291
 20
575.7226261571203
 30
0.0
 11
659.9125003138287
 21
570.9229190512714
 31
0.0
  0
LINE
  5
A87C
330
1F
100
AcDbEntity
  8
SPOJOVACÍ
  6
Continuous
100
AcDbLine
 10
661.112427090291
 20
575.7226261571203
 30
0.0
 11
660.8938357782644
 21
575.3449747818094
 31
0.0
  0
LINE
  5
A87D
330
1F
100
AcDbEntity
  8
SPOJOVACÍ
  6
Continuous
100
AcDbLine
 10
661.112427090291
 20
575.7226261571203
 30
0.0
 11
661.4900784634191
 21
575.3449747818094
 31
0.0
  0
LINE
  5
A87E
330
1F
100
AcDbEntity
  8
SPOJOVACÍ
  6
Continuous
100
AcDbLine
 10
659.9125003138287
 20
570.9229190512714
 30
0.0
 11
659.5339187649988
 21
571.3005704222168
 31
0.0
  0
LINE
  5
A87F
330
1F
100
AcDbEntity
  8
SPOJOVACÍ
  6
Continuous
100
AcDbLine
 10
659.9125003138287
 20
570.9229190512714
 30
0.0
 11
660.1301614501462
 21
571.3005704222168
 31
0.0
  0
LINE
  5
A880
330
1F
100
AcDbEntity
  8
SPOJOVACÍ
  6
Continuous
100
AcDbLine
 10
660.8938357782644
 20
575.3449747818094
 30
0.0
 11
659.5339187649988
 21
571.3005704222168
 31
0.0
  0
LINE
  5
A881
330
1F
100
AcDbEntity
  8
SPOJOVACÍ
  6
Continuous
100
AcDbLine
 10
661.4900784634191
 20
575.3449747818094
 30
0.0
 11
660.1301614501462
 21
571.3005704222168
 31
0.0
  0
LINE
  5
A882
330
1F
100
AcDbEntity
  8
SPOJOVACÍ
  6
Continuous
100
AcDbLine
 10
676.9523907167131
 20
578.4229264928298
 30
0.0
 11
676.9523907167131
 21
568.2226187155619
 31
0.0
  0
LINE
  5
A883
330
1F
100
AcDbEntity
  8
SPOJOVACÍ
  6
Continuous
100
AcDbLine
 10
678.1523174934445
 20
568.2226187155619
 30
0.0
 11
676.9523907167131
 21
568.2226187155619
 31
0.0
  0
LINE
  5
A884
330
1F
100
AcDbEntity
  8
SPOJOVACÍ
  6
Continuous
100
AcDbLine
 10
678.1523174934445
 20
578.4229264928298
 30
0.0
 11
678.1523174934445
 21
568.2226187155619
 31
0.0
  0
LINE
  5
A885
330
1F
100
AcDbEntity
  8
SPOJOVACÍ
  6
Continuous
100
AcDbLine
 10
676.9523907167131
 20
568.2226187155619
 30
0.0
 11
676.0146396951568
 21
569.9234646361373
 31
0.0
  0
LINE
  5
A886
330
1F
100
AcDbEntity
  8
SPOJOVACÍ
  6
Continuous
100
AcDbLine
 10
458.8733482424941
 20
568.2226187155619
 30
0.0
 11
459.8110992640504
 21
569.9234646361373
 31
0.0
  0
LINE
  5
A887
330
1F
100
AcDbEntity
  8
SPOJOVACÍ
  6
Continuous
100
AcDbLine
 10
457.6734214657626
 20
578.4229264928298
 30
0.0
 11
457.6734214657626
 21
568.2226187155619
 31
0.0
  0
LINE
  5
A888
330
1F
100
AcDbEntity
  8
SPOJOVACÍ
  6
Continuous
100
AcDbLine
 10
457.6734214657626
 20
568.2226187155619
 30
0.0
 11
458.8733482424941
 21
568.2226187155619
 31
0.0
  0
LINE
  5
A889
330
1F
100
AcDbEntity
  8
SPOJOVACÍ
  6
Continuous
100
AcDbLine
 10
458.8733482424941
 20
578.4229264928298
 30
0.0
 11
458.8733482424941
 21
568.2226187155619
 31
0.0
  0
LINE
  5
A88A
330
1F
100
AcDbEntity
  8
SPOJOVACÍ
  6
Continuous
100
AcDbLine
 10
474.335660495788
 20
575.3449747818094
 30
0.0
 11
475.6955775090609
 21
571.3005704222168
 31
0.0
  0
LINE
  5
A88B
330
1F
100
AcDbEntity
  8
SPOJOVACÍ
  6
Continuous
100
AcDbLine
 10
474.9319031809427
 20
575.3449747818094
 30
0.0
 11
476.2918201942084
 21
571.3005704222168
 31
0.0
  0
LINE
  5
A88C
330
1F
100
AcDbEntity
  8
SPOJOVACÍ
  6
Continuous
100
AcDbLine
 10
475.9132386453784
 20
570.9229190512714
 30
0.0
 11
475.6955775090609
 21
571.3005704222168
 31
0.0
  0
LINE
  5
A88D
330
1F
100
AcDbEntity
  8
SPOJOVACÍ
  6
Continuous
100
AcDbLine
 10
475.9132386453784
 20
570.9229190512714
 30
0.0
 11
476.2918201942084
 21
571.3005704222168
 31
0.0
  0
LINE
  5
A88E
330
1F
100
AcDbEntity
  8
SPOJOVACÍ
  6
Continuous
100
AcDbLine
 10
474.7133118689162
 20
575.7226261571203
 30
0.0
 11
474.335660495788
 21
575.3449747818094
 31
0.0
  0
LINE
  5
A88F
330
1F
100
AcDbEntity
  8
SPOJOVACÍ
  6
Continuous
100
AcDbLine
 10
474.7133118689162
 20
575.7226261571203
 30
0.0
 11
474.9319031809427
 21
575.3449747818094
 31
0.0
  0
LINE
  5
A890
330
1F
100
AcDbEntity
  8
SPOJOVACÍ
  6
Continuous
100
AcDbLine
 10
474.7133118689162
 20
575.7226261571203
 30
0.0
 11
475.9132386453784
 21
570.9229190512714
 31
0.0
  0
LINE
  5
A891
330
1F
100
AcDbEntity
  8
SPOJOVACÍ
  6
Continuous
100
AcDbLine
 10
471.2158508765496
 20
575.3449747818094
 30
0.0
 11
472.57483771439
 21
571.3005704222168
 31
0.0
  0
LINE
  5
A892
330
1F
100
AcDbEntity
  8
SPOJOVACÍ
  6
Continuous
100
AcDbLine
 10
471.8120935617044
 20
575.3449747818094
 30
0.0
 11
473.1710803992682
 21
571.3005704222168
 31
0.0
  0
LINE
  5
A893
330
1F
100
AcDbEntity
  8
SPOJOVACÍ
  6
Continuous
100
AcDbLine
 10
472.7934290264165
 20
570.9229190512714
 30
0.0
 11
472.57483771439
 21
571.3005704222168
 31
0.0
  0
LINE
  5
A894
330
1F
100
AcDbEntity
  8
SPOJOVACÍ
  6
Continuous
100
AcDbLine
 10
472.7934290264165
 20
570.9229190512714
 30
0.0
 11
473.1710803992682
 21
571.3005704222168
 31
0.0
  0
LINE
  5
A895
330
1F
100
AcDbEntity
  8
SPOJOVACÍ
  6
Continuous
100
AcDbLine
 10
471.5935022496778
 20
575.7226261571203
 30
0.0
 11
471.2158508765496
 21
575.3449747818094
 31
0.0
  0
LINE
  5
A896
330
1F
100
AcDbEntity
  8
SPOJOVACÍ
  6
Continuous
100
AcDbLine
 10
471.5935022496778
 20
575.7226261571203
 30
0.0
 11
471.8120935617044
 21
575.3449747818094
 31
0.0
  0
LINE
  5
A897
330
1F
100
AcDbEntity
  8
SPOJOVACÍ
  6
Continuous
100
AcDbLine
 10
471.5935022496778
 20
575.7226261571203
 30
0.0
 11
472.7934290264165
 21
570.9229190512714
 31
0.0
  0
LINE
  5
A898
330
1F
100
AcDbEntity
  8
SPOJOVACÍ
  6
Continuous
100
AcDbLine
 10
468.095111081886
 20
575.3449747818094
 30
0.0
 11
469.4550280951516
 21
571.3005704222168
 31
0.0
  0
LINE
  5
A899
330
1F
100
AcDbEntity
  8
SPOJOVACÍ
  6
Continuous
100
AcDbLine
 10
468.6913537667642
 20
575.3449747818094
 30
0.0
 11
470.0512707803063
 21
571.3005704222168
 31
0.0
  0
LINE
  5
A89A
330
1F
100
AcDbEntity
  8
SPOJOVACÍ
  6
Continuous
100
AcDbLine
 10
469.6736194071782
 20
570.9229190512714
 30
0.0
 11
469.4550280951516
 21
571.3005704222168
 31
0.0
  0
LINE
  5
A89B
330
1F
100
AcDbEntity
  8
SPOJOVACÍ
  6
Continuous
100
AcDbLine
 10
469.6736194071782
 20
570.9229190512714
 30
0.0
 11
470.0512707803063
 21
571.3005704222168
 31
0.0
  0
LINE
  5
A89C
330
1F
100
AcDbEntity
  8
SPOJOVACÍ
  6
Continuous
100
AcDbLine
 10
468.4736926307159
 20
575.7226261571203
 30
0.0
 11
468.095111081886
 21
575.3449747818094
 31
0.0
  0
LINE
  5
A89D
330
1F
100
AcDbEntity
  8
SPOJOVACÍ
  6
Continuous
100
AcDbLine
 10
468.4736926307159
 20
575.7226261571203
 30
0.0
 11
468.6913537667642
 21
575.3449747818094
 31
0.0
  0
LINE
  5
A89E
330
1F
100
AcDbEntity
  8
SPOJOVACÍ
  6
Continuous
100
AcDbLine
 10
468.4736926307159
 20
575.7226261571203
 30
0.0
 11
469.6736194071782
 21
570.9229190512714
 31
0.0
  0
LINE
  5
A89F
330
1F
100
AcDbEntity
  8
SPOJOVACÍ
  6
Continuous
100
AcDbLine
 10
472.9348157472777
 20
571.973087520645
 30
0.0
 11
475.4630335601468
 21
571.973087520645
 31
0.0
  0
LINE
  5
A8A0
330
1F
100
AcDbEntity
  8
SPOJOVACÍ
  6
Continuous
100
AcDbLine
 10
469.819657007094
 20
571.973087520645
 30
0.0
 11
472.338573062123
 21
571.973087520645
 31
0.0
  0
LINE
  5
A8A1
330
1F
100
AcDbEntity
  8
SPOJOVACÍ
  6
Continuous
100
AcDbLine
 10
472.0288245220508
 20
574.6724576833812
 30
0.0
 11
474.5496009287599
 21
574.6724576833812
 31
0.0
  0
LINE
  5
A8A2
330
1F
100
AcDbEntity
  8
SPOJOVACÍ
  6
Continuous
100
AcDbLine
 10
468.9062243757071
 20
574.6724576833812
 30
0.0
 11
471.425140430736
 21
574.6724576833812
 31
0.0
  0
LINE
  5
A8A3
330
1F
100
AcDbEntity
  8
SPOJOVACÍ
  6
Continuous
100
AcDbLine
 10
464.2730187368506
 20
574.6724576833812
 30
0.0
 11
468.3109118665306
 21
574.6724576833812
 31
0.0
  0
LINE
  5
A8A4
330
1F
100
AcDbEntity
  8
SPOJOVACÍ
  6
Continuous
100
AcDbLine
 10
464.2730187368506
 20
571.973087520645
 30
0.0
 11
469.2159729157793
 21
571.973087520645
 31
0.0
  0
LINE
  5
A8A5
330
1F
100
AcDbEntity
  8
SPOJOVACÍ
  6
Continuous
100
AcDbLine
 10
458.8733482424941
 20
578.4229264928298
 30
0.0
 11
459.6174888789683
 21
577.073241409279
 31
0.0
  0
LINE
  5
A8A6
330
1F
100
AcDbEntity
  8
SPOJOVACÍ
  6
Continuous
100
AcDbLine
 10
459.6174888789683
 20
577.073241409279
 30
0.0
 11
460.6862608683805
 21
575.9626115089203
 31
0.0
  0
LINE
  5
A8A7
330
1F
100
AcDbEntity
  8
SPOJOVACÍ
  6
Continuous
100
AcDbLine
 10
460.6862608683805
 20
575.9626115089203
 30
0.0
 11
462.005250146678
 21
575.1663810296022
 31
0.0
  0
LINE
  5
A8A8
330
1F
100
AcDbEntity
  8
SPOJOVACÍ
  6
Continuous
100
AcDbLine
 10
462.005250146678
 20
575.1663810296022
 30
0.0
 11
463.4860900137282
 21
574.7385001653028
 31
0.0
  0
LINE
  5
A8A9
330
1F
100
AcDbEntity
  8
SPOJOVACÍ
  6
Continuous
100
AcDbLine
 10
463.4860900137282
 20
574.7385001653028
 30
0.0
 11
464.2730187368506
 21
574.6724576833812
 31
0.0
  0
LINE
  5
A8AA
330
1F
100
AcDbEntity
  8
SPOJOVACÍ
  6
Continuous
100
AcDbLine
 10
457.6734214657626
 20
578.4229264928298
 30
0.0
 11
458.8733482424941
 21
578.4229264928298
 31
0.0
  0
LINE
  5
A8AB
330
1F
100
AcDbEntity
  8
SPOJOVACÍ
  6
Continuous
100
AcDbLine
 10
464.2730187368506
 20
571.973087520645
 30
0.0
 11
462.7493907834214
 21
571.7461246297616
 31
0.0
  0
LINE
  5
A8AC
330
1F
100
AcDbEntity
  8
SPOJOVACÍ
  6
Continuous
100
AcDbLine
 10
462.7493907834214
 20
571.7461246297616
 30
0.0
 11
461.3355235737181
 21
571.1331387806139
 31
0.0
  0
LINE
  5
A8AD
330
1F
100
AcDbEntity
  8
SPOJOVACÍ
  6
Continuous
100
AcDbLine
 10
461.3355235737181
 20
571.1331387806139
 30
0.0
 11
459.8110992640504
 21
569.9234646361373
 31
0.0
  0
LINE
  5
A8AE
330
1F
100
AcDbEntity
  8
SPOJOVACÍ
  6
Continuous
100
AcDbLine
 10
480.575279733719
 20
575.3449747818094
 30
0.0
 11
481.9351967472612
 21
571.3005704222168
 31
0.0
  0
LINE
  5
A8AF
330
1F
100
AcDbEntity
  8
SPOJOVACÍ
  6
Continuous
100
AcDbLine
 10
481.1715224188738
 20
575.3449747818094
 30
0.0
 11
482.5314394324159
 21
571.3005704222168
 31
0.0
  0
LINE
  5
A8B0
330
1F
100
AcDbEntity
  8
SPOJOVACÍ
  6
Continuous
100
AcDbLine
 10
482.1537880592877
 20
570.9229190512714
 30
0.0
 11
481.9351967472612
 21
571.3005704222168
 31
0.0
  0
LINE
  5
A8B1
330
1F
100
AcDbEntity
  8
SPOJOVACÍ
  6
Continuous
100
AcDbLine
 10
482.1537880592877
 20
570.9229190512714
 30
0.0
 11
482.5314394324159
 21
571.3005704222168
 31
0.0
  0
LINE
  5
A8B2
330
1F
100
AcDbEntity
  8
SPOJOVACÍ
  6
Continuous
100
AcDbLine
 10
480.9538612828255
 20
575.7226261571203
 30
0.0
 11
480.575279733719
 21
575.3449747818094
 31
0.0
  0
LINE
  5
A8B3
330
1F
100
AcDbEntity
  8
SPOJOVACÍ
  6
Continuous
100
AcDbLine
 10
480.9538612828255
 20
575.7226261571203
 30
0.0
 11
481.1715224188738
 21
575.3449747818094
 31
0.0
  0
LINE
  5
A8B4
330
1F
100
AcDbEntity
  8
SPOJOVACÍ
  6
Continuous
100
AcDbLine
 10
480.9538612828255
 20
575.7226261571203
 30
0.0
 11
482.1537880592877
 21
570.9229190512714
 31
0.0
  0
LINE
  5
A8B5
330
1F
100
AcDbEntity
  8
SPOJOVACÍ
  6
Continuous
100
AcDbLine
 10
477.4554701147572
 20
575.3449747818094
 30
0.0
 11
478.8153871282993
 21
571.3005704222168
 31
0.0
  0
LINE
  5
A8B6
330
1F
100
AcDbEntity
  8
SPOJOVACÍ
  6
Continuous
100
AcDbLine
 10
478.0517127999046
 20
575.3449747818094
 30
0.0
 11
479.4116298131775
 21
571.3005704222168
 31
0.0
  0
LINE
  5
A8B7
330
1F
100
AcDbEntity
  8
SPOJOVACÍ
  6
Continuous
100
AcDbLine
 10
479.0330482643476
 20
570.9229190512714
 30
0.0
 11
478.8153871282993
 21
571.3005704222168
 31
0.0
  0
LINE
  5
A8B8
330
1F
100
AcDbEntity
  8
SPOJOVACÍ
  6
Continuous
100
AcDbLine
 10
479.0330482643476
 20
570.9229190512714
 30
0.0
 11
479.4116298131775
 21
571.3005704222168
 31
0.0
  0
LINE
  5
A8B9
330
1F
100
AcDbEntity
  8
SPOJOVACÍ
  6
Continuous
100
AcDbLine
 10
477.8331214878853
 20
575.7226261571203
 30
0.0
 11
477.4554701147572
 21
575.3449747818094
 31
0.0
  0
LINE
  5
A8BA
330
1F
100
AcDbEntity
  8
SPOJOVACÍ
  6
Continuous
100
AcDbLine
 10
477.8331214878853
 20
575.7226261571203
 30
0.0
 11
478.0517127999046
 21
575.3449747818094
 31
0.0
  0
LINE
  5
A8BB
330
1F
100
AcDbEntity
  8
SPOJOVACÍ
  6
Continuous
100
AcDbLine
 10
477.8331214878853
 20
575.7226261571203
 30
0.0
 11
479.0330482643476
 21
570.9229190512714
 31
0.0
  0
LINE
  5
A8BC
330
1F
100
AcDbEntity
  8
SPOJOVACÍ
  6
Continuous
100
AcDbLine
 10
490.0593521477567
 20
574.339454746122
 30
0.0
 11
490.3700308635307
 21
572.1851676046653
 31
0.0
  0
LINE
  5
A8BD
330
1F
100
AcDbEntity
  8
SPOJOVACÍ
  6
Continuous
100
AcDbLine
 10
489.6817007746285
 20
573.9618033751766
 30
0.0
 11
490.1523697272132
 21
572.5628189756107
 31
0.0
  0
LINE
  5
A8BE
330
1F
100
AcDbEntity
  8
SPOJOVACÍ
  6
Continuous
100
AcDbLine
 10
490.277943459776
 20
573.9618033751766
 30
0.0
 11
490.7486124123606
 21
572.5628189756107
 31
0.0
  0
LINE
  5
A8BF
330
1F
100
AcDbEntity
  8
SPOJOVACÍ
  6
Continuous
100
AcDbLine
 10
490.3700308635307
 20
572.1851676046653
 30
0.0
 11
490.1523697272132
 21
572.5628189756107
 31
0.0
  0
LINE
  5
A8C0
330
1F
100
AcDbEntity
  8
SPOJOVACÍ
  6
Continuous
100
AcDbLine
 10
490.3700308635307
 20
572.1851676046653
 30
0.0
 11
490.7486124123606
 21
572.5628189756107
 31
0.0
  0
LINE
  5
A8C1
330
1F
100
AcDbEntity
  8
SPOJOVACÍ
  6
Continuous
100
AcDbLine
 10
490.0593521477567
 20
574.339454746122
 30
0.0
 11
489.6817007746285
 21
573.9618033751766
 31
0.0
  0
LINE
  5
A8C2
330
1F
100
AcDbEntity
  8
SPOJOVACÍ
  6
Continuous
100
AcDbLine
 10
490.0593521477567
 20
574.339454746122
 30
0.0
 11
490.277943459776
 21
573.9618033751766
 31
0.0
  0
LINE
  5
A8C3
330
1F
100
AcDbEntity
  8
SPOJOVACÍ
  6
Continuous
100
AcDbLine
 10
487.0455825694371
 20
574.9040714565935
 30
0.0
 11
487.6790322862071
 21
571.7879825401623
 31
0.0
  0
LINE
  5
A8C4
330
1F
100
AcDbEntity
  8
SPOJOVACÍ
  6
Continuous
100
AcDbLine
 10
486.6670010203306
 20
574.5264200812825
 30
0.0
 11
487.4613711501588
 21
572.1656339111077
 31
0.0
  0
LINE
  5
A8C5
330
1F
100
AcDbEntity
  8
SPOJOVACÍ
  6
Continuous
100
AcDbLine
 10
487.2632437054853
 20
574.5264200812825
 30
0.0
 11
488.057613835037
 21
572.1656339111077
 31
0.0
  0
LINE
  5
A8C6
330
1F
100
AcDbEntity
  8
SPOJOVACÍ
  6
Continuous
100
AcDbLine
 10
487.6790322862071
 20
571.7879825401623
 30
0.0
 11
487.4613711501588
 21
572.1656339111077
 31
0.0
  0
LINE
  5
A8C7
330
1F
100
AcDbEntity
  8
SPOJOVACÍ
  6
Continuous
100
AcDbLine
 10
487.6790322862071
 20
571.7879825401623
 30
0.0
 11
488.057613835037
 21
572.1656339111077
 31
0.0
  0
LINE
  5
A8C8
330
1F
100
AcDbEntity
  8
SPOJOVACÍ
  6
Continuous
100
AcDbLine
 10
487.0455825694371
 20
574.9040714565935
 30
0.0
 11
486.6670010203306
 21
574.5264200812825
 31
0.0
  0
LINE
  5
A8C9
330
1F
100
AcDbEntity
  8
SPOJOVACÍ
  6
Continuous
100
AcDbLine
 10
487.0455825694371
 20
574.9040714565935
 30
0.0
 11
487.2632437054853
 21
574.5264200812825
 31
0.0
  0
LINE
  5
A8CA
330
1F
100
AcDbEntity
  8
SPOJOVACÍ
  6
Continuous
100
AcDbLine
 10
484.0308828151392
 20
575.4686881626994
 30
0.0
 11
485.0038466974438
 21
571.3433585099564
 31
0.0
  0
LINE
  5
A8CB
330
1F
100
AcDbEntity
  8
SPOJOVACÍ
  6
Continuous
100
AcDbLine
 10
483.653231442011
 20
575.0901066144151
 30
0.0
 11
484.7861855613955
 21
571.7210098809018
 31
0.0
  0
LINE
  5
A8CC
330
1F
100
AcDbEntity
  8
SPOJOVACÍ
  6
Continuous
100
AcDbLine
 10
484.2494741271657
 20
575.0901066144151
 30
0.0
 11
485.3824282465502
 21
571.7210098809018
 31
0.0
  0
LINE
  5
A8CD
330
1F
100
AcDbEntity
  8
SPOJOVACÍ
  6
Continuous
100
AcDbLine
 10
485.0038466974438
 20
571.3433585099564
 30
0.0
 11
484.7861855613955
 21
571.7210098809018
 31
0.0
  0
LINE
  5
A8CE
330
1F
100
AcDbEntity
  8
SPOJOVACÍ
  6
Continuous
100
AcDbLine
 10
485.0038466974438
 20
571.3433585099564
 30
0.0
 11
485.3824282465502
 21
571.7210098809018
 31
0.0
  0
LINE
  5
A8CF
330
1F
100
AcDbEntity
  8
SPOJOVACÍ
  6
Continuous
100
AcDbLine
 10
484.0308828151392
 20
575.4686881626994
 30
0.0
 11
483.653231442011
 21
575.0901066144151
 31
0.0
  0
LINE
  5
A8D0
330
1F
100
AcDbEntity
  8
SPOJOVACÍ
  6
Continuous
100
AcDbLine
 10
484.0308828151392
 20
575.4686881626994
 30
0.0
 11
484.2494741271657
 21
575.0901066144151
 31
0.0
  0
LINE
  5
A8D1
330
1F
100
AcDbEntity
  8
SPOJOVACÍ
  6
Continuous
100
AcDbLine
 10
484.6094521600462
 20
572.2186539321127
 30
0.0
 11
482.63840964876
 21
571.973087520645
 31
0.0
  0
LINE
  5
A8D2
330
1F
100
AcDbEntity
  8
SPOJOVACÍ
  6
Continuous
100
AcDbLine
 10
487.3162637259447
 20
572.5572379246741
 30
0.0
 11
485.1796499230913
 21
572.2902774693365
 31
0.0
  0
LINE
  5
A8D3
330
1F
100
AcDbEntity
  8
SPOJOVACÍ
  6
Continuous
100
AcDbLine
 10
490.0333072253779
 20
572.8967520858431
 30
0.0
 11
487.8883218403935
 21
572.6288614575323
 31
0.0
  0
LINE
  5
A8D4
330
1F
100
AcDbEntity
  8
SPOJOVACÍ
  6
Continuous
100
AcDbLine
 10
490.3495669959084
 20
573.7087955580945
 30
0.0
 11
493.4386808137133
 21
573.3227726041959
 31
0.0
  0
LINE
  5
A8D5
330
1F
100
AcDbEntity
  8
SPOJOVACÍ
  6
Continuous
100
AcDbLine
 10
487.4083511296994
 20
574.0762149957745
 30
0.0
 11
489.7291397400549
 21
573.7860001506205
 31
0.0
  0
LINE
  5
A8D6
330
1F
100
AcDbEntity
  8
SPOJOVACÍ
  6
Continuous
100
AcDbLine
 10
484.4559731539702
 20
574.4454947881322
 30
0.0
 11
486.7776919400348
 21
574.1552799386126
 31
0.0
  0
LINE
  5
A8D7
330
1F
100
AcDbEntity
  8
SPOJOVACÍ
  6
Continuous
100
AcDbLine
 10
493.4386808137133
 20
573.3227726041959
 30
0.0
 11
490.6025748124448
 21
572.9683756230669
 31
0.0
  0
LINE
  5
A8D8
330
1F
100
AcDbEntity
  8
SPOJOVACÍ
  6
Continuous
100
AcDbLine
 10
482.63840964876
 20
574.6724576833812
 30
0.0
 11
483.8355458981168
 21
574.5226993806581
 31
0.0
  0
LINE
  5
A8D9
330
1F
100
AcDbEntity
  8
SPOJOVACÍ
  6
Continuous
100
AcDbLine
 10
482.3016860108764
 20
571.973087520645
 30
0.0
 11
482.63840964876
 21
571.973087520645
 31
0.0
  0
LINE
  5
A8DA
330
1F
100
AcDbEntity
  8
SPOJOVACÍ
  6
Continuous
100
AcDbLine
 10
479.1790858642634
 20
571.973087520645
 30
0.0
 11
481.6980019192924
 21
571.973087520645
 31
0.0
  0
LINE
  5
A8DB
330
1F
100
AcDbEntity
  8
SPOJOVACÍ
  6
Continuous
100
AcDbLine
 10
481.3910439068713
 20
574.6724576833812
 30
0.0
 11
482.63840964876
 21
574.6724576833812
 31
0.0
  0
LINE
  5
A8DC
330
1F
100
AcDbEntity
  8
SPOJOVACÍ
  6
Continuous
100
AcDbLine
 10
478.2768153423894
 20
574.6724576833812
 30
0.0
 11
480.7948012217166
 21
574.6724576833812
 31
0.0
  0
LINE
  5
A8DD
330
1F
100
AcDbEntity
  8
SPOJOVACÍ
  6
Continuous
100
AcDbLine
 10
476.0574158936215
 20
571.973087520645
 30
0.0
 11
478.5781923003305
 21
571.973087520645
 31
0.0
  0
LINE
  5
A8DE
330
1F
100
AcDbEntity
  8
SPOJOVACÍ
  6
Continuous
100
AcDbLine
 10
475.1439832622345
 20
574.6724576833812
 30
0.0
 11
477.6722010751036
 21
574.6724576833812
 31
0.0
  0
LINE
  5
A8DF
330
1F
100
AcDbEntity
  8
SPOJOVACÍ
  6
Continuous
100
AcDbLine
 10
646.1737584414404
 20
588.861035030678
 30
0.0
 11
643.6455406285713
 21
588.861035030678
 31
0.0
  0
LINE
  5
A8E0
330
1F
100
AcDbEntity
  8
SPOJOVACÍ
  6
Continuous
100
AcDbLine
 10
645.2603258100534
 20
586.1616648679419
 30
0.0
 11
642.7395494033444
 21
586.1616648679419
 31
0.0
  0
LINE
  5
A8E1
330
1F
100
AcDbEntity
  8
SPOJOVACÍ
  6
Continuous
100
AcDbLine
 10
643.0409263612855
 20
588.861035030678
 30
0.0
 11
640.5229404819583
 21
588.861035030678
 31
0.0
  0
LINE
  5
A8E2
330
1F
100
AcDbEntity
  8
SPOJOVACÍ
  6
Continuous
100
AcDbLine
 10
639.9266977968036
 20
588.861035030678
 30
0.0
 11
638.6793320549149
 21
588.861035030678
 31
0.0
  0
LINE
  5
A8E3
330
1F
100
AcDbEntity
  8
SPOJOVACÍ
  6
Continuous
100
AcDbLine
 10
642.1386558394114
 20
586.1616648679419
 30
0.0
 11
639.6197397843825
 21
586.1616648679419
 31
0.0
  0
LINE
  5
A8E4
330
1F
100
AcDbEntity
  8
SPOJOVACÍ
  6
Continuous
100
AcDbLine
 10
639.0160556927985
 20
586.1616648679419
 30
0.0
 11
638.6793320549149
 21
586.1616648679419
 31
0.0
  0
LINE
  5
A8E5
330
1F
100
AcDbEntity
  8
SPOJOVACÍ
  6
Continuous
100
AcDbLine
 10
638.6793320549149
 20
588.861035030678
 30
0.0
 11
637.4821958055581
 21
588.711276727955
 31
0.0
  0
LINE
  5
A8E6
330
1F
100
AcDbEntity
  8
SPOJOVACÍ
  6
Continuous
100
AcDbLine
 10
627.8790608899616
 20
587.5113499514927
 30
0.0
 11
630.7151668912301
 21
587.1569529703638
 31
0.0
  0
LINE
  5
A8E7
330
1F
100
AcDbEntity
  8
SPOJOVACÍ
  6
Continuous
100
AcDbLine
 10
636.8617685497047
 20
588.634072135429
 30
0.0
 11
634.5400497636401
 21
588.3438572859095
 31
0.0
  0
LINE
  5
A8E8
330
1F
100
AcDbEntity
  8
SPOJOVACÍ
  6
Continuous
100
AcDbLine
 10
633.9093905739755
 20
588.2647923430713
 30
0.0
 11
631.58860196362
 21
587.9745774979173
 31
0.0
  0
LINE
  5
A8E9
330
1F
100
AcDbEntity
  8
SPOJOVACÍ
  6
Continuous
100
AcDbLine
 10
630.9681747077665
 20
587.8973729053914
 30
0.0
 11
627.8790608899616
 21
587.5113499514927
 31
0.0
  0
LINE
  5
A8EA
330
1F
100
AcDbEntity
  8
SPOJOVACÍ
  6
Continuous
100
AcDbLine
 10
631.284434478297
 20
587.08532943314
 30
0.0
 11
633.4294198632814
 21
586.8174388048291
 31
0.0
  0
LINE
  5
A8EB
330
1F
100
AcDbEntity
  8
SPOJOVACÍ
  6
Continuous
100
AcDbLine
 10
634.0014779777302
 20
586.7458152719709
 30
0.0
 11
636.1380917805836
 21
586.4788548166334
 31
0.0
  0
LINE
  5
A8EC
330
1F
100
AcDbEntity
  8
SPOJOVACÍ
  6
Continuous
100
AcDbLine
 10
636.7082895436287
 20
586.4072312794096
 30
0.0
 11
638.6793320549149
 21
586.1616648679419
 31
0.0
  0
LINE
  5
A8ED
330
1F
100
AcDbEntity
  8
SPOJOVACÍ
  6
Continuous
100
AcDbLine
 10
637.2868588885357
 20
589.6572655099962
 30
0.0
 11
637.0682675765092
 21
589.2786839617119
 31
0.0
  0
LINE
  5
A8EE
330
1F
100
AcDbEntity
  8
SPOJOVACÍ
  6
Continuous
100
AcDbLine
 10
637.2868588885357
 20
589.6572655099962
 30
0.0
 11
637.6645102616639
 21
589.2786839617119
 31
0.0
  0
LINE
  5
A8EF
330
1F
100
AcDbEntity
  8
SPOJOVACÍ
  6
Continuous
100
AcDbLine
 10
636.3138950062311
 20
585.5319358572533
 30
0.0
 11
635.9353134571247
 21
585.9095872281987
 31
0.0
  0
LINE
  5
A8F0
330
1F
100
AcDbEntity
  8
SPOJOVACÍ
  6
Continuous
100
AcDbLine
 10
636.3138950062311
 20
585.5319358572533
 30
0.0
 11
636.5315561422794
 21
585.9095872281987
 31
0.0
  0
LINE
  5
A8F1
330
1F
100
AcDbEntity
  8
SPOJOVACÍ
  6
Continuous
100
AcDbLine
 10
637.0682675765092
 20
589.2786839617119
 30
0.0
 11
635.9353134571247
 21
585.9095872281987
 31
0.0
  0
LINE
  5
A8F2
330
1F
100
AcDbEntity
  8
SPOJOVACÍ
  6
Continuous
100
AcDbLine
 10
637.6645102616639
 20
589.2786839617119
 30
0.0
 11
636.5315561422794
 21
585.9095872281987
 31
0.0
  0
LINE
  5
A8F3
330
1F
100
AcDbEntity
  8
SPOJOVACÍ
  6
Continuous
100
AcDbLine
 10
637.2868588885357
 20
589.6572655099962
 30
0.0
 11
636.3138950062311
 21
585.5319358572533
 31
0.0
  0
LINE
  5
A8F4
330
1F
100
AcDbEntity
  8
SPOJOVACÍ
  6
Continuous
100
AcDbLine
 10
634.2721591342378
 20
589.0926488038903
 30
0.0
 11
634.0544979981896
 21
588.7149974285794
 31
0.0
  0
LINE
  5
A8F5
330
1F
100
AcDbEntity
  8
SPOJOVACÍ
  6
Continuous
100
AcDbLine
 10
634.2721591342378
 20
589.0926488038903
 30
0.0
 11
634.6507406833443
 21
588.7149974285794
 31
0.0
  0
LINE
  5
A8F6
330
1F
100
AcDbEntity
  8
SPOJOVACÍ
  6
Continuous
100
AcDbLine
 10
633.6387094174678
 20
585.9765598874592
 30
0.0
 11
633.2601278686379
 21
586.3542112584045
 31
0.0
  0
LINE
  5
A8F7
330
1F
100
AcDbEntity
  8
SPOJOVACÍ
  6
Continuous
100
AcDbLine
 10
633.6387094174678
 20
585.9765598874592
 30
0.0
 11
633.8563705535161
 21
586.3542112584045
 31
0.0
  0
LINE
  5
A8F8
330
1F
100
AcDbEntity
  8
SPOJOVACÍ
  6
Continuous
100
AcDbLine
 10
634.0544979981896
 20
588.7149974285794
 30
0.0
 11
633.2601278686379
 21
586.3542112584045
 31
0.0
  0
LINE
  5
A8F9
330
1F
100
AcDbEntity
  8
SPOJOVACÍ
  6
Continuous
100
AcDbLine
 10
634.6507406833443
 20
588.7149974285794
 30
0.0
 11
633.8563705535161
 21
586.3542112584045
 31
0.0
  0
LINE
  5
A8FA
330
1F
100
AcDbEntity
  8
SPOJOVACÍ
  6
Continuous
100
AcDbLine
 10
634.2721591342378
 20
589.0926488038903
 30
0.0
 11
633.6387094174678
 21
585.9765598874592
 31
0.0
  0
LINE
  5
A8FB
330
1F
100
AcDbEntity
  8
SPOJOVACÍ
  6
Continuous
100
AcDbLine
 10
631.2583895559182
 20
588.5280320934189
 30
0.0
 11
631.0397982438989
 21
588.1503807224735
 31
0.0
  0
LINE
  5
A8FC
330
1F
100
AcDbEntity
  8
SPOJOVACÍ
  6
Continuous
100
AcDbLine
 10
631.2583895559182
 20
588.5280320934189
 30
0.0
 11
631.6360409290464
 21
588.1503807224735
 31
0.0
  0
LINE
  5
A8FD
330
1F
100
AcDbEntity
  8
SPOJOVACÍ
  6
Continuous
100
AcDbLine
 10
630.9477108401442
 20
586.3737449519621
 30
0.0
 11
630.5691292913143
 21
586.7513963229075
 31
0.0
  0
LINE
  5
A8FE
330
1F
100
AcDbEntity
  8
SPOJOVACÍ
  6
Continuous
100
AcDbLine
 10
630.9477108401442
 20
586.3737449519621
 30
0.0
 11
631.1653719764617
 21
586.7513963229075
 31
0.0
  0
LINE
  5
A8FF
330
1F
100
AcDbEntity
  8
SPOJOVACÍ
  6
Continuous
100
AcDbLine
 10
631.0397982438989
 20
588.1503807224735
 30
0.0
 11
630.5691292913143
 21
586.7513963229075
 31
0.0
  0
LINE
  5
A900
330
1F
100
AcDbEntity
  8
SPOJOVACÍ
  6
Continuous
100
AcDbLine
 10
631.6360409290464
 20
588.1503807224735
 30
0.0
 11
631.1653719764617
 21
586.7513963229075
 31
0.0
  0
LINE
  5
A901
330
1F
100
AcDbEntity
  8
SPOJOVACÍ
  6
Continuous
100
AcDbLine
 10
631.2583895559182
 20
588.5280320934189
 30
0.0
 11
630.9477108401442
 21
586.3737449519621
 31
0.0
  0
LINE
  5
A902
330
1F
100
AcDbEntity
  8
SPOJOVACÍ
  6
Continuous
100
AcDbLine
 10
643.4846202157896
 20
589.9112035044172
 30
0.0
 11
642.2846934393273
 21
585.1114963985683
 31
0.0
  0
LINE
  5
A903
330
1F
100
AcDbEntity
  8
SPOJOVACÍ
  6
Continuous
100
AcDbLine
 10
643.4846202157896
 20
589.9112035044172
 30
0.0
 11
643.2660289037703
 21
589.5335521291062
 31
0.0
  0
LINE
  5
A904
330
1F
100
AcDbEntity
  8
SPOJOVACÍ
  6
Continuous
100
AcDbLine
 10
643.4846202157896
 20
589.9112035044172
 30
0.0
 11
643.8622715889177
 21
589.5335521291062
 31
0.0
  0
LINE
  5
A905
330
1F
100
AcDbEntity
  8
SPOJOVACÍ
  6
Continuous
100
AcDbLine
 10
642.2846934393273
 20
585.1114963985683
 30
0.0
 11
641.9061118904973
 21
585.4891477695137
 31
0.0
  0
LINE
  5
A906
330
1F
100
AcDbEntity
  8
SPOJOVACÍ
  6
Continuous
100
AcDbLine
 10
642.2846934393273
 20
585.1114963985683
 30
0.0
 11
642.5023545753756
 21
585.4891477695137
 31
0.0
  0
LINE
  5
A907
330
1F
100
AcDbEntity
  8
SPOJOVACÍ
  6
Continuous
100
AcDbLine
 10
643.2660289037703
 20
589.5335521291062
 30
0.0
 11
641.9061118904973
 21
585.4891477695137
 31
0.0
  0
LINE
  5
A908
330
1F
100
AcDbEntity
  8
SPOJOVACÍ
  6
Continuous
100
AcDbLine
 10
643.8622715889177
 20
589.5335521291062
 30
0.0
 11
642.5023545753756
 21
585.4891477695137
 31
0.0
  0
LINE
  5
A909
330
1F
100
AcDbEntity
  8
SPOJOVACÍ
  6
Continuous
100
AcDbLine
 10
640.3638804208494
 20
589.9112035044172
 30
0.0
 11
639.1639536443872
 21
585.1114963985683
 31
0.0
  0
LINE
  5
A90A
330
1F
100
AcDbEntity
  8
SPOJOVACÍ
  6
Continuous
100
AcDbLine
 10
640.3638804208494
 20
589.9112035044172
 30
0.0
 11
640.1462192848011
 21
589.5335521291062
 31
0.0
  0
LINE
  5
A90B
330
1F
100
AcDbEntity
  8
SPOJOVACÍ
  6
Continuous
100
AcDbLine
 10
640.3638804208494
 20
589.9112035044172
 30
0.0
 11
640.7424619699559
 21
589.5335521291062
 31
0.0
  0
LINE
  5
A90C
330
1F
100
AcDbEntity
  8
SPOJOVACÍ
  6
Continuous
100
AcDbLine
 10
639.1639536443872
 20
585.1114963985683
 30
0.0
 11
638.786302271259
 21
585.4891477695137
 31
0.0
  0
LINE
  5
A90D
330
1F
100
AcDbEntity
  8
SPOJOVACÍ
  6
Continuous
100
AcDbLine
 10
639.1639536443872
 20
585.1114963985683
 30
0.0
 11
639.3825449564137
 21
585.4891477695137
 31
0.0
  0
LINE
  5
A90E
330
1F
100
AcDbEntity
  8
SPOJOVACÍ
  6
Continuous
100
AcDbLine
 10
640.1462192848011
 20
589.5335521291062
 30
0.0
 11
638.786302271259
 21
585.4891477695137
 31
0.0
  0
LINE
  5
A90F
330
1F
100
AcDbEntity
  8
SPOJOVACÍ
  6
Continuous
100
AcDbLine
 10
640.7424619699559
 20
589.5335521291062
 30
0.0
 11
639.3825449564137
 21
585.4891477695137
 31
0.0
  0
LINE
  5
A910
330
1F
100
AcDbEntity
  8
SPOJOVACÍ
  6
Continuous
100
AcDbLine
 10
659.9822181299568
 20
585.3217161279108
 30
0.0
 11
661.5066424396245
 21
584.1120419834342
 31
0.0
  0
LINE
  5
A911
330
1F
100
AcDbEntity
  8
SPOJOVACÍ
  6
Continuous
100
AcDbLine
 10
658.5683509202535
 20
585.9347019770584
 30
0.0
 11
659.9822181299568
 21
585.3217161279108
 31
0.0
  0
LINE
  5
A912
330
1F
100
AcDbEntity
  8
SPOJOVACÍ
  6
Continuous
100
AcDbLine
 10
657.0447229668243
 20
586.1616648679419
 30
0.0
 11
658.5683509202535
 21
585.9347019770584
 31
0.0
  0
LINE
  5
A913
330
1F
100
AcDbEntity
  8
SPOJOVACÍ
  6
Continuous
100
AcDbLine
 10
663.6443202379123
 20
592.6115038401267
 30
0.0
 11
662.4443934611808
 21
592.6115038401267
 31
0.0
  0
LINE
  5
A914
330
1F
100
AcDbEntity
  8
SPOJOVACÍ
  6
Continuous
100
AcDbLine
 10
657.8316516899467
 20
588.9270775125996
 30
0.0
 11
657.0447229668243
 21
588.861035030678
 31
0.0
  0
LINE
  5
A915
330
1F
100
AcDbEntity
  8
SPOJOVACÍ
  6
Continuous
100
AcDbLine
 10
659.3124915569969
 20
589.354958376899
 30
0.0
 11
657.8316516899467
 21
588.9270775125996
 31
0.0
  0
LINE
  5
A916
330
1F
100
AcDbEntity
  8
SPOJOVACÍ
  6
Continuous
100
AcDbLine
 10
660.6314808352944
 20
590.1511888562172
 30
0.0
 11
659.3124915569969
 21
589.354958376899
 31
0.0
  0
LINE
  5
A917
330
1F
100
AcDbEntity
  8
SPOJOVACÍ
  6
Continuous
100
AcDbLine
 10
661.7002528247066
 20
591.2618187565758
 30
0.0
 11
660.6314808352944
 21
590.1511888562172
 31
0.0
  0
LINE
  5
A918
330
1F
100
AcDbEntity
  8
SPOJOVACÍ
  6
Continuous
100
AcDbLine
 10
662.4443934611808
 20
592.6115038401267
 30
0.0
 11
661.7002528247066
 21
591.2618187565758
 31
0.0
  0
LINE
  5
A919
330
1F
100
AcDbEntity
  8
SPOJOVACÍ
  6
Continuous
100
AcDbLine
 10
657.0447229668243
 20
586.1616648679419
 30
0.0
 11
652.1017687878956
 21
586.1616648679419
 31
0.0
  0
LINE
  5
A91A
330
1F
100
AcDbEntity
  8
SPOJOVACÍ
  6
Continuous
100
AcDbLine
 10
657.0447229668243
 20
588.861035030678
 30
0.0
 11
653.0068298371443
 21
588.861035030678
 31
0.0
  0
LINE
  5
A91B
330
1F
100
AcDbEntity
  8
SPOJOVACÍ
  6
Continuous
100
AcDbLine
 10
652.4115173279678
 20
588.861035030678
 30
0.0
 11
649.8926012729389
 21
588.861035030678
 31
0.0
  0
LINE
  5
A91C
330
1F
100
AcDbEntity
  8
SPOJOVACÍ
  6
Continuous
100
AcDbLine
 10
649.2889171816241
 20
588.861035030678
 30
0.0
 11
646.768140774915
 21
588.861035030678
 31
0.0
  0
LINE
  5
A91D
330
1F
100
AcDbEntity
  8
SPOJOVACÍ
  6
Continuous
100
AcDbLine
 10
651.4980846965809
 20
586.1616648679419
 30
0.0
 11
648.9791686415519
 21
586.1616648679419
 31
0.0
  0
LINE
  5
A91E
330
1F
100
AcDbEntity
  8
SPOJOVACÍ
  6
Continuous
100
AcDbLine
 10
648.3829259563972
 20
586.1616648679419
 30
0.0
 11
645.8547081435281
 21
586.1616648679419
 31
0.0
  0
LINE
  5
A91F
330
1F
100
AcDbEntity
  8
SPOJOVACÍ
  6
Continuous
100
AcDbLine
 10
652.844049072959
 20
589.9112035044172
 30
0.0
 11
651.6441222964967
 21
585.1114963985683
 31
0.0
  0
LINE
  5
A920
330
1F
100
AcDbEntity
  8
SPOJOVACÍ
  6
Continuous
100
AcDbLine
 10
652.844049072959
 20
589.9112035044172
 30
0.0
 11
652.6263879369107
 21
589.5335521291062
 31
0.0
  0
LINE
  5
A921
330
1F
100
AcDbEntity
  8
SPOJOVACÍ
  6
Continuous
100
AcDbLine
 10
652.844049072959
 20
589.9112035044172
 30
0.0
 11
653.2226306217889
 21
589.5335521291062
 31
0.0
  0
LINE
  5
A922
330
1F
100
AcDbEntity
  8
SPOJOVACÍ
  6
Continuous
100
AcDbLine
 10
651.6441222964967
 20
585.1114963985683
 30
0.0
 11
651.2664709233686
 21
585.4891477695137
 31
0.0
  0
LINE
  5
A923
330
1F
100
AcDbEntity
  8
SPOJOVACÍ
  6
Continuous
100
AcDbLine
 10
651.6441222964967
 20
585.1114963985683
 30
0.0
 11
651.8627136085233
 21
585.4891477695137
 31
0.0
  0
LINE
  5
A924
330
1F
100
AcDbEntity
  8
SPOJOVACÍ
  6
Continuous
100
AcDbLine
 10
652.6263879369107
 20
589.5335521291062
 30
0.0
 11
651.2664709233686
 21
585.4891477695137
 31
0.0
  0
LINE
  5
A925
330
1F
100
AcDbEntity
  8
SPOJOVACÍ
  6
Continuous
100
AcDbLine
 10
653.2226306217889
 20
589.5335521291062
 30
0.0
 11
651.8627136085233
 21
585.4891477695137
 31
0.0
  0
LINE
  5
A926
330
1F
100
AcDbEntity
  8
SPOJOVACÍ
  6
Continuous
100
AcDbLine
 10
649.7242394539971
 20
589.9112035044172
 30
0.0
 11
648.5243126772584
 21
585.1114963985683
 31
0.0
  0
LINE
  5
A927
330
1F
100
AcDbEntity
  8
SPOJOVACÍ
  6
Continuous
100
AcDbLine
 10
649.7242394539971
 20
589.9112035044172
 30
0.0
 11
649.5056481419705
 21
589.5335521291062
 31
0.0
  0
LINE
  5
A928
330
1F
100
AcDbEntity
  8
SPOJOVACÍ
  6
Continuous
100
AcDbLine
 10
649.7242394539971
 20
589.9112035044172
 30
0.0
 11
650.1018908271253
 21
589.5335521291062
 31
0.0
  0
LINE
  5
A929
330
1F
100
AcDbEntity
  8
SPOJOVACÍ
  6
Continuous
100
AcDbLine
 10
648.5243126772584
 20
585.1114963985683
 30
0.0
 11
648.1466613044067
 21
585.4891477695137
 31
0.0
  0
LINE
  5
A92A
330
1F
100
AcDbEntity
  8
SPOJOVACÍ
  6
Continuous
100
AcDbLine
 10
648.5243126772584
 20
585.1114963985683
 30
0.0
 11
648.7429039892849
 21
585.4891477695137
 31
0.0
  0
LINE
  5
A92B
330
1F
100
AcDbEntity
  8
SPOJOVACÍ
  6
Continuous
100
AcDbLine
 10
649.5056481419705
 20
589.5335521291062
 30
0.0
 11
648.1466613044067
 21
585.4891477695137
 31
0.0
  0
LINE
  5
A92C
330
1F
100
AcDbEntity
  8
SPOJOVACÍ
  6
Continuous
100
AcDbLine
 10
650.1018908271253
 20
589.5335521291062
 30
0.0
 11
648.7429039892849
 21
585.4891477695137
 31
0.0
  0
LINE
  5
A92D
330
1F
100
AcDbEntity
  8
SPOJOVACÍ
  6
Continuous
100
AcDbLine
 10
646.6044298347587
 20
589.9112035044172
 30
0.0
 11
645.4045030582965
 21
585.1114963985683
 31
0.0
  0
LINE
  5
A92E
330
1F
100
AcDbEntity
  8
SPOJOVACÍ
  6
Continuous
100
AcDbLine
 10
646.6044298347587
 20
589.9112035044172
 30
0.0
 11
646.3858385227322
 21
589.5335521291062
 31
0.0
  0
LINE
  5
A92F
330
1F
100
AcDbEntity
  8
SPOJOVACÍ
  6
Continuous
100
AcDbLine
 10
646.6044298347587
 20
589.9112035044172
 30
0.0
 11
646.9820812078869
 21
589.5335521291062
 31
0.0
  0
LINE
  5
A930
330
1F
100
AcDbEntity
  8
SPOJOVACÍ
  6
Continuous
100
AcDbLine
 10
645.4045030582965
 20
585.1114963985683
 30
0.0
 11
645.0259215094665
 21
585.4891477695137
 31
0.0
  0
LINE
  5
A931
330
1F
100
AcDbEntity
  8
SPOJOVACÍ
  6
Continuous
100
AcDbLine
 10
645.4045030582965
 20
585.1114963985683
 30
0.0
 11
645.622164194614
 21
585.4891477695137
 31
0.0
  0
LINE
  5
A932
330
1F
100
AcDbEntity
  8
SPOJOVACÍ
  6
Continuous
100
AcDbLine
 10
646.3858385227322
 20
589.5335521291062
 30
0.0
 11
645.0259215094665
 21
585.4891477695137
 31
0.0
  0
LINE
  5
A933
330
1F
100
AcDbEntity
  8
SPOJOVACÍ
  6
Continuous
100
AcDbLine
 10
646.9820812078869
 20
589.5335521291062
 30
0.0
 11
645.622164194614
 21
585.4891477695137
 31
0.0
  0
LINE
  5
A934
330
1F
100
AcDbEntity
  8
SPOJOVACÍ
  6
Continuous
100
AcDbLine
 10
662.4443934611808
 20
592.6115038401267
 30
0.0
 11
662.4443934611808
 21
582.4111960628588
 31
0.0
  0
LINE
  5
A935
330
1F
100
AcDbEntity
  8
SPOJOVACÍ
  6
Continuous
100
AcDbLine
 10
663.6443202379123
 20
582.4111960628588
 30
0.0
 11
662.4443934611808
 21
582.4111960628588
 31
0.0
  0
LINE
  5
A936
330
1F
100
AcDbEntity
  8
SPOJOVACÍ
  6
Continuous
100
AcDbLine
 10
663.6443202379123
 20
592.6115038401267
 30
0.0
 11
663.6443202379123
 21
582.4111960628588
 31
0.0
  0
LINE
  5
A937
330
1F
100
AcDbEntity
  8
SPOJOVACÍ
  6
Continuous
100
AcDbLine
 10
662.4443934611808
 20
582.4111960628588
 30
0.0
 11
661.5066424396245
 21
584.1120419834342
 31
0.0
  0
LINE
  5
A938
330
1F
100
AcDbEntity
  8
SPOJOVACÍ
  6
Continuous
100
AcDbLine
 10
473.3813454980227
 20
582.4111960628588
 30
0.0
 11
474.319096519579
 21
584.1120419834342
 31
0.0
  0
LINE
  5
A939
330
1F
100
AcDbEntity
  8
SPOJOVACÍ
  6
Continuous
100
AcDbLine
 10
472.1814187212912
 20
592.6115038401267
 30
0.0
 11
472.1814187212912
 21
582.4111960628588
 31
0.0
  0
LINE
  5
A93A
330
1F
100
AcDbEntity
  8
SPOJOVACÍ
  6
Continuous
100
AcDbLine
 10
472.1814187212912
 20
582.4111960628588
 30
0.0
 11
473.3813454980227
 21
582.4111960628588
 31
0.0
  0
LINE
  5
A93B
330
1F
100
AcDbEntity
  8
SPOJOVACÍ
  6
Continuous
100
AcDbLine
 10
473.3813454980227
 20
592.6115038401267
 30
0.0
 11
473.3813454980227
 21
582.4111960628588
 31
0.0
  0
LINE
  5
A93C
330
1F
100
AcDbEntity
  8
SPOJOVACÍ
  6
Continuous
100
AcDbLine
 10
488.8436577513166
 20
589.5335521291062
 30
0.0
 11
490.2035747645896
 21
585.4891477695137
 31
0.0
  0
LINE
  5
A93D
330
1F
100
AcDbEntity
  8
SPOJOVACÍ
  6
Continuous
100
AcDbLine
 10
489.4399004364713
 20
589.5335521291062
 30
0.0
 11
490.799817449737
 21
585.4891477695137
 31
0.0
  0
LINE
  5
A93E
330
1F
100
AcDbEntity
  8
SPOJOVACÍ
  6
Continuous
100
AcDbLine
 10
490.421235900907
 20
585.1114963985683
 30
0.0
 11
490.2035747645896
 21
585.4891477695137
 31
0.0
  0
LINE
  5
A93F
330
1F
100
AcDbEntity
  8
SPOJOVACÍ
  6
Continuous
100
AcDbLine
 10
490.421235900907
 20
585.1114963985683
 30
0.0
 11
490.799817449737
 21
585.4891477695137
 31
0.0
  0
LINE
  5
A940
330
1F
100
AcDbEntity
  8
SPOJOVACÍ
  6
Continuous
100
AcDbLine
 10
489.2213091244448
 20
589.9112035044172
 30
0.0
 11
488.8436577513166
 21
589.5335521291062
 31
0.0
  0
LINE
  5
A941
330
1F
100
AcDbEntity
  8
SPOJOVACÍ
  6
Continuous
100
AcDbLine
 10
489.2213091244448
 20
589.9112035044172
 30
0.0
 11
489.4399004364713
 21
589.5335521291062
 31
0.0
  0
LINE
  5
A942
330
1F
100
AcDbEntity
  8
SPOJOVACÍ
  6
Continuous
100
AcDbLine
 10
489.2213091244448
 20
589.9112035044172
 30
0.0
 11
490.421235900907
 21
585.1114963985683
 31
0.0
  0
LINE
  5
A943
330
1F
100
AcDbEntity
  8
SPOJOVACÍ
  6
Continuous
100
AcDbLine
 10
485.7238481320782
 20
589.5335521291062
 30
0.0
 11
487.0828349699186
 21
585.4891477695137
 31
0.0
  0
LINE
  5
A944
330
1F
100
AcDbEntity
  8
SPOJOVACÍ
  6
Continuous
100
AcDbLine
 10
486.320090817233
 20
589.5335521291062
 30
0.0
 11
487.6790776547968
 21
585.4891477695137
 31
0.0
  0
LINE
  5
A945
330
1F
100
AcDbEntity
  8
SPOJOVACÍ
  6
Continuous
100
AcDbLine
 10
487.3014262819451
 20
585.1114963985683
 30
0.0
 11
487.0828349699186
 21
585.4891477695137
 31
0.0
  0
LINE
  5
A946
330
1F
100
AcDbEntity
  8
SPOJOVACÍ
  6
Continuous
100
AcDbLine
 10
487.3014262819451
 20
585.1114963985683
 30
0.0
 11
487.6790776547968
 21
585.4891477695137
 31
0.0
  0
LINE
  5
A947
330
1F
100
AcDbEntity
  8
SPOJOVACÍ
  6
Continuous
100
AcDbLine
 10
486.1014995052064
 20
589.9112035044172
 30
0.0
 11
485.7238481320782
 21
589.5335521291062
 31
0.0
  0
LINE
  5
A948
330
1F
100
AcDbEntity
  8
SPOJOVACÍ
  6
Continuous
100
AcDbLine
 10
486.1014995052064
 20
589.9112035044172
 30
0.0
 11
486.320090817233
 21
589.5335521291062
 31
0.0
  0
LINE
  5
A949
330
1F
100
AcDbEntity
  8
SPOJOVACÍ
  6
Continuous
100
AcDbLine
 10
486.1014995052064
 20
589.9112035044172
 30
0.0
 11
487.3014262819451
 21
585.1114963985683
 31
0.0
  0
LINE
  5
A94A
330
1F
100
AcDbEntity
  8
SPOJOVACÍ
  6
Continuous
100
AcDbLine
 10
482.6031083374146
 20
589.5335521291062
 30
0.0
 11
483.9630253506802
 21
585.4891477695137
 31
0.0
  0
LINE
  5
A94B
330
1F
100
AcDbEntity
  8
SPOJOVACÍ
  6
Continuous
100
AcDbLine
 10
483.1993510222928
 20
589.5335521291062
 30
0.0
 11
484.559268035835
 21
585.4891477695137
 31
0.0
  0
LINE
  5
A94C
330
1F
100
AcDbEntity
  8
SPOJOVACÍ
  6
Continuous
100
AcDbLine
 10
484.1816166627068
 20
585.1114963985683
 30
0.0
 11
483.9630253506802
 21
585.4891477695137
 31
0.0
  0
LINE
  5
A94D
330
1F
100
AcDbEntity
  8
SPOJOVACÍ
  6
Continuous
100
AcDbLine
 10
484.1816166627068
 20
585.1114963985683
 30
0.0
 11
484.559268035835
 21
585.4891477695137
 31
0.0
  0
LINE
  5
A94E
330
1F
100
AcDbEntity
  8
SPOJOVACÍ
  6
Continuous
100
AcDbLine
 10
482.9816898862445
 20
589.9112035044172
 30
0.0
 11
482.6031083374146
 21
589.5335521291062
 31
0.0
  0
LINE
  5
A94F
330
1F
100
AcDbEntity
  8
SPOJOVACÍ
  6
Continuous
100
AcDbLine
 10
482.9816898862445
 20
589.9112035044172
 30
0.0
 11
483.1993510222928
 21
589.5335521291062
 31
0.0
  0
LINE
  5
A950
330
1F
100
AcDbEntity
  8
SPOJOVACÍ
  6
Continuous
100
AcDbLine
 10
482.9816898862445
 20
589.9112035044172
 30
0.0
 11
484.1816166627068
 21
585.1114963985683
 31
0.0
  0
LINE
  5
A951
330
1F
100
AcDbEntity
  8
SPOJOVACÍ
  6
Continuous
100
AcDbLine
 10
487.4428130028063
 20
586.1616648679419
 30
0.0
 11
489.9710308156755
 21
586.1616648679419
 31
0.0
  0
LINE
  5
A952
330
1F
100
AcDbEntity
  8
SPOJOVACÍ
  6
Continuous
100
AcDbLine
 10
484.3276542626226
 20
586.1616648679419
 30
0.0
 11
486.8465703176516
 21
586.1616648679419
 31
0.0
  0
LINE
  5
A953
330
1F
100
AcDbEntity
  8
SPOJOVACÍ
  6
Continuous
100
AcDbLine
 10
486.5368217775794
 20
588.861035030678
 30
0.0
 11
489.0575981842885
 21
588.861035030678
 31
0.0
  0
LINE
  5
A954
330
1F
100
AcDbEntity
  8
SPOJOVACÍ
  6
Continuous
100
AcDbLine
 10
483.4142216312357
 20
588.861035030678
 30
0.0
 11
485.9331376862646
 21
588.861035030678
 31
0.0
  0
LINE
  5
A955
330
1F
100
AcDbEntity
  8
SPOJOVACÍ
  6
Continuous
100
AcDbLine
 10
478.7810159923792
 20
588.861035030678
 30
0.0
 11
482.8189091220592
 21
588.861035030678
 31
0.0
  0
LINE
  5
A956
330
1F
100
AcDbEntity
  8
SPOJOVACÍ
  6
Continuous
100
AcDbLine
 10
478.7810159923792
 20
586.1616648679419
 30
0.0
 11
483.7239701713079
 21
586.1616648679419
 31
0.0
  0
LINE
  5
A957
330
1F
100
AcDbEntity
  8
SPOJOVACÍ
  6
Continuous
100
AcDbLine
 10
473.3813454980227
 20
592.6115038401267
 30
0.0
 11
474.1254861344969
 21
591.2618187565758
 31
0.0
  0
LINE
  5
A958
330
1F
100
AcDbEntity
  8
SPOJOVACÍ
  6
Continuous
100
AcDbLine
 10
474.1254861344969
 20
591.2618187565758
 30
0.0
 11
475.1942581239091
 21
590.1511888562172
 31
0.0
  0
LINE
  5
A959
330
1F
100
AcDbEntity
  8
SPOJOVACÍ
  6
Continuous
100
AcDbLine
 10
475.1942581239091
 20
590.1511888562172
 30
0.0
 11
476.5132474022066
 21
589.354958376899
 31
0.0
  0
LINE
  5
A95A
330
1F
100
AcDbEntity
  8
SPOJOVACÍ
  6
Continuous
100
AcDbLine
 10
476.5132474022066
 20
589.354958376899
 30
0.0
 11
477.9940872692568
 21
588.9270775125996
 31
0.0
  0
LINE
  5
A95B
330
1F
100
AcDbEntity
  8
SPOJOVACÍ
  6
Continuous
100
AcDbLine
 10
477.9940872692568
 20
588.9270775125996
 30
0.0
 11
478.7810159923792
 21
588.861035030678
 31
0.0
  0
LINE
  5
A95C
330
1F
100
AcDbEntity
  8
SPOJOVACÍ
  6
Continuous
100
AcDbLine
 10
472.1814187212912
 20
592.6115038401267
 30
0.0
 11
473.3813454980227
 21
592.6115038401267
 31
0.0
  0
LINE
  5
A95D
330
1F
100
AcDbEntity
  8
SPOJOVACÍ
  6
Continuous
100
AcDbLine
 10
478.7810159923792
 20
586.1616648679419
 30
0.0
 11
477.25738803895
 21
585.9347019770584
 31
0.0
  0
LINE
  5
A95E
330
1F
100
AcDbEntity
  8
SPOJOVACÍ
  6
Continuous
100
AcDbLine
 10
477.25738803895
 20
585.9347019770584
 30
0.0
 11
475.8435208292467
 21
585.3217161279108
 31
0.0
  0
LINE
  5
A95F
330
1F
100
AcDbEntity
  8
SPOJOVACÍ
  6
Continuous
100
AcDbLine
 10
475.8435208292467
 20
585.3217161279108
 30
0.0
 11
474.319096519579
 21
584.1120419834342
 31
0.0
  0
LINE
  5
A960
330
1F
100
AcDbEntity
  8
SPOJOVACÍ
  6
Continuous
100
AcDbLine
 10
495.0832769892477
 20
589.5335521291062
 30
0.0
 11
496.4431940027898
 21
585.4891477695137
 31
0.0
  0
LINE
  5
A961
330
1F
100
AcDbEntity
  8
SPOJOVACÍ
  6
Continuous
100
AcDbLine
 10
495.6795196744024
 20
589.5335521291062
 30
0.0
 11
497.0394366879445
 21
585.4891477695137
 31
0.0
  0
LINE
  5
A962
330
1F
100
AcDbEntity
  8
SPOJOVACÍ
  6
Continuous
100
AcDbLine
 10
496.6617853148163
 20
585.1114963985683
 30
0.0
 11
496.4431940027898
 21
585.4891477695137
 31
0.0
  0
LINE
  5
A963
330
1F
100
AcDbEntity
  8
SPOJOVACÍ
  6
Continuous
100
AcDbLine
 10
496.6617853148163
 20
585.1114963985683
 30
0.0
 11
497.0394366879445
 21
585.4891477695137
 31
0.0
  0
LINE
  5
A964
330
1F
100
AcDbEntity
  8
SPOJOVACÍ
  6
Continuous
100
AcDbLine
 10
495.4618585383541
 20
589.9112035044172
 30
0.0
 11
495.0832769892477
 21
589.5335521291062
 31
0.0
  0
LINE
  5
A965
330
1F
100
AcDbEntity
  8
SPOJOVACÍ
  6
Continuous
100
AcDbLine
 10
495.4618585383541
 20
589.9112035044172
 30
0.0
 11
495.6795196744024
 21
589.5335521291062
 31
0.0
  0
LINE
  5
A966
330
1F
100
AcDbEntity
  8
SPOJOVACÍ
  6
Continuous
100
AcDbLine
 10
495.4618585383541
 20
589.9112035044172
 30
0.0
 11
496.6617853148163
 21
585.1114963985683
 31
0.0
  0
LINE
  5
A967
330
1F
100
AcDbEntity
  8
SPOJOVACÍ
  6
Continuous
100
AcDbLine
 10
491.9634673702858
 20
589.5335521291062
 30
0.0
 11
493.3233843838279
 21
585.4891477695137
 31
0.0
  0
LINE
  5
A968
330
1F
100
AcDbEntity
  8
SPOJOVACÍ
  6
Continuous
100
AcDbLine
 10
492.5597100554332
 20
589.5335521291062
 30
0.0
 11
493.9196270687062
 21
585.4891477695137
 31
0.0
  0
LINE
  5
A969
330
1F
100
AcDbEntity
  8
SPOJOVACÍ
  6
Continuous
100
AcDbLine
 10
493.5410455198762
 20
585.1114963985683
 30
0.0
 11
493.3233843838279
 21
585.4891477695137
 31
0.0
  0
LINE
  5
A96A
330
1F
100
AcDbEntity
  8
SPOJOVACÍ
  6
Continuous
100
AcDbLine
 10
493.5410455198762
 20
585.1114963985683
 30
0.0
 11
493.9196270687062
 21
585.4891477695137
 31
0.0
  0
LINE
  5
A96B
330
1F
100
AcDbEntity
  8
SPOJOVACÍ
  6
Continuous
100
AcDbLine
 10
492.3411187434139
 20
589.9112035044172
 30
0.0
 11
491.9634673702858
 21
589.5335521291062
 31
0.0
  0
LINE
  5
A96C
330
1F
100
AcDbEntity
  8
SPOJOVACÍ
  6
Continuous
100
AcDbLine
 10
492.3411187434139
 20
589.9112035044172
 30
0.0
 11
492.5597100554332
 21
589.5335521291062
 31
0.0
  0
LINE
  5
A96D
330
1F
100
AcDbEntity
  8
SPOJOVACÍ
  6
Continuous
100
AcDbLine
 10
492.3411187434139
 20
589.9112035044172
 30
0.0
 11
493.5410455198762
 21
585.1114963985683
 31
0.0
  0
LINE
  5
A96E
330
1F
100
AcDbEntity
  8
SPOJOVACÍ
  6
Continuous
100
AcDbLine
 10
504.5673494032853
 20
588.5280320934189
 30
0.0
 11
504.8780281190593
 21
586.3737449519621
 31
0.0
  0
LINE
  5
A96F
330
1F
100
AcDbEntity
  8
SPOJOVACÍ
  6
Continuous
100
AcDbLine
 10
504.1896980301571
 20
588.1503807224735
 30
0.0
 11
504.6603669827418
 21
586.7513963229075
 31
0.0
  0
LINE
  5
A970
330
1F
100
AcDbEntity
  8
SPOJOVACÍ
  6
Continuous
100
AcDbLine
 10
504.7859407153046
 20
588.1503807224735
 30
0.0
 11
505.2566096678893
 21
586.7513963229075
 31
0.0
  0
LINE
  5
A971
330
1F
100
AcDbEntity
  8
SPOJOVACÍ
  6
Continuous
100
AcDbLine
 10
504.8780281190593
 20
586.3737449519621
 30
0.0
 11
504.6603669827418
 21
586.7513963229075
 31
0.0
  0
LINE
  5
A972
330
1F
100
AcDbEntity
  8
SPOJOVACÍ
  6
Continuous
100
AcDbLine
 10
504.8780281190593
 20
586.3737449519621
 30
0.0
 11
505.2566096678893
 21
586.7513963229075
 31
0.0
  0
LINE
  5
A973
330
1F
100
AcDbEntity
  8
SPOJOVACÍ
  6
Continuous
100
AcDbLine
 10
504.5673494032853
 20
588.5280320934189
 30
0.0
 11
504.1896980301571
 21
588.1503807224735
 31
0.0
  0
LINE
  5
A974
330
1F
100
AcDbEntity
  8
SPOJOVACÍ
  6
Continuous
100
AcDbLine
 10
504.5673494032853
 20
588.5280320934189
 30
0.0
 11
504.7859407153046
 21
588.1503807224735
 31
0.0
  0
LINE
  5
A975
330
1F
100
AcDbEntity
  8
SPOJOVACÍ
  6
Continuous
100
AcDbLine
 10
501.5535798249657
 20
589.0926488038903
 30
0.0
 11
502.1870295417357
 21
585.9765598874592
 31
0.0
  0
LINE
  5
A976
330
1F
100
AcDbEntity
  8
SPOJOVACÍ
  6
Continuous
100
AcDbLine
 10
501.1749982758592
 20
588.7149974285794
 30
0.0
 11
501.9693684056874
 21
586.3542112584045
 31
0.0
  0
LINE
  5
A977
330
1F
100
AcDbEntity
  8
SPOJOVACÍ
  6
Continuous
100
AcDbLine
 10
501.7712409610139
 20
588.7149974285794
 30
0.0
 11
502.5656110905656
 21
586.3542112584045
 31
0.0
  0
LINE
  5
A978
330
1F
100
AcDbEntity
  8
SPOJOVACÍ
  6
Continuous
100
AcDbLine
 10
502.1870295417357
 20
585.9765598874592
 30
0.0
 11
501.9693684056874
 21
586.3542112584045
 31
0.0
  0
LINE
  5
A979
330
1F
100
AcDbEntity
  8
SPOJOVACÍ
  6
Continuous
100
AcDbLine
 10
502.1870295417357
 20
585.9765598874592
 30
0.0
 11
502.5656110905656
 21
586.3542112584045
 31
0.0
  0
LINE
  5
A97A
330
1F
100
AcDbEntity
  8
SPOJOVACÍ
  6
Continuous
100
AcDbLine
 10
501.5535798249657
 20
589.0926488038903
 30
0.0
 11
501.1749982758592
 21
588.7149974285794
 31
0.0
  0
LINE
  5
A97B
330
1F
100
AcDbEntity
  8
SPOJOVACÍ
  6
Continuous
100
AcDbLine
 10
501.5535798249657
 20
589.0926488038903
 30
0.0
 11
501.7712409610139
 21
588.7149974285794
 31
0.0
  0
LINE
  5
A97C
330
1F
100
AcDbEntity
  8
SPOJOVACÍ
  6
Continuous
100
AcDbLine
 10
498.5388800706678
 20
589.6572655099962
 30
0.0
 11
499.5118439529724
 21
585.5319358572533
 31
0.0
  0
LINE
  5
A97D
330
1F
100
AcDbEntity
  8
SPOJOVACÍ
  6
Continuous
100
AcDbLine
 10
498.1612286975396
 20
589.2786839617119
 30
0.0
 11
499.2941828169241
 21
585.9095872281987
 31
0.0
  0
LINE
  5
A97E
330
1F
100
AcDbEntity
  8
SPOJOVACÍ
  6
Continuous
100
AcDbLine
 10
498.7574713826943
 20
589.2786839617119
 30
0.0
 11
499.8904255020788
 21
585.9095872281987
 31
0.0
  0
LINE
  5
A97F
330
1F
100
AcDbEntity
  8
SPOJOVACÍ
  6
Continuous
100
AcDbLine
 10
499.5118439529724
 20
585.5319358572533
 30
0.0
 11
499.2941828169241
 21
585.9095872281987
 31
0.0
  0
LINE
  5
A980
330
1F
100
AcDbEntity
  8
SPOJOVACÍ
  6
Continuous
100
AcDbLine
 10
499.5118439529724
 20
585.5319358572533
 30
0.0
 11
499.8904255020788
 21
585.9095872281987
 31
0.0
  0
LINE
  5
A981
330
1F
100
AcDbEntity
  8
SPOJOVACÍ
  6
Continuous
100
AcDbLine
 10
498.5388800706678
 20
589.6572655099962
 30
0.0
 11
498.1612286975396
 21
589.2786839617119
 31
0.0
  0
LINE
  5
A982
330
1F
100
AcDbEntity
  8
SPOJOVACÍ
  6
Continuous
100
AcDbLine
 10
498.5388800706678
 20
589.6572655099962
 30
0.0
 11
498.7574713826943
 21
589.2786839617119
 31
0.0
  0
LINE
  5
A983
330
1F
100
AcDbEntity
  8
SPOJOVACÍ
  6
Continuous
100
AcDbLine
 10
499.1174494155748
 20
586.4072312794096
 30
0.0
 11
497.1464069042886
 21
586.1616648679419
 31
0.0
  0
LINE
  5
A984
330
1F
100
AcDbEntity
  8
SPOJOVACÍ
  6
Continuous
100
AcDbLine
 10
501.8242609814733
 20
586.7458152719709
 30
0.0
 11
499.6876471786199
 21
586.4788548166334
 31
0.0
  0
LINE
  5
A985
330
1F
100
AcDbEntity
  8
SPOJOVACÍ
  6
Continuous
100
AcDbLine
 10
504.5413044809065
 20
587.08532943314
 30
0.0
 11
502.3963190959221
 21
586.8174388048291
 31
0.0
  0
LINE
  5
A986
330
1F
100
AcDbEntity
  8
SPOJOVACÍ
  6
Continuous
100
AcDbLine
 10
504.857564251437
 20
587.8973729053914
 30
0.0
 11
507.9466780692419
 21
587.5113499514927
 31
0.0
  0
LINE
  5
A987
330
1F
100
AcDbEntity
  8
SPOJOVACÍ
  6
Continuous
100
AcDbLine
 10
501.916348385228
 20
588.2647923430713
 30
0.0
 11
504.2371369955835
 21
587.9745774979173
 31
0.0
  0
LINE
  5
A988
330
1F
100
AcDbEntity
  8
SPOJOVACÍ
  6
Continuous
100
AcDbLine
 10
498.9639704094988
 20
588.634072135429
 30
0.0
 11
501.2856891955634
 21
588.3438572859095
 31
0.0
  0
LINE
  5
A989
330
1F
100
AcDbEntity
  8
SPOJOVACÍ
  6
Continuous
100
AcDbLine
 10
507.9466780692419
 20
587.5113499514927
 30
0.0
 11
505.1105720679734
 21
587.1569529703638
 31
0.0
  0
LINE
  5
A98A
330
1F
100
AcDbEntity
  8
SPOJOVACÍ
  6
Continuous
100
AcDbLine
 10
497.1464069042886
 20
588.861035030678
 30
0.0
 11
498.3435431536454
 21
588.711276727955
 31
0.0
  0
LINE
  5
A98B
330
1F
100
AcDbEntity
  8
SPOJOVACÍ
  6
Continuous
100
AcDbLine
 10
496.809683266405
 20
586.1616648679419
 30
0.0
 11
497.1464069042886
 21
586.1616648679419
 31
0.0
  0
LINE
  5
A98C
330
1F
100
AcDbEntity
  8
SPOJOVACÍ
  6
Continuous
100
AcDbLine
 10
493.6870831197921
 20
586.1616648679419
 30
0.0
 11
496.205999174821
 21
586.1616648679419
 31
0.0
  0
LINE
  5
A98D
330
1F
100
AcDbEntity
  8
SPOJOVACÍ
  6
Continuous
100
AcDbLine
 10
495.8990411623999
 20
588.861035030678
 30
0.0
 11
497.1464069042886
 21
588.861035030678
 31
0.0
  0
LINE
  5
A98E
330
1F
100
AcDbEntity
  8
SPOJOVACÍ
  6
Continuous
100
AcDbLine
 10
492.784812597918
 20
588.861035030678
 30
0.0
 11
495.3027984772452
 21
588.861035030678
 31
0.0
  0
LINE
  5
A98F
330
1F
100
AcDbEntity
  8
SPOJOVACÍ
  6
Continuous
100
AcDbLine
 10
490.5654131491501
 20
586.1616648679419
 30
0.0
 11
493.0861895558591
 21
586.1616648679419
 31
0.0
  0
LINE
  5
A990
330
1F
100
AcDbEntity
  8
SPOJOVACÍ
  6
Continuous
100
AcDbLine
 10
489.6519805177631
 20
588.861035030678
 30
0.0
 11
492.1801983306322
 21
588.861035030678
 31
0.0
  0
LINE
  5
A991
330
1F
100
AcDbEntity
  8
CETRIS
100
AcDbLine
 10
457.6734214657663
 20
895.1987636247913
 30
0.0
 11
471.6734214657662
 21
895.1987636247913
 31
0.0
  0
LINE
  5
A992
330
1F
100
AcDbEntity
  8
CETRIS
100
AcDbLine
 10
471.6734214657626
 20
566.372909926823
 30
0.0
 11
457.6734214657626
 21
566.3729099268212
 31
0.0
  0
LINE
  5
A993
330
1F
100
AcDbEntity
  8
CETRIS
100
AcDbLine
 10
472.1814187212949
 20
566.3729099268212
 30
0.0
 11
472.1814187212949
 21
580.3729099268212
 31
0.0
  0
LINE
  5
A994
330
1F
100
AcDbEntity
  8
CETRIS
100
AcDbLine
 10
486.1814187212912
 20
580.9116206983553
 30
0.0
 11
472.1814187212912
 21
580.9116206983589
 31
0.0
  0
LINE
  5
A995
330
1F
100
AcDbEntity
  8
CETRIS
100
AcDbLine
 10
486.1814187212912
 20
895.1987636247913
 30
0.0
 11
486.1814187212912
 21
580.9116206983553
 31
0.0
  0
LINE
  5
A996
330
1F
100
AcDbEntity
  8
CETRIS
100
AcDbLine
 10
472.1814187212912
 20
895.1987636247913
 30
0.0
 11
472.1814187212912
 21
580.9116206983589
 31
0.0
  0
LINE
  5
A997
330
1F
100
AcDbEntity
  8
CETRIS
100
AcDbLine
 10
471.6734214657662
 20
895.1987636247913
 30
0.0
 11
471.6734214657626
 21
566.372909926823
 31
0.0
  0
LINE
  5
A998
330
1F
100
AcDbEntity
  8
CETRIS
100
AcDbLine
 10
457.6734214657663
 20
895.1987636247913
 30
0.0
 11
457.6734214657626
 21
566.3729099268212
 31
0.0
  0
LINE
  5
A999
330
1F
100
AcDbEntity
  8
CETRIS
100
AcDbLine
 10
664.2341542479153
 20
566.372909926823
 30
0.0
 11
678.2341542479152
 21
566.3729099268212
 31
0.0
  0
LINE
  5
A99A
330
1F
100
AcDbEntity
  8
CETRIS
100
AcDbLine
 10
649.7261569923903
 20
580.9116206983553
 30
0.0
 11
663.7261569923903
 21
580.9116206983589
 31
0.0
  0
LINE
  5
A99B
330
1F
100
AcDbEntity
  8
CETRIS
100
AcDbLine
 10
648.6865730143144
 20
580.8805121643136
 30
0.0
 11
648.6865730143144
 21
594.8805121643135
 31
0.0
  0
LINE
  5
A99C
330
1F
100
AcDbEntity
  8
CETRIS
100
AcDbLine
 10
487.2210026993671
 20
580.8805121643136
 30
0.0
 11
487.2210026993671
 21
594.8805121643135
 31
0.0
  0
LINE
  5
A99D
330
1F
100
AcDbEntity
  8
CETRIS
100
AcDbLine
 10
487.2210026993671
 20
594.8805121643135
 30
0.0
 11
648.6865730143144
 21
594.8805121643135
 31
0.0
  0
LINE
  5
A99E
330
1F
100
AcDbEntity
  8
CETRIS
100
AcDbLine
 10
487.2210026993671
 20
580.8805121643136
 30
0.0
 11
648.6865730143144
 21
580.8805121643136
 31
0.0
  0
LINE
  5
A99F
330
1F
100
AcDbEntity
  8
CETRIS
100
AcDbLine
 10
663.9800233494716
 20
895.1987636247913
 30
0.0
 11
678.2341542479152
 21
895.1987636247913
 31
0.0
  0
LINE
  5
A9A0
330
1F
100
AcDbEntity
  8
CETRIS
100
AcDbLine
 10
678.2341542479152
 20
895.1987636247913
 30
0.0
 11
678.2341542479189
 21
566.3729099268212
 31
0.0
  0
LINE
  5
A9A1
330
1F
100
AcDbEntity
  8
CETRIS
100
AcDbLine
 10
664.2341542479153
 20
895.1987636247913
 30
0.0
 11
664.2341542479189
 21
566.372909926823
 31
0.0
  0
TEXT
  5
A9A2
330
1F
100
AcDbEntity
  8
POPIS
100
AcDbText
 10
1172.756329473751
 20
813.6910423447998
 30
0.0
 40
12.0
  1
R
 41
0.85
  7
SIMPLEX7
100
AcDbText
  0
CIRCLE
  5
A9A3
330
1F
100
AcDbEntity
  8
POPIS
100
AcDbCircle
 10
1177.515358528933
 20
819.2363880897874
 30
0.0
 40
11.13656048292026
  0
HATCH
  5
A9A4
330
1F
100
AcDbEntity
  8
STAVBA OBRYS
100
AcDbHatch
 10
0.0
 20
0.0
 30
0.0
210
0.0
220
0.0
230
1.0
  2
AR-CONC
 70
     0
 71
     0
 91
        2
 92
        7
 72
     0
 73
     1
 93
       14
 10
827.3092767376548
 20
984.416854474689
 10
283.1669806546305
 20
984.416854474689
 10
230.3537439978063
 20
900.1987636247914
 10
383.2690249711268
 20
900.1987636247914
 10
383.2690249711268
 20
930.0085629107226
 10
385.5605781463855
 20
933.6806991321891
 10
387.8521313216369
 20
930.0085629107133
 10
387.8521313216369
 20
900.1987636247894
 10
547.6653541696541
 20
900.1987636247894
 10
547.6653541696468
 20
930.0085629107188
 10
549.9569073449129
 20
933.6806991321928
 10
552.2484605201716
 20
930.0085629107206
 10
552.2484605201643
 20
900.1987636247894
 10
774.4960400808231
 20
900.1987636247914
 97
        0
 92
       24
 93
        4
 72
     1
 10
695.1133496804868
 20
902.5262372673832
 11
735.9447787391582
 21
902.5262372673832
 72
     1
 10
735.9447787391509
 20
902.5262372673832
 11
735.9447787391509
 21
940.819211346511
 72
     1
 10
735.9447787391509
 20
940.819211346511
 11
695.1133496804868
 21
940.819211346511
 72
     1
 10
695.1133496804868
 20
940.819211346511
 11
695.1133496804868
 21
902.5262372673832
 97
        0
 75
     0
 76
     1
 52
0.0
 41
0.5
 77
     0
 78
    13
 53
50.0
 43
-30481.47543116238
 44
-9058.214831250694
 45
91.092334498002
 46
-7.969542769451543
 79
     2
 49
9.525
 49
-104.775
 53
355.0
 43
-30481.47543116238
 44
-9058.214831250694
 45
-17.62141298783349
 46
95.52832144108998
 79
     2
 49
7.62
 49
-83.81999999999999
 53
100.451
 43
-30473.88443116238
 44
-9058.878956250692
 45
73.47125083297962
 46
87.55834391014593
 79
     2
 49
8.095
 49
-89.045
 53
46.1842
 43
-30481.47543116238
 44
-9032.814831250693
 45
135.5395204460649
 46
-21.02116396636357
 79
     2
 49
14.28749999999999
 49
-157.1625
 53
96.63559999999998
 43
-30470.18048116238
 44
-9034.566581250691
 45
118.7021172331185
 46
123.7127779450246
 79
     2
 49
12.14249999999998
 49
-133.5674999999997
 53
351.184
 43
-30481.47543116238
 44
-9032.814831250693
 45
118.7023029069669
 46
123.7125589302988
 79
     2
 49
11.43
 49
-125.73
 53
21.0
 43
-30468.77543116238
 44
-9039.164831250694
 45
75.80743991769164
 46
-51.13275925838125
 79
     2
 49
9.525
 49
-104.775
 53
326.0
 43
-30468.77543116238
 44
-9039.164831250694
 45
30.90101417382353
 46
92.09398306115962
 79
     2
 49
7.62
 49
-83.81999999999999
 53
71.45140000000001
 43
-30462.45818116238
 44
-9043.425881250692
 45
106.7082453850622
 46
40.96142885802872
 79
     2
 49
8.095
 49
-89.045
 53
37.5
 43
-30481.47543116238
 44
-9058.214831250694
 45
1.544301625295908
 46
42.27751943657655
 79
     6
 49
0.0
 49
-82.804
 49
0.0
 49
-85.09
 49
0.0
 49
-84.1375
 53
7.499999999999999
 43
-30481.47543116238
 44
-9058.214831250694
 45
33.40983125515287
 46
50.09028740905975
 79
     6
 49
0.0
 49
-48.51399999999999
 49
0.0
 49
-80.899
 49
0.0
 49
-32.0675
 53
327.4999999999999
 43
-30509.79643116238
 44
-9058.214831250694
 45
67.79529758343568
 46
-2.864371996336732
 79
     6
 49
0.0
 49
-31.75
 49
0.0
 49
-99.06
 49
0.0
 49
-131.4449999999999
 53
317.5
 43
-30522.49643116238
 44
-9058.214831250694
 45
74.06459069300902
 46
12.7132455166665
 79
     6
 49
0.0
 49
-41.275
 49
0.0
 49
-65.786
 49
0.0
 49
-93.345
 47
0.8063339469046228
 98
        1
 10
668.8835359471741
 20
937.9149211215672
  0
INSERT
  5
A9A5
330
1F
100
AcDbEntity
  8
POPIS
100
AcDbBlockReference
  2
E_PUNKT
 10
678.2152598328466
 20
895.2167103689507
 30
0.0
 41
0.6499999999996362
 42
0.6499999999996362
 43
0.65
 50
270.0
  0
LINE
  5
A9A6
330
1F
100
AcDbEntity
  8
POPIS
100
AcDbLine
 10
705.7965171351861
 20
866.9234056762061
 30
0.0
 11
678.2756293627535
 21
895.0873049092306
 31
0.0
  0
TEXT
  5
A9A7
330
1F
100
AcDbEntity
  8
POPIS
100
AcDbText
 10
758.0235215558968
 20
567.4739500033419
 30
0.0
 40
25.0
  1
02
 41
0.85
  7
SIMPLEX7
100
AcDbText
  0
LINE
  5
A9A8
330
1F
100
AcDbEntity
  8
POPIS
100
AcDbLine
 10
746.1035992834331
 20
675.3463179685978
 30
0.0
 11
571.9128694796018
 21
675.3463179685978
 31
0.0
  0
TEXT
  5
A9A9
330
1F
100
AcDbEntity
  8
POPIS
100
AcDbText
 10
758.0235215558968
 20
662.5995110173853
 30
0.0
 40
25.0
  1
04
 41
0.85
  7
SIMPLEX7
100
AcDbText
  0
LINE
  5
A9AA
330
1F
100
AcDbEntity
  8
POPIS
100
AcDbLine
 10
746.1035992834331
 20
794.6337105375978
 30
0.0
 11
656.0502244166382
 21
794.6337105375978
 31
0.0
  0
TEXT
  5
A9AB
330
1F
100
AcDbEntity
  8
POPIS
100
AcDbText
 10
758.0235215558968
 20
781.8869035863854
 30
0.0
 40
25.0
  1
01
 41
0.85
  7
SIMPLEX7
100
AcDbText
  0
LINE
  5
A9AC
330
1F
100
AcDbEntity
  8
POPIS
100
AcDbLine
 10
746.1035992834331
 20
866.9234056762043
 30
0.0
 11
705.7965171351861
 21
866.9234056762061
 31
0.0
  0
TEXT
  5
A9AD
330
1F
100
AcDbEntity
  8
POPIS
100
AcDbText
 10
758.0235215558968
 20
854.1765987249918
 30
0.0
 40
25.0
  1
03
 41
0.85
  7
SIMPLEX7
100
AcDbText
  0
TEXT
  5
A9AE
330
1F
100
AcDbEntity
  8
POPIS
100
AcDbText
 10
758.0235215558968
 20
607.7443566792235
 30
0.0
 40
25.0
  1
05
 41
0.85
  7
SIMPLEX7
100
AcDbText
  0
LINE
  5
A9AF
330
1F
100
AcDbEntity
  8
POPIS
100
AcDbLine
 10
746.1035992834331
 20
620.4911636304359
 30
0.0
 11
637.7324548686047
 21
620.4911636304341
 31
0.0
  0
TEXT
  5
A9B0
330
1F
100
AcDbEntity
  8
POPIS
100
AcDbText
 10
1005.130144234706
 20
648.8810996187212
 30
0.0
 40
25.0
  1
Montážní vložka (min. tl. 24 mm)
 41
0.7
  7
SIMPLEX7
100
AcDbText
  0
TEXT
  5
A9B1
330
1F
100
AcDbEntity
  8
POPIS
100
AcDbText
 10
950.7864410749643
 20
648.8810996187212
 30
0.0
 40
25.0
  1
05
 41
0.85
  7
SIMPLEX7
100
AcDbText
  0
TEXT
  5
A9B2
330
1F
100
AcDbEntity
  8
POPIS
100
AcDbText
 10
950.7864410749643
 20
788.715732236521
 30
0.0
 40
25.0
  1
01
 41
0.85
  7
SIMPLEX7
100
AcDbText
  0
TEXT
  5
A9B3
330
1F
100
AcDbEntity
  8
POPIS
100
AcDbText
 10
1005.130144234706
 20
788.715732236521
 30
0.0
 40
25.0
  1
Deska CETRIS   
 41
0.7
  7
SIMPLEX7
100
AcDbText
  0
TEXT
  5
A9B4
330
1F
100
AcDbEntity
  8
POPIS
100
AcDbText
 10
950.7864410749643
 20
752.1207206208937
 30
0.0
 40
25.0
  1
02
 41
0.85
  7
SIMPLEX7
100
AcDbText
  0
TEXT
  5
A9B5
330
1F
100
AcDbEntity
  8
POPIS
100
AcDbText
 10
1005.130144234706
 20
752.1207206208937
 30
0.0
 40
25.0
  1
Vrut Cetris 4,2x35 (45,55) mm
 41
0.7
  7
SIMPLEX7
100
AcDbText
  0
TEXT
  5
A9B6
330
1F
100
AcDbEntity
  8
POPIS
100
AcDbText
 10
950.7864410749643
 20
718.1705323761716
 30
0.0
 40
25.0
  1
03
 41
0.85
  7
SIMPLEX7
100
AcDbText
  0
TEXT
  5
A9B7
330
1F
100
AcDbEntity
  8
POPIS
100
AcDbText
 10
1005.130144234706
 20
718.1705323761716
 30
0.0
 40
25.0
  1
Žáruvzdorný tmel DEXAFLAMM - R
 41
0.7
  7
SIMPLEX7
100
AcDbText
  0
TEXT
  5
A9B8
330
1F
100
AcDbEntity
  8
POPIS
100
AcDbText
 10
950.7864410749643
 20
682.7663711580071
 30
0.0
 40
25.0
  1
04
 41
0.85
  7
SIMPLEX7
100
AcDbText
  0
TEXT
  5
A9B9
330
1F
100
AcDbEntity
  8
POPIS
100
AcDbText
 10
1005.130144234706
 20
682.7663711580071
 30
0.0
 40
25.0
  1
Ocelový nosník (IPE, HE-B, HE-A,...)
 41
0.7
  7
SIMPLEX7
100
AcDbText
  0
LWPOLYLINE
  5
A9BA
330
1F
100
AcDbEntity
  8
izolace
100
AcDbPolyline
 90
        4
 70
     1
 43
0.0
 10
486.1814187212912
 20
895.1987636247913
 10
486.1814187212912
 20
900.1987636247914
 10
457.6734214657626
 20
900.1987636247914
 10
457.6734214657663
 20
895.1987636247913
  0
LINE
  5
A9BB
330
1F
100
AcDbEntity
  8
STAVBA OBRYS
100
AcDbLine
 10
236.9353289509999
 20
900.1987636247914
 30
0.0
 11
899.6493991499482
 21
900.1987636247914
 31
0.0
  0
LINE
  5
A9BC
330
1F
100
AcDbEntity
  8
CETRIS
100
AcDbLine
 10
472.1814187212949
 20
566.3729099268212
 30
0.0
 11
663.7261569923866
 21
566.3729099268212
 31
0.0
  0
LINE
  5
A9BD
330
1F
100
AcDbEntity
  8
CETRIS
100
AcDbLine
 10
472.1814187212949
 20
580.3729099268212
 30
0.0
 11
663.7261569923866
 21
580.3729099268212
 31
0.0
  0
LINE
  5
A9BE
330
1F
100
AcDbEntity
  8
NOSNÉ KONSTRUKCE
100
AcDbLine
 10
486.9128694796054
 20
886.9070771768429
 30
0.0
 11
486.9128694796054
 21
609.5614796468407
 31
0.0
  0
LINE
  5
A9BF
330
1F
100
AcDbEntity
  8
NOSNÉ KONSTRUKCE
100
AcDbLine
 10
511.9128694796017
 20
886.9070771768429
 30
0.0
 11
511.9128694796054
 21
609.5614796468407
 31
0.0
  0
LINE
  5
A9C0
330
1F
100
AcDbEntity
  8
NOSNÉ KONSTRUKCE
100
AcDbLine
 10
511.9128694796054
 20
609.5614796468407
 30
0.0
 11
486.9128694796017
 21
609.5614796468407
 31
0.0
  0
LINE
  5
A9C1
330
1F
100
AcDbEntity
  8
STAVBA OBRYS
100
AcDbLine
 10
491.9128694796017
 20
900.1987636247914
 30
0.0
 11
643.9128694796018
 21
900.1987636247914
 31
0.0
  0
LINE
  5
A9C2
330
1F
100
AcDbEntity
  8
STAVBA OBRYS
100
AcDbLine
 10
548.9128694796018
 20
887.4985683122913
 30
0.0
 11
491.9128694796017
 21
887.4985683122913
 31
0.0
  0
LINE
  5
A9C3
330
1F
100
AcDbEntity
  8
STAVBA OBRYS
100
AcDbLine
 10
491.9128694796017
 20
900.1987636247914
 30
0.0
 11
491.9128694796017
 21
887.4985683122913
 31
0.0
  0
LINE
  5
A9C4
330
1F
100
AcDbEntity
  8
STAVBA OBRYS
100
AcDbLine
 10
571.9128694796018
 20
872.4985683122913
 30
0.0
 11
571.9128694796018
 21
623.8989589372913
 31
0.0
  0
LINE
  5
A9C5
330
1F
100
AcDbEntity
  8
STAVBA OBRYS
100
AcDbLine
 10
586.9128694796017
 20
887.4985683122913
 30
0.0
 11
643.9128694796018
 21
887.4985683122913
 31
0.0
  0
ARC
  5
A9C6
330
1F
100
AcDbEntity
  8
STAVBA OBRYS
100
AcDbCircle
 10
586.9128694796017
 20
872.4985683122913
 30
0.0
 40
15.0
100
AcDbArc
 50
90.00000250441658
 51
180.0000050089374
  0
LINE
  5
A9C7
330
1F
100
AcDbEntity
  8
STAVBA OBRYS
100
AcDbLine
 10
563.9128694796018
 20
872.4985683122913
 30
0.0
 11
563.9128694796018
 21
623.8989589372913
 31
0.0
  0
ARC
  5
A9C8
330
1F
100
AcDbEntity
  8
STAVBA OBRYS
100
AcDbCircle
 10
548.9128694796018
 20
872.4985683122913
 30
0.0
 40
15.0
100
AcDbArc
 50
359.9999316981083
 51
89.9999342025249
  0
LINE
  5
A9C9
330
1F
100
AcDbEntity
  8
STAVBA OBRYS
100
AcDbLine
 10
643.9128694796018
 20
900.1987636247914
 30
0.0
 11
643.9128694796018
 21
887.4985683122913
 31
0.0
  0
LINE
  5
A9CA
330
1F
100
AcDbEntity
  8
STAVBA OBRYS
100
AcDbLine
 10
586.9128694796017
 20
608.8989589372913
 30
0.0
 11
643.9128694796018
 21
608.8989589372913
 31
0.0
  0
LINE
  5
A9CB
330
1F
100
AcDbEntity
  8
STAVBA OBRYS
100
AcDbLine
 10
491.9128694796017
 20
596.1987636247913
 30
0.0
 11
643.9128694796018
 21
596.1987636247913
 31
0.0
  0
ARC
  5
A9CC
330
1F
100
AcDbEntity
  8
STAVBA OBRYS
100
AcDbCircle
 10
586.9128694796017
 20
623.8989589372913
 30
0.0
 40
15.0
100
AcDbArc
 50
179.9999230466673
 51
269.9999255511881
  0
LINE
  5
A9CD
330
1F
100
AcDbEntity
  8
STAVBA OBRYS
100
AcDbLine
 10
548.9128694796018
 20
608.8989589372913
 30
0.0
 11
491.9128694796017
 21
608.8989589372913
 31
0.0
  0
ARC
  5
A9CE
330
1F
100
AcDbEntity
  8
STAVBA OBRYS
100
AcDbCircle
 10
548.9128694796018
 20
623.8989589372913
 30
0.0
 40
15.0
100
AcDbArc
 50
270.0000111559617
 51
0.00001366037834
  0
LINE
  5
A9CF
330
1F
100
AcDbEntity
  8
STAVBA OBRYS
100
AcDbLine
 10
491.9128694796017
 20
608.8989589372913
 30
0.0
 11
491.9128694796017
 21
596.1987636247913
 31
0.0
  0
LINE
  5
A9D0
330
1F
100
AcDbEntity
  8
STAVBA OBRYS
100
AcDbLine
 10
643.9128694796018
 20
608.8989589372913
 30
0.0
 11
643.9128694796018
 21
596.1987636247913
 31
0.0
  0
HATCH
  5
A9D1
330
1F
100
AcDbEntity
  8
STAVBA OBRYS
100
AcDbHatch
 10
0.0
 20
0.0
 30
0.0
210
0.0
220
0.0
230
1.0
  2
ANSI37
 70
     0
 71
     0
 91
        1
 92
        7
 72
     1
 73
     1
 93
       16
 10
643.9128694796054
 20
900.1987636247914
 42
0.0
 10
491.9128694796054
 20
900.1987636247894
 42
0.0
 10
491.9128694796054
 20
887.4985683122895
 42
0.0
 10
548.9128694796018
 20
887.4985683122913
 42
-0.4142135623730847
 10
563.9128694796018
 20
872.4985683122913
 42
0.0
 10
563.9128694796018
 20
623.8989589372913
 42
-0.4142135623731522
 10
548.9128694795981
 20
608.8989589372913
 42
0.0
 10
491.9128694796017
 20
608.8989589372895
 42
0.0
 10
491.9128694796017
 20
596.1987636247895
 42
0.0
 10
643.9128694796018
 20
596.1987636247913
 42
0.0
 10
643.9128694796018
 20
608.8989589372913
 42
0.0
 10
586.9128694796017
 20
608.8989589372913
 42
-0.4142135623730809
 10
571.9128694796018
 20
623.8989589372895
 42
0.0
 10
571.9128694796018
 20
872.4985683122913
 42
-0.4142135623730937
 10
586.9128694796017
 20
887.4985683122913
 42
0.0
 10
643.9128694796018
 20
887.4985683122913
 42
0.0
 97
        0
 75
     0
 76
     1
 52
90.0
 41
1.0
 77
     0
 78
     2
 53
135.0
 43
-30194.72979821828
 44
-11000.00099538563
 45
-2.245064030267288
 46
-2.245064030267287
 79
     0
 53
225.0
 43
-30194.72979821828
 44
-11000.00099538563
 45
2.245064030267287
 46
-2.245064030267288
 79
     0
 47
1.101153867433874
 98
        1
 10
568.3179043520831
 20
890.9639812108389
  0
LINE
  5
A9D2
330
1F
100
AcDbEntity
  8
NOSNÉ KONSTRUKCE
100
AcDbLine
 10
511.9128694796017
 20
886.9070771768429
 30
0.0
 11
486.9128694796054
 21
886.9070771768429
 31
0.0
  0
LINE
  5
A9D3
330
1F
100
AcDbEntity
  8
NOSNÉ KONSTRUKCE
100
AcDbLine
 10
623.9128694796018
 20
886.9070771768429
 30
0.0
 11
648.9128694795981
 21
886.9070771768429
 31
0.0
  0
LINE
  5
A9D4
330
1F
100
AcDbEntity
  8
NOSNÉ KONSTRUKCE
100
AcDbLine
 10
648.9128694795981
 20
886.9070771768429
 30
0.0
 11
648.9128694795981
 21
609.5614796468407
 31
0.0
  0
LINE
  5
A9D5
330
1F
100
AcDbEntity
  8
NOSNÉ KONSTRUKCE
100
AcDbLine
 10
623.9128694796018
 20
886.9070771768429
 30
0.0
 11
623.9128694795981
 21
609.5614796468407
 31
0.0
  0
LINE
  5
A9D6
330
1F
100
AcDbEntity
  8
NOSNÉ KONSTRUKCE
100
AcDbLine
 10
623.9128694795981
 20
609.5614796468407
 30
0.0
 11
648.9128694796018
 21
609.5614796468407
 31
0.0
  0
LINE
  5
A9D7
330
1F
100
AcDbEntity
  8
CETRIS
100
AcDbLine
 10
486.1814187212912
 20
895.1987636247913
 30
0.0
 11
472.1814187212912
 21
895.1987636247913
 31
0.0
  0
LINE
  5
A9D8
330
1F
100
AcDbEntity
  8
SPOJOVACÍ
  6
Continuous
100
AcDbLine
 10
473.3990152469123
 20
867.0191335848404
 30
0.0
 11
474.3367662684686
 21
868.7199795054157
 31
0.0
  0
LINE
  5
A9D9
330
1F
100
AcDbEntity
  8
SPOJOVACÍ
  6
Continuous
100
AcDbLine
 10
472.1990884701808
 20
877.2194413621082
 30
0.0
 11
472.1990884701808
 21
867.0191335848404
 31
0.0
  0
LINE
  5
A9DA
330
1F
100
AcDbEntity
  8
SPOJOVACÍ
  6
Continuous
100
AcDbLine
 10
472.1990884701808
 20
867.0191335848404
 30
0.0
 11
473.3990152469123
 21
867.0191335848404
 31
0.0
  0
LINE
  5
A9DB
330
1F
100
AcDbEntity
  8
SPOJOVACÍ
  6
Continuous
100
AcDbLine
 10
473.3990152469123
 20
877.2194413621082
 30
0.0
 11
473.3990152469123
 21
867.0191335848404
 31
0.0
  0
LINE
  5
A9DC
330
1F
100
AcDbEntity
  8
SPOJOVACÍ
  6
Continuous
100
AcDbLine
 10
488.8613275002062
 20
874.1414896510878
 30
0.0
 11
490.2212445134791
 21
870.0970852914952
 31
0.0
  0
LINE
  5
A9DD
330
1F
100
AcDbEntity
  8
SPOJOVACÍ
  6
Continuous
100
AcDbLine
 10
489.4575701853609
 20
874.1414896510878
 30
0.0
 11
490.8174871986266
 21
870.0970852914952
 31
0.0
  0
LINE
  5
A9DE
330
1F
100
AcDbEntity
  8
SPOJOVACÍ
  6
Continuous
100
AcDbLine
 10
490.4389056497966
 20
869.7194339205498
 30
0.0
 11
490.2212445134791
 21
870.0970852914952
 31
0.0
  0
LINE
  5
A9DF
330
1F
100
AcDbEntity
  8
SPOJOVACÍ
  6
Continuous
100
AcDbLine
 10
490.4389056497966
 20
869.7194339205498
 30
0.0
 11
490.8174871986266
 21
870.0970852914952
 31
0.0
  0
LINE
  5
A9E0
330
1F
100
AcDbEntity
  8
SPOJOVACÍ
  6
Continuous
100
AcDbLine
 10
489.2389788733344
 20
874.5191410263988
 30
0.0
 11
488.8613275002062
 21
874.1414896510878
 31
0.0
  0
LINE
  5
A9E1
330
1F
100
AcDbEntity
  8
SPOJOVACÍ
  6
Continuous
100
AcDbLine
 10
489.2389788733344
 20
874.5191410263988
 30
0.0
 11
489.4575701853609
 21
874.1414896510878
 31
0.0
  0
LINE
  5
A9E2
330
1F
100
AcDbEntity
  8
SPOJOVACÍ
  6
Continuous
100
AcDbLine
 10
489.2389788733344
 20
874.5191410263988
 30
0.0
 11
490.4389056497966
 21
869.7194339205498
 31
0.0
  0
LINE
  5
A9E3
330
1F
100
AcDbEntity
  8
SPOJOVACÍ
  6
Continuous
100
AcDbLine
 10
485.7415178809678
 20
874.1414896510878
 30
0.0
 11
487.1005047188082
 21
870.0970852914952
 31
0.0
  0
LINE
  5
A9E4
330
1F
100
AcDbEntity
  8
SPOJOVACÍ
  6
Continuous
100
AcDbLine
 10
486.3377605661225
 20
874.1414896510878
 30
0.0
 11
487.6967474036864
 21
870.0970852914952
 31
0.0
  0
LINE
  5
A9E5
330
1F
100
AcDbEntity
  8
SPOJOVACÍ
  6
Continuous
100
AcDbLine
 10
487.3190960308347
 20
869.7194339205498
 30
0.0
 11
487.1005047188082
 21
870.0970852914952
 31
0.0
  0
LINE
  5
A9E6
330
1F
100
AcDbEntity
  8
SPOJOVACÍ
  6
Continuous
100
AcDbLine
 10
487.3190960308347
 20
869.7194339205498
 30
0.0
 11
487.6967474036864
 21
870.0970852914952
 31
0.0
  0
LINE
  5
A9E7
330
1F
100
AcDbEntity
  8
SPOJOVACÍ
  6
Continuous
100
AcDbLine
 10
486.119169254096
 20
874.5191410263988
 30
0.0
 11
485.7415178809678
 21
874.1414896510878
 31
0.0
  0
LINE
  5
A9E8
330
1F
100
AcDbEntity
  8
SPOJOVACÍ
  6
Continuous
100
AcDbLine
 10
486.119169254096
 20
874.5191410263988
 30
0.0
 11
486.3377605661225
 21
874.1414896510878
 31
0.0
  0
LINE
  5
A9E9
330
1F
100
AcDbEntity
  8
SPOJOVACÍ
  6
Continuous
100
AcDbLine
 10
486.119169254096
 20
874.5191410263988
 30
0.0
 11
487.3190960308347
 21
869.7194339205498
 31
0.0
  0
LINE
  5
A9EA
330
1F
100
AcDbEntity
  8
SPOJOVACÍ
  6
Continuous
100
AcDbLine
 10
482.6207780863041
 20
874.1414896510878
 30
0.0
 11
483.9806950995698
 21
870.0970852914952
 31
0.0
  0
LINE
  5
A9EB
330
1F
100
AcDbEntity
  8
SPOJOVACÍ
  6
Continuous
100
AcDbLine
 10
483.2170207711824
 20
874.1414896510878
 30
0.0
 11
484.5769377847245
 21
870.0970852914952
 31
0.0
  0
LINE
  5
A9EC
330
1F
100
AcDbEntity
  8
SPOJOVACÍ
  6
Continuous
100
AcDbLine
 10
484.1992864115963
 20
869.7194339205498
 30
0.0
 11
483.9806950995698
 21
870.0970852914952
 31
0.0
  0
LINE
  5
A9ED
330
1F
100
AcDbEntity
  8
SPOJOVACÍ
  6
Continuous
100
AcDbLine
 10
484.1992864115963
 20
869.7194339205498
 30
0.0
 11
484.5769377847245
 21
870.0970852914952
 31
0.0
  0
LINE
  5
A9EE
330
1F
100
AcDbEntity
  8
SPOJOVACÍ
  6
Continuous
100
AcDbLine
 10
482.9993596351341
 20
874.5191410263988
 30
0.0
 11
482.6207780863041
 21
874.1414896510878
 31
0.0
  0
LINE
  5
A9EF
330
1F
100
AcDbEntity
  8
SPOJOVACÍ
  6
Continuous
100
AcDbLine
 10
482.9993596351341
 20
874.5191410263988
 30
0.0
 11
483.2170207711824
 21
874.1414896510878
 31
0.0
  0
LINE
  5
A9F0
330
1F
100
AcDbEntity
  8
SPOJOVACÍ
  6
Continuous
100
AcDbLine
 10
482.9993596351341
 20
874.5191410263988
 30
0.0
 11
484.1992864115963
 21
869.7194339205498
 31
0.0
  0
LINE
  5
A9F1
330
1F
100
AcDbEntity
  8
SPOJOVACÍ
  6
Continuous
100
AcDbLine
 10
487.4604827516959
 20
870.7696023899234
 30
0.0
 11
489.988700564565
 21
870.7696023899234
 31
0.0
  0
LINE
  5
A9F2
330
1F
100
AcDbEntity
  8
SPOJOVACÍ
  6
Continuous
100
AcDbLine
 10
484.3453240115122
 20
870.7696023899234
 30
0.0
 11
486.8642400665412
 21
870.7696023899234
 31
0.0
  0
LINE
  5
A9F3
330
1F
100
AcDbEntity
  8
SPOJOVACÍ
  6
Continuous
100
AcDbLine
 10
486.554491526469
 20
873.4689725526596
 30
0.0
 11
489.0752679331781
 21
873.4689725526596
 31
0.0
  0
LINE
  5
A9F4
330
1F
100
AcDbEntity
  8
SPOJOVACÍ
  6
Continuous
100
AcDbLine
 10
483.4318913801253
 20
873.4689725526596
 30
0.0
 11
485.9508074351542
 21
873.4689725526596
 31
0.0
  0
LINE
  5
A9F5
330
1F
100
AcDbEntity
  8
SPOJOVACÍ
  6
Continuous
100
AcDbLine
 10
478.7986857412688
 20
873.4689725526596
 30
0.0
 11
482.8365788709488
 21
873.4689725526596
 31
0.0
  0
LINE
  5
A9F6
330
1F
100
AcDbEntity
  8
SPOJOVACÍ
  6
Continuous
100
AcDbLine
 10
478.7986857412688
 20
870.7696023899234
 30
0.0
 11
483.7416399201974
 21
870.7696023899234
 31
0.0
  0
LINE
  5
A9F7
330
1F
100
AcDbEntity
  8
SPOJOVACÍ
  6
Continuous
100
AcDbLine
 10
473.3990152469123
 20
877.2194413621082
 30
0.0
 11
474.1431558833864
 21
875.8697562785574
 31
0.0
  0
LINE
  5
A9F8
330
1F
100
AcDbEntity
  8
SPOJOVACÍ
  6
Continuous
100
AcDbLine
 10
474.1431558833864
 20
875.8697562785574
 30
0.0
 11
475.2119278727986
 21
874.7591263781988
 31
0.0
  0
LINE
  5
A9F9
330
1F
100
AcDbEntity
  8
SPOJOVACÍ
  6
Continuous
100
AcDbLine
 10
475.2119278727986
 20
874.7591263781988
 30
0.0
 11
476.5309171510962
 21
873.9628958988806
 31
0.0
  0
LINE
  5
A9FA
330
1F
100
AcDbEntity
  8
SPOJOVACÍ
  6
Continuous
100
AcDbLine
 10
476.5309171510962
 20
873.9628958988806
 30
0.0
 11
478.0117570181464
 21
873.5350150345812
 31
0.0
  0
LINE
  5
A9FB
330
1F
100
AcDbEntity
  8
SPOJOVACÍ
  6
Continuous
100
AcDbLine
 10
478.0117570181464
 20
873.5350150345812
 30
0.0
 11
478.7986857412688
 21
873.4689725526596
 31
0.0
  0
LINE
  5
A9FC
330
1F
100
AcDbEntity
  8
SPOJOVACÍ
  6
Continuous
100
AcDbLine
 10
472.1990884701808
 20
877.2194413621082
 30
0.0
 11
473.3990152469123
 21
877.2194413621082
 31
0.0
  0
LINE
  5
A9FD
330
1F
100
AcDbEntity
  8
SPOJOVACÍ
  6
Continuous
100
AcDbLine
 10
478.7986857412688
 20
870.7696023899234
 30
0.0
 11
477.2750577878396
 21
870.54263949904
 31
0.0
  0
LINE
  5
A9FE
330
1F
100
AcDbEntity
  8
SPOJOVACÍ
  6
Continuous
100
AcDbLine
 10
477.2750577878396
 20
870.54263949904
 30
0.0
 11
475.8611905781362
 21
869.9296536498923
 31
0.0
  0
LINE
  5
A9FF
330
1F
100
AcDbEntity
  8
SPOJOVACÍ
  6
Continuous
100
AcDbLine
 10
475.8611905781362
 20
869.9296536498923
 30
0.0
 11
474.3367662684686
 21
868.7199795054157
 31
0.0
  0
LINE
  5
AA00
330
1F
100
AcDbEntity
  8
SPOJOVACÍ
  6
Continuous
100
AcDbLine
 10
495.1009467381372
 20
874.1414896510878
 30
0.0
 11
496.4608637516794
 21
870.0970852914952
 31
0.0
  0
LINE
  5
AA01
330
1F
100
AcDbEntity
  8
SPOJOVACÍ
  6
Continuous
100
AcDbLine
 10
495.6971894232919
 20
874.1414896510878
 30
0.0
 11
497.0571064368341
 21
870.0970852914952
 31
0.0
  0
LINE
  5
AA02
330
1F
100
AcDbEntity
  8
SPOJOVACÍ
  6
Continuous
100
AcDbLine
 10
496.6794550637059
 20
869.7194339205498
 30
0.0
 11
496.4608637516794
 21
870.0970852914952
 31
0.0
  0
LINE
  5
AA03
330
1F
100
AcDbEntity
  8
SPOJOVACÍ
  6
Continuous
100
AcDbLine
 10
496.6794550637059
 20
869.7194339205498
 30
0.0
 11
497.0571064368341
 21
870.0970852914952
 31
0.0
  0
LINE
  5
AA04
330
1F
100
AcDbEntity
  8
SPOJOVACÍ
  6
Continuous
100
AcDbLine
 10
495.4795282872437
 20
874.5191410263988
 30
0.0
 11
495.1009467381372
 21
874.1414896510878
 31
0.0
  0
LINE
  5
AA05
330
1F
100
AcDbEntity
  8
SPOJOVACÍ
  6
Continuous
100
AcDbLine
 10
495.4795282872437
 20
874.5191410263988
 30
0.0
 11
495.6971894232919
 21
874.1414896510878
 31
0.0
  0
LINE
  5
AA06
330
1F
100
AcDbEntity
  8
SPOJOVACÍ
  6
Continuous
100
AcDbLine
 10
495.4795282872437
 20
874.5191410263988
 30
0.0
 11
496.6794550637059
 21
869.7194339205498
 31
0.0
  0
LINE
  5
AA07
330
1F
100
AcDbEntity
  8
SPOJOVACÍ
  6
Continuous
100
AcDbLine
 10
491.9811371191753
 20
874.1414896510878
 30
0.0
 11
493.3410541327175
 21
870.0970852914952
 31
0.0
  0
LINE
  5
AA08
330
1F
100
AcDbEntity
  8
SPOJOVACÍ
  6
Continuous
100
AcDbLine
 10
492.5773798043228
 20
874.1414896510878
 30
0.0
 11
493.9372968175957
 21
870.0970852914952
 31
0.0
  0
LINE
  5
AA09
330
1F
100
AcDbEntity
  8
SPOJOVACÍ
  6
Continuous
100
AcDbLine
 10
493.5587152687658
 20
869.7194339205498
 30
0.0
 11
493.3410541327175
 21
870.0970852914952
 31
0.0
  0
LINE
  5
AA0A
330
1F
100
AcDbEntity
  8
SPOJOVACÍ
  6
Continuous
100
AcDbLine
 10
493.5587152687658
 20
869.7194339205498
 30
0.0
 11
493.9372968175957
 21
870.0970852914952
 31
0.0
  0
LINE
  5
AA0B
330
1F
100
AcDbEntity
  8
SPOJOVACÍ
  6
Continuous
100
AcDbLine
 10
492.3587884923035
 20
874.5191410263988
 30
0.0
 11
491.9811371191753
 21
874.1414896510878
 31
0.0
  0
LINE
  5
AA0C
330
1F
100
AcDbEntity
  8
SPOJOVACÍ
  6
Continuous
100
AcDbLine
 10
492.3587884923035
 20
874.5191410263988
 30
0.0
 11
492.5773798043228
 21
874.1414896510878
 31
0.0
  0
LINE
  5
AA0D
330
1F
100
AcDbEntity
  8
SPOJOVACÍ
  6
Continuous
100
AcDbLine
 10
492.3587884923035
 20
874.5191410263988
 30
0.0
 11
493.5587152687658
 21
869.7194339205498
 31
0.0
  0
LINE
  5
AA0E
330
1F
100
AcDbEntity
  8
SPOJOVACÍ
  6
Continuous
100
AcDbLine
 10
504.5850191521749
 20
873.1359696154004
 30
0.0
 11
504.8956978679489
 21
870.9816824739437
 31
0.0
  0
LINE
  5
AA0F
330
1F
100
AcDbEntity
  8
SPOJOVACÍ
  6
Continuous
100
AcDbLine
 10
504.2073677790467
 20
872.7583182444551
 30
0.0
 11
504.6780367316314
 21
871.3593338448891
 31
0.0
  0
LINE
  5
AA10
330
1F
100
AcDbEntity
  8
SPOJOVACÍ
  6
Continuous
100
AcDbLine
 10
504.8036104641941
 20
872.7583182444551
 30
0.0
 11
505.2742794167788
 21
871.3593338448891
 31
0.0
  0
LINE
  5
AA11
330
1F
100
AcDbEntity
  8
SPOJOVACÍ
  6
Continuous
100
AcDbLine
 10
504.8956978679489
 20
870.9816824739437
 30
0.0
 11
504.6780367316314
 21
871.3593338448891
 31
0.0
  0
LINE
  5
AA12
330
1F
100
AcDbEntity
  8
SPOJOVACÍ
  6
Continuous
100
AcDbLine
 10
504.8956978679489
 20
870.9816824739437
 30
0.0
 11
505.2742794167788
 21
871.3593338448891
 31
0.0
  0
LINE
  5
AA13
330
1F
100
AcDbEntity
  8
SPOJOVACÍ
  6
Continuous
100
AcDbLine
 10
504.5850191521749
 20
873.1359696154004
 30
0.0
 11
504.2073677790467
 21
872.7583182444551
 31
0.0
  0
LINE
  5
AA14
330
1F
100
AcDbEntity
  8
SPOJOVACÍ
  6
Continuous
100
AcDbLine
 10
504.5850191521749
 20
873.1359696154004
 30
0.0
 11
504.8036104641941
 21
872.7583182444551
 31
0.0
  0
LINE
  5
AA15
330
1F
100
AcDbEntity
  8
SPOJOVACÍ
  6
Continuous
100
AcDbLine
 10
501.5712495738553
 20
873.7005863258719
 30
0.0
 11
502.2046992906252
 21
870.5844974094407
 31
0.0
  0
LINE
  5
AA16
330
1F
100
AcDbEntity
  8
SPOJOVACÍ
  6
Continuous
100
AcDbLine
 10
501.1926680247488
 20
873.3229349505609
 30
0.0
 11
501.987038154577
 21
870.9621487803861
 31
0.0
  0
LINE
  5
AA17
330
1F
100
AcDbEntity
  8
SPOJOVACÍ
  6
Continuous
100
AcDbLine
 10
501.7889107099035
 20
873.3229349505609
 30
0.0
 11
502.5832808394552
 21
870.9621487803861
 31
0.0
  0
LINE
  5
AA18
330
1F
100
AcDbEntity
  8
SPOJOVACÍ
  6
Continuous
100
AcDbLine
 10
502.2046992906252
 20
870.5844974094407
 30
0.0
 11
501.987038154577
 21
870.9621487803861
 31
0.0
  0
LINE
  5
AA19
330
1F
100
AcDbEntity
  8
SPOJOVACÍ
  6
Continuous
100
AcDbLine
 10
502.2046992906252
 20
870.5844974094407
 30
0.0
 11
502.5832808394552
 21
870.9621487803861
 31
0.0
  0
LINE
  5
AA1A
330
1F
100
AcDbEntity
  8
SPOJOVACÍ
  6
Continuous
100
AcDbLine
 10
501.5712495738553
 20
873.7005863258719
 30
0.0
 11
501.1926680247488
 21
873.3229349505609
 31
0.0
  0
LINE
  5
AA1B
330
1F
100
AcDbEntity
  8
SPOJOVACÍ
  6
Continuous
100
AcDbLine
 10
501.5712495738553
 20
873.7005863258719
 30
0.0
 11
501.7889107099035
 21
873.3229349505609
 31
0.0
  0
LINE
  5
AA1C
330
1F
100
AcDbEntity
  8
SPOJOVACÍ
  6
Continuous
100
AcDbLine
 10
498.5565498195573
 20
874.2652030319778
 30
0.0
 11
499.529513701862
 21
870.1398733792348
 31
0.0
  0
LINE
  5
AA1D
330
1F
100
AcDbEntity
  8
SPOJOVACÍ
  6
Continuous
100
AcDbLine
 10
498.1788984464292
 20
873.8866214836935
 30
0.0
 11
499.3118525658137
 21
870.5175247501802
 31
0.0
  0
LINE
  5
AA1E
330
1F
100
AcDbEntity
  8
SPOJOVACÍ
  6
Continuous
100
AcDbLine
 10
498.7751411315839
 20
873.8866214836935
 30
0.0
 11
499.9080952509684
 21
870.5175247501802
 31
0.0
  0
LINE
  5
AA1F
330
1F
100
AcDbEntity
  8
SPOJOVACÍ
  6
Continuous
100
AcDbLine
 10
499.529513701862
 20
870.1398733792348
 30
0.0
 11
499.3118525658137
 21
870.5175247501802
 31
0.0
  0
LINE
  5
AA20
330
1F
100
AcDbEntity
  8
SPOJOVACÍ
  6
Continuous
100
AcDbLine
 10
499.529513701862
 20
870.1398733792348
 30
0.0
 11
499.9080952509684
 21
870.5175247501802
 31
0.0
  0
LINE
  5
AA21
330
1F
100
AcDbEntity
  8
SPOJOVACÍ
  6
Continuous
100
AcDbLine
 10
498.5565498195573
 20
874.2652030319778
 30
0.0
 11
498.1788984464292
 21
873.8866214836935
 31
0.0
  0
LINE
  5
AA22
330
1F
100
AcDbEntity
  8
SPOJOVACÍ
  6
Continuous
100
AcDbLine
 10
498.5565498195573
 20
874.2652030319778
 30
0.0
 11
498.7751411315839
 21
873.8866214836935
 31
0.0
  0
LINE
  5
AA23
330
1F
100
AcDbEntity
  8
SPOJOVACÍ
  6
Continuous
100
AcDbLine
 10
499.1351191644644
 20
871.0151688013912
 30
0.0
 11
497.1640766531781
 21
870.7696023899234
 31
0.0
  0
LINE
  5
AA24
330
1F
100
AcDbEntity
  8
SPOJOVACÍ
  6
Continuous
100
AcDbLine
 10
501.8419307303629
 20
871.3537527939525
 30
0.0
 11
499.7053169275095
 21
871.086792338615
 31
0.0
  0
LINE
  5
AA25
330
1F
100
AcDbEntity
  8
SPOJOVACÍ
  6
Continuous
100
AcDbLine
 10
504.5589742297961
 20
871.6932669551216
 30
0.0
 11
502.4139888448116
 21
871.4253763268107
 31
0.0
  0
LINE
  5
AA26
330
1F
100
AcDbEntity
  8
SPOJOVACÍ
  6
Continuous
100
AcDbLine
 10
504.8752340003265
 20
872.505310427373
 30
0.0
 11
507.9643478181314
 21
872.1192874734743
 31
0.0
  0
LINE
  5
AA27
330
1F
100
AcDbEntity
  8
SPOJOVACÍ
  6
Continuous
100
AcDbLine
 10
501.9340181341176
 20
872.8727298650529
 30
0.0
 11
504.2548067444731
 21
872.5825150198989
 31
0.0
  0
LINE
  5
AA28
330
1F
100
AcDbEntity
  8
SPOJOVACÍ
  6
Continuous
100
AcDbLine
 10
498.9816401583884
 20
873.2420096574106
 30
0.0
 11
501.303358944453
 21
872.951794807891
 31
0.0
  0
LINE
  5
AA29
330
1F
100
AcDbEntity
  8
SPOJOVACÍ
  6
Continuous
100
AcDbLine
 10
507.9643478181314
 20
872.1192874734743
 30
0.0
 11
505.1282418168629
 21
871.7648904923454
 31
0.0
  0
LINE
  5
AA2A
330
1F
100
AcDbEntity
  8
SPOJOVACÍ
  6
Continuous
100
AcDbLine
 10
497.1640766531781
 20
873.4689725526596
 30
0.0
 11
498.361212902535
 21
873.3192142499365
 31
0.0
  0
LINE
  5
AA2B
330
1F
100
AcDbEntity
  8
SPOJOVACÍ
  6
Continuous
100
AcDbLine
 10
496.8273530152946
 20
870.7696023899234
 30
0.0
 11
497.1640766531781
 21
870.7696023899234
 31
0.0
  0
LINE
  5
AA2C
330
1F
100
AcDbEntity
  8
SPOJOVACÍ
  6
Continuous
100
AcDbLine
 10
493.7047528686816
 20
870.7696023899234
 30
0.0
 11
496.2236689237106
 21
870.7696023899234
 31
0.0
  0
LINE
  5
AA2D
330
1F
100
AcDbEntity
  8
SPOJOVACÍ
  6
Continuous
100
AcDbLine
 10
495.9167109112895
 20
873.4689725526596
 30
0.0
 11
497.1640766531781
 21
873.4689725526596
 31
0.0
  0
LINE
  5
AA2E
330
1F
100
AcDbEntity
  8
SPOJOVACÍ
  6
Continuous
100
AcDbLine
 10
492.8024823468076
 20
873.4689725526596
 30
0.0
 11
495.3204682261348
 21
873.4689725526596
 31
0.0
  0
LINE
  5
AA2F
330
1F
100
AcDbEntity
  8
SPOJOVACÍ
  6
Continuous
100
AcDbLine
 10
490.5830828980397
 20
870.7696023899234
 30
0.0
 11
493.1038593047487
 21
870.7696023899234
 31
0.0
  0
LINE
  5
AA30
330
1F
100
AcDbEntity
  8
SPOJOVACÍ
  6
Continuous
100
AcDbLine
 10
489.6696502666527
 20
873.4689725526596
 30
0.0
 11
492.1978680795218
 21
873.4689725526596
 31
0.0
  0
LINE
  5
AA31
330
1F
100
AcDbEntity
  8
SPOJOVACÍ
  6
Continuous
100
AcDbLine
 10
489.6519805177631
 20
753.9959018043528
 30
0.0
 11
492.1801983306322
 21
753.9959018043528
 31
0.0
  0
LINE
  5
AA32
330
1F
100
AcDbEntity
  8
SPOJOVACÍ
  6
Continuous
100
AcDbLine
 10
490.5654131491501
 20
751.2965316416166
 30
0.0
 11
493.0861895558591
 21
751.2965316416166
 31
0.0
  0
LINE
  5
AA33
330
1F
100
AcDbEntity
  8
SPOJOVACÍ
  6
Continuous
100
AcDbLine
 10
492.784812597918
 20
753.9959018043528
 30
0.0
 11
495.3027984772452
 21
753.9959018043528
 31
0.0
  0
LINE
  5
AA34
330
1F
100
AcDbEntity
  8
SPOJOVACÍ
  6
Continuous
100
AcDbLine
 10
495.8990411623999
 20
753.9959018043528
 30
0.0
 11
497.1464069042886
 21
753.9959018043528
 31
0.0
  0
LINE
  5
AA35
330
1F
100
AcDbEntity
  8
SPOJOVACÍ
  6
Continuous
100
AcDbLine
 10
493.6870831197921
 20
751.2965316416166
 30
0.0
 11
496.205999174821
 21
751.2965316416166
 31
0.0
  0
LINE
  5
AA36
330
1F
100
AcDbEntity
  8
SPOJOVACÍ
  6
Continuous
100
AcDbLine
 10
496.809683266405
 20
751.2965316416166
 30
0.0
 11
497.1464069042886
 21
751.2965316416166
 31
0.0
  0
LINE
  5
AA37
330
1F
100
AcDbEntity
  8
SPOJOVACÍ
  6
Continuous
100
AcDbLine
 10
497.1464069042886
 20
753.9959018043528
 30
0.0
 11
498.3435431536454
 21
753.8461435016297
 31
0.0
  0
LINE
  5
AA38
330
1F
100
AcDbEntity
  8
SPOJOVACÍ
  6
Continuous
100
AcDbLine
 10
507.9466780692419
 20
752.6462167251675
 30
0.0
 11
505.1105720679734
 21
752.2918197440385
 31
0.0
  0
LINE
  5
AA39
330
1F
100
AcDbEntity
  8
SPOJOVACÍ
  6
Continuous
100
AcDbLine
 10
498.9639704094988
 20
753.7689389091037
 30
0.0
 11
501.2856891955634
 21
753.4787240595842
 31
0.0
  0
LINE
  5
AA3A
330
1F
100
AcDbEntity
  8
SPOJOVACÍ
  6
Continuous
100
AcDbLine
 10
501.916348385228
 20
753.399659116746
 30
0.0
 11
504.2371369955835
 21
753.1094442715921
 31
0.0
  0
LINE
  5
AA3B
330
1F
100
AcDbEntity
  8
SPOJOVACÍ
  6
Continuous
100
AcDbLine
 10
504.857564251437
 20
753.0322396790661
 30
0.0
 11
507.9466780692419
 21
752.6462167251675
 31
0.0
  0
LINE
  5
AA3C
330
1F
100
AcDbEntity
  8
SPOJOVACÍ
  6
Continuous
100
AcDbLine
 10
504.5413044809065
 20
752.2201962068147
 30
0.0
 11
502.3963190959221
 21
751.9523055785039
 31
0.0
  0
LINE
  5
AA3D
330
1F
100
AcDbEntity
  8
SPOJOVACÍ
  6
Continuous
100
AcDbLine
 10
501.8242609814733
 20
751.8806820456457
 30
0.0
 11
499.6876471786199
 21
751.6137215903081
 31
0.0
  0
LINE
  5
AA3E
330
1F
100
AcDbEntity
  8
SPOJOVACÍ
  6
Continuous
100
AcDbLine
 10
499.1174494155748
 20
751.5420980530843
 30
0.0
 11
497.1464069042886
 21
751.2965316416166
 31
0.0
  0
LINE
  5
AA3F
330
1F
100
AcDbEntity
  8
SPOJOVACÍ
  6
Continuous
100
AcDbLine
 10
498.5388800706678
 20
754.7921322836709
 30
0.0
 11
498.7574713826943
 21
754.4135507353867
 31
0.0
  0
LINE
  5
AA40
330
1F
100
AcDbEntity
  8
SPOJOVACÍ
  6
Continuous
100
AcDbLine
 10
498.5388800706678
 20
754.7921322836709
 30
0.0
 11
498.1612286975396
 21
754.4135507353867
 31
0.0
  0
LINE
  5
AA41
330
1F
100
AcDbEntity
  8
SPOJOVACÍ
  6
Continuous
100
AcDbLine
 10
499.5118439529724
 20
750.666802630928
 30
0.0
 11
499.8904255020788
 21
751.0444540018734
 31
0.0
  0
LINE
  5
AA42
330
1F
100
AcDbEntity
  8
SPOJOVACÍ
  6
Continuous
100
AcDbLine
 10
499.5118439529724
 20
750.666802630928
 30
0.0
 11
499.2941828169241
 21
751.0444540018734
 31
0.0
  0
LINE
  5
AA43
330
1F
100
AcDbEntity
  8
SPOJOVACÍ
  6
Continuous
100
AcDbLine
 10
498.7574713826943
 20
754.4135507353867
 30
0.0
 11
499.8904255020788
 21
751.0444540018734
 31
0.0
  0
LINE
  5
AA44
330
1F
100
AcDbEntity
  8
SPOJOVACÍ
  6
Continuous
100
AcDbLine
 10
498.1612286975396
 20
754.4135507353867
 30
0.0
 11
499.2941828169241
 21
751.0444540018734
 31
0.0
  0
LINE
  5
AA45
330
1F
100
AcDbEntity
  8
SPOJOVACÍ
  6
Continuous
100
AcDbLine
 10
498.5388800706678
 20
754.7921322836709
 30
0.0
 11
499.5118439529724
 21
750.666802630928
 31
0.0
  0
LINE
  5
AA46
330
1F
100
AcDbEntity
  8
SPOJOVACÍ
  6
Continuous
100
AcDbLine
 10
501.5535798249657
 20
754.2275155775651
 30
0.0
 11
501.7712409610139
 21
753.8498642022541
 31
0.0
  0
LINE
  5
AA47
330
1F
100
AcDbEntity
  8
SPOJOVACÍ
  6
Continuous
100
AcDbLine
 10
501.5535798249657
 20
754.2275155775651
 30
0.0
 11
501.1749982758592
 21
753.8498642022541
 31
0.0
  0
LINE
  5
AA48
330
1F
100
AcDbEntity
  8
SPOJOVACÍ
  6
Continuous
100
AcDbLine
 10
502.1870295417357
 20
751.1114266611339
 30
0.0
 11
502.5656110905656
 21
751.4890780320793
 31
0.0
  0
LINE
  5
AA49
330
1F
100
AcDbEntity
  8
SPOJOVACÍ
  6
Continuous
100
AcDbLine
 10
502.1870295417357
 20
751.1114266611339
 30
0.0
 11
501.9693684056874
 21
751.4890780320793
 31
0.0
  0
LINE
  5
AA4A
330
1F
100
AcDbEntity
  8
SPOJOVACÍ
  6
Continuous
100
AcDbLine
 10
501.7712409610139
 20
753.8498642022541
 30
0.0
 11
502.5656110905656
 21
751.4890780320793
 31
0.0
  0
LINE
  5
AA4B
330
1F
100
AcDbEntity
  8
SPOJOVACÍ
  6
Continuous
100
AcDbLine
 10
501.1749982758592
 20
753.8498642022541
 30
0.0
 11
501.9693684056874
 21
751.4890780320793
 31
0.0
  0
LINE
  5
AA4C
330
1F
100
AcDbEntity
  8
SPOJOVACÍ
  6
Continuous
100
AcDbLine
 10
501.5535798249657
 20
754.2275155775651
 30
0.0
 11
502.1870295417357
 21
751.1114266611339
 31
0.0
  0
LINE
  5
AA4D
330
1F
100
AcDbEntity
  8
SPOJOVACÍ
  6
Continuous
100
AcDbLine
 10
504.5673494032853
 20
753.6628988670936
 30
0.0
 11
504.7859407153046
 21
753.2852474961482
 31
0.0
  0
LINE
  5
AA4E
330
1F
100
AcDbEntity
  8
SPOJOVACÍ
  6
Continuous
100
AcDbLine
 10
504.5673494032853
 20
753.6628988670936
 30
0.0
 11
504.1896980301571
 21
753.2852474961482
 31
0.0
  0
LINE
  5
AA4F
330
1F
100
AcDbEntity
  8
SPOJOVACÍ
  6
Continuous
100
AcDbLine
 10
504.8780281190593
 20
751.5086117256369
 30
0.0
 11
505.2566096678893
 21
751.8862630965823
 31
0.0
  0
LINE
  5
AA50
330
1F
100
AcDbEntity
  8
SPOJOVACÍ
  6
Continuous
100
AcDbLine
 10
504.8780281190593
 20
751.5086117256369
 30
0.0
 11
504.6603669827418
 21
751.8862630965823
 31
0.0
  0
LINE
  5
AA51
330
1F
100
AcDbEntity
  8
SPOJOVACÍ
  6
Continuous
100
AcDbLine
 10
504.7859407153046
 20
753.2852474961482
 30
0.0
 11
505.2566096678893
 21
751.8862630965823
 31
0.0
  0
LINE
  5
AA52
330
1F
100
AcDbEntity
  8
SPOJOVACÍ
  6
Continuous
100
AcDbLine
 10
504.1896980301571
 20
753.2852474961482
 30
0.0
 11
504.6603669827418
 21
751.8862630965823
 31
0.0
  0
LINE
  5
AA53
330
1F
100
AcDbEntity
  8
SPOJOVACÍ
  6
Continuous
100
AcDbLine
 10
504.5673494032853
 20
753.6628988670936
 30
0.0
 11
504.8780281190593
 21
751.5086117256369
 31
0.0
  0
LINE
  5
AA54
330
1F
100
AcDbEntity
  8
SPOJOVACÍ
  6
Continuous
100
AcDbLine
 10
492.3411187434139
 20
755.0460702780919
 30
0.0
 11
493.5410455198762
 21
750.246363172243
 31
0.0
  0
LINE
  5
AA55
330
1F
100
AcDbEntity
  8
SPOJOVACÍ
  6
Continuous
100
AcDbLine
 10
492.3411187434139
 20
755.0460702780919
 30
0.0
 11
492.5597100554332
 21
754.668418902781
 31
0.0
  0
LINE
  5
AA56
330
1F
100
AcDbEntity
  8
SPOJOVACÍ
  6
Continuous
100
AcDbLine
 10
492.3411187434139
 20
755.0460702780919
 30
0.0
 11
491.9634673702858
 21
754.668418902781
 31
0.0
  0
LINE
  5
AA57
330
1F
100
AcDbEntity
  8
SPOJOVACÍ
  6
Continuous
100
AcDbLine
 10
493.5410455198762
 20
750.246363172243
 30
0.0
 11
493.9196270687062
 21
750.6240145431884
 31
0.0
  0
LINE
  5
AA58
330
1F
100
AcDbEntity
  8
SPOJOVACÍ
  6
Continuous
100
AcDbLine
 10
493.5410455198762
 20
750.246363172243
 30
0.0
 11
493.3233843838279
 21
750.6240145431884
 31
0.0
  0
LINE
  5
AA59
330
1F
100
AcDbEntity
  8
SPOJOVACÍ
  6
Continuous
100
AcDbLine
 10
492.5597100554332
 20
754.668418902781
 30
0.0
 11
493.9196270687062
 21
750.6240145431884
 31
0.0
  0
LINE
  5
AA5A
330
1F
100
AcDbEntity
  8
SPOJOVACÍ
  6
Continuous
100
AcDbLine
 10
491.9634673702858
 20
754.668418902781
 30
0.0
 11
493.3233843838279
 21
750.6240145431884
 31
0.0
  0
LINE
  5
AA5B
330
1F
100
AcDbEntity
  8
SPOJOVACÍ
  6
Continuous
100
AcDbLine
 10
495.4618585383541
 20
755.0460702780919
 30
0.0
 11
496.6617853148163
 21
750.246363172243
 31
0.0
  0
LINE
  5
AA5C
330
1F
100
AcDbEntity
  8
SPOJOVACÍ
  6
Continuous
100
AcDbLine
 10
495.4618585383541
 20
755.0460702780919
 30
0.0
 11
495.6795196744024
 21
754.668418902781
 31
0.0
  0
LINE
  5
AA5D
330
1F
100
AcDbEntity
  8
SPOJOVACÍ
  6
Continuous
100
AcDbLine
 10
495.4618585383541
 20
755.0460702780919
 30
0.0
 11
495.0832769892477
 21
754.668418902781
 31
0.0
  0
LINE
  5
AA5E
330
1F
100
AcDbEntity
  8
SPOJOVACÍ
  6
Continuous
100
AcDbLine
 10
496.6617853148163
 20
750.246363172243
 30
0.0
 11
497.0394366879445
 21
750.6240145431884
 31
0.0
  0
LINE
  5
AA5F
330
1F
100
AcDbEntity
  8
SPOJOVACÍ
  6
Continuous
100
AcDbLine
 10
496.6617853148163
 20
750.246363172243
 30
0.0
 11
496.4431940027898
 21
750.6240145431884
 31
0.0
  0
LINE
  5
AA60
330
1F
100
AcDbEntity
  8
SPOJOVACÍ
  6
Continuous
100
AcDbLine
 10
495.6795196744024
 20
754.668418902781
 30
0.0
 11
497.0394366879445
 21
750.6240145431884
 31
0.0
  0
LINE
  5
AA61
330
1F
100
AcDbEntity
  8
SPOJOVACÍ
  6
Continuous
100
AcDbLine
 10
495.0832769892477
 20
754.668418902781
 30
0.0
 11
496.4431940027898
 21
750.6240145431884
 31
0.0
  0
LINE
  5
AA62
330
1F
100
AcDbEntity
  8
SPOJOVACÍ
  6
Continuous
100
AcDbLine
 10
475.8435208292467
 20
750.4565829015855
 30
0.0
 11
474.319096519579
 21
749.2469087571089
 31
0.0
  0
LINE
  5
AA63
330
1F
100
AcDbEntity
  8
SPOJOVACÍ
  6
Continuous
100
AcDbLine
 10
477.25738803895
 20
751.0695687507332
 30
0.0
 11
475.8435208292467
 21
750.4565829015855
 31
0.0
  0
LINE
  5
AA64
330
1F
100
AcDbEntity
  8
SPOJOVACÍ
  6
Continuous
100
AcDbLine
 10
478.7810159923792
 20
751.2965316416166
 30
0.0
 11
477.25738803895
 21
751.0695687507332
 31
0.0
  0
LINE
  5
AA65
330
1F
100
AcDbEntity
  8
SPOJOVACÍ
  6
Continuous
100
AcDbLine
 10
472.1814187212912
 20
757.7463706138014
 30
0.0
 11
473.3813454980227
 21
757.7463706138014
 31
0.0
  0
LINE
  5
AA66
330
1F
100
AcDbEntity
  8
SPOJOVACÍ
  6
Continuous
100
AcDbLine
 10
477.9940872692568
 20
754.0619442862744
 30
0.0
 11
478.7810159923792
 21
753.9959018043528
 31
0.0
  0
LINE
  5
AA67
330
1F
100
AcDbEntity
  8
SPOJOVACÍ
  6
Continuous
100
AcDbLine
 10
476.5132474022066
 20
754.4898251505737
 30
0.0
 11
477.9940872692568
 21
754.0619442862744
 31
0.0
  0
LINE
  5
AA68
330
1F
100
AcDbEntity
  8
SPOJOVACÍ
  6
Continuous
100
AcDbLine
 10
475.1942581239091
 20
755.2860556298919
 30
0.0
 11
476.5132474022066
 21
754.4898251505737
 31
0.0
  0
LINE
  5
AA69
330
1F
100
AcDbEntity
  8
SPOJOVACÍ
  6
Continuous
100
AcDbLine
 10
474.1254861344969
 20
756.3966855302505
 30
0.0
 11
475.1942581239091
 21
755.2860556298919
 31
0.0
  0
LINE
  5
AA6A
330
1F
100
AcDbEntity
  8
SPOJOVACÍ
  6
Continuous
100
AcDbLine
 10
473.3813454980227
 20
757.7463706138014
 30
0.0
 11
474.1254861344969
 21
756.3966855302505
 31
0.0
  0
LINE
  5
AA6B
330
1F
100
AcDbEntity
  8
SPOJOVACÍ
  6
Continuous
100
AcDbLine
 10
478.7810159923792
 20
751.2965316416166
 30
0.0
 11
483.7239701713079
 21
751.2965316416166
 31
0.0
  0
LINE
  5
AA6C
330
1F
100
AcDbEntity
  8
SPOJOVACÍ
  6
Continuous
100
AcDbLine
 10
478.7810159923792
 20
753.9959018043528
 30
0.0
 11
482.8189091220592
 21
753.9959018043528
 31
0.0
  0
LINE
  5
AA6D
330
1F
100
AcDbEntity
  8
SPOJOVACÍ
  6
Continuous
100
AcDbLine
 10
483.4142216312357
 20
753.9959018043528
 30
0.0
 11
485.9331376862646
 21
753.9959018043528
 31
0.0
  0
LINE
  5
AA6E
330
1F
100
AcDbEntity
  8
SPOJOVACÍ
  6
Continuous
100
AcDbLine
 10
486.5368217775794
 20
753.9959018043528
 30
0.0
 11
489.0575981842885
 21
753.9959018043528
 31
0.0
  0
LINE
  5
AA6F
330
1F
100
AcDbEntity
  8
SPOJOVACÍ
  6
Continuous
100
AcDbLine
 10
484.3276542626226
 20
751.2965316416166
 30
0.0
 11
486.8465703176516
 21
751.2965316416166
 31
0.0
  0
LINE
  5
AA70
330
1F
100
AcDbEntity
  8
SPOJOVACÍ
  6
Continuous
100
AcDbLine
 10
487.4428130028063
 20
751.2965316416166
 30
0.0
 11
489.9710308156755
 21
751.2965316416166
 31
0.0
  0
LINE
  5
AA71
330
1F
100
AcDbEntity
  8
SPOJOVACÍ
  6
Continuous
100
AcDbLine
 10
482.9816898862445
 20
755.0460702780919
 30
0.0
 11
484.1816166627068
 21
750.246363172243
 31
0.0
  0
LINE
  5
AA72
330
1F
100
AcDbEntity
  8
SPOJOVACÍ
  6
Continuous
100
AcDbLine
 10
482.9816898862445
 20
755.0460702780919
 30
0.0
 11
483.1993510222928
 21
754.668418902781
 31
0.0
  0
LINE
  5
AA73
330
1F
100
AcDbEntity
  8
SPOJOVACÍ
  6
Continuous
100
AcDbLine
 10
482.9816898862445
 20
755.0460702780919
 30
0.0
 11
482.6031083374146
 21
754.668418902781
 31
0.0
  0
LINE
  5
AA74
330
1F
100
AcDbEntity
  8
SPOJOVACÍ
  6
Continuous
100
AcDbLine
 10
484.1816166627068
 20
750.246363172243
 30
0.0
 11
484.559268035835
 21
750.6240145431884
 31
0.0
  0
LINE
  5
AA75
330
1F
100
AcDbEntity
  8
SPOJOVACÍ
  6
Continuous
100
AcDbLine
 10
484.1816166627068
 20
750.246363172243
 30
0.0
 11
483.9630253506802
 21
750.6240145431884
 31
0.0
  0
LINE
  5
AA76
330
1F
100
AcDbEntity
  8
SPOJOVACÍ
  6
Continuous
100
AcDbLine
 10
483.1993510222928
 20
754.668418902781
 30
0.0
 11
484.559268035835
 21
750.6240145431884
 31
0.0
  0
LINE
  5
AA77
330
1F
100
AcDbEntity
  8
SPOJOVACÍ
  6
Continuous
100
AcDbLine
 10
482.6031083374146
 20
754.668418902781
 30
0.0
 11
483.9630253506802
 21
750.6240145431884
 31
0.0
  0
LINE
  5
AA78
330
1F
100
AcDbEntity
  8
SPOJOVACÍ
  6
Continuous
100
AcDbLine
 10
486.1014995052064
 20
755.0460702780919
 30
0.0
 11
487.3014262819451
 21
750.246363172243
 31
0.0
  0
LINE
  5
AA79
330
1F
100
AcDbEntity
  8
SPOJOVACÍ
  6
Continuous
100
AcDbLine
 10
486.1014995052064
 20
755.0460702780919
 30
0.0
 11
486.320090817233
 21
754.668418902781
 31
0.0
  0
LINE
  5
AA7A
330
1F
100
AcDbEntity
  8
SPOJOVACÍ
  6
Continuous
100
AcDbLine
 10
486.1014995052064
 20
755.0460702780919
 30
0.0
 11
485.7238481320782
 21
754.668418902781
 31
0.0
  0
LINE
  5
AA7B
330
1F
100
AcDbEntity
  8
SPOJOVACÍ
  6
Continuous
100
AcDbLine
 10
487.3014262819451
 20
750.246363172243
 30
0.0
 11
487.6790776547968
 21
750.6240145431884
 31
0.0
  0
LINE
  5
AA7C
330
1F
100
AcDbEntity
  8
SPOJOVACÍ
  6
Continuous
100
AcDbLine
 10
487.3014262819451
 20
750.246363172243
 30
0.0
 11
487.0828349699186
 21
750.6240145431884
 31
0.0
  0
LINE
  5
AA7D
330
1F
100
AcDbEntity
  8
SPOJOVACÍ
  6
Continuous
100
AcDbLine
 10
486.320090817233
 20
754.668418902781
 30
0.0
 11
487.6790776547968
 21
750.6240145431884
 31
0.0
  0
LINE
  5
AA7E
330
1F
100
AcDbEntity
  8
SPOJOVACÍ
  6
Continuous
100
AcDbLine
 10
485.7238481320782
 20
754.668418902781
 30
0.0
 11
487.0828349699186
 21
750.6240145431884
 31
0.0
  0
LINE
  5
AA7F
330
1F
100
AcDbEntity
  8
SPOJOVACÍ
  6
Continuous
100
AcDbLine
 10
489.2213091244448
 20
755.0460702780919
 30
0.0
 11
490.421235900907
 21
750.246363172243
 31
0.0
  0
LINE
  5
AA80
330
1F
100
AcDbEntity
  8
SPOJOVACÍ
  6
Continuous
100
AcDbLine
 10
489.2213091244448
 20
755.0460702780919
 30
0.0
 11
489.4399004364713
 21
754.668418902781
 31
0.0
  0
LINE
  5
AA81
330
1F
100
AcDbEntity
  8
SPOJOVACÍ
  6
Continuous
100
AcDbLine
 10
489.2213091244448
 20
755.0460702780919
 30
0.0
 11
488.8436577513166
 21
754.668418902781
 31
0.0
  0
LINE
  5
AA82
330
1F
100
AcDbEntity
  8
SPOJOVACÍ
  6
Continuous
100
AcDbLine
 10
490.421235900907
 20
750.246363172243
 30
0.0
 11
490.799817449737
 21
750.6240145431884
 31
0.0
  0
LINE
  5
AA83
330
1F
100
AcDbEntity
  8
SPOJOVACÍ
  6
Continuous
100
AcDbLine
 10
490.421235900907
 20
750.246363172243
 30
0.0
 11
490.2035747645896
 21
750.6240145431884
 31
0.0
  0
LINE
  5
AA84
330
1F
100
AcDbEntity
  8
SPOJOVACÍ
  6
Continuous
100
AcDbLine
 10
489.4399004364713
 20
754.668418902781
 30
0.0
 11
490.799817449737
 21
750.6240145431884
 31
0.0
  0
LINE
  5
AA85
330
1F
100
AcDbEntity
  8
SPOJOVACÍ
  6
Continuous
100
AcDbLine
 10
488.8436577513166
 20
754.668418902781
 30
0.0
 11
490.2035747645896
 21
750.6240145431884
 31
0.0
  0
LINE
  5
AA86
330
1F
100
AcDbEntity
  8
SPOJOVACÍ
  6
Continuous
100
AcDbLine
 10
473.3813454980227
 20
757.7463706138014
 30
0.0
 11
473.3813454980227
 21
747.5460628365335
 31
0.0
  0
LINE
  5
AA87
330
1F
100
AcDbEntity
  8
SPOJOVACÍ
  6
Continuous
100
AcDbLine
 10
472.1814187212912
 20
747.5460628365335
 30
0.0
 11
473.3813454980227
 21
747.5460628365335
 31
0.0
  0
LINE
  5
AA88
330
1F
100
AcDbEntity
  8
SPOJOVACÍ
  6
Continuous
100
AcDbLine
 10
472.1814187212912
 20
757.7463706138014
 30
0.0
 11
472.1814187212912
 21
747.5460628365335
 31
0.0
  0
LINE
  5
AA89
330
1F
100
AcDbEntity
  8
SPOJOVACÍ
  6
Continuous
100
AcDbLine
 10
473.3813454980227
 20
747.5460628365335
 30
0.0
 11
474.319096519579
 21
749.2469087571089
 31
0.0
  0
LINE
  5
AA8A
330
1F
100
AcDbEntity
  8
SPOJOVACÍ
  6
Continuous
100
AcDbLine
 10
662.4443934611808
 20
747.5460628365335
 30
0.0
 11
661.5066424396245
 21
749.2469087571089
 31
0.0
  0
LINE
  5
AA8B
330
1F
100
AcDbEntity
  8
SPOJOVACÍ
  6
Continuous
100
AcDbLine
 10
663.6443202379123
 20
757.7463706138014
 30
0.0
 11
663.6443202379123
 21
747.5460628365335
 31
0.0
  0
LINE
  5
AA8C
330
1F
100
AcDbEntity
  8
SPOJOVACÍ
  6
Continuous
100
AcDbLine
 10
663.6443202379123
 20
747.5460628365335
 30
0.0
 11
662.4443934611808
 21
747.5460628365335
 31
0.0
  0
LINE
  5
AA8D
330
1F
100
AcDbEntity
  8
SPOJOVACÍ
  6
Continuous
100
AcDbLine
 10
662.4443934611808
 20
757.7463706138014
 30
0.0
 11
662.4443934611808
 21
747.5460628365335
 31
0.0
  0
LINE
  5
AA8E
330
1F
100
AcDbEntity
  8
SPOJOVACÍ
  6
Continuous
100
AcDbLine
 10
646.9820812078869
 20
754.668418902781
 30
0.0
 11
645.622164194614
 21
750.6240145431884
 31
0.0
  0
LINE
  5
AA8F
330
1F
100
AcDbEntity
  8
SPOJOVACÍ
  6
Continuous
100
AcDbLine
 10
646.3858385227322
 20
754.668418902781
 30
0.0
 11
645.0259215094665
 21
750.6240145431884
 31
0.0
  0
LINE
  5
AA90
330
1F
100
AcDbEntity
  8
SPOJOVACÍ
  6
Continuous
100
AcDbLine
 10
645.4045030582965
 20
750.246363172243
 30
0.0
 11
645.622164194614
 21
750.6240145431884
 31
0.0
  0
LINE
  5
AA91
330
1F
100
AcDbEntity
  8
SPOJOVACÍ
  6
Continuous
100
AcDbLine
 10
645.4045030582965
 20
750.246363172243
 30
0.0
 11
645.0259215094665
 21
750.6240145431884
 31
0.0
  0
LINE
  5
AA92
330
1F
100
AcDbEntity
  8
SPOJOVACÍ
  6
Continuous
100
AcDbLine
 10
646.6044298347587
 20
755.0460702780919
 30
0.0
 11
646.9820812078869
 21
754.668418902781
 31
0.0
  0
LINE
  5
AA93
330
1F
100
AcDbEntity
  8
SPOJOVACÍ
  6
Continuous
100
AcDbLine
 10
646.6044298347587
 20
755.0460702780919
 30
0.0
 11
646.3858385227322
 21
754.668418902781
 31
0.0
  0
LINE
  5
AA94
330
1F
100
AcDbEntity
  8
SPOJOVACÍ
  6
Continuous
100
AcDbLine
 10
646.6044298347587
 20
755.0460702780919
 30
0.0
 11
645.4045030582965
 21
750.246363172243
 31
0.0
  0
LINE
  5
AA95
330
1F
100
AcDbEntity
  8
SPOJOVACÍ
  6
Continuous
100
AcDbLine
 10
650.1018908271253
 20
754.668418902781
 30
0.0
 11
648.7429039892849
 21
750.6240145431884
 31
0.0
  0
LINE
  5
AA96
330
1F
100
AcDbEntity
  8
SPOJOVACÍ
  6
Continuous
100
AcDbLine
 10
649.5056481419705
 20
754.668418902781
 30
0.0
 11
648.1466613044067
 21
750.6240145431884
 31
0.0
  0
LINE
  5
AA97
330
1F
100
AcDbEntity
  8
SPOJOVACÍ
  6
Continuous
100
AcDbLine
 10
648.5243126772584
 20
750.246363172243
 30
0.0
 11
648.7429039892849
 21
750.6240145431884
 31
0.0
  0
LINE
  5
AA98
330
1F
100
AcDbEntity
  8
SPOJOVACÍ
  6
Continuous
100
AcDbLine
 10
648.5243126772584
 20
750.246363172243
 30
0.0
 11
648.1466613044067
 21
750.6240145431884
 31
0.0
  0
LINE
  5
AA99
330
1F
100
AcDbEntity
  8
SPOJOVACÍ
  6
Continuous
100
AcDbLine
 10
649.7242394539971
 20
755.0460702780919
 30
0.0
 11
650.1018908271253
 21
754.668418902781
 31
0.0
  0
LINE
  5
AA9A
330
1F
100
AcDbEntity
  8
SPOJOVACÍ
  6
Continuous
100
AcDbLine
 10
649.7242394539971
 20
755.0460702780919
 30
0.0
 11
649.5056481419705
 21
754.668418902781
 31
0.0
  0
LINE
  5
AA9B
330
1F
100
AcDbEntity
  8
SPOJOVACÍ
  6
Continuous
100
AcDbLine
 10
649.7242394539971
 20
755.0460702780919
 30
0.0
 11
648.5243126772584
 21
750.246363172243
 31
0.0
  0
LINE
  5
AA9C
330
1F
100
AcDbEntity
  8
SPOJOVACÍ
  6
Continuous
100
AcDbLine
 10
653.2226306217889
 20
754.668418902781
 30
0.0
 11
651.8627136085233
 21
750.6240145431884
 31
0.0
  0
LINE
  5
AA9D
330
1F
100
AcDbEntity
  8
SPOJOVACÍ
  6
Continuous
100
AcDbLine
 10
652.6263879369107
 20
754.668418902781
 30
0.0
 11
651.2664709233686
 21
750.6240145431884
 31
0.0
  0
LINE
  5
AA9E
330
1F
100
AcDbEntity
  8
SPOJOVACÍ
  6
Continuous
100
AcDbLine
 10
651.6441222964967
 20
750.246363172243
 30
0.0
 11
651.8627136085233
 21
750.6240145431884
 31
0.0
  0
LINE
  5
AA9F
330
1F
100
AcDbEntity
  8
SPOJOVACÍ
  6
Continuous
100
AcDbLine
 10
651.6441222964967
 20
750.246363172243
 30
0.0
 11
651.2664709233686
 21
750.6240145431884
 31
0.0
  0
LINE
  5
AAA0
330
1F
100
AcDbEntity
  8
SPOJOVACÍ
  6
Continuous
100
AcDbLine
 10
652.844049072959
 20
755.0460702780919
 30
0.0
 11
653.2226306217889
 21
754.668418902781
 31
0.0
  0
LINE
  5
AAA1
330
1F
100
AcDbEntity
  8
SPOJOVACÍ
  6
Continuous
100
AcDbLine
 10
652.844049072959
 20
755.0460702780919
 30
0.0
 11
652.6263879369107
 21
754.668418902781
 31
0.0
  0
LINE
  5
AAA2
330
1F
100
AcDbEntity
  8
SPOJOVACÍ
  6
Continuous
100
AcDbLine
 10
652.844049072959
 20
755.0460702780919
 30
0.0
 11
651.6441222964967
 21
750.246363172243
 31
0.0
  0
LINE
  5
AAA3
330
1F
100
AcDbEntity
  8
SPOJOVACÍ
  6
Continuous
100
AcDbLine
 10
648.3829259563972
 20
751.2965316416166
 30
0.0
 11
645.8547081435281
 21
751.2965316416166
 31
0.0
  0
LINE
  5
AAA4
330
1F
100
AcDbEntity
  8
SPOJOVACÍ
  6
Continuous
100
AcDbLine
 10
651.4980846965809
 20
751.2965316416166
 30
0.0
 11
648.9791686415519
 21
751.2965316416166
 31
0.0
  0
LINE
  5
AAA5
330
1F
100
AcDbEntity
  8
SPOJOVACÍ
  6
Continuous
100
AcDbLine
 10
649.2889171816241
 20
753.9959018043528
 30
0.0
 11
646.768140774915
 21
753.9959018043528
 31
0.0
  0
LINE
  5
AAA6
330
1F
100
AcDbEntity
  8
SPOJOVACÍ
  6
Continuous
100
AcDbLine
 10
652.4115173279678
 20
753.9959018043528
 30
0.0
 11
649.8926012729389
 21
753.9959018043528
 31
0.0
  0
LINE
  5
AAA7
330
1F
100
AcDbEntity
  8
SPOJOVACÍ
  6
Continuous
100
AcDbLine
 10
657.0447229668243
 20
753.9959018043528
 30
0.0
 11
653.0068298371443
 21
753.9959018043528
 31
0.0
  0
LINE
  5
AAA8
330
1F
100
AcDbEntity
  8
SPOJOVACÍ
  6
Continuous
100
AcDbLine
 10
657.0447229668243
 20
751.2965316416166
 30
0.0
 11
652.1017687878956
 21
751.2965316416166
 31
0.0
  0
LINE
  5
AAA9
330
1F
100
AcDbEntity
  8
SPOJOVACÍ
  6
Continuous
100
AcDbLine
 10
662.4443934611808
 20
757.7463706138014
 30
0.0
 11
661.7002528247066
 21
756.3966855302505
 31
0.0
  0
LINE
  5
AAAA
330
1F
100
AcDbEntity
  8
SPOJOVACÍ
  6
Continuous
100
AcDbLine
 10
661.7002528247066
 20
756.3966855302505
 30
0.0
 11
660.6314808352944
 21
755.2860556298919
 31
0.0
  0
LINE
  5
AAAB
330
1F
100
AcDbEntity
  8
SPOJOVACÍ
  6
Continuous
100
AcDbLine
 10
660.6314808352944
 20
755.2860556298919
 30
0.0
 11
659.3124915569969
 21
754.4898251505737
 31
0.0
  0
LINE
  5
AAAC
330
1F
100
AcDbEntity
  8
SPOJOVACÍ
  6
Continuous
100
AcDbLine
 10
659.3124915569969
 20
754.4898251505737
 30
0.0
 11
657.8316516899467
 21
754.0619442862744
 31
0.0
  0
LINE
  5
AAAD
330
1F
100
AcDbEntity
  8
SPOJOVACÍ
  6
Continuous
100
AcDbLine
 10
657.8316516899467
 20
754.0619442862744
 30
0.0
 11
657.0447229668243
 21
753.9959018043528
 31
0.0
  0
LINE
  5
AAAE
330
1F
100
AcDbEntity
  8
SPOJOVACÍ
  6
Continuous
100
AcDbLine
 10
663.6443202379123
 20
757.7463706138014
 30
0.0
 11
662.4443934611808
 21
757.7463706138014
 31
0.0
  0
LINE
  5
AAAF
330
1F
100
AcDbEntity
  8
SPOJOVACÍ
  6
Continuous
100
AcDbLine
 10
657.0447229668243
 20
751.2965316416166
 30
0.0
 11
658.5683509202535
 21
751.0695687507332
 31
0.0
  0
LINE
  5
AAB0
330
1F
100
AcDbEntity
  8
SPOJOVACÍ
  6
Continuous
100
AcDbLine
 10
658.5683509202535
 20
751.0695687507332
 30
0.0
 11
659.9822181299568
 21
750.4565829015855
 31
0.0
  0
LINE
  5
AAB1
330
1F
100
AcDbEntity
  8
SPOJOVACÍ
  6
Continuous
100
AcDbLine
 10
659.9822181299568
 20
750.4565829015855
 30
0.0
 11
661.5066424396245
 21
749.2469087571089
 31
0.0
  0
LINE
  5
AAB2
330
1F
100
AcDbEntity
  8
SPOJOVACÍ
  6
Continuous
100
AcDbLine
 10
640.7424619699559
 20
754.668418902781
 30
0.0
 11
639.3825449564137
 21
750.6240145431884
 31
0.0
  0
LINE
  5
AAB3
330
1F
100
AcDbEntity
  8
SPOJOVACÍ
  6
Continuous
100
AcDbLine
 10
640.1462192848011
 20
754.668418902781
 30
0.0
 11
638.786302271259
 21
750.6240145431884
 31
0.0
  0
LINE
  5
AAB4
330
1F
100
AcDbEntity
  8
SPOJOVACÍ
  6
Continuous
100
AcDbLine
 10
639.1639536443872
 20
750.246363172243
 30
0.0
 11
639.3825449564137
 21
750.6240145431884
 31
0.0
  0
LINE
  5
AAB5
330
1F
100
AcDbEntity
  8
SPOJOVACÍ
  6
Continuous
100
AcDbLine
 10
639.1639536443872
 20
750.246363172243
 30
0.0
 11
638.786302271259
 21
750.6240145431884
 31
0.0
  0
LINE
  5
AAB6
330
1F
100
AcDbEntity
  8
SPOJOVACÍ
  6
Continuous
100
AcDbLine
 10
640.3638804208494
 20
755.0460702780919
 30
0.0
 11
640.7424619699559
 21
754.668418902781
 31
0.0
  0
LINE
  5
AAB7
330
1F
100
AcDbEntity
  8
SPOJOVACÍ
  6
Continuous
100
AcDbLine
 10
640.3638804208494
 20
755.0460702780919
 30
0.0
 11
640.1462192848011
 21
754.668418902781
 31
0.0
  0
LINE
  5
AAB8
330
1F
100
AcDbEntity
  8
SPOJOVACÍ
  6
Continuous
100
AcDbLine
 10
640.3638804208494
 20
755.0460702780919
 30
0.0
 11
639.1639536443872
 21
750.246363172243
 31
0.0
  0
LINE
  5
AAB9
330
1F
100
AcDbEntity
  8
SPOJOVACÍ
  6
Continuous
100
AcDbLine
 10
643.8622715889177
 20
754.668418902781
 30
0.0
 11
642.5023545753756
 21
750.6240145431884
 31
0.0
  0
LINE
  5
AABA
330
1F
100
AcDbEntity
  8
SPOJOVACÍ
  6
Continuous
100
AcDbLine
 10
643.2660289037703
 20
754.668418902781
 30
0.0
 11
641.9061118904973
 21
750.6240145431884
 31
0.0
  0
LINE
  5
AABB
330
1F
100
AcDbEntity
  8
SPOJOVACÍ
  6
Continuous
100
AcDbLine
 10
642.2846934393273
 20
750.246363172243
 30
0.0
 11
642.5023545753756
 21
750.6240145431884
 31
0.0
  0
LINE
  5
AABC
330
1F
100
AcDbEntity
  8
SPOJOVACÍ
  6
Continuous
100
AcDbLine
 10
642.2846934393273
 20
750.246363172243
 30
0.0
 11
641.9061118904973
 21
750.6240145431884
 31
0.0
  0
LINE
  5
AABD
330
1F
100
AcDbEntity
  8
SPOJOVACÍ
  6
Continuous
100
AcDbLine
 10
643.4846202157896
 20
755.0460702780919
 30
0.0
 11
643.8622715889177
 21
754.668418902781
 31
0.0
  0
LINE
  5
AABE
330
1F
100
AcDbEntity
  8
SPOJOVACÍ
  6
Continuous
100
AcDbLine
 10
643.4846202157896
 20
755.0460702780919
 30
0.0
 11
643.2660289037703
 21
754.668418902781
 31
0.0
  0
LINE
  5
AABF
330
1F
100
AcDbEntity
  8
SPOJOVACÍ
  6
Continuous
100
AcDbLine
 10
643.4846202157896
 20
755.0460702780919
 30
0.0
 11
642.2846934393273
 21
750.246363172243
 31
0.0
  0
LINE
  5
AAC0
330
1F
100
AcDbEntity
  8
SPOJOVACÍ
  6
Continuous
100
AcDbLine
 10
631.2583895559182
 20
753.6628988670936
 30
0.0
 11
630.9477108401442
 21
751.5086117256369
 31
0.0
  0
LINE
  5
AAC1
330
1F
100
AcDbEntity
  8
SPOJOVACÍ
  6
Continuous
100
AcDbLine
 10
631.6360409290464
 20
753.2852474961482
 30
0.0
 11
631.1653719764617
 21
751.8862630965823
 31
0.0
  0
LINE
  5
AAC2
330
1F
100
AcDbEntity
  8
SPOJOVACÍ
  6
Continuous
100
AcDbLine
 10
631.0397982438989
 20
753.2852474961482
 30
0.0
 11
630.5691292913143
 21
751.8862630965823
 31
0.0
  0
LINE
  5
AAC3
330
1F
100
AcDbEntity
  8
SPOJOVACÍ
  6
Continuous
100
AcDbLine
 10
630.9477108401442
 20
751.5086117256369
 30
0.0
 11
631.1653719764617
 21
751.8862630965823
 31
0.0
  0
LINE
  5
AAC4
330
1F
100
AcDbEntity
  8
SPOJOVACÍ
  6
Continuous
100
AcDbLine
 10
630.9477108401442
 20
751.5086117256369
 30
0.0
 11
630.5691292913143
 21
751.8862630965823
 31
0.0
  0
LINE
  5
AAC5
330
1F
100
AcDbEntity
  8
SPOJOVACÍ
  6
Continuous
100
AcDbLine
 10
631.2583895559182
 20
753.6628988670936
 30
0.0
 11
631.6360409290464
 21
753.2852474961482
 31
0.0
  0
LINE
  5
AAC6
330
1F
100
AcDbEntity
  8
SPOJOVACÍ
  6
Continuous
100
AcDbLine
 10
631.2583895559182
 20
753.6628988670936
 30
0.0
 11
631.0397982438989
 21
753.2852474961482
 31
0.0
  0
LINE
  5
AAC7
330
1F
100
AcDbEntity
  8
SPOJOVACÍ
  6
Continuous
100
AcDbLine
 10
634.2721591342378
 20
754.2275155775651
 30
0.0
 11
633.6387094174678
 21
751.1114266611339
 31
0.0
  0
LINE
  5
AAC8
330
1F
100
AcDbEntity
  8
SPOJOVACÍ
  6
Continuous
100
AcDbLine
 10
634.6507406833443
 20
753.8498642022541
 30
0.0
 11
633.8563705535161
 21
751.4890780320793
 31
0.0
  0
LINE
  5
AAC9
330
1F
100
AcDbEntity
  8
SPOJOVACÍ
  6
Continuous
100
AcDbLine
 10
634.0544979981896
 20
753.8498642022541
 30
0.0
 11
633.2601278686379
 21
751.4890780320793
 31
0.0
  0
LINE
  5
AACA
330
1F
100
AcDbEntity
  8
SPOJOVACÍ
  6
Continuous
100
AcDbLine
 10
633.6387094174678
 20
751.1114266611339
 30
0.0
 11
633.8563705535161
 21
751.4890780320793
 31
0.0
  0
LINE
  5
AACB
330
1F
100
AcDbEntity
  8
SPOJOVACÍ
  6
Continuous
100
AcDbLine
 10
633.6387094174678
 20
751.1114266611339
 30
0.0
 11
633.2601278686379
 21
751.4890780320793
 31
0.0
  0
LINE
  5
AACC
330
1F
100
AcDbEntity
  8
SPOJOVACÍ
  6
Continuous
100
AcDbLine
 10
634.2721591342378
 20
754.2275155775651
 30
0.0
 11
634.6507406833443
 21
753.8498642022541
 31
0.0
  0
LINE
  5
AACD
330
1F
100
AcDbEntity
  8
SPOJOVACÍ
  6
Continuous
100
AcDbLine
 10
634.2721591342378
 20
754.2275155775651
 30
0.0
 11
634.0544979981896
 21
753.8498642022541
 31
0.0
  0
LINE
  5
AACE
330
1F
100
AcDbEntity
  8
SPOJOVACÍ
  6
Continuous
100
AcDbLine
 10
637.2868588885357
 20
754.7921322836709
 30
0.0
 11
636.3138950062311
 21
750.666802630928
 31
0.0
  0
LINE
  5
AACF
330
1F
100
AcDbEntity
  8
SPOJOVACÍ
  6
Continuous
100
AcDbLine
 10
637.6645102616639
 20
754.4135507353867
 30
0.0
 11
636.5315561422794
 21
751.0444540018734
 31
0.0
  0
LINE
  5
AAD0
330
1F
100
AcDbEntity
  8
SPOJOVACÍ
  6
Continuous
100
AcDbLine
 10
637.0682675765092
 20
754.4135507353867
 30
0.0
 11
635.9353134571247
 21
751.0444540018734
 31
0.0
  0
LINE
  5
AAD1
330
1F
100
AcDbEntity
  8
SPOJOVACÍ
  6
Continuous
100
AcDbLine
 10
636.3138950062311
 20
750.666802630928
 30
0.0
 11
636.5315561422794
 21
751.0444540018734
 31
0.0
  0
LINE
  5
AAD2
330
1F
100
AcDbEntity
  8
SPOJOVACÍ
  6
Continuous
100
AcDbLine
 10
636.3138950062311
 20
750.666802630928
 30
0.0
 11
635.9353134571247
 21
751.0444540018734
 31
0.0
  0
LINE
  5
AAD3
330
1F
100
AcDbEntity
  8
SPOJOVACÍ
  6
Continuous
100
AcDbLine
 10
637.2868588885357
 20
754.7921322836709
 30
0.0
 11
637.6645102616639
 21
754.4135507353867
 31
0.0
  0
LINE
  5
AAD4
330
1F
100
AcDbEntity
  8
SPOJOVACÍ
  6
Continuous
100
AcDbLine
 10
637.2868588885357
 20
754.7921322836709
 30
0.0
 11
637.0682675765092
 21
754.4135507353867
 31
0.0
  0
LINE
  5
AAD5
330
1F
100
AcDbEntity
  8
SPOJOVACÍ
  6
Continuous
100
AcDbLine
 10
636.7082895436287
 20
751.5420980530843
 30
0.0
 11
638.6793320549149
 21
751.2965316416166
 31
0.0
  0
LINE
  5
AAD6
330
1F
100
AcDbEntity
  8
SPOJOVACÍ
  6
Continuous
100
AcDbLine
 10
634.0014779777302
 20
751.8806820456457
 30
0.0
 11
636.1380917805836
 21
751.6137215903081
 31
0.0
  0
LINE
  5
AAD7
330
1F
100
AcDbEntity
  8
SPOJOVACÍ
  6
Continuous
100
AcDbLine
 10
631.284434478297
 20
752.2201962068147
 30
0.0
 11
633.4294198632814
 21
751.9523055785039
 31
0.0
  0
LINE
  5
AAD8
330
1F
100
AcDbEntity
  8
SPOJOVACÍ
  6
Continuous
100
AcDbLine
 10
630.9681747077665
 20
753.0322396790661
 30
0.0
 11
627.8790608899616
 21
752.6462167251675
 31
0.0
  0
LINE
  5
AAD9
330
1F
100
AcDbEntity
  8
SPOJOVACÍ
  6
Continuous
100
AcDbLine
 10
633.9093905739755
 20
753.399659116746
 30
0.0
 11
631.58860196362
 21
753.1094442715921
 31
0.0
  0
LINE
  5
AADA
330
1F
100
AcDbEntity
  8
SPOJOVACÍ
  6
Continuous
100
AcDbLine
 10
636.8617685497047
 20
753.7689389091037
 30
0.0
 11
634.5400497636401
 21
753.4787240595842
 31
0.0
  0
LINE
  5
AADB
330
1F
100
AcDbEntity
  8
SPOJOVACÍ
  6
Continuous
100
AcDbLine
 10
627.8790608899616
 20
752.6462167251675
 30
0.0
 11
630.7151668912301
 21
752.2918197440385
 31
0.0
  0
LINE
  5
AADC
330
1F
100
AcDbEntity
  8
SPOJOVACÍ
  6
Continuous
100
AcDbLine
 10
638.6793320549149
 20
753.9959018043528
 30
0.0
 11
637.4821958055581
 21
753.8461435016297
 31
0.0
  0
LINE
  5
AADD
330
1F
100
AcDbEntity
  8
SPOJOVACÍ
  6
Continuous
100
AcDbLine
 10
639.0160556927985
 20
751.2965316416166
 30
0.0
 11
638.6793320549149
 21
751.2965316416166
 31
0.0
  0
LINE
  5
AADE
330
1F
100
AcDbEntity
  8
SPOJOVACÍ
  6
Continuous
100
AcDbLine
 10
642.1386558394114
 20
751.2965316416166
 30
0.0
 11
639.6197397843825
 21
751.2965316416166
 31
0.0
  0
LINE
  5
AADF
330
1F
100
AcDbEntity
  8
SPOJOVACÍ
  6
Continuous
100
AcDbLine
 10
639.9266977968036
 20
753.9959018043528
 30
0.0
 11
638.6793320549149
 21
753.9959018043528
 31
0.0
  0
LINE
  5
AAE0
330
1F
100
AcDbEntity
  8
SPOJOVACÍ
  6
Continuous
100
AcDbLine
 10
643.0409263612855
 20
753.9959018043528
 30
0.0
 11
640.5229404819583
 21
753.9959018043528
 31
0.0
  0
LINE
  5
AAE1
330
1F
100
AcDbEntity
  8
SPOJOVACÍ
  6
Continuous
100
AcDbLine
 10
645.2603258100534
 20
751.2965316416166
 30
0.0
 11
642.7395494033444
 21
751.2965316416166
 31
0.0
  0
LINE
  5
AAE2
330
1F
100
AcDbEntity
  8
SPOJOVACÍ
  6
Continuous
100
AcDbLine
 10
646.1737584414404
 20
753.9959018043528
 30
0.0
 11
643.6455406285713
 21
753.9959018043528
 31
0.0
  0
LINE
  5
AAE3
330
1F
100
AcDbEntity
  8
SPOJOVACÍ
  6
Continuous
100
AcDbLine
 10
646.1560886925508
 20
873.4689725526596
 30
0.0
 11
643.6278708796817
 21
873.4689725526596
 31
0.0
  0
LINE
  5
AAE4
330
1F
100
AcDbEntity
  8
SPOJOVACÍ
  6
Continuous
100
AcDbLine
 10
645.2426560611638
 20
870.7696023899234
 30
0.0
 11
642.7218796544548
 21
870.7696023899234
 31
0.0
  0
LINE
  5
AAE5
330
1F
100
AcDbEntity
  8
SPOJOVACÍ
  6
Continuous
100
AcDbLine
 10
643.0232566123959
 20
873.4689725526596
 30
0.0
 11
640.5052707330687
 21
873.4689725526596
 31
0.0
  0
LINE
  5
AAE6
330
1F
100
AcDbEntity
  8
SPOJOVACÍ
  6
Continuous
100
AcDbLine
 10
639.909028047914
 20
873.4689725526596
 30
0.0
 11
638.6616623060254
 21
873.4689725526596
 31
0.0
  0
LINE
  5
AAE7
330
1F
100
AcDbEntity
  8
SPOJOVACÍ
  6
Continuous
100
AcDbLine
 10
642.1209860905219
 20
870.7696023899234
 30
0.0
 11
639.6020700354929
 21
870.7696023899234
 31
0.0
  0
LINE
  5
AAE8
330
1F
100
AcDbEntity
  8
SPOJOVACÍ
  6
Continuous
100
AcDbLine
 10
638.9983859439089
 20
870.7696023899234
 30
0.0
 11
638.6616623060254
 21
870.7696023899234
 31
0.0
  0
LINE
  5
AAE9
330
1F
100
AcDbEntity
  8
SPOJOVACÍ
  6
Continuous
100
AcDbLine
 10
638.6616623060254
 20
873.4689725526596
 30
0.0
 11
637.4645260566685
 21
873.3192142499365
 31
0.0
  0
LINE
  5
AAEA
330
1F
100
AcDbEntity
  8
SPOJOVACÍ
  6
Continuous
100
AcDbLine
 10
627.8613911410721
 20
872.1192874734743
 30
0.0
 11
630.6974971423406
 21
871.7648904923454
 31
0.0
  0
LINE
  5
AAEB
330
1F
100
AcDbEntity
  8
SPOJOVACÍ
  6
Continuous
100
AcDbLine
 10
636.8440988008151
 20
873.2420096574106
 30
0.0
 11
634.5223800147505
 21
872.951794807891
 31
0.0
  0
LINE
  5
AAEC
330
1F
100
AcDbEntity
  8
SPOJOVACÍ
  6
Continuous
100
AcDbLine
 10
633.8917208250859
 20
872.8727298650529
 30
0.0
 11
631.5709322147304
 21
872.5825150198989
 31
0.0
  0
LINE
  5
AAED
330
1F
100
AcDbEntity
  8
SPOJOVACÍ
  6
Continuous
100
AcDbLine
 10
630.950504958877
 20
872.505310427373
 30
0.0
 11
627.8613911410721
 21
872.1192874734743
 31
0.0
  0
LINE
  5
AAEE
330
1F
100
AcDbEntity
  8
SPOJOVACÍ
  6
Continuous
100
AcDbLine
 10
631.2667647294074
 20
871.6932669551216
 30
0.0
 11
633.4117501143919
 21
871.4253763268107
 31
0.0
  0
LINE
  5
AAEF
330
1F
100
AcDbEntity
  8
SPOJOVACÍ
  6
Continuous
100
AcDbLine
 10
633.9838082288406
 20
871.3537527939525
 30
0.0
 11
636.120422031694
 21
871.086792338615
 31
0.0
  0
LINE
  5
AAF0
330
1F
100
AcDbEntity
  8
SPOJOVACÍ
  6
Continuous
100
AcDbLine
 10
636.6906197947391
 20
871.0151688013912
 30
0.0
 11
638.6616623060254
 21
870.7696023899234
 31
0.0
  0
LINE
  5
AAF1
330
1F
100
AcDbEntity
  8
SPOJOVACÍ
  6
Continuous
100
AcDbLine
 10
637.2691891396462
 20
874.2652030319778
 30
0.0
 11
637.0505978276196
 21
873.8866214836935
 31
0.0
  0
LINE
  5
AAF2
330
1F
100
AcDbEntity
  8
SPOJOVACÍ
  6
Continuous
100
AcDbLine
 10
637.2691891396462
 20
874.2652030319778
 30
0.0
 11
637.6468405127743
 21
873.8866214836935
 31
0.0
  0
LINE
  5
AAF3
330
1F
100
AcDbEntity
  8
SPOJOVACÍ
  6
Continuous
100
AcDbLine
 10
636.2962252573415
 20
870.1398733792348
 30
0.0
 11
635.9176437082351
 21
870.5175247501802
 31
0.0
  0
LINE
  5
AAF4
330
1F
100
AcDbEntity
  8
SPOJOVACÍ
  6
Continuous
100
AcDbLine
 10
636.2962252573415
 20
870.1398733792348
 30
0.0
 11
636.5138863933898
 21
870.5175247501802
 31
0.0
  0
LINE
  5
AAF5
330
1F
100
AcDbEntity
  8
SPOJOVACÍ
  6
Continuous
100
AcDbLine
 10
637.0505978276196
 20
873.8866214836935
 30
0.0
 11
635.9176437082351
 21
870.5175247501802
 31
0.0
  0
LINE
  5
AAF6
330
1F
100
AcDbEntity
  8
SPOJOVACÍ
  6
Continuous
100
AcDbLine
 10
637.6468405127743
 20
873.8866214836935
 30
0.0
 11
636.5138863933898
 21
870.5175247501802
 31
0.0
  0
LINE
  5
AAF7
330
1F
100
AcDbEntity
  8
SPOJOVACÍ
  6
Continuous
100
AcDbLine
 10
637.2691891396462
 20
874.2652030319778
 30
0.0
 11
636.2962252573415
 21
870.1398733792348
 31
0.0
  0
LINE
  5
AAF8
330
1F
100
AcDbEntity
  8
SPOJOVACÍ
  6
Continuous
100
AcDbLine
 10
634.2544893853482
 20
873.7005863258719
 30
0.0
 11
634.0368282493
 21
873.3229349505609
 31
0.0
  0
LINE
  5
AAF9
330
1F
100
AcDbEntity
  8
SPOJOVACÍ
  6
Continuous
100
AcDbLine
 10
634.2544893853482
 20
873.7005863258719
 30
0.0
 11
634.6330709344547
 21
873.3229349505609
 31
0.0
  0
LINE
  5
AAFA
330
1F
100
AcDbEntity
  8
SPOJOVACÍ
  6
Continuous
100
AcDbLine
 10
633.6210396685783
 20
870.5844974094407
 30
0.0
 11
633.2424581197483
 21
870.9621487803861
 31
0.0
  0
LINE
  5
AAFB
330
1F
100
AcDbEntity
  8
SPOJOVACÍ
  6
Continuous
100
AcDbLine
 10
633.6210396685783
 20
870.5844974094407
 30
0.0
 11
633.8387008046265
 21
870.9621487803861
 31
0.0
  0
LINE
  5
AAFC
330
1F
100
AcDbEntity
  8
SPOJOVACÍ
  6
Continuous
100
AcDbLine
 10
634.0368282493
 20
873.3229349505609
 30
0.0
 11
633.2424581197483
 21
870.9621487803861
 31
0.0
  0
LINE
  5
AAFD
330
1F
100
AcDbEntity
  8
SPOJOVACÍ
  6
Continuous
100
AcDbLine
 10
634.6330709344547
 20
873.3229349505609
 30
0.0
 11
633.8387008046265
 21
870.9621487803861
 31
0.0
  0
LINE
  5
AAFE
330
1F
100
AcDbEntity
  8
SPOJOVACÍ
  6
Continuous
100
AcDbLine
 10
634.2544893853482
 20
873.7005863258719
 30
0.0
 11
633.6210396685783
 21
870.5844974094407
 31
0.0
  0
LINE
  5
AAFF
330
1F
100
AcDbEntity
  8
SPOJOVACÍ
  6
Continuous
100
AcDbLine
 10
631.2407198070286
 20
873.1359696154004
 30
0.0
 11
631.0221284950094
 21
872.7583182444551
 31
0.0
  0
LINE
  5
AB00
330
1F
100
AcDbEntity
  8
SPOJOVACÍ
  6
Continuous
100
AcDbLine
 10
631.2407198070286
 20
873.1359696154004
 30
0.0
 11
631.6183711801568
 21
872.7583182444551
 31
0.0
  0
LINE
  5
AB01
330
1F
100
AcDbEntity
  8
SPOJOVACÍ
  6
Continuous
100
AcDbLine
 10
630.9300410912547
 20
870.9816824739437
 30
0.0
 11
630.5514595424247
 21
871.3593338448891
 31
0.0
  0
LINE
  5
AB02
330
1F
100
AcDbEntity
  8
SPOJOVACÍ
  6
Continuous
100
AcDbLine
 10
630.9300410912547
 20
870.9816824739437
 30
0.0
 11
631.1477022275721
 21
871.3593338448891
 31
0.0
  0
LINE
  5
AB03
330
1F
100
AcDbEntity
  8
SPOJOVACÍ
  6
Continuous
100
AcDbLine
 10
631.0221284950094
 20
872.7583182444551
 30
0.0
 11
630.5514595424247
 21
871.3593338448891
 31
0.0
  0
LINE
  5
AB04
330
1F
100
AcDbEntity
  8
SPOJOVACÍ
  6
Continuous
100
AcDbLine
 10
631.6183711801568
 20
872.7583182444551
 30
0.0
 11
631.1477022275721
 21
871.3593338448891
 31
0.0
  0
LINE
  5
AB05
330
1F
100
AcDbEntity
  8
SPOJOVACÍ
  6
Continuous
100
AcDbLine
 10
631.2407198070286
 20
873.1359696154004
 30
0.0
 11
630.9300410912547
 21
870.9816824739437
 31
0.0
  0
LINE
  5
AB06
330
1F
100
AcDbEntity
  8
SPOJOVACÍ
  6
Continuous
100
AcDbLine
 10
643.4669504669
 20
874.5191410263988
 30
0.0
 11
642.2670236904377
 21
869.7194339205498
 31
0.0
  0
LINE
  5
AB07
330
1F
100
AcDbEntity
  8
SPOJOVACÍ
  6
Continuous
100
AcDbLine
 10
643.4669504669
 20
874.5191410263988
 30
0.0
 11
643.2483591548807
 21
874.1414896510878
 31
0.0
  0
LINE
  5
AB08
330
1F
100
AcDbEntity
  8
SPOJOVACÍ
  6
Continuous
100
AcDbLine
 10
643.4669504669
 20
874.5191410263988
 30
0.0
 11
643.8446018400282
 21
874.1414896510878
 31
0.0
  0
LINE
  5
AB09
330
1F
100
AcDbEntity
  8
SPOJOVACÍ
  6
Continuous
100
AcDbLine
 10
642.2670236904377
 20
869.7194339205498
 30
0.0
 11
641.8884421416078
 21
870.0970852914952
 31
0.0
  0
LINE
  5
AB0A
330
1F
100
AcDbEntity
  8
SPOJOVACÍ
  6
Continuous
100
AcDbLine
 10
642.2670236904377
 20
869.7194339205498
 30
0.0
 11
642.484684826486
 21
870.0970852914952
 31
0.0
  0
LINE
  5
AB0B
330
1F
100
AcDbEntity
  8
SPOJOVACÍ
  6
Continuous
100
AcDbLine
 10
643.2483591548807
 20
874.1414896510878
 30
0.0
 11
641.8884421416078
 21
870.0970852914952
 31
0.0
  0
LINE
  5
AB0C
330
1F
100
AcDbEntity
  8
SPOJOVACÍ
  6
Continuous
100
AcDbLine
 10
643.8446018400282
 20
874.1414896510878
 30
0.0
 11
642.484684826486
 21
870.0970852914952
 31
0.0
  0
LINE
  5
AB0D
330
1F
100
AcDbEntity
  8
SPOJOVACÍ
  6
Continuous
100
AcDbLine
 10
640.3462106719598
 20
874.5191410263988
 30
0.0
 11
639.1462838954976
 21
869.7194339205498
 31
0.0
  0
LINE
  5
AB0E
330
1F
100
AcDbEntity
  8
SPOJOVACÍ
  6
Continuous
100
AcDbLine
 10
640.3462106719598
 20
874.5191410263988
 30
0.0
 11
640.1285495359116
 21
874.1414896510878
 31
0.0
  0
LINE
  5
AB0F
330
1F
100
AcDbEntity
  8
SPOJOVACÍ
  6
Continuous
100
AcDbLine
 10
640.3462106719598
 20
874.5191410263988
 30
0.0
 11
640.7247922210663
 21
874.1414896510878
 31
0.0
  0
LINE
  5
AB10
330
1F
100
AcDbEntity
  8
SPOJOVACÍ
  6
Continuous
100
AcDbLine
 10
639.1462838954976
 20
869.7194339205498
 30
0.0
 11
638.7686325223694
 21
870.0970852914952
 31
0.0
  0
LINE
  5
AB11
330
1F
100
AcDbEntity
  8
SPOJOVACÍ
  6
Continuous
100
AcDbLine
 10
639.1462838954976
 20
869.7194339205498
 30
0.0
 11
639.3648752075241
 21
870.0970852914952
 31
0.0
  0
LINE
  5
AB12
330
1F
100
AcDbEntity
  8
SPOJOVACÍ
  6
Continuous
100
AcDbLine
 10
640.1285495359116
 20
874.1414896510878
 30
0.0
 11
638.7686325223694
 21
870.0970852914952
 31
0.0
  0
LINE
  5
AB13
330
1F
100
AcDbEntity
  8
SPOJOVACÍ
  6
Continuous
100
AcDbLine
 10
640.7247922210663
 20
874.1414896510878
 30
0.0
 11
639.3648752075241
 21
870.0970852914952
 31
0.0
  0
LINE
  5
AB14
330
1F
100
AcDbEntity
  8
SPOJOVACÍ
  6
Continuous
100
AcDbLine
 10
659.9645483810673
 20
869.9296536498923
 30
0.0
 11
661.488972690735
 21
868.7199795054157
 31
0.0
  0
LINE
  5
AB15
330
1F
100
AcDbEntity
  8
SPOJOVACÍ
  6
Continuous
100
AcDbLine
 10
658.5506811713639
 20
870.54263949904
 30
0.0
 11
659.9645483810673
 21
869.9296536498923
 31
0.0
  0
LINE
  5
AB16
330
1F
100
AcDbEntity
  8
SPOJOVACÍ
  6
Continuous
100
AcDbLine
 10
657.0270532179347
 20
870.7696023899234
 30
0.0
 11
658.5506811713639
 21
870.54263949904
 31
0.0
  0
LINE
  5
AB17
330
1F
100
AcDbEntity
  8
SPOJOVACÍ
  6
Continuous
100
AcDbLine
 10
663.6266504890227
 20
877.2194413621082
 30
0.0
 11
662.4267237122912
 21
877.2194413621082
 31
0.0
  0
LINE
  5
AB18
330
1F
100
AcDbEntity
  8
SPOJOVACÍ
  6
Continuous
100
AcDbLine
 10
657.8139819410571
 20
873.5350150345812
 30
0.0
 11
657.0270532179347
 21
873.4689725526596
 31
0.0
  0
LINE
  5
AB19
330
1F
100
AcDbEntity
  8
SPOJOVACÍ
  6
Continuous
100
AcDbLine
 10
659.2948218081073
 20
873.9628958988806
 30
0.0
 11
657.8139819410571
 21
873.5350150345812
 31
0.0
  0
LINE
  5
AB1A
330
1F
100
AcDbEntity
  8
SPOJOVACÍ
  6
Continuous
100
AcDbLine
 10
660.6138110864049
 20
874.7591263781988
 30
0.0
 11
659.2948218081073
 21
873.9628958988806
 31
0.0
  0
LINE
  5
AB1B
330
1F
100
AcDbEntity
  8
SPOJOVACÍ
  6
Continuous
100
AcDbLine
 10
661.6825830758171
 20
875.8697562785574
 30
0.0
 11
660.6138110864049
 21
874.7591263781988
 31
0.0
  0
LINE
  5
AB1C
330
1F
100
AcDbEntity
  8
SPOJOVACÍ
  6
Continuous
100
AcDbLine
 10
662.4267237122912
 20
877.2194413621082
 30
0.0
 11
661.6825830758171
 21
875.8697562785574
 31
0.0
  0
LINE
  5
AB1D
330
1F
100
AcDbEntity
  8
SPOJOVACÍ
  6
Continuous
100
AcDbLine
 10
657.0270532179347
 20
870.7696023899234
 30
0.0
 11
652.0840990390061
 21
870.7696023899234
 31
0.0
  0
LINE
  5
AB1E
330
1F
100
AcDbEntity
  8
SPOJOVACÍ
  6
Continuous
100
AcDbLine
 10
657.0270532179347
 20
873.4689725526596
 30
0.0
 11
652.9891600882547
 21
873.4689725526596
 31
0.0
  0
LINE
  5
AB1F
330
1F
100
AcDbEntity
  8
SPOJOVACÍ
  6
Continuous
100
AcDbLine
 10
652.3938475790783
 20
873.4689725526596
 30
0.0
 11
649.8749315240493
 21
873.4689725526596
 31
0.0
  0
LINE
  5
AB20
330
1F
100
AcDbEntity
  8
SPOJOVACÍ
  6
Continuous
100
AcDbLine
 10
649.2712474327345
 20
873.4689725526596
 30
0.0
 11
646.7504710260254
 21
873.4689725526596
 31
0.0
  0
LINE
  5
AB21
330
1F
100
AcDbEntity
  8
SPOJOVACÍ
  6
Continuous
100
AcDbLine
 10
651.4804149476913
 20
870.7696023899234
 30
0.0
 11
648.9614988926623
 21
870.7696023899234
 31
0.0
  0
LINE
  5
AB22
330
1F
100
AcDbEntity
  8
SPOJOVACÍ
  6
Continuous
100
AcDbLine
 10
648.3652562075076
 20
870.7696023899234
 30
0.0
 11
645.8370383946385
 21
870.7696023899234
 31
0.0
  0
LINE
  5
AB23
330
1F
100
AcDbEntity
  8
SPOJOVACÍ
  6
Continuous
100
AcDbLine
 10
652.8263793240694
 20
874.5191410263988
 30
0.0
 11
651.6264525476072
 21
869.7194339205498
 31
0.0
  0
LINE
  5
AB24
330
1F
100
AcDbEntity
  8
SPOJOVACÍ
  6
Continuous
100
AcDbLine
 10
652.8263793240694
 20
874.5191410263988
 30
0.0
 11
652.6087181880211
 21
874.1414896510878
 31
0.0
  0
LINE
  5
AB25
330
1F
100
AcDbEntity
  8
SPOJOVACÍ
  6
Continuous
100
AcDbLine
 10
652.8263793240694
 20
874.5191410263988
 30
0.0
 11
653.2049608728994
 21
874.1414896510878
 31
0.0
  0
LINE
  5
AB26
330
1F
100
AcDbEntity
  8
SPOJOVACÍ
  6
Continuous
100
AcDbLine
 10
651.6264525476072
 20
869.7194339205498
 30
0.0
 11
651.248801174479
 21
870.0970852914952
 31
0.0
  0
LINE
  5
AB27
330
1F
100
AcDbEntity
  8
SPOJOVACÍ
  6
Continuous
100
AcDbLine
 10
651.6264525476072
 20
869.7194339205498
 30
0.0
 11
651.8450438596337
 21
870.0970852914952
 31
0.0
  0
LINE
  5
AB28
330
1F
100
AcDbEntity
  8
SPOJOVACÍ
  6
Continuous
100
AcDbLine
 10
652.6087181880211
 20
874.1414896510878
 30
0.0
 11
651.248801174479
 21
870.0970852914952
 31
0.0
  0
LINE
  5
AB29
330
1F
100
AcDbEntity
  8
SPOJOVACÍ
  6
Continuous
100
AcDbLine
 10
653.2049608728994
 20
874.1414896510878
 30
0.0
 11
651.8450438596337
 21
870.0970852914952
 31
0.0
  0
LINE
  5
AB2A
330
1F
100
AcDbEntity
  8
SPOJOVACÍ
  6
Continuous
100
AcDbLine
 10
649.7065697051075
 20
874.5191410263988
 30
0.0
 11
648.5066429283688
 21
869.7194339205498
 31
0.0
  0
LINE
  5
AB2B
330
1F
100
AcDbEntity
  8
SPOJOVACÍ
  6
Continuous
100
AcDbLine
 10
649.7065697051075
 20
874.5191410263988
 30
0.0
 11
649.487978393081
 21
874.1414896510878
 31
0.0
  0
LINE
  5
AB2C
330
1F
100
AcDbEntity
  8
SPOJOVACÍ
  6
Continuous
100
AcDbLine
 10
649.7065697051075
 20
874.5191410263988
 30
0.0
 11
650.0842210782357
 21
874.1414896510878
 31
0.0
  0
LINE
  5
AB2D
330
1F
100
AcDbEntity
  8
SPOJOVACÍ
  6
Continuous
100
AcDbLine
 10
648.5066429283688
 20
869.7194339205498
 30
0.0
 11
648.1289915555171
 21
870.0970852914952
 31
0.0
  0
LINE
  5
AB2E
330
1F
100
AcDbEntity
  8
SPOJOVACÍ
  6
Continuous
100
AcDbLine
 10
648.5066429283688
 20
869.7194339205498
 30
0.0
 11
648.7252342403953
 21
870.0970852914952
 31
0.0
  0
LINE
  5
AB2F
330
1F
100
AcDbEntity
  8
SPOJOVACÍ
  6
Continuous
100
AcDbLine
 10
649.487978393081
 20
874.1414896510878
 30
0.0
 11
648.1289915555171
 21
870.0970852914952
 31
0.0
  0
LINE
  5
AB30
330
1F
100
AcDbEntity
  8
SPOJOVACÍ
  6
Continuous
100
AcDbLine
 10
650.0842210782357
 20
874.1414896510878
 30
0.0
 11
648.7252342403953
 21
870.0970852914952
 31
0.0
  0
LINE
  5
AB31
330
1F
100
AcDbEntity
  8
SPOJOVACÍ
  6
Continuous
100
AcDbLine
 10
646.5867600858691
 20
874.5191410263988
 30
0.0
 11
645.3868333094069
 21
869.7194339205498
 31
0.0
  0
LINE
  5
AB32
330
1F
100
AcDbEntity
  8
SPOJOVACÍ
  6
Continuous
100
AcDbLine
 10
646.5867600858691
 20
874.5191410263988
 30
0.0
 11
646.3681687738426
 21
874.1414896510878
 31
0.0
  0
LINE
  5
AB33
330
1F
100
AcDbEntity
  8
SPOJOVACÍ
  6
Continuous
100
AcDbLine
 10
646.5867600858691
 20
874.5191410263988
 30
0.0
 11
646.9644114589973
 21
874.1414896510878
 31
0.0
  0
LINE
  5
AB34
330
1F
100
AcDbEntity
  8
SPOJOVACÍ
  6
Continuous
100
AcDbLine
 10
645.3868333094069
 20
869.7194339205498
 30
0.0
 11
645.0082517605769
 21
870.0970852914952
 31
0.0
  0
LINE
  5
AB35
330
1F
100
AcDbEntity
  8
SPOJOVACÍ
  6
Continuous
100
AcDbLine
 10
645.3868333094069
 20
869.7194339205498
 30
0.0
 11
645.6044944457244
 21
870.0970852914952
 31
0.0
  0
LINE
  5
AB36
330
1F
100
AcDbEntity
  8
SPOJOVACÍ
  6
Continuous
100
AcDbLine
 10
646.3681687738426
 20
874.1414896510878
 30
0.0
 11
645.0082517605769
 21
870.0970852914952
 31
0.0
  0
LINE
  5
AB37
330
1F
100
AcDbEntity
  8
SPOJOVACÍ
  6
Continuous
100
AcDbLine
 10
646.9644114589973
 20
874.1414896510878
 30
0.0
 11
645.6044944457244
 21
870.0970852914952
 31
0.0
  0
LINE
  5
AB38
330
1F
100
AcDbEntity
  8
SPOJOVACÍ
  6
Continuous
100
AcDbLine
 10
662.4267237122912
 20
877.2194413621082
 30
0.0
 11
662.4267237122912
 21
867.0191335848404
 31
0.0
  0
LINE
  5
AB39
330
1F
100
AcDbEntity
  8
SPOJOVACÍ
  6
Continuous
100
AcDbLine
 10
663.6266504890227
 20
867.0191335848404
 30
0.0
 11
662.4267237122912
 21
867.0191335848404
 31
0.0
  0
LINE
  5
AB3A
330
1F
100
AcDbEntity
  8
SPOJOVACÍ
  6
Continuous
100
AcDbLine
 10
663.6266504890227
 20
877.2194413621082
 30
0.0
 11
663.6266504890227
 21
867.0191335848404
 31
0.0
  0
LINE
  5
AB3B
330
1F
100
AcDbEntity
  8
SPOJOVACÍ
  6
Continuous
100
AcDbLine
 10
662.4267237122912
 20
867.0191335848404
 30
0.0
 11
661.488972690735
 21
868.7199795054157
 31
0.0
  0
LINE
  5
AB3C
330
1F
100
AcDbEntity
  8
CETRIS
100
AcDbLine
 10
663.7261569923903
 20
895.1987636247913
 30
0.0
 11
663.7261569923903
 21
580.9116206983589
 31
0.0
  0
LINE
  5
AB3D
330
1F
100
AcDbEntity
  8
CETRIS
100
AcDbLine
 10
649.7261569923903
 20
895.1987636247913
 30
0.0
 11
649.7261569923903
 21
580.9116206983553
 31
0.0
  0
LINE
  5
AB3E
330
1F
100
AcDbEntity
  8
CETRIS
100
AcDbLine
 10
663.7261569923866
 20
566.3729099268212
 30
0.0
 11
663.7261569923866
 21
580.3729099268212
 31
0.0
  0
LWPOLYLINE
  5
AB3F
330
1F
100
AcDbEntity
  8
izolace
100
AcDbPolyline
 90
        4
 70
     1
 43
0.0
 10
649.7261569923903
 20
895.1987636247896
 10
649.7443202379145
 20
900.1987636247914
 10
678.2341542479152
 20
900.1987636247914
 10
678.2341542479152
 20
895.1987636247913
  0
LINE
  5
AB40
330
1F
100
AcDbEntity
  8
CETRIS
100
AcDbLine
 10
649.6443202379123
 20
895.1987636247913
 30
0.0
 11
663.6443202379123
 21
895.1987636247913
 31
0.0
  0
INSERT
  5
AB41
330
1F
100
AcDbEntity
  8
POPIS
100
AcDbBlockReference
  2
E_PUNKT
 10
637.7312302024257
 20
620.5091103745917
 30
0.0
 41
0.6499999999996362
 42
0.6499999999996362
 43
0.65
 50
270.0
  0
INSERT
  5
AB42
330
1F
100
AcDbEntity
  8
POPIS
100
AcDbBlockReference
  2
E_PUNKT
 10
571.9116448134228
 20
675.3642647127553
 30
0.0
 41
0.6499999999996362
 42
0.6499999999996362
 43
0.65
 50
270.0
  0
INSERT
  5
AB43
330
1F
100
AcDbEntity
  8
POPIS
100
AcDbBlockReference
  2
E_PUNKT
 10
656.8218211444218
 20
794.4638275634706
 30
0.0
 41
0.6499999999996362
 42
0.6499999999996362
 43
0.65
 50
270.0
  0
TEXT
  5
AB45
330
1F
100
AcDbEntity
  8
POPIS
100
AcDbText
 10
334.7338053591556
 20
1030.393154644239
 30
0.0
 40
35.0
  1
ŘEZ
 41
0.85
  7
SIMPLEX7
100
AcDbText
  0
ENDSEC
  0
SECTION
  2
OBJECTS
  0
DICTIONARY
  5
C
330
0
100
AcDbDictionary
281
     1
  3
ACAD_GROUP
350
D
  3
ACAD_LAYOUT
350
1A
  3
ACAD_MLINESTYLE
350
17
  3
ACAD_PLOTSETTINGS
350
19
  3
ACAD_PLOTSTYLENAME
350
E
  3
AcDbVariableDictionary
350
AB51
  0
DICTIONARY
  5
D
102
{ACAD_REACTORS
330
C
102
}
330
C
100
AcDbDictionary
281
     1
  0
DICTIONARY
  5
1A
102
{ACAD_REACTORS
330
C
102
}
330
C
100
AcDbDictionary
281
     1
  3
Model
350
22
  3
Rozvržení1
350
1E
  3
Rozvržení2
350
26
  0
DICTIONARY
  5
17
102
{ACAD_REACTORS
330
C
102
}
330
C
100
AcDbDictionary
281
     1
  3
Standard
350
18
  0
DICTIONARY
  5
19
102
{ACAD_REACTORS
330
C
102
}
330
C
100
AcDbDictionary
281
     1
  0
ACDBDICTIONARYWDFLT
  5
E
102
{ACAD_REACTORS
330
C
102
}
330
C
100
AcDbDictionary
281
     1
  3
Normal
350
F
100
AcDbDictionaryWithDefault
340
F
  0
DICTIONARY
  5
AB51
102
{ACAD_REACTORS
330
C
102
}
330
C
100
AcDbDictionary
281
     1
  3
DIMASSOC
350
AB52
  0
LAYOUT
  5
22
102
{ACAD_REACTORS
330
1A
102
}
330
1A
100
AcDbPlotSettings
  1

  2
HP DeskJet 690C
  4

  6

 40
0.0
 41
0.0
 42
0.0
 43
0.0
 44
0.0
 45
0.0
 46
0.0
 47
0.0
 48
0.0
 49
0.0
140
0.0
141
0.0
142
1.0
143
1.0
 70
  1712
 72
     0
 73
     0
 74
     0
  7
monochrome.ctb
 75
     0
147
1.0
148
0.0
149
0.0
100
AcDbLayout
  1
Model
 70
     1
 71
     0
 10
0.0
 20
0.0
 11
12.0
 21
9.0
 12
0.0
 22
0.0
 32
0.0
 14
0.0
 24
0.0
 34
0.0
 15
0.0
 25
0.0
 35
0.0
146
0.0
 13
0.0
 23
0.0
 33
0.0
 16
1.0
 26
0.0
 36
0.0
 17
0.0
 27
1.0
 37
0.0
 76
     0
330
1F
  0
LAYOUT
  5
1E
102
{ACAD_REACTORS
330
1A
102
}
330
1A
100
AcDbPlotSettings
  1

  2
HP DeskJet 690C
  4

  6

 40
0.0
 41
0.0
 42
0.0
 43
0.0
 44
0.0
 45
0.0
 46
0.0
 47
0.0
 48
0.0
 49
0.0
140
0.0
141
0.0
142
1.0
143
1.0
 70
   688
 72
     0
 73
     0
 74
     5
  7
monochrome.ctb
 75
    16
147
1.0
148
0.0
149
0.0
100
AcDbLayout
  1
Rozvržení1
 70
     1
 71
     1
 10
0.0
 20
0.0
 11
420.0
 21
297.0
 12
0.0
 22
0.0
 32
0.0
 14
1.000000000000000E+20
 24
1.000000000000000E+20
 34
1.000000000000000E+20
 15
-1.000000000000000E+20
 25
-1.000000000000000E+20
 35
-1.000000000000000E+20
146
0.0
 13
0.0
 23
0.0
 33
0.0
 16
1.0
 26
0.0
 36
0.0
 17
0.0
 27
1.0
 37
0.0
 76
     0
330
1B
  0
LAYOUT
  5
26
102
{ACAD_REACTORS
330
1A
102
}
330
1A
100
AcDbPlotSettings
  1

  2
HP DeskJet 690C
  4

  6

 40
0.0
 41
0.0
 42
0.0
 43
0.0
 44
0.0
 45
0.0
 46
0.0
 47
0.0
 48
0.0
 49
0.0
140
0.0
141
0.0
142
1.0
143
1.0
 70
   688
 72
     0
 73
     0
 74
     5
  7
monochrome.ctb
 75
    16
147
1.0
148
0.0
149
0.0
100
AcDbLayout
  1
Rozvržení2
 70
     1
 71
     2
 10
0.0
 20
0.0
 11
12.0
 21
9.0
 12
0.0
 22
0.0
 32
0.0
 14
0.0
 24
0.0
 34
0.0
 15
0.0
 25
0.0
 35
0.0
146
0.0
 13
0.0
 23
0.0
 33
0.0
 16
1.0
 26
0.0
 36
0.0
 17
0.0
 27
1.0
 37
0.0
 76
     0
330
23
  0
MLINESTYLE
  5
18
102
{ACAD_REACTORS
330
17
102
}
330
17
100
AcDbMlineStyle
  2
STANDARD
 70
     0
  3

 62
   256
 51
90.0
 52
90.0
 71
     2
 49
0.5
 62
   256
  6
BYLAYER
 49
-0.5
 62
   256
  6
BYLAYER
  0
ACDBPLACEHOLDER
  5
F
102
{ACAD_REACTORS
330
E
102
}
330
E
  0
DICTIONARYVAR
  5
AB52
102
{ACAD_REACTORS
330
AB51
102
}
330
AB51
100
DictionaryVariables
280
     0
  1
1
  0
ENDSEC
  0
EOF
