  0
SECTION
  2
HEADER
  9
$ACADVER
  1
AC1015
  9
$ACADMAINTVER
 70
    14
  9
$DWGCODEPAGE
  3
ANSI_1250
  9
$INSBASE
 10
0.0
 20
0.0
 30
0.0
  9
$EXTMIN
 10
115.8730798641026
 20
395.2077046298727
 30
0.0
  9
$EXTMAX
 10
1291.688972910428
 20
1051.333274107976
 30
0.0
  9
$LIMMIN
 10
0.0
 20
0.0
  9
$LIMMAX
 10
420.0
 20
297.0
  9
$ORTHOMODE
 70
     0
  9
$REGENMODE
 70
     1
  9
$FILLMODE
 70
     1
  9
$QTEXTMODE
 70
     0
  9
$MIRRTEXT
 70
     1
  9
$LTSCALE
 40
1.0
  9
$ATTMODE
 70
     1
  9
$TEXTSIZE
 40
2.5
  9
$TRACEWID
 40
1.0
  9
$TEXTSTYLE
  7
Standard
  9
$CLAYER
  8
0
  9
$CELTYPE
  6
ByLayer
  9
$CECOLOR
 62
   256
  9
$CELTSCALE
 40
1.0
  9
$DISPSILH
 70
     0
  9
$DIMSCALE
 40
1.0
  9
$DIMASZ
 40
2.5
  9
$DIMEXO
 40
0.625
  9
$DIMDLI
 40
3.75
  9
$DIMRND
 40
0.0
  9
$DIMDLE
 40
0.0
  9
$DIMEXE
 40
1.25
  9
$DIMTP
 40
0.0
  9
$DIMTM
 40
0.0
  9
$DIMTXT
 40
2.5
  9
$DIMCEN
 40
2.5
  9
$DIMTSZ
 40
0.0
  9
$DIMTOL
 70
     0
  9
$DIMLIM
 70
     0
  9
$DIMTIH
 70
     0
  9
$DIMTOH
 70
     0
  9
$DIMSE1
 70
     0
  9
$DIMSE2
 70
     0
  9
$DIMTAD
 70
     1
  9
$DIMZIN
 70
     8
  9
$DIMBLK
  1

  9
$DIMASO
 70
     1
  9
$DIMSHO
 70
     1
  9
$DIMPOST
  1

  9
$DIMAPOST
  1

  9
$DIMALT
 70
     0
  9
$DIMALTD
 70
     3
  9
$DIMALTF
 40
0.03937007874016
  9
$DIMLFAC
 40
1.0
  9
$DIMTOFL
 70
     1
  9
$DIMTVP
 40
0.0
  9
$DIMTIX
 70
     0
  9
$DIMSOXD
 70
     0
  9
$DIMSAH
 70
     0
  9
$DIMBLK1
  1

  9
$DIMBLK2
  1

  9
$DIMSTYLE
  2
ISO-25
  9
$DIMCLRD
 70
     0
  9
$DIMCLRE
 70
     0
  9
$DIMCLRT
 70
     0
  9
$DIMTFAC
 40
1.0
  9
$DIMGAP
 40
0.625
  9
$DIMJUST
 70
     0
  9
$DIMSD1
 70
     0
  9
$DIMSD2
 70
     0
  9
$DIMTOLJ
 70
     0
  9
$DIMTZIN
 70
     8
  9
$DIMALTZ
 70
     0
  9
$DIMALTTZ
 70
     0
  9
$DIMUPT
 70
     0
  9
$DIMDEC
 70
     2
  9
$DIMTDEC
 70
     2
  9
$DIMALTU
 70
     2
  9
$DIMALTTD
 70
     3
  9
$DIMTXSTY
  7
Standard
  9
$DIMAUNIT
 70
     0
  9
$DIMADEC
 70
     0
  9
$DIMALTRND
 40
0.0
  9
$DIMAZIN
 70
     0
  9
$DIMDSEP
 70
    44
  9
$DIMATFIT
 70
     3
  9
$DIMFRAC
 70
     0
  9
$DIMLDRBLK
  1

  9
$DIMLUNIT
 70
     2
  9
$DIMLWD
 70
    -2
  9
$DIMLWE
 70
    -2
  9
$DIMTMOVE
 70
     0
  9
$LUNITS
 70
     2
  9
$LUPREC
 70
     4
  9
$SKETCHINC
 40
1.0
  9
$FILLETRAD
 40
10.0
  9
$AUNITS
 70
     0
  9
$AUPREC
 70
     0
  9
$MENU
  1
.
  9
$ELEVATION
 40
0.0
  9
$PELEVATION
 40
0.0
  9
$THICKNESS
 40
0.0
  9
$LIMCHECK
 70
     0
  9
$CHAMFERA
 40
10.0
  9
$CHAMFERB
 40
10.0
  9
$CHAMFERC
 40
20.0
  9
$CHAMFERD
 40
0.0
  9
$SKPOLY
 70
     0
  9
$TDCREATE
 40
2452332.512107639
  9
$TDUCREATE
 40
2452332.470440972
  9
$TDUPDATE
 40
2455601.406473970
  9
$TDUUPDATE
 40
2455601.364807303
  9
$TDINDWG
 40
0.0345334491
  9
$TDUSRTIMER
 40
0.0345195602
  9
$USRTIMER
 70
     1
  9
$ANGBASE
 50
0.0
  9
$ANGDIR
 70
     0
  9
$PDMODE
 70
     0
  9
$PDSIZE
 40
0.0
  9
$PLINEWID
 40
0.0
  9
$SPLFRAME
 70
     0
  9
$SPLINETYPE
 70
     6
  9
$SPLINESEGS
 70
     8
  9
$HANDSEED
  5
A249
  9
$SURFTAB1
 70
     6
  9
$SURFTAB2
 70
     6
  9
$SURFTYPE
 70
     6
  9
$SURFU
 70
     6
  9
$SURFV
 70
     6
  9
$UCSBASE
  2

  9
$UCSNAME
  2

  9
$UCSORG
 10
0.0
 20
0.0
 30
0.0
  9
$UCSXDIR
 10
1.0
 20
0.0
 30
0.0
  9
$UCSYDIR
 10
0.0
 20
1.0
 30
0.0
  9
$UCSORTHOREF
  2

  9
$UCSORTHOVIEW
 70
     0
  9
$UCSORGTOP
 10
0.0
 20
0.0
 30
0.0
  9
$UCSORGBOTTOM
 10
0.0
 20
0.0
 30
0.0
  9
$UCSORGLEFT
 10
0.0
 20
0.0
 30
0.0
  9
$UCSORGRIGHT
 10
0.0
 20
0.0
 30
0.0
  9
$UCSORGFRONT
 10
0.0
 20
0.0
 30
0.0
  9
$UCSORGBACK
 10
0.0
 20
0.0
 30
0.0
  9
$PUCSBASE
  2

  9
$PUCSNAME
  2

  9
$PUCSORG
 10
0.0
 20
0.0
 30
0.0
  9
$PUCSXDIR
 10
1.0
 20
0.0
 30
0.0
  9
$PUCSYDIR
 10
0.0
 20
1.0
 30
0.0
  9
$PUCSORTHOREF
  2

  9
$PUCSORTHOVIEW
 70
     0
  9
$PUCSORGTOP
 10
0.0
 20
0.0
 30
0.0
  9
$PUCSORGBOTTOM
 10
0.0
 20
0.0
 30
0.0
  9
$PUCSORGLEFT
 10
0.0
 20
0.0
 30
0.0
  9
$PUCSORGRIGHT
 10
0.0
 20
0.0
 30
0.0
  9
$PUCSORGFRONT
 10
0.0
 20
0.0
 30
0.0
  9
$PUCSORGBACK
 10
0.0
 20
0.0
 30
0.0
  9
$USERI1
 70
     0
  9
$USERI2
 70
     0
  9
$USERI3
 70
     0
  9
$USERI4
 70
     0
  9
$USERI5
 70
     0
  9
$USERR1
 40
0.0
  9
$USERR2
 40
0.0
  9
$USERR3
 40
0.0
  9
$USERR4
 40
0.0
  9
$USERR5
 40
0.0
  9
$WORLDVIEW
 70
     1
  9
$SHADEDGE
 70
     3
  9
$SHADEDIF
 70
    70
  9
$TILEMODE
 70
     1
  9
$MAXACTVP
 70
    64
  9
$PINSBASE
 10
0.0
 20
0.0
 30
0.0
  9
$PLIMCHECK
 70
     0
  9
$PEXTMIN
 10
1.000000000000000E+20
 20
1.000000000000000E+20
 30
1.000000000000000E+20
  9
$PEXTMAX
 10
-1.000000000000000E+20
 20
-1.000000000000000E+20
 30
-1.000000000000000E+20
  9
$PLIMMIN
 10
0.0
 20
0.0
  9
$PLIMMAX
 10
420.0
 20
297.0
  9
$UNITMODE
 70
     0
  9
$VISRETAIN
 70
     1
  9
$PLINEGEN
 70
     0
  9
$PSLTSCALE
 70
     1
  9
$TREEDEPTH
 70
  3020
  9
$CMLSTYLE
  2
Standard
  9
$CMLJUST
 70
     0
  9
$CMLSCALE
 40
20.0
  9
$PROXYGRAPHICS
 70
     1
  9
$MEASUREMENT
 70
     1
  9
$CELWEIGHT
370
    -1
  9
$ENDCAPS
280
     0
  9
$JOINSTYLE
280
     0
  9
$LWDISPLAY
290
     0
  9
$INSUNITS
 70
     4
  9
$HYPERLINKBASE
  1

  9
$STYLESHEET
  1

  9
$XEDIT
290
     1
  9
$CEPSNTYPE
380
     0
  9
$PSTYLEMODE
290
     1
  9
$FINGERPRINTGUID
  2
{D99C744E-04C5-44F1-9703-862C59725F9B}
  9
$VERSIONGUID
  2
{4AD00863-E845-4568-B61F-2B7229150364}
  9
$EXTNAMES
290
     1
  9
$PSVPSCALE
 40
0.0
  9
$OLESTARTUP
290
     0
  0
ENDSEC
  0
SECTION
  2
CLASSES
  0
CLASS
  1
ACDBDICTIONARYWDFLT
  2
AcDbDictionaryWithDefault
  3
AutoCAD 2000
 90
        0
280
     0
281
     0
  0
CLASS
  1
ACDBPLACEHOLDER
  2
AcDbPlaceHolder
  3
AutoCAD 2000
 90
        0
280
     0
281
     0
  0
CLASS
  1
LAYOUT
  2
AcDbLayout
  3
AutoCAD 2000
 90
        0
280
     0
281
     0
  0
CLASS
  1
DICTIONARYVAR
  2
AcDbDictionaryVar
  3
AutoCAD 2000
 90
        0
280
     0
281
     0
  0
ENDSEC
  0
SECTION
  2
TABLES
  0
TABLE
  2
VPORT
  5
8
330
0
100
AcDbSymbolTable
 70
     2
  0
VPORT
  5
A248
330
8
100
AcDbSymbolTableRecord
100
AcDbViewportTableRecord
  2
*Active
 70
     0
 10
0.0
 20
0.0
 11
1.0
 21
1.0
 12
774.6254146778207
 22
673.3765833968443
 13
0.0
 23
0.0
 14
10.0
 24
10.0
 15
10.0
 25
10.0
 16
0.0
 26
0.0
 36
1.0
 17
0.0
 27
0.0
 37
0.0
 40
841.5646086641064
 41
2.031862745098039
 42
50.0
 43
0.0
 44
0.0
 50
0.0
 51
0.0
 71
     0
 72
   100
 73
     1
 74
     3
 75
     0
 76
     0
 77
     0
 78
     0
281
     0
 65
     1
110
0.0
120
0.0
130
0.0
111
1.0
121
0.0
131
0.0
112
0.0
122
1.0
132
0.0
 79
     0
146
0.0
  0
ENDTAB
  0
TABLE
  2
LTYPE
  5
5
330
0
100
AcDbSymbolTable
 70
     1
  0
LTYPE
  5
14
330
5
100
AcDbSymbolTableRecord
100
AcDbLinetypeTableRecord
  2
ByBlock
 70
     0
  3

 72
    65
 73
     0
 40
0.0
  0
LTYPE
  5
15
330
5
100
AcDbSymbolTableRecord
100
AcDbLinetypeTableRecord
  2
ByLayer
 70
     0
  3

 72
    65
 73
     0
 40
0.0
  0
LTYPE
  5
16
330
5
100
AcDbSymbolTableRecord
100
AcDbLinetypeTableRecord
  2
Continuous
 70
     0
  3
Solid line
 72
    65
 73
     0
 40
0.0
  0
ENDTAB
  0
TABLE
  2
LAYER
  5
2
330
0
100
AcDbSymbolTable
 70
     7
  0
LAYER
  5
10
330
2
100
AcDbSymbolTableRecord
100
AcDbLayerTableRecord
  2
0
 70
     0
 62
     7
  6
Continuous
370
    -3
390
F
  0
LAYER
  5
3405
330
2
100
AcDbSymbolTableRecord
100
AcDbLayerTableRecord
  2
POPIS
 70
     0
 62
    30
  6
Continuous
370
    -3
390
F
  0
LAYER
  5
3406
330
2
100
AcDbSymbolTableRecord
100
AcDbLayerTableRecord
  2
SPOJOVACÍ
 70
     0
 62
   180
  6
Continuous
370
    -3
390
F
  0
LAYER
  5
3407
330
2
100
AcDbSymbolTableRecord
100
AcDbLayerTableRecord
  2
CETRIS
 70
     0
 62
     1
  6
Continuous
370
    -3
390
F
  0
LAYER
  5
3408
330
2
100
AcDbSymbolTableRecord
100
AcDbLayerTableRecord
  2
izolace
 70
     0
 62
    73
  6
Continuous
370
    -3
390
F
  0
LAYER
  5
3409
330
2
100
AcDbSymbolTableRecord
100
AcDbLayerTableRecord
  2
STAVBA OBRYS
 70
     0
 62
     6
  6
Continuous
370
    -3
390
F
  0
LAYER
  5
3758
330
2
100
AcDbSymbolTableRecord
100
AcDbLayerTableRecord
  2
NOSNÉ KONSTRUKCE
 70
     0
 62
    33
  6
Continuous
370
    -3
390
F
  0
ENDTAB
  0
TABLE
  2
STYLE
  5
3
330
0
100
AcDbSymbolTable
 70
     2
  0
STYLE
  5
11
330
3
100
AcDbSymbolTableRecord
100
AcDbTextStyleTableRecord
  2
Standard
 70
     0
 40
0.0
 41
1.0
 50
0.0
 71
     0
 42
2.5
  3
txt
  4

  0
STYLE
  5
340A
330
3
100
AcDbSymbolTableRecord
100
AcDbTextStyleTableRecord
  2
SIMPLEX7
 70
     0
 40
0.0
 41
0.85
 50
0.0
 71
     0
 42
102.0
  3

  4

1001
ACAD
1000
Arial CE
1071
    60962
  0
ENDTAB
  0
TABLE
  2
VIEW
  5
6
330
0
100
AcDbSymbolTable
 70
     0
  0
ENDTAB
  0
TABLE
  2
UCS
  5
7
330
0
100
AcDbSymbolTable
 70
     0
  0
ENDTAB
  0
TABLE
  2
APPID
  5
9
330
0
100
AcDbSymbolTable
 70
     1
  0
APPID
  5
12
330
9
100
AcDbSymbolTableRecord
100
AcDbRegAppTableRecord
  2
ACAD
 70
     0
  0
ENDTAB
  0
TABLE
  2
DIMSTYLE
  5
A
330
0
100
AcDbSymbolTable
 70
     1
100
AcDbDimStyleTable
 71
     0
  0
DIMSTYLE
105
27
330
A
100
AcDbSymbolTableRecord
100
AcDbDimStyleTableRecord
  2
ISO-25
 70
     0
 41
2.5
 42
0.625
 43
3.75
 44
1.25
 73
     0
 74
     0
 77
     1
 78
     8
140
2.5
141
2.5
143
0.03937007874016
147
0.625
171
     3
172
     1
271
     2
272
     2
274
     3
278
    44
283
     0
284
     8
340
11
  0
ENDTAB
  0
TABLE
  2
BLOCK_RECORD
  5
1
330
0
100
AcDbSymbolTable
 70
     2
  0
BLOCK_RECORD
  5
1F
330
1
100
AcDbSymbolTableRecord
100
AcDbBlockTableRecord
  2
*Model_Space
340
22
  0
BLOCK_RECORD
  5
1B
330
1
100
AcDbSymbolTableRecord
100
AcDbBlockTableRecord
  2
*Paper_Space
340
1E
  0
BLOCK_RECORD
  5
23
330
1
100
AcDbSymbolTableRecord
100
AcDbBlockTableRecord
  2
*Paper_Space0
340
26
  0
BLOCK_RECORD
  5
33FA
330
1
100
AcDbSymbolTableRecord
100
AcDbBlockTableRecord
  2
E_PUNKT
340
0
102
{BLKREFS
331
9F26
331
9F27
331
9F28
331
A146
331
A239
331
A03A
102
}
  0
ENDTAB
  0
ENDSEC
  0
SECTION
  2
BLOCKS
  0
BLOCK
  5
20
330
1F
100
AcDbEntity
  8
0
100
AcDbBlockBegin
  2
*Model_Space
 70
     0
 10
0.0
 20
0.0
 30
0.0
  3
*Model_Space
  1

  0
ENDBLK
  5
21
330
1F
100
AcDbEntity
  8
0
100
AcDbBlockEnd
  0
BLOCK
  5
1C
330
1B
100
AcDbEntity
 67
     1
  8
0
100
AcDbBlockBegin
  2
*Paper_Space
 70
     0
 10
0.0
 20
0.0
 30
0.0
  3
*Paper_Space
  1

  0
ENDBLK
  5
1D
330
1B
100
AcDbEntity
 67
     1
  8
0
100
AcDbBlockEnd
  0
BLOCK
  5
24
330
23
100
AcDbEntity
  8
0
100
AcDbBlockBegin
  2
*Paper_Space0
 70
     0
 10
0.0
 20
0.0
 30
0.0
  3
*Paper_Space0
  1

  0
ENDBLK
  5
25
330
23
100
AcDbEntity
  8
0
100
AcDbBlockEnd
  0
BLOCK
  5
33FC
330
33FA
100
AcDbEntity
  8
0
100
AcDbBlockBegin
  2
E_PUNKT
 70
     0
 10
0.0
 20
0.0
 30
0.0
  3
E_PUNKT
  1

  0
LWPOLYLINE
  5
33FB
330
33FA
100
AcDbEntity
  8
POPIS
100
AcDbPolyline
 90
        2
 70
     1
 43
2.5
 10
1.27761037562675
 20
0.0290683308725193
 42
-1.0
 10
-1.222389624373249
 20
0.0290683308725193
 42
-1.0
  0
ENDBLK
  5
33FD
330
33FA
100
AcDbEntity
  8
0
100
AcDbBlockEnd
  0
ENDSEC
  0
SECTION
  2
ENTITIES
  0
HATCH
  5
9F23
330
1F
100
AcDbEntity
  8
CETRIS
100
AcDbHatch
 10
0.0
 20
0.0
 30
0.0
210
0.0
220
0.0
230
1.0
  2
ANSI31
 70
     0
 71
     0
 91
        3
 92
        7
 72
     0
 73
     1
 93
       17
 10
395.6558487364327
 20
405.8555258002525
 10
394.9833316380118
 20
405.6293942460015
 10
394.6056802626971
 20
406.0079757948278
 10
394.9833316380118
 20
406.2256369308797
 10
395.6558487364327
 20
406.4517684851762
 10
395.655848736429
 20
408.976110922229
 10
394.9833316380081
 20
408.7501340406634
 10
394.5257610461467
 20
409.2077046298745
 10
366.1587536124698
 20
409.2077046298782
 10
366.1587536124661
 20
395.2077046298763
 10
391.905379926984
 20
395.2077046298782
 10
391.905379926984
 20
396.4076314066041
 10
393.2550650105277
 20
397.1517720430747
 10
394.3656949109044
 20
398.2205440325015
 10
395.1619253902226
 20
399.539533310799
 10
395.5898062545111
 20
401.0203731778456
 10
395.6558487364363
 20
401.807301900988
 97
        0
 92
        7
 72
     0
 73
     1
 93
       24
 10
495.3460218862328
 20
406.7631797050071
 10
494.6735047878191
 20
406.9893112592581
 10
494.2958534168629
 20
407.2079025712937
 10
494.6735047878046
 20
407.5855539444201
 10
495.3460218862365
 20
407.35942239012
 10
495.3460218862365
 20
409.2077046298763
 10
398.3552188991761
 20
409.2077046298763
 10
398.3552188991689
 20
407.35942239012
 10
399.0277359976044
 20
407.5855539444218
 10
399.4053873685425
 20
407.2079025712919
 10
399.0277359976044
 20
406.9893112592671
 10
398.3552188991761
 20
406.7631797050144
 10
398.3552188991725
 20
401.8073019009753
 10
398.5821817900596
 20
400.2836739475151
 10
399.1951676392036
 20
398.8698067378427
 10
400.4048417836802
 20
397.3453824281623
 10
402.105687704252
 20
396.4076314066078
 10
402.1056877042556
 20
395.2077046298763
 10
491.5955530811534
 20
395.2077046298782
 10
491.5955530811534
 20
396.407631406606
 10
493.2963990017324
 20
397.3453824281678
 10
494.5060731462054
 20
398.8698067378318
 10
495.1190589953603
 20
400.283673947546
 10
495.3460218862365
 20
401.8073019009916
 97
        0
 92
        7
 72
     0
 73
     1
 93
       17
 10
527.6243239274208
 20
409.2077046298763
 10
499.1754797392586
 20
409.2077046298745
 10
498.7179091474009
 20
408.7501340406651
 10
498.045392048969
 20
408.9761109222308
 10
498.0453920489617
 20
406.451768485178
 10
498.7179091474045
 20
406.2256369308779
 10
499.0955605227082
 20
406.0079757948278
 10
498.7179091474045
 20
405.6293942460015
 10
498.0453920489763
 20
405.8555258002579
 10
498.0453920489763
 20
401.8073019009862
 10
498.1114345308906
 20
401.0203731778783
 10
498.53931539519
 20
399.5395333107862
 10
499.3355458745009
 20
398.2205440324978
 10
500.4461757748704
 20
397.1517720430838
 10
501.7958608584249
 20
396.407631406606
 10
501.7958608584286
 20
395.2077046298763
 10
527.6243239274172
 20
395.2077046298763
 97
        0
 75
     0
 76
     1
 52
0.0
 41
2.0
 77
     0
 78
     1
 53
45.0
 43
-30474.03203263309
 44
-11372.19526805312
 45
-4.490128060534575
 46
4.490128060534576
 79
     0
 47
0.8282675735551544
 98
        3
 10
388.9880976321201
 20
402.8301999292052
 10
427.9378759271985
 20
402.8301999292052
 10
518.2683665897111
 20
401.1736843316866
  0
HATCH
  5
9F24
330
1F
100
AcDbEntity
  8
CETRIS
100
AcDbHatch
 10
0.0
 20
0.0
 30
0.0
210
0.0
220
0.0
230
1.0
  2
ANSI31
 70
     0
 71
     0
 91
       10
 92
        7
 72
     1
 73
     1
 93
       33
 10
542.663907905493
 20
706.3314773474813
 42
0.0
 10
541.3644746253867
 20
706.3314773474794
 42
0.0
 10
540.4267236038377
 20
708.0323232680584
 42
0.0
 10
538.9022992941627
 20
709.2419974125405
 42
0.0
 10
537.4884320844557
 20
709.8549832616827
 42
0.0
 10
535.9648041310338
 20
710.0819461525643
 42
0.0
 10
531.0089263269856
 20
710.0819461525643
 42
0.0
 10
530.7827947727401
 20
709.4094290541398
 42
0.0
 10
530.5642034607099
 20
709.0317776831871
 42
0.0
 10
530.1865520875853
 20
709.4094290541361
 42
0.0
 10
530.4126836418781
 20
710.0819461525643
 42
0.0
 10
528.663907905493
 20
710.0819461525643
 42
0.0
 10
528.663907905493
 20
567.2573420231729
 42
0.0
 10
529.039641740228
 20
566.881608186266
 42
0.0
 10
528.8136648586641
 20
566.2090910878396
 42
0.0
 10
531.3380072957097
 20
566.2090910878396
 42
0.0
 10
531.5641388500134
 20
566.8816081862642
 42
0.0
 10
531.7817999860653
 20
567.2592595615806
 42
0.0
 10
532.1603815348916
 20
566.881608186266
 42
0.0
 10
531.9342499806425
 20
566.2090910878396
 42
0.0
 10
535.9824738799488
 20
566.2090910878396
 42
0.0
 10
536.7694026030494
 20
566.2751335697612
 42
0.0
 10
538.250242470096
 20
566.7030144340606
 42
0.0
 10
539.5692317483899
 20
567.4992449133769
 42
0.0
 10
540.6380037378057
 20
568.6098748137283
 42
0.0
 10
541.3821443742872
 20
569.9595598972883
 42
0.0
 10
542.663907905493
 20
569.9595598972883
 42
0.0
 10
542.6639079054893
 20
603.9263538201084
 42
0.0
 10
536.5689576154454
 20
603.9263538201084
 42
-0.484314185978081
 10
535.7784664725932
 20
602.9260241018237
 42
-1.0
 10
535.7784664725932
 20
604.5510241018237
 42
-0.3474236242519916
 10
536.5689576154454
 20
603.9263538201084
 42
0.0
 10
542.663907905493
 20
603.9263538201084
 42
0.0
 97
        0
 92
        7
 72
     1
 73
     1
 93
       18
 10
542.663907905493
 20
733.7034073337872
 42
-0.4464369873300173
 10
541.7632213229608
 20
734.5111073874322
 42
0.0
 10
528.6639079054857
 20
734.5111073874341
 42
0.0
 10
528.6639079054857
 20
713.8118975016531
 42
0.0
 10
529.0219719913384
 20
713.4538334137324
 42
0.0
 10
528.7959951097746
 20
712.7813163153023
 42
0.0
 10
531.3203375468165
 20
712.7813163152986
 42
0.0
 10
531.5464691011311
 20
713.4538334137324
 42
0.0
 10
531.7641302371721
 20
713.8314847890378
 42
0.0
 10
532.1427117860021
 20
713.453833413736
 42
0.0
 10
531.9165802317493
 20
712.7813163153005
 42
0.0
 10
535.9648041310156
 20
712.7813163153005
 42
0.0
 10
536.7517328541525
 20
712.8473587972221
 42
0.0
 10
538.2325727212101
 20
713.2752396615233
 42
0.0
 10
539.5515619995185
 20
714.0714701408451
 42
0.0
 10
540.6203339889307
 20
715.1821000411983
 42
0.0
 10
541.3644746254012
 20
716.5317851247491
 42
0.0
 10
542.6639079054893
 20
716.5317851247491
 42
0.0
 97
        0
 92
        7
 72
     0
 73
     1
 93
       14
 10
542.663907905493
 20
559.7592521200204
 10
541.3821443742835
 20
559.7592521200204
 10
540.4443933527236
 20
561.4600980405993
 10
538.9199690430668
 20
562.6697721850741
 10
537.5061018333635
 20
563.2827580342218
 10
535.9824738799306
 20
563.5097209251016
 10
531.0265960758788
 20
563.5097209251035
 10
530.8004645216187
 20
562.8372038266661
 10
530.5818732095994
 20
562.459552455728
 10
530.2042218364676
 20
562.8372038266843
 10
530.4303533907641
 20
563.5097209251035
 10
528.6639079054894
 20
563.5097209251035
 10
528.663907905493
 20
514.6586617312387
 10
542.6639079054893
 20
514.6586617312368
 97
        0
 92
        7
 72
     0
 73
     1
 93
        4
 10
542.663907905493
 20
514.6586617312387
 10
528.663907905493
 20
514.6586617312368
 10
528.663907905493
 20
459.8035073930768
 10
542.6639079054893
 20
459.8035073930768
 97
        0
 92
        7
 72
     0
 73
     1
 93
       17
 10
542.6639079054893
 20
459.8035073930787
 10
528.663907905493
 20
459.803507393075
 10
528.663907905493
 20
421.2326216764012
 10
529.0219719913384
 20
420.874557588484
 10
528.7959951097709
 20
420.2020404900594
 10
531.3203375468201
 20
420.2020404900558
 10
531.5464691011129
 20
420.874557588464
 10
531.7641302371685
 20
421.2522089638005
 10
532.1427117860021
 20
420.874557588484
 10
531.9165802317529
 20
420.2020404900577
 10
535.9648041310411
 20
420.2020404900577
 10
536.7517328541671
 20
420.2680829719811
 10
538.2325727212101
 20
420.6959638362786
 10
539.5515619995149
 20
421.492194315595
 10
540.6203339889016
 20
422.6028242159445
 10
541.364474625394
 20
423.9525092995063
 10
542.663907905493
 20
423.9525092995044
 97
        0
 92
        7
 72
     0
 73
     1
 93
       14
 10
542.6639079054893
 20
413.7522015222384
 10
541.3644746254012
 20
413.7522015222384
 10
540.4267236038413
 20
415.4530474428102
 10
538.9022992941736
 20
416.6627215872849
 10
537.4884320844667
 20
417.2757074364381
 10
535.9648041310447
 20
417.5026703273196
 10
531.0089263269929
 20
417.5026703273215
 10
530.7827947727255
 20
416.8301532288787
 10
530.5642034607099
 20
416.4525018579443
 10
530.1865520875817
 20
416.8301532288933
 10
530.4126836418781
 20
417.5026703273215
 10
528.663907905493
 20
417.5026703273215
 10
528.6639079054894
 20
395.2077046298782
 10
542.6639079054893
 20
395.2077046298782
 97
        0
 92
        7
 72
     0
 73
     1
 93
       14
 10
365.1191696344012
 20
417.5026703273215
 10
363.2885571435235
 20
417.5026703273215
 10
363.5146886978236
 20
416.8301532288933
 10
363.1370373247027
 20
416.4525018579497
 10
362.9184460126653
 20
416.8301532289151
 10
362.6923144584234
 20
417.5026703273196
 10
357.7364366543788
 20
417.5026703273196
 10
356.2128087009314
 20
417.2757074364381
 10
354.798941491239
 20
416.6627215872885
 10
353.2745171815641
 20
415.453047442812
 10
352.3367661600114
 20
413.7522015222384
 10
351.119169634394
 20
413.7522015222402
 10
351.1191696343976
 20
395.2077046298782
 10
365.1191696343976
 20
395.2077046298745
 97
        0
 92
        7
 72
     0
 73
     1
 93
       27
 10
365.1191696343939
 20
563.5097209251016
 10
363.2708873946339
 20
563.5097209251016
 10
363.4970189489304
 20
562.8372038266753
 10
363.1193675758095
 20
562.4595524557299
 10
362.9007762637866
 20
562.8372038266552
 10
362.6746447095229
 20
563.5097209251035
 10
357.7187669054856
 20
563.5097209251035
 10
356.1951389520491
 20
563.2827580342182
 10
354.781271742353
 20
562.6697721850741
 10
353.2568474326817
 20
561.4600980405921
 10
352.3190964111254
 20
559.7592521200204
 10
351.1191696343903
 20
559.7592521200204
 10
351.1191696343976
 20
423.9525092995063
 10
352.336766160015
 20
423.9525092995063
 10
353.0809067964964
 20
422.6028242159391
 10
354.1496787859123
 20
421.4921943156005
 10
355.4686680641807
 20
420.6959638362804
 10
356.9495079312419
 20
420.2680829719793
 10
357.736436654397
 20
420.2020404900577
 10
361.7846605536596
 20
420.2020404900594
 10
361.5585289994105
 20
420.8745575884877
 10
361.9371105482368
 20
421.252208963795
 10
362.1547716842778
 20
420.8745575884859
 10
362.3809032385779
 20
420.2020404900577
 10
364.9052456756344
 20
420.2020404900594
 10
364.6792687940669
 20
420.8745575884804
 10
365.1191696343939
 20
421.3144584313559
 97
        0
 92
        7
 72
     0
 73
     1
 93
       27
 10
365.1191696343976
 20
710.0819461525643
 10
363.2885571435272
 20
710.0819461525643
 10
363.5146886978309
 20
709.4094290541361
 10
363.1370373247027
 20
709.0317776831944
 10
362.9184460126761
 20
709.4094290541452
 10
362.6923144584234
 20
710.0819461525661
 10
357.7364366543824
 20
710.0819461525661
 10
356.2128087009459
 20
709.8549832616827
 10
354.7989414912281
 20
709.2419974125277
 10
353.2745171815641
 20
708.0323232680512
 10
352.3367661600114
 20
706.3314773474813
 10
351.119169634394
 20
706.331477347483
 10
351.1191696343976
 20
569.9595598972883
 10
352.319096411129
 20
569.9595598972883
 10
353.0632370475959
 20
568.6098748137482
 10
354.1320090370191
 20
567.4992449133823
 10
355.4509983152875
 20
566.703014434066
 10
356.931838182345
 20
566.2751335697648
 10
357.7187669054819
 20
566.2090910878378
 10
361.7669908047737
 20
566.2090910878378
 10
361.5408592505136
 20
566.8816081862696
 10
361.9194407993436
 20
567.2592595615788
 10
362.1371019353737
 20
566.8816081863115
 10
362.3632334896883
 20
566.2090910878396
 10
364.8875759267557
 20
566.2090910878396
 10
364.661599045181
 20
566.8816081862678
 10
365.1191696343976
 20
567.3391787781274
 97
        0
 92
        7
 72
     0
 73
     1
 93
       17
 10
365.1191696343939
 20
734.5111073874322
 10
351.1191696343903
 20
734.5111073874322
 10
351.119169634394
 20
716.5317851247491
 10
352.336766160015
 20
716.5317851247473
 10
353.0809067964928
 20
715.1821000411946
 10
354.1496787858905
 20
714.0714701408342
 10
355.4686680642025
 20
713.2752396615305
 10
356.9495079312346
 20
712.8473587972202
 10
357.7364366543679
 20
712.7813163153023
 10
361.7846605536524
 20
712.7813163153005
 10
361.5585289994033
 20
713.4538334137287
 10
361.9371105482368
 20
713.8314847890397
 10
362.1547716842887
 20
713.4538334137305
 10
362.3809032385925
 20
712.7813163153005
 10
364.9052456756344
 20
712.7813163152986
 10
364.6792687940706
 20
713.4538334137269
 10
365.1191696343976
 20
713.8937342565932
 97
        0
 75
     0
 76
     1
 52
90.0
 41
2.0
 77
     0
 78
     1
 53
135.0
 43
-30474.03203263309
 44
-11372.19526805312
 45
-4.490128060534576
 46
-4.490128060534575
 79
     0
 47
0.8282675735551544
 98
       10
 10
535.6714590194224
 20
649.6539699743334
 10
537.3288963936848
 20
725.8545902711958
 10
538.1576150808159
 20
529.5551636631753
 10
538.9863337679326
 20
477.3743046285489
 10
538.1576150808159
 20
433.4761186142459
 10
537.3288963936848
 20
403.6584577279682
 10
356.6679919513753
 20
405.3150208418482
 10
357.4967106385065
 20
469.919889406974
 10
355.8392732642441
 20
599.9578843359813
 10
355.0105545771129
 20
721.7132537610268
  0
HATCH
  5
9F25
330
1F
100
AcDbEntity
  8
NOSNÉ KONSTRUKCE
100
AcDbHatch
 10
0.0
 20
0.0
 30
0.0
210
0.0
220
0.0
230
1.0
  2
ANSI37
 70
     0
 71
     0
 91
        4
 92
        7
 72
     0
 73
     1
 93
      132
 10
390.8506203927045
 20
726.2194209394838
 10
365.8506203927045
 20
726.2194209394838
 10
365.8506203927081
 20
712.7813163153005
 10
368.0252099675617
 20
712.7813163153005
 10
367.7990784133089
 20
713.4538334137287
 10
368.1767297864407
 20
713.8314847890415
 10
368.39532109846
 20
713.4538334137378
 10
368.6214526527201
 20
712.7813163152986
 10
371.1450195865745
 20
712.7813163153005
 10
370.9188880322708
 20
713.4538334137251
 10
371.2965394054062
 20
713.8314847890378
 10
371.5151307174291
 20
713.4538334137196
 10
371.7412622716819
 20
712.7813163153005
 10
374.2648292055437
 20
712.7813163153023
 10
374.0386976512363
 20
713.4538334137269
 10
374.4172792003428
 20
713.8314847890378
 10
374.6349403363801
 20
713.4538334137396
 10
374.8610718906839
 20
712.7813163152986
 10
376.1018275662918
 20
712.7813163153005
 10
377.3078290362591
 20
712.630448998967
 10
377.1166493595355
 20
713.1989652463381
 10
377.4943007326601
 20
713.5775467946168
 10
377.7128920446721
 20
713.1989652463508
 10
377.9301116505321
 20
712.5530133476659
 10
380.2559253342387
 20
712.2622866359379
 10
380.1304189378479
 20
712.6352787132036
 10
380.509000486958
 20
713.0129300885164
 10
380.7266616230208
 20
712.6352787131745
 10
380.8784293187727
 20
712.1842407600761
 10
382.9941289910839
 20
711.9196723069016
 10
383.5227700652812
 20
712.4483133780395
 10
383.8936406539451
 20
711.8075752583099
 10
386.9020987312233
 20
711.431631236117
 10
384.0751993518042
 20
711.0783847052825
 10
384.2120303298816
 20
710.6716776075281
 10
383.8334487810516
 20
710.2940262365864
 10
383.4282525189319
 20
710.9970590631055
 10
381.3646211079412
 20
710.7393288616986
 10
381.5210317525579
 20
710.2744925430306
 10
381.1424502037316
 20
709.8968411720834
 10
380.9247890677015
 20
710.2744925430124
 10
380.7924818740884
 20
710.6676958888583
 10
378.6539563314927
 20
710.4004965700879
 10
378.8458461640784
 20
709.8298685128229
 10
378.4672646149683
 20
709.4522171418775
 10
378.24960347892
 20
709.8298685128102
 10
378.0818791407091
 20
710.3286349768132
 10
375.782119017369
 20
710.0421146011776
 10
375.9948573499404
 20
709.4094290541398
 10
375.617205976805
 20
709.0317776831889
 10
375.3986146647894
 20
709.4094290541143
 10
375.1724831104857
 20
710.0819461525643
 10
372.648916176442
 20
710.0819461525643
 10
372.8750477306984
 20
709.4094290541361
 10
372.4964661818721
 20
709.0317776831962
 10
372.278805045813
 20
709.4094290541615
 10
372.0526734915202
 20
710.0819461525625
 10
369.5291065574765
 20
710.0819461525661
 10
369.7552381117293
 20
709.4094290541343
 10
369.3766565628993
 20
709.0317776831925
 10
369.1589954265855
 20
709.4094290541161
 10
368.9328638723218
 20
710.0819461525661
 10
366.4085214352653
 20
710.0819461525643
 10
366.6344983167964
 20
709.4094290541361
 10
366.2568469439374
 20
709.0317776831925
 10
365.8506203927045
 20
709.7335988697832
 10
365.8506203927081
 20
566.2090910878396
 10
368.0075402186721
 20
566.2090910878378
 10
367.7814086644266
 20
566.881608186266
 10
368.1590600375511
 20
567.2592595615824
 10
368.3776513495886
 20
566.881608186246
 10
368.6037829038341
 20
566.2090910878396
 10
371.1273498376849
 20
566.2090910878414
 10
370.9012182833848
 20
566.881608186266
 10
371.278869656513
 20
567.2592595615769
 10
371.497460968525
 20
566.8816081862787
 10
371.7235925227851
 20
566.2090910878396
 10
374.2471594566468
 20
566.2090910878396
 10
374.0210279023467
 20
566.8816081862714
 10
374.3996094514568
 20
567.2592595615788
 10
374.6172705875051
 20
566.8816081862769
 10
374.8434021418052
 20
566.2090910878396
 10
376.0841578173986
 20
566.2090910878396
 10
377.2901592873731
 20
566.0582237715061
 10
377.0989796106387
 20
566.6267400188753
 10
377.4766309837705
 20
567.0053215671596
 10
377.6952222958007
 20
566.6267400188462
 10
377.9124419016352
 20
565.9807881202032
 10
380.2382555853418
 20
565.690061408477
 10
380.1127491889619
 20
566.0630534857427
 10
380.4913307380648
 20
566.4407048610501
 10
380.7089918741276
 20
566.0630534857427
 10
380.860759569894
 20
565.6120155326134
 10
382.9764592421907
 20
565.3474470794408
 10
383.5051003163844
 20
565.8760881505805
 10
383.8759709050555
 20
565.2353500308472
 10
386.8844289823482
 20
564.8594060086543
 10
384.0575296029183
 20
564.5061594778235
 10
384.194360580992
 20
564.0994523800691
 10
383.8157790321656
 20
563.7218010091255
 10
383.4105827700459
 20
564.4248338356447
 10
381.3469513590553
 20
564.1671036342359
 10
381.5033620036683
 20
563.7022673155661
 10
381.1247804548457
 20
563.3246159446225
 10
380.9071193187937
 20
563.7022673155516
 10
380.7748121251879
 20
564.0954706613992
 10
378.6362865826067
 20
563.8282713426251
 10
378.8281764151743
 20
563.2576432853602
 10
378.4495948660751
 20
562.879991914413
 10
378.2319337300195
 20
563.2576432853547
 10
378.0642093918122
 20
563.7564097493505
 10
375.7644492684867
 20
563.4698893737204
 10
375.9771876010399
 20
562.8372038266716
 10
375.5995362279191
 20
562.4595524557299
 10
375.3809449158889
 20
562.8372038266697
 10
375.1548133615924
 20
563.5097209251035
 10
372.6312464275561
 20
563.5097209251016
 10
372.8573779818089
 20
562.8372038266788
 10
372.4787964329789
 20
562.4595524557299
 10
372.2611352969343
 20
562.837203826677
 10
372.0350037426378
 20
563.5097209251016
 10
369.5114368085978
 20
563.5097209251035
 10
369.7375683628433
 20
562.8372038266807
 10
369.3589868140097
 20
562.4595524557316
 10
369.141325677685
 20
562.8372038266843
 10
368.9151941234358
 20
563.5097209251016
 10
366.3908516863721
 20
563.5097209251035
 10
366.6168285679068
 20
562.8372038266734
 10
366.2391771950515
 20
562.459552455728
 10
365.8506203927045
 20
563.1308463316509
 10
365.8506203927081
 20
448.8738234094835
 10
390.8506203927117
 20
448.8738234094816
 97
        0
 92
        7
 72
     0
 73
     1
 93
      132
 10
527.8506203927008
 20
709.7335988697778
 10
527.4443938414715
 20
709.0317776831962
 10
527.0667424686198
 20
709.4094290541361
 10
527.2927193501472
 20
710.0819461525643
 10
524.7683769130799
 20
710.0819461525643
 10
524.5422453588344
 20
709.4094290541506
 10
524.3245842225133
 20
709.0317776831852
 10
523.9460026736797
 20
709.4094290541343
 10
524.1721342279324
 20
710.0819461525643
 10
521.6485672938851
 20
710.0819461525661
 10
521.4224357395851
 20
709.4094290541415
 10
521.2047746035405
 20
709.0317776831907
 10
520.8261930547068
 20
709.4094290541398
 10
521.0523246089633
 20
710.0819461525643
 10
518.5287576749233
 20
710.0819461525625
 10
518.3026261206268
 20
709.409429054127
 10
518.0840348086003
 20
709.0317776831907
 10
517.7063834354758
 20
709.4094290541398
 10
517.9191217680327
 20
710.0421146011776
 10
515.6193616447072
 20
710.3286349768132
 10
515.4516373065034
 20
709.8298685128229
 10
515.2339761704443
 20
709.4522171418739
 10
514.8553946213414
 20
709.8298685128265
 10
515.0472844539126
 20
710.4004965700879
 10
512.9087589113314
 20
710.6676958888547
 10
512.7764517177256
 20
710.2744925430124
 10
512.558790581681
 20
709.8968411720853
 10
512.1802090328547
 20
710.2744925430306
 10
512.336619677475
 20
710.7393288616949
 10
510.2729882664662
 20
710.9970590631073
 10
509.8677920043574
 20
710.294026236581
 10
509.4892104555347
 20
710.6716776075264
 10
509.626041433612
 20
711.0783847052789
 10
506.7991420541821
 20
711.431631236117
 10
509.8076001314675
 20
711.8075752583099
 10
510.1784707201313
 20
712.4483133780395
 10
510.7071117943251
 20
711.9196723069035
 10
512.8228114666289
 20
712.1842407600779
 10
512.9745791623991
 20
712.6352787131963
 10
513.192240298451
 20
713.0129300885164
 10
513.5708218475574
 20
712.6352787132018
 10
513.4453154511775
 20
712.2622866359397
 10
515.7711291348732
 20
712.5530133476659
 10
515.9883487407296
 20
713.1989652463435
 10
516.2069400527525
 20
713.5775467946205
 10
516.5845914258807
 20
713.1989652463325
 10
516.3934117491463
 20
712.630448998967
 10
517.599413219139
 20
712.7813163153005
 10
518.8401688947142
 20
712.7813163153023
 10
519.0663004489997
 20
713.4538334137014
 10
519.2839615850589
 20
713.8314847890397
 10
519.662543134169
 20
713.4538334137324
 10
519.4364115798689
 20
712.7813163152986
 10
521.9599785137343
 20
712.7813163153023
 10
522.1861100679725
 20
713.4538334137159
 10
522.4047013800027
 20
713.8314847890397
 10
522.7823527531309
 20
713.4538334137324
 10
522.5562211988272
 20
712.7813163152986
 10
525.0797881326998
 20
712.7813163153023
 10
525.305919686938
 20
713.4538334137305
 10
525.5245109989719
 20
713.8314847890378
 10
525.9021623721
 20
713.4538334137287
 10
525.6760308178472
 20
712.7813163153005
 10
527.8506203926972
 20
712.7813163153005
 10
527.8506203927045
 20
726.2194209394838
 10
502.8506203927045
 20
726.2194209394838
 10
502.8506203927045
 20
514.6586617312387
 10
527.8506203927008
 20
514.6586617312404
 10
527.8506203926972
 20
563.1308463316527
 10
527.4620635903574
 20
562.4595524557262
 10
527.084412217513
 20
562.8372038266734
 10
527.3103890990369
 20
563.5097209251016
 10
524.7860466619695
 20
563.5097209251035
 10
524.5599151077239
 20
562.8372038266753
 10
524.3422539714028
 20
562.459552455728
 10
523.9636724225729
 20
562.8372038266716
 10
524.1898039768257
 20
563.5097209251016
 10
521.6662370427821
 20
563.5097209251016
 10
521.4401054884965
 20
562.8372038266934
 10
521.22244435243
 20
562.4595524557299
 10
520.8438628036001
 20
562.8372038266788
 10
521.0699943578565
 20
563.5097209251035
 10
518.5464274238166
 20
563.5097209251016
 10
518.3202958695164
 20
562.8372038266607
 10
518.1017045574935
 20
562.4595524557316
 10
517.7240531843617
 20
562.8372038266734
 10
517.936791516915
 20
563.4698893737186
 10
515.6370313935894
 20
563.7564097493505
 10
515.4693070553821
 20
563.2576432853674
 10
515.2516459193338
 20
562.879991914413
 10
514.873064370231
 20
563.257643285362
 10
515.0649542027986
 20
563.8282713426251
 10
512.9264286602246
 20
564.0954706613975
 10
512.7941214666225
 20
563.7022673155679
 10
512.5764603305742
 20
563.3246159446225
 10
512.1978787817406
 20
563.7022673155716
 10
512.3542894263501
 20
564.1671036342359
 10
510.2906580153594
 20
564.4248338356483
 10
509.8854617532433
 20
563.7218010091273
 10
509.506880204417
 20
564.0994523800673
 10
509.6437111825016
 20
564.5061594778199
 10
506.8168118030753
 20
564.8594060086525
 10
509.8252698803535
 20
565.2353500308491
 10
510.1961404690209
 20
565.8760881505786
 10
510.7247815432146
 20
565.3474470794408
 10
512.8404812155222
 20
565.6120155326152
 10
512.9922489112886
 20
566.0630534857464
 10
513.2099100473405
 20
566.4407048610537
 10
513.5884915964506
 20
566.063053485741
 10
513.4629852000671
 20
565.6900614084788
 10
515.7887988837664
 20
565.9807881202032
 10
516.0060184896155
 20
566.6267400188771
 10
516.2246098016421
 20
567.0053215671578
 10
516.6022611747666
 20
566.6267400188735
 10
516.4110814980322
 20
566.0582237715061
 10
517.6170829679959
 20
566.2090910878396
 10
518.8578386436074
 20
566.2090910878396
 10
519.0839701979111
 20
566.8816081862714
 10
519.3016313339485
 20
567.2592595615806
 10
519.6802128830622
 20
566.8816081862678
 10
519.4540813287694
 20
566.2090910878396
 10
521.9776482626166
 20
566.2090910878396
 10
522.2037798168512
 20
566.8816081862405
 10
522.4223711288923
 20
567.2592595615769
 10
522.8000225020277
 20
566.8816081862696
 10
522.5738909477313
 20
566.2090910878396
 10
525.0974578815857
 20
566.2090910878414
 10
525.3235894358385
 20
566.8816081862769
 10
525.5421807478541
 20
567.2592595615769
 10
525.9198321209932
 20
566.881608186266
 10
525.6937005667441
 20
566.2090910878396
 10
527.8506203927008
 20
566.2090910878396
 97
        0
 92
        7
 72
     1
 73
     1
 93
       10
 10
527.8506203926972
 20
514.6586617312387
 42
0.0
 10
502.8506203927045
 20
514.6586617312387
 42
0.0
 10
502.8506203926972
 20
448.8738234094799
 42
0.0
 10
527.8506203926972
 20
448.8738234094816
 42
0.0
 10
527.8506203927008
 20
459.8035073930768
 42
0.0
 10
517.500375530597
 20
459.803507393075
 42
-0.4142135623730951
 10
516.687875530597
 20
458.9910073930751
 42
-1.0
 10
516.687875530597
 20
460.616007393075
 42
-0.4142135623730951
 10
517.500375530597
 20
459.803507393075
 42
0.0
 10
527.8506203927008
 20
459.803507393075
 42
0.0
 97
        0
 92
        7
 72
     0
 73
     1
 93
      250
 10
495.5927107104853
 20
422.1527443873037
 10
495.0939442465041
 20
422.3204687255129
 10
494.7162928755479
 20
422.5381298615575
 10
495.0939442464933
 20
422.916711410664
 10
495.6645723037673
 20
422.7248215780873
 10
495.9317716225323
 20
424.8633471206685
 10
495.5385682766846
 20
424.9956543142706
 10
495.1609169057501
 20
425.2133154503208
 10
495.5385682767028
 20
425.5918969991525
 10
496.0034045953671
 20
425.4354863545358
 10
496.261134796774
 20
427.4991177655283
 10
495.5581019702604
 20
427.9043140276463
 10
495.9357533412021
 20
428.2828955764726
 10
496.3424604389492
 20
428.1460645983916
 10
496.6957069697946
 20
430.972963977827
 10
497.0716509919748
 20
427.9645059005416
 10
497.7123891117098
 20
427.5936353118722
 10
497.183748040572
 20
427.0649942376731
 10
497.4483164937501
 20
424.9492945653728
 10
497.8993544468703
 20
424.7975268696027
 10
498.2770058221886
 20
424.5798657335544
 10
497.8993544468667
 20
424.2012841844443
 10
497.5263623696137
 20
424.3267905808206
 10
497.8170890813435
 20
422.0009768971249
 10
498.4630409800138
 20
421.7837572912831
 10
498.8416225282872
 20
421.5651659792492
 10
498.4630409800102
 20
421.1875146061283
 10
497.8945247326428
 20
421.378694282861
 10
498.0453920489726
 20
420.1726928128336
 10
498.045392048969
 20
418.9319371372858
 10
498.7179091474045
 20
418.7058055829802
 10
499.0955605227118
 20
418.4881444469356
 10
498.7179091474045
 20
418.1095628978328
 10
498.045392048969
 20
418.3356944521347
 10
498.0453920489763
 20
415.8121275182711
 10
498.7179091473899
 20
415.585995964022
 10
499.0955605227155
 20
415.3674046520027
 10
498.7179091474009
 20
414.989753278869
 10
498.0453920489726
 20
415.2158848331673
 10
498.0453920489726
 20
412.692317899311
 10
498.7179091473826
 20
412.4661863450564
 10
499.0955605227082
 20
412.2475950330299
 10
498.7179091474009
 20
411.8699436599035
 10
498.0453920489763
 20
412.0960752141582
 10
498.045392048969
 20
409.9371043602495
 10
525.8809845992418
 20
409.9371043602459
 10
525.8809845992382
 20
417.5026703273215
 10
524.7683769130835
 20
417.5026703273215
 10
524.5422453588198
 20
416.8301532288896
 10
524.3245842225096
 20
416.4525018579479
 10
523.9460026736869
 20
416.8301532288951
 10
524.1721342279397
 20
417.5026703273215
 10
521.6485672938924
 20
417.5026703273215
 10
521.422435739596
 20
416.8301532288824
 10
521.2047746035405
 20
416.452501857946
 10
520.8261930547105
 20
416.8301532288951
 10
521.0523246089669
 20
417.5026703273233
 10
518.5287576749233
 20
417.5026703273196
 10
518.3026261206341
 20
416.830153228886
 10
518.0840348086039
 20
416.452501857946
 10
517.7063834354685
 20
416.8301532288969
 10
517.9191217680218
 20
417.4628387759348
 10
515.6193616447072
 20
417.7493591515704
 10
515.4516373064962
 20
417.2505926875892
 10
515.2339761704443
 20
416.8729413166274
 10
514.8553946213305
 20
417.2505926875819
 10
515.0472844539053
 20
417.8212207448468
 10
512.9087589113278
 20
418.0884200636137
 10
512.776451717722
 20
417.6952167177696
 10
512.5587905816846
 20
417.3175653468369
 10
512.180209032851
 20
417.6952167177787
 10
512.336619677475
 20
418.1600530364539
 10
510.2729882664662
 20
418.4177832378646
 10
509.8677920043574
 20
417.7147504113418
 10
509.4892104555274
 20
418.0924017822853
 10
509.6260414336084
 20
418.4991088800416
 10
506.7991420541638
 20
418.8523554108724
 10
509.8076001314675
 20
419.2282994330635
 10
510.178470720135
 20
419.8690375527966
 10
510.7071117943251
 20
419.3403964816589
 10
512.8228114666362
 20
419.6049649348351
 10
512.9745791624027
 20
420.0560028879481
 10
513.1922402984546
 20
420.4336542632717
 10
513.5708218475501
 20
420.0560028879554
 10
513.4453154511702
 20
419.6830108106969
 10
515.7711291348732
 20
419.9737375224194
 10
515.988348740726
 20
420.6196894210824
 10
516.2069400527452
 20
420.998270969374
 10
516.5845914258843
 20
420.6196894210879
 10
516.3934117491534
 20
420.0511731737242
 10
517.5994132191499
 20
420.2020404900594
 10
518.8401688947106
 20
420.2020404900577
 10
519.0663004490143
 20
420.8745575884786
 10
519.2839615850625
 20
421.2522089637986
 10
519.6625431341617
 20
420.874557588484
 10
519.4364115798689
 20
420.2020404900577
 10
521.9599785137306
 20
420.2020404900577
 10
522.1861100679798
 20
420.8745575884968
 10
522.4047013800063
 20
421.2522089637986
 10
522.7823527531236
 20
420.874557588484
 10
522.5562211988272
 20
420.2020404900577
 10
525.0797881326925
 20
420.2020404900577
 10
525.3059196869417
 20
420.8745575884932
 10
525.5245109989755
 20
421.252208963795
 10
525.8809845992418
 20
420.8957353614696
 10
525.8809845992418
 20
434.9371043602477
 10
367.9020929406451
 20
434.9371043602495
 10
367.9020929406488
 20
420.9775721164151
 10
368.1767297864407
 20
421.2522089638005
 10
368.3953210984564
 20
420.8745575885004
 10
368.6214526527237
 20
420.2020404900594
 10
371.1450195865818
 20
420.2020404900577
 10
370.9188880322745
 20
420.8745575884895
 10
371.2965394054099
 20
421.2522089637968
 10
371.5151307174073
 20
420.874557588515
 10
371.7412622716783
 20
420.2020404900577
 10
374.2648292055364
 20
420.2020404900577
 10
374.0386976512363
 20
420.8745575884859
 10
374.4172792003464
 20
421.252208963795
 10
374.6349403363947
 20
420.8745575885059
 10
374.8610718906947
 20
420.2020404900577
 10
376.1018275662773
 20
420.2020404900594
 10
377.30782903627
 20
420.0511731737224
 10
377.1166493595319
 20
420.6196894210916
 10
377.4943007326565
 20
420.9982709693776
 10
377.712892044683
 20
420.6196894211025
 10
377.9301116505357
 20
419.9737375224213
 10
380.2559253342278
 20
419.6830108106951
 10
380.1304189378479
 20
420.0560028879554
 10
380.509000486958
 20
420.4336542632681
 10
380.7266616230099
 20
420.0560028879372
 10
380.8784293187727
 20
419.604964934837
 10
382.9941289910839
 20
419.3403964816589
 10
383.522770065274
 20
419.8690375527985
 10
383.8936406539524
 20
419.2282994330616
 10
386.9020987312233
 20
418.8523554108705
 10
384.0751993518042
 20
418.4991088800398
 10
384.2120303298816
 20
418.0924017822872
 10
383.8334487810516
 20
417.7147504113454
 10
383.4282525189319
 20
418.4177832378627
 10
381.3646211079412
 20
418.1600530364539
 10
381.5210317525616
 20
417.6952167177878
 10
381.1424502037279
 20
417.3175653468369
 10
380.924789067687
 20
417.6952167177987
 10
380.7924818740811
 20
418.0884200636155
 10
378.6539563314963
 20
417.8212207448468
 10
378.8458461640748
 20
417.2505926875801
 10
378.4672646149647
 20
416.8729413166329
 10
378.2496034789128
 20
417.2505926875637
 10
378.0818791406982
 20
417.7493591515685
 10
375.7821190173836
 20
417.4628387759384
 10
375.9948573499332
 20
416.8301532288969
 10
375.6172059768086
 20
416.4525018579443
 10
375.3986146647785
 20
416.8301532288987
 10
375.172483110482
 20
417.5026703273196
 10
372.648916176442
 20
417.5026703273215
 10
372.8750477306984
 20
416.8301532288914
 10
372.4964661818685
 20
416.452501857946
 10
372.2788050458238
 20
416.8301532288841
 10
372.0526734915165
 20
417.5026703273215
 10
369.5291065574729
 20
417.5026703273215
 10
369.7552381117257
 20
416.8301532288896
 10
369.3766565629029
 20
416.4525018579515
 10
369.158995426571
 20
416.8301532289079
 10
368.9328638723254
 20
417.5026703273215
 10
367.9020929406451
 20
417.5026703273215
 10
367.9020929406488
 20
409.9371043602495
 10
395.65584873644
 20
409.9371043602495
 10
395.6558487364363
 20
412.0960752141545
 10
394.9833316380081
 20
411.8699436599017
 10
394.6056802626971
 20
412.2475950330299
 10
394.9833316380008
 20
412.4661863450546
 10
395.6558487364363
 20
412.6923178993092
 10
395.6558487364363
 20
415.2158848331692
 10
394.9833316380045
 20
414.9897532788709
 10
394.6056802626971
 20
415.3674046519991
 10
394.9833316380045
 20
415.5859959640183
 10
395.6558487364327
 20
415.8121275182729
 10
395.65584873644
 20
418.3356944521328
 10
394.9833316380118
 20
418.1095628978328
 10
394.6056802626935
 20
418.4881444469374
 10
394.9833316380008
 20
418.7058055829856
 10
395.65584873644
 20
418.9319371372894
 10
395.6558487364363
 20
420.172692812881
 10
395.8067160527662
 20
421.3786942828555
 10
395.2381998054061
 20
421.1875146061265
 10
394.8596182571145
 20
421.5651659792511
 10
395.2381998053915
 20
421.783757291274
 10
395.8841517040764
 20
422.0009768971303
 10
396.1748784158026
 20
424.3267905808242
 10
395.8018863385314
 20
424.2012841844426
 10
395.4242349632277
 20
424.5798657335489
 10
395.8018863385423
 20
424.7975268696027
 10
396.2529242916625
 20
424.949294565371
 10
396.517492744837
 20
427.0649942376767
 10
395.9888516736955
 20
427.5936353118704
 10
396.6295897934232
 20
427.9645059005343
 10
397.005533815618
 20
430.9729639778233
 10
397.3587803464524
 20
428.1460645983952
 10
397.7654874442068
 20
428.2828955764762
 10
398.1431388151486
 20
427.9043140276444
 10
397.4401059886277
 20
427.4991177655265
 10
397.6978361900419
 20
425.4354863545341
 10
398.1626725087062
 20
425.5918969991507
 10
398.5403238796625
 20
425.2133154503225
 10
398.1626725087135
 20
424.9956543142761
 10
397.769469162884
 20
424.8633471206721
 10
398.0366684816417
 20
422.7248215780873
 10
398.6072965389084
 20
422.9167114106621
 10
398.9849479098647
 20
422.5381298615575
 10
398.6072965389084
 20
422.3204687255056
 10
398.1085300749236
 20
422.1527443873001
 10
398.3950504505573
 20
419.8529842639727
 10
399.0277359976044
 20
420.0657225965296
 10
399.4053873685425
 20
419.6880712233996
 10
399.0277359976116
 20
419.4694799113822
 10
398.3552188991725
 20
419.2433483570785
 10
398.3552188991689
 20
416.7197814230348
 10
399.027735997608
 20
416.945912977293
 10
399.4053873685425
 20
416.5673314284631
 10
399.0277359975971
 20
416.3496702924112
 10
398.3552188991725
 20
416.1235387381111
 10
398.3552188991725
 20
413.5999718040657
 10
399.0277359976007
 20
413.8261033583221
 10
399.4053873685461
 20
413.4475218094921
 10
399.0277359976007
 20
413.2298606731728
 10
398.3552188991689
 20
413.0037291189182
 10
398.3552188991725
 20
410.4793866818581
 10
399.027735997608
 20
410.7053635633856
 10
399.4053873685461
 20
410.3277121905303
 10
398.730550014583
 20
409.9371043602495
 10
494.9706907708259
 20
409.9371043602459
 10
494.2958534168556
 20
410.3277121905303
 10
494.6735047878046
 20
410.7053635633802
 10
495.3460218862328
 20
410.4793866818544
 10
495.3460218862328
 20
413.0037291189201
 10
494.6735047878155
 20
413.2298606731764
 10
494.2958534168702
 20
413.4475218094939
 10
494.673504787801
 20
413.8261033583239
 10
495.3460218862401
 20
413.5999718040693
 10
495.3460218862365
 20
416.123538738113
 10
494.6735047878373
 20
416.3496702924148
 10
494.2958534168665
 20
416.5673314284631
 10
494.6735047878083
 20
416.9459129772913
 10
495.3460218862365
 20
416.7197814230348
 10
495.3460218862365
 20
419.2433483570749
 10
494.6735047877973
 20
419.4694799113785
 10
494.2958534168665
 20
419.6880712234051
 10
494.673504787801
 20
420.0657225965278
 10
495.3061903348553
 20
419.8529842639691
 97
        0
 75
     0
 76
     1
 52
90.0
 41
2.0
 77
     0
 78
     2
 53
135.0
 43
-30474.03203263309
 44
-11372.19526805312
 45
-4.490128060534576
 46
-4.490128060534575
 79
     0
 53
225.0
 43
-30474.03203263309
 44
-11372.19526805312
 45
4.490128060534575
 46
-4.490128060534576
 79
     0
 47
0.8282675735551544
 98
        4
 10
371.5849283197076
 20
495.5961662667286
 10
509.9811797184138
 20
601.6144474498688
 10
514.9534918411863
 20
494.7679084679657
 10
466.8877311049782
 20
420.2238037686292
  0
INSERT
  5
9F26
330
1F
100
AcDbEntity
  8
POPIS
100
AcDbBlockReference
  2
E_PUNKT
 10
535.7595720575245
 20
603.7564708459813
 30
0.0
 41
0.6499999999996362
 42
0.6499999999996362
 43
0.65
 50
270.0
  0
INSERT
  5
9F27
330
1F
100
AcDbEntity
  8
POPIS
100
AcDbBlockReference
  2
E_PUNKT
 10
450.8493957265255
 20
514.6766084753962
 30
0.0
 41
0.6499999999996362
 42
0.6499999999996362
 43
0.65
 50
270.0
  0
INSERT
  5
9F28
330
1F
100
AcDbEntity
  8
POPIS
100
AcDbBlockReference
  2
E_PUNKT
 10
516.6689811155284
 20
459.8214541372326
 30
0.0
 41
0.6499999999996362
 42
0.6499999999996362
 43
0.65
 50
270.0
  0
LINE
  5
9F29
330
1F
100
AcDbEntity
  8
CETRIS
100
AcDbLine
 10
528.582071151015
 20
734.5111073874322
 30
0.0
 11
542.582071151015
 21
734.5111073874322
 31
0.0
  0
LWPOLYLINE
  5
9F2A
330
1F
100
AcDbEntity
  8
izolace
100
AcDbPolyline
 90
        4
 70
     1
 43
0.0
 10
528.582071151015
 20
734.5111073874322
 10
528.582071151015
 20
739.5111073874322
 10
542.582071151015
 20
739.5111073874322
 10
542.582071151015
 20
734.5111073874322
  0
LINE
  5
9F2B
330
1F
100
AcDbEntity
  8
CETRIS
100
AcDbLine
 10
527.6243239274172
 20
395.2077046298763
 30
0.0
 11
527.6243239274172
 21
409.2077046298763
 31
0.0
  0
LINE
  5
9F2C
330
1F
100
AcDbEntity
  8
CETRIS
100
AcDbLine
 10
528.663907905493
 20
734.5111073874322
 30
0.0
 11
528.663907905493
 21
395.2077046298763
 31
0.0
  0
LINE
  5
9F2D
330
1F
100
AcDbEntity
  8
CETRIS
100
AcDbLine
 10
542.663907905493
 20
734.5111073874322
 30
0.0
 11
542.663907905493
 21
395.2077046298782
 31
0.0
  0
LINE
  5
9F2E
330
1F
100
AcDbEntity
  8
CETRIS
100
AcDbLine
 10
528.663907905493
 20
395.2077046298763
 30
0.0
 11
542.663907905493
 21
395.2077046298782
 31
0.0
  0
LINE
  5
9F2F
330
1F
100
AcDbEntity
  8
SPOJOVACÍ
  6
Continuous
100
AcDbLine
 10
541.364474625394
 20
706.3314773474813
 30
0.0
 11
540.4267236038377
 21
708.0323232680566
 31
0.0
  0
LINE
  5
9F30
330
1F
100
AcDbEntity
  8
SPOJOVACÍ
  6
Continuous
100
AcDbLine
 10
542.5644014021254
 20
716.5317851247491
 30
0.0
 11
542.5644014021254
 21
706.3314773474813
 31
0.0
  0
LINE
  5
9F31
330
1F
100
AcDbEntity
  8
SPOJOVACÍ
  6
Continuous
100
AcDbLine
 10
542.5644014021254
 20
706.3314773474813
 30
0.0
 11
541.364474625394
 21
706.3314773474813
 31
0.0
  0
LINE
  5
9F32
330
1F
100
AcDbEntity
  8
SPOJOVACÍ
  6
Continuous
100
AcDbLine
 10
541.364474625394
 20
716.5317851247491
 30
0.0
 11
541.364474625394
 21
706.3314773474813
 31
0.0
  0
LINE
  5
9F33
330
1F
100
AcDbEntity
  8
SPOJOVACÍ
  6
Continuous
100
AcDbLine
 10
525.9021623721
 20
713.4538334137287
 30
0.0
 11
524.5422453588271
 21
709.4094290541361
 31
0.0
  0
LINE
  5
9F34
330
1F
100
AcDbEntity
  8
SPOJOVACÍ
  6
Continuous
100
AcDbLine
 10
525.3059196869453
 20
713.4538334137287
 30
0.0
 11
523.9460026736797
 21
709.4094290541361
 31
0.0
  0
LINE
  5
9F35
330
1F
100
AcDbEntity
  8
SPOJOVACÍ
  6
Continuous
100
AcDbLine
 10
524.3245842225096
 20
709.0317776831907
 30
0.0
 11
524.5422453588271
 21
709.4094290541361
 31
0.0
  0
LINE
  5
9F36
330
1F
100
AcDbEntity
  8
SPOJOVACÍ
  6
Continuous
100
AcDbLine
 10
524.3245842225096
 20
709.0317776831907
 30
0.0
 11
523.9460026736797
 21
709.4094290541361
 31
0.0
  0
LINE
  5
9F37
330
1F
100
AcDbEntity
  8
SPOJOVACÍ
  6
Continuous
100
AcDbLine
 10
525.5245109989719
 20
713.8314847890397
 30
0.0
 11
525.9021623721
 21
713.4538334137287
 31
0.0
  0
LINE
  5
9F38
330
1F
100
AcDbEntity
  8
SPOJOVACÍ
  6
Continuous
100
AcDbLine
 10
525.5245109989719
 20
713.8314847890397
 30
0.0
 11
525.3059196869453
 21
713.4538334137287
 31
0.0
  0
LINE
  5
9F39
330
1F
100
AcDbEntity
  8
SPOJOVACÍ
  6
Continuous
100
AcDbLine
 10
525.5245109989719
 20
713.8314847890397
 30
0.0
 11
524.3245842225096
 21
709.0317776831907
 31
0.0
  0
LINE
  5
9F3A
330
1F
100
AcDbEntity
  8
SPOJOVACÍ
  6
Continuous
100
AcDbLine
 10
529.0219719913384
 20
713.4538334137287
 30
0.0
 11
527.662985153498
 21
709.4094290541361
 31
0.0
  0
LINE
  5
9F3B
330
1F
100
AcDbEntity
  8
SPOJOVACÍ
  6
Continuous
100
AcDbLine
 10
528.4257293061837
 20
713.4538334137287
 30
0.0
 11
527.0667424686198
 21
709.4094290541361
 31
0.0
  0
LINE
  5
9F3C
330
1F
100
AcDbEntity
  8
SPOJOVACÍ
  6
Continuous
100
AcDbLine
 10
527.4443938414715
 20
709.0317776831907
 30
0.0
 11
527.662985153498
 21
709.4094290541361
 31
0.0
  0
LINE
  5
9F3D
330
1F
100
AcDbEntity
  8
SPOJOVACÍ
  6
Continuous
100
AcDbLine
 10
527.4443938414715
 20
709.0317776831907
 30
0.0
 11
527.0667424686198
 21
709.4094290541361
 31
0.0
  0
LINE
  5
9F3E
330
1F
100
AcDbEntity
  8
SPOJOVACÍ
  6
Continuous
100
AcDbLine
 10
528.6443206182102
 20
713.8314847890397
 30
0.0
 11
529.0219719913384
 21
713.4538334137287
 31
0.0
  0
LINE
  5
9F3F
330
1F
100
AcDbEntity
  8
SPOJOVACÍ
  6
Continuous
100
AcDbLine
 10
528.6443206182102
 20
713.8314847890397
 30
0.0
 11
528.4257293061837
 21
713.4538334137287
 31
0.0
  0
LINE
  5
9F40
330
1F
100
AcDbEntity
  8
SPOJOVACÍ
  6
Continuous
100
AcDbLine
 10
528.6443206182102
 20
713.8314847890397
 30
0.0
 11
527.4443938414715
 21
709.0317776831907
 31
0.0
  0
LINE
  5
9F41
330
1F
100
AcDbEntity
  8
SPOJOVACÍ
  6
Continuous
100
AcDbLine
 10
532.1427117860021
 20
713.4538334137287
 30
0.0
 11
530.7827947727364
 21
709.4094290541361
 31
0.0
  0
LINE
  5
9F42
330
1F
100
AcDbEntity
  8
SPOJOVACÍ
  6
Continuous
100
AcDbLine
 10
531.5464691011238
 20
713.4538334137287
 30
0.0
 11
530.1865520875817
 21
709.4094290541361
 31
0.0
  0
LINE
  5
9F43
330
1F
100
AcDbEntity
  8
SPOJOVACÍ
  6
Continuous
100
AcDbLine
 10
530.5642034607099
 20
709.0317776831907
 30
0.0
 11
530.7827947727364
 21
709.4094290541361
 31
0.0
  0
LINE
  5
9F44
330
1F
100
AcDbEntity
  8
SPOJOVACÍ
  6
Continuous
100
AcDbLine
 10
530.5642034607099
 20
709.0317776831907
 30
0.0
 11
530.1865520875817
 21
709.4094290541361
 31
0.0
  0
LINE
  5
9F45
330
1F
100
AcDbEntity
  8
SPOJOVACÍ
  6
Continuous
100
AcDbLine
 10
531.7641302371721
 20
713.8314847890397
 30
0.0
 11
532.1427117860021
 21
713.4538334137287
 31
0.0
  0
LINE
  5
9F46
330
1F
100
AcDbEntity
  8
SPOJOVACÍ
  6
Continuous
100
AcDbLine
 10
531.7641302371721
 20
713.8314847890397
 30
0.0
 11
531.5464691011238
 21
713.4538334137287
 31
0.0
  0
LINE
  5
9F47
330
1F
100
AcDbEntity
  8
SPOJOVACÍ
  6
Continuous
100
AcDbLine
 10
531.7641302371721
 20
713.8314847890397
 30
0.0
 11
530.5642034607099
 21
709.0317776831907
 31
0.0
  0
LINE
  5
9F48
330
1F
100
AcDbEntity
  8
SPOJOVACÍ
  6
Continuous
100
AcDbLine
 10
527.3030071206103
 20
710.0819461525643
 30
0.0
 11
524.7747893077412
 21
710.0819461525643
 31
0.0
  0
LINE
  5
9F49
330
1F
100
AcDbEntity
  8
SPOJOVACÍ
  6
Continuous
100
AcDbLine
 10
530.418165860794
 20
710.0819461525643
 30
0.0
 11
527.899249805765
 21
710.0819461525643
 31
0.0
  0
LINE
  5
9F4A
330
1F
100
AcDbEntity
  8
SPOJOVACÍ
  6
Continuous
100
AcDbLine
 10
528.2089983458372
 20
712.7813163153005
 30
0.0
 11
525.6882219391282
 21
712.7813163153005
 31
0.0
  0
LINE
  5
9F4B
330
1F
100
AcDbEntity
  8
SPOJOVACÍ
  6
Continuous
100
AcDbLine
 10
531.331598492181
 20
712.7813163153005
 30
0.0
 11
528.812682437152
 21
712.7813163153005
 31
0.0
  0
LINE
  5
9F4C
330
1F
100
AcDbEntity
  8
SPOJOVACÍ
  6
Continuous
100
AcDbLine
 10
535.9648041310374
 20
712.7813163153005
 30
0.0
 11
531.9269110013574
 21
712.7813163153005
 31
0.0
  0
LINE
  5
9F4D
330
1F
100
AcDbEntity
  8
SPOJOVACÍ
  6
Continuous
100
AcDbLine
 10
535.9648041310374
 20
710.0819461525643
 30
0.0
 11
531.0218499521088
 21
710.0819461525643
 31
0.0
  0
LINE
  5
9F4E
330
1F
100
AcDbEntity
  8
SPOJOVACÍ
  6
Continuous
100
AcDbLine
 10
541.364474625394
 20
716.5317851247491
 30
0.0
 11
540.6203339889198
 21
715.1821000411983
 31
0.0
  0
LINE
  5
9F4F
330
1F
100
AcDbEntity
  8
SPOJOVACÍ
  6
Continuous
100
AcDbLine
 10
540.6203339889198
 20
715.1821000411983
 30
0.0
 11
539.5515619995076
 21
714.0714701408397
 31
0.0
  0
LINE
  5
9F50
330
1F
100
AcDbEntity
  8
SPOJOVACÍ
  6
Continuous
100
AcDbLine
 10
539.5515619995076
 20
714.0714701408397
 30
0.0
 11
538.2325727212101
 21
713.2752396615215
 31
0.0
  0
LINE
  5
9F51
330
1F
100
AcDbEntity
  8
SPOJOVACÍ
  6
Continuous
100
AcDbLine
 10
538.2325727212101
 20
713.2752396615215
 30
0.0
 11
536.7517328541598
 21
712.8473587972221
 31
0.0
  0
LINE
  5
9F52
330
1F
100
AcDbEntity
  8
SPOJOVACÍ
  6
Continuous
100
AcDbLine
 10
536.7517328541598
 20
712.8473587972221
 30
0.0
 11
535.9648041310374
 21
712.7813163153005
 31
0.0
  0
LINE
  5
9F53
330
1F
100
AcDbEntity
  8
SPOJOVACÍ
  6
Continuous
100
AcDbLine
 10
542.5644014021254
 20
716.5317851247491
 30
0.0
 11
541.364474625394
 21
716.5317851247491
 31
0.0
  0
LINE
  5
9F54
330
1F
100
AcDbEntity
  8
SPOJOVACÍ
  6
Continuous
100
AcDbLine
 10
535.9648041310374
 20
710.0819461525643
 30
0.0
 11
537.4884320844667
 21
709.8549832616809
 31
0.0
  0
LINE
  5
9F55
330
1F
100
AcDbEntity
  8
SPOJOVACÍ
  6
Continuous
100
AcDbLine
 10
537.4884320844667
 20
709.8549832616809
 30
0.0
 11
538.90229929417
 21
709.2419974125332
 31
0.0
  0
LINE
  5
9F56
330
1F
100
AcDbEntity
  8
SPOJOVACÍ
  6
Continuous
100
AcDbLine
 10
538.90229929417
 20
709.2419974125332
 30
0.0
 11
540.4267236038377
 21
708.0323232680566
 31
0.0
  0
LINE
  5
9F57
330
1F
100
AcDbEntity
  8
SPOJOVACÍ
  6
Continuous
100
AcDbLine
 10
519.662543134169
 20
713.4538334137287
 30
0.0
 11
518.3026261206268
 21
709.4094290541361
 31
0.0
  0
LINE
  5
9F58
330
1F
100
AcDbEntity
  8
SPOJOVACÍ
  6
Continuous
100
AcDbLine
 10
519.0663004490143
 20
713.4538334137287
 30
0.0
 11
517.7063834354721
 21
709.4094290541361
 31
0.0
  0
LINE
  5
9F59
330
1F
100
AcDbEntity
  8
SPOJOVACÍ
  6
Continuous
100
AcDbLine
 10
518.0840348086003
 20
709.0317776831907
 30
0.0
 11
518.3026261206268
 21
709.4094290541361
 31
0.0
  0
LINE
  5
9F5A
330
1F
100
AcDbEntity
  8
SPOJOVACÍ
  6
Continuous
100
AcDbLine
 10
518.0840348086003
 20
709.0317776831907
 30
0.0
 11
517.7063834354721
 21
709.4094290541361
 31
0.0
  0
LINE
  5
9F5B
330
1F
100
AcDbEntity
  8
SPOJOVACÍ
  6
Continuous
100
AcDbLine
 10
519.2839615850625
 20
713.8314847890397
 30
0.0
 11
519.662543134169
 21
713.4538334137287
 31
0.0
  0
LINE
  5
9F5C
330
1F
100
AcDbEntity
  8
SPOJOVACÍ
  6
Continuous
100
AcDbLine
 10
519.2839615850625
 20
713.8314847890397
 30
0.0
 11
519.0663004490143
 21
713.4538334137287
 31
0.0
  0
LINE
  5
9F5D
330
1F
100
AcDbEntity
  8
SPOJOVACÍ
  6
Continuous
100
AcDbLine
 10
519.2839615850625
 20
713.8314847890397
 30
0.0
 11
518.0840348086003
 21
709.0317776831907
 31
0.0
  0
LINE
  5
9F5E
330
1F
100
AcDbEntity
  8
SPOJOVACÍ
  6
Continuous
100
AcDbLine
 10
522.7823527531309
 20
713.4538334137287
 30
0.0
 11
521.4224357395887
 21
709.4094290541361
 31
0.0
  0
LINE
  5
9F5F
330
1F
100
AcDbEntity
  8
SPOJOVACÍ
  6
Continuous
100
AcDbLine
 10
522.1861100679834
 20
713.4538334137287
 30
0.0
 11
520.8261930547105
 21
709.4094290541361
 31
0.0
  0
LINE
  5
9F60
330
1F
100
AcDbEntity
  8
SPOJOVACÍ
  6
Continuous
100
AcDbLine
 10
521.2047746035405
 20
709.0317776831907
 30
0.0
 11
521.4224357395887
 21
709.4094290541361
 31
0.0
  0
LINE
  5
9F61
330
1F
100
AcDbEntity
  8
SPOJOVACÍ
  6
Continuous
100
AcDbLine
 10
521.2047746035405
 20
709.0317776831907
 30
0.0
 11
520.8261930547105
 21
709.4094290541361
 31
0.0
  0
LINE
  5
9F62
330
1F
100
AcDbEntity
  8
SPOJOVACÍ
  6
Continuous
100
AcDbLine
 10
522.4047013800027
 20
713.8314847890397
 30
0.0
 11
522.7823527531309
 21
713.4538334137287
 31
0.0
  0
LINE
  5
9F63
330
1F
100
AcDbEntity
  8
SPOJOVACÍ
  6
Continuous
100
AcDbLine
 10
522.4047013800027
 20
713.8314847890397
 30
0.0
 11
522.1861100679834
 21
713.4538334137287
 31
0.0
  0
LINE
  5
9F64
330
1F
100
AcDbEntity
  8
SPOJOVACÍ
  6
Continuous
100
AcDbLine
 10
522.4047013800027
 20
713.8314847890397
 30
0.0
 11
521.2047746035405
 21
709.0317776831907
 31
0.0
  0
LINE
  5
9F65
330
1F
100
AcDbEntity
  8
SPOJOVACÍ
  6
Continuous
100
AcDbLine
 10
510.1784707201313
 20
712.4483133780413
 30
0.0
 11
509.8677920043574
 21
710.2940262365846
 31
0.0
  0
LINE
  5
9F66
330
1F
100
AcDbEntity
  8
SPOJOVACÍ
  6
Continuous
100
AcDbLine
 10
510.5561220932595
 20
712.070662007096
 30
0.0
 11
510.0854531406748
 21
710.67167760753
 31
0.0
  0
LINE
  5
9F67
330
1F
100
AcDbEntity
  8
SPOJOVACÍ
  6
Continuous
100
AcDbLine
 10
509.9598794081121
 20
712.070662007096
 30
0.0
 11
509.4892104555274
 21
710.67167760753
 31
0.0
  0
LINE
  5
9F68
330
1F
100
AcDbEntity
  8
SPOJOVACÍ
  6
Continuous
100
AcDbLine
 10
509.8677920043574
 20
710.2940262365846
 30
0.0
 11
510.0854531406748
 21
710.67167760753
 31
0.0
  0
LINE
  5
9F69
330
1F
100
AcDbEntity
  8
SPOJOVACÍ
  6
Continuous
100
AcDbLine
 10
509.8677920043574
 20
710.2940262365846
 30
0.0
 11
509.4892104555274
 21
710.67167760753
 31
0.0
  0
LINE
  5
9F6A
330
1F
100
AcDbEntity
  8
SPOJOVACÍ
  6
Continuous
100
AcDbLine
 10
510.1784707201313
 20
712.4483133780413
 30
0.0
 11
510.5561220932595
 21
712.070662007096
 31
0.0
  0
LINE
  5
9F6B
330
1F
100
AcDbEntity
  8
SPOJOVACÍ
  6
Continuous
100
AcDbLine
 10
510.1784707201313
 20
712.4483133780413
 30
0.0
 11
509.9598794081121
 21
712.070662007096
 31
0.0
  0
LINE
  5
9F6C
330
1F
100
AcDbEntity
  8
SPOJOVACÍ
  6
Continuous
100
AcDbLine
 10
513.192240298451
 20
713.0129300885128
 30
0.0
 11
512.558790581681
 21
709.8968411720816
 31
0.0
  0
LINE
  5
9F6D
330
1F
100
AcDbEntity
  8
SPOJOVACÍ
  6
Continuous
100
AcDbLine
 10
513.5708218475574
 20
712.6352787132018
 30
0.0
 11
512.7764517177292
 21
710.274492543027
 31
0.0
  0
LINE
  5
9F6E
330
1F
100
AcDbEntity
  8
SPOJOVACÍ
  6
Continuous
100
AcDbLine
 10
512.9745791624027
 20
712.6352787132018
 30
0.0
 11
512.180209032851
 21
710.274492543027
 31
0.0
  0
LINE
  5
9F6F
330
1F
100
AcDbEntity
  8
SPOJOVACÍ
  6
Continuous
100
AcDbLine
 10
512.558790581681
 20
709.8968411720816
 30
0.0
 11
512.7764517177292
 21
710.274492543027
 31
0.0
  0
LINE
  5
9F70
330
1F
100
AcDbEntity
  8
SPOJOVACÍ
  6
Continuous
100
AcDbLine
 10
512.558790581681
 20
709.8968411720816
 30
0.0
 11
512.180209032851
 21
710.274492543027
 31
0.0
  0
LINE
  5
9F71
330
1F
100
AcDbEntity
  8
SPOJOVACÍ
  6
Continuous
100
AcDbLine
 10
513.192240298451
 20
713.0129300885128
 30
0.0
 11
513.5708218475574
 21
712.6352787132018
 31
0.0
  0
LINE
  5
9F72
330
1F
100
AcDbEntity
  8
SPOJOVACÍ
  6
Continuous
100
AcDbLine
 10
513.192240298451
 20
713.0129300885128
 30
0.0
 11
512.9745791624027
 21
712.6352787132018
 31
0.0
  0
LINE
  5
9F73
330
1F
100
AcDbEntity
  8
SPOJOVACÍ
  6
Continuous
100
AcDbLine
 10
516.2069400527489
 20
713.5775467946187
 30
0.0
 11
515.2339761704443
 21
709.4522171418757
 31
0.0
  0
LINE
  5
9F74
330
1F
100
AcDbEntity
  8
SPOJOVACÍ
  6
Continuous
100
AcDbLine
 10
516.584591425877
 20
713.1989652463344
 30
0.0
 11
515.4516373064925
 21
709.8298685128211
 31
0.0
  0
LINE
  5
9F75
330
1F
100
AcDbEntity
  8
SPOJOVACÍ
  6
Continuous
100
AcDbLine
 10
515.9883487407223
 20
713.1989652463344
 30
0.0
 11
514.8553946213378
 21
709.8298685128211
 31
0.0
  0
LINE
  5
9F76
330
1F
100
AcDbEntity
  8
SPOJOVACÍ
  6
Continuous
100
AcDbLine
 10
515.2339761704443
 20
709.4522171418757
 30
0.0
 11
515.4516373064925
 21
709.8298685128211
 31
0.0
  0
LINE
  5
9F77
330
1F
100
AcDbEntity
  8
SPOJOVACÍ
  6
Continuous
100
AcDbLine
 10
515.2339761704443
 20
709.4522171418757
 30
0.0
 11
514.8553946213378
 21
709.8298685128211
 31
0.0
  0
LINE
  5
9F78
330
1F
100
AcDbEntity
  8
SPOJOVACÍ
  6
Continuous
100
AcDbLine
 10
516.2069400527489
 20
713.5775467946187
 30
0.0
 11
516.584591425877
 21
713.1989652463344
 31
0.0
  0
LINE
  5
9F79
330
1F
100
AcDbEntity
  8
SPOJOVACÍ
  6
Continuous
100
AcDbLine
 10
516.2069400527489
 20
713.5775467946187
 30
0.0
 11
515.9883487407223
 21
713.1989652463344
 31
0.0
  0
LINE
  5
9F7A
330
1F
100
AcDbEntity
  8
SPOJOVACÍ
  6
Continuous
100
AcDbLine
 10
515.6283707078419
 20
710.3275125640321
 30
0.0
 11
517.5994132191281
 21
710.0819461525643
 31
0.0
  0
LINE
  5
9F7B
330
1F
100
AcDbEntity
  8
SPOJOVACÍ
  6
Continuous
100
AcDbLine
 10
512.9215591419433
 20
710.6660965565934
 30
0.0
 11
515.0581729447967
 21
710.3991361012559
 31
0.0
  0
LINE
  5
9F7C
330
1F
100
AcDbEntity
  8
SPOJOVACÍ
  6
Continuous
100
AcDbLine
 10
510.2045156425101
 20
711.0056107177625
 30
0.0
 11
512.3495010274946
 21
710.7377200894516
 31
0.0
  0
LINE
  5
9F7D
330
1F
100
AcDbEntity
  8
SPOJOVACÍ
  6
Continuous
100
AcDbLine
 10
509.8882558719797
 20
711.8176541900139
 30
0.0
 11
506.7991420541748
 21
711.4316312361152
 31
0.0
  0
LINE
  5
9F7E
330
1F
100
AcDbEntity
  8
SPOJOVACÍ
  6
Continuous
100
AcDbLine
 10
512.8294717381886
 20
712.1850736276938
 30
0.0
 11
510.5086831278331
 21
711.8948587825398
 31
0.0
  0
LINE
  5
9F7F
330
1F
100
AcDbEntity
  8
SPOJOVACÍ
  6
Continuous
100
AcDbLine
 10
515.7818497139178
 20
712.5543534200515
 30
0.0
 11
513.4601309278532
 21
712.2641385705319
 31
0.0
  0
LINE
  5
9F80
330
1F
100
AcDbEntity
  8
SPOJOVACÍ
  6
Continuous
100
AcDbLine
 10
506.7991420541748
 20
711.4316312361152
 30
0.0
 11
509.6352480554433
 21
711.0772342549863
 31
0.0
  0
LINE
  5
9F81
330
1F
100
AcDbEntity
  8
SPOJOVACÍ
  6
Continuous
100
AcDbLine
 10
517.5994132191281
 20
712.7813163153005
 30
0.0
 11
516.4022769697712
 21
712.6315580125774
 31
0.0
  0
LINE
  5
9F82
330
1F
100
AcDbEntity
  8
SPOJOVACÍ
  6
Continuous
100
AcDbLine
 10
517.9361368570116
 20
710.0819461525643
 30
0.0
 11
517.5994132191281
 21
710.0819461525643
 31
0.0
  0
LINE
  5
9F83
330
1F
100
AcDbEntity
  8
SPOJOVACÍ
  6
Continuous
100
AcDbLine
 10
521.0587370036246
 20
710.0819461525643
 30
0.0
 11
518.5398209485956
 21
710.0819461525643
 31
0.0
  0
LINE
  5
9F84
330
1F
100
AcDbEntity
  8
SPOJOVACÍ
  6
Continuous
100
AcDbLine
 10
518.8467789610167
 20
712.7813163153005
 30
0.0
 11
517.5994132191281
 21
712.7813163153005
 31
0.0
  0
LINE
  5
9F85
330
1F
100
AcDbEntity
  8
SPOJOVACÍ
  6
Continuous
100
AcDbLine
 10
521.9610075254986
 20
712.7813163153005
 30
0.0
 11
519.4430216461714
 21
712.7813163153005
 31
0.0
  0
LINE
  5
9F86
330
1F
100
AcDbEntity
  8
SPOJOVACÍ
  6
Continuous
100
AcDbLine
 10
524.1804069742665
 20
710.0819461525643
 30
0.0
 11
521.6596305675575
 21
710.0819461525643
 31
0.0
  0
LINE
  5
9F87
330
1F
100
AcDbEntity
  8
SPOJOVACÍ
  6
Continuous
100
AcDbLine
 10
525.0938396056535
 20
712.7813163153005
 30
0.0
 11
522.5656217927844
 21
712.7813163153005
 31
0.0
  0
LINE
  5
9F88
330
1F
100
AcDbEntity
  8
SPOJOVACÍ
  6
Continuous
100
AcDbLine
 10
525.1115093545431
 20
566.2090910878396
 30
0.0
 11
522.583291541674
 21
566.2090910878396
 31
0.0
  0
LINE
  5
9F89
330
1F
100
AcDbEntity
  8
SPOJOVACÍ
  6
Continuous
100
AcDbLine
 10
524.1980767231561
 20
563.5097209251035
 30
0.0
 11
521.6773003164471
 21
563.5097209251035
 31
0.0
  0
LINE
  5
9F8A
330
1F
100
AcDbEntity
  8
SPOJOVACÍ
  6
Continuous
100
AcDbLine
 10
521.9786772743882
 20
566.2090910878396
 30
0.0
 11
519.460691395061
 21
566.2090910878396
 31
0.0
  0
LINE
  5
9F8B
330
1F
100
AcDbEntity
  8
SPOJOVACÍ
  6
Continuous
100
AcDbLine
 10
518.8644487099063
 20
566.2090910878396
 30
0.0
 11
517.6170829680176
 21
566.2090910878396
 31
0.0
  0
LINE
  5
9F8C
330
1F
100
AcDbEntity
  8
SPOJOVACÍ
  6
Continuous
100
AcDbLine
 10
521.0764067525142
 20
563.5097209251035
 30
0.0
 11
518.5574906974852
 21
563.5097209251035
 31
0.0
  0
LINE
  5
9F8D
330
1F
100
AcDbEntity
  8
SPOJOVACÍ
  6
Continuous
100
AcDbLine
 10
517.9538066059012
 20
563.5097209251035
 30
0.0
 11
517.6170829680176
 21
563.5097209251035
 31
0.0
  0
LINE
  5
9F8E
330
1F
100
AcDbEntity
  8
SPOJOVACÍ
  6
Continuous
100
AcDbLine
 10
517.6170829680176
 20
566.2090910878396
 30
0.0
 11
516.4199467186608
 21
566.0593327851166
 31
0.0
  0
LINE
  5
9F8F
330
1F
100
AcDbEntity
  8
SPOJOVACÍ
  6
Continuous
100
AcDbLine
 10
506.8168118030643
 20
564.8594060086543
 30
0.0
 11
509.6529178043328
 21
564.5050090275254
 31
0.0
  0
LINE
  5
9F90
330
1F
100
AcDbEntity
  8
SPOJOVACÍ
  6
Continuous
100
AcDbLine
 10
515.7995194628074
 20
565.9821281925906
 30
0.0
 11
513.4778006767428
 21
565.6919133430711
 31
0.0
  0
LINE
  5
9F91
330
1F
100
AcDbEntity
  8
SPOJOVACÍ
  6
Continuous
100
AcDbLine
 10
512.8471414870782
 20
565.6128484002329
 30
0.0
 11
510.5263528767227
 21
565.3226335550789
 31
0.0
  0
LINE
  5
9F92
330
1F
100
AcDbEntity
  8
SPOJOVACÍ
  6
Continuous
100
AcDbLine
 10
509.9059256208692
 20
565.245428962553
 30
0.0
 11
506.8168118030643
 21
564.8594060086543
 31
0.0
  0
LINE
  5
9F93
330
1F
100
AcDbEntity
  8
SPOJOVACÍ
  6
Continuous
100
AcDbLine
 10
510.2221853913997
 20
564.4333854903016
 30
0.0
 11
512.3671707763842
 21
564.1654948619907
 31
0.0
  0
LINE
  5
9F94
330
1F
100
AcDbEntity
  8
SPOJOVACÍ
  6
Continuous
100
AcDbLine
 10
512.9392288908329
 20
564.0938713291325
 30
0.0
 11
515.0758426936863
 21
563.826910873795
 31
0.0
  0
LINE
  5
9F95
330
1F
100
AcDbEntity
  8
SPOJOVACÍ
  6
Continuous
100
AcDbLine
 10
515.6460404567314
 20
563.7552873365712
 30
0.0
 11
517.6170829680176
 21
563.5097209251035
 31
0.0
  0
LINE
  5
9F96
330
1F
100
AcDbEntity
  8
SPOJOVACÍ
  6
Continuous
100
AcDbLine
 10
516.2246098016384
 20
567.0053215671578
 30
0.0
 11
516.0060184896119
 21
566.6267400188735
 31
0.0
  0
LINE
  5
9F97
330
1F
100
AcDbEntity
  8
SPOJOVACÍ
  6
Continuous
100
AcDbLine
 10
516.2246098016384
 20
567.0053215671578
 30
0.0
 11
516.6022611747666
 21
566.6267400188735
 31
0.0
  0
LINE
  5
9F98
330
1F
100
AcDbEntity
  8
SPOJOVACÍ
  6
Continuous
100
AcDbLine
 10
515.2516459193338
 20
562.8799919144149
 30
0.0
 11
514.8730643702274
 21
563.2576432853602
 31
0.0
  0
LINE
  5
9F99
330
1F
100
AcDbEntity
  8
SPOJOVACÍ
  6
Continuous
100
AcDbLine
 10
515.2516459193338
 20
562.8799919144149
 30
0.0
 11
515.4693070553821
 21
563.2576432853602
 31
0.0
  0
LINE
  5
9F9A
330
1F
100
AcDbEntity
  8
SPOJOVACÍ
  6
Continuous
100
AcDbLine
 10
516.0060184896119
 20
566.6267400188735
 30
0.0
 11
514.8730643702274
 21
563.2576432853602
 31
0.0
  0
LINE
  5
9F9B
330
1F
100
AcDbEntity
  8
SPOJOVACÍ
  6
Continuous
100
AcDbLine
 10
516.6022611747666
 20
566.6267400188735
 30
0.0
 11
515.4693070553821
 21
563.2576432853602
 31
0.0
  0
LINE
  5
9F9C
330
1F
100
AcDbEntity
  8
SPOJOVACÍ
  6
Continuous
100
AcDbLine
 10
516.2246098016384
 20
567.0053215671578
 30
0.0
 11
515.2516459193338
 21
562.8799919144149
 31
0.0
  0
LINE
  5
9F9D
330
1F
100
AcDbEntity
  8
SPOJOVACÍ
  6
Continuous
100
AcDbLine
 10
513.2099100473405
 20
566.4407048610519
 30
0.0
 11
512.9922489112923
 21
566.063053485741
 31
0.0
  0
LINE
  5
9F9E
330
1F
100
AcDbEntity
  8
SPOJOVACÍ
  6
Continuous
100
AcDbLine
 10
513.2099100473405
 20
566.4407048610519
 30
0.0
 11
513.588491596447
 21
566.063053485741
 31
0.0
  0
LINE
  5
9F9F
330
1F
100
AcDbEntity
  8
SPOJOVACÍ
  6
Continuous
100
AcDbLine
 10
512.5764603305706
 20
563.3246159446207
 30
0.0
 11
512.1978787817406
 21
563.7022673155661
 31
0.0
  0
LINE
  5
9FA0
330
1F
100
AcDbEntity
  8
SPOJOVACÍ
  6
Continuous
100
AcDbLine
 10
512.5764603305706
 20
563.3246159446207
 30
0.0
 11
512.7941214666188
 21
563.7022673155661
 31
0.0
  0
LINE
  5
9FA1
330
1F
100
AcDbEntity
  8
SPOJOVACÍ
  6
Continuous
100
AcDbLine
 10
512.9922489112923
 20
566.063053485741
 30
0.0
 11
512.1978787817406
 21
563.7022673155661
 31
0.0
  0
LINE
  5
9FA2
330
1F
100
AcDbEntity
  8
SPOJOVACÍ
  6
Continuous
100
AcDbLine
 10
513.588491596447
 20
566.063053485741
 30
0.0
 11
512.7941214666188
 21
563.7022673155661
 31
0.0
  0
LINE
  5
9FA3
330
1F
100
AcDbEntity
  8
SPOJOVACÍ
  6
Continuous
100
AcDbLine
 10
513.2099100473405
 20
566.4407048610519
 30
0.0
 11
512.5764603305706
 21
563.3246159446207
 31
0.0
  0
LINE
  5
9FA4
330
1F
100
AcDbEntity
  8
SPOJOVACÍ
  6
Continuous
100
AcDbLine
 10
510.1961404690209
 20
565.8760881505805
 30
0.0
 11
509.9775491570016
 21
565.4984367796351
 31
0.0
  0
LINE
  5
9FA5
330
1F
100
AcDbEntity
  8
SPOJOVACÍ
  6
Continuous
100
AcDbLine
 10
510.1961404690209
 20
565.8760881505805
 30
0.0
 11
510.5737918421491
 21
565.4984367796351
 31
0.0
  0
LINE
  5
9FA6
330
1F
100
AcDbEntity
  8
SPOJOVACÍ
  6
Continuous
100
AcDbLine
 10
509.8854617532469
 20
563.7218010091237
 30
0.0
 11
509.506880204417
 21
564.0994523800691
 31
0.0
  0
LINE
  5
9FA7
330
1F
100
AcDbEntity
  8
SPOJOVACÍ
  6
Continuous
100
AcDbLine
 10
509.8854617532469
 20
563.7218010091237
 30
0.0
 11
510.1031228895644
 21
564.0994523800691
 31
0.0
  0
LINE
  5
9FA8
330
1F
100
AcDbEntity
  8
SPOJOVACÍ
  6
Continuous
100
AcDbLine
 10
509.9775491570016
 20
565.4984367796351
 30
0.0
 11
509.506880204417
 21
564.0994523800691
 31
0.0
  0
LINE
  5
9FA9
330
1F
100
AcDbEntity
  8
SPOJOVACÍ
  6
Continuous
100
AcDbLine
 10
510.5737918421491
 20
565.4984367796351
 30
0.0
 11
510.1031228895644
 21
564.0994523800691
 31
0.0
  0
LINE
  5
9FAA
330
1F
100
AcDbEntity
  8
SPOJOVACÍ
  6
Continuous
100
AcDbLine
 10
510.1961404690209
 20
565.8760881505805
 30
0.0
 11
509.8854617532469
 21
563.7218010091237
 31
0.0
  0
LINE
  5
9FAB
330
1F
100
AcDbEntity
  8
SPOJOVACÍ
  6
Continuous
100
AcDbLine
 10
522.4223711288923
 20
567.2592595615788
 30
0.0
 11
521.22244435243
 21
562.4595524557299
 31
0.0
  0
LINE
  5
9FAC
330
1F
100
AcDbEntity
  8
SPOJOVACÍ
  6
Continuous
100
AcDbLine
 10
522.4223711288923
 20
567.2592595615788
 30
0.0
 11
522.203779816873
 21
566.8816081862678
 31
0.0
  0
LINE
  5
9FAD
330
1F
100
AcDbEntity
  8
SPOJOVACÍ
  6
Continuous
100
AcDbLine
 10
522.4223711288923
 20
567.2592595615788
 30
0.0
 11
522.8000225020204
 21
566.8816081862678
 31
0.0
  0
LINE
  5
9FAE
330
1F
100
AcDbEntity
  8
SPOJOVACÍ
  6
Continuous
100
AcDbLine
 10
521.22244435243
 20
562.4595524557299
 30
0.0
 11
520.8438628036001
 21
562.8372038266753
 31
0.0
  0
LINE
  5
9FAF
330
1F
100
AcDbEntity
  8
SPOJOVACÍ
  6
Continuous
100
AcDbLine
 10
521.22244435243
 20
562.4595524557299
 30
0.0
 11
521.4401054884783
 21
562.8372038266753
 31
0.0
  0
LINE
  5
9FB0
330
1F
100
AcDbEntity
  8
SPOJOVACÍ
  6
Continuous
100
AcDbLine
 10
522.203779816873
 20
566.8816081862678
 30
0.0
 11
520.8438628036001
 21
562.8372038266753
 31
0.0
  0
LINE
  5
9FB1
330
1F
100
AcDbEntity
  8
SPOJOVACÍ
  6
Continuous
100
AcDbLine
 10
522.8000225020204
 20
566.8816081862678
 30
0.0
 11
521.4401054884783
 21
562.8372038266753
 31
0.0
  0
LINE
  5
9FB2
330
1F
100
AcDbEntity
  8
SPOJOVACÍ
  6
Continuous
100
AcDbLine
 10
519.3016313339521
 20
567.2592595615788
 30
0.0
 11
518.1017045574899
 21
562.4595524557299
 31
0.0
  0
LINE
  5
9FB3
330
1F
100
AcDbEntity
  8
SPOJOVACÍ
  6
Continuous
100
AcDbLine
 10
519.3016313339521
 20
567.2592595615788
 30
0.0
 11
519.0839701979038
 21
566.8816081862678
 31
0.0
  0
LINE
  5
9FB4
330
1F
100
AcDbEntity
  8
SPOJOVACÍ
  6
Continuous
100
AcDbLine
 10
519.3016313339521
 20
567.2592595615788
 30
0.0
 11
519.6802128830586
 21
566.8816081862678
 31
0.0
  0
LINE
  5
9FB5
330
1F
100
AcDbEntity
  8
SPOJOVACÍ
  6
Continuous
100
AcDbLine
 10
518.1017045574899
 20
562.4595524557299
 30
0.0
 11
517.7240531843617
 21
562.8372038266753
 31
0.0
  0
LINE
  5
9FB6
330
1F
100
AcDbEntity
  8
SPOJOVACÍ
  6
Continuous
100
AcDbLine
 10
518.1017045574899
 20
562.4595524557299
 30
0.0
 11
518.3202958695164
 21
562.8372038266753
 31
0.0
  0
LINE
  5
9FB7
330
1F
100
AcDbEntity
  8
SPOJOVACÍ
  6
Continuous
100
AcDbLine
 10
519.0839701979038
 20
566.8816081862678
 30
0.0
 11
517.7240531843617
 21
562.8372038266753
 31
0.0
  0
LINE
  5
9FB8
330
1F
100
AcDbEntity
  8
SPOJOVACÍ
  6
Continuous
100
AcDbLine
 10
519.6802128830586
 20
566.8816081862678
 30
0.0
 11
518.3202958695164
 21
562.8372038266753
 31
0.0
  0
LINE
  5
9FB9
330
1F
100
AcDbEntity
  8
SPOJOVACÍ
  6
Continuous
100
AcDbLine
 10
538.9199690430595
 20
562.6697721850724
 30
0.0
 11
540.4443933527272
 21
561.4600980405957
 31
0.0
  0
LINE
  5
9FBA
330
1F
100
AcDbEntity
  8
SPOJOVACÍ
  6
Continuous
100
AcDbLine
 10
537.5061018333562
 20
563.28275803422
 30
0.0
 11
538.9199690430595
 21
562.6697721850724
 31
0.0
  0
LINE
  5
9FBB
330
1F
100
AcDbEntity
  8
SPOJOVACÍ
  6
Continuous
100
AcDbLine
 10
535.982473879927
 20
563.5097209251035
 30
0.0
 11
537.5061018333562
 21
563.28275803422
 31
0.0
  0
LINE
  5
9FBC
330
1F
100
AcDbEntity
  8
SPOJOVACÍ
  6
Continuous
100
AcDbLine
 10
542.582071151015
 20
569.9595598972883
 30
0.0
 11
541.3821443742835
 21
569.9595598972883
 31
0.0
  0
LINE
  5
9FBD
330
1F
100
AcDbEntity
  8
SPOJOVACÍ
  6
Continuous
100
AcDbLine
 10
536.7694026030494
 20
566.2751335697612
 30
0.0
 11
535.982473879927
 21
566.2090910878396
 31
0.0
  0
LINE
  5
9FBE
330
1F
100
AcDbEntity
  8
SPOJOVACÍ
  6
Continuous
100
AcDbLine
 10
538.2502424700996
 20
566.7030144340606
 30
0.0
 11
536.7694026030494
 21
566.2751335697612
 31
0.0
  0
LINE
  5
9FBF
330
1F
100
AcDbEntity
  8
SPOJOVACÍ
  6
Continuous
100
AcDbLine
 10
539.5692317483971
 20
567.4992449133788
 30
0.0
 11
538.2502424700996
 21
566.7030144340606
 31
0.0
  0
LINE
  5
9FC0
330
1F
100
AcDbEntity
  8
SPOJOVACÍ
  6
Continuous
100
AcDbLine
 10
540.6380037378093
 20
568.6098748137374
 30
0.0
 11
539.5692317483971
 21
567.4992449133788
 31
0.0
  0
LINE
  5
9FC1
330
1F
100
AcDbEntity
  8
SPOJOVACÍ
  6
Continuous
100
AcDbLine
 10
541.3821443742835
 20
569.9595598972883
 30
0.0
 11
540.6380037378093
 21
568.6098748137374
 31
0.0
  0
LINE
  5
9FC2
330
1F
100
AcDbEntity
  8
SPOJOVACÍ
  6
Continuous
100
AcDbLine
 10
535.982473879927
 20
563.5097209251035
 30
0.0
 11
531.0395197009984
 21
563.5097209251035
 31
0.0
  0
LINE
  5
9FC3
330
1F
100
AcDbEntity
  8
SPOJOVACÍ
  6
Continuous
100
AcDbLine
 10
535.982473879927
 20
566.2090910878396
 30
0.0
 11
531.944580750247
 21
566.2090910878396
 31
0.0
  0
LINE
  5
9FC4
330
1F
100
AcDbEntity
  8
SPOJOVACÍ
  6
Continuous
100
AcDbLine
 10
531.3492682410705
 20
566.2090910878396
 30
0.0
 11
528.8303521860416
 21
566.2090910878396
 31
0.0
  0
LINE
  5
9FC5
330
1F
100
AcDbEntity
  8
SPOJOVACÍ
  6
Continuous
100
AcDbLine
 10
528.2266680947268
 20
566.2090910878396
 30
0.0
 11
525.7058916880177
 21
566.2090910878396
 31
0.0
  0
LINE
  5
9FC6
330
1F
100
AcDbEntity
  8
SPOJOVACÍ
  6
Continuous
100
AcDbLine
 10
530.4358356096836
 20
563.5097209251035
 30
0.0
 11
527.9169195546546
 21
563.5097209251035
 31
0.0
  0
LINE
  5
9FC7
330
1F
100
AcDbEntity
  8
SPOJOVACÍ
  6
Continuous
100
AcDbLine
 10
527.3206768694999
 20
563.5097209251035
 30
0.0
 11
524.7924590566308
 21
563.5097209251035
 31
0.0
  0
LINE
  5
9FC8
330
1F
100
AcDbEntity
  8
SPOJOVACÍ
  6
Continuous
100
AcDbLine
 10
531.7817999860617
 20
567.2592595615788
 30
0.0
 11
530.5818732095994
 21
562.4595524557299
 31
0.0
  0
LINE
  5
9FC9
330
1F
100
AcDbEntity
  8
SPOJOVACÍ
  6
Continuous
100
AcDbLine
 10
531.7817999860617
 20
567.2592595615788
 30
0.0
 11
531.5641388500134
 21
566.8816081862678
 31
0.0
  0
LINE
  5
9FCA
330
1F
100
AcDbEntity
  8
SPOJOVACÍ
  6
Continuous
100
AcDbLine
 10
531.7817999860617
 20
567.2592595615788
 30
0.0
 11
532.1603815348916
 21
566.8816081862678
 31
0.0
  0
LINE
  5
9FCB
330
1F
100
AcDbEntity
  8
SPOJOVACÍ
  6
Continuous
100
AcDbLine
 10
530.5818732095994
 20
562.4595524557299
 30
0.0
 11
530.2042218364713
 21
562.8372038266753
 31
0.0
  0
LINE
  5
9FCC
330
1F
100
AcDbEntity
  8
SPOJOVACÍ
  6
Continuous
100
AcDbLine
 10
530.5818732095994
 20
562.4595524557299
 30
0.0
 11
530.800464521626
 21
562.8372038266753
 31
0.0
  0
LINE
  5
9FCD
330
1F
100
AcDbEntity
  8
SPOJOVACÍ
  6
Continuous
100
AcDbLine
 10
531.5641388500134
 20
566.8816081862678
 30
0.0
 11
530.2042218364713
 21
562.8372038266753
 31
0.0
  0
LINE
  5
9FCE
330
1F
100
AcDbEntity
  8
SPOJOVACÍ
  6
Continuous
100
AcDbLine
 10
532.1603815348916
 20
566.8816081862678
 30
0.0
 11
530.800464521626
 21
562.8372038266753
 31
0.0
  0
LINE
  5
9FCF
330
1F
100
AcDbEntity
  8
SPOJOVACÍ
  6
Continuous
100
AcDbLine
 10
528.6619903670998
 20
567.2592595615788
 30
0.0
 11
527.4620635903611
 21
562.4595524557299
 31
0.0
  0
LINE
  5
9FD0
330
1F
100
AcDbEntity
  8
SPOJOVACÍ
  6
Continuous
100
AcDbLine
 10
528.6619903670998
 20
567.2592595615788
 30
0.0
 11
528.4433990550732
 21
566.8816081862678
 31
0.0
  0
LINE
  5
9FD1
330
1F
100
AcDbEntity
  8
SPOJOVACÍ
  6
Continuous
100
AcDbLine
 10
528.6619903670998
 20
567.2592595615788
 30
0.0
 11
529.039641740228
 21
566.8816081862678
 31
0.0
  0
LINE
  5
9FD2
330
1F
100
AcDbEntity
  8
SPOJOVACÍ
  6
Continuous
100
AcDbLine
 10
527.4620635903611
 20
562.4595524557299
 30
0.0
 11
527.0844122175094
 21
562.8372038266753
 31
0.0
  0
LINE
  5
9FD3
330
1F
100
AcDbEntity
  8
SPOJOVACÍ
  6
Continuous
100
AcDbLine
 10
527.4620635903611
 20
562.4595524557299
 30
0.0
 11
527.6806549023876
 21
562.8372038266753
 31
0.0
  0
LINE
  5
9FD4
330
1F
100
AcDbEntity
  8
SPOJOVACÍ
  6
Continuous
100
AcDbLine
 10
528.4433990550732
 20
566.8816081862678
 30
0.0
 11
527.0844122175094
 21
562.8372038266753
 31
0.0
  0
LINE
  5
9FD5
330
1F
100
AcDbEntity
  8
SPOJOVACÍ
  6
Continuous
100
AcDbLine
 10
529.039641740228
 20
566.8816081862678
 30
0.0
 11
527.6806549023876
 21
562.8372038266753
 31
0.0
  0
LINE
  5
9FD6
330
1F
100
AcDbEntity
  8
SPOJOVACÍ
  6
Continuous
100
AcDbLine
 10
525.5421807478614
 20
567.2592595615788
 30
0.0
 11
524.3422539713992
 21
562.4595524557299
 31
0.0
  0
LINE
  5
9FD7
330
1F
100
AcDbEntity
  8
SPOJOVACÍ
  6
Continuous
100
AcDbLine
 10
525.5421807478614
 20
567.2592595615788
 30
0.0
 11
525.3235894358349
 21
566.8816081862678
 31
0.0
  0
LINE
  5
9FD8
330
1F
100
AcDbEntity
  8
SPOJOVACÍ
  6
Continuous
100
AcDbLine
 10
525.5421807478614
 20
567.2592595615788
 30
0.0
 11
525.9198321209896
 21
566.8816081862678
 31
0.0
  0
LINE
  5
9FD9
330
1F
100
AcDbEntity
  8
SPOJOVACÍ
  6
Continuous
100
AcDbLine
 10
524.3422539713992
 20
562.4595524557299
 30
0.0
 11
523.9636724225692
 21
562.8372038266753
 31
0.0
  0
LINE
  5
9FDA
330
1F
100
AcDbEntity
  8
SPOJOVACÍ
  6
Continuous
100
AcDbLine
 10
524.3422539713992
 20
562.4595524557299
 30
0.0
 11
524.5599151077167
 21
562.8372038266753
 31
0.0
  0
LINE
  5
9FDB
330
1F
100
AcDbEntity
  8
SPOJOVACÍ
  6
Continuous
100
AcDbLine
 10
525.3235894358349
 20
566.8816081862678
 30
0.0
 11
523.9636724225692
 21
562.8372038266753
 31
0.0
  0
LINE
  5
9FDC
330
1F
100
AcDbEntity
  8
SPOJOVACÍ
  6
Continuous
100
AcDbLine
 10
525.9198321209896
 20
566.8816081862678
 30
0.0
 11
524.5599151077167
 21
562.8372038266753
 31
0.0
  0
LINE
  5
9FDD
330
1F
100
AcDbEntity
  8
SPOJOVACÍ
  6
Continuous
100
AcDbLine
 10
541.3821443742835
 20
569.9595598972883
 30
0.0
 11
541.3821443742835
 21
559.7592521200204
 31
0.0
  0
LINE
  5
9FDE
330
1F
100
AcDbEntity
  8
SPOJOVACÍ
  6
Continuous
100
AcDbLine
 10
542.582071151015
 20
559.7592521200204
 30
0.0
 11
541.3821443742835
 21
559.7592521200204
 31
0.0
  0
LINE
  5
9FDF
330
1F
100
AcDbEntity
  8
SPOJOVACÍ
  6
Continuous
100
AcDbLine
 10
542.582071151015
 20
569.9595598972883
 30
0.0
 11
542.582071151015
 21
559.7592521200204
 31
0.0
  0
LINE
  5
9FE0
330
1F
100
AcDbEntity
  8
SPOJOVACÍ
  6
Continuous
100
AcDbLine
 10
541.3821443742835
 20
559.7592521200204
 30
0.0
 11
540.4443933527272
 21
561.4600980405957
 31
0.0
  0
LINE
  5
9FE1
330
1F
100
AcDbEntity
  8
SPOJOVACÍ
  6
Continuous
100
AcDbLine
 10
525.0938396056535
 20
420.2020404900577
 30
0.0
 11
522.5656217927844
 21
420.2020404900577
 31
0.0
  0
LINE
  5
9FE2
330
1F
100
AcDbEntity
  8
SPOJOVACÍ
  6
Continuous
100
AcDbLine
 10
524.1804069742665
 20
417.5026703273215
 30
0.0
 11
521.6596305675575
 21
417.5026703273215
 31
0.0
  0
LINE
  5
9FE3
330
1F
100
AcDbEntity
  8
SPOJOVACÍ
  6
Continuous
100
AcDbLine
 10
521.9610075254986
 20
420.2020404900577
 30
0.0
 11
519.4430216461714
 21
420.2020404900577
 31
0.0
  0
LINE
  5
9FE4
330
1F
100
AcDbEntity
  8
SPOJOVACÍ
  6
Continuous
100
AcDbLine
 10
518.8467789610167
 20
420.2020404900577
 30
0.0
 11
517.5994132191281
 21
420.2020404900577
 31
0.0
  0
LINE
  5
9FE5
330
1F
100
AcDbEntity
  8
SPOJOVACÍ
  6
Continuous
100
AcDbLine
 10
521.0587370036246
 20
417.5026703273215
 30
0.0
 11
518.5398209485956
 21
417.5026703273215
 31
0.0
  0
LINE
  5
9FE6
330
1F
100
AcDbEntity
  8
SPOJOVACÍ
  6
Continuous
100
AcDbLine
 10
517.9361368570116
 20
417.5026703273215
 30
0.0
 11
517.5994132191281
 21
417.5026703273215
 31
0.0
  0
LINE
  5
9FE7
330
1F
100
AcDbEntity
  8
SPOJOVACÍ
  6
Continuous
100
AcDbLine
 10
517.5994132191281
 20
420.2020404900577
 30
0.0
 11
516.4022769697712
 21
420.0522821873346
 31
0.0
  0
LINE
  5
9FE8
330
1F
100
AcDbEntity
  8
SPOJOVACÍ
  6
Continuous
100
AcDbLine
 10
506.7991420541748
 20
418.8523554108724
 30
0.0
 11
509.6352480554433
 21
418.4979584297434
 31
0.0
  0
LINE
  5
9FE9
330
1F
100
AcDbEntity
  8
SPOJOVACÍ
  6
Continuous
100
AcDbLine
 10
515.7818497139178
 20
419.9750775948086
 30
0.0
 11
513.4601309278532
 21
419.6848627452891
 31
0.0
  0
LINE
  5
9FEA
330
1F
100
AcDbEntity
  8
SPOJOVACÍ
  6
Continuous
100
AcDbLine
 10
512.8294717381886
 20
419.6057978024509
 30
0.0
 11
510.5086831278331
 21
419.315582957297
 31
0.0
  0
LINE
  5
9FEB
330
1F
100
AcDbEntity
  8
SPOJOVACÍ
  6
Continuous
100
AcDbLine
 10
509.8882558719797
 20
419.238378364771
 30
0.0
 11
506.7991420541748
 21
418.8523554108724
 31
0.0
  0
LINE
  5
9FEC
330
1F
100
AcDbEntity
  8
SPOJOVACÍ
  6
Continuous
100
AcDbLine
 10
510.2045156425101
 20
418.4263348925196
 30
0.0
 11
512.3495010274946
 21
418.1584442642088
 31
0.0
  0
LINE
  5
9FED
330
1F
100
AcDbEntity
  8
SPOJOVACÍ
  6
Continuous
100
AcDbLine
 10
512.9215591419433
 20
418.0868207313506
 30
0.0
 11
515.0581729447967
 21
417.819860276013
 31
0.0
  0
LINE
  5
9FEE
330
1F
100
AcDbEntity
  8
SPOJOVACÍ
  6
Continuous
100
AcDbLine
 10
515.6283707078419
 20
417.7482367387892
 30
0.0
 11
517.5994132191281
 21
417.5026703273215
 31
0.0
  0
LINE
  5
9FEF
330
1F
100
AcDbEntity
  8
SPOJOVACÍ
  6
Continuous
100
AcDbLine
 10
516.2069400527489
 20
420.9982709693758
 30
0.0
 11
515.9883487407223
 21
420.6196894210916
 31
0.0
  0
LINE
  5
9FF0
330
1F
100
AcDbEntity
  8
SPOJOVACÍ
  6
Continuous
100
AcDbLine
 10
516.2069400527489
 20
420.9982709693758
 30
0.0
 11
516.584591425877
 21
420.6196894210916
 31
0.0
  0
LINE
  5
9FF1
330
1F
100
AcDbEntity
  8
SPOJOVACÍ
  6
Continuous
100
AcDbLine
 10
515.2339761704443
 20
416.8729413166329
 30
0.0
 11
514.8553946213378
 21
417.2505926875783
 31
0.0
  0
LINE
  5
9FF2
330
1F
100
AcDbEntity
  8
SPOJOVACÍ
  6
Continuous
100
AcDbLine
 10
515.2339761704443
 20
416.8729413166329
 30
0.0
 11
515.4516373064925
 21
417.2505926875783
 31
0.0
  0
LINE
  5
9FF3
330
1F
100
AcDbEntity
  8
SPOJOVACÍ
  6
Continuous
100
AcDbLine
 10
515.9883487407223
 20
420.6196894210916
 30
0.0
 11
514.8553946213378
 21
417.2505926875783
 31
0.0
  0
LINE
  5
9FF4
330
1F
100
AcDbEntity
  8
SPOJOVACÍ
  6
Continuous
100
AcDbLine
 10
516.584591425877
 20
420.6196894210916
 30
0.0
 11
515.4516373064925
 21
417.2505926875783
 31
0.0
  0
LINE
  5
9FF5
330
1F
100
AcDbEntity
  8
SPOJOVACÍ
  6
Continuous
100
AcDbLine
 10
516.2069400527489
 20
420.9982709693758
 30
0.0
 11
515.2339761704443
 21
416.8729413166329
 31
0.0
  0
LINE
  5
9FF6
330
1F
100
AcDbEntity
  8
SPOJOVACÍ
  6
Continuous
100
AcDbLine
 10
513.192240298451
 20
420.43365426327
 30
0.0
 11
512.9745791624027
 21
420.056002887959
 31
0.0
  0
LINE
  5
9FF7
330
1F
100
AcDbEntity
  8
SPOJOVACÍ
  6
Continuous
100
AcDbLine
 10
513.192240298451
 20
420.43365426327
 30
0.0
 11
513.5708218475574
 21
420.056002887959
 31
0.0
  0
LINE
  5
9FF8
330
1F
100
AcDbEntity
  8
SPOJOVACÍ
  6
Continuous
100
AcDbLine
 10
512.558790581681
 20
417.3175653468388
 30
0.0
 11
512.180209032851
 21
417.6952167177842
 31
0.0
  0
LINE
  5
9FF9
330
1F
100
AcDbEntity
  8
SPOJOVACÍ
  6
Continuous
100
AcDbLine
 10
512.558790581681
 20
417.3175653468388
 30
0.0
 11
512.7764517177292
 21
417.6952167177842
 31
0.0
  0
LINE
  5
9FFA
330
1F
100
AcDbEntity
  8
SPOJOVACÍ
  6
Continuous
100
AcDbLine
 10
512.9745791624027
 20
420.056002887959
 30
0.0
 11
512.180209032851
 21
417.6952167177842
 31
0.0
  0
LINE
  5
9FFB
330
1F
100
AcDbEntity
  8
SPOJOVACÍ
  6
Continuous
100
AcDbLine
 10
513.5708218475574
 20
420.056002887959
 30
0.0
 11
512.7764517177292
 21
417.6952167177842
 31
0.0
  0
LINE
  5
9FFC
330
1F
100
AcDbEntity
  8
SPOJOVACÍ
  6
Continuous
100
AcDbLine
 10
513.192240298451
 20
420.43365426327
 30
0.0
 11
512.558790581681
 21
417.3175653468388
 31
0.0
  0
LINE
  5
9FFD
330
1F
100
AcDbEntity
  8
SPOJOVACÍ
  6
Continuous
100
AcDbLine
 10
510.1784707201313
 20
419.8690375527985
 30
0.0
 11
509.9598794081121
 21
419.4913861818531
 31
0.0
  0
LINE
  5
9FFE
330
1F
100
AcDbEntity
  8
SPOJOVACÍ
  6
Continuous
100
AcDbLine
 10
510.1784707201313
 20
419.8690375527985
 30
0.0
 11
510.5561220932595
 21
419.4913861818531
 31
0.0
  0
LINE
  5
9FFF
330
1F
100
AcDbEntity
  8
SPOJOVACÍ
  6
Continuous
100
AcDbLine
 10
509.8677920043574
 20
417.7147504113418
 30
0.0
 11
509.4892104555274
 21
418.0924017822872
 31
0.0
  0
LINE
  5
A000
330
1F
100
AcDbEntity
  8
SPOJOVACÍ
  6
Continuous
100
AcDbLine
 10
509.8677920043574
 20
417.7147504113418
 30
0.0
 11
510.0854531406748
 21
418.0924017822872
 31
0.0
  0
LINE
  5
A001
330
1F
100
AcDbEntity
  8
SPOJOVACÍ
  6
Continuous
100
AcDbLine
 10
509.9598794081121
 20
419.4913861818531
 30
0.0
 11
509.4892104555274
 21
418.0924017822872
 31
0.0
  0
LINE
  5
A002
330
1F
100
AcDbEntity
  8
SPOJOVACÍ
  6
Continuous
100
AcDbLine
 10
510.5561220932595
 20
419.4913861818531
 30
0.0
 11
510.0854531406748
 21
418.0924017822872
 31
0.0
  0
LINE
  5
A003
330
1F
100
AcDbEntity
  8
SPOJOVACÍ
  6
Continuous
100
AcDbLine
 10
510.1784707201313
 20
419.8690375527985
 30
0.0
 11
509.8677920043574
 21
417.7147504113418
 31
0.0
  0
LINE
  5
A004
330
1F
100
AcDbEntity
  8
SPOJOVACÍ
  6
Continuous
100
AcDbLine
 10
522.4047013800027
 20
421.2522089637968
 30
0.0
 11
521.2047746035405
 21
416.4525018579479
 31
0.0
  0
LINE
  5
A005
330
1F
100
AcDbEntity
  8
SPOJOVACÍ
  6
Continuous
100
AcDbLine
 10
522.4047013800027
 20
421.2522089637968
 30
0.0
 11
522.1861100679834
 21
420.8745575884859
 31
0.0
  0
LINE
  5
A006
330
1F
100
AcDbEntity
  8
SPOJOVACÍ
  6
Continuous
100
AcDbLine
 10
522.4047013800027
 20
421.2522089637968
 30
0.0
 11
522.7823527531309
 21
420.8745575884859
 31
0.0
  0
LINE
  5
A007
330
1F
100
AcDbEntity
  8
SPOJOVACÍ
  6
Continuous
100
AcDbLine
 10
521.2047746035405
 20
416.4525018579479
 30
0.0
 11
520.8261930547105
 21
416.8301532288933
 31
0.0
  0
LINE
  5
A008
330
1F
100
AcDbEntity
  8
SPOJOVACÍ
  6
Continuous
100
AcDbLine
 10
521.2047746035405
 20
416.4525018579479
 30
0.0
 11
521.4224357395887
 21
416.8301532288933
 31
0.0
  0
LINE
  5
A009
330
1F
100
AcDbEntity
  8
SPOJOVACÍ
  6
Continuous
100
AcDbLine
 10
522.1861100679834
 20
420.8745575884859
 30
0.0
 11
520.8261930547105
 21
416.8301532288933
 31
0.0
  0
LINE
  5
A00A
330
1F
100
AcDbEntity
  8
SPOJOVACÍ
  6
Continuous
100
AcDbLine
 10
522.7823527531309
 20
420.8745575884859
 30
0.0
 11
521.4224357395887
 21
416.8301532288933
 31
0.0
  0
LINE
  5
A00B
330
1F
100
AcDbEntity
  8
SPOJOVACÍ
  6
Continuous
100
AcDbLine
 10
519.2839615850625
 20
421.2522089637968
 30
0.0
 11
518.0840348086003
 21
416.4525018579479
 31
0.0
  0
LINE
  5
A00C
330
1F
100
AcDbEntity
  8
SPOJOVACÍ
  6
Continuous
100
AcDbLine
 10
519.2839615850625
 20
421.2522089637968
 30
0.0
 11
519.0663004490143
 21
420.8745575884859
 31
0.0
  0
LINE
  5
A00D
330
1F
100
AcDbEntity
  8
SPOJOVACÍ
  6
Continuous
100
AcDbLine
 10
519.2839615850625
 20
421.2522089637968
 30
0.0
 11
519.662543134169
 21
420.8745575884859
 31
0.0
  0
LINE
  5
A00E
330
1F
100
AcDbEntity
  8
SPOJOVACÍ
  6
Continuous
100
AcDbLine
 10
518.0840348086003
 20
416.4525018579479
 30
0.0
 11
517.7063834354721
 21
416.8301532288933
 31
0.0
  0
LINE
  5
A00F
330
1F
100
AcDbEntity
  8
SPOJOVACÍ
  6
Continuous
100
AcDbLine
 10
518.0840348086003
 20
416.4525018579479
 30
0.0
 11
518.3026261206268
 21
416.8301532288933
 31
0.0
  0
LINE
  5
A010
330
1F
100
AcDbEntity
  8
SPOJOVACÍ
  6
Continuous
100
AcDbLine
 10
519.0663004490143
 20
420.8745575884859
 30
0.0
 11
517.7063834354721
 21
416.8301532288933
 31
0.0
  0
LINE
  5
A011
330
1F
100
AcDbEntity
  8
SPOJOVACÍ
  6
Continuous
100
AcDbLine
 10
519.662543134169
 20
420.8745575884859
 30
0.0
 11
518.3026261206268
 21
416.8301532288933
 31
0.0
  0
LINE
  5
A012
330
1F
100
AcDbEntity
  8
SPOJOVACÍ
  6
Continuous
100
AcDbLine
 10
538.90229929417
 20
416.6627215872904
 30
0.0
 11
540.4267236038377
 21
415.4530474428138
 31
0.0
  0
LINE
  5
A013
330
1F
100
AcDbEntity
  8
SPOJOVACÍ
  6
Continuous
100
AcDbLine
 10
537.4884320844667
 20
417.2757074364381
 30
0.0
 11
538.90229929417
 21
416.6627215872904
 31
0.0
  0
LINE
  5
A014
330
1F
100
AcDbEntity
  8
SPOJOVACÍ
  6
Continuous
100
AcDbLine
 10
535.9648041310374
 20
417.5026703273215
 30
0.0
 11
537.4884320844667
 21
417.2757074364381
 31
0.0
  0
LINE
  5
A015
330
1F
100
AcDbEntity
  8
SPOJOVACÍ
  6
Continuous
100
AcDbLine
 10
542.5644014021254
 20
423.9525092995063
 30
0.0
 11
541.364474625394
 21
423.9525092995063
 31
0.0
  0
LINE
  5
A016
330
1F
100
AcDbEntity
  8
SPOJOVACÍ
  6
Continuous
100
AcDbLine
 10
536.7517328541598
 20
420.2680829719793
 30
0.0
 11
535.9648041310374
 21
420.2020404900577
 31
0.0
  0
LINE
  5
A017
330
1F
100
AcDbEntity
  8
SPOJOVACÍ
  6
Continuous
100
AcDbLine
 10
538.2325727212101
 20
420.6959638362786
 30
0.0
 11
536.7517328541598
 21
420.2680829719793
 31
0.0
  0
LINE
  5
A018
330
1F
100
AcDbEntity
  8
SPOJOVACÍ
  6
Continuous
100
AcDbLine
 10
539.5515619995076
 20
421.4921943155968
 30
0.0
 11
538.2325727212101
 21
420.6959638362786
 31
0.0
  0
LINE
  5
A019
330
1F
100
AcDbEntity
  8
SPOJOVACÍ
  6
Continuous
100
AcDbLine
 10
540.6203339889198
 20
422.6028242159554
 30
0.0
 11
539.5515619995076
 21
421.4921943155968
 31
0.0
  0
LINE
  5
A01A
330
1F
100
AcDbEntity
  8
SPOJOVACÍ
  6
Continuous
100
AcDbLine
 10
541.364474625394
 20
423.9525092995063
 30
0.0
 11
540.6203339889198
 21
422.6028242159554
 31
0.0
  0
LINE
  5
A01B
330
1F
100
AcDbEntity
  8
SPOJOVACÍ
  6
Continuous
100
AcDbLine
 10
535.9648041310374
 20
417.5026703273215
 30
0.0
 11
531.0218499521088
 21
417.5026703273215
 31
0.0
  0
LINE
  5
A01C
330
1F
100
AcDbEntity
  8
SPOJOVACÍ
  6
Continuous
100
AcDbLine
 10
535.9648041310374
 20
420.2020404900577
 30
0.0
 11
531.9269110013574
 21
420.2020404900577
 31
0.0
  0
LINE
  5
A01D
330
1F
100
AcDbEntity
  8
SPOJOVACÍ
  6
Continuous
100
AcDbLine
 10
531.331598492181
 20
420.2020404900577
 30
0.0
 11
528.812682437152
 21
420.2020404900577
 31
0.0
  0
LINE
  5
A01E
330
1F
100
AcDbEntity
  8
SPOJOVACÍ
  6
Continuous
100
AcDbLine
 10
528.2089983458372
 20
420.2020404900577
 30
0.0
 11
525.6882219391282
 21
420.2020404900577
 31
0.0
  0
LINE
  5
A01F
330
1F
100
AcDbEntity
  8
SPOJOVACÍ
  6
Continuous
100
AcDbLine
 10
530.418165860794
 20
417.5026703273215
 30
0.0
 11
527.899249805765
 21
417.5026703273215
 31
0.0
  0
LINE
  5
A020
330
1F
100
AcDbEntity
  8
SPOJOVACÍ
  6
Continuous
100
AcDbLine
 10
527.3030071206103
 20
417.5026703273215
 30
0.0
 11
524.7747893077412
 21
417.5026703273215
 31
0.0
  0
LINE
  5
A021
330
1F
100
AcDbEntity
  8
SPOJOVACÍ
  6
Continuous
100
AcDbLine
 10
531.7641302371721
 20
421.2522089637968
 30
0.0
 11
530.5642034607099
 21
416.4525018579479
 31
0.0
  0
LINE
  5
A022
330
1F
100
AcDbEntity
  8
SPOJOVACÍ
  6
Continuous
100
AcDbLine
 10
531.7641302371721
 20
421.2522089637968
 30
0.0
 11
531.5464691011238
 21
420.8745575884859
 31
0.0
  0
LINE
  5
A023
330
1F
100
AcDbEntity
  8
SPOJOVACÍ
  6
Continuous
100
AcDbLine
 10
531.7641302371721
 20
421.2522089637968
 30
0.0
 11
532.1427117860021
 21
420.8745575884859
 31
0.0
  0
LINE
  5
A024
330
1F
100
AcDbEntity
  8
SPOJOVACÍ
  6
Continuous
100
AcDbLine
 10
530.5642034607099
 20
416.4525018579479
 30
0.0
 11
530.1865520875817
 21
416.8301532288933
 31
0.0
  0
LINE
  5
A025
330
1F
100
AcDbEntity
  8
SPOJOVACÍ
  6
Continuous
100
AcDbLine
 10
530.5642034607099
 20
416.4525018579479
 30
0.0
 11
530.7827947727364
 21
416.8301532288933
 31
0.0
  0
LINE
  5
A026
330
1F
100
AcDbEntity
  8
SPOJOVACÍ
  6
Continuous
100
AcDbLine
 10
531.5464691011238
 20
420.8745575884859
 30
0.0
 11
530.1865520875817
 21
416.8301532288933
 31
0.0
  0
LINE
  5
A027
330
1F
100
AcDbEntity
  8
SPOJOVACÍ
  6
Continuous
100
AcDbLine
 10
532.1427117860021
 20
420.8745575884859
 30
0.0
 11
530.7827947727364
 21
416.8301532288933
 31
0.0
  0
LINE
  5
A028
330
1F
100
AcDbEntity
  8
SPOJOVACÍ
  6
Continuous
100
AcDbLine
 10
528.6443206182102
 20
421.2522089637968
 30
0.0
 11
527.4443938414715
 21
416.4525018579479
 31
0.0
  0
LINE
  5
A029
330
1F
100
AcDbEntity
  8
SPOJOVACÍ
  6
Continuous
100
AcDbLine
 10
528.6443206182102
 20
421.2522089637968
 30
0.0
 11
528.4257293061837
 21
420.8745575884859
 31
0.0
  0
LINE
  5
A02A
330
1F
100
AcDbEntity
  8
SPOJOVACÍ
  6
Continuous
100
AcDbLine
 10
528.6443206182102
 20
421.2522089637968
 30
0.0
 11
529.0219719913384
 21
420.8745575884859
 31
0.0
  0
LINE
  5
A02B
330
1F
100
AcDbEntity
  8
SPOJOVACÍ
  6
Continuous
100
AcDbLine
 10
527.4443938414715
 20
416.4525018579479
 30
0.0
 11
527.0667424686198
 21
416.8301532288933
 31
0.0
  0
LINE
  5
A02C
330
1F
100
AcDbEntity
  8
SPOJOVACÍ
  6
Continuous
100
AcDbLine
 10
527.4443938414715
 20
416.4525018579479
 30
0.0
 11
527.662985153498
 21
416.8301532288933
 31
0.0
  0
LINE
  5
A02D
330
1F
100
AcDbEntity
  8
SPOJOVACÍ
  6
Continuous
100
AcDbLine
 10
528.4257293061837
 20
420.8745575884859
 30
0.0
 11
527.0667424686198
 21
416.8301532288933
 31
0.0
  0
LINE
  5
A02E
330
1F
100
AcDbEntity
  8
SPOJOVACÍ
  6
Continuous
100
AcDbLine
 10
529.0219719913384
 20
420.8745575884859
 30
0.0
 11
527.662985153498
 21
416.8301532288933
 31
0.0
  0
LINE
  5
A02F
330
1F
100
AcDbEntity
  8
SPOJOVACÍ
  6
Continuous
100
AcDbLine
 10
525.5245109989719
 20
421.2522089637968
 30
0.0
 11
524.3245842225096
 21
416.4525018579479
 31
0.0
  0
LINE
  5
A030
330
1F
100
AcDbEntity
  8
SPOJOVACÍ
  6
Continuous
100
AcDbLine
 10
525.5245109989719
 20
421.2522089637968
 30
0.0
 11
525.3059196869453
 21
420.8745575884859
 31
0.0
  0
LINE
  5
A031
330
1F
100
AcDbEntity
  8
SPOJOVACÍ
  6
Continuous
100
AcDbLine
 10
525.5245109989719
 20
421.2522089637968
 30
0.0
 11
525.9021623721
 21
420.8745575884859
 31
0.0
  0
LINE
  5
A032
330
1F
100
AcDbEntity
  8
SPOJOVACÍ
  6
Continuous
100
AcDbLine
 10
524.3245842225096
 20
416.4525018579479
 30
0.0
 11
523.9460026736797
 21
416.8301532288933
 31
0.0
  0
LINE
  5
A033
330
1F
100
AcDbEntity
  8
SPOJOVACÍ
  6
Continuous
100
AcDbLine
 10
524.3245842225096
 20
416.4525018579479
 30
0.0
 11
524.5422453588271
 21
416.8301532288933
 31
0.0
  0
LINE
  5
A034
330
1F
100
AcDbEntity
  8
SPOJOVACÍ
  6
Continuous
100
AcDbLine
 10
525.3059196869453
 20
420.8745575884859
 30
0.0
 11
523.9460026736797
 21
416.8301532288933
 31
0.0
  0
LINE
  5
A035
330
1F
100
AcDbEntity
  8
SPOJOVACÍ
  6
Continuous
100
AcDbLine
 10
525.9021623721
 20
420.8745575884859
 30
0.0
 11
524.5422453588271
 21
416.8301532288933
 31
0.0
  0
LINE
  5
A036
330
1F
100
AcDbEntity
  8
SPOJOVACÍ
  6
Continuous
100
AcDbLine
 10
541.364474625394
 20
423.9525092995063
 30
0.0
 11
541.364474625394
 21
413.7522015222384
 31
0.0
  0
LINE
  5
A037
330
1F
100
AcDbEntity
  8
SPOJOVACÍ
  6
Continuous
100
AcDbLine
 10
542.5644014021254
 20
413.7522015222384
 30
0.0
 11
541.364474625394
 21
413.7522015222384
 31
0.0
  0
LINE
  5
A038
330
1F
100
AcDbEntity
  8
SPOJOVACÍ
  6
Continuous
100
AcDbLine
 10
542.5644014021254
 20
423.9525092995063
 30
0.0
 11
542.5644014021254
 21
413.7522015222384
 31
0.0
  0
LINE
  5
A039
330
1F
100
AcDbEntity
  8
SPOJOVACÍ
  6
Continuous
100
AcDbLine
 10
541.364474625394
 20
413.7522015222384
 30
0.0
 11
540.4267236038377
 21
415.4530474428138
 31
0.0
  0
INSERT
  5
A03A
330
1F
100
AcDbEntity
  8
POPIS
100
AcDbBlockReference
  2
E_PUNKT
 10
542.5631767359464
 20
419.5510474613529
 30
0.0
 41
0.6499999999996362
 42
0.6499999999996362
 43
0.65
 50
270.0
  0
LINE
  5
A03B
330
1F
100
AcDbEntity
  8
SPOJOVACÍ
  6
Continuous
100
AcDbLine
 10
501.7958608584213
 20
395.2077046298763
 30
0.0
 11
501.7958608584213
 21
396.4076314066078
 31
0.0
  0
LINE
  5
A03C
330
1F
100
AcDbEntity
  8
SPOJOVACÍ
  6
Continuous
100
AcDbLine
 10
501.7958608584213
 20
396.4076314066078
 30
0.0
 11
500.4461757748704
 21
397.151772043082
 31
0.0
  0
LINE
  5
A03D
330
1F
100
AcDbEntity
  8
SPOJOVACÍ
  6
Continuous
100
AcDbLine
 10
501.7958608584213
 20
396.4076314066078
 30
0.0
 11
491.5955530811534
 21
396.4076314066078
 31
0.0
  0
LINE
  5
A03E
330
1F
100
AcDbEntity
  8
SPOJOVACÍ
  6
Continuous
100
AcDbLine
 10
501.7958608584213
 20
395.2077046298763
 30
0.0
 11
491.5955530811534
 21
395.2077046298763
 31
0.0
  0
LINE
  5
A03F
330
1F
100
AcDbEntity
  8
SPOJOVACÍ
  6
Continuous
100
AcDbLine
 10
498.0453920489726
 20
412.6782664263482
 30
0.0
 11
498.0453920489726
 21
415.2064842392173
 31
0.0
  0
LINE
  5
A040
330
1F
100
AcDbEntity
  8
SPOJOVACÍ
  6
Continuous
100
AcDbLine
 10
495.3460218862365
 20
413.5916990577352
 30
0.0
 11
495.3460218862365
 21
416.1124754644442
 31
0.0
  0
LINE
  5
A041
330
1F
100
AcDbEntity
  8
SPOJOVACÍ
  6
Continuous
100
AcDbLine
 10
498.0453920489726
 20
415.8110985065031
 30
0.0
 11
498.0453920489726
 21
418.3290843858303
 31
0.0
  0
LINE
  5
A042
330
1F
100
AcDbEntity
  8
SPOJOVACÍ
  6
Continuous
100
AcDbLine
 10
498.0453920489726
 20
418.925327070985
 30
0.0
 11
498.0453920489726
 21
420.1726928128737
 31
0.0
  0
LINE
  5
A043
330
1F
100
AcDbEntity
  8
SPOJOVACÍ
  6
Continuous
100
AcDbLine
 10
495.3460218862365
 20
416.7133690283772
 30
0.0
 11
495.3460218862365
 21
419.2322850834061
 31
0.0
  0
LINE
  5
A044
330
1F
100
AcDbEntity
  8
SPOJOVACÍ
  6
Continuous
100
AcDbLine
 10
495.3460218862365
 20
419.8359691749901
 30
0.0
 11
495.3460218862365
 21
420.1726928128737
 31
0.0
  0
LINE
  5
A045
330
1F
100
AcDbEntity
  8
SPOJOVACÍ
  6
Continuous
100
AcDbLine
 10
498.0453920489726
 20
420.1726928128737
 30
0.0
 11
497.8956337462496
 21
421.3698290622305
 31
0.0
  0
LINE
  5
A046
330
1F
100
AcDbEntity
  8
SPOJOVACÍ
  6
Continuous
100
AcDbLine
 10
496.6957069697873
 20
430.972963977827
 30
0.0
 11
496.3413099886584
 21
428.1368579765585
 31
0.0
  0
LINE
  5
A047
330
1F
100
AcDbEntity
  8
SPOJOVACÍ
  6
Continuous
100
AcDbLine
 10
497.8184291537236
 20
421.990256318084
 30
0.0
 11
497.5282143042041
 21
424.3119751041485
 31
0.0
  0
LINE
  5
A048
330
1F
100
AcDbEntity
  8
SPOJOVACÍ
  6
Continuous
100
AcDbLine
 10
497.4491493613659
 20
424.9426342938131
 30
0.0
 11
497.158934516212
 21
427.2634229041686
 31
0.0
  0
LINE
  5
A049
330
1F
100
AcDbEntity
  8
SPOJOVACÍ
  6
Continuous
100
AcDbLine
 10
497.081729923686
 20
427.8838501600221
 30
0.0
 11
496.6957069697873
 21
430.972963977827
 31
0.0
  0
LINE
  5
A04A
330
1F
100
AcDbEntity
  8
SPOJOVACÍ
  6
Continuous
100
AcDbLine
 10
496.2696864514346
 20
427.5675903894916
 30
0.0
 11
496.0017958231238
 21
425.4226050045072
 31
0.0
  0
LINE
  5
A04B
330
1F
100
AcDbEntity
  8
SPOJOVACÍ
  6
Continuous
100
AcDbLine
 10
495.9301722902655
 20
424.8505468900584
 30
0.0
 11
495.663211834928
 21
422.713933087205
 31
0.0
  0
LINE
  5
A04C
330
1F
100
AcDbEntity
  8
SPOJOVACÍ
  6
Continuous
100
AcDbLine
 10
495.5915882977042
 20
422.1437353241599
 30
0.0
 11
495.3460218862365
 21
420.1726928128737
 31
0.0
  0
LINE
  5
A04D
330
1F
100
AcDbEntity
  8
SPOJOVACÍ
  6
Continuous
100
AcDbLine
 10
498.8416225282908
 20
421.5651659792529
 30
0.0
 11
498.4630409800065
 21
421.7837572912794
 31
0.0
  0
LINE
  5
A04E
330
1F
100
AcDbEntity
  8
SPOJOVACÍ
  6
Continuous
100
AcDbLine
 10
498.8416225282908
 20
421.5651659792529
 30
0.0
 11
498.4630409800065
 21
421.1875146061247
 31
0.0
  0
LINE
  5
A04F
330
1F
100
AcDbEntity
  8
SPOJOVACÍ
  6
Continuous
100
AcDbLine
 10
494.7162928755479
 20
422.5381298615575
 30
0.0
 11
495.0939442464933
 21
422.916711410664
 31
0.0
  0
LINE
  5
A050
330
1F
100
AcDbEntity
  8
SPOJOVACÍ
  6
Continuous
100
AcDbLine
 10
494.7162928755479
 20
422.5381298615575
 30
0.0
 11
495.0939442464933
 21
422.3204687255092
 31
0.0
  0
LINE
  5
A051
330
1F
100
AcDbEntity
  8
SPOJOVACÍ
  6
Continuous
100
AcDbLine
 10
498.4630409800065
 20
421.7837572912794
 30
0.0
 11
495.0939442464933
 21
422.916711410664
 31
0.0
  0
LINE
  5
A052
330
1F
100
AcDbEntity
  8
SPOJOVACÍ
  6
Continuous
100
AcDbLine
 10
498.4630409800065
 20
421.1875146061247
 30
0.0
 11
495.0939442464933
 21
422.3204687255092
 31
0.0
  0
LINE
  5
A053
330
1F
100
AcDbEntity
  8
SPOJOVACÍ
  6
Continuous
100
AcDbLine
 10
498.8416225282908
 20
421.5651659792529
 30
0.0
 11
494.7162928755479
 21
422.5381298615575
 31
0.0
  0
LINE
  5
A054
330
1F
100
AcDbEntity
  8
SPOJOVACÍ
  6
Continuous
100
AcDbLine
 10
498.2770058221849
 20
424.5798657335508
 30
0.0
 11
497.899354446874
 21
424.7975268695991
 31
0.0
  0
LINE
  5
A055
330
1F
100
AcDbEntity
  8
SPOJOVACÍ
  6
Continuous
100
AcDbLine
 10
498.2770058221849
 20
424.5798657335508
 30
0.0
 11
497.899354446874
 21
424.2012841844443
 31
0.0
  0
LINE
  5
A056
330
1F
100
AcDbEntity
  8
SPOJOVACÍ
  6
Continuous
100
AcDbLine
 10
495.1609169057538
 20
425.2133154503208
 30
0.0
 11
495.5385682766991
 21
425.5918969991507
 31
0.0
  0
LINE
  5
A057
330
1F
100
AcDbEntity
  8
SPOJOVACÍ
  6
Continuous
100
AcDbLine
 10
495.1609169057538
 20
425.2133154503208
 30
0.0
 11
495.5385682766991
 21
424.9956543142725
 31
0.0
  0
LINE
  5
A058
330
1F
100
AcDbEntity
  8
SPOJOVACÍ
  6
Continuous
100
AcDbLine
 10
497.899354446874
 20
424.7975268695991
 30
0.0
 11
495.5385682766991
 21
425.5918969991507
 31
0.0
  0
LINE
  5
A059
330
1F
100
AcDbEntity
  8
SPOJOVACÍ
  6
Continuous
100
AcDbLine
 10
497.899354446874
 20
424.2012841844443
 30
0.0
 11
495.5385682766991
 21
424.9956543142725
 31
0.0
  0
LINE
  5
A05A
330
1F
100
AcDbEntity
  8
SPOJOVACÍ
  6
Continuous
100
AcDbLine
 10
498.2770058221849
 20
424.5798657335508
 30
0.0
 11
495.1609169057538
 21
425.2133154503208
 31
0.0
  0
LINE
  5
A05B
330
1F
100
AcDbEntity
  8
SPOJOVACÍ
  6
Continuous
100
AcDbLine
 10
497.7123891117135
 20
427.5936353118704
 30
0.0
 11
497.3347377407681
 21
427.8122266238897
 31
0.0
  0
LINE
  5
A05C
330
1F
100
AcDbEntity
  8
SPOJOVACÍ
  6
Continuous
100
AcDbLine
 10
497.7123891117135
 20
427.5936353118704
 30
0.0
 11
497.3347377407681
 21
427.2159839387422
 31
0.0
  0
LINE
  5
A05D
330
1F
100
AcDbEntity
  8
SPOJOVACÍ
  6
Continuous
100
AcDbLine
 10
495.5581019702568
 20
427.9043140276444
 30
0.0
 11
495.9357533412021
 21
428.2828955764744
 31
0.0
  0
LINE
  5
A05E
330
1F
100
AcDbEntity
  8
SPOJOVACÍ
  6
Continuous
100
AcDbLine
 10
495.5581019702568
 20
427.9043140276444
 30
0.0
 11
495.9357533412021
 21
427.6866528913269
 31
0.0
  0
LINE
  5
A05F
330
1F
100
AcDbEntity
  8
SPOJOVACÍ
  6
Continuous
100
AcDbLine
 10
497.3347377407681
 20
427.8122266238897
 30
0.0
 11
495.9357533412021
 21
428.2828955764744
 31
0.0
  0
LINE
  5
A060
330
1F
100
AcDbEntity
  8
SPOJOVACÍ
  6
Continuous
100
AcDbLine
 10
497.3347377407681
 20
427.2159839387422
 30
0.0
 11
495.9357533412021
 21
427.6866528913269
 31
0.0
  0
LINE
  5
A061
330
1F
100
AcDbEntity
  8
SPOJOVACÍ
  6
Continuous
100
AcDbLine
 10
497.7123891117135
 20
427.5936353118704
 30
0.0
 11
495.5581019702568
 21
427.9043140276444
 31
0.0
  0
LINE
  5
A062
330
1F
100
AcDbEntity
  8
SPOJOVACÍ
  6
Continuous
100
AcDbLine
 10
499.0955605227118
 20
415.3674046519991
 30
0.0
 11
494.2958534168629
 21
416.5673314284613
 31
0.0
  0
LINE
  5
A063
330
1F
100
AcDbEntity
  8
SPOJOVACÍ
  6
Continuous
100
AcDbLine
 10
499.0955605227118
 20
415.3674046519991
 30
0.0
 11
498.7179091474009
 21
415.5859959640183
 31
0.0
  0
LINE
  5
A064
330
1F
100
AcDbEntity
  8
SPOJOVACÍ
  6
Continuous
100
AcDbLine
 10
499.0955605227118
 20
415.3674046519991
 30
0.0
 11
498.7179091474009
 21
414.9897532788709
 31
0.0
  0
LINE
  5
A065
330
1F
100
AcDbEntity
  8
SPOJOVACÍ
  6
Continuous
100
AcDbLine
 10
494.2958534168629
 20
416.5673314284613
 30
0.0
 11
494.6735047878083
 21
416.9459129772913
 31
0.0
  0
LINE
  5
A066
330
1F
100
AcDbEntity
  8
SPOJOVACÍ
  6
Continuous
100
AcDbLine
 10
494.2958534168629
 20
416.5673314284613
 30
0.0
 11
494.6735047878083
 21
416.349670292413
 31
0.0
  0
LINE
  5
A067
330
1F
100
AcDbEntity
  8
SPOJOVACÍ
  6
Continuous
100
AcDbLine
 10
498.7179091474009
 20
415.5859959640183
 30
0.0
 11
494.6735047878083
 21
416.9459129772913
 31
0.0
  0
LINE
  5
A068
330
1F
100
AcDbEntity
  8
SPOJOVACÍ
  6
Continuous
100
AcDbLine
 10
498.7179091474009
 20
414.9897532788709
 30
0.0
 11
494.6735047878083
 21
416.349670292413
 31
0.0
  0
LINE
  5
A069
330
1F
100
AcDbEntity
  8
SPOJOVACÍ
  6
Continuous
100
AcDbLine
 10
499.0955605227118
 20
418.4881444469392
 30
0.0
 11
494.2958534168629
 21
419.6880712234015
 31
0.0
  0
LINE
  5
A06A
330
1F
100
AcDbEntity
  8
SPOJOVACÍ
  6
Continuous
100
AcDbLine
 10
499.0955605227118
 20
418.4881444469392
 30
0.0
 11
498.7179091474009
 21
418.7058055829875
 31
0.0
  0
LINE
  5
A06B
330
1F
100
AcDbEntity
  8
SPOJOVACÍ
  6
Continuous
100
AcDbLine
 10
499.0955605227118
 20
418.4881444469392
 30
0.0
 11
498.7179091474009
 21
418.1095628978328
 31
0.0
  0
LINE
  5
A06C
330
1F
100
AcDbEntity
  8
SPOJOVACÍ
  6
Continuous
100
AcDbLine
 10
494.2958534168629
 20
419.6880712234015
 30
0.0
 11
494.6735047878083
 21
420.0657225965296
 31
0.0
  0
LINE
  5
A06D
330
1F
100
AcDbEntity
  8
SPOJOVACÍ
  6
Continuous
100
AcDbLine
 10
494.2958534168629
 20
419.6880712234015
 30
0.0
 11
494.6735047878083
 21
419.4694799113749
 31
0.0
  0
LINE
  5
A06E
330
1F
100
AcDbEntity
  8
SPOJOVACÍ
  6
Continuous
100
AcDbLine
 10
498.7179091474009
 20
418.7058055829875
 30
0.0
 11
494.6735047878083
 21
420.0657225965296
 31
0.0
  0
LINE
  5
A06F
330
1F
100
AcDbEntity
  8
SPOJOVACÍ
  6
Continuous
100
AcDbLine
 10
498.7179091474009
 20
418.1095628978328
 30
0.0
 11
494.6735047878083
 21
419.4694799113749
 31
0.0
  0
LINE
  5
A070
330
1F
100
AcDbEntity
  8
SPOJOVACÍ
  6
Continuous
100
AcDbLine
 10
494.5060731462054
 20
398.8698067378318
 30
0.0
 11
493.2963990017287
 21
397.3453824281641
 31
0.0
  0
LINE
  5
A071
330
1F
100
AcDbEntity
  8
SPOJOVACÍ
  6
Continuous
100
AcDbLine
 10
495.119058995353
 20
400.2836739475351
 30
0.0
 11
494.5060731462054
 21
398.8698067378318
 31
0.0
  0
LINE
  5
A072
330
1F
100
AcDbEntity
  8
SPOJOVACÍ
  6
Continuous
100
AcDbLine
 10
495.3460218862365
 20
401.8073019009643
 30
0.0
 11
495.119058995353
 21
400.2836739475351
 31
0.0
  0
LINE
  5
A073
330
1F
100
AcDbEntity
  8
SPOJOVACÍ
  6
Continuous
100
AcDbLine
 10
498.1114345308943
 20
401.0203731778419
 30
0.0
 11
498.0453920489726
 21
401.8073019009643
 31
0.0
  0
LINE
  5
A074
330
1F
100
AcDbEntity
  8
SPOJOVACÍ
  6
Continuous
100
AcDbLine
 10
498.5393153951936
 20
399.5395333107917
 30
0.0
 11
498.1114345308943
 21
401.0203731778419
 31
0.0
  0
LINE
  5
A075
330
1F
100
AcDbEntity
  8
SPOJOVACÍ
  6
Continuous
100
AcDbLine
 10
499.3355458745118
 20
398.2205440324942
 30
0.0
 11
498.5393153951936
 21
399.5395333107917
 31
0.0
  0
LINE
  5
A076
330
1F
100
AcDbEntity
  8
SPOJOVACÍ
  6
Continuous
100
AcDbLine
 10
500.4461757748704
 20
397.151772043082
 30
0.0
 11
499.3355458745118
 21
398.2205440324942
 31
0.0
  0
LINE
  5
A077
330
1F
100
AcDbEntity
  8
SPOJOVACÍ
  6
Continuous
100
AcDbLine
 10
495.3460218862365
 20
401.8073019009643
 30
0.0
 11
495.3460218862365
 21
406.750256079893
 31
0.0
  0
LINE
  5
A078
330
1F
100
AcDbEntity
  8
SPOJOVACÍ
  6
Continuous
100
AcDbLine
 10
498.0453920489726
 20
401.8073019009643
 30
0.0
 11
498.0453920489726
 21
405.8451950306444
 31
0.0
  0
LINE
  5
A079
330
1F
100
AcDbEntity
  8
SPOJOVACÍ
  6
Continuous
100
AcDbLine
 10
498.0453920489726
 20
406.4405075398208
 30
0.0
 11
498.0453920489726
 21
408.9594235948498
 31
0.0
  0
LINE
  5
A07A
330
1F
100
AcDbEntity
  8
SPOJOVACÍ
  6
Continuous
100
AcDbLine
 10
498.0453920489726
 20
409.5631076861645
 30
0.0
 11
498.0453920489726
 21
412.0838840928736
 31
0.0
  0
LINE
  5
A07B
330
1F
100
AcDbEntity
  8
SPOJOVACÍ
  6
Continuous
100
AcDbLine
 10
495.3460218862365
 20
407.3539401712078
 30
0.0
 11
495.3460218862365
 21
409.8728562262367
 31
0.0
  0
LINE
  5
A07C
330
1F
100
AcDbEntity
  8
SPOJOVACÍ
  6
Continuous
100
AcDbLine
 10
495.3460218862365
 20
410.4690989113914
 30
0.0
 11
495.3460218862365
 21
412.9973167242606
 31
0.0
  0
LINE
  5
A07D
330
1F
100
AcDbEntity
  8
SPOJOVACÍ
  6
Continuous
100
AcDbLine
 10
499.0955605227118
 20
406.0079757948297
 30
0.0
 11
494.2958534168629
 21
407.2079025712919
 31
0.0
  0
LINE
  5
A07E
330
1F
100
AcDbEntity
  8
SPOJOVACÍ
  6
Continuous
100
AcDbLine
 10
499.0955605227118
 20
406.0079757948297
 30
0.0
 11
498.7179091474009
 21
406.2256369308779
 31
0.0
  0
LINE
  5
A07F
330
1F
100
AcDbEntity
  8
SPOJOVACÍ
  6
Continuous
100
AcDbLine
 10
499.0955605227118
 20
406.0079757948297
 30
0.0
 11
498.7179091474009
 21
405.6293942459997
 31
0.0
  0
LINE
  5
A080
330
1F
100
AcDbEntity
  8
SPOJOVACÍ
  6
Continuous
100
AcDbLine
 10
494.2958534168629
 20
407.2079025712919
 30
0.0
 11
494.6735047878083
 21
407.5855539444201
 31
0.0
  0
LINE
  5
A081
330
1F
100
AcDbEntity
  8
SPOJOVACÍ
  6
Continuous
100
AcDbLine
 10
494.2958534168629
 20
407.2079025712919
 30
0.0
 11
494.6735047878083
 21
406.9893112592653
 31
0.0
  0
LINE
  5
A082
330
1F
100
AcDbEntity
  8
SPOJOVACÍ
  6
Continuous
100
AcDbLine
 10
498.7179091474009
 20
406.2256369308779
 30
0.0
 11
494.6735047878083
 21
407.5855539444201
 31
0.0
  0
LINE
  5
A083
330
1F
100
AcDbEntity
  8
SPOJOVACÍ
  6
Continuous
100
AcDbLine
 10
498.7179091474009
 20
405.6293942459997
 30
0.0
 11
494.6735047878083
 21
406.9893112592653
 31
0.0
  0
LINE
  5
A084
330
1F
100
AcDbEntity
  8
SPOJOVACÍ
  6
Continuous
100
AcDbLine
 10
499.0955605227118
 20
409.1277854137915
 30
0.0
 11
494.2958534168629
 21
410.3277121905303
 31
0.0
  0
LINE
  5
A085
330
1F
100
AcDbEntity
  8
SPOJOVACÍ
  6
Continuous
100
AcDbLine
 10
499.0955605227118
 20
409.1277854137915
 30
0.0
 11
498.7179091474009
 21
409.3463767258181
 31
0.0
  0
LINE
  5
A086
330
1F
100
AcDbEntity
  8
SPOJOVACÍ
  6
Continuous
100
AcDbLine
 10
499.0955605227118
 20
409.1277854137915
 30
0.0
 11
498.7179091474009
 21
408.7501340406634
 31
0.0
  0
LINE
  5
A087
330
1F
100
AcDbEntity
  8
SPOJOVACÍ
  6
Continuous
100
AcDbLine
 10
494.2958534168629
 20
410.3277121905303
 30
0.0
 11
494.6735047878083
 21
410.7053635633819
 31
0.0
  0
LINE
  5
A088
330
1F
100
AcDbEntity
  8
SPOJOVACÍ
  6
Continuous
100
AcDbLine
 10
494.2958534168629
 20
410.3277121905303
 30
0.0
 11
494.6735047878083
 21
410.1091208785037
 31
0.0
  0
LINE
  5
A089
330
1F
100
AcDbEntity
  8
SPOJOVACÍ
  6
Continuous
100
AcDbLine
 10
498.7179091474009
 20
409.3463767258181
 30
0.0
 11
494.6735047878083
 21
410.7053635633819
 31
0.0
  0
LINE
  5
A08A
330
1F
100
AcDbEntity
  8
SPOJOVACÍ
  6
Continuous
100
AcDbLine
 10
498.7179091474009
 20
408.7501340406634
 30
0.0
 11
494.6735047878083
 21
410.1091208785037
 31
0.0
  0
LINE
  5
A08B
330
1F
100
AcDbEntity
  8
SPOJOVACÍ
  6
Continuous
100
AcDbLine
 10
499.0955605227118
 20
412.2475950330299
 30
0.0
 11
494.2958534168629
 21
413.4475218094921
 31
0.0
  0
LINE
  5
A08C
330
1F
100
AcDbEntity
  8
SPOJOVACÍ
  6
Continuous
100
AcDbLine
 10
499.0955605227118
 20
412.2475950330299
 30
0.0
 11
498.7179091474009
 21
412.4661863450564
 31
0.0
  0
LINE
  5
A08D
330
1F
100
AcDbEntity
  8
SPOJOVACÍ
  6
Continuous
100
AcDbLine
 10
499.0955605227118
 20
412.2475950330299
 30
0.0
 11
498.7179091474009
 21
411.8699436599017
 31
0.0
  0
LINE
  5
A08E
330
1F
100
AcDbEntity
  8
SPOJOVACÍ
  6
Continuous
100
AcDbLine
 10
494.2958534168629
 20
413.4475218094921
 30
0.0
 11
494.6735047878083
 21
413.8261033583221
 31
0.0
  0
LINE
  5
A08F
330
1F
100
AcDbEntity
  8
SPOJOVACÍ
  6
Continuous
100
AcDbLine
 10
494.2958534168629
 20
413.4475218094921
 30
0.0
 11
494.6735047878083
 21
413.2298606731747
 31
0.0
  0
LINE
  5
A090
330
1F
100
AcDbEntity
  8
SPOJOVACÍ
  6
Continuous
100
AcDbLine
 10
498.7179091474009
 20
412.4661863450564
 30
0.0
 11
494.6735047878083
 21
413.8261033583221
 31
0.0
  0
LINE
  5
A091
330
1F
100
AcDbEntity
  8
SPOJOVACÍ
  6
Continuous
100
AcDbLine
 10
498.7179091474009
 20
411.8699436599017
 30
0.0
 11
494.6735047878083
 21
413.2298606731747
 31
0.0
  0
LINE
  5
A092
330
1F
100
AcDbEntity
  8
SPOJOVACÍ
  6
Continuous
100
AcDbLine
 10
491.5955530811534
 20
395.2077046298763
 30
0.0
 11
491.5955530811534
 21
396.4076314066078
 31
0.0
  0
LINE
  5
A093
330
1F
100
AcDbEntity
  8
SPOJOVACÍ
  6
Continuous
100
AcDbLine
 10
491.5955530811534
 20
396.4076314066078
 30
0.0
 11
493.2963990017287
 21
397.3453824281641
 31
0.0
  0
LINE
  5
A094
330
1F
100
AcDbEntity
  8
SPOJOVACÍ
  6
Continuous
100
AcDbLine
 10
352.3190964111254
 20
559.7592521200204
 30
0.0
 11
353.2568474326817
 21
561.4600980405957
 31
0.0
  0
LINE
  5
A095
330
1F
100
AcDbEntity
  8
SPOJOVACÍ
  6
Continuous
100
AcDbLine
 10
351.119169634394
 20
569.9595598972883
 30
0.0
 11
351.119169634394
 21
559.7592521200204
 31
0.0
  0
LINE
  5
A096
330
1F
100
AcDbEntity
  8
SPOJOVACÍ
  6
Continuous
100
AcDbLine
 10
351.119169634394
 20
559.7592521200204
 30
0.0
 11
352.3190964111254
 21
559.7592521200204
 31
0.0
  0
LINE
  5
A097
330
1F
100
AcDbEntity
  8
SPOJOVACÍ
  6
Continuous
100
AcDbLine
 10
352.3190964111254
 20
569.9595598972883
 30
0.0
 11
352.3190964111254
 21
559.7592521200204
 31
0.0
  0
LINE
  5
A098
330
1F
100
AcDbEntity
  8
SPOJOVACÍ
  6
Continuous
100
AcDbLine
 10
367.7814086644193
 20
566.8816081862678
 30
0.0
 11
369.1413256776923
 21
562.8372038266753
 31
0.0
  0
LINE
  5
A099
330
1F
100
AcDbEntity
  8
SPOJOVACÍ
  6
Continuous
100
AcDbLine
 10
368.377651349574
 20
566.8816081862678
 30
0.0
 11
369.7375683628397
 21
562.8372038266753
 31
0.0
  0
LINE
  5
A09A
330
1F
100
AcDbEntity
  8
SPOJOVACÍ
  6
Continuous
100
AcDbLine
 10
369.3589868140097
 20
562.4595524557299
 30
0.0
 11
369.1413256776923
 21
562.8372038266753
 31
0.0
  0
LINE
  5
A09B
330
1F
100
AcDbEntity
  8
SPOJOVACÍ
  6
Continuous
100
AcDbLine
 10
369.3589868140097
 20
562.4595524557299
 30
0.0
 11
369.7375683628397
 21
562.8372038266753
 31
0.0
  0
LINE
  5
A09C
330
1F
100
AcDbEntity
  8
SPOJOVACÍ
  6
Continuous
100
AcDbLine
 10
368.1590600375475
 20
567.2592595615788
 30
0.0
 11
367.7814086644193
 21
566.8816081862678
 31
0.0
  0
LINE
  5
A09D
330
1F
100
AcDbEntity
  8
SPOJOVACÍ
  6
Continuous
100
AcDbLine
 10
368.1590600375475
 20
567.2592595615788
 30
0.0
 11
368.377651349574
 21
566.8816081862678
 31
0.0
  0
LINE
  5
A09E
330
1F
100
AcDbEntity
  8
SPOJOVACÍ
  6
Continuous
100
AcDbLine
 10
368.1590600375475
 20
567.2592595615788
 30
0.0
 11
369.3589868140097
 21
562.4595524557299
 31
0.0
  0
LINE
  5
A09F
330
1F
100
AcDbEntity
  8
SPOJOVACÍ
  6
Continuous
100
AcDbLine
 10
364.661599045181
 20
566.8816081862678
 30
0.0
 11
366.0205858830213
 21
562.8372038266753
 31
0.0
  0
LINE
  5
A0A0
330
1F
100
AcDbEntity
  8
SPOJOVACÍ
  6
Continuous
100
AcDbLine
 10
365.2578417303357
 20
566.8816081862678
 30
0.0
 11
366.6168285678995
 21
562.8372038266753
 31
0.0
  0
LINE
  5
A0A1
330
1F
100
AcDbEntity
  8
SPOJOVACÍ
  6
Continuous
100
AcDbLine
 10
366.2391771950479
 20
562.4595524557299
 30
0.0
 11
366.0205858830213
 21
562.8372038266753
 31
0.0
  0
LINE
  5
A0A2
330
1F
100
AcDbEntity
  8
SPOJOVACÍ
  6
Continuous
100
AcDbLine
 10
366.2391771950479
 20
562.4595524557299
 30
0.0
 11
366.6168285678995
 21
562.8372038266753
 31
0.0
  0
LINE
  5
A0A3
330
1F
100
AcDbEntity
  8
SPOJOVACÍ
  6
Continuous
100
AcDbLine
 10
365.0392504183091
 20
567.2592595615788
 30
0.0
 11
364.661599045181
 21
566.8816081862678
 31
0.0
  0
LINE
  5
A0A4
330
1F
100
AcDbEntity
  8
SPOJOVACÍ
  6
Continuous
100
AcDbLine
 10
365.0392504183091
 20
567.2592595615788
 30
0.0
 11
365.2578417303357
 21
566.8816081862678
 31
0.0
  0
LINE
  5
A0A5
330
1F
100
AcDbEntity
  8
SPOJOVACÍ
  6
Continuous
100
AcDbLine
 10
365.0392504183091
 20
567.2592595615788
 30
0.0
 11
366.2391771950479
 21
562.4595524557299
 31
0.0
  0
LINE
  5
A0A6
330
1F
100
AcDbEntity
  8
SPOJOVACÍ
  6
Continuous
100
AcDbLine
 10
361.5408592505173
 20
566.8816081862678
 30
0.0
 11
362.9007762637829
 21
562.8372038266753
 31
0.0
  0
LINE
  5
A0A7
330
1F
100
AcDbEntity
  8
SPOJOVACÍ
  6
Continuous
100
AcDbLine
 10
362.1371019353955
 20
566.8816081862678
 30
0.0
 11
363.4970189489377
 21
562.8372038266753
 31
0.0
  0
LINE
  5
A0A8
330
1F
100
AcDbEntity
  8
SPOJOVACÍ
  6
Continuous
100
AcDbLine
 10
363.1193675758095
 20
562.4595524557299
 30
0.0
 11
362.9007762637829
 21
562.8372038266753
 31
0.0
  0
LINE
  5
A0A9
330
1F
100
AcDbEntity
  8
SPOJOVACÍ
  6
Continuous
100
AcDbLine
 10
363.1193675758095
 20
562.4595524557299
 30
0.0
 11
363.4970189489377
 21
562.8372038266753
 31
0.0
  0
LINE
  5
A0AA
330
1F
100
AcDbEntity
  8
SPOJOVACÍ
  6
Continuous
100
AcDbLine
 10
361.9194407993473
 20
567.2592595615788
 30
0.0
 11
361.5408592505173
 21
566.8816081862678
 31
0.0
  0
LINE
  5
A0AB
330
1F
100
AcDbEntity
  8
SPOJOVACÍ
  6
Continuous
100
AcDbLine
 10
361.9194407993473
 20
567.2592595615788
 30
0.0
 11
362.1371019353955
 21
566.8816081862678
 31
0.0
  0
LINE
  5
A0AC
330
1F
100
AcDbEntity
  8
SPOJOVACÍ
  6
Continuous
100
AcDbLine
 10
361.9194407993473
 20
567.2592595615788
 30
0.0
 11
363.1193675758095
 21
562.4595524557299
 31
0.0
  0
LINE
  5
A0AD
330
1F
100
AcDbEntity
  8
SPOJOVACÍ
  6
Continuous
100
AcDbLine
 10
366.380563915909
 20
563.5097209251035
 30
0.0
 11
368.9087817287782
 21
563.5097209251035
 31
0.0
  0
LINE
  5
A0AE
330
1F
100
AcDbEntity
  8
SPOJOVACÍ
  6
Continuous
100
AcDbLine
 10
363.2654051757254
 20
563.5097209251035
 30
0.0
 11
365.7843212307543
 21
563.5097209251035
 31
0.0
  0
LINE
  5
A0AF
330
1F
100
AcDbEntity
  8
SPOJOVACÍ
  6
Continuous
100
AcDbLine
 10
365.4745726906821
 20
566.2090910878396
 30
0.0
 11
367.9953490973912
 21
566.2090910878396
 31
0.0
  0
LINE
  5
A0B0
330
1F
100
AcDbEntity
  8
SPOJOVACÍ
  6
Continuous
100
AcDbLine
 10
362.3519725443384
 20
566.2090910878396
 30
0.0
 11
364.8708885993674
 21
566.2090910878396
 31
0.0
  0
LINE
  5
A0B1
330
1F
100
AcDbEntity
  8
SPOJOVACÍ
  6
Continuous
100
AcDbLine
 10
357.7187669054819
 20
566.2090910878396
 30
0.0
 11
361.756660035162
 21
566.2090910878396
 31
0.0
  0
LINE
  5
A0B2
330
1F
100
AcDbEntity
  8
SPOJOVACÍ
  6
Continuous
100
AcDbLine
 10
357.7187669054819
 20
563.5097209251035
 30
0.0
 11
362.6617210844106
 21
563.5097209251035
 31
0.0
  0
LINE
  5
A0B3
330
1F
100
AcDbEntity
  8
SPOJOVACÍ
  6
Continuous
100
AcDbLine
 10
352.3190964111254
 20
569.9595598972883
 30
0.0
 11
353.0632370475996
 21
568.6098748137374
 31
0.0
  0
LINE
  5
A0B4
330
1F
100
AcDbEntity
  8
SPOJOVACÍ
  6
Continuous
100
AcDbLine
 10
353.0632370475996
 20
568.6098748137374
 30
0.0
 11
354.1320090370118
 21
567.4992449133788
 31
0.0
  0
LINE
  5
A0B5
330
1F
100
AcDbEntity
  8
SPOJOVACÍ
  6
Continuous
100
AcDbLine
 10
354.1320090370118
 20
567.4992449133788
 30
0.0
 11
355.4509983153093
 21
566.7030144340606
 31
0.0
  0
LINE
  5
A0B6
330
1F
100
AcDbEntity
  8
SPOJOVACÍ
  6
Continuous
100
AcDbLine
 10
355.4509983153093
 20
566.7030144340606
 30
0.0
 11
356.9318381823595
 21
566.2751335697612
 31
0.0
  0
LINE
  5
A0B7
330
1F
100
AcDbEntity
  8
SPOJOVACÍ
  6
Continuous
100
AcDbLine
 10
356.9318381823595
 20
566.2751335697612
 30
0.0
 11
357.7187669054819
 21
566.2090910878396
 31
0.0
  0
LINE
  5
A0B8
330
1F
100
AcDbEntity
  8
SPOJOVACÍ
  6
Continuous
100
AcDbLine
 10
351.119169634394
 20
569.9595598972883
 30
0.0
 11
352.3190964111254
 21
569.9595598972883
 31
0.0
  0
LINE
  5
A0B9
330
1F
100
AcDbEntity
  8
SPOJOVACÍ
  6
Continuous
100
AcDbLine
 10
357.7187669054819
 20
563.5097209251035
 30
0.0
 11
356.1951389520527
 21
563.28275803422
 31
0.0
  0
LINE
  5
A0BA
330
1F
100
AcDbEntity
  8
SPOJOVACÍ
  6
Continuous
100
AcDbLine
 10
356.1951389520527
 20
563.28275803422
 30
0.0
 11
354.7812717423494
 21
562.6697721850724
 31
0.0
  0
LINE
  5
A0BB
330
1F
100
AcDbEntity
  8
SPOJOVACÍ
  6
Continuous
100
AcDbLine
 10
354.7812717423494
 20
562.6697721850724
 30
0.0
 11
353.2568474326817
 21
561.4600980405957
 31
0.0
  0
LINE
  5
A0BC
330
1F
100
AcDbEntity
  8
SPOJOVACÍ
  6
Continuous
100
AcDbLine
 10
374.0210279023504
 20
566.8816081862678
 30
0.0
 11
375.3809449158925
 21
562.8372038266753
 31
0.0
  0
LINE
  5
A0BD
330
1F
100
AcDbEntity
  8
SPOJOVACÍ
  6
Continuous
100
AcDbLine
 10
374.6172705875051
 20
566.8816081862678
 30
0.0
 11
375.9771876010472
 21
562.8372038266753
 31
0.0
  0
LINE
  5
A0BE
330
1F
100
AcDbEntity
  8
SPOJOVACÍ
  6
Continuous
100
AcDbLine
 10
375.5995362279191
 20
562.4595524557299
 30
0.0
 11
375.3809449158925
 21
562.8372038266753
 31
0.0
  0
LINE
  5
A0BF
330
1F
100
AcDbEntity
  8
SPOJOVACÍ
  6
Continuous
100
AcDbLine
 10
375.5995362279191
 20
562.4595524557299
 30
0.0
 11
375.9771876010472
 21
562.8372038266753
 31
0.0
  0
LINE
  5
A0C0
330
1F
100
AcDbEntity
  8
SPOJOVACÍ
  6
Continuous
100
AcDbLine
 10
374.3996094514568
 20
567.2592595615788
 30
0.0
 11
374.0210279023504
 21
566.8816081862678
 31
0.0
  0
LINE
  5
A0C1
330
1F
100
AcDbEntity
  8
SPOJOVACÍ
  6
Continuous
100
AcDbLine
 10
374.3996094514568
 20
567.2592595615788
 30
0.0
 11
374.6172705875051
 21
566.8816081862678
 31
0.0
  0
LINE
  5
A0C2
330
1F
100
AcDbEntity
  8
SPOJOVACÍ
  6
Continuous
100
AcDbLine
 10
374.3996094514568
 20
567.2592595615788
 30
0.0
 11
375.5995362279191
 21
562.4595524557299
 31
0.0
  0
LINE
  5
A0C3
330
1F
100
AcDbEntity
  8
SPOJOVACÍ
  6
Continuous
100
AcDbLine
 10
370.9012182833885
 20
566.8816081862678
 30
0.0
 11
372.2611352969306
 21
562.8372038266753
 31
0.0
  0
LINE
  5
A0C4
330
1F
100
AcDbEntity
  8
SPOJOVACÍ
  6
Continuous
100
AcDbLine
 10
371.4974609685359
 20
566.8816081862678
 30
0.0
 11
372.8573779818089
 21
562.8372038266753
 31
0.0
  0
LINE
  5
A0C5
330
1F
100
AcDbEntity
  8
SPOJOVACÍ
  6
Continuous
100
AcDbLine
 10
372.4787964329789
 20
562.4595524557299
 30
0.0
 11
372.2611352969306
 21
562.8372038266753
 31
0.0
  0
LINE
  5
A0C6
330
1F
100
AcDbEntity
  8
SPOJOVACÍ
  6
Continuous
100
AcDbLine
 10
372.4787964329789
 20
562.4595524557299
 30
0.0
 11
372.8573779818089
 21
562.8372038266753
 31
0.0
  0
LINE
  5
A0C7
330
1F
100
AcDbEntity
  8
SPOJOVACÍ
  6
Continuous
100
AcDbLine
 10
371.2788696565167
 20
567.2592595615788
 30
0.0
 11
370.9012182833885
 21
566.8816081862678
 31
0.0
  0
LINE
  5
A0C8
330
1F
100
AcDbEntity
  8
SPOJOVACÍ
  6
Continuous
100
AcDbLine
 10
371.2788696565167
 20
567.2592595615788
 30
0.0
 11
371.4974609685359
 21
566.8816081862678
 31
0.0
  0
LINE
  5
A0C9
330
1F
100
AcDbEntity
  8
SPOJOVACÍ
  6
Continuous
100
AcDbLine
 10
371.2788696565167
 20
567.2592595615788
 30
0.0
 11
372.4787964329789
 21
562.4595524557299
 31
0.0
  0
LINE
  5
A0CA
330
1F
100
AcDbEntity
  8
SPOJOVACÍ
  6
Continuous
100
AcDbLine
 10
383.505100316388
 20
565.8760881505805
 30
0.0
 11
383.815779032162
 21
563.7218010091237
 31
0.0
  0
LINE
  5
A0CB
330
1F
100
AcDbEntity
  8
SPOJOVACÍ
  6
Continuous
100
AcDbLine
 10
383.1274489432598
 20
565.4984367796351
 30
0.0
 11
383.5981178958445
 21
564.0994523800691
 31
0.0
  0
LINE
  5
A0CC
330
1F
100
AcDbEntity
  8
SPOJOVACÍ
  6
Continuous
100
AcDbLine
 10
383.7236916284073
 20
565.4984367796351
 30
0.0
 11
384.194360580992
 21
564.0994523800691
 31
0.0
  0
LINE
  5
A0CD
330
1F
100
AcDbEntity
  8
SPOJOVACÍ
  6
Continuous
100
AcDbLine
 10
383.815779032162
 20
563.7218010091237
 30
0.0
 11
383.5981178958445
 21
564.0994523800691
 31
0.0
  0
LINE
  5
A0CE
330
1F
100
AcDbEntity
  8
SPOJOVACÍ
  6
Continuous
100
AcDbLine
 10
383.815779032162
 20
563.7218010091237
 30
0.0
 11
384.194360580992
 21
564.0994523800691
 31
0.0
  0
LINE
  5
A0CF
330
1F
100
AcDbEntity
  8
SPOJOVACÍ
  6
Continuous
100
AcDbLine
 10
383.505100316388
 20
565.8760881505805
 30
0.0
 11
383.1274489432598
 21
565.4984367796351
 31
0.0
  0
LINE
  5
A0D0
330
1F
100
AcDbEntity
  8
SPOJOVACÍ
  6
Continuous
100
AcDbLine
 10
383.505100316388
 20
565.8760881505805
 30
0.0
 11
383.7236916284073
 21
565.4984367796351
 31
0.0
  0
LINE
  5
A0D1
330
1F
100
AcDbEntity
  8
SPOJOVACÍ
  6
Continuous
100
AcDbLine
 10
380.4913307380684
 20
566.4407048610519
 30
0.0
 11
381.1247804548384
 21
563.3246159446207
 31
0.0
  0
LINE
  5
A0D2
330
1F
100
AcDbEntity
  8
SPOJOVACÍ
  6
Continuous
100
AcDbLine
 10
380.1127491889619
 20
566.063053485741
 30
0.0
 11
380.9071193187901
 21
563.7022673155661
 31
0.0
  0
LINE
  5
A0D3
330
1F
100
AcDbEntity
  8
SPOJOVACÍ
  6
Continuous
100
AcDbLine
 10
380.7089918741167
 20
566.063053485741
 30
0.0
 11
381.5033620036683
 21
563.7022673155661
 31
0.0
  0
LINE
  5
A0D4
330
1F
100
AcDbEntity
  8
SPOJOVACÍ
  6
Continuous
100
AcDbLine
 10
381.1247804548384
 20
563.3246159446207
 30
0.0
 11
380.9071193187901
 21
563.7022673155661
 31
0.0
  0
LINE
  5
A0D5
330
1F
100
AcDbEntity
  8
SPOJOVACÍ
  6
Continuous
100
AcDbLine
 10
381.1247804548384
 20
563.3246159446207
 30
0.0
 11
381.5033620036683
 21
563.7022673155661
 31
0.0
  0
LINE
  5
A0D6
330
1F
100
AcDbEntity
  8
SPOJOVACÍ
  6
Continuous
100
AcDbLine
 10
380.4913307380684
 20
566.4407048610519
 30
0.0
 11
380.1127491889619
 21
566.063053485741
 31
0.0
  0
LINE
  5
A0D7
330
1F
100
AcDbEntity
  8
SPOJOVACÍ
  6
Continuous
100
AcDbLine
 10
380.4913307380684
 20
566.4407048610519
 30
0.0
 11
380.7089918741167
 21
566.063053485741
 31
0.0
  0
LINE
  5
A0D8
330
1F
100
AcDbEntity
  8
SPOJOVACÍ
  6
Continuous
100
AcDbLine
 10
377.4766309837705
 20
567.0053215671578
 30
0.0
 11
378.4495948660751
 21
562.8799919144149
 31
0.0
  0
LINE
  5
A0D9
330
1F
100
AcDbEntity
  8
SPOJOVACÍ
  6
Continuous
100
AcDbLine
 10
377.0989796106423
 20
566.6267400188735
 30
0.0
 11
378.2319337300268
 21
563.2576432853602
 31
0.0
  0
LINE
  5
A0DA
330
1F
100
AcDbEntity
  8
SPOJOVACÍ
  6
Continuous
100
AcDbLine
 10
377.695222295797
 20
566.6267400188735
 30
0.0
 11
378.8281764151816
 21
563.2576432853602
 31
0.0
  0
LINE
  5
A0DB
330
1F
100
AcDbEntity
  8
SPOJOVACÍ
  6
Continuous
100
AcDbLine
 10
378.4495948660751
 20
562.8799919144149
 30
0.0
 11
378.2319337300268
 21
563.2576432853602
 31
0.0
  0
LINE
  5
A0DC
330
1F
100
AcDbEntity
  8
SPOJOVACÍ
  6
Continuous
100
AcDbLine
 10
378.4495948660751
 20
562.8799919144149
 30
0.0
 11
378.8281764151816
 21
563.2576432853602
 31
0.0
  0
LINE
  5
A0DD
330
1F
100
AcDbEntity
  8
SPOJOVACÍ
  6
Continuous
100
AcDbLine
 10
377.4766309837705
 20
567.0053215671578
 30
0.0
 11
377.0989796106423
 21
566.6267400188735
 31
0.0
  0
LINE
  5
A0DE
330
1F
100
AcDbEntity
  8
SPOJOVACÍ
  6
Continuous
100
AcDbLine
 10
377.4766309837705
 20
567.0053215671578
 30
0.0
 11
377.695222295797
 21
566.6267400188735
 31
0.0
  0
LINE
  5
A0DF
330
1F
100
AcDbEntity
  8
SPOJOVACÍ
  6
Continuous
100
AcDbLine
 10
378.0552003286775
 20
563.7552873365712
 30
0.0
 11
376.0841578173913
 21
563.5097209251035
 31
0.0
  0
LINE
  5
A0E0
330
1F
100
AcDbEntity
  8
SPOJOVACÍ
  6
Continuous
100
AcDbLine
 10
380.762011894576
 20
564.0938713291325
 30
0.0
 11
378.6253980917226
 21
563.826910873795
 31
0.0
  0
LINE
  5
A0E1
330
1F
100
AcDbEntity
  8
SPOJOVACÍ
  6
Continuous
100
AcDbLine
 10
383.4790553940092
 20
564.4333854903016
 30
0.0
 11
381.3340700090248
 21
564.1654948619907
 31
0.0
  0
LINE
  5
A0E2
330
1F
100
AcDbEntity
  8
SPOJOVACÍ
  6
Continuous
100
AcDbLine
 10
383.7953151645397
 20
565.245428962553
 30
0.0
 11
386.8844289823446
 21
564.8594060086543
 31
0.0
  0
LINE
  5
A0E3
330
1F
100
AcDbEntity
  8
SPOJOVACÍ
  6
Continuous
100
AcDbLine
 10
380.8540992983307
 20
565.6128484002329
 30
0.0
 11
383.1748879086863
 21
565.3226335550789
 31
0.0
  0
LINE
  5
A0E4
330
1F
100
AcDbEntity
  8
SPOJOVACÍ
  6
Continuous
100
AcDbLine
 10
377.9017213226016
 20
565.9821281925906
 30
0.0
 11
380.2234401086661
 21
565.6919133430711
 31
0.0
  0
LINE
  5
A0E5
330
1F
100
AcDbEntity
  8
SPOJOVACÍ
  6
Continuous
100
AcDbLine
 10
386.8844289823446
 20
564.8594060086543
 30
0.0
 11
384.0483229810761
 21
564.5050090275254
 31
0.0
  0
LINE
  5
A0E6
330
1F
100
AcDbEntity
  8
SPOJOVACÍ
  6
Continuous
100
AcDbLine
 10
376.0841578173913
 20
566.2090910878396
 30
0.0
 11
377.2812940667481
 21
566.0593327851166
 31
0.0
  0
LINE
  5
A0E7
330
1F
100
AcDbEntity
  8
SPOJOVACÍ
  6
Continuous
100
AcDbLine
 10
375.7474341795077
 20
563.5097209251035
 30
0.0
 11
376.0841578173913
 21
563.5097209251035
 31
0.0
  0
LINE
  5
A0E8
330
1F
100
AcDbEntity
  8
SPOJOVACÍ
  6
Continuous
100
AcDbLine
 10
372.6248340328948
 20
563.5097209251035
 30
0.0
 11
375.1437500879237
 21
563.5097209251035
 31
0.0
  0
LINE
  5
A0E9
330
1F
100
AcDbEntity
  8
SPOJOVACÍ
  6
Continuous
100
AcDbLine
 10
374.8367920755026
 20
566.2090910878396
 30
0.0
 11
376.0841578173913
 21
566.2090910878396
 31
0.0
  0
LINE
  5
A0EA
330
1F
100
AcDbEntity
  8
SPOJOVACÍ
  6
Continuous
100
AcDbLine
 10
371.7225635110207
 20
566.2090910878396
 30
0.0
 11
374.2405493903479
 21
566.2090910878396
 31
0.0
  0
LINE
  5
A0EB
330
1F
100
AcDbEntity
  8
SPOJOVACÍ
  6
Continuous
100
AcDbLine
 10
369.5031640622528
 20
563.5097209251035
 30
0.0
 11
372.0239404689619
 21
563.5097209251035
 31
0.0
  0
LINE
  5
A0EC
330
1F
100
AcDbEntity
  8
SPOJOVACÍ
  6
Continuous
100
AcDbLine
 10
368.5897314308658
 20
566.2090910878396
 30
0.0
 11
371.117949243735
 21
566.2090910878396
 31
0.0
  0
LINE
  5
A0ED
330
1F
100
AcDbEntity
  8
SPOJOVACÍ
  6
Continuous
100
AcDbLine
 10
368.6074011797554
 20
712.7813163153005
 30
0.0
 11
371.1356189926245
 21
712.7813163153005
 31
0.0
  0
LINE
  5
A0EE
330
1F
100
AcDbEntity
  8
SPOJOVACÍ
  6
Continuous
100
AcDbLine
 10
369.5208338111424
 20
710.0819461525643
 30
0.0
 11
372.0416102178514
 21
710.0819461525643
 31
0.0
  0
LINE
  5
A0EF
330
1F
100
AcDbEntity
  8
SPOJOVACÍ
  6
Continuous
100
AcDbLine
 10
371.7402332599103
 20
712.7813163153005
 30
0.0
 11
374.2582191392375
 21
712.7813163153005
 31
0.0
  0
LINE
  5
A0F0
330
1F
100
AcDbEntity
  8
SPOJOVACÍ
  6
Continuous
100
AcDbLine
 10
374.8544618243922
 20
712.7813163153005
 30
0.0
 11
376.1018275662809
 21
712.7813163153005
 31
0.0
  0
LINE
  5
A0F1
330
1F
100
AcDbEntity
  8
SPOJOVACÍ
  6
Continuous
100
AcDbLine
 10
372.6425037817843
 20
710.0819461525643
 30
0.0
 11
375.1614198368133
 21
710.0819461525643
 31
0.0
  0
LINE
  5
A0F2
330
1F
100
AcDbEntity
  8
SPOJOVACÍ
  6
Continuous
100
AcDbLine
 10
375.7651039283973
 20
710.0819461525643
 30
0.0
 11
376.1018275662809
 21
710.0819461525643
 31
0.0
  0
LINE
  5
A0F3
330
1F
100
AcDbEntity
  8
SPOJOVACÍ
  6
Continuous
100
AcDbLine
 10
376.1018275662809
 20
712.7813163153005
 30
0.0
 11
377.2989638156377
 21
712.6315580125774
 31
0.0
  0
LINE
  5
A0F4
330
1F
100
AcDbEntity
  8
SPOJOVACÍ
  6
Continuous
100
AcDbLine
 10
386.9020987312342
 20
711.4316312361152
 30
0.0
 11
384.0659927299657
 21
711.0772342549863
 31
0.0
  0
LINE
  5
A0F5
330
1F
100
AcDbEntity
  8
SPOJOVACÍ
  6
Continuous
100
AcDbLine
 10
377.9193910714912
 20
712.5543534200515
 30
0.0
 11
380.2411098575557
 21
712.2641385705319
 31
0.0
  0
LINE
  5
A0F6
330
1F
100
AcDbEntity
  8
SPOJOVACÍ
  6
Continuous
100
AcDbLine
 10
380.8717690472203
 20
712.1850736276938
 30
0.0
 11
383.1925576575759
 21
711.8948587825398
 31
0.0
  0
LINE
  5
A0F7
330
1F
100
AcDbEntity
  8
SPOJOVACÍ
  6
Continuous
100
AcDbLine
 10
383.8129849134293
 20
711.8176541900139
 30
0.0
 11
386.9020987312342
 21
711.4316312361152
 31
0.0
  0
LINE
  5
A0F8
330
1F
100
AcDbEntity
  8
SPOJOVACÍ
  6
Continuous
100
AcDbLine
 10
383.4967251428988
 20
711.0056107177625
 30
0.0
 11
381.3517397579143
 21
710.7377200894516
 31
0.0
  0
LINE
  5
A0F9
330
1F
100
AcDbEntity
  8
SPOJOVACÍ
  6
Continuous
100
AcDbLine
 10
380.7796816434656
 20
710.6660965565934
 30
0.0
 11
378.6430678406123
 21
710.3991361012559
 31
0.0
  0
LINE
  5
A0FA
330
1F
100
AcDbEntity
  8
SPOJOVACÍ
  6
Continuous
100
AcDbLine
 10
378.0728700775671
 20
710.3275125640321
 30
0.0
 11
376.1018275662809
 21
710.0819461525643
 31
0.0
  0
LINE
  5
A0FB
330
1F
100
AcDbEntity
  8
SPOJOVACÍ
  6
Continuous
100
AcDbLine
 10
377.4943007326601
 20
713.5775467946187
 30
0.0
 11
377.7128920446866
 21
713.1989652463344
 31
0.0
  0
LINE
  5
A0FC
330
1F
100
AcDbEntity
  8
SPOJOVACÍ
  6
Continuous
100
AcDbLine
 10
377.4943007326601
 20
713.5775467946187
 30
0.0
 11
377.1166493595319
 21
713.1989652463344
 31
0.0
  0
LINE
  5
A0FD
330
1F
100
AcDbEntity
  8
SPOJOVACÍ
  6
Continuous
100
AcDbLine
 10
378.4672646149647
 20
709.4522171418757
 30
0.0
 11
378.8458461640711
 21
709.8298685128211
 31
0.0
  0
LINE
  5
A0FE
330
1F
100
AcDbEntity
  8
SPOJOVACÍ
  6
Continuous
100
AcDbLine
 10
378.4672646149647
 20
709.4522171418757
 30
0.0
 11
378.2496034789164
 21
709.8298685128211
 31
0.0
  0
LINE
  5
A0FF
330
1F
100
AcDbEntity
  8
SPOJOVACÍ
  6
Continuous
100
AcDbLine
 10
377.7128920446866
 20
713.1989652463344
 30
0.0
 11
378.8458461640711
 21
709.8298685128211
 31
0.0
  0
LINE
  5
A100
330
1F
100
AcDbEntity
  8
SPOJOVACÍ
  6
Continuous
100
AcDbLine
 10
377.1166493595319
 20
713.1989652463344
 30
0.0
 11
378.2496034789164
 21
709.8298685128211
 31
0.0
  0
LINE
  5
A101
330
1F
100
AcDbEntity
  8
SPOJOVACÍ
  6
Continuous
100
AcDbLine
 10
377.4943007326601
 20
713.5775467946187
 30
0.0
 11
378.4672646149647
 21
709.4522171418757
 31
0.0
  0
LINE
  5
A102
330
1F
100
AcDbEntity
  8
SPOJOVACÍ
  6
Continuous
100
AcDbLine
 10
380.509000486958
 20
713.0129300885128
 30
0.0
 11
380.7266616230062
 21
712.6352787132018
 31
0.0
  0
LINE
  5
A103
330
1F
100
AcDbEntity
  8
SPOJOVACÍ
  6
Continuous
100
AcDbLine
 10
380.509000486958
 20
713.0129300885128
 30
0.0
 11
380.1304189378516
 21
712.6352787132018
 31
0.0
  0
LINE
  5
A104
330
1F
100
AcDbEntity
  8
SPOJOVACÍ
  6
Continuous
100
AcDbLine
 10
381.1424502037279
 20
709.8968411720816
 30
0.0
 11
381.5210317525579
 21
710.274492543027
 31
0.0
  0
LINE
  5
A105
330
1F
100
AcDbEntity
  8
SPOJOVACÍ
  6
Continuous
100
AcDbLine
 10
381.1424502037279
 20
709.8968411720816
 30
0.0
 11
380.9247890676797
 21
710.274492543027
 31
0.0
  0
LINE
  5
A106
330
1F
100
AcDbEntity
  8
SPOJOVACÍ
  6
Continuous
100
AcDbLine
 10
380.7266616230062
 20
712.6352787132018
 30
0.0
 11
381.5210317525579
 21
710.274492543027
 31
0.0
  0
LINE
  5
A107
330
1F
100
AcDbEntity
  8
SPOJOVACÍ
  6
Continuous
100
AcDbLine
 10
380.1304189378516
 20
712.6352787132018
 30
0.0
 11
380.9247890676797
 21
710.274492543027
 31
0.0
  0
LINE
  5
A108
330
1F
100
AcDbEntity
  8
SPOJOVACÍ
  6
Continuous
100
AcDbLine
 10
380.509000486958
 20
713.0129300885128
 30
0.0
 11
381.1424502037279
 21
709.8968411720816
 31
0.0
  0
LINE
  5
A109
330
1F
100
AcDbEntity
  8
SPOJOVACÍ
  6
Continuous
100
AcDbLine
 10
383.5227700652776
 20
712.4483133780413
 30
0.0
 11
383.7413613772969
 21
712.070662007096
 31
0.0
  0
LINE
  5
A10A
330
1F
100
AcDbEntity
  8
SPOJOVACÍ
  6
Continuous
100
AcDbLine
 10
383.5227700652776
 20
712.4483133780413
 30
0.0
 11
383.1451186921494
 21
712.070662007096
 31
0.0
  0
LINE
  5
A10B
330
1F
100
AcDbEntity
  8
SPOJOVACÍ
  6
Continuous
100
AcDbLine
 10
383.8334487810516
 20
710.2940262365846
 30
0.0
 11
384.2120303298816
 21
710.67167760753
 31
0.0
  0
LINE
  5
A10C
330
1F
100
AcDbEntity
  8
SPOJOVACÍ
  6
Continuous
100
AcDbLine
 10
383.8334487810516
 20
710.2940262365846
 30
0.0
 11
383.6157876447341
 21
710.67167760753
 31
0.0
  0
LINE
  5
A10D
330
1F
100
AcDbEntity
  8
SPOJOVACÍ
  6
Continuous
100
AcDbLine
 10
383.7413613772969
 20
712.070662007096
 30
0.0
 11
384.2120303298816
 21
710.67167760753
 31
0.0
  0
LINE
  5
A10E
330
1F
100
AcDbEntity
  8
SPOJOVACÍ
  6
Continuous
100
AcDbLine
 10
383.1451186921494
 20
712.070662007096
 30
0.0
 11
383.6157876447341
 21
710.67167760753
 31
0.0
  0
LINE
  5
A10F
330
1F
100
AcDbEntity
  8
SPOJOVACÍ
  6
Continuous
100
AcDbLine
 10
383.5227700652776
 20
712.4483133780413
 30
0.0
 11
383.8334487810516
 21
710.2940262365846
 31
0.0
  0
LINE
  5
A110
330
1F
100
AcDbEntity
  8
SPOJOVACÍ
  6
Continuous
100
AcDbLine
 10
371.2965394054062
 20
713.8314847890397
 30
0.0
 11
372.4964661818685
 21
709.0317776831907
 31
0.0
  0
LINE
  5
A111
330
1F
100
AcDbEntity
  8
SPOJOVACÍ
  6
Continuous
100
AcDbLine
 10
371.2965394054062
 20
713.8314847890397
 30
0.0
 11
371.5151307174255
 21
713.4538334137287
 31
0.0
  0
LINE
  5
A112
330
1F
100
AcDbEntity
  8
SPOJOVACÍ
  6
Continuous
100
AcDbLine
 10
371.2965394054062
 20
713.8314847890397
 30
0.0
 11
370.9188880322781
 21
713.4538334137287
 31
0.0
  0
LINE
  5
A113
330
1F
100
AcDbEntity
  8
SPOJOVACÍ
  6
Continuous
100
AcDbLine
 10
372.4964661818685
 20
709.0317776831907
 30
0.0
 11
372.8750477306984
 21
709.4094290541361
 31
0.0
  0
LINE
  5
A114
330
1F
100
AcDbEntity
  8
SPOJOVACÍ
  6
Continuous
100
AcDbLine
 10
372.4964661818685
 20
709.0317776831907
 30
0.0
 11
372.2788050458202
 21
709.4094290541361
 31
0.0
  0
LINE
  5
A115
330
1F
100
AcDbEntity
  8
SPOJOVACÍ
  6
Continuous
100
AcDbLine
 10
371.5151307174255
 20
713.4538334137287
 30
0.0
 11
372.8750477306984
 21
709.4094290541361
 31
0.0
  0
LINE
  5
A116
330
1F
100
AcDbEntity
  8
SPOJOVACÍ
  6
Continuous
100
AcDbLine
 10
370.9188880322781
 20
713.4538334137287
 30
0.0
 11
372.2788050458202
 21
709.4094290541361
 31
0.0
  0
LINE
  5
A117
330
1F
100
AcDbEntity
  8
SPOJOVACÍ
  6
Continuous
100
AcDbLine
 10
374.4172792003464
 20
713.8314847890397
 30
0.0
 11
375.6172059768086
 21
709.0317776831907
 31
0.0
  0
LINE
  5
A118
330
1F
100
AcDbEntity
  8
SPOJOVACÍ
  6
Continuous
100
AcDbLine
 10
374.4172792003464
 20
713.8314847890397
 30
0.0
 11
374.6349403363947
 21
713.4538334137287
 31
0.0
  0
LINE
  5
A119
330
1F
100
AcDbEntity
  8
SPOJOVACÍ
  6
Continuous
100
AcDbLine
 10
374.4172792003464
 20
713.8314847890397
 30
0.0
 11
374.03869765124
 21
713.4538334137287
 31
0.0
  0
LINE
  5
A11A
330
1F
100
AcDbEntity
  8
SPOJOVACÍ
  6
Continuous
100
AcDbLine
 10
375.6172059768086
 20
709.0317776831907
 30
0.0
 11
375.9948573499368
 21
709.4094290541361
 31
0.0
  0
LINE
  5
A11B
330
1F
100
AcDbEntity
  8
SPOJOVACÍ
  6
Continuous
100
AcDbLine
 10
375.6172059768086
 20
709.0317776831907
 30
0.0
 11
375.3986146647821
 21
709.4094290541361
 31
0.0
  0
LINE
  5
A11C
330
1F
100
AcDbEntity
  8
SPOJOVACÍ
  6
Continuous
100
AcDbLine
 10
374.6349403363947
 20
713.4538334137287
 30
0.0
 11
375.9948573499368
 21
709.4094290541361
 31
0.0
  0
LINE
  5
A11D
330
1F
100
AcDbEntity
  8
SPOJOVACÍ
  6
Continuous
100
AcDbLine
 10
374.03869765124
 20
713.4538334137287
 30
0.0
 11
375.3986146647821
 21
709.4094290541361
 31
0.0
  0
LINE
  5
A11E
330
1F
100
AcDbEntity
  8
SPOJOVACÍ
  6
Continuous
100
AcDbLine
 10
354.798941491239
 20
709.2419974125332
 30
0.0
 11
353.2745171815713
 21
708.0323232680566
 31
0.0
  0
LINE
  5
A11F
330
1F
100
AcDbEntity
  8
SPOJOVACÍ
  6
Continuous
100
AcDbLine
 10
356.2128087009423
 20
709.8549832616809
 30
0.0
 11
354.798941491239
 21
709.2419974125332
 31
0.0
  0
LINE
  5
A120
330
1F
100
AcDbEntity
  8
SPOJOVACÍ
  6
Continuous
100
AcDbLine
 10
357.7364366543715
 20
710.0819461525643
 30
0.0
 11
356.2128087009423
 21
709.8549832616809
 31
0.0
  0
LINE
  5
A121
330
1F
100
AcDbEntity
  8
SPOJOVACÍ
  6
Continuous
100
AcDbLine
 10
351.1368393832835
 20
716.5317851247491
 30
0.0
 11
352.336766160015
 21
716.5317851247491
 31
0.0
  0
LINE
  5
A122
330
1F
100
AcDbEntity
  8
SPOJOVACÍ
  6
Continuous
100
AcDbLine
 10
356.9495079312491
 20
712.8473587972221
 30
0.0
 11
357.7364366543715
 21
712.7813163153005
 31
0.0
  0
LINE
  5
A123
330
1F
100
AcDbEntity
  8
SPOJOVACÍ
  6
Continuous
100
AcDbLine
 10
355.4686680641989
 20
713.2752396615215
 30
0.0
 11
356.9495079312491
 21
712.8473587972221
 31
0.0
  0
LINE
  5
A124
330
1F
100
AcDbEntity
  8
SPOJOVACÍ
  6
Continuous
100
AcDbLine
 10
354.1496787859014
 20
714.0714701408397
 30
0.0
 11
355.4686680641989
 21
713.2752396615215
 31
0.0
  0
LINE
  5
A125
330
1F
100
AcDbEntity
  8
SPOJOVACÍ
  6
Continuous
100
AcDbLine
 10
353.0809067964892
 20
715.1821000411983
 30
0.0
 11
354.1496787859014
 21
714.0714701408397
 31
0.0
  0
LINE
  5
A126
330
1F
100
AcDbEntity
  8
SPOJOVACÍ
  6
Continuous
100
AcDbLine
 10
352.336766160015
 20
716.5317851247491
 30
0.0
 11
353.0809067964892
 21
715.1821000411983
 31
0.0
  0
LINE
  5
A127
330
1F
100
AcDbEntity
  8
SPOJOVACÍ
  6
Continuous
100
AcDbLine
 10
357.7364366543715
 20
710.0819461525643
 30
0.0
 11
362.6793908333002
 21
710.0819461525643
 31
0.0
  0
LINE
  5
A128
330
1F
100
AcDbEntity
  8
SPOJOVACÍ
  6
Continuous
100
AcDbLine
 10
357.7364366543715
 20
712.7813163153005
 30
0.0
 11
361.7743297840515
 21
712.7813163153005
 31
0.0
  0
LINE
  5
A129
330
1F
100
AcDbEntity
  8
SPOJOVACÍ
  6
Continuous
100
AcDbLine
 10
362.369642293228
 20
712.7813163153005
 30
0.0
 11
364.888558348257
 21
712.7813163153005
 31
0.0
  0
LINE
  5
A12A
330
1F
100
AcDbEntity
  8
SPOJOVACÍ
  6
Continuous
100
AcDbLine
 10
365.4922424395717
 20
712.7813163153005
 30
0.0
 11
368.0130188462808
 21
712.7813163153005
 31
0.0
  0
LINE
  5
A12B
330
1F
100
AcDbEntity
  8
SPOJOVACÍ
  6
Continuous
100
AcDbLine
 10
363.2830749246149
 20
710.0819461525643
 30
0.0
 11
365.8019909796439
 21
710.0819461525643
 31
0.0
  0
LINE
  5
A12C
330
1F
100
AcDbEntity
  8
SPOJOVACÍ
  6
Continuous
100
AcDbLine
 10
366.3982336647986
 20
710.0819461525643
 30
0.0
 11
368.9264514776677
 21
710.0819461525643
 31
0.0
  0
LINE
  5
A12D
330
1F
100
AcDbEntity
  8
SPOJOVACÍ
  6
Continuous
100
AcDbLine
 10
361.9371105482368
 20
713.8314847890397
 30
0.0
 11
363.1370373246991
 21
709.0317776831907
 31
0.0
  0
LINE
  5
A12E
330
1F
100
AcDbEntity
  8
SPOJOVACÍ
  6
Continuous
100
AcDbLine
 10
361.9371105482368
 20
713.8314847890397
 30
0.0
 11
362.1547716842851
 21
713.4538334137287
 31
0.0
  0
LINE
  5
A12F
330
1F
100
AcDbEntity
  8
SPOJOVACÍ
  6
Continuous
100
AcDbLine
 10
361.9371105482368
 20
713.8314847890397
 30
0.0
 11
361.5585289994069
 21
713.4538334137287
 31
0.0
  0
LINE
  5
A130
330
1F
100
AcDbEntity
  8
SPOJOVACÍ
  6
Continuous
100
AcDbLine
 10
363.1370373246991
 20
709.0317776831907
 30
0.0
 11
363.5146886978272
 21
709.4094290541361
 31
0.0
  0
LINE
  5
A131
330
1F
100
AcDbEntity
  8
SPOJOVACÍ
  6
Continuous
100
AcDbLine
 10
363.1370373246991
 20
709.0317776831907
 30
0.0
 11
362.9184460126726
 21
709.4094290541361
 31
0.0
  0
LINE
  5
A132
330
1F
100
AcDbEntity
  8
SPOJOVACÍ
  6
Continuous
100
AcDbLine
 10
362.1547716842851
 20
713.4538334137287
 30
0.0
 11
363.5146886978272
 21
709.4094290541361
 31
0.0
  0
LINE
  5
A133
330
1F
100
AcDbEntity
  8
SPOJOVACÍ
  6
Continuous
100
AcDbLine
 10
361.5585289994069
 20
713.4538334137287
 30
0.0
 11
362.9184460126726
 21
709.4094290541361
 31
0.0
  0
LINE
  5
A134
330
1F
100
AcDbEntity
  8
SPOJOVACÍ
  6
Continuous
100
AcDbLine
 10
365.0569201671987
 20
713.8314847890397
 30
0.0
 11
366.2568469439374
 21
709.0317776831907
 31
0.0
  0
LINE
  5
A135
330
1F
100
AcDbEntity
  8
SPOJOVACÍ
  6
Continuous
100
AcDbLine
 10
365.0569201671987
 20
713.8314847890397
 30
0.0
 11
365.2755114792253
 21
713.4538334137287
 31
0.0
  0
LINE
  5
A136
330
1F
100
AcDbEntity
  8
SPOJOVACÍ
  6
Continuous
100
AcDbLine
 10
365.0569201671987
 20
713.8314847890397
 30
0.0
 11
364.6792687940706
 21
713.4538334137287
 31
0.0
  0
LINE
  5
A137
330
1F
100
AcDbEntity
  8
SPOJOVACÍ
  6
Continuous
100
AcDbLine
 10
366.2568469439374
 20
709.0317776831907
 30
0.0
 11
366.6344983167892
 21
709.4094290541361
 31
0.0
  0
LINE
  5
A138
330
1F
100
AcDbEntity
  8
SPOJOVACÍ
  6
Continuous
100
AcDbLine
 10
366.2568469439374
 20
709.0317776831907
 30
0.0
 11
366.0382556319109
 21
709.4094290541361
 31
0.0
  0
LINE
  5
A139
330
1F
100
AcDbEntity
  8
SPOJOVACÍ
  6
Continuous
100
AcDbLine
 10
365.2755114792253
 20
713.4538334137287
 30
0.0
 11
366.6344983167892
 21
709.4094290541361
 31
0.0
  0
LINE
  5
A13A
330
1F
100
AcDbEntity
  8
SPOJOVACÍ
  6
Continuous
100
AcDbLine
 10
364.6792687940706
 20
713.4538334137287
 30
0.0
 11
366.0382556319109
 21
709.4094290541361
 31
0.0
  0
LINE
  5
A13B
330
1F
100
AcDbEntity
  8
SPOJOVACÍ
  6
Continuous
100
AcDbLine
 10
368.1767297864371
 20
713.8314847890397
 30
0.0
 11
369.3766565628993
 21
709.0317776831907
 31
0.0
  0
LINE
  5
A13C
330
1F
100
AcDbEntity
  8
SPOJOVACÍ
  6
Continuous
100
AcDbLine
 10
368.1767297864371
 20
713.8314847890397
 30
0.0
 11
368.3953210984636
 21
713.4538334137287
 31
0.0
  0
LINE
  5
A13D
330
1F
100
AcDbEntity
  8
SPOJOVACÍ
  6
Continuous
100
AcDbLine
 10
368.1767297864371
 20
713.8314847890397
 30
0.0
 11
367.7990784133089
 21
713.4538334137287
 31
0.0
  0
LINE
  5
A13E
330
1F
100
AcDbEntity
  8
SPOJOVACÍ
  6
Continuous
100
AcDbLine
 10
369.3766565628993
 20
709.0317776831907
 30
0.0
 11
369.7552381117293
 21
709.4094290541361
 31
0.0
  0
LINE
  5
A13F
330
1F
100
AcDbEntity
  8
SPOJOVACÍ
  6
Continuous
100
AcDbLine
 10
369.3766565628993
 20
709.0317776831907
 30
0.0
 11
369.1589954265818
 21
709.4094290541361
 31
0.0
  0
LINE
  5
A140
330
1F
100
AcDbEntity
  8
SPOJOVACÍ
  6
Continuous
100
AcDbLine
 10
368.3953210984636
 20
713.4538334137287
 30
0.0
 11
369.7552381117293
 21
709.4094290541361
 31
0.0
  0
LINE
  5
A141
330
1F
100
AcDbEntity
  8
SPOJOVACÍ
  6
Continuous
100
AcDbLine
 10
367.7990784133089
 20
713.4538334137287
 30
0.0
 11
369.1589954265818
 21
709.4094290541361
 31
0.0
  0
LINE
  5
A142
330
1F
100
AcDbEntity
  8
SPOJOVACÍ
  6
Continuous
100
AcDbLine
 10
352.336766160015
 20
716.5317851247491
 30
0.0
 11
352.336766160015
 21
706.3314773474813
 31
0.0
  0
LINE
  5
A143
330
1F
100
AcDbEntity
  8
SPOJOVACÍ
  6
Continuous
100
AcDbLine
 10
351.1368393832835
 20
706.3314773474813
 30
0.0
 11
352.336766160015
 21
706.3314773474813
 31
0.0
  0
LINE
  5
A144
330
1F
100
AcDbEntity
  8
SPOJOVACÍ
  6
Continuous
100
AcDbLine
 10
351.1368393832835
 20
716.5317851247491
 30
0.0
 11
351.1368393832835
 21
706.3314773474813
 31
0.0
  0
LINE
  5
A145
330
1F
100
AcDbEntity
  8
SPOJOVACÍ
  6
Continuous
100
AcDbLine
 10
352.336766160015
 20
706.3314773474813
 30
0.0
 11
353.2745171815713
 21
708.0323232680566
 31
0.0
  0
INSERT
  5
A146
330
1F
100
AcDbEntity
  8
POPIS
100
AcDbBlockReference
  2
E_PUNKT
 10
351.1380640494626
 20
419.5510474613529
 30
0.0
 41
-0.6499999999996362
 42
0.6499999999996362
 43
0.65
 50
90.0
  0
LINE
  5
A147
330
1F
100
AcDbEntity
  8
SPOJOVACÍ
  6
Continuous
100
AcDbLine
 10
352.336766160015
 20
413.7522015222384
 30
0.0
 11
353.2745171815713
 21
415.4530474428138
 31
0.0
  0
LINE
  5
A148
330
1F
100
AcDbEntity
  8
SPOJOVACÍ
  6
Continuous
100
AcDbLine
 10
351.1368393832835
 20
423.9525092995063
 30
0.0
 11
351.1368393832835
 21
413.7522015222384
 31
0.0
  0
LINE
  5
A149
330
1F
100
AcDbEntity
  8
SPOJOVACÍ
  6
Continuous
100
AcDbLine
 10
351.1368393832835
 20
413.7522015222384
 30
0.0
 11
352.336766160015
 21
413.7522015222384
 31
0.0
  0
LINE
  5
A14A
330
1F
100
AcDbEntity
  8
SPOJOVACÍ
  6
Continuous
100
AcDbLine
 10
352.336766160015
 20
423.9525092995063
 30
0.0
 11
352.336766160015
 21
413.7522015222384
 31
0.0
  0
LINE
  5
A14B
330
1F
100
AcDbEntity
  8
SPOJOVACÍ
  6
Continuous
100
AcDbLine
 10
367.7990784133089
 20
420.8745575884859
 30
0.0
 11
369.1589954265818
 21
416.8301532288933
 31
0.0
  0
LINE
  5
A14C
330
1F
100
AcDbEntity
  8
SPOJOVACÍ
  6
Continuous
100
AcDbLine
 10
368.3953210984636
 20
420.8745575884859
 30
0.0
 11
369.7552381117293
 21
416.8301532288933
 31
0.0
  0
LINE
  5
A14D
330
1F
100
AcDbEntity
  8
SPOJOVACÍ
  6
Continuous
100
AcDbLine
 10
369.3766565628993
 20
416.4525018579479
 30
0.0
 11
369.1589954265818
 21
416.8301532288933
 31
0.0
  0
LINE
  5
A14E
330
1F
100
AcDbEntity
  8
SPOJOVACÍ
  6
Continuous
100
AcDbLine
 10
369.3766565628993
 20
416.4525018579479
 30
0.0
 11
369.7552381117293
 21
416.8301532288933
 31
0.0
  0
LINE
  5
A14F
330
1F
100
AcDbEntity
  8
SPOJOVACÍ
  6
Continuous
100
AcDbLine
 10
368.1767297864371
 20
421.2522089637968
 30
0.0
 11
367.7990784133089
 21
420.8745575884859
 31
0.0
  0
LINE
  5
A150
330
1F
100
AcDbEntity
  8
SPOJOVACÍ
  6
Continuous
100
AcDbLine
 10
368.1767297864371
 20
421.2522089637968
 30
0.0
 11
368.3953210984636
 21
420.8745575884859
 31
0.0
  0
LINE
  5
A151
330
1F
100
AcDbEntity
  8
SPOJOVACÍ
  6
Continuous
100
AcDbLine
 10
368.1767297864371
 20
421.2522089637968
 30
0.0
 11
369.3766565628993
 21
416.4525018579479
 31
0.0
  0
LINE
  5
A152
330
1F
100
AcDbEntity
  8
SPOJOVACÍ
  6
Continuous
100
AcDbLine
 10
364.6792687940706
 20
420.8745575884859
 30
0.0
 11
366.0382556319109
 21
416.8301532288933
 31
0.0
  0
LINE
  5
A153
330
1F
100
AcDbEntity
  8
SPOJOVACÍ
  6
Continuous
100
AcDbLine
 10
365.2755114792253
 20
420.8745575884859
 30
0.0
 11
366.6344983167892
 21
416.8301532288933
 31
0.0
  0
LINE
  5
A154
330
1F
100
AcDbEntity
  8
SPOJOVACÍ
  6
Continuous
100
AcDbLine
 10
366.2568469439374
 20
416.4525018579479
 30
0.0
 11
366.0382556319109
 21
416.8301532288933
 31
0.0
  0
LINE
  5
A155
330
1F
100
AcDbEntity
  8
SPOJOVACÍ
  6
Continuous
100
AcDbLine
 10
366.2568469439374
 20
416.4525018579479
 30
0.0
 11
366.6344983167892
 21
416.8301532288933
 31
0.0
  0
LINE
  5
A156
330
1F
100
AcDbEntity
  8
SPOJOVACÍ
  6
Continuous
100
AcDbLine
 10
365.0569201671987
 20
421.2522089637968
 30
0.0
 11
364.6792687940706
 21
420.8745575884859
 31
0.0
  0
LINE
  5
A157
330
1F
100
AcDbEntity
  8
SPOJOVACÍ
  6
Continuous
100
AcDbLine
 10
365.0569201671987
 20
421.2522089637968
 30
0.0
 11
365.2755114792253
 21
420.8745575884859
 31
0.0
  0
LINE
  5
A158
330
1F
100
AcDbEntity
  8
SPOJOVACÍ
  6
Continuous
100
AcDbLine
 10
365.0569201671987
 20
421.2522089637968
 30
0.0
 11
366.2568469439374
 21
416.4525018579479
 31
0.0
  0
LINE
  5
A159
330
1F
100
AcDbEntity
  8
SPOJOVACÍ
  6
Continuous
100
AcDbLine
 10
361.5585289994069
 20
420.8745575884859
 30
0.0
 11
362.9184460126726
 21
416.8301532288933
 31
0.0
  0
LINE
  5
A15A
330
1F
100
AcDbEntity
  8
SPOJOVACÍ
  6
Continuous
100
AcDbLine
 10
362.1547716842851
 20
420.8745575884859
 30
0.0
 11
363.5146886978272
 21
416.8301532288933
 31
0.0
  0
LINE
  5
A15B
330
1F
100
AcDbEntity
  8
SPOJOVACÍ
  6
Continuous
100
AcDbLine
 10
363.1370373246991
 20
416.4525018579479
 30
0.0
 11
362.9184460126726
 21
416.8301532288933
 31
0.0
  0
LINE
  5
A15C
330
1F
100
AcDbEntity
  8
SPOJOVACÍ
  6
Continuous
100
AcDbLine
 10
363.1370373246991
 20
416.4525018579479
 30
0.0
 11
363.5146886978272
 21
416.8301532288933
 31
0.0
  0
LINE
  5
A15D
330
1F
100
AcDbEntity
  8
SPOJOVACÍ
  6
Continuous
100
AcDbLine
 10
361.9371105482368
 20
421.2522089637968
 30
0.0
 11
361.5585289994069
 21
420.8745575884859
 31
0.0
  0
LINE
  5
A15E
330
1F
100
AcDbEntity
  8
SPOJOVACÍ
  6
Continuous
100
AcDbLine
 10
361.9371105482368
 20
421.2522089637968
 30
0.0
 11
362.1547716842851
 21
420.8745575884859
 31
0.0
  0
LINE
  5
A15F
330
1F
100
AcDbEntity
  8
SPOJOVACÍ
  6
Continuous
100
AcDbLine
 10
361.9371105482368
 20
421.2522089637968
 30
0.0
 11
363.1370373246991
 21
416.4525018579479
 31
0.0
  0
LINE
  5
A160
330
1F
100
AcDbEntity
  8
SPOJOVACÍ
  6
Continuous
100
AcDbLine
 10
366.3982336647986
 20
417.5026703273215
 30
0.0
 11
368.9264514776677
 21
417.5026703273215
 31
0.0
  0
LINE
  5
A161
330
1F
100
AcDbEntity
  8
SPOJOVACÍ
  6
Continuous
100
AcDbLine
 10
363.2830749246149
 20
417.5026703273215
 30
0.0
 11
365.8019909796439
 21
417.5026703273215
 31
0.0
  0
LINE
  5
A162
330
1F
100
AcDbEntity
  8
SPOJOVACÍ
  6
Continuous
100
AcDbLine
 10
365.4922424395717
 20
420.2020404900577
 30
0.0
 11
368.0130188462808
 21
420.2020404900577
 31
0.0
  0
LINE
  5
A163
330
1F
100
AcDbEntity
  8
SPOJOVACÍ
  6
Continuous
100
AcDbLine
 10
362.369642293228
 20
420.2020404900577
 30
0.0
 11
364.888558348257
 21
420.2020404900577
 31
0.0
  0
LINE
  5
A164
330
1F
100
AcDbEntity
  8
SPOJOVACÍ
  6
Continuous
100
AcDbLine
 10
357.7364366543715
 20
420.2020404900577
 30
0.0
 11
361.7743297840515
 21
420.2020404900577
 31
0.0
  0
LINE
  5
A165
330
1F
100
AcDbEntity
  8
SPOJOVACÍ
  6
Continuous
100
AcDbLine
 10
357.7364366543715
 20
417.5026703273215
 30
0.0
 11
362.6793908333002
 21
417.5026703273215
 31
0.0
  0
LINE
  5
A166
330
1F
100
AcDbEntity
  8
SPOJOVACÍ
  6
Continuous
100
AcDbLine
 10
352.336766160015
 20
423.9525092995063
 30
0.0
 11
353.0809067964892
 21
422.6028242159554
 31
0.0
  0
LINE
  5
A167
330
1F
100
AcDbEntity
  8
SPOJOVACÍ
  6
Continuous
100
AcDbLine
 10
353.0809067964892
 20
422.6028242159554
 30
0.0
 11
354.1496787859014
 21
421.4921943155968
 31
0.0
  0
LINE
  5
A168
330
1F
100
AcDbEntity
  8
SPOJOVACÍ
  6
Continuous
100
AcDbLine
 10
354.1496787859014
 20
421.4921943155968
 30
0.0
 11
355.4686680641989
 21
420.6959638362786
 31
0.0
  0
LINE
  5
A169
330
1F
100
AcDbEntity
  8
SPOJOVACÍ
  6
Continuous
100
AcDbLine
 10
355.4686680641989
 20
420.6959638362786
 30
0.0
 11
356.9495079312491
 21
420.2680829719793
 31
0.0
  0
LINE
  5
A16A
330
1F
100
AcDbEntity
  8
SPOJOVACÍ
  6
Continuous
100
AcDbLine
 10
356.9495079312491
 20
420.2680829719793
 30
0.0
 11
357.7364366543715
 21
420.2020404900577
 31
0.0
  0
LINE
  5
A16B
330
1F
100
AcDbEntity
  8
SPOJOVACÍ
  6
Continuous
100
AcDbLine
 10
351.1368393832835
 20
423.9525092995063
 30
0.0
 11
352.336766160015
 21
423.9525092995063
 31
0.0
  0
LINE
  5
A16C
330
1F
100
AcDbEntity
  8
SPOJOVACÍ
  6
Continuous
100
AcDbLine
 10
357.7364366543715
 20
417.5026703273215
 30
0.0
 11
356.2128087009423
 21
417.2757074364381
 31
0.0
  0
LINE
  5
A16D
330
1F
100
AcDbEntity
  8
SPOJOVACÍ
  6
Continuous
100
AcDbLine
 10
356.2128087009423
 20
417.2757074364381
 30
0.0
 11
354.798941491239
 21
416.6627215872904
 31
0.0
  0
LINE
  5
A16E
330
1F
100
AcDbEntity
  8
SPOJOVACÍ
  6
Continuous
100
AcDbLine
 10
354.798941491239
 20
416.6627215872904
 30
0.0
 11
353.2745171815713
 21
415.4530474428138
 31
0.0
  0
LINE
  5
A16F
330
1F
100
AcDbEntity
  8
SPOJOVACÍ
  6
Continuous
100
AcDbLine
 10
374.03869765124
 20
420.8745575884859
 30
0.0
 11
375.3986146647821
 21
416.8301532288933
 31
0.0
  0
LINE
  5
A170
330
1F
100
AcDbEntity
  8
SPOJOVACÍ
  6
Continuous
100
AcDbLine
 10
374.6349403363947
 20
420.8745575884859
 30
0.0
 11
375.9948573499368
 21
416.8301532288933
 31
0.0
  0
LINE
  5
A171
330
1F
100
AcDbEntity
  8
SPOJOVACÍ
  6
Continuous
100
AcDbLine
 10
375.6172059768086
 20
416.4525018579479
 30
0.0
 11
375.3986146647821
 21
416.8301532288933
 31
0.0
  0
LINE
  5
A172
330
1F
100
AcDbEntity
  8
SPOJOVACÍ
  6
Continuous
100
AcDbLine
 10
375.6172059768086
 20
416.4525018579479
 30
0.0
 11
375.9948573499368
 21
416.8301532288933
 31
0.0
  0
LINE
  5
A173
330
1F
100
AcDbEntity
  8
SPOJOVACÍ
  6
Continuous
100
AcDbLine
 10
374.4172792003464
 20
421.2522089637968
 30
0.0
 11
374.03869765124
 21
420.8745575884859
 31
0.0
  0
LINE
  5
A174
330
1F
100
AcDbEntity
  8
SPOJOVACÍ
  6
Continuous
100
AcDbLine
 10
374.4172792003464
 20
421.2522089637968
 30
0.0
 11
374.6349403363947
 21
420.8745575884859
 31
0.0
  0
LINE
  5
A175
330
1F
100
AcDbEntity
  8
SPOJOVACÍ
  6
Continuous
100
AcDbLine
 10
374.4172792003464
 20
421.2522089637968
 30
0.0
 11
375.6172059768086
 21
416.4525018579479
 31
0.0
  0
LINE
  5
A176
330
1F
100
AcDbEntity
  8
SPOJOVACÍ
  6
Continuous
100
AcDbLine
 10
370.9188880322781
 20
420.8745575884859
 30
0.0
 11
372.2788050458202
 21
416.8301532288933
 31
0.0
  0
LINE
  5
A177
330
1F
100
AcDbEntity
  8
SPOJOVACÍ
  6
Continuous
100
AcDbLine
 10
371.5151307174255
 20
420.8745575884859
 30
0.0
 11
372.8750477306984
 21
416.8301532288933
 31
0.0
  0
LINE
  5
A178
330
1F
100
AcDbEntity
  8
SPOJOVACÍ
  6
Continuous
100
AcDbLine
 10
372.4964661818685
 20
416.4525018579479
 30
0.0
 11
372.2788050458202
 21
416.8301532288933
 31
0.0
  0
LINE
  5
A179
330
1F
100
AcDbEntity
  8
SPOJOVACÍ
  6
Continuous
100
AcDbLine
 10
372.4964661818685
 20
416.4525018579479
 30
0.0
 11
372.8750477306984
 21
416.8301532288933
 31
0.0
  0
LINE
  5
A17A
330
1F
100
AcDbEntity
  8
SPOJOVACÍ
  6
Continuous
100
AcDbLine
 10
371.2965394054062
 20
421.2522089637968
 30
0.0
 11
370.9188880322781
 21
420.8745575884859
 31
0.0
  0
LINE
  5
A17B
330
1F
100
AcDbEntity
  8
SPOJOVACÍ
  6
Continuous
100
AcDbLine
 10
371.2965394054062
 20
421.2522089637968
 30
0.0
 11
371.5151307174255
 21
420.8745575884859
 31
0.0
  0
LINE
  5
A17C
330
1F
100
AcDbEntity
  8
SPOJOVACÍ
  6
Continuous
100
AcDbLine
 10
371.2965394054062
 20
421.2522089637968
 30
0.0
 11
372.4964661818685
 21
416.4525018579479
 31
0.0
  0
LINE
  5
A17D
330
1F
100
AcDbEntity
  8
SPOJOVACÍ
  6
Continuous
100
AcDbLine
 10
383.5227700652776
 20
419.8690375527985
 30
0.0
 11
383.8334487810516
 21
417.7147504113418
 31
0.0
  0
LINE
  5
A17E
330
1F
100
AcDbEntity
  8
SPOJOVACÍ
  6
Continuous
100
AcDbLine
 10
383.1451186921494
 20
419.4913861818531
 30
0.0
 11
383.6157876447341
 21
418.0924017822872
 31
0.0
  0
LINE
  5
A17F
330
1F
100
AcDbEntity
  8
SPOJOVACÍ
  6
Continuous
100
AcDbLine
 10
383.7413613772969
 20
419.4913861818531
 30
0.0
 11
384.2120303298816
 21
418.0924017822872
 31
0.0
  0
LINE
  5
A180
330
1F
100
AcDbEntity
  8
SPOJOVACÍ
  6
Continuous
100
AcDbLine
 10
383.8334487810516
 20
417.7147504113418
 30
0.0
 11
383.6157876447341
 21
418.0924017822872
 31
0.0
  0
LINE
  5
A181
330
1F
100
AcDbEntity
  8
SPOJOVACÍ
  6
Continuous
100
AcDbLine
 10
383.8334487810516
 20
417.7147504113418
 30
0.0
 11
384.2120303298816
 21
418.0924017822872
 31
0.0
  0
LINE
  5
A182
330
1F
100
AcDbEntity
  8
SPOJOVACÍ
  6
Continuous
100
AcDbLine
 10
383.5227700652776
 20
419.8690375527985
 30
0.0
 11
383.1451186921494
 21
419.4913861818531
 31
0.0
  0
LINE
  5
A183
330
1F
100
AcDbEntity
  8
SPOJOVACÍ
  6
Continuous
100
AcDbLine
 10
383.5227700652776
 20
419.8690375527985
 30
0.0
 11
383.7413613772969
 21
419.4913861818531
 31
0.0
  0
LINE
  5
A184
330
1F
100
AcDbEntity
  8
SPOJOVACÍ
  6
Continuous
100
AcDbLine
 10
380.509000486958
 20
420.43365426327
 30
0.0
 11
381.1424502037279
 21
417.3175653468388
 31
0.0
  0
LINE
  5
A185
330
1F
100
AcDbEntity
  8
SPOJOVACÍ
  6
Continuous
100
AcDbLine
 10
380.1304189378516
 20
420.056002887959
 30
0.0
 11
380.9247890676797
 21
417.6952167177842
 31
0.0
  0
LINE
  5
A186
330
1F
100
AcDbEntity
  8
SPOJOVACÍ
  6
Continuous
100
AcDbLine
 10
380.7266616230062
 20
420.056002887959
 30
0.0
 11
381.5210317525579
 21
417.6952167177842
 31
0.0
  0
LINE
  5
A187
330
1F
100
AcDbEntity
  8
SPOJOVACÍ
  6
Continuous
100
AcDbLine
 10
381.1424502037279
 20
417.3175653468388
 30
0.0
 11
380.9247890676797
 21
417.6952167177842
 31
0.0
  0
LINE
  5
A188
330
1F
100
AcDbEntity
  8
SPOJOVACÍ
  6
Continuous
100
AcDbLine
 10
381.1424502037279
 20
417.3175653468388
 30
0.0
 11
381.5210317525579
 21
417.6952167177842
 31
0.0
  0
LINE
  5
A189
330
1F
100
AcDbEntity
  8
SPOJOVACÍ
  6
Continuous
100
AcDbLine
 10
380.509000486958
 20
420.43365426327
 30
0.0
 11
380.1304189378516
 21
420.056002887959
 31
0.0
  0
LINE
  5
A18A
330
1F
100
AcDbEntity
  8
SPOJOVACÍ
  6
Continuous
100
AcDbLine
 10
380.509000486958
 20
420.43365426327
 30
0.0
 11
380.7266616230062
 21
420.056002887959
 31
0.0
  0
LINE
  5
A18B
330
1F
100
AcDbEntity
  8
SPOJOVACÍ
  6
Continuous
100
AcDbLine
 10
377.4943007326601
 20
420.9982709693758
 30
0.0
 11
378.4672646149647
 21
416.8729413166329
 31
0.0
  0
LINE
  5
A18C
330
1F
100
AcDbEntity
  8
SPOJOVACÍ
  6
Continuous
100
AcDbLine
 10
377.1166493595319
 20
420.6196894210916
 30
0.0
 11
378.2496034789164
 21
417.2505926875783
 31
0.0
  0
LINE
  5
A18D
330
1F
100
AcDbEntity
  8
SPOJOVACÍ
  6
Continuous
100
AcDbLine
 10
377.7128920446866
 20
420.6196894210916
 30
0.0
 11
378.8458461640711
 21
417.2505926875783
 31
0.0
  0
LINE
  5
A18E
330
1F
100
AcDbEntity
  8
SPOJOVACÍ
  6
Continuous
100
AcDbLine
 10
378.4672646149647
 20
416.8729413166329
 30
0.0
 11
378.2496034789164
 21
417.2505926875783
 31
0.0
  0
LINE
  5
A18F
330
1F
100
AcDbEntity
  8
SPOJOVACÍ
  6
Continuous
100
AcDbLine
 10
378.4672646149647
 20
416.8729413166329
 30
0.0
 11
378.8458461640711
 21
417.2505926875783
 31
0.0
  0
LINE
  5
A190
330
1F
100
AcDbEntity
  8
SPOJOVACÍ
  6
Continuous
100
AcDbLine
 10
377.4943007326601
 20
420.9982709693758
 30
0.0
 11
377.1166493595319
 21
420.6196894210916
 31
0.0
  0
LINE
  5
A191
330
1F
100
AcDbEntity
  8
SPOJOVACÍ
  6
Continuous
100
AcDbLine
 10
377.4943007326601
 20
420.9982709693758
 30
0.0
 11
377.7128920446866
 21
420.6196894210916
 31
0.0
  0
LINE
  5
A192
330
1F
100
AcDbEntity
  8
SPOJOVACÍ
  6
Continuous
100
AcDbLine
 10
378.0728700775671
 20
417.7482367387892
 30
0.0
 11
376.1018275662809
 21
417.5026703273215
 31
0.0
  0
LINE
  5
A193
330
1F
100
AcDbEntity
  8
SPOJOVACÍ
  6
Continuous
100
AcDbLine
 10
380.7796816434656
 20
418.0868207313506
 30
0.0
 11
378.6430678406123
 21
417.819860276013
 31
0.0
  0
LINE
  5
A194
330
1F
100
AcDbEntity
  8
SPOJOVACÍ
  6
Continuous
100
AcDbLine
 10
383.4967251428988
 20
418.4263348925196
 30
0.0
 11
381.3517397579143
 21
418.1584442642088
 31
0.0
  0
LINE
  5
A195
330
1F
100
AcDbEntity
  8
SPOJOVACÍ
  6
Continuous
100
AcDbLine
 10
383.8129849134293
 20
419.238378364771
 30
0.0
 11
386.9020987312342
 21
418.8523554108724
 31
0.0
  0
LINE
  5
A196
330
1F
100
AcDbEntity
  8
SPOJOVACÍ
  6
Continuous
100
AcDbLine
 10
380.8717690472203
 20
419.6057978024509
 30
0.0
 11
383.1925576575759
 21
419.315582957297
 31
0.0
  0
LINE
  5
A197
330
1F
100
AcDbEntity
  8
SPOJOVACÍ
  6
Continuous
100
AcDbLine
 10
377.9193910714912
 20
419.9750775948086
 30
0.0
 11
380.2411098575557
 21
419.6848627452891
 31
0.0
  0
LINE
  5
A198
330
1F
100
AcDbEntity
  8
SPOJOVACÍ
  6
Continuous
100
AcDbLine
 10
386.9020987312342
 20
418.8523554108724
 30
0.0
 11
384.0659927299657
 21
418.4979584297434
 31
0.0
  0
LINE
  5
A199
330
1F
100
AcDbEntity
  8
SPOJOVACÍ
  6
Continuous
100
AcDbLine
 10
376.1018275662809
 20
420.2020404900577
 30
0.0
 11
377.2989638156377
 21
420.0522821873346
 31
0.0
  0
LINE
  5
A19A
330
1F
100
AcDbEntity
  8
SPOJOVACÍ
  6
Continuous
100
AcDbLine
 10
375.7651039283973
 20
417.5026703273215
 30
0.0
 11
376.1018275662809
 21
417.5026703273215
 31
0.0
  0
LINE
  5
A19B
330
1F
100
AcDbEntity
  8
SPOJOVACÍ
  6
Continuous
100
AcDbLine
 10
372.6425037817843
 20
417.5026703273215
 30
0.0
 11
375.1614198368133
 21
417.5026703273215
 31
0.0
  0
LINE
  5
A19C
330
1F
100
AcDbEntity
  8
SPOJOVACÍ
  6
Continuous
100
AcDbLine
 10
374.8544618243922
 20
420.2020404900577
 30
0.0
 11
376.1018275662809
 21
420.2020404900577
 31
0.0
  0
LINE
  5
A19D
330
1F
100
AcDbEntity
  8
SPOJOVACÍ
  6
Continuous
100
AcDbLine
 10
371.7402332599103
 20
420.2020404900577
 30
0.0
 11
374.2582191392375
 21
420.2020404900577
 31
0.0
  0
LINE
  5
A19E
330
1F
100
AcDbEntity
  8
SPOJOVACÍ
  6
Continuous
100
AcDbLine
 10
369.5208338111424
 20
417.5026703273215
 30
0.0
 11
372.0416102178514
 21
417.5026703273215
 31
0.0
  0
LINE
  5
A19F
330
1F
100
AcDbEntity
  8
SPOJOVACÍ
  6
Continuous
100
AcDbLine
 10
368.6074011797554
 20
420.2020404900577
 30
0.0
 11
371.1356189926245
 21
420.2020404900577
 31
0.0
  0
LINE
  5
A1A0
330
1F
100
AcDbEntity
  8
CETRIS
100
AcDbLine
 10
365.1191696343939
 20
395.2077046298763
 30
0.0
 11
351.119169634394
 21
395.2077046298782
 31
0.0
  0
LINE
  5
A1A1
330
1F
100
AcDbEntity
  8
CETRIS
100
AcDbLine
 10
366.1587536124698
 20
395.2077046298763
 30
0.0
 11
366.1587536124698
 21
409.2077046298763
 31
0.0
  0
LINE
  5
A1A2
330
1F
100
AcDbEntity
  8
NOSNÉ KONSTRUKCE
100
AcDbLine
 10
367.9020929406451
 20
434.9371043602477
 30
0.0
 11
367.9020929406451
 21
409.9371043602495
 31
0.0
  0
LINE
  5
A1A3
330
1F
100
AcDbEntity
  8
NOSNÉ KONSTRUKCE
100
AcDbLine
 10
525.8809845992418
 20
409.9371043602477
 30
0.0
 11
367.9020929406451
 21
409.9371043602495
 31
0.0
  0
LINE
  5
A1A4
330
1F
100
AcDbEntity
  8
NOSNÉ KONSTRUKCE
100
AcDbLine
 10
525.8809845992418
 20
434.9371043602477
 30
0.0
 11
525.8809845992418
 21
409.9371043602477
 31
0.0
  0
LINE
  5
A1A5
330
1F
100
AcDbEntity
  8
NOSNÉ KONSTRUKCE
100
AcDbLine
 10
367.9020929406451
 20
434.9371043602477
 30
0.0
 11
525.8809845992418
 21
434.9371043602477
 31
0.0
  0
LINE
  5
A1A6
330
1F
100
AcDbEntity
  8
CETRIS
100
AcDbLine
 10
351.119169634394
 20
734.5111073874322
 30
0.0
 11
351.119169634394
 21
395.2077046298782
 31
0.0
  0
LINE
  5
A1A7
330
1F
100
AcDbEntity
  8
CETRIS
100
AcDbLine
 10
365.1191696343939
 20
734.5111073874322
 30
0.0
 11
351.119169634394
 21
734.5111073874322
 31
0.0
  0
LINE
  5
A1A8
330
1F
100
AcDbEntity
  8
CETRIS
100
AcDbLine
 10
365.1191696343939
 20
734.5111073874322
 30
0.0
 11
365.1191696343939
 21
395.2077046298763
 31
0.0
  0
LINE
  5
A1A9
330
1F
100
AcDbEntity
  8
NOSNÉ KONSTRUKCE
100
AcDbLine
 10
502.8506203927008
 20
448.8738234094816
 30
0.0
 11
527.8506203927045
 21
448.8738234094816
 31
0.0
  0
LINE
  5
A1AA
330
1F
100
AcDbEntity
  8
NOSNÉ KONSTRUKCE
100
AcDbLine
 10
502.8506203927045
 20
726.2194209394838
 30
0.0
 11
502.8506203927008
 21
448.8738234094816
 31
0.0
  0
LINE
  5
A1AB
330
1F
100
AcDbEntity
  8
NOSNÉ KONSTRUKCE
100
AcDbLine
 10
527.8506203927008
 20
726.2194209394838
 30
0.0
 11
527.8506203927008
 21
448.8738234094816
 31
0.0
  0
LINE
  5
A1AC
330
1F
100
AcDbEntity
  8
NOSNÉ KONSTRUKCE
100
AcDbLine
 10
502.8506203927045
 20
726.2194209394838
 30
0.0
 11
527.8506203927008
 21
726.2194209394838
 31
0.0
  0
LINE
  5
A1AD
330
1F
100
AcDbEntity
  8
NOSNÉ KONSTRUKCE
100
AcDbLine
 10
390.8506203927045
 20
726.2194209394838
 30
0.0
 11
365.8506203927081
 21
726.2194209394838
 31
0.0
  0
HATCH
  5
A1AE
330
1F
100
AcDbEntity
  8
STAVBA OBRYS
100
AcDbHatch
 10
0.0
 20
0.0
 30
0.0
210
0.0
220
0.0
230
1.0
  2
ANSI37
 70
     0
 71
     0
 91
        1
 92
        7
 72
     1
 73
     1
 93
       16
 10
522.8506203927081
 20
739.5111073874322
 42
0.0
 10
370.8506203927081
 20
739.5111073874304
 42
0.0
 10
370.8506203927081
 20
726.8109120749304
 42
0.0
 10
427.8506203927045
 20
726.8109120749322
 42
-0.4142135623730847
 10
442.8506203927045
 20
711.8109120749323
 42
0.0
 10
442.8506203927045
 20
463.2113026999323
 42
-0.4142135623731522
 10
427.8506203927008
 20
448.2113026999322
 42
0.0
 10
370.8506203927045
 20
448.2113026999305
 42
0.0
 10
370.8506203927045
 20
435.5111073874304
 42
0.0
 10
522.8506203927045
 20
435.5111073874322
 42
0.0
 10
522.8506203927045
 20
448.2113026999322
 42
0.0
 10
465.8506203927045
 20
448.2113026999322
 42
-0.4142135623730809
 10
450.8506203927045
 20
463.2113026999304
 42
0.0
 10
450.8506203927045
 20
711.8109120749323
 42
-0.4142135623730937
 10
465.8506203927045
 20
726.8109120749322
 42
0.0
 10
522.8506203927045
 20
726.8109120749322
 42
0.0
 97
        0
 75
     0
 76
     1
 52
90.0
 41
1.0
 77
     0
 78
     2
 53
135.0
 43
-30315.79204730518
 44
-11160.68865162299
 45
-2.245064030267288
 46
-2.245064030267287
 79
     0
 53
225.0
 43
-30315.79204730518
 44
-11160.68865162299
 45
2.245064030267287
 46
-2.245064030267288
 79
     0
 47
1.101153867433874
 98
        1
 10
447.2556552651858
 20
730.2763249734798
  0
LINE
  5
A1AF
330
1F
100
AcDbEntity
  8
STAVBA OBRYS
100
AcDbLine
 10
522.8506203927045
 20
448.2113026999322
 30
0.0
 11
522.8506203927045
 21
435.5111073874322
 31
0.0
  0
LINE
  5
A1B0
330
1F
100
AcDbEntity
  8
STAVBA OBRYS
100
AcDbLine
 10
370.8506203927045
 20
448.2113026999322
 30
0.0
 11
370.8506203927045
 21
435.5111073874322
 31
0.0
  0
ARC
  5
A1B1
330
1F
100
AcDbEntity
  8
STAVBA OBRYS
100
AcDbCircle
 10
427.8506203927045
 20
463.2113026999323
 30
0.0
 40
15.0
100
AcDbArc
 50
270.0000111559617
 51
0.00001366037834
  0
LINE
  5
A1B2
330
1F
100
AcDbEntity
  8
STAVBA OBRYS
100
AcDbLine
 10
427.8506203927045
 20
448.2113026999322
 30
0.0
 11
370.8506203927045
 21
448.2113026999322
 31
0.0
  0
ARC
  5
A1B3
330
1F
100
AcDbEntity
  8
STAVBA OBRYS
100
AcDbCircle
 10
465.8506203927045
 20
463.2113026999323
 30
0.0
 40
15.0
100
AcDbArc
 50
179.9999230466673
 51
269.9999255511881
  0
LINE
  5
A1B4
330
1F
100
AcDbEntity
  8
STAVBA OBRYS
100
AcDbLine
 10
370.8506203927045
 20
435.5111073874322
 30
0.0
 11
522.8506203927045
 21
435.5111073874322
 31
0.0
  0
LINE
  5
A1B5
330
1F
100
AcDbEntity
  8
STAVBA OBRYS
100
AcDbLine
 10
465.8506203927045
 20
448.2113026999322
 30
0.0
 11
522.8506203927045
 21
448.2113026999322
 31
0.0
  0
LINE
  5
A1B6
330
1F
100
AcDbEntity
  8
STAVBA OBRYS
100
AcDbLine
 10
522.8506203927045
 20
739.5111073874322
 30
0.0
 11
522.8506203927045
 21
726.8109120749322
 31
0.0
  0
ARC
  5
A1B7
330
1F
100
AcDbEntity
  8
STAVBA OBRYS
100
AcDbCircle
 10
427.8506203927045
 20
711.8109120749323
 30
0.0
 40
15.0
100
AcDbArc
 50
359.9999316981083
 51
89.9999342025249
  0
LINE
  5
A1B8
330
1F
100
AcDbEntity
  8
STAVBA OBRYS
100
AcDbLine
 10
442.8506203927045
 20
711.8109120749323
 30
0.0
 11
442.8506203927045
 21
463.2113026999323
 31
0.0
  0
ARC
  5
A1B9
330
1F
100
AcDbEntity
  8
STAVBA OBRYS
100
AcDbCircle
 10
465.8506203927045
 20
711.8109120749323
 30
0.0
 40
15.0
100
AcDbArc
 50
90.00000250441658
 51
180.0000050089374
  0
LINE
  5
A1BA
330
1F
100
AcDbEntity
  8
STAVBA OBRYS
100
AcDbLine
 10
465.8506203927045
 20
726.8109120749322
 30
0.0
 11
522.8506203927045
 21
726.8109120749322
 31
0.0
  0
LINE
  5
A1BB
330
1F
100
AcDbEntity
  8
STAVBA OBRYS
100
AcDbLine
 10
450.8506203927045
 20
711.8109120749323
 30
0.0
 11
450.8506203927045
 21
463.2113026999323
 31
0.0
  0
LINE
  5
A1BC
330
1F
100
AcDbEntity
  8
STAVBA OBRYS
100
AcDbLine
 10
370.8506203927045
 20
739.5111073874322
 30
0.0
 11
370.8506203927045
 21
726.8109120749322
 31
0.0
  0
LINE
  5
A1BD
330
1F
100
AcDbEntity
  8
STAVBA OBRYS
100
AcDbLine
 10
427.8506203927045
 20
726.8109120749322
 30
0.0
 11
370.8506203927045
 21
726.8109120749322
 31
0.0
  0
LINE
  5
A1BE
330
1F
100
AcDbEntity
  8
STAVBA OBRYS
100
AcDbLine
 10
370.8506203927045
 20
739.5111073874322
 30
0.0
 11
522.8506203927045
 21
739.5111073874322
 31
0.0
  0
LINE
  5
A1BF
330
1F
100
AcDbEntity
  8
NOSNÉ KONSTRUKCE
100
AcDbLine
 10
390.8506203927081
 20
448.8738234094816
 30
0.0
 11
365.8506203927045
 21
448.8738234094816
 31
0.0
  0
LINE
  5
A1C0
330
1F
100
AcDbEntity
  8
NOSNÉ KONSTRUKCE
100
AcDbLine
 10
390.8506203927045
 20
726.2194209394838
 30
0.0
 11
390.8506203927081
 21
448.8738234094816
 31
0.0
  0
LINE
  5
A1C1
330
1F
100
AcDbEntity
  8
NOSNÉ KONSTRUKCE
100
AcDbLine
 10
365.8506203927081
 20
726.2194209394838
 30
0.0
 11
365.8506203927081
 21
448.8738234094816
 31
0.0
  0
LINE
  5
A1C2
330
1F
100
AcDbEntity
  8
CETRIS
100
AcDbLine
 10
366.1587536124698
 20
409.2077046298763
 30
0.0
 11
527.6243239274172
 21
409.2077046298763
 31
0.0
  0
LINE
  5
A1C3
330
1F
100
AcDbEntity
  8
CETRIS
100
AcDbLine
 10
366.1587536124698
 20
395.2077046298763
 30
0.0
 11
527.6243239274172
 21
395.2077046298763
 31
0.0
  0
LINE
  5
A1C4
330
1F
100
AcDbEntity
  8
STAVBA OBRYS
100
AcDbLine
 10
115.8730798641026
 20
739.5111073874322
 30
0.0
 11
778.587150063051
 21
739.5111073874322
 31
0.0
  0
LWPOLYLINE
  5
A1C5
330
1F
100
AcDbEntity
  8
izolace
100
AcDbPolyline
 90
        4
 70
     1
 43
0.0
 10
365.1191696343939
 20
734.5111073874322
 10
365.1191696343939
 20
739.5111073874322
 10
351.119169634394
 20
739.5111073874322
 10
351.119169634394
 20
734.5111073874322
  0
LINE
  5
A1C6
330
1F
100
AcDbEntity
  8
SPOJOVACÍ
  6
Continuous
100
AcDbLine
 10
402.1056877042556
 20
396.4076314066078
 30
0.0
 11
400.4048417836802
 21
397.3453824281641
 31
0.0
  0
LINE
  5
A1C7
330
1F
100
AcDbEntity
  8
SPOJOVACÍ
  6
Continuous
100
AcDbLine
 10
402.1056877042556
 20
395.2077046298763
 30
0.0
 11
402.1056877042556
 21
396.4076314066078
 31
0.0
  0
LINE
  5
A1C8
330
1F
100
AcDbEntity
  8
SPOJOVACÍ
  6
Continuous
100
AcDbLine
 10
394.9833316380081
 20
411.8699436599017
 30
0.0
 11
399.0277359976007
 21
413.2298606731747
 31
0.0
  0
LINE
  5
A1C9
330
1F
100
AcDbEntity
  8
SPOJOVACÍ
  6
Continuous
100
AcDbLine
 10
394.9833316380081
 20
412.4661863450564
 30
0.0
 11
399.0277359976007
 21
413.8261033583221
 31
0.0
  0
LINE
  5
A1CA
330
1F
100
AcDbEntity
  8
SPOJOVACÍ
  6
Continuous
100
AcDbLine
 10
399.4053873685461
 20
413.4475218094921
 30
0.0
 11
399.0277359976007
 21
413.2298606731747
 31
0.0
  0
LINE
  5
A1CB
330
1F
100
AcDbEntity
  8
SPOJOVACÍ
  6
Continuous
100
AcDbLine
 10
399.4053873685461
 20
413.4475218094921
 30
0.0
 11
399.0277359976007
 21
413.8261033583221
 31
0.0
  0
LINE
  5
A1CC
330
1F
100
AcDbEntity
  8
SPOJOVACÍ
  6
Continuous
100
AcDbLine
 10
394.6056802626971
 20
412.2475950330299
 30
0.0
 11
394.9833316380081
 21
411.8699436599017
 31
0.0
  0
LINE
  5
A1CD
330
1F
100
AcDbEntity
  8
SPOJOVACÍ
  6
Continuous
100
AcDbLine
 10
394.6056802626971
 20
412.2475950330299
 30
0.0
 11
394.9833316380081
 21
412.4661863450564
 31
0.0
  0
LINE
  5
A1CE
330
1F
100
AcDbEntity
  8
SPOJOVACÍ
  6
Continuous
100
AcDbLine
 10
394.6056802626971
 20
412.2475950330299
 30
0.0
 11
399.4053873685461
 21
413.4475218094921
 31
0.0
  0
LINE
  5
A1CF
330
1F
100
AcDbEntity
  8
SPOJOVACÍ
  6
Continuous
100
AcDbLine
 10
394.9833316380081
 20
408.7501340406634
 30
0.0
 11
399.0277359976007
 21
410.1091208785037
 31
0.0
  0
LINE
  5
A1D0
330
1F
100
AcDbEntity
  8
SPOJOVACÍ
  6
Continuous
100
AcDbLine
 10
394.9833316380081
 20
409.3463767258181
 30
0.0
 11
399.0277359976007
 21
410.7053635633819
 31
0.0
  0
LINE
  5
A1D1
330
1F
100
AcDbEntity
  8
SPOJOVACÍ
  6
Continuous
100
AcDbLine
 10
399.4053873685461
 20
410.3277121905303
 30
0.0
 11
399.0277359976007
 21
410.1091208785037
 31
0.0
  0
LINE
  5
A1D2
330
1F
100
AcDbEntity
  8
SPOJOVACÍ
  6
Continuous
100
AcDbLine
 10
399.4053873685461
 20
410.3277121905303
 30
0.0
 11
399.0277359976007
 21
410.7053635633819
 31
0.0
  0
LINE
  5
A1D3
330
1F
100
AcDbEntity
  8
SPOJOVACÍ
  6
Continuous
100
AcDbLine
 10
394.6056802626971
 20
409.1277854137915
 30
0.0
 11
394.9833316380081
 21
408.7501340406634
 31
0.0
  0
LINE
  5
A1D4
330
1F
100
AcDbEntity
  8
SPOJOVACÍ
  6
Continuous
100
AcDbLine
 10
394.6056802626971
 20
409.1277854137915
 30
0.0
 11
394.9833316380081
 21
409.3463767258181
 31
0.0
  0
LINE
  5
A1D5
330
1F
100
AcDbEntity
  8
SPOJOVACÍ
  6
Continuous
100
AcDbLine
 10
394.6056802626971
 20
409.1277854137915
 30
0.0
 11
399.4053873685461
 21
410.3277121905303
 31
0.0
  0
LINE
  5
A1D6
330
1F
100
AcDbEntity
  8
SPOJOVACÍ
  6
Continuous
100
AcDbLine
 10
394.9833316380081
 20
405.6293942459997
 30
0.0
 11
399.0277359976007
 21
406.9893112592653
 31
0.0
  0
LINE
  5
A1D7
330
1F
100
AcDbEntity
  8
SPOJOVACÍ
  6
Continuous
100
AcDbLine
 10
394.9833316380081
 20
406.2256369308779
 30
0.0
 11
399.0277359976007
 21
407.5855539444201
 31
0.0
  0
LINE
  5
A1D8
330
1F
100
AcDbEntity
  8
SPOJOVACÍ
  6
Continuous
100
AcDbLine
 10
399.4053873685461
 20
407.2079025712919
 30
0.0
 11
399.0277359976007
 21
406.9893112592653
 31
0.0
  0
LINE
  5
A1D9
330
1F
100
AcDbEntity
  8
SPOJOVACÍ
  6
Continuous
100
AcDbLine
 10
399.4053873685461
 20
407.2079025712919
 30
0.0
 11
399.0277359976007
 21
407.5855539444201
 31
0.0
  0
LINE
  5
A1DA
330
1F
100
AcDbEntity
  8
SPOJOVACÍ
  6
Continuous
100
AcDbLine
 10
394.6056802626971
 20
406.0079757948297
 30
0.0
 11
394.9833316380081
 21
405.6293942459997
 31
0.0
  0
LINE
  5
A1DB
330
1F
100
AcDbEntity
  8
SPOJOVACÍ
  6
Continuous
100
AcDbLine
 10
394.6056802626971
 20
406.0079757948297
 30
0.0
 11
394.9833316380081
 21
406.2256369308779
 31
0.0
  0
LINE
  5
A1DC
330
1F
100
AcDbEntity
  8
SPOJOVACÍ
  6
Continuous
100
AcDbLine
 10
394.6056802626971
 20
406.0079757948297
 30
0.0
 11
399.4053873685461
 21
407.2079025712919
 31
0.0
  0
LINE
  5
A1DD
330
1F
100
AcDbEntity
  8
SPOJOVACÍ
  6
Continuous
100
AcDbLine
 10
398.3552188991725
 20
410.4690989113914
 30
0.0
 11
398.3552188991725
 21
412.9973167242606
 31
0.0
  0
LINE
  5
A1DE
330
1F
100
AcDbEntity
  8
SPOJOVACÍ
  6
Continuous
100
AcDbLine
 10
398.3552188991725
 20
407.3539401712078
 30
0.0
 11
398.3552188991725
 21
409.8728562262367
 31
0.0
  0
LINE
  5
A1DF
330
1F
100
AcDbEntity
  8
SPOJOVACÍ
  6
Continuous
100
AcDbLine
 10
395.6558487364363
 20
409.5631076861645
 30
0.0
 11
395.6558487364363
 21
412.0838840928736
 31
0.0
  0
LINE
  5
A1E0
330
1F
100
AcDbEntity
  8
SPOJOVACÍ
  6
Continuous
100
AcDbLine
 10
395.6558487364363
 20
406.4405075398208
 30
0.0
 11
395.6558487364363
 21
408.9594235948498
 31
0.0
  0
LINE
  5
A1E1
330
1F
100
AcDbEntity
  8
SPOJOVACÍ
  6
Continuous
100
AcDbLine
 10
395.6558487364363
 20
401.8073019009643
 30
0.0
 11
395.6558487364363
 21
405.8451950306444
 31
0.0
  0
LINE
  5
A1E2
330
1F
100
AcDbEntity
  8
SPOJOVACÍ
  6
Continuous
100
AcDbLine
 10
398.3552188991725
 20
401.8073019009643
 30
0.0
 11
398.3552188991725
 21
406.750256079893
 31
0.0
  0
LINE
  5
A1E3
330
1F
100
AcDbEntity
  8
SPOJOVACÍ
  6
Continuous
100
AcDbLine
 10
393.2550650105385
 20
397.151772043082
 30
0.0
 11
394.3656949108972
 21
398.2205440324942
 31
0.0
  0
LINE
  5
A1E4
330
1F
100
AcDbEntity
  8
SPOJOVACÍ
  6
Continuous
100
AcDbLine
 10
394.3656949108972
 20
398.2205440324942
 30
0.0
 11
395.1619253902153
 21
399.5395333107917
 31
0.0
  0
LINE
  5
A1E5
330
1F
100
AcDbEntity
  8
SPOJOVACÍ
  6
Continuous
100
AcDbLine
 10
395.1619253902153
 20
399.5395333107917
 30
0.0
 11
395.5898062545147
 21
401.0203731778419
 31
0.0
  0
LINE
  5
A1E6
330
1F
100
AcDbEntity
  8
SPOJOVACÍ
  6
Continuous
100
AcDbLine
 10
395.5898062545147
 20
401.0203731778419
 30
0.0
 11
395.6558487364363
 21
401.8073019009643
 31
0.0
  0
LINE
  5
A1E7
330
1F
100
AcDbEntity
  8
SPOJOVACÍ
  6
Continuous
100
AcDbLine
 10
398.3552188991725
 20
401.8073019009643
 30
0.0
 11
398.5821817900559
 21
400.2836739475351
 31
0.0
  0
LINE
  5
A1E8
330
1F
100
AcDbEntity
  8
SPOJOVACÍ
  6
Continuous
100
AcDbLine
 10
398.5821817900559
 20
400.2836739475351
 30
0.0
 11
399.1951676392036
 21
398.8698067378318
 31
0.0
  0
LINE
  5
A1E9
330
1F
100
AcDbEntity
  8
SPOJOVACÍ
  6
Continuous
100
AcDbLine
 10
399.1951676392036
 20
398.8698067378318
 30
0.0
 11
400.4048417836802
 21
397.3453824281641
 31
0.0
  0
LINE
  5
A1EA
330
1F
100
AcDbEntity
  8
SPOJOVACÍ
  6
Continuous
100
AcDbLine
 10
394.9833316380081
 20
418.1095628978328
 30
0.0
 11
399.0277359976007
 21
419.4694799113749
 31
0.0
  0
LINE
  5
A1EB
330
1F
100
AcDbEntity
  8
SPOJOVACÍ
  6
Continuous
100
AcDbLine
 10
394.9833316380081
 20
418.7058055829875
 30
0.0
 11
399.0277359976007
 21
420.0657225965296
 31
0.0
  0
LINE
  5
A1EC
330
1F
100
AcDbEntity
  8
SPOJOVACÍ
  6
Continuous
100
AcDbLine
 10
399.4053873685461
 20
419.6880712234015
 30
0.0
 11
399.0277359976007
 21
419.4694799113749
 31
0.0
  0
LINE
  5
A1ED
330
1F
100
AcDbEntity
  8
SPOJOVACÍ
  6
Continuous
100
AcDbLine
 10
399.4053873685461
 20
419.6880712234015
 30
0.0
 11
399.0277359976007
 21
420.0657225965296
 31
0.0
  0
LINE
  5
A1EE
330
1F
100
AcDbEntity
  8
SPOJOVACÍ
  6
Continuous
100
AcDbLine
 10
394.6056802626971
 20
418.4881444469392
 30
0.0
 11
394.9833316380081
 21
418.1095628978328
 31
0.0
  0
LINE
  5
A1EF
330
1F
100
AcDbEntity
  8
SPOJOVACÍ
  6
Continuous
100
AcDbLine
 10
394.6056802626971
 20
418.4881444469392
 30
0.0
 11
394.9833316380081
 21
418.7058055829875
 31
0.0
  0
LINE
  5
A1F0
330
1F
100
AcDbEntity
  8
SPOJOVACÍ
  6
Continuous
100
AcDbLine
 10
394.6056802626971
 20
418.4881444469392
 30
0.0
 11
399.4053873685461
 21
419.6880712234015
 31
0.0
  0
LINE
  5
A1F1
330
1F
100
AcDbEntity
  8
SPOJOVACÍ
  6
Continuous
100
AcDbLine
 10
394.9833316380081
 20
414.9897532788709
 30
0.0
 11
399.0277359976007
 21
416.349670292413
 31
0.0
  0
LINE
  5
A1F2
330
1F
100
AcDbEntity
  8
SPOJOVACÍ
  6
Continuous
100
AcDbLine
 10
394.9833316380081
 20
415.5859959640183
 30
0.0
 11
399.0277359976007
 21
416.9459129772913
 31
0.0
  0
LINE
  5
A1F3
330
1F
100
AcDbEntity
  8
SPOJOVACÍ
  6
Continuous
100
AcDbLine
 10
399.4053873685461
 20
416.5673314284613
 30
0.0
 11
399.0277359976007
 21
416.349670292413
 31
0.0
  0
LINE
  5
A1F4
330
1F
100
AcDbEntity
  8
SPOJOVACÍ
  6
Continuous
100
AcDbLine
 10
399.4053873685461
 20
416.5673314284613
 30
0.0
 11
399.0277359976007
 21
416.9459129772913
 31
0.0
  0
LINE
  5
A1F5
330
1F
100
AcDbEntity
  8
SPOJOVACÍ
  6
Continuous
100
AcDbLine
 10
394.6056802626971
 20
415.3674046519991
 30
0.0
 11
394.9833316380081
 21
414.9897532788709
 31
0.0
  0
LINE
  5
A1F6
330
1F
100
AcDbEntity
  8
SPOJOVACÍ
  6
Continuous
100
AcDbLine
 10
394.6056802626971
 20
415.3674046519991
 30
0.0
 11
394.9833316380081
 21
415.5859959640183
 31
0.0
  0
LINE
  5
A1F7
330
1F
100
AcDbEntity
  8
SPOJOVACÍ
  6
Continuous
100
AcDbLine
 10
394.6056802626971
 20
415.3674046519991
 30
0.0
 11
399.4053873685461
 21
416.5673314284613
 31
0.0
  0
LINE
  5
A1F8
330
1F
100
AcDbEntity
  8
SPOJOVACÍ
  6
Continuous
100
AcDbLine
 10
395.9888516736955
 20
427.5936353118704
 30
0.0
 11
398.1431388151522
 21
427.9043140276444
 31
0.0
  0
LINE
  5
A1F9
330
1F
100
AcDbEntity
  8
SPOJOVACÍ
  6
Continuous
100
AcDbLine
 10
396.3665030446409
 20
427.2159839387422
 30
0.0
 11
397.7654874442068
 21
427.6866528913269
 31
0.0
  0
LINE
  5
A1FA
330
1F
100
AcDbEntity
  8
SPOJOVACÍ
  6
Continuous
100
AcDbLine
 10
396.3665030446409
 20
427.8122266238897
 30
0.0
 11
397.7654874442068
 21
428.2828955764744
 31
0.0
  0
LINE
  5
A1FB
330
1F
100
AcDbEntity
  8
SPOJOVACÍ
  6
Continuous
100
AcDbLine
 10
398.1431388151522
 20
427.9043140276444
 30
0.0
 11
397.7654874442068
 21
427.6866528913269
 31
0.0
  0
LINE
  5
A1FC
330
1F
100
AcDbEntity
  8
SPOJOVACÍ
  6
Continuous
100
AcDbLine
 10
398.1431388151522
 20
427.9043140276444
 30
0.0
 11
397.7654874442068
 21
428.2828955764744
 31
0.0
  0
LINE
  5
A1FD
330
1F
100
AcDbEntity
  8
SPOJOVACÍ
  6
Continuous
100
AcDbLine
 10
395.9888516736955
 20
427.5936353118704
 30
0.0
 11
396.3665030446409
 21
427.2159839387422
 31
0.0
  0
LINE
  5
A1FE
330
1F
100
AcDbEntity
  8
SPOJOVACÍ
  6
Continuous
100
AcDbLine
 10
395.9888516736955
 20
427.5936353118704
 30
0.0
 11
396.3665030446409
 21
427.8122266238897
 31
0.0
  0
LINE
  5
A1FF
330
1F
100
AcDbEntity
  8
SPOJOVACÍ
  6
Continuous
100
AcDbLine
 10
395.424234963224
 20
424.5798657335508
 30
0.0
 11
398.5403238796552
 21
425.2133154503208
 31
0.0
  0
LINE
  5
A200
330
1F
100
AcDbEntity
  8
SPOJOVACÍ
  6
Continuous
100
AcDbLine
 10
395.801886338535
 20
424.2012841844443
 30
0.0
 11
398.1626725087098
 21
424.9956543142725
 31
0.0
  0
LINE
  5
A201
330
1F
100
AcDbEntity
  8
SPOJOVACÍ
  6
Continuous
100
AcDbLine
 10
395.801886338535
 20
424.7975268695991
 30
0.0
 11
398.1626725087098
 21
425.5918969991507
 31
0.0
  0
LINE
  5
A202
330
1F
100
AcDbEntity
  8
SPOJOVACÍ
  6
Continuous
100
AcDbLine
 10
398.5403238796552
 20
425.2133154503208
 30
0.0
 11
398.1626725087098
 21
424.9956543142725
 31
0.0
  0
LINE
  5
A203
330
1F
100
AcDbEntity
  8
SPOJOVACÍ
  6
Continuous
100
AcDbLine
 10
398.5403238796552
 20
425.2133154503208
 30
0.0
 11
398.1626725087098
 21
425.5918969991507
 31
0.0
  0
LINE
  5
A204
330
1F
100
AcDbEntity
  8
SPOJOVACÍ
  6
Continuous
100
AcDbLine
 10
395.424234963224
 20
424.5798657335508
 30
0.0
 11
395.801886338535
 21
424.2012841844443
 31
0.0
  0
LINE
  5
A205
330
1F
100
AcDbEntity
  8
SPOJOVACÍ
  6
Continuous
100
AcDbLine
 10
395.424234963224
 20
424.5798657335508
 30
0.0
 11
395.801886338535
 21
424.7975268695991
 31
0.0
  0
LINE
  5
A206
330
1F
100
AcDbEntity
  8
SPOJOVACÍ
  6
Continuous
100
AcDbLine
 10
394.8596182571181
 20
421.5651659792529
 30
0.0
 11
398.9849479098611
 21
422.5381298615575
 31
0.0
  0
LINE
  5
A207
330
1F
100
AcDbEntity
  8
SPOJOVACÍ
  6
Continuous
100
AcDbLine
 10
395.2381998054024
 20
421.1875146061247
 30
0.0
 11
398.6072965389157
 21
422.3204687255092
 31
0.0
  0
LINE
  5
A208
330
1F
100
AcDbEntity
  8
SPOJOVACÍ
  6
Continuous
100
AcDbLine
 10
395.2381998054024
 20
421.7837572912794
 30
0.0
 11
398.6072965389157
 21
422.916711410664
 31
0.0
  0
LINE
  5
A209
330
1F
100
AcDbEntity
  8
SPOJOVACÍ
  6
Continuous
100
AcDbLine
 10
398.9849479098611
 20
422.5381298615575
 30
0.0
 11
398.6072965389157
 21
422.3204687255092
 31
0.0
  0
LINE
  5
A20A
330
1F
100
AcDbEntity
  8
SPOJOVACÍ
  6
Continuous
100
AcDbLine
 10
398.9849479098611
 20
422.5381298615575
 30
0.0
 11
398.6072965389157
 21
422.916711410664
 31
0.0
  0
LINE
  5
A20B
330
1F
100
AcDbEntity
  8
SPOJOVACÍ
  6
Continuous
100
AcDbLine
 10
394.8596182571181
 20
421.5651659792529
 30
0.0
 11
395.2381998054024
 21
421.1875146061247
 31
0.0
  0
LINE
  5
A20C
330
1F
100
AcDbEntity
  8
SPOJOVACÍ
  6
Continuous
100
AcDbLine
 10
394.8596182571181
 20
421.5651659792529
 30
0.0
 11
395.2381998054024
 21
421.7837572912794
 31
0.0
  0
LINE
  5
A20D
330
1F
100
AcDbEntity
  8
SPOJOVACÍ
  6
Continuous
100
AcDbLine
 10
398.1096524877047
 20
422.1437353241599
 30
0.0
 11
398.3552188991725
 21
420.1726928128737
 31
0.0
  0
LINE
  5
A20E
330
1F
100
AcDbEntity
  8
SPOJOVACÍ
  6
Continuous
100
AcDbLine
 10
397.7710684951434
 20
424.8505468900584
 30
0.0
 11
398.038028950481
 21
422.713933087205
 31
0.0
  0
LINE
  5
A20F
330
1F
100
AcDbEntity
  8
SPOJOVACÍ
  6
Continuous
100
AcDbLine
 10
397.4315543339744
 20
427.5675903894916
 30
0.0
 11
397.6994449622852
 21
425.4226050045072
 31
0.0
  0
LINE
  5
A210
330
1F
100
AcDbEntity
  8
SPOJOVACÍ
  6
Continuous
100
AcDbLine
 10
396.619510861723
 20
427.8838501600221
 30
0.0
 11
397.0055338156216
 21
430.972963977827
 31
0.0
  0
LINE
  5
A211
330
1F
100
AcDbEntity
  8
SPOJOVACÍ
  6
Continuous
100
AcDbLine
 10
396.252091424043
 20
424.9426342938131
 30
0.0
 11
396.542306269197
 21
427.2634229041686
 31
0.0
  0
LINE
  5
A212
330
1F
100
AcDbEntity
  8
SPOJOVACÍ
  6
Continuous
100
AcDbLine
 10
395.8828116316853
 20
421.990256318084
 30
0.0
 11
396.1730264812049
 21
424.3119751041485
 31
0.0
  0
LINE
  5
A213
330
1F
100
AcDbEntity
  8
SPOJOVACÍ
  6
Continuous
100
AcDbLine
 10
397.0055338156216
 20
430.972963977827
 30
0.0
 11
397.3599307967506
 21
428.1368579765585
 31
0.0
  0
LINE
  5
A214
330
1F
100
AcDbEntity
  8
SPOJOVACÍ
  6
Continuous
100
AcDbLine
 10
395.6558487364363
 20
420.1726928128737
 30
0.0
 11
395.8056070391594
 21
421.3698290622305
 31
0.0
  0
LINE
  5
A215
330
1F
100
AcDbEntity
  8
SPOJOVACÍ
  6
Continuous
100
AcDbLine
 10
398.3552188991725
 20
419.8359691749901
 30
0.0
 11
398.3552188991725
 21
420.1726928128737
 31
0.0
  0
LINE
  5
A216
330
1F
100
AcDbEntity
  8
SPOJOVACÍ
  6
Continuous
100
AcDbLine
 10
398.3552188991725
 20
416.7133690283772
 30
0.0
 11
398.3552188991725
 21
419.2322850834061
 31
0.0
  0
LINE
  5
A217
330
1F
100
AcDbEntity
  8
SPOJOVACÍ
  6
Continuous
100
AcDbLine
 10
395.6558487364363
 20
418.925327070985
 30
0.0
 11
395.6558487364363
 21
420.1726928128737
 31
0.0
  0
LINE
  5
A218
330
1F
100
AcDbEntity
  8
SPOJOVACÍ
  6
Continuous
100
AcDbLine
 10
395.6558487364363
 20
415.8110985065031
 30
0.0
 11
395.6558487364363
 21
418.3290843858303
 31
0.0
  0
LINE
  5
A219
330
1F
100
AcDbEntity
  8
SPOJOVACÍ
  6
Continuous
100
AcDbLine
 10
398.3552188991725
 20
413.5916990577352
 30
0.0
 11
398.3552188991725
 21
416.1124754644442
 31
0.0
  0
LINE
  5
A21A
330
1F
100
AcDbEntity
  8
SPOJOVACÍ
  6
Continuous
100
AcDbLine
 10
395.6558487364363
 20
412.6782664263482
 30
0.0
 11
395.6558487364363
 21
415.2064842392173
 31
0.0
  0
LINE
  5
A21B
330
1F
100
AcDbEntity
  8
SPOJOVACÍ
  6
Continuous
100
AcDbLine
 10
391.9053799269877
 20
395.2077046298763
 30
0.0
 11
402.1056877042556
 21
395.2077046298763
 31
0.0
  0
LINE
  5
A21C
330
1F
100
AcDbEntity
  8
SPOJOVACÍ
  6
Continuous
100
AcDbLine
 10
391.9053799269877
 20
396.4076314066078
 30
0.0
 11
402.1056877042556
 21
396.4076314066078
 31
0.0
  0
LINE
  5
A21D
330
1F
100
AcDbEntity
  8
SPOJOVACÍ
  6
Continuous
100
AcDbLine
 10
391.9053799269877
 20
396.4076314066078
 30
0.0
 11
393.2550650105385
 21
397.151772043082
 31
0.0
  0
LINE
  5
A21E
330
1F
100
AcDbEntity
  8
SPOJOVACÍ
  6
Continuous
100
AcDbLine
 10
391.9053799269877
 20
395.2077046298763
 30
0.0
 11
391.9053799269877
 21
396.4076314066078
 31
0.0
  0
CIRCLE
  5
A21F
330
1F
100
AcDbEntity
  8
POPIS
100
AcDbCircle
 10
1056.453109442036
 20
658.5487318524283
 30
0.0
 40
11.13656048292026
  0
TEXT
  5
A220
330
1F
100
AcDbEntity
  8
POPIS
100
AcDbText
 10
1051.694080386854
 20
653.0033861074407
 30
0.0
 40
12.0
  1
R
 41
0.85
  7
SIMPLEX7
100
AcDbText
  0
TEXT
  5
A221
330
1F
100
AcDbEntity
  8
POPIS
100
AcDbText
 10
884.0678951478095
 20
522.078714920648
 30
0.0
 40
25.0
  1
Ocelový nosník (IPE, HE-B, HE-A,...)
 41
0.7
  7
SIMPLEX7
100
AcDbText
  0
TEXT
  5
A222
330
1F
100
AcDbEntity
  8
POPIS
100
AcDbText
 10
829.724191988067
 20
522.078714920648
 30
0.0
 40
25.0
  1
04
 41
0.85
  7
SIMPLEX7
100
AcDbText
  0
TEXT
  5
A223
330
1F
100
AcDbEntity
  8
POPIS
100
AcDbText
 10
884.0678951478095
 20
557.4828761388125
 30
0.0
 40
25.0
  1
Žáruvzdorný tmel DEXAFLAMM - R
 41
0.7
  7
SIMPLEX7
100
AcDbText
  0
TEXT
  5
A224
330
1F
100
AcDbEntity
  8
POPIS
100
AcDbText
 10
829.724191988067
 20
557.4828761388125
 30
0.0
 40
25.0
  1
03
 41
0.85
  7
SIMPLEX7
100
AcDbText
  0
TEXT
  5
A225
330
1F
100
AcDbEntity
  8
POPIS
100
AcDbText
 10
884.0678951478095
 20
591.4330643835346
 30
0.0
 40
25.0
  1
Vrut Cetris 4,2x35 (45,55) mm
 41
0.7
  7
SIMPLEX7
100
AcDbText
  0
TEXT
  5
A226
330
1F
100
AcDbEntity
  8
POPIS
100
AcDbText
 10
829.724191988067
 20
591.4330643835346
 30
0.0
 40
25.0
  1
02
 41
0.85
  7
SIMPLEX7
100
AcDbText
  0
TEXT
  5
A227
330
1F
100
AcDbEntity
  8
POPIS
100
AcDbText
 10
884.0678951478095
 20
628.0280759991619
 30
0.0
 40
25.0
  1
Deska CETRIS   
 41
0.7
  7
SIMPLEX7
100
AcDbText
  0
TEXT
  5
A228
330
1F
100
AcDbEntity
  8
POPIS
100
AcDbText
 10
829.724191988067
 20
628.0280759991619
 30
0.0
 40
25.0
  1
01
 41
0.85
  7
SIMPLEX7
100
AcDbText
  0
TEXT
  5
A229
330
1F
100
AcDbEntity
  8
POPIS
100
AcDbText
 10
829.724191988067
 20
488.1934433813621
 30
0.0
 40
25.0
  1
05
 41
0.85
  7
SIMPLEX7
100
AcDbText
  0
TEXT
  5
A22A
330
1F
100
AcDbEntity
  8
POPIS
100
AcDbText
 10
884.0678951478095
 20
488.1934433813621
 30
0.0
 40
25.0
  1
Montážní vložka (min. tl. 24 mm)
 41
0.7
  7
SIMPLEX7
100
AcDbText
  0
TEXT
  5
A22B
330
1F
100
AcDbEntity
  8
POPIS
100
AcDbText
 10
214.5281817529667
 20
988.0999862498592
 30
0.0
 40
50.0
  1
Protipožární obklad nosníku
 41
0.85
  7
SIMPLEX7
100
AcDbText
  0
TEXT
  5
A22C
330
1F
100
AcDbEntity
  8
POPIS
100
AcDbText
 10
213.6715562722583
 20
877.8338693061723
 30
0.0
 40
35.0
  1
ŘEZ 
 41
0.85
  7
SIMPLEX7
100
AcDbText
  0
LINE
  5
A22E
330
1F
100
AcDbEntity
  8
POPIS
100
AcDbLine
 10
625.0413501965359
 20
459.8035073930768
 30
0.0
 11
516.6702057817074
 21
459.803507393075
 31
0.0
  0
TEXT
  5
A22F
330
1F
100
AcDbEntity
  8
POPIS
100
AcDbText
 10
636.9612724689996
 20
447.0567004418644
 30
0.0
 40
25.0
  1
05
 41
0.85
  7
SIMPLEX7
100
AcDbText
  0
TEXT
  5
A230
330
1F
100
AcDbEntity
  8
POPIS
100
AcDbText
 10
636.9612724689996
 20
693.4889424876327
 30
0.0
 40
25.0
  1
03
 41
0.85
  7
SIMPLEX7
100
AcDbText
  0
LINE
  5
A231
330
1F
100
AcDbEntity
  8
POPIS
100
AcDbLine
 10
625.0413501965359
 20
706.2357494388452
 30
0.0
 11
570.138084210228
 21
706.2357494388452
 31
0.0
  0
TEXT
  5
A232
330
1F
100
AcDbEntity
  8
POPIS
100
AcDbText
 10
636.9612724689996
 20
591.1795468688961
 30
0.0
 40
25.0
  1
01
 41
0.85
  7
SIMPLEX7
100
AcDbText
  0
LINE
  5
A233
330
1F
100
AcDbEntity
  8
POPIS
100
AcDbLine
 10
625.0413501965359
 20
603.9263538201084
 30
0.0
 11
534.9879753297409
 21
603.9263538201084
 31
0.0
  0
TEXT
  5
A234
330
1F
100
AcDbEntity
  8
POPIS
100
AcDbText
 10
636.9612724689996
 20
501.9118547800262
 30
0.0
 40
25.0
  1
04
 41
0.85
  7
SIMPLEX7
100
AcDbText
  0
LINE
  5
A235
330
1F
100
AcDbEntity
  8
POPIS
100
AcDbLine
 10
625.0413501965359
 20
514.6586617312387
 30
0.0
 11
450.8506203927045
 21
514.6586617312387
 31
0.0
  0
TEXT
  5
A236
330
1F
100
AcDbEntity
  8
POPIS
100
AcDbText
 10
636.9612724689996
 20
406.7862937659829
 30
0.0
 40
25.0
  1
02
 41
0.85
  7
SIMPLEX7
100
AcDbText
  0
LINE
  5
A237
330
1F
100
AcDbEntity
  8
POPIS
100
AcDbLine
 10
625.0413501965359
 20
419.5331007171953
 30
0.0
 11
529.0558206039332
 21
419.5331007171953
 31
0.0
  0
LINE
  5
A238
330
1F
100
AcDbEntity
  8
POPIS
100
AcDbLine
 10
570.138084210228
 20
706.2357494388452
 30
0.0
 11
542.6171964377918
 21
734.3996486718715
 31
0.0
  0
INSERT
  5
A239
330
1F
100
AcDbEntity
  8
POPIS
100
AcDbBlockReference
  2
E_PUNKT
 10
542.5568269078849
 20
734.5290541315916
 30
0.0
 41
0.6499999999996362
 42
0.6499999999996362
 43
0.65
 50
270.0
  0
HATCH
  5
A23A
330
1F
100
AcDbEntity
  8
STAVBA OBRYS
100
AcDbHatch
 10
0.0
 20
0.0
 30
0.0
210
0.0
220
0.0
230
1.0
  2
AR-CONC
 70
     0
 71
     0
 91
        2
 92
        7
 72
     0
 73
     1
 93
       14
 10
706.2470276507574
 20
823.7291982373299
 10
162.1047315677333
 20
823.7291982373299
 10
109.291494910909
 20
739.5111073874322
 10
262.2067758842295
 20
739.5111073874322
 10
262.2067758842295
 20
769.3209066733634
 10
264.4983290594882
 20
772.9930428948301
 10
266.7898822347396
 20
769.3209066733543
 10
266.7898822347396
 20
739.5111073874304
 10
426.6031050827568
 20
739.5111073874304
 10
426.6031050827495
 20
769.3209066733597
 10
428.8946582580156
 20
772.9930428948336
 10
431.1862114332743
 20
769.3209066733616
 10
431.186211433267
 20
739.5111073874304
 10
653.4337909939258
 20
739.5111073874322
 97
        0
 92
       24
 93
        4
 72
     1
 10
574.0511005935895
 20
741.8385810300242
 11
614.8825296522609
 21
741.8385810300242
 72
     1
 10
614.8825296522536
 20
741.8385810300242
 11
614.8825296522536
 21
780.131555109152
 72
     1
 10
614.8825296522536
 20
780.131555109152
 11
574.0511005935895
 21
780.131555109152
 72
     1
 10
574.0511005935895
 20
780.131555109152
 11
574.0511005935895
 21
741.8385810300242
 97
        0
 75
     0
 76
     1
 52
0.0
 41
0.5
 77
     0
 78
    13
 53
50.0
 43
-30602.53768024927
 44
-9218.902487488053
 45
91.092334498002
 46
-7.969542769451543
 79
     2
 49
9.525
 49
-104.775
 53
355.0
 43
-30602.53768024927
 44
-9218.902487488053
 45
-17.62141298783349
 46
95.52832144108998
 79
     2
 49
7.62
 49
-83.81999999999999
 53
100.451
 43
-30594.94668024927
 44
-9219.566612488051
 45
73.47125083297962
 46
87.55834391014593
 79
     2
 49
8.095
 49
-89.045
 53
46.1842
 43
-30602.53768024927
 44
-9193.502487488052
 45
135.5395204460649
 46
-21.02116396636357
 79
     2
 49
14.28749999999999
 49
-157.1625
 53
96.63559999999998
 43
-30591.24273024928
 44
-9195.254237488052
 45
118.7021172331185
 46
123.7127779450246
 79
     2
 49
12.14249999999998
 49
-133.5674999999997
 53
351.184
 43
-30602.53768024927
 44
-9193.502487488052
 45
118.7023029069669
 46
123.7125589302988
 79
     2
 49
11.43
 49
-125.73
 53
21.0
 43
-30589.83768024928
 44
-9199.852487488053
 45
75.80743991769164
 46
-51.13275925838125
 79
     2
 49
9.525
 49
-104.775
 53
326.0
 43
-30589.83768024928
 44
-9199.852487488053
 45
30.90101417382353
 46
92.09398306115962
 79
     2
 49
7.62
 49
-83.81999999999999
 53
71.45140000000001
 43
-30583.52043024927
 44
-9204.113537488053
 45
106.7082453850622
 46
40.96142885802872
 79
     2
 49
8.095
 49
-89.045
 53
37.5
 43
-30602.53768024927
 44
-9218.902487488053
 45
1.544301625295908
 46
42.27751943657655
 79
     6
 49
0.0
 49
-82.804
 49
0.0
 49
-85.09
 49
0.0
 49
-84.1375
 53
7.499999999999999
 43
-30602.53768024927
 44
-9218.902487488053
 45
33.40983125515287
 46
50.09028740905975
 79
     6
 49
0.0
 49
-48.51399999999999
 49
0.0
 49
-80.899
 49
0.0
 49
-32.0675
 53
327.4999999999999
 43
-30630.85868024927
 44
-9218.902487488053
 45
67.79529758343568
 46
-2.864371996336732
 79
     6
 49
0.0
 49
-31.75
 49
0.0
 49
-99.06
 49
0.0
 49
-131.4449999999999
 53
317.5
 43
-30643.55868024927
 44
-9218.902487488053
 45
74.06459069300902
 46
12.7132455166665
 79
     6
 49
0.0
 49
-41.275
 49
0.0
 49
-65.786
 49
0.0
 49
-93.345
 47
0.8063339469046228
 98
        1
 10
547.8212868602768
 20
777.2272648842081
  0
ENDSEC
  0
SECTION
  2
OBJECTS
  0
DICTIONARY
  5
C
330
0
100
AcDbDictionary
281
     1
  3
ACAD_GROUP
350
D
  3
ACAD_LAYOUT
350
1A
  3
ACAD_MLINESTYLE
350
17
  3
ACAD_PLOTSETTINGS
350
19
  3
ACAD_PLOTSTYLENAME
350
E
  3
AcDbVariableDictionary
350
A246
  0
DICTIONARY
  5
D
102
{ACAD_REACTORS
330
C
102
}
330
C
100
AcDbDictionary
281
     1
  0
DICTIONARY
  5
1A
102
{ACAD_REACTORS
330
C
102
}
330
C
100
AcDbDictionary
281
     1
  3
Model
350
22
  3
Rozvržení1
350
1E
  3
Rozvržení2
350
26
  0
DICTIONARY
  5
17
102
{ACAD_REACTORS
330
C
102
}
330
C
100
AcDbDictionary
281
     1
  3
Standard
350
18
  0
DICTIONARY
  5
19
102
{ACAD_REACTORS
330
C
102
}
330
C
100
AcDbDictionary
281
     1
  0
ACDBDICTIONARYWDFLT
  5
E
102
{ACAD_REACTORS
330
C
102
}
330
C
100
AcDbDictionary
281
     1
  3
Normal
350
F
100
AcDbDictionaryWithDefault
340
F
  0
DICTIONARY
  5
A246
102
{ACAD_REACTORS
330
C
102
}
330
C
100
AcDbDictionary
281
     1
  3
DIMASSOC
350
A247
  0
LAYOUT
  5
22
102
{ACAD_REACTORS
330
1A
102
}
330
1A
100
AcDbPlotSettings
  1

  2
HP DeskJet 690C
  4

  6

 40
0.0
 41
0.0
 42
0.0
 43
0.0
 44
0.0
 45
0.0
 46
0.0
 47
0.0
 48
0.0
 49
0.0
140
0.0
141
0.0
142
1.0
143
1.0
 70
  1712
 72
     0
 73
     0
 74
     0
  7
monochrome.ctb
 75
     0
147
1.0
148
0.0
149
0.0
100
AcDbLayout
  1
Model
 70
     1
 71
     0
 10
0.0
 20
0.0
 11
12.0
 21
9.0
 12
0.0
 22
0.0
 32
0.0
 14
0.0
 24
0.0
 34
0.0
 15
0.0
 25
0.0
 35
0.0
146
0.0
 13
0.0
 23
0.0
 33
0.0
 16
1.0
 26
0.0
 36
0.0
 17
0.0
 27
1.0
 37
0.0
 76
     0
330
1F
  0
LAYOUT
  5
1E
102
{ACAD_REACTORS
330
1A
102
}
330
1A
100
AcDbPlotSettings
  1

  2
HP DeskJet 690C
  4

  6

 40
0.0
 41
0.0
 42
0.0
 43
0.0
 44
0.0
 45
0.0
 46
0.0
 47
0.0
 48
0.0
 49
0.0
140
0.0
141
0.0
142
1.0
143
1.0
 70
   688
 72
     0
 73
     0
 74
     5
  7
monochrome.ctb
 75
    16
147
1.0
148
0.0
149
0.0
100
AcDbLayout
  1
Rozvržení1
 70
     1
 71
     1
 10
0.0
 20
0.0
 11
420.0
 21
297.0
 12
0.0
 22
0.0
 32
0.0
 14
1.000000000000000E+20
 24
1.000000000000000E+20
 34
1.000000000000000E+20
 15
-1.000000000000000E+20
 25
-1.000000000000000E+20
 35
-1.000000000000000E+20
146
0.0
 13
0.0
 23
0.0
 33
0.0
 16
1.0
 26
0.0
 36
0.0
 17
0.0
 27
1.0
 37
0.0
 76
     0
330
1B
  0
LAYOUT
  5
26
102
{ACAD_REACTORS
330
1A
102
}
330
1A
100
AcDbPlotSettings
  1

  2
HP DeskJet 690C
  4

  6

 40
0.0
 41
0.0
 42
0.0
 43
0.0
 44
0.0
 45
0.0
 46
0.0
 47
0.0
 48
0.0
 49
0.0
140
0.0
141
0.0
142
1.0
143
1.0
 70
   688
 72
     0
 73
     0
 74
     5
  7
monochrome.ctb
 75
    16
147
1.0
148
0.0
149
0.0
100
AcDbLayout
  1
Rozvržení2
 70
     1
 71
     2
 10
0.0
 20
0.0
 11
12.0
 21
9.0
 12
0.0
 22
0.0
 32
0.0
 14
0.0
 24
0.0
 34
0.0
 15
0.0
 25
0.0
 35
0.0
146
0.0
 13
0.0
 23
0.0
 33
0.0
 16
1.0
 26
0.0
 36
0.0
 17
0.0
 27
1.0
 37
0.0
 76
     0
330
23
  0
MLINESTYLE
  5
18
102
{ACAD_REACTORS
330
17
102
}
330
17
100
AcDbMlineStyle
  2
STANDARD
 70
     0
  3

 62
   256
 51
90.0
 52
90.0
 71
     2
 49
0.5
 62
   256
  6
BYLAYER
 49
-0.5
 62
   256
  6
BYLAYER
  0
ACDBPLACEHOLDER
  5
F
102
{ACAD_REACTORS
330
E
102
}
330
E
  0
DICTIONARYVAR
  5
A247
102
{ACAD_REACTORS
330
A246
102
}
330
A246
100
DictionaryVariables
280
     0
  1
1
  0
ENDSEC
  0
EOF
