  0
SECTION
  2
HEADER
  9
$ACADVER
  1
AC1015
  9
$ACADMAINTVER
 70
    14
  9
$DWGCODEPAGE
  3
ANSI_1250
  9
$INSBASE
 10
0.0
 20
0.0
 30
0.0
  9
$EXTMIN
 10
279.0746907835646
 20
428.5083880556576
 30
0.0
  9
$EXTMAX
 10
1408.686689701646
 20
1087.267817156005
 30
2500.000155029299
  9
$LIMMIN
 10
0.0
 20
0.0
  9
$LIMMAX
 10
420.0
 20
297.0
  9
$ORTHOMODE
 70
     0
  9
$REGENMODE
 70
     1
  9
$FILLMODE
 70
     1
  9
$QTEXTMODE
 70
     0
  9
$MIRRTEXT
 70
     1
  9
$LTSCALE
 40
1.0
  9
$ATTMODE
 70
     1
  9
$TEXTSIZE
 40
2.5
  9
$TRACEWID
 40
1.0
  9
$TEXTSTYLE
  7
Standard
  9
$CLAYER
  8
0
  9
$CELTYPE
  6
ByLayer
  9
$CECOLOR
 62
   256
  9
$CELTSCALE
 40
1.0
  9
$DISPSILH
 70
     0
  9
$DIMSCALE
 40
1.0
  9
$DIMASZ
 40
2.5
  9
$DIMEXO
 40
0.625
  9
$DIMDLI
 40
3.75
  9
$DIMRND
 40
0.0
  9
$DIMDLE
 40
0.0
  9
$DIMEXE
 40
1.25
  9
$DIMTP
 40
0.0
  9
$DIMTM
 40
0.0
  9
$DIMTXT
 40
2.5
  9
$DIMCEN
 40
2.5
  9
$DIMTSZ
 40
0.0
  9
$DIMTOL
 70
     0
  9
$DIMLIM
 70
     0
  9
$DIMTIH
 70
     0
  9
$DIMTOH
 70
     0
  9
$DIMSE1
 70
     0
  9
$DIMSE2
 70
     0
  9
$DIMTAD
 70
     1
  9
$DIMZIN
 70
     8
  9
$DIMBLK
  1

  9
$DIMASO
 70
     1
  9
$DIMSHO
 70
     1
  9
$DIMPOST
  1

  9
$DIMAPOST
  1

  9
$DIMALT
 70
     0
  9
$DIMALTD
 70
     3
  9
$DIMALTF
 40
0.03937007874016
  9
$DIMLFAC
 40
1.0
  9
$DIMTOFL
 70
     1
  9
$DIMTVP
 40
0.0
  9
$DIMTIX
 70
     0
  9
$DIMSOXD
 70
     0
  9
$DIMSAH
 70
     0
  9
$DIMBLK1
  1

  9
$DIMBLK2
  1

  9
$DIMSTYLE
  2
ISO-25
  9
$DIMCLRD
 70
     0
  9
$DIMCLRE
 70
     0
  9
$DIMCLRT
 70
     0
  9
$DIMTFAC
 40
1.0
  9
$DIMGAP
 40
0.625
  9
$DIMJUST
 70
     0
  9
$DIMSD1
 70
     0
  9
$DIMSD2
 70
     0
  9
$DIMTOLJ
 70
     0
  9
$DIMTZIN
 70
     8
  9
$DIMALTZ
 70
     0
  9
$DIMALTTZ
 70
     0
  9
$DIMUPT
 70
     0
  9
$DIMDEC
 70
     2
  9
$DIMTDEC
 70
     2
  9
$DIMALTU
 70
     2
  9
$DIMALTTD
 70
     3
  9
$DIMTXSTY
  7
Standard
  9
$DIMAUNIT
 70
     0
  9
$DIMADEC
 70
     0
  9
$DIMALTRND
 40
0.0
  9
$DIMAZIN
 70
     0
  9
$DIMDSEP
 70
    44
  9
$DIMATFIT
 70
     3
  9
$DIMFRAC
 70
     0
  9
$DIMLDRBLK
  1

  9
$DIMLUNIT
 70
     2
  9
$DIMLWD
 70
    -2
  9
$DIMLWE
 70
    -2
  9
$DIMTMOVE
 70
     0
  9
$LUNITS
 70
     2
  9
$LUPREC
 70
     4
  9
$SKETCHINC
 40
1.0
  9
$FILLETRAD
 40
10.0
  9
$AUNITS
 70
     0
  9
$AUPREC
 70
     0
  9
$MENU
  1
.
  9
$ELEVATION
 40
0.0
  9
$PELEVATION
 40
0.0
  9
$THICKNESS
 40
0.0
  9
$LIMCHECK
 70
     0
  9
$CHAMFERA
 40
10.0
  9
$CHAMFERB
 40
10.0
  9
$CHAMFERC
 40
20.0
  9
$CHAMFERD
 40
0.0
  9
$SKPOLY
 70
     0
  9
$TDCREATE
 40
2452332.512107639
  9
$TDUCREATE
 40
2452332.470440972
  9
$TDUPDATE
 40
2455601.405424039
  9
$TDUUPDATE
 40
2455601.363757373
  9
$TDINDWG
 40
0.0342526389
  9
$TDUSRTIMER
 40
0.0342387500
  9
$USRTIMER
 70
     1
  9
$ANGBASE
 50
0.0
  9
$ANGDIR
 70
     0
  9
$PDMODE
 70
     0
  9
$PDSIZE
 40
0.0
  9
$PLINEWID
 40
0.0
  9
$SPLFRAME
 70
     0
  9
$SPLINETYPE
 70
     6
  9
$SPLINESEGS
 70
     8
  9
$HANDSEED
  5
900A
  9
$SURFTAB1
 70
     6
  9
$SURFTAB2
 70
     6
  9
$SURFTYPE
 70
     6
  9
$SURFU
 70
     6
  9
$SURFV
 70
     6
  9
$UCSBASE
  2

  9
$UCSNAME
  2

  9
$UCSORG
 10
0.0
 20
0.0
 30
0.0
  9
$UCSXDIR
 10
1.0
 20
0.0
 30
0.0
  9
$UCSYDIR
 10
0.0
 20
1.0
 30
0.0
  9
$UCSORTHOREF
  2

  9
$UCSORTHOVIEW
 70
     0
  9
$UCSORGTOP
 10
0.0
 20
0.0
 30
0.0
  9
$UCSORGBOTTOM
 10
0.0
 20
0.0
 30
0.0
  9
$UCSORGLEFT
 10
0.0
 20
0.0
 30
0.0
  9
$UCSORGRIGHT
 10
0.0
 20
0.0
 30
0.0
  9
$UCSORGFRONT
 10
0.0
 20
0.0
 30
0.0
  9
$UCSORGBACK
 10
0.0
 20
0.0
 30
0.0
  9
$PUCSBASE
  2

  9
$PUCSNAME
  2

  9
$PUCSORG
 10
0.0
 20
0.0
 30
0.0
  9
$PUCSXDIR
 10
1.0
 20
0.0
 30
0.0
  9
$PUCSYDIR
 10
0.0
 20
1.0
 30
0.0
  9
$PUCSORTHOREF
  2

  9
$PUCSORTHOVIEW
 70
     0
  9
$PUCSORGTOP
 10
0.0
 20
0.0
 30
0.0
  9
$PUCSORGBOTTOM
 10
0.0
 20
0.0
 30
0.0
  9
$PUCSORGLEFT
 10
0.0
 20
0.0
 30
0.0
  9
$PUCSORGRIGHT
 10
0.0
 20
0.0
 30
0.0
  9
$PUCSORGFRONT
 10
0.0
 20
0.0
 30
0.0
  9
$PUCSORGBACK
 10
0.0
 20
0.0
 30
0.0
  9
$USERI1
 70
     0
  9
$USERI2
 70
     0
  9
$USERI3
 70
     0
  9
$USERI4
 70
     0
  9
$USERI5
 70
     0
  9
$USERR1
 40
0.0
  9
$USERR2
 40
0.0
  9
$USERR3
 40
0.0
  9
$USERR4
 40
0.0
  9
$USERR5
 40
0.0
  9
$WORLDVIEW
 70
     1
  9
$SHADEDGE
 70
     3
  9
$SHADEDIF
 70
    70
  9
$TILEMODE
 70
     1
  9
$MAXACTVP
 70
    64
  9
$PINSBASE
 10
0.0
 20
0.0
 30
0.0
  9
$PLIMCHECK
 70
     0
  9
$PEXTMIN
 10
1.000000000000000E+20
 20
1.000000000000000E+20
 30
1.000000000000000E+20
  9
$PEXTMAX
 10
-1.000000000000000E+20
 20
-1.000000000000000E+20
 30
-1.000000000000000E+20
  9
$PLIMMIN
 10
0.0
 20
0.0
  9
$PLIMMAX
 10
420.0
 20
297.0
  9
$UNITMODE
 70
     0
  9
$VISRETAIN
 70
     1
  9
$PLINEGEN
 70
     0
  9
$PSLTSCALE
 70
     1
  9
$TREEDEPTH
 70
  3020
  9
$CMLSTYLE
  2
Standard
  9
$CMLJUST
 70
     0
  9
$CMLSCALE
 40
20.0
  9
$PROXYGRAPHICS
 70
     1
  9
$MEASUREMENT
 70
     1
  9
$CELWEIGHT
370
    -1
  9
$ENDCAPS
280
     0
  9
$JOINSTYLE
280
     0
  9
$LWDISPLAY
290
     0
  9
$INSUNITS
 70
     4
  9
$HYPERLINKBASE
  1

  9
$STYLESHEET
  1

  9
$XEDIT
290
     1
  9
$CEPSNTYPE
380
     0
  9
$PSTYLEMODE
290
     1
  9
$FINGERPRINTGUID
  2
{D99C744E-04C5-44F1-9703-862C59725F9B}
  9
$VERSIONGUID
  2
{12F4DBE0-007B-45C9-94A3-EDEBDE9E22F9}
  9
$EXTNAMES
290
     1
  9
$PSVPSCALE
 40
0.0
  9
$OLESTARTUP
290
     0
  0
ENDSEC
  0
SECTION
  2
CLASSES
  0
CLASS
  1
ACDBDICTIONARYWDFLT
  2
AcDbDictionaryWithDefault
  3
AutoCAD 2000
 90
        0
280
     0
281
     0
  0
CLASS
  1
ACDBPLACEHOLDER
  2
AcDbPlaceHolder
  3
AutoCAD 2000
 90
        0
280
     0
281
     0
  0
CLASS
  1
LAYOUT
  2
AcDbLayout
  3
AutoCAD 2000
 90
        0
280
     0
281
     0
  0
CLASS
  1
DICTIONARYVAR
  2
AcDbDictionaryVar
  3
AutoCAD 2000
 90
        0
280
     0
281
     0
  0
ENDSEC
  0
SECTION
  2
TABLES
  0
TABLE
  2
VPORT
  5
8
330
0
100
AcDbSymbolTable
 70
     2
  0
VPORT
  5
9009
330
8
100
AcDbSymbolTableRecord
100
AcDbViewportTableRecord
  2
*Active
 70
     0
 10
0.0
 20
0.0
 11
1.0
 21
1.0
 12
794.4411882155463
 22
694.1820989210366
 13
0.0
 23
0.0
 14
10.0
 24
10.0
 15
10.0
 25
10.0
 16
0.0
 26
0.0
 36
1.0
 17
0.0
 27
0.0
 37
0.0
 40
841.8437606263642
 41
2.031862745098039
 42
50.0
 43
0.0
 44
0.0
 50
0.0
 51
0.0
 71
     0
 72
   100
 73
     1
 74
     3
 75
     0
 76
     0
 77
     0
 78
     0
281
     0
 65
     1
110
0.0
120
0.0
130
0.0
111
1.0
121
0.0
131
0.0
112
0.0
122
1.0
132
0.0
 79
     0
146
0.0
  0
ENDTAB
  0
TABLE
  2
LTYPE
  5
5
330
0
100
AcDbSymbolTable
 70
     4
  0
LTYPE
  5
14
330
5
100
AcDbSymbolTableRecord
100
AcDbLinetypeTableRecord
  2
ByBlock
 70
     0
  3

 72
    65
 73
     0
 40
0.0
  0
LTYPE
  5
15
330
5
100
AcDbSymbolTableRecord
100
AcDbLinetypeTableRecord
  2
ByLayer
 70
     0
  3

 72
    65
 73
     0
 40
0.0
  0
LTYPE
  5
16
330
5
100
AcDbSymbolTableRecord
100
AcDbLinetypeTableRecord
  2
Continuous
 70
     0
  3
Solid line
 72
    65
 73
     0
 40
0.0
  0
LTYPE
  5
3402
330
5
100
AcDbSymbolTableRecord
100
AcDbLinetypeTableRecord
  2
DASHED
 70
     0
  3
Dashed __ __ __ __ __ __ __ __ __ __ __ __ __ _
 72
    65
 73
     2
 40
19.04999999999999
 49
12.7
 74
     0
 49
-6.349999999999999
 74
     0
  0
LTYPE
  5
3403
330
5
100
AcDbSymbolTableRecord
100
AcDbLinetypeTableRecord
  2
DASHDOT2
 70
     0
  3
Dash dot (.5x) _._._._._._._._._._._._._._._.
 72
    65
 73
     4
 40
12.7
 49
6.349999999999999
 74
     0
 49
-3.174999999999999
 74
     0
 49
0.0
 74
     0
 49
-3.174999999999999
 74
     0
  0
LTYPE
  5
3404
330
5
100
AcDbSymbolTableRecord
100
AcDbLinetypeTableRecord
  2
CIKCAK
 70
     0
  3
Cik-cak /\/\/\/\/\/\/\/\/\/\/\/\/\/\/\/\/\/\/\/
 72
    65
 73
     4
 40
20.32254
 49
0.00254
 74
     0
 49
-5.08
 74
     4
 75
   131
340
340B
 46
5.08
 50
0.0
 44
-5.08
 45
0.0
 49
-10.16
 74
     4
 75
   131
340
340B
 46
5.08
 50
180.0
 44
5.08
 45
0.0
 49
-5.08
 74
     0
  0
ENDTAB
  0
TABLE
  2
LAYER
  5
2
330
0
100
AcDbSymbolTable
 70
     7
  0
LAYER
  5
10
330
2
100
AcDbSymbolTableRecord
100
AcDbLayerTableRecord
  2
0
 70
     0
 62
     7
  6
Continuous
370
    -3
390
F
  0
LAYER
  5
3405
330
2
100
AcDbSymbolTableRecord
100
AcDbLayerTableRecord
  2
POPIS
 70
     0
 62
    30
  6
Continuous
370
    -3
390
F
  0
LAYER
  5
3406
330
2
100
AcDbSymbolTableRecord
100
AcDbLayerTableRecord
  2
SPOJOVACÍ
 70
     0
 62
   180
  6
Continuous
370
    -3
390
F
  0
LAYER
  5
3407
330
2
100
AcDbSymbolTableRecord
100
AcDbLayerTableRecord
  2
CETRIS
 70
     0
 62
     1
  6
Continuous
370
    -3
390
F
  0
LAYER
  5
3408
330
2
100
AcDbSymbolTableRecord
100
AcDbLayerTableRecord
  2
izolace
 70
     0
 62
    73
  6
Continuous
370
    -3
390
F
  0
LAYER
  5
3409
330
2
100
AcDbSymbolTableRecord
100
AcDbLayerTableRecord
  2
STAVBA OBRYS
 70
     0
 62
     6
  6
Continuous
370
    -3
390
F
  0
LAYER
  5
3758
330
2
100
AcDbSymbolTableRecord
100
AcDbLayerTableRecord
  2
NOSNÉ KONSTRUKCE
 70
     0
 62
    33
  6
Continuous
370
    -3
390
F
  0
ENDTAB
  0
TABLE
  2
STYLE
  5
3
330
0
100
AcDbSymbolTable
 70
     3
  0
STYLE
  5
11
330
3
100
AcDbSymbolTableRecord
100
AcDbTextStyleTableRecord
  2
Standard
 70
     0
 40
0.0
 41
1.0
 50
0.0
 71
     0
 42
2.5
  3
txt
  4

  0
STYLE
  5
340A
330
3
100
AcDbSymbolTableRecord
100
AcDbTextStyleTableRecord
  2
SIMPLEX7
 70
     0
 40
0.0
 41
0.85
 50
0.0
 71
     0
 42
102.0
  3

  4

1001
ACAD
1000
Arial CE
1071
    60962
  0
STYLE
  5
340B
330
3
100
AcDbSymbolTableRecord
100
AcDbTextStyleTableRecord
  2

 70
     1
 40
0.0
 41
1.0
 50
0.0
 71
     0
 42
2.5
  3
ltypeshp.shx
  4

  0
ENDTAB
  0
TABLE
  2
VIEW
  5
6
330
0
100
AcDbSymbolTable
 70
     0
  0
ENDTAB
  0
TABLE
  2
UCS
  5
7
330
0
100
AcDbSymbolTable
 70
     0
  0
ENDTAB
  0
TABLE
  2
APPID
  5
9
330
0
100
AcDbSymbolTable
 70
     1
  0
APPID
  5
12
330
9
100
AcDbSymbolTableRecord
100
AcDbRegAppTableRecord
  2
ACAD
 70
     0
  0
ENDTAB
  0
TABLE
  2
DIMSTYLE
  5
A
330
0
100
AcDbSymbolTable
 70
     1
100
AcDbDimStyleTable
 71
     0
  0
DIMSTYLE
105
27
330
A
100
AcDbSymbolTableRecord
100
AcDbDimStyleTableRecord
  2
ISO-25
 70
     0
 41
2.5
 42
0.625
 43
3.75
 44
1.25
 73
     0
 74
     0
 77
     1
 78
     8
140
2.5
141
2.5
143
0.03937007874016
147
0.625
171
     3
172
     1
271
     2
272
     2
274
     3
278
    44
283
     0
284
     8
340
11
  0
ENDTAB
  0
TABLE
  2
BLOCK_RECORD
  5
1
330
0
100
AcDbSymbolTable
 70
     2
  0
BLOCK_RECORD
  5
1F
330
1
100
AcDbSymbolTableRecord
100
AcDbBlockTableRecord
  2
*Model_Space
340
22
  0
BLOCK_RECORD
  5
1B
330
1
100
AcDbSymbolTableRecord
100
AcDbBlockTableRecord
  2
*Paper_Space
340
1E
  0
BLOCK_RECORD
  5
23
330
1
100
AcDbSymbolTableRecord
100
AcDbBlockTableRecord
  2
*Paper_Space0
340
26
  0
BLOCK_RECORD
  5
33FA
330
1
100
AcDbSymbolTableRecord
100
AcDbBlockTableRecord
  2
E_PUNKT
340
0
102
{BLKREFS
331
8F10
331
8FE7
331
8FF7
331
8FF8
331
8FF9
331
8C32
102
}
  0
ENDTAB
  0
ENDSEC
  0
SECTION
  2
BLOCKS
  0
BLOCK
  5
20
330
1F
100
AcDbEntity
  8
0
100
AcDbBlockBegin
  2
*Model_Space
 70
     0
 10
0.0
 20
0.0
 30
0.0
  3
*Model_Space
  1

  0
ENDBLK
  5
21
330
1F
100
AcDbEntity
  8
0
100
AcDbBlockEnd
  0
BLOCK
  5
1C
330
1B
100
AcDbEntity
 67
     1
  8
0
100
AcDbBlockBegin
  2
*Paper_Space
 70
     0
 10
0.0
 20
0.0
 30
0.0
  3
*Paper_Space
  1

  0
ENDBLK
  5
1D
330
1B
100
AcDbEntity
 67
     1
  8
0
100
AcDbBlockEnd
  0
BLOCK
  5
24
330
23
100
AcDbEntity
  8
0
100
AcDbBlockBegin
  2
*Paper_Space0
 70
     0
 10
0.0
 20
0.0
 30
0.0
  3
*Paper_Space0
  1

  0
ENDBLK
  5
25
330
23
100
AcDbEntity
  8
0
100
AcDbBlockEnd
  0
BLOCK
  5
33FC
330
33FA
100
AcDbEntity
  8
0
100
AcDbBlockBegin
  2
E_PUNKT
 70
     0
 10
0.0
 20
0.0
 30
0.0
  3
E_PUNKT
  1

  0
LWPOLYLINE
  5
33FB
330
33FA
100
AcDbEntity
  8
POPIS
100
AcDbPolyline
 90
        2
 70
     1
 43
2.5
 10
1.27761037562675
 20
0.0290683308725193
 42
-1.0
 10
-1.222389624373249
 20
0.0290683308725193
 42
-1.0
  0
ENDBLK
  5
33FD
330
33FA
100
AcDbEntity
  8
0
100
AcDbBlockEnd
  0
ENDSEC
  0
SECTION
  2
ENTITIES
  0
TEXT
  5
8C2F
330
1F
100
AcDbEntity
  8
POPIS
100
AcDbText
 10
279.9313162642729
 20
1024.034529297888
 30
0.0
 40
50.0
  1
Protipožární obklad nosníku
 41
0.85
  7
SIMPLEX7
100
AcDbText
  0
HATCH
  5
8C30
330
1F
100
AcDbEntity
  8
CETRIS
100
AcDbHatch
 10
0.0
 20
0.0
 30
0.0
210
0.0
220
0.0
230
1.0
  2
ANSI31
 70
     0
 71
     0
 91
        3
 92
        7
 72
     0
 73
     1
 93
       17
 10
632.7392231537315
 20
442.5083880556658
 10
595.0399622271588
 20
442.5083880556639
 10
594.5823916353047
 20
442.0508174664491
 10
593.9098745368765
 20
442.2767943480184
 10
593.9098745368765
 20
439.7524519109619
 10
594.5823916353192
 20
439.5263203566655
 10
594.9600430106157
 20
439.3086592206173
 10
594.5823916353047
 20
438.9300776717873
 10
593.9098745368765
 20
439.1562092260401
 10
593.9098745368765
 20
435.1079853267592
 10
593.9759170187981
 20
434.3210566036423
 10
594.4037978830829
 20
432.840216736592
 10
595.2000283624301
 20
431.5212274582709
 10
596.3106582627743
 20
430.4524554688823
 10
597.6603433463251
 20
429.7083148323954
 10
597.6603433463251
 20
428.508388055664
 10
632.7392231537315
 20
428.508388055664
 97
        0
 92
        7
 72
     0
 73
     1
 93
       24
 10
591.2105043741403
 20
440.0638631307947
 10
590.5379872757121
 20
440.2899946850584
 10
590.1603359047667
 20
440.5085859970776
 10
590.5379872757121
 20
440.8862373702077
 10
591.2105043741403
 20
440.6601058159058
 10
591.2105043741548
 20
442.5083880556639
 10
483.277800355333
 20
442.5083880556639
 10
483.277800355333
 20
440.6601058159094
 10
483.9503174537612
 20
440.8862373702077
 10
484.3279688247066
 20
440.5085859970813
 10
483.9503174537612
 20
440.289994685053
 10
483.277800355333
 20
440.0638631308002
 10
483.2778003553403
 20
435.1079853267537
 10
483.5047632462164
 20
433.5843573733281
 10
484.1177490953787
 20
432.1704901635921
 10
485.327423239848
 20
430.6460658539463
 10
487.0282691604161
 20
429.7083148323991
 10
487.0282691604161
 20
428.508388055664
 10
587.4600355690573
 20
428.508388055664
 10
587.4600355690573
 20
429.7083148323954
 10
589.1608814896326
 20
430.6460658539536
 10
590.3705556341092
 20
432.1704901636066
 10
590.9835414832569
 20
433.5843573733209
 10
591.2105043741403
 20
435.1079853267392
 97
        0
 92
        7
 72
     0
 73
     1
 93
       17
 10
480.5784301925968
 20
435.1079853267174
 10
480.5784301925968
 20
439.1562092260382
 10
479.9059130941686
 20
438.9300776717873
 10
479.5282617188576
 20
439.3086592206191
 10
479.9059130941541
 20
439.5263203566619
 10
480.5784301925968
 20
439.7524519109656
 10
480.5784301925968
 20
442.2767943480202
 10
479.9059130941686
 20
442.0508174664528
 10
479.4483425023072
 20
442.5083880556639
 10
441.7490815757418
 20
442.5083880556639
 10
441.7490815757418
 20
428.508388055664
 10
476.8279613831482
 20
428.508388055664
 10
476.8279613831482
 20
429.7083148323972
 10
478.1776464667136
 20
430.4524554688769
 10
479.2882763670577
 20
431.5212274582818
 10
480.0845068463686
 20
432.8402167365611
 10
480.5123877106679
 20
434.3210566036096
 97
        0
 75
     0
 76
     1
 52
90.0
 41
1.0
 77
     0
 78
     1
 53
135.0
 43
-30411.98118666884
 44
-8501.575679319511
 45
-2.245064030267288
 46
-2.245064030267287
 79
     0
 47
0.7536243187153922
 98
        3
 10
606.3523514233684
 20
436.6967145659227
 10
567.1424513230459
 20
436.6967145659227
 10
463.8395438783491
 20
434.4358363284855
  0
HATCH
  5
8C31
330
1F
100
AcDbEntity
  8
CETRIS
100
AcDbHatch
 10
0.0
 20
0.0
 30
0.0
210
0.0
220
0.0
230
1.0
  2
ANSI31
 70
     0
 71
     0
 91
       10
 92
        7
 72
     0
 73
     1
 93
       14
 10
648.0843046554737
 20
776.6090349901724
 10
634.0843046554883
 20
776.6090349901724
 10
634.0843046554883
 20
754.6388353364318
 10
635.9325868952228
 20
754.6388353364318
 10
635.7064553409299
 20
755.3113524348546
 10
636.0841067140508
 20
755.6890038058035
 10
636.3026980260701
 20
755.3113524348709
 10
636.5288295803338
 20
754.6388353364318
 10
641.4847073843784
 20
754.6388353364318
 10
643.0083353378222
 20
754.8657982273152
 10
644.4222025475182
 20
755.478784076461
 10
645.9466268571786
 20
756.6884582209322
 10
646.8843778787495
 20
758.3893041415149
 10
648.0843046554737
 20
758.3893041415149
 97
        0
 92
        7
 72
     0
 73
     1
 93
       17
 10
648.0843046554737
 20
748.1889963642488
 10
646.8843778787349
 20
748.188996364247
 10
646.1402372422753
 20
749.5386814477833
 10
645.0714652528777
 20
750.6493113481511
 10
643.752475974551
 20
751.4455418274783
 10
642.2716361075081
 20
751.8734226917758
 10
641.4847073844148
 20
751.9394651736956
 10
637.4364834850939
 20
751.9394651736956
 10
637.6626150393503
 20
751.2669480752638
 10
637.2840334905276
 20
750.8892966999582
 10
637.0663723544721
 20
751.2669480752711
 10
636.8402408001793
 20
751.9394651736956
 10
634.3158983631228
 20
751.9394651736974
 10
634.5418752446939
 20
751.2669480752692
 10
634.084304655481
 20
750.8093774834169
 10
634.0843046554883
 20
735.7082842528516
 10
648.0843046554737
 20
729.1666546096303
 97
        0
 92
        7
 72
     0
 73
     1
 93
        4
 10
648.0843046554737
 20
729.1666546096248
 10
634.0843046554883
 20
735.7082842528462
 10
634.0843046554883
 20
606.1098438749477
 10
648.0843046554737
 20
606.1098438749459
 97
        0
 92
        7
 72
     0
 73
     1
 93
        4
 10
648.0843046554737
 20
606.1098438749477
 10
634.0843046554883
 20
606.1098438749477
 10
634.0843046554737
 20
524.5100551892601
 10
648.0843046554737
 20
530.9517917256571
 97
        0
 92
        7
 72
     0
 73
     1
 93
       17
 10
648.0843046554737
 20
530.9517917256535
 10
634.0843046554737
 20
524.5100551892583
 10
634.0843046554737
 20
508.3333277952597
 10
634.5242054958007
 20
507.8934269524024
 10
634.2982286142296
 20
507.2209098539669
 10
636.822571051286
 20
507.2209098539651
 10
637.048702605608
 20
507.8934269524224
 10
637.2663637416271
 20
508.2710783277061
 10
637.6449452904571
 20
507.893426952397
 10
637.418813736208
 20
507.2209098539669
 10
641.467037635507
 20
507.2209098539688
 10
642.2539663586221
 20
507.2869523358885
 10
643.7348062256724
 20
507.7148332001898
 10
645.0537955039553
 20
508.5110636795007
 10
646.1225674933748
 20
509.6216935798739
 10
646.8667081298563
 20
510.9713786634156
 10
648.0843046554737
 20
510.9713786634156
 97
        0
 92
        7
 72
     0
 73
     1
 93
       14
 10
648.0843046554737
 20
500.7710708861477
 10
646.8667081298563
 20
500.7710708861496
 10
645.9289571082999
 20
502.4719168067158
 10
644.4045327986177
 20
503.6815909512069
 10
642.990665588929
 20
504.2945768003437
 10
641.4670376354997
 20
504.5215396912308
 10
636.5111598314552
 20
504.5215396912326
 10
636.2850282771987
 20
503.8490225928062
 10
636.0664369651722
 20
503.471371221859
 10
635.6887855920513
 20
503.8490225928025
 10
635.9149171463513
 20
504.5215396912308
 10
634.0843046554737
 20
504.521539691229
 10
634.0843046554737
 20
459.1263430352309
 10
648.0843046554737
 20
459.1263430352309
 97
        0
 92
        7
 72
     0
 73
     1
 93
        4
 10
648.0843046554737
 20
459.1263430352309
 10
634.0843046554883
 20
459.1263430352328
 10
634.0843046554737
 20
428.5337059091625
 10
648.0843046554737
 20
428.5337059091607
 97
        0
 92
        7
 72
     0
 73
     1
 93
       14
 10
440.4216698228928
 20
504.5215396912308
 10
438.5910573320225
 20
504.5215396912308
 10
438.8171888863225
 20
503.8490225928044
 10
438.4395375131943
 20
503.471371221859
 10
438.2209462011751
 20
503.8490225927953
 10
437.9948146469114
 20
504.5215396912308
 10
433.0389368428523
 20
504.5215396912308
 10
431.5153088894375
 20
504.2945768003473
 10
430.1014416797415
 20
503.6815909512033
 10
428.5770173700666
 20
502.4719168067267
 10
427.6392663485103
 20
500.7710708861459
 10
426.4216698228929
 20
500.7710708861496
 10
426.4216698228929
 20
428.5337059091625
 10
440.4216698228928
 20
428.5337059091625
 97
        0
 92
        7
 72
     0
 73
     1
 93
       30
 10
440.4216698228856
 20
750.8093774834097
 10
439.9640992336726
 20
751.2669480752692
 10
440.1900761152583
 20
751.9394651736956
 10
437.6657336781945
 20
751.9394651736974
 10
437.4396021238944
 20
751.2669480752711
 10
437.2219409878389
 20
750.8892966999546
 10
436.8433594390162
 20
751.2669480752711
 10
437.0694909932726
 20
751.9394651736938
 10
433.0212670939736
 20
751.9394651736956
 10
432.234338370873
 20
751.8734226917758
 10
430.7534985038082
 20
751.4455418274764
 10
429.4345092255107
 20
750.6493113481511
 10
428.3657372360912
 20
749.5386814477869
 10
427.6215965996243
 20
748.188996364247
 10
426.4216698228856
 20
748.1889963642451
 10
426.4216698228929
 20
510.9713786634138
 10
427.6392663485103
 20
510.9713786634156
 10
428.3834069849917
 20
509.6216935798666
 10
429.4521789743821
 20
508.5110636795097
 10
430.7711682526651
 20
507.7148332001915
 10
432.2520081197517
 20
507.2869523358885
 10
433.0389368428668
 20
507.2209098539669
 10
437.0871607421586
 20
507.2209098539651
 10
436.8610291879021
 20
507.8934269523934
 10
437.2396107367394
 20
508.271078327708
 10
437.4572718727804
 20
507.8934269524189
 10
437.6834034270951
 20
507.2209098539651
 10
440.207745864137
 20
507.2209098539651
 10
439.9817689825731
 20
507.8934269523934
 10
440.4216698228928
 20
508.3333277952578
 97
        0
 92
        7
 72
     0
 73
     1
 93
       14
 10
440.4216698228856
 20
776.6090349901724
 10
426.4216698228929
 20
776.6090349901742
 10
426.4216698228929
 20
758.3893041415149
 10
427.6215965996316
 20
758.3893041415149
 10
428.5593476211734
 20
756.6884582209268
 10
430.083771930841
 20
755.4787840764629
 10
431.4976391405443
 20
754.8657982273134
 10
433.021267093959
 20
754.6388353364318
 10
437.9771448980254
 20
754.6388353364318
 10
438.2032764522818
 20
755.3113524348654
 10
438.4218677643011
 20
755.6890038058018
 10
438.7995191374366
 20
755.3113524348618
 10
438.5733875831438
 20
754.6388353364318
 10
440.4216698228784
 20
754.6388353364318
 97
        0
 75
     0
 76
     1
 52
0.0
 41
1.0
 77
     0
 78
     1
 53
45.0
 43
-30411.98118666884
 44
-8501.575679319511
 45
-2.245064030267287
 46
2.245064030267288
 79
     0
 47
0.7536243187153922
 98
       10
 10
639.5298780097373
 20
763.7696629207867
 10
641.037933692497
 20
744.1754469593298
 10
641.037933692497
 20
717.0449826256745
 10
640.2839435468495
 20
582.8998137615281
 10
641.037933692497
 20
520.34902306214
 10
642.5460647667214
 20
473.6243055092136
 10
641.037933692497
 20
442.7256983605557
 10
435.1861843402157
 20
449.5083330728748
 10
432.9240631203584
 20
555.7693494278728
 10
433.6781286574705
 20
766.7841548181104
  0
INSERT
  5
8C32
330
1F
100
AcDbEntity
  8
POPIS
100
AcDbBlockReference
  2
E_PUNKT
 10
648.3399245685805
 20
506.4995211982486
 30
0.0
 41
0.6499999999996362
 42
0.6499999999996362
 43
0.65
 50
270.0
  0
LINE
  5
8C33
330
1F
100
AcDbEntity
  8
POPIS
100
AcDbLine
 10
759.0698342480764
 20
606.1098438749477
 30
0.0
 11
619.4066030095937
 21
606.1098438749477
 31
0.0
  0
TEXT
  5
8C34
330
1F
100
AcDbEntity
  8
POPIS
100
AcDbText
 10
770.9897565205401
 20
593.3630369237353
 30
0.0
 40
25.0
  1
05
 41
0.85
  7
SIMPLEX7
100
AcDbText
  0
HATCH
  5
8C35
330
1F
100
AcDbEntity
  8
izolace
100
AcDbHatch
 10
0.0
 20
0.0
 30
0.0
210
0.0
220
0.0
230
1.0
  2
AR-SAND
 70
     0
 71
     0
 91
        2
 92
        7
 72
     0
 73
     1
 93
        4
 10
648.0843046554737
 20
781.6090349901724
 10
634.0843046554664
 20
781.6090349901705
 10
634.0843046554737
 20
776.6090349901724
 10
648.0843046554737
 20
776.6090349901724
 97
        0
 92
        7
 72
     0
 73
     1
 93
        4
 10
440.4216698228928
 20
781.6090349901724
 10
426.4216698228929
 20
781.6090349901724
 10
426.4216698229001
 20
776.6090349901724
 10
440.4216698229001
 20
776.6090349901724
 97
        0
 75
     0
 76
     1
 52
0.0
 41
0.05
 77
     0
 78
     4
 53
37.5
 43
-30411.98118666884
 44
-8501.575679319511
 45
-0.0800015647992023
 46
2.447066186646711
 79
     6
 49
0.0
 49
-1.9304
 49
0.0
 49
-2.159
 49
0.0
 49
-2.06375
 53
7.499999999999999
 43
-30411.98118666884
 44
-8501.575679319511
 45
2.247616415690013
 46
3.584125502841771
 79
     6
 49
0.0
 49
-1.0414
 49
0.0
 49
-1.7399
 49
0.0
 49
-0.6667500000000001
 53
327.4999999999999
 43
-30413.54328666884
 44
-8501.575679319511
 45
3.95496185120729
 46
0.0071859233927285
 79
     6
 49
0.0
 49
-0.635
 49
0.0
 49
-2.286
 49
0.0
 49
-2.9845
 53
317.5
 43
-30413.54328666884
 44
-8501.575679319511
 45
3.817782262361486
 46
1.114646616286081
 79
     6
 49
0.0
 49
-0.3175
 49
0.0
 49
-1.498599999999999
 49
0.0
 49
-1.7145
 47
0.6758275025921467
 98
        2
 10
640.6495922026233
 20
779.5083665101055
 10
431.7048321799384
 20
779.5083665101055
  0
LWPOLYLINE
  5
8C36
330
1F
100
AcDbEntity
  8
izolace
100
AcDbPolyline
 90
        4
 70
     1
 43
0.0
 10
426.4216698228929
 20
776.6090349901724
 10
426.4216698228929
 20
781.6090349901724
 10
440.4216698228928
 20
781.6090349901724
 10
440.4216698228928
 20
776.6090349901724
  0
LINE
  5
8C37
330
1F
100
AcDbEntity
  8
SPOJOVACÍ
  6
Continuous
100
AcDbLine
 10
427.6215965996243
 20
758.3893041415149
 30
0.0
 11
428.5593476211807
 21
756.6884582209395
 31
0.0
  0
LINE
  5
8C38
330
1F
100
AcDbEntity
  8
SPOJOVACÍ
  6
Continuous
100
AcDbLine
 10
426.4216698228929
 20
748.188996364247
 30
0.0
 11
426.4216698228929
 21
758.3893041415149
 31
0.0
  0
LINE
  5
8C39
330
1F
100
AcDbEntity
  8
SPOJOVACÍ
  6
Continuous
100
AcDbLine
 10
426.4216698228929
 20
758.3893041415149
 30
0.0
 11
427.6215965996243
 21
758.3893041415149
 31
0.0
  0
LINE
  5
8C3A
330
1F
100
AcDbEntity
  8
SPOJOVACÍ
  6
Continuous
100
AcDbLine
 10
427.6215965996243
 20
748.188996364247
 30
0.0
 11
427.6215965996243
 21
758.3893041415149
 31
0.0
  0
LINE
  5
8C3B
330
1F
100
AcDbEntity
  8
SPOJOVACÍ
  6
Continuous
100
AcDbLine
 10
443.0839088529182
 20
751.2669480752674
 30
0.0
 11
444.4438258661912
 21
755.31135243486
 31
0.0
  0
LINE
  5
8C3C
330
1F
100
AcDbEntity
  8
SPOJOVACÍ
  6
Continuous
100
AcDbLine
 10
443.680151538073
 20
751.2669480752674
 30
0.0
 11
445.0400685513386
 21
755.31135243486
 31
0.0
  0
LINE
  5
8C3D
330
1F
100
AcDbEntity
  8
SPOJOVACÍ
  6
Continuous
100
AcDbLine
 10
444.6614870025086
 20
755.6890038058054
 30
0.0
 11
444.4438258661912
 21
755.31135243486
 31
0.0
  0
LINE
  5
8C3E
330
1F
100
AcDbEntity
  8
SPOJOVACÍ
  6
Continuous
100
AcDbLine
 10
444.6614870025086
 20
755.6890038058054
 30
0.0
 11
445.0400685513386
 21
755.31135243486
 31
0.0
  0
LINE
  5
8C3F
330
1F
100
AcDbEntity
  8
SPOJOVACÍ
  6
Continuous
100
AcDbLine
 10
443.4615602260464
 20
750.8892966999565
 30
0.0
 11
443.0839088529182
 21
751.2669480752674
 31
0.0
  0
LINE
  5
8C40
330
1F
100
AcDbEntity
  8
SPOJOVACÍ
  6
Continuous
100
AcDbLine
 10
443.4615602260464
 20
750.8892966999565
 30
0.0
 11
443.680151538073
 21
751.2669480752674
 31
0.0
  0
LINE
  5
8C41
330
1F
100
AcDbEntity
  8
SPOJOVACÍ
  6
Continuous
100
AcDbLine
 10
443.4615602260464
 20
750.8892966999565
 30
0.0
 11
444.6614870025086
 21
755.6890038058054
 31
0.0
  0
LINE
  5
8C42
330
1F
100
AcDbEntity
  8
SPOJOVACÍ
  6
Continuous
100
AcDbLine
 10
439.9640992336799
 20
751.2669480752674
 30
0.0
 11
441.3230860715202
 21
755.31135243486
 31
0.0
  0
LINE
  5
8C43
330
1F
100
AcDbEntity
  8
SPOJOVACÍ
  6
Continuous
100
AcDbLine
 10
440.5603419188346
 20
751.2669480752674
 30
0.0
 11
441.9193287563984
 21
755.31135243486
 31
0.0
  0
LINE
  5
8C44
330
1F
100
AcDbEntity
  8
SPOJOVACÍ
  6
Continuous
100
AcDbLine
 10
441.5416773835468
 20
755.6890038058054
 30
0.0
 11
441.3230860715202
 21
755.31135243486
 31
0.0
  0
LINE
  5
8C45
330
1F
100
AcDbEntity
  8
SPOJOVACÍ
  6
Continuous
100
AcDbLine
 10
441.5416773835468
 20
755.6890038058054
 30
0.0
 11
441.9193287563984
 21
755.31135243486
 31
0.0
  0
LINE
  5
8C46
330
1F
100
AcDbEntity
  8
SPOJOVACÍ
  6
Continuous
100
AcDbLine
 10
440.341750606808
 20
750.8892966999565
 30
0.0
 11
439.9640992336799
 21
751.2669480752674
 31
0.0
  0
LINE
  5
8C47
330
1F
100
AcDbEntity
  8
SPOJOVACÍ
  6
Continuous
100
AcDbLine
 10
440.341750606808
 20
750.8892966999565
 30
0.0
 11
440.5603419188346
 21
751.2669480752674
 31
0.0
  0
LINE
  5
8C48
330
1F
100
AcDbEntity
  8
SPOJOVACÍ
  6
Continuous
100
AcDbLine
 10
440.341750606808
 20
750.8892966999565
 30
0.0
 11
441.5416773835468
 21
755.6890038058054
 31
0.0
  0
LINE
  5
8C49
330
1F
100
AcDbEntity
  8
SPOJOVACÍ
  6
Continuous
100
AcDbLine
 10
436.8433594390162
 20
751.2669480752674
 30
0.0
 11
438.2032764522818
 21
755.31135243486
 31
0.0
  0
LINE
  5
8C4A
330
1F
100
AcDbEntity
  8
SPOJOVACÍ
  6
Continuous
100
AcDbLine
 10
437.4396021238944
 20
751.2669480752674
 30
0.0
 11
438.7995191374366
 21
755.31135243486
 31
0.0
  0
LINE
  5
8C4B
330
1F
100
AcDbEntity
  8
SPOJOVACÍ
  6
Continuous
100
AcDbLine
 10
438.4218677643084
 20
755.6890038058054
 30
0.0
 11
438.2032764522818
 21
755.31135243486
 31
0.0
  0
LINE
  5
8C4C
330
1F
100
AcDbEntity
  8
SPOJOVACÍ
  6
Continuous
100
AcDbLine
 10
438.4218677643084
 20
755.6890038058054
 30
0.0
 11
438.7995191374366
 21
755.31135243486
 31
0.0
  0
LINE
  5
8C4D
330
1F
100
AcDbEntity
  8
SPOJOVACÍ
  6
Continuous
100
AcDbLine
 10
437.2219409878462
 20
750.8892966999565
 30
0.0
 11
436.8433594390162
 21
751.2669480752674
 31
0.0
  0
LINE
  5
8C4E
330
1F
100
AcDbEntity
  8
SPOJOVACÍ
  6
Continuous
100
AcDbLine
 10
437.2219409878462
 20
750.8892966999565
 30
0.0
 11
437.4396021238944
 21
751.2669480752674
 31
0.0
  0
LINE
  5
8C4F
330
1F
100
AcDbEntity
  8
SPOJOVACÍ
  6
Continuous
100
AcDbLine
 10
437.2219409878462
 20
750.8892966999565
 30
0.0
 11
438.4218677643084
 21
755.6890038058054
 31
0.0
  0
LINE
  5
8C50
330
1F
100
AcDbEntity
  8
SPOJOVACÍ
  6
Continuous
100
AcDbLine
 10
441.683064104408
 20
754.6388353364318
 30
0.0
 11
444.2112819172771
 21
754.6388353364318
 31
0.0
  0
LINE
  5
8C51
330
1F
100
AcDbEntity
  8
SPOJOVACÍ
  6
Continuous
100
AcDbLine
 10
438.5679053642243
 20
754.6388353364318
 30
0.0
 11
441.0868214192532
 21
754.6388353364318
 31
0.0
  0
LINE
  5
8C52
330
1F
100
AcDbEntity
  8
SPOJOVACÍ
  6
Continuous
100
AcDbLine
 10
440.7770728791811
 20
751.9394651736956
 30
0.0
 11
443.2978492858901
 21
751.9394651736956
 31
0.0
  0
LINE
  5
8C53
330
1F
100
AcDbEntity
  8
SPOJOVACÍ
  6
Continuous
100
AcDbLine
 10
437.6544727328373
 20
751.9394651736956
 30
0.0
 11
440.1733887878663
 21
751.9394651736956
 31
0.0
  0
LINE
  5
8C54
330
1F
100
AcDbEntity
  8
SPOJOVACÍ
  6
Continuous
100
AcDbLine
 10
433.0212670939808
 20
751.9394651736956
 30
0.0
 11
437.0591602236609
 21
751.9394651736956
 31
0.0
  0
LINE
  5
8C55
330
1F
100
AcDbEntity
  8
SPOJOVACÍ
  6
Continuous
100
AcDbLine
 10
433.0212670939808
 20
754.6388353364318
 30
0.0
 11
437.9642212729095
 21
754.6388353364318
 31
0.0
  0
LINE
  5
8C56
330
1F
100
AcDbEntity
  8
SPOJOVACÍ
  6
Continuous
100
AcDbLine
 10
427.6215965996243
 20
748.188996364247
 30
0.0
 11
428.3657372360985
 21
749.5386814477979
 31
0.0
  0
LINE
  5
8C57
330
1F
100
AcDbEntity
  8
SPOJOVACÍ
  6
Continuous
100
AcDbLine
 10
428.3657372360985
 20
749.5386814477979
 30
0.0
 11
429.4345092255107
 21
750.6493113481565
 31
0.0
  0
LINE
  5
8C58
330
1F
100
AcDbEntity
  8
SPOJOVACÍ
  6
Continuous
100
AcDbLine
 10
429.4345092255107
 20
750.6493113481565
 30
0.0
 11
430.7534985038082
 21
751.4455418274747
 31
0.0
  0
LINE
  5
8C59
330
1F
100
AcDbEntity
  8
SPOJOVACÍ
  6
Continuous
100
AcDbLine
 10
430.7534985038082
 20
751.4455418274747
 30
0.0
 11
432.2343383708584
 21
751.873422691774
 31
0.0
  0
LINE
  5
8C5A
330
1F
100
AcDbEntity
  8
SPOJOVACÍ
  6
Continuous
100
AcDbLine
 10
432.2343383708584
 20
751.873422691774
 30
0.0
 11
433.0212670939808
 21
751.9394651736956
 31
0.0
  0
LINE
  5
8C5B
330
1F
100
AcDbEntity
  8
SPOJOVACÍ
  6
Continuous
100
AcDbLine
 10
426.4216698228929
 20
748.188996364247
 30
0.0
 11
427.6215965996243
 21
748.188996364247
 31
0.0
  0
LINE
  5
8C5C
330
1F
100
AcDbEntity
  8
SPOJOVACÍ
  6
Continuous
100
AcDbLine
 10
433.0212670939808
 20
754.6388353364318
 30
0.0
 11
431.4976391405516
 21
754.8657982273152
 31
0.0
  0
LINE
  5
8C5D
330
1F
100
AcDbEntity
  8
SPOJOVACÍ
  6
Continuous
100
AcDbLine
 10
431.4976391405516
 20
754.8657982273152
 30
0.0
 11
430.0837719308483
 21
755.4787840764629
 31
0.0
  0
LINE
  5
8C5E
330
1F
100
AcDbEntity
  8
SPOJOVACÍ
  6
Continuous
100
AcDbLine
 10
430.0837719308483
 20
755.4787840764629
 30
0.0
 11
428.5593476211807
 21
756.6884582209395
 31
0.0
  0
LINE
  5
8C5F
330
1F
100
AcDbEntity
  8
SPOJOVACÍ
  6
Continuous
100
AcDbLine
 10
449.3235280908493
 20
751.2669480752674
 30
0.0
 11
450.6834451043914
 21
755.31135243486
 31
0.0
  0
LINE
  5
8C60
330
1F
100
AcDbEntity
  8
SPOJOVACÍ
  6
Continuous
100
AcDbLine
 10
449.919770776004
 20
751.2669480752674
 30
0.0
 11
451.2796877895461
 21
755.31135243486
 31
0.0
  0
LINE
  5
8C61
330
1F
100
AcDbEntity
  8
SPOJOVACÍ
  6
Continuous
100
AcDbLine
 10
450.902036416418
 20
755.6890038058054
 30
0.0
 11
450.6834451043914
 21
755.31135243486
 31
0.0
  0
LINE
  5
8C62
330
1F
100
AcDbEntity
  8
SPOJOVACÍ
  6
Continuous
100
AcDbLine
 10
450.902036416418
 20
755.6890038058054
 30
0.0
 11
451.2796877895461
 21
755.31135243486
 31
0.0
  0
LINE
  5
8C63
330
1F
100
AcDbEntity
  8
SPOJOVACÍ
  6
Continuous
100
AcDbLine
 10
449.7021096399557
 20
750.8892966999565
 30
0.0
 11
449.3235280908493
 21
751.2669480752674
 31
0.0
  0
LINE
  5
8C64
330
1F
100
AcDbEntity
  8
SPOJOVACÍ
  6
Continuous
100
AcDbLine
 10
449.7021096399557
 20
750.8892966999565
 30
0.0
 11
449.919770776004
 21
751.2669480752674
 31
0.0
  0
LINE
  5
8C65
330
1F
100
AcDbEntity
  8
SPOJOVACÍ
  6
Continuous
100
AcDbLine
 10
449.7021096399557
 20
750.8892966999565
 30
0.0
 11
450.902036416418
 21
755.6890038058054
 31
0.0
  0
LINE
  5
8C66
330
1F
100
AcDbEntity
  8
SPOJOVACÍ
  6
Continuous
100
AcDbLine
 10
446.2037184718874
 20
751.2669480752674
 30
0.0
 11
447.5636354854295
 21
755.31135243486
 31
0.0
  0
LINE
  5
8C67
330
1F
100
AcDbEntity
  8
SPOJOVACÍ
  6
Continuous
100
AcDbLine
 10
446.7999611570348
 20
751.2669480752674
 30
0.0
 11
448.1598781703078
 21
755.31135243486
 31
0.0
  0
LINE
  5
8C68
330
1F
100
AcDbEntity
  8
SPOJOVACÍ
  6
Continuous
100
AcDbLine
 10
447.7812966214778
 20
755.6890038058054
 30
0.0
 11
447.5636354854295
 21
755.31135243486
 31
0.0
  0
LINE
  5
8C69
330
1F
100
AcDbEntity
  8
SPOJOVACÍ
  6
Continuous
100
AcDbLine
 10
447.7812966214778
 20
755.6890038058054
 30
0.0
 11
448.1598781703078
 21
755.31135243486
 31
0.0
  0
LINE
  5
8C6A
330
1F
100
AcDbEntity
  8
SPOJOVACÍ
  6
Continuous
100
AcDbLine
 10
446.5813698450156
 20
750.8892966999565
 30
0.0
 11
446.2037184718874
 21
751.2669480752674
 31
0.0
  0
LINE
  5
8C6B
330
1F
100
AcDbEntity
  8
SPOJOVACÍ
  6
Continuous
100
AcDbLine
 10
446.5813698450156
 20
750.8892966999565
 30
0.0
 11
446.7999611570348
 21
751.2669480752674
 31
0.0
  0
LINE
  5
8C6C
330
1F
100
AcDbEntity
  8
SPOJOVACÍ
  6
Continuous
100
AcDbLine
 10
446.5813698450156
 20
750.8892966999565
 30
0.0
 11
447.7812966214778
 21
755.6890038058054
 31
0.0
  0
LINE
  5
8C6D
330
1F
100
AcDbEntity
  8
SPOJOVACÍ
  6
Continuous
100
AcDbLine
 10
458.8076005048869
 20
752.2724681109548
 30
0.0
 11
459.1182792206609
 21
754.4267552524115
 31
0.0
  0
LINE
  5
8C6E
330
1F
100
AcDbEntity
  8
SPOJOVACÍ
  6
Continuous
100
AcDbLine
 10
458.4299491317588
 20
752.6501194819002
 30
0.0
 11
458.9006180843434
 21
754.0491038814661
 31
0.0
  0
LINE
  5
8C6F
330
1F
100
AcDbEntity
  8
SPOJOVACÍ
  6
Continuous
100
AcDbLine
 10
459.0261918169062
 20
752.6501194819002
 30
0.0
 11
459.4968607694909
 21
754.0491038814661
 31
0.0
  0
LINE
  5
8C70
330
1F
100
AcDbEntity
  8
SPOJOVACÍ
  6
Continuous
100
AcDbLine
 10
459.1182792206609
 20
754.4267552524115
 30
0.0
 11
458.9006180843434
 21
754.0491038814661
 31
0.0
  0
LINE
  5
8C71
330
1F
100
AcDbEntity
  8
SPOJOVACÍ
  6
Continuous
100
AcDbLine
 10
459.1182792206609
 20
754.4267552524115
 30
0.0
 11
459.4968607694909
 21
754.0491038814661
 31
0.0
  0
LINE
  5
8C72
330
1F
100
AcDbEntity
  8
SPOJOVACÍ
  6
Continuous
100
AcDbLine
 10
458.8076005048869
 20
752.2724681109548
 30
0.0
 11
458.4299491317588
 21
752.6501194819002
 31
0.0
  0
LINE
  5
8C73
330
1F
100
AcDbEntity
  8
SPOJOVACÍ
  6
Continuous
100
AcDbLine
 10
458.8076005048869
 20
752.2724681109548
 30
0.0
 11
459.0261918169062
 21
752.6501194819002
 31
0.0
  0
LINE
  5
8C74
330
1F
100
AcDbEntity
  8
SPOJOVACÍ
  6
Continuous
100
AcDbLine
 10
455.7938309265673
 20
751.7078514004833
 30
0.0
 11
456.4272806433373
 21
754.8239403169145
 31
0.0
  0
LINE
  5
8C75
330
1F
100
AcDbEntity
  8
SPOJOVACÍ
  6
Continuous
100
AcDbLine
 10
455.4152493774608
 20
752.0855027757943
 30
0.0
 11
456.209619507289
 21
754.4462889459691
 31
0.0
  0
LINE
  5
8C76
330
1F
100
AcDbEntity
  8
SPOJOVACÍ
  6
Continuous
100
AcDbLine
 10
456.0114920626156
 20
752.0855027757943
 30
0.0
 11
456.8058621921673
 21
754.4462889459691
 31
0.0
  0
LINE
  5
8C77
330
1F
100
AcDbEntity
  8
SPOJOVACÍ
  6
Continuous
100
AcDbLine
 10
456.4272806433373
 20
754.8239403169145
 30
0.0
 11
456.209619507289
 21
754.4462889459691
 31
0.0
  0
LINE
  5
8C78
330
1F
100
AcDbEntity
  8
SPOJOVACÍ
  6
Continuous
100
AcDbLine
 10
456.4272806433373
 20
754.8239403169145
 30
0.0
 11
456.8058621921673
 21
754.4462889459691
 31
0.0
  0
LINE
  5
8C79
330
1F
100
AcDbEntity
  8
SPOJOVACÍ
  6
Continuous
100
AcDbLine
 10
455.7938309265673
 20
751.7078514004833
 30
0.0
 11
455.4152493774608
 21
752.0855027757943
 31
0.0
  0
LINE
  5
8C7A
330
1F
100
AcDbEntity
  8
SPOJOVACÍ
  6
Continuous
100
AcDbLine
 10
455.7938309265673
 20
751.7078514004833
 30
0.0
 11
456.0114920626156
 21
752.0855027757943
 31
0.0
  0
LINE
  5
8C7B
330
1F
100
AcDbEntity
  8
SPOJOVACÍ
  6
Continuous
100
AcDbLine
 10
452.7791311722694
 20
751.1432346943775
 30
0.0
 11
453.752095054574
 21
755.2685643471204
 31
0.0
  0
LINE
  5
8C7C
330
1F
100
AcDbEntity
  8
SPOJOVACÍ
  6
Continuous
100
AcDbLine
 10
452.4014797991412
 20
751.5218162426617
 30
0.0
 11
453.5344339185257
 21
754.890912976175
 31
0.0
  0
LINE
  5
8C7D
330
1F
100
AcDbEntity
  8
SPOJOVACÍ
  6
Continuous
100
AcDbLine
 10
452.9977224842959
 20
751.5218162426617
 30
0.0
 11
454.1306766036805
 21
754.890912976175
 31
0.0
  0
LINE
  5
8C7E
330
1F
100
AcDbEntity
  8
SPOJOVACÍ
  6
Continuous
100
AcDbLine
 10
453.752095054574
 20
755.2685643471204
 30
0.0
 11
453.5344339185257
 21
754.890912976175
 31
0.0
  0
LINE
  5
8C7F
330
1F
100
AcDbEntity
  8
SPOJOVACÍ
  6
Continuous
100
AcDbLine
 10
453.752095054574
 20
755.2685643471204
 30
0.0
 11
454.1306766036805
 21
754.890912976175
 31
0.0
  0
LINE
  5
8C80
330
1F
100
AcDbEntity
  8
SPOJOVACÍ
  6
Continuous
100
AcDbLine
 10
452.7791311722694
 20
751.1432346943775
 30
0.0
 11
452.4014797991412
 21
751.5218162426617
 31
0.0
  0
LINE
  5
8C81
330
1F
100
AcDbEntity
  8
SPOJOVACÍ
  6
Continuous
100
AcDbLine
 10
452.7791311722694
 20
751.1432346943775
 30
0.0
 11
452.9977224842959
 21
751.5218162426617
 31
0.0
  0
LINE
  5
8C82
330
1F
100
AcDbEntity
  8
SPOJOVACÍ
  6
Continuous
100
AcDbLine
 10
453.3577005171764
 20
754.3932689249641
 30
0.0
 11
451.3866580058902
 21
754.6388353364318
 31
0.0
  0
LINE
  5
8C83
330
1F
100
AcDbEntity
  8
SPOJOVACÍ
  6
Continuous
100
AcDbLine
 10
456.0645120830749
 20
754.0546849324027
 30
0.0
 11
453.9278982802215
 21
754.3216453877403
 31
0.0
  0
LINE
  5
8C84
330
1F
100
AcDbEntity
  8
SPOJOVACÍ
  6
Continuous
100
AcDbLine
 10
458.7815555825081
 20
753.7151707712337
 30
0.0
 11
456.6365701975237
 21
753.9830613995445
 31
0.0
  0
LINE
  5
8C85
330
1F
100
AcDbEntity
  8
SPOJOVACÍ
  6
Continuous
100
AcDbLine
 10
459.0978153530386
 20
752.9031272989823
 30
0.0
 11
462.1869291708435
 21
753.2891502528809
 31
0.0
  0
LINE
  5
8C86
330
1F
100
AcDbEntity
  8
SPOJOVACÍ
  6
Continuous
100
AcDbLine
 10
456.1565994868296
 20
752.5357078613024
 30
0.0
 11
458.4773880971852
 21
752.8259227064563
 31
0.0
  0
LINE
  5
8C87
330
1F
100
AcDbEntity
  8
SPOJOVACÍ
  6
Continuous
100
AcDbLine
 10
453.2042215111005
 20
752.1664280689447
 30
0.0
 11
455.5259402971651
 21
752.4566429184642
 31
0.0
  0
LINE
  5
8C88
330
1F
100
AcDbEntity
  8
SPOJOVACÍ
  6
Continuous
100
AcDbLine
 10
462.1869291708435
 20
753.2891502528809
 30
0.0
 11
459.350823169575
 21
753.6435472340099
 31
0.0
  0
LINE
  5
8C89
330
1F
100
AcDbEntity
  8
SPOJOVACÍ
  6
Continuous
100
AcDbLine
 10
451.3866580058902
 20
751.9394651736956
 30
0.0
 11
452.583794255247
 21
752.0892234764187
 31
0.0
  0
LINE
  5
8C8A
330
1F
100
AcDbEntity
  8
SPOJOVACÍ
  6
Continuous
100
AcDbLine
 10
451.0499343680066
 20
754.6388353364318
 30
0.0
 11
451.3866580058902
 21
754.6388353364318
 31
0.0
  0
LINE
  5
8C8B
330
1F
100
AcDbEntity
  8
SPOJOVACÍ
  6
Continuous
100
AcDbLine
 10
447.9273342213937
 20
754.6388353364318
 30
0.0
 11
450.4462502764226
 21
754.6388353364318
 31
0.0
  0
LINE
  5
8C8C
330
1F
100
AcDbEntity
  8
SPOJOVACÍ
  6
Continuous
100
AcDbLine
 10
450.1392922640016
 20
751.9394651736956
 30
0.0
 11
451.3866580058902
 21
751.9394651736956
 31
0.0
  0
LINE
  5
8C8D
330
1F
100
AcDbEntity
  8
SPOJOVACÍ
  6
Continuous
100
AcDbLine
 10
447.0250636995197
 20
751.9394651736956
 30
0.0
 11
449.5430495788468
 21
751.9394651736956
 31
0.0
  0
LINE
  5
8C8E
330
1F
100
AcDbEntity
  8
SPOJOVACÍ
  6
Continuous
100
AcDbLine
 10
444.8056642507517
 20
754.6388353364318
 30
0.0
 11
447.3264406574608
 21
754.6388353364318
 31
0.0
  0
LINE
  5
8C8F
330
1F
100
AcDbEntity
  8
SPOJOVACÍ
  6
Continuous
100
AcDbLine
 10
443.8922316193647
 20
751.9394651736956
 30
0.0
 11
446.4204494322339
 21
751.9394651736956
 31
0.0
  0
HATCH
  5
8C90
330
1F
100
AcDbEntity
  8
NOSNÉ KONSTRUKCE
100
AcDbHatch
 10
0.0
 20
0.0
 30
0.0
210
0.0
220
0.0
230
1.0
  2
SOLID
 70
     1
 71
     0
 91
        1
 92
        7
 72
     0
 73
     1
 93
        8
 10
443.6783276167125
 20
735.6790612186969
 10
442.1783276167125
 20
735.6790612186969
 10
442.1783276167125
 20
781.0415409198258
 10
471.1782711065179
 20
781.0415409198112
 10
471.1782711065179
 20
735.6790612187041
 10
469.6782711065179
 20
735.6790612186969
 10
469.6782711065252
 20
779.5415409198258
 10
443.6783276167125
 20
779.5415409198185
 97
        0
 75
     0
 76
     1
 47
0.1358226225865344
 98
        1
 10
442.9524588280192
 20
741.2111054259448
  0
LINE
  5
8C91
330
1F
100
AcDbEntity
  8
SPOJOVACÍ
  6
Continuous
100
AcDbLine
 10
427.6392663485103
 20
500.7710708861477
 30
0.0
 11
428.5770173700666
 21
502.4719168067231
 31
0.0
  0
LINE
  5
8C92
330
1F
100
AcDbEntity
  8
SPOJOVACÍ
  6
Continuous
100
AcDbLine
 10
426.4393395717788
 20
500.7710708861477
 30
0.0
 11
427.6392663485103
 21
500.7710708861477
 31
0.0
  0
LINE
  5
8C93
330
1F
100
AcDbEntity
  8
SPOJOVACÍ
  6
Continuous
100
AcDbLine
 10
426.4393395717788
 20
510.9713786634156
 30
0.0
 11
426.4393395717788
 21
500.7710708861477
 31
0.0
  0
LINE
  5
8C94
330
1F
100
AcDbEntity
  8
SPOJOVACÍ
  6
Continuous
100
AcDbLine
 10
428.3834069849844
 20
509.6216935798647
 30
0.0
 11
429.4521789743966
 21
508.5110636795061
 31
0.0
  0
LINE
  5
8C95
330
1F
100
AcDbEntity
  8
SPOJOVACÍ
  6
Continuous
100
AcDbLine
 10
427.6392663485103
 20
510.9713786634156
 30
0.0
 11
427.6392663485103
 21
500.7710708861477
 31
0.0
  0
LINE
  5
8C96
330
1F
100
AcDbEntity
  8
SPOJOVACÍ
  6
Continuous
100
AcDbLine
 10
427.6392663485103
 20
510.9713786634156
 30
0.0
 11
428.3834069849844
 21
509.6216935798647
 31
0.0
  0
LINE
  5
8C97
330
1F
100
AcDbEntity
  8
SPOJOVACÍ
  6
Continuous
100
AcDbLine
 10
426.4393395717788
 20
510.9713786634156
 30
0.0
 11
427.6392663485103
 21
510.9713786634156
 31
0.0
  0
LINE
  5
8C98
330
1F
100
AcDbEntity
  8
SPOJOVACÍ
  6
Continuous
100
AcDbLine
 10
429.4521789743966
 20
508.5110636795061
 30
0.0
 11
430.7711682526941
 21
507.7148332001879
 31
0.0
  0
LINE
  5
8C99
330
1F
100
AcDbEntity
  8
SPOJOVACÍ
  6
Continuous
100
AcDbLine
 10
430.7711682526941
 20
507.7148332001879
 30
0.0
 11
432.2520081197445
 21
507.2869523358885
 31
0.0
  0
LINE
  5
8C9A
330
1F
100
AcDbEntity
  8
SPOJOVACÍ
  6
Continuous
100
AcDbLine
 10
433.0389368428668
 20
504.5215396912308
 30
0.0
 11
431.5153088894375
 21
504.2945768003473
 31
0.0
  0
LINE
  5
8C9B
330
1F
100
AcDbEntity
  8
SPOJOVACÍ
  6
Continuous
100
AcDbLine
 10
431.5153088894375
 20
504.2945768003473
 30
0.0
 11
430.1014416797342
 21
503.6815909511997
 31
0.0
  0
LINE
  5
8C9C
330
1F
100
AcDbEntity
  8
SPOJOVACÍ
  6
Continuous
100
AcDbLine
 10
430.1014416797342
 20
503.6815909511997
 30
0.0
 11
428.5770173700666
 21
502.4719168067231
 31
0.0
  0
LINE
  5
8C9D
330
1F
100
AcDbEntity
  8
SPOJOVACÍ
  6
Continuous
100
AcDbLine
 10
443.1015786018043
 20
507.8934269523951
 30
0.0
 11
444.4614956150771
 21
503.8490225928025
 31
0.0
  0
LINE
  5
8C9E
330
1F
100
AcDbEntity
  8
SPOJOVACÍ
  6
Continuous
100
AcDbLine
 10
443.6978212869589
 20
507.8934269523951
 30
0.0
 11
445.0577383002246
 21
503.8490225928025
 31
0.0
  0
LINE
  5
8C9F
330
1F
100
AcDbEntity
  8
SPOJOVACÍ
  6
Continuous
100
AcDbLine
 10
444.6791567513947
 20
503.4713712218572
 30
0.0
 11
444.4614956150771
 21
503.8490225928025
 31
0.0
  0
LINE
  5
8CA0
330
1F
100
AcDbEntity
  8
SPOJOVACÍ
  6
Continuous
100
AcDbLine
 10
444.6791567513947
 20
503.4713712218572
 30
0.0
 11
445.0577383002246
 21
503.8490225928025
 31
0.0
  0
LINE
  5
8CA1
330
1F
100
AcDbEntity
  8
SPOJOVACÍ
  6
Continuous
100
AcDbLine
 10
443.4792299749324
 20
508.2710783277061
 30
0.0
 11
443.1015786018043
 21
507.8934269523951
 31
0.0
  0
LINE
  5
8CA2
330
1F
100
AcDbEntity
  8
SPOJOVACÍ
  6
Continuous
100
AcDbLine
 10
443.4792299749324
 20
508.2710783277061
 30
0.0
 11
443.6978212869589
 21
507.8934269523951
 31
0.0
  0
LINE
  5
8CA3
330
1F
100
AcDbEntity
  8
SPOJOVACÍ
  6
Continuous
100
AcDbLine
 10
443.4792299749324
 20
508.2710783277061
 30
0.0
 11
444.6791567513947
 21
503.4713712218572
 31
0.0
  0
LINE
  5
8CA4
330
1F
100
AcDbEntity
  8
SPOJOVACÍ
  6
Continuous
100
AcDbLine
 10
439.9817689825659
 20
507.8934269523951
 30
0.0
 11
441.3407558204062
 21
503.8490225928025
 31
0.0
  0
LINE
  5
8CA5
330
1F
100
AcDbEntity
  8
SPOJOVACÍ
  6
Continuous
100
AcDbLine
 10
440.5780116677205
 20
507.8934269523951
 30
0.0
 11
441.9369985052845
 21
503.8490225928025
 31
0.0
  0
LINE
  5
8CA6
330
1F
100
AcDbEntity
  8
SPOJOVACÍ
  6
Continuous
100
AcDbLine
 10
441.5593471324327
 20
503.4713712218572
 30
0.0
 11
441.3407558204062
 21
503.8490225928025
 31
0.0
  0
LINE
  5
8CA7
330
1F
100
AcDbEntity
  8
SPOJOVACÍ
  6
Continuous
100
AcDbLine
 10
441.5593471324327
 20
503.4713712218572
 30
0.0
 11
441.9369985052845
 21
503.8490225928025
 31
0.0
  0
LINE
  5
8CA8
330
1F
100
AcDbEntity
  8
SPOJOVACÍ
  6
Continuous
100
AcDbLine
 10
440.3594203556941
 20
508.2710783277061
 30
0.0
 11
439.9817689825659
 21
507.8934269523951
 31
0.0
  0
LINE
  5
8CA9
330
1F
100
AcDbEntity
  8
SPOJOVACÍ
  6
Continuous
100
AcDbLine
 10
440.3594203556941
 20
508.2710783277061
 30
0.0
 11
440.5780116677205
 21
507.8934269523951
 31
0.0
  0
LINE
  5
8CAA
330
1F
100
AcDbEntity
  8
SPOJOVACÍ
  6
Continuous
100
AcDbLine
 10
440.3594203556941
 20
508.2710783277061
 30
0.0
 11
441.5593471324327
 21
503.4713712218572
 31
0.0
  0
LINE
  5
8CAB
330
1F
100
AcDbEntity
  8
SPOJOVACÍ
  6
Continuous
100
AcDbLine
 10
436.8610291879021
 20
507.8934269523951
 30
0.0
 11
438.2209462011679
 21
503.8490225928025
 31
0.0
  0
LINE
  5
8CAC
330
1F
100
AcDbEntity
  8
SPOJOVACÍ
  6
Continuous
100
AcDbLine
 10
437.4572718727804
 20
507.8934269523951
 30
0.0
 11
438.8171888863225
 21
503.8490225928025
 31
0.0
  0
LINE
  5
8CAD
330
1F
100
AcDbEntity
  8
SPOJOVACÍ
  6
Continuous
100
AcDbLine
 10
438.4395375131943
 20
503.4713712218572
 30
0.0
 11
438.2209462011679
 21
503.8490225928025
 31
0.0
  0
LINE
  5
8CAE
330
1F
100
AcDbEntity
  8
SPOJOVACÍ
  6
Continuous
100
AcDbLine
 10
438.4395375131943
 20
503.4713712218572
 30
0.0
 11
438.8171888863225
 21
503.8490225928025
 31
0.0
  0
LINE
  5
8CAF
330
1F
100
AcDbEntity
  8
SPOJOVACÍ
  6
Continuous
100
AcDbLine
 10
437.2396107367321
 20
508.2710783277061
 30
0.0
 11
436.8610291879021
 21
507.8934269523951
 31
0.0
  0
LINE
  5
8CB0
330
1F
100
AcDbEntity
  8
SPOJOVACÍ
  6
Continuous
100
AcDbLine
 10
437.2396107367321
 20
508.2710783277061
 30
0.0
 11
437.4572718727804
 21
507.8934269523951
 31
0.0
  0
LINE
  5
8CB1
330
1F
100
AcDbEntity
  8
SPOJOVACÍ
  6
Continuous
100
AcDbLine
 10
437.2396107367321
 20
508.2710783277061
 30
0.0
 11
438.4395375131943
 21
503.4713712218572
 31
0.0
  0
LINE
  5
8CB2
330
1F
100
AcDbEntity
  8
SPOJOVACÍ
  6
Continuous
100
AcDbLine
 10
441.7007338532939
 20
504.5215396912308
 30
0.0
 11
444.228951666163
 21
504.5215396912308
 31
0.0
  0
LINE
  5
8CB3
330
1F
100
AcDbEntity
  8
SPOJOVACÍ
  6
Continuous
100
AcDbLine
 10
438.5855751131102
 20
504.5215396912308
 30
0.0
 11
441.1044911681393
 21
504.5215396912308
 31
0.0
  0
LINE
  5
8CB4
330
1F
100
AcDbEntity
  8
SPOJOVACÍ
  6
Continuous
100
AcDbLine
 10
440.794742628067
 20
507.2209098539669
 30
0.0
 11
443.315519034776
 21
507.2209098539669
 31
0.0
  0
LINE
  5
8CB5
330
1F
100
AcDbEntity
  8
SPOJOVACÍ
  6
Continuous
100
AcDbLine
 10
437.6721424817232
 20
507.2209098539669
 30
0.0
 11
440.1910585367523
 21
507.2209098539669
 31
0.0
  0
LINE
  5
8CB6
330
1F
100
AcDbEntity
  8
SPOJOVACÍ
  6
Continuous
100
AcDbLine
 10
433.0389368428668
 20
507.2209098539669
 30
0.0
 11
437.0768299725468
 21
507.2209098539669
 31
0.0
  0
LINE
  5
8CB7
330
1F
100
AcDbEntity
  8
SPOJOVACÍ
  6
Continuous
100
AcDbLine
 10
433.0389368428668
 20
504.5215396912308
 30
0.0
 11
437.9818910217955
 21
504.5215396912308
 31
0.0
  0
LINE
  5
8CB8
330
1F
100
AcDbEntity
  8
SPOJOVACÍ
  6
Continuous
100
AcDbLine
 10
432.2520081197445
 20
507.2869523358885
 30
0.0
 11
433.0389368428668
 21
507.2209098539669
 31
0.0
  0
LINE
  5
8CB9
330
1F
100
AcDbEntity
  8
SPOJOVACÍ
  6
Continuous
100
AcDbLine
 10
449.3411978397353
 20
507.8934269523951
 30
0.0
 11
450.7011148532774
 21
503.8490225928025
 31
0.0
  0
LINE
  5
8CBA
330
1F
100
AcDbEntity
  8
SPOJOVACÍ
  6
Continuous
100
AcDbLine
 10
449.9374405248899
 20
507.8934269523951
 30
0.0
 11
451.2973575384321
 21
503.8490225928025
 31
0.0
  0
LINE
  5
8CBB
330
1F
100
AcDbEntity
  8
SPOJOVACÍ
  6
Continuous
100
AcDbLine
 10
450.9197061653039
 20
503.4713712218572
 30
0.0
 11
450.7011148532774
 21
503.8490225928025
 31
0.0
  0
LINE
  5
8CBC
330
1F
100
AcDbEntity
  8
SPOJOVACÍ
  6
Continuous
100
AcDbLine
 10
450.9197061653039
 20
503.4713712218572
 30
0.0
 11
451.2973575384321
 21
503.8490225928025
 31
0.0
  0
LINE
  5
8CBD
330
1F
100
AcDbEntity
  8
SPOJOVACÍ
  6
Continuous
100
AcDbLine
 10
449.7197793888417
 20
508.2710783277061
 30
0.0
 11
449.3411978397353
 21
507.8934269523951
 31
0.0
  0
LINE
  5
8CBE
330
1F
100
AcDbEntity
  8
SPOJOVACÍ
  6
Continuous
100
AcDbLine
 10
449.7197793888417
 20
508.2710783277061
 30
0.0
 11
449.9374405248899
 21
507.8934269523951
 31
0.0
  0
LINE
  5
8CBF
330
1F
100
AcDbEntity
  8
SPOJOVACÍ
  6
Continuous
100
AcDbLine
 10
449.7197793888417
 20
508.2710783277061
 30
0.0
 11
450.9197061653039
 21
503.4713712218572
 31
0.0
  0
LINE
  5
8CC0
330
1F
100
AcDbEntity
  8
SPOJOVACÍ
  6
Continuous
100
AcDbLine
 10
446.2213882207733
 20
507.8934269523951
 30
0.0
 11
447.5813052343155
 21
503.8490225928025
 31
0.0
  0
LINE
  5
8CC1
330
1F
100
AcDbEntity
  8
SPOJOVACÍ
  6
Continuous
100
AcDbLine
 10
446.8176309059209
 20
507.8934269523951
 30
0.0
 11
448.1775479191937
 21
503.8490225928025
 31
0.0
  0
LINE
  5
8CC2
330
1F
100
AcDbEntity
  8
SPOJOVACÍ
  6
Continuous
100
AcDbLine
 10
447.7989663703637
 20
503.4713712218572
 30
0.0
 11
447.5813052343155
 21
503.8490225928025
 31
0.0
  0
LINE
  5
8CC3
330
1F
100
AcDbEntity
  8
SPOJOVACÍ
  6
Continuous
100
AcDbLine
 10
447.7989663703637
 20
503.4713712218572
 30
0.0
 11
448.1775479191937
 21
503.8490225928025
 31
0.0
  0
LINE
  5
8CC4
330
1F
100
AcDbEntity
  8
SPOJOVACÍ
  6
Continuous
100
AcDbLine
 10
446.5990395939015
 20
508.2710783277061
 30
0.0
 11
446.2213882207733
 21
507.8934269523951
 31
0.0
  0
LINE
  5
8CC5
330
1F
100
AcDbEntity
  8
SPOJOVACÍ
  6
Continuous
100
AcDbLine
 10
446.5990395939015
 20
508.2710783277061
 30
0.0
 11
446.8176309059209
 21
507.8934269523951
 31
0.0
  0
LINE
  5
8CC6
330
1F
100
AcDbEntity
  8
SPOJOVACÍ
  6
Continuous
100
AcDbLine
 10
446.5990395939015
 20
508.2710783277061
 30
0.0
 11
447.7989663703637
 21
503.4713712218572
 31
0.0
  0
LINE
  5
8CC7
330
1F
100
AcDbEntity
  8
SPOJOVACÍ
  6
Continuous
100
AcDbLine
 10
458.8252702537729
 20
506.8879069167078
 30
0.0
 11
459.1359489695469
 21
504.733619775251
 31
0.0
  0
LINE
  5
8CC8
330
1F
100
AcDbEntity
  8
SPOJOVACÍ
  6
Continuous
100
AcDbLine
 10
458.4476188806447
 20
506.5102555457624
 30
0.0
 11
458.9182878332294
 21
505.1112711461964
 31
0.0
  0
LINE
  5
8CC9
330
1F
100
AcDbEntity
  8
SPOJOVACÍ
  6
Continuous
100
AcDbLine
 10
459.0438615657922
 20
506.5102555457624
 30
0.0
 11
459.5145305183769
 21
505.1112711461964
 31
0.0
  0
LINE
  5
8CCA
330
1F
100
AcDbEntity
  8
SPOJOVACÍ
  6
Continuous
100
AcDbLine
 10
459.1359489695469
 20
504.733619775251
 30
0.0
 11
458.9182878332294
 21
505.1112711461964
 31
0.0
  0
LINE
  5
8CCB
330
1F
100
AcDbEntity
  8
SPOJOVACÍ
  6
Continuous
100
AcDbLine
 10
459.1359489695469
 20
504.733619775251
 30
0.0
 11
459.5145305183769
 21
505.1112711461964
 31
0.0
  0
LINE
  5
8CCC
330
1F
100
AcDbEntity
  8
SPOJOVACÍ
  6
Continuous
100
AcDbLine
 10
458.8252702537729
 20
506.8879069167078
 30
0.0
 11
458.4476188806447
 21
506.5102555457624
 31
0.0
  0
LINE
  5
8CCD
330
1F
100
AcDbEntity
  8
SPOJOVACÍ
  6
Continuous
100
AcDbLine
 10
458.8252702537729
 20
506.8879069167078
 30
0.0
 11
459.0438615657922
 21
506.5102555457624
 31
0.0
  0
LINE
  5
8CCE
330
1F
100
AcDbEntity
  8
SPOJOVACÍ
  6
Continuous
100
AcDbLine
 10
455.8115006754532
 20
507.4525236271792
 30
0.0
 11
456.4449503922232
 21
504.336434710748
 31
0.0
  0
LINE
  5
8CCF
330
1F
100
AcDbEntity
  8
SPOJOVACÍ
  6
Continuous
100
AcDbLine
 10
455.4329191263469
 20
507.0748722518683
 30
0.0
 11
456.2272892561749
 21
504.7140860816934
 31
0.0
  0
LINE
  5
8CD0
330
1F
100
AcDbEntity
  8
SPOJOVACÍ
  6
Continuous
100
AcDbLine
 10
456.0291618115015
 20
507.0748722518683
 30
0.0
 11
456.8235319410532
 21
504.7140860816934
 31
0.0
  0
LINE
  5
8CD1
330
1F
100
AcDbEntity
  8
SPOJOVACÍ
  6
Continuous
100
AcDbLine
 10
456.4449503922232
 20
504.336434710748
 30
0.0
 11
456.2272892561749
 21
504.7140860816934
 31
0.0
  0
LINE
  5
8CD2
330
1F
100
AcDbEntity
  8
SPOJOVACÍ
  6
Continuous
100
AcDbLine
 10
456.4449503922232
 20
504.336434710748
 30
0.0
 11
456.8235319410532
 21
504.7140860816934
 31
0.0
  0
LINE
  5
8CD3
330
1F
100
AcDbEntity
  8
SPOJOVACÍ
  6
Continuous
100
AcDbLine
 10
455.8115006754532
 20
507.4525236271792
 30
0.0
 11
455.4329191263469
 21
507.0748722518683
 31
0.0
  0
LINE
  5
8CD4
330
1F
100
AcDbEntity
  8
SPOJOVACÍ
  6
Continuous
100
AcDbLine
 10
455.8115006754532
 20
507.4525236271792
 30
0.0
 11
456.0291618115015
 21
507.0748722518683
 31
0.0
  0
LINE
  5
8CD5
330
1F
100
AcDbEntity
  8
SPOJOVACÍ
  6
Continuous
100
AcDbLine
 10
452.7968009211554
 20
508.0171403332851
 30
0.0
 11
453.76976480346
 21
503.8918106805422
 31
0.0
  0
LINE
  5
8CD6
330
1F
100
AcDbEntity
  8
SPOJOVACÍ
  6
Continuous
100
AcDbLine
 10
452.4191495480272
 20
507.6385587850008
 30
0.0
 11
453.5521036674118
 21
504.2694620514875
 31
0.0
  0
LINE
  5
8CD7
330
1F
100
AcDbEntity
  8
SPOJOVACÍ
  6
Continuous
100
AcDbLine
 10
453.0153922331819
 20
507.6385587850008
 30
0.0
 11
454.1483463525664
 21
504.2694620514875
 31
0.0
  0
LINE
  5
8CD8
330
1F
100
AcDbEntity
  8
SPOJOVACÍ
  6
Continuous
100
AcDbLine
 10
453.76976480346
 20
503.8918106805422
 30
0.0
 11
453.5521036674118
 21
504.2694620514875
 31
0.0
  0
LINE
  5
8CD9
330
1F
100
AcDbEntity
  8
SPOJOVACÍ
  6
Continuous
100
AcDbLine
 10
453.76976480346
 20
503.8918106805422
 30
0.0
 11
454.1483463525664
 21
504.2694620514875
 31
0.0
  0
LINE
  5
8CDA
330
1F
100
AcDbEntity
  8
SPOJOVACÍ
  6
Continuous
100
AcDbLine
 10
452.7968009211554
 20
508.0171403332851
 30
0.0
 11
452.4191495480272
 21
507.6385587850008
 31
0.0
  0
LINE
  5
8CDB
330
1F
100
AcDbEntity
  8
SPOJOVACÍ
  6
Continuous
100
AcDbLine
 10
452.7968009211554
 20
508.0171403332851
 30
0.0
 11
453.0153922331819
 21
507.6385587850008
 31
0.0
  0
LINE
  5
8CDC
330
1F
100
AcDbEntity
  8
SPOJOVACÍ
  6
Continuous
100
AcDbLine
 10
453.3753702660624
 20
504.7671061026985
 30
0.0
 11
451.4043277547762
 21
504.5215396912308
 31
0.0
  0
LINE
  5
8CDD
330
1F
100
AcDbEntity
  8
SPOJOVACÍ
  6
Continuous
100
AcDbLine
 10
456.0821818319609
 20
505.1056900952598
 30
0.0
 11
453.9455680291076
 21
504.8387296399223
 31
0.0
  0
LINE
  5
8CDE
330
1F
100
AcDbEntity
  8
SPOJOVACÍ
  6
Continuous
100
AcDbLine
 10
458.7992253313941
 20
505.4452042564289
 30
0.0
 11
456.6542399464096
 21
505.177313628118
 31
0.0
  0
LINE
  5
8CDF
330
1F
100
AcDbEntity
  8
SPOJOVACÍ
  6
Continuous
100
AcDbLine
 10
459.1154851019246
 20
506.2572477286803
 30
0.0
 11
462.2045989197295
 21
505.8712247747816
 31
0.0
  0
LINE
  5
8CE0
330
1F
100
AcDbEntity
  8
SPOJOVACÍ
  6
Continuous
100
AcDbLine
 10
456.1742692357156
 20
506.6246671663602
 30
0.0
 11
458.4950578460712
 21
506.3344523212062
 31
0.0
  0
LINE
  5
8CE1
330
1F
100
AcDbEntity
  8
SPOJOVACÍ
  6
Continuous
100
AcDbLine
 10
453.2218912599865
 20
506.9939469587179
 30
0.0
 11
455.543610046051
 21
506.7037321091984
 31
0.0
  0
LINE
  5
8CE2
330
1F
100
AcDbEntity
  8
SPOJOVACÍ
  6
Continuous
100
AcDbLine
 10
462.2045989197295
 20
505.8712247747816
 30
0.0
 11
459.368492918461
 21
505.5168277936527
 31
0.0
  0
LINE
  5
8CE3
330
1F
100
AcDbEntity
  8
SPOJOVACÍ
  6
Continuous
100
AcDbLine
 10
451.4043277547762
 20
507.2209098539669
 30
0.0
 11
452.6014640041331
 21
507.0711515512439
 31
0.0
  0
LINE
  5
8CE4
330
1F
100
AcDbEntity
  8
SPOJOVACÍ
  6
Continuous
100
AcDbLine
 10
451.0676041168927
 20
504.5215396912308
 30
0.0
 11
451.4043277547762
 21
504.5215396912308
 31
0.0
  0
LINE
  5
8CE5
330
1F
100
AcDbEntity
  8
SPOJOVACÍ
  6
Continuous
100
AcDbLine
 10
447.9450039702796
 20
504.5215396912308
 30
0.0
 11
450.4639200253087
 21
504.5215396912308
 31
0.0
  0
LINE
  5
8CE6
330
1F
100
AcDbEntity
  8
SPOJOVACÍ
  6
Continuous
100
AcDbLine
 10
450.1569620128875
 20
507.2209098539669
 30
0.0
 11
451.4043277547762
 21
507.2209098539669
 31
0.0
  0
LINE
  5
8CE7
330
1F
100
AcDbEntity
  8
SPOJOVACÍ
  6
Continuous
100
AcDbLine
 10
447.0427334484056
 20
507.2209098539669
 30
0.0
 11
449.5607193277328
 21
507.2209098539669
 31
0.0
  0
LINE
  5
8CE8
330
1F
100
AcDbEntity
  8
SPOJOVACÍ
  6
Continuous
100
AcDbLine
 10
444.8233339996376
 20
504.5215396912308
 30
0.0
 11
447.3441104063467
 21
504.5215396912308
 31
0.0
  0
LINE
  5
8CE9
330
1F
100
AcDbEntity
  8
SPOJOVACÍ
  6
Continuous
100
AcDbLine
 10
443.9099013682507
 20
507.2209098539669
 30
0.0
 11
446.4381191811198
 21
507.2209098539669
 31
0.0
  0
HATCH
  5
8CEA
330
1F
100
AcDbEntity
  8
NOSNÉ KONSTRUKCE
100
AcDbHatch
 10
0.0
 20
0.0
 30
0.0
210
0.0
220
0.0
230
1.0
  2
SOLID
 70
     1
 71
     0
 91
        1
 92
        7
 72
     0
 73
     1
 93
        8
 10
443.6783276167125
 20
525.6062403459882
 10
442.1783276167125
 20
525.6062403459882
 10
442.1783276167125
 20
480.2437606448592
 10
471.1782711065179
 20
480.2437606448738
 10
471.1782711065179
 20
525.6062403459809
 10
469.6782711065179
 20
525.6062403459882
 10
469.6782711065252
 20
481.7437606448593
 10
443.6783276167125
 20
481.7437606448666
 97
        0
 75
     0
 76
     1
 47
0.1358226225865344
 98
        1
 10
442.9524588280192
 20
520.0741961387402
  0
LINE
  5
8CEB
330
1F
100
AcDbEntity
  8
NOSNÉ KONSTRUKCE
100
AcDbLine
 10
442.1137246429289
 20
480.3181768990116
 30
0.0
 11
442.1137246429216
 21
780.2512199950715
 31
0.0
  0
LINE
  5
8CEC
330
1F
100
AcDbEntity
  8
NOSNÉ KONSTRUKCE
100
AcDbLine
 10
447.7855551007605
 20
480.3181768990116
 30
0.0
 11
447.7855551007605
 21
780.2512199950715
 31
0.0
  0
LINE
  5
8CED
330
1F
100
AcDbEntity
  8
NOSNÉ KONSTRUKCE
100
AcDbLine
 10
450.535516569188
 20
480.3181768990116
 30
0.0
 11
450.5355165691953
 21
780.2512199950715
 31
0.0
  0
LINE
  5
8CEE
330
1F
100
AcDbEntity
  8
NOSNÉ KONSTRUKCE
100
AcDbLine
 10
455.0993714687729
 20
480.3181768990116
 30
0.0
 11
455.0993714687729
 21
780.2512199950715
 31
0.0
  0
LINE
  5
8CEF
330
1F
100
AcDbEntity
  8
NOSNÉ KONSTRUKCE
100
AcDbLine
 10
457.6004536842747
 20
480.3181768990116
 30
0.0
 11
457.6004536842747
 21
780.2512199950715
 31
0.0
  0
LINE
  5
8CF0
330
1F
100
AcDbEntity
  8
NOSNÉ KONSTRUKCE
100
AcDbLine
 10
462.7566360948049
 20
480.3181768990116
 30
0.0
 11
462.7566360948049
 21
780.2512199950715
 31
0.0
  0
LINE
  5
8CF1
330
1F
100
AcDbEntity
  8
NOSNÉ KONSTRUKCE
100
AcDbLine
 10
465.2995344380769
 20
480.3181768990116
 30
0.0
 11
465.2995344380769
 21
780.2512199950715
 31
0.0
  0
LINE
  5
8CF2
330
1F
100
AcDbEntity
  8
NOSNÉ KONSTRUKCE
100
AcDbLine
 10
471.178465278871
 20
480.3181768990116
 30
0.0
 11
471.178465278871
 21
780.2512199950715
 31
0.0
  0
LINE
  5
8CF3
330
1F
100
AcDbEntity
  8
NOSNÉ KONSTRUKCE
100
AcDbLine
 10
603.3275091994956
 20
480.3181768990116
 30
0.0
 11
603.3275091994956
 21
780.2512199950715
 31
0.0
  0
LINE
  5
8CF4
330
1F
100
AcDbEntity
  8
NOSNÉ KONSTRUKCE
100
AcDbLine
 10
609.2064400402896
 20
480.3181768990116
 30
0.0
 11
609.2064400402896
 21
780.2512199950715
 31
0.0
  0
LINE
  5
8CF5
330
1F
100
AcDbEntity
  8
NOSNÉ KONSTRUKCE
100
AcDbLine
 10
611.7493383835617
 20
480.3181768990116
 30
0.0
 11
611.7493383835617
 21
780.2512199950715
 31
0.0
  0
LINE
  5
8CF6
330
1F
100
AcDbEntity
  8
NOSNÉ KONSTRUKCE
100
AcDbLine
 10
616.9055207940918
 20
480.3181768990116
 30
0.0
 11
616.9055207940918
 21
780.2512199950715
 31
0.0
  0
LINE
  5
8CF7
330
1F
100
AcDbEntity
  8
NOSNÉ KONSTRUKCE
100
AcDbLine
 10
619.4066030095937
 20
480.3181768990116
 30
0.0
 11
619.4066030095937
 21
780.2512199950715
 31
0.0
  0
LINE
  5
8CF8
330
1F
100
AcDbEntity
  8
NOSNÉ KONSTRUKCE
100
AcDbLine
 10
623.9704579091785
 20
480.3181768990116
 30
0.0
 11
623.9704579091712
 21
780.2512199950715
 31
0.0
  0
LINE
  5
8CF9
330
1F
100
AcDbEntity
  8
NOSNÉ KONSTRUKCE
100
AcDbLine
 10
626.720419377606
 20
480.3181768990116
 30
0.0
 11
626.720419377606
 21
780.2512199950715
 31
0.0
  0
LINE
  5
8CFA
330
1F
100
AcDbEntity
  8
NOSNÉ KONSTRUKCE
100
AcDbLine
 10
632.3922498354377
 20
480.3181768990116
 30
0.0
 11
632.3922498354449
 21
780.2512199950715
 31
0.0
  0
HATCH
  5
8CFB
330
1F
100
AcDbEntity
  8
NOSNÉ KONSTRUKCE
100
AcDbHatch
 10
0.0
 20
0.0
 30
0.0
210
0.0
220
0.0
230
1.0
  2
SOLID
 70
     1
 71
     0
 91
        1
 92
        7
 72
     0
 73
     1
 93
        8
 10
630.8276468616541
 20
735.6790612186969
 10
632.3276468616541
 20
735.6790612186969
 10
632.3276468616541
 20
781.0415409198258
 10
603.3277033718486
 20
781.0415409198112
 10
603.3277033718486
 20
735.6790612187041
 10
604.8277033718486
 20
735.6790612186969
 10
604.8277033718413
 20
779.5415409198258
 10
630.8276468616541
 20
779.5415409198185
 97
        0
 75
     0
 76
     1
 47
0.1358226225865344
 98
        1
 10
631.5535156503474
 20
741.2111054259448
  0
HATCH
  5
8CFC
330
1F
100
AcDbEntity
  8
NOSNÉ KONSTRUKCE
100
AcDbHatch
 10
0.0
 20
0.0
 30
0.0
210
0.0
220
0.0
230
1.0
  2
SOLID
 70
     1
 71
     0
 91
        1
 92
        7
 72
     0
 73
     1
 93
        8
 10
630.8276468616541
 20
525.6062403459882
 10
632.3276468616541
 20
525.6062403459882
 10
632.3276468616541
 20
480.2437606448592
 10
603.3277033718486
 20
480.2437606448738
 10
603.3277033718486
 20
525.6062403459809
 10
604.8277033718486
 20
525.6062403459882
 10
604.8277033718413
 20
481.7437606448593
 10
630.8276468616541
 20
481.7437606448666
 97
        0
 75
     0
 76
     1
 47
0.1358226225865344
 98
        1
 10
631.5535156503474
 20
520.0741961387402
  0
HATCH
  5
8CFD
330
1F
100
AcDbEntity
  8
NOSNÉ KONSTRUKCE
100
AcDbHatch
 10
0.0
 20
0.0
 30
0.0
210
0.0
220
0.0
230
1.0
  2
SOLID
 70
     1
 71
     0
 91
        1
 92
        7
 72
     0
 73
     1
 93
        8
 10
1180.108380630133
 20
543.7576135791105
 10
1180.108380630133
 20
542.2576135791104
 10
1225.470860331262
 20
542.2576135791104
 10
1225.470860331247
 20
571.257557068916
 10
1180.10838063014
 20
571.257557068916
 10
1180.108380630133
 20
569.7575570689159
 10
1223.970860331262
 20
569.7575570689195
 10
1223.970860331254
 20
543.7576135791105
 97
        0
 75
     0
 76
     1
 47
0.1358226225865344
 98
        1
 10
1185.640424837381
 20
543.0317447904172
  0
HATCH
  5
8CFF
330
1F
100
AcDbEntity
  8
STAVBA OBRYS
100
AcDbHatch
 10
0.0
 20
0.0
 30
0.0
210
0.0
220
0.0
230
1.0
  2
ANSI37
 70
     0
 71
     0
 91
        1
 92
       33
 93
       20
 72
     2
 10
521.052547786051
 20
751.0254509521119
 40
10.8000001907349
 50
359.9999640278023
 51
441.9855113526055
 73
     1
 72
     1
 10
599.7529872391833
 20
780.2512199950734
 11
474.7529872391833
 21
780.2512199950734
 72
     1
 10
551.946590754801
 20
761.7198479247608
 11
594.1592372391832
 21
767.6633293700733
 72
     2
 10
553.452450129801
 20
751.0253288817921
 40
10.8000001907349
 50
98.0144626931402
 51
179.9999826971702
 73
     1
 72
     1
 10
599.7529872391833
 20
774.0998528075733
 11
599.7529872391833
 21
780.2512199950734
 72
     2
 10
593.2529872391833
 20
774.099852807566
 40
6.5
 50
278.0144576841643
 51
359.9999776881807
 73
     1
 72
     1
 10
522.558407161051
 20
761.7199699950734
 11
480.3467372391833
 21
767.6633293700733
 72
     1
 10
474.7529872391833
 20
774.0998528075733
 11
474.7529872391833
 21
780.2512199950734
 72
     2
 10
481.2529872391833
 20
774.099852807566
 40
6.5
 50
180.0000273207566
 51
261.9855473248187
 73
     1
 72
     1
 10
599.7529872391833
 20
480.2512199950733
 11
474.7529872391833
 21
480.2512199950733
 72
     2
 10
521.052547786051
 20
509.4769890380421
 40
10.8000001907349
 50
278.0145259859518
 51
359.9999640278023
 73
     1
 72
     1
 10
522.558407161051
 20
498.7824699950733
 11
480.3467372391833
 21
492.8391106200733
 72
     1
 10
474.7529872391833
 20
486.4025871825734
 11
474.7529872391833
 21
480.2512199950733
 72
     2
 10
481.2529872391833
 20
486.4025871825661
 40
6.5
 50
98.0144626931402
 51
179.9999826971702
 73
     1
 72
     1
 10
531.8525966141833
 20
751.0254509521119
 11
531.8525966141833
 21
509.4769890380421
 72
     1
 10
542.6524013016833
 20
751.0253288817921
 11
542.6524013016833
 21
509.4771111083619
 72
     2
 10
553.452450129801
 20
509.4771111083619
 40
10.8000001907349
 50
180.0
 51
261.9855473248187
 73
     1
 72
     1
 10
551.946590754801
 20
498.7825920653931
 11
594.1592372391832
 21
492.8391106200733
 72
     1
 10
599.7529872391833
 20
486.4025871825734
 11
599.7529872391833
 21
480.2512199950733
 72
     2
 10
593.2529872391833
 20
486.4025871825661
 40
6.5
 50
360.000032329694
 51
441.9855523338019
 73
     1
 97
        0
 75
     0
 76
     1
 52
90.0
 41
1.0
 77
     0
 78
     2
 53
135.0
 43
-30411.98118666884
 44
-8501.575679319511
 45
-2.245064030267288
 46
-2.245064030267287
 79
     0
 53
225.0
 43
-30411.98118666884
 44
-8501.575679319511
 45
2.245064030267287
 46
-2.245064030267288
 79
     0
 98
        1
 10
9044.192559838789
 20
-34232.73430340823
  0
ARC
  5
8D00
330
1F
100
AcDbEntity
  8
STAVBA OBRYS
100
AcDbCircle
 10
593.2529872391833
 20
774.0998528075679
 30
0.0
 40
6.5
100
AcDbArc
 50
278.0144576841574
 51
359.9999776881807
  0
LINE
  5
8D01
330
1F
100
AcDbEntity
  8
STAVBA OBRYS
100
AcDbLine
 10
551.946590754801
 20
761.7198479247608
 30
0.0
 11
594.1592372391832
 21
767.6633293700733
 31
0.0
  0
LINE
  5
8D02
330
1F
100
AcDbEntity
  8
STAVBA OBRYS
100
AcDbLine
 10
542.6524013016833
 20
751.0253288817921
 30
0.0
 11
542.6524013016833
 21
509.4771111083619
 31
0.0
  0
LINE
  5
8D03
330
1F
100
AcDbEntity
  8
STAVBA OBRYS
100
AcDbLine
 10
531.8525966141833
 20
751.0254509521119
 30
0.0
 11
531.8525966141833
 21
509.4769890380421
 31
0.0
  0
ARC
  5
8D04
330
1F
100
AcDbEntity
  8
STAVBA OBRYS
100
AcDbCircle
 10
553.452450129801
 20
509.4771111083637
 30
0.0
 40
10.8000001907349
100
AcDbArc
 50
180.0
 51
261.9855473248108
  0
ARC
  5
8D05
330
1F
100
AcDbEntity
  8
STAVBA OBRYS
100
AcDbCircle
 10
481.2529872391833
 20
486.4025871825679
 30
0.0
 40
6.5
100
AcDbArc
 50
98.01446269314151
 51
179.9999826972223
  0
LINE
  5
8D06
330
1F
100
AcDbEntity
  8
STAVBA OBRYS
100
AcDbLine
 10
474.7529872391833
 20
486.4025871825734
 30
0.0
 11
474.7529872391833
 21
480.2512199950733
 31
0.0
  0
LINE
  5
8D07
330
1F
100
AcDbEntity
  8
STAVBA OBRYS
100
AcDbLine
 10
522.558407161051
 20
498.7824699950733
 30
0.0
 11
480.3467372391833
 21
492.8391106200733
 31
0.0
  0
ARC
  5
8D08
330
1F
100
AcDbEntity
  8
STAVBA OBRYS
100
AcDbCircle
 10
521.052547786051
 20
509.4769890380439
 30
0.0
 40
10.8000001907349
100
AcDbArc
 50
278.0145259859509
 51
359.9999640278023
  0
LINE
  5
8D09
330
1F
100
AcDbEntity
  8
STAVBA OBRYS
100
AcDbLine
 10
551.946590754801
 20
498.7825920653931
 30
0.0
 11
594.1592372391832
 21
492.8391106200733
 31
0.0
  0
LINE
  5
8D0A
330
1F
100
AcDbEntity
  8
STAVBA OBRYS
100
AcDbLine
 10
599.7529872391833
 20
480.2512199950733
 30
0.0
 11
474.7529872391833
 21
480.2512199950733
 31
0.0
  0
ARC
  5
8D0B
330
1F
100
AcDbEntity
  8
STAVBA OBRYS
100
AcDbCircle
 10
593.2529872391833
 20
486.4025871825679
 30
0.0
 40
6.5
100
AcDbArc
 50
0.0000323296940839
 51
81.98555233379499
  0
LINE
  5
8D0C
330
1F
100
AcDbEntity
  8
STAVBA OBRYS
100
AcDbLine
 10
599.7529872391833
 20
486.4025871825734
 30
0.0
 11
599.7529872391833
 21
480.2512199950733
 31
0.0
  0
ARC
  5
8D0D
330
1F
100
AcDbEntity
  8
STAVBA OBRYS
100
AcDbCircle
 10
481.2529872391833
 20
774.0998528075679
 30
0.0
 40
6.5
100
AcDbArc
 50
180.0000273207566
 51
261.9855473248108
  0
LINE
  5
8D0E
330
1F
100
AcDbEntity
  8
STAVBA OBRYS
100
AcDbLine
 10
474.7529872391833
 20
774.0998528075733
 30
0.0
 11
474.7529872391833
 21
780.2512199950734
 31
0.0
  0
LINE
  5
8D0F
330
1F
100
AcDbEntity
  8
STAVBA OBRYS
100
AcDbLine
 10
522.558407161051
 20
761.7199699950734
 30
0.0
 11
480.3467372391833
 21
767.6633293700733
 31
0.0
  0
ARC
  5
8D10
330
1F
100
AcDbEntity
  8
STAVBA OBRYS
100
AcDbCircle
 10
553.452450129801
 20
751.0253288817939
 30
0.0
 40
10.8000001907349
100
AcDbArc
 50
98.01446269314151
 51
179.9999826972223
  0
LINE
  5
8D11
330
1F
100
AcDbEntity
  8
STAVBA OBRYS
100
AcDbLine
 10
599.7529872391833
 20
780.2512199950734
 30
0.0
 11
474.7529872391833
 21
780.2512199950734
 31
0.0
  0
ARC
  5
8D12
330
1F
100
AcDbEntity
  8
STAVBA OBRYS
100
AcDbCircle
 10
521.052547786051
 20
751.0254509521137
 30
0.0
 40
10.8000001907349
100
AcDbArc
 50
359.9999640278023
 51
81.98551135260554
  0
LINE
  5
8D13
330
1F
100
AcDbEntity
  8
STAVBA OBRYS
100
AcDbLine
 10
599.7529872391833
 20
774.0998528075733
 30
0.0
 11
599.7529872391833
 21
780.2512199950734
 31
0.0
  0
LWPOLYLINE
  5
8D14
330
1F
100
AcDbEntity
  8
NOSNÉ KONSTRUKCE
100
AcDbPolyline
 90
        2
 70
     0
 43
0.0
 10
619.4965508732503
 20
464.2581541527115
 10
585.1403928649752
 20
464.2581541527115
  0
LINE
  5
8D15
330
1F
100
AcDbEntity
  8
NOSNÉ KONSTRUKCE
100
AcDbLine
 10
632.9896190534864
 20
479.4269058308718
 30
0.0
 11
571.6398592661508
 21
479.42690583087
 31
0.0
  0
LINE
  5
8D16
330
1F
100
AcDbEntity
  8
NOSNÉ KONSTRUKCE
100
AcDbLine
 10
602.3124365302728
 20
479.4269058308718
 30
0.0
 11
602.3124365302582
 21
504.0466020706944
 31
0.0
  0
LINE
  5
8D17
330
1F
100
AcDbEntity
  8
NOSNÉ KONSTRUKCE
100
AcDbLine
 10
600.3124365302729
 20
479.4269058308718
 30
0.0
 11
600.3124365302729
 21
502.2009351108908
 31
0.0
  0
LINE
  5
8D18
330
1F
100
AcDbEntity
  8
NOSNÉ KONSTRUKCE
100
AcDbLine
 10
599.3925708114048
 20
503.197719188306
 30
0.0
 11
586.8410974717199
 21
504.2067675028074
 31
0.0
  0
LINE
  5
8D19
330
1F
100
AcDbEntity
  8
NOSNÉ KONSTRUKCE
100
AcDbLine
 10
601.3925708113902
 20
505.0433861481097
 30
0.0
 11
560.8612589106424
 21
508.3018125376702
 31
0.0
  0
ARC
  5
8D1A
330
1F
100
AcDbEntity
  8
NOSNÉ KONSTRUKCE
100
AcDbCircle
 10
574.326763183687
 20
509.2715025837906
 30
0.0
 40
13.50037422122492
100
AcDbArc
 50
184.118925148712
 51
337.9660968680481
  0
ARC
  5
8D1B
330
1F
100
AcDbEntity
  8
NOSNÉ KONSTRUKCE
100
AcDbCircle
 10
587.2169103584829
 20
479.8407003713155
 30
0.0
 40
15.58254621860396
100
AcDbArc
 50
181.5216683935181
 51
198.535612153178
  0
LINE
  5
8D1C
330
1F
100
AcDbEntity
  8
NOSNÉ KONSTRUKCE
100
AcDbLine
 10
578.6884832994192
 20
474.8871020340384
 30
0.0
 11
578.6884832994192
 21
469.8519325195603
 31
0.0
  0
LINE
  5
8D1D
330
1F
100
AcDbEntity
  8
NOSNÉ KONSTRUKCE
100
AcDbLine
 10
578.6884832994192
 20
469.8519325195603
 30
0.0
 11
573.1804487405761
 21
469.8519325195603
 31
0.0
  0
LINE
  5
8D1E
330
1F
100
AcDbEntity
  8
NOSNÉ KONSTRUKCE
100
AcDbLine
 10
572.4426892227429
 20
474.8871020340366
 30
0.0
 11
578.6884832994265
 21
474.8871020340366
 31
0.0
  0
ARC
  5
8D1F
330
1F
100
AcDbEntity
  8
NOSNÉ KONSTRUKCE
100
AcDbCircle
 10
585.1403928649752
 20
479.8407003713155
 30
0.0
 40
15.58254621860396
100
AcDbArc
 50
219.868131591114
 51
270.0
  0
ARC
  5
8D20
330
1F
100
AcDbEntity
  8
NOSNÉ KONSTRUKCE
100
AcDbCircle
 10
619.4965508732503
 20
479.8407003713155
 30
0.0
 40
15.58254621860396
100
AcDbArc
 50
270.0
 51
320.131868408886
  0
LINE
  5
8D21
330
1F
100
AcDbEntity
  8
NOSNÉ KONSTRUKCE
100
AcDbLine
 10
632.1867890968942
 20
474.8871020340384
 30
0.0
 11
625.9484604388062
 21
474.8871020340366
 31
0.0
  0
LINE
  5
8D22
330
1F
100
AcDbEntity
  8
NOSNÉ KONSTRUKCE
100
AcDbLine
 10
625.9484604388062
 20
469.8519325195603
 30
0.0
 11
631.4564949976492
 21
469.8519325195603
 31
0.0
  0
LINE
  5
8D23
330
1F
100
AcDbEntity
  8
NOSNÉ KONSTRUKCE
100
AcDbLine
 10
625.9484604388062
 20
474.8871020340384
 30
0.0
 11
625.9484604388062
 21
469.8519325195603
 31
0.0
  0
ARC
  5
8D24
330
1F
100
AcDbEntity
  8
NOSNÉ KONSTRUKCE
100
AcDbCircle
 10
617.4125679611543
 20
479.8407003713155
 30
0.0
 40
15.58254621860396
100
AcDbArc
 50
341.4643878468219
 51
358.4783316064819
  0
HATCH
  5
8D25
330
1F
100
AcDbEntity
  8
NOSNÉ KONSTRUKCE
100
AcDbHatch
 10
0.0
 20
0.0
 30
0.0
210
0.0
220
0.0
230
1.0
  2
SOLID
 70
     1
 71
     0
 91
        1
 92
        7
 72
     0
 73
     1
 93
       68
 10
632.760152842603
 20
463.6051286566116
 10
631.174380574791
 20
465.190877684884
 10
632.7601680153029
 20
466.776611540089
 10
632.7601939175447
 20
472.1908532880088
 10
628.7602023227236
 20
472.1908724243558
 10
628.760197538636
 20
471.1908724243667
 10
631.7601891334643
 20
471.1908580721164
 10
631.7601699969827
 20
467.1908369814381
 10
629.7601498836238
 20
465.1908844506969
 10
631.7601508609523
 20
463.1909127834632
 10
631.7601317244634
 20
459.1908916927923
 10
629.7601140030101
 20
457.6909054636116
 10
631.7601173722151
 20
456.1909000979494
 10
631.7600982357262
 20
452.1908790072802
 10
629.7600781223746
 20
450.1909264765426
 10
631.760079099703
 20
448.1909548093035
 10
631.7600599632141
 20
444.1909337186307
 10
620.7601230797308
 20
444.1909863433948
 10
618.7601221023951
 20
446.1909580106266
 10
614.7601494580603
 20
446.1909771468845
 10
612.760129344716
 20
444.1910246161397
 10
601.7601924612254
 20
444.1910772409
 10
590.7602555777275
 20
444.1911298656641
 10
588.7602546004063
 20
446.191101532896
 10
584.7602819560789
 20
446.1911206691556
 10
582.7602618427272
 20
444.191168138409
 10
571.7603249592293
 20
444.191220763173
 10
571.7603440957255
 20
448.1912418538459
 10
573.7603642090626
 20
450.1911943845925
 10
571.7603632317413
 20
452.1911660518262
 10
571.7603823682229
 20
456.1911871425008
 10
573.7604000896981
 20
457.6911733716688
 10
571.7603967204786
 20
459.1911787373383
 10
571.7604158569675
 20
463.1911998280092
 10
573.760435970319
 20
465.191152358745
 10
571.7604349929979
 20
467.1911240259933
 10
571.7604541294722
 20
471.191145116657
 10
574.7601873825852
 20
471.1911307656436
 10
574.7601825997271
 20
472.1908724243558
 10
570.7601910048988
 20
472.1908532880088
 10
570.7602169071406
 20
466.7766115401
 10
572.3460043476598
 20
465.1908776848768
 10
570.7602320798405
 20
463.6051286566098
 10
570.7602555900676
 20
458.6908844863783
 10
572.0935956400872
 20
457.6908974900807
 10
570.7602651581773
 20
456.6908977361626
 10
570.7602886684044
 20
451.7766535659439
 10
572.3460761089163
 20
450.1909197107242
 10
570.7603038410898
 20
448.6051706824464
 10
570.7603058213435
 20
448.1912466377589
 10
570.76034409574
 20
448.1912466379426
 10
570.7603249592438
 20
444.1912255472716
 10
570.7603297433534
 20
443.1909289345467
 10
583.1744730943474
 20
443.1909883250091
 10
585.1744740716831
 20
445.1909599922428
 10
588.3460337809529
 20
445.1909751652902
 10
590.3459446773931
 20
443.191131847755
 10
613.1743310281535
 20
443.1910226345471
 10
615.1743511415197
 20
445.190975165292
 10
618.345910850775
 20
445.1909599922428
 10
620.3459118280961
 20
443.1909883250091
 10
632.7600551790974
 20
443.1909289345467
 10
632.760081081361
 20
448.6051706824391
 10
631.1743088135345
 20
450.1909197107279
 10
632.7600962540536
 20
451.7766535659511
 10
632.7601197642734
 20
456.6908977361645
 10
631.4267892823636
 20
457.6908974900752
 10
632.7601293323832
 20
458.6908844863747
 97
        0
 75
     0
 76
     1
 47
0.131671459398827
 98
        1
 10
632.0797771603256
 20
461.4740469040125
  0
ARC
  5
8D26
330
1F
100
AcDbEntity
  8
NOSNÉ KONSTRUKCE
100
AcDbCircle
 10
599.3124365302728
 20
502.2009351108908
 30
0.0
 40
1.0
100
AcDbArc
 50
0.0
 51
85.40371574155786
  0
ARC
  5
8D27
330
1F
100
AcDbEntity
  8
NOSNÉ KONSTRUKCE
100
AcDbCircle
 10
601.3124365302583
 20
504.0466020706944
 30
0.0
 40
1.0
100
AcDbArc
 50
0.0
 51
85.40371574155786
  0
ARC
  5
8D28
330
1F
100
AcDbEntity
  8
NOSNÉ KONSTRUKCE
100
AcDbCircle
 10
473.1935379481083
 20
504.0466020706944
 30
0.0
 40
1.0
100
AcDbArc
 50
94.59628425844213
 51
180.0
  0
ARC
  5
8D29
330
1F
100
AcDbEntity
  8
NOSNÉ KONSTRUKCE
100
AcDbCircle
 10
475.1935379480937
 20
502.2009351108908
 30
0.0
 40
1.0
100
AcDbArc
 50
94.59628425844213
 51
180.0
  0
LINE
  5
8D2A
330
1F
100
AcDbEntity
  8
NOSNÉ KONSTRUKCE
100
AcDbLine
 10
473.1134036669764
 20
505.0433861481097
 30
0.0
 11
513.6447155677242
 21
508.3018125376702
 31
0.0
  0
LINE
  5
8D2B
330
1F
100
AcDbEntity
  8
NOSNÉ KONSTRUKCE
100
AcDbLine
 10
475.1134036669618
 20
503.197719188306
 30
0.0
 11
487.6648770066467
 21
504.2067675028074
 31
0.0
  0
LINE
  5
8D2C
330
1F
100
AcDbEntity
  8
NOSNÉ KONSTRUKCE
100
AcDbLine
 10
474.1935379480938
 20
479.4269058308718
 30
0.0
 11
474.1935379480938
 21
502.2009351108908
 31
0.0
  0
LINE
  5
8D2D
330
1F
100
AcDbEntity
  8
NOSNÉ KONSTRUKCE
100
AcDbLine
 10
472.1935379480937
 20
479.4269058308718
 30
0.0
 11
472.1935379481083
 21
504.0466020706944
 31
0.0
  0
ARC
  5
8D2E
330
1F
100
AcDbEntity
  8
NOSNÉ KONSTRUKCE
100
AcDbCircle
 10
500.1792112946795
 20
509.2715025837906
 30
0.0
 40
13.50037422122492
100
AcDbArc
 50
202.0339031319517
 51
355.8810748512879
  0
HATCH
  5
8D2F
330
1F
100
AcDbEntity
  8
NOSNÉ KONSTRUKCE
100
AcDbHatch
 10
0.0
 20
0.0
 30
0.0
210
0.0
220
0.0
230
1.0
  2
SOLID
 70
     1
 71
     0
 91
        1
 92
        7
 72
     0
 73
     1
 93
       68
 10
441.7458216357636
 20
463.6051286566116
 10
443.3315939035756
 20
465.190877684884
 10
441.7458064630636
 20
466.776611540089
 10
441.7457805608218
 20
472.1908532880088
 10
445.7457721556429
 20
472.1908724243558
 10
445.7457769397306
 20
471.1908724243667
 10
442.7457853449022
 20
471.1908580721164
 10
442.7458044813838
 20
467.1908369814381
 10
444.7458245947427
 20
465.1908844506969
 10
442.7458236174143
 20
463.1909127834632
 10
442.7458427539031
 20
459.1908916927923
 10
444.7458604753564
 20
457.6909054636116
 10
442.7458571061515
 20
456.1909000979494
 10
442.7458762426404
 20
452.1908790072802
 10
444.745896355992
 20
450.1909264765426
 10
442.7458953786636
 20
448.1909548093035
 10
442.7459145151524
 20
444.1909337186307
 10
453.7458513986357
 20
444.1909863433948
 10
455.7458523759715
 20
446.1909580106266
 10
459.7458250203062
 20
446.1909771468845
 10
461.7458451336506
 20
444.1910246161397
 10
472.7457820171411
 20
444.1910772409
 10
483.745718900639
 20
444.1911298656641
 10
485.7457198779602
 20
446.191101532896
 10
489.7456925222877
 20
446.1911206691556
 10
491.7457126356394
 20
444.191168138409
 10
502.7456495191372
 20
444.191220763173
 10
502.7456303826411
 20
448.1912418538459
 10
500.745610269304
 20
450.1911943845925
 10
502.7456112466252
 20
452.1911660518262
 10
502.7455921101436
 20
456.1911871425008
 10
500.7455743886684
 20
457.6911733716688
 10
502.745577757888
 20
459.1911787373383
 10
502.7455586213991
 20
463.1911998280092
 10
500.7455385080475
 20
465.191152358745
 10
502.7455394853687
 20
467.1911240259933
 10
502.7455203488943
 20
471.191145116657
 10
499.7457870957815
 20
471.1911307656436
 10
499.7457918786394
 20
472.1908724243558
 10
503.7457834734677
 20
472.1908532880088
 10
503.7457575712259
 20
466.7766115401
 10
502.1599701307068
 20
465.1908776848768
 10
503.745742398526
 20
463.6051286566098
 10
503.745718888299
 20
458.6908844863783
 10
502.4123788382794
 20
457.6908974900807
 10
503.7457093201892
 20
456.6908977361626
 10
503.7456858099622
 20
451.7766535659439
 10
502.1598983694502
 20
450.1909197107242
 10
503.7456706372767
 20
448.6051706824464
 10
503.745668657023
 20
448.1912466377589
 10
503.7456303826266
 20
448.1912466379426
 10
503.7456495191227
 20
444.1912255472716
 10
503.7456447350132
 20
443.1909289345467
 10
491.3315013840192
 20
443.1909883250091
 10
489.3315004066835
 20
445.1909599922428
 10
486.1599406974137
 20
445.1909751652902
 10
484.1600298009734
 20
443.191131847755
 10
461.331643450213
 20
443.1910226345471
 10
459.3316233368468
 20
445.190975165292
 10
456.1600636275916
 20
445.1909599922428
 10
454.1600626502704
 20
443.1909883250091
 10
441.7459192992692
 20
443.1909289345467
 10
441.7458933970055
 20
448.6051706824391
 10
443.3316656648321
 20
450.1909197107279
 10
441.7458782243129
 20
451.7766535659511
 10
441.7458547140931
 20
456.6908977361645
 10
443.0791851960029
 20
457.6908974900752
 10
441.7458451459833
 20
458.6908844863747
 97
        0
 75
     0
 76
     1
 47
0.131671459398827
 98
        1
 10
442.4261973180409
 20
461.4740469040125
  0
LINE
  5
8D30
330
1F
100
AcDbEntity
  8
NOSNÉ KONSTRUKCE
100
AcDbLine
 39
2500.000155029299
 10
441.7459192992692
 20
443.1909289345467
 30
0.0
 11
454.1600626502704
 21
443.1909883250091
 31
0.0
  0
LINE
  5
8D31
330
1F
100
AcDbEntity
  8
NOSNÉ KONSTRUKCE
100
AcDbLine
 39
2500.000155029299
 10
441.7458933970055
 20
448.6051706824464
 30
0.0
 11
441.7459192992692
 21
443.1909289345467
 31
0.0
  0
LINE
  5
8D32
330
1F
100
AcDbEntity
  8
NOSNÉ KONSTRUKCE
100
AcDbLine
 39
2500.000155029299
 10
442.7459145151524
 20
444.1909337186307
 30
0.0
 11
453.745851398643
 21
444.1909863433948
 31
0.0
  0
LINE
  5
8D33
330
1F
100
AcDbEntity
  8
NOSNÉ KONSTRUKCE
100
AcDbLine
 39
2500.000155029299
 10
442.7458953786636
 20
448.1909548093035
 30
0.0
 11
442.7459145151524
 21
444.1909337186307
 31
0.0
  0
ARC
  5
8D34
330
1F
100
AcDbEntity
  8
NOSNÉ KONSTRUKCE
100
AcDbCircle
 10
457.135107289775
 20
479.8407003713155
 30
0.0
 40
15.58254621860396
100
AcDbArc
 50
181.5216683935181
 51
198.535612153178
  0
LINE
  5
8D35
330
1F
100
AcDbEntity
  8
NOSNÉ KONSTRUKCE
100
AcDbLine
 10
448.5575140395603
 20
474.8871020340384
 30
0.0
 11
448.5575140395603
 21
469.8519325195603
 31
0.0
  0
LINE
  5
8D36
330
1F
100
AcDbEntity
  8
NOSNÉ KONSTRUKCE
100
AcDbLine
 10
448.5575140395603
 20
469.8519325195603
 30
0.0
 11
443.0494794807173
 21
469.8519325195603
 31
0.0
  0
LINE
  5
8D37
330
1F
100
AcDbEntity
  8
NOSNÉ KONSTRUKCE
100
AcDbLine
 10
442.3608861540351
 20
474.8871020340384
 30
0.0
 11
448.5575140395603
 21
474.8871020340366
 31
0.0
  0
ARC
  5
8D38
330
1F
100
AcDbEntity
  8
NOSNÉ KONSTRUKCE
100
AcDbCircle
 10
455.0094236051164
 20
479.8407003713155
 30
0.0
 40
15.58254621860396
100
AcDbArc
 50
219.868131591114
 51
270.0
  0
ARC
  5
8D39
330
1F
100
AcDbEntity
  8
NOSNÉ KONSTRUKCE
100
AcDbCircle
 10
489.3655816133914
 20
479.8407003713155
 30
0.0
 40
15.58254621860396
100
AcDbArc
 50
270.0
 51
320.131868408886
  0
LINE
  5
8D3A
330
1F
100
AcDbEntity
  8
NOSNÉ KONSTRUKCE
100
AcDbLine
 10
502.0141190644799
 20
474.8871020340366
 30
0.0
 11
495.8174911789401
 21
474.8871020340366
 31
0.0
  0
LINE
  5
8D3B
330
1F
100
AcDbEntity
  8
NOSNÉ KONSTRUKCE
100
AcDbLine
 10
495.8174911789474
 20
469.8519325195603
 30
0.0
 11
501.3255257377904
 21
469.8519325195603
 31
0.0
  0
LINE
  5
8D3C
330
1F
100
AcDbEntity
  8
NOSNÉ KONSTRUKCE
100
AcDbLine
 10
495.8174911789474
 20
474.8871020340384
 30
0.0
 11
495.8174911789474
 21
469.8519325195603
 31
0.0
  0
ARC
  5
8D3D
330
1F
100
AcDbEntity
  8
NOSNÉ KONSTRUKCE
100
AcDbCircle
 10
487.2398979287327
 20
479.8407003713172
 30
0.0
 40
15.58254621860396
100
AcDbArc
 50
341.4643878468219
 51
358.4783316064819
  0
LWPOLYLINE
  5
8D3E
330
1F
100
AcDbEntity
  8
NOSNÉ KONSTRUKCE
100
AcDbPolyline
 90
        2
 70
     0
 43
0.0
 10
455.0094236051164
 20
464.2581541527115
 10
489.3655816133914
 20
464.2581541527115
  0
LINE
  5
8D3F
330
1F
100
AcDbEntity
  8
NOSNÉ KONSTRUKCE
100
AcDbLine
 10
441.5580561974429
 20
479.4269058308718
 30
0.0
 11
502.8169490210721
 21
479.4269058308718
 31
0.0
  0
LINE
  5
8D40
330
1F
100
AcDbEntity
  8
CETRIS
100
AcDbLine
 10
441.7490815757418
 20
442.5083880556639
 30
0.0
 11
632.7392231537315
 21
442.5083880556639
 31
0.0
  0
LINE
  5
8D41
330
1F
100
AcDbEntity
  8
CETRIS
100
AcDbLine
 10
441.7490815757418
 20
428.508388055664
 30
0.0
 11
632.7392231537315
 21
428.508388055664
 31
0.0
  0
LINE
  5
8D42
330
1F
100
AcDbEntity
  8
CETRIS
100
AcDbLine
 10
632.7392231537315
 20
442.5083880556639
 30
0.0
 11
632.7392231537315
 21
428.508388055664
 31
0.0
  0
LINE
  5
8D43
330
1F
100
AcDbEntity
  8
CETRIS
100
AcDbLine
 10
441.7490815757418
 20
442.5083880556639
 30
0.0
 11
441.7490815757418
 21
428.508388055664
 31
0.0
  0
LINE
  5
8D44
330
1F
100
AcDbEntity
  8
CETRIS
100
AcDbLine
 10
440.4216698228928
 20
428.5337059091625
 30
0.0
 11
440.4216698228928
 21
776.6090349901724
 31
0.0
  0
LINE
  5
8D45
330
1F
100
AcDbEntity
  8
STAVBA OBRYS
100
AcDbLine
 10
299.8479884913331
 20
781.6090349901724
 30
0.0
 11
843.9902845743572
 21
781.6090349901724
 31
0.0
  0
LINE
  5
8D46
330
1F
100
AcDbEntity
  8
CETRIS
100
AcDbLine
 10
440.4216698228928
 20
428.5337059091625
 30
0.0
 11
426.4216698228929
 21
428.5337059091625
 31
0.0
  0
LINE
  5
8D47
330
1F
100
AcDbEntity
  8
CETRIS
100
AcDbLine
 10
426.4216698228929
 20
428.5337059091625
 30
0.0
 11
426.4216698228929
 21
776.6090349901724
 31
0.0
  0
LINE
  5
8D48
330
1F
100
AcDbEntity
  8
izolace
100
AcDbLine
 10
426.4216698228929
 20
776.6090349901724
 30
0.0
 11
440.4216698228928
 21
776.6090349901724
 31
0.0
  0
LINE
  5
8D49
330
1F
100
AcDbEntity
  8
CETRIS
100
AcDbLine
 10
648.0843046554737
 20
428.5337059091625
 30
0.0
 11
648.0843046554737
 21
776.6090349901724
 31
0.0
  0
LINE
  5
8D4A
330
1F
100
AcDbEntity
  8
CETRIS
100
AcDbLine
 10
634.0843046554737
 20
428.5337059091625
 30
0.0
 11
634.0843046554737
 21
776.6090349901724
 31
0.0
  0
LINE
  5
8D4B
330
1F
100
AcDbEntity
  8
CETRIS
100
AcDbLine
 10
632.7568929026247
 20
442.5083880556639
 30
0.0
 11
632.7568929026247
 21
428.508388055664
 31
0.0
  0
LINE
  5
8D4C
330
1F
100
AcDbEntity
  8
CETRIS
100
AcDbLine
 10
634.0843046554737
 20
428.5337059091625
 30
0.0
 11
648.0843046554737
 21
428.5337059091625
 31
0.0
  0
LWPOLYLINE
  5
8D4D
330
1F
100
AcDbEntity
  8
izolace
100
AcDbPolyline
 90
        4
 70
     1
 43
0.0
 10
648.0843046554737
 20
776.6090349901724
 10
648.0843046554737
 20
781.6090349901724
 10
634.0843046554737
 20
781.6090349901724
 10
634.0843046554737
 20
776.6090349901724
  0
LINE
  5
8D4E
330
1F
100
AcDbEntity
  8
SPOJOVACÍ
  6
Continuous
100
AcDbLine
 10
630.6137428590018
 20
751.9394651736956
 30
0.0
 11
628.0855250461327
 21
751.9394651736956
 31
0.0
  0
LINE
  5
8D4F
330
1F
100
AcDbEntity
  8
SPOJOVACÍ
  6
Continuous
100
AcDbLine
 10
629.7003102276148
 20
754.6388353364318
 30
0.0
 11
627.1795338209058
 21
754.6388353364318
 31
0.0
  0
LINE
  5
8D50
330
1F
100
AcDbEntity
  8
SPOJOVACÍ
  6
Continuous
100
AcDbLine
 10
627.4809107788469
 20
751.9394651736956
 30
0.0
 11
624.9629248995197
 21
751.9394651736956
 31
0.0
  0
LINE
  5
8D51
330
1F
100
AcDbEntity
  8
SPOJOVACÍ
  6
Continuous
100
AcDbLine
 10
624.366682214365
 20
751.9394651736956
 30
0.0
 11
623.1193164724763
 21
751.9394651736956
 31
0.0
  0
LINE
  5
8D52
330
1F
100
AcDbEntity
  8
SPOJOVACÍ
  6
Continuous
100
AcDbLine
 10
626.5786402569728
 20
754.6388353364318
 30
0.0
 11
624.0597242019439
 21
754.6388353364318
 31
0.0
  0
LINE
  5
8D53
330
1F
100
AcDbEntity
  8
SPOJOVACÍ
  6
Continuous
100
AcDbLine
 10
623.4560401103599
 20
754.6388353364318
 30
0.0
 11
623.1193164724763
 21
754.6388353364318
 31
0.0
  0
LINE
  5
8D54
330
1F
100
AcDbEntity
  8
SPOJOVACÍ
  6
Continuous
100
AcDbLine
 10
623.1193164724763
 20
751.9394651736956
 30
0.0
 11
621.9221802231195
 21
752.0892234764187
 31
0.0
  0
LINE
  5
8D55
330
1F
100
AcDbEntity
  8
SPOJOVACÍ
  6
Continuous
100
AcDbLine
 10
612.319045307523
 20
753.2891502528809
 30
0.0
 11
615.1551513087915
 21
753.6435472340099
 31
0.0
  0
LINE
  5
8D56
330
1F
100
AcDbEntity
  8
SPOJOVACÍ
  6
Continuous
100
AcDbLine
 10
621.3017529672661
 20
752.1664280689447
 30
0.0
 11
618.9800341812015
 21
752.4566429184642
 31
0.0
  0
LINE
  5
8D57
330
1F
100
AcDbEntity
  8
SPOJOVACÍ
  6
Continuous
100
AcDbLine
 10
618.3493749915369
 20
752.5357078613024
 30
0.0
 11
616.0285863811814
 21
752.8259227064563
 31
0.0
  0
LINE
  5
8D58
330
1F
100
AcDbEntity
  8
SPOJOVACÍ
  6
Continuous
100
AcDbLine
 10
615.4081591253279
 20
752.9031272989823
 30
0.0
 11
612.319045307523
 21
753.2891502528809
 31
0.0
  0
LINE
  5
8D59
330
1F
100
AcDbEntity
  8
SPOJOVACÍ
  6
Continuous
100
AcDbLine
 10
615.7244188958584
 20
753.7151707712337
 30
0.0
 11
617.8694042808428
 21
753.9830613995445
 31
0.0
  0
LINE
  5
8D5A
330
1F
100
AcDbEntity
  8
SPOJOVACÍ
  6
Continuous
100
AcDbLine
 10
618.4414623952916
 20
754.0546849324027
 30
0.0
 11
620.578076198145
 21
754.3216453877403
 31
0.0
  0
LINE
  5
8D5B
330
1F
100
AcDbEntity
  8
SPOJOVACÍ
  6
Continuous
100
AcDbLine
 10
621.1482739611901
 20
754.3932689249641
 30
0.0
 11
623.1193164724763
 21
754.6388353364318
 31
0.0
  0
LINE
  5
8D5C
330
1F
100
AcDbEntity
  8
SPOJOVACÍ
  6
Continuous
100
AcDbLine
 10
621.7268433060971
 20
751.1432346943775
 30
0.0
 11
621.5082519940706
 21
751.5218162426617
 31
0.0
  0
LINE
  5
8D5D
330
1F
100
AcDbEntity
  8
SPOJOVACÍ
  6
Continuous
100
AcDbLine
 10
621.7268433060971
 20
751.1432346943775
 30
0.0
 11
622.1044946792253
 21
751.5218162426617
 31
0.0
  0
LINE
  5
8D5E
330
1F
100
AcDbEntity
  8
SPOJOVACÍ
  6
Continuous
100
AcDbLine
 10
620.7538794237925
 20
755.2685643471204
 30
0.0
 11
620.3752978746861
 21
754.890912976175
 31
0.0
  0
LINE
  5
8D5F
330
1F
100
AcDbEntity
  8
SPOJOVACÍ
  6
Continuous
100
AcDbLine
 10
620.7538794237925
 20
755.2685643471204
 30
0.0
 11
620.9715405598408
 21
754.890912976175
 31
0.0
  0
LINE
  5
8D60
330
1F
100
AcDbEntity
  8
SPOJOVACÍ
  6
Continuous
100
AcDbLine
 10
621.5082519940706
 20
751.5218162426617
 30
0.0
 11
620.3752978746861
 21
754.890912976175
 31
0.0
  0
LINE
  5
8D61
330
1F
100
AcDbEntity
  8
SPOJOVACÍ
  6
Continuous
100
AcDbLine
 10
622.1044946792253
 20
751.5218162426617
 30
0.0
 11
620.9715405598408
 21
754.890912976175
 31
0.0
  0
LINE
  5
8D62
330
1F
100
AcDbEntity
  8
SPOJOVACÍ
  6
Continuous
100
AcDbLine
 10
621.7268433060971
 20
751.1432346943775
 30
0.0
 11
620.7538794237925
 21
755.2685643471204
 31
0.0
  0
LINE
  5
8D63
330
1F
100
AcDbEntity
  8
SPOJOVACÍ
  6
Continuous
100
AcDbLine
 10
618.7121435517992
 20
751.7078514004833
 30
0.0
 11
618.494482415751
 21
752.0855027757943
 31
0.0
  0
LINE
  5
8D64
330
1F
100
AcDbEntity
  8
SPOJOVACÍ
  6
Continuous
100
AcDbLine
 10
618.7121435517992
 20
751.7078514004833
 30
0.0
 11
619.0907251009057
 21
752.0855027757943
 31
0.0
  0
LINE
  5
8D65
330
1F
100
AcDbEntity
  8
SPOJOVACÍ
  6
Continuous
100
AcDbLine
 10
618.0786938350292
 20
754.8239403169145
 30
0.0
 11
617.7001122861993
 21
754.4462889459691
 31
0.0
  0
LINE
  5
8D66
330
1F
100
AcDbEntity
  8
SPOJOVACÍ
  6
Continuous
100
AcDbLine
 10
618.0786938350292
 20
754.8239403169145
 30
0.0
 11
618.2963549710775
 21
754.4462889459691
 31
0.0
  0
LINE
  5
8D67
330
1F
100
AcDbEntity
  8
SPOJOVACÍ
  6
Continuous
100
AcDbLine
 10
618.494482415751
 20
752.0855027757943
 30
0.0
 11
617.7001122861993
 21
754.4462889459691
 31
0.0
  0
LINE
  5
8D68
330
1F
100
AcDbEntity
  8
SPOJOVACÍ
  6
Continuous
100
AcDbLine
 10
619.0907251009057
 20
752.0855027757943
 30
0.0
 11
618.2963549710775
 21
754.4462889459691
 31
0.0
  0
LINE
  5
8D69
330
1F
100
AcDbEntity
  8
SPOJOVACÍ
  6
Continuous
100
AcDbLine
 10
618.7121435517992
 20
751.7078514004833
 30
0.0
 11
618.0786938350292
 21
754.8239403169145
 31
0.0
  0
LINE
  5
8D6A
330
1F
100
AcDbEntity
  8
SPOJOVACÍ
  6
Continuous
100
AcDbLine
 10
615.6983739734796
 20
752.2724681109548
 30
0.0
 11
615.4797826614603
 21
752.6501194819002
 31
0.0
  0
LINE
  5
8D6B
330
1F
100
AcDbEntity
  8
SPOJOVACÍ
  6
Continuous
100
AcDbLine
 10
615.6983739734796
 20
752.2724681109548
 30
0.0
 11
616.0760253466078
 21
752.6501194819002
 31
0.0
  0
LINE
  5
8D6C
330
1F
100
AcDbEntity
  8
SPOJOVACÍ
  6
Continuous
100
AcDbLine
 10
615.3876952577056
 20
754.4267552524115
 30
0.0
 11
615.0091137088756
 21
754.0491038814661
 31
0.0
  0
LINE
  5
8D6D
330
1F
100
AcDbEntity
  8
SPOJOVACÍ
  6
Continuous
100
AcDbLine
 10
615.3876952577056
 20
754.4267552524115
 30
0.0
 11
615.6053563940231
 21
754.0491038814661
 31
0.0
  0
LINE
  5
8D6E
330
1F
100
AcDbEntity
  8
SPOJOVACÍ
  6
Continuous
100
AcDbLine
 10
615.4797826614603
 20
752.6501194819002
 30
0.0
 11
615.0091137088756
 21
754.0491038814661
 31
0.0
  0
LINE
  5
8D6F
330
1F
100
AcDbEntity
  8
SPOJOVACÍ
  6
Continuous
100
AcDbLine
 10
616.0760253466078
 20
752.6501194819002
 30
0.0
 11
615.6053563940231
 21
754.0491038814661
 31
0.0
  0
LINE
  5
8D70
330
1F
100
AcDbEntity
  8
SPOJOVACÍ
  6
Continuous
100
AcDbLine
 10
615.6983739734796
 20
752.2724681109548
 30
0.0
 11
615.3876952577056
 21
754.4267552524115
 31
0.0
  0
LINE
  5
8D71
330
1F
100
AcDbEntity
  8
SPOJOVACÍ
  6
Continuous
100
AcDbLine
 10
627.924604633351
 20
750.8892966999565
 30
0.0
 11
626.7246778568887
 21
755.6890038058054
 31
0.0
  0
LINE
  5
8D72
330
1F
100
AcDbEntity
  8
SPOJOVACÍ
  6
Continuous
100
AcDbLine
 10
627.924604633351
 20
750.8892966999565
 30
0.0
 11
627.7060133213317
 21
751.2669480752674
 31
0.0
  0
LINE
  5
8D73
330
1F
100
AcDbEntity
  8
SPOJOVACÍ
  6
Continuous
100
AcDbLine
 10
627.924604633351
 20
750.8892966999565
 30
0.0
 11
628.3022560064791
 21
751.2669480752674
 31
0.0
  0
LINE
  5
8D74
330
1F
100
AcDbEntity
  8
SPOJOVACÍ
  6
Continuous
100
AcDbLine
 10
626.7246778568887
 20
755.6890038058054
 30
0.0
 11
626.3460963080587
 21
755.31135243486
 31
0.0
  0
LINE
  5
8D75
330
1F
100
AcDbEntity
  8
SPOJOVACÍ
  6
Continuous
100
AcDbLine
 10
626.7246778568887
 20
755.6890038058054
 30
0.0
 11
626.942338992937
 21
755.31135243486
 31
0.0
  0
LINE
  5
8D76
330
1F
100
AcDbEntity
  8
SPOJOVACÍ
  6
Continuous
100
AcDbLine
 10
627.7060133213317
 20
751.2669480752674
 30
0.0
 11
626.3460963080587
 21
755.31135243486
 31
0.0
  0
LINE
  5
8D77
330
1F
100
AcDbEntity
  8
SPOJOVACÍ
  6
Continuous
100
AcDbLine
 10
628.3022560064791
 20
751.2669480752674
 30
0.0
 11
626.942338992937
 21
755.31135243486
 31
0.0
  0
LINE
  5
8D78
330
1F
100
AcDbEntity
  8
SPOJOVACÍ
  6
Continuous
100
AcDbLine
 10
624.8038648384108
 20
750.8892966999565
 30
0.0
 11
623.6039380619486
 21
755.6890038058054
 31
0.0
  0
LINE
  5
8D79
330
1F
100
AcDbEntity
  8
SPOJOVACÍ
  6
Continuous
100
AcDbLine
 10
624.8038648384108
 20
750.8892966999565
 30
0.0
 11
624.5862037023625
 21
751.2669480752674
 31
0.0
  0
LINE
  5
8D7A
330
1F
100
AcDbEntity
  8
SPOJOVACÍ
  6
Continuous
100
AcDbLine
 10
624.8038648384108
 20
750.8892966999565
 30
0.0
 11
625.1824463875172
 21
751.2669480752674
 31
0.0
  0
LINE
  5
8D7B
330
1F
100
AcDbEntity
  8
SPOJOVACÍ
  6
Continuous
100
AcDbLine
 10
623.6039380619486
 20
755.6890038058054
 30
0.0
 11
623.2262866888204
 21
755.31135243486
 31
0.0
  0
LINE
  5
8D7C
330
1F
100
AcDbEntity
  8
SPOJOVACÍ
  6
Continuous
100
AcDbLine
 10
623.6039380619486
 20
755.6890038058054
 30
0.0
 11
623.8225293739751
 21
755.31135243486
 31
0.0
  0
LINE
  5
8D7D
330
1F
100
AcDbEntity
  8
SPOJOVACÍ
  6
Continuous
100
AcDbLine
 10
624.5862037023625
 20
751.2669480752674
 30
0.0
 11
623.2262866888204
 21
755.31135243486
 31
0.0
  0
LINE
  5
8D7E
330
1F
100
AcDbEntity
  8
SPOJOVACÍ
  6
Continuous
100
AcDbLine
 10
625.1824463875172
 20
751.2669480752674
 30
0.0
 11
623.8225293739751
 21
755.31135243486
 31
0.0
  0
LINE
  5
8D7F
330
1F
100
AcDbEntity
  8
SPOJOVACÍ
  6
Continuous
100
AcDbLine
 10
644.4222025475182
 20
755.4787840764629
 30
0.0
 11
645.9466268571859
 21
756.6884582209395
 31
0.0
  0
LINE
  5
8D80
330
1F
100
AcDbEntity
  8
SPOJOVACÍ
  6
Continuous
100
AcDbLine
 10
643.0083353378149
 20
754.8657982273152
 30
0.0
 11
644.4222025475182
 21
755.4787840764629
 31
0.0
  0
LINE
  5
8D81
330
1F
100
AcDbEntity
  8
SPOJOVACÍ
  6
Continuous
100
AcDbLine
 10
641.4847073843857
 20
754.6388353364318
 30
0.0
 11
643.0083353378149
 21
754.8657982273152
 31
0.0
  0
LINE
  5
8D82
330
1F
100
AcDbEntity
  8
SPOJOVACÍ
  6
Continuous
100
AcDbLine
 10
648.0843046554737
 20
748.188996364247
 30
0.0
 11
646.8843778787422
 21
748.188996364247
 31
0.0
  0
LINE
  5
8D83
330
1F
100
AcDbEntity
  8
SPOJOVACÍ
  6
Continuous
100
AcDbLine
 10
642.2716361075081
 20
751.873422691774
 30
0.0
 11
641.4847073843857
 21
751.9394651736956
 31
0.0
  0
LINE
  5
8D84
330
1F
100
AcDbEntity
  8
SPOJOVACÍ
  6
Continuous
100
AcDbLine
 10
643.7524759745583
 20
751.4455418274747
 30
0.0
 11
642.2716361075081
 21
751.873422691774
 31
0.0
  0
LINE
  5
8D85
330
1F
100
AcDbEntity
  8
SPOJOVACÍ
  6
Continuous
100
AcDbLine
 10
645.0714652528558
 20
750.6493113481565
 30
0.0
 11
643.7524759745583
 21
751.4455418274747
 31
0.0
  0
LINE
  5
8D86
330
1F
100
AcDbEntity
  8
SPOJOVACÍ
  6
Continuous
100
AcDbLine
 10
646.140237242268
 20
749.5386814477979
 30
0.0
 11
645.0714652528558
 21
750.6493113481565
 31
0.0
  0
LINE
  5
8D87
330
1F
100
AcDbEntity
  8
SPOJOVACÍ
  6
Continuous
100
AcDbLine
 10
646.8843778787422
 20
748.188996364247
 30
0.0
 11
646.140237242268
 21
749.5386814477979
 31
0.0
  0
LINE
  5
8D88
330
1F
100
AcDbEntity
  8
SPOJOVACÍ
  6
Continuous
100
AcDbLine
 10
641.4847073843857
 20
754.6388353364318
 30
0.0
 11
636.541753205457
 21
754.6388353364318
 31
0.0
  0
LINE
  5
8D89
330
1F
100
AcDbEntity
  8
SPOJOVACÍ
  6
Continuous
100
AcDbLine
 10
641.4847073843857
 20
751.9394651736956
 30
0.0
 11
637.4468142547057
 21
751.9394651736956
 31
0.0
  0
LINE
  5
8D8A
330
1F
100
AcDbEntity
  8
SPOJOVACÍ
  6
Continuous
100
AcDbLine
 10
636.8515017455292
 20
751.9394651736956
 30
0.0
 11
634.3325856905003
 21
751.9394651736956
 31
0.0
  0
LINE
  5
8D8B
330
1F
100
AcDbEntity
  8
SPOJOVACÍ
  6
Continuous
100
AcDbLine
 10
633.7289015991855
 20
751.9394651736956
 30
0.0
 11
631.2081251924764
 21
751.9394651736956
 31
0.0
  0
LINE
  5
8D8C
330
1F
100
AcDbEntity
  8
SPOJOVACÍ
  6
Continuous
100
AcDbLine
 10
635.9380691141423
 20
754.6388353364318
 30
0.0
 11
633.4191530591133
 21
754.6388353364318
 31
0.0
  0
LINE
  5
8D8D
330
1F
100
AcDbEntity
  8
SPOJOVACÍ
  6
Continuous
100
AcDbLine
 10
632.8229103739586
 20
754.6388353364318
 30
0.0
 11
630.2946925610894
 21
754.6388353364318
 31
0.0
  0
LINE
  5
8D8E
330
1F
100
AcDbEntity
  8
SPOJOVACÍ
  6
Continuous
100
AcDbLine
 10
637.2840334905204
 20
750.8892966999565
 30
0.0
 11
636.0841067140581
 21
755.6890038058054
 31
0.0
  0
LINE
  5
8D8F
330
1F
100
AcDbEntity
  8
SPOJOVACÍ
  6
Continuous
100
AcDbLine
 10
637.2840334905204
 20
750.8892966999565
 30
0.0
 11
637.0663723544721
 21
751.2669480752674
 31
0.0
  0
LINE
  5
8D90
330
1F
100
AcDbEntity
  8
SPOJOVACÍ
  6
Continuous
100
AcDbLine
 10
637.2840334905204
 20
750.8892966999565
 30
0.0
 11
637.6626150393503
 21
751.2669480752674
 31
0.0
  0
LINE
  5
8D91
330
1F
100
AcDbEntity
  8
SPOJOVACÍ
  6
Continuous
100
AcDbLine
 10
636.0841067140581
 20
755.6890038058054
 30
0.0
 11
635.7064553409299
 21
755.31135243486
 31
0.0
  0
LINE
  5
8D92
330
1F
100
AcDbEntity
  8
SPOJOVACÍ
  6
Continuous
100
AcDbLine
 10
636.0841067140581
 20
755.6890038058054
 30
0.0
 11
636.3026980260847
 21
755.31135243486
 31
0.0
  0
LINE
  5
8D93
330
1F
100
AcDbEntity
  8
SPOJOVACÍ
  6
Continuous
100
AcDbLine
 10
637.0663723544721
 20
751.2669480752674
 30
0.0
 11
635.7064553409299
 21
755.31135243486
 31
0.0
  0
LINE
  5
8D94
330
1F
100
AcDbEntity
  8
SPOJOVACÍ
  6
Continuous
100
AcDbLine
 10
637.6626150393503
 20
751.2669480752674
 30
0.0
 11
636.3026980260847
 21
755.31135243486
 31
0.0
  0
LINE
  5
8D95
330
1F
100
AcDbEntity
  8
SPOJOVACÍ
  6
Continuous
100
AcDbLine
 10
634.1642238715585
 20
750.8892966999565
 30
0.0
 11
632.9642970948198
 21
755.6890038058054
 31
0.0
  0
LINE
  5
8D96
330
1F
100
AcDbEntity
  8
SPOJOVACÍ
  6
Continuous
100
AcDbLine
 10
634.1642238715585
 20
750.8892966999565
 30
0.0
 11
633.9456325595319
 21
751.2669480752674
 31
0.0
  0
LINE
  5
8D97
330
1F
100
AcDbEntity
  8
SPOJOVACÍ
  6
Continuous
100
AcDbLine
 10
634.1642238715585
 20
750.8892966999565
 30
0.0
 11
634.5418752446867
 21
751.2669480752674
 31
0.0
  0
LINE
  5
8D98
330
1F
100
AcDbEntity
  8
SPOJOVACÍ
  6
Continuous
100
AcDbLine
 10
632.9642970948198
 20
755.6890038058054
 30
0.0
 11
632.5866457219681
 21
755.31135243486
 31
0.0
  0
LINE
  5
8D99
330
1F
100
AcDbEntity
  8
SPOJOVACÍ
  6
Continuous
100
AcDbLine
 10
632.9642970948198
 20
755.6890038058054
 30
0.0
 11
633.1828884068463
 21
755.31135243486
 31
0.0
  0
LINE
  5
8D9A
330
1F
100
AcDbEntity
  8
SPOJOVACÍ
  6
Continuous
100
AcDbLine
 10
633.9456325595319
 20
751.2669480752674
 30
0.0
 11
632.5866457219681
 21
755.31135243486
 31
0.0
  0
LINE
  5
8D9B
330
1F
100
AcDbEntity
  8
SPOJOVACÍ
  6
Continuous
100
AcDbLine
 10
634.5418752446867
 20
751.2669480752674
 30
0.0
 11
633.1828884068463
 21
755.31135243486
 31
0.0
  0
LINE
  5
8D9C
330
1F
100
AcDbEntity
  8
SPOJOVACÍ
  6
Continuous
100
AcDbLine
 10
631.0444142523201
 20
750.8892966999565
 30
0.0
 11
629.8444874758579
 21
755.6890038058054
 31
0.0
  0
LINE
  5
8D9D
330
1F
100
AcDbEntity
  8
SPOJOVACÍ
  6
Continuous
100
AcDbLine
 10
631.0444142523201
 20
750.8892966999565
 30
0.0
 11
630.8258229402936
 21
751.2669480752674
 31
0.0
  0
LINE
  5
8D9E
330
1F
100
AcDbEntity
  8
SPOJOVACÍ
  6
Continuous
100
AcDbLine
 10
631.0444142523201
 20
750.8892966999565
 30
0.0
 11
631.4220656254483
 21
751.2669480752674
 31
0.0
  0
LINE
  5
8D9F
330
1F
100
AcDbEntity
  8
SPOJOVACÍ
  6
Continuous
100
AcDbLine
 10
629.8444874758579
 20
755.6890038058054
 30
0.0
 11
629.4659059270279
 21
755.31135243486
 31
0.0
  0
LINE
  5
8DA0
330
1F
100
AcDbEntity
  8
SPOJOVACÍ
  6
Continuous
100
AcDbLine
 10
629.8444874758579
 20
755.6890038058054
 30
0.0
 11
630.0621486121753
 21
755.31135243486
 31
0.0
  0
LINE
  5
8DA1
330
1F
100
AcDbEntity
  8
SPOJOVACÍ
  6
Continuous
100
AcDbLine
 10
630.8258229402936
 20
751.2669480752674
 30
0.0
 11
629.4659059270279
 21
755.31135243486
 31
0.0
  0
LINE
  5
8DA2
330
1F
100
AcDbEntity
  8
SPOJOVACÍ
  6
Continuous
100
AcDbLine
 10
631.4220656254483
 20
751.2669480752674
 30
0.0
 11
630.0621486121753
 21
755.31135243486
 31
0.0
  0
LINE
  5
8DA3
330
1F
100
AcDbEntity
  8
SPOJOVACÍ
  6
Continuous
100
AcDbLine
 10
646.8843778787422
 20
748.188996364247
 30
0.0
 11
646.8843778787422
 21
758.3893041415149
 31
0.0
  0
LINE
  5
8DA4
330
1F
100
AcDbEntity
  8
SPOJOVACÍ
  6
Continuous
100
AcDbLine
 10
648.0843046554737
 20
758.3893041415149
 30
0.0
 11
646.8843778787422
 21
758.3893041415149
 31
0.0
  0
LINE
  5
8DA5
330
1F
100
AcDbEntity
  8
SPOJOVACÍ
  6
Continuous
100
AcDbLine
 10
648.0843046554737
 20
748.188996364247
 30
0.0
 11
648.0843046554737
 21
758.3893041415149
 31
0.0
  0
LINE
  5
8DA6
330
1F
100
AcDbEntity
  8
SPOJOVACÍ
  6
Continuous
100
AcDbLine
 10
646.8843778787422
 20
758.3893041415149
 30
0.0
 11
645.9466268571859
 21
756.6884582209395
 31
0.0
  0
LINE
  5
8DA7
330
1F
100
AcDbEntity
  8
SPOJOVACÍ
  6
Continuous
100
AcDbLine
 10
426.4216698228929
 20
443.4666481400208
 30
0.0
 11
426.4216698228929
 21
453.6669559172887
 31
0.0
  0
LINE
  5
8DA8
330
1F
100
AcDbEntity
  8
SPOJOVACÍ
  6
Continuous
100
AcDbLine
 10
487.0282691604161
 20
429.7083148323954
 30
0.0
 11
485.3274232398407
 21
430.6460658539517
 31
0.0
  0
LINE
  5
8DA9
330
1F
100
AcDbEntity
  8
SPOJOVACÍ
  6
Continuous
100
AcDbLine
 10
487.0282691604161
 20
428.508388055664
 30
0.0
 11
487.0282691604161
 21
429.7083148323954
 31
0.0
  0
LINE
  5
8DAA
330
1F
100
AcDbEntity
  8
SPOJOVACÍ
  6
Continuous
100
AcDbLine
 10
479.9059130941686
 20
445.1706270856893
 30
0.0
 11
483.9503174537612
 21
446.5305440989623
 31
0.0
  0
LINE
  5
8DAB
330
1F
100
AcDbEntity
  8
SPOJOVACÍ
  6
Continuous
100
AcDbLine
 10
479.9059130941686
 20
445.7668697708441
 30
0.0
 11
483.9503174537612
 21
447.1267867841097
 31
0.0
  0
LINE
  5
8DAC
330
1F
100
AcDbEntity
  8
SPOJOVACÍ
  6
Continuous
100
AcDbLine
 10
484.3279688247066
 20
446.7482052352798
 30
0.0
 11
483.9503174537612
 21
446.5305440989623
 31
0.0
  0
LINE
  5
8DAD
330
1F
100
AcDbEntity
  8
SPOJOVACÍ
  6
Continuous
100
AcDbLine
 10
484.3279688247066
 20
446.7482052352798
 30
0.0
 11
483.9503174537612
 21
447.1267867841097
 31
0.0
  0
LINE
  5
8DAE
330
1F
100
AcDbEntity
  8
SPOJOVACÍ
  6
Continuous
100
AcDbLine
 10
479.5282617188576
 20
445.5482784588175
 30
0.0
 11
479.9059130941686
 21
445.1706270856893
 31
0.0
  0
LINE
  5
8DAF
330
1F
100
AcDbEntity
  8
SPOJOVACÍ
  6
Continuous
100
AcDbLine
 10
479.5282617188576
 20
445.5482784588175
 30
0.0
 11
479.9059130941686
 21
445.7668697708441
 31
0.0
  0
LINE
  5
8DB0
330
1F
100
AcDbEntity
  8
SPOJOVACÍ
  6
Continuous
100
AcDbLine
 10
479.5282617188576
 20
445.5482784588175
 30
0.0
 11
484.3279688247066
 21
446.7482052352798
 31
0.0
  0
LINE
  5
8DB1
330
1F
100
AcDbEntity
  8
SPOJOVACÍ
  6
Continuous
100
AcDbLine
 10
479.9059130941686
 20
442.050817466451
 30
0.0
 11
483.9503174537612
 21
443.4098043042913
 31
0.0
  0
LINE
  5
8DB2
330
1F
100
AcDbEntity
  8
SPOJOVACÍ
  6
Continuous
100
AcDbLine
 10
479.9059130941686
 20
442.6470601516057
 30
0.0
 11
483.9503174537612
 21
444.0060469891696
 31
0.0
  0
LINE
  5
8DB3
330
1F
100
AcDbEntity
  8
SPOJOVACÍ
  6
Continuous
100
AcDbLine
 10
484.3279688247066
 20
443.6283956163179
 30
0.0
 11
483.9503174537612
 21
443.4098043042913
 31
0.0
  0
LINE
  5
8DB4
330
1F
100
AcDbEntity
  8
SPOJOVACÍ
  6
Continuous
100
AcDbLine
 10
484.3279688247066
 20
443.6283956163179
 30
0.0
 11
483.9503174537612
 21
444.0060469891696
 31
0.0
  0
LINE
  5
8DB5
330
1F
100
AcDbEntity
  8
SPOJOVACÍ
  6
Continuous
100
AcDbLine
 10
479.5282617188576
 20
442.4284688395792
 30
0.0
 11
479.9059130941686
 21
442.050817466451
 31
0.0
  0
LINE
  5
8DB6
330
1F
100
AcDbEntity
  8
SPOJOVACÍ
  6
Continuous
100
AcDbLine
 10
479.5282617188576
 20
442.4284688395792
 30
0.0
 11
479.9059130941686
 21
442.6470601516057
 31
0.0
  0
LINE
  5
8DB7
330
1F
100
AcDbEntity
  8
SPOJOVACÍ
  6
Continuous
100
AcDbLine
 10
479.5282617188576
 20
442.4284688395792
 30
0.0
 11
484.3279688247066
 21
443.6283956163179
 31
0.0
  0
LINE
  5
8DB8
330
1F
100
AcDbEntity
  8
SPOJOVACÍ
  6
Continuous
100
AcDbLine
 10
479.9059130941686
 20
438.9300776717873
 30
0.0
 11
483.9503174537612
 21
440.289994685053
 31
0.0
  0
LINE
  5
8DB9
330
1F
100
AcDbEntity
  8
SPOJOVACÍ
  6
Continuous
100
AcDbLine
 10
479.9059130941686
 20
439.5263203566655
 30
0.0
 11
483.9503174537612
 21
440.8862373702077
 31
0.0
  0
LINE
  5
8DBA
330
1F
100
AcDbEntity
  8
SPOJOVACÍ
  6
Continuous
100
AcDbLine
 10
484.3279688247066
 20
440.5085859970795
 30
0.0
 11
483.9503174537612
 21
440.289994685053
 31
0.0
  0
LINE
  5
8DBB
330
1F
100
AcDbEntity
  8
SPOJOVACÍ
  6
Continuous
100
AcDbLine
 10
484.3279688247066
 20
440.5085859970795
 30
0.0
 11
483.9503174537612
 21
440.8862373702077
 31
0.0
  0
LINE
  5
8DBC
330
1F
100
AcDbEntity
  8
SPOJOVACÍ
  6
Continuous
100
AcDbLine
 10
479.5282617188576
 20
439.3086592206173
 30
0.0
 11
479.9059130941686
 21
438.9300776717873
 31
0.0
  0
LINE
  5
8DBD
330
1F
100
AcDbEntity
  8
SPOJOVACÍ
  6
Continuous
100
AcDbLine
 10
479.5282617188576
 20
439.3086592206173
 30
0.0
 11
479.9059130941686
 21
439.5263203566655
 31
0.0
  0
LINE
  5
8DBE
330
1F
100
AcDbEntity
  8
SPOJOVACÍ
  6
Continuous
100
AcDbLine
 10
479.5282617188576
 20
439.3086592206173
 30
0.0
 11
484.3279688247066
 21
440.5085859970795
 31
0.0
  0
LINE
  5
8DBF
330
1F
100
AcDbEntity
  8
SPOJOVACÍ
  6
Continuous
100
AcDbLine
 10
483.277800355333
 20
443.7697823371791
 30
0.0
 11
483.277800355333
 21
446.2980001500482
 31
0.0
  0
LINE
  5
8DC0
330
1F
100
AcDbEntity
  8
SPOJOVACÍ
  6
Continuous
100
AcDbLine
 10
483.277800355333
 20
440.6546235969954
 30
0.0
 11
483.277800355333
 21
443.1735396520243
 31
0.0
  0
LINE
  5
8DC1
330
1F
100
AcDbEntity
  8
SPOJOVACÍ
  6
Continuous
100
AcDbLine
 10
480.5784301925968
 20
442.8637911119522
 30
0.0
 11
480.5784301925968
 21
445.3845675186612
 31
0.0
  0
LINE
  5
8DC2
330
1F
100
AcDbEntity
  8
SPOJOVACÍ
  6
Continuous
100
AcDbLine
 10
480.5784301925968
 20
439.7411909656084
 30
0.0
 11
480.5784301925968
 21
442.2601070206374
 31
0.0
  0
LINE
  5
8DC3
330
1F
100
AcDbEntity
  8
SPOJOVACÍ
  6
Continuous
100
AcDbLine
 10
480.5784301925968
 20
435.107985326752
 30
0.0
 11
480.5784301925968
 21
439.145878456432
 31
0.0
  0
LINE
  5
8DC4
330
1F
100
AcDbEntity
  8
SPOJOVACÍ
  6
Continuous
100
AcDbLine
 10
483.277800355333
 20
435.107985326752
 30
0.0
 11
483.277800355333
 21
440.0509395056806
 31
0.0
  0
LINE
  5
8DC5
330
1F
100
AcDbEntity
  8
SPOJOVACÍ
  6
Continuous
100
AcDbLine
 10
478.177646466699
 20
430.4524554688696
 30
0.0
 11
479.2882763670577
 21
431.5212274582818
 31
0.0
  0
LINE
  5
8DC6
330
1F
100
AcDbEntity
  8
SPOJOVACÍ
  6
Continuous
100
AcDbLine
 10
479.2882763670577
 20
431.5212274582818
 30
0.0
 11
480.0845068463758
 21
432.8402167365793
 31
0.0
  0
LINE
  5
8DC7
330
1F
100
AcDbEntity
  8
SPOJOVACÍ
  6
Continuous
100
AcDbLine
 10
480.0845068463758
 20
432.8402167365793
 30
0.0
 11
480.5123877106752
 21
434.3210566036296
 31
0.0
  0
LINE
  5
8DC8
330
1F
100
AcDbEntity
  8
SPOJOVACÍ
  6
Continuous
100
AcDbLine
 10
480.5123877106752
 20
434.3210566036296
 30
0.0
 11
480.5784301925968
 21
435.107985326752
 31
0.0
  0
LINE
  5
8DC9
330
1F
100
AcDbEntity
  8
SPOJOVACÍ
  6
Continuous
100
AcDbLine
 10
483.277800355333
 20
435.107985326752
 30
0.0
 11
483.5047632462164
 21
433.5843573733227
 31
0.0
  0
LINE
  5
8DCA
330
1F
100
AcDbEntity
  8
SPOJOVACÍ
  6
Continuous
100
AcDbLine
 10
483.5047632462164
 20
433.5843573733227
 30
0.0
 11
484.1177490953641
 21
432.1704901636194
 31
0.0
  0
LINE
  5
8DCB
330
1F
100
AcDbEntity
  8
SPOJOVACÍ
  6
Continuous
100
AcDbLine
 10
484.1177490953641
 20
432.1704901636194
 30
0.0
 11
485.3274232398407
 21
430.6460658539517
 31
0.0
  0
LINE
  5
8DCC
330
1F
100
AcDbEntity
  8
SPOJOVACÍ
  6
Continuous
100
AcDbLine
 10
479.9059130941686
 20
451.4102463236204
 30
0.0
 11
483.9503174537612
 21
452.7701633371625
 31
0.0
  0
LINE
  5
8DCD
330
1F
100
AcDbEntity
  8
SPOJOVACÍ
  6
Continuous
100
AcDbLine
 10
479.9059130941686
 20
452.0064890087751
 30
0.0
 11
483.9503174537612
 21
453.3664060223173
 31
0.0
  0
LINE
  5
8DCE
330
1F
100
AcDbEntity
  8
SPOJOVACÍ
  6
Continuous
100
AcDbLine
 10
484.3279688247066
 20
452.9887546491891
 30
0.0
 11
483.9503174537612
 21
452.7701633371625
 31
0.0
  0
LINE
  5
8DCF
330
1F
100
AcDbEntity
  8
SPOJOVACÍ
  6
Continuous
100
AcDbLine
 10
484.3279688247066
 20
452.9887546491891
 30
0.0
 11
483.9503174537612
 21
453.3664060223173
 31
0.0
  0
LINE
  5
8DD0
330
1F
100
AcDbEntity
  8
SPOJOVACÍ
  6
Continuous
100
AcDbLine
 10
479.5282617188576
 20
451.7888278727268
 30
0.0
 11
479.9059130941686
 21
451.4102463236204
 31
0.0
  0
LINE
  5
8DD1
330
1F
100
AcDbEntity
  8
SPOJOVACÍ
  6
Continuous
100
AcDbLine
 10
479.5282617188576
 20
451.7888278727268
 30
0.0
 11
479.9059130941686
 21
452.0064890087751
 31
0.0
  0
LINE
  5
8DD2
330
1F
100
AcDbEntity
  8
SPOJOVACÍ
  6
Continuous
100
AcDbLine
 10
479.5282617188576
 20
451.7888278727268
 30
0.0
 11
484.3279688247066
 21
452.9887546491891
 31
0.0
  0
LINE
  5
8DD3
330
1F
100
AcDbEntity
  8
SPOJOVACÍ
  6
Continuous
100
AcDbLine
 10
479.9059130941686
 20
448.2904367046585
 30
0.0
 11
483.9503174537612
 21
449.6503537182007
 31
0.0
  0
LINE
  5
8DD4
330
1F
100
AcDbEntity
  8
SPOJOVACÍ
  6
Continuous
100
AcDbLine
 10
479.9059130941686
 20
448.8866793898059
 30
0.0
 11
483.9503174537612
 21
450.2465964030789
 31
0.0
  0
LINE
  5
8DD5
330
1F
100
AcDbEntity
  8
SPOJOVACÍ
  6
Continuous
100
AcDbLine
 10
484.3279688247066
 20
449.8680148542489
 30
0.0
 11
483.9503174537612
 21
449.6503537182007
 31
0.0
  0
LINE
  5
8DD6
330
1F
100
AcDbEntity
  8
SPOJOVACÍ
  6
Continuous
100
AcDbLine
 10
484.3279688247066
 20
449.8680148542489
 30
0.0
 11
483.9503174537612
 21
450.2465964030789
 31
0.0
  0
LINE
  5
8DD7
330
1F
100
AcDbEntity
  8
SPOJOVACÍ
  6
Continuous
100
AcDbLine
 10
479.5282617188576
 20
448.6680880777867
 30
0.0
 11
479.9059130941686
 21
448.2904367046585
 31
0.0
  0
LINE
  5
8DD8
330
1F
100
AcDbEntity
  8
SPOJOVACÍ
  6
Continuous
100
AcDbLine
 10
479.5282617188576
 20
448.6680880777867
 30
0.0
 11
479.9059130941686
 21
448.8866793898059
 31
0.0
  0
LINE
  5
8DD9
330
1F
100
AcDbEntity
  8
SPOJOVACÍ
  6
Continuous
100
AcDbLine
 10
479.5282617188576
 20
448.6680880777867
 30
0.0
 11
484.3279688247066
 21
449.8680148542489
 31
0.0
  0
LINE
  5
8DDA
330
1F
100
AcDbEntity
  8
SPOJOVACÍ
  6
Continuous
100
AcDbLine
 10
480.911433129856
 20
460.894318737658
 30
0.0
 11
483.0657202713127
 21
461.204997453432
 31
0.0
  0
LINE
  5
8DDB
330
1F
100
AcDbEntity
  8
SPOJOVACÍ
  6
Continuous
100
AcDbLine
 10
481.2890845008014
 20
460.5166673645299
 30
0.0
 11
482.6880689003673
 21
460.9873363171145
 31
0.0
  0
LINE
  5
8DDC
330
1F
100
AcDbEntity
  8
SPOJOVACÍ
  6
Continuous
100
AcDbLine
 10
481.2890845008014
 20
461.1129100496773
 30
0.0
 11
482.6880689003673
 21
461.583579002262
 31
0.0
  0
LINE
  5
8DDD
330
1F
100
AcDbEntity
  8
SPOJOVACÍ
  6
Continuous
100
AcDbLine
 10
483.0657202713127
 20
461.204997453432
 30
0.0
 11
482.6880689003673
 21
460.9873363171145
 31
0.0
  0
LINE
  5
8DDE
330
1F
100
AcDbEntity
  8
SPOJOVACÍ
  6
Continuous
100
AcDbLine
 10
483.0657202713127
 20
461.204997453432
 30
0.0
 11
482.6880689003673
 21
461.583579002262
 31
0.0
  0
LINE
  5
8DDF
330
1F
100
AcDbEntity
  8
SPOJOVACÍ
  6
Continuous
100
AcDbLine
 10
480.911433129856
 20
460.894318737658
 30
0.0
 11
481.2890845008014
 21
460.5166673645299
 31
0.0
  0
LINE
  5
8DE0
330
1F
100
AcDbEntity
  8
SPOJOVACÍ
  6
Continuous
100
AcDbLine
 10
480.911433129856
 20
460.894318737658
 30
0.0
 11
481.2890845008014
 21
461.1129100496773
 31
0.0
  0
LINE
  5
8DE1
330
1F
100
AcDbEntity
  8
SPOJOVACÍ
  6
Continuous
100
AcDbLine
 10
480.3468164193845
 20
457.8805491593384
 30
0.0
 11
483.4629053358157
 21
458.5139988761084
 31
0.0
  0
LINE
  5
8DE2
330
1F
100
AcDbEntity
  8
SPOJOVACÍ
  6
Continuous
100
AcDbLine
 10
480.7244677946955
 20
457.501967610232
 30
0.0
 11
483.0852539648703
 21
458.2963377400601
 31
0.0
  0
LINE
  5
8DE3
330
1F
100
AcDbEntity
  8
SPOJOVACÍ
  6
Continuous
100
AcDbLine
 10
480.7244677946955
 20
458.0982102953867
 30
0.0
 11
483.0852539648703
 21
458.8925804249384
 31
0.0
  0
LINE
  5
8DE4
330
1F
100
AcDbEntity
  8
SPOJOVACÍ
  6
Continuous
100
AcDbLine
 10
483.4629053358157
 20
458.5139988761084
 30
0.0
 11
483.0852539648703
 21
458.2963377400601
 31
0.0
  0
LINE
  5
8DE5
330
1F
100
AcDbEntity
  8
SPOJOVACÍ
  6
Continuous
100
AcDbLine
 10
483.4629053358157
 20
458.5139988761084
 30
0.0
 11
483.0852539648703
 21
458.8925804249384
 31
0.0
  0
LINE
  5
8DE6
330
1F
100
AcDbEntity
  8
SPOJOVACÍ
  6
Continuous
100
AcDbLine
 10
480.3468164193845
 20
457.8805491593384
 30
0.0
 11
480.7244677946955
 21
457.501967610232
 31
0.0
  0
LINE
  5
8DE7
330
1F
100
AcDbEntity
  8
SPOJOVACÍ
  6
Continuous
100
AcDbLine
 10
480.3468164193845
 20
457.8805491593384
 30
0.0
 11
480.7244677946955
 21
458.0982102953867
 31
0.0
  0
LINE
  5
8DE8
330
1F
100
AcDbEntity
  8
SPOJOVACÍ
  6
Continuous
100
AcDbLine
 10
479.7821997132786
 20
454.8658494050405
 30
0.0
 11
483.9075293660216
 21
455.8388132873451
 31
0.0
  0
LINE
  5
8DE9
330
1F
100
AcDbEntity
  8
SPOJOVACÍ
  6
Continuous
100
AcDbLine
 10
480.1607812615629
 20
454.4881980319123
 30
0.0
 11
483.5298779950762
 21
455.6211521512969
 31
0.0
  0
LINE
  5
8DEA
330
1F
100
AcDbEntity
  8
SPOJOVACÍ
  6
Continuous
100
AcDbLine
 10
480.1607812615629
 20
455.0844407170671
 30
0.0
 11
483.5298779950762
 21
456.2173948364516
 31
0.0
  0
LINE
  5
8DEB
330
1F
100
AcDbEntity
  8
SPOJOVACÍ
  6
Continuous
100
AcDbLine
 10
483.9075293660216
 20
455.8388132873451
 30
0.0
 11
483.5298779950762
 21
455.6211521512969
 31
0.0
  0
LINE
  5
8DEC
330
1F
100
AcDbEntity
  8
SPOJOVACÍ
  6
Continuous
100
AcDbLine
 10
483.9075293660216
 20
455.8388132873451
 30
0.0
 11
483.5298779950762
 21
456.2173948364516
 31
0.0
  0
LINE
  5
8DED
330
1F
100
AcDbEntity
  8
SPOJOVACÍ
  6
Continuous
100
AcDbLine
 10
479.7821997132786
 20
454.8658494050405
 30
0.0
 11
480.1607812615629
 21
454.4881980319123
 31
0.0
  0
LINE
  5
8DEE
330
1F
100
AcDbEntity
  8
SPOJOVACÍ
  6
Continuous
100
AcDbLine
 10
479.7821997132786
 20
454.8658494050405
 30
0.0
 11
480.1607812615629
 21
455.0844407170671
 31
0.0
  0
LINE
  5
8DEF
330
1F
100
AcDbEntity
  8
SPOJOVACÍ
  6
Continuous
100
AcDbLine
 10
483.0322339438652
 20
455.4444187499475
 30
0.0
 11
483.277800355333
 21
453.4733762386613
 31
0.0
  0
LINE
  5
8DF0
330
1F
100
AcDbEntity
  8
SPOJOVACÍ
  6
Continuous
100
AcDbLine
 10
482.6936499513039
 20
458.1512303158461
 30
0.0
 11
482.9606104066415
 21
456.0146165129927
 31
0.0
  0
LINE
  5
8DF1
330
1F
100
AcDbEntity
  8
SPOJOVACÍ
  6
Continuous
100
AcDbLine
 10
482.3541357901349
 20
460.8682738152793
 30
0.0
 11
482.6220264184457
 21
458.7232884302948
 31
0.0
  0
LINE
  5
8DF2
330
1F
100
AcDbEntity
  8
SPOJOVACÍ
  6
Continuous
100
AcDbLine
 10
481.5420923178835
 20
461.1845335858097
 30
0.0
 11
481.9281152717821
 21
464.2736474036146
 31
0.0
  0
LINE
  5
8DF3
330
1F
100
AcDbEntity
  8
SPOJOVACÍ
  6
Continuous
100
AcDbLine
 10
481.1746728802035
 20
458.2433177196008
 30
0.0
 11
481.4648877253575
 21
460.5641063299563
 31
0.0
  0
LINE
  5
8DF4
330
1F
100
AcDbEntity
  8
SPOJOVACÍ
  6
Continuous
100
AcDbLine
 10
480.8053930878458
 20
455.2909397438716
 30
0.0
 11
481.0956079373654
 21
457.6126585299362
 31
0.0
  0
LINE
  5
8DF5
330
1F
100
AcDbEntity
  8
SPOJOVACÍ
  6
Continuous
100
AcDbLine
 10
481.9281152717821
 20
464.2736474036146
 30
0.0
 11
482.2825122529111
 21
461.4375414023461
 31
0.0
  0
LINE
  5
8DF6
330
1F
100
AcDbEntity
  8
SPOJOVACÍ
  6
Continuous
100
AcDbLine
 10
480.5784301925968
 20
453.4733762386613
 30
0.0
 11
480.7281884953199
 21
454.6705124880181
 31
0.0
  0
LINE
  5
8DF7
330
1F
100
AcDbEntity
  8
SPOJOVACÍ
  6
Continuous
100
AcDbLine
 10
483.277800355333
 20
453.1366526007778
 30
0.0
 11
483.277800355333
 21
453.4733762386613
 31
0.0
  0
LINE
  5
8DF8
330
1F
100
AcDbEntity
  8
SPOJOVACÍ
  6
Continuous
100
AcDbLine
 10
483.277800355333
 20
450.0140524541648
 30
0.0
 11
483.277800355333
 21
452.5329685091938
 31
0.0
  0
LINE
  5
8DF9
330
1F
100
AcDbEntity
  8
SPOJOVACÍ
  6
Continuous
100
AcDbLine
 10
480.5784301925968
 20
452.2260104967727
 30
0.0
 11
480.5784301925968
 21
453.4733762386613
 31
0.0
  0
LINE
  5
8DFA
330
1F
100
AcDbEntity
  8
SPOJOVACÍ
  6
Continuous
100
AcDbLine
 10
480.5784301925968
 20
449.1117819322908
 30
0.0
 11
480.5784301925968
 21
451.6297678116179
 31
0.0
  0
LINE
  5
8DFB
330
1F
100
AcDbEntity
  8
SPOJOVACÍ
  6
Continuous
100
AcDbLine
 10
483.277800355333
 20
446.8923824835228
 30
0.0
 11
483.277800355333
 21
449.4131588902319
 31
0.0
  0
LINE
  5
8DFC
330
1F
100
AcDbEntity
  8
SPOJOVACÍ
  6
Continuous
100
AcDbLine
 10
480.5784301925968
 20
445.9789498521359
 30
0.0
 11
480.5784301925968
 21
448.507167665005
 31
0.0
  0
LINE
  5
8DFD
330
1F
100
AcDbEntity
  8
SPOJOVACÍ
  6
Continuous
100
AcDbLine
 10
476.8279613831482
 20
428.508388055664
 30
0.0
 11
487.0282691604161
 21
428.508388055664
 31
0.0
  0
LINE
  5
8DFE
330
1F
100
AcDbEntity
  8
SPOJOVACÍ
  6
Continuous
100
AcDbLine
 10
476.8279613831482
 20
429.7083148323954
 30
0.0
 11
487.0282691604161
 21
429.7083148323954
 31
0.0
  0
LINE
  5
8DFF
330
1F
100
AcDbEntity
  8
SPOJOVACÍ
  6
Continuous
100
AcDbLine
 10
476.8279613831482
 20
429.7083148323954
 30
0.0
 11
478.177646466699
 21
430.4524554688696
 31
0.0
  0
LINE
  5
8E00
330
1F
100
AcDbEntity
  8
SPOJOVACÍ
  6
Continuous
100
AcDbLine
 10
476.8279613831482
 20
428.508388055664
 30
0.0
 11
476.8279613831482
 21
429.7083148323954
 31
0.0
  0
LINE
  5
8E01
330
1F
100
AcDbEntity
  8
SPOJOVACÍ
  6
Continuous
100
AcDbLine
 10
592.5601894576912
 20
464.2736474036146
 30
0.0
 11
592.2057924765622
 21
461.4375414023461
 31
0.0
  0
LINE
  5
8E02
330
1F
100
AcDbEntity
  8
SPOJOVACÍ
  6
Continuous
100
AcDbLine
 10
593.3136318492698
 20
458.2433177196008
 30
0.0
 11
593.0234170041158
 21
460.5641063299563
 31
0.0
  0
LINE
  5
8E03
330
1F
100
AcDbEntity
  8
SPOJOVACÍ
  6
Continuous
100
AcDbLine
 10
592.9462124115898
 20
461.1845335858097
 30
0.0
 11
592.5601894576912
 21
464.2736474036146
 31
0.0
  0
LINE
  5
8E04
330
1F
100
AcDbEntity
  8
SPOJOVACÍ
  6
Continuous
100
AcDbLine
 10
592.1341689393385
 20
460.8682738152793
 30
0.0
 11
591.8662783110276
 21
458.7232884302948
 31
0.0
  0
LINE
  5
8E05
330
1F
100
AcDbEntity
  8
SPOJOVACÍ
  6
Continuous
100
AcDbLine
 10
591.7946547781694
 20
458.1512303158461
 30
0.0
 11
591.5276943228318
 21
456.0146165129927
 31
0.0
  0
LINE
  5
8E06
330
1F
100
AcDbEntity
  8
SPOJOVACÍ
  6
Continuous
100
AcDbLine
 10
594.1414883100888
 20
457.8805491593384
 30
0.0
 11
593.7638369347778
 21
458.0982102953867
 31
0.0
  0
LINE
  5
8E07
330
1F
100
AcDbEntity
  8
SPOJOVACÍ
  6
Continuous
100
AcDbLine
 10
594.1414883100888
 20
457.8805491593384
 30
0.0
 11
593.7638369347778
 21
457.501967610232
 31
0.0
  0
LINE
  5
8E08
330
1F
100
AcDbEntity
  8
SPOJOVACÍ
  6
Continuous
100
AcDbLine
 10
591.0253993936576
 20
458.5139988761084
 30
0.0
 11
591.403050764603
 21
458.8925804249384
 31
0.0
  0
LINE
  5
8E09
330
1F
100
AcDbEntity
  8
SPOJOVACÍ
  6
Continuous
100
AcDbLine
 10
591.0253993936576
 20
458.5139988761084
 30
0.0
 11
591.403050764603
 21
458.2963377400601
 31
0.0
  0
LINE
  5
8E0A
330
1F
100
AcDbEntity
  8
SPOJOVACÍ
  6
Continuous
100
AcDbLine
 10
593.7638369347778
 20
458.0982102953867
 30
0.0
 11
591.403050764603
 21
458.8925804249384
 31
0.0
  0
LINE
  5
8E0B
330
1F
100
AcDbEntity
  8
SPOJOVACÍ
  6
Continuous
100
AcDbLine
 10
593.7638369347778
 20
457.501967610232
 30
0.0
 11
591.403050764603
 21
458.2963377400601
 31
0.0
  0
LINE
  5
8E0C
330
1F
100
AcDbEntity
  8
SPOJOVACÍ
  6
Continuous
100
AcDbLine
 10
594.1414883100888
 20
457.8805491593384
 30
0.0
 11
591.0253993936576
 21
458.5139988761084
 31
0.0
  0
LINE
  5
8E0D
330
1F
100
AcDbEntity
  8
SPOJOVACÍ
  6
Continuous
100
AcDbLine
 10
593.5768715996173
 20
460.894318737658
 30
0.0
 11
593.1992202286719
 21
461.1129100496773
 31
0.0
  0
LINE
  5
8E0E
330
1F
100
AcDbEntity
  8
SPOJOVACÍ
  6
Continuous
100
AcDbLine
 10
593.5768715996173
 20
460.894318737658
 30
0.0
 11
593.1992202286719
 21
460.5166673645299
 31
0.0
  0
LINE
  5
8E0F
330
1F
100
AcDbEntity
  8
SPOJOVACÍ
  6
Continuous
100
AcDbLine
 10
591.4225844581606
 20
461.204997453432
 30
0.0
 11
591.800235829106
 21
461.583579002262
 31
0.0
  0
LINE
  5
8E10
330
1F
100
AcDbEntity
  8
SPOJOVACÍ
  6
Continuous
100
AcDbLine
 10
591.4225844581606
 20
461.204997453432
 30
0.0
 11
591.800235829106
 21
460.9873363171145
 31
0.0
  0
LINE
  5
8E11
330
1F
100
AcDbEntity
  8
SPOJOVACÍ
  6
Continuous
100
AcDbLine
 10
593.1992202286719
 20
461.1129100496773
 30
0.0
 11
591.800235829106
 21
461.583579002262
 31
0.0
  0
LINE
  5
8E12
330
1F
100
AcDbEntity
  8
SPOJOVACÍ
  6
Continuous
100
AcDbLine
 10
593.1992202286719
 20
460.5166673645299
 30
0.0
 11
591.800235829106
 21
460.9873363171145
 31
0.0
  0
LINE
  5
8E13
330
1F
100
AcDbEntity
  8
SPOJOVACÍ
  6
Continuous
100
AcDbLine
 10
593.5768715996173
 20
460.894318737658
 30
0.0
 11
591.4225844581606
 21
461.204997453432
 31
0.0
  0
LINE
  5
8E14
330
1F
100
AcDbEntity
  8
SPOJOVACÍ
  6
Continuous
100
AcDbLine
 10
593.9098745368765
 20
445.9789498521359
 30
0.0
 11
593.9098745368765
 21
448.507167665005
 31
0.0
  0
LINE
  5
8E15
330
1F
100
AcDbEntity
  8
SPOJOVACÍ
  6
Continuous
100
AcDbLine
 10
591.2105043741403
 20
446.8923824835228
 30
0.0
 11
591.2105043741403
 21
449.4131588902319
 31
0.0
  0
LINE
  5
8E16
330
1F
100
AcDbEntity
  8
SPOJOVACÍ
  6
Continuous
100
AcDbLine
 10
593.9098745368765
 20
449.1117819322908
 30
0.0
 11
593.9098745368765
 21
451.6297678116179
 31
0.0
  0
LINE
  5
8E17
330
1F
100
AcDbEntity
  8
SPOJOVACÍ
  6
Continuous
100
AcDbLine
 10
593.9098745368765
 20
452.2260104967727
 30
0.0
 11
593.9098745368765
 21
453.4733762386613
 31
0.0
  0
LINE
  5
8E18
330
1F
100
AcDbEntity
  8
SPOJOVACÍ
  6
Continuous
100
AcDbLine
 10
591.2105043741403
 20
450.0140524541648
 30
0.0
 11
591.2105043741403
 21
452.5329685091938
 31
0.0
  0
LINE
  5
8E19
330
1F
100
AcDbEntity
  8
SPOJOVACÍ
  6
Continuous
100
AcDbLine
 10
591.2105043741403
 20
453.1366526007778
 30
0.0
 11
591.2105043741403
 21
453.4733762386613
 31
0.0
  0
LINE
  5
8E1A
330
1F
100
AcDbEntity
  8
SPOJOVACÍ
  6
Continuous
100
AcDbLine
 10
593.9098745368765
 20
453.4733762386613
 30
0.0
 11
593.7601162341534
 21
454.6705124880181
 31
0.0
  0
LINE
  5
8E1B
330
1F
100
AcDbEntity
  8
SPOJOVACÍ
  6
Continuous
100
AcDbLine
 10
593.6829116416275
 20
455.2909397438716
 30
0.0
 11
593.3926967921079
 21
457.6126585299362
 31
0.0
  0
LINE
  5
8E1C
330
1F
100
AcDbEntity
  8
SPOJOVACÍ
  6
Continuous
100
AcDbLine
 10
591.4560707856081
 20
455.4444187499475
 30
0.0
 11
591.2105043741403
 21
453.4733762386613
 31
0.0
  0
LINE
  5
8E1D
330
1F
100
AcDbEntity
  8
SPOJOVACÍ
  6
Continuous
100
AcDbLine
 10
594.7061050161947
 20
454.8658494050405
 30
0.0
 11
594.3275234679104
 21
455.0844407170671
 31
0.0
  0
LINE
  5
8E1E
330
1F
100
AcDbEntity
  8
SPOJOVACÍ
  6
Continuous
100
AcDbLine
 10
594.7061050161947
 20
454.8658494050405
 30
0.0
 11
594.3275234679104
 21
454.4881980319123
 31
0.0
  0
LINE
  5
8E1F
330
1F
100
AcDbEntity
  8
SPOJOVACÍ
  6
Continuous
100
AcDbLine
 10
590.5807753634517
 20
455.8388132873451
 30
0.0
 11
590.9584267343971
 21
456.2173948364516
 31
0.0
  0
LINE
  5
8E20
330
1F
100
AcDbEntity
  8
SPOJOVACÍ
  6
Continuous
100
AcDbLine
 10
590.5807753634517
 20
455.8388132873451
 30
0.0
 11
590.9584267343971
 21
455.6211521512969
 31
0.0
  0
LINE
  5
8E21
330
1F
100
AcDbEntity
  8
SPOJOVACÍ
  6
Continuous
100
AcDbLine
 10
594.3275234679104
 20
455.0844407170671
 30
0.0
 11
590.9584267343971
 21
456.2173948364516
 31
0.0
  0
LINE
  5
8E22
330
1F
100
AcDbEntity
  8
SPOJOVACÍ
  6
Continuous
100
AcDbLine
 10
594.3275234679104
 20
454.4881980319123
 30
0.0
 11
590.9584267343971
 21
455.6211521512969
 31
0.0
  0
LINE
  5
8E23
330
1F
100
AcDbEntity
  8
SPOJOVACÍ
  6
Continuous
100
AcDbLine
 10
594.7061050161947
 20
454.8658494050405
 30
0.0
 11
590.5807753634517
 21
455.8388132873451
 31
0.0
  0
LINE
  5
8E24
330
1F
100
AcDbEntity
  8
SPOJOVACÍ
  6
Continuous
100
AcDbLine
 10
594.9600430106157
 20
448.6680880777867
 30
0.0
 11
590.1603359047667
 21
449.8680148542489
 31
0.0
  0
LINE
  5
8E25
330
1F
100
AcDbEntity
  8
SPOJOVACÍ
  6
Continuous
100
AcDbLine
 10
594.9600430106157
 20
448.6680880777867
 30
0.0
 11
594.5823916353047
 21
448.8866793898059
 31
0.0
  0
LINE
  5
8E26
330
1F
100
AcDbEntity
  8
SPOJOVACÍ
  6
Continuous
100
AcDbLine
 10
594.9600430106157
 20
448.6680880777867
 30
0.0
 11
594.5823916353047
 21
448.2904367046585
 31
0.0
  0
LINE
  5
8E27
330
1F
100
AcDbEntity
  8
SPOJOVACÍ
  6
Continuous
100
AcDbLine
 10
590.1603359047667
 20
449.8680148542489
 30
0.0
 11
590.5379872757121
 21
450.2465964030789
 31
0.0
  0
LINE
  5
8E28
330
1F
100
AcDbEntity
  8
SPOJOVACÍ
  6
Continuous
100
AcDbLine
 10
590.1603359047667
 20
449.8680148542489
 30
0.0
 11
590.5379872757121
 21
449.6503537182007
 31
0.0
  0
LINE
  5
8E29
330
1F
100
AcDbEntity
  8
SPOJOVACÍ
  6
Continuous
100
AcDbLine
 10
594.5823916353047
 20
448.8866793898059
 30
0.0
 11
590.5379872757121
 21
450.2465964030789
 31
0.0
  0
LINE
  5
8E2A
330
1F
100
AcDbEntity
  8
SPOJOVACÍ
  6
Continuous
100
AcDbLine
 10
594.5823916353047
 20
448.2904367046585
 30
0.0
 11
590.5379872757121
 21
449.6503537182007
 31
0.0
  0
LINE
  5
8E2B
330
1F
100
AcDbEntity
  8
SPOJOVACÍ
  6
Continuous
100
AcDbLine
 10
594.9600430106157
 20
451.7888278727268
 30
0.0
 11
590.1603359047667
 21
452.9887546491891
 31
0.0
  0
LINE
  5
8E2C
330
1F
100
AcDbEntity
  8
SPOJOVACÍ
  6
Continuous
100
AcDbLine
 10
594.9600430106157
 20
451.7888278727268
 30
0.0
 11
594.5823916353047
 21
452.0064890087751
 31
0.0
  0
LINE
  5
8E2D
330
1F
100
AcDbEntity
  8
SPOJOVACÍ
  6
Continuous
100
AcDbLine
 10
594.9600430106157
 20
451.7888278727268
 30
0.0
 11
594.5823916353047
 21
451.4102463236204
 31
0.0
  0
LINE
  5
8E2E
330
1F
100
AcDbEntity
  8
SPOJOVACÍ
  6
Continuous
100
AcDbLine
 10
590.1603359047667
 20
452.9887546491891
 30
0.0
 11
590.5379872757121
 21
453.3664060223173
 31
0.0
  0
LINE
  5
8E2F
330
1F
100
AcDbEntity
  8
SPOJOVACÍ
  6
Continuous
100
AcDbLine
 10
590.1603359047667
 20
452.9887546491891
 30
0.0
 11
590.5379872757121
 21
452.7701633371625
 31
0.0
  0
LINE
  5
8E30
330
1F
100
AcDbEntity
  8
SPOJOVACÍ
  6
Continuous
100
AcDbLine
 10
594.5823916353047
 20
452.0064890087751
 30
0.0
 11
590.5379872757121
 21
453.3664060223173
 31
0.0
  0
LINE
  5
8E31
330
1F
100
AcDbEntity
  8
SPOJOVACÍ
  6
Continuous
100
AcDbLine
 10
594.5823916353047
 20
451.4102463236204
 30
0.0
 11
590.5379872757121
 21
452.7701633371625
 31
0.0
  0
LINE
  5
8E32
330
1F
100
AcDbEntity
  8
SPOJOVACÍ
  6
Continuous
100
AcDbLine
 10
590.3705556341092
 20
432.1704901636194
 30
0.0
 11
589.1608814896326
 21
430.6460658539517
 31
0.0
  0
LINE
  5
8E33
330
1F
100
AcDbEntity
  8
SPOJOVACÍ
  6
Continuous
100
AcDbLine
 10
590.9835414832569
 20
433.5843573733227
 30
0.0
 11
590.3705556341092
 21
432.1704901636194
 31
0.0
  0
LINE
  5
8E34
330
1F
100
AcDbEntity
  8
SPOJOVACÍ
  6
Continuous
100
AcDbLine
 10
591.2105043741403
 20
435.107985326752
 30
0.0
 11
590.9835414832569
 21
433.5843573733227
 31
0.0
  0
LINE
  5
8E35
330
1F
100
AcDbEntity
  8
SPOJOVACÍ
  6
Continuous
100
AcDbLine
 10
593.9759170187981
 20
434.3210566036296
 30
0.0
 11
593.9098745368765
 21
435.107985326752
 31
0.0
  0
LINE
  5
8E36
330
1F
100
AcDbEntity
  8
SPOJOVACÍ
  6
Continuous
100
AcDbLine
 10
594.4037978830975
 20
432.8402167365793
 30
0.0
 11
593.9759170187981
 21
434.3210566036296
 31
0.0
  0
LINE
  5
8E37
330
1F
100
AcDbEntity
  8
SPOJOVACÍ
  6
Continuous
100
AcDbLine
 10
595.2000283624157
 20
431.5212274582818
 30
0.0
 11
594.4037978830975
 21
432.8402167365793
 31
0.0
  0
LINE
  5
8E38
330
1F
100
AcDbEntity
  8
SPOJOVACÍ
  6
Continuous
100
AcDbLine
 10
596.3106582627743
 20
430.4524554688696
 30
0.0
 11
595.2000283624157
 21
431.5212274582818
 31
0.0
  0
LINE
  5
8E39
330
1F
100
AcDbEntity
  8
SPOJOVACÍ
  6
Continuous
100
AcDbLine
 10
591.2105043741403
 20
435.107985326752
 30
0.0
 11
591.2105043741403
 21
440.0509395056806
 31
0.0
  0
LINE
  5
8E3A
330
1F
100
AcDbEntity
  8
SPOJOVACÍ
  6
Continuous
100
AcDbLine
 10
593.9098745368765
 20
435.107985326752
 30
0.0
 11
593.9098745368765
 21
439.145878456432
 31
0.0
  0
LINE
  5
8E3B
330
1F
100
AcDbEntity
  8
SPOJOVACÍ
  6
Continuous
100
AcDbLine
 10
593.9098745368765
 20
439.7411909656084
 30
0.0
 11
593.9098745368765
 21
442.2601070206374
 31
0.0
  0
LINE
  5
8E3C
330
1F
100
AcDbEntity
  8
SPOJOVACÍ
  6
Continuous
100
AcDbLine
 10
593.9098745368765
 20
442.8637911119522
 30
0.0
 11
593.9098745368765
 21
445.3845675186612
 31
0.0
  0
LINE
  5
8E3D
330
1F
100
AcDbEntity
  8
SPOJOVACÍ
  6
Continuous
100
AcDbLine
 10
591.2105043741403
 20
440.6546235969954
 30
0.0
 11
591.2105043741403
 21
443.1735396520243
 31
0.0
  0
LINE
  5
8E3E
330
1F
100
AcDbEntity
  8
SPOJOVACÍ
  6
Continuous
100
AcDbLine
 10
591.2105043741403
 20
443.7697823371791
 30
0.0
 11
591.2105043741403
 21
446.2980001500482
 31
0.0
  0
LINE
  5
8E3F
330
1F
100
AcDbEntity
  8
SPOJOVACÍ
  6
Continuous
100
AcDbLine
 10
594.9600430106157
 20
439.3086592206173
 30
0.0
 11
590.1603359047667
 21
440.5085859970795
 31
0.0
  0
LINE
  5
8E40
330
1F
100
AcDbEntity
  8
SPOJOVACÍ
  6
Continuous
100
AcDbLine
 10
594.9600430106157
 20
439.3086592206173
 30
0.0
 11
594.5823916353047
 21
439.5263203566655
 31
0.0
  0
LINE
  5
8E41
330
1F
100
AcDbEntity
  8
SPOJOVACÍ
  6
Continuous
100
AcDbLine
 10
594.9600430106157
 20
439.3086592206173
 30
0.0
 11
594.5823916353047
 21
438.9300776717873
 31
0.0
  0
LINE
  5
8E42
330
1F
100
AcDbEntity
  8
SPOJOVACÍ
  6
Continuous
100
AcDbLine
 10
590.1603359047667
 20
440.5085859970795
 30
0.0
 11
590.5379872757121
 21
440.8862373702077
 31
0.0
  0
LINE
  5
8E43
330
1F
100
AcDbEntity
  8
SPOJOVACÍ
  6
Continuous
100
AcDbLine
 10
590.1603359047667
 20
440.5085859970795
 30
0.0
 11
590.5379872757121
 21
440.289994685053
 31
0.0
  0
LINE
  5
8E44
330
1F
100
AcDbEntity
  8
SPOJOVACÍ
  6
Continuous
100
AcDbLine
 10
594.5823916353047
 20
439.5263203566655
 30
0.0
 11
590.5379872757121
 21
440.8862373702077
 31
0.0
  0
LINE
  5
8E45
330
1F
100
AcDbEntity
  8
SPOJOVACÍ
  6
Continuous
100
AcDbLine
 10
594.5823916353047
 20
438.9300776717873
 30
0.0
 11
590.5379872757121
 21
440.289994685053
 31
0.0
  0
LINE
  5
8E46
330
1F
100
AcDbEntity
  8
SPOJOVACÍ
  6
Continuous
100
AcDbLine
 10
594.9600430106157
 20
442.4284688395792
 30
0.0
 11
590.1603359047667
 21
443.6283956163179
 31
0.0
  0
LINE
  5
8E47
330
1F
100
AcDbEntity
  8
SPOJOVACÍ
  6
Continuous
100
AcDbLine
 10
594.9600430106157
 20
442.4284688395792
 30
0.0
 11
594.5823916353047
 21
442.6470601516057
 31
0.0
  0
LINE
  5
8E48
330
1F
100
AcDbEntity
  8
SPOJOVACÍ
  6
Continuous
100
AcDbLine
 10
594.9600430106157
 20
442.4284688395792
 30
0.0
 11
594.5823916353047
 21
442.050817466451
 31
0.0
  0
LINE
  5
8E49
330
1F
100
AcDbEntity
  8
SPOJOVACÍ
  6
Continuous
100
AcDbLine
 10
590.1603359047667
 20
443.6283956163179
 30
0.0
 11
590.5379872757121
 21
444.0060469891696
 31
0.0
  0
LINE
  5
8E4A
330
1F
100
AcDbEntity
  8
SPOJOVACÍ
  6
Continuous
100
AcDbLine
 10
590.1603359047667
 20
443.6283956163179
 30
0.0
 11
590.5379872757121
 21
443.4098043042913
 31
0.0
  0
LINE
  5
8E4B
330
1F
100
AcDbEntity
  8
SPOJOVACÍ
  6
Continuous
100
AcDbLine
 10
594.5823916353047
 20
442.6470601516057
 30
0.0
 11
590.5379872757121
 21
444.0060469891696
 31
0.0
  0
LINE
  5
8E4C
330
1F
100
AcDbEntity
  8
SPOJOVACÍ
  6
Continuous
100
AcDbLine
 10
594.5823916353047
 20
442.050817466451
 30
0.0
 11
590.5379872757121
 21
443.4098043042913
 31
0.0
  0
LINE
  5
8E4D
330
1F
100
AcDbEntity
  8
SPOJOVACÍ
  6
Continuous
100
AcDbLine
 10
594.9600430106157
 20
445.5482784588175
 30
0.0
 11
590.1603359047667
 21
446.7482052352798
 31
0.0
  0
LINE
  5
8E4E
330
1F
100
AcDbEntity
  8
SPOJOVACÍ
  6
Continuous
100
AcDbLine
 10
594.9600430106157
 20
445.5482784588175
 30
0.0
 11
594.5823916353047
 21
445.7668697708441
 31
0.0
  0
LINE
  5
8E4F
330
1F
100
AcDbEntity
  8
SPOJOVACÍ
  6
Continuous
100
AcDbLine
 10
594.9600430106157
 20
445.5482784588175
 30
0.0
 11
594.5823916353047
 21
445.1706270856893
 31
0.0
  0
LINE
  5
8E50
330
1F
100
AcDbEntity
  8
SPOJOVACÍ
  6
Continuous
100
AcDbLine
 10
590.1603359047667
 20
446.7482052352798
 30
0.0
 11
590.5379872757121
 21
447.1267867841097
 31
0.0
  0
LINE
  5
8E51
330
1F
100
AcDbEntity
  8
SPOJOVACÍ
  6
Continuous
100
AcDbLine
 10
590.1603359047667
 20
446.7482052352798
 30
0.0
 11
590.5379872757121
 21
446.5305440989623
 31
0.0
  0
LINE
  5
8E52
330
1F
100
AcDbEntity
  8
SPOJOVACÍ
  6
Continuous
100
AcDbLine
 10
594.5823916353047
 20
445.7668697708441
 30
0.0
 11
590.5379872757121
 21
447.1267867841097
 31
0.0
  0
LINE
  5
8E53
330
1F
100
AcDbEntity
  8
SPOJOVACÍ
  6
Continuous
100
AcDbLine
 10
594.5823916353047
 20
445.1706270856893
 30
0.0
 11
590.5379872757121
 21
446.5305440989623
 31
0.0
  0
LINE
  5
8E54
330
1F
100
AcDbEntity
  8
SPOJOVACÍ
  6
Continuous
100
AcDbLine
 10
587.4600355690573
 20
428.508388055664
 30
0.0
 11
587.4600355690573
 21
429.7083148323954
 31
0.0
  0
LINE
  5
8E55
330
1F
100
AcDbEntity
  8
SPOJOVACÍ
  6
Continuous
100
AcDbLine
 10
587.4600355690573
 20
429.7083148323954
 30
0.0
 11
589.1608814896326
 21
430.6460658539517
 31
0.0
  0
LINE
  5
8E56
330
1F
100
AcDbEntity
  8
SPOJOVACÍ
  6
Continuous
100
AcDbLine
 10
597.6603433463251
 20
428.508388055664
 30
0.0
 11
597.6603433463251
 21
429.7083148323954
 31
0.0
  0
LINE
  5
8E57
330
1F
100
AcDbEntity
  8
SPOJOVACÍ
  6
Continuous
100
AcDbLine
 10
597.6603433463251
 20
429.7083148323954
 30
0.0
 11
596.3106582627743
 21
430.4524554688696
 31
0.0
  0
LINE
  5
8E58
330
1F
100
AcDbEntity
  8
SPOJOVACÍ
  6
Continuous
100
AcDbLine
 10
597.6603433463251
 20
429.7083148323954
 30
0.0
 11
587.4600355690573
 21
429.7083148323954
 31
0.0
  0
LINE
  5
8E59
330
1F
100
AcDbEntity
  8
SPOJOVACÍ
  6
Continuous
100
AcDbLine
 10
597.6603433463251
 20
428.508388055664
 30
0.0
 11
587.4600355690573
 21
428.508388055664
 31
0.0
  0
LINE
  5
8E5A
330
1F
100
AcDbEntity
  8
SPOJOVACÍ
  6
Continuous
100
AcDbLine
 10
630.5960731101158
 20
507.2209098539669
 30
0.0
 11
628.0678552972467
 21
507.2209098539669
 31
0.0
  0
LINE
  5
8E5B
330
1F
100
AcDbEntity
  8
SPOJOVACÍ
  6
Continuous
100
AcDbLine
 10
629.6826404787289
 20
504.5215396912308
 30
0.0
 11
627.1618640720198
 21
504.5215396912308
 31
0.0
  0
LINE
  5
8E5C
330
1F
100
AcDbEntity
  8
SPOJOVACÍ
  6
Continuous
100
AcDbLine
 10
627.4632410299609
 20
507.2209098539669
 30
0.0
 11
624.9452551506338
 21
507.2209098539669
 31
0.0
  0
LINE
  5
8E5D
330
1F
100
AcDbEntity
  8
SPOJOVACÍ
  6
Continuous
100
AcDbLine
 10
624.349012465479
 20
507.2209098539669
 30
0.0
 11
623.1016467235904
 21
507.2209098539669
 31
0.0
  0
LINE
  5
8E5E
330
1F
100
AcDbEntity
  8
SPOJOVACÍ
  6
Continuous
100
AcDbLine
 10
626.5609705080869
 20
504.5215396912308
 30
0.0
 11
624.042054453058
 21
504.5215396912308
 31
0.0
  0
LINE
  5
8E5F
330
1F
100
AcDbEntity
  8
SPOJOVACÍ
  6
Continuous
100
AcDbLine
 10
623.438370361474
 20
504.5215396912308
 30
0.0
 11
623.1016467235904
 21
504.5215396912308
 31
0.0
  0
LINE
  5
8E60
330
1F
100
AcDbEntity
  8
SPOJOVACÍ
  6
Continuous
100
AcDbLine
 10
623.1016467235904
 20
507.2209098539669
 30
0.0
 11
621.9045104742336
 21
507.0711515512439
 31
0.0
  0
LINE
  5
8E61
330
1F
100
AcDbEntity
  8
SPOJOVACÍ
  6
Continuous
100
AcDbLine
 10
612.3013755586371
 20
505.8712247747816
 30
0.0
 11
615.1374815599056
 21
505.5168277936527
 31
0.0
  0
LINE
  5
8E62
330
1F
100
AcDbEntity
  8
SPOJOVACÍ
  6
Continuous
100
AcDbLine
 10
621.2840832183801
 20
506.9939469587179
 30
0.0
 11
618.9623644323155
 21
506.7037321091984
 31
0.0
  0
LINE
  5
8E63
330
1F
100
AcDbEntity
  8
SPOJOVACÍ
  6
Continuous
100
AcDbLine
 10
618.3317052426509
 20
506.6246671663602
 30
0.0
 11
616.0109166322954
 21
506.3344523212062
 31
0.0
  0
LINE
  5
8E64
330
1F
100
AcDbEntity
  8
SPOJOVACÍ
  6
Continuous
100
AcDbLine
 10
615.390489376442
 20
506.2572477286803
 30
0.0
 11
612.3013755586371
 21
505.8712247747816
 31
0.0
  0
LINE
  5
8E65
330
1F
100
AcDbEntity
  8
SPOJOVACÍ
  6
Continuous
100
AcDbLine
 10
615.7067491469724
 20
505.4452042564289
 30
0.0
 11
617.8517345319569
 21
505.177313628118
 31
0.0
  0
LINE
  5
8E66
330
1F
100
AcDbEntity
  8
SPOJOVACÍ
  6
Continuous
100
AcDbLine
 10
618.4237926464057
 20
505.1056900952598
 30
0.0
 11
620.560406449259
 21
504.8387296399223
 31
0.0
  0
LINE
  5
8E67
330
1F
100
AcDbEntity
  8
SPOJOVACÍ
  6
Continuous
100
AcDbLine
 10
621.1306042123042
 20
504.7671061026985
 30
0.0
 11
623.1016467235904
 21
504.5215396912308
 31
0.0
  0
LINE
  5
8E68
330
1F
100
AcDbEntity
  8
SPOJOVACÍ
  6
Continuous
100
AcDbLine
 10
621.7091735572112
 20
508.0171403332851
 30
0.0
 11
621.4905822451846
 21
507.6385587850008
 31
0.0
  0
LINE
  5
8E69
330
1F
100
AcDbEntity
  8
SPOJOVACÍ
  6
Continuous
100
AcDbLine
 10
621.7091735572112
 20
508.0171403332851
 30
0.0
 11
622.0868249303394
 21
507.6385587850008
 31
0.0
  0
LINE
  5
8E6A
330
1F
100
AcDbEntity
  8
SPOJOVACÍ
  6
Continuous
100
AcDbLine
 10
620.7362096749066
 20
503.8918106805422
 30
0.0
 11
620.3576281258001
 21
504.2694620514875
 31
0.0
  0
LINE
  5
8E6B
330
1F
100
AcDbEntity
  8
SPOJOVACÍ
  6
Continuous
100
AcDbLine
 10
620.7362096749066
 20
503.8918106805422
 30
0.0
 11
620.9538708109548
 21
504.2694620514875
 31
0.0
  0
LINE
  5
8E6C
330
1F
100
AcDbEntity
  8
SPOJOVACÍ
  6
Continuous
100
AcDbLine
 10
621.4905822451846
 20
507.6385587850008
 30
0.0
 11
620.3576281258001
 21
504.2694620514875
 31
0.0
  0
LINE
  5
8E6D
330
1F
100
AcDbEntity
  8
SPOJOVACÍ
  6
Continuous
100
AcDbLine
 10
622.0868249303394
 20
507.6385587850008
 30
0.0
 11
620.9538708109548
 21
504.2694620514875
 31
0.0
  0
LINE
  5
8E6E
330
1F
100
AcDbEntity
  8
SPOJOVACÍ
  6
Continuous
100
AcDbLine
 10
621.7091735572112
 20
508.0171403332851
 30
0.0
 11
620.7362096749066
 21
503.8918106805422
 31
0.0
  0
LINE
  5
8E6F
330
1F
100
AcDbEntity
  8
SPOJOVACÍ
  6
Continuous
100
AcDbLine
 10
618.6944738029133
 20
507.4525236271792
 30
0.0
 11
618.476812666865
 21
507.0748722518683
 31
0.0
  0
LINE
  5
8E70
330
1F
100
AcDbEntity
  8
SPOJOVACÍ
  6
Continuous
100
AcDbLine
 10
618.6944738029133
 20
507.4525236271792
 30
0.0
 11
619.0730553520197
 21
507.0748722518683
 31
0.0
  0
LINE
  5
8E71
330
1F
100
AcDbEntity
  8
SPOJOVACÍ
  6
Continuous
100
AcDbLine
 10
618.0610240861433
 20
504.336434710748
 30
0.0
 11
617.6824425373133
 21
504.7140860816934
 31
0.0
  0
LINE
  5
8E72
330
1F
100
AcDbEntity
  8
SPOJOVACÍ
  6
Continuous
100
AcDbLine
 10
618.0610240861433
 20
504.336434710748
 30
0.0
 11
618.2786852221916
 21
504.7140860816934
 31
0.0
  0
LINE
  5
8E73
330
1F
100
AcDbEntity
  8
SPOJOVACÍ
  6
Continuous
100
AcDbLine
 10
618.476812666865
 20
507.0748722518683
 30
0.0
 11
617.6824425373133
 21
504.7140860816934
 31
0.0
  0
LINE
  5
8E74
330
1F
100
AcDbEntity
  8
SPOJOVACÍ
  6
Continuous
100
AcDbLine
 10
619.0730553520197
 20
507.0748722518683
 30
0.0
 11
618.2786852221916
 21
504.7140860816934
 31
0.0
  0
LINE
  5
8E75
330
1F
100
AcDbEntity
  8
SPOJOVACÍ
  6
Continuous
100
AcDbLine
 10
618.6944738029133
 20
507.4525236271792
 30
0.0
 11
618.0610240861433
 21
504.336434710748
 31
0.0
  0
LINE
  5
8E76
330
1F
100
AcDbEntity
  8
SPOJOVACÍ
  6
Continuous
100
AcDbLine
 10
615.6807042245937
 20
506.8879069167078
 30
0.0
 11
615.4621129125744
 21
506.5102555457624
 31
0.0
  0
LINE
  5
8E77
330
1F
100
AcDbEntity
  8
SPOJOVACÍ
  6
Continuous
100
AcDbLine
 10
615.6807042245937
 20
506.8879069167078
 30
0.0
 11
616.0583555977218
 21
506.5102555457624
 31
0.0
  0
LINE
  5
8E78
330
1F
100
AcDbEntity
  8
SPOJOVACÍ
  6
Continuous
100
AcDbLine
 10
615.3700255088197
 20
504.733619775251
 30
0.0
 11
614.9914439599897
 21
505.1112711461964
 31
0.0
  0
LINE
  5
8E79
330
1F
100
AcDbEntity
  8
SPOJOVACÍ
  6
Continuous
100
AcDbLine
 10
615.3700255088197
 20
504.733619775251
 30
0.0
 11
615.5876866451372
 21
505.1112711461964
 31
0.0
  0
LINE
  5
8E7A
330
1F
100
AcDbEntity
  8
SPOJOVACÍ
  6
Continuous
100
AcDbLine
 10
615.4621129125744
 20
506.5102555457624
 30
0.0
 11
614.9914439599897
 21
505.1112711461964
 31
0.0
  0
LINE
  5
8E7B
330
1F
100
AcDbEntity
  8
SPOJOVACÍ
  6
Continuous
100
AcDbLine
 10
616.0583555977218
 20
506.5102555457624
 30
0.0
 11
615.5876866451372
 21
505.1112711461964
 31
0.0
  0
LINE
  5
8E7C
330
1F
100
AcDbEntity
  8
SPOJOVACÍ
  6
Continuous
100
AcDbLine
 10
615.6807042245937
 20
506.8879069167078
 30
0.0
 11
615.3700255088197
 21
504.733619775251
 31
0.0
  0
LINE
  5
8E7D
330
1F
100
AcDbEntity
  8
SPOJOVACÍ
  6
Continuous
100
AcDbLine
 10
627.906934884465
 20
508.2710783277061
 30
0.0
 11
626.7070081080028
 21
503.4713712218572
 31
0.0
  0
LINE
  5
8E7E
330
1F
100
AcDbEntity
  8
SPOJOVACÍ
  6
Continuous
100
AcDbLine
 10
627.906934884465
 20
508.2710783277061
 30
0.0
 11
627.6883435724458
 21
507.8934269523951
 31
0.0
  0
LINE
  5
8E7F
330
1F
100
AcDbEntity
  8
SPOJOVACÍ
  6
Continuous
100
AcDbLine
 10
627.906934884465
 20
508.2710783277061
 30
0.0
 11
628.2845862575932
 21
507.8934269523951
 31
0.0
  0
LINE
  5
8E80
330
1F
100
AcDbEntity
  8
SPOJOVACÍ
  6
Continuous
100
AcDbLine
 10
626.7070081080028
 20
503.4713712218572
 30
0.0
 11
626.3284265591728
 21
503.8490225928025
 31
0.0
  0
LINE
  5
8E81
330
1F
100
AcDbEntity
  8
SPOJOVACÍ
  6
Continuous
100
AcDbLine
 10
626.7070081080028
 20
503.4713712218572
 30
0.0
 11
626.9246692440511
 21
503.8490225928025
 31
0.0
  0
LINE
  5
8E82
330
1F
100
AcDbEntity
  8
SPOJOVACÍ
  6
Continuous
100
AcDbLine
 10
627.6883435724458
 20
507.8934269523951
 30
0.0
 11
626.3284265591728
 21
503.8490225928025
 31
0.0
  0
LINE
  5
8E83
330
1F
100
AcDbEntity
  8
SPOJOVACÍ
  6
Continuous
100
AcDbLine
 10
628.2845862575932
 20
507.8934269523951
 30
0.0
 11
626.9246692440511
 21
503.8490225928025
 31
0.0
  0
LINE
  5
8E84
330
1F
100
AcDbEntity
  8
SPOJOVACÍ
  6
Continuous
100
AcDbLine
 10
624.7861950895249
 20
508.2710783277061
 30
0.0
 11
623.5862683130626
 21
503.4713712218572
 31
0.0
  0
LINE
  5
8E85
330
1F
100
AcDbEntity
  8
SPOJOVACÍ
  6
Continuous
100
AcDbLine
 10
624.7861950895249
 20
508.2710783277061
 30
0.0
 11
624.5685339534766
 21
507.8934269523951
 31
0.0
  0
LINE
  5
8E86
330
1F
100
AcDbEntity
  8
SPOJOVACÍ
  6
Continuous
100
AcDbLine
 10
624.7861950895249
 20
508.2710783277061
 30
0.0
 11
625.1647766386313
 21
507.8934269523951
 31
0.0
  0
LINE
  5
8E87
330
1F
100
AcDbEntity
  8
SPOJOVACÍ
  6
Continuous
100
AcDbLine
 10
623.5862683130626
 20
503.4713712218572
 30
0.0
 11
623.2086169399345
 21
503.8490225928025
 31
0.0
  0
LINE
  5
8E88
330
1F
100
AcDbEntity
  8
SPOJOVACÍ
  6
Continuous
100
AcDbLine
 10
623.5862683130626
 20
503.4713712218572
 30
0.0
 11
623.8048596250892
 21
503.8490225928025
 31
0.0
  0
LINE
  5
8E89
330
1F
100
AcDbEntity
  8
SPOJOVACÍ
  6
Continuous
100
AcDbLine
 10
624.5685339534766
 20
507.8934269523951
 30
0.0
 11
623.2086169399345
 21
503.8490225928025
 31
0.0
  0
LINE
  5
8E8A
330
1F
100
AcDbEntity
  8
SPOJOVACÍ
  6
Continuous
100
AcDbLine
 10
625.1647766386313
 20
507.8934269523951
 30
0.0
 11
623.8048596250892
 21
503.8490225928025
 31
0.0
  0
LINE
  5
8E8B
330
1F
100
AcDbEntity
  8
SPOJOVACÍ
  6
Continuous
100
AcDbLine
 10
644.4045327986323
 20
503.6815909511997
 30
0.0
 11
645.9289571082999
 21
502.4719168067231
 31
0.0
  0
LINE
  5
8E8C
330
1F
100
AcDbEntity
  8
SPOJOVACÍ
  6
Continuous
100
AcDbLine
 10
642.990665588929
 20
504.2945768003473
 30
0.0
 11
644.4045327986323
 21
503.6815909511997
 31
0.0
  0
LINE
  5
8E8D
330
1F
100
AcDbEntity
  8
SPOJOVACÍ
  6
Continuous
100
AcDbLine
 10
641.4670376354997
 20
504.5215396912308
 30
0.0
 11
642.990665588929
 21
504.2945768003473
 31
0.0
  0
LINE
  5
8E8E
330
1F
100
AcDbEntity
  8
SPOJOVACÍ
  6
Continuous
100
AcDbLine
 10
648.0666349065877
 20
510.9713786634156
 30
0.0
 11
646.8667081298563
 21
510.9713786634156
 31
0.0
  0
LINE
  5
8E8F
330
1F
100
AcDbEntity
  8
SPOJOVACÍ
  6
Continuous
100
AcDbLine
 10
642.2539663586221
 20
507.2869523358885
 30
0.0
 11
641.4670376354997
 21
507.2209098539669
 31
0.0
  0
LINE
  5
8E90
330
1F
100
AcDbEntity
  8
SPOJOVACÍ
  6
Continuous
100
AcDbLine
 10
643.7348062256724
 20
507.7148332001879
 30
0.0
 11
642.2539663586221
 21
507.2869523358885
 31
0.0
  0
LINE
  5
8E91
330
1F
100
AcDbEntity
  8
SPOJOVACÍ
  6
Continuous
100
AcDbLine
 10
645.0537955039699
 20
508.5110636795061
 30
0.0
 11
643.7348062256724
 21
507.7148332001879
 31
0.0
  0
LINE
  5
8E92
330
1F
100
AcDbEntity
  8
SPOJOVACÍ
  6
Continuous
100
AcDbLine
 10
646.1225674933821
 20
509.6216935798647
 30
0.0
 11
645.0537955039699
 21
508.5110636795061
 31
0.0
  0
LINE
  5
8E93
330
1F
100
AcDbEntity
  8
SPOJOVACÍ
  6
Continuous
100
AcDbLine
 10
646.8667081298563
 20
510.9713786634156
 30
0.0
 11
646.1225674933821
 21
509.6216935798647
 31
0.0
  0
LINE
  5
8E94
330
1F
100
AcDbEntity
  8
SPOJOVACÍ
  6
Continuous
100
AcDbLine
 10
641.4670376354997
 20
504.5215396912308
 30
0.0
 11
636.5240834565711
 21
504.5215396912308
 31
0.0
  0
LINE
  5
8E95
330
1F
100
AcDbEntity
  8
SPOJOVACÍ
  6
Continuous
100
AcDbLine
 10
641.4670376354997
 20
507.2209098539669
 30
0.0
 11
637.4291445058197
 21
507.2209098539669
 31
0.0
  0
LINE
  5
8E96
330
1F
100
AcDbEntity
  8
SPOJOVACÍ
  6
Continuous
100
AcDbLine
 10
636.8338319966433
 20
507.2209098539669
 30
0.0
 11
634.3149159416143
 21
507.2209098539669
 31
0.0
  0
LINE
  5
8E97
330
1F
100
AcDbEntity
  8
SPOJOVACÍ
  6
Continuous
100
AcDbLine
 10
633.7112318502995
 20
507.2209098539669
 30
0.0
 11
631.1904554435905
 21
507.2209098539669
 31
0.0
  0
LINE
  5
8E98
330
1F
100
AcDbEntity
  8
SPOJOVACÍ
  6
Continuous
100
AcDbLine
 10
635.9203993652563
 20
504.5215396912308
 30
0.0
 11
633.4014833102274
 21
504.5215396912308
 31
0.0
  0
LINE
  5
8E99
330
1F
100
AcDbEntity
  8
SPOJOVACÍ
  6
Continuous
100
AcDbLine
 10
632.8052406250726
 20
504.5215396912308
 30
0.0
 11
630.2770228122035
 21
504.5215396912308
 31
0.0
  0
LINE
  5
8E9A
330
1F
100
AcDbEntity
  8
SPOJOVACÍ
  6
Continuous
100
AcDbLine
 10
637.2663637416344
 20
508.2710783277061
 30
0.0
 11
636.0664369651722
 21
503.4713712218572
 31
0.0
  0
LINE
  5
8E9B
330
1F
100
AcDbEntity
  8
SPOJOVACÍ
  6
Continuous
100
AcDbLine
 10
637.2663637416344
 20
508.2710783277061
 30
0.0
 11
637.0487026055862
 21
507.8934269523951
 31
0.0
  0
LINE
  5
8E9C
330
1F
100
AcDbEntity
  8
SPOJOVACÍ
  6
Continuous
100
AcDbLine
 10
637.2663637416344
 20
508.2710783277061
 30
0.0
 11
637.6449452904644
 21
507.8934269523951
 31
0.0
  0
LINE
  5
8E9D
330
1F
100
AcDbEntity
  8
SPOJOVACÍ
  6
Continuous
100
AcDbLine
 10
636.0664369651722
 20
503.4713712218572
 30
0.0
 11
635.688785592044
 21
503.8490225928025
 31
0.0
  0
LINE
  5
8E9E
330
1F
100
AcDbEntity
  8
SPOJOVACÍ
  6
Continuous
100
AcDbLine
 10
636.0664369651722
 20
503.4713712218572
 30
0.0
 11
636.2850282771987
 21
503.8490225928025
 31
0.0
  0
LINE
  5
8E9F
330
1F
100
AcDbEntity
  8
SPOJOVACÍ
  6
Continuous
100
AcDbLine
 10
637.0487026055862
 20
507.8934269523951
 30
0.0
 11
635.688785592044
 21
503.8490225928025
 31
0.0
  0
LINE
  5
8EA0
330
1F
100
AcDbEntity
  8
SPOJOVACÍ
  6
Continuous
100
AcDbLine
 10
637.6449452904644
 20
507.8934269523951
 30
0.0
 11
636.2850282771987
 21
503.8490225928025
 31
0.0
  0
LINE
  5
8EA1
330
1F
100
AcDbEntity
  8
SPOJOVACÍ
  6
Continuous
100
AcDbLine
 10
634.1465541226726
 20
508.2710783277061
 30
0.0
 11
632.9466273459338
 21
503.4713712218572
 31
0.0
  0
LINE
  5
8EA2
330
1F
100
AcDbEntity
  8
SPOJOVACÍ
  6
Continuous
100
AcDbLine
 10
634.1465541226726
 20
508.2710783277061
 30
0.0
 11
633.927962810646
 21
507.8934269523951
 31
0.0
  0
LINE
  5
8EA3
330
1F
100
AcDbEntity
  8
SPOJOVACÍ
  6
Continuous
100
AcDbLine
 10
634.1465541226726
 20
508.2710783277061
 30
0.0
 11
634.5242054958007
 21
507.8934269523951
 31
0.0
  0
LINE
  5
8EA4
330
1F
100
AcDbEntity
  8
SPOJOVACÍ
  6
Continuous
100
AcDbLine
 10
632.9466273459338
 20
503.4713712218572
 30
0.0
 11
632.5689759730821
 21
503.8490225928025
 31
0.0
  0
LINE
  5
8EA5
330
1F
100
AcDbEntity
  8
SPOJOVACÍ
  6
Continuous
100
AcDbLine
 10
632.9466273459338
 20
503.4713712218572
 30
0.0
 11
633.1652186579604
 21
503.8490225928025
 31
0.0
  0
LINE
  5
8EA6
330
1F
100
AcDbEntity
  8
SPOJOVACÍ
  6
Continuous
100
AcDbLine
 10
633.927962810646
 20
507.8934269523951
 30
0.0
 11
632.5689759730821
 21
503.8490225928025
 31
0.0
  0
LINE
  5
8EA7
330
1F
100
AcDbEntity
  8
SPOJOVACÍ
  6
Continuous
100
AcDbLine
 10
634.5242054958007
 20
507.8934269523951
 30
0.0
 11
633.1652186579604
 21
503.8490225928025
 31
0.0
  0
LINE
  5
8EA8
330
1F
100
AcDbEntity
  8
SPOJOVACÍ
  6
Continuous
100
AcDbLine
 10
631.0267445034342
 20
508.2710783277061
 30
0.0
 11
629.8268177269719
 21
503.4713712218572
 31
0.0
  0
LINE
  5
8EA9
330
1F
100
AcDbEntity
  8
SPOJOVACÍ
  6
Continuous
100
AcDbLine
 10
631.0267445034342
 20
508.2710783277061
 30
0.0
 11
630.8081531914076
 21
507.8934269523951
 31
0.0
  0
LINE
  5
8EAA
330
1F
100
AcDbEntity
  8
SPOJOVACÍ
  6
Continuous
100
AcDbLine
 10
631.0267445034342
 20
508.2710783277061
 30
0.0
 11
631.4043958765624
 21
507.8934269523951
 31
0.0
  0
LINE
  5
8EAB
330
1F
100
AcDbEntity
  8
SPOJOVACÍ
  6
Continuous
100
AcDbLine
 10
629.8268177269719
 20
503.4713712218572
 30
0.0
 11
629.448236178142
 21
503.8490225928025
 31
0.0
  0
LINE
  5
8EAC
330
1F
100
AcDbEntity
  8
SPOJOVACÍ
  6
Continuous
100
AcDbLine
 10
629.8268177269719
 20
503.4713712218572
 30
0.0
 11
630.0444788632894
 21
503.8490225928025
 31
0.0
  0
LINE
  5
8EAD
330
1F
100
AcDbEntity
  8
SPOJOVACÍ
  6
Continuous
100
AcDbLine
 10
630.8081531914076
 20
507.8934269523951
 30
0.0
 11
629.448236178142
 21
503.8490225928025
 31
0.0
  0
LINE
  5
8EAE
330
1F
100
AcDbEntity
  8
SPOJOVACÍ
  6
Continuous
100
AcDbLine
 10
631.4043958765624
 20
507.8934269523951
 30
0.0
 11
630.0444788632894
 21
503.8490225928025
 31
0.0
  0
LINE
  5
8EAF
330
1F
100
AcDbEntity
  8
SPOJOVACÍ
  6
Continuous
100
AcDbLine
 10
646.8667081298563
 20
510.9713786634156
 30
0.0
 11
646.8667081298563
 21
500.7710708861477
 31
0.0
  0
LINE
  5
8EB0
330
1F
100
AcDbEntity
  8
SPOJOVACÍ
  6
Continuous
100
AcDbLine
 10
648.0666349065877
 20
500.7710708861477
 30
0.0
 11
646.8667081298563
 21
500.7710708861477
 31
0.0
  0
LINE
  5
8EB1
330
1F
100
AcDbEntity
  8
SPOJOVACÍ
  6
Continuous
100
AcDbLine
 10
648.0666349065877
 20
510.9713786634156
 30
0.0
 11
648.0666349065877
 21
500.7710708861477
 31
0.0
  0
LINE
  5
8EB2
330
1F
100
AcDbEntity
  8
SPOJOVACÍ
  6
Continuous
100
AcDbLine
 10
646.8667081298563
 20
500.7710708861477
 30
0.0
 11
645.9289571082999
 21
502.4719168067231
 31
0.0
  0
LINE
  5
8EB3
330
1F
100
AcDbEntity
  8
NOSNÉ KONSTRUKCE
100
AcDbLine
 39
2500.000155029299
 10
1314.162577051561
 20
581.1982940807365
 30
0.0
 11
1314.162557915072
 21
577.1982729900637
 31
0.0
  0
LINE
  5
8EB4
330
1F
100
AcDbEntity
  8
NOSNÉ KONSTRUKCE
100
AcDbLine
 39
2500.000155029299
 10
1314.162557915072
 20
577.1982729900637
 30
0.0
 11
1303.162621031581
 21
577.1983256148278
 31
0.0
  0
LINE
  5
8EB5
330
1F
100
AcDbEntity
  8
NOSNÉ KONSTRUKCE
100
AcDbLine
 39
2500.000155029299
 10
1312.16257607424
 20
583.198265747972
 30
0.0
 11
1314.162596187591
 21
585.1982182787187
 31
0.0
  0
LINE
  5
8EB6
330
1F
100
AcDbEntity
  8
NOSNÉ KONSTRUKCE
100
AcDbLine
 39
2500.000155029299
 10
1314.162577051561
 20
581.1982940807365
 30
0.0
 11
1312.16257607424
 21
583.198265747972
 31
0.0
  0
LINE
  5
8EB7
330
1F
100
AcDbEntity
  8
NOSNÉ KONSTRUKCE
100
AcDbLine
 39
2500.000155029299
 10
1313.576806765392
 20
583.1982589821572
 30
0.0
 11
1315.162594205904
 21
584.7839928373805
 31
0.0
  0
LINE
  5
8EB8
330
1F
100
AcDbEntity
  8
NOSNÉ KONSTRUKCE
100
AcDbLine
 39
2500.000155029299
 10
1315.162579033219
 20
581.6125099538794
 30
0.0
 11
1313.576806765392
 21
583.1982589821572
 31
0.0
  0
LINE
  5
8EB9
330
1F
100
AcDbEntity
  8
NOSNÉ KONSTRUKCE
100
AcDbLine
 39
2500.000155029299
 10
1315.162579033219
 20
581.6125099538794
 30
0.0
 11
1315.162553130955
 21
576.1982682059797
 31
0.0
  0
LINE
  5
8EBA
330
1F
100
AcDbEntity
  8
NOSNÉ KONSTRUKCE
100
AcDbLine
 39
2500.000155029299
 10
1315.162553130955
 20
576.1982682059797
 30
0.0
 11
1302.748409779954
 21
576.1983275964421
 31
0.0
  0
HATCH
  5
8EBB
330
1F
100
AcDbEntity
  8
NOSNÉ KONSTRUKCE
100
AcDbHatch
 10
0.0
 20
0.0
 30
0.0
210
0.0
220
0.0
230
1.0
  2
SOLID
 70
     1
 71
     0
 91
        1
 92
        7
 72
     0
 73
     1
 93
       68
 10
1315.162650794461
 20
596.6124679280446
 10
1313.576878526649
 20
598.198216956317
 10
1315.162665967161
 20
599.783950811522
 10
1315.162691869402
 20
605.1981925594418
 10
1311.162700274581
 20
605.1982116957888
 10
1311.162695490494
 20
604.1982116957997
 10
1314.162687085322
 20
604.1981973435495
 10
1314.16266794884
 20
600.1981762528712
 10
1312.162647835481
 20
598.19822372213
 10
1314.16264881281
 20
596.1982520548963
 10
1314.162629676321
 20
592.1982309642253
 10
1312.162611954868
 20
590.6982447350446
 10
1314.162615324073
 20
589.1982393693824
 10
1314.162596187584
 20
585.1982182787132
 10
1312.162576074232
 20
583.1982657479756
 10
1314.162577051561
 20
581.1982940807365
 10
1314.162557915072
 20
577.1982729900637
 10
1303.162621031589
 20
577.1983256148278
 10
1301.162620054253
 20
579.1982972820597
 10
1297.162647409918
 20
579.1983164183175
 10
1295.162627296574
 20
577.1983638875727
 10
1284.162690413083
 20
577.198416512333
 10
1273.162753529585
 20
577.1984691370971
 10
1271.162752552264
 20
579.198440804329
 10
1267.162779907937
 20
579.1984599405886
 10
1265.162759794585
 20
577.198507409842
 10
1254.162822911087
 20
577.198560034606
 10
1254.162842047583
 20
581.1985811252789
 10
1256.16286216092
 20
583.1985336560255
 10
1254.162861183599
 20
585.1985053232592
 10
1254.162880320081
 20
589.1985264139338
 10
1256.162898041556
 20
590.6985126431018
 10
1254.162894672336
 20
592.1985180087713
 10
1254.162913808825
 20
596.1985390994422
 10
1256.162933922177
 20
598.198491630178
 10
1254.162932944856
 20
600.1984632974263
 10
1254.16295208133
 20
604.19848438809
 10
1257.162685334443
 20
604.1984700370767
 10
1257.162680551585
 20
605.1982116957888
 10
1253.162688956757
 20
605.1981925594418
 10
1253.162714858998
 20
599.783950811533
 10
1254.748502299517
 20
598.1982169563098
 10
1253.162730031698
 20
596.6124679280428
 10
1253.162753541925
 20
591.6982237578113
 10
1254.496093591945
 20
590.6982367615137
 10
1253.162763110035
 20
589.6982370075956
 10
1253.162786620262
 20
584.7839928373769
 10
1254.748574060774
 20
583.1982589821572
 10
1253.162801792948
 20
581.6125099538794
 10
1253.162803773201
 20
581.1985859091919
 10
1253.162842047598
 20
581.1985859093756
 10
1253.162822911102
 20
577.1985648187047
 10
1253.162827695211
 20
576.1982682059797
 10
1265.576971046205
 20
576.1983275964421
 10
1267.576972023541
 20
578.1982992636758
 10
1270.748531732811
 20
578.1983144367232
 10
1272.748442629251
 20
576.198471119188
 10
1295.576828980011
 20
576.1983619059801
 10
1297.576849093378
 20
578.198314436725
 10
1300.748408802633
 20
578.1982992636758
 10
1302.748409779954
 20
576.1983275964421
 10
1315.162553130955
 20
576.1982682059797
 10
1315.162579033219
 20
581.6125099538721
 10
1313.576806765392
 20
583.1982589821609
 10
1315.162594205911
 20
584.7839928373842
 10
1315.162617716131
 20
589.6982370075975
 10
1313.829287234221
 20
590.6982367615082
 10
1315.162627284241
 20
591.6982237578077
 97
        0
 75
     0
 76
     1
 47
0.131671459398827
 98
        1
 10
1314.482275112183
 20
594.4813861754455
  0
CIRCLE
  5
8EBC
330
1F
100
AcDbEntity
  8
POPIS
100
AcDbCircle
 10
1173.450826233253
 20
749.4431177110463
 30
0.0
 40
11.13656048292026
  0
TEXT
  5
8EBD
330
1F
100
AcDbEntity
  8
POPIS
100
AcDbText
 10
1168.691797178072
 20
743.8977719660588
 30
0.0
 40
12.0
  1
R
 41
0.85
  7
SIMPLEX7
100
AcDbText
  0
TEXT
  5
8EBE
330
1F
100
AcDbEntity
  8
POPIS
100
AcDbText
 10
946.7219087792846
 20
543.747932652518
 30
0.0
 40
25.0
  1
06
 41
0.85
  7
SIMPLEX7
100
AcDbText
  0
TEXT
  5
8EBF
330
1F
100
AcDbEntity
  8
POPIS
100
AcDbText
 10
1001.065611939026
 20
543.747932652518
 30
0.0
 40
25.0
  1
UD profil
 41
0.7
  7
SIMPLEX7
100
AcDbText
  0
TEXT
  5
8EC0
330
1F
100
AcDbEntity
  8
POPIS
100
AcDbText
 10
1001.065611939026
 20
612.9731007792661
 30
0.0
 40
25.0
  1
Příchytka KNAUF
 41
0.7
  7
SIMPLEX7
100
AcDbText
  0
TEXT
  5
8EC1
330
1F
100
AcDbEntity
  8
POPIS
100
AcDbText
 10
946.7219087792846
 20
612.9731007792661
 30
0.0
 40
25.0
  1
04
 41
0.85
  7
SIMPLEX7
100
AcDbText
  0
TEXT
  5
8EC2
330
1F
100
AcDbEntity
  8
POPIS
100
AcDbText
 10
1001.065611939026
 20
648.3772619974306
 30
0.0
 40
25.0
  1
Žáruvzdorný tmel DEXAFLAMM - R
 41
0.7
  7
SIMPLEX7
100
AcDbText
  0
TEXT
  5
8EC3
330
1F
100
AcDbEntity
  8
POPIS
100
AcDbText
 10
946.7219087792846
 20
648.3772619974306
 30
0.0
 40
25.0
  1
03
 41
0.85
  7
SIMPLEX7
100
AcDbText
  0
TEXT
  5
8EC4
330
1F
100
AcDbEntity
  8
POPIS
100
AcDbText
 10
1001.065611939026
 20
682.3274502421527
 30
0.0
 40
25.0
  1
Vrut Cetris 4,2x35 (45,55) mm
 41
0.7
  7
SIMPLEX7
100
AcDbText
  0
TEXT
  5
8EC5
330
1F
100
AcDbEntity
  8
POPIS
100
AcDbText
 10
946.7219087792846
 20
682.3274502421527
 30
0.0
 40
25.0
  1
02
 41
0.85
  7
SIMPLEX7
100
AcDbText
  0
TEXT
  5
8EC6
330
1F
100
AcDbEntity
  8
POPIS
100
AcDbText
 10
1001.065611939026
 20
718.92246185778
 30
0.0
 40
25.0
  1
Deska CETRIS   
 41
0.7
  7
SIMPLEX7
100
AcDbText
  0
TEXT
  5
8EC7
330
1F
100
AcDbEntity
  8
POPIS
100
AcDbText
 10
946.7219087792846
 20
718.92246185778
 30
0.0
 40
25.0
  1
01
 41
0.85
  7
SIMPLEX7
100
AcDbText
  0
TEXT
  5
8EC8
330
1F
100
AcDbEntity
  8
POPIS
100
AcDbText
 10
946.7219087792846
 20
579.0878292399802
 30
0.0
 40
25.0
  1
05
 41
0.85
  7
SIMPLEX7
100
AcDbText
  0
TEXT
  5
8EC9
330
1F
100
AcDbEntity
  8
POPIS
100
AcDbText
 10
1001.065611939026
 20
579.0878292399802
 30
0.0
 40
25.0
  1
CD profil 
 41
0.7
  7
SIMPLEX7
100
AcDbText
  0
TEXT
  5
8ECA
330
1F
100
AcDbEntity
  8
POPIS
100
AcDbText
 10
1001.065611939026
 20
508.7479326525181
 30
0.0
 40
25.0
  1
Ocelová hmoždinka
 41
0.7
  7
SIMPLEX7
100
AcDbText
  0
TEXT
  5
8ECB
330
1F
100
AcDbEntity
  8
POPIS
100
AcDbText
 10
946.7219087792846
 20
508.7479326525181
 30
0.0
 40
25.0
  1
07
 41
0.85
  7
SIMPLEX7
100
AcDbText
  0
LINE
  5
8ECC
330
1F
100
AcDbEntity
  8
NOSNÉ KONSTRUKCE
100
AcDbLine
 10
1330.136662874888
 20
612.8794569049942
 30
0.0
 11
1391.395555698517
 21
612.8794569049942
 31
0.0
  0
LWPOLYLINE
  5
8ECD
330
1F
100
AcDbEntity
  8
NOSNÉ KONSTRUKCE
100
AcDbPolyline
 90
        2
 70
     0
 43
0.0
 10
1343.588030282561
 20
597.7107052268338
 10
1377.944188290836
 20
597.7107052268338
  0
ARC
  5
8ECE
330
1F
100
AcDbEntity
  8
NOSNÉ KONSTRUKCE
100
AcDbCircle
 10
1343.588030282561
 20
613.2932514454378
 30
0.0
 40
15.58254621860396
100
AcDbArc
 50
219.868131591114
 51
270.0
  0
LINE
  5
8ECF
330
1F
100
AcDbEntity
  8
NOSNÉ KONSTRUKCE
100
AcDbLine
 10
1330.93949283148
 20
608.3396531081607
 30
0.0
 11
1337.136120717005
 21
608.3396531081589
 31
0.0
  0
LINE
  5
8ED0
330
1F
100
AcDbEntity
  8
NOSNÉ KONSTRUKCE
100
AcDbLine
 10
1337.136120717005
 20
603.3044835936825
 30
0.0
 11
1331.628086158162
 21
603.3044835936825
 31
0.0
  0
LINE
  5
8ED1
330
1F
100
AcDbEntity
  8
NOSNÉ KONSTRUKCE
100
AcDbLine
 10
1337.136120717005
 20
608.3396531081607
 30
0.0
 11
1337.136120717005
 21
603.3044835936825
 31
0.0
  0
ARC
  5
8ED2
330
1F
100
AcDbEntity
  8
NOSNÉ KONSTRUKCE
100
AcDbCircle
 10
1345.71371396722
 20
613.2932514454378
 30
0.0
 40
15.58254621860396
100
AcDbArc
 50
181.5216683935181
 51
198.535612153178
  0
LINE
  5
8ED3
330
1F
100
AcDbEntity
  8
NOSNÉ KONSTRUKCE
100
AcDbLine
 10
1384.396097856392
 20
608.3396531081607
 30
0.0
 11
1384.396097856392
 21
603.3044835936825
 31
0.0
  0
LINE
  5
8ED4
330
1F
100
AcDbEntity
  8
NOSNÉ KONSTRUKCE
100
AcDbLine
 10
1384.396097856392
 20
603.3044835936825
 30
0.0
 11
1389.904132415235
 21
603.3044835936825
 31
0.0
  0
LINE
  5
8ED5
330
1F
100
AcDbEntity
  8
NOSNÉ KONSTRUKCE
100
AcDbLine
 10
1390.592725741925
 20
608.3396531081589
 30
0.0
 11
1384.396097856385
 21
608.3396531081589
 31
0.0
  0
ARC
  5
8ED6
330
1F
100
AcDbEntity
  8
NOSNÉ KONSTRUKCE
100
AcDbCircle
 10
1377.944188290836
 20
613.2932514454378
 30
0.0
 40
15.58254621860396
100
AcDbArc
 50
270.0
 51
320.131868408886
  0
ARC
  5
8ED7
330
1F
100
AcDbEntity
  8
NOSNÉ KONSTRUKCE
100
AcDbCircle
 10
1375.818504606178
 20
613.2932514454396
 30
0.0
 40
15.58254621860396
100
AcDbArc
 50
341.4643878468219
 51
358.4783316064819
  0
ARC
  5
8ED8
330
1F
100
AcDbEntity
  8
NOSNÉ KONSTRUKCE
100
AcDbCircle
 10
1388.757817972124
 20
642.7240536579128
 30
0.0
 40
13.50037422122492
100
AcDbArc
 50
202.0339031319517
 51
355.8810748512879
  0
LINE
  5
8ED9
330
1F
100
AcDbEntity
  8
NOSNÉ KONSTRUKCE
100
AcDbLine
 10
1360.772144625539
 20
612.8794569049942
 30
0.0
 11
1360.772144625553
 21
637.4991531448167
 31
0.0
  0
LINE
  5
8EDA
330
1F
100
AcDbEntity
  8
NOSNÉ KONSTRUKCE
100
AcDbLine
 10
1362.772144625539
 20
612.8794569049942
 30
0.0
 11
1362.772144625539
 21
635.6534861850132
 31
0.0
  0
LINE
  5
8EDB
330
1F
100
AcDbEntity
  8
NOSNÉ KONSTRUKCE
100
AcDbLine
 10
1363.692010344407
 20
636.6502702624284
 30
0.0
 11
1376.243483684092
 21
637.6593185769297
 31
0.0
  0
LINE
  5
8EDC
330
1F
100
AcDbEntity
  8
NOSNÉ KONSTRUKCE
100
AcDbLine
 10
1361.692010344421
 20
638.4959372222319
 30
0.0
 11
1402.223322245169
 21
641.7543636117925
 31
0.0
  0
ARC
  5
8EDD
330
1F
100
AcDbEntity
  8
NOSNÉ KONSTRUKCE
100
AcDbCircle
 10
1363.772144625539
 20
635.6534861850132
 30
0.0
 40
1.0
100
AcDbArc
 50
94.59628425844213
 51
180.0
  0
ARC
  5
8EDE
330
1F
100
AcDbEntity
  8
NOSNÉ KONSTRUKCE
100
AcDbCircle
 10
1361.772144625553
 20
637.4991531448167
 30
0.0
 40
1.0
100
AcDbArc
 50
94.59628425844213
 51
180.0
  0
LINE
  5
8EDF
330
1F
100
AcDbEntity
  8
SPOJOVACÍ
  6
Continuous
100
AcDbLine
 10
621.5182748362868
 20
786.5114290868614
 30
0.0
 11
621.2271587331497
 21
786.6792152141597
 31
0.0
  0
LINE
  5
8EE0
330
1F
100
AcDbEntity
  8
SPOJOVACÍ
  6
Continuous
100
AcDbLine
 10
621.5182748362868
 20
786.5114290868614
 30
0.0
 11
621.2271587331497
 21
786.2195959505324
 31
0.0
  0
LINE
  5
8EE1
330
1F
100
AcDbEntity
  8
SPOJOVACÍ
  6
Continuous
100
AcDbLine
 10
617.818375616488
 20
783.0216170032845
 30
0.0
 11
618.1094917162636
 21
782.8531138411172
 31
0.0
  0
LINE
  5
8EE2
330
1F
100
AcDbEntity
  8
SPOJOVACÍ
  6
Continuous
100
AcDbLine
 10
617.818375616488
 20
783.0216170032845
 30
0.0
 11
618.1094917162636
 21
783.3127331047408
 31
0.0
  0
LINE
  5
8EE3
330
1F
100
AcDbEntity
  8
SPOJOVACÍ
  6
Continuous
100
AcDbLine
 10
621.2271587331497
 20
784.012202506271
 30
0.0
 11
618.1094917162636
 21
785.0605072853804
 31
0.0
  0
LINE
  5
8EE4
330
1F
100
AcDbEntity
  8
SPOJOVACÍ
  6
Continuous
100
AcDbLine
 10
621.2271587331497
 20
784.4718217698964
 30
0.0
 11
618.1094917162636
 21
785.520126549004
 31
0.0
  0
LINE
  5
8EE5
330
1F
100
AcDbEntity
  8
SPOJOVACÍ
  6
Continuous
100
AcDbLine
 10
617.818375616488
 20
785.229010447546
 30
0.0
 11
618.1094917162636
 21
785.0605072853804
 31
0.0
  0
LINE
  5
8EE6
330
1F
100
AcDbEntity
  8
SPOJOVACÍ
  6
Continuous
100
AcDbLine
 10
617.818375616488
 20
785.229010447546
 30
0.0
 11
618.1094917162636
 21
785.520126549004
 31
0.0
  0
LINE
  5
8EE7
330
1F
100
AcDbEntity
  8
SPOJOVACÍ
  6
Continuous
100
AcDbLine
 10
621.5182748362868
 20
784.3040356425981
 30
0.0
 11
621.2271587331497
 21
784.012202506271
 31
0.0
  0
LINE
  5
8EE8
330
1F
100
AcDbEntity
  8
SPOJOVACÍ
  6
Continuous
100
AcDbLine
 10
621.5182748362868
 20
784.3040356425981
 30
0.0
 11
621.2271587331497
 21
784.4718217698964
 31
0.0
  0
LINE
  5
8EE9
330
1F
100
AcDbEntity
  8
SPOJOVACÍ
  6
Continuous
100
AcDbLine
 10
621.5182748362868
 20
784.3040356425981
 30
0.0
 11
617.818375616488
 21
785.229010447546
 31
0.0
  0
LINE
  5
8EEA
330
1F
100
AcDbEntity
  8
SPOJOVACÍ
100
AcDbLine
 10
624.0558252280688
 20
779.1151488970163
 30
0.0
 11
615.2808252280747
 21
779.1151488970163
 31
0.0
  0
LINE
  5
8EEB
330
1F
100
AcDbEntity
  8
SPOJOVACÍ
  6
Continuous
100
AcDbLine
 10
621.5182748379675
 20
790.9262159748204
 30
0.0
 11
617.8183756181761
 21
791.8511907797683
 31
0.0
  0
LINE
  5
8EEC
330
1F
100
AcDbEntity
  8
SPOJOVACÍ
  6
Continuous
100
AcDbLine
 10
621.5182748379675
 20
790.9262159748204
 30
0.0
 11
621.2271587348304
 21
791.0940021021188
 31
0.0
  0
LINE
  5
8EED
330
1F
100
AcDbEntity
  8
SPOJOVACÍ
  6
Continuous
100
AcDbLine
 10
621.5182748379675
 20
790.9262159748204
 30
0.0
 11
621.2271587348304
 21
790.6343828384933
 31
0.0
  0
LINE
  5
8EEE
330
1F
100
AcDbEntity
  8
SPOJOVACÍ
  6
Continuous
100
AcDbLine
 10
617.8183756181761
 20
791.8511907797683
 30
0.0
 11
618.1094917179516
 21
792.1423068812264
 31
0.0
  0
LINE
  5
8EEF
330
1F
100
AcDbEntity
  8
SPOJOVACÍ
  6
Continuous
100
AcDbLine
 10
617.8183756181761
 20
791.8511907797683
 30
0.0
 11
618.1094917179516
 21
791.6826876176028
 31
0.0
  0
LINE
  5
8EF0
330
1F
100
AcDbEntity
  8
SPOJOVACÍ
  6
Continuous
100
AcDbLine
 10
621.2271587348304
 20
791.0940021021188
 30
0.0
 11
618.1094917179516
 21
792.1423068812264
 31
0.0
  0
LINE
  5
8EF1
330
1F
100
AcDbEntity
  8
SPOJOVACÍ
  6
Continuous
100
AcDbLine
 10
621.2271587348304
 20
790.6343828384933
 30
0.0
 11
618.1094917179516
 21
791.6826876176028
 31
0.0
  0
LINE
  5
8EF2
330
1F
100
AcDbEntity
  8
SPOJOVACÍ
  6
Continuous
100
AcDbLine
 10
621.5182748379675
 20
788.718822530559
 30
0.0
 11
617.8183756181761
 21
789.6437973355069
 31
0.0
  0
LINE
  5
8EF3
330
1F
100
AcDbEntity
  8
SPOJOVACÍ
  6
Continuous
100
AcDbLine
 10
621.5182748379675
 20
788.718822530559
 30
0.0
 11
621.2271587348304
 21
788.8866086578573
 31
0.0
  0
LINE
  5
8EF4
330
1F
100
AcDbEntity
  8
SPOJOVACÍ
  6
Continuous
100
AcDbLine
 10
621.5182748379675
 20
788.718822530559
 30
0.0
 11
621.2271587348304
 21
788.4269893942301
 31
0.0
  0
LINE
  5
8EF5
330
1F
100
AcDbEntity
  8
SPOJOVACÍ
  6
Continuous
100
AcDbLine
 10
617.8183756181761
 20
789.6437973355069
 30
0.0
 11
618.1094917179516
 21
789.9349134369649
 31
0.0
  0
LINE
  5
8EF6
330
1F
100
AcDbEntity
  8
SPOJOVACÍ
  6
Continuous
100
AcDbLine
 10
617.8183756181761
 20
789.6437973355069
 30
0.0
 11
618.1094917179516
 21
789.4752941733413
 31
0.0
  0
LINE
  5
8EF7
330
1F
100
AcDbEntity
  8
SPOJOVACÍ
  6
Continuous
100
AcDbLine
 10
621.2271587348304
 20
788.8866086578573
 30
0.0
 11
618.1094917179516
 21
789.9349134369649
 31
0.0
  0
LINE
  5
8EF8
330
1F
100
AcDbEntity
  8
SPOJOVACÍ
  6
Continuous
100
AcDbLine
 10
621.2271587348304
 20
788.4269893942301
 30
0.0
 11
618.1094917179516
 21
789.4752941733413
 31
0.0
  0
LINE
  5
8EF9
330
1F
100
AcDbEntity
  8
SPOJOVACÍ
  6
Continuous
100
AcDbLine
 10
621.5182748379675
 20
793.1336094190838
 30
0.0
 11
621.2271587348304
 21
792.8417762827566
 31
0.0
  0
LINE
  5
8EFA
330
1F
100
AcDbEntity
  8
SPOJOVACÍ
  6
Continuous
100
AcDbLine
 10
621.5182748379675
 20
793.1336094190838
 30
0.0
 11
621.2271587348304
 21
793.301395546382
 31
0.0
  0
LINE
  5
8EFB
330
1F
100
AcDbEntity
  8
SPOJOVACÍ
100
AcDbLine
 10
624.0558252280688
 20
778.178116458811
 30
0.0
 11
615.2808252280747
 21
778.178116458811
 31
0.0
  0
LINE
  5
8EFC
330
1F
100
AcDbEntity
  8
SPOJOVACÍ
100
AcDbLine
 10
615.2808252280747
 20
778.178116458811
 30
0.0
 11
615.2808252280747
 21
779.1151488970163
 31
0.0
  0
LINE
  5
8EFD
330
1F
100
AcDbEntity
  8
SPOJOVACÍ
100
AcDbLine
 10
624.0558252280688
 20
778.178116458811
 30
0.0
 11
624.0558252280688
 21
779.1151488970163
 31
0.0
  0
LINE
  5
8EFE
330
1F
100
AcDbEntity
  8
SPOJOVACÍ
100
AcDbLine
 10
615.2808252280747
 20
779.1151488970163
 30
0.0
 11
615.2808252280747
 21
778.545156992629
 31
0.0
  0
LINE
  5
8EFF
330
1F
100
AcDbEntity
  8
SPOJOVACÍ
100
AcDbLine
 10
615.2808252280747
 20
779.1151488970163
 30
0.0
 11
618.5562158530747
 21
781.1838611936918
 31
0.0
  0
LINE
  5
8F00
330
1F
100
AcDbEntity
  8
SPOJOVACÍ
  6
DASHED
100
AcDbLine
 10
624.0558252280688
 20
779.1151488970163
 30
0.0
 11
620.7804346030688
 21
781.18386119369
 31
0.0
  0
LINE
  5
8F01
330
1F
100
AcDbEntity
  8
SPOJOVACÍ
100
AcDbLine
 10
624.0558252280688
 20
779.1151488970163
 30
0.0
 11
624.0558252280688
 21
778.545156992629
 31
0.0
  0
LINE
  5
8F02
330
1F
100
AcDbEntity
  8
SPOJOVACÍ
100
AcDbLine
 10
624.0558252280688
 20
778.545156992629
 30
0.0
 11
624.0558252280688
 21
779.1151488970163
 31
0.0
  0
LINE
  5
8F03
330
1F
100
AcDbEntity
  8
SPOJOVACÍ
  6
Continuous
100
AcDbLine
 10
621.5182748362868
 20
786.5114290868614
 30
0.0
 11
617.818375616488
 21
787.4364038918092
 31
0.0
  0
LINE
  5
8F04
330
1F
100
AcDbEntity
  8
SPOJOVACÍ
  6
Continuous
100
AcDbLine
 10
617.818375616488
 20
787.4364038918092
 30
0.0
 11
618.1094917162636
 21
787.7275199932673
 31
0.0
  0
LINE
  5
8F05
330
1F
100
AcDbEntity
  8
SPOJOVACÍ
  6
Continuous
100
AcDbLine
 10
617.818375616488
 20
787.4364038918092
 30
0.0
 11
618.1094917162636
 21
787.2679007296437
 31
0.0
  0
LINE
  5
8F06
330
1F
100
AcDbEntity
  8
SPOJOVACÍ
  6
Continuous
100
AcDbLine
 10
621.2271587331497
 20
786.6792152141597
 30
0.0
 11
618.1094917162636
 21
787.7275199932673
 31
0.0
  0
LINE
  5
8F07
330
1F
100
AcDbEntity
  8
SPOJOVACÍ
  6
Continuous
100
AcDbLine
 10
621.2271587331497
 20
786.2195959505324
 30
0.0
 11
618.1094917162636
 21
787.2679007296437
 31
0.0
  0
LINE
  5
8F08
330
1F
100
AcDbEntity
  8
SPOJOVACÍ
  6
Continuous
100
AcDbLine
 10
621.2271587331497
 20
781.8048090620077
 30
0.0
 11
618.1094917162636
 21
782.8531138411172
 31
0.0
  0
LINE
  5
8F09
330
1F
100
AcDbEntity
  8
SPOJOVACÍ
  6
Continuous
100
AcDbLine
 10
621.2271587331497
 20
782.264428325635
 30
0.0
 11
618.1094917162636
 21
783.3127331047408
 31
0.0
  0
LINE
  5
8F0A
330
1F
100
AcDbEntity
  8
SPOJOVACÍ
  6
Continuous
100
AcDbLine
 10
621.5182748362868
 20
782.0966421983366
 30
0.0
 11
621.2271587331497
 21
781.8048090620077
 31
0.0
  0
LINE
  5
8F0B
330
1F
100
AcDbEntity
  8
SPOJOVACÍ
  6
Continuous
100
AcDbLine
 10
621.5182748362868
 20
782.0966421983366
 30
0.0
 11
621.2271587331497
 21
782.264428325635
 31
0.0
  0
LINE
  5
8F0C
330
1F
100
AcDbEntity
  8
SPOJOVACÍ
  6
Continuous
100
AcDbLine
 10
621.5182748362868
 20
782.0966421983366
 30
0.0
 11
617.818375616488
 21
783.0216170032845
 31
0.0
  0
LINE
  5
8F0D
330
1F
100
AcDbEntity
  8
SPOJOVACÍ
  6
DASHDOT2
100
AcDbLine
 10
619.6683252280718
 20
771.745147708637
 30
0.0
 11
619.6683252280718
 21
816.2088885944658
 31
0.0
  0
LINE
  5
8F0E
330
1F
100
AcDbEntity
  8
SPOJOVACÍ
  6
DASHED
100
AcDbLine
 10
618.5562158530747
 20
807.6961816856464
 30
0.0
 11
618.5562158530747
 21
781.1838611936918
 31
0.0
  0
LINE
  5
8F0F
330
1F
100
AcDbEntity
  8
SPOJOVACÍ
  6
DASHED
100
AcDbLine
 10
620.7804346030688
 20
807.6961816856464
 30
0.0
 11
620.7804346030688
 21
781.18386119369
 31
0.0
  0
INSERT
  5
8F10
330
1F
100
AcDbEntity
  8
POPIS
100
AcDbBlockReference
  2
E_PUNKT
 10
619.6494308129995
 20
804.5094222791858
 30
0.0
 41
0.6499999999996362
 42
0.6499999999996362
 43
0.65
 50
270.0
  0
LINE
  5
8F11
330
1F
100
AcDbEntity
  8
SPOJOVACÍ
  6
CIKCAK
 48
0.25
100
AcDbLine
 10
617.3767720528131
 20
781.9559773275023
 30
0.0
 11
617.3767720528131
 21
812.8078281074676
 31
0.0
  0
LINE
  5
8F12
330
1F
100
AcDbEntity
  8
SPOJOVACÍ
 48
0.25
100
AcDbLine
 10
617.3767720528131
 20
812.8078281074676
 30
0.0
 11
619.6683252280718
 21
816.4799643289361
 31
0.0
  0
LINE
  5
8F13
330
1F
100
AcDbEntity
  8
SPOJOVACÍ
 48
0.25
100
AcDbLine
 10
621.9598784033305
 20
812.8078281074714
 30
0.0
 11
619.6683252280718
 21
816.4799643289361
 31
0.0
  0
LINE
  5
8F14
330
1F
100
AcDbEntity
  8
SPOJOVACÍ
  6
CIKCAK
 48
0.25
100
AcDbLine
 10
621.9598784033305
 20
781.9559773275023
 30
0.0
 11
621.9598784033305
 21
812.8078281074714
 31
0.0
  0
LINE
  5
8F15
330
1F
100
AcDbEntity
  8
SPOJOVACÍ
  6
Continuous
100
AcDbLine
 10
621.2271587348304
 20
792.8417762827566
 30
0.0
 11
618.1094917179516
 21
793.8900810618661
 31
0.0
  0
LINE
  5
8F16
330
1F
100
AcDbEntity
  8
SPOJOVACÍ
  6
Continuous
100
AcDbLine
 10
621.2271587348304
 20
793.301395546382
 30
0.0
 11
618.1094917179516
 21
794.3497003254897
 31
0.0
  0
LINE
  5
8F17
330
1F
100
AcDbEntity
  8
SPOJOVACÍ
  6
Continuous
100
AcDbLine
 10
617.8183756181761
 20
794.0585842240316
 30
0.0
 11
618.1094917179516
 21
793.8900810618661
 31
0.0
  0
LINE
  5
8F18
330
1F
100
AcDbEntity
  8
SPOJOVACÍ
  6
Continuous
100
AcDbLine
 10
617.8183756181761
 20
794.0585842240316
 30
0.0
 11
618.1094917179516
 21
794.3497003254897
 31
0.0
  0
LINE
  5
8F19
330
1F
100
AcDbEntity
  8
SPOJOVACÍ
  6
Continuous
100
AcDbLine
 10
621.5182748379675
 20
793.1336094190838
 30
0.0
 11
617.8183756181761
 21
794.0585842240316
 31
0.0
  0
LINE
  5
8F1A
330
1F
100
AcDbEntity
  8
SPOJOVACÍ
  6
Continuous
100
AcDbLine
 10
621.2271587348304
 20
795.0491697270181
 30
0.0
 11
618.1094917179516
 21
796.0974745061276
 31
0.0
  0
LINE
  5
8F1B
330
1F
100
AcDbEntity
  8
SPOJOVACÍ
  6
Continuous
100
AcDbLine
 10
621.2271587348304
 20
795.5087889906435
 30
0.0
 11
618.1094917179516
 21
796.5570937697512
 31
0.0
  0
LINE
  5
8F1C
330
1F
100
AcDbEntity
  8
SPOJOVACÍ
  6
Continuous
100
AcDbLine
 10
617.8183756181761
 20
796.265977668293
 30
0.0
 11
618.1094917179516
 21
796.0974745061276
 31
0.0
  0
LINE
  5
8F1D
330
1F
100
AcDbEntity
  8
SPOJOVACÍ
  6
Continuous
100
AcDbLine
 10
617.8183756181761
 20
796.265977668293
 30
0.0
 11
618.1094917179516
 21
796.5570937697512
 31
0.0
  0
LINE
  5
8F1E
330
1F
100
AcDbEntity
  8
SPOJOVACÍ
  6
Continuous
100
AcDbLine
 10
621.5182748379675
 20
795.341002863347
 30
0.0
 11
621.2271587348304
 21
795.0491697270181
 31
0.0
  0
LINE
  5
8F1F
330
1F
100
AcDbEntity
  8
SPOJOVACÍ
  6
Continuous
100
AcDbLine
 10
621.5182748379675
 20
795.341002863347
 30
0.0
 11
621.2271587348304
 21
795.5087889906435
 31
0.0
  0
LINE
  5
8F20
330
1F
100
AcDbEntity
  8
SPOJOVACÍ
  6
Continuous
100
AcDbLine
 10
621.5182748379675
 20
795.341002863347
 30
0.0
 11
617.8183756181761
 21
796.265977668293
 31
0.0
  0
LINE
  5
8F21
330
1F
100
AcDbEntity
  8
SPOJOVACÍ
  6
Continuous
100
AcDbLine
 10
621.2271587348304
 20
797.2565631712813
 30
0.0
 11
618.1094917179516
 21
798.3048679503909
 31
0.0
  0
LINE
  5
8F22
330
1F
100
AcDbEntity
  8
SPOJOVACÍ
  6
Continuous
100
AcDbLine
 10
621.2271587348304
 20
797.7161824349068
 30
0.0
 11
618.1094917179516
 21
798.7644872140145
 31
0.0
  0
LINE
  5
8F23
330
1F
100
AcDbEntity
  8
SPOJOVACÍ
  6
Continuous
100
AcDbLine
 10
617.8183756181761
 20
798.4733711125564
 30
0.0
 11
618.1094917179516
 21
798.3048679503909
 31
0.0
  0
LINE
  5
8F24
330
1F
100
AcDbEntity
  8
SPOJOVACÍ
  6
Continuous
100
AcDbLine
 10
617.8183756181761
 20
798.4733711125564
 30
0.0
 11
618.1094917179516
 21
798.7644872140145
 31
0.0
  0
LINE
  5
8F25
330
1F
100
AcDbEntity
  8
SPOJOVACÍ
  6
Continuous
100
AcDbLine
 10
621.5182748379675
 20
797.5483963076085
 30
0.0
 11
621.2271587348304
 21
797.2565631712813
 31
0.0
  0
LINE
  5
8F26
330
1F
100
AcDbEntity
  8
SPOJOVACÍ
  6
Continuous
100
AcDbLine
 10
621.5182748379675
 20
797.5483963076085
 30
0.0
 11
621.2271587348304
 21
797.7161824349068
 31
0.0
  0
LINE
  5
8F27
330
1F
100
AcDbEntity
  8
SPOJOVACÍ
  6
Continuous
100
AcDbLine
 10
621.5182748379675
 20
797.5483963076085
 30
0.0
 11
617.8183756181761
 21
798.4733711125564
 31
0.0
  0
LINE
  5
8F28
330
1F
100
AcDbEntity
  8
SPOJOVACÍ
  6
Continuous
100
AcDbLine
 10
621.2271587348304
 20
799.4639566155428
 30
0.0
 11
618.1094917179516
 21
800.5122613946541
 31
0.0
  0
LINE
  5
8F29
330
1F
100
AcDbEntity
  8
SPOJOVACÍ
  6
Continuous
100
AcDbLine
 10
621.2271587348304
 20
799.9235758791701
 30
0.0
 11
618.1094917179516
 21
800.9718806582778
 31
0.0
  0
LINE
  5
8F2A
330
1F
100
AcDbEntity
  8
SPOJOVACÍ
  6
Continuous
100
AcDbLine
 10
617.8183756181761
 20
800.6807645568196
 30
0.0
 11
618.1094917179516
 21
800.5122613946541
 31
0.0
  0
LINE
  5
8F2B
330
1F
100
AcDbEntity
  8
SPOJOVACÍ
  6
Continuous
100
AcDbLine
 10
617.8183756181761
 20
800.6807645568196
 30
0.0
 11
618.1094917179516
 21
800.9718806582778
 31
0.0
  0
LINE
  5
8F2C
330
1F
100
AcDbEntity
  8
SPOJOVACÍ
  6
Continuous
100
AcDbLine
 10
621.5182748379675
 20
799.7557897518718
 30
0.0
 11
621.2271587348304
 21
799.4639566155428
 31
0.0
  0
LINE
  5
8F2D
330
1F
100
AcDbEntity
  8
SPOJOVACÍ
  6
Continuous
100
AcDbLine
 10
621.5182748379675
 20
799.7557897518718
 30
0.0
 11
621.2271587348304
 21
799.9235758791701
 31
0.0
  0
LINE
  5
8F2E
330
1F
100
AcDbEntity
  8
SPOJOVACÍ
  6
Continuous
100
AcDbLine
 10
621.5182748379675
 20
799.7557897518718
 30
0.0
 11
617.8183756181761
 21
800.6807645568196
 31
0.0
  0
LINE
  5
8F2F
330
1F
100
AcDbEntity
  8
SPOJOVACÍ
  6
Continuous
100
AcDbLine
 10
621.2271587348304
 20
801.6713500598061
 30
0.0
 11
618.1094917179516
 21
802.7196548389156
 31
0.0
  0
LINE
  5
8F30
330
1F
100
AcDbEntity
  8
SPOJOVACÍ
  6
Continuous
100
AcDbLine
 10
621.2271587348304
 20
802.1309693234316
 30
0.0
 11
618.1094917179516
 21
803.1792741025393
 31
0.0
  0
LINE
  5
8F31
330
1F
100
AcDbEntity
  8
SPOJOVACÍ
  6
Continuous
100
AcDbLine
 10
617.8183756181761
 20
802.8881580010811
 30
0.0
 11
618.1094917179516
 21
802.7196548389156
 31
0.0
  0
LINE
  5
8F32
330
1F
100
AcDbEntity
  8
SPOJOVACÍ
  6
Continuous
100
AcDbLine
 10
617.8183756181761
 20
802.8881580010811
 30
0.0
 11
618.1094917179516
 21
803.1792741025393
 31
0.0
  0
LINE
  5
8F33
330
1F
100
AcDbEntity
  8
SPOJOVACÍ
  6
Continuous
100
AcDbLine
 10
621.5182748379675
 20
801.9631831961332
 30
0.0
 11
621.2271587348304
 21
801.6713500598061
 31
0.0
  0
LINE
  5
8F34
330
1F
100
AcDbEntity
  8
SPOJOVACÍ
  6
Continuous
100
AcDbLine
 10
621.5182748379675
 20
801.9631831961332
 30
0.0
 11
621.2271587348304
 21
802.1309693234316
 31
0.0
  0
LINE
  5
8F35
330
1F
100
AcDbEntity
  8
SPOJOVACÍ
  6
Continuous
100
AcDbLine
 10
621.5182748379675
 20
801.9631831961332
 30
0.0
 11
617.8183756181761
 21
802.8881580010811
 31
0.0
  0
LINE
  5
8F36
330
1F
100
AcDbEntity
  8
SPOJOVACÍ
  6
Continuous
100
AcDbLine
 10
621.2271587348304
 20
803.8787435040694
 30
0.0
 11
618.1094917179516
 21
804.9270482831788
 31
0.0
  0
LINE
  5
8F37
330
1F
100
AcDbEntity
  8
SPOJOVACÍ
  6
Continuous
100
AcDbLine
 10
621.2271587348304
 20
804.3383627676949
 30
0.0
 11
618.1094917179516
 21
805.3866675468025
 31
0.0
  0
LINE
  5
8F38
330
1F
100
AcDbEntity
  8
SPOJOVACÍ
  6
Continuous
100
AcDbLine
 10
617.8183756181761
 20
805.0955514453445
 30
0.0
 11
618.1094917179516
 21
804.9270482831788
 31
0.0
  0
LINE
  5
8F39
330
1F
100
AcDbEntity
  8
SPOJOVACÍ
  6
Continuous
100
AcDbLine
 10
617.8183756181761
 20
805.0955514453445
 30
0.0
 11
618.1094917179516
 21
805.3866675468025
 31
0.0
  0
LINE
  5
8F3A
330
1F
100
AcDbEntity
  8
SPOJOVACÍ
  6
Continuous
100
AcDbLine
 10
621.5182748379675
 20
804.1705766403966
 30
0.0
 11
621.2271587348304
 21
803.8787435040694
 31
0.0
  0
LINE
  5
8F3B
330
1F
100
AcDbEntity
  8
SPOJOVACÍ
  6
Continuous
100
AcDbLine
 10
621.5182748379675
 20
804.1705766403966
 30
0.0
 11
621.2271587348304
 21
804.3383627676949
 31
0.0
  0
LINE
  5
8F3C
330
1F
100
AcDbEntity
  8
SPOJOVACÍ
  6
Continuous
100
AcDbLine
 10
621.5182748379675
 20
804.1705766403966
 30
0.0
 11
617.8183756181761
 21
805.0955514453445
 31
0.0
  0
LINE
  5
8F3D
330
1F
100
AcDbEntity
  8
SPOJOVACÍ
  6
Continuous
100
AcDbLine
 10
621.5182748379675
 20
806.3779700846598
 30
0.0
 11
617.8183756181761
 21
807.3029448896059
 31
0.0
  0
LINE
  5
8F3E
330
1F
100
AcDbEntity
  8
SPOJOVACÍ
  6
Continuous
100
AcDbLine
 10
621.5182748379675
 20
806.3779700846598
 30
0.0
 11
621.2271587348304
 21
806.5457562119563
 31
0.0
  0
LINE
  5
8F3F
330
1F
100
AcDbEntity
  8
SPOJOVACÍ
  6
Continuous
100
AcDbLine
 10
621.5182748379675
 20
806.3779700846598
 30
0.0
 11
621.2271587348304
 21
806.0861369483308
 31
0.0
  0
LINE
  5
8F40
330
1F
100
AcDbEntity
  8
SPOJOVACÍ
  6
Continuous
100
AcDbLine
 10
617.8183756181761
 20
807.3029448896059
 30
0.0
 11
618.1094917179516
 21
807.594060991064
 31
0.0
  0
LINE
  5
8F41
330
1F
100
AcDbEntity
  8
SPOJOVACÍ
  6
Continuous
100
AcDbLine
 10
617.8183756181761
 20
807.3029448896059
 30
0.0
 11
618.1094917179516
 21
807.1344417274403
 31
0.0
  0
LINE
  5
8F42
330
1F
100
AcDbEntity
  8
SPOJOVACÍ
  6
Continuous
100
AcDbLine
 10
621.2271587348304
 20
806.5457562119563
 30
0.0
 11
618.1094917179516
 21
807.594060991064
 31
0.0
  0
LINE
  5
8F43
330
1F
100
AcDbEntity
  8
SPOJOVACÍ
  6
Continuous
100
AcDbLine
 10
621.2271587348304
 20
806.0861369483308
 30
0.0
 11
618.1094917179516
 21
807.1344417274403
 31
0.0
  0
LINE
  5
8F44
330
1F
100
AcDbEntity
  8
SPOJOVACÍ
  6
DASHED
100
AcDbLine
 10
619.6683252280718
 20
815.856310885324
 30
0.0
 11
618.5562158530747
 21
807.5978918049232
 31
0.0
  0
LINE
  5
8F45
330
1F
100
AcDbEntity
  8
SPOJOVACÍ
  6
DASHED
100
AcDbLine
 10
619.6683252280718
 20
815.856310885324
 30
0.0
 11
620.7804346030688
 21
807.5978918049232
 31
0.0
  0
LINE
  5
8F46
330
1F
100
AcDbEntity
  8
SPOJOVACÍ
  6
Continuous
100
AcDbLine
 10
621.2271587348304
 20
808.2935303925943
 30
0.0
 11
618.1094917179516
 21
809.3418351717037
 31
0.0
  0
LINE
  5
8F47
330
1F
100
AcDbEntity
  8
SPOJOVACÍ
  6
Continuous
100
AcDbLine
 10
621.2271587348304
 20
808.7531496562196
 30
0.0
 11
618.1094917179516
 21
809.8014544353272
 31
0.0
  0
LINE
  5
8F48
330
1F
100
AcDbEntity
  8
SPOJOVACÍ
  6
Continuous
100
AcDbLine
 10
617.8183756181761
 20
809.5103383338692
 30
0.0
 11
618.1094917179516
 21
809.3418351717037
 31
0.0
  0
LINE
  5
8F49
330
1F
100
AcDbEntity
  8
SPOJOVACÍ
  6
Continuous
100
AcDbLine
 10
617.8183756181761
 20
809.5103383338692
 30
0.0
 11
618.1094917179516
 21
809.8014544353272
 31
0.0
  0
LINE
  5
8F4A
330
1F
100
AcDbEntity
  8
SPOJOVACÍ
  6
Continuous
100
AcDbLine
 10
621.5182748379675
 20
808.5853635289213
 30
0.0
 11
621.2271587348304
 21
808.2935303925943
 31
0.0
  0
LINE
  5
8F4B
330
1F
100
AcDbEntity
  8
SPOJOVACÍ
  6
Continuous
100
AcDbLine
 10
621.5182748379675
 20
808.5853635289213
 30
0.0
 11
621.2271587348304
 21
808.7531496562196
 31
0.0
  0
LINE
  5
8F4C
330
1F
100
AcDbEntity
  8
SPOJOVACÍ
  6
Continuous
100
AcDbLine
 10
621.5182748379675
 20
808.5853635289213
 30
0.0
 11
617.8183756181761
 21
809.5103383338692
 31
0.0
  0
LINE
  5
8F4D
330
1F
100
AcDbEntity
  8
SPOJOVACÍ
  6
Continuous
100
AcDbLine
 10
620.3498199763353
 20
814.7492123181208
 30
0.0
 11
618.9057743768216
 21
814.9574641447898
 31
0.0
  0
LINE
  5
8F4E
330
1F
100
AcDbEntity
  8
SPOJOVACÍ
  6
Continuous
100
AcDbLine
 10
620.0966755417403
 20
814.4960678820725
 30
0.0
 11
619.1589188114094
 21
814.8115631643495
 31
0.0
  0
LINE
  5
8F4F
330
1F
100
AcDbEntity
  8
SPOJOVACÍ
  6
Continuous
100
AcDbLine
 10
620.0966755417403
 20
814.8957368069595
 30
0.0
 11
619.1589188114094
 21
815.211232089242
 31
0.0
  0
LINE
  5
8F50
330
1F
100
AcDbEntity
  8
SPOJOVACÍ
  6
Continuous
100
AcDbLine
 10
618.9057743768216
 20
814.9574641447898
 30
0.0
 11
619.1589188114094
 21
814.8115631643495
 31
0.0
  0
LINE
  5
8F51
330
1F
100
AcDbEntity
  8
SPOJOVACÍ
  6
Continuous
100
AcDbLine
 10
618.9057743768216
 20
814.9574641447898
 30
0.0
 11
619.1589188114094
 21
815.211232089242
 31
0.0
  0
LINE
  5
8F52
330
1F
100
AcDbEntity
  8
SPOJOVACÍ
  6
Continuous
100
AcDbLine
 10
620.3498199763353
 20
814.7492123181208
 30
0.0
 11
620.0966755417403
 21
814.4960678820725
 31
0.0
  0
LINE
  5
8F53
330
1F
100
AcDbEntity
  8
SPOJOVACÍ
  6
Continuous
100
AcDbLine
 10
620.3498199763353
 20
814.7492123181208
 30
0.0
 11
620.0966755417403
 21
814.8957368069595
 31
0.0
  0
LINE
  5
8F54
330
1F
100
AcDbEntity
  8
SPOJOVACÍ
  6
Continuous
100
AcDbLine
 10
620.7282896150655
 20
812.7290448976536
 30
0.0
 11
618.6395362632765
 21
813.1536541609266
 31
0.0
  0
LINE
  5
8F55
330
1F
100
AcDbEntity
  8
SPOJOVACÍ
  6
Continuous
100
AcDbLine
 10
620.47514517756
 20
812.4752769530196
 30
0.0
 11
618.8926806978643
 21
813.0077531806701
 31
0.0
  0
LINE
  5
8F56
330
1F
100
AcDbEntity
  8
SPOJOVACÍ
  6
Continuous
100
AcDbLine
 10
620.47514517756
 20
812.874945877912
 30
0.0
 11
618.8926806978643
 21
813.4074221053751
 31
0.0
  0
LINE
  5
8F57
330
1F
100
AcDbEntity
  8
SPOJOVACÍ
  6
Continuous
100
AcDbLine
 10
618.6395362632765
 20
813.1536541609266
 30
0.0
 11
618.8926806978643
 21
813.0077531806701
 31
0.0
  0
LINE
  5
8F58
330
1F
100
AcDbEntity
  8
SPOJOVACÍ
  6
Continuous
100
AcDbLine
 10
618.6395362632765
 20
813.1536541609266
 30
0.0
 11
618.8926806978643
 21
813.4074221053751
 31
0.0
  0
LINE
  5
8F59
330
1F
100
AcDbEntity
  8
SPOJOVACÍ
  6
Continuous
100
AcDbLine
 10
620.7282896150655
 20
812.7290448976536
 30
0.0
 11
620.47514517756
 21
812.4752769530196
 31
0.0
  0
LINE
  5
8F5A
330
1F
100
AcDbEntity
  8
SPOJOVACÍ
  6
Continuous
100
AcDbLine
 10
620.7282896150655
 20
812.7290448976536
 30
0.0
 11
620.47514517756
 21
812.874945877912
 31
0.0
  0
LINE
  5
8F5B
330
1F
100
AcDbEntity
  8
SPOJOVACÍ
  6
Continuous
100
AcDbLine
 10
621.1067592508852
 20
810.7082539686008
 30
0.0
 11
618.3414992180269
 21
811.3604438209595
 31
0.0
  0
LINE
  5
8F5C
330
1F
100
AcDbEntity
  8
SPOJOVACÍ
  6
Continuous
100
AcDbLine
 10
620.8529913067986
 20
810.4551095325504
 30
0.0
 11
618.5946436526146
 21
811.2145428407028
 31
0.0
  0
LINE
  5
8F5D
330
1F
100
AcDbEntity
  8
SPOJOVACÍ
  6
Continuous
100
AcDbLine
 10
620.8529913067986
 20
810.8547784574447
 30
0.0
 11
618.5946436526146
 21
811.6142117655936
 31
0.0
  0
LINE
  5
8F5E
330
1F
100
AcDbEntity
  8
SPOJOVACÍ
  6
Continuous
100
AcDbLine
 10
618.3414992180269
 20
811.3604438209595
 30
0.0
 11
618.5946436526146
 21
811.2145428407028
 31
0.0
  0
LINE
  5
8F5F
330
1F
100
AcDbEntity
  8
SPOJOVACÍ
  6
Continuous
100
AcDbLine
 10
618.3414992180269
 20
811.3604438209595
 30
0.0
 11
618.5946436526146
 21
811.6142117655936
 31
0.0
  0
LINE
  5
8F60
330
1F
100
AcDbEntity
  8
SPOJOVACÍ
  6
Continuous
100
AcDbLine
 10
621.1067592508852
 20
810.7082539686008
 30
0.0
 11
620.8529913067986
 21
810.4551095325504
 31
0.0
  0
LINE
  5
8F61
330
1F
100
AcDbEntity
  8
SPOJOVACÍ
  6
Continuous
100
AcDbLine
 10
621.1067592508852
 20
810.7082539686008
 30
0.0
 11
620.8529913067986
 21
810.8547784574447
 31
0.0
  0
LINE
  5
8F62
330
1F
100
AcDbEntity
  8
SPOJOVACÍ
  6
Continuous
100
AcDbLine
 10
453.6163886171062
 20
809.3192601372347
 30
0.0
 11
453.8701565611927
 21
809.4657846260789
 31
0.0
  0
LINE
  5
8F63
330
1F
100
AcDbEntity
  8
SPOJOVACÍ
  6
Continuous
100
AcDbLine
 10
453.6163886171062
 20
809.3192601372347
 30
0.0
 11
453.8701565611927
 21
809.0661157011846
 31
0.0
  0
LINE
  5
8F64
330
1F
100
AcDbEntity
  8
SPOJOVACÍ
  6
Continuous
100
AcDbLine
 10
456.3816486499645
 20
809.9714499895934
 30
0.0
 11
456.1285042153768
 21
810.2252179342276
 31
0.0
  0
LINE
  5
8F65
330
1F
100
AcDbEntity
  8
SPOJOVACÍ
  6
Continuous
100
AcDbLine
 10
456.3816486499645
 20
809.9714499895934
 30
0.0
 11
456.1285042153768
 21
809.825549009337
 31
0.0
  0
LINE
  5
8F66
330
1F
100
AcDbEntity
  8
SPOJOVACÍ
  6
Continuous
100
AcDbLine
 10
453.8701565611927
 20
809.4657846260789
 30
0.0
 11
456.1285042153768
 21
810.2252179342276
 31
0.0
  0
LINE
  5
8F67
330
1F
100
AcDbEntity
  8
SPOJOVACÍ
  6
Continuous
100
AcDbLine
 10
453.8701565611927
 20
809.0661157011846
 30
0.0
 11
456.1285042153768
 21
809.825549009337
 31
0.0
  0
LINE
  5
8F68
330
1F
100
AcDbEntity
  8
SPOJOVACÍ
  6
Continuous
100
AcDbLine
 10
453.6163886171062
 20
809.3192601372347
 30
0.0
 11
456.3816486499645
 21
809.9714499895934
 31
0.0
  0
LINE
  5
8F69
330
1F
100
AcDbEntity
  8
SPOJOVACÍ
  6
Continuous
100
AcDbLine
 10
453.9948582529259
 20
811.3400510662877
 30
0.0
 11
454.2480026904313
 21
811.4859520465461
 31
0.0
  0
LINE
  5
8F6A
330
1F
100
AcDbEntity
  8
SPOJOVACÍ
  6
Continuous
100
AcDbLine
 10
453.9948582529259
 20
811.3400510662877
 30
0.0
 11
454.2480026904313
 21
811.0862831216536
 31
0.0
  0
LINE
  5
8F6B
330
1F
100
AcDbEntity
  8
SPOJOVACÍ
  6
Continuous
100
AcDbLine
 10
456.0836116047148
 20
811.7646603295607
 30
0.0
 11
455.8304671701271
 21
812.0184282740092
 31
0.0
  0
LINE
  5
8F6C
330
1F
100
AcDbEntity
  8
SPOJOVACÍ
  6
Continuous
100
AcDbLine
 10
456.0836116047148
 20
811.7646603295607
 30
0.0
 11
455.8304671701271
 21
811.6187593493041
 31
0.0
  0
LINE
  5
8F6D
330
1F
100
AcDbEntity
  8
SPOJOVACÍ
  6
Continuous
100
AcDbLine
 10
454.2480026904313
 20
811.4859520465461
 30
0.0
 11
455.8304671701271
 21
812.0184282740092
 31
0.0
  0
LINE
  5
8F6E
330
1F
100
AcDbEntity
  8
SPOJOVACÍ
  6
Continuous
100
AcDbLine
 10
454.2480026904313
 20
811.0862831216536
 30
0.0
 11
455.8304671701271
 21
811.6187593493041
 31
0.0
  0
LINE
  5
8F6F
330
1F
100
AcDbEntity
  8
SPOJOVACÍ
  6
Continuous
100
AcDbLine
 10
453.9948582529259
 20
811.3400510662877
 30
0.0
 11
456.0836116047148
 21
811.7646603295607
 31
0.0
  0
LINE
  5
8F70
330
1F
100
AcDbEntity
  8
SPOJOVACÍ
  6
Continuous
100
AcDbLine
 10
454.3733278916561
 20
813.360218486755
 30
0.0
 11
454.6264723262511
 21
813.5067429755936
 31
0.0
  0
LINE
  5
8F71
330
1F
100
AcDbEntity
  8
SPOJOVACÍ
  6
Continuous
100
AcDbLine
 10
454.3733278916561
 20
813.360218486755
 30
0.0
 11
454.6264723262511
 21
813.1070740507066
 31
0.0
  0
LINE
  5
8F72
330
1F
100
AcDbEntity
  8
SPOJOVACÍ
  6
Continuous
100
AcDbLine
 10
455.8173734911697
 20
813.5684703134238
 30
0.0
 11
455.564229056582
 21
813.822238257876
 31
0.0
  0
LINE
  5
8F73
330
1F
100
AcDbEntity
  8
SPOJOVACÍ
  6
Continuous
100
AcDbLine
 10
455.8173734911697
 20
813.5684703134238
 30
0.0
 11
455.564229056582
 21
813.4225693329835
 31
0.0
  0
LINE
  5
8F74
330
1F
100
AcDbEntity
  8
SPOJOVACÍ
  6
Continuous
100
AcDbLine
 10
454.6264723262511
 20
813.5067429755936
 30
0.0
 11
455.564229056582
 21
813.822238257876
 31
0.0
  0
LINE
  5
8F75
330
1F
100
AcDbEntity
  8
SPOJOVACÍ
  6
Continuous
100
AcDbLine
 10
454.6264723262511
 20
813.1070740507066
 30
0.0
 11
455.564229056582
 21
813.4225693329835
 31
0.0
  0
LINE
  5
8F76
330
1F
100
AcDbEntity
  8
SPOJOVACÍ
  6
Continuous
100
AcDbLine
 10
454.3733278916561
 20
813.360218486755
 30
0.0
 11
455.8173734911697
 21
813.5684703134238
 31
0.0
  0
LINE
  5
8F77
330
1F
100
AcDbEntity
  8
SPOJOVACÍ
  6
Continuous
100
AcDbLine
 10
453.2048730300239
 20
807.1963696975554
 30
0.0
 11
456.9047722498153
 21
808.1213445025031
 31
0.0
  0
LINE
  5
8F78
330
1F
100
AcDbEntity
  8
SPOJOVACÍ
  6
Continuous
100
AcDbLine
 10
453.2048730300239
 20
807.1963696975554
 30
0.0
 11
453.4959891331609
 21
807.3641558248537
 31
0.0
  0
LINE
  5
8F79
330
1F
100
AcDbEntity
  8
SPOJOVACÍ
  6
Continuous
100
AcDbLine
 10
453.2048730300239
 20
807.1963696975554
 30
0.0
 11
453.4959891331609
 21
806.9045365612282
 31
0.0
  0
LINE
  5
8F7A
330
1F
100
AcDbEntity
  8
SPOJOVACÍ
  6
Continuous
100
AcDbLine
 10
456.9047722498153
 20
808.1213445025031
 30
0.0
 11
456.6136561500398
 21
808.4124606039614
 31
0.0
  0
LINE
  5
8F7B
330
1F
100
AcDbEntity
  8
SPOJOVACÍ
  6
Continuous
100
AcDbLine
 10
456.9047722498153
 20
808.1213445025031
 30
0.0
 11
456.6136561500398
 21
807.9528413403377
 31
0.0
  0
LINE
  5
8F7C
330
1F
100
AcDbEntity
  8
SPOJOVACÍ
  6
Continuous
100
AcDbLine
 10
453.4959891331609
 20
807.3641558248537
 30
0.0
 11
456.6136561500398
 21
808.4124606039614
 31
0.0
  0
LINE
  5
8F7D
330
1F
100
AcDbEntity
  8
SPOJOVACÍ
  6
Continuous
100
AcDbLine
 10
453.4959891331609
 20
806.9045365612282
 30
0.0
 11
456.6136561500398
 21
807.9528413403377
 31
0.0
  0
LINE
  5
8F7E
330
1F
100
AcDbEntity
  8
SPOJOVACÍ
  6
DASHED
100
AcDbLine
 10
455.0548226399196
 20
814.3106423156396
 30
0.0
 11
453.9427132649225
 21
806.0522232352386
 31
0.0
  0
LINE
  5
8F7F
330
1F
100
AcDbEntity
  8
SPOJOVACÍ
  6
DASHED
100
AcDbLine
 10
455.0548226399196
 20
814.3106423156396
 30
0.0
 11
456.1669320149166
 21
806.0522232352386
 31
0.0
  0
LINE
  5
8F80
330
1F
100
AcDbEntity
  8
SPOJOVACÍ
  6
Continuous
100
AcDbLine
 10
453.4959891331609
 20
804.697143116965
 30
0.0
 11
456.6136561500398
 21
805.7454478960744
 31
0.0
  0
LINE
  5
8F81
330
1F
100
AcDbEntity
  8
SPOJOVACÍ
  6
Continuous
100
AcDbLine
 10
453.4959891331609
 20
805.1567623805905
 30
0.0
 11
456.6136561500398
 21
806.2050671596979
 31
0.0
  0
LINE
  5
8F82
330
1F
100
AcDbEntity
  8
SPOJOVACÍ
  6
Continuous
100
AcDbLine
 10
456.9047722498153
 20
805.9139510582399
 30
0.0
 11
456.6136561500398
 21
805.7454478960744
 31
0.0
  0
LINE
  5
8F83
330
1F
100
AcDbEntity
  8
SPOJOVACÍ
  6
Continuous
100
AcDbLine
 10
456.9047722498153
 20
805.9139510582399
 30
0.0
 11
456.6136561500398
 21
806.2050671596979
 31
0.0
  0
LINE
  5
8F84
330
1F
100
AcDbEntity
  8
SPOJOVACÍ
  6
Continuous
100
AcDbLine
 10
453.2048730300239
 20
804.9889762532938
 30
0.0
 11
453.4959891331609
 21
804.697143116965
 31
0.0
  0
LINE
  5
8F85
330
1F
100
AcDbEntity
  8
SPOJOVACÍ
  6
Continuous
100
AcDbLine
 10
453.2048730300239
 20
804.9889762532938
 30
0.0
 11
453.4959891331609
 21
805.1567623805905
 31
0.0
  0
LINE
  5
8F86
330
1F
100
AcDbEntity
  8
SPOJOVACÍ
  6
Continuous
100
AcDbLine
 10
453.2048730300239
 20
804.9889762532938
 30
0.0
 11
456.9047722498153
 21
805.9139510582399
 31
0.0
  0
LINE
  5
8F87
330
1F
100
AcDbEntity
  8
SPOJOVACÍ
  6
Continuous
100
AcDbLine
 10
453.2048730300239
 20
802.7815828090306
 30
0.0
 11
456.9047722498153
 21
803.7065576139784
 31
0.0
  0
LINE
  5
8F88
330
1F
100
AcDbEntity
  8
SPOJOVACÍ
  6
Continuous
100
AcDbLine
 10
453.2048730300239
 20
802.7815828090306
 30
0.0
 11
453.4959891331609
 21
802.9493689363288
 31
0.0
  0
LINE
  5
8F89
330
1F
100
AcDbEntity
  8
SPOJOVACÍ
  6
Continuous
100
AcDbLine
 10
453.2048730300239
 20
802.7815828090306
 30
0.0
 11
453.4959891331609
 21
802.4897496727035
 31
0.0
  0
LINE
  5
8F8A
330
1F
100
AcDbEntity
  8
SPOJOVACÍ
  6
Continuous
100
AcDbLine
 10
456.9047722498153
 20
803.7065576139784
 30
0.0
 11
456.6136561500398
 21
803.9976737154365
 31
0.0
  0
LINE
  5
8F8B
330
1F
100
AcDbEntity
  8
SPOJOVACÍ
  6
Continuous
100
AcDbLine
 10
456.9047722498153
 20
803.7065576139784
 30
0.0
 11
456.6136561500398
 21
803.538054451813
 31
0.0
  0
LINE
  5
8F8C
330
1F
100
AcDbEntity
  8
SPOJOVACÍ
  6
Continuous
100
AcDbLine
 10
453.4959891331609
 20
802.9493689363288
 30
0.0
 11
456.6136561500398
 21
803.9976737154365
 31
0.0
  0
LINE
  5
8F8D
330
1F
100
AcDbEntity
  8
SPOJOVACÍ
  6
Continuous
100
AcDbLine
 10
453.4959891331609
 20
802.4897496727035
 30
0.0
 11
456.6136561500398
 21
803.538054451813
 31
0.0
  0
LINE
  5
8F8E
330
1F
100
AcDbEntity
  8
SPOJOVACÍ
  6
Continuous
100
AcDbLine
 10
453.2048730300239
 20
800.5741893647673
 30
0.0
 11
456.9047722498153
 21
801.4991641697152
 31
0.0
  0
LINE
  5
8F8F
330
1F
100
AcDbEntity
  8
SPOJOVACÍ
  6
Continuous
100
AcDbLine
 10
453.2048730300239
 20
800.5741893647673
 30
0.0
 11
453.4959891331609
 21
800.7419754920656
 31
0.0
  0
LINE
  5
8F90
330
1F
100
AcDbEntity
  8
SPOJOVACÍ
  6
Continuous
100
AcDbLine
 10
453.2048730300239
 20
800.5741893647673
 30
0.0
 11
453.4959891331609
 21
800.2823562284401
 31
0.0
  0
LINE
  5
8F91
330
1F
100
AcDbEntity
  8
SPOJOVACÍ
  6
Continuous
100
AcDbLine
 10
456.9047722498153
 20
801.4991641697152
 30
0.0
 11
456.6136561500398
 21
801.7902802711732
 31
0.0
  0
LINE
  5
8F92
330
1F
100
AcDbEntity
  8
SPOJOVACÍ
  6
Continuous
100
AcDbLine
 10
456.9047722498153
 20
801.4991641697152
 30
0.0
 11
456.6136561500398
 21
801.3306610075497
 31
0.0
  0
LINE
  5
8F93
330
1F
100
AcDbEntity
  8
SPOJOVACÍ
  6
Continuous
100
AcDbLine
 10
453.4959891331609
 20
800.7419754920656
 30
0.0
 11
456.6136561500398
 21
801.7902802711732
 31
0.0
  0
LINE
  5
8F94
330
1F
100
AcDbEntity
  8
SPOJOVACÍ
  6
Continuous
100
AcDbLine
 10
453.4959891331609
 20
800.2823562284401
 30
0.0
 11
456.6136561500398
 21
801.3306610075497
 31
0.0
  0
LINE
  5
8F95
330
1F
100
AcDbEntity
  8
SPOJOVACÍ
  6
Continuous
100
AcDbLine
 10
453.2048730300239
 20
798.3667959205059
 30
0.0
 11
456.9047722498153
 21
799.2917707254536
 31
0.0
  0
LINE
  5
8F96
330
1F
100
AcDbEntity
  8
SPOJOVACÍ
  6
Continuous
100
AcDbLine
 10
453.2048730300239
 20
798.3667959205059
 30
0.0
 11
453.4959891331609
 21
798.5345820478041
 31
0.0
  0
LINE
  5
8F97
330
1F
100
AcDbEntity
  8
SPOJOVACÍ
  6
Continuous
100
AcDbLine
 10
453.2048730300239
 20
798.3667959205059
 30
0.0
 11
453.4959891331609
 21
798.0749627841769
 31
0.0
  0
LINE
  5
8F98
330
1F
100
AcDbEntity
  8
SPOJOVACÍ
  6
Continuous
100
AcDbLine
 10
456.9047722498153
 20
799.2917707254536
 30
0.0
 11
456.6136561500398
 21
799.5828868269118
 31
0.0
  0
LINE
  5
8F99
330
1F
100
AcDbEntity
  8
SPOJOVACÍ
  6
Continuous
100
AcDbLine
 10
456.9047722498153
 20
799.2917707254536
 30
0.0
 11
456.6136561500398
 21
799.1232675632882
 31
0.0
  0
LINE
  5
8F9A
330
1F
100
AcDbEntity
  8
SPOJOVACÍ
  6
Continuous
100
AcDbLine
 10
453.4959891331609
 20
798.5345820478041
 30
0.0
 11
456.6136561500398
 21
799.5828868269118
 31
0.0
  0
LINE
  5
8F9B
330
1F
100
AcDbEntity
  8
SPOJOVACÍ
  6
Continuous
100
AcDbLine
 10
453.4959891331609
 20
798.0749627841769
 30
0.0
 11
456.6136561500398
 21
799.1232675632882
 31
0.0
  0
LINE
  5
8F9C
330
1F
100
AcDbEntity
  8
SPOJOVACÍ
  6
Continuous
100
AcDbLine
 10
453.2048730300239
 20
796.1594024762425
 30
0.0
 11
456.9047722498153
 21
797.0843772811904
 31
0.0
  0
LINE
  5
8F9D
330
1F
100
AcDbEntity
  8
SPOJOVACÍ
  6
Continuous
100
AcDbLine
 10
453.2048730300239
 20
796.1594024762425
 30
0.0
 11
453.4959891331609
 21
796.3271886035409
 31
0.0
  0
LINE
  5
8F9E
330
1F
100
AcDbEntity
  8
SPOJOVACÍ
  6
Continuous
100
AcDbLine
 10
453.2048730300239
 20
796.1594024762425
 30
0.0
 11
453.4959891331609
 21
795.8675693399154
 31
0.0
  0
LINE
  5
8F9F
330
1F
100
AcDbEntity
  8
SPOJOVACÍ
  6
Continuous
100
AcDbLine
 10
456.9047722498153
 20
797.0843772811904
 30
0.0
 11
456.6136561500398
 21
797.3754933826485
 31
0.0
  0
LINE
  5
8FA0
330
1F
100
AcDbEntity
  8
SPOJOVACÍ
  6
Continuous
100
AcDbLine
 10
456.9047722498153
 20
797.0843772811904
 30
0.0
 11
456.6136561500398
 21
796.9158741190249
 31
0.0
  0
LINE
  5
8FA1
330
1F
100
AcDbEntity
  8
SPOJOVACÍ
  6
Continuous
100
AcDbLine
 10
453.4959891331609
 20
796.3271886035409
 30
0.0
 11
456.6136561500398
 21
797.3754933826485
 31
0.0
  0
LINE
  5
8FA2
330
1F
100
AcDbEntity
  8
SPOJOVACÍ
  6
Continuous
100
AcDbLine
 10
453.4959891331609
 20
795.8675693399154
 30
0.0
 11
456.6136561500398
 21
796.9158741190249
 31
0.0
  0
LINE
  5
8FA3
330
1F
100
AcDbEntity
  8
SPOJOVACÍ
  6
Continuous
100
AcDbLine
 10
453.2048730300239
 20
793.9520090319811
 30
0.0
 11
456.9047722498153
 21
794.8769838369271
 31
0.0
  0
LINE
  5
8FA4
330
1F
100
AcDbEntity
  8
SPOJOVACÍ
  6
Continuous
100
AcDbLine
 10
453.2048730300239
 20
793.9520090319811
 30
0.0
 11
453.4959891331609
 21
794.1197951592775
 31
0.0
  0
LINE
  5
8FA5
330
1F
100
AcDbEntity
  8
SPOJOVACÍ
  6
Continuous
100
AcDbLine
 10
453.2048730300239
 20
793.9520090319811
 30
0.0
 11
453.4959891331609
 21
793.6601758956522
 31
0.0
  0
LINE
  5
8FA6
330
1F
100
AcDbEntity
  8
SPOJOVACÍ
  6
Continuous
100
AcDbLine
 10
456.9047722498153
 20
794.8769838369271
 30
0.0
 11
456.6136561500398
 21
795.1680999383852
 31
0.0
  0
LINE
  5
8FA7
330
1F
100
AcDbEntity
  8
SPOJOVACÍ
  6
Continuous
100
AcDbLine
 10
456.9047722498153
 20
794.8769838369271
 30
0.0
 11
456.6136561500398
 21
794.7084806747616
 31
0.0
  0
LINE
  5
8FA8
330
1F
100
AcDbEntity
  8
SPOJOVACÍ
  6
Continuous
100
AcDbLine
 10
453.4959891331609
 20
794.1197951592775
 30
0.0
 11
456.6136561500398
 21
795.1680999383852
 31
0.0
  0
LINE
  5
8FA9
330
1F
100
AcDbEntity
  8
SPOJOVACÍ
  6
Continuous
100
AcDbLine
 10
453.4959891331609
 20
793.6601758956522
 30
0.0
 11
456.6136561500398
 21
794.7084806747616
 31
0.0
  0
LINE
  5
8FAA
330
1F
100
AcDbEntity
  8
SPOJOVACÍ
  6
Continuous
100
AcDbLine
 10
453.2048730300239
 20
791.7446155877178
 30
0.0
 11
456.9047722498153
 21
792.6695903926656
 31
0.0
  0
LINE
  5
8FAB
330
1F
100
AcDbEntity
  8
SPOJOVACÍ
  6
Continuous
100
AcDbLine
 10
456.9047722498153
 20
792.6695903926656
 30
0.0
 11
456.6136561500398
 21
792.9607064941238
 31
0.0
  0
LINE
  5
8FAC
330
1F
100
AcDbEntity
  8
SPOJOVACÍ
  6
Continuous
100
AcDbLine
 10
456.9047722498153
 20
792.6695903926656
 30
0.0
 11
456.6136561500398
 21
792.5010872305001
 31
0.0
  0
LINE
  5
8FAD
330
1F
100
AcDbEntity
  8
SPOJOVACÍ
  6
Continuous
100
AcDbLine
 10
453.4959891331609
 20
791.9124017150161
 30
0.0
 11
456.6136561500398
 21
792.9607064941238
 31
0.0
  0
LINE
  5
8FAE
330
1F
100
AcDbEntity
  8
SPOJOVACÍ
  6
Continuous
100
AcDbLine
 10
453.4959891331609
 20
791.4527824513907
 30
0.0
 11
456.6136561500398
 21
792.5010872305001
 31
0.0
  0
LINE
  5
8FAF
330
1F
100
AcDbEntity
  8
SPOJOVACÍ
  6
CIKCAK
 48
0.25
100
AcDbLine
 10
452.7632694646609
 20
780.5669834961364
 30
0.0
 11
452.7632694646609
 21
811.4188342761053
 31
0.0
  0
LINE
  5
8FB0
330
1F
100
AcDbEntity
  8
SPOJOVACÍ
 48
0.25
100
AcDbLine
 10
452.7632694646609
 20
811.4188342761053
 30
0.0
 11
455.0548226399196
 21
815.0909704975701
 31
0.0
  0
LINE
  5
8FB1
330
1F
100
AcDbEntity
  8
SPOJOVACÍ
 48
0.25
100
AcDbLine
 10
457.3463758151783
 20
811.4188342761018
 30
0.0
 11
455.0548226399196
 21
815.0909704975701
 31
0.0
  0
LINE
  5
8FB2
330
1F
100
AcDbEntity
  8
SPOJOVACÍ
  6
CIKCAK
 48
0.25
100
AcDbLine
 10
457.3463758151783
 20
780.5669834961364
 30
0.0
 11
457.3463758151783
 21
811.4188342761018
 31
0.0
  0
LINE
  5
8FB3
330
1F
100
AcDbEntity
  8
SPOJOVACÍ
  6
DASHED
100
AcDbLine
 10
453.9427132649225
 20
806.3071878542805
 30
0.0
 11
453.9427132649225
 21
779.7948673623241
 31
0.0
  0
LINE
  5
8FB4
330
1F
100
AcDbEntity
  8
SPOJOVACÍ
  6
DASHED
100
AcDbLine
 10
456.1669320149166
 20
806.3071878542805
 30
0.0
 11
456.1669320149166
 21
779.7948673623259
 31
0.0
  0
LINE
  5
8FB5
330
1F
100
AcDbEntity
  8
SPOJOVACÍ
  6
Continuous
100
AcDbLine
 10
453.2048730317046
 20
780.7076483669707
 30
0.0
 11
456.9047722515033
 21
781.6326231719186
 31
0.0
  0
LINE
  5
8FB6
330
1F
100
AcDbEntity
  8
SPOJOVACÍ
  6
Continuous
100
AcDbLine
 10
453.2048730317046
 20
780.7076483669707
 30
0.0
 11
453.4959891348417
 21
780.875434494269
 31
0.0
  0
LINE
  5
8FB7
330
1F
100
AcDbEntity
  8
SPOJOVACÍ
  6
Continuous
100
AcDbLine
 10
453.2048730317046
 20
780.7076483669707
 30
0.0
 11
453.4959891348417
 21
780.4158152306418
 31
0.0
  0
LINE
  5
8FB8
330
1F
100
AcDbEntity
  8
SPOJOVACÍ
  6
Continuous
100
AcDbLine
 10
453.4959891348417
 20
780.875434494269
 30
0.0
 11
456.6136561517278
 21
781.9237392733748
 31
0.0
  0
LINE
  5
8FB9
330
1F
100
AcDbEntity
  8
SPOJOVACÍ
  6
Continuous
100
AcDbLine
 10
453.4959891348417
 20
780.4158152306418
 30
0.0
 11
456.6136561517278
 21
781.4641200097512
 31
0.0
  0
LINE
  5
8FBA
330
1F
100
AcDbEntity
  8
SPOJOVACÍ
  6
Continuous
100
AcDbLine
 10
453.4959891348417
 20
784.8306021191665
 30
0.0
 11
456.6136561517278
 21
785.8789068982778
 31
0.0
  0
LINE
  5
8FBB
330
1F
100
AcDbEntity
  8
SPOJOVACÍ
  6
Continuous
100
AcDbLine
 10
453.4959891348417
 20
785.2902213827937
 30
0.0
 11
456.6136561517278
 21
786.3385261619014
 31
0.0
  0
LINE
  5
8FBC
330
1F
100
AcDbEntity
  8
SPOJOVACÍ
  6
Continuous
100
AcDbLine
 10
456.9047722515033
 20
786.0474100604433
 30
0.0
 11
456.6136561517278
 21
785.8789068982778
 31
0.0
  0
LINE
  5
8FBD
330
1F
100
AcDbEntity
  8
SPOJOVACÍ
  6
Continuous
100
AcDbLine
 10
456.9047722515033
 20
786.0474100604433
 30
0.0
 11
456.6136561517278
 21
786.3385261619014
 31
0.0
  0
LINE
  5
8FBE
330
1F
100
AcDbEntity
  8
SPOJOVACÍ
  6
Continuous
100
AcDbLine
 10
453.2048730317046
 20
785.1224352554955
 30
0.0
 11
456.9047722515033
 21
786.0474100604433
 31
0.0
  0
LINE
  5
8FBF
330
1F
100
AcDbEntity
  8
SPOJOVACÍ
100
AcDbLine
 10
450.6673226399225
 20
777.156163161263
 30
0.0
 11
450.6673226399225
 21
777.7261550656503
 31
0.0
  0
LINE
  5
8FC0
330
1F
100
AcDbEntity
  8
SPOJOVACÍ
100
AcDbLine
 10
450.6673226399225
 20
777.7261550656503
 30
0.0
 11
450.6673226399225
 21
777.156163161263
 31
0.0
  0
LINE
  5
8FC1
330
1F
100
AcDbEntity
  8
SPOJOVACÍ
  6
DASHED
100
AcDbLine
 10
450.6673226399225
 20
777.7261550656503
 30
0.0
 11
453.9427132649225
 21
779.7948673623241
 31
0.0
  0
LINE
  5
8FC2
330
1F
100
AcDbEntity
  8
SPOJOVACÍ
100
AcDbLine
 10
459.4423226399166
 20
777.7261550656503
 30
0.0
 11
456.1669320149166
 21
779.7948673623259
 31
0.0
  0
LINE
  5
8FC3
330
1F
100
AcDbEntity
  8
SPOJOVACÍ
100
AcDbLine
 10
459.4423226399166
 20
777.7261550656503
 30
0.0
 11
459.4423226399166
 21
777.156163161263
 31
0.0
  0
LINE
  5
8FC4
330
1F
100
AcDbEntity
  8
SPOJOVACÍ
100
AcDbLine
 10
450.6673226399225
 20
776.7891226274451
 30
0.0
 11
450.6673226399225
 21
777.7261550656503
 31
0.0
  0
LINE
  5
8FC5
330
1F
100
AcDbEntity
  8
SPOJOVACÍ
100
AcDbLine
 10
459.4423226399166
 20
776.7891226274451
 30
0.0
 11
459.4423226399166
 21
777.7261550656503
 31
0.0
  0
LINE
  5
8FC6
330
1F
100
AcDbEntity
  8
SPOJOVACÍ
100
AcDbLine
 10
450.6673226399225
 20
776.7891226274451
 30
0.0
 11
459.4423226399166
 21
776.7891226274451
 31
0.0
  0
LINE
  5
8FC7
330
1F
100
AcDbEntity
  8
SPOJOVACÍ
  6
Continuous
100
AcDbLine
 10
453.2048730300239
 20
791.7446155877178
 30
0.0
 11
453.4959891331609
 21
791.9124017150161
 31
0.0
  0
LINE
  5
8FC8
330
1F
100
AcDbEntity
  8
SPOJOVACÍ
  6
Continuous
100
AcDbLine
 10
453.2048730300239
 20
791.7446155877178
 30
0.0
 11
453.4959891331609
 21
791.4527824513907
 31
0.0
  0
LINE
  5
8FC9
330
1F
100
AcDbEntity
  8
SPOJOVACÍ
  6
Continuous
100
AcDbLine
 10
453.4959891331609
 20
787.0379955628641
 30
0.0
 11
456.6136561500398
 21
788.0863003419753
 31
0.0
  0
LINE
  5
8FCA
330
1F
100
AcDbEntity
  8
SPOJOVACÍ
  6
Continuous
100
AcDbLine
 10
453.4959891331609
 20
787.4976148264914
 30
0.0
 11
456.6136561500398
 21
788.545919605599
 31
0.0
  0
LINE
  5
8FCB
330
1F
100
AcDbEntity
  8
SPOJOVACÍ
  6
Continuous
100
AcDbLine
 10
456.9047722498153
 20
788.2548035041409
 30
0.0
 11
456.6136561500398
 21
788.0863003419753
 31
0.0
  0
LINE
  5
8FCC
330
1F
100
AcDbEntity
  8
SPOJOVACÍ
  6
Continuous
100
AcDbLine
 10
456.9047722498153
 20
788.2548035041409
 30
0.0
 11
456.6136561500398
 21
788.545919605599
 31
0.0
  0
LINE
  5
8FCD
330
1F
100
AcDbEntity
  8
SPOJOVACÍ
  6
Continuous
100
AcDbLine
 10
453.2048730300239
 20
787.329828699193
 30
0.0
 11
453.4959891331609
 21
787.0379955628641
 31
0.0
  0
LINE
  5
8FCE
330
1F
100
AcDbEntity
  8
SPOJOVACÍ
  6
Continuous
100
AcDbLine
 10
453.2048730300239
 20
787.329828699193
 30
0.0
 11
453.4959891331609
 21
787.4976148264914
 31
0.0
  0
LINE
  5
8FCF
330
1F
100
AcDbEntity
  8
SPOJOVACÍ
  6
Continuous
100
AcDbLine
 10
453.2048730300239
 20
787.329828699193
 30
0.0
 11
456.9047722498153
 21
788.2548035041409
 31
0.0
  0
LINE
  5
8FD0
330
1F
100
AcDbEntity
  8
SPOJOVACÍ
  6
Continuous
100
AcDbLine
 10
453.4959891331609
 20
789.2453890071274
 30
0.0
 11
456.6136561500398
 21
790.2936937862368
 31
0.0
  0
LINE
  5
8FD1
330
1F
100
AcDbEntity
  8
SPOJOVACÍ
  6
Continuous
100
AcDbLine
 10
453.4959891331609
 20
789.7050082707528
 30
0.0
 11
456.6136561500398
 21
790.7533130498604
 31
0.0
  0
LINE
  5
8FD2
330
1F
100
AcDbEntity
  8
SPOJOVACÍ
  6
Continuous
100
AcDbLine
 10
456.9047722498153
 20
790.4621969484024
 30
0.0
 11
456.6136561500398
 21
790.2936937862368
 31
0.0
  0
LINE
  5
8FD3
330
1F
100
AcDbEntity
  8
SPOJOVACÍ
  6
Continuous
100
AcDbLine
 10
456.9047722498153
 20
790.4621969484024
 30
0.0
 11
456.6136561500398
 21
790.7533130498604
 31
0.0
  0
LINE
  5
8FD4
330
1F
100
AcDbEntity
  8
SPOJOVACÍ
  6
Continuous
100
AcDbLine
 10
453.2048730300239
 20
789.5372221434545
 30
0.0
 11
453.4959891331609
 21
789.2453890071274
 31
0.0
  0
LINE
  5
8FD5
330
1F
100
AcDbEntity
  8
SPOJOVACÍ
  6
Continuous
100
AcDbLine
 10
453.2048730300239
 20
789.5372221434545
 30
0.0
 11
453.4959891331609
 21
789.7050082707528
 31
0.0
  0
LINE
  5
8FD6
330
1F
100
AcDbEntity
  8
SPOJOVACÍ
  6
Continuous
100
AcDbLine
 10
453.2048730300239
 20
789.5372221434545
 30
0.0
 11
456.9047722498153
 21
790.4621969484024
 31
0.0
  0
LINE
  5
8FD7
330
1F
100
AcDbEntity
  8
SPOJOVACÍ
100
AcDbLine
 10
450.6673226399225
 20
777.7261550656503
 30
0.0
 11
459.4423226399166
 21
777.7261550656503
 31
0.0
  0
LINE
  5
8FD8
330
1F
100
AcDbEntity
  8
SPOJOVACÍ
  6
Continuous
100
AcDbLine
 10
453.2048730317046
 20
782.9150418112321
 30
0.0
 11
456.9047722515033
 21
783.84001661618
 31
0.0
  0
LINE
  5
8FD9
330
1F
100
AcDbEntity
  8
SPOJOVACÍ
  6
Continuous
100
AcDbLine
 10
453.2048730317046
 20
782.9150418112321
 30
0.0
 11
453.4959891348417
 21
783.0828279385305
 31
0.0
  0
LINE
  5
8FDA
330
1F
100
AcDbEntity
  8
SPOJOVACÍ
  6
Continuous
100
AcDbLine
 10
453.2048730317046
 20
782.9150418112321
 30
0.0
 11
453.4959891348417
 21
782.623208674905
 31
0.0
  0
LINE
  5
8FDB
330
1F
100
AcDbEntity
  8
SPOJOVACÍ
  6
Continuous
100
AcDbLine
 10
456.9047722515033
 20
783.84001661618
 30
0.0
 11
456.6136561517278
 21
784.1311327176381
 31
0.0
  0
LINE
  5
8FDC
330
1F
100
AcDbEntity
  8
SPOJOVACÍ
  6
Continuous
100
AcDbLine
 10
456.9047722515033
 20
783.84001661618
 30
0.0
 11
456.6136561517278
 21
783.6715134540145
 31
0.0
  0
LINE
  5
8FDD
330
1F
100
AcDbEntity
  8
SPOJOVACÍ
  6
Continuous
100
AcDbLine
 10
453.4959891348417
 20
783.0828279385305
 30
0.0
 11
456.6136561517278
 21
784.1311327176381
 31
0.0
  0
LINE
  5
8FDE
330
1F
100
AcDbEntity
  8
SPOJOVACÍ
  6
Continuous
100
AcDbLine
 10
453.4959891348417
 20
782.623208674905
 30
0.0
 11
456.6136561517278
 21
783.6715134540145
 31
0.0
  0
LINE
  5
8FDF
330
1F
100
AcDbEntity
  8
SPOJOVACÍ
  6
Continuous
100
AcDbLine
 10
456.9047722515033
 20
781.6326231719186
 30
0.0
 11
456.6136561517278
 21
781.9237392733748
 31
0.0
  0
LINE
  5
8FE0
330
1F
100
AcDbEntity
  8
SPOJOVACÍ
  6
Continuous
100
AcDbLine
 10
456.9047722515033
 20
781.6326231719186
 30
0.0
 11
456.6136561517278
 21
781.4641200097512
 31
0.0
  0
LINE
  5
8FE1
330
1F
100
AcDbEntity
  8
SPOJOVACÍ
  6
Continuous
100
AcDbLine
 10
453.2048730317046
 20
785.1224352554955
 30
0.0
 11
453.4959891348417
 21
784.8306021191665
 31
0.0
  0
LINE
  5
8FE2
330
1F
100
AcDbEntity
  8
SPOJOVACÍ
  6
Continuous
100
AcDbLine
 10
453.2048730317046
 20
785.1224352554955
 30
0.0
 11
453.4959891348417
 21
785.2902213827937
 31
0.0
  0
LINE
  5
8FE3
330
1F
100
AcDbEntity
  8
SPOJOVACÍ
  6
DASHDOT2
100
AcDbLine
 10
455.0548226399196
 20
770.356153877271
 30
0.0
 11
455.0548226399196
 21
814.8198947630998
 31
0.0
  0
TEXT
  5
8FE4
330
1F
100
AcDbEntity
  8
POPIS
100
AcDbText
 10
279.0746907835646
 20
905.7934453961161
 30
0.0
 40
35.0
  1
ŘEZ 
 41
0.85
  7
SIMPLEX7
100
AcDbText
  0
LINE
  5
8FE5
330
1F
100
AcDbEntity
  8
POPIS
100
AcDbLine
 10
759.0698342480764
 20
459.1263430352346
 30
0.0
 11
631.1550913546097
 21
459.1263430352328
 31
0.0
  0
TEXT
  5
8FE6
330
1F
100
AcDbEntity
  8
POPIS
100
AcDbText
 10
770.9897565205401
 20
446.3795360840221
 30
0.0
 40
25.0
  1
05
 41
0.85
  7
SIMPLEX7
100
AcDbText
  0
INSERT
  5
8FE7
330
1F
100
AcDbEntity
  8
POPIS
100
AcDbBlockReference
  2
E_PUNKT
 10
586.0103992256854
 20
502.4167362040925
 30
0.0
 41
0.6499999999996362
 42
0.6499999999996362
 43
0.65
 50
270.0
  0
TEXT
  5
8FE8
330
1F
100
AcDbEntity
  8
POPIS
100
AcDbText
 10
770.9897565205401
 20
790.745001129354
 30
0.0
 40
25.0
  1
07
 41
0.85
  7
SIMPLEX7
100
AcDbText
  0
LINE
  5
8FE9
330
1F
100
AcDbEntity
  8
POPIS
100
AcDbLine
 10
759.0698342480764
 20
803.4918080805663
 30
0.0
 11
619.4511518384469
 21
803.4918080805683
 31
0.0
  0
TEXT
  5
8FEA
330
1F
100
AcDbEntity
  8
POPIS
100
AcDbText
 10
770.9897565205401
 20
735.5868700903729
 30
0.0
 40
25.0
  1
03
 41
0.85
  7
SIMPLEX7
100
AcDbText
  0
LINE
  5
8FEB
330
1F
100
AcDbEntity
  8
POPIS
100
AcDbLine
 10
759.0698342480764
 20
748.3336770415853
 30
0.0
 11
704.1665682617685
 21
748.3336770415853
 31
0.0
  0
TEXT
  5
8FEC
330
1F
100
AcDbEntity
  8
POPIS
100
AcDbText
 10
770.9897565205401
 20
690.2148906536813
 30
0.0
 40
25.0
  1
06
 41
0.85
  7
SIMPLEX7
100
AcDbText
  0
LINE
  5
8FED
330
1F
100
AcDbEntity
  8
POPIS
100
AcDbLine
 10
759.0698342480764
 20
702.9616976048937
 30
0.0
 11
704.1665682617685
 21
702.9616976048919
 31
0.0
  0
TEXT
  5
8FEE
330
1F
100
AcDbEntity
  8
POPIS
100
AcDbText
 10
770.9897565205401
 20
633.2774744716362
 30
0.0
 40
25.0
  1
01
 41
0.85
  7
SIMPLEX7
100
AcDbText
  0
LINE
  5
8FEF
330
1F
100
AcDbEntity
  8
POPIS
100
AcDbLine
 10
759.0698342480764
 20
646.0242814228486
 30
0.0
 11
648.0843046554737
 21
646.0242814228486
 31
0.0
  0
TEXT
  5
8FF0
330
1F
100
AcDbEntity
  8
POPIS
100
AcDbText
 10
770.9897565205401
 20
544.0097823827663
 30
0.0
 40
25.0
  1
04
 41
0.85
  7
SIMPLEX7
100
AcDbText
  0
LINE
  5
8FF1
330
1F
100
AcDbEntity
  8
POPIS
100
AcDbLine
 10
759.0698342480764
 20
556.7565893339788
 30
0.0
 11
704.1665682617685
 21
556.7565893339788
 31
0.0
  0
TEXT
  5
8FF2
330
1F
100
AcDbEntity
  8
POPIS
100
AcDbText
 10
770.9897565205401
 20
493.8505939834858
 30
0.0
 40
25.0
  1
02
 41
0.85
  7
SIMPLEX7
100
AcDbText
  0
LINE
  5
8FF3
330
1F
100
AcDbEntity
  8
POPIS
100
AcDbLine
 10
759.0698342480764
 20
506.5974009346982
 30
0.0
 11
648.0843046554737
 21
506.5974009346982
 31
0.0
  0
LINE
  5
8FF4
330
1F
100
AcDbEntity
  8
POPIS
100
AcDbLine
 10
704.1665682617685
 20
556.7565893339788
 30
0.0
 11
586.0292936407504
 21
502.398789459935
 31
0.0
  0
LINE
  5
8FF5
330
1F
100
AcDbEntity
  8
POPIS
100
AcDbLine
 10
704.1665682617685
 20
702.9616976048937
 30
0.0
 11
632.0239321015842
 21
736.671012408181
 31
0.0
  0
LINE
  5
8FF6
330
1F
100
AcDbEntity
  8
POPIS
100
AcDbLine
 10
704.1665682617685
 20
748.3336770415853
 30
0.0
 11
643.5163433406642
 21
779.1151314641438
 31
0.0
  0
INSERT
  5
8FF7
330
1F
100
AcDbEntity
  8
POPIS
100
AcDbBlockReference
  2
E_PUNKT
 10
643.4039919751458
 20
779.176235397067
 30
0.0
 41
0.6499999999996362
 42
0.6499999999996362
 43
0.65
 50
270.0
  0
INSERT
  5
8FF8
330
1F
100
AcDbEntity
  8
POPIS
100
AcDbBlockReference
  2
E_PUNKT
 10
632.0050376865192
 20
736.6889591523386
 30
0.0
 41
0.6499999999996362
 42
0.6499999999996362
 43
0.65
 50
270.0
  0
INSERT
  5
8FF9
330
1F
100
AcDbEntity
  8
POPIS
100
AcDbBlockReference
  2
E_PUNKT
 10
632.207471957875
 20
459.285501341702
 30
0.0
 41
0.6499999999996362
 42
0.6499999999996362
 43
0.65
 50
270.0
  0
HATCH
  5
8FFA
330
1F
100
AcDbEntity
  8
STAVBA OBRYS
100
AcDbHatch
 10
0.0
 20
0.0
 30
0.0
210
0.0
220
0.0
230
1.0
  2
AR-CONC
 70
     0
 71
     0
 91
        2
 92
        7
 72
     0
 73
     1
 93
       14
 10
896.8035212311887
 20
865.82712584007
 10
352.6612251481647
 20
865.82712584007
 10
299.8479884913404
 20
781.6090349901724
 10
452.7632694646609
 20
781.6090349901724
 10
452.7632694646609
 20
811.4188342761035
 10
455.0548226399196
 20
815.0909704975701
 10
457.346375815171
 20
811.4188342760945
 10
457.346375815171
 20
781.6090349901705
 10
617.1595986631882
 20
781.6090349901705
 10
617.1595986631809
 20
811.4188342760998
 10
619.4511518384469
 20
815.0909704975738
 10
621.7427050137057
 20
811.4188342761018
 10
621.7427050136985
 20
781.6090349901705
 10
843.9902845743572
 20
781.6090349901724
 97
        0
 92
       24
 93
        4
 72
     1
 10
764.6075941740209
 20
783.9365086327643
 11
805.4390232326886
 21
783.9365086327643
 72
     1
 10
805.439023232685
 20
783.9365086327643
 11
805.439023232685
 21
822.2294827118922
 72
     1
 10
805.439023232685
 20
822.2294827118922
 11
764.6075941740173
 21
822.2294827118922
 72
     1
 10
764.6075941740209
 20
822.2294827118922
 11
764.6075941740209
 21
783.9365086327643
 97
        0
 75
     0
 76
     1
 52
0.0
 41
0.5
 77
     0
 78
    13
 53
50.0
 43
-30411.98118666884
 44
-9176.804559885313
 45
91.092334498002
 46
-7.969542769451543
 79
     2
 49
9.525
 49
-104.775
 53
355.0
 43
-30411.98118666884
 44
-9176.804559885313
 45
-17.62141298783349
 46
95.52832144108998
 79
     2
 49
7.62
 49
-83.81999999999999
 53
100.451
 43
-30404.39018666884
 44
-9177.468684885312
 45
73.47125083297962
 46
87.55834391014593
 79
     2
 49
8.095
 49
-89.045
 53
46.1842
 43
-30411.98118666884
 44
-9151.404559885312
 45
135.5395204460649
 46
-21.02116396636357
 79
     2
 49
14.28749999999999
 49
-157.1625
 53
96.63559999999998
 43
-30400.68623666885
 44
-9153.156309885311
 45
118.7021172331185
 46
123.7127779450246
 79
     2
 49
12.14249999999998
 49
-133.5674999999997
 53
351.184
 43
-30411.98118666884
 44
-9151.404559885312
 45
118.7023029069669
 46
123.7125589302988
 79
     2
 49
11.43
 49
-125.73
 53
21.0
 43
-30399.28118666884
 44
-9157.754559885313
 45
75.80743991769164
 46
-51.13275925838125
 79
     2
 49
9.525
 49
-104.775
 53
326.0
 43
-30399.28118666884
 44
-9157.754559885313
 45
30.90101417382353
 46
92.09398306115962
 79
     2
 49
7.62
 49
-83.81999999999999
 53
71.45140000000001
 43
-30392.96393666884
 44
-9162.015609885312
 45
106.7082453850622
 46
40.96142885802872
 79
     2
 49
8.095
 49
-89.045
 53
37.5
 43
-30411.98118666884
 44
-9176.804559885313
 45
1.544301625295908
 46
42.27751943657655
 79
     6
 49
0.0
 49
-82.804
 49
0.0
 49
-85.09
 49
0.0
 49
-84.1375
 53
7.499999999999999
 43
-30411.98118666884
 44
-9176.804559885313
 45
33.40983125515287
 46
50.09028740905975
 79
     6
 49
0.0
 49
-48.51399999999999
 49
0.0
 49
-80.899
 49
0.0
 49
-32.0675
 53
327.4999999999999
 43
-30440.30218666884
 44
-9176.804559885313
 45
67.79529758343568
 46
-2.864371996336732
 79
     6
 49
0.0
 49
-31.75
 49
0.0
 49
-99.06
 49
0.0
 49
-131.4449999999999
 53
317.5
 43
-30453.00218666884
 44
-9176.804559885313
 45
74.06459069300902
 46
12.7132455166665
 79
     6
 49
0.0
 49
-41.275
 49
0.0
 49
-65.786
 49
0.0
 49
-93.345
 47
0.8063339469046228
 98
        1
 10
738.3777804407081
 20
819.3251924869482
  0
ENDSEC
  0
SECTION
  2
OBJECTS
  0
DICTIONARY
  5
C
330
0
100
AcDbDictionary
281
     1
  3
ACAD_GROUP
350
D
  3
ACAD_LAYOUT
350
1A
  3
ACAD_MLINESTYLE
350
17
  3
ACAD_PLOTSETTINGS
350
19
  3
ACAD_PLOTSTYLENAME
350
E
  3
AcDbVariableDictionary
350
9007
  0
DICTIONARY
  5
D
102
{ACAD_REACTORS
330
C
102
}
330
C
100
AcDbDictionary
281
     1
  0
DICTIONARY
  5
1A
102
{ACAD_REACTORS
330
C
102
}
330
C
100
AcDbDictionary
281
     1
  3
Model
350
22
  3
Rozvržení1
350
1E
  3
Rozvržení2
350
26
  0
DICTIONARY
  5
17
102
{ACAD_REACTORS
330
C
102
}
330
C
100
AcDbDictionary
281
     1
  3
Standard
350
18
  0
DICTIONARY
  5
19
102
{ACAD_REACTORS
330
C
102
}
330
C
100
AcDbDictionary
281
     1
  0
ACDBDICTIONARYWDFLT
  5
E
102
{ACAD_REACTORS
330
C
102
}
330
C
100
AcDbDictionary
281
     1
  3
Normal
350
F
100
AcDbDictionaryWithDefault
340
F
  0
DICTIONARY
  5
9007
102
{ACAD_REACTORS
330
C
102
}
330
C
100
AcDbDictionary
281
     1
  3
DIMASSOC
350
9008
  0
LAYOUT
  5
22
102
{ACAD_REACTORS
330
1A
102
}
330
1A
100
AcDbPlotSettings
  1

  2
HP DeskJet 690C
  4

  6

 40
0.0
 41
0.0
 42
0.0
 43
0.0
 44
0.0
 45
0.0
 46
0.0
 47
0.0
 48
0.0
 49
0.0
140
0.0
141
0.0
142
1.0
143
1.0
 70
  1712
 72
     0
 73
     0
 74
     0
  7
monochrome.ctb
 75
     0
147
1.0
148
0.0
149
0.0
100
AcDbLayout
  1
Model
 70
     1
 71
     0
 10
0.0
 20
0.0
 11
12.0
 21
9.0
 12
0.0
 22
0.0
 32
0.0
 14
0.0
 24
0.0
 34
0.0
 15
0.0
 25
0.0
 35
0.0
146
0.0
 13
0.0
 23
0.0
 33
0.0
 16
1.0
 26
0.0
 36
0.0
 17
0.0
 27
1.0
 37
0.0
 76
     0
330
1F
  0
LAYOUT
  5
1E
102
{ACAD_REACTORS
330
1A
102
}
330
1A
100
AcDbPlotSettings
  1

  2
HP DeskJet 690C
  4

  6

 40
0.0
 41
0.0
 42
0.0
 43
0.0
 44
0.0
 45
0.0
 46
0.0
 47
0.0
 48
0.0
 49
0.0
140
0.0
141
0.0
142
1.0
143
1.0
 70
   688
 72
     0
 73
     0
 74
     5
  7
monochrome.ctb
 75
    16
147
1.0
148
0.0
149
0.0
100
AcDbLayout
  1
Rozvržení1
 70
     1
 71
     1
 10
0.0
 20
0.0
 11
420.0
 21
297.0
 12
0.0
 22
0.0
 32
0.0
 14
1.000000000000000E+20
 24
1.000000000000000E+20
 34
1.000000000000000E+20
 15
-1.000000000000000E+20
 25
-1.000000000000000E+20
 35
-1.000000000000000E+20
146
0.0
 13
0.0
 23
0.0
 33
0.0
 16
1.0
 26
0.0
 36
0.0
 17
0.0
 27
1.0
 37
0.0
 76
     0
330
1B
  0
LAYOUT
  5
26
102
{ACAD_REACTORS
330
1A
102
}
330
1A
100
AcDbPlotSettings
  1

  2
HP DeskJet 690C
  4

  6

 40
0.0
 41
0.0
 42
0.0
 43
0.0
 44
0.0
 45
0.0
 46
0.0
 47
0.0
 48
0.0
 49
0.0
140
0.0
141
0.0
142
1.0
143
1.0
 70
   688
 72
     0
 73
     0
 74
     5
  7
monochrome.ctb
 75
    16
147
1.0
148
0.0
149
0.0
100
AcDbLayout
  1
Rozvržení2
 70
     1
 71
     2
 10
0.0
 20
0.0
 11
12.0
 21
9.0
 12
0.0
 22
0.0
 32
0.0
 14
0.0
 24
0.0
 34
0.0
 15
0.0
 25
0.0
 35
0.0
146
0.0
 13
0.0
 23
0.0
 33
0.0
 16
1.0
 26
0.0
 36
0.0
 17
0.0
 27
1.0
 37
0.0
 76
     0
330
23
  0
MLINESTYLE
  5
18
102
{ACAD_REACTORS
330
17
102
}
330
17
100
AcDbMlineStyle
  2
STANDARD
 70
     0
  3

 62
   256
 51
90.0
 52
90.0
 71
     2
 49
0.5
 62
   256
  6
BYLAYER
 49
-0.5
 62
   256
  6
BYLAYER
  0
ACDBPLACEHOLDER
  5
F
102
{ACAD_REACTORS
330
E
102
}
330
E
  0
DICTIONARYVAR
  5
9008
102
{ACAD_REACTORS
330
9007
102
}
330
9007
100
DictionaryVariables
280
     0
  1
1
  0
ENDSEC
  0
EOF
