  0
SECTION
  2
HEADER
  9
$ACADVER
  1
AC1015
  9
$ACADMAINTVER
 70
    14
  9
$DWGCODEPAGE
  3
ANSI_1250
  9
$INSBASE
 10
0.0
 20
0.0
 30
0.0
  9
$EXTMIN
 10
265.0600671523161
 20
397.3636630484779
 30
0.0
  9
$EXTMAX
 10
1666.939375536032
 20
1179.059982746255
 30
0.0
  9
$LIMMIN
 10
0.0
 20
0.0
  9
$LIMMAX
 10
420.0
 20
297.0
  9
$ORTHOMODE
 70
     1
  9
$REGENMODE
 70
     1
  9
$FILLMODE
 70
     1
  9
$QTEXTMODE
 70
     0
  9
$MIRRTEXT
 70
     1
  9
$LTSCALE
 40
1.0
  9
$ATTMODE
 70
     1
  9
$TEXTSIZE
 40
2.5
  9
$TRACEWID
 40
1.0
  9
$TEXTSTYLE
  7
Standard
  9
$CLAYER
  8
0
  9
$CELTYPE
  6
ByLayer
  9
$CECOLOR
 62
   256
  9
$CELTSCALE
 40
1.0
  9
$DISPSILH
 70
     0
  9
$DIMSCALE
 40
1.0
  9
$DIMASZ
 40
2.5
  9
$DIMEXO
 40
0.625
  9
$DIMDLI
 40
3.75
  9
$DIMRND
 40
0.0
  9
$DIMDLE
 40
0.0
  9
$DIMEXE
 40
1.25
  9
$DIMTP
 40
0.0
  9
$DIMTM
 40
0.0
  9
$DIMTXT
 40
2.5
  9
$DIMCEN
 40
2.5
  9
$DIMTSZ
 40
0.0
  9
$DIMTOL
 70
     0
  9
$DIMLIM
 70
     0
  9
$DIMTIH
 70
     0
  9
$DIMTOH
 70
     0
  9
$DIMSE1
 70
     0
  9
$DIMSE2
 70
     0
  9
$DIMTAD
 70
     1
  9
$DIMZIN
 70
     8
  9
$DIMBLK
  1

  9
$DIMASO
 70
     1
  9
$DIMSHO
 70
     1
  9
$DIMPOST
  1

  9
$DIMAPOST
  1

  9
$DIMALT
 70
     0
  9
$DIMALTD
 70
     3
  9
$DIMALTF
 40
0.03937007874016
  9
$DIMLFAC
 40
1.0
  9
$DIMTOFL
 70
     1
  9
$DIMTVP
 40
0.0
  9
$DIMTIX
 70
     0
  9
$DIMSOXD
 70
     0
  9
$DIMSAH
 70
     0
  9
$DIMBLK1
  1

  9
$DIMBLK2
  1

  9
$DIMSTYLE
  2
ISO-25
  9
$DIMCLRD
 70
     0
  9
$DIMCLRE
 70
     0
  9
$DIMCLRT
 70
     0
  9
$DIMTFAC
 40
1.0
  9
$DIMGAP
 40
0.625
  9
$DIMJUST
 70
     0
  9
$DIMSD1
 70
     0
  9
$DIMSD2
 70
     0
  9
$DIMTOLJ
 70
     0
  9
$DIMTZIN
 70
     8
  9
$DIMALTZ
 70
     0
  9
$DIMALTTZ
 70
     0
  9
$DIMUPT
 70
     0
  9
$DIMDEC
 70
     2
  9
$DIMTDEC
 70
     2
  9
$DIMALTU
 70
     2
  9
$DIMALTTD
 70
     3
  9
$DIMTXSTY
  7
Standard
  9
$DIMAUNIT
 70
     0
  9
$DIMADEC
 70
     0
  9
$DIMALTRND
 40
0.0
  9
$DIMAZIN
 70
     0
  9
$DIMDSEP
 70
    44
  9
$DIMATFIT
 70
     3
  9
$DIMFRAC
 70
     0
  9
$DIMLDRBLK
  1

  9
$DIMLUNIT
 70
     2
  9
$DIMLWD
 70
    -2
  9
$DIMLWE
 70
    -2
  9
$DIMTMOVE
 70
     0
  9
$LUNITS
 70
     2
  9
$LUPREC
 70
     4
  9
$SKETCHINC
 40
1.0
  9
$FILLETRAD
 40
10.0
  9
$AUNITS
 70
     0
  9
$AUPREC
 70
     0
  9
$MENU
  1
.
  9
$ELEVATION
 40
0.0
  9
$PELEVATION
 40
0.0
  9
$THICKNESS
 40
0.0
  9
$LIMCHECK
 70
     0
  9
$CHAMFERA
 40
10.0
  9
$CHAMFERB
 40
10.0
  9
$CHAMFERC
 40
20.0
  9
$CHAMFERD
 40
0.0
  9
$SKPOLY
 70
     0
  9
$TDCREATE
 40
2452332.512107639
  9
$TDUCREATE
 40
2452332.470440972
  9
$TDUPDATE
 40
2455601.403781678
  9
$TDUUPDATE
 40
2455601.362115011
  9
$TDINDWG
 40
0.0424841435
  9
$TDUSRTIMER
 40
0.0424702546
  9
$USRTIMER
 70
     1
  9
$ANGBASE
 50
0.0
  9
$ANGDIR
 70
     0
  9
$PDMODE
 70
     0
  9
$PDSIZE
 40
0.0
  9
$PLINEWID
 40
0.0
  9
$SPLFRAME
 70
     0
  9
$SPLINETYPE
 70
     6
  9
$SPLINESEGS
 70
     8
  9
$HANDSEED
  5
88BB
  9
$SURFTAB1
 70
     6
  9
$SURFTAB2
 70
     6
  9
$SURFTYPE
 70
     6
  9
$SURFU
 70
     6
  9
$SURFV
 70
     6
  9
$UCSBASE
  2

  9
$UCSNAME
  2

  9
$UCSORG
 10
0.0
 20
0.0
 30
0.0
  9
$UCSXDIR
 10
1.0
 20
0.0
 30
0.0
  9
$UCSYDIR
 10
0.0
 20
1.0
 30
0.0
  9
$UCSORTHOREF
  2

  9
$UCSORTHOVIEW
 70
     0
  9
$UCSORGTOP
 10
0.0
 20
0.0
 30
0.0
  9
$UCSORGBOTTOM
 10
0.0
 20
0.0
 30
0.0
  9
$UCSORGLEFT
 10
0.0
 20
0.0
 30
0.0
  9
$UCSORGRIGHT
 10
0.0
 20
0.0
 30
0.0
  9
$UCSORGFRONT
 10
0.0
 20
0.0
 30
0.0
  9
$UCSORGBACK
 10
0.0
 20
0.0
 30
0.0
  9
$PUCSBASE
  2

  9
$PUCSNAME
  2

  9
$PUCSORG
 10
0.0
 20
0.0
 30
0.0
  9
$PUCSXDIR
 10
1.0
 20
0.0
 30
0.0
  9
$PUCSYDIR
 10
0.0
 20
1.0
 30
0.0
  9
$PUCSORTHOREF
  2

  9
$PUCSORTHOVIEW
 70
     0
  9
$PUCSORGTOP
 10
0.0
 20
0.0
 30
0.0
  9
$PUCSORGBOTTOM
 10
0.0
 20
0.0
 30
0.0
  9
$PUCSORGLEFT
 10
0.0
 20
0.0
 30
0.0
  9
$PUCSORGRIGHT
 10
0.0
 20
0.0
 30
0.0
  9
$PUCSORGFRONT
 10
0.0
 20
0.0
 30
0.0
  9
$PUCSORGBACK
 10
0.0
 20
0.0
 30
0.0
  9
$USERI1
 70
     0
  9
$USERI2
 70
     0
  9
$USERI3
 70
     0
  9
$USERI4
 70
     0
  9
$USERI5
 70
     0
  9
$USERR1
 40
0.0
  9
$USERR2
 40
0.0
  9
$USERR3
 40
0.0
  9
$USERR4
 40
0.0
  9
$USERR5
 40
0.0
  9
$WORLDVIEW
 70
     1
  9
$SHADEDGE
 70
     3
  9
$SHADEDIF
 70
    70
  9
$TILEMODE
 70
     1
  9
$MAXACTVP
 70
    48
  9
$PINSBASE
 10
0.0
 20
0.0
 30
0.0
  9
$PLIMCHECK
 70
     0
  9
$PEXTMIN
 10
1.000000000000000E+20
 20
1.000000000000000E+20
 30
1.000000000000000E+20
  9
$PEXTMAX
 10
-1.000000000000000E+20
 20
-1.000000000000000E+20
 30
-1.000000000000000E+20
  9
$PLIMMIN
 10
0.0
 20
0.0
  9
$PLIMMAX
 10
420.0
 20
297.0
  9
$UNITMODE
 70
     0
  9
$VISRETAIN
 70
     1
  9
$PLINEGEN
 70
     0
  9
$PSLTSCALE
 70
     1
  9
$TREEDEPTH
 70
  3020
  9
$CMLSTYLE
  2
Standard
  9
$CMLJUST
 70
     0
  9
$CMLSCALE
 40
20.0
  9
$PROXYGRAPHICS
 70
     1
  9
$MEASUREMENT
 70
     1
  9
$CELWEIGHT
370
    -1
  9
$ENDCAPS
280
     0
  9
$JOINSTYLE
280
     0
  9
$LWDISPLAY
290
     0
  9
$INSUNITS
 70
     4
  9
$HYPERLINKBASE
  1

  9
$STYLESHEET
  1

  9
$XEDIT
290
     1
  9
$CEPSNTYPE
380
     0
  9
$PSTYLEMODE
290
     1
  9
$FINGERPRINTGUID
  2
{D99C744E-04C5-44F1-9703-862C59725F9B}
  9
$VERSIONGUID
  2
{2AAF25B8-EED6-4190-8435-3ED173894558}
  9
$EXTNAMES
290
     1
  9
$PSVPSCALE
 40
0.0
  9
$OLESTARTUP
290
     0
  0
ENDSEC
  0
SECTION
  2
CLASSES
  0
CLASS
  1
ACDBDICTIONARYWDFLT
  2
AcDbDictionaryWithDefault
  3
AutoCAD 2000
 90
        0
280
     0
281
     0
  0
CLASS
  1
ACDBPLACEHOLDER
  2
AcDbPlaceHolder
  3
AutoCAD 2000
 90
        0
280
     0
281
     0
  0
CLASS
  1
LAYOUT
  2
AcDbLayout
  3
AutoCAD 2000
 90
        0
280
     0
281
     0
  0
CLASS
  1
LONG_TRANSACTION
  2
AcDbLongTransaction
  3
AutoCAD 2000
 90
    32768
280
     0
281
     0
  0
CLASS
  1
LWPOLYLINE
  2
AcDbPolyline
  3
AutoCAD 2000
 90
    32768
280
     0
281
     1
  0
CLASS
  1
HATCH
  2
AcDbHatch
  3
AutoCAD 2000
 90
    32768
280
     0
281
     1
  0
CLASS
  1
XRECORD
  2
AcDbXrecord
  3
AutoCAD 2000
 90
    32768
280
     0
281
     0
  0
CLASS
  1
DICTIONARYVAR
  2
AcDbDictionaryVar
  3
AutoCAD 2000
 90
        0
280
     0
281
     0
  0
ENDSEC
  0
SECTION
  2
TABLES
  0
TABLE
  2
VPORT
  5
8
330
0
100
AcDbSymbolTable
 70
     2
  0
VPORT
  5
88BA
330
8
100
AcDbSymbolTableRecord
100
AcDbViewportTableRecord
  2
*Active
 70
     0
 10
0.0
 20
0.0
 11
1.0
 21
1.0
 12
886.8811029287742
 22
763.3043067429756
 13
0.0
 23
0.0
 14
10.0
 24
10.0
 15
10.0
 25
10.0
 16
0.0
 26
0.0
 36
1.0
 17
0.0
 27
0.0
 37
0.0
 40
935.0668678027115
 41
2.031862745098039
 42
50.0
 43
0.0
 44
0.0
 50
0.0
 51
0.0
 71
     0
 72
   100
 73
     1
 74
     3
 75
     0
 76
     0
 77
     0
 78
     0
281
     0
 65
     1
110
0.0
120
0.0
130
0.0
111
1.0
121
0.0
131
0.0
112
0.0
122
1.0
132
0.0
 79
     0
146
0.0
  0
ENDTAB
  0
TABLE
  2
LTYPE
  5
5
330
0
100
AcDbSymbolTable
 70
     1
  0
LTYPE
  5
14
330
5
100
AcDbSymbolTableRecord
100
AcDbLinetypeTableRecord
  2
ByBlock
 70
     0
  3

 72
    65
 73
     0
 40
0.0
  0
LTYPE
  5
15
330
5
100
AcDbSymbolTableRecord
100
AcDbLinetypeTableRecord
  2
ByLayer
 70
     0
  3

 72
    65
 73
     0
 40
0.0
  0
LTYPE
  5
16
330
5
100
AcDbSymbolTableRecord
100
AcDbLinetypeTableRecord
  2
Continuous
 70
     0
  3
Solid line
 72
    65
 73
     0
 40
0.0
  0
ENDTAB
  0
TABLE
  2
LAYER
  5
2
330
0
100
AcDbSymbolTable
 70
     6
  0
LAYER
  5
10
330
2
100
AcDbSymbolTableRecord
100
AcDbLayerTableRecord
  2
0
 70
     0
 62
     7
  6
Continuous
370
    -3
390
F
  0
LAYER
  5
3405
330
2
100
AcDbSymbolTableRecord
100
AcDbLayerTableRecord
  2
POPIS
 70
     0
 62
    30
  6
Continuous
370
    -3
390
F
  0
LAYER
  5
3406
330
2
100
AcDbSymbolTableRecord
100
AcDbLayerTableRecord
  2
SPOJOVACÍ
 70
     0
 62
   180
  6
Continuous
370
    -3
390
F
  0
LAYER
  5
3407
330
2
100
AcDbSymbolTableRecord
100
AcDbLayerTableRecord
  2
CETRIS
 70
     0
 62
     1
  6
Continuous
370
    -3
390
F
  0
LAYER
  5
3408
330
2
100
AcDbSymbolTableRecord
100
AcDbLayerTableRecord
  2
izolace
 70
     0
 62
    73
  6
Continuous
370
    -3
390
F
  0
LAYER
  5
3409
330
2
100
AcDbSymbolTableRecord
100
AcDbLayerTableRecord
  2
STAVBA OBRYS
 70
     0
 62
     6
  6
Continuous
370
    -3
390
F
  0
ENDTAB
  0
TABLE
  2
STYLE
  5
3
330
0
100
AcDbSymbolTable
 70
     2
  0
STYLE
  5
11
330
3
100
AcDbSymbolTableRecord
100
AcDbTextStyleTableRecord
  2
Standard
 70
     0
 40
0.0
 41
1.0
 50
0.0
 71
     0
 42
2.5
  3
txt
  4

  0
STYLE
  5
340A
330
3
100
AcDbSymbolTableRecord
100
AcDbTextStyleTableRecord
  2
SIMPLEX7
 70
     0
 40
0.0
 41
0.85
 50
0.0
 71
     0
 42
102.0
  3
ARIAL.TTF
  4

1001
ACAD
1000
Arial CE
1071
    60962
  0
ENDTAB
  0
TABLE
  2
VIEW
  5
6
330
0
100
AcDbSymbolTable
 70
     0
  0
ENDTAB
  0
TABLE
  2
UCS
  5
7
330
0
100
AcDbSymbolTable
 70
     0
  0
ENDTAB
  0
TABLE
  2
APPID
  5
9
330
0
100
AcDbSymbolTable
 70
     1
  0
APPID
  5
12
330
9
100
AcDbSymbolTableRecord
100
AcDbRegAppTableRecord
  2
ACAD
 70
     0
  0
ENDTAB
  0
TABLE
  2
DIMSTYLE
  5
A
330
0
100
AcDbSymbolTable
 70
     1
100
AcDbDimStyleTable
 71
     0
  0
DIMSTYLE
105
27
330
A
100
AcDbSymbolTableRecord
100
AcDbDimStyleTableRecord
  2
ISO-25
 70
     0
 41
2.5
 42
0.625
 43
3.75
 44
1.25
 73
     0
 74
     0
 77
     1
 78
     8
140
2.5
141
2.5
143
0.03937007874016
147
0.625
171
     3
172
     1
271
     2
272
     2
274
     3
278
    44
283
     0
284
     8
340
11
  0
ENDTAB
  0
TABLE
  2
BLOCK_RECORD
  5
1
330
0
100
AcDbSymbolTable
 70
     2
  0
BLOCK_RECORD
  5
1F
102
{ACAD_XDICTIONARY
360
886A
102
}
330
1
100
AcDbSymbolTableRecord
100
AcDbBlockTableRecord
  2
*Model_Space
340
22
  0
BLOCK_RECORD
  5
1B
102
{ACAD_XDICTIONARY
360
886C
102
}
330
1
100
AcDbSymbolTableRecord
100
AcDbBlockTableRecord
  2
*Paper_Space
340
1E
  0
BLOCK_RECORD
  5
23
102
{ACAD_XDICTIONARY
360
886E
102
}
330
1
100
AcDbSymbolTableRecord
100
AcDbBlockTableRecord
  2
*Paper_Space0
340
26
  0
BLOCK_RECORD
  5
33FA
330
1
100
AcDbSymbolTableRecord
100
AcDbBlockTableRecord
  2
E_PUNKT
340
0
102
{BLKREFS
331
84FD
331
8501
331
8505
331
8508
331
850B
331
8510
102
}
  0
ENDTAB
  0
ENDSEC
  0
SECTION
  2
BLOCKS
  0
BLOCK
  5
20
330
1F
100
AcDbEntity
  8
0
100
AcDbBlockBegin
  2
*Model_Space
 70
     0
 10
0.0
 20
0.0
 30
0.0
  3
*Model_Space
  1

  0
ENDBLK
  5
21
330
1F
100
AcDbEntity
  8
0
100
AcDbBlockEnd
  0
BLOCK
  5
1C
330
1B
100
AcDbEntity
 67
     1
  8
0
100
AcDbBlockBegin
  2
*Paper_Space
 70
     0
 10
0.0
 20
0.0
 30
0.0
  3
*Paper_Space
  1

  0
ENDBLK
  5
1D
330
1B
100
AcDbEntity
 67
     1
  8
0
100
AcDbBlockEnd
  0
BLOCK
  5
24
330
23
100
AcDbEntity
  8
0
100
AcDbBlockBegin
  2
*Paper_Space0
 70
     0
 10
0.0
 20
0.0
 30
0.0
  3
*Paper_Space0
  1

  0
ENDBLK
  5
25
330
23
100
AcDbEntity
  8
0
100
AcDbBlockEnd
  0
BLOCK
  5
33FC
330
33FA
100
AcDbEntity
  8
0
100
AcDbBlockBegin
  2
E_PUNKT
 70
     0
 10
0.0
 20
0.0
 30
0.0
  3
E_PUNKT
  1

  0
LWPOLYLINE
  5
33FB
330
33FA
100
AcDbEntity
  8
POPIS
100
AcDbPolyline
 90
        2
 70
     1
 43
2.5
 10
1.27761037562675
 20
0.0290683308725193
 42
-1.0
 10
-1.222389624373249
 20
0.0290683308725193
 42
-1.0
  0
ENDBLK
  5
33FD
330
33FA
100
AcDbEntity
  8
0
100
AcDbBlockEnd
  0
ENDSEC
  0
SECTION
  2
ENTITIES
  0
HATCH
  5
84F7
330
1F
100
AcDbEntity
  8
CETRIS
100
AcDbHatch
 10
0.0
 20
0.0
 30
0.0
210
0.0
220
0.0
230
1.0
  2
ANSI31
 70
     0
 71
     0
 91
        3
 92
        7
 72
     0
 73
     1
 93
      112
 10
426.1309980252217
 20
848.5833049901893
 10
419.5324856796387
 20
848.5833049901893
 10
419.5324856796387
 20
846.5751247868947
 10
420.205002778067
 20
846.801256341193
 10
420.5826541533779
 20
846.4236049680685
 10
420.2050027780597
 20
846.2050136560437
 10
419.5324856796459
 20
845.9788821017928
 10
419.5324856796387
 20
843.455315167931
 10
420.205002778067
 20
843.6814467222312
 10
420.5826541533779
 20
843.3028651731264
 10
420.2050027780741
 20
843.0852040370782
 10
419.5324856796387
 20
842.8590724827781
 10
419.5324856796387
 20
841.6183168071501
 10
419.3816183633052
 20
840.4123153372065
 10
419.9501346106726
 20
840.603495013941
 10
420.3287161589496
 20
840.2258436408111
 10
419.9501346106581
 20
840.0072523287809
 10
419.3041827120059
 20
839.7900327229354
 10
419.0134560002725
 20
837.4642190392396
 10
419.3864480775328
 20
837.5897254356177
 10
419.7640994528582
 20
837.2111438865186
 10
419.3864480775473
 20
836.9934827504648
 10
418.9354101244125
 20
836.841715054691
 10
418.6708416712454
 20
834.7260153823945
 10
419.1994827423796
 20
834.1973743081972
 10
418.5587446226373
 20
833.826503719526
 10
418.1828006004534
 20
830.8180456422443
 10
417.8295540696153
 20
833.6449450216669
 10
417.4228469718682
 20
833.5081140435931
 10
417.0451956009156
 20
833.8866955924196
 10
417.4228469718682
 20
834.1043567287407
 10
417.7575849507292
 20
834.2169746921364
 10
417.4904982260295
 20
836.3555232655317
 10
417.025661907358
 20
836.1991126209149
 10
416.6480105364199
 20
836.5776941697449
 10
417.0256619073797
 20
836.7953553057951
 10
417.4188652531984
 20
836.9276624993954
 10
417.1516659344296
 20
839.0661880419767
 10
416.5810378771594
 20
838.8742982094017
 10
416.203386506214
 20
839.25287975851
 10
416.5810378771666
 20
839.4705408945583
 10
417.0798043411513
 20
839.6382652327655
 10
416.7932839655213
 20
841.938025356093
 10
416.1605984184744
 20
841.725287023536
 10
415.782947047529
 20
842.1029383966624
 10
416.1605984184888
 20
842.3215297086926
 10
416.8331155168953
 20
842.5476612629873
 10
416.8331155169026
 20
845.0712281970272
 10
416.1605984184744
 20
844.8450966427744
 10
415.782947047529
 20
845.2236781916081
 10
416.1605984184744
 20
845.4413393276508
 10
416.8331155169098
 20
845.6674708819528
 10
416.8331155169026
 20
848.1910378159982
 10
416.1605984184816
 20
847.9649062617454
 10
415.5437191006304
 20
848.5833049901893
 10
410.1309980252217
 20
848.5833049901893
 10
410.1309980252217
 20
473.8475653967225
 10
415.5437191006376
 20
473.8475653967225
 10
416.1605984184744
 20
474.4659641251683
 10
416.8331155169098
 20
474.2398325709173
 10
416.8331155168953
 20
476.7633995049627
 10
416.1605984184816
 20
476.9895310592537
 10
415.7829470475362
 20
477.2071921953075
 10
416.1605984184744
 20
477.5857737441374
 10
416.8331155168953
 20
477.3596421898864
 10
416.8331155169026
 20
479.8832091239228
 10
416.1605984184598
 20
480.1093406782229
 10
415.782947047529
 20
480.3279319902458
 10
416.1605984184816
 20
480.7055833633794
 10
416.7932839655213
 20
480.4928450308207
 10
417.0798043411442
 20
482.7926051541462
 10
416.5810378771738
 20
482.9603294923572
 10
416.2033865062212
 20
483.1779906284037
 10
416.5810378771594
 20
483.5565721775101
 10
417.1516659344296
 20
483.3646823449371
 10
417.4188652531984
 20
485.5032078875146
 10
417.0256619073724
 20
485.6355150811168
 10
416.6480105364199
 20
485.8531762171687
 10
417.0256619073724
 20
486.231757765995
 10
417.4904982260295
 20
486.0753471213802
 10
417.7575849507365
 20
488.2138956947774
 10
417.4228469718754
 20
488.3265136581676
 10
417.0451956009229
 20
488.5441747944906
 10
417.4228469718754
 20
488.9227563433223
 10
417.8295540696226
 20
488.7859253652432
 10
418.1828006004534
 20
491.6128247446749
 10
418.5587446226518
 20
488.6043666673822
 10
419.1994827423723
 20
488.233496078713
 10
418.6708416712381
 20
487.704855004521
 10
418.9354101244125
 20
485.5891553322171
 10
419.3864480775328
 20
485.4373876364416
 10
419.764099452851
 20
485.2197265003951
 10
419.3864480775401
 20
484.8411449512886
 10
419.0134560002652
 20
484.9666513476704
 10
419.3041827119986
 20
482.6408376639711
 10
419.9501346106798
 20
482.4236180581201
 10
420.3287161589641
 20
482.2050267460972
 10
419.9501346106726
 20
481.8273753729709
 10
419.3816183633052
 20
482.0185550496999
 10
419.5324856796387
 20
480.8125535797053
 10
419.5324856796459
 20
479.5717979041373
 10
420.2050027780741
 20
479.3456663498337
 10
420.5826541533779
 20
479.1280052137872
 10
420.205002778067
 20
478.7494236646771
 10
419.5324856796387
 20
478.9755552189753
 10
419.5324856796315
 20
476.4519882851191
 10
420.2050027780741
 20
476.2258567308663
 10
420.5826541533779
 20
476.007265418847
 10
420.205002778067
 20
475.6296140457171
 10
419.5324856796387
 20
475.8557456000207
 10
419.5324856796387
 20
473.8475653967225
 10
426.1309980252145
 20
473.8475653967206
 97
        0
 92
        7
 72
     0
 73
     1
 93
       58
 10
746.0545616421905
 20
848.5833049901893
 10
740.6418405667746
 20
848.5833049901893
 10
740.0249612489451
 20
847.9649062617436
 10
739.3524441505169
 20
848.191037816
 10
739.3524441505169
 20
845.6674708819509
 10
740.0249612489306
 20
845.4413393276546
 10
740.4026126198832
 20
845.2236781916043
 10
740.0249612489378
 20
844.8450966427726
 10
739.3524441505096
 20
845.0712281970272
 10
739.3524441505023
 20
842.5476612629909
 10
740.0249612489378
 20
842.3215297086981
 10
740.4026126198832
 20
842.1029383966624
 10
740.0249612489378
 20
841.725287023536
 10
739.3922757018908
 20
841.9380253560948
 10
739.1057553262608
 20
839.6382652327638
 10
739.6045217902456
 20
839.4705408945638
 10
739.9821731611982
 20
839.2528797585065
 10
739.6045217902601
 20
838.8742982094017
 10
739.033893732997
 20
839.0661880419767
 10
738.766694414221
 20
836.9276624993972
 10
739.1598977600324
 20
836.7953553057914
 10
739.5375491309923
 20
836.5776941697449
 10
739.159897760047
 20
836.1991126209149
 10
738.6950614413827
 20
836.3555232655334
 10
738.4279747166901
 20
834.2169746921344
 10
738.7627126955512
 20
834.1043567287425
 10
739.1403640664893
 20
833.8866955924196
 10
738.762712695544
 20
833.5081140435931
 10
738.3560055977823
 20
833.6449450216724
 10
738.0027590669588
 20
830.8180456422478
 10
737.6268150447749
 20
833.8265037195279
 10
736.9860769250326
 20
834.1973743081952
 10
737.5147179961741
 20
834.7260153823981
 10
737.2501495429997
 20
836.8417150546948
 10
736.7991115898794
 20
836.9934827504593
 10
736.4214602145612
 20
837.2111438865148
 10
736.7991115898721
 20
837.5897254356232
 10
737.1721036671324
 20
837.4642190392432
 10
736.8813769554135
 20
839.7900327229354
 10
736.2354250567323
 20
840.0072523287917
 10
735.8568435084553
 20
840.2258436408128
 10
736.2354250567323
 20
840.6034950139392
 10
736.8039413040996
 20
840.4123153372047
 10
736.6530739877662
 20
841.6183168071594
 10
736.6530739877735
 20
842.8590724827799
 10
735.9805568893671
 20
843.0852040370691
 10
735.6029055140343
 20
843.3028651731284
 10
735.9805568893452
 20
843.6814467222347
 10
736.6530739877735
 20
843.4553151679365
 10
736.6530739877662
 20
845.9788821017928
 10
735.9805568893525
 20
846.2050136560437
 10
735.6029055140343
 20
846.4236049680648
 10
735.980556889338
 20
846.8012563411948
 10
736.6530739877735
 20
846.5751247868965
 10
736.6530739877735
 20
848.5833049901893
 10
730.0545616421832
 20
848.5833049901893
 10
730.0545616421832
 20
775.086738662886
 10
746.0545616421905
 20
775.086738662886
 97
        0
 92
        7
 72
     1
 73
     1
 93
       64
 10
746.0545616421905
 20
775.086738662886
 42
0.0
 10
730.0545616421905
 20
775.086738662886
 42
0.0
 10
730.0545616421905
 20
473.8475653967225
 42
0.0
 10
736.6530739877735
 20
473.8475653967225
 42
0.0
 10
736.6530739877662
 20
475.8557456000153
 42
0.0
 10
735.980556889338
 20
475.6296140457171
 42
0.0
 10
735.6029055140416
 20
476.0072654188452
 42
0.0
 10
735.980556889338
 20
476.225856730859
 42
0.0
 10
736.6530739877735
 20
476.4519882851173
 42
0.0
 10
736.6530739877735
 20
478.975555218979
 42
0.0
 10
735.9805568893452
 20
478.7494236646807
 42
0.0
 10
735.6029055140343
 20
479.1280052137835
 42
0.0
 10
735.9805568893525
 20
479.3456663498354
 42
0.0
 10
736.6530739877662
 20
479.5717979041319
 42
0.0
 10
736.6530739877735
 20
480.8125535796998
 42
0.0
 10
736.8039413040996
 20
482.0185550497035
 42
0.0
 10
736.2354250567323
 20
481.827375372969
 42
0.0
 10
735.8568435084553
 20
482.2050267460991
 42
0.0
 10
736.2354250567396
 20
482.4236180581274
 42
0.0
 10
736.8813769554135
 20
482.6408376639783
 42
0.0
 10
737.1721036671251
 20
484.9666513476704
 42
0.0
 10
736.7991115898721
 20
484.8411449512905
 42
0.0
 10
736.4214602145612
 20
485.219726500397
 42
0.0
 10
736.7991115898721
 20
485.4373876364452
 42
0.0
 10
737.250149543007
 20
485.5891553322171
 42
0.0
 10
737.5147179961741
 20
487.704855004521
 42
0.0
 10
736.9860769250399
 20
488.2334960787202
 42
0.0
 10
737.6268150447677
 20
488.6043666673859
 42
0.0
 10
738.002759066966
 20
491.6128247446549
 42
0.0
 10
738.3560055977969
 20
488.7859253652449
 42
0.0
 10
738.762712695544
 20
488.9227563433223
 42
0.0
 10
739.1403640664893
 20
488.5441747944906
 42
0.0
 10
738.7627126955512
 20
488.3265136581749
 42
0.0
 10
738.4279747166756
 20
488.2138956947738
 42
0.0
 10
738.6950614413754
 20
486.0753471213765
 42
0.0
 10
739.1598977600542
 20
486.2317577659969
 42
0.0
 10
739.5375491309923
 20
485.8531762171687
 42
0.0
 10
739.1598977600542
 20
485.6355150811205
 42
0.0
 10
738.766694414221
 20
485.5032078875146
 42
0.0
 10
739.0338937329752
 20
483.3646823449335
 42
0.0
 10
739.6045217902528
 20
483.5565721775083
 42
0.0
 10
739.9821731611982
 20
483.1779906284054
 42
0.0
 10
739.6045217902674
 20
482.9603294923608
 42
0.0
 10
739.1057553262535
 20
482.7926051541444
 42
0.0
 10
739.3922757018908
 20
480.4928450308207
 42
0.0
 10
740.0249612489378
 20
480.7055833633758
 42
0.0
 10
740.4026126198905
 20
480.3279319902494
 42
0.0
 10
740.0249612489451
 20
480.1093406782229
 42
0.0
 10
739.3524441505096
 20
479.8832091239209
 42
0.0
 10
739.3524441505096
 20
477.359642189881
 42
0.0
 10
740.0249612489451
 20
477.5857737441392
 42
0.0
 10
740.4026126198832
 20
477.2071921953075
 42
0.0
 10
740.0249612489378
 20
476.9895310592592
 42
0.0
 10
739.3524441505169
 20
476.7633995049609
 42
0.0
 10
739.3524441505023
 20
474.2398325709118
 42
0.0
 10
740.0249612489306
 20
474.4659641251701
 42
0.0
 10
740.6418405667818
 20
473.8475653967225
 42
0.0
 10
744.9289597640045
 20
473.8475653967225
 42
-0.257905813138184
 10
746.0545616421905
 20
474.2891027176019
 42
0.0
 10
746.0545616421905
 20
648.8788045107549
 42
0.0
 10
739.6988741540508
 20
648.8788045107549
 42
-1.0
 10
737.1988741540508
 20
648.8788045107549
 42
-1.0
 10
739.6988741540508
 20
648.8788045107549
 42
0.0
 10
746.0545616421905
 20
648.8788045107549
 42
0.0
 97
        0
 75
     0
 76
     1
 52
0.0
 41
1.0
 77
     0
 78
     1
 53
45.0
 43
-34284.89274356961
 44
-7970.724625687402
 45
-2.245064030267287
 46
2.245064030267288
 79
     0
 47
0.6914500396757857
 98
        3
 10
421.1990576842754
 20
767.1524480004709
 10
736.6724248188066
 20
792.0446582152335
 10
737.3642923887046
 20
752.6319920418582
  0
HATCH
  5
84F8
330
1F
100
AcDbEntity
  8
CETRIS
100
AcDbHatch
 10
0.0
 20
0.0
 30
0.0
210
0.0
220
0.0
230
1.0
  2
ANSI31
 70
     0
 71
     0
 91
        5
 92
        7
 72
     0
 73
     1
 93
      112
 10
408.1309980252217
 20
866.5833049901875
 10
401.5324856796387
 20
866.5833049901875
 10
401.5324856796387
 20
864.5751247869039
 10
402.2050027780669
 20
864.8012563412022
 10
402.5826541533779
 20
864.4236049680721
 10
402.2050027780669
 20
864.2050136560529
 10
401.5324856796387
 20
863.9788821017983
 10
401.5324856796387
 20
861.4553151679402
 10
402.2050027780669
 20
861.6814467222384
 10
402.5826541533779
 20
861.3028651731339
 10
402.2050027780669
 20
861.0852040370856
 10
401.5324856796387
 20
860.8590724827854
 10
401.5324856796387
 20
859.6183168072048
 10
401.3816183633053
 20
858.4123153372175
 10
401.9501346106653
 20
858.6034950139465
 10
402.3287161589569
 20
858.2258436408201
 10
401.9501346106726
 20
858.0072523287936
 10
401.3041827119987
 20
857.7900327229427
 10
401.0134560002797
 20
855.4642190392506
 10
401.38644807754
 20
855.5897254356287
 10
401.764099452851
 20
855.2111438865223
 10
401.3864480775327
 20
854.9934827504721
 10
400.9354101244197
 20
854.841715054702
 10
400.6708416712454
 20
852.7260153823998
 10
401.1994827423795
 20
852.1973743082044
 10
400.5587446226445
 20
851.8265037195352
 10
400.1828006004534
 20
848.8180456422568
 10
399.8295540696226
 20
851.6449450216759
 10
399.4228469718682
 20
851.5081140435968
 10
399.0451956009156
 20
851.8866955924268
 10
399.4228469718682
 20
852.1043567287442
 10
399.7575849507293
 20
852.2169746921381
 10
399.4904982260295
 20
854.3555232655371
 10
399.0256619073652
 20
854.1991126209223
 10
398.6480105364198
 20
854.5776941697523
 10
399.0256619073652
 20
854.7953553058006
 10
399.4188652531911
 20
854.9276624994027
 10
399.1516659344224
 20
857.066188041982
 10
398.5810378771666
 20
856.8742982094109
 10
398.2033865062139
 20
857.2528797585155
 10
398.5810378771521
 20
857.470540894562
 10
399.0798043411514
 20
857.6382652327747
 10
398.7932839655141
 20
859.9380253560985
 10
398.1605984184743
 20
859.7252870235452
 10
397.7829470475289
 20
860.1029383966734
 10
398.1605984184671
 20
860.3215297086963
 10
398.8331155169025
 20
860.5476612629981
 10
398.8331155169025
 20
863.0712281970382
 10
398.1605984184743
 20
862.8450966427836
 10
397.7829470475217
 20
863.2236781916098
 10
398.1605984184743
 20
863.4413393276581
 10
398.8331155169025
 20
863.6674708819581
 10
398.8331155169025
 20
866.1910378160037
 10
398.1605984184743
 20
865.9649062617509
 10
397.5437191006376
 20
866.5833049901893
 10
392.1309980252217
 20
866.5833049901893
 10
392.1309980252217
 20
455.8475653967225
 10
397.5437191006449
 20
455.8475653967225
 10
398.1605984184743
 20
456.4659641251609
 10
398.8331155169025
 20
456.23983257091
 10
398.8331155169025
 20
458.7633995049555
 10
398.1605984184671
 20
458.989531059261
 10
397.7829470475289
 20
459.2071921952983
 10
398.1605984184743
 20
459.5857737441301
 10
398.8331155169025
 20
459.3596421898755
 10
398.8331155169025
 20
461.8832091239155
 10
398.1605984184743
 20
462.109340678212
 10
397.7829470475289
 20
462.3279319902403
 10
398.1605984184743
 20
462.7055833633721
 10
398.7932839655286
 20
462.4928450308134
 10
399.0798043411587
 20
464.7926051541335
 10
398.5810378771593
 20
464.9603294923572
 10
398.2033865062139
 20
465.1779906283963
 10
398.5810378771593
 20
465.5565721775047
 10
399.1516659344297
 20
465.3646823449334
 10
399.4188652531984
 20
467.5032078875055
 10
399.0256619073725
 20
467.6355150811077
 10
398.6480105364271
 20
467.8531762171615
 10
399.0256619073725
 20
468.2317577659914
 10
399.4904982260368
 20
468.0753471213765
 10
399.7575849507293
 20
470.2138956947701
 10
399.4228469718537
 20
470.3265136581767
 10
399.0451956009156
 20
470.5441747944814
 10
399.4228469718682
 20
470.9227563433132
 10
399.8295540696226
 20
470.785925365234
 10
400.1828006004534
 20
473.612824744664
 10
400.5587446226445
 20
470.6043666673785
 10
401.1994827423795
 20
470.2334960787111
 10
400.6708416712381
 20
469.7048550045101
 10
400.9354101244197
 20
467.5891553322099
 10
401.3864480775255
 20
467.437387636447
 10
401.764099452851
 20
467.2197265003915
 10
401.3864480775473
 20
466.8411449512868
 10
401.0134560002724
 20
466.9666513476668
 10
401.3041827120059
 20
464.6408376639729
 10
401.9501346106653
 20
464.4236180581165
 10
402.3287161589569
 20
464.2050267460899
 10
401.9501346106653
 20
463.8273753729599
 10
401.381618363298
 20
464.0185550496944
 10
401.5324856796387
 20
462.8125535797017
 10
401.5324856796387
 20
461.5717979041282
 10
402.2050027780815
 20
461.3456663498173
 10
402.5826541533779
 20
461.1280052137781
 10
402.2050027780669
 20
460.7494236646716
 10
401.5324856796387
 20
460.9755552189735
 10
401.5324856796387
 20
458.4519882851118
 10
402.2050027780742
 20
458.2258567308554
 10
402.5826541533779
 20
458.0072654188415
 10
402.2050027780669
 20
457.6296140457097
 10
401.5324856796387
 20
457.8557456000116
 10
401.5324856796387
 20
455.8475653967225
 10
408.1309980252217
 20
455.8475653967207
 97
        0
 92
        7
 72
     0
 73
     1
 93
        4
 10
764.0545616421904
 20
775.086738662886
 10
748.0545616421904
 20
775.086738662886
 10
748.0545616421904
 20
648.8788045107549
 10
764.0545616421904
 20
648.878804510753
 97
        0
 92
        7
 72
     0
 73
     1
 93
       58
 10
764.0545616421904
 20
866.5833049901893
 10
758.6418405667672
 20
866.5833049901893
 10
758.0249612489378
 20
865.9649062617509
 10
757.3524441505096
 20
866.1910378160072
 10
757.3524441505096
 20
863.6674708819619
 10
758.0249612489378
 20
863.4413393276618
 10
758.4026126198905
 20
863.2236781916136
 10
758.0249612489378
 20
862.8450966427818
 10
757.3524441505096
 20
863.0712281970364
 10
757.3524441505096
 20
860.5476612629999
 10
758.0249612489451
 20
860.321529708689
 10
758.4026126198832
 20
860.1029383966716
 10
758.0249612489378
 20
859.7252870235452
 10
757.3922757018908
 20
859.9380253561038
 10
757.1057553262607
 20
857.638265232771
 10
757.6045217902528
 20
857.470540894571
 10
757.9821731611982
 20
857.2528797585137
 10
757.6045217902601
 20
856.8742982094072
 10
757.0338937329897
 20
857.0661880419802
 10
756.7666944142138
 20
854.9276624994027
 10
757.1598977600615
 20
854.7953553058041
 10
757.5375491309923
 20
854.5776941697541
 10
757.1598977600469
 20
854.1991126209223
 10
756.6950614413826
 20
854.3555232655407
 10
756.4279747166828
 20
852.2169746921417
 10
756.7627126955439
 20
852.104356728746
 10
757.1403640664893
 20
851.8866955924268
 10
756.7627126955439
 20
851.5081140435986
 10
756.3560055977895
 20
851.6449450216759
 10
756.0027590669587
 20
848.8180456422568
 10
755.6268150447603
 20
851.8265037195352
 10
754.9860769250326
 20
852.1973743082044
 10
755.5147179961741
 20
852.7260153824018
 10
755.2501495429924
 20
854.8417150547056
 10
754.7991115898575
 20
854.9934827504811
 10
754.4214602145611
 20
855.2111438865258
 10
754.7991115898648
 20
855.5897254356287
 10
755.1721036671397
 20
855.4642190392451
 10
754.8813769554135
 20
857.7900327229427
 10
754.2354250567322
 20
858.0072523287954
 10
753.856843508448
 20
858.2258436408165
 10
754.2354250567395
 20
858.6034950139483
 10
754.8039413041069
 20
858.4123153372138
 10
754.6530739877734
 20
859.6183168071666
 10
754.6530739877734
 20
860.8590724827854
 10
753.9805568893525
 20
861.0852040370891
 10
753.602905514027
 20
861.3028651731374
 10
753.9805568893525
 20
861.681446722242
 10
754.6530739877807
 20
861.455315167942
 10
754.6530739877661
 20
863.9788821018036
 10
753.9805568893525
 20
864.2050136560582
 10
753.6029055140415
 20
864.4236049680758
 10
753.9805568893452
 20
864.8012563412022
 10
754.6530739877734
 20
864.575124786902
 10
754.6530739877734
 20
866.5833049901893
 10
748.0545616421904
 20
866.5833049901893
 10
748.0545616421904
 20
775.086738662886
 10
764.0545616421904
 20
775.0867386628843
 97
        0
 92
        7
 72
     1
 73
     1
 93
        9
 10
764.0545616421904
 20
648.8788045107549
 42
0.0
 10
748.0545616421904
 20
648.8788045107549
 42
0.0
 10
748.0545616421904
 20
475.1370087065597
 42
0.0
 10
764.0545616421904
 20
485.4525551852557
 42
0.0
 10
764.0545616421904
 20
601.4839016962623
 42
0.0
 10
756.6923388872628
 20
601.4839016962623
 42
-1.0
 10
754.1923388872628
 20
601.4839016962623
 42
-1.0
 10
756.6923388872628
 20
601.4839016962623
 42
0.0
 10
764.0545616421904
 20
601.4839016962623
 42
0.0
 97
        0
 92
        7
 72
     1
 73
     1
 93
       37
 10
764.0545616421904
 20
485.452555185252
 42
0.0
 10
748.0545616421904
 20
475.1370087065579
 42
0.0
 10
748.0545616421904
 20
455.8475653967225
 42
0.0
 10
754.6530739877734
 20
455.8475653967225
 42
0.0
 10
754.6530739877734
 20
457.8557456000099
 42
0.0
 10
753.9805568893452
 20
457.6296140457097
 42
0.0
 10
753.6029055140343
 20
458.0072654188342
 42
0.0
 10
753.9805568893452
 20
458.2258567308535
 42
0.0
 10
754.6530739877734
 20
458.45198828511
 42
0.0
 10
754.6530739877734
 20
460.9755552189699
 42
0.0
 10
753.9805568893452
 20
460.7494236646716
 42
0.0
 10
753.6029055140343
 20
461.1280052137781
 42
0.0
 10
753.9805568893525
 20
461.3456663498282
 42
0.0
 10
754.6530739877661
 20
461.5717979041228
 42
0.0
 10
754.6530739877734
 20
462.8125535796998
 42
0.0
 10
754.8039413041069
 20
464.0185550496962
 42
0.0
 10
754.2354250567395
 20
463.8273753729654
 42
0.0
 10
753.8568435084552
 20
464.2050267460917
 42
0.0
 10
754.2354250567468
 20
464.4236180581219
 42
0.0
 10
754.8813769554135
 20
464.640837663971
 42
0.0
 10
755.0917531119803
 20
466.3238469092002
 42
-0.3331977330590865
 10
754.1923388872628
 20
467.5236759029185
 42
-0.4039009560036918
 10
755.3981763715301
 20
468.7728955282064
 42
0.0
 10
755.5147179961741
 20
469.7048550045119
 42
0.0
 10
754.9860769250326
 20
470.2334960787038
 42
0.0
 10
755.6268150447676
 20
470.6043666673785
 42
0.0
 10
756.0027590669587
 20
473.6128247446731
 42
0.0
 10
756.3560055977968
 20
470.785925365234
 42
0.0
 10
756.7627126955366
 20
470.9227563433132
 42
0.0
 10
757.140364066482
 20
470.5441747944814
 42
0.0
 10
756.7627126955512
 20
470.3265136581676
 42
0.0
 10
756.4279747166756
 20
470.2138956947701
 42
0.0
 10
756.6950614413753
 20
468.0753471213711
 42
0.0
 10
757.1598977600469
 20
468.2317577659896
 42
0.0
 10
757.5375491309923
 20
467.8531762171615
 42
0.0
 10
756.9658520073817
 20
467.5236759029185
 42
0.0
 10
764.0545616421904
 20
467.5236759029185
 42
0.0
 97
        0
 75
     0
 76
     1
 52
90.0
 41
1.0
 77
     0
 78
     1
 53
135.0
 43
-34284.89274356961
 44
-7970.724625687402
 45
-2.245064030267288
 46
-2.245064030267287
 79
     0
 47
0.6914500396757857
 98
        5
 10
398.3687095328596
 20
846.6691995678093
 10
755.3517937252864
 20
721.5167292734013
 10
752.5844742286672
 20
814.1710517634464
 10
758.1191132219055
 20
632.3196426705008
 10
759.5027729702223
 20
473.2861395358241
  0
HATCH
  5
84F9
330
1F
100
AcDbEntity
  8
CETRIS
100
AcDbHatch
 10
0.0
 20
0.0
 30
0.0
210
0.0
220
0.0
230
1.0
  2
ANSI31
 70
     0
 71
     0
 91
        6
 92
        7
 72
     0
 73
     1
 93
       19
 10
416.8331155169026
 20
859.9837077191105
 10
416.6061526260263
 20
861.5073356725343
 10
415.9931667768642
 20
862.9212028822539
 10
414.7834926324021
 20
864.445627191907
 10
413.0826467118195
 20
865.3833782134615
 10
413.0826467118195
 20
866.5833049901893
 10
410.1309980252217
 20
866.5833049901893
 10
410.1309980252217
 20
850.5833049901893
 10
416.8331155169026
 20
850.5833049901893
 10
416.8331155169026
 20
851.3116229382058
 10
416.1605984184816
 20
851.0856460566838
 10
415.7829470475362
 20
851.4632974295373
 10
416.1605984184598
 20
851.6818887415583
 10
416.8331155169026
 20
851.907865623133
 10
416.8331155169026
 20
854.4315872299458
 10
416.1605984184816
 20
854.2054556756438
 10
415.782947047529
 20
854.5831070487757
 10
416.1605984184744
 20
854.8016983608022
 10
416.8331155169098
 20
855.0278299150567
 97
        0
 92
        7
 72
     0
 73
     1
 93
       36
 10
736.6530739877735
 20
859.9837077191086
 10
736.5870315058591
 20
860.7706364422439
 10
736.1591506415525
 20
862.2514763092704
 10
735.3629201622343
 20
863.5704655875715
 10
734.2522902618902
 20
864.6392375769728
 10
732.9026051783248
 20
865.3833782134562
 10
732.9026051783248
 20
866.5833049901875
 10
423.2829544890874
 20
866.5833049901893
 10
423.2829544890874
 20
865.3833782134597
 10
421.9332694055365
 20
864.6392375769801
 10
420.8226395051779
 20
863.5704655875807
 10
420.0264090258524
 20
862.2514763092558
 10
419.5985281615604
 20
860.7706364422384
 10
419.5324856796387
 20
859.9837077190832
 10
419.5324856796387
 20
855.9354838198132
 10
420.2050027780597
 20
856.161615374066
 10
420.5826541533779
 20
855.783033825236
 10
420.2050027780741
 20
855.5653726891877
 10
419.5324856796387
 20
855.3392411348859
 10
419.5324856796387
 20
852.8148986978331
 10
420.2050027780524
 20
853.0408755794006
 10
420.5826541533779
 20
852.6632242062742
 10
420.205002778067
 20
852.4446328942458
 10
419.5324856796387
 20
852.2186560127238
 10
419.5324856796459
 20
850.5833049901893
 10
736.6530739877735
 20
850.5833049901893
 10
736.6530739877735
 20
852.2186560127256
 10
735.9805568893234
 20
852.4446328942531
 10
735.6029055140343
 20
852.6632242062742
 10
735.980556889338
 20
853.0408755794006
 10
736.6530739877807
 20
852.8148986978312
 10
736.6530739877807
 20
855.3392411348841
 10
735.9805568893525
 20
855.5653726891877
 10
735.6029055140343
 20
855.783033825236
 10
735.9805568893452
 20
856.1616153740697
 10
736.6530739877735
 20
855.9354838198151
 97
        0
 92
        7
 72
     0
 73
     1
 93
       19
 10
746.0545616421905
 20
866.5833049901893
 10
743.1029129555927
 20
866.5833049901893
 10
743.1029129555854
 20
865.3833782134579
 10
741.4020670350246
 20
864.4456271919016
 10
740.1923928905334
 20
862.9212028822175
 10
739.5794070413931
 20
861.5073356725233
 10
739.3524441505096
 20
859.9837077191613
 10
739.3524441505096
 20
855.0278299150567
 10
740.0249612489451
 20
854.8016983607967
 10
740.4026126198832
 20
854.583107048772
 10
740.0249612489378
 20
854.2054556756438
 10
739.3524441505096
 20
854.4315872299439
 10
739.3524441505096
 20
851.9078656231313
 10
740.0249612489451
 20
851.6818887415656
 10
740.4026126198905
 20
851.4632974295354
 10
740.0249612489378
 20
851.0856460566838
 10
739.3524441505096
 20
851.3116229382076
 10
739.3524441505096
 20
850.5833049901893
 10
746.0545616421905
 20
850.5833049901893
 97
        0
 92
        7
 72
     1
 73
     1
 93
       20
 10
746.0545616421905
 20
471.810519397798
 42
-0.102429420534644
 10
745.5490878128649
 20
471.8475653967225
 42
0.0
 10
739.3524441505096
 20
471.8475653967225
 42
0.0
 10
739.3524441505023
 20
471.1192474487025
 42
0.0
 10
740.0249612489451
 20
471.3452243302299
 42
0.0
 10
740.4026126198832
 20
470.9675729573764
 42
0.0
 10
740.0249612489524
 20
470.7489816453535
 42
0.0
 10
739.3524441505096
 20
470.5230047637788
 42
0.0
 10
739.3524441505096
 20
467.999283156968
 42
0.0
 10
740.0249612489451
 20
468.225414711268
 42
0.0
 10
740.4026126198832
 20
467.8477633381381
 42
0.0
 10
740.0249612489233
 20
467.6291720261096
 42
0.0
 10
739.3524441505169
 20
467.4030404718605
 42
0.0
 10
739.3524441505096
 20
462.4471626678086
 42
0.0
 10
739.5794070413931
 20
460.9235347143794
 42
0.0
 10
740.1923928905189
 20
459.509667504687
 42
0.0
 10
741.40206703501
 20
457.9852431950212
 42
0.0
 10
743.1029129555927
 20
457.0474921734521
 42
0.0
 10
743.1029129555927
 20
455.8475653967152
 42
0.0
 10
746.0545616421905
 20
455.8475653967152
 42
0.0
 97
        0
 92
        7
 72
     0
 73
     1
 93
       36
 10
736.6530739877735
 20
466.4953865670987
 10
735.980556889338
 20
466.269255012844
 10
735.6029055140343
 20
466.6478365616758
 10
735.9805568893525
 20
466.8654976977259
 10
736.6530739877807
 20
467.0916292520241
 10
736.6530739877807
 20
469.6159716890806
 10
735.9805568893452
 20
469.3899948075095
 10
735.6029055140343
 20
469.7676461806395
 10
735.980556889338
 20
469.9862374926606
 10
736.6530739877735
 20
470.2122143741862
 10
736.6530739877735
 20
471.8475653967225
 10
419.5324856796387
 20
471.8475653967207
 10
419.5324856796387
 20
470.212214374188
 10
420.2050027780524
 20
469.9862374926643
 10
420.5826541533706
 20
469.7676461806358
 10
420.2050027780741
 20
469.3899948075113
 10
419.5324856796387
 20
469.6159716890824
 10
419.5324856796387
 20
467.0916292520241
 10
420.2050027780814
 20
466.8654976977204
 10
420.5826541533706
 20
466.647836561674
 10
420.205002778067
 20
466.2692550128495
 10
419.5324856796315
 20
466.4953865671022
 10
419.5324856796387
 20
462.4471626678269
 10
419.5985281615604
 20
461.660233944679
 10
420.0264090258597
 20
460.179394077616
 10
420.8226395051779
 20
458.8604047993385
 10
421.9332694055292
 20
457.7916328099282
 10
423.2829544890874
 20
457.047492173454
 10
423.2829544890874
 20
455.8475653967207
 10
732.9026051783248
 20
455.8475653967152
 10
732.9026051783248
 20
457.0474921734521
 10
734.2522902618684
 20
457.7916328099226
 10
735.3629201622416
 20
458.8604047993494
 10
736.1591506415598
 20
460.1793940776452
 10
736.5870315058518
 20
461.6602339446772
 10
736.6530739877807
 20
462.4471626678633
 97
        0
 92
        7
 72
     0
 73
     1
 93
       19
 10
416.8331155169026
 20
467.4030404718605
 10
416.1605984184816
 20
467.6291720261079
 10
415.7829470475362
 20
467.8477633381362
 10
416.1605984184744
 20
468.2254147112662
 10
416.8331155168953
 20
467.999283156968
 10
416.8331155169026
 20
470.5230047637824
 10
416.1605984184671
 20
470.7489816453499
 10
415.782947047529
 20
470.9675729573764
 10
416.1605984184744
 20
471.3452243302245
 10
416.8331155169026
 20
471.1192474487025
 10
416.8331155169026
 20
471.8475653967225
 10
410.1309980252217
 20
471.8475653967225
 10
410.1309980252217
 20
455.8475653967225
 10
413.0826467118195
 20
455.8475653967207
 10
413.0826467118195
 20
457.0474921734557
 10
414.7834926324021
 20
457.9852431950121
 10
415.9931667768642
 20
459.509667504667
 10
416.6061526260191
 20
460.9235347143758
 10
416.8331155169026
 20
462.4471626678341
 97
        0
 75
     0
 76
     1
 52
90.0
 41
1.0
 77
     0
 78
     1
 53
135.0
 43
-34284.89274356961
 44
-7970.724625687402
 45
-2.245064030267288
 46
-2.245064030267287
 79
     0
 47
0.6914500396757857
 98
        6
 10
412.2053070159845
 20
857.0409538239591
 10
437.1111070941215
 20
858.4238388598723
 10
741.5151962421614
 20
855.6580687880533
 10
742.8988559904783
 20
462.9143852796742
 10
723.5276949055796
 20
463.6058510949924
 10
412.2053070159845
 20
464.2972703155801
  0
HATCH
  5
84FA
330
1F
100
AcDbEntity
  8
CETRIS
100
AcDbHatch
 10
0.0
 20
0.0
 30
0.0
210
0.0
220
0.0
230
1.0
  2
ANSI31
 70
     0
 71
     0
 91
        6
 92
        7
 72
     0
 73
     1
 93
       36
 10
754.6530739877734
 20
877.9837077191869
 10
754.5870315058518
 20
878.770636442211
 10
754.1591506415597
 20
880.2514763092741
 10
753.3629201622197
 20
881.5704655875734
 10
752.2522902618757
 20
882.6392375769929
 10
750.9026051783248
 20
883.3833782134652
 10
750.9026051783321
 20
884.5833049901894
 10
405.2829544890873
 20
884.5833049901894
 10
405.2829544890873
 20
883.383378213467
 10
403.9332694055292
 20
882.6392375769911
 10
402.8226395051851
 20
881.5704655875933
 10
402.0264090258524
 20
880.2514763092721
 10
401.598528161553
 20
878.7706364422165
 10
401.5324856796387
 20
877.9837077190723
 10
401.5324856796387
 20
873.9354838198186
 10
402.2050027780669
 20
874.1616153740752
 10
402.5826541533851
 20
873.7830338252452
 10
402.2050027780596
 20
873.5653726891952
 10
401.5324856796387
 20
873.3392411348987
 10
401.532485679646
 20
870.8148986978422
 10
402.2050027780669
 20
871.0408755794096
 10
402.5826541533851
 20
870.6632242062832
 10
402.2050027780669
 20
870.444632894255
 10
401.532485679646
 20
870.218656012731
 10
401.5324856796387
 20
868.5833049901821
 10
754.6530739877734
 20
868.5833049901894
 10
754.6530739877734
 20
870.2186560127293
 10
753.9805568893452
 20
870.4446328942477
 10
753.6029055140415
 20
870.6632242062815
 10
753.9805568893452
 20
871.0408755794114
 10
754.6530739877734
 20
870.8148986978404
 10
754.6530739877661
 20
873.3392411348932
 10
753.9805568893525
 20
873.5653726891914
 10
753.6029055140343
 20
873.7830338252415
 10
753.9805568893452
 20
874.1616153740769
 10
754.6530739877661
 20
873.9354838198206
 97
        0
 92
        7
 72
     0
 73
     1
 93
       19
 10
398.8331155169025
 20
877.9837077191231
 10
398.6061526260191
 20
879.507335672538
 10
397.9931667768642
 20
880.9212028822448
 10
396.7834926324021
 20
882.4456271919071
 10
395.0826467118194
 20
883.3833782134634
 10
395.0826467118122
 20
884.5833049901894
 10
392.1309980252217
 20
884.5833049901894
 10
392.1309980252217
 20
868.5833049901821
 10
398.8331155169025
 20
868.5833049901821
 10
398.8331155169025
 20
869.3116229382148
 10
398.1605984184816
 20
869.085646056691
 10
397.7829470475289
 20
869.4632974295409
 10
398.1605984184671
 20
869.6818887415675
 10
398.8331155169025
 20
869.9078656231368
 10
398.8331155169025
 20
872.4315872299531
 10
398.1605984184743
 20
872.205455675653
 10
397.7829470475362
 20
872.583107048783
 10
398.1605984184816
 20
872.8016983608076
 10
398.8331155169025
 20
873.0278299150587
 97
        0
 92
        7
 72
     0
 73
     1
 93
       19
 10
764.0545616421977
 20
884.5833049901894
 10
761.1029129555854
 20
884.5833049901894
 10
761.1029129555927
 20
883.3833782134634
 10
759.4020670350246
 20
882.445627191918
 10
758.192392890548
 20
880.9212028822557
 10
757.579407041393
 20
879.5073356725234
 10
757.3524441505096
 20
877.9837077191396
 10
757.3524441505096
 20
873.0278299150622
 10
758.0249612489305
 20
872.8016983608041
 10
758.4026126198832
 20
872.5831070487792
 10
758.0249612489305
 20
872.2054556756511
 10
757.3524441505169
 20
872.4315872299476
 10
757.3524441505096
 20
869.9078656231405
 10
758.0249612489451
 20
869.6818887415693
 10
758.4026126198832
 20
869.4632974295409
 10
758.0249612489378
 20
869.0856460566893
 10
757.3524441505096
 20
869.3116229382168
 10
757.3524441505096
 20
868.5833049901875
 10
764.0545616421904
 20
868.5833049901894
 97
        0
 92
        7
 72
     0
 73
     1
 93
       19
 10
764.0545616421904
 20
453.8475653967298
 10
757.3524441505096
 20
453.8475653967298
 10
757.3524441505096
 20
453.1192474486951
 10
758.0249612489451
 20
453.3452243302226
 10
758.4026126198832
 20
452.9675729573673
 10
758.0249612489597
 20
452.748981645348
 10
757.3524441505096
 20
452.5230047637714
 10
757.3524441505096
 20
449.9992831569588
 10
758.0249612489378
 20
450.2254147112589
 10
758.4026126198832
 20
449.8477633381326
 10
758.0249612489232
 20
449.6291720261005
 10
757.3524441505096
 20
449.4030404718514
 10
757.3524441505096
 20
444.4471626678523
 10
757.5794070413857
 20
442.9235347143703
 10
758.1923928905261
 20
441.5096675046907
 10
759.4020670350174
 20
439.985243195003
 10
761.1029129555854
 20
439.047492173443
 10
761.1029129555927
 20
437.8475653967207
 10
764.0545616421977
 20
437.8475653967225
 97
        0
 92
        7
 72
     0
 73
     1
 93
       36
 10
754.6530739877661
 20
444.4471626677632
 10
754.6530739877734
 20
448.4953865670932
 10
753.9805568893452
 20
448.2692550128385
 10
753.6029055140415
 20
448.6478365616703
 10
753.9805568893452
 20
448.8654976977186
 10
754.6530739877734
 20
449.0916292520187
 10
754.6530739877734
 20
451.6159716890733
 10
753.9805568893452
 20
451.3899948075022
 10
753.6029055140343
 20
451.7676461806286
 10
753.9805568893452
 20
451.9862374926551
 10
754.6530739877807
 20
452.2122143741789
 10
754.6530739877661
 20
453.8475653967298
 10
401.532485679646
 20
453.8475653967316
 10
401.5324856796387
 20
452.2122143741825
 10
402.2050027780669
 20
451.9862374926569
 10
402.5826541533779
 20
451.7676461806304
 10
402.2050027780669
 20
451.3899948075022
 10
401.5324856796314
 20
451.6159716890715
 10
401.5324856796387
 20
449.0916292520169
 10
402.2050027780815
 20
448.8654976977095
 10
402.5826541533706
 20
448.6478365616685
 10
402.2050027780596
 20
448.2692550128404
 10
401.532485679646
 20
448.4953865670932
 10
401.532485679646
 20
444.4471626678068
 10
401.598528161553
 20
443.6602339446808
 10
402.0264090258524
 20
442.1793940776269
 10
402.8226395051851
 20
440.8604047993221
 10
403.9332694055437
 20
439.7916328099172
 10
405.2829544890873
 20
439.0474921734448
 10
405.2829544890946
 20
437.8475653967152
 10
750.9026051783248
 20
437.8475653967225
 10
750.9026051783248
 20
439.0474921734466
 10
752.2522902618611
 20
439.7916328099135
 10
753.3629201622343
 20
440.8604047993439
 10
754.1591506415525
 20
442.1793940776269
 10
754.5870315058664
 20
443.6602339446936
 97
        0
 92
        7
 72
     0
 73
     1
 93
       19
 10
398.8331155169098
 20
449.4030404718532
 10
398.1605984184743
 20
449.6291720261151
 10
397.7829470475289
 20
449.8477633381307
 10
398.1605984184743
 20
450.2254147112608
 10
398.8331155169025
 20
449.9992831569625
 10
398.8331155169025
 20
452.5230047637769
 10
398.1605984184743
 20
452.7489816453389
 10
397.7829470475289
 20
452.9675729573691
 10
398.1605984184816
 20
453.3452243302208
 10
398.8331155168953
 20
453.119247448697
 10
398.8331155169025
 20
453.8475653967298
 10
392.1309980252217
 20
453.8475653967298
 10
392.1309980252217
 20
437.8475653967152
 10
395.0826467118194
 20
437.8475653967152
 10
395.0826467118194
 20
439.0474921734466
 10
396.7834926323948
 20
439.9852431950066
 10
397.9931667768787
 20
441.5096675046907
 10
398.6061526260191
 20
442.9235347143794
 10
398.8331155169025
 20
444.4471626678032
 97
        0
 75
     0
 76
     1
 52
0.0
 41
1.0
 77
     0
 78
     1
 53
45.0
 43
-34284.89274356961
 44
-7970.724625687402
 45
-2.245064030267287
 46
2.245064030267288
 79
     0
 47
0.6914500396757857
 98
        6
 10
573.4011022582953
 20
874.327179854391
 10
396.2932576061239
 20
876.4015307056224
 10
761.5782248969581
 20
873.6357606338033
 10
761.5782248969581
 20
447.7024635057359
 10
686.1690324840992
 20
444.2452276185986
 10
395.6013900362404
 20
449.0853951363797
  0
HATCH
  5
84FB
330
1F
100
AcDbEntity
  8
STAVBA OBRYS
100
AcDbHatch
 10
0.0
 20
0.0
 30
0.0
210
0.0
220
0.0
230
1.0
  2
ANSI37
 70
     0
 71
     0
 91
        1
 92
       33
 93
       20
 72
     2
 10
698.867010790741
 20
802.4153863653401
 40
10.8000001907349
 50
269.9999640278023
 51
351.9855113526054
 73
     1
 72
     1
 10
728.0927798337025
 20
723.7149469122059
 11
728.0927798337025
 21
848.7149469122059
 72
     1
 10
709.5614077633899
 20
771.5213433965882
 11
715.5048892087024
 21
729.3086969122059
 72
     2
 10
698.8668887204212
 20
770.01548402159
 40
10.8000001907349
 50
8.014462693140185
 51
89.99998269717028
 73
     1
 72
     1
 10
721.9414126462025
 20
723.7149469122059
 11
728.0927798337025
 21
723.7149469122059
 72
     2
 10
721.9414126461952
 20
730.2149469122078
 40
6.5
 50
188.0144576841643
 51
269.9999776881806
 73
     1
 72
     1
 10
709.5615298337024
 20
800.9095269903381
 11
715.5048892087024
 21
843.121196912206
 72
     1
 10
721.9414126462025
 20
848.7149469122059
 11
728.0927798337025
 21
848.7149469122059
 72
     2
 10
721.9414126461952
 20
842.2149469122077
 40
6.5
 50
90.00002732075669
 51
171.9855473248187
 73
     1
 72
     1
 10
428.0927798337025
 20
723.7149469122059
 11
428.0927798337025
 21
848.7149469122059
 72
     2
 10
457.3185488766712
 20
802.4153863653401
 40
10.8000001907349
 50
188.0145259859518
 51
269.9999640278023
 73
     1
 72
     1
 10
446.6240298337025
 20
800.9095269903381
 11
440.6806704587024
 21
843.121196912206
 72
     1
 10
434.2441470212024
 20
848.7149469122059
 11
428.0927798337025
 21
848.7149469122059
 72
     2
 10
434.2441470211952
 20
842.2149469122077
 40
6.5
 50
8.014462693140185
 51
89.99998269717028
 73
     1
 72
     1
 10
698.867010790741
 20
791.615337537206
 11
457.3185488766712
 21
791.615337537206
 72
     1
 10
698.8668887204212
 20
780.8155328497059
 11
457.318670946991
 21
780.8155328497059
 72
     2
 10
457.318670946991
 20
770.01548402159
 40
10.8000001907349
 50
90.0
 51
171.9855473248187
 73
     1
 72
     1
 10
446.6241519040222
 20
771.5213433965882
 11
440.6806704587024
 21
729.3086969122059
 72
     1
 10
434.2441470212024
 20
723.7149469122059
 11
428.0927798337025
 21
723.7149469122059
 72
     2
 10
434.2441470211952
 20
730.2149469122078
 40
6.5
 50
270.000032329694
 51
351.9855523338018
 73
     1
 97
        0
 75
     0
 76
     1
 52
0.0
 41
1.0
 77
     0
 78
     2
 53
45.0
 43
-34284.89274356961
 44
-7970.724625687402
 45
-2.245064030267287
 46
2.245064030267288
 79
     0
 53
135.0
 43
-34284.89274356961
 44
-7970.724625687402
 45
-2.245064030267288
 46
-2.245064030267287
 79
     0
 98
        1
 10
-34284.89274356961
 20
-7720.724625687402
  0
HATCH
  5
84FC
330
1F
100
AcDbEntity
  8
STAVBA OBRYS
100
AcDbHatch
 10
0.0
 20
0.0
 30
0.0
210
0.0
220
0.0
230
1.0
  2
ANSI37
 70
     0
 71
     1
 91
        1
 92
       33
 93
       20
 72
     2
 10
698.867010790741
 20
552.41538636534
 40
10.8000001907349
 50
269.9999640278023
 51
351.9855113526054
 73
     1
 72
     1
 10
728.0927798337025
 20
473.7149469122059
 11
728.0927798337025
 21
598.7149469122059
 72
     1
 10
709.5614077633899
 20
521.5213433965882
 11
715.5048892087024
 21
479.3086969122059
 72
     2
 10
698.8668887204212
 20
520.01548402159
 40
10.8000001907349
 50
8.014462693140185
 51
89.99998269717028
 73
     1
 72
     1
 10
721.9414126462025
 20
473.7149469122059
 11
728.0927798337025
 21
473.7149469122059
 72
     2
 10
721.9414126461952
 20
480.2149469122078
 40
6.5
 50
188.0144576841643
 51
269.9999776881806
 73
     1
 72
     1
 10
709.5615298337024
 20
550.9095269903382
 11
715.5048892087024
 21
593.1211969122059
 72
     1
 10
721.9414126462025
 20
598.7149469122059
 11
728.0927798337025
 21
598.7149469122059
 72
     2
 10
721.9414126461952
 20
592.2149469122078
 40
6.5
 50
90.00002732075669
 51
171.9855473248187
 73
     1
 72
     1
 10
428.0927798337025
 20
473.7149469122059
 11
428.0927798337025
 21
598.7149469122059
 72
     2
 10
457.3185488766712
 20
552.41538636534
 40
10.8000001907349
 50
188.0145259859518
 51
269.9999640278023
 73
     1
 72
     1
 10
446.6240298337025
 20
550.9095269903382
 11
440.6806704587024
 21
593.1211969122059
 72
     1
 10
434.2441470212024
 20
598.7149469122059
 11
428.0927798337025
 21
598.7149469122059
 72
     2
 10
434.2441470211952
 20
592.2149469122078
 40
6.5
 50
8.014462693140185
 51
89.99998269717028
 73
     1
 72
     1
 10
698.867010790741
 20
541.615337537206
 11
457.3185488766712
 21
541.615337537206
 72
     1
 10
698.8668887204212
 20
530.8155328497059
 11
457.318670946991
 21
530.8155328497059
 72
     2
 10
457.318670946991
 20
520.01548402159
 40
10.8000001907349
 50
90.0
 51
171.9855473248187
 73
     1
 72
     1
 10
446.6241519040222
 20
521.5213433965882
 11
440.6806704587024
 21
479.3086969122059
 72
     1
 10
434.2441470212024
 20
473.7149469122059
 11
428.0927798337025
 21
473.7149469122059
 72
     2
 10
434.2441470211952
 20
480.2149469122078
 40
6.5
 50
270.000032329694
 51
351.9855523338018
 73
     1
 97
       20
330
8549
330
854A
330
854B
330
854C
330
854D
330
854E
330
854F
330
8550
330
8551
330
853E
330
8542
330
8543
330
8544
330
8545
330
8546
330
8547
330
8548
330
853F
330
8540
330
8541
 75
     0
 76
     1
 52
0.0
 41
1.0
 77
     0
 78
     2
 53
45.0
 43
-34284.89274356961
 44
-7970.724625687402
 45
-2.245064030267287
 46
2.245064030267288
 79
     0
 53
135.0
 43
-34284.89274356961
 44
-7970.724625687402
 45
-2.245064030267288
 46
-2.245064030267287
 79
     0
 98
        1
 10
-34284.89274356961
 20
-7970.724625687402
  0
INSERT
  5
84FD
330
1F
100
AcDbEntity
  8
POPIS
100
AcDbBlockReference
  2
E_PUNKT
 10
716.65287994972
 20
775.0576703320139
 30
0.0
  0
LINE
  5
84FE
330
1F
100
AcDbEntity
  8
POPIS
100
AcDbLine
 10
875.1472649405286
 20
775.086738662886
 30
0.0
 11
717.9304903253459
 21
775.086738662886
 31
0.0
  0
TEXT
  5
84FF
330
1F
100
AcDbEntity
  8
POPIS
100
AcDbText
 10
887.0671872129923
 20
762.3399317116736
 30
0.0
 40
25.0
  1
04
 41
0.85
  7
SIMPLEX7
100
AcDbText
  0
TEXT
  5
8500
330
1F
100
AcDbEntity
  8
POPIS
100
AcDbText
 10
887.0671872129923
 20
404.7647544536621
 30
0.0
 40
25.0
  1
05
 41
0.85
  7
SIMPLEX7
100
AcDbText
  0
INSERT
  5
8501
330
1F
100
AcDbEntity
  8
POPIS
100
AcDbBlockReference
  2
E_PUNKT
 10
767.1871073978718
 20
449.3280672795544
 30
0.0
  0
LINE
  5
8502
330
1F
100
AcDbEntity
  8
POPIS
100
AcDbLine
 10
875.1472649405286
 20
417.5115614048745
 30
0.0
 11
815.2948019138884
 21
417.5115614048745
 31
0.0
  0
LINE
  5
8503
330
1F
100
AcDbEntity
  8
POPIS
100
AcDbLine
 10
765.965418625211
 20
449.3152830348527
 30
0.0
 11
815.2948019138884
 21
417.5115614048745
 31
0.0
  0
LINE
  5
8504
330
1F
100
AcDbEntity
  8
POPIS
100
AcDbLine
 10
746.0545616421905
 20
473.8475653967225
 30
0.0
 11
815.2948019138884
 21
518.4882476916364
 31
0.0
  0
INSERT
  5
8505
330
1F
100
AcDbEntity
  8
POPIS
100
AcDbBlockReference
  2
E_PUNKT
 10
755.4147285116369
 20
467.4946075720463
 30
0.0
  0
TEXT
  5
8506
330
1F
100
AcDbEntity
  8
POPIS
100
AcDbText
 10
887.0671872129923
 20
454.776868951706
 30
0.0
 40
25.0
  1
02
 41
0.85
  7
SIMPLEX7
100
AcDbText
  0
LINE
  5
8507
330
1F
100
AcDbEntity
  8
POPIS
100
AcDbLine
 10
875.1472649405286
 20
467.5236759029185
 30
0.0
 11
755.4423388872628
 21
467.5236759029185
 31
0.0
  0
INSERT
  5
8508
330
1F
100
AcDbEntity
  8
POPIS
100
AcDbBlockReference
  2
E_PUNKT
 10
745.8636840570716
 20
473.0207427268278
 30
0.0
  0
TEXT
  5
8509
330
1F
100
AcDbEntity
  8
POPIS
100
AcDbText
 10
887.0671872129923
 20
505.7414407404239
 30
0.0
 40
25.0
  1
03
 41
0.85
  7
SIMPLEX7
100
AcDbText
  0
LINE
  5
850A
330
1F
100
AcDbEntity
  8
POPIS
100
AcDbLine
 10
875.1472649405286
 20
518.4882476916364
 30
0.0
 11
815.2948019138884
 21
518.4882476916364
 31
0.0
  0
INSERT
  5
850B
330
1F
100
AcDbEntity
  8
POPIS
100
AcDbBlockReference
  2
E_PUNKT
 10
738.4212637784249
 20
648.8497361798827
 30
0.0
  0
TEXT
  5
850C
330
1F
100
AcDbEntity
  8
POPIS
100
AcDbText
 10
887.0671872129923
 20
636.1319975595424
 30
0.0
 40
25.0
  1
01
 41
0.85
  7
SIMPLEX7
100
AcDbText
  0
LINE
  5
850D
330
1F
100
AcDbEntity
  8
POPIS
100
AcDbLine
 10
875.1472649405286
 20
648.8788045107549
 30
0.0
 11
739.6988741540508
 21
648.8788045107549
 31
0.0
  0
LINE
  5
850E
330
1F
100
AcDbEntity
  8
POPIS
100
AcDbLine
 10
875.1472649405286
 20
601.4839016962623
 30
0.0
 11
755.4423388872628
 21
601.4839016962623
 31
0.0
  0
TEXT
  5
850F
330
1F
100
AcDbEntity
  8
POPIS
100
AcDbText
 10
887.0671872129923
 20
588.7370947450499
 30
0.0
 40
25.0
  1
01
 41
0.85
  7
SIMPLEX7
100
AcDbText
  0
INSERT
  5
8510
330
1F
100
AcDbEntity
  8
POPIS
100
AcDbBlockReference
  2
E_PUNKT
 10
755.4147285116369
 20
601.4548333653902
 30
0.0
  0
HATCH
  5
8511
330
1F
100
AcDbEntity
  8
izolace
100
AcDbHatch
 10
0.0
 20
0.0
 30
0.0
210
0.0
220
0.0
230
1.0
  2
SOLID
 70
     1
 71
     0
 91
        1
 92
        7
 72
     0
 73
     1
 93
        6
 10
390.8414551819542
 20
860.6560362840072
 10
389.8414551819541
 20
860.6560362840072
 10
389.8414551819541
 20
886.6560362840074
 10
415.8414551819541
 20
886.6560362840074
 10
415.8414551819541
 20
885.6560362840072
 10
390.8414551819542
 20
885.6560362840072
 97
        0
 75
     0
 76
     1
 47
0.1823871553156225
 98
        1
 10
390.4764096579847
 20
875.9895398836933
  0
LINE
  5
8512
330
1F
100
AcDbEntity
  8
izolace
100
AcDbLine
 10
415.8414551819541
 20
885.6560362840072
 30
0.0
 11
390.8414551819542
 21
885.6560362840072
 31
0.0
  0
LINE
  5
8513
330
1F
100
AcDbEntity
  8
izolace
100
AcDbLine
 10
389.8414551819541
 20
886.6560362840074
 30
0.0
 11
415.8414551819541
 21
886.6560362840074
 31
0.0
  0
LINE
  5
8514
330
1F
100
AcDbEntity
  8
izolace
100
AcDbLine
 10
415.8414551819541
 20
886.6560362840074
 30
0.0
 11
415.8414551819541
 21
885.6560362840072
 31
0.0
  0
LINE
  5
8515
330
1F
100
AcDbEntity
  8
CETRIS
100
AcDbLine
 10
392.1309980252217
 20
868.5833049901821
 30
0.0
 11
392.1309980252217
 21
884.5833049901967
 31
0.0
  0
LINE
  5
8516
330
1F
100
AcDbEntity
  8
izolace
100
AcDbLine
 10
389.8414551819541
 20
860.6560362840072
 30
0.0
 11
389.8414551819541
 21
886.6560362840074
 31
0.0
  0
LINE
  5
8517
330
1F
100
AcDbEntity
  8
izolace
100
AcDbLine
 10
390.8414551819542
 20
860.6560362840072
 30
0.0
 11
389.8414551819541
 21
860.6560362840072
 31
0.0
  0
LINE
  5
8518
330
1F
100
AcDbEntity
  8
izolace
100
AcDbLine
 10
390.8414551819542
 20
885.6560362840072
 30
0.0
 11
390.8414551819542
 21
860.6560362840072
 31
0.0
  0
LINE
  5
8519
330
1F
100
AcDbEntity
  8
izolace
100
AcDbLine
 10
765.3441044854653
 20
885.6560362840072
 30
0.0
 11
765.3441044854653
 21
860.6560362840072
 31
0.0
  0
LINE
  5
851A
330
1F
100
AcDbEntity
  8
izolace
100
AcDbLine
 10
740.3441044854653
 20
886.6560362840074
 30
0.0
 11
740.3441044854653
 21
885.6560362840072
 31
0.0
  0
LINE
  5
851B
330
1F
100
AcDbEntity
  8
izolace
100
AcDbLine
 10
740.3441044854653
 20
885.6560362840072
 30
0.0
 11
765.3441044854653
 21
885.6560362840072
 31
0.0
  0
LINE
  5
851C
330
1F
100
AcDbEntity
  8
izolace
100
AcDbLine
 10
765.3441044854653
 20
860.6560362840072
 30
0.0
 11
766.3441044854653
 21
860.6560362840072
 31
0.0
  0
LINE
  5
851D
330
1F
100
AcDbEntity
  8
izolace
100
AcDbLine
 10
766.3441044854653
 20
860.6560362840072
 30
0.0
 11
766.3441044854653
 21
886.6560362840074
 31
0.0
  0
LINE
  5
851E
330
1F
100
AcDbEntity
  8
izolace
100
AcDbLine
 10
766.3441044854653
 20
886.6560362840074
 30
0.0
 11
740.3441044854653
 21
886.6560362840074
 31
0.0
  0
HATCH
  5
851F
330
1F
100
AcDbEntity
  8
izolace
100
AcDbHatch
 10
0.0
 20
0.0
 30
0.0
210
0.0
220
0.0
230
1.0
  2
SOLID
 70
     1
 71
     0
 91
        1
 92
        7
 72
     0
 73
     1
 93
        6
 10
765.3441044854653
 20
860.6560362840072
 10
766.3441044854653
 20
860.6560362840072
 10
766.3441044854653
 20
886.6560362840074
 10
740.3441044854653
 20
886.6560362840074
 10
740.3441044854653
 20
885.6560362840072
 10
765.3441044854653
 20
885.6560362840072
 97
        0
 75
     0
 76
     1
 47
0.1823871553156225
 98
        1
 10
765.7091500094347
 20
875.9895398836933
  0
LINE
  5
8520
330
1F
100
AcDbEntity
  8
izolace
100
AcDbLine
 10
415.8414551819541
 20
435.7748341029045
 30
0.0
 11
415.8414551819541
 21
436.7748341029046
 31
0.0
  0
LINE
  5
8521
330
1F
100
AcDbEntity
  8
izolace
100
AcDbLine
 10
390.8414551819542
 20
436.7748341029046
 30
0.0
 11
390.8414551819542
 21
461.7748341029046
 31
0.0
  0
LINE
  5
8522
330
1F
100
AcDbEntity
  8
izolace
100
AcDbLine
 10
390.8414551819542
 20
461.7748341029046
 30
0.0
 11
389.8414551819541
 21
461.7748341029046
 31
0.0
  0
LINE
  5
8523
330
1F
100
AcDbEntity
  8
izolace
100
AcDbLine
 10
389.8414551819541
 20
461.7748341029046
 30
0.0
 11
389.8414551819541
 21
435.7748341029045
 31
0.0
  0
LINE
  5
8524
330
1F
100
AcDbEntity
  8
izolace
100
AcDbLine
 10
389.8414551819541
 20
435.7748341029045
 30
0.0
 11
415.8414551819541
 21
435.7748341029045
 31
0.0
  0
LINE
  5
8525
330
1F
100
AcDbEntity
  8
izolace
100
AcDbLine
 10
415.8414551819541
 20
436.7748341029046
 30
0.0
 11
390.8414551819542
 21
436.7748341029046
 31
0.0
  0
HATCH
  5
8526
330
1F
100
AcDbEntity
  8
izolace
100
AcDbHatch
 10
0.0
 20
0.0
 30
0.0
210
0.0
220
0.0
230
1.0
  2
SOLID
 70
     1
 71
     0
 91
        1
 92
        7
 72
     0
 73
     1
 93
        6
 10
390.8414551819542
 20
461.7748341029046
 10
389.8414551819541
 20
461.7748341029046
 10
389.8414551819541
 20
435.7748341029045
 10
415.8414551819541
 20
435.7748341029045
 10
415.8414551819541
 20
436.7748341029046
 10
390.8414551819542
 20
436.7748341029046
 97
        0
 75
     0
 76
     1
 47
0.1823871553156225
 98
        1
 10
390.4764096579847
 20
446.4413305032185
  0
HATCH
  5
8527
330
1F
100
AcDbEntity
  8
izolace
100
AcDbHatch
 10
0.0
 20
0.0
 30
0.0
210
0.0
220
0.0
230
1.0
  2
SOLID
 70
     1
 71
     0
 91
        1
 92
        7
 72
     0
 73
     1
 93
        6
 10
765.3441044854653
 20
436.7748341029046
 10
740.3441044854653
 20
436.7748341029046
 10
740.3441044854653
 20
435.7748341029045
 10
766.3441044854653
 20
435.7748341029045
 10
766.3441044854653
 20
461.7748341029046
 10
765.3441044854653
 20
461.7748341029046
 97
        0
 75
     0
 76
     1
 47
0.1823871553156225
 98
        1
 10
765.7091500094347
 20
446.4413305032185
  0
LINE
  5
8528
330
1F
100
AcDbEntity
  8
izolace
100
AcDbLine
 10
740.3441044854653
 20
436.7748341029046
 30
0.0
 11
765.3441044854653
 21
436.7748341029046
 31
0.0
  0
LINE
  5
8529
330
1F
100
AcDbEntity
  8
izolace
100
AcDbLine
 10
740.3441044854653
 20
435.7748341029045
 30
0.0
 11
740.3441044854653
 21
436.7748341029046
 31
0.0
  0
LINE
  5
852A
330
1F
100
AcDbEntity
  8
izolace
100
AcDbLine
 10
766.3441044854653
 20
435.7748341029045
 30
0.0
 11
740.3441044854653
 21
435.7748341029045
 31
0.0
  0
LINE
  5
852B
330
1F
100
AcDbEntity
  8
izolace
100
AcDbLine
 10
766.3441044854653
 20
461.7748341029046
 30
0.0
 11
766.3441044854653
 21
435.7748341029045
 31
0.0
  0
LINE
  5
852C
330
1F
100
AcDbEntity
  8
izolace
100
AcDbLine
 10
765.3441044854653
 20
461.7748341029046
 30
0.0
 11
766.3441044854653
 21
461.7748341029046
 31
0.0
  0
LINE
  5
852D
330
1F
100
AcDbEntity
  8
izolace
100
AcDbLine
 10
765.3441044854653
 20
436.7748341029046
 30
0.0
 11
765.3441044854653
 21
461.7748341029046
 31
0.0
  0
CIRCLE
  5
852F
330
1F
100
AcDbEntity
  8
POPIS
100
AcDbCircle
 10
1287.728409748403
 20
815.2915192951523
 30
0.0
 40
11.13656048292026
  0
TEXT
  5
8530
330
1F
100
AcDbEntity
  8
POPIS
100
AcDbText
 10
1282.969380693222
 20
809.7461735501648
 30
0.0
 40
12.0
  1
R
 41
0.85
  7
SIMPLEX7
100
AcDbText
  0
TEXT
  5
8531
330
1F
100
AcDbEntity
  8
POPIS
100
AcDbText
 10
1115.343195454176
 20
635.7705797710195
 30
0.0
 40
25.0
  1
Ocelový sloup
 41
0.7
  7
SIMPLEX7
100
AcDbText
  0
TEXT
  5
8532
330
1F
100
AcDbEntity
  8
POPIS
100
AcDbText
 10
1060.999492294434
 20
635.7705797710195
 30
0.0
 40
25.0
  1
04
 41
0.85
  7
SIMPLEX7
100
AcDbText
  0
TEXT
  5
8533
330
1F
100
AcDbEntity
  8
POPIS
100
AcDbText
 10
1115.343195454176
 20
671.1747409891841
 30
0.0
 40
25.0
  1
Žáruvzdorný tmel DEXAFLAMM - R
 41
0.7
  7
SIMPLEX7
100
AcDbText
  0
TEXT
  5
8534
330
1F
100
AcDbEntity
  8
POPIS
100
AcDbText
 10
1060.999492294434
 20
671.1747409891841
 30
0.0
 40
25.0
  1
03
 41
0.85
  7
SIMPLEX7
100
AcDbText
  0
TEXT
  5
8535
330
1F
100
AcDbEntity
  8
POPIS
100
AcDbText
 10
1115.343195454176
 20
748.1758518262586
 30
0.0
 40
25.0
  1
Vrut Cetris 4,2x35 (45,55) mm
 41
0.7
  7
SIMPLEX7
100
AcDbText
  0
TEXT
  5
8536
330
1F
100
AcDbEntity
  8
POPIS
100
AcDbText
 10
1060.999492294434
 20
748.1758518262586
 30
0.0
 40
25.0
  1
02
 41
0.85
  7
SIMPLEX7
100
AcDbText
  0
TEXT
  5
8537
330
1F
100
AcDbEntity
  8
POPIS
100
AcDbText
 10
1115.343195454176
 20
784.7708634418859
 30
0.0
 40
25.0
  1
Deska CETRIS   (přesazená spára), tl. min. 12 mm
 41
0.7
  7
SIMPLEX7
100
AcDbText
  0
TEXT
  5
8538
330
1F
100
AcDbEntity
  8
POPIS
100
AcDbText
 10
1060.999492294434
 20
784.7708634418859
 30
0.0
 40
25.0
  1
01
 41
0.85
  7
SIMPLEX7
100
AcDbText
  0
TEXT
  5
8539
330
1F
100
AcDbEntity
  8
POPIS
100
AcDbText
 10
1060.999492294434
 20
601.8853082317336
 30
0.0
 40
25.0
  1
05
 41
0.85
  7
SIMPLEX7
100
AcDbText
  0
TEXT
  5
853A
330
1F
100
AcDbEntity
  8
POPIS
100
AcDbText
 10
1115.343195454176
 20
601.8853082317336
 30
0.0
 40
25.0
  1
Rohový plechový profil
 41
0.7
  7
SIMPLEX7
100
AcDbText
  0
TEXT
  5
853B
330
1F
100
AcDbEntity
  8
POPIS
100
AcDbText
 10
265.9166926330244
 20
1115.826694888138
 30
0.0
 40
50.0
  1
Protipožární obklad sloupu
 41
0.85
  7
SIMPLEX7
100
AcDbText
  0
TEXT
  5
853C
330
1F
100
AcDbEntity
  8
POPIS
100
AcDbText
 10
265.0600671523161
 20
992.0683265525431
 30
0.0
 40
35.0
  1
PŮDORYS
 41
0.85
  7
SIMPLEX7
100
AcDbText
  0
LINE
  5
853E
102
{ACAD_REACTORS
330
84FC
102
}
330
1F
100
AcDbEntity
  8
STAVBA OBRYS
100
AcDbLine
 10
428.0927798337025
 20
473.7149469122059
 30
0.0
 11
428.0927798337025
 21
598.7149469122059
 31
0.0
  0
LINE
  5
853F
102
{ACAD_REACTORS
330
84FC
102
}
330
1F
100
AcDbEntity
  8
STAVBA OBRYS
100
AcDbLine
 10
446.6241519040222
 20
521.5213433965882
 30
0.0
 11
440.6806704587024
 21
479.3086969122059
 31
0.0
  0
LINE
  5
8540
102
{ACAD_REACTORS
330
84FC
102
}
330
1F
100
AcDbEntity
  8
STAVBA OBRYS
100
AcDbLine
 10
434.2441470212024
 20
473.7149469122059
 30
0.0
 11
428.0927798337025
 21
473.7149469122059
 31
0.0
  0
ARC
  5
8541
102
{ACAD_REACTORS
330
84FC
102
}
330
1F
100
AcDbEntity
  8
STAVBA OBRYS
100
AcDbCircle
 10
434.2441470211952
 20
480.2149469122078
 30
0.0
 40
6.5
100
AcDbArc
 50
270.0000323295899
 51
351.9855523338083
  0
ARC
  5
8542
102
{ACAD_REACTORS
330
84FC
102
}
330
1F
100
AcDbEntity
  8
STAVBA OBRYS
100
AcDbCircle
 10
457.3185488766712
 20
552.41538636534
 30
0.0
 40
10.8000001907349
100
AcDbArc
 50
188.0145259859675
 51
269.9999640276981
  0
LINE
  5
8543
102
{ACAD_REACTORS
330
84FC
102
}
330
1F
100
AcDbEntity
  8
STAVBA OBRYS
100
AcDbLine
 10
446.6240298337025
 20
550.9095269903382
 30
0.0
 11
440.6806704587024
 21
593.1211969122059
 31
0.0
  0
LINE
  5
8544
102
{ACAD_REACTORS
330
84FC
102
}
330
1F
100
AcDbEntity
  8
STAVBA OBRYS
100
AcDbLine
 10
434.2441470212024
 20
598.7149469122059
 30
0.0
 11
428.0927798337025
 21
598.7149469122059
 31
0.0
  0
ARC
  5
8545
102
{ACAD_REACTORS
330
84FC
102
}
330
1F
100
AcDbEntity
  8
STAVBA OBRYS
100
AcDbCircle
 10
434.2441470211952
 20
592.2149469122078
 30
0.0
 40
6.5
100
AcDbArc
 50
8.01446269315485
 51
89.99998269732657
  0
LINE
  5
8546
102
{ACAD_REACTORS
330
84FC
102
}
330
1F
100
AcDbEntity
  8
STAVBA OBRYS
100
AcDbLine
 10
698.867010790741
 20
541.615337537206
 30
0.0
 11
457.3185488766712
 21
541.615337537206
 31
0.0
  0
LINE
  5
8547
102
{ACAD_REACTORS
330
84FC
102
}
330
1F
100
AcDbEntity
  8
STAVBA OBRYS
100
AcDbLine
 10
698.8668887204212
 20
530.8155328497059
 30
0.0
 11
457.318670946991
 21
530.8155328497059
 31
0.0
  0
ARC
  5
8548
102
{ACAD_REACTORS
330
84FC
102
}
330
1F
100
AcDbEntity
  8
STAVBA OBRYS
100
AcDbCircle
 10
457.318670946991
 20
520.01548402159
 30
0.0
 40
10.8000001907349
100
AcDbArc
 50
90.0
 51
171.9855473248404
  0
ARC
  5
8549
102
{ACAD_REACTORS
330
84FC
102
}
330
1F
100
AcDbEntity
  8
STAVBA OBRYS
100
AcDbCircle
 10
698.867010790741
 20
552.41538636534
 30
0.0
 40
10.8000001907349
100
AcDbArc
 50
269.9999640276981
 51
351.9855113526053
  0
LINE
  5
854A
102
{ACAD_REACTORS
330
84FC
102
}
330
1F
100
AcDbEntity
  8
STAVBA OBRYS
100
AcDbLine
 10
728.0927798337025
 20
473.7149469122059
 30
0.0
 11
728.0927798337025
 21
598.7149469122059
 31
0.0
  0
LINE
  5
854B
102
{ACAD_REACTORS
330
84FC
102
}
330
1F
100
AcDbEntity
  8
STAVBA OBRYS
100
AcDbLine
 10
709.5614077633899
 20
521.5213433965882
 30
0.0
 11
715.5048892087024
 21
479.3086969122059
 31
0.0
  0
ARC
  5
854C
102
{ACAD_REACTORS
330
84FC
102
}
330
1F
100
AcDbEntity
  8
STAVBA OBRYS
100
AcDbCircle
 10
698.8668887204212
 20
520.01548402159
 30
0.0
 40
10.8000001907349
100
AcDbArc
 50
8.01446269315485
 51
89.99998269732657
  0
LINE
  5
854D
102
{ACAD_REACTORS
330
84FC
102
}
330
1F
100
AcDbEntity
  8
STAVBA OBRYS
100
AcDbLine
 10
721.9414126462025
 20
473.7149469122059
 30
0.0
 11
728.0927798337025
 21
473.7149469122059
 31
0.0
  0
ARC
  5
854E
102
{ACAD_REACTORS
330
84FC
102
}
330
1F
100
AcDbEntity
  8
STAVBA OBRYS
100
AcDbCircle
 10
721.9414126461952
 20
480.2149469122078
 30
0.0
 40
6.5
100
AcDbArc
 50
188.0144576841869
 51
269.9999776880765
  0
LINE
  5
854F
102
{ACAD_REACTORS
330
84FC
102
}
330
1F
100
AcDbEntity
  8
STAVBA OBRYS
100
AcDbLine
 10
709.5615298337024
 20
550.9095269903382
 30
0.0
 11
715.5048892087024
 21
593.1211969122059
 31
0.0
  0
LINE
  5
8550
102
{ACAD_REACTORS
330
84FC
102
}
330
1F
100
AcDbEntity
  8
STAVBA OBRYS
100
AcDbLine
 10
721.9414126462025
 20
598.7149469122059
 30
0.0
 11
728.0927798337025
 21
598.7149469122059
 31
0.0
  0
ARC
  5
8551
102
{ACAD_REACTORS
330
84FC
102
}
330
1F
100
AcDbEntity
  8
STAVBA OBRYS
100
AcDbCircle
 10
721.9414126461952
 20
592.2149469122078
 30
0.0
 40
6.5
100
AcDbArc
 50
90.00002732075669
 51
171.9855473248404
  0
ARC
  5
8552
330
1F
100
AcDbEntity
  8
STAVBA OBRYS
100
AcDbCircle
 10
721.9414126461952
 20
842.2149469122077
 30
0.0
 40
6.5
100
AcDbArc
 50
90.00002732075669
 51
171.9855473248404
  0
LINE
  5
8553
330
1F
100
AcDbEntity
  8
STAVBA OBRYS
100
AcDbLine
 10
721.9414126462025
 20
848.7149469122059
 30
0.0
 11
728.0927798337025
 21
848.7149469122059
 31
0.0
  0
LINE
  5
8554
330
1F
100
AcDbEntity
  8
STAVBA OBRYS
100
AcDbLine
 10
709.5615298337024
 20
800.9095269903381
 30
0.0
 11
715.5048892087024
 21
843.121196912206
 31
0.0
  0
ARC
  5
8555
330
1F
100
AcDbEntity
  8
STAVBA OBRYS
100
AcDbCircle
 10
721.9414126461952
 20
730.2149469122078
 30
0.0
 40
6.5
100
AcDbArc
 50
188.0144576841869
 51
269.9999776880765
  0
LINE
  5
8556
330
1F
100
AcDbEntity
  8
STAVBA OBRYS
100
AcDbLine
 10
721.9414126462025
 20
723.7149469122059
 30
0.0
 11
728.0927798337025
 21
723.7149469122059
 31
0.0
  0
ARC
  5
8557
330
1F
100
AcDbEntity
  8
STAVBA OBRYS
100
AcDbCircle
 10
698.8668887204212
 20
770.01548402159
 30
0.0
 40
10.8000001907349
100
AcDbArc
 50
8.01446269315485
 51
89.99998269732657
  0
LINE
  5
8558
330
1F
100
AcDbEntity
  8
STAVBA OBRYS
100
AcDbLine
 10
709.5614077633899
 20
771.5213433965882
 30
0.0
 11
715.5048892087024
 21
729.3086969122059
 31
0.0
  0
LINE
  5
8559
330
1F
100
AcDbEntity
  8
STAVBA OBRYS
100
AcDbLine
 10
728.0927798337025
 20
723.7149469122059
 30
0.0
 11
728.0927798337025
 21
848.7149469122059
 31
0.0
  0
ARC
  5
855A
330
1F
100
AcDbEntity
  8
STAVBA OBRYS
100
AcDbCircle
 10
698.867010790741
 20
802.4153863653401
 30
0.0
 40
10.8000001907349
100
AcDbArc
 50
269.9999640276981
 51
351.9855113526053
  0
ARC
  5
855B
330
1F
100
AcDbEntity
  8
STAVBA OBRYS
100
AcDbCircle
 10
457.318670946991
 20
770.01548402159
 30
0.0
 40
10.8000001907349
100
AcDbArc
 50
90.0
 51
171.9855473248404
  0
LINE
  5
855C
330
1F
100
AcDbEntity
  8
STAVBA OBRYS
100
AcDbLine
 10
698.8668887204212
 20
780.8155328497059
 30
0.0
 11
457.318670946991
 21
780.8155328497059
 31
0.0
  0
LINE
  5
855D
330
1F
100
AcDbEntity
  8
STAVBA OBRYS
100
AcDbLine
 10
698.867010790741
 20
791.615337537206
 30
0.0
 11
457.3185488766712
 21
791.615337537206
 31
0.0
  0
ARC
  5
855E
330
1F
100
AcDbEntity
  8
STAVBA OBRYS
100
AcDbCircle
 10
434.2441470211952
 20
842.2149469122077
 30
0.0
 40
6.5
100
AcDbArc
 50
8.01446269315485
 51
89.99998269732657
  0
LINE
  5
855F
330
1F
100
AcDbEntity
  8
STAVBA OBRYS
100
AcDbLine
 10
434.2441470212024
 20
848.7149469122059
 30
0.0
 11
428.0927798337025
 21
848.7149469122059
 31
0.0
  0
LINE
  5
8560
330
1F
100
AcDbEntity
  8
STAVBA OBRYS
100
AcDbLine
 10
446.6240298337025
 20
800.9095269903381
 30
0.0
 11
440.6806704587024
 21
843.121196912206
 31
0.0
  0
ARC
  5
8561
330
1F
100
AcDbEntity
  8
STAVBA OBRYS
100
AcDbCircle
 10
457.3185488766712
 20
802.4153863653401
 30
0.0
 40
10.8000001907349
100
AcDbArc
 50
188.0145259859675
 51
269.9999640276981
  0
ARC
  5
8562
330
1F
100
AcDbEntity
  8
STAVBA OBRYS
100
AcDbCircle
 10
434.2441470211952
 20
730.2149469122078
 30
0.0
 40
6.5
100
AcDbArc
 50
270.0000323295899
 51
351.9855523338083
  0
LINE
  5
8563
330
1F
100
AcDbEntity
  8
STAVBA OBRYS
100
AcDbLine
 10
434.2441470212024
 20
723.7149469122059
 30
0.0
 11
428.0927798337025
 21
723.7149469122059
 31
0.0
  0
LINE
  5
8564
330
1F
100
AcDbEntity
  8
STAVBA OBRYS
100
AcDbLine
 10
446.6241519040222
 20
771.5213433965882
 30
0.0
 11
440.6806704587024
 21
729.3086969122059
 31
0.0
  0
LINE
  5
8565
330
1F
100
AcDbEntity
  8
STAVBA OBRYS
100
AcDbLine
 10
428.0927798337025
 20
723.7149469122059
 30
0.0
 11
428.0927798337025
 21
848.7149469122059
 31
0.0
  0
LINE
  5
8566
330
1F
100
AcDbEntity
  8
CETRIS
100
AcDbLine
 10
426.1309980252217
 20
848.5833049901893
 30
0.0
 11
426.1309980252217
 21
473.8475653967225
 31
0.0
  0
LINE
  5
8567
330
1F
100
AcDbEntity
  8
CETRIS
100
AcDbLine
 10
410.1309980252217
 20
471.8475653967225
 30
0.0
 11
746.0545616421905
 21
471.8475653967225
 31
0.0
  0
LINE
  5
8568
330
1F
100
AcDbEntity
  8
CETRIS
100
AcDbLine
 10
410.1309980252217
 20
850.5833049901893
 30
0.0
 11
746.0545616421905
 21
850.5833049901893
 31
0.0
  0
LINE
  5
8569
330
1F
100
AcDbEntity
  8
CETRIS
100
AcDbLine
 10
410.1309980252217
 20
848.5833049901893
 30
0.0
 11
410.1309980252217
 21
473.8475653967225
 31
0.0
  0
LINE
  5
856A
330
1F
100
AcDbEntity
  8
CETRIS
100
AcDbLine
 10
410.1309980252217
 20
455.8475653967225
 30
0.0
 11
746.0545616421905
 21
455.8475653967152
 31
0.0
  0
LINE
  5
856B
330
1F
100
AcDbEntity
  8
CETRIS
100
AcDbLine
 10
392.1309980252217
 20
866.5833049901893
 30
0.0
 11
392.1309980252217
 21
455.8475653967225
 31
0.0
  0
LINE
  5
856C
330
1F
100
AcDbEntity
  8
CETRIS
100
AcDbLine
 10
410.1309980252217
 20
866.5833049901893
 30
0.0
 11
746.0545616421905
 21
866.5833049901893
 31
0.0
  0
LINE
  5
856D
330
1F
100
AcDbEntity
  8
CETRIS
100
AcDbLine
 10
392.1309980252217
 20
884.5833049901894
 30
0.0
 11
764.0545616421904
 21
884.5833049901894
 31
0.0
  0
LINE
  5
856E
330
1F
100
AcDbEntity
  8
CETRIS
100
AcDbLine
 10
410.1309980252217
 20
848.5833049901893
 30
0.0
 11
426.1309980252217
 21
848.5833049901893
 31
0.0
  0
LINE
  5
856F
330
1F
100
AcDbEntity
  8
CETRIS
100
AcDbLine
 10
410.1309980252217
 20
850.5833049901893
 30
0.0
 11
410.1309980252217
 21
866.5833049901893
 31
0.0
  0
LINE
  5
8570
330
1F
100
AcDbEntity
  8
CETRIS
100
AcDbLine
 10
408.1309980252217
 20
866.5833049901893
 30
0.0
 11
408.1309980252217
 21
455.8475653967225
 31
0.0
  0
LINE
  5
8571
330
1F
100
AcDbEntity
  8
CETRIS
100
AcDbLine
 10
392.1309980252217
 20
868.5833049901821
 30
0.0
 11
764.0545616421904
 21
868.5833049901894
 31
0.0
  0
LINE
  5
8572
330
1F
100
AcDbEntity
  8
CETRIS
100
AcDbLine
 10
408.130998025229
 20
866.5833049901893
 30
0.0
 11
392.1309980252217
 21
866.5833049901893
 31
0.0
  0
LINE
  5
8573
330
1F
100
AcDbEntity
  8
CETRIS
100
AcDbLine
 10
392.1309980252217
 20
868.5833049901821
 30
0.0
 11
392.1309980252217
 21
884.5833049901894
 31
0.0
  0
LINE
  5
8574
330
1F
100
AcDbEntity
  8
CETRIS
100
AcDbLine
 10
392.1309980252217
 20
453.8475653967298
 30
0.0
 11
392.1309980252217
 21
437.8475653967152
 31
0.0
  0
LINE
  5
8575
330
1F
100
AcDbEntity
  8
CETRIS
100
AcDbLine
 10
408.1309980252217
 20
455.8475653967225
 30
0.0
 11
392.1309980252217
 21
455.8475653967225
 31
0.0
  0
LINE
  5
8576
330
1F
100
AcDbEntity
  8
CETRIS
100
AcDbLine
 10
410.1309980252217
 20
471.8475653967225
 30
0.0
 11
410.1309980252217
 21
455.8475653967225
 31
0.0
  0
LINE
  5
8577
330
1F
100
AcDbEntity
  8
CETRIS
100
AcDbLine
 10
410.1309980252217
 20
473.8475653967225
 30
0.0
 11
426.1309980252217
 21
473.8475653967225
 31
0.0
  0
LINE
  5
8578
330
1F
100
AcDbEntity
  8
CETRIS
100
AcDbLine
 10
392.1309980252217
 20
437.8475653967152
 30
0.0
 11
764.0545616421904
 21
437.8475653967225
 31
0.0
  0
LINE
  5
8579
330
1F
100
AcDbEntity
  8
CETRIS
100
AcDbLine
 10
392.1309980252217
 20
453.8475653967298
 30
0.0
 11
764.0545616421904
 21
453.8475653967298
 31
0.0
  0
LINE
  5
857A
330
1F
100
AcDbEntity
  8
CETRIS
100
AcDbLine
 10
764.0545616421904
 20
868.5833049901894
 30
0.0
 11
764.0545616421904
 21
884.5833049901894
 31
0.0
  0
LINE
  5
857B
330
1F
100
AcDbEntity
  8
CETRIS
100
AcDbLine
 10
748.0545616421904
 20
866.5833049901893
 30
0.0
 11
764.0545616421904
 21
866.5833049901893
 31
0.0
  0
LINE
  5
857C
330
1F
100
AcDbEntity
  8
CETRIS
100
AcDbLine
 10
746.0545616421905
 20
850.5833049901893
 30
0.0
 11
746.0545616421905
 21
866.5833049901893
 31
0.0
  0
LINE
  5
857D
330
1F
100
AcDbEntity
  8
CETRIS
100
AcDbLine
 10
746.0545616421905
 20
848.5833049901893
 30
0.0
 11
730.0545616421905
 21
848.5833049901893
 31
0.0
  0
LINE
  5
857E
330
1F
100
AcDbEntity
  8
CETRIS
100
AcDbLine
 10
746.0545616421905
 20
473.8475653967225
 30
0.0
 11
730.0545616421905
 21
473.8475653967225
 31
0.0
  0
LINE
  5
857F
330
1F
100
AcDbEntity
  8
CETRIS
100
AcDbLine
 10
746.0545616421905
 20
471.8475653967225
 30
0.0
 11
746.0545616421905
 21
455.8475653967152
 31
0.0
  0
LINE
  5
8580
330
1F
100
AcDbEntity
  8
CETRIS
100
AcDbLine
 10
748.0545616421904
 20
455.8475653967225
 30
0.0
 11
764.0545616421904
 21
455.8475653967225
 31
0.0
  0
LINE
  5
8581
330
1F
100
AcDbEntity
  8
CETRIS
100
AcDbLine
 10
764.0545616421904
 20
453.8475653967298
 30
0.0
 11
764.0545616421904
 21
437.8475653967225
 31
0.0
  0
LINE
  5
8582
330
1F
100
AcDbEntity
  8
CETRIS
100
AcDbLine
 10
748.0545616421904
 20
866.5833049901893
 30
0.0
 11
748.0545616421904
 21
455.8475653967225
 31
0.0
  0
LINE
  5
8583
330
1F
100
AcDbEntity
  8
CETRIS
100
AcDbLine
 10
764.0545616421904
 20
866.5833049901893
 30
0.0
 11
764.0545616421904
 21
455.8475653967225
 31
0.0
  0
LINE
  5
8584
330
1F
100
AcDbEntity
  8
CETRIS
100
AcDbLine
 10
746.0545616421905
 20
848.5833049901893
 30
0.0
 11
746.0545616421905
 21
473.8475653967225
 31
0.0
  0
LINE
  5
8585
330
1F
100
AcDbEntity
  8
CETRIS
100
AcDbLine
 10
730.0545616421905
 20
848.5833049901893
 30
0.0
 11
730.0545616421905
 21
473.8475653967225
 31
0.0
  0
LWPOLYLINE
  5
8586
330
1F
100
AcDbEntity
  8
izolace
100
AcDbPolyline
 90
        4
 70
     1
 43
0.0
 10
426.1309980252217
 20
473.8475653967225
 10
426.1309980252217
 20
471.8475653967225
 10
410.1309980252217
 20
471.8475653967225
 10
410.1309980252217
 20
473.8475653967225
  0
HATCH
  5
8587
330
1F
100
AcDbEntity
  8
izolace
100
AcDbHatch
 10
0.0
 20
0.0
 30
0.0
210
0.0
220
0.0
230
1.0
  2
SOLID
 70
     1
 71
     0
 91
        1
 92
        7
 72
     0
 73
     1
 93
        4
 10
410.130998025229
 20
471.8475653967225
 10
426.1309980252217
 20
471.8475653967225
 10
426.1309980252217
 20
473.8475653967225
 10
410.1309980252217
 20
473.8475653967225
 97
        0
 75
     0
 76
     1
 47
0.1251877957572703
 98
        1
 10
416.3675845834104
 20
472.7649288695874
  0
HATCH
  5
8588
330
1F
100
AcDbEntity
  8
izolace
100
AcDbHatch
 10
0.0
 20
0.0
 30
0.0
210
0.0
220
0.0
230
1.0
  2
SOLID
 70
     1
 71
     0
 91
        1
 92
        7
 72
     0
 73
     1
 93
        4
 10
392.1309980251999
 20
453.8475653967298
 10
408.1309980252217
 20
453.8475653967225
 10
408.1309980252217
 20
455.8475653967225
 10
392.1309980252217
 20
455.8475653967225
 97
        0
 75
     0
 76
     1
 47
0.1251877957572703
 98
        1
 10
398.3675845834104
 20
454.7649288695875
  0
LWPOLYLINE
  5
8589
330
1F
100
AcDbEntity
  8
izolace
100
AcDbPolyline
 90
        4
 70
     1
 43
0.0
 10
408.1309980252217
 20
455.8475653967225
 10
408.1309980252217
 20
453.8475653967225
 10
392.1309980252217
 20
453.8475653967225
 10
392.1309980252217
 20
455.8475653967225
  0
HATCH
  5
858A
330
1F
100
AcDbEntity
  8
izolace
100
AcDbHatch
 10
0.0
 20
0.0
 30
0.0
210
0.0
220
0.0
230
1.0
  2
SOLID
 70
     1
 71
     0
 91
        1
 92
        7
 72
     0
 73
     1
 93
        4
 10
410.130998025229
 20
848.5833049901893
 10
426.1309980252217
 20
848.5833049901893
 10
426.1309980252217
 20
850.5833049901893
 10
410.1309980252217
 20
850.5833049901893
 97
        0
 75
     0
 76
     1
 47
0.1251877957572703
 98
        1
 10
416.3675845834104
 20
849.5006684630544
  0
LWPOLYLINE
  5
858B
330
1F
100
AcDbEntity
  8
izolace
100
AcDbPolyline
 90
        4
 70
     1
 43
0.0
 10
426.1309980252217
 20
850.5833049901893
 10
426.1309980252217
 20
848.5833049901893
 10
410.1309980252217
 20
848.5833049901893
 10
410.1309980252217
 20
850.5833049901893
  0
HATCH
  5
858C
330
1F
100
AcDbEntity
  8
izolace
100
AcDbHatch
 10
0.0
 20
0.0
 30
0.0
210
0.0
220
0.0
230
1.0
  2
SOLID
 70
     1
 71
     0
 91
        1
 92
        7
 72
     0
 73
     1
 93
        4
 10
748.054561642205
 20
866.5833049901893
 10
764.0545616421904
 20
866.5833049901893
 10
764.0545616421904
 20
868.5833049901894
 10
748.0545616421904
 20
868.5833049901894
 97
        0
 75
     0
 76
     1
 47
0.1251877957572703
 98
        1
 10
754.2911482003792
 20
867.5006684630544
  0
LWPOLYLINE
  5
858D
330
1F
100
AcDbEntity
  8
izolace
100
AcDbPolyline
 90
        4
 70
     1
 43
0.0
 10
764.0545616421904
 20
868.5833049901894
 10
764.0545616421904
 20
866.5833049901893
 10
748.0545616421904
 20
866.5833049901893
 10
748.0545616421904
 20
868.5833049901894
  0
HATCH
  5
858E
330
1F
100
AcDbEntity
  8
izolace
100
AcDbHatch
 10
0.0
 20
0.0
 30
0.0
210
0.0
220
0.0
230
1.0
  2
SOLID
 70
     1
 71
     0
 91
        1
 92
        7
 72
     0
 73
     1
 93
        4
 10
392.1309980251708
 20
866.583304990182
 10
408.1309980252217
 20
866.583304990182
 10
408.1309980252217
 20
868.5833049901821
 10
392.1309980252217
 20
868.5833049901821
 97
        0
 75
     0
 76
     1
 47
0.1251877957572703
 98
        1
 10
398.3675845834104
 20
867.5006684630471
  0
LWPOLYLINE
  5
858F
330
1F
100
AcDbEntity
  8
izolace
100
AcDbPolyline
 90
        4
 70
     1
 43
0.0
 10
408.1309980252217
 20
868.5833049901821
 10
408.1309980252217
 20
866.583304990182
 10
392.1309980252217
 20
866.583304990182
 10
392.1309980252217
 20
868.5833049901821
  0
LWPOLYLINE
  5
8590
330
1F
100
AcDbEntity
  8
izolace
100
AcDbPolyline
 90
        4
 70
     1
 43
0.0
 10
746.0545616421905
 20
850.5833049901893
 10
746.0545616421905
 20
848.5833049901893
 10
730.0545616421905
 20
848.5833049901893
 10
730.0545616421905
 20
850.5833049901893
  0
HATCH
  5
8591
330
1F
100
AcDbEntity
  8
izolace
100
AcDbHatch
 10
0.0
 20
0.0
 30
0.0
210
0.0
220
0.0
230
1.0
  2
SOLID
 70
     1
 71
     0
 91
        1
 92
        7
 72
     0
 73
     1
 93
        4
 10
730.0545616421613
 20
848.5833049901893
 10
746.0545616421905
 20
848.5833049901893
 10
746.0545616421905
 20
850.5833049901893
 10
730.0545616421905
 20
850.5833049901893
 97
        0
 75
     0
 76
     1
 47
0.1251877957572703
 98
        1
 10
736.2911482003791
 20
849.5006684630544
  0
LWPOLYLINE
  5
8592
330
1F
100
AcDbEntity
  8
izolace
100
AcDbPolyline
 90
        4
 70
     1
 43
0.0
 10
746.0545616421905
 20
473.8475653967225
 10
746.0545616421905
 20
471.8475653967225
 10
730.0545616421905
 20
471.8475653967225
 10
730.0545616421905
 20
473.8475653967225
  0
HATCH
  5
8593
330
1F
100
AcDbEntity
  8
izolace
100
AcDbHatch
 10
0.0
 20
0.0
 30
0.0
210
0.0
220
0.0
230
1.0
  2
SOLID
 70
     1
 71
     0
 91
        1
 92
        7
 72
     0
 73
     1
 93
        4
 10
730.054561642205
 20
471.8475653967225
 10
746.0545616421905
 20
471.8475653967225
 10
746.0545616421905
 20
473.8475653967225
 10
730.0545616421905
 20
473.8475653967225
 97
        0
 75
     0
 76
     1
 47
0.1251877957572703
 98
        1
 10
736.2911482003791
 20
472.7649288695874
  0
LWPOLYLINE
  5
8594
330
1F
100
AcDbEntity
  8
izolace
100
AcDbPolyline
 90
        4
 70
     1
 43
0.0
 10
764.0545616421904
 20
455.8475653967225
 10
764.0545616421904
 20
453.8475653967225
 10
748.0545616421904
 20
453.8475653967225
 10
748.0545616421904
 20
455.8475653967225
  0
HATCH
  5
8595
330
1F
100
AcDbEntity
  8
izolace
100
AcDbHatch
 10
0.0
 20
0.0
 30
0.0
210
0.0
220
0.0
230
1.0
  2
SOLID
 70
     1
 71
     0
 91
        1
 92
        7
 72
     0
 73
     1
 93
        4
 10
748.0545616421686
 20
453.8475653967225
 10
764.0545616421904
 20
453.8475653967225
 10
764.0545616421904
 20
455.8475653967225
 10
748.0545616421904
 20
455.8475653967225
 97
        0
 75
     0
 76
     1
 47
0.1251877957572703
 98
        1
 10
754.2911482003792
 20
454.7649288695875
  0
LINE
  5
8596
330
1F
100
AcDbEntity
  8
SPOJOVACÍ
  6
Continuous
100
AcDbLine
 10
401.5324856796387
 20
455.3181271931871
 30
0.0
 11
401.5324856796387
 21
457.8463450060562
 31
0.0
  0
LINE
  5
8597
330
1F
100
AcDbEntity
  8
SPOJOVACÍ
  6
Continuous
100
AcDbLine
 10
398.8331155169025
 20
456.231559824574
 30
0.0
 11
398.8331155169025
 21
458.7523362312831
 31
0.0
  0
LINE
  5
8598
330
1F
100
AcDbEntity
  8
SPOJOVACÍ
  6
Continuous
100
AcDbLine
 10
401.5324856796387
 20
458.450959273342
 30
0.0
 11
401.5324856796387
 21
460.9689451526691
 31
0.0
  0
LINE
  5
8599
330
1F
100
AcDbEntity
  8
SPOJOVACÍ
  6
Continuous
100
AcDbLine
 10
401.5324856796387
 20
461.5651878378239
 30
0.0
 11
401.5324856796387
 21
462.8125535797125
 31
0.0
  0
LINE
  5
859A
330
1F
100
AcDbEntity
  8
SPOJOVACÍ
  6
Continuous
100
AcDbLine
 10
398.8331155169025
 20
459.353229795216
 30
0.0
 11
398.8331155169025
 21
461.872145850245
 31
0.0
  0
LINE
  5
859B
330
1F
100
AcDbEntity
  8
SPOJOVACÍ
  6
Continuous
100
AcDbLine
 10
398.8331155169025
 20
462.475829941829
 30
0.0
 11
398.8331155169025
 21
462.8125535797125
 31
0.0
  0
LINE
  5
859C
330
1F
100
AcDbEntity
  8
SPOJOVACÍ
  6
Continuous
100
AcDbLine
 10
401.5324856796387
 20
462.8125535797125
 30
0.0
 11
401.3827273769156
 21
464.0096898290694
 31
0.0
  0
LINE
  5
859D
330
1F
100
AcDbEntity
  8
SPOJOVACÍ
  6
Continuous
100
AcDbLine
 10
400.1828006004534
 20
473.6128247446658
 30
0.0
 11
399.8284036193244
 21
470.7767187433973
 31
0.0
  0
LINE
  5
859E
330
1F
100
AcDbEntity
  8
SPOJOVACÍ
  6
Continuous
100
AcDbLine
 10
401.3055227843897
 20
464.6301170849228
 30
0.0
 11
401.0153079348701
 21
466.9518358709874
 31
0.0
  0
LINE
  5
859F
330
1F
100
AcDbEntity
  8
SPOJOVACÍ
  6
Continuous
100
AcDbLine
 10
400.936242992032
 20
467.582495060652
 30
0.0
 11
400.646028146878
 21
469.9032836710075
 31
0.0
  0
LINE
  5
85A0
330
1F
100
AcDbEntity
  8
SPOJOVACÍ
  6
Continuous
100
AcDbLine
 10
400.568823554352
 20
470.5237109268609
 30
0.0
 11
400.1828006004534
 21
473.6128247446658
 31
0.0
  0
LINE
  5
85A1
330
1F
100
AcDbEntity
  8
SPOJOVACÍ
  6
Continuous
100
AcDbLine
 10
399.7567800821006
 20
470.2074511563305
 30
0.0
 11
399.4888894537898
 21
468.062465771346
 31
0.0
  0
LINE
  5
85A2
330
1F
100
AcDbEntity
  8
SPOJOVACÍ
  6
Continuous
100
AcDbLine
 10
399.4172659209316
 20
467.4904076568973
 30
0.0
 11
399.150305465594
 21
465.3537938540439
 31
0.0
  0
LINE
  5
85A3
330
1F
100
AcDbEntity
  8
SPOJOVACÍ
  6
Continuous
100
AcDbLine
 10
399.0786819283703
 20
464.7835960909987
 30
0.0
 11
398.8331155169025
 21
462.8125535797125
 31
0.0
  0
LINE
  5
85A4
330
1F
100
AcDbEntity
  8
SPOJOVACÍ
  6
Continuous
100
AcDbLine
 10
402.3287161589569
 20
464.2050267460917
 30
0.0
 11
401.9501346106726
 21
464.4236180581183
 31
0.0
  0
LINE
  5
85A5
330
1F
100
AcDbEntity
  8
SPOJOVACÍ
  6
Continuous
100
AcDbLine
 10
402.3287161589569
 20
464.2050267460917
 30
0.0
 11
401.9501346106726
 21
463.8273753729635
 31
0.0
  0
LINE
  5
85A6
330
1F
100
AcDbEntity
  8
SPOJOVACÍ
  6
Continuous
100
AcDbLine
 10
398.2033865062139
 20
465.1779906283963
 30
0.0
 11
398.5810378771593
 21
465.5565721775028
 31
0.0
  0
LINE
  5
85A7
330
1F
100
AcDbEntity
  8
SPOJOVACÍ
  6
Continuous
100
AcDbLine
 10
398.2033865062139
 20
465.1779906283963
 30
0.0
 11
398.5810378771593
 21
464.9603294923481
 31
0.0
  0
LINE
  5
85A8
330
1F
100
AcDbEntity
  8
SPOJOVACÍ
  6
Continuous
100
AcDbLine
 10
401.9501346106726
 20
464.4236180581183
 30
0.0
 11
398.5810378771593
 21
465.5565721775028
 31
0.0
  0
LINE
  5
85A9
330
1F
100
AcDbEntity
  8
SPOJOVACÍ
  6
Continuous
100
AcDbLine
 10
401.9501346106726
 20
463.8273753729635
 30
0.0
 11
398.5810378771593
 21
464.9603294923481
 31
0.0
  0
LINE
  5
85AA
330
1F
100
AcDbEntity
  8
SPOJOVACÍ
  6
Continuous
100
AcDbLine
 10
402.3287161589569
 20
464.2050267460917
 30
0.0
 11
398.2033865062139
 21
465.1779906283963
 31
0.0
  0
LINE
  5
85AB
330
1F
100
AcDbEntity
  8
SPOJOVACÍ
  6
Continuous
100
AcDbLine
 10
401.764099452851
 20
467.2197265003896
 30
0.0
 11
401.38644807754
 21
467.4373876364379
 31
0.0
  0
LINE
  5
85AC
330
1F
100
AcDbEntity
  8
SPOJOVACÍ
  6
Continuous
100
AcDbLine
 10
401.764099452851
 20
467.2197265003896
 30
0.0
 11
401.38644807754
 21
466.8411449512832
 31
0.0
  0
LINE
  5
85AD
330
1F
100
AcDbEntity
  8
SPOJOVACÍ
  6
Continuous
100
AcDbLine
 10
398.6480105364198
 20
467.8531762171596
 30
0.0
 11
399.0256619073652
 21
468.2317577659896
 31
0.0
  0
LINE
  5
85AE
330
1F
100
AcDbEntity
  8
SPOJOVACÍ
  6
Continuous
100
AcDbLine
 10
398.6480105364198
 20
467.8531762171596
 30
0.0
 11
399.0256619073652
 21
467.6355150811113
 31
0.0
  0
LINE
  5
85AF
330
1F
100
AcDbEntity
  8
SPOJOVACÍ
  6
Continuous
100
AcDbLine
 10
401.38644807754
 20
467.4373876364379
 30
0.0
 11
399.0256619073652
 21
468.2317577659896
 31
0.0
  0
LINE
  5
85B0
330
1F
100
AcDbEntity
  8
SPOJOVACÍ
  6
Continuous
100
AcDbLine
 10
401.38644807754
 20
466.8411449512832
 30
0.0
 11
399.0256619073652
 21
467.6355150811113
 31
0.0
  0
LINE
  5
85B1
330
1F
100
AcDbEntity
  8
SPOJOVACÍ
  6
Continuous
100
AcDbLine
 10
401.764099452851
 20
467.2197265003896
 30
0.0
 11
398.6480105364198
 21
467.8531762171596
 31
0.0
  0
LINE
  5
85B2
330
1F
100
AcDbEntity
  8
SPOJOVACÍ
  6
Continuous
100
AcDbLine
 10
401.1994827423795
 20
470.2334960787093
 30
0.0
 11
400.8218313714341
 21
470.4520873907285
 31
0.0
  0
LINE
  5
85B3
330
1F
100
AcDbEntity
  8
SPOJOVACÍ
  6
Continuous
100
AcDbLine
 10
401.1994827423795
 20
470.2334960787093
 30
0.0
 11
400.8218313714341
 21
469.8558447055811
 31
0.0
  0
LINE
  5
85B4
330
1F
100
AcDbEntity
  8
SPOJOVACÍ
  6
Continuous
100
AcDbLine
 10
399.0451956009228
 20
470.5441747944832
 30
0.0
 11
399.4228469718682
 21
470.9227563433132
 31
0.0
  0
LINE
  5
85B5
330
1F
100
AcDbEntity
  8
SPOJOVACÍ
  6
Continuous
100
AcDbLine
 10
399.0451956009228
 20
470.5441747944832
 30
0.0
 11
399.4228469718682
 21
470.3265136581658
 31
0.0
  0
LINE
  5
85B6
330
1F
100
AcDbEntity
  8
SPOJOVACÍ
  6
Continuous
100
AcDbLine
 10
400.8218313714341
 20
470.4520873907285
 30
0.0
 11
399.4228469718682
 21
470.9227563433132
 31
0.0
  0
LINE
  5
85B7
330
1F
100
AcDbEntity
  8
SPOJOVACÍ
  6
Continuous
100
AcDbLine
 10
400.8218313714341
 20
469.8558447055811
 30
0.0
 11
399.4228469718682
 21
470.3265136581658
 31
0.0
  0
LINE
  5
85B8
330
1F
100
AcDbEntity
  8
SPOJOVACÍ
  6
Continuous
100
AcDbLine
 10
401.1994827423795
 20
470.2334960787093
 30
0.0
 11
399.0451956009228
 21
470.5441747944832
 31
0.0
  0
LINE
  5
85B9
330
1F
100
AcDbEntity
  8
SPOJOVACÍ
  6
Continuous
100
AcDbLine
 10
402.5826541533779
 20
458.0072654188379
 30
0.0
 11
397.7829470475289
 21
459.2071921953001
 31
0.0
  0
LINE
  5
85BA
330
1F
100
AcDbEntity
  8
SPOJOVACÍ
  6
Continuous
100
AcDbLine
 10
402.5826541533779
 20
458.0072654188379
 30
0.0
 11
402.2050027780669
 21
458.2258567308572
 31
0.0
  0
LINE
  5
85BB
330
1F
100
AcDbEntity
  8
SPOJOVACÍ
  6
Continuous
100
AcDbLine
 10
402.5826541533779
 20
458.0072654188379
 30
0.0
 11
402.2050027780669
 21
457.6296140457097
 31
0.0
  0
LINE
  5
85BC
330
1F
100
AcDbEntity
  8
SPOJOVACÍ
  6
Continuous
100
AcDbLine
 10
397.7829470475289
 20
459.2071921953001
 30
0.0
 11
398.1605984184743
 21
459.5857737441301
 31
0.0
  0
LINE
  5
85BD
330
1F
100
AcDbEntity
  8
SPOJOVACÍ
  6
Continuous
100
AcDbLine
 10
397.7829470475289
 20
459.2071921953001
 30
0.0
 11
398.1605984184743
 21
458.9895310592519
 31
0.0
  0
LINE
  5
85BE
330
1F
100
AcDbEntity
  8
SPOJOVACÍ
  6
Continuous
100
AcDbLine
 10
402.2050027780669
 20
458.2258567308572
 30
0.0
 11
398.1605984184743
 21
459.5857737441301
 31
0.0
  0
LINE
  5
85BF
330
1F
100
AcDbEntity
  8
SPOJOVACÍ
  6
Continuous
100
AcDbLine
 10
402.2050027780669
 20
457.6296140457097
 30
0.0
 11
398.1605984184743
 21
458.9895310592519
 31
0.0
  0
LINE
  5
85C0
330
1F
100
AcDbEntity
  8
SPOJOVACÍ
  6
Continuous
100
AcDbLine
 10
402.5826541533779
 20
461.1280052137781
 30
0.0
 11
397.7829470475289
 21
462.3279319902403
 31
0.0
  0
LINE
  5
85C1
330
1F
100
AcDbEntity
  8
SPOJOVACÍ
  6
Continuous
100
AcDbLine
 10
402.5826541533779
 20
461.1280052137781
 30
0.0
 11
402.2050027780669
 21
461.3456663498263
 31
0.0
  0
LINE
  5
85C2
330
1F
100
AcDbEntity
  8
SPOJOVACÍ
  6
Continuous
100
AcDbLine
 10
402.5826541533779
 20
461.1280052137781
 30
0.0
 11
402.2050027780669
 21
460.7494236646716
 31
0.0
  0
LINE
  5
85C3
330
1F
100
AcDbEntity
  8
SPOJOVACÍ
  6
Continuous
100
AcDbLine
 10
397.7829470475289
 20
462.3279319902403
 30
0.0
 11
398.1605984184743
 21
462.7055833633685
 31
0.0
  0
LINE
  5
85C4
330
1F
100
AcDbEntity
  8
SPOJOVACÍ
  6
Continuous
100
AcDbLine
 10
397.7829470475289
 20
462.3279319902403
 30
0.0
 11
398.1605984184743
 21
462.1093406782137
 31
0.0
  0
LINE
  5
85C5
330
1F
100
AcDbEntity
  8
SPOJOVACÍ
  6
Continuous
100
AcDbLine
 10
402.2050027780669
 20
461.3456663498263
 30
0.0
 11
398.1605984184743
 21
462.7055833633685
 31
0.0
  0
LINE
  5
85C6
330
1F
100
AcDbEntity
  8
SPOJOVACÍ
  6
Continuous
100
AcDbLine
 10
402.2050027780669
 20
460.7494236646716
 30
0.0
 11
398.1605984184743
 21
462.1093406782137
 31
0.0
  0
LINE
  5
85C7
330
1F
100
AcDbEntity
  8
SPOJOVACÍ
  6
Continuous
100
AcDbLine
 10
397.9931667768714
 20
441.5096675046706
 30
0.0
 11
396.7834926323948
 21
439.985243195003
 31
0.0
  0
LINE
  5
85C8
330
1F
100
AcDbEntity
  8
SPOJOVACÍ
  6
Continuous
100
AcDbLine
 10
398.6061526260191
 20
442.9235347143739
 30
0.0
 11
397.9931667768714
 21
441.5096675046706
 31
0.0
  0
LINE
  5
85C9
330
1F
100
AcDbEntity
  8
SPOJOVACÍ
  6
Continuous
100
AcDbLine
 10
398.8331155169025
 20
444.4471626678032
 30
0.0
 11
398.6061526260191
 21
442.9235347143739
 31
0.0
  0
LINE
  5
85CA
330
1F
100
AcDbEntity
  8
SPOJOVACÍ
  6
Continuous
100
AcDbLine
 10
405.2829544890873
 20
437.8475653967152
 30
0.0
 11
405.2829544890873
 21
439.0474921734466
 31
0.0
  0
LINE
  5
85CB
330
1F
100
AcDbEntity
  8
SPOJOVACÍ
  6
Continuous
100
AcDbLine
 10
401.5985281615603
 20
443.6602339446808
 30
0.0
 11
401.5324856796387
 21
444.4471626678032
 31
0.0
  0
LINE
  5
85CC
330
1F
100
AcDbEntity
  8
SPOJOVACÍ
  6
Continuous
100
AcDbLine
 10
402.0264090258597
 20
442.1793940776305
 30
0.0
 11
401.5985281615603
 21
443.6602339446808
 31
0.0
  0
LINE
  5
85CD
330
1F
100
AcDbEntity
  8
SPOJOVACÍ
  6
Continuous
100
AcDbLine
 10
402.8226395051778
 20
440.860404799333
 30
0.0
 11
402.0264090258597
 21
442.1793940776305
 31
0.0
  0
LINE
  5
85CE
330
1F
100
AcDbEntity
  8
SPOJOVACÍ
  6
Continuous
100
AcDbLine
 10
403.9332694055365
 20
439.7916328099208
 30
0.0
 11
402.8226395051778
 21
440.860404799333
 31
0.0
  0
LINE
  5
85CF
330
1F
100
AcDbEntity
  8
SPOJOVACÍ
  6
Continuous
100
AcDbLine
 10
405.2829544890873
 20
439.0474921734466
 30
0.0
 11
403.9332694055365
 21
439.7916328099208
 31
0.0
  0
LINE
  5
85D0
330
1F
100
AcDbEntity
  8
SPOJOVACÍ
  6
Continuous
100
AcDbLine
 10
398.8331155169025
 20
444.4471626678032
 30
0.0
 11
398.8331155169025
 21
449.3901168467318
 31
0.0
  0
LINE
  5
85D1
330
1F
100
AcDbEntity
  8
SPOJOVACÍ
  6
Continuous
100
AcDbLine
 10
401.5324856796387
 20
444.4471626678032
 30
0.0
 11
401.5324856796387
 21
448.4850557974832
 31
0.0
  0
LINE
  5
85D2
330
1F
100
AcDbEntity
  8
SPOJOVACÍ
  6
Continuous
100
AcDbLine
 10
401.5324856796387
 20
449.0803683066596
 30
0.0
 11
401.5324856796387
 21
451.5992843616886
 31
0.0
  0
LINE
  5
85D3
330
1F
100
AcDbEntity
  8
SPOJOVACÍ
  6
Continuous
100
AcDbLine
 10
401.5324856796387
 20
452.2029684530034
 30
0.0
 11
401.5324856796387
 21
454.7237448597124
 31
0.0
  0
LINE
  5
85D4
330
1F
100
AcDbEntity
  8
SPOJOVACÍ
  6
Continuous
100
AcDbLine
 10
398.8331155169025
 20
449.9938009380466
 30
0.0
 11
398.8331155169025
 21
452.5127169930756
 31
0.0
  0
LINE
  5
85D5
330
1F
100
AcDbEntity
  8
SPOJOVACÍ
  6
Continuous
100
AcDbLine
 10
398.8331155169025
 20
453.1089596782303
 30
0.0
 11
398.8331155169025
 21
455.6371774910994
 31
0.0
  0
LINE
  5
85D6
330
1F
100
AcDbEntity
  8
SPOJOVACÍ
  6
Continuous
100
AcDbLine
 10
402.5826541533779
 20
448.6478365616685
 30
0.0
 11
397.7829470475289
 21
449.8477633381307
 31
0.0
  0
LINE
  5
85D7
330
1F
100
AcDbEntity
  8
SPOJOVACÍ
  6
Continuous
100
AcDbLine
 10
402.5826541533779
 20
448.6478365616685
 30
0.0
 11
402.2050027780669
 21
448.8654976977167
 31
0.0
  0
LINE
  5
85D8
330
1F
100
AcDbEntity
  8
SPOJOVACÍ
  6
Continuous
100
AcDbLine
 10
402.5826541533779
 20
448.6478365616685
 30
0.0
 11
402.2050027780669
 21
448.2692550128385
 31
0.0
  0
LINE
  5
85D9
330
1F
100
AcDbEntity
  8
SPOJOVACÍ
  6
Continuous
100
AcDbLine
 10
397.7829470475289
 20
449.8477633381307
 30
0.0
 11
398.1605984184743
 21
450.2254147112589
 31
0.0
  0
LINE
  5
85DA
330
1F
100
AcDbEntity
  8
SPOJOVACÍ
  6
Continuous
100
AcDbLine
 10
397.7829470475289
 20
449.8477633381307
 30
0.0
 11
398.1605984184743
 21
449.6291720261042
 31
0.0
  0
LINE
  5
85DB
330
1F
100
AcDbEntity
  8
SPOJOVACÍ
  6
Continuous
100
AcDbLine
 10
402.2050027780669
 20
448.8654976977167
 30
0.0
 11
398.1605984184743
 21
450.2254147112589
 31
0.0
  0
LINE
  5
85DC
330
1F
100
AcDbEntity
  8
SPOJOVACÍ
  6
Continuous
100
AcDbLine
 10
402.2050027780669
 20
448.2692550128385
 30
0.0
 11
398.1605984184743
 21
449.6291720261042
 31
0.0
  0
LINE
  5
85DD
330
1F
100
AcDbEntity
  8
SPOJOVACÍ
  6
Continuous
100
AcDbLine
 10
402.5826541533779
 20
451.7676461806304
 30
0.0
 11
397.7829470475289
 21
452.9675729573691
 31
0.0
  0
LINE
  5
85DE
330
1F
100
AcDbEntity
  8
SPOJOVACÍ
  6
Continuous
100
AcDbLine
 10
402.5826541533779
 20
451.7676461806304
 30
0.0
 11
402.2050027780669
 21
451.9862374926569
 31
0.0
  0
LINE
  5
85DF
330
1F
100
AcDbEntity
  8
SPOJOVACÍ
  6
Continuous
100
AcDbLine
 10
402.5826541533779
 20
451.7676461806304
 30
0.0
 11
402.2050027780669
 21
451.3899948075022
 31
0.0
  0
LINE
  5
85E0
330
1F
100
AcDbEntity
  8
SPOJOVACÍ
  6
Continuous
100
AcDbLine
 10
397.7829470475289
 20
452.9675729573691
 30
0.0
 11
398.1605984184743
 21
453.3452243302208
 31
0.0
  0
LINE
  5
85E1
330
1F
100
AcDbEntity
  8
SPOJOVACÍ
  6
Continuous
100
AcDbLine
 10
397.7829470475289
 20
452.9675729573691
 30
0.0
 11
398.1605984184743
 21
452.7489816453425
 31
0.0
  0
LINE
  5
85E2
330
1F
100
AcDbEntity
  8
SPOJOVACÍ
  6
Continuous
100
AcDbLine
 10
402.2050027780669
 20
451.9862374926569
 30
0.0
 11
398.1605984184743
 21
453.3452243302208
 31
0.0
  0
LINE
  5
85E3
330
1F
100
AcDbEntity
  8
SPOJOVACÍ
  6
Continuous
100
AcDbLine
 10
402.2050027780669
 20
451.3899948075022
 30
0.0
 11
398.1605984184743
 21
452.7489816453425
 31
0.0
  0
LINE
  5
85E4
330
1F
100
AcDbEntity
  8
SPOJOVACÍ
  6
Continuous
100
AcDbLine
 10
402.5826541533779
 20
454.8874557998687
 30
0.0
 11
397.7829470475289
 21
456.087382576331
 31
0.0
  0
LINE
  5
85E5
330
1F
100
AcDbEntity
  8
SPOJOVACÍ
  6
Continuous
100
AcDbLine
 10
402.5826541533779
 20
454.8874557998687
 30
0.0
 11
402.2050027780669
 21
455.1060471118953
 31
0.0
  0
LINE
  5
85E6
330
1F
100
AcDbEntity
  8
SPOJOVACÍ
  6
Continuous
100
AcDbLine
 10
402.5826541533779
 20
454.8874557998687
 30
0.0
 11
402.2050027780669
 21
454.5098044267406
 31
0.0
  0
LINE
  5
85E7
330
1F
100
AcDbEntity
  8
SPOJOVACÍ
  6
Continuous
100
AcDbLine
 10
397.7829470475289
 20
456.087382576331
 30
0.0
 11
398.1605984184743
 21
456.4659641251609
 31
0.0
  0
LINE
  5
85E8
330
1F
100
AcDbEntity
  8
SPOJOVACÍ
  6
Continuous
100
AcDbLine
 10
397.7829470475289
 20
456.087382576331
 30
0.0
 11
398.1605984184743
 21
455.8697214400135
 31
0.0
  0
LINE
  5
85E9
330
1F
100
AcDbEntity
  8
SPOJOVACÍ
  6
Continuous
100
AcDbLine
 10
402.2050027780669
 20
455.1060471118953
 30
0.0
 11
398.1605984184743
 21
456.4659641251609
 31
0.0
  0
LINE
  5
85EA
330
1F
100
AcDbEntity
  8
SPOJOVACÍ
  6
Continuous
100
AcDbLine
 10
402.2050027780669
 20
454.5098044267406
 30
0.0
 11
398.1605984184743
 21
455.8697214400135
 31
0.0
  0
LINE
  5
85EB
330
1F
100
AcDbEntity
  8
SPOJOVACÍ
  6
Continuous
100
AcDbLine
 10
405.2829544890873
 20
439.0474921734466
 30
0.0
 11
395.0826467118194
 21
439.0474921734466
 31
0.0
  0
LINE
  5
85EC
330
1F
100
AcDbEntity
  8
SPOJOVACÍ
  6
Continuous
100
AcDbLine
 10
395.0826467118194
 20
437.8475653967152
 30
0.0
 11
395.0826467118194
 21
439.0474921734466
 31
0.0
  0
LINE
  5
85ED
330
1F
100
AcDbEntity
  8
SPOJOVACÍ
  6
Continuous
100
AcDbLine
 10
405.2829544890873
 20
437.8475653967152
 30
0.0
 11
395.0826467118194
 21
437.8475653967152
 31
0.0
  0
LINE
  5
85EE
330
1F
100
AcDbEntity
  8
SPOJOVACÍ
  6
Continuous
100
AcDbLine
 10
395.0826467118194
 20
439.0474921734466
 30
0.0
 11
396.7834926323948
 21
439.985243195003
 31
0.0
  0
LINE
  5
85EF
330
1F
100
AcDbEntity
  8
SPOJOVACÍ
  6
Continuous
100
AcDbLine
 10
413.0826467118195
 20
457.047492173454
 30
0.0
 11
414.7834926323948
 21
457.9852431950103
 31
0.0
  0
LINE
  5
85F0
330
1F
100
AcDbEntity
  8
SPOJOVACÍ
  6
Continuous
100
AcDbLine
 10
423.2829544890874
 20
455.8475653967225
 30
0.0
 11
413.0826467118195
 21
455.8475653967225
 31
0.0
  0
LINE
  5
85F1
330
1F
100
AcDbEntity
  8
SPOJOVACÍ
  6
Continuous
100
AcDbLine
 10
413.0826467118195
 20
455.8475653967225
 30
0.0
 11
413.0826467118195
 21
457.047492173454
 31
0.0
  0
LINE
  5
85F2
330
1F
100
AcDbEntity
  8
SPOJOVACÍ
  6
Continuous
100
AcDbLine
 10
423.2829544890874
 20
457.047492173454
 30
0.0
 11
413.0826467118195
 21
457.047492173454
 31
0.0
  0
LINE
  5
85F3
330
1F
100
AcDbEntity
  8
SPOJOVACÍ
  6
Continuous
100
AcDbLine
 10
420.205002778067
 20
472.5098044267479
 30
0.0
 11
416.1605984184744
 21
473.8697214400208
 31
0.0
  0
LINE
  5
85F4
330
1F
100
AcDbEntity
  8
SPOJOVACÍ
  6
Continuous
100
AcDbLine
 10
420.205002778067
 20
473.1060471119026
 30
0.0
 11
416.1605984184744
 21
474.4659641251683
 31
0.0
  0
LINE
  5
85F5
330
1F
100
AcDbEntity
  8
SPOJOVACÍ
  6
Continuous
100
AcDbLine
 10
415.782947047529
 20
474.0873825763383
 30
0.0
 11
416.1605984184744
 21
473.8697214400208
 31
0.0
  0
LINE
  5
85F6
330
1F
100
AcDbEntity
  8
SPOJOVACÍ
  6
Continuous
100
AcDbLine
 10
415.782947047529
 20
474.0873825763383
 30
0.0
 11
416.1605984184744
 21
474.4659641251683
 31
0.0
  0
LINE
  5
85F7
330
1F
100
AcDbEntity
  8
SPOJOVACÍ
  6
Continuous
100
AcDbLine
 10
420.5826541533779
 20
472.8874557998761
 30
0.0
 11
420.205002778067
 21
472.5098044267479
 31
0.0
  0
LINE
  5
85F8
330
1F
100
AcDbEntity
  8
SPOJOVACÍ
  6
Continuous
100
AcDbLine
 10
420.5826541533779
 20
472.8874557998761
 30
0.0
 11
420.205002778067
 21
473.1060471119026
 31
0.0
  0
LINE
  5
85F9
330
1F
100
AcDbEntity
  8
SPOJOVACÍ
  6
Continuous
100
AcDbLine
 10
420.5826541533779
 20
472.8874557998761
 30
0.0
 11
415.782947047529
 21
474.0873825763383
 31
0.0
  0
LINE
  5
85FA
330
1F
100
AcDbEntity
  8
SPOJOVACÍ
  6
Continuous
100
AcDbLine
 10
420.205002778067
 20
469.3899948075095
 30
0.0
 11
416.1605984184744
 21
470.7489816453499
 31
0.0
  0
LINE
  5
85FB
330
1F
100
AcDbEntity
  8
SPOJOVACÍ
  6
Continuous
100
AcDbLine
 10
420.205002778067
 20
469.9862374926643
 30
0.0
 11
416.1605984184744
 21
471.3452243302281
 31
0.0
  0
LINE
  5
85FC
330
1F
100
AcDbEntity
  8
SPOJOVACÍ
  6
Continuous
100
AcDbLine
 10
415.782947047529
 20
470.9675729573764
 30
0.0
 11
416.1605984184744
 21
470.7489816453499
 31
0.0
  0
LINE
  5
85FD
330
1F
100
AcDbEntity
  8
SPOJOVACÍ
  6
Continuous
100
AcDbLine
 10
415.782947047529
 20
470.9675729573764
 30
0.0
 11
416.1605984184744
 21
471.3452243302281
 31
0.0
  0
LINE
  5
85FE
330
1F
100
AcDbEntity
  8
SPOJOVACÍ
  6
Continuous
100
AcDbLine
 10
420.5826541533779
 20
469.7676461806377
 30
0.0
 11
420.205002778067
 21
469.3899948075095
 31
0.0
  0
LINE
  5
85FF
330
1F
100
AcDbEntity
  8
SPOJOVACÍ
  6
Continuous
100
AcDbLine
 10
420.5826541533779
 20
469.7676461806377
 30
0.0
 11
420.205002778067
 21
469.9862374926643
 31
0.0
  0
LINE
  5
8600
330
1F
100
AcDbEntity
  8
SPOJOVACÍ
  6
Continuous
100
AcDbLine
 10
420.5826541533779
 20
469.7676461806377
 30
0.0
 11
415.782947047529
 21
470.9675729573764
 31
0.0
  0
LINE
  5
8601
330
1F
100
AcDbEntity
  8
SPOJOVACÍ
  6
Continuous
100
AcDbLine
 10
420.205002778067
 20
466.2692550128459
 30
0.0
 11
416.1605984184744
 21
467.6291720261115
 31
0.0
  0
LINE
  5
8602
330
1F
100
AcDbEntity
  8
SPOJOVACÍ
  6
Continuous
100
AcDbLine
 10
420.205002778067
 20
466.8654976977241
 30
0.0
 11
416.1605984184744
 21
468.2254147112662
 31
0.0
  0
LINE
  5
8603
330
1F
100
AcDbEntity
  8
SPOJOVACÍ
  6
Continuous
100
AcDbLine
 10
415.782947047529
 20
467.8477633381381
 30
0.0
 11
416.1605984184744
 21
467.6291720261115
 31
0.0
  0
LINE
  5
8604
330
1F
100
AcDbEntity
  8
SPOJOVACÍ
  6
Continuous
100
AcDbLine
 10
415.782947047529
 20
467.8477633381381
 30
0.0
 11
416.1605984184744
 21
468.2254147112662
 31
0.0
  0
LINE
  5
8605
330
1F
100
AcDbEntity
  8
SPOJOVACÍ
  6
Continuous
100
AcDbLine
 10
420.5826541533779
 20
466.6478365616758
 30
0.0
 11
420.205002778067
 21
466.2692550128459
 31
0.0
  0
LINE
  5
8606
330
1F
100
AcDbEntity
  8
SPOJOVACÍ
  6
Continuous
100
AcDbLine
 10
420.5826541533779
 20
466.6478365616758
 30
0.0
 11
420.205002778067
 21
466.8654976977241
 31
0.0
  0
LINE
  5
8607
330
1F
100
AcDbEntity
  8
SPOJOVACÍ
  6
Continuous
100
AcDbLine
 10
420.5826541533779
 20
466.6478365616758
 30
0.0
 11
415.782947047529
 21
467.8477633381381
 31
0.0
  0
LINE
  5
8608
330
1F
100
AcDbEntity
  8
SPOJOVACÍ
  6
Continuous
100
AcDbLine
 10
416.8331155169026
 20
471.1089596782376
 30
0.0
 11
416.8331155169026
 21
473.6371774911067
 31
0.0
  0
LINE
  5
8609
330
1F
100
AcDbEntity
  8
SPOJOVACÍ
  6
Continuous
100
AcDbLine
 10
416.8331155169026
 20
467.9938009380539
 30
0.0
 11
416.8331155169026
 21
470.5127169930829
 31
0.0
  0
LINE
  5
860A
330
1F
100
AcDbEntity
  8
SPOJOVACÍ
  6
Continuous
100
AcDbLine
 10
419.5324856796387
 20
470.2029684530107
 30
0.0
 11
419.5324856796387
 21
472.7237448597198
 31
0.0
  0
LINE
  5
860B
330
1F
100
AcDbEntity
  8
SPOJOVACÍ
  6
Continuous
100
AcDbLine
 10
419.5324856796387
 20
467.080368306667
 30
0.0
 11
419.5324856796387
 21
469.5992843616959
 31
0.0
  0
LINE
  5
860C
330
1F
100
AcDbEntity
  8
SPOJOVACÍ
  6
Continuous
100
AcDbLine
 10
419.5324856796387
 20
462.4471626678105
 30
0.0
 11
419.5324856796387
 21
466.4850557974905
 31
0.0
  0
LINE
  5
860D
330
1F
100
AcDbEntity
  8
SPOJOVACÍ
  6
Continuous
100
AcDbLine
 10
416.8331155169026
 20
462.4471626678105
 30
0.0
 11
416.8331155169026
 21
467.3901168467391
 31
0.0
  0
LINE
  5
860E
330
1F
100
AcDbEntity
  8
SPOJOVACÍ
  6
Continuous
100
AcDbLine
 10
423.2829544890874
 20
457.047492173454
 30
0.0
 11
421.9332694055365
 21
457.7916328099282
 31
0.0
  0
LINE
  5
860F
330
1F
100
AcDbEntity
  8
SPOJOVACÍ
  6
Continuous
100
AcDbLine
 10
421.9332694055365
 20
457.7916328099282
 30
0.0
 11
420.8226395051779
 21
458.8604047993404
 31
0.0
  0
LINE
  5
8610
330
1F
100
AcDbEntity
  8
SPOJOVACÍ
  6
Continuous
100
AcDbLine
 10
420.8226395051779
 20
458.8604047993404
 30
0.0
 11
420.0264090258597
 21
460.1793940776379
 31
0.0
  0
LINE
  5
8611
330
1F
100
AcDbEntity
  8
SPOJOVACÍ
  6
Continuous
100
AcDbLine
 10
420.0264090258597
 20
460.1793940776379
 30
0.0
 11
419.5985281615604
 21
461.6602339446881
 31
0.0
  0
LINE
  5
8612
330
1F
100
AcDbEntity
  8
SPOJOVACÍ
  6
Continuous
100
AcDbLine
 10
419.5985281615604
 20
461.6602339446881
 30
0.0
 11
419.5324856796387
 21
462.4471626678105
 31
0.0
  0
LINE
  5
8613
330
1F
100
AcDbEntity
  8
SPOJOVACÍ
  6
Continuous
100
AcDbLine
 10
423.2829544890874
 20
455.8475653967225
 30
0.0
 11
423.2829544890874
 21
457.047492173454
 31
0.0
  0
LINE
  5
8614
330
1F
100
AcDbEntity
  8
SPOJOVACÍ
  6
Continuous
100
AcDbLine
 10
416.8331155169026
 20
462.4471626678105
 30
0.0
 11
416.6061526260191
 21
460.9235347143813
 31
0.0
  0
LINE
  5
8615
330
1F
100
AcDbEntity
  8
SPOJOVACÍ
  6
Continuous
100
AcDbLine
 10
416.6061526260191
 20
460.9235347143813
 30
0.0
 11
415.9931667768715
 21
459.509667504678
 31
0.0
  0
LINE
  5
8616
330
1F
100
AcDbEntity
  8
SPOJOVACÍ
  6
Continuous
100
AcDbLine
 10
415.9931667768715
 20
459.509667504678
 30
0.0
 11
414.7834926323948
 21
457.9852431950103
 31
0.0
  0
LINE
  5
8617
330
1F
100
AcDbEntity
  8
SPOJOVACÍ
  6
Continuous
100
AcDbLine
 10
420.205002778067
 20
478.7494236646789
 30
0.0
 11
416.1605984184744
 21
480.1093406782211
 31
0.0
  0
LINE
  5
8618
330
1F
100
AcDbEntity
  8
SPOJOVACÍ
  6
Continuous
100
AcDbLine
 10
420.205002778067
 20
479.3456663498337
 30
0.0
 11
416.1605984184744
 21
480.7055833633758
 31
0.0
  0
LINE
  5
8619
330
1F
100
AcDbEntity
  8
SPOJOVACÍ
  6
Continuous
100
AcDbLine
 10
415.782947047529
 20
480.3279319902476
 30
0.0
 11
416.1605984184744
 21
480.1093406782211
 31
0.0
  0
LINE
  5
861A
330
1F
100
AcDbEntity
  8
SPOJOVACÍ
  6
Continuous
100
AcDbLine
 10
415.782947047529
 20
480.3279319902476
 30
0.0
 11
416.1605984184744
 21
480.7055833633758
 31
0.0
  0
LINE
  5
861B
330
1F
100
AcDbEntity
  8
SPOJOVACÍ
  6
Continuous
100
AcDbLine
 10
420.5826541533779
 20
479.1280052137854
 30
0.0
 11
420.205002778067
 21
478.7494236646789
 31
0.0
  0
LINE
  5
861C
330
1F
100
AcDbEntity
  8
SPOJOVACÍ
  6
Continuous
100
AcDbLine
 10
420.5826541533779
 20
479.1280052137854
 30
0.0
 11
420.205002778067
 21
479.3456663498337
 31
0.0
  0
LINE
  5
861D
330
1F
100
AcDbEntity
  8
SPOJOVACÍ
  6
Continuous
100
AcDbLine
 10
420.5826541533779
 20
479.1280052137854
 30
0.0
 11
415.782947047529
 21
480.3279319902476
 31
0.0
  0
LINE
  5
861E
330
1F
100
AcDbEntity
  8
SPOJOVACÍ
  6
Continuous
100
AcDbLine
 10
420.205002778067
 20
475.6296140457171
 30
0.0
 11
416.1605984184744
 21
476.9895310592592
 31
0.0
  0
LINE
  5
861F
330
1F
100
AcDbEntity
  8
SPOJOVACÍ
  6
Continuous
100
AcDbLine
 10
420.205002778067
 20
476.2258567308645
 30
0.0
 11
416.1605984184744
 21
477.5857737441374
 31
0.0
  0
LINE
  5
8620
330
1F
100
AcDbEntity
  8
SPOJOVACÍ
  6
Continuous
100
AcDbLine
 10
415.782947047529
 20
477.2071921953075
 30
0.0
 11
416.1605984184744
 21
476.9895310592592
 31
0.0
  0
LINE
  5
8621
330
1F
100
AcDbEntity
  8
SPOJOVACÍ
  6
Continuous
100
AcDbLine
 10
415.782947047529
 20
477.2071921953075
 30
0.0
 11
416.1605984184744
 21
477.5857737441374
 31
0.0
  0
LINE
  5
8622
330
1F
100
AcDbEntity
  8
SPOJOVACÍ
  6
Continuous
100
AcDbLine
 10
420.5826541533779
 20
476.0072654188452
 30
0.0
 11
420.205002778067
 21
475.6296140457171
 31
0.0
  0
LINE
  5
8623
330
1F
100
AcDbEntity
  8
SPOJOVACÍ
  6
Continuous
100
AcDbLine
 10
420.5826541533779
 20
476.0072654188452
 30
0.0
 11
420.205002778067
 21
476.2258567308645
 31
0.0
  0
LINE
  5
8624
330
1F
100
AcDbEntity
  8
SPOJOVACÍ
  6
Continuous
100
AcDbLine
 10
420.5826541533779
 20
476.0072654188452
 30
0.0
 11
415.782947047529
 21
477.2071921953075
 31
0.0
  0
LINE
  5
8625
330
1F
100
AcDbEntity
  8
SPOJOVACÍ
  6
Continuous
100
AcDbLine
 10
419.1994827423796
 20
488.2334960787166
 30
0.0
 11
417.0451956009229
 21
488.5441747944906
 31
0.0
  0
LINE
  5
8626
330
1F
100
AcDbEntity
  8
SPOJOVACÍ
  6
Continuous
100
AcDbLine
 10
418.8218313714342
 20
487.8558447055884
 30
0.0
 11
417.4228469718682
 21
488.3265136581731
 31
0.0
  0
LINE
  5
8627
330
1F
100
AcDbEntity
  8
SPOJOVACÍ
  6
Continuous
100
AcDbLine
 10
418.8218313714342
 20
488.4520873907359
 30
0.0
 11
417.4228469718682
 21
488.9227563433205
 31
0.0
  0
LINE
  5
8628
330
1F
100
AcDbEntity
  8
SPOJOVACÍ
  6
Continuous
100
AcDbLine
 10
417.0451956009229
 20
488.5441747944906
 30
0.0
 11
417.4228469718682
 21
488.3265136581731
 31
0.0
  0
LINE
  5
8629
330
1F
100
AcDbEntity
  8
SPOJOVACÍ
  6
Continuous
100
AcDbLine
 10
417.0451956009229
 20
488.5441747944906
 30
0.0
 11
417.4228469718682
 21
488.9227563433205
 31
0.0
  0
LINE
  5
862A
330
1F
100
AcDbEntity
  8
SPOJOVACÍ
  6
Continuous
100
AcDbLine
 10
419.1994827423796
 20
488.2334960787166
 30
0.0
 11
418.8218313714342
 21
487.8558447055884
 31
0.0
  0
LINE
  5
862B
330
1F
100
AcDbEntity
  8
SPOJOVACÍ
  6
Continuous
100
AcDbLine
 10
419.1994827423796
 20
488.2334960787166
 30
0.0
 11
418.8218313714342
 21
488.4520873907359
 31
0.0
  0
LINE
  5
862C
330
1F
100
AcDbEntity
  8
SPOJOVACÍ
  6
Continuous
100
AcDbLine
 10
419.764099452851
 20
485.219726500397
 30
0.0
 11
416.6480105364199
 21
485.8531762171669
 31
0.0
  0
LINE
  5
862D
330
1F
100
AcDbEntity
  8
SPOJOVACÍ
  6
Continuous
100
AcDbLine
 10
419.3864480775401
 20
484.8411449512905
 30
0.0
 11
417.0256619073652
 21
485.6355150811187
 31
0.0
  0
LINE
  5
862E
330
1F
100
AcDbEntity
  8
SPOJOVACÍ
  6
Continuous
100
AcDbLine
 10
419.3864480775401
 20
485.4373876364452
 30
0.0
 11
417.0256619073652
 21
486.2317577659969
 31
0.0
  0
LINE
  5
862F
330
1F
100
AcDbEntity
  8
SPOJOVACÍ
  6
Continuous
100
AcDbLine
 10
416.6480105364199
 20
485.8531762171669
 30
0.0
 11
417.0256619073652
 21
485.6355150811187
 31
0.0
  0
LINE
  5
8630
330
1F
100
AcDbEntity
  8
SPOJOVACÍ
  6
Continuous
100
AcDbLine
 10
416.6480105364199
 20
485.8531762171669
 30
0.0
 11
417.0256619073652
 21
486.2317577659969
 31
0.0
  0
LINE
  5
8631
330
1F
100
AcDbEntity
  8
SPOJOVACÍ
  6
Continuous
100
AcDbLine
 10
419.764099452851
 20
485.219726500397
 30
0.0
 11
419.3864480775401
 21
484.8411449512905
 31
0.0
  0
LINE
  5
8632
330
1F
100
AcDbEntity
  8
SPOJOVACÍ
  6
Continuous
100
AcDbLine
 10
419.764099452851
 20
485.219726500397
 30
0.0
 11
419.3864480775401
 21
485.4373876364452
 31
0.0
  0
LINE
  5
8633
330
1F
100
AcDbEntity
  8
SPOJOVACÍ
  6
Continuous
100
AcDbLine
 10
420.3287161589569
 20
482.2050267460991
 30
0.0
 11
416.203386506214
 21
483.1779906284037
 31
0.0
  0
LINE
  5
8634
330
1F
100
AcDbEntity
  8
SPOJOVACÍ
  6
Continuous
100
AcDbLine
 10
419.9501346106726
 20
481.8273753729709
 30
0.0
 11
416.5810378771594
 21
482.9603294923554
 31
0.0
  0
LINE
  5
8635
330
1F
100
AcDbEntity
  8
SPOJOVACÍ
  6
Continuous
100
AcDbLine
 10
419.9501346106726
 20
482.4236180581256
 30
0.0
 11
416.5810378771594
 21
483.5565721775101
 31
0.0
  0
LINE
  5
8636
330
1F
100
AcDbEntity
  8
SPOJOVACÍ
  6
Continuous
100
AcDbLine
 10
416.203386506214
 20
483.1779906284037
 30
0.0
 11
416.5810378771594
 21
482.9603294923554
 31
0.0
  0
LINE
  5
8637
330
1F
100
AcDbEntity
  8
SPOJOVACÍ
  6
Continuous
100
AcDbLine
 10
416.203386506214
 20
483.1779906284037
 30
0.0
 11
416.5810378771594
 21
483.5565721775101
 31
0.0
  0
LINE
  5
8638
330
1F
100
AcDbEntity
  8
SPOJOVACÍ
  6
Continuous
100
AcDbLine
 10
420.3287161589569
 20
482.2050267460991
 30
0.0
 11
419.9501346106726
 21
481.8273753729709
 31
0.0
  0
LINE
  5
8639
330
1F
100
AcDbEntity
  8
SPOJOVACÍ
  6
Continuous
100
AcDbLine
 10
420.3287161589569
 20
482.2050267460991
 30
0.0
 11
419.9501346106726
 21
482.4236180581256
 31
0.0
  0
LINE
  5
863A
330
1F
100
AcDbEntity
  8
SPOJOVACÍ
  6
Continuous
100
AcDbLine
 10
417.0786819283703
 20
482.7835960910061
 30
0.0
 11
416.8331155169026
 21
480.8125535797199
 31
0.0
  0
LINE
  5
863B
330
1F
100
AcDbEntity
  8
SPOJOVACÍ
  6
Continuous
100
AcDbLine
 10
417.4172659209316
 20
485.4904076569046
 30
0.0
 11
417.1503054655941
 21
483.3537938540512
 31
0.0
  0
LINE
  5
863C
330
1F
100
AcDbEntity
  8
SPOJOVACÍ
  6
Continuous
100
AcDbLine
 10
417.7567800821007
 20
488.2074511563378
 30
0.0
 11
417.4888894537899
 21
486.0624657713533
 31
0.0
  0
LINE
  5
863D
330
1F
100
AcDbEntity
  8
SPOJOVACÍ
  6
Continuous
100
AcDbLine
 10
418.5688235543521
 20
488.5237109268683
 30
0.0
 11
418.1828006004534
 21
491.6128247446732
 31
0.0
  0
LINE
  5
863E
330
1F
100
AcDbEntity
  8
SPOJOVACÍ
  6
Continuous
100
AcDbLine
 10
418.936242992032
 20
485.5824950606593
 30
0.0
 11
418.6460281468781
 21
487.9032836710148
 31
0.0
  0
LINE
  5
863F
330
1F
100
AcDbEntity
  8
SPOJOVACÍ
  6
Continuous
100
AcDbLine
 10
419.3055227843897
 20
482.6301170849301
 30
0.0
 11
419.0153079348702
 21
484.9518358709947
 31
0.0
  0
LINE
  5
8640
330
1F
100
AcDbEntity
  8
SPOJOVACÍ
  6
Continuous
100
AcDbLine
 10
418.1828006004534
 20
491.6128247446732
 30
0.0
 11
417.8284036193245
 21
488.7767187434047
 31
0.0
  0
LINE
  5
8641
330
1F
100
AcDbEntity
  8
SPOJOVACÍ
  6
Continuous
100
AcDbLine
 10
419.5324856796387
 20
480.8125535797199
 30
0.0
 11
419.3827273769157
 21
482.0096898290767
 31
0.0
  0
LINE
  5
8642
330
1F
100
AcDbEntity
  8
SPOJOVACÍ
  6
Continuous
100
AcDbLine
 10
416.8331155169026
 20
480.4758299418363
 30
0.0
 11
416.8331155169026
 21
480.8125535797199
 31
0.0
  0
LINE
  5
8643
330
1F
100
AcDbEntity
  8
SPOJOVACÍ
  6
Continuous
100
AcDbLine
 10
416.8331155169026
 20
477.3532297952233
 30
0.0
 11
416.8331155169026
 21
479.8721458502523
 31
0.0
  0
LINE
  5
8644
330
1F
100
AcDbEntity
  8
SPOJOVACÍ
  6
Continuous
100
AcDbLine
 10
419.5324856796387
 20
479.5651878378312
 30
0.0
 11
419.5324856796387
 21
480.8125535797199
 31
0.0
  0
LINE
  5
8645
330
1F
100
AcDbEntity
  8
SPOJOVACÍ
  6
Continuous
100
AcDbLine
 10
419.5324856796387
 20
476.4509592733493
 30
0.0
 11
419.5324856796387
 21
478.9689451526765
 31
0.0
  0
LINE
  5
8646
330
1F
100
AcDbEntity
  8
SPOJOVACÍ
  6
Continuous
100
AcDbLine
 10
416.8331155169026
 20
474.2315598245814
 30
0.0
 11
416.8331155169026
 21
476.7523362312904
 31
0.0
  0
LINE
  5
8647
330
1F
100
AcDbEntity
  8
SPOJOVACÍ
  6
Continuous
100
AcDbLine
 10
419.5324856796387
 20
473.3181271931944
 30
0.0
 11
419.5324856796387
 21
475.8463450060635
 31
0.0
  0
LINE
  5
8648
330
1F
100
AcDbEntity
  8
SPOJOVACÍ
  6
Continuous
100
AcDbLine
 10
395.0826467118194
 20
883.3833782134652
 30
0.0
 11
396.7834926323948
 21
882.4456271919089
 31
0.0
  0
LINE
  5
8649
330
1F
100
AcDbEntity
  8
SPOJOVACÍ
  6
Continuous
100
AcDbLine
 10
405.2829544890873
 20
884.5833049901967
 30
0.0
 11
395.0826467118194
 21
884.5833049901967
 31
0.0
  0
LINE
  5
864A
330
1F
100
AcDbEntity
  8
SPOJOVACÍ
  6
Continuous
100
AcDbLine
 10
395.0826467118194
 20
884.5833049901967
 30
0.0
 11
395.0826467118194
 21
883.3833782134652
 31
0.0
  0
LINE
  5
864B
330
1F
100
AcDbEntity
  8
SPOJOVACÍ
  6
Continuous
100
AcDbLine
 10
405.2829544890873
 20
883.3833782134652
 30
0.0
 11
395.0826467118194
 21
883.3833782134652
 31
0.0
  0
LINE
  5
864C
330
1F
100
AcDbEntity
  8
SPOJOVACÍ
  6
Continuous
100
AcDbLine
 10
402.2050027780669
 20
867.9210659601713
 30
0.0
 11
398.1605984184743
 21
866.5611489468984
 31
0.0
  0
LINE
  5
864D
330
1F
100
AcDbEntity
  8
SPOJOVACÍ
  6
Continuous
100
AcDbLine
 10
402.2050027780669
 20
867.3248232750166
 30
0.0
 11
398.1605984184743
 21
865.9649062617509
 31
0.0
  0
LINE
  5
864E
330
1F
100
AcDbEntity
  8
SPOJOVACÍ
  6
Continuous
100
AcDbLine
 10
397.7829470475289
 20
866.3434878105809
 30
0.0
 11
398.1605984184743
 21
866.5611489468984
 31
0.0
  0
LINE
  5
864F
330
1F
100
AcDbEntity
  8
SPOJOVACÍ
  6
Continuous
100
AcDbLine
 10
397.7829470475289
 20
866.3434878105809
 30
0.0
 11
398.1605984184743
 21
865.9649062617509
 31
0.0
  0
LINE
  5
8650
330
1F
100
AcDbEntity
  8
SPOJOVACÍ
  6
Continuous
100
AcDbLine
 10
402.5826541533779
 20
867.5434145870431
 30
0.0
 11
402.2050027780669
 21
867.9210659601713
 31
0.0
  0
LINE
  5
8651
330
1F
100
AcDbEntity
  8
SPOJOVACÍ
  6
Continuous
100
AcDbLine
 10
402.5826541533779
 20
867.5434145870431
 30
0.0
 11
402.2050027780669
 21
867.3248232750166
 31
0.0
  0
LINE
  5
8652
330
1F
100
AcDbEntity
  8
SPOJOVACÍ
  6
Continuous
100
AcDbLine
 10
402.5826541533779
 20
867.5434145870431
 30
0.0
 11
397.7829470475289
 21
866.3434878105809
 31
0.0
  0
LINE
  5
8653
330
1F
100
AcDbEntity
  8
SPOJOVACÍ
  6
Continuous
100
AcDbLine
 10
402.2050027780669
 20
871.0408755794096
 30
0.0
 11
398.1605984184743
 21
869.6818887415693
 31
0.0
  0
LINE
  5
8654
330
1F
100
AcDbEntity
  8
SPOJOVACÍ
  6
Continuous
100
AcDbLine
 10
402.2050027780669
 20
870.444632894255
 30
0.0
 11
398.1605984184743
 21
869.085646056691
 31
0.0
  0
LINE
  5
8655
330
1F
100
AcDbEntity
  8
SPOJOVACÍ
  6
Continuous
100
AcDbLine
 10
397.7829470475289
 20
869.4632974295428
 30
0.0
 11
398.1605984184743
 21
869.6818887415693
 31
0.0
  0
LINE
  5
8656
330
1F
100
AcDbEntity
  8
SPOJOVACÍ
  6
Continuous
100
AcDbLine
 10
397.7829470475289
 20
869.4632974295428
 30
0.0
 11
398.1605984184743
 21
869.085646056691
 31
0.0
  0
LINE
  5
8657
330
1F
100
AcDbEntity
  8
SPOJOVACÍ
  6
Continuous
100
AcDbLine
 10
402.5826541533779
 20
870.6632242062815
 30
0.0
 11
402.2050027780669
 21
871.0408755794096
 31
0.0
  0
LINE
  5
8658
330
1F
100
AcDbEntity
  8
SPOJOVACÍ
  6
Continuous
100
AcDbLine
 10
402.5826541533779
 20
870.6632242062815
 30
0.0
 11
402.2050027780669
 21
870.444632894255
 31
0.0
  0
LINE
  5
8659
330
1F
100
AcDbEntity
  8
SPOJOVACÍ
  6
Continuous
100
AcDbLine
 10
402.5826541533779
 20
870.6632242062815
 30
0.0
 11
397.7829470475289
 21
869.4632974295428
 31
0.0
  0
LINE
  5
865A
330
1F
100
AcDbEntity
  8
SPOJOVACÍ
  6
Continuous
100
AcDbLine
 10
402.2050027780669
 20
874.1616153740734
 30
0.0
 11
398.1605984184743
 21
872.8016983608076
 31
0.0
  0
LINE
  5
865B
330
1F
100
AcDbEntity
  8
SPOJOVACÍ
  6
Continuous
100
AcDbLine
 10
402.2050027780669
 20
873.5653726891952
 30
0.0
 11
398.1605984184743
 21
872.205455675653
 31
0.0
  0
LINE
  5
865C
330
1F
100
AcDbEntity
  8
SPOJOVACÍ
  6
Continuous
100
AcDbLine
 10
397.7829470475289
 20
872.5831070487812
 30
0.0
 11
398.1605984184743
 21
872.8016983608076
 31
0.0
  0
LINE
  5
865D
330
1F
100
AcDbEntity
  8
SPOJOVACÍ
  6
Continuous
100
AcDbLine
 10
397.7829470475289
 20
872.5831070487812
 30
0.0
 11
398.1605984184743
 21
872.205455675653
 31
0.0
  0
LINE
  5
865E
330
1F
100
AcDbEntity
  8
SPOJOVACÍ
  6
Continuous
100
AcDbLine
 10
402.5826541533779
 20
873.7830338252434
 30
0.0
 11
402.2050027780669
 21
874.1616153740734
 31
0.0
  0
LINE
  5
865F
330
1F
100
AcDbEntity
  8
SPOJOVACÍ
  6
Continuous
100
AcDbLine
 10
402.5826541533779
 20
873.7830338252434
 30
0.0
 11
402.2050027780669
 21
873.5653726891952
 31
0.0
  0
LINE
  5
8660
330
1F
100
AcDbEntity
  8
SPOJOVACÍ
  6
Continuous
100
AcDbLine
 10
402.5826541533779
 20
873.7830338252434
 30
0.0
 11
397.7829470475289
 21
872.5831070487812
 31
0.0
  0
LINE
  5
8661
330
1F
100
AcDbEntity
  8
SPOJOVACÍ
  6
Continuous
100
AcDbLine
 10
398.8331155169025
 20
869.3219107086816
 30
0.0
 11
398.8331155169025
 21
866.7936928958125
 31
0.0
  0
LINE
  5
8662
330
1F
100
AcDbEntity
  8
SPOJOVACÍ
  6
Continuous
100
AcDbLine
 10
398.8331155169025
 20
872.4370694488653
 30
0.0
 11
398.8331155169025
 21
869.9181533938363
 31
0.0
  0
LINE
  5
8663
330
1F
100
AcDbEntity
  8
SPOJOVACÍ
  6
Continuous
100
AcDbLine
 10
401.5324856796387
 20
870.2279019339085
 30
0.0
 11
401.5324856796387
 21
867.7071255271995
 31
0.0
  0
LINE
  5
8664
330
1F
100
AcDbEntity
  8
SPOJOVACÍ
  6
Continuous
100
AcDbLine
 10
401.5324856796387
 20
873.3505020802523
 30
0.0
 11
401.5324856796387
 21
870.8315860252232
 31
0.0
  0
LINE
  5
8665
330
1F
100
AcDbEntity
  8
SPOJOVACÍ
  6
Continuous
100
AcDbLine
 10
401.5324856796387
 20
877.9837077191087
 30
0.0
 11
401.5324856796387
 21
873.9458145894287
 31
0.0
  0
LINE
  5
8666
330
1F
100
AcDbEntity
  8
SPOJOVACÍ
  6
Continuous
100
AcDbLine
 10
398.8331155169025
 20
877.9837077191087
 30
0.0
 11
398.8331155169025
 21
873.04075354018
 31
0.0
  0
LINE
  5
8667
330
1F
100
AcDbEntity
  8
SPOJOVACÍ
  6
Continuous
100
AcDbLine
 10
405.2829544890873
 20
883.3833782134652
 30
0.0
 11
403.9332694055365
 21
882.6392375769911
 31
0.0
  0
LINE
  5
8668
330
1F
100
AcDbEntity
  8
SPOJOVACÍ
  6
Continuous
100
AcDbLine
 10
403.9332694055365
 20
882.6392375769911
 30
0.0
 11
402.8226395051778
 21
881.5704655875789
 31
0.0
  0
LINE
  5
8669
330
1F
100
AcDbEntity
  8
SPOJOVACÍ
  6
Continuous
100
AcDbLine
 10
402.8226395051778
 20
881.5704655875789
 30
0.0
 11
402.0264090258597
 21
880.2514763092814
 31
0.0
  0
LINE
  5
866A
330
1F
100
AcDbEntity
  8
SPOJOVACÍ
  6
Continuous
100
AcDbLine
 10
402.0264090258597
 20
880.2514763092814
 30
0.0
 11
401.5985281615603
 21
878.7706364422311
 31
0.0
  0
LINE
  5
866B
330
1F
100
AcDbEntity
  8
SPOJOVACÍ
  6
Continuous
100
AcDbLine
 10
401.5985281615603
 20
878.7706364422311
 30
0.0
 11
401.5324856796387
 21
877.9837077191087
 31
0.0
  0
LINE
  5
866C
330
1F
100
AcDbEntity
  8
SPOJOVACÍ
  6
Continuous
100
AcDbLine
 10
405.2829544890873
 20
884.5833049901967
 30
0.0
 11
405.2829544890873
 21
883.3833782134652
 31
0.0
  0
LINE
  5
866D
330
1F
100
AcDbEntity
  8
SPOJOVACÍ
  6
Continuous
100
AcDbLine
 10
398.8331155169025
 20
877.9837077191087
 30
0.0
 11
398.6061526260191
 21
879.507335672538
 31
0.0
  0
LINE
  5
866E
330
1F
100
AcDbEntity
  8
SPOJOVACÍ
  6
Continuous
100
AcDbLine
 10
398.6061526260191
 20
879.507335672538
 30
0.0
 11
397.9931667768714
 21
880.9212028822413
 31
0.0
  0
LINE
  5
866F
330
1F
100
AcDbEntity
  8
SPOJOVACÍ
  6
Continuous
100
AcDbLine
 10
397.9931667768714
 20
880.9212028822413
 30
0.0
 11
396.7834926323948
 21
882.4456271919089
 31
0.0
  0
LINE
  5
8670
330
1F
100
AcDbEntity
  8
SPOJOVACÍ
  6
Continuous
100
AcDbLine
 10
402.2050027780669
 20
861.6814467222402
 30
0.0
 11
398.1605984184743
 21
860.3215297086981
 31
0.0
  0
LINE
  5
8671
330
1F
100
AcDbEntity
  8
SPOJOVACÍ
  6
Continuous
100
AcDbLine
 10
402.2050027780669
 20
861.0852040370856
 30
0.0
 11
398.1605984184743
 21
859.7252870235434
 31
0.0
  0
LINE
  5
8672
330
1F
100
AcDbEntity
  8
SPOJOVACÍ
  6
Continuous
100
AcDbLine
 10
397.7829470475289
 20
860.1029383966716
 30
0.0
 11
398.1605984184743
 21
860.3215297086981
 31
0.0
  0
LINE
  5
8673
330
1F
100
AcDbEntity
  8
SPOJOVACÍ
  6
Continuous
100
AcDbLine
 10
397.7829470475289
 20
860.1029383966716
 30
0.0
 11
398.1605984184743
 21
859.7252870235434
 31
0.0
  0
LINE
  5
8674
330
1F
100
AcDbEntity
  8
SPOJOVACÍ
  6
Continuous
100
AcDbLine
 10
402.5826541533779
 20
861.3028651731339
 30
0.0
 11
402.2050027780669
 21
861.6814467222402
 31
0.0
  0
LINE
  5
8675
330
1F
100
AcDbEntity
  8
SPOJOVACÍ
  6
Continuous
100
AcDbLine
 10
402.5826541533779
 20
861.3028651731339
 30
0.0
 11
402.2050027780669
 21
861.0852040370856
 31
0.0
  0
LINE
  5
8676
330
1F
100
AcDbEntity
  8
SPOJOVACÍ
  6
Continuous
100
AcDbLine
 10
402.5826541533779
 20
861.3028651731339
 30
0.0
 11
397.7829470475289
 21
860.1029383966716
 31
0.0
  0
LINE
  5
8677
330
1F
100
AcDbEntity
  8
SPOJOVACÍ
  6
Continuous
100
AcDbLine
 10
402.2050027780669
 20
864.8012563412022
 30
0.0
 11
398.1605984184743
 21
863.44133932766
 31
0.0
  0
LINE
  5
8678
330
1F
100
AcDbEntity
  8
SPOJOVACÍ
  6
Continuous
100
AcDbLine
 10
402.2050027780669
 20
864.2050136560547
 30
0.0
 11
398.1605984184743
 21
862.8450966427818
 31
0.0
  0
LINE
  5
8679
330
1F
100
AcDbEntity
  8
SPOJOVACÍ
  6
Continuous
100
AcDbLine
 10
397.7829470475289
 20
863.2236781916118
 30
0.0
 11
398.1605984184743
 21
863.44133932766
 31
0.0
  0
LINE
  5
867A
330
1F
100
AcDbEntity
  8
SPOJOVACÍ
  6
Continuous
100
AcDbLine
 10
397.7829470475289
 20
863.2236781916118
 30
0.0
 11
398.1605984184743
 21
862.8450966427818
 31
0.0
  0
LINE
  5
867B
330
1F
100
AcDbEntity
  8
SPOJOVACÍ
  6
Continuous
100
AcDbLine
 10
402.5826541533779
 20
864.423604968074
 30
0.0
 11
402.2050027780669
 21
864.8012563412022
 31
0.0
  0
LINE
  5
867C
330
1F
100
AcDbEntity
  8
SPOJOVACÍ
  6
Continuous
100
AcDbLine
 10
402.5826541533779
 20
864.423604968074
 30
0.0
 11
402.2050027780669
 21
864.2050136560547
 31
0.0
  0
LINE
  5
867D
330
1F
100
AcDbEntity
  8
SPOJOVACÍ
  6
Continuous
100
AcDbLine
 10
402.5826541533779
 20
864.423604968074
 30
0.0
 11
397.7829470475289
 21
863.2236781916118
 31
0.0
  0
LINE
  5
867E
330
1F
100
AcDbEntity
  8
SPOJOVACÍ
  6
Continuous
100
AcDbLine
 10
401.1994827423795
 20
852.1973743082025
 30
0.0
 11
399.0451956009228
 21
851.8866955924286
 31
0.0
  0
LINE
  5
867F
330
1F
100
AcDbEntity
  8
SPOJOVACÍ
  6
Continuous
100
AcDbLine
 10
400.8218313714341
 20
852.5750256813307
 30
0.0
 11
399.4228469718682
 21
852.104356728746
 31
0.0
  0
LINE
  5
8680
330
1F
100
AcDbEntity
  8
SPOJOVACÍ
  6
Continuous
100
AcDbLine
 10
400.8218313714341
 20
851.9787829961833
 30
0.0
 11
399.4228469718682
 21
851.5081140435986
 31
0.0
  0
LINE
  5
8681
330
1F
100
AcDbEntity
  8
SPOJOVACÍ
  6
Continuous
100
AcDbLine
 10
399.0451956009228
 20
851.8866955924286
 30
0.0
 11
399.4228469718682
 21
852.104356728746
 31
0.0
  0
LINE
  5
8682
330
1F
100
AcDbEntity
  8
SPOJOVACÍ
  6
Continuous
100
AcDbLine
 10
399.0451956009228
 20
851.8866955924286
 30
0.0
 11
399.4228469718682
 21
851.5081140435986
 31
0.0
  0
LINE
  5
8683
330
1F
100
AcDbEntity
  8
SPOJOVACÍ
  6
Continuous
100
AcDbLine
 10
401.1994827423795
 20
852.1973743082025
 30
0.0
 11
400.8218313714341
 21
852.5750256813307
 31
0.0
  0
LINE
  5
8684
330
1F
100
AcDbEntity
  8
SPOJOVACÍ
  6
Continuous
100
AcDbLine
 10
401.1994827423795
 20
852.1973743082025
 30
0.0
 11
400.8218313714341
 21
851.9787829961833
 31
0.0
  0
LINE
  5
8685
330
1F
100
AcDbEntity
  8
SPOJOVACÍ
  6
Continuous
100
AcDbLine
 10
401.764099452851
 20
855.2111438865223
 30
0.0
 11
398.6480105364198
 21
854.5776941697523
 31
0.0
  0
LINE
  5
8686
330
1F
100
AcDbEntity
  8
SPOJOVACÍ
  6
Continuous
100
AcDbLine
 10
401.38644807754
 20
855.5897254356287
 30
0.0
 11
399.0256619073652
 21
854.7953553058006
 31
0.0
  0
LINE
  5
8687
330
1F
100
AcDbEntity
  8
SPOJOVACÍ
  6
Continuous
100
AcDbLine
 10
401.38644807754
 20
854.993482750474
 30
0.0
 11
399.0256619073652
 21
854.1991126209223
 31
0.0
  0
LINE
  5
8688
330
1F
100
AcDbEntity
  8
SPOJOVACÍ
  6
Continuous
100
AcDbLine
 10
398.6480105364198
 20
854.5776941697523
 30
0.0
 11
399.0256619073652
 21
854.7953553058006
 31
0.0
  0
LINE
  5
8689
330
1F
100
AcDbEntity
  8
SPOJOVACÍ
  6
Continuous
100
AcDbLine
 10
398.6480105364198
 20
854.5776941697523
 30
0.0
 11
399.0256619073652
 21
854.1991126209223
 31
0.0
  0
LINE
  5
868A
330
1F
100
AcDbEntity
  8
SPOJOVACÍ
  6
Continuous
100
AcDbLine
 10
401.764099452851
 20
855.2111438865223
 30
0.0
 11
401.38644807754
 21
855.5897254356287
 31
0.0
  0
LINE
  5
868B
330
1F
100
AcDbEntity
  8
SPOJOVACÍ
  6
Continuous
100
AcDbLine
 10
401.764099452851
 20
855.2111438865223
 30
0.0
 11
401.38644807754
 21
854.993482750474
 31
0.0
  0
LINE
  5
868C
330
1F
100
AcDbEntity
  8
SPOJOVACÍ
  6
Continuous
100
AcDbLine
 10
402.3287161589569
 20
858.2258436408201
 30
0.0
 11
398.2033865062139
 21
857.2528797585155
 31
0.0
  0
LINE
  5
868D
330
1F
100
AcDbEntity
  8
SPOJOVACÍ
  6
Continuous
100
AcDbLine
 10
401.9501346106726
 20
858.6034950139483
 30
0.0
 11
398.5810378771593
 21
857.4705408945638
 31
0.0
  0
LINE
  5
868E
330
1F
100
AcDbEntity
  8
SPOJOVACÍ
  6
Continuous
100
AcDbLine
 10
401.9501346106726
 20
858.0072523287936
 30
0.0
 11
398.5810378771593
 21
856.8742982094091
 31
0.0
  0
LINE
  5
868F
330
1F
100
AcDbEntity
  8
SPOJOVACÍ
  6
Continuous
100
AcDbLine
 10
398.2033865062139
 20
857.2528797585155
 30
0.0
 11
398.5810378771593
 21
857.4705408945638
 31
0.0
  0
LINE
  5
8690
330
1F
100
AcDbEntity
  8
SPOJOVACÍ
  6
Continuous
100
AcDbLine
 10
398.2033865062139
 20
857.2528797585155
 30
0.0
 11
398.5810378771593
 21
856.8742982094091
 31
0.0
  0
LINE
  5
8691
330
1F
100
AcDbEntity
  8
SPOJOVACÍ
  6
Continuous
100
AcDbLine
 10
402.3287161589569
 20
858.2258436408201
 30
0.0
 11
401.9501346106726
 21
858.6034950139483
 31
0.0
  0
LINE
  5
8692
330
1F
100
AcDbEntity
  8
SPOJOVACÍ
  6
Continuous
100
AcDbLine
 10
402.3287161589569
 20
858.2258436408201
 30
0.0
 11
401.9501346106726
 21
858.0072523287936
 31
0.0
  0
LINE
  5
8693
330
1F
100
AcDbEntity
  8
SPOJOVACÍ
  6
Continuous
100
AcDbLine
 10
399.0786819283703
 20
857.6472742959131
 30
0.0
 11
398.8331155169025
 21
859.6183168071993
 31
0.0
  0
LINE
  5
8694
330
1F
100
AcDbEntity
  8
SPOJOVACÍ
  6
Continuous
100
AcDbLine
 10
399.4172659209316
 20
854.9404627300146
 30
0.0
 11
399.150305465594
 21
857.0770765328679
 31
0.0
  0
LINE
  5
8695
330
1F
100
AcDbEntity
  8
SPOJOVACÍ
  6
Continuous
100
AcDbLine
 10
399.7567800821006
 20
852.2234192305813
 30
0.0
 11
399.4888894537898
 21
854.3684046155659
 31
0.0
  0
LINE
  5
8696
330
1F
100
AcDbEntity
  8
SPOJOVACÍ
  6
Continuous
100
AcDbLine
 10
400.568823554352
 20
851.9071594600509
 30
0.0
 11
400.1828006004534
 21
848.818045642246
 31
0.0
  0
LINE
  5
8697
330
1F
100
AcDbEntity
  8
SPOJOVACÍ
  6
Continuous
100
AcDbLine
 10
400.936242992032
 20
854.8483753262599
 30
0.0
 11
400.646028146878
 21
852.5275867159043
 31
0.0
  0
LINE
  5
8698
330
1F
100
AcDbEntity
  8
SPOJOVACÍ
  6
Continuous
100
AcDbLine
 10
401.3055227843897
 20
857.800753301989
 30
0.0
 11
401.0153079348701
 21
855.4790345159245
 31
0.0
  0
LINE
  5
8699
330
1F
100
AcDbEntity
  8
SPOJOVACÍ
  6
Continuous
100
AcDbLine
 10
400.1828006004534
 20
848.818045642246
 30
0.0
 11
399.8284036193244
 21
851.6541516435145
 31
0.0
  0
LINE
  5
869A
330
1F
100
AcDbEntity
  8
SPOJOVACÍ
  6
Continuous
100
AcDbLine
 10
401.5324856796387
 20
859.6183168071993
 30
0.0
 11
401.3827273769156
 21
858.4211805578425
 31
0.0
  0
LINE
  5
869B
330
1F
100
AcDbEntity
  8
SPOJOVACÍ
  6
Continuous
100
AcDbLine
 10
398.8331155169025
 20
859.9550404450829
 30
0.0
 11
398.8331155169025
 21
859.6183168071993
 31
0.0
  0
LINE
  5
869C
330
1F
100
AcDbEntity
  8
SPOJOVACÍ
  6
Continuous
100
AcDbLine
 10
398.8331155169025
 20
863.0776405916959
 30
0.0
 11
398.8331155169025
 21
860.5587245366669
 31
0.0
  0
LINE
  5
869D
330
1F
100
AcDbEntity
  8
SPOJOVACÍ
  6
Continuous
100
AcDbLine
 10
401.5324856796387
 20
860.865682549088
 30
0.0
 11
401.5324856796387
 21
859.6183168071993
 31
0.0
  0
LINE
  5
869E
330
1F
100
AcDbEntity
  8
SPOJOVACÍ
  6
Continuous
100
AcDbLine
 10
401.5324856796387
 20
863.9799111135699
 30
0.0
 11
401.5324856796387
 21
861.4619252342427
 31
0.0
  0
LINE
  5
869F
330
1F
100
AcDbEntity
  8
SPOJOVACÍ
  6
Continuous
100
AcDbLine
 10
398.8331155169025
 20
866.1993105623379
 30
0.0
 11
398.8331155169025
 21
863.6785341556288
 31
0.0
  0
LINE
  5
86A0
330
1F
100
AcDbEntity
  8
SPOJOVACÍ
  6
Continuous
100
AcDbLine
 10
401.5324856796387
 20
867.1127431937248
 30
0.0
 11
401.5324856796387
 21
864.5845253808557
 31
0.0
  0
LINE
  5
86A1
330
1F
100
AcDbEntity
  8
SPOJOVACÍ
  6
Continuous
100
AcDbLine
 10
419.5324856796387
 20
849.1127431937174
 30
0.0
 11
419.5324856796387
 21
846.5845253808483
 31
0.0
  0
LINE
  5
86A2
330
1F
100
AcDbEntity
  8
SPOJOVACÍ
  6
Continuous
100
AcDbLine
 10
416.8331155169026
 20
848.1993105623304
 30
0.0
 11
416.8331155169026
 21
845.6785341556214
 31
0.0
  0
LINE
  5
86A3
330
1F
100
AcDbEntity
  8
SPOJOVACÍ
  6
Continuous
100
AcDbLine
 10
419.5324856796387
 20
845.9799111135625
 30
0.0
 11
419.5324856796387
 21
843.4619252342354
 31
0.0
  0
LINE
  5
86A4
330
1F
100
AcDbEntity
  8
SPOJOVACÍ
  6
Continuous
100
AcDbLine
 10
419.5324856796387
 20
842.8656825490806
 30
0.0
 11
419.5324856796387
 21
841.6183168071921
 31
0.0
  0
LINE
  5
86A5
330
1F
100
AcDbEntity
  8
SPOJOVACÍ
  6
Continuous
100
AcDbLine
 10
416.8331155169026
 20
845.0776405916885
 30
0.0
 11
416.8331155169026
 21
842.5587245366596
 31
0.0
  0
LINE
  5
86A6
330
1F
100
AcDbEntity
  8
SPOJOVACÍ
  6
Continuous
100
AcDbLine
 10
416.8331155169026
 20
841.9550404450756
 30
0.0
 11
416.8331155169026
 21
841.6183168071921
 31
0.0
  0
LINE
  5
86A7
330
1F
100
AcDbEntity
  8
SPOJOVACÍ
  6
Continuous
100
AcDbLine
 10
419.5324856796387
 20
841.6183168071921
 30
0.0
 11
419.3827273769157
 21
840.4211805578352
 31
0.0
  0
LINE
  5
86A8
330
1F
100
AcDbEntity
  8
SPOJOVACÍ
  6
Continuous
100
AcDbLine
 10
418.1828006004534
 20
830.8180456422388
 30
0.0
 11
417.8284036193245
 21
833.6541516435072
 31
0.0
  0
LINE
  5
86A9
330
1F
100
AcDbEntity
  8
SPOJOVACÍ
  6
Continuous
100
AcDbLine
 10
419.3055227843897
 20
839.8007533019818
 30
0.0
 11
419.0153079348702
 21
837.4790345159171
 31
0.0
  0
LINE
  5
86AA
330
1F
100
AcDbEntity
  8
SPOJOVACÍ
  6
Continuous
100
AcDbLine
 10
418.936242992032
 20
836.8483753262525
 30
0.0
 11
418.6460281468781
 21
834.5275867158971
 31
0.0
  0
LINE
  5
86AB
330
1F
100
AcDbEntity
  8
SPOJOVACÍ
  6
Continuous
100
AcDbLine
 10
418.5688235543521
 20
833.9071594600437
 30
0.0
 11
418.1828006004534
 21
830.8180456422388
 31
0.0
  0
LINE
  5
86AC
330
1F
100
AcDbEntity
  8
SPOJOVACÍ
  6
Continuous
100
AcDbLine
 10
417.7567800821007
 20
834.223419230574
 30
0.0
 11
417.4888894537899
 21
836.3684046155585
 31
0.0
  0
LINE
  5
86AD
330
1F
100
AcDbEntity
  8
SPOJOVACÍ
  6
Continuous
100
AcDbLine
 10
417.4172659209316
 20
836.9404627300072
 30
0.0
 11
417.1503054655941
 21
839.0770765328607
 31
0.0
  0
LINE
  5
86AE
330
1F
100
AcDbEntity
  8
SPOJOVACÍ
  6
Continuous
100
AcDbLine
 10
417.0786819283703
 20
839.6472742959058
 30
0.0
 11
416.8331155169026
 21
841.6183168071921
 31
0.0
  0
LINE
  5
86AF
330
1F
100
AcDbEntity
  8
SPOJOVACÍ
  6
Continuous
100
AcDbLine
 10
420.3287161589569
 20
840.2258436408128
 30
0.0
 11
419.9501346106726
 21
840.0072523287862
 31
0.0
  0
LINE
  5
86B0
330
1F
100
AcDbEntity
  8
SPOJOVACÍ
  6
Continuous
100
AcDbLine
 10
420.3287161589569
 20
840.2258436408128
 30
0.0
 11
419.9501346106726
 21
840.603495013941
 31
0.0
  0
LINE
  5
86B1
330
1F
100
AcDbEntity
  8
SPOJOVACÍ
  6
Continuous
100
AcDbLine
 10
416.203386506214
 20
839.2528797585082
 30
0.0
 11
416.5810378771594
 21
838.8742982094017
 31
0.0
  0
LINE
  5
86B2
330
1F
100
AcDbEntity
  8
SPOJOVACÍ
  6
Continuous
100
AcDbLine
 10
416.203386506214
 20
839.2528797585082
 30
0.0
 11
416.5810378771594
 21
839.4705408945565
 31
0.0
  0
LINE
  5
86B3
330
1F
100
AcDbEntity
  8
SPOJOVACÍ
  6
Continuous
100
AcDbLine
 10
419.9501346106726
 20
840.0072523287862
 30
0.0
 11
416.5810378771594
 21
838.8742982094017
 31
0.0
  0
LINE
  5
86B4
330
1F
100
AcDbEntity
  8
SPOJOVACÍ
  6
Continuous
100
AcDbLine
 10
419.9501346106726
 20
840.603495013941
 30
0.0
 11
416.5810378771594
 21
839.4705408945565
 31
0.0
  0
LINE
  5
86B5
330
1F
100
AcDbEntity
  8
SPOJOVACÍ
  6
Continuous
100
AcDbLine
 10
420.3287161589569
 20
840.2258436408128
 30
0.0
 11
416.203386506214
 21
839.2528797585082
 31
0.0
  0
LINE
  5
86B6
330
1F
100
AcDbEntity
  8
SPOJOVACÍ
  6
Continuous
100
AcDbLine
 10
419.764099452851
 20
837.2111438865148
 30
0.0
 11
419.3864480775401
 21
836.9934827504666
 31
0.0
  0
LINE
  5
86B7
330
1F
100
AcDbEntity
  8
SPOJOVACÍ
  6
Continuous
100
AcDbLine
 10
419.764099452851
 20
837.2111438865148
 30
0.0
 11
419.3864480775401
 21
837.5897254356214
 31
0.0
  0
LINE
  5
86B8
330
1F
100
AcDbEntity
  8
SPOJOVACÍ
  6
Continuous
100
AcDbLine
 10
416.6480105364199
 20
836.5776941697449
 30
0.0
 11
417.0256619073652
 21
836.1991126209149
 31
0.0
  0
LINE
  5
86B9
330
1F
100
AcDbEntity
  8
SPOJOVACÍ
  6
Continuous
100
AcDbLine
 10
416.6480105364199
 20
836.5776941697449
 30
0.0
 11
417.0256619073652
 21
836.7953553057931
 31
0.0
  0
LINE
  5
86BA
330
1F
100
AcDbEntity
  8
SPOJOVACÍ
  6
Continuous
100
AcDbLine
 10
419.3864480775401
 20
836.9934827504666
 30
0.0
 11
417.0256619073652
 21
836.1991126209149
 31
0.0
  0
LINE
  5
86BB
330
1F
100
AcDbEntity
  8
SPOJOVACÍ
  6
Continuous
100
AcDbLine
 10
419.3864480775401
 20
837.5897254356214
 30
0.0
 11
417.0256619073652
 21
836.7953553057931
 31
0.0
  0
LINE
  5
86BC
330
1F
100
AcDbEntity
  8
SPOJOVACÍ
  6
Continuous
100
AcDbLine
 10
419.764099452851
 20
837.2111438865148
 30
0.0
 11
416.6480105364199
 21
836.5776941697449
 31
0.0
  0
LINE
  5
86BD
330
1F
100
AcDbEntity
  8
SPOJOVACÍ
  6
Continuous
100
AcDbLine
 10
419.1994827423796
 20
834.1973743081952
 30
0.0
 11
418.8218313714342
 21
833.978782996176
 31
0.0
  0
LINE
  5
86BE
330
1F
100
AcDbEntity
  8
SPOJOVACÍ
  6
Continuous
100
AcDbLine
 10
419.1994827423796
 20
834.1973743081952
 30
0.0
 11
418.8218313714342
 21
834.5750256813234
 31
0.0
  0
LINE
  5
86BF
330
1F
100
AcDbEntity
  8
SPOJOVACÍ
  6
Continuous
100
AcDbLine
 10
417.0451956009229
 20
833.8866955924213
 30
0.0
 11
417.4228469718682
 21
833.5081140435914
 31
0.0
  0
LINE
  5
86C0
330
1F
100
AcDbEntity
  8
SPOJOVACÍ
  6
Continuous
100
AcDbLine
 10
417.0451956009229
 20
833.8866955924213
 30
0.0
 11
417.4228469718682
 21
834.1043567287387
 31
0.0
  0
LINE
  5
86C1
330
1F
100
AcDbEntity
  8
SPOJOVACÍ
  6
Continuous
100
AcDbLine
 10
418.8218313714342
 20
833.978782996176
 30
0.0
 11
417.4228469718682
 21
833.5081140435914
 31
0.0
  0
LINE
  5
86C2
330
1F
100
AcDbEntity
  8
SPOJOVACÍ
  6
Continuous
100
AcDbLine
 10
418.8218313714342
 20
834.5750256813234
 30
0.0
 11
417.4228469718682
 21
834.1043567287387
 31
0.0
  0
LINE
  5
86C3
330
1F
100
AcDbEntity
  8
SPOJOVACÍ
  6
Continuous
100
AcDbLine
 10
419.1994827423796
 20
834.1973743081952
 30
0.0
 11
417.0451956009229
 21
833.8866955924213
 31
0.0
  0
LINE
  5
86C4
330
1F
100
AcDbEntity
  8
SPOJOVACÍ
  6
Continuous
100
AcDbLine
 10
420.5826541533779
 20
846.4236049680666
 30
0.0
 11
415.782947047529
 21
845.2236781916043
 31
0.0
  0
LINE
  5
86C5
330
1F
100
AcDbEntity
  8
SPOJOVACÍ
  6
Continuous
100
AcDbLine
 10
420.5826541533779
 20
846.4236049680666
 30
0.0
 11
420.205002778067
 21
846.2050136560474
 31
0.0
  0
LINE
  5
86C6
330
1F
100
AcDbEntity
  8
SPOJOVACÍ
  6
Continuous
100
AcDbLine
 10
420.5826541533779
 20
846.4236049680666
 30
0.0
 11
420.205002778067
 21
846.8012563411948
 31
0.0
  0
LINE
  5
86C7
330
1F
100
AcDbEntity
  8
SPOJOVACÍ
  6
Continuous
100
AcDbLine
 10
415.782947047529
 20
845.2236781916043
 30
0.0
 11
416.1605984184744
 21
844.8450966427744
 31
0.0
  0
LINE
  5
86C8
330
1F
100
AcDbEntity
  8
SPOJOVACÍ
  6
Continuous
100
AcDbLine
 10
415.782947047529
 20
845.2236781916043
 30
0.0
 11
416.1605984184744
 21
845.4413393276526
 31
0.0
  0
LINE
  5
86C9
330
1F
100
AcDbEntity
  8
SPOJOVACÍ
  6
Continuous
100
AcDbLine
 10
420.205002778067
 20
846.2050136560474
 30
0.0
 11
416.1605984184744
 21
844.8450966427744
 31
0.0
  0
LINE
  5
86CA
330
1F
100
AcDbEntity
  8
SPOJOVACÍ
  6
Continuous
100
AcDbLine
 10
420.205002778067
 20
846.8012563411948
 30
0.0
 11
416.1605984184744
 21
845.4413393276526
 31
0.0
  0
LINE
  5
86CB
330
1F
100
AcDbEntity
  8
SPOJOVACÍ
  6
Continuous
100
AcDbLine
 10
420.5826541533779
 20
843.3028651731264
 30
0.0
 11
415.782947047529
 21
842.1029383966642
 31
0.0
  0
LINE
  5
86CC
330
1F
100
AcDbEntity
  8
SPOJOVACÍ
  6
Continuous
100
AcDbLine
 10
420.5826541533779
 20
843.3028651731264
 30
0.0
 11
420.205002778067
 21
843.0852040370782
 31
0.0
  0
LINE
  5
86CD
330
1F
100
AcDbEntity
  8
SPOJOVACÍ
  6
Continuous
100
AcDbLine
 10
420.5826541533779
 20
843.3028651731264
 30
0.0
 11
420.205002778067
 21
843.681446722233
 31
0.0
  0
LINE
  5
86CE
330
1F
100
AcDbEntity
  8
SPOJOVACÍ
  6
Continuous
100
AcDbLine
 10
415.782947047529
 20
842.1029383966642
 30
0.0
 11
416.1605984184744
 21
841.725287023536
 31
0.0
  0
LINE
  5
86CF
330
1F
100
AcDbEntity
  8
SPOJOVACÍ
  6
Continuous
100
AcDbLine
 10
415.782947047529
 20
842.1029383966642
 30
0.0
 11
416.1605984184744
 21
842.3215297086908
 31
0.0
  0
LINE
  5
86D0
330
1F
100
AcDbEntity
  8
SPOJOVACÍ
  6
Continuous
100
AcDbLine
 10
420.205002778067
 20
843.0852040370782
 30
0.0
 11
416.1605984184744
 21
841.725287023536
 31
0.0
  0
LINE
  5
86D1
330
1F
100
AcDbEntity
  8
SPOJOVACÍ
  6
Continuous
100
AcDbLine
 10
420.205002778067
 20
843.681446722233
 30
0.0
 11
416.1605984184744
 21
842.3215297086908
 31
0.0
  0
LINE
  5
86D2
330
1F
100
AcDbEntity
  8
SPOJOVACÍ
  6
Continuous
100
AcDbLine
 10
415.9931667768715
 20
862.9212028822339
 30
0.0
 11
414.7834926323948
 21
864.4456271919016
 31
0.0
  0
LINE
  5
86D3
330
1F
100
AcDbEntity
  8
SPOJOVACÍ
  6
Continuous
100
AcDbLine
 10
416.6061526260191
 20
861.5073356725305
 30
0.0
 11
415.9931667768715
 21
862.9212028822339
 31
0.0
  0
LINE
  5
86D4
330
1F
100
AcDbEntity
  8
SPOJOVACÍ
  6
Continuous
100
AcDbLine
 10
416.8331155169026
 20
859.9837077191013
 30
0.0
 11
416.6061526260191
 21
861.5073356725305
 31
0.0
  0
LINE
  5
86D5
330
1F
100
AcDbEntity
  8
SPOJOVACÍ
  6
Continuous
100
AcDbLine
 10
423.2829544890874
 20
866.5833049901893
 30
0.0
 11
423.2829544890874
 21
865.3833782134579
 31
0.0
  0
LINE
  5
86D6
330
1F
100
AcDbEntity
  8
SPOJOVACÍ
  6
Continuous
100
AcDbLine
 10
419.5985281615604
 20
860.7706364422238
 30
0.0
 11
419.5324856796387
 21
859.9837077191013
 31
0.0
  0
LINE
  5
86D7
330
1F
100
AcDbEntity
  8
SPOJOVACÍ
  6
Continuous
100
AcDbLine
 10
420.0264090258597
 20
862.2514763092739
 30
0.0
 11
419.5985281615604
 21
860.7706364422238
 31
0.0
  0
LINE
  5
86D8
330
1F
100
AcDbEntity
  8
SPOJOVACÍ
  6
Continuous
100
AcDbLine
 10
420.8226395051779
 20
863.5704655875715
 30
0.0
 11
420.0264090258597
 21
862.2514763092739
 31
0.0
  0
LINE
  5
86D9
330
1F
100
AcDbEntity
  8
SPOJOVACÍ
  6
Continuous
100
AcDbLine
 10
421.9332694055365
 20
864.6392375769837
 30
0.0
 11
420.8226395051779
 21
863.5704655875715
 31
0.0
  0
LINE
  5
86DA
330
1F
100
AcDbEntity
  8
SPOJOVACÍ
  6
Continuous
100
AcDbLine
 10
423.2829544890874
 20
865.3833782134579
 30
0.0
 11
421.9332694055365
 21
864.6392375769837
 31
0.0
  0
LINE
  5
86DB
330
1F
100
AcDbEntity
  8
SPOJOVACÍ
  6
Continuous
100
AcDbLine
 10
416.8331155169026
 20
859.9837077191013
 30
0.0
 11
416.8331155169026
 21
855.0407535401728
 31
0.0
  0
LINE
  5
86DC
330
1F
100
AcDbEntity
  8
SPOJOVACÍ
  6
Continuous
100
AcDbLine
 10
419.5324856796387
 20
859.9837077191013
 30
0.0
 11
419.5324856796387
 21
855.9458145894213
 31
0.0
  0
LINE
  5
86DD
330
1F
100
AcDbEntity
  8
SPOJOVACÍ
  6
Continuous
100
AcDbLine
 10
419.5324856796387
 20
855.3505020802449
 30
0.0
 11
419.5324856796387
 21
852.831586025216
 31
0.0
  0
LINE
  5
86DE
330
1F
100
AcDbEntity
  8
SPOJOVACÍ
  6
Continuous
100
AcDbLine
 10
419.5324856796387
 20
852.2279019339011
 30
0.0
 11
419.5324856796387
 21
849.707125527192
 31
0.0
  0
LINE
  5
86DF
330
1F
100
AcDbEntity
  8
SPOJOVACÍ
  6
Continuous
100
AcDbLine
 10
416.8331155169026
 20
854.4370694488579
 30
0.0
 11
416.8331155169026
 21
851.918153393829
 31
0.0
  0
LINE
  5
86E0
330
1F
100
AcDbEntity
  8
SPOJOVACÍ
  6
Continuous
100
AcDbLine
 10
416.8331155169026
 20
851.3219107086742
 30
0.0
 11
416.8331155169026
 21
848.7936928958051
 31
0.0
  0
LINE
  5
86E1
330
1F
100
AcDbEntity
  8
SPOJOVACÍ
  6
Continuous
100
AcDbLine
 10
420.5826541533779
 20
855.783033825236
 30
0.0
 11
415.782947047529
 21
854.5831070487738
 31
0.0
  0
LINE
  5
86E2
330
1F
100
AcDbEntity
  8
SPOJOVACÍ
  6
Continuous
100
AcDbLine
 10
420.5826541533779
 20
855.783033825236
 30
0.0
 11
420.205002778067
 21
855.5653726891877
 31
0.0
  0
LINE
  5
86E3
330
1F
100
AcDbEntity
  8
SPOJOVACÍ
  6
Continuous
100
AcDbLine
 10
420.5826541533779
 20
855.783033825236
 30
0.0
 11
420.205002778067
 21
856.161615374066
 31
0.0
  0
LINE
  5
86E4
330
1F
100
AcDbEntity
  8
SPOJOVACÍ
  6
Continuous
100
AcDbLine
 10
415.782947047529
 20
854.5831070487738
 30
0.0
 11
416.1605984184744
 21
854.2054556756456
 31
0.0
  0
LINE
  5
86E5
330
1F
100
AcDbEntity
  8
SPOJOVACÍ
  6
Continuous
100
AcDbLine
 10
415.782947047529
 20
854.5831070487738
 30
0.0
 11
416.1605984184744
 21
854.8016983608004
 31
0.0
  0
LINE
  5
86E6
330
1F
100
AcDbEntity
  8
SPOJOVACÍ
  6
Continuous
100
AcDbLine
 10
420.205002778067
 20
855.5653726891877
 30
0.0
 11
416.1605984184744
 21
854.2054556756456
 31
0.0
  0
LINE
  5
86E7
330
1F
100
AcDbEntity
  8
SPOJOVACÍ
  6
Continuous
100
AcDbLine
 10
420.205002778067
 20
856.161615374066
 30
0.0
 11
416.1605984184744
 21
854.8016983608004
 31
0.0
  0
LINE
  5
86E8
330
1F
100
AcDbEntity
  8
SPOJOVACÍ
  6
Continuous
100
AcDbLine
 10
420.5826541533779
 20
852.6632242062742
 30
0.0
 11
415.782947047529
 21
851.4632974295354
 31
0.0
  0
LINE
  5
86E9
330
1F
100
AcDbEntity
  8
SPOJOVACÍ
  6
Continuous
100
AcDbLine
 10
420.5826541533779
 20
852.6632242062742
 30
0.0
 11
420.205002778067
 21
852.4446328942476
 31
0.0
  0
LINE
  5
86EA
330
1F
100
AcDbEntity
  8
SPOJOVACÍ
  6
Continuous
100
AcDbLine
 10
420.5826541533779
 20
852.6632242062742
 30
0.0
 11
420.205002778067
 21
853.0408755794024
 31
0.0
  0
LINE
  5
86EB
330
1F
100
AcDbEntity
  8
SPOJOVACÍ
  6
Continuous
100
AcDbLine
 10
415.782947047529
 20
851.4632974295354
 30
0.0
 11
416.1605984184744
 21
851.0856460566838
 31
0.0
  0
LINE
  5
86EC
330
1F
100
AcDbEntity
  8
SPOJOVACÍ
  6
Continuous
100
AcDbLine
 10
415.782947047529
 20
851.4632974295354
 30
0.0
 11
416.1605984184744
 21
851.681888741562
 31
0.0
  0
LINE
  5
86ED
330
1F
100
AcDbEntity
  8
SPOJOVACÍ
  6
Continuous
100
AcDbLine
 10
420.205002778067
 20
852.4446328942476
 30
0.0
 11
416.1605984184744
 21
851.0856460566838
 31
0.0
  0
LINE
  5
86EE
330
1F
100
AcDbEntity
  8
SPOJOVACÍ
  6
Continuous
100
AcDbLine
 10
420.205002778067
 20
853.0408755794024
 30
0.0
 11
416.1605984184744
 21
851.681888741562
 31
0.0
  0
LINE
  5
86EF
330
1F
100
AcDbEntity
  8
SPOJOVACÍ
  6
Continuous
100
AcDbLine
 10
420.5826541533779
 20
849.5434145870358
 30
0.0
 11
415.782947047529
 21
848.3434878105736
 31
0.0
  0
LINE
  5
86F0
330
1F
100
AcDbEntity
  8
SPOJOVACÍ
  6
Continuous
100
AcDbLine
 10
420.5826541533779
 20
849.5434145870358
 30
0.0
 11
420.205002778067
 21
849.3248232750092
 31
0.0
  0
LINE
  5
86F1
330
1F
100
AcDbEntity
  8
SPOJOVACÍ
  6
Continuous
100
AcDbLine
 10
420.5826541533779
 20
849.5434145870358
 30
0.0
 11
420.205002778067
 21
849.921065960164
 31
0.0
  0
LINE
  5
86F2
330
1F
100
AcDbEntity
  8
SPOJOVACÍ
  6
Continuous
100
AcDbLine
 10
415.782947047529
 20
848.3434878105736
 30
0.0
 11
416.1605984184744
 21
847.9649062617436
 31
0.0
  0
LINE
  5
86F3
330
1F
100
AcDbEntity
  8
SPOJOVACÍ
  6
Continuous
100
AcDbLine
 10
415.782947047529
 20
848.3434878105736
 30
0.0
 11
416.1605984184744
 21
848.561148946891
 31
0.0
  0
LINE
  5
86F4
330
1F
100
AcDbEntity
  8
SPOJOVACÍ
  6
Continuous
100
AcDbLine
 10
420.205002778067
 20
849.3248232750092
 30
0.0
 11
416.1605984184744
 21
847.9649062617436
 31
0.0
  0
LINE
  5
86F5
330
1F
100
AcDbEntity
  8
SPOJOVACÍ
  6
Continuous
100
AcDbLine
 10
420.205002778067
 20
849.921065960164
 30
0.0
 11
416.1605984184744
 21
848.561148946891
 31
0.0
  0
LINE
  5
86F6
330
1F
100
AcDbEntity
  8
SPOJOVACÍ
  6
Continuous
100
AcDbLine
 10
423.2829544890874
 20
865.3833782134579
 30
0.0
 11
413.0826467118195
 21
865.3833782134579
 31
0.0
  0
LINE
  5
86F7
330
1F
100
AcDbEntity
  8
SPOJOVACÍ
  6
Continuous
100
AcDbLine
 10
413.0826467118195
 20
866.5833049901893
 30
0.0
 11
413.0826467118195
 21
865.3833782134579
 31
0.0
  0
LINE
  5
86F8
330
1F
100
AcDbEntity
  8
SPOJOVACÍ
  6
Continuous
100
AcDbLine
 10
423.2829544890874
 20
866.5833049901893
 30
0.0
 11
413.0826467118195
 21
866.5833049901893
 31
0.0
  0
LINE
  5
86F9
330
1F
100
AcDbEntity
  8
SPOJOVACÍ
  6
Continuous
100
AcDbLine
 10
413.0826467118195
 20
865.3833782134579
 30
0.0
 11
414.7834926323948
 21
864.4456271919016
 31
0.0
  0
LINE
  5
86FA
330
1F
100
AcDbEntity
  8
SPOJOVACÍ
  6
Continuous
100
AcDbLine
 10
754.6530739877734
 20
867.1127431937248
 30
0.0
 11
754.6530739877734
 21
864.5845253808557
 31
0.0
  0
LINE
  5
86FB
330
1F
100
AcDbEntity
  8
SPOJOVACÍ
  6
Continuous
100
AcDbLine
 10
757.3524441505096
 20
866.1993105623379
 30
0.0
 11
757.3524441505096
 21
863.6785341556288
 31
0.0
  0
LINE
  5
86FC
330
1F
100
AcDbEntity
  8
SPOJOVACÍ
  6
Continuous
100
AcDbLine
 10
754.6530739877734
 20
863.9799111135699
 30
0.0
 11
754.6530739877734
 21
861.4619252342427
 31
0.0
  0
LINE
  5
86FD
330
1F
100
AcDbEntity
  8
SPOJOVACÍ
  6
Continuous
100
AcDbLine
 10
754.6530739877734
 20
860.865682549088
 30
0.0
 11
754.6530739877734
 21
859.6183168071993
 31
0.0
  0
LINE
  5
86FE
330
1F
100
AcDbEntity
  8
SPOJOVACÍ
  6
Continuous
100
AcDbLine
 10
757.3524441505096
 20
863.0776405916959
 30
0.0
 11
757.3524441505096
 21
860.5587245366669
 31
0.0
  0
LINE
  5
86FF
330
1F
100
AcDbEntity
  8
SPOJOVACÍ
  6
Continuous
100
AcDbLine
 10
757.3524441505096
 20
859.9550404450829
 30
0.0
 11
757.3524441505096
 21
859.6183168071993
 31
0.0
  0
LINE
  5
8700
330
1F
100
AcDbEntity
  8
SPOJOVACÍ
  6
Continuous
100
AcDbLine
 10
754.6530739877734
 20
859.6183168071993
 30
0.0
 11
754.8028322904965
 21
858.4211805578425
 31
0.0
  0
LINE
  5
8701
330
1F
100
AcDbEntity
  8
SPOJOVACÍ
  6
Continuous
100
AcDbLine
 10
756.0027590669587
 20
848.818045642246
 30
0.0
 11
756.3571560480877
 21
851.6541516435145
 31
0.0
  0
LINE
  5
8702
330
1F
100
AcDbEntity
  8
SPOJOVACÍ
  6
Continuous
100
AcDbLine
 10
754.8800368830224
 20
857.800753301989
 30
0.0
 11
755.170251732542
 21
855.4790345159245
 31
0.0
  0
LINE
  5
8703
330
1F
100
AcDbEntity
  8
SPOJOVACÍ
  6
Continuous
100
AcDbLine
 10
755.2493166753802
 20
854.8483753262599
 30
0.0
 11
755.5395315205341
 21
852.5275867159043
 31
0.0
  0
LINE
  5
8704
330
1F
100
AcDbEntity
  8
SPOJOVACÍ
  6
Continuous
100
AcDbLine
 10
755.6167361130601
 20
851.9071594600509
 30
0.0
 11
756.0027590669587
 21
848.818045642246
 31
0.0
  0
LINE
  5
8705
330
1F
100
AcDbEntity
  8
SPOJOVACÍ
  6
Continuous
100
AcDbLine
 10
756.4287795853115
 20
852.2234192305813
 30
0.0
 11
756.6966702136223
 21
854.3684046155659
 31
0.0
  0
LINE
  5
8706
330
1F
100
AcDbEntity
  8
SPOJOVACÍ
  6
Continuous
100
AcDbLine
 10
756.7682937464805
 20
854.9404627300146
 30
0.0
 11
757.0352542018181
 21
857.0770765328679
 31
0.0
  0
LINE
  5
8707
330
1F
100
AcDbEntity
  8
SPOJOVACÍ
  6
Continuous
100
AcDbLine
 10
757.1068777390419
 20
857.6472742959131
 30
0.0
 11
757.3524441505096
 21
859.6183168071993
 31
0.0
  0
LINE
  5
8708
330
1F
100
AcDbEntity
  8
SPOJOVACÍ
  6
Continuous
100
AcDbLine
 10
753.8568435084552
 20
858.2258436408201
 30
0.0
 11
754.2354250567395
 21
858.0072523287936
 31
0.0
  0
LINE
  5
8709
330
1F
100
AcDbEntity
  8
SPOJOVACÍ
  6
Continuous
100
AcDbLine
 10
753.8568435084552
 20
858.2258436408201
 30
0.0
 11
754.2354250567395
 21
858.6034950139483
 31
0.0
  0
LINE
  5
870A
330
1F
100
AcDbEntity
  8
SPOJOVACÍ
  6
Continuous
100
AcDbLine
 10
757.9821731611982
 20
857.2528797585155
 30
0.0
 11
757.6045217902528
 21
856.8742982094091
 31
0.0
  0
LINE
  5
870B
330
1F
100
AcDbEntity
  8
SPOJOVACÍ
  6
Continuous
100
AcDbLine
 10
757.9821731611982
 20
857.2528797585155
 30
0.0
 11
757.6045217902528
 21
857.4705408945638
 31
0.0
  0
LINE
  5
870C
330
1F
100
AcDbEntity
  8
SPOJOVACÍ
  6
Continuous
100
AcDbLine
 10
754.2354250567395
 20
858.0072523287936
 30
0.0
 11
757.6045217902528
 21
856.8742982094091
 31
0.0
  0
LINE
  5
870D
330
1F
100
AcDbEntity
  8
SPOJOVACÍ
  6
Continuous
100
AcDbLine
 10
754.2354250567395
 20
858.6034950139483
 30
0.0
 11
757.6045217902528
 21
857.4705408945638
 31
0.0
  0
LINE
  5
870E
330
1F
100
AcDbEntity
  8
SPOJOVACÍ
  6
Continuous
100
AcDbLine
 10
753.8568435084552
 20
858.2258436408201
 30
0.0
 11
757.9821731611982
 21
857.2528797585155
 31
0.0
  0
LINE
  5
870F
330
1F
100
AcDbEntity
  8
SPOJOVACÍ
  6
Continuous
100
AcDbLine
 10
754.4214602145611
 20
855.2111438865223
 30
0.0
 11
754.7991115898721
 21
854.993482750474
 31
0.0
  0
LINE
  5
8710
330
1F
100
AcDbEntity
  8
SPOJOVACÍ
  6
Continuous
100
AcDbLine
 10
754.4214602145611
 20
855.2111438865223
 30
0.0
 11
754.7991115898721
 21
855.5897254356287
 31
0.0
  0
LINE
  5
8711
330
1F
100
AcDbEntity
  8
SPOJOVACÍ
  6
Continuous
100
AcDbLine
 10
757.5375491309923
 20
854.5776941697523
 30
0.0
 11
757.1598977600469
 21
854.1991126209223
 31
0.0
  0
LINE
  5
8712
330
1F
100
AcDbEntity
  8
SPOJOVACÍ
  6
Continuous
100
AcDbLine
 10
757.5375491309923
 20
854.5776941697523
 30
0.0
 11
757.1598977600469
 21
854.7953553058006
 31
0.0
  0
LINE
  5
8713
330
1F
100
AcDbEntity
  8
SPOJOVACÍ
  6
Continuous
100
AcDbLine
 10
754.7991115898721
 20
854.993482750474
 30
0.0
 11
757.1598977600469
 21
854.1991126209223
 31
0.0
  0
LINE
  5
8714
330
1F
100
AcDbEntity
  8
SPOJOVACÍ
  6
Continuous
100
AcDbLine
 10
754.7991115898721
 20
855.5897254356287
 30
0.0
 11
757.1598977600469
 21
854.7953553058006
 31
0.0
  0
LINE
  5
8715
330
1F
100
AcDbEntity
  8
SPOJOVACÍ
  6
Continuous
100
AcDbLine
 10
754.4214602145611
 20
855.2111438865223
 30
0.0
 11
757.5375491309923
 21
854.5776941697523
 31
0.0
  0
LINE
  5
8716
330
1F
100
AcDbEntity
  8
SPOJOVACÍ
  6
Continuous
100
AcDbLine
 10
754.9860769250326
 20
852.1973743082025
 30
0.0
 11
755.363728295978
 21
851.9787829961833
 31
0.0
  0
LINE
  5
8717
330
1F
100
AcDbEntity
  8
SPOJOVACÍ
  6
Continuous
100
AcDbLine
 10
754.9860769250326
 20
852.1973743082025
 30
0.0
 11
755.363728295978
 21
852.5750256813307
 31
0.0
  0
LINE
  5
8718
330
1F
100
AcDbEntity
  8
SPOJOVACÍ
  6
Continuous
100
AcDbLine
 10
757.1403640664893
 20
851.8866955924286
 30
0.0
 11
756.7627126955439
 21
851.5081140435986
 31
0.0
  0
LINE
  5
8719
330
1F
100
AcDbEntity
  8
SPOJOVACÍ
  6
Continuous
100
AcDbLine
 10
757.1403640664893
 20
851.8866955924286
 30
0.0
 11
756.7627126955439
 21
852.104356728746
 31
0.0
  0
LINE
  5
871A
330
1F
100
AcDbEntity
  8
SPOJOVACÍ
  6
Continuous
100
AcDbLine
 10
755.363728295978
 20
851.9787829961833
 30
0.0
 11
756.7627126955439
 21
851.5081140435986
 31
0.0
  0
LINE
  5
871B
330
1F
100
AcDbEntity
  8
SPOJOVACÍ
  6
Continuous
100
AcDbLine
 10
755.363728295978
 20
852.5750256813307
 30
0.0
 11
756.7627126955439
 21
852.104356728746
 31
0.0
  0
LINE
  5
871C
330
1F
100
AcDbEntity
  8
SPOJOVACÍ
  6
Continuous
100
AcDbLine
 10
754.9860769250326
 20
852.1973743082025
 30
0.0
 11
757.1403640664893
 21
851.8866955924286
 31
0.0
  0
LINE
  5
871D
330
1F
100
AcDbEntity
  8
SPOJOVACÍ
  6
Continuous
100
AcDbLine
 10
753.6029055140343
 20
864.423604968074
 30
0.0
 11
758.4026126198832
 21
863.2236781916118
 31
0.0
  0
LINE
  5
871E
330
1F
100
AcDbEntity
  8
SPOJOVACÍ
  6
Continuous
100
AcDbLine
 10
753.6029055140343
 20
864.423604968074
 30
0.0
 11
753.9805568893452
 21
864.2050136560547
 31
0.0
  0
LINE
  5
871F
330
1F
100
AcDbEntity
  8
SPOJOVACÍ
  6
Continuous
100
AcDbLine
 10
753.6029055140343
 20
864.423604968074
 30
0.0
 11
753.9805568893452
 21
864.8012563412022
 31
0.0
  0
LINE
  5
8720
330
1F
100
AcDbEntity
  8
SPOJOVACÍ
  6
Continuous
100
AcDbLine
 10
758.4026126198832
 20
863.2236781916118
 30
0.0
 11
758.0249612489378
 21
862.8450966427818
 31
0.0
  0
LINE
  5
8721
330
1F
100
AcDbEntity
  8
SPOJOVACÍ
  6
Continuous
100
AcDbLine
 10
758.4026126198832
 20
863.2236781916118
 30
0.0
 11
758.0249612489378
 21
863.44133932766
 31
0.0
  0
LINE
  5
8722
330
1F
100
AcDbEntity
  8
SPOJOVACÍ
  6
Continuous
100
AcDbLine
 10
753.9805568893452
 20
864.2050136560547
 30
0.0
 11
758.0249612489378
 21
862.8450966427818
 31
0.0
  0
LINE
  5
8723
330
1F
100
AcDbEntity
  8
SPOJOVACÍ
  6
Continuous
100
AcDbLine
 10
753.9805568893452
 20
864.8012563412022
 30
0.0
 11
758.0249612489378
 21
863.44133932766
 31
0.0
  0
LINE
  5
8724
330
1F
100
AcDbEntity
  8
SPOJOVACÍ
  6
Continuous
100
AcDbLine
 10
753.6029055140343
 20
861.3028651731339
 30
0.0
 11
758.4026126198832
 21
860.1029383966716
 31
0.0
  0
LINE
  5
8725
330
1F
100
AcDbEntity
  8
SPOJOVACÍ
  6
Continuous
100
AcDbLine
 10
753.6029055140343
 20
861.3028651731339
 30
0.0
 11
753.9805568893452
 21
861.0852040370856
 31
0.0
  0
LINE
  5
8726
330
1F
100
AcDbEntity
  8
SPOJOVACÍ
  6
Continuous
100
AcDbLine
 10
753.6029055140343
 20
861.3028651731339
 30
0.0
 11
753.9805568893452
 21
861.6814467222402
 31
0.0
  0
LINE
  5
8727
330
1F
100
AcDbEntity
  8
SPOJOVACÍ
  6
Continuous
100
AcDbLine
 10
758.4026126198832
 20
860.1029383966716
 30
0.0
 11
758.0249612489378
 21
859.7252870235434
 31
0.0
  0
LINE
  5
8728
330
1F
100
AcDbEntity
  8
SPOJOVACÍ
  6
Continuous
100
AcDbLine
 10
758.4026126198832
 20
860.1029383966716
 30
0.0
 11
758.0249612489378
 21
860.3215297086981
 31
0.0
  0
LINE
  5
8729
330
1F
100
AcDbEntity
  8
SPOJOVACÍ
  6
Continuous
100
AcDbLine
 10
753.9805568893452
 20
861.0852040370856
 30
0.0
 11
758.0249612489378
 21
859.7252870235434
 31
0.0
  0
LINE
  5
872A
330
1F
100
AcDbEntity
  8
SPOJOVACÍ
  6
Continuous
100
AcDbLine
 10
753.9805568893452
 20
861.6814467222402
 30
0.0
 11
758.0249612489378
 21
860.3215297086981
 31
0.0
  0
LINE
  5
872B
330
1F
100
AcDbEntity
  8
SPOJOVACÍ
  6
Continuous
100
AcDbLine
 10
758.1923928905407
 20
880.9212028822413
 30
0.0
 11
759.4020670350174
 21
882.4456271919089
 31
0.0
  0
LINE
  5
872C
330
1F
100
AcDbEntity
  8
SPOJOVACÍ
  6
Continuous
100
AcDbLine
 10
757.579407041393
 20
879.507335672538
 30
0.0
 11
758.1923928905407
 21
880.9212028822413
 31
0.0
  0
LINE
  5
872D
330
1F
100
AcDbEntity
  8
SPOJOVACÍ
  6
Continuous
100
AcDbLine
 10
757.3524441505096
 20
877.9837077191087
 30
0.0
 11
757.579407041393
 21
879.507335672538
 31
0.0
  0
LINE
  5
872E
330
1F
100
AcDbEntity
  8
SPOJOVACÍ
  6
Continuous
100
AcDbLine
 10
750.9026051783248
 20
884.5833049901967
 30
0.0
 11
750.9026051783248
 21
883.3833782134652
 31
0.0
  0
LINE
  5
872F
330
1F
100
AcDbEntity
  8
SPOJOVACÍ
  6
Continuous
100
AcDbLine
 10
754.5870315058518
 20
878.7706364422311
 30
0.0
 11
754.6530739877734
 21
877.9837077191087
 31
0.0
  0
LINE
  5
8730
330
1F
100
AcDbEntity
  8
SPOJOVACÍ
  6
Continuous
100
AcDbLine
 10
754.1591506415525
 20
880.2514763092814
 30
0.0
 11
754.5870315058518
 21
878.7706364422311
 31
0.0
  0
LINE
  5
8731
330
1F
100
AcDbEntity
  8
SPOJOVACÍ
  6
Continuous
100
AcDbLine
 10
753.3629201622343
 20
881.5704655875789
 30
0.0
 11
754.1591506415525
 21
880.2514763092814
 31
0.0
  0
LINE
  5
8732
330
1F
100
AcDbEntity
  8
SPOJOVACÍ
  6
Continuous
100
AcDbLine
 10
752.2522902618757
 20
882.6392375769911
 30
0.0
 11
753.3629201622343
 21
881.5704655875789
 31
0.0
  0
LINE
  5
8733
330
1F
100
AcDbEntity
  8
SPOJOVACÍ
  6
Continuous
100
AcDbLine
 10
750.9026051783248
 20
883.3833782134652
 30
0.0
 11
752.2522902618757
 21
882.6392375769911
 31
0.0
  0
LINE
  5
8734
330
1F
100
AcDbEntity
  8
SPOJOVACÍ
  6
Continuous
100
AcDbLine
 10
757.3524441505096
 20
877.9837077191087
 30
0.0
 11
757.3524441505096
 21
873.04075354018
 31
0.0
  0
LINE
  5
8735
330
1F
100
AcDbEntity
  8
SPOJOVACÍ
  6
Continuous
100
AcDbLine
 10
754.6530739877734
 20
877.9837077191087
 30
0.0
 11
754.6530739877734
 21
873.9458145894287
 31
0.0
  0
LINE
  5
8736
330
1F
100
AcDbEntity
  8
SPOJOVACÍ
  6
Continuous
100
AcDbLine
 10
754.6530739877734
 20
873.3505020802523
 30
0.0
 11
754.6530739877734
 21
870.8315860252232
 31
0.0
  0
LINE
  5
8737
330
1F
100
AcDbEntity
  8
SPOJOVACÍ
  6
Continuous
100
AcDbLine
 10
754.6530739877734
 20
870.2279019339085
 30
0.0
 11
754.6530739877734
 21
867.7071255271995
 31
0.0
  0
LINE
  5
8738
330
1F
100
AcDbEntity
  8
SPOJOVACÍ
  6
Continuous
100
AcDbLine
 10
757.3524441505096
 20
872.4370694488653
 30
0.0
 11
757.3524441505096
 21
869.9181533938363
 31
0.0
  0
LINE
  5
8739
330
1F
100
AcDbEntity
  8
SPOJOVACÍ
  6
Continuous
100
AcDbLine
 10
757.3524441505096
 20
869.3219107086816
 30
0.0
 11
757.3524441505096
 21
866.7936928958125
 31
0.0
  0
LINE
  5
873A
330
1F
100
AcDbEntity
  8
SPOJOVACÍ
  6
Continuous
100
AcDbLine
 10
753.6029055140343
 20
873.7830338252434
 30
0.0
 11
758.4026126198832
 21
872.5831070487812
 31
0.0
  0
LINE
  5
873B
330
1F
100
AcDbEntity
  8
SPOJOVACÍ
  6
Continuous
100
AcDbLine
 10
753.6029055140343
 20
873.7830338252434
 30
0.0
 11
753.9805568893452
 21
873.5653726891952
 31
0.0
  0
LINE
  5
873C
330
1F
100
AcDbEntity
  8
SPOJOVACÍ
  6
Continuous
100
AcDbLine
 10
753.6029055140343
 20
873.7830338252434
 30
0.0
 11
753.9805568893452
 21
874.1616153740734
 31
0.0
  0
LINE
  5
873D
330
1F
100
AcDbEntity
  8
SPOJOVACÍ
  6
Continuous
100
AcDbLine
 10
758.4026126198832
 20
872.5831070487812
 30
0.0
 11
758.0249612489378
 21
872.205455675653
 31
0.0
  0
LINE
  5
873E
330
1F
100
AcDbEntity
  8
SPOJOVACÍ
  6
Continuous
100
AcDbLine
 10
758.4026126198832
 20
872.5831070487812
 30
0.0
 11
758.0249612489378
 21
872.8016983608076
 31
0.0
  0
LINE
  5
873F
330
1F
100
AcDbEntity
  8
SPOJOVACÍ
  6
Continuous
100
AcDbLine
 10
753.9805568893452
 20
873.5653726891952
 30
0.0
 11
758.0249612489378
 21
872.205455675653
 31
0.0
  0
LINE
  5
8740
330
1F
100
AcDbEntity
  8
SPOJOVACÍ
  6
Continuous
100
AcDbLine
 10
753.9805568893452
 20
874.1616153740734
 30
0.0
 11
758.0249612489378
 21
872.8016983608076
 31
0.0
  0
LINE
  5
8741
330
1F
100
AcDbEntity
  8
SPOJOVACÍ
  6
Continuous
100
AcDbLine
 10
753.6029055140343
 20
870.6632242062815
 30
0.0
 11
758.4026126198832
 21
869.4632974295428
 31
0.0
  0
LINE
  5
8742
330
1F
100
AcDbEntity
  8
SPOJOVACÍ
  6
Continuous
100
AcDbLine
 10
753.6029055140343
 20
870.6632242062815
 30
0.0
 11
753.9805568893452
 21
870.444632894255
 31
0.0
  0
LINE
  5
8743
330
1F
100
AcDbEntity
  8
SPOJOVACÍ
  6
Continuous
100
AcDbLine
 10
753.6029055140343
 20
870.6632242062815
 30
0.0
 11
753.9805568893452
 21
871.0408755794096
 31
0.0
  0
LINE
  5
8744
330
1F
100
AcDbEntity
  8
SPOJOVACÍ
  6
Continuous
100
AcDbLine
 10
758.4026126198832
 20
869.4632974295428
 30
0.0
 11
758.0249612489378
 21
869.085646056691
 31
0.0
  0
LINE
  5
8745
330
1F
100
AcDbEntity
  8
SPOJOVACÍ
  6
Continuous
100
AcDbLine
 10
758.4026126198832
 20
869.4632974295428
 30
0.0
 11
758.0249612489378
 21
869.6818887415693
 31
0.0
  0
LINE
  5
8746
330
1F
100
AcDbEntity
  8
SPOJOVACÍ
  6
Continuous
100
AcDbLine
 10
753.9805568893452
 20
870.444632894255
 30
0.0
 11
758.0249612489378
 21
869.085646056691
 31
0.0
  0
LINE
  5
8747
330
1F
100
AcDbEntity
  8
SPOJOVACÍ
  6
Continuous
100
AcDbLine
 10
753.9805568893452
 20
871.0408755794096
 30
0.0
 11
758.0249612489378
 21
869.6818887415693
 31
0.0
  0
LINE
  5
8748
330
1F
100
AcDbEntity
  8
SPOJOVACÍ
  6
Continuous
100
AcDbLine
 10
753.6029055140343
 20
867.5434145870431
 30
0.0
 11
758.4026126198832
 21
866.3434878105809
 31
0.0
  0
LINE
  5
8749
330
1F
100
AcDbEntity
  8
SPOJOVACÍ
  6
Continuous
100
AcDbLine
 10
753.6029055140343
 20
867.5434145870431
 30
0.0
 11
753.9805568893452
 21
867.3248232750166
 31
0.0
  0
LINE
  5
874A
330
1F
100
AcDbEntity
  8
SPOJOVACÍ
  6
Continuous
100
AcDbLine
 10
753.6029055140343
 20
867.5434145870431
 30
0.0
 11
753.9805568893452
 21
867.9210659601713
 31
0.0
  0
LINE
  5
874B
330
1F
100
AcDbEntity
  8
SPOJOVACÍ
  6
Continuous
100
AcDbLine
 10
758.4026126198832
 20
866.3434878105809
 30
0.0
 11
758.0249612489378
 21
865.9649062617509
 31
0.0
  0
LINE
  5
874C
330
1F
100
AcDbEntity
  8
SPOJOVACÍ
  6
Continuous
100
AcDbLine
 10
758.4026126198832
 20
866.3434878105809
 30
0.0
 11
758.0249612489378
 21
866.5611489468984
 31
0.0
  0
LINE
  5
874D
330
1F
100
AcDbEntity
  8
SPOJOVACÍ
  6
Continuous
100
AcDbLine
 10
753.9805568893452
 20
867.3248232750166
 30
0.0
 11
758.0249612489378
 21
865.9649062617509
 31
0.0
  0
LINE
  5
874E
330
1F
100
AcDbEntity
  8
SPOJOVACÍ
  6
Continuous
100
AcDbLine
 10
753.9805568893452
 20
867.9210659601713
 30
0.0
 11
758.0249612489378
 21
866.5611489468984
 31
0.0
  0
LINE
  5
874F
330
1F
100
AcDbEntity
  8
SPOJOVACÍ
  6
Continuous
100
AcDbLine
 10
750.9026051783248
 20
883.3833782134652
 30
0.0
 11
761.1029129555927
 21
883.3833782134652
 31
0.0
  0
LINE
  5
8750
330
1F
100
AcDbEntity
  8
SPOJOVACÍ
  6
Continuous
100
AcDbLine
 10
761.1029129555927
 20
884.5833049901967
 30
0.0
 11
761.1029129555927
 21
883.3833782134652
 31
0.0
  0
LINE
  5
8751
330
1F
100
AcDbEntity
  8
SPOJOVACÍ
  6
Continuous
100
AcDbLine
 10
750.9026051783248
 20
884.5833049901967
 30
0.0
 11
761.1029129555927
 21
884.5833049901967
 31
0.0
  0
LINE
  5
8752
330
1F
100
AcDbEntity
  8
SPOJOVACÍ
  6
Continuous
100
AcDbLine
 10
761.1029129555927
 20
883.3833782134652
 30
0.0
 11
759.4020670350174
 21
882.4456271919089
 31
0.0
  0
LINE
  5
8753
330
1F
100
AcDbEntity
  8
SPOJOVACÍ
  6
Continuous
100
AcDbLine
 10
743.1029129555927
 20
865.3833782134579
 30
0.0
 11
741.4020670350173
 21
864.4456271919016
 31
0.0
  0
LINE
  5
8754
330
1F
100
AcDbEntity
  8
SPOJOVACÍ
  6
Continuous
100
AcDbLine
 10
732.9026051783248
 20
866.5833049901893
 30
0.0
 11
743.1029129555927
 21
866.5833049901893
 31
0.0
  0
LINE
  5
8755
330
1F
100
AcDbEntity
  8
SPOJOVACÍ
  6
Continuous
100
AcDbLine
 10
743.1029129555927
 20
866.5833049901893
 30
0.0
 11
743.1029129555927
 21
865.3833782134579
 31
0.0
  0
LINE
  5
8756
330
1F
100
AcDbEntity
  8
SPOJOVACÍ
  6
Continuous
100
AcDbLine
 10
732.9026051783248
 20
865.3833782134579
 30
0.0
 11
743.1029129555927
 21
865.3833782134579
 31
0.0
  0
LINE
  5
8757
330
1F
100
AcDbEntity
  8
SPOJOVACÍ
  6
Continuous
100
AcDbLine
 10
735.9805568893452
 20
849.921065960164
 30
0.0
 11
740.0249612489378
 21
848.561148946891
 31
0.0
  0
LINE
  5
8758
330
1F
100
AcDbEntity
  8
SPOJOVACÍ
  6
Continuous
100
AcDbLine
 10
735.9805568893452
 20
849.3248232750092
 30
0.0
 11
740.0249612489378
 21
847.9649062617436
 31
0.0
  0
LINE
  5
8759
330
1F
100
AcDbEntity
  8
SPOJOVACÍ
  6
Continuous
100
AcDbLine
 10
740.4026126198832
 20
848.3434878105736
 30
0.0
 11
740.0249612489378
 21
848.561148946891
 31
0.0
  0
LINE
  5
875A
330
1F
100
AcDbEntity
  8
SPOJOVACÍ
  6
Continuous
100
AcDbLine
 10
740.4026126198832
 20
848.3434878105736
 30
0.0
 11
740.0249612489378
 21
847.9649062617436
 31
0.0
  0
LINE
  5
875B
330
1F
100
AcDbEntity
  8
SPOJOVACÍ
  6
Continuous
100
AcDbLine
 10
735.6029055140343
 20
849.5434145870358
 30
0.0
 11
735.9805568893452
 21
849.921065960164
 31
0.0
  0
LINE
  5
875C
330
1F
100
AcDbEntity
  8
SPOJOVACÍ
  6
Continuous
100
AcDbLine
 10
735.6029055140343
 20
849.5434145870358
 30
0.0
 11
735.9805568893452
 21
849.3248232750092
 31
0.0
  0
LINE
  5
875D
330
1F
100
AcDbEntity
  8
SPOJOVACÍ
  6
Continuous
100
AcDbLine
 10
735.6029055140343
 20
849.5434145870358
 30
0.0
 11
740.4026126198832
 21
848.3434878105736
 31
0.0
  0
LINE
  5
875E
330
1F
100
AcDbEntity
  8
SPOJOVACÍ
  6
Continuous
100
AcDbLine
 10
735.9805568893452
 20
853.0408755794024
 30
0.0
 11
740.0249612489378
 21
851.681888741562
 31
0.0
  0
LINE
  5
875F
330
1F
100
AcDbEntity
  8
SPOJOVACÍ
  6
Continuous
100
AcDbLine
 10
735.9805568893452
 20
852.4446328942476
 30
0.0
 11
740.0249612489378
 21
851.0856460566838
 31
0.0
  0
LINE
  5
8760
330
1F
100
AcDbEntity
  8
SPOJOVACÍ
  6
Continuous
100
AcDbLine
 10
740.4026126198832
 20
851.4632974295354
 30
0.0
 11
740.0249612489378
 21
851.681888741562
 31
0.0
  0
LINE
  5
8761
330
1F
100
AcDbEntity
  8
SPOJOVACÍ
  6
Continuous
100
AcDbLine
 10
740.4026126198832
 20
851.4632974295354
 30
0.0
 11
740.0249612489378
 21
851.0856460566838
 31
0.0
  0
LINE
  5
8762
330
1F
100
AcDbEntity
  8
SPOJOVACÍ
  6
Continuous
100
AcDbLine
 10
735.6029055140343
 20
852.6632242062742
 30
0.0
 11
735.9805568893452
 21
853.0408755794024
 31
0.0
  0
LINE
  5
8763
330
1F
100
AcDbEntity
  8
SPOJOVACÍ
  6
Continuous
100
AcDbLine
 10
735.6029055140343
 20
852.6632242062742
 30
0.0
 11
735.9805568893452
 21
852.4446328942476
 31
0.0
  0
LINE
  5
8764
330
1F
100
AcDbEntity
  8
SPOJOVACÍ
  6
Continuous
100
AcDbLine
 10
735.6029055140343
 20
852.6632242062742
 30
0.0
 11
740.4026126198832
 21
851.4632974295354
 31
0.0
  0
LINE
  5
8765
330
1F
100
AcDbEntity
  8
SPOJOVACÍ
  6
Continuous
100
AcDbLine
 10
735.9805568893452
 20
856.161615374066
 30
0.0
 11
740.0249612489378
 21
854.8016983608004
 31
0.0
  0
LINE
  5
8766
330
1F
100
AcDbEntity
  8
SPOJOVACÍ
  6
Continuous
100
AcDbLine
 10
735.9805568893452
 20
855.5653726891877
 30
0.0
 11
740.0249612489378
 21
854.2054556756456
 31
0.0
  0
LINE
  5
8767
330
1F
100
AcDbEntity
  8
SPOJOVACÍ
  6
Continuous
100
AcDbLine
 10
740.4026126198832
 20
854.5831070487738
 30
0.0
 11
740.0249612489378
 21
854.8016983608004
 31
0.0
  0
LINE
  5
8768
330
1F
100
AcDbEntity
  8
SPOJOVACÍ
  6
Continuous
100
AcDbLine
 10
740.4026126198832
 20
854.5831070487738
 30
0.0
 11
740.0249612489378
 21
854.2054556756456
 31
0.0
  0
LINE
  5
8769
330
1F
100
AcDbEntity
  8
SPOJOVACÍ
  6
Continuous
100
AcDbLine
 10
735.6029055140343
 20
855.783033825236
 30
0.0
 11
735.9805568893452
 21
856.161615374066
 31
0.0
  0
LINE
  5
876A
330
1F
100
AcDbEntity
  8
SPOJOVACÍ
  6
Continuous
100
AcDbLine
 10
735.6029055140343
 20
855.783033825236
 30
0.0
 11
735.9805568893452
 21
855.5653726891877
 31
0.0
  0
LINE
  5
876B
330
1F
100
AcDbEntity
  8
SPOJOVACÍ
  6
Continuous
100
AcDbLine
 10
735.6029055140343
 20
855.783033825236
 30
0.0
 11
740.4026126198832
 21
854.5831070487738
 31
0.0
  0
LINE
  5
876C
330
1F
100
AcDbEntity
  8
SPOJOVACÍ
  6
Continuous
100
AcDbLine
 10
739.3524441505096
 20
851.3219107086742
 30
0.0
 11
739.3524441505096
 21
848.7936928958051
 31
0.0
  0
LINE
  5
876D
330
1F
100
AcDbEntity
  8
SPOJOVACÍ
  6
Continuous
100
AcDbLine
 10
739.3524441505096
 20
854.4370694488579
 30
0.0
 11
739.3524441505096
 21
851.918153393829
 31
0.0
  0
LINE
  5
876E
330
1F
100
AcDbEntity
  8
SPOJOVACÍ
  6
Continuous
100
AcDbLine
 10
736.6530739877735
 20
852.2279019339011
 30
0.0
 11
736.6530739877735
 21
849.707125527192
 31
0.0
  0
LINE
  5
876F
330
1F
100
AcDbEntity
  8
SPOJOVACÍ
  6
Continuous
100
AcDbLine
 10
736.6530739877735
 20
855.3505020802449
 30
0.0
 11
736.6530739877735
 21
852.831586025216
 31
0.0
  0
LINE
  5
8770
330
1F
100
AcDbEntity
  8
SPOJOVACÍ
  6
Continuous
100
AcDbLine
 10
736.6530739877735
 20
859.9837077191013
 30
0.0
 11
736.6530739877735
 21
855.9458145894213
 31
0.0
  0
LINE
  5
8771
330
1F
100
AcDbEntity
  8
SPOJOVACÍ
  6
Continuous
100
AcDbLine
 10
739.3524441505096
 20
859.9837077191013
 30
0.0
 11
739.3524441505096
 21
855.0407535401728
 31
0.0
  0
LINE
  5
8772
330
1F
100
AcDbEntity
  8
SPOJOVACÍ
  6
Continuous
100
AcDbLine
 10
732.9026051783248
 20
865.3833782134579
 30
0.0
 11
734.2522902618757
 21
864.6392375769837
 31
0.0
  0
LINE
  5
8773
330
1F
100
AcDbEntity
  8
SPOJOVACÍ
  6
Continuous
100
AcDbLine
 10
734.2522902618757
 20
864.6392375769837
 30
0.0
 11
735.3629201622343
 21
863.5704655875715
 31
0.0
  0
LINE
  5
8774
330
1F
100
AcDbEntity
  8
SPOJOVACÍ
  6
Continuous
100
AcDbLine
 10
735.3629201622343
 20
863.5704655875715
 30
0.0
 11
736.1591506415525
 21
862.2514763092739
 31
0.0
  0
LINE
  5
8775
330
1F
100
AcDbEntity
  8
SPOJOVACÍ
  6
Continuous
100
AcDbLine
 10
736.1591506415525
 20
862.2514763092739
 30
0.0
 11
736.5870315058518
 21
860.7706364422238
 31
0.0
  0
LINE
  5
8776
330
1F
100
AcDbEntity
  8
SPOJOVACÍ
  6
Continuous
100
AcDbLine
 10
736.5870315058518
 20
860.7706364422238
 30
0.0
 11
736.6530739877735
 21
859.9837077191013
 31
0.0
  0
LINE
  5
8777
330
1F
100
AcDbEntity
  8
SPOJOVACÍ
  6
Continuous
100
AcDbLine
 10
732.9026051783248
 20
866.5833049901893
 30
0.0
 11
732.9026051783248
 21
865.3833782134579
 31
0.0
  0
LINE
  5
8778
330
1F
100
AcDbEntity
  8
SPOJOVACÍ
  6
Continuous
100
AcDbLine
 10
739.3524441505096
 20
859.9837077191013
 30
0.0
 11
739.5794070413931
 21
861.5073356725305
 31
0.0
  0
LINE
  5
8779
330
1F
100
AcDbEntity
  8
SPOJOVACÍ
  6
Continuous
100
AcDbLine
 10
739.5794070413931
 20
861.5073356725305
 30
0.0
 11
740.1923928905407
 21
862.9212028822339
 31
0.0
  0
LINE
  5
877A
330
1F
100
AcDbEntity
  8
SPOJOVACÍ
  6
Continuous
100
AcDbLine
 10
740.1923928905407
 20
862.9212028822339
 30
0.0
 11
741.4020670350173
 21
864.4456271919016
 31
0.0
  0
LINE
  5
877B
330
1F
100
AcDbEntity
  8
SPOJOVACÍ
  6
Continuous
100
AcDbLine
 10
735.9805568893452
 20
843.681446722233
 30
0.0
 11
740.0249612489378
 21
842.3215297086908
 31
0.0
  0
LINE
  5
877C
330
1F
100
AcDbEntity
  8
SPOJOVACÍ
  6
Continuous
100
AcDbLine
 10
735.9805568893452
 20
843.0852040370782
 30
0.0
 11
740.0249612489378
 21
841.725287023536
 31
0.0
  0
LINE
  5
877D
330
1F
100
AcDbEntity
  8
SPOJOVACÍ
  6
Continuous
100
AcDbLine
 10
740.4026126198832
 20
842.1029383966642
 30
0.0
 11
740.0249612489378
 21
842.3215297086908
 31
0.0
  0
LINE
  5
877E
330
1F
100
AcDbEntity
  8
SPOJOVACÍ
  6
Continuous
100
AcDbLine
 10
740.4026126198832
 20
842.1029383966642
 30
0.0
 11
740.0249612489378
 21
841.725287023536
 31
0.0
  0
LINE
  5
877F
330
1F
100
AcDbEntity
  8
SPOJOVACÍ
  6
Continuous
100
AcDbLine
 10
735.6029055140343
 20
843.3028651731264
 30
0.0
 11
735.9805568893452
 21
843.681446722233
 31
0.0
  0
LINE
  5
8780
330
1F
100
AcDbEntity
  8
SPOJOVACÍ
  6
Continuous
100
AcDbLine
 10
735.6029055140343
 20
843.3028651731264
 30
0.0
 11
735.9805568893452
 21
843.0852040370782
 31
0.0
  0
LINE
  5
8781
330
1F
100
AcDbEntity
  8
SPOJOVACÍ
  6
Continuous
100
AcDbLine
 10
735.6029055140343
 20
843.3028651731264
 30
0.0
 11
740.4026126198832
 21
842.1029383966642
 31
0.0
  0
LINE
  5
8782
330
1F
100
AcDbEntity
  8
SPOJOVACÍ
  6
Continuous
100
AcDbLine
 10
735.9805568893452
 20
846.8012563411948
 30
0.0
 11
740.0249612489378
 21
845.4413393276526
 31
0.0
  0
LINE
  5
8783
330
1F
100
AcDbEntity
  8
SPOJOVACÍ
  6
Continuous
100
AcDbLine
 10
735.9805568893452
 20
846.2050136560474
 30
0.0
 11
740.0249612489378
 21
844.8450966427744
 31
0.0
  0
LINE
  5
8784
330
1F
100
AcDbEntity
  8
SPOJOVACÍ
  6
Continuous
100
AcDbLine
 10
740.4026126198832
 20
845.2236781916043
 30
0.0
 11
740.0249612489378
 21
845.4413393276526
 31
0.0
  0
LINE
  5
8785
330
1F
100
AcDbEntity
  8
SPOJOVACÍ
  6
Continuous
100
AcDbLine
 10
740.4026126198832
 20
845.2236781916043
 30
0.0
 11
740.0249612489378
 21
844.8450966427744
 31
0.0
  0
LINE
  5
8786
330
1F
100
AcDbEntity
  8
SPOJOVACÍ
  6
Continuous
100
AcDbLine
 10
735.6029055140343
 20
846.4236049680666
 30
0.0
 11
735.9805568893452
 21
846.8012563411948
 31
0.0
  0
LINE
  5
8787
330
1F
100
AcDbEntity
  8
SPOJOVACÍ
  6
Continuous
100
AcDbLine
 10
735.6029055140343
 20
846.4236049680666
 30
0.0
 11
735.9805568893452
 21
846.2050136560474
 31
0.0
  0
LINE
  5
8788
330
1F
100
AcDbEntity
  8
SPOJOVACÍ
  6
Continuous
100
AcDbLine
 10
735.6029055140343
 20
846.4236049680666
 30
0.0
 11
740.4026126198832
 21
845.2236781916043
 31
0.0
  0
LINE
  5
8789
330
1F
100
AcDbEntity
  8
SPOJOVACÍ
  6
Continuous
100
AcDbLine
 10
736.9860769250326
 20
834.1973743081952
 30
0.0
 11
739.1403640664893
 21
833.8866955924213
 31
0.0
  0
LINE
  5
878A
330
1F
100
AcDbEntity
  8
SPOJOVACÍ
  6
Continuous
100
AcDbLine
 10
737.363728295978
 20
834.5750256813234
 30
0.0
 11
738.762712695544
 21
834.1043567287387
 31
0.0
  0
LINE
  5
878B
330
1F
100
AcDbEntity
  8
SPOJOVACÍ
  6
Continuous
100
AcDbLine
 10
737.363728295978
 20
833.978782996176
 30
0.0
 11
738.762712695544
 21
833.5081140435914
 31
0.0
  0
LINE
  5
878C
330
1F
100
AcDbEntity
  8
SPOJOVACÍ
  6
Continuous
100
AcDbLine
 10
739.1403640664893
 20
833.8866955924213
 30
0.0
 11
738.762712695544
 21
834.1043567287387
 31
0.0
  0
LINE
  5
878D
330
1F
100
AcDbEntity
  8
SPOJOVACÍ
  6
Continuous
100
AcDbLine
 10
739.1403640664893
 20
833.8866955924213
 30
0.0
 11
738.762712695544
 21
833.5081140435914
 31
0.0
  0
LINE
  5
878E
330
1F
100
AcDbEntity
  8
SPOJOVACÍ
  6
Continuous
100
AcDbLine
 10
736.9860769250326
 20
834.1973743081952
 30
0.0
 11
737.363728295978
 21
834.5750256813234
 31
0.0
  0
LINE
  5
878F
330
1F
100
AcDbEntity
  8
SPOJOVACÍ
  6
Continuous
100
AcDbLine
 10
736.9860769250326
 20
834.1973743081952
 30
0.0
 11
737.363728295978
 21
833.978782996176
 31
0.0
  0
LINE
  5
8790
330
1F
100
AcDbEntity
  8
SPOJOVACÍ
  6
Continuous
100
AcDbLine
 10
736.4214602145612
 20
837.2111438865148
 30
0.0
 11
739.5375491309923
 21
836.5776941697449
 31
0.0
  0
LINE
  5
8791
330
1F
100
AcDbEntity
  8
SPOJOVACÍ
  6
Continuous
100
AcDbLine
 10
736.7991115898721
 20
837.5897254356214
 30
0.0
 11
739.159897760047
 21
836.7953553057931
 31
0.0
  0
LINE
  5
8792
330
1F
100
AcDbEntity
  8
SPOJOVACÍ
  6
Continuous
100
AcDbLine
 10
736.7991115898721
 20
836.9934827504666
 30
0.0
 11
739.159897760047
 21
836.1991126209149
 31
0.0
  0
LINE
  5
8793
330
1F
100
AcDbEntity
  8
SPOJOVACÍ
  6
Continuous
100
AcDbLine
 10
739.5375491309923
 20
836.5776941697449
 30
0.0
 11
739.159897760047
 21
836.7953553057931
 31
0.0
  0
LINE
  5
8794
330
1F
100
AcDbEntity
  8
SPOJOVACÍ
  6
Continuous
100
AcDbLine
 10
739.5375491309923
 20
836.5776941697449
 30
0.0
 11
739.159897760047
 21
836.1991126209149
 31
0.0
  0
LINE
  5
8795
330
1F
100
AcDbEntity
  8
SPOJOVACÍ
  6
Continuous
100
AcDbLine
 10
736.4214602145612
 20
837.2111438865148
 30
0.0
 11
736.7991115898721
 21
837.5897254356214
 31
0.0
  0
LINE
  5
8796
330
1F
100
AcDbEntity
  8
SPOJOVACÍ
  6
Continuous
100
AcDbLine
 10
736.4214602145612
 20
837.2111438865148
 30
0.0
 11
736.7991115898721
 21
836.9934827504666
 31
0.0
  0
LINE
  5
8797
330
1F
100
AcDbEntity
  8
SPOJOVACÍ
  6
Continuous
100
AcDbLine
 10
735.8568435084553
 20
840.2258436408128
 30
0.0
 11
739.9821731611982
 21
839.2528797585082
 31
0.0
  0
LINE
  5
8798
330
1F
100
AcDbEntity
  8
SPOJOVACÍ
  6
Continuous
100
AcDbLine
 10
736.2354250567396
 20
840.603495013941
 30
0.0
 11
739.6045217902528
 21
839.4705408945565
 31
0.0
  0
LINE
  5
8799
330
1F
100
AcDbEntity
  8
SPOJOVACÍ
  6
Continuous
100
AcDbLine
 10
736.2354250567396
 20
840.0072523287862
 30
0.0
 11
739.6045217902528
 21
838.8742982094017
 31
0.0
  0
LINE
  5
879A
330
1F
100
AcDbEntity
  8
SPOJOVACÍ
  6
Continuous
100
AcDbLine
 10
739.9821731611982
 20
839.2528797585082
 30
0.0
 11
739.6045217902528
 21
839.4705408945565
 31
0.0
  0
LINE
  5
879B
330
1F
100
AcDbEntity
  8
SPOJOVACÍ
  6
Continuous
100
AcDbLine
 10
739.9821731611982
 20
839.2528797585082
 30
0.0
 11
739.6045217902528
 21
838.8742982094017
 31
0.0
  0
LINE
  5
879C
330
1F
100
AcDbEntity
  8
SPOJOVACÍ
  6
Continuous
100
AcDbLine
 10
735.8568435084553
 20
840.2258436408128
 30
0.0
 11
736.2354250567396
 21
840.603495013941
 31
0.0
  0
LINE
  5
879D
330
1F
100
AcDbEntity
  8
SPOJOVACÍ
  6
Continuous
100
AcDbLine
 10
735.8568435084553
 20
840.2258436408128
 30
0.0
 11
736.2354250567396
 21
840.0072523287862
 31
0.0
  0
LINE
  5
879E
330
1F
100
AcDbEntity
  8
SPOJOVACÍ
  6
Continuous
100
AcDbLine
 10
739.1068777390419
 20
839.6472742959058
 30
0.0
 11
739.3524441505096
 21
841.6183168071921
 31
0.0
  0
LINE
  5
879F
330
1F
100
AcDbEntity
  8
SPOJOVACÍ
  6
Continuous
100
AcDbLine
 10
738.7682937464806
 20
836.9404627300072
 30
0.0
 11
739.0352542018181
 21
839.0770765328607
 31
0.0
  0
LINE
  5
87A0
330
1F
100
AcDbEntity
  8
SPOJOVACÍ
  6
Continuous
100
AcDbLine
 10
738.4287795853115
 20
834.223419230574
 30
0.0
 11
738.6966702136223
 21
836.3684046155585
 31
0.0
  0
LINE
  5
87A1
330
1F
100
AcDbEntity
  8
SPOJOVACÍ
  6
Continuous
100
AcDbLine
 10
737.6167361130601
 20
833.9071594600437
 30
0.0
 11
738.0027590669588
 21
830.8180456422388
 31
0.0
  0
LINE
  5
87A2
330
1F
100
AcDbEntity
  8
SPOJOVACÍ
  6
Continuous
100
AcDbLine
 10
737.2493166753802
 20
836.8483753262525
 30
0.0
 11
737.5395315205341
 21
834.5275867158971
 31
0.0
  0
LINE
  5
87A3
330
1F
100
AcDbEntity
  8
SPOJOVACÍ
  6
Continuous
100
AcDbLine
 10
736.8800368830225
 20
839.8007533019818
 30
0.0
 11
737.170251732542
 21
837.4790345159171
 31
0.0
  0
LINE
  5
87A4
330
1F
100
AcDbEntity
  8
SPOJOVACÍ
  6
Continuous
100
AcDbLine
 10
738.0027590669588
 20
830.8180456422388
 30
0.0
 11
738.3571560480877
 21
833.6541516435072
 31
0.0
  0
LINE
  5
87A5
330
1F
100
AcDbEntity
  8
SPOJOVACÍ
  6
Continuous
100
AcDbLine
 10
736.6530739877735
 20
841.6183168071921
 30
0.0
 11
736.8028322904965
 21
840.4211805578352
 31
0.0
  0
LINE
  5
87A6
330
1F
100
AcDbEntity
  8
SPOJOVACÍ
  6
Continuous
100
AcDbLine
 10
739.3524441505096
 20
841.9550404450756
 30
0.0
 11
739.3524441505096
 21
841.6183168071921
 31
0.0
  0
LINE
  5
87A7
330
1F
100
AcDbEntity
  8
SPOJOVACÍ
  6
Continuous
100
AcDbLine
 10
739.3524441505096
 20
845.0776405916885
 30
0.0
 11
739.3524441505096
 21
842.5587245366596
 31
0.0
  0
LINE
  5
87A8
330
1F
100
AcDbEntity
  8
SPOJOVACÍ
  6
Continuous
100
AcDbLine
 10
736.6530739877735
 20
842.8656825490806
 30
0.0
 11
736.6530739877735
 21
841.6183168071921
 31
0.0
  0
LINE
  5
87A9
330
1F
100
AcDbEntity
  8
SPOJOVACÍ
  6
Continuous
100
AcDbLine
 10
736.6530739877735
 20
845.9799111135625
 30
0.0
 11
736.6530739877735
 21
843.4619252342354
 31
0.0
  0
LINE
  5
87AA
330
1F
100
AcDbEntity
  8
SPOJOVACÍ
  6
Continuous
100
AcDbLine
 10
739.3524441505096
 20
848.1993105623304
 30
0.0
 11
739.3524441505096
 21
845.6785341556214
 31
0.0
  0
LINE
  5
87AB
330
1F
100
AcDbEntity
  8
SPOJOVACÍ
  6
Continuous
100
AcDbLine
 10
736.6530739877735
 20
849.1127431937174
 30
0.0
 11
736.6530739877735
 21
846.5845253808483
 31
0.0
  0
LINE
  5
87AC
330
1F
100
AcDbEntity
  8
SPOJOVACÍ
  6
Continuous
100
AcDbLine
 10
761.1029129555927
 20
439.0474921734466
 30
0.0
 11
759.4020670350174
 21
439.985243195003
 31
0.0
  0
LINE
  5
87AD
330
1F
100
AcDbEntity
  8
SPOJOVACÍ
  6
Continuous
100
AcDbLine
 10
750.9026051783248
 20
437.8475653967152
 30
0.0
 11
761.1029129555927
 21
437.8475653967152
 31
0.0
  0
LINE
  5
87AE
330
1F
100
AcDbEntity
  8
SPOJOVACÍ
  6
Continuous
100
AcDbLine
 10
761.1029129555927
 20
437.8475653967152
 30
0.0
 11
761.1029129555927
 21
439.0474921734466
 31
0.0
  0
LINE
  5
87AF
330
1F
100
AcDbEntity
  8
SPOJOVACÍ
  6
Continuous
100
AcDbLine
 10
750.9026051783248
 20
439.0474921734466
 30
0.0
 11
761.1029129555927
 21
439.0474921734466
 31
0.0
  0
LINE
  5
87B0
330
1F
100
AcDbEntity
  8
SPOJOVACÍ
  6
Continuous
100
AcDbLine
 10
753.9805568893452
 20
454.5098044267406
 30
0.0
 11
758.0249612489378
 21
455.8697214400135
 31
0.0
  0
LINE
  5
87B1
330
1F
100
AcDbEntity
  8
SPOJOVACÍ
  6
Continuous
100
AcDbLine
 10
753.9805568893452
 20
455.1060471118953
 30
0.0
 11
758.0249612489378
 21
456.4659641251609
 31
0.0
  0
LINE
  5
87B2
330
1F
100
AcDbEntity
  8
SPOJOVACÍ
  6
Continuous
100
AcDbLine
 10
758.4026126198832
 20
456.087382576331
 30
0.0
 11
758.0249612489378
 21
455.8697214400135
 31
0.0
  0
LINE
  5
87B3
330
1F
100
AcDbEntity
  8
SPOJOVACÍ
  6
Continuous
100
AcDbLine
 10
758.4026126198832
 20
456.087382576331
 30
0.0
 11
758.0249612489378
 21
456.4659641251609
 31
0.0
  0
LINE
  5
87B4
330
1F
100
AcDbEntity
  8
SPOJOVACÍ
  6
Continuous
100
AcDbLine
 10
753.6029055140343
 20
454.8874557998687
 30
0.0
 11
753.9805568893452
 21
454.5098044267406
 31
0.0
  0
LINE
  5
87B5
330
1F
100
AcDbEntity
  8
SPOJOVACÍ
  6
Continuous
100
AcDbLine
 10
753.6029055140343
 20
454.8874557998687
 30
0.0
 11
753.9805568893452
 21
455.1060471118953
 31
0.0
  0
LINE
  5
87B6
330
1F
100
AcDbEntity
  8
SPOJOVACÍ
  6
Continuous
100
AcDbLine
 10
753.6029055140343
 20
454.8874557998687
 30
0.0
 11
758.4026126198832
 21
456.087382576331
 31
0.0
  0
LINE
  5
87B7
330
1F
100
AcDbEntity
  8
SPOJOVACÍ
  6
Continuous
100
AcDbLine
 10
753.9805568893452
 20
451.3899948075022
 30
0.0
 11
758.0249612489378
 21
452.7489816453425
 31
0.0
  0
LINE
  5
87B8
330
1F
100
AcDbEntity
  8
SPOJOVACÍ
  6
Continuous
100
AcDbLine
 10
753.9805568893452
 20
451.9862374926569
 30
0.0
 11
758.0249612489378
 21
453.3452243302208
 31
0.0
  0
LINE
  5
87B9
330
1F
100
AcDbEntity
  8
SPOJOVACÍ
  6
Continuous
100
AcDbLine
 10
758.4026126198832
 20
452.9675729573691
 30
0.0
 11
758.0249612489378
 21
452.7489816453425
 31
0.0
  0
LINE
  5
87BA
330
1F
100
AcDbEntity
  8
SPOJOVACÍ
  6
Continuous
100
AcDbLine
 10
758.4026126198832
 20
452.9675729573691
 30
0.0
 11
758.0249612489378
 21
453.3452243302208
 31
0.0
  0
LINE
  5
87BB
330
1F
100
AcDbEntity
  8
SPOJOVACÍ
  6
Continuous
100
AcDbLine
 10
753.6029055140343
 20
451.7676461806304
 30
0.0
 11
753.9805568893452
 21
451.3899948075022
 31
0.0
  0
LINE
  5
87BC
330
1F
100
AcDbEntity
  8
SPOJOVACÍ
  6
Continuous
100
AcDbLine
 10
753.6029055140343
 20
451.7676461806304
 30
0.0
 11
753.9805568893452
 21
451.9862374926569
 31
0.0
  0
LINE
  5
87BD
330
1F
100
AcDbEntity
  8
SPOJOVACÍ
  6
Continuous
100
AcDbLine
 10
753.6029055140343
 20
451.7676461806304
 30
0.0
 11
758.4026126198832
 21
452.9675729573691
 31
0.0
  0
LINE
  5
87BE
330
1F
100
AcDbEntity
  8
SPOJOVACÍ
  6
Continuous
100
AcDbLine
 10
753.9805568893452
 20
448.2692550128385
 30
0.0
 11
758.0249612489378
 21
449.6291720261042
 31
0.0
  0
LINE
  5
87BF
330
1F
100
AcDbEntity
  8
SPOJOVACÍ
  6
Continuous
100
AcDbLine
 10
753.9805568893452
 20
448.8654976977167
 30
0.0
 11
758.0249612489378
 21
450.2254147112589
 31
0.0
  0
LINE
  5
87C0
330
1F
100
AcDbEntity
  8
SPOJOVACÍ
  6
Continuous
100
AcDbLine
 10
758.4026126198832
 20
449.8477633381307
 30
0.0
 11
758.0249612489378
 21
449.6291720261042
 31
0.0
  0
LINE
  5
87C1
330
1F
100
AcDbEntity
  8
SPOJOVACÍ
  6
Continuous
100
AcDbLine
 10
758.4026126198832
 20
449.8477633381307
 30
0.0
 11
758.0249612489378
 21
450.2254147112589
 31
0.0
  0
LINE
  5
87C2
330
1F
100
AcDbEntity
  8
SPOJOVACÍ
  6
Continuous
100
AcDbLine
 10
753.6029055140343
 20
448.6478365616685
 30
0.0
 11
753.9805568893452
 21
448.2692550128385
 31
0.0
  0
LINE
  5
87C3
330
1F
100
AcDbEntity
  8
SPOJOVACÍ
  6
Continuous
100
AcDbLine
 10
753.6029055140343
 20
448.6478365616685
 30
0.0
 11
753.9805568893452
 21
448.8654976977167
 31
0.0
  0
LINE
  5
87C4
330
1F
100
AcDbEntity
  8
SPOJOVACÍ
  6
Continuous
100
AcDbLine
 10
753.6029055140343
 20
448.6478365616685
 30
0.0
 11
758.4026126198832
 21
449.8477633381307
 31
0.0
  0
LINE
  5
87C5
330
1F
100
AcDbEntity
  8
SPOJOVACÍ
  6
Continuous
100
AcDbLine
 10
757.3524441505096
 20
453.1089596782303
 30
0.0
 11
757.3524441505096
 21
455.6371774910994
 31
0.0
  0
LINE
  5
87C6
330
1F
100
AcDbEntity
  8
SPOJOVACÍ
  6
Continuous
100
AcDbLine
 10
757.3524441505096
 20
449.9938009380466
 30
0.0
 11
757.3524441505096
 21
452.5127169930756
 31
0.0
  0
LINE
  5
87C7
330
1F
100
AcDbEntity
  8
SPOJOVACÍ
  6
Continuous
100
AcDbLine
 10
754.6530739877734
 20
452.2029684530034
 30
0.0
 11
754.6530739877734
 21
454.7237448597124
 31
0.0
  0
LINE
  5
87C8
330
1F
100
AcDbEntity
  8
SPOJOVACÍ
  6
Continuous
100
AcDbLine
 10
754.6530739877734
 20
449.0803683066596
 30
0.0
 11
754.6530739877734
 21
451.5992843616886
 31
0.0
  0
LINE
  5
87C9
330
1F
100
AcDbEntity
  8
SPOJOVACÍ
  6
Continuous
100
AcDbLine
 10
754.6530739877734
 20
444.4471626678032
 30
0.0
 11
754.6530739877734
 21
448.4850557974832
 31
0.0
  0
LINE
  5
87CA
330
1F
100
AcDbEntity
  8
SPOJOVACÍ
  6
Continuous
100
AcDbLine
 10
757.3524441505096
 20
444.4471626678032
 30
0.0
 11
757.3524441505096
 21
449.3901168467318
 31
0.0
  0
LINE
  5
87CB
330
1F
100
AcDbEntity
  8
SPOJOVACÍ
  6
Continuous
100
AcDbLine
 10
750.9026051783248
 20
439.0474921734466
 30
0.0
 11
752.2522902618757
 21
439.7916328099208
 31
0.0
  0
LINE
  5
87CC
330
1F
100
AcDbEntity
  8
SPOJOVACÍ
  6
Continuous
100
AcDbLine
 10
752.2522902618757
 20
439.7916328099208
 30
0.0
 11
753.3629201622343
 21
440.860404799333
 31
0.0
  0
LINE
  5
87CD
330
1F
100
AcDbEntity
  8
SPOJOVACÍ
  6
Continuous
100
AcDbLine
 10
753.3629201622343
 20
440.860404799333
 30
0.0
 11
754.1591506415525
 21
442.1793940776305
 31
0.0
  0
LINE
  5
87CE
330
1F
100
AcDbEntity
  8
SPOJOVACÍ
  6
Continuous
100
AcDbLine
 10
754.1591506415525
 20
442.1793940776305
 30
0.0
 11
754.5870315058518
 21
443.6602339446808
 31
0.0
  0
LINE
  5
87CF
330
1F
100
AcDbEntity
  8
SPOJOVACÍ
  6
Continuous
100
AcDbLine
 10
754.5870315058518
 20
443.6602339446808
 30
0.0
 11
754.6530739877734
 21
444.4471626678032
 31
0.0
  0
LINE
  5
87D0
330
1F
100
AcDbEntity
  8
SPOJOVACÍ
  6
Continuous
100
AcDbLine
 10
750.9026051783248
 20
437.8475653967152
 30
0.0
 11
750.9026051783248
 21
439.0474921734466
 31
0.0
  0
LINE
  5
87D1
330
1F
100
AcDbEntity
  8
SPOJOVACÍ
  6
Continuous
100
AcDbLine
 10
757.3524441505096
 20
444.4471626678032
 30
0.0
 11
757.579407041393
 21
442.9235347143739
 31
0.0
  0
LINE
  5
87D2
330
1F
100
AcDbEntity
  8
SPOJOVACÍ
  6
Continuous
100
AcDbLine
 10
757.579407041393
 20
442.9235347143739
 30
0.0
 11
758.1923928905407
 21
441.5096675046706
 31
0.0
  0
LINE
  5
87D3
330
1F
100
AcDbEntity
  8
SPOJOVACÍ
  6
Continuous
100
AcDbLine
 10
758.1923928905407
 20
441.5096675046706
 30
0.0
 11
759.4020670350174
 21
439.985243195003
 31
0.0
  0
LINE
  5
87D4
330
1F
100
AcDbEntity
  8
SPOJOVACÍ
  6
Continuous
100
AcDbLine
 10
753.9805568893452
 20
460.7494236646716
 30
0.0
 11
758.0249612489378
 21
462.1093406782137
 31
0.0
  0
LINE
  5
87D5
330
1F
100
AcDbEntity
  8
SPOJOVACÍ
  6
Continuous
100
AcDbLine
 10
753.9805568893452
 20
461.3456663498263
 30
0.0
 11
758.0249612489378
 21
462.7055833633685
 31
0.0
  0
LINE
  5
87D6
330
1F
100
AcDbEntity
  8
SPOJOVACÍ
  6
Continuous
100
AcDbLine
 10
758.4026126198832
 20
462.3279319902403
 30
0.0
 11
758.0249612489378
 21
462.1093406782137
 31
0.0
  0
LINE
  5
87D7
330
1F
100
AcDbEntity
  8
SPOJOVACÍ
  6
Continuous
100
AcDbLine
 10
758.4026126198832
 20
462.3279319902403
 30
0.0
 11
758.0249612489378
 21
462.7055833633685
 31
0.0
  0
LINE
  5
87D8
330
1F
100
AcDbEntity
  8
SPOJOVACÍ
  6
Continuous
100
AcDbLine
 10
753.6029055140343
 20
461.1280052137781
 30
0.0
 11
753.9805568893452
 21
460.7494236646716
 31
0.0
  0
LINE
  5
87D9
330
1F
100
AcDbEntity
  8
SPOJOVACÍ
  6
Continuous
100
AcDbLine
 10
753.6029055140343
 20
461.1280052137781
 30
0.0
 11
753.9805568893452
 21
461.3456663498263
 31
0.0
  0
LINE
  5
87DA
330
1F
100
AcDbEntity
  8
SPOJOVACÍ
  6
Continuous
100
AcDbLine
 10
753.6029055140343
 20
461.1280052137781
 30
0.0
 11
758.4026126198832
 21
462.3279319902403
 31
0.0
  0
LINE
  5
87DB
330
1F
100
AcDbEntity
  8
SPOJOVACÍ
  6
Continuous
100
AcDbLine
 10
753.9805568893452
 20
457.6296140457097
 30
0.0
 11
758.0249612489378
 21
458.9895310592519
 31
0.0
  0
LINE
  5
87DC
330
1F
100
AcDbEntity
  8
SPOJOVACÍ
  6
Continuous
100
AcDbLine
 10
753.9805568893452
 20
458.2258567308572
 30
0.0
 11
758.0249612489378
 21
459.5857737441301
 31
0.0
  0
LINE
  5
87DD
330
1F
100
AcDbEntity
  8
SPOJOVACÍ
  6
Continuous
100
AcDbLine
 10
758.4026126198832
 20
459.2071921953001
 30
0.0
 11
758.0249612489378
 21
458.9895310592519
 31
0.0
  0
LINE
  5
87DE
330
1F
100
AcDbEntity
  8
SPOJOVACÍ
  6
Continuous
100
AcDbLine
 10
758.4026126198832
 20
459.2071921953001
 30
0.0
 11
758.0249612489378
 21
459.5857737441301
 31
0.0
  0
LINE
  5
87DF
330
1F
100
AcDbEntity
  8
SPOJOVACÍ
  6
Continuous
100
AcDbLine
 10
753.6029055140343
 20
458.0072654188379
 30
0.0
 11
753.9805568893452
 21
457.6296140457097
 31
0.0
  0
LINE
  5
87E0
330
1F
100
AcDbEntity
  8
SPOJOVACÍ
  6
Continuous
100
AcDbLine
 10
753.6029055140343
 20
458.0072654188379
 30
0.0
 11
753.9805568893452
 21
458.2258567308572
 31
0.0
  0
LINE
  5
87E1
330
1F
100
AcDbEntity
  8
SPOJOVACÍ
  6
Continuous
100
AcDbLine
 10
753.6029055140343
 20
458.0072654188379
 30
0.0
 11
758.4026126198832
 21
459.2071921953001
 31
0.0
  0
LINE
  5
87E2
330
1F
100
AcDbEntity
  8
SPOJOVACÍ
  6
Continuous
100
AcDbLine
 10
754.9860769250326
 20
470.2334960787093
 30
0.0
 11
757.1403640664893
 21
470.5441747944832
 31
0.0
  0
LINE
  5
87E3
330
1F
100
AcDbEntity
  8
SPOJOVACÍ
  6
Continuous
100
AcDbLine
 10
755.363728295978
 20
469.8558447055811
 30
0.0
 11
756.7627126955439
 21
470.3265136581658
 31
0.0
  0
LINE
  5
87E4
330
1F
100
AcDbEntity
  8
SPOJOVACÍ
  6
Continuous
100
AcDbLine
 10
755.363728295978
 20
470.4520873907285
 30
0.0
 11
756.7627126955439
 21
470.9227563433132
 31
0.0
  0
LINE
  5
87E5
330
1F
100
AcDbEntity
  8
SPOJOVACÍ
  6
Continuous
100
AcDbLine
 10
757.1403640664893
 20
470.5441747944832
 30
0.0
 11
756.7627126955439
 21
470.3265136581658
 31
0.0
  0
LINE
  5
87E6
330
1F
100
AcDbEntity
  8
SPOJOVACÍ
  6
Continuous
100
AcDbLine
 10
757.1403640664893
 20
470.5441747944832
 30
0.0
 11
756.7627126955439
 21
470.9227563433132
 31
0.0
  0
LINE
  5
87E7
330
1F
100
AcDbEntity
  8
SPOJOVACÍ
  6
Continuous
100
AcDbLine
 10
754.9860769250326
 20
470.2334960787093
 30
0.0
 11
755.363728295978
 21
469.8558447055811
 31
0.0
  0
LINE
  5
87E8
330
1F
100
AcDbEntity
  8
SPOJOVACÍ
  6
Continuous
100
AcDbLine
 10
754.9860769250326
 20
470.2334960787093
 30
0.0
 11
755.363728295978
 21
470.4520873907285
 31
0.0
  0
LINE
  5
87E9
330
1F
100
AcDbEntity
  8
SPOJOVACÍ
  6
Continuous
100
AcDbLine
 10
754.4214602145611
 20
467.2197265003896
 30
0.0
 11
757.5375491309923
 21
467.8531762171596
 31
0.0
  0
LINE
  5
87EA
330
1F
100
AcDbEntity
  8
SPOJOVACÍ
  6
Continuous
100
AcDbLine
 10
754.7991115898721
 20
466.8411449512832
 30
0.0
 11
757.1598977600469
 21
467.6355150811113
 31
0.0
  0
LINE
  5
87EB
330
1F
100
AcDbEntity
  8
SPOJOVACÍ
  6
Continuous
100
AcDbLine
 10
754.7991115898721
 20
467.4373876364379
 30
0.0
 11
757.1598977600469
 21
468.2317577659896
 31
0.0
  0
LINE
  5
87EC
330
1F
100
AcDbEntity
  8
SPOJOVACÍ
  6
Continuous
100
AcDbLine
 10
757.5375491309923
 20
467.8531762171596
 30
0.0
 11
757.1598977600469
 21
467.6355150811113
 31
0.0
  0
LINE
  5
87ED
330
1F
100
AcDbEntity
  8
SPOJOVACÍ
  6
Continuous
100
AcDbLine
 10
757.5375491309923
 20
467.8531762171596
 30
0.0
 11
757.1598977600469
 21
468.2317577659896
 31
0.0
  0
LINE
  5
87EE
330
1F
100
AcDbEntity
  8
SPOJOVACÍ
  6
Continuous
100
AcDbLine
 10
754.4214602145611
 20
467.2197265003896
 30
0.0
 11
754.7991115898721
 21
466.8411449512832
 31
0.0
  0
LINE
  5
87EF
330
1F
100
AcDbEntity
  8
SPOJOVACÍ
  6
Continuous
100
AcDbLine
 10
754.4214602145611
 20
467.2197265003896
 30
0.0
 11
754.7991115898721
 21
467.4373876364379
 31
0.0
  0
LINE
  5
87F0
330
1F
100
AcDbEntity
  8
SPOJOVACÍ
  6
Continuous
100
AcDbLine
 10
753.8568435084552
 20
464.2050267460917
 30
0.0
 11
757.9821731611982
 21
465.1779906283963
 31
0.0
  0
LINE
  5
87F1
330
1F
100
AcDbEntity
  8
SPOJOVACÍ
  6
Continuous
100
AcDbLine
 10
754.2354250567395
 20
463.8273753729635
 30
0.0
 11
757.6045217902528
 21
464.9603294923481
 31
0.0
  0
LINE
  5
87F2
330
1F
100
AcDbEntity
  8
SPOJOVACÍ
  6
Continuous
100
AcDbLine
 10
754.2354250567395
 20
464.4236180581183
 30
0.0
 11
757.6045217902528
 21
465.5565721775028
 31
0.0
  0
LINE
  5
87F3
330
1F
100
AcDbEntity
  8
SPOJOVACÍ
  6
Continuous
100
AcDbLine
 10
757.9821731611982
 20
465.1779906283963
 30
0.0
 11
757.6045217902528
 21
464.9603294923481
 31
0.0
  0
LINE
  5
87F4
330
1F
100
AcDbEntity
  8
SPOJOVACÍ
  6
Continuous
100
AcDbLine
 10
757.9821731611982
 20
465.1779906283963
 30
0.0
 11
757.6045217902528
 21
465.5565721775028
 31
0.0
  0
LINE
  5
87F5
330
1F
100
AcDbEntity
  8
SPOJOVACÍ
  6
Continuous
100
AcDbLine
 10
753.8568435084552
 20
464.2050267460917
 30
0.0
 11
754.2354250567395
 21
463.8273753729635
 31
0.0
  0
LINE
  5
87F6
330
1F
100
AcDbEntity
  8
SPOJOVACÍ
  6
Continuous
100
AcDbLine
 10
753.8568435084552
 20
464.2050267460917
 30
0.0
 11
754.2354250567395
 21
464.4236180581183
 31
0.0
  0
LINE
  5
87F7
330
1F
100
AcDbEntity
  8
SPOJOVACÍ
  6
Continuous
100
AcDbLine
 10
757.1068777390419
 20
464.7835960909987
 30
0.0
 11
757.3524441505096
 21
462.8125535797125
 31
0.0
  0
LINE
  5
87F8
330
1F
100
AcDbEntity
  8
SPOJOVACÍ
  6
Continuous
100
AcDbLine
 10
756.7682937464805
 20
467.4904076568973
 30
0.0
 11
757.0352542018181
 21
465.3537938540439
 31
0.0
  0
LINE
  5
87F9
330
1F
100
AcDbEntity
  8
SPOJOVACÍ
  6
Continuous
100
AcDbLine
 10
756.4287795853115
 20
470.2074511563305
 30
0.0
 11
756.6966702136223
 21
468.062465771346
 31
0.0
  0
LINE
  5
87FA
330
1F
100
AcDbEntity
  8
SPOJOVACÍ
  6
Continuous
100
AcDbLine
 10
755.6167361130601
 20
470.5237109268609
 30
0.0
 11
756.0027590669587
 21
473.6128247446658
 31
0.0
  0
LINE
  5
87FB
330
1F
100
AcDbEntity
  8
SPOJOVACÍ
  6
Continuous
100
AcDbLine
 10
755.2493166753802
 20
467.582495060652
 30
0.0
 11
755.5395315205341
 21
469.9032836710075
 31
0.0
  0
LINE
  5
87FC
330
1F
100
AcDbEntity
  8
SPOJOVACÍ
  6
Continuous
100
AcDbLine
 10
754.8800368830224
 20
464.6301170849228
 30
0.0
 11
755.170251732542
 21
466.9518358709874
 31
0.0
  0
LINE
  5
87FD
330
1F
100
AcDbEntity
  8
SPOJOVACÍ
  6
Continuous
100
AcDbLine
 10
756.0027590669587
 20
473.6128247446658
 30
0.0
 11
756.3571560480877
 21
470.7767187433973
 31
0.0
  0
LINE
  5
87FE
330
1F
100
AcDbEntity
  8
SPOJOVACÍ
  6
Continuous
100
AcDbLine
 10
754.6530739877734
 20
462.8125535797125
 30
0.0
 11
754.8028322904965
 21
464.0096898290694
 31
0.0
  0
LINE
  5
87FF
330
1F
100
AcDbEntity
  8
SPOJOVACÍ
  6
Continuous
100
AcDbLine
 10
757.3524441505096
 20
462.475829941829
 30
0.0
 11
757.3524441505096
 21
462.8125535797125
 31
0.0
  0
LINE
  5
8800
330
1F
100
AcDbEntity
  8
SPOJOVACÍ
  6
Continuous
100
AcDbLine
 10
757.3524441505096
 20
459.353229795216
 30
0.0
 11
757.3524441505096
 21
461.872145850245
 31
0.0
  0
LINE
  5
8801
330
1F
100
AcDbEntity
  8
SPOJOVACÍ
  6
Continuous
100
AcDbLine
 10
754.6530739877734
 20
461.5651878378239
 30
0.0
 11
754.6530739877734
 21
462.8125535797125
 31
0.0
  0
LINE
  5
8802
330
1F
100
AcDbEntity
  8
SPOJOVACÍ
  6
Continuous
100
AcDbLine
 10
754.6530739877734
 20
458.450959273342
 30
0.0
 11
754.6530739877734
 21
460.9689451526691
 31
0.0
  0
LINE
  5
8803
330
1F
100
AcDbEntity
  8
SPOJOVACÍ
  6
Continuous
100
AcDbLine
 10
757.3524441505096
 20
456.231559824574
 30
0.0
 11
757.3524441505096
 21
458.7523362312831
 31
0.0
  0
LINE
  5
8804
330
1F
100
AcDbEntity
  8
SPOJOVACÍ
  6
Continuous
100
AcDbLine
 10
754.6530739877734
 20
455.3181271931871
 30
0.0
 11
754.6530739877734
 21
457.8463450060562
 31
0.0
  0
LINE
  5
8805
330
1F
100
AcDbEntity
  8
SPOJOVACÍ
  6
Continuous
100
AcDbLine
 10
736.6530739877735
 20
473.3181271931944
 30
0.0
 11
736.6530739877735
 21
475.8463450060635
 31
0.0
  0
LINE
  5
8806
330
1F
100
AcDbEntity
  8
SPOJOVACÍ
  6
Continuous
100
AcDbLine
 10
739.3524441505096
 20
474.2315598245814
 30
0.0
 11
739.3524441505096
 21
476.7523362312904
 31
0.0
  0
LINE
  5
8807
330
1F
100
AcDbEntity
  8
SPOJOVACÍ
  6
Continuous
100
AcDbLine
 10
736.6530739877735
 20
476.4509592733493
 30
0.0
 11
736.6530739877735
 21
478.9689451526765
 31
0.0
  0
LINE
  5
8808
330
1F
100
AcDbEntity
  8
SPOJOVACÍ
  6
Continuous
100
AcDbLine
 10
736.6530739877735
 20
479.5651878378312
 30
0.0
 11
736.6530739877735
 21
480.8125535797199
 31
0.0
  0
LINE
  5
8809
330
1F
100
AcDbEntity
  8
SPOJOVACÍ
  6
Continuous
100
AcDbLine
 10
739.3524441505096
 20
477.3532297952233
 30
0.0
 11
739.3524441505096
 21
479.8721458502523
 31
0.0
  0
LINE
  5
880A
330
1F
100
AcDbEntity
  8
SPOJOVACÍ
  6
Continuous
100
AcDbLine
 10
739.3524441505096
 20
480.4758299418363
 30
0.0
 11
739.3524441505096
 21
480.8125535797199
 31
0.0
  0
LINE
  5
880B
330
1F
100
AcDbEntity
  8
SPOJOVACÍ
  6
Continuous
100
AcDbLine
 10
736.6530739877735
 20
480.8125535797199
 30
0.0
 11
736.8028322904965
 21
482.0096898290767
 31
0.0
  0
LINE
  5
880C
330
1F
100
AcDbEntity
  8
SPOJOVACÍ
  6
Continuous
100
AcDbLine
 10
738.0027590669588
 20
491.6128247446732
 30
0.0
 11
738.3571560480877
 21
488.7767187434047
 31
0.0
  0
LINE
  5
880D
330
1F
100
AcDbEntity
  8
SPOJOVACÍ
  6
Continuous
100
AcDbLine
 10
736.8800368830225
 20
482.6301170849301
 30
0.0
 11
737.170251732542
 21
484.9518358709947
 31
0.0
  0
LINE
  5
880E
330
1F
100
AcDbEntity
  8
SPOJOVACÍ
  6
Continuous
100
AcDbLine
 10
737.2493166753802
 20
485.5824950606593
 30
0.0
 11
737.5395315205341
 21
487.9032836710148
 31
0.0
  0
LINE
  5
880F
330
1F
100
AcDbEntity
  8
SPOJOVACÍ
  6
Continuous
100
AcDbLine
 10
737.6167361130601
 20
488.5237109268683
 30
0.0
 11
738.0027590669588
 21
491.6128247446732
 31
0.0
  0
LINE
  5
8810
330
1F
100
AcDbEntity
  8
SPOJOVACÍ
  6
Continuous
100
AcDbLine
 10
738.4287795853115
 20
488.2074511563378
 30
0.0
 11
738.6966702136223
 21
486.0624657713533
 31
0.0
  0
LINE
  5
8811
330
1F
100
AcDbEntity
  8
SPOJOVACÍ
  6
Continuous
100
AcDbLine
 10
738.7682937464806
 20
485.4904076569046
 30
0.0
 11
739.0352542018181
 21
483.3537938540512
 31
0.0
  0
LINE
  5
8812
330
1F
100
AcDbEntity
  8
SPOJOVACÍ
  6
Continuous
100
AcDbLine
 10
739.1068777390419
 20
482.7835960910061
 30
0.0
 11
739.3524441505096
 21
480.8125535797199
 31
0.0
  0
LINE
  5
8813
330
1F
100
AcDbEntity
  8
SPOJOVACÍ
  6
Continuous
100
AcDbLine
 10
735.8568435084553
 20
482.2050267460991
 30
0.0
 11
736.2354250567396
 21
482.4236180581256
 31
0.0
  0
LINE
  5
8814
330
1F
100
AcDbEntity
  8
SPOJOVACÍ
  6
Continuous
100
AcDbLine
 10
735.8568435084553
 20
482.2050267460991
 30
0.0
 11
736.2354250567396
 21
481.8273753729709
 31
0.0
  0
LINE
  5
8815
330
1F
100
AcDbEntity
  8
SPOJOVACÍ
  6
Continuous
100
AcDbLine
 10
739.9821731611982
 20
483.1779906284037
 30
0.0
 11
739.6045217902528
 21
483.5565721775101
 31
0.0
  0
LINE
  5
8816
330
1F
100
AcDbEntity
  8
SPOJOVACÍ
  6
Continuous
100
AcDbLine
 10
739.9821731611982
 20
483.1779906284037
 30
0.0
 11
739.6045217902528
 21
482.9603294923554
 31
0.0
  0
LINE
  5
8817
330
1F
100
AcDbEntity
  8
SPOJOVACÍ
  6
Continuous
100
AcDbLine
 10
736.2354250567396
 20
482.4236180581256
 30
0.0
 11
739.6045217902528
 21
483.5565721775101
 31
0.0
  0
LINE
  5
8818
330
1F
100
AcDbEntity
  8
SPOJOVACÍ
  6
Continuous
100
AcDbLine
 10
736.2354250567396
 20
481.8273753729709
 30
0.0
 11
739.6045217902528
 21
482.9603294923554
 31
0.0
  0
LINE
  5
8819
330
1F
100
AcDbEntity
  8
SPOJOVACÍ
  6
Continuous
100
AcDbLine
 10
735.8568435084553
 20
482.2050267460991
 30
0.0
 11
739.9821731611982
 21
483.1779906284037
 31
0.0
  0
LINE
  5
881A
330
1F
100
AcDbEntity
  8
SPOJOVACÍ
  6
Continuous
100
AcDbLine
 10
736.4214602145612
 20
485.219726500397
 30
0.0
 11
736.7991115898721
 21
485.4373876364452
 31
0.0
  0
LINE
  5
881B
330
1F
100
AcDbEntity
  8
SPOJOVACÍ
  6
Continuous
100
AcDbLine
 10
736.4214602145612
 20
485.219726500397
 30
0.0
 11
736.7991115898721
 21
484.8411449512905
 31
0.0
  0
LINE
  5
881C
330
1F
100
AcDbEntity
  8
SPOJOVACÍ
  6
Continuous
100
AcDbLine
 10
739.5375491309923
 20
485.8531762171669
 30
0.0
 11
739.159897760047
 21
486.2317577659969
 31
0.0
  0
LINE
  5
881D
330
1F
100
AcDbEntity
  8
SPOJOVACÍ
  6
Continuous
100
AcDbLine
 10
739.5375491309923
 20
485.8531762171669
 30
0.0
 11
739.159897760047
 21
485.6355150811187
 31
0.0
  0
LINE
  5
881E
330
1F
100
AcDbEntity
  8
SPOJOVACÍ
  6
Continuous
100
AcDbLine
 10
736.7991115898721
 20
485.4373876364452
 30
0.0
 11
739.159897760047
 21
486.2317577659969
 31
0.0
  0
LINE
  5
881F
330
1F
100
AcDbEntity
  8
SPOJOVACÍ
  6
Continuous
100
AcDbLine
 10
736.7991115898721
 20
484.8411449512905
 30
0.0
 11
739.159897760047
 21
485.6355150811187
 31
0.0
  0
LINE
  5
8820
330
1F
100
AcDbEntity
  8
SPOJOVACÍ
  6
Continuous
100
AcDbLine
 10
736.4214602145612
 20
485.219726500397
 30
0.0
 11
739.5375491309923
 21
485.8531762171669
 31
0.0
  0
LINE
  5
8821
330
1F
100
AcDbEntity
  8
SPOJOVACÍ
  6
Continuous
100
AcDbLine
 10
736.9860769250326
 20
488.2334960787166
 30
0.0
 11
737.363728295978
 21
488.4520873907359
 31
0.0
  0
LINE
  5
8822
330
1F
100
AcDbEntity
  8
SPOJOVACÍ
  6
Continuous
100
AcDbLine
 10
736.9860769250326
 20
488.2334960787166
 30
0.0
 11
737.363728295978
 21
487.8558447055884
 31
0.0
  0
LINE
  5
8823
330
1F
100
AcDbEntity
  8
SPOJOVACÍ
  6
Continuous
100
AcDbLine
 10
739.1403640664893
 20
488.5441747944906
 30
0.0
 11
738.762712695544
 21
488.9227563433205
 31
0.0
  0
LINE
  5
8824
330
1F
100
AcDbEntity
  8
SPOJOVACÍ
  6
Continuous
100
AcDbLine
 10
739.1403640664893
 20
488.5441747944906
 30
0.0
 11
738.762712695544
 21
488.3265136581731
 31
0.0
  0
LINE
  5
8825
330
1F
100
AcDbEntity
  8
SPOJOVACÍ
  6
Continuous
100
AcDbLine
 10
737.363728295978
 20
488.4520873907359
 30
0.0
 11
738.762712695544
 21
488.9227563433205
 31
0.0
  0
LINE
  5
8826
330
1F
100
AcDbEntity
  8
SPOJOVACÍ
  6
Continuous
100
AcDbLine
 10
737.363728295978
 20
487.8558447055884
 30
0.0
 11
738.762712695544
 21
488.3265136581731
 31
0.0
  0
LINE
  5
8827
330
1F
100
AcDbEntity
  8
SPOJOVACÍ
  6
Continuous
100
AcDbLine
 10
736.9860769250326
 20
488.2334960787166
 30
0.0
 11
739.1403640664893
 21
488.5441747944906
 31
0.0
  0
LINE
  5
8828
330
1F
100
AcDbEntity
  8
SPOJOVACÍ
  6
Continuous
100
AcDbLine
 10
735.6029055140343
 20
476.0072654188452
 30
0.0
 11
740.4026126198832
 21
477.2071921953075
 31
0.0
  0
LINE
  5
8829
330
1F
100
AcDbEntity
  8
SPOJOVACÍ
  6
Continuous
100
AcDbLine
 10
735.6029055140343
 20
476.0072654188452
 30
0.0
 11
735.9805568893452
 21
476.2258567308645
 31
0.0
  0
LINE
  5
882A
330
1F
100
AcDbEntity
  8
SPOJOVACÍ
  6
Continuous
100
AcDbLine
 10
735.6029055140343
 20
476.0072654188452
 30
0.0
 11
735.9805568893452
 21
475.6296140457171
 31
0.0
  0
LINE
  5
882B
330
1F
100
AcDbEntity
  8
SPOJOVACÍ
  6
Continuous
100
AcDbLine
 10
740.4026126198832
 20
477.2071921953075
 30
0.0
 11
740.0249612489378
 21
477.5857737441374
 31
0.0
  0
LINE
  5
882C
330
1F
100
AcDbEntity
  8
SPOJOVACÍ
  6
Continuous
100
AcDbLine
 10
740.4026126198832
 20
477.2071921953075
 30
0.0
 11
740.0249612489378
 21
476.9895310592592
 31
0.0
  0
LINE
  5
882D
330
1F
100
AcDbEntity
  8
SPOJOVACÍ
  6
Continuous
100
AcDbLine
 10
735.9805568893452
 20
476.2258567308645
 30
0.0
 11
740.0249612489378
 21
477.5857737441374
 31
0.0
  0
LINE
  5
882E
330
1F
100
AcDbEntity
  8
SPOJOVACÍ
  6
Continuous
100
AcDbLine
 10
735.9805568893452
 20
475.6296140457171
 30
0.0
 11
740.0249612489378
 21
476.9895310592592
 31
0.0
  0
LINE
  5
882F
330
1F
100
AcDbEntity
  8
SPOJOVACÍ
  6
Continuous
100
AcDbLine
 10
735.6029055140343
 20
479.1280052137854
 30
0.0
 11
740.4026126198832
 21
480.3279319902476
 31
0.0
  0
LINE
  5
8830
330
1F
100
AcDbEntity
  8
SPOJOVACÍ
  6
Continuous
100
AcDbLine
 10
735.6029055140343
 20
479.1280052137854
 30
0.0
 11
735.9805568893452
 21
479.3456663498337
 31
0.0
  0
LINE
  5
8831
330
1F
100
AcDbEntity
  8
SPOJOVACÍ
  6
Continuous
100
AcDbLine
 10
735.6029055140343
 20
479.1280052137854
 30
0.0
 11
735.9805568893452
 21
478.7494236646789
 31
0.0
  0
LINE
  5
8832
330
1F
100
AcDbEntity
  8
SPOJOVACÍ
  6
Continuous
100
AcDbLine
 10
740.4026126198832
 20
480.3279319902476
 30
0.0
 11
740.0249612489378
 21
480.7055833633758
 31
0.0
  0
LINE
  5
8833
330
1F
100
AcDbEntity
  8
SPOJOVACÍ
  6
Continuous
100
AcDbLine
 10
740.4026126198832
 20
480.3279319902476
 30
0.0
 11
740.0249612489378
 21
480.1093406782211
 31
0.0
  0
LINE
  5
8834
330
1F
100
AcDbEntity
  8
SPOJOVACÍ
  6
Continuous
100
AcDbLine
 10
735.9805568893452
 20
479.3456663498337
 30
0.0
 11
740.0249612489378
 21
480.7055833633758
 31
0.0
  0
LINE
  5
8835
330
1F
100
AcDbEntity
  8
SPOJOVACÍ
  6
Continuous
100
AcDbLine
 10
735.9805568893452
 20
478.7494236646789
 30
0.0
 11
740.0249612489378
 21
480.1093406782211
 31
0.0
  0
LINE
  5
8836
330
1F
100
AcDbEntity
  8
SPOJOVACÍ
  6
Continuous
100
AcDbLine
 10
740.1923928905407
 20
459.509667504678
 30
0.0
 11
741.4020670350173
 21
457.9852431950103
 31
0.0
  0
LINE
  5
8837
330
1F
100
AcDbEntity
  8
SPOJOVACÍ
  6
Continuous
100
AcDbLine
 10
739.5794070413931
 20
460.9235347143813
 30
0.0
 11
740.1923928905407
 21
459.509667504678
 31
0.0
  0
LINE
  5
8838
330
1F
100
AcDbEntity
  8
SPOJOVACÍ
  6
Continuous
100
AcDbLine
 10
739.3524441505096
 20
462.4471626678105
 30
0.0
 11
739.5794070413931
 21
460.9235347143813
 31
0.0
  0
LINE
  5
8839
330
1F
100
AcDbEntity
  8
SPOJOVACÍ
  6
Continuous
100
AcDbLine
 10
732.9026051783248
 20
455.8475653967225
 30
0.0
 11
732.9026051783248
 21
457.047492173454
 31
0.0
  0
LINE
  5
883A
330
1F
100
AcDbEntity
  8
SPOJOVACÍ
  6
Continuous
100
AcDbLine
 10
736.5870315058518
 20
461.6602339446881
 30
0.0
 11
736.6530739877735
 21
462.4471626678105
 31
0.0
  0
LINE
  5
883B
330
1F
100
AcDbEntity
  8
SPOJOVACÍ
  6
Continuous
100
AcDbLine
 10
736.1591506415525
 20
460.1793940776379
 30
0.0
 11
736.5870315058518
 21
461.6602339446881
 31
0.0
  0
LINE
  5
883C
330
1F
100
AcDbEntity
  8
SPOJOVACÍ
  6
Continuous
100
AcDbLine
 10
735.3629201622343
 20
458.8604047993404
 30
0.0
 11
736.1591506415525
 21
460.1793940776379
 31
0.0
  0
LINE
  5
883D
330
1F
100
AcDbEntity
  8
SPOJOVACÍ
  6
Continuous
100
AcDbLine
 10
734.2522902618757
 20
457.7916328099282
 30
0.0
 11
735.3629201622343
 21
458.8604047993404
 31
0.0
  0
LINE
  5
883E
330
1F
100
AcDbEntity
  8
SPOJOVACÍ
  6
Continuous
100
AcDbLine
 10
732.9026051783248
 20
457.047492173454
 30
0.0
 11
734.2522902618757
 21
457.7916328099282
 31
0.0
  0
LINE
  5
883F
330
1F
100
AcDbEntity
  8
SPOJOVACÍ
  6
Continuous
100
AcDbLine
 10
739.3524441505096
 20
462.4471626678105
 30
0.0
 11
739.3524441505096
 21
467.3901168467391
 31
0.0
  0
LINE
  5
8840
330
1F
100
AcDbEntity
  8
SPOJOVACÍ
  6
Continuous
100
AcDbLine
 10
736.6530739877735
 20
462.4471626678105
 30
0.0
 11
736.6530739877735
 21
466.4850557974905
 31
0.0
  0
LINE
  5
8841
330
1F
100
AcDbEntity
  8
SPOJOVACÍ
  6
Continuous
100
AcDbLine
 10
736.6530739877735
 20
467.080368306667
 30
0.0
 11
736.6530739877735
 21
469.5992843616959
 31
0.0
  0
LINE
  5
8842
330
1F
100
AcDbEntity
  8
SPOJOVACÍ
  6
Continuous
100
AcDbLine
 10
736.6530739877735
 20
470.2029684530107
 30
0.0
 11
736.6530739877735
 21
472.7237448597198
 31
0.0
  0
LINE
  5
8843
330
1F
100
AcDbEntity
  8
SPOJOVACÍ
  6
Continuous
100
AcDbLine
 10
739.3524441505096
 20
467.9938009380539
 30
0.0
 11
739.3524441505096
 21
470.5127169930829
 31
0.0
  0
LINE
  5
8844
330
1F
100
AcDbEntity
  8
SPOJOVACÍ
  6
Continuous
100
AcDbLine
 10
739.3524441505096
 20
471.1089596782376
 30
0.0
 11
739.3524441505096
 21
473.6371774911067
 31
0.0
  0
LINE
  5
8845
330
1F
100
AcDbEntity
  8
SPOJOVACÍ
  6
Continuous
100
AcDbLine
 10
735.6029055140343
 20
466.6478365616758
 30
0.0
 11
740.4026126198832
 21
467.8477633381381
 31
0.0
  0
LINE
  5
8846
330
1F
100
AcDbEntity
  8
SPOJOVACÍ
  6
Continuous
100
AcDbLine
 10
735.6029055140343
 20
466.6478365616758
 30
0.0
 11
735.9805568893452
 21
466.8654976977241
 31
0.0
  0
LINE
  5
8847
330
1F
100
AcDbEntity
  8
SPOJOVACÍ
  6
Continuous
100
AcDbLine
 10
735.6029055140343
 20
466.6478365616758
 30
0.0
 11
735.9805568893452
 21
466.2692550128459
 31
0.0
  0
LINE
  5
8848
330
1F
100
AcDbEntity
  8
SPOJOVACÍ
  6
Continuous
100
AcDbLine
 10
740.4026126198832
 20
467.8477633381381
 30
0.0
 11
740.0249612489378
 21
468.2254147112662
 31
0.0
  0
LINE
  5
8849
330
1F
100
AcDbEntity
  8
SPOJOVACÍ
  6
Continuous
100
AcDbLine
 10
740.4026126198832
 20
467.8477633381381
 30
0.0
 11
740.0249612489378
 21
467.6291720261115
 31
0.0
  0
LINE
  5
884A
330
1F
100
AcDbEntity
  8
SPOJOVACÍ
  6
Continuous
100
AcDbLine
 10
735.9805568893452
 20
466.8654976977241
 30
0.0
 11
740.0249612489378
 21
468.2254147112662
 31
0.0
  0
LINE
  5
884B
330
1F
100
AcDbEntity
  8
SPOJOVACÍ
  6
Continuous
100
AcDbLine
 10
735.9805568893452
 20
466.2692550128459
 30
0.0
 11
740.0249612489378
 21
467.6291720261115
 31
0.0
  0
LINE
  5
884C
330
1F
100
AcDbEntity
  8
SPOJOVACÍ
  6
Continuous
100
AcDbLine
 10
735.6029055140343
 20
469.7676461806377
 30
0.0
 11
740.4026126198832
 21
470.9675729573764
 31
0.0
  0
LINE
  5
884D
330
1F
100
AcDbEntity
  8
SPOJOVACÍ
  6
Continuous
100
AcDbLine
 10
735.6029055140343
 20
469.7676461806377
 30
0.0
 11
735.9805568893452
 21
469.9862374926643
 31
0.0
  0
LINE
  5
884E
330
1F
100
AcDbEntity
  8
SPOJOVACÍ
  6
Continuous
100
AcDbLine
 10
735.6029055140343
 20
469.7676461806377
 30
0.0
 11
735.9805568893452
 21
469.3899948075095
 31
0.0
  0
LINE
  5
884F
330
1F
100
AcDbEntity
  8
SPOJOVACÍ
  6
Continuous
100
AcDbLine
 10
740.4026126198832
 20
470.9675729573764
 30
0.0
 11
740.0249612489378
 21
471.3452243302281
 31
0.0
  0
LINE
  5
8850
330
1F
100
AcDbEntity
  8
SPOJOVACÍ
  6
Continuous
100
AcDbLine
 10
740.4026126198832
 20
470.9675729573764
 30
0.0
 11
740.0249612489378
 21
470.7489816453499
 31
0.0
  0
LINE
  5
8851
330
1F
100
AcDbEntity
  8
SPOJOVACÍ
  6
Continuous
100
AcDbLine
 10
735.9805568893452
 20
469.9862374926643
 30
0.0
 11
740.0249612489378
 21
471.3452243302281
 31
0.0
  0
LINE
  5
8852
330
1F
100
AcDbEntity
  8
SPOJOVACÍ
  6
Continuous
100
AcDbLine
 10
735.9805568893452
 20
469.3899948075095
 30
0.0
 11
740.0249612489378
 21
470.7489816453499
 31
0.0
  0
LINE
  5
8853
330
1F
100
AcDbEntity
  8
SPOJOVACÍ
  6
Continuous
100
AcDbLine
 10
735.6029055140343
 20
472.8874557998761
 30
0.0
 11
740.4026126198832
 21
474.0873825763383
 31
0.0
  0
LINE
  5
8854
330
1F
100
AcDbEntity
  8
SPOJOVACÍ
  6
Continuous
100
AcDbLine
 10
735.6029055140343
 20
472.8874557998761
 30
0.0
 11
735.9805568893452
 21
473.1060471119026
 31
0.0
  0
LINE
  5
8855
330
1F
100
AcDbEntity
  8
SPOJOVACÍ
  6
Continuous
100
AcDbLine
 10
735.6029055140343
 20
472.8874557998761
 30
0.0
 11
735.9805568893452
 21
472.5098044267479
 31
0.0
  0
LINE
  5
8856
330
1F
100
AcDbEntity
  8
SPOJOVACÍ
  6
Continuous
100
AcDbLine
 10
740.4026126198832
 20
474.0873825763383
 30
0.0
 11
740.0249612489378
 21
474.4659641251683
 31
0.0
  0
LINE
  5
8857
330
1F
100
AcDbEntity
  8
SPOJOVACÍ
  6
Continuous
100
AcDbLine
 10
740.4026126198832
 20
474.0873825763383
 30
0.0
 11
740.0249612489378
 21
473.8697214400208
 31
0.0
  0
LINE
  5
8858
330
1F
100
AcDbEntity
  8
SPOJOVACÍ
  6
Continuous
100
AcDbLine
 10
735.9805568893452
 20
473.1060471119026
 30
0.0
 11
740.0249612489378
 21
474.4659641251683
 31
0.0
  0
LINE
  5
8859
330
1F
100
AcDbEntity
  8
SPOJOVACÍ
  6
Continuous
100
AcDbLine
 10
735.9805568893452
 20
472.5098044267479
 30
0.0
 11
740.0249612489378
 21
473.8697214400208
 31
0.0
  0
LINE
  5
885A
330
1F
100
AcDbEntity
  8
SPOJOVACÍ
  6
Continuous
100
AcDbLine
 10
732.9026051783248
 20
457.047492173454
 30
0.0
 11
743.1029129555927
 21
457.047492173454
 31
0.0
  0
LINE
  5
885B
330
1F
100
AcDbEntity
  8
SPOJOVACÍ
  6
Continuous
100
AcDbLine
 10
743.1029129555927
 20
455.8475653967225
 30
0.0
 11
743.1029129555927
 21
457.047492173454
 31
0.0
  0
LINE
  5
885C
330
1F
100
AcDbEntity
  8
SPOJOVACÍ
  6
Continuous
100
AcDbLine
 10
732.9026051783248
 20
455.8475653967225
 30
0.0
 11
743.1029129555927
 21
455.8475653967225
 31
0.0
  0
LINE
  5
885D
330
1F
100
AcDbEntity
  8
SPOJOVACÍ
  6
Continuous
100
AcDbLine
 10
743.1029129555927
 20
457.047492173454
 30
0.0
 11
741.4020670350173
 21
457.9852431950103
 31
0.0
  0
ENDSEC
  0
SECTION
  2
OBJECTS
  0
DICTIONARY
  5
C
330
0
100
AcDbDictionary
281
     1
  3
ACAD_GROUP
350
D
  3
ACAD_LAYOUT
350
1A
  3
ACAD_MLINESTYLE
350
17
  3
ACAD_PLOTSETTINGS
350
19
  3
ACAD_PLOTSTYLENAME
350
E
  3
AcDbVariableDictionary
350
88B8
  0
DICTIONARY
  5
886A
330
1F
100
AcDbDictionary
280
     1
281
     1
  3
ACAD_LAYOUTSELFREF
360
88A4
  0
DICTIONARY
  5
886C
330
1B
100
AcDbDictionary
280
     1
281
     1
  3
ACAD_LAYOUTSELFREF
360
88A3
  0
DICTIONARY
  5
886E
330
23
100
AcDbDictionary
280
     1
281
     1
  3
ACAD_LAYOUTSELFREF
360
88A5
  0
DICTIONARY
  5
D
102
{ACAD_REACTORS
330
C
102
}
330
C
100
AcDbDictionary
281
     1
  0
DICTIONARY
  5
1A
102
{ACAD_REACTORS
330
C
102
}
330
C
100
AcDbDictionary
281
     1
  3
Model
350
22
  3
Rozvržení1
350
1E
  3
Rozvržení2
350
26
  0
DICTIONARY
  5
17
102
{ACAD_REACTORS
330
C
102
}
330
C
100
AcDbDictionary
281
     1
  3
Standard
350
18
  0
DICTIONARY
  5
19
102
{ACAD_REACTORS
330
C
102
}
330
C
100
AcDbDictionary
281
     1
  0
ACDBDICTIONARYWDFLT
  5
E
102
{ACAD_REACTORS
330
C
102
}
330
C
100
AcDbDictionary
281
     1
  3
Normal
350
F
100
AcDbDictionaryWithDefault
340
F
  0
DICTIONARY
  5
88B8
102
{ACAD_REACTORS
330
C
102
}
330
C
100
AcDbDictionary
281
     1
  3
DIMASSOC
350
88B9
  0
XRECORD
  5
88A4
102
{ACAD_REACTORS
330
886A
102
}
330
886A
100
AcDbXrecord
280
     1
340
1F
  0
XRECORD
  5
88A3
102
{ACAD_REACTORS
330
886C
102
}
330
886C
100
AcDbXrecord
280
     1
340
1B
  0
XRECORD
  5
88A5
102
{ACAD_REACTORS
330
886E
102
}
330
886E
100
AcDbXrecord
280
     1
340
23
  0
LAYOUT
  5
22
102
{ACAD_REACTORS
330
1A
102
}
330
1A
100
AcDbPlotSettings
  1

  2
HP DeskJet 690C
  4

  6

 40
0.0
 41
0.0
 42
0.0
 43
0.0
 44
0.0
 45
0.0
 46
0.0
 47
0.0
 48
0.0
 49
0.0
140
0.0
141
0.0
142
1.0
143
1.0
 70
  1712
 72
     0
 73
     0
 74
     0
  7
monochrome.ctb
 75
     0
147
1.0
148
0.0
149
0.0
100
AcDbLayout
  1
Model
 70
     1
 71
     0
 10
0.0
 20
0.0
 11
12.0
 21
9.0
 12
0.0
 22
0.0
 32
0.0
 14
0.0
 24
0.0
 34
0.0
 15
0.0
 25
0.0
 35
0.0
146
0.0
 13
0.0
 23
0.0
 33
0.0
 16
1.0
 26
0.0
 36
0.0
 17
0.0
 27
1.0
 37
0.0
 76
     0
330
1F
  0
LAYOUT
  5
1E
102
{ACAD_REACTORS
330
1A
102
}
330
1A
100
AcDbPlotSettings
  1

  2
HP DeskJet 690C
  4

  6

 40
0.0
 41
0.0
 42
0.0
 43
0.0
 44
0.0
 45
0.0
 46
0.0
 47
0.0
 48
0.0
 49
0.0
140
0.0
141
0.0
142
1.0
143
1.0
 70
   688
 72
     0
 73
     0
 74
     5
  7
monochrome.ctb
 75
    16
147
1.0
148
0.0
149
0.0
100
AcDbLayout
  1
Rozvržení1
 70
     1
 71
     1
 10
0.0
 20
0.0
 11
420.0
 21
297.0
 12
0.0
 22
0.0
 32
0.0
 14
1.000000000000000E+20
 24
1.000000000000000E+20
 34
1.000000000000000E+20
 15
-1.000000000000000E+20
 25
-1.000000000000000E+20
 35
-1.000000000000000E+20
146
0.0
 13
0.0
 23
0.0
 33
0.0
 16
1.0
 26
0.0
 36
0.0
 17
0.0
 27
1.0
 37
0.0
 76
     0
330
1B
  0
LAYOUT
  5
26
102
{ACAD_REACTORS
330
1A
102
}
330
1A
100
AcDbPlotSettings
  1

  2
HP DeskJet 690C
  4

  6

 40
0.0
 41
0.0
 42
0.0
 43
0.0
 44
0.0
 45
0.0
 46
0.0
 47
0.0
 48
0.0
 49
0.0
140
0.0
141
0.0
142
1.0
143
1.0
 70
   688
 72
     0
 73
     0
 74
     5
  7
monochrome.ctb
 75
    16
147
1.0
148
0.0
149
0.0
100
AcDbLayout
  1
Rozvržení2
 70
     1
 71
     2
 10
0.0
 20
0.0
 11
12.0
 21
9.0
 12
0.0
 22
0.0
 32
0.0
 14
0.0
 24
0.0
 34
0.0
 15
0.0
 25
0.0
 35
0.0
146
0.0
 13
0.0
 23
0.0
 33
0.0
 16
1.0
 26
0.0
 36
0.0
 17
0.0
 27
1.0
 37
0.0
 76
     0
330
23
  0
MLINESTYLE
  5
18
102
{ACAD_REACTORS
330
17
102
}
330
17
100
AcDbMlineStyle
  2
STANDARD
 70
     0
  3

 62
   256
 51
90.0
 52
90.0
 71
     2
 49
0.5
 62
   256
  6
BYLAYER
 49
-0.5
 62
   256
  6
BYLAYER
  0
ACDBPLACEHOLDER
  5
F
102
{ACAD_REACTORS
330
E
102
}
330
E
  0
DICTIONARYVAR
  5
88B9
102
{ACAD_REACTORS
330
88B8
102
}
330
88B8
100
DictionaryVariables
280
     0
  1
1
  0
ENDSEC
  0
EOF
