  0
SECTION
  2
HEADER
  9
$ACADVER
  1
AC1015
  9
$ACADMAINTVER
 70
    14
  9
$DWGCODEPAGE
  3
ANSI_1250
  9
$INSBASE
 10
0.0
 20
0.0
 30
0.0
  9
$EXTMIN
 10
-5.756070735816592
 20
-72.39786906121118
 30
0.0
  9
$EXTMAX
 10
1290.543625055439
 20
659.2863361385225
 30
0.0
  9
$LIMMIN
 10
0.0
 20
0.0
  9
$LIMMAX
 10
420.0
 20
297.0
  9
$ORTHOMODE
 70
     1
  9
$REGENMODE
 70
     1
  9
$FILLMODE
 70
     1
  9
$QTEXTMODE
 70
     0
  9
$MIRRTEXT
 70
     1
  9
$LTSCALE
 40
1.0
  9
$ATTMODE
 70
     1
  9
$TEXTSIZE
 40
2.5
  9
$TRACEWID
 40
1.0
  9
$TEXTSTYLE
  7
Standard
  9
$CLAYER
  8
0
  9
$CELTYPE
  6
ByLayer
  9
$CECOLOR
 62
   256
  9
$CELTSCALE
 40
1.0
  9
$DISPSILH
 70
     0
  9
$DIMSCALE
 40
1.0
  9
$DIMASZ
 40
2.5
  9
$DIMEXO
 40
0.625
  9
$DIMDLI
 40
3.75
  9
$DIMRND
 40
0.0
  9
$DIMDLE
 40
0.0
  9
$DIMEXE
 40
1.25
  9
$DIMTP
 40
0.0
  9
$DIMTM
 40
0.0
  9
$DIMTXT
 40
2.5
  9
$DIMCEN
 40
2.5
  9
$DIMTSZ
 40
0.0
  9
$DIMTOL
 70
     0
  9
$DIMLIM
 70
     0
  9
$DIMTIH
 70
     0
  9
$DIMTOH
 70
     0
  9
$DIMSE1
 70
     0
  9
$DIMSE2
 70
     0
  9
$DIMTAD
 70
     1
  9
$DIMZIN
 70
     8
  9
$DIMBLK
  1

  9
$DIMASO
 70
     1
  9
$DIMSHO
 70
     1
  9
$DIMPOST
  1

  9
$DIMAPOST
  1

  9
$DIMALT
 70
     0
  9
$DIMALTD
 70
     3
  9
$DIMALTF
 40
0.03937007874016
  9
$DIMLFAC
 40
1.0
  9
$DIMTOFL
 70
     1
  9
$DIMTVP
 40
0.0
  9
$DIMTIX
 70
     0
  9
$DIMSOXD
 70
     0
  9
$DIMSAH
 70
     0
  9
$DIMBLK1
  1

  9
$DIMBLK2
  1

  9
$DIMSTYLE
  2
ISO-25
  9
$DIMCLRD
 70
     0
  9
$DIMCLRE
 70
     0
  9
$DIMCLRT
 70
     0
  9
$DIMTFAC
 40
1.0
  9
$DIMGAP
 40
0.625
  9
$DIMJUST
 70
     0
  9
$DIMSD1
 70
     0
  9
$DIMSD2
 70
     0
  9
$DIMTOLJ
 70
     0
  9
$DIMTZIN
 70
     8
  9
$DIMALTZ
 70
     0
  9
$DIMALTTZ
 70
     0
  9
$DIMUPT
 70
     0
  9
$DIMDEC
 70
     2
  9
$DIMTDEC
 70
     2
  9
$DIMALTU
 70
     2
  9
$DIMALTTD
 70
     3
  9
$DIMTXSTY
  7
Standard
  9
$DIMAUNIT
 70
     0
  9
$DIMADEC
 70
     0
  9
$DIMALTRND
 40
0.0
  9
$DIMAZIN
 70
     0
  9
$DIMDSEP
 70
    44
  9
$DIMATFIT
 70
     3
  9
$DIMFRAC
 70
     0
  9
$DIMLDRBLK
  1

  9
$DIMLUNIT
 70
     2
  9
$DIMLWD
 70
    -2
  9
$DIMLWE
 70
    -2
  9
$DIMTMOVE
 70
     0
  9
$LUNITS
 70
     2
  9
$LUPREC
 70
     4
  9
$SKETCHINC
 40
1.0
  9
$FILLETRAD
 40
10.0
  9
$AUNITS
 70
     0
  9
$AUPREC
 70
     0
  9
$MENU
  1
.
  9
$ELEVATION
 40
0.0
  9
$PELEVATION
 40
0.0
  9
$THICKNESS
 40
0.0
  9
$LIMCHECK
 70
     0
  9
$CHAMFERA
 40
10.0
  9
$CHAMFERB
 40
10.0
  9
$CHAMFERC
 40
20.0
  9
$CHAMFERD
 40
0.0
  9
$SKPOLY
 70
     0
  9
$TDCREATE
 40
2452338.260117939
  9
$TDUCREATE
 40
2452338.218451273
  9
$TDUPDATE
 40
2455601.403102812
  9
$TDUUPDATE
 40
2455601.361436146
  9
$TDINDWG
 40
0.0160526968
  9
$TDUSRTIMER
 40
0.0160526968
  9
$USRTIMER
 70
     1
  9
$ANGBASE
 50
0.0
  9
$ANGDIR
 70
     0
  9
$PDMODE
 70
     0
  9
$PDSIZE
 40
0.0
  9
$PLINEWID
 40
0.0
  9
$SPLFRAME
 70
     0
  9
$SPLINETYPE
 70
     6
  9
$SPLINESEGS
 70
     8
  9
$HANDSEED
  5
42A
  9
$SURFTAB1
 70
     6
  9
$SURFTAB2
 70
     6
  9
$SURFTYPE
 70
     6
  9
$SURFU
 70
     6
  9
$SURFV
 70
     6
  9
$UCSBASE
  2

  9
$UCSNAME
  2

  9
$UCSORG
 10
0.0
 20
0.0
 30
0.0
  9
$UCSXDIR
 10
1.0
 20
0.0
 30
0.0
  9
$UCSYDIR
 10
0.0
 20
1.0
 30
0.0
  9
$UCSORTHOREF
  2

  9
$UCSORTHOVIEW
 70
     0
  9
$UCSORGTOP
 10
0.0
 20
0.0
 30
0.0
  9
$UCSORGBOTTOM
 10
0.0
 20
0.0
 30
0.0
  9
$UCSORGLEFT
 10
0.0
 20
0.0
 30
0.0
  9
$UCSORGRIGHT
 10
0.0
 20
0.0
 30
0.0
  9
$UCSORGFRONT
 10
0.0
 20
0.0
 30
0.0
  9
$UCSORGBACK
 10
0.0
 20
0.0
 30
0.0
  9
$PUCSBASE
  2

  9
$PUCSNAME
  2

  9
$PUCSORG
 10
0.0
 20
0.0
 30
0.0
  9
$PUCSXDIR
 10
1.0
 20
0.0
 30
0.0
  9
$PUCSYDIR
 10
0.0
 20
1.0
 30
0.0
  9
$PUCSORTHOREF
  2

  9
$PUCSORTHOVIEW
 70
     0
  9
$PUCSORGTOP
 10
0.0
 20
0.0
 30
0.0
  9
$PUCSORGBOTTOM
 10
0.0
 20
0.0
 30
0.0
  9
$PUCSORGLEFT
 10
0.0
 20
0.0
 30
0.0
  9
$PUCSORGRIGHT
 10
0.0
 20
0.0
 30
0.0
  9
$PUCSORGFRONT
 10
0.0
 20
0.0
 30
0.0
  9
$PUCSORGBACK
 10
0.0
 20
0.0
 30
0.0
  9
$USERI1
 70
     0
  9
$USERI2
 70
     0
  9
$USERI3
 70
     0
  9
$USERI4
 70
     0
  9
$USERI5
 70
     0
  9
$USERR1
 40
0.0
  9
$USERR2
 40
0.0
  9
$USERR3
 40
0.0
  9
$USERR4
 40
0.0
  9
$USERR5
 40
0.0
  9
$WORLDVIEW
 70
     1
  9
$SHADEDGE
 70
     3
  9
$SHADEDIF
 70
    70
  9
$TILEMODE
 70
     1
  9
$MAXACTVP
 70
    48
  9
$PINSBASE
 10
0.0
 20
0.0
 30
0.0
  9
$PLIMCHECK
 70
     0
  9
$PEXTMIN
 10
1.000000000000000E+20
 20
1.000000000000000E+20
 30
1.000000000000000E+20
  9
$PEXTMAX
 10
-1.000000000000000E+20
 20
-1.000000000000000E+20
 30
-1.000000000000000E+20
  9
$PLIMMIN
 10
0.0
 20
0.0
  9
$PLIMMAX
 10
420.0
 20
297.0
  9
$UNITMODE
 70
     0
  9
$VISRETAIN
 70
     1
  9
$PLINEGEN
 70
     0
  9
$PSLTSCALE
 70
     1
  9
$TREEDEPTH
 70
  3020
  9
$CMLSTYLE
  2
Standard
  9
$CMLJUST
 70
     0
  9
$CMLSCALE
 40
20.0
  9
$PROXYGRAPHICS
 70
     1
  9
$MEASUREMENT
 70
     1
  9
$CELWEIGHT
370
    -1
  9
$ENDCAPS
280
     0
  9
$JOINSTYLE
280
     0
  9
$LWDISPLAY
290
     0
  9
$INSUNITS
 70
     4
  9
$HYPERLINKBASE
  1

  9
$STYLESHEET
  1

  9
$XEDIT
290
     1
  9
$CEPSNTYPE
380
     0
  9
$PSTYLEMODE
290
     1
  9
$FINGERPRINTGUID
  2
{F79305CF-4213-496C-9EC7-4A59ECB80307}
  9
$VERSIONGUID
  2
{34850564-776A-42DC-A095-D67AC126E548}
  9
$EXTNAMES
290
     1
  9
$PSVPSCALE
 40
0.0
  9
$OLESTARTUP
290
     0
  0
ENDSEC
  0
SECTION
  2
CLASSES
  0
CLASS
  1
ACDBDICTIONARYWDFLT
  2
AcDbDictionaryWithDefault
  3
AutoCAD 2000
 90
        0
280
     0
281
     0
  0
CLASS
  1
ACDBPLACEHOLDER
  2
AcDbPlaceHolder
  3
AutoCAD 2000
 90
        0
280
     0
281
     0
  0
CLASS
  1
LAYOUT
  2
AcDbLayout
  3
AutoCAD 2000
 90
        0
280
     0
281
     0
  0
CLASS
  1
LONG_TRANSACTION
  2
AcDbLongTransaction
  3
AutoCAD 2000
 90
    32768
280
     0
281
     0
  0
CLASS
  1
LWPOLYLINE
  2
AcDbPolyline
  3
AutoCAD 2000
 90
    32768
280
     0
281
     1
  0
CLASS
  1
HATCH
  2
AcDbHatch
  3
AutoCAD 2000
 90
    32768
280
     0
281
     1
  0
CLASS
  1
XRECORD
  2
AcDbXrecord
  3
AutoCAD 2000
 90
    32768
280
     0
281
     0
  0
CLASS
  1
DICTIONARYVAR
  2
AcDbDictionaryVar
  3
AutoCAD 2000
 90
        0
280
     0
281
     0
  0
ENDSEC
  0
SECTION
  2
TABLES
  0
TABLE
  2
VPORT
  5
8
330
0
100
AcDbSymbolTable
 70
     2
  0
VPORT
  5
429
330
8
100
AcDbSymbolTableRecord
100
AcDbViewportTableRecord
  2
*Active
 70
     0
 10
0.0
 20
0.0
 11
1.0
 21
1.0
 12
590.1029915910404
 22
281.207020588654
 13
0.0
 23
0.0
 14
10.0
 24
10.0
 15
10.0
 25
10.0
 16
0.0
 26
0.0
 36
1.0
 17
0.0
 27
0.0
 37
0.0
 40
970.507161195518
 41
2.031862745098039
 42
50.0
 43
0.0
 44
0.0
 50
0.0
 51
0.0
 71
     0
 72
   100
 73
     1
 74
     3
 75
     0
 76
     0
 77
     0
 78
     0
281
     0
 65
     1
110
0.0
120
0.0
130
0.0
111
1.0
121
0.0
131
0.0
112
0.0
122
1.0
132
0.0
 79
     0
146
0.0
  0
ENDTAB
  0
TABLE
  2
LTYPE
  5
5
330
0
100
AcDbSymbolTable
 70
     1
  0
LTYPE
  5
14
330
5
100
AcDbSymbolTableRecord
100
AcDbLinetypeTableRecord
  2
ByBlock
 70
     0
  3

 72
    65
 73
     0
 40
0.0
  0
LTYPE
  5
15
330
5
100
AcDbSymbolTableRecord
100
AcDbLinetypeTableRecord
  2
ByLayer
 70
     0
  3

 72
    65
 73
     0
 40
0.0
  0
LTYPE
  5
16
330
5
100
AcDbSymbolTableRecord
100
AcDbLinetypeTableRecord
  2
Continuous
 70
     0
  3
Solid line
 72
    65
 73
     0
 40
0.0
  0
ENDTAB
  0
TABLE
  2
LAYER
  5
2
330
0
100
AcDbSymbolTable
 70
     6
  0
LAYER
  5
10
330
2
100
AcDbSymbolTableRecord
100
AcDbLayerTableRecord
  2
0
 70
     0
 62
     7
  6
Continuous
370
    -3
390
F
  0
LAYER
  5
33
330
2
100
AcDbSymbolTableRecord
100
AcDbLayerTableRecord
  2
POPIS
 70
     0
 62
    30
  6
Continuous
370
    -3
390
F
  0
LAYER
  5
34
330
2
100
AcDbSymbolTableRecord
100
AcDbLayerTableRecord
  2
SPOJOVACÍ
 70
     0
 62
   180
  6
Continuous
370
    -3
390
F
  0
LAYER
  5
35
330
2
100
AcDbSymbolTableRecord
100
AcDbLayerTableRecord
  2
CETRIS
 70
     0
 62
     1
  6
Continuous
370
    -3
390
F
  0
LAYER
  5
36
330
2
100
AcDbSymbolTableRecord
100
AcDbLayerTableRecord
  2
izolace
 70
     0
 62
    73
  6
Continuous
370
    -3
390
F
  0
LAYER
  5
37
330
2
100
AcDbSymbolTableRecord
100
AcDbLayerTableRecord
  2
STAVBA OBRYS
 70
     0
 62
     6
  6
Continuous
370
    -3
390
F
  0
ENDTAB
  0
TABLE
  2
STYLE
  5
3
330
0
100
AcDbSymbolTable
 70
     2
  0
STYLE
  5
11
330
3
100
AcDbSymbolTableRecord
100
AcDbTextStyleTableRecord
  2
Standard
 70
     0
 40
0.0
 41
1.0
 50
0.0
 71
     0
 42
2.5
  3
txt
  4

  0
STYLE
  5
38
330
3
100
AcDbSymbolTableRecord
100
AcDbTextStyleTableRecord
  2
SIMPLEX7
 70
     0
 40
0.0
 41
0.85
 50
0.0
 71
     0
 42
102.0
  3
ARIAL.TTF
  4

1001
ACAD
1000
Arial CE
1071
    60962
  0
ENDTAB
  0
TABLE
  2
VIEW
  5
6
330
0
100
AcDbSymbolTable
 70
     0
  0
ENDTAB
  0
TABLE
  2
UCS
  5
7
330
0
100
AcDbSymbolTable
 70
     0
  0
ENDTAB
  0
TABLE
  2
APPID
  5
9
330
0
100
AcDbSymbolTable
 70
     1
  0
APPID
  5
12
330
9
100
AcDbSymbolTableRecord
100
AcDbRegAppTableRecord
  2
ACAD
 70
     0
  0
ENDTAB
  0
TABLE
  2
DIMSTYLE
  5
A
330
0
100
AcDbSymbolTable
 70
     1
100
AcDbDimStyleTable
 71
     0
  0
DIMSTYLE
105
27
330
A
100
AcDbSymbolTableRecord
100
AcDbDimStyleTableRecord
  2
ISO-25
 70
     0
 41
2.5
 42
0.625
 43
3.75
 44
1.25
 73
     0
 74
     0
 77
     1
 78
     8
140
2.5
141
2.5
143
0.03937007874016
147
0.625
171
     3
172
     1
271
     2
272
     2
274
     3
278
    44
283
     0
284
     8
340
11
  0
ENDTAB
  0
TABLE
  2
BLOCK_RECORD
  5
1
330
0
100
AcDbSymbolTable
 70
     2
  0
BLOCK_RECORD
  5
1F
102
{ACAD_XDICTIONARY
360
3CE
102
}
330
1
100
AcDbSymbolTableRecord
100
AcDbBlockTableRecord
  2
*Model_Space
340
22
  0
BLOCK_RECORD
  5
1B
102
{ACAD_XDICTIONARY
360
3D0
102
}
330
1
100
AcDbSymbolTableRecord
100
AcDbBlockTableRecord
  2
*Paper_Space
340
1E
  0
BLOCK_RECORD
  5
23
102
{ACAD_XDICTIONARY
360
3D2
102
}
330
1
100
AcDbSymbolTableRecord
100
AcDbBlockTableRecord
  2
*Paper_Space0
340
26
  0
BLOCK_RECORD
  5
2B
330
1
100
AcDbSymbolTableRecord
100
AcDbBlockTableRecord
  2
E_PUNKT
340
0
102
{BLKREFS
331
206
331
3BF
331
3C2
331
3C8
102
}
  0
ENDTAB
  0
ENDSEC
  0
SECTION
  2
BLOCKS
  0
BLOCK
  5
20
330
1F
100
AcDbEntity
  8
0
100
AcDbBlockBegin
  2
*Model_Space
 70
     0
 10
0.0
 20
0.0
 30
0.0
  3
*Model_Space
  1

  0
ENDBLK
  5
21
330
1F
100
AcDbEntity
  8
0
100
AcDbBlockEnd
  0
BLOCK
  5
1C
330
1B
100
AcDbEntity
 67
     1
  8
0
100
AcDbBlockBegin
  2
*Paper_Space
 70
     0
 10
0.0
 20
0.0
 30
0.0
  3
*Paper_Space
  1

  0
ENDBLK
  5
1D
330
1B
100
AcDbEntity
 67
     1
  8
0
100
AcDbBlockEnd
  0
BLOCK
  5
24
330
23
100
AcDbEntity
  8
0
100
AcDbBlockBegin
  2
*Paper_Space0
 70
     0
 10
0.0
 20
0.0
 30
0.0
  3
*Paper_Space0
  1

  0
ENDBLK
  5
25
330
23
100
AcDbEntity
  8
0
100
AcDbBlockEnd
  0
BLOCK
  5
2D
330
2B
100
AcDbEntity
  8
0
100
AcDbBlockBegin
  2
E_PUNKT
 70
     0
 10
0.0
 20
0.0
 30
0.0
  3
E_PUNKT
  1

  0
LWPOLYLINE
  5
2C
330
2B
100
AcDbEntity
  8
POPIS
100
AcDbPolyline
 90
        2
 70
     1
 43
2.5
 10
1.27761037562675
 20
0.0290683308725193
 42
-1.0
 10
-1.222389624373249
 20
0.0290683308725193
 42
-1.0
  0
ENDBLK
  5
2E
330
2B
100
AcDbEntity
  8
0
100
AcDbBlockEnd
  0
ENDSEC
  0
SECTION
  2
ENTITIES
  0
INSERT
  5
206
330
1F
100
AcDbEntity
  8
POPIS
100
AcDbBlockReference
  2
E_PUNKT
 10
342.3657964512135
 20
-52.55769337821857
 30
0.0
  0
LINE
  5
207
330
1F
100
AcDbEntity
  8
SPOJOVACÍ
  6
Continuous
100
AcDbLine
 10
347.6911324613579
 20
-62.72615443427913
 30
0.0
 11
345.9902865407825
 21
-61.7884034127228
 31
0.0
  0
LINE
  5
208
330
1F
100
AcDbEntity
  8
SPOJOVACÍ
  6
Continuous
100
AcDbLine
 10
337.49082468409
 20
-63.92608121101057
 30
0.0
 11
347.6911324613579
 21
-63.92608121101057
 31
0.0
  0
LINE
  5
209
330
1F
100
AcDbEntity
  8
SPOJOVACÍ
  6
Continuous
100
AcDbLine
 10
347.6911324613579
 20
-63.92608121101057
 30
0.0
 11
347.6911324613579
 21
-62.72615443427913
 31
0.0
  0
LINE
  5
20A
330
1F
100
AcDbEntity
  8
SPOJOVACÍ
  6
Continuous
100
AcDbLine
 10
337.49082468409
 20
-62.72615443427913
 30
0.0
 11
347.6911324613579
 21
-62.72615443427913
 31
0.0
  0
LINE
  5
20B
330
1F
100
AcDbEntity
  8
SPOJOVACÍ
  6
Continuous
100
AcDbLine
 10
340.5687763951104
 20
-47.26384218098519
 30
0.0
 11
344.613180754703
 21
-45.90392516771226
 31
0.0
  0
LINE
  5
20C
330
1F
100
AcDbEntity
  8
SPOJOVACÍ
  6
Continuous
100
AcDbLine
 10
340.5687763951104
 20
-46.66759949583047
 30
0.0
 11
344.613180754703
 21
-45.30768248256481
 31
0.0
  0
LINE
  5
20D
330
1F
100
AcDbEntity
  8
SPOJOVACÍ
  6
Continuous
100
AcDbLine
 10
344.9908321256484
 20
-45.68626403139478
 30
0.0
 11
344.613180754703
 21
-45.90392516771226
 31
0.0
  0
LINE
  5
20E
330
1F
100
AcDbEntity
  8
SPOJOVACÍ
  6
Continuous
100
AcDbLine
 10
344.9908321256484
 20
-45.68626403139478
 30
0.0
 11
344.613180754703
 21
-45.30768248256481
 31
0.0
  0
LINE
  5
20F
330
1F
100
AcDbEntity
  8
SPOJOVACÍ
  6
Continuous
100
AcDbLine
 10
340.1911250197995
 20
-46.88619080785701
 30
0.0
 11
340.5687763951104
 21
-47.26384218098519
 31
0.0
  0
LINE
  5
210
330
1F
100
AcDbEntity
  8
SPOJOVACÍ
  6
Continuous
100
AcDbLine
 10
340.1911250197995
 20
-46.88619080785701
 30
0.0
 11
340.5687763951104
 21
-46.66759949583047
 31
0.0
  0
LINE
  5
211
330
1F
100
AcDbEntity
  8
SPOJOVACÍ
  6
Continuous
100
AcDbLine
 10
340.1911250197995
 20
-46.88619080785701
 30
0.0
 11
344.9908321256484
 21
-45.68626403139478
 31
0.0
  0
LINE
  5
212
330
1F
100
AcDbEntity
  8
SPOJOVACÍ
  6
Continuous
100
AcDbLine
 10
340.5687763951104
 20
-50.38365180022356
 30
0.0
 11
344.613180754703
 21
-49.02466496238321
 31
0.0
  0
LINE
  5
213
330
1F
100
AcDbEntity
  8
SPOJOVACÍ
  6
Continuous
100
AcDbLine
 10
340.5687763951104
 20
-49.78740911506884
 30
0.0
 11
344.613180754703
 21
-48.42842227750498
 31
0.0
  0
LINE
  5
214
330
1F
100
AcDbEntity
  8
SPOJOVACÍ
  6
Continuous
100
AcDbLine
 10
344.9908321256484
 20
-48.80607365035666
 30
0.0
 11
344.613180754703
 21
-49.02466496238321
 31
0.0
  0
LINE
  5
215
330
1F
100
AcDbEntity
  8
SPOJOVACÍ
  6
Continuous
100
AcDbLine
 10
344.9908321256484
 20
-48.80607365035666
 30
0.0
 11
344.613180754703
 21
-48.42842227750498
 31
0.0
  0
LINE
  5
216
330
1F
100
AcDbEntity
  8
SPOJOVACÍ
  6
Continuous
100
AcDbLine
 10
340.1911250197995
 20
-50.00600042709539
 30
0.0
 11
340.5687763951104
 21
-50.38365180022356
 31
0.0
  0
LINE
  5
217
330
1F
100
AcDbEntity
  8
SPOJOVACÍ
  6
Continuous
100
AcDbLine
 10
340.1911250197995
 20
-50.00600042709539
 30
0.0
 11
340.5687763951104
 21
-49.78740911506884
 31
0.0
  0
LINE
  5
218
330
1F
100
AcDbEntity
  8
SPOJOVACÍ
  6
Continuous
100
AcDbLine
 10
340.1911250197995
 20
-50.00600042709539
 30
0.0
 11
344.9908321256484
 21
-48.80607365035666
 31
0.0
  0
LINE
  5
219
330
1F
100
AcDbEntity
  8
SPOJOVACÍ
  6
Continuous
100
AcDbLine
 10
340.5687763951104
 20
-53.50439159488724
 30
0.0
 11
344.613180754703
 21
-52.14447458162158
 31
0.0
  0
LINE
  5
21A
330
1F
100
AcDbEntity
  8
SPOJOVACÍ
  6
Continuous
100
AcDbLine
 10
340.5687763951104
 20
-52.908148910009
 30
0.0
 11
344.613180754703
 21
-51.54823189646686
 31
0.0
  0
LINE
  5
21B
330
1F
100
AcDbEntity
  8
SPOJOVACÍ
  6
Continuous
100
AcDbLine
 10
344.9908321256484
 20
-51.92588326959503
 30
0.0
 11
344.613180754703
 21
-52.14447458162158
 31
0.0
  0
LINE
  5
21C
330
1F
100
AcDbEntity
  8
SPOJOVACÍ
  6
Continuous
100
AcDbLine
 10
344.9908321256484
 20
-51.92588326959503
 30
0.0
 11
344.613180754703
 21
-51.54823189646686
 31
0.0
  0
LINE
  5
21D
330
1F
100
AcDbEntity
  8
SPOJOVACÍ
  6
Continuous
100
AcDbLine
 10
340.1911250197995
 20
-53.12581004605727
 30
0.0
 11
340.5687763951104
 21
-53.50439159488724
 31
0.0
  0
LINE
  5
21E
330
1F
100
AcDbEntity
  8
SPOJOVACÍ
  6
Continuous
100
AcDbLine
 10
340.1911250197995
 20
-53.12581004605727
 30
0.0
 11
340.5687763951104
 21
-52.908148910009
 31
0.0
  0
LINE
  5
21F
330
1F
100
AcDbEntity
  8
SPOJOVACÍ
  6
Continuous
100
AcDbLine
 10
340.1911250197995
 20
-53.12581004605727
 30
0.0
 11
344.9908321256484
 21
-51.92588326959503
 31
0.0
  0
LINE
  5
220
330
1F
100
AcDbEntity
  8
SPOJOVACÍ
  6
Continuous
100
AcDbLine
 10
343.9406636562748
 20
-48.66468692949547
 30
0.0
 11
343.9406636562748
 21
-46.13646911662636
 31
0.0
  0
LINE
  5
221
330
1F
100
AcDbEntity
  8
SPOJOVACÍ
  6
Continuous
100
AcDbLine
 10
343.9406636562748
 20
-51.77984566967916
 30
0.0
 11
343.9406636562748
 21
-49.2609296146502
 31
0.0
  0
LINE
  5
222
330
1F
100
AcDbEntity
  8
SPOJOVACÍ
  6
Continuous
100
AcDbLine
 10
341.2412934935387
 20
-49.57067815472237
 30
0.0
 11
341.2412934935387
 21
-47.04990174801332
 31
0.0
  0
LINE
  5
223
330
1F
100
AcDbEntity
  8
SPOJOVACÍ
  6
Continuous
100
AcDbLine
 10
341.2412934935387
 20
-52.69327830106613
 30
0.0
 11
341.2412934935387
 21
-50.17436224603716
 31
0.0
  0
LINE
  5
224
330
1F
100
AcDbEntity
  8
SPOJOVACÍ
  6
Continuous
100
AcDbLine
 10
341.2412934935387
 20
-57.32648393992258
 30
0.0
 11
341.2412934935387
 21
-53.28859081024257
 31
0.0
  0
LINE
  5
225
330
1F
100
AcDbEntity
  8
SPOJOVACÍ
  6
Continuous
100
AcDbLine
 10
343.9406636562748
 20
-57.32648393992258
 30
0.0
 11
343.9406636562748
 21
-52.38352976099395
 31
0.0
  0
LINE
  5
226
330
1F
100
AcDbEntity
  8
SPOJOVACÍ
  6
Continuous
100
AcDbLine
 10
337.49082468409
 20
-62.72615443427913
 30
0.0
 11
338.8405097676409
 21
-61.98201379780494
 31
0.0
  0
LINE
  5
227
330
1F
100
AcDbEntity
  8
SPOJOVACÍ
  6
Continuous
100
AcDbLine
 10
338.8405097676409
 20
-61.98201379780494
 30
0.0
 11
339.9511396679995
 21
-60.91324180839274
 31
0.0
  0
LINE
  5
228
330
1F
100
AcDbEntity
  8
SPOJOVACÍ
  6
Continuous
100
AcDbLine
 10
339.9511396679995
 20
-60.91324180839274
 30
0.0
 11
340.7473701473177
 21
-59.59425253009522
 31
0.0
  0
LINE
  5
229
330
1F
100
AcDbEntity
  8
SPOJOVACÍ
  6
Continuous
100
AcDbLine
 10
340.7473701473177
 20
-59.59425253009522
 30
0.0
 11
341.175251011617
 21
-58.11341266304498
 31
0.0
  0
LINE
  5
22A
330
1F
100
AcDbEntity
  8
SPOJOVACÍ
  6
Continuous
100
AcDbLine
 10
341.175251011617
 20
-58.11341266304498
 30
0.0
 11
341.2412934935387
 21
-57.32648393992258
 31
0.0
  0
LINE
  5
22B
330
1F
100
AcDbEntity
  8
SPOJOVACÍ
  6
Continuous
100
AcDbLine
 10
337.49082468409
 20
-63.92608121101057
 30
0.0
 11
337.49082468409
 21
-62.72615443427913
 31
0.0
  0
LINE
  5
22C
330
1F
100
AcDbEntity
  8
SPOJOVACÍ
  6
Continuous
100
AcDbLine
 10
343.9406636562748
 20
-57.32648393992258
 30
0.0
 11
344.1676265471583
 21
-58.85011189335182
 31
0.0
  0
LINE
  5
22D
330
1F
100
AcDbEntity
  8
SPOJOVACÍ
  6
Continuous
100
AcDbLine
 10
344.1676265471583
 20
-58.85011189335182
 30
0.0
 11
344.7806123963059
 21
-60.26397910305513
 31
0.0
  0
LINE
  5
22E
330
1F
100
AcDbEntity
  8
SPOJOVACÍ
  6
Continuous
100
AcDbLine
 10
344.7806123963059
 20
-60.26397910305513
 30
0.0
 11
345.9902865407825
 21
-61.7884034127228
 31
0.0
  0
LINE
  5
22F
330
1F
100
AcDbEntity
  8
SPOJOVACÍ
  6
Continuous
100
AcDbLine
 10
340.5687763951104
 20
-41.02422294305415
 30
0.0
 11
344.613180754703
 21
-39.66430592951201
 31
0.0
  0
LINE
  5
230
330
1F
100
AcDbEntity
  8
SPOJOVACÍ
  6
Continuous
100
AcDbLine
 10
340.5687763951104
 20
-40.42798025789943
 30
0.0
 11
344.613180754703
 21
-39.06806324435729
 31
0.0
  0
LINE
  5
231
330
1F
100
AcDbEntity
  8
SPOJOVACÍ
  6
Continuous
100
AcDbLine
 10
344.9908321256484
 20
-39.44571461748546
 30
0.0
 11
344.613180754703
 21
-39.66430592951201
 31
0.0
  0
LINE
  5
232
330
1F
100
AcDbEntity
  8
SPOJOVACÍ
  6
Continuous
100
AcDbLine
 10
344.9908321256484
 20
-39.44571461748546
 30
0.0
 11
344.613180754703
 21
-39.06806324435729
 31
0.0
  0
LINE
  5
233
330
1F
100
AcDbEntity
  8
SPOJOVACÍ
  6
Continuous
100
AcDbLine
 10
340.1911250197995
 20
-40.6456413939477
 30
0.0
 11
340.5687763951104
 21
-41.02422294305415
 31
0.0
  0
LINE
  5
234
330
1F
100
AcDbEntity
  8
SPOJOVACÍ
  6
Continuous
100
AcDbLine
 10
340.1911250197995
 20
-40.6456413939477
 30
0.0
 11
340.5687763951104
 21
-40.42798025789943
 31
0.0
  0
LINE
  5
235
330
1F
100
AcDbEntity
  8
SPOJOVACÍ
  6
Continuous
100
AcDbLine
 10
340.1911250197995
 20
-40.6456413939477
 30
0.0
 11
344.9908321256484
 21
-39.44571461748546
 31
0.0
  0
LINE
  5
236
330
1F
100
AcDbEntity
  8
SPOJOVACÍ
  6
Continuous
100
AcDbLine
 10
340.5687763951104
 20
-44.14403256201604
 30
0.0
 11
344.613180754703
 21
-42.78411554847389
 31
0.0
  0
LINE
  5
237
330
1F
100
AcDbEntity
  8
SPOJOVACÍ
  6
Continuous
100
AcDbLine
 10
340.5687763951104
 20
-43.54778987686859
 30
0.0
 11
344.613180754703
 21
-42.18787286359566
 31
0.0
  0
LINE
  5
238
330
1F
100
AcDbEntity
  8
SPOJOVACÍ
  6
Continuous
100
AcDbLine
 10
344.9908321256484
 20
-42.56645441242563
 30
0.0
 11
344.613180754703
 21
-42.78411554847389
 31
0.0
  0
LINE
  5
239
330
1F
100
AcDbEntity
  8
SPOJOVACÍ
  6
Continuous
100
AcDbLine
 10
344.9908321256484
 20
-42.56645441242563
 30
0.0
 11
344.613180754703
 21
-42.18787286359566
 31
0.0
  0
LINE
  5
23A
330
1F
100
AcDbEntity
  8
SPOJOVACÍ
  6
Continuous
100
AcDbLine
 10
340.1911250197995
 20
-43.76638118888786
 30
0.0
 11
340.5687763951104
 21
-44.14403256201604
 31
0.0
  0
LINE
  5
23B
330
1F
100
AcDbEntity
  8
SPOJOVACÍ
  6
Continuous
100
AcDbLine
 10
340.1911250197995
 20
-43.76638118888786
 30
0.0
 11
340.5687763951104
 21
-43.54778987686859
 31
0.0
  0
LINE
  5
23C
330
1F
100
AcDbEntity
  8
SPOJOVACÍ
  6
Continuous
100
AcDbLine
 10
340.1911250197995
 20
-43.76638118888786
 30
0.0
 11
344.9908321256484
 21
-42.56645441242563
 31
0.0
  0
LINE
  5
23D
330
1F
100
AcDbEntity
  8
SPOJOVACÍ
  6
Continuous
100
AcDbLine
 10
341.5742964307978
 20
-31.5401505290165
 30
0.0
 11
343.7285835722545
 21
-31.22947181324252
 31
0.0
  0
LINE
  5
23E
330
1F
100
AcDbEntity
  8
SPOJOVACÍ
  6
Continuous
100
AcDbLine
 10
341.9519478017432
 20
-31.91780190214467
 30
0.0
 11
343.3509322013092
 21
-31.44713294956
 31
0.0
  0
LINE
  5
23F
330
1F
100
AcDbEntity
  8
SPOJOVACÍ
  6
Continuous
100
AcDbLine
 10
341.9519478017432
 20
-31.32155921699723
 30
0.0
 11
343.3509322013092
 21
-30.85089026441255
 31
0.0
  0
LINE
  5
240
330
1F
100
AcDbEntity
  8
SPOJOVACÍ
  6
Continuous
100
AcDbLine
 10
343.7285835722545
 20
-31.22947181324252
 30
0.0
 11
343.3509322013092
 21
-31.44713294956
 31
0.0
  0
LINE
  5
241
330
1F
100
AcDbEntity
  8
SPOJOVACÍ
  6
Continuous
100
AcDbLine
 10
343.7285835722545
 20
-31.22947181324252
 30
0.0
 11
343.3509322013092
 21
-30.85089026441255
 31
0.0
  0
LINE
  5
242
330
1F
100
AcDbEntity
  8
SPOJOVACÍ
  6
Continuous
100
AcDbLine
 10
341.5742964307978
 20
-31.5401505290165
 30
0.0
 11
341.9519478017432
 21
-31.91780190214467
 31
0.0
  0
LINE
  5
243
330
1F
100
AcDbEntity
  8
SPOJOVACÍ
  6
Continuous
100
AcDbLine
 10
341.5742964307978
 20
-31.5401505290165
 30
0.0
 11
341.9519478017432
 21
-31.32155921699723
 31
0.0
  0
LINE
  5
244
330
1F
100
AcDbEntity
  8
SPOJOVACÍ
  6
Continuous
100
AcDbLine
 10
341.0096797203264
 20
-34.55392010733612
 30
0.0
 11
344.1257686367575
 21
-33.92047039056615
 31
0.0
  0
LINE
  5
245
330
1F
100
AcDbEntity
  8
SPOJOVACÍ
  6
Continuous
100
AcDbLine
 10
341.3873310956373
 20
-34.93250165644258
 30
0.0
 11
343.7481172658122
 21
-34.13813152661441
 31
0.0
  0
LINE
  5
246
330
1F
100
AcDbEntity
  8
SPOJOVACÍ
  6
Continuous
100
AcDbLine
 10
341.3873310956373
 20
-34.33625897128786
 30
0.0
 11
343.7481172658122
 21
-33.54188884173618
 31
0.0
  0
LINE
  5
247
330
1F
100
AcDbEntity
  8
SPOJOVACÍ
  6
Continuous
100
AcDbLine
 10
344.1257686367575
 20
-33.92047039056615
 30
0.0
 11
343.7481172658122
 21
-34.13813152661441
 31
0.0
  0
LINE
  5
248
330
1F
100
AcDbEntity
  8
SPOJOVACÍ
  6
Continuous
100
AcDbLine
 10
344.1257686367575
 20
-33.92047039056615
 30
0.0
 11
343.7481172658122
 21
-33.54188884173618
 31
0.0
  0
LINE
  5
249
330
1F
100
AcDbEntity
  8
SPOJOVACÍ
  6
Continuous
100
AcDbLine
 10
341.0096797203264
 20
-34.55392010733612
 30
0.0
 11
341.3873310956373
 21
-34.93250165644258
 31
0.0
  0
LINE
  5
24A
330
1F
100
AcDbEntity
  8
SPOJOVACÍ
  6
Continuous
100
AcDbLine
 10
341.0096797203264
 20
-34.55392010733612
 30
0.0
 11
341.3873310956373
 21
-34.33625897128786
 31
0.0
  0
LINE
  5
24B
330
1F
100
AcDbEntity
  8
SPOJOVACÍ
  6
Continuous
100
AcDbLine
 10
340.4450630142205
 20
-37.56861986163403
 30
0.0
 11
344.5703926669634
 21
-36.59565597932942
 31
0.0
  0
LINE
  5
24C
330
1F
100
AcDbEntity
  8
SPOJOVACÍ
  6
Continuous
100
AcDbLine
 10
340.8236445625048
 20
-37.9462712347622
 30
0.0
 11
344.192741296018
 21
-36.81331711537768
 31
0.0
  0
LINE
  5
24D
330
1F
100
AcDbEntity
  8
SPOJOVACÍ
  6
Continuous
100
AcDbLine
 10
340.8236445625048
 20
-37.35002854960749
 30
0.0
 11
344.192741296018
 21
-36.21707443022296
 31
0.0
  0
LINE
  5
24E
330
1F
100
AcDbEntity
  8
SPOJOVACÍ
  6
Continuous
100
AcDbLine
 10
344.5703926669634
 20
-36.59565597932942
 30
0.0
 11
344.192741296018
 21
-36.81331711537768
 31
0.0
  0
LINE
  5
24F
330
1F
100
AcDbEntity
  8
SPOJOVACÍ
  6
Continuous
100
AcDbLine
 10
344.5703926669634
 20
-36.59565597932942
 30
0.0
 11
344.192741296018
 21
-36.21707443022296
 31
0.0
  0
LINE
  5
250
330
1F
100
AcDbEntity
  8
SPOJOVACÍ
  6
Continuous
100
AcDbLine
 10
340.4450630142205
 20
-37.56861986163403
 30
0.0
 11
340.8236445625048
 21
-37.9462712347622
 31
0.0
  0
LINE
  5
251
330
1F
100
AcDbEntity
  8
SPOJOVACÍ
  6
Continuous
100
AcDbLine
 10
340.4450630142205
 20
-37.56861986163403
 30
0.0
 11
340.8236445625048
 21
-37.35002854960749
 31
0.0
  0
LINE
  5
252
330
1F
100
AcDbEntity
  8
SPOJOVACÍ
  6
Continuous
100
AcDbLine
 10
343.6950972448071
 20
-36.99005051672702
 30
0.0
 11
343.9406636562748
 21
-38.96109302801324
 31
0.0
  0
LINE
  5
253
330
1F
100
AcDbEntity
  8
SPOJOVACÍ
  6
Continuous
100
AcDbLine
 10
343.3565132522458
 20
-34.28323895082849
 30
0.0
 11
343.6234737075833
 21
-36.41985275368188
 31
0.0
  0
LINE
  5
254
330
1F
100
AcDbEntity
  8
SPOJOVACÍ
  6
Continuous
100
AcDbLine
 10
343.0169990910767
 20
-31.56619545139529
 30
0.0
 11
343.2848897193875
 21
-33.71118083637975
 31
0.0
  0
LINE
  5
255
330
1F
100
AcDbEntity
  8
SPOJOVACÍ
  6
Continuous
100
AcDbLine
 10
342.2049556188253
 20
-31.24993568086483
 30
0.0
 11
342.590978572724
 21
-28.16082186305994
 31
0.0
  0
LINE
  5
256
330
1F
100
AcDbEntity
  8
SPOJOVACÍ
  6
Continuous
100
AcDbLine
 10
341.8375361811454
 20
-34.19115154707379
 30
0.0
 11
342.1277510262993
 21
-31.87036293671826
 31
0.0
  0
LINE
  5
257
330
1F
100
AcDbEntity
  8
SPOJOVACÍ
  6
Continuous
100
AcDbLine
 10
341.4682563887877
 20
-37.14352952280296
 30
0.0
 11
341.7584712383072
 21
-34.82181073673837
 31
0.0
  0
LINE
  5
258
330
1F
100
AcDbEntity
  8
SPOJOVACÍ
  6
Continuous
100
AcDbLine
 10
342.590978572724
 20
-28.16082186305994
 30
0.0
 11
342.9453755538529
 21
-30.99692786432842
 31
0.0
  0
LINE
  5
259
330
1F
100
AcDbEntity
  8
SPOJOVACÍ
  6
Continuous
100
AcDbLine
 10
341.2412934935387
 20
-38.96109302801324
 30
0.0
 11
341.3910517962617
 21
-37.76395677865639
 31
0.0
  0
LINE
  5
25A
330
1F
100
AcDbEntity
  8
SPOJOVACÍ
  6
Continuous
100
AcDbLine
 10
343.9406636562748
 20
-39.29781666589679
 30
0.0
 11
343.9406636562748
 21
-38.96109302801324
 31
0.0
  0
LINE
  5
25B
330
1F
100
AcDbEntity
  8
SPOJOVACÍ
  6
Continuous
100
AcDbLine
 10
343.9406636562748
 20
-42.42041681250976
 30
0.0
 11
343.9406636562748
 21
-39.90150075748079
 31
0.0
  0
LINE
  5
25C
330
1F
100
AcDbEntity
  8
SPOJOVACÍ
  6
Continuous
100
AcDbLine
 10
341.2412934935387
 20
-40.20845876990188
 30
0.0
 11
341.2412934935387
 21
-38.96109302801324
 31
0.0
  0
LINE
  5
25D
330
1F
100
AcDbEntity
  8
SPOJOVACÍ
  6
Continuous
100
AcDbLine
 10
341.2412934935387
 20
-43.32268733438377
 30
0.0
 11
341.2412934935387
 21
-40.8047014550566
 31
0.0
  0
LINE
  5
25E
330
1F
100
AcDbEntity
  8
SPOJOVACÍ
  6
Continuous
100
AcDbLine
 10
343.9406636562748
 20
-45.54208678315172
 30
0.0
 11
343.9406636562748
 21
-43.02131037644267
 31
0.0
  0
LINE
  5
25F
330
1F
100
AcDbEntity
  8
SPOJOVACÍ
  6
Continuous
100
AcDbLine
 10
341.2412934935387
 20
-46.45551941453868
 30
0.0
 11
341.2412934935387
 21
-43.92730160166957
 31
0.0
  0
LINE
  5
260
330
1F
100
AcDbEntity
  8
SPOJOVACÍ
  6
Continuous
100
AcDbLine
 10
341.2412934935387
 20
329.3390965859844
 30
0.0
 11
341.2412934935387
 21
326.8108787731152
 31
0.0
  0
LINE
  5
261
330
1F
100
AcDbEntity
  8
SPOJOVACÍ
  6
Continuous
100
AcDbLine
 10
343.9406636562748
 20
328.4256639545974
 30
0.0
 11
343.9406636562748
 21
325.9048875478883
 31
0.0
  0
LINE
  5
262
330
1F
100
AcDbEntity
  8
SPOJOVACÍ
  6
Continuous
100
AcDbLine
 10
341.2412934935387
 20
326.2062645058295
 30
0.0
 11
341.2412934935387
 21
323.6882786265023
 31
0.0
  0
LINE
  5
263
330
1F
100
AcDbEntity
  8
SPOJOVACÍ
  6
Continuous
100
AcDbLine
 10
341.2412934935387
 20
323.0920359413476
 30
0.0
 11
341.2412934935387
 21
321.8446701994589
 31
0.0
  0
LINE
  5
264
330
1F
100
AcDbEntity
  8
SPOJOVACÍ
  6
Continuous
100
AcDbLine
 10
343.9406636562748
 20
325.3039939839554
 30
0.0
 11
343.9406636562748
 21
322.7850779289265
 31
0.0
  0
LINE
  5
265
330
1F
100
AcDbEntity
  8
SPOJOVACÍ
  6
Continuous
100
AcDbLine
 10
343.9406636562748
 20
322.1813938373425
 30
0.0
 11
343.9406636562748
 21
321.8446701994589
 31
0.0
  0
LINE
  5
266
330
1F
100
AcDbEntity
  8
SPOJOVACÍ
  6
Continuous
100
AcDbLine
 10
341.2412934935387
 20
321.8446701994589
 30
0.0
 11
341.3910517962617
 21
320.6475339501021
 31
0.0
  0
LINE
  5
267
330
1F
100
AcDbEntity
  8
SPOJOVACÍ
  6
Continuous
100
AcDbLine
 10
342.590978572724
 20
311.0443990345056
 30
0.0
 11
342.9453755538529
 21
313.8805050357741
 31
0.0
  0
LINE
  5
268
330
1F
100
AcDbEntity
  8
SPOJOVACÍ
  6
Continuous
100
AcDbLine
 10
341.4682563887877
 20
320.0271066942486
 30
0.0
 11
341.7584712383072
 21
317.7053879081841
 31
0.0
  0
LINE
  5
269
330
1F
100
AcDbEntity
  8
SPOJOVACÍ
  6
Continuous
100
AcDbLine
 10
341.8375361811454
 20
317.0747287185195
 30
0.0
 11
342.1277510262993
 21
314.7539401081639
 31
0.0
  0
LINE
  5
26A
330
1F
100
AcDbEntity
  8
SPOJOVACÍ
  6
Continuous
100
AcDbLine
 10
342.2049556188253
 20
314.1335128523105
 30
0.0
 11
342.590978572724
 21
311.0443990345056
 31
0.0
  0
LINE
  5
26B
330
1F
100
AcDbEntity
  8
SPOJOVACÍ
  6
Continuous
100
AcDbLine
 10
343.0169990910767
 20
314.449772622841
 30
0.0
 11
343.2848897193875
 21
316.5947580078254
 31
0.0
  0
LINE
  5
26C
330
1F
100
AcDbEntity
  8
SPOJOVACÍ
  6
Continuous
100
AcDbLine
 10
343.3565132522458
 20
317.1668161222742
 30
0.0
 11
343.6234737075833
 21
319.3034299251276
 31
0.0
  0
LINE
  5
26D
330
1F
100
AcDbEntity
  8
SPOJOVACÍ
  6
Continuous
100
AcDbLine
 10
343.6950972448071
 20
319.8736276881727
 30
0.0
 11
343.9406636562748
 21
321.8446701994589
 31
0.0
  0
LINE
  5
26E
330
1F
100
AcDbEntity
  8
SPOJOVACÍ
  6
Continuous
100
AcDbLine
 10
340.4450630142205
 20
320.4521970330797
 30
0.0
 11
340.8236445625048
 21
320.2336057210532
 31
0.0
  0
LINE
  5
26F
330
1F
100
AcDbEntity
  8
SPOJOVACÍ
  6
Continuous
100
AcDbLine
 10
340.4450630142205
 20
320.4521970330797
 30
0.0
 11
340.8236445625048
 21
320.8298484062079
 31
0.0
  0
LINE
  5
270
330
1F
100
AcDbEntity
  8
SPOJOVACÍ
  6
Continuous
100
AcDbLine
 10
344.5703926669634
 20
319.4792331507751
 30
0.0
 11
344.192741296018
 21
319.1006516016686
 31
0.0
  0
LINE
  5
271
330
1F
100
AcDbEntity
  8
SPOJOVACÍ
  6
Continuous
100
AcDbLine
 10
344.5703926669634
 20
319.4792331507751
 30
0.0
 11
344.192741296018
 21
319.6968942868234
 31
0.0
  0
LINE
  5
272
330
1F
100
AcDbEntity
  8
SPOJOVACÍ
  6
Continuous
100
AcDbLine
 10
340.8236445625048
 20
320.2336057210532
 30
0.0
 11
344.192741296018
 21
319.1006516016686
 31
0.0
  0
LINE
  5
273
330
1F
100
AcDbEntity
  8
SPOJOVACÍ
  6
Continuous
100
AcDbLine
 10
340.8236445625048
 20
320.8298484062079
 30
0.0
 11
344.192741296018
 21
319.6968942868234
 31
0.0
  0
LINE
  5
274
330
1F
100
AcDbEntity
  8
SPOJOVACÍ
  6
Continuous
100
AcDbLine
 10
340.4450630142205
 20
320.4521970330797
 30
0.0
 11
344.5703926669634
 21
319.4792331507751
 31
0.0
  0
LINE
  5
275
330
1F
100
AcDbEntity
  8
SPOJOVACÍ
  6
Continuous
100
AcDbLine
 10
341.0096797203264
 20
317.4374972787818
 30
0.0
 11
341.3873310956373
 21
317.2198361427335
 31
0.0
  0
LINE
  5
276
330
1F
100
AcDbEntity
  8
SPOJOVACÍ
  6
Continuous
100
AcDbLine
 10
341.0096797203264
 20
317.4374972787818
 30
0.0
 11
341.3873310956373
 21
317.8160788278883
 31
0.0
  0
LINE
  5
277
330
1F
100
AcDbEntity
  8
SPOJOVACÍ
  6
Continuous
100
AcDbLine
 10
344.1257686367575
 20
316.8040475620118
 30
0.0
 11
343.7481172658122
 21
316.4254660131819
 31
0.0
  0
LINE
  5
278
330
1F
100
AcDbEntity
  8
SPOJOVACÍ
  6
Continuous
100
AcDbLine
 10
344.1257686367575
 20
316.8040475620118
 30
0.0
 11
343.7481172658122
 21
317.0217086980601
 31
0.0
  0
LINE
  5
279
330
1F
100
AcDbEntity
  8
SPOJOVACÍ
  6
Continuous
100
AcDbLine
 10
341.3873310956373
 20
317.2198361427335
 30
0.0
 11
343.7481172658122
 21
316.4254660131819
 31
0.0
  0
LINE
  5
27A
330
1F
100
AcDbEntity
  8
SPOJOVACÍ
  6
Continuous
100
AcDbLine
 10
341.3873310956373
 20
317.8160788278883
 30
0.0
 11
343.7481172658122
 21
317.0217086980601
 31
0.0
  0
LINE
  5
27B
330
1F
100
AcDbEntity
  8
SPOJOVACÍ
  6
Continuous
100
AcDbLine
 10
341.0096797203264
 20
317.4374972787818
 30
0.0
 11
344.1257686367575
 21
316.8040475620118
 31
0.0
  0
LINE
  5
27C
330
1F
100
AcDbEntity
  8
SPOJOVACÍ
  6
Continuous
100
AcDbLine
 10
341.5742964307978
 20
314.4237277004622
 30
0.0
 11
341.9519478017432
 21
314.2051363884429
 31
0.0
  0
LINE
  5
27D
330
1F
100
AcDbEntity
  8
SPOJOVACÍ
  6
Continuous
100
AcDbLine
 10
341.5742964307978
 20
314.4237277004622
 30
0.0
 11
341.9519478017432
 21
314.8013790735904
 31
0.0
  0
LINE
  5
27E
330
1F
100
AcDbEntity
  8
SPOJOVACÍ
  6
Continuous
100
AcDbLine
 10
343.7285835722545
 20
314.1130489846882
 30
0.0
 11
343.3509322013092
 21
313.7344674358582
 31
0.0
  0
LINE
  5
27F
330
1F
100
AcDbEntity
  8
SPOJOVACÍ
  6
Continuous
100
AcDbLine
 10
343.7285835722545
 20
314.1130489846882
 30
0.0
 11
343.3509322013092
 21
314.3307101210057
 31
0.0
  0
LINE
  5
280
330
1F
100
AcDbEntity
  8
SPOJOVACÍ
  6
Continuous
100
AcDbLine
 10
341.9519478017432
 20
314.2051363884429
 30
0.0
 11
343.3509322013092
 21
313.7344674358582
 31
0.0
  0
LINE
  5
281
330
1F
100
AcDbEntity
  8
SPOJOVACÍ
  6
Continuous
100
AcDbLine
 10
341.9519478017432
 20
314.8013790735904
 30
0.0
 11
343.3509322013092
 21
314.3307101210057
 31
0.0
  0
LINE
  5
282
330
1F
100
AcDbEntity
  8
SPOJOVACÍ
  6
Continuous
100
AcDbLine
 10
341.5742964307978
 20
314.4237277004622
 30
0.0
 11
343.7285835722545
 21
314.1130489846882
 31
0.0
  0
LINE
  5
283
330
1F
100
AcDbEntity
  8
SPOJOVACÍ
  6
Continuous
100
AcDbLine
 10
340.1911250197995
 20
326.6499583603335
 30
0.0
 11
344.9908321256484
 21
325.4500315838713
 31
0.0
  0
LINE
  5
284
330
1F
100
AcDbEntity
  8
SPOJOVACÍ
  6
Continuous
100
AcDbLine
 10
340.1911250197995
 20
326.6499583603335
 30
0.0
 11
340.5687763951104
 21
326.4313670483143
 31
0.0
  0
LINE
  5
285
330
1F
100
AcDbEntity
  8
SPOJOVACÍ
  6
Continuous
100
AcDbLine
 10
340.1911250197995
 20
326.6499583603335
 30
0.0
 11
340.5687763951104
 21
327.0276097334617
 31
0.0
  0
LINE
  5
286
330
1F
100
AcDbEntity
  8
SPOJOVACÍ
  6
Continuous
100
AcDbLine
 10
344.9908321256484
 20
325.4500315838713
 30
0.0
 11
344.613180754703
 21
325.0714500350413
 31
0.0
  0
LINE
  5
287
330
1F
100
AcDbEntity
  8
SPOJOVACÍ
  6
Continuous
100
AcDbLine
 10
344.9908321256484
 20
325.4500315838713
 30
0.0
 11
344.613180754703
 21
325.6676927199196
 31
0.0
  0
LINE
  5
288
330
1F
100
AcDbEntity
  8
SPOJOVACÍ
  6
Continuous
100
AcDbLine
 10
340.5687763951104
 20
326.4313670483143
 30
0.0
 11
344.613180754703
 21
325.0714500350413
 31
0.0
  0
LINE
  5
289
330
1F
100
AcDbEntity
  8
SPOJOVACÍ
  6
Continuous
100
AcDbLine
 10
340.5687763951104
 20
327.0276097334617
 30
0.0
 11
344.613180754703
 21
325.6676927199196
 31
0.0
  0
LINE
  5
28A
330
1F
100
AcDbEntity
  8
SPOJOVACÍ
  6
Continuous
100
AcDbLine
 10
340.1911250197995
 20
323.5292185653934
 30
0.0
 11
344.9908321256484
 21
322.3292917889311
 31
0.0
  0
LINE
  5
28B
330
1F
100
AcDbEntity
  8
SPOJOVACÍ
  6
Continuous
100
AcDbLine
 10
340.1911250197995
 20
323.5292185653934
 30
0.0
 11
340.5687763951104
 21
323.3115574293451
 31
0.0
  0
LINE
  5
28C
330
1F
100
AcDbEntity
  8
SPOJOVACÍ
  6
Continuous
100
AcDbLine
 10
340.1911250197995
 20
323.5292185653934
 30
0.0
 11
340.5687763951104
 21
323.9078001144998
 31
0.0
  0
LINE
  5
28D
330
1F
100
AcDbEntity
  8
SPOJOVACÍ
  6
Continuous
100
AcDbLine
 10
344.9908321256484
 20
322.3292917889311
 30
0.0
 11
344.613180754703
 21
321.951640415803
 31
0.0
  0
LINE
  5
28E
330
1F
100
AcDbEntity
  8
SPOJOVACÍ
  6
Continuous
100
AcDbLine
 10
344.9908321256484
 20
322.3292917889311
 30
0.0
 11
344.613180754703
 21
322.5478831009577
 31
0.0
  0
LINE
  5
28F
330
1F
100
AcDbEntity
  8
SPOJOVACÍ
  6
Continuous
100
AcDbLine
 10
340.5687763951104
 20
323.3115574293451
 30
0.0
 11
344.613180754703
 21
321.951640415803
 31
0.0
  0
LINE
  5
290
330
1F
100
AcDbEntity
  8
SPOJOVACÍ
  6
Continuous
100
AcDbLine
 10
340.5687763951104
 20
323.9078001144998
 30
0.0
 11
344.613180754703
 21
322.5478831009577
 31
0.0
  0
LINE
  5
291
330
1F
100
AcDbEntity
  8
SPOJOVACÍ
  6
Continuous
100
AcDbLine
 10
344.7806123963059
 20
343.1475562745008
 30
0.0
 11
345.9902865407825
 21
344.6719805841685
 31
0.0
  0
LINE
  5
292
330
1F
100
AcDbEntity
  8
SPOJOVACÍ
  6
Continuous
100
AcDbLine
 10
344.1676265471583
 20
341.7336890647975
 30
0.0
 11
344.7806123963059
 21
343.1475562745008
 31
0.0
  0
LINE
  5
293
330
1F
100
AcDbEntity
  8
SPOJOVACÍ
  6
Continuous
100
AcDbLine
 10
343.9406636562748
 20
340.2100611113683
 30
0.0
 11
344.1676265471583
 21
341.7336890647975
 31
0.0
  0
LINE
  5
294
330
1F
100
AcDbEntity
  8
SPOJOVACÍ
  6
Continuous
100
AcDbLine
 10
337.49082468409
 20
346.8096583824562
 30
0.0
 11
337.49082468409
 21
345.6097316057248
 31
0.0
  0
LINE
  5
295
330
1F
100
AcDbEntity
  8
SPOJOVACÍ
  6
Continuous
100
AcDbLine
 10
341.175251011617
 20
340.9969898344907
 30
0.0
 11
341.2412934935387
 21
340.2100611113683
 31
0.0
  0
LINE
  5
296
330
1F
100
AcDbEntity
  8
SPOJOVACÍ
  6
Continuous
100
AcDbLine
 10
340.7473701473177
 20
342.4778297015409
 30
0.0
 11
341.175251011617
 21
340.9969898344907
 31
0.0
  0
LINE
  5
297
330
1F
100
AcDbEntity
  8
SPOJOVACÍ
  6
Continuous
100
AcDbLine
 10
339.9511396679995
 20
343.7968189798384
 30
0.0
 11
340.7473701473177
 21
342.4778297015409
 31
0.0
  0
LINE
  5
298
330
1F
100
AcDbEntity
  8
SPOJOVACÍ
  6
Continuous
100
AcDbLine
 10
338.8405097676409
 20
344.8655909692506
 30
0.0
 11
339.9511396679995
 21
343.7968189798384
 31
0.0
  0
LINE
  5
299
330
1F
100
AcDbEntity
  8
SPOJOVACÍ
  6
Continuous
100
AcDbLine
 10
337.49082468409
 20
345.6097316057248
 30
0.0
 11
338.8405097676409
 21
344.8655909692506
 31
0.0
  0
LINE
  5
29A
330
1F
100
AcDbEntity
  8
SPOJOVACÍ
  6
Continuous
100
AcDbLine
 10
343.9406636562748
 20
340.2100611113683
 30
0.0
 11
343.9406636562748
 21
335.2671069324396
 31
0.0
  0
LINE
  5
29B
330
1F
100
AcDbEntity
  8
SPOJOVACÍ
  6
Continuous
100
AcDbLine
 10
341.2412934935387
 20
340.2100611113683
 30
0.0
 11
341.2412934935387
 21
336.1721679816882
 31
0.0
  0
LINE
  5
29C
330
1F
100
AcDbEntity
  8
SPOJOVACÍ
  6
Continuous
100
AcDbLine
 10
341.2412934935387
 20
335.5768554725118
 30
0.0
 11
341.2412934935387
 21
333.0579394174828
 31
0.0
  0
LINE
  5
29D
330
1F
100
AcDbEntity
  8
SPOJOVACÍ
  6
Continuous
100
AcDbLine
 10
341.2412934935387
 20
332.4542553261681
 30
0.0
 11
341.2412934935387
 21
329.933478919459
 31
0.0
  0
LINE
  5
29E
330
1F
100
AcDbEntity
  8
SPOJOVACÍ
  6
Continuous
100
AcDbLine
 10
343.9406636562748
 20
334.6634228411248
 30
0.0
 11
343.9406636562748
 21
332.1445067860959
 31
0.0
  0
LINE
  5
29F
330
1F
100
AcDbEntity
  8
SPOJOVACÍ
  6
Continuous
100
AcDbLine
 10
343.9406636562748
 20
331.5482641009412
 30
0.0
 11
343.9406636562748
 21
329.020046288072
 31
0.0
  0
LINE
  5
2A0
330
1F
100
AcDbEntity
  8
SPOJOVACÍ
  6
Continuous
100
AcDbLine
 10
340.1911250197995
 20
336.0093872175029
 30
0.0
 11
344.9908321256484
 21
334.8094604410407
 31
0.0
  0
LINE
  5
2A1
330
1F
100
AcDbEntity
  8
SPOJOVACÍ
  6
Continuous
100
AcDbLine
 10
340.1911250197995
 20
336.0093872175029
 30
0.0
 11
340.5687763951104
 21
335.7917260814547
 31
0.0
  0
LINE
  5
2A2
330
1F
100
AcDbEntity
  8
SPOJOVACÍ
  6
Continuous
100
AcDbLine
 10
340.1911250197995
 20
336.0093872175029
 30
0.0
 11
340.5687763951104
 21
336.3879687663329
 31
0.0
  0
LINE
  5
2A3
330
1F
100
AcDbEntity
  8
SPOJOVACÍ
  6
Continuous
100
AcDbLine
 10
344.9908321256484
 20
334.8094604410407
 30
0.0
 11
344.613180754703
 21
334.4318090679125
 31
0.0
  0
LINE
  5
2A4
330
1F
100
AcDbEntity
  8
SPOJOVACÍ
  6
Continuous
100
AcDbLine
 10
344.9908321256484
 20
334.8094604410407
 30
0.0
 11
344.613180754703
 21
335.0280517530673
 31
0.0
  0
LINE
  5
2A5
330
1F
100
AcDbEntity
  8
SPOJOVACÍ
  6
Continuous
100
AcDbLine
 10
340.5687763951104
 20
335.7917260814547
 30
0.0
 11
344.613180754703
 21
334.4318090679125
 31
0.0
  0
LINE
  5
2A6
330
1F
100
AcDbEntity
  8
SPOJOVACÍ
  6
Continuous
100
AcDbLine
 10
340.5687763951104
 20
336.3879687663329
 30
0.0
 11
344.613180754703
 21
335.0280517530673
 31
0.0
  0
LINE
  5
2A7
330
1F
100
AcDbEntity
  8
SPOJOVACÍ
  6
Continuous
100
AcDbLine
 10
340.1911250197995
 20
332.8895775985411
 30
0.0
 11
344.9908321256484
 21
331.6896508218023
 31
0.0
  0
LINE
  5
2A8
330
1F
100
AcDbEntity
  8
SPOJOVACÍ
  6
Continuous
100
AcDbLine
 10
340.1911250197995
 20
332.8895775985411
 30
0.0
 11
340.5687763951104
 21
332.6709862865145
 31
0.0
  0
LINE
  5
2A9
330
1F
100
AcDbEntity
  8
SPOJOVACÍ
  6
Continuous
100
AcDbLine
 10
340.1911250197995
 20
332.8895775985411
 30
0.0
 11
340.5687763951104
 21
333.2672289716692
 31
0.0
  0
LINE
  5
2AA
330
1F
100
AcDbEntity
  8
SPOJOVACÍ
  6
Continuous
100
AcDbLine
 10
344.9908321256484
 20
331.6896508218023
 30
0.0
 11
344.613180754703
 21
331.3119994489507
 31
0.0
  0
LINE
  5
2AB
330
1F
100
AcDbEntity
  8
SPOJOVACÍ
  6
Continuous
100
AcDbLine
 10
344.9908321256484
 20
331.6896508218023
 30
0.0
 11
344.613180754703
 21
331.9082421338289
 31
0.0
  0
LINE
  5
2AC
330
1F
100
AcDbEntity
  8
SPOJOVACÍ
  6
Continuous
100
AcDbLine
 10
340.5687763951104
 20
332.6709862865145
 30
0.0
 11
344.613180754703
 21
331.3119994489507
 31
0.0
  0
LINE
  5
2AD
330
1F
100
AcDbEntity
  8
SPOJOVACÍ
  6
Continuous
100
AcDbLine
 10
340.5687763951104
 20
333.2672289716692
 30
0.0
 11
344.613180754703
 21
331.9082421338289
 31
0.0
  0
LINE
  5
2AE
330
1F
100
AcDbEntity
  8
SPOJOVACÍ
  6
Continuous
100
AcDbLine
 10
340.1911250197995
 20
329.7697679793027
 30
0.0
 11
344.9908321256484
 21
328.5698412028405
 31
0.0
  0
LINE
  5
2AF
330
1F
100
AcDbEntity
  8
SPOJOVACÍ
  6
Continuous
100
AcDbLine
 10
340.1911250197995
 20
329.7697679793027
 30
0.0
 11
340.5687763951104
 21
329.5511766672762
 31
0.0
  0
LINE
  5
2B0
330
1F
100
AcDbEntity
  8
SPOJOVACÍ
  6
Continuous
100
AcDbLine
 10
340.1911250197995
 20
329.7697679793027
 30
0.0
 11
340.5687763951104
 21
330.1474193524309
 31
0.0
  0
LINE
  5
2B1
330
1F
100
AcDbEntity
  8
SPOJOVACÍ
  6
Continuous
100
AcDbLine
 10
344.9908321256484
 20
328.5698412028405
 30
0.0
 11
344.613180754703
 21
328.1912596540105
 31
0.0
  0
LINE
  5
2B2
330
1F
100
AcDbEntity
  8
SPOJOVACÍ
  6
Continuous
100
AcDbLine
 10
344.9908321256484
 20
328.5698412028405
 30
0.0
 11
344.613180754703
 21
328.7875023391579
 31
0.0
  0
LINE
  5
2B3
330
1F
100
AcDbEntity
  8
SPOJOVACÍ
  6
Continuous
100
AcDbLine
 10
340.5687763951104
 20
329.5511766672762
 30
0.0
 11
344.613180754703
 21
328.1912596540105
 31
0.0
  0
LINE
  5
2B4
330
1F
100
AcDbEntity
  8
SPOJOVACÍ
  6
Continuous
100
AcDbLine
 10
340.5687763951104
 20
330.1474193524309
 30
0.0
 11
344.613180754703
 21
328.7875023391579
 31
0.0
  0
LINE
  5
2B5
330
1F
100
AcDbEntity
  8
SPOJOVACÍ
  6
Continuous
100
AcDbLine
 10
337.49082468409
 20
345.6097316057248
 30
0.0
 11
347.6911324613579
 21
345.6097316057248
 31
0.0
  0
LINE
  5
2B6
330
1F
100
AcDbEntity
  8
SPOJOVACÍ
  6
Continuous
100
AcDbLine
 10
347.6911324613579
 20
346.8096583824562
 30
0.0
 11
347.6911324613579
 21
345.6097316057248
 31
0.0
  0
LINE
  5
2B7
330
1F
100
AcDbEntity
  8
SPOJOVACÍ
  6
Continuous
100
AcDbLine
 10
337.49082468409
 20
346.8096583824562
 30
0.0
 11
347.6911324613579
 21
346.8096583824562
 31
0.0
  0
LINE
  5
2B8
330
1F
100
AcDbEntity
  8
SPOJOVACÍ
  6
Continuous
100
AcDbLine
 10
347.6911324613579
 20
345.6097316057248
 30
0.0
 11
345.9902865407825
 21
344.6719805841685
 31
0.0
  0
LINE
  5
2B9
330
1F
100
AcDbEntity
  8
SPOJOVACÍ
  6
Continuous
100
AcDbLine
 10
17.67086621758471
 20
345.6097316057248
 30
0.0
 11
19.37171213816009
 21
344.6719805841685
 31
0.0
  0
LINE
  5
2BA
330
1F
100
AcDbEntity
  8
SPOJOVACÍ
  6
Continuous
100
AcDbLine
 10
27.87117399485259
 20
346.8096583824562
 30
0.0
 11
17.67086621758471
 21
346.8096583824562
 31
0.0
  0
LINE
  5
2BB
330
1F
100
AcDbEntity
  8
SPOJOVACÍ
  6
Continuous
100
AcDbLine
 10
17.67086621758471
 20
346.8096583824562
 30
0.0
 11
17.67086621758471
 21
345.6097316057248
 31
0.0
  0
LINE
  5
2BC
330
1F
100
AcDbEntity
  8
SPOJOVACÍ
  6
Continuous
100
AcDbLine
 10
27.87117399485259
 20
345.6097316057248
 30
0.0
 11
17.67086621758471
 21
345.6097316057248
 31
0.0
  0
LINE
  5
2BD
330
1F
100
AcDbEntity
  8
SPOJOVACÍ
  6
Continuous
100
AcDbLine
 10
24.79322228383216
 20
330.1474193524309
 30
0.0
 11
20.74881792423957
 21
328.7875023391579
 31
0.0
  0
LINE
  5
2BE
330
1F
100
AcDbEntity
  8
SPOJOVACÍ
  6
Continuous
100
AcDbLine
 10
24.79322228383216
 20
329.5511766672762
 30
0.0
 11
20.74881792423957
 21
328.1912596540105
 31
0.0
  0
LINE
  5
2BF
330
1F
100
AcDbEntity
  8
SPOJOVACÍ
  6
Continuous
100
AcDbLine
 10
20.37116655329418
 20
328.5698412028405
 30
0.0
 11
20.74881792423957
 21
328.7875023391579
 31
0.0
  0
LINE
  5
2C0
330
1F
100
AcDbEntity
  8
SPOJOVACÍ
  6
Continuous
100
AcDbLine
 10
20.37116655329418
 20
328.5698412028405
 30
0.0
 11
20.74881792423957
 21
328.1912596540105
 31
0.0
  0
LINE
  5
2C1
330
1F
100
AcDbEntity
  8
SPOJOVACÍ
  6
Continuous
100
AcDbLine
 10
25.17087365914312
 20
329.7697679793027
 30
0.0
 11
24.79322228383216
 21
330.1474193524309
 31
0.0
  0
LINE
  5
2C2
330
1F
100
AcDbEntity
  8
SPOJOVACÍ
  6
Continuous
100
AcDbLine
 10
25.17087365914312
 20
329.7697679793027
 30
0.0
 11
24.79322228383216
 21
329.5511766672762
 31
0.0
  0
LINE
  5
2C3
330
1F
100
AcDbEntity
  8
SPOJOVACÍ
  6
Continuous
100
AcDbLine
 10
25.17087365914312
 20
329.7697679793027
 30
0.0
 11
20.37116655329418
 21
328.5698412028405
 31
0.0
  0
LINE
  5
2C4
330
1F
100
AcDbEntity
  8
SPOJOVACÍ
  6
Continuous
100
AcDbLine
 10
24.79322228383216
 20
333.2672289716692
 30
0.0
 11
20.74881792423957
 21
331.9082421338289
 31
0.0
  0
LINE
  5
2C5
330
1F
100
AcDbEntity
  8
SPOJOVACÍ
  6
Continuous
100
AcDbLine
 10
24.79322228383216
 20
332.6709862865145
 30
0.0
 11
20.74881792423957
 21
331.3119994489507
 31
0.0
  0
LINE
  5
2C6
330
1F
100
AcDbEntity
  8
SPOJOVACÍ
  6
Continuous
100
AcDbLine
 10
20.37116655329418
 20
331.6896508218023
 30
0.0
 11
20.74881792423957
 21
331.9082421338289
 31
0.0
  0
LINE
  5
2C7
330
1F
100
AcDbEntity
  8
SPOJOVACÍ
  6
Continuous
100
AcDbLine
 10
20.37116655329418
 20
331.6896508218023
 30
0.0
 11
20.74881792423957
 21
331.3119994489507
 31
0.0
  0
LINE
  5
2C8
330
1F
100
AcDbEntity
  8
SPOJOVACÍ
  6
Continuous
100
AcDbLine
 10
25.17087365914312
 20
332.8895775985411
 30
0.0
 11
24.79322228383216
 21
333.2672289716692
 31
0.0
  0
LINE
  5
2C9
330
1F
100
AcDbEntity
  8
SPOJOVACÍ
  6
Continuous
100
AcDbLine
 10
25.17087365914312
 20
332.8895775985411
 30
0.0
 11
24.79322228383216
 21
332.6709862865145
 31
0.0
  0
LINE
  5
2CA
330
1F
100
AcDbEntity
  8
SPOJOVACÍ
  6
Continuous
100
AcDbLine
 10
25.17087365914312
 20
332.8895775985411
 30
0.0
 11
20.37116655329418
 21
331.6896508218023
 31
0.0
  0
LINE
  5
2CB
330
1F
100
AcDbEntity
  8
SPOJOVACÍ
  6
Continuous
100
AcDbLine
 10
24.79322228383216
 20
336.3879687663329
 30
0.0
 11
20.74881792423957
 21
335.0280517530673
 31
0.0
  0
LINE
  5
2CC
330
1F
100
AcDbEntity
  8
SPOJOVACÍ
  6
Continuous
100
AcDbLine
 10
24.79322228383216
 20
335.7917260814547
 30
0.0
 11
20.74881792423957
 21
334.4318090679125
 31
0.0
  0
LINE
  5
2CD
330
1F
100
AcDbEntity
  8
SPOJOVACÍ
  6
Continuous
100
AcDbLine
 10
20.37116655329418
 20
334.8094604410407
 30
0.0
 11
20.74881792423957
 21
335.0280517530673
 31
0.0
  0
LINE
  5
2CE
330
1F
100
AcDbEntity
  8
SPOJOVACÍ
  6
Continuous
100
AcDbLine
 10
20.37116655329418
 20
334.8094604410407
 30
0.0
 11
20.74881792423957
 21
334.4318090679125
 31
0.0
  0
LINE
  5
2CF
330
1F
100
AcDbEntity
  8
SPOJOVACÍ
  6
Continuous
100
AcDbLine
 10
25.17087365914312
 20
336.0093872175029
 30
0.0
 11
24.79322228383216
 21
336.3879687663329
 31
0.0
  0
LINE
  5
2D0
330
1F
100
AcDbEntity
  8
SPOJOVACÍ
  6
Continuous
100
AcDbLine
 10
25.17087365914312
 20
336.0093872175029
 30
0.0
 11
24.79322228383216
 21
335.7917260814547
 31
0.0
  0
LINE
  5
2D1
330
1F
100
AcDbEntity
  8
SPOJOVACÍ
  6
Continuous
100
AcDbLine
 10
25.17087365914312
 20
336.0093872175029
 30
0.0
 11
20.37116655329418
 21
334.8094604410407
 31
0.0
  0
LINE
  5
2D2
330
1F
100
AcDbEntity
  8
SPOJOVACÍ
  6
Continuous
100
AcDbLine
 10
21.42133502266779
 20
331.5482641009412
 30
0.0
 11
21.42133502266779
 21
329.020046288072
 31
0.0
  0
LINE
  5
2D3
330
1F
100
AcDbEntity
  8
SPOJOVACÍ
  6
Continuous
100
AcDbLine
 10
21.42133502266779
 20
334.6634228411248
 30
0.0
 11
21.42133502266779
 21
332.1445067860959
 31
0.0
  0
LINE
  5
2D4
330
1F
100
AcDbEntity
  8
SPOJOVACÍ
  6
Continuous
100
AcDbLine
 10
24.12070518540395
 20
332.4542553261681
 30
0.0
 11
24.12070518540395
 21
329.933478919459
 31
0.0
  0
LINE
  5
2D5
330
1F
100
AcDbEntity
  8
SPOJOVACÍ
  6
Continuous
100
AcDbLine
 10
24.12070518540395
 20
335.5768554725118
 30
0.0
 11
24.12070518540395
 21
333.0579394174828
 31
0.0
  0
LINE
  5
2D6
330
1F
100
AcDbEntity
  8
SPOJOVACÍ
  6
Continuous
100
AcDbLine
 10
24.12070518540395
 20
340.2100611113683
 30
0.0
 11
24.12070518540395
 21
336.1721679816882
 31
0.0
  0
LINE
  5
2D7
330
1F
100
AcDbEntity
  8
SPOJOVACÍ
  6
Continuous
100
AcDbLine
 10
21.42133502266779
 20
340.2100611113683
 30
0.0
 11
21.42133502266779
 21
335.2671069324396
 31
0.0
  0
LINE
  5
2D8
330
1F
100
AcDbEntity
  8
SPOJOVACÍ
  6
Continuous
100
AcDbLine
 10
27.87117399485259
 20
345.6097316057248
 30
0.0
 11
26.52148891130173
 21
344.8655909692506
 31
0.0
  0
LINE
  5
2D9
330
1F
100
AcDbEntity
  8
SPOJOVACÍ
  6
Continuous
100
AcDbLine
 10
26.52148891130173
 20
344.8655909692506
 30
0.0
 11
25.41085901094311
 21
343.7968189798384
 31
0.0
  0
LINE
  5
2DA
330
1F
100
AcDbEntity
  8
SPOJOVACÍ
  6
Continuous
100
AcDbLine
 10
25.41085901094311
 20
343.7968189798384
 30
0.0
 11
24.61462853162493
 21
342.4778297015409
 31
0.0
  0
LINE
  5
2DB
330
1F
100
AcDbEntity
  8
SPOJOVACÍ
  6
Continuous
100
AcDbLine
 10
24.61462853162493
 20
342.4778297015409
 30
0.0
 11
24.18674766732556
 21
340.9969898344907
 31
0.0
  0
LINE
  5
2DC
330
1F
100
AcDbEntity
  8
SPOJOVACÍ
  6
Continuous
100
AcDbLine
 10
24.18674766732556
 20
340.9969898344907
 30
0.0
 11
24.12070518540395
 21
340.2100611113683
 31
0.0
  0
LINE
  5
2DD
330
1F
100
AcDbEntity
  8
SPOJOVACÍ
  6
Continuous
100
AcDbLine
 10
27.87117399485259
 20
346.8096583824562
 30
0.0
 11
27.87117399485259
 21
345.6097316057248
 31
0.0
  0
LINE
  5
2DE
330
1F
100
AcDbEntity
  8
SPOJOVACÍ
  6
Continuous
100
AcDbLine
 10
21.42133502266779
 20
340.2100611113683
 30
0.0
 11
21.19437213178434
 21
341.7336890647975
 31
0.0
  0
LINE
  5
2DF
330
1F
100
AcDbEntity
  8
SPOJOVACÍ
  6
Continuous
100
AcDbLine
 10
21.19437213178434
 20
341.7336890647975
 30
0.0
 11
20.58138628263668
 21
343.1475562745008
 31
0.0
  0
LINE
  5
2E0
330
1F
100
AcDbEntity
  8
SPOJOVACÍ
  6
Continuous
100
AcDbLine
 10
20.58138628263668
 20
343.1475562745008
 30
0.0
 11
19.37171213816009
 21
344.6719805841685
 31
0.0
  0
LINE
  5
2E1
330
1F
100
AcDbEntity
  8
SPOJOVACÍ
  6
Continuous
100
AcDbLine
 10
24.79322228383216
 20
323.9078001144998
 30
0.0
 11
20.74881792423957
 21
322.5478831009577
 31
0.0
  0
LINE
  5
2E2
330
1F
100
AcDbEntity
  8
SPOJOVACÍ
  6
Continuous
100
AcDbLine
 10
24.79322228383216
 20
323.3115574293451
 30
0.0
 11
20.74881792423957
 21
321.951640415803
 31
0.0
  0
LINE
  5
2E3
330
1F
100
AcDbEntity
  8
SPOJOVACÍ
  6
Continuous
100
AcDbLine
 10
20.37116655329418
 20
322.3292917889311
 30
0.0
 11
20.74881792423957
 21
322.5478831009577
 31
0.0
  0
LINE
  5
2E4
330
1F
100
AcDbEntity
  8
SPOJOVACÍ
  6
Continuous
100
AcDbLine
 10
20.37116655329418
 20
322.3292917889311
 30
0.0
 11
20.74881792423957
 21
321.951640415803
 31
0.0
  0
LINE
  5
2E5
330
1F
100
AcDbEntity
  8
SPOJOVACÍ
  6
Continuous
100
AcDbLine
 10
25.17087365914312
 20
323.5292185653934
 30
0.0
 11
24.79322228383216
 21
323.9078001144998
 31
0.0
  0
LINE
  5
2E6
330
1F
100
AcDbEntity
  8
SPOJOVACÍ
  6
Continuous
100
AcDbLine
 10
25.17087365914312
 20
323.5292185653934
 30
0.0
 11
24.79322228383216
 21
323.3115574293451
 31
0.0
  0
LINE
  5
2E7
330
1F
100
AcDbEntity
  8
SPOJOVACÍ
  6
Continuous
100
AcDbLine
 10
25.17087365914312
 20
323.5292185653934
 30
0.0
 11
20.37116655329418
 21
322.3292917889311
 31
0.0
  0
LINE
  5
2E8
330
1F
100
AcDbEntity
  8
SPOJOVACÍ
  6
Continuous
100
AcDbLine
 10
24.79322228383216
 20
327.0276097334617
 30
0.0
 11
20.74881792423957
 21
325.6676927199196
 31
0.0
  0
LINE
  5
2E9
330
1F
100
AcDbEntity
  8
SPOJOVACÍ
  6
Continuous
100
AcDbLine
 10
24.79322228383216
 20
326.4313670483143
 30
0.0
 11
20.74881792423957
 21
325.0714500350413
 31
0.0
  0
LINE
  5
2EA
330
1F
100
AcDbEntity
  8
SPOJOVACÍ
  6
Continuous
100
AcDbLine
 10
20.37116655329418
 20
325.4500315838713
 30
0.0
 11
20.74881792423957
 21
325.6676927199196
 31
0.0
  0
LINE
  5
2EB
330
1F
100
AcDbEntity
  8
SPOJOVACÍ
  6
Continuous
100
AcDbLine
 10
20.37116655329418
 20
325.4500315838713
 30
0.0
 11
20.74881792423957
 21
325.0714500350413
 31
0.0
  0
LINE
  5
2EC
330
1F
100
AcDbEntity
  8
SPOJOVACÍ
  6
Continuous
100
AcDbLine
 10
25.17087365914312
 20
326.6499583603335
 30
0.0
 11
24.79322228383216
 21
327.0276097334617
 31
0.0
  0
LINE
  5
2ED
330
1F
100
AcDbEntity
  8
SPOJOVACÍ
  6
Continuous
100
AcDbLine
 10
25.17087365914312
 20
326.6499583603335
 30
0.0
 11
24.79322228383216
 21
326.4313670483143
 31
0.0
  0
LINE
  5
2EE
330
1F
100
AcDbEntity
  8
SPOJOVACÍ
  6
Continuous
100
AcDbLine
 10
25.17087365914312
 20
326.6499583603335
 30
0.0
 11
20.37116655329418
 21
325.4500315838713
 31
0.0
  0
LINE
  5
2EF
330
1F
100
AcDbEntity
  8
SPOJOVACÍ
  6
Continuous
100
AcDbLine
 10
23.78770224814479
 20
314.4237277004622
 30
0.0
 11
21.63341510668806
 21
314.1130489846882
 31
0.0
  0
LINE
  5
2F0
330
1F
100
AcDbEntity
  8
SPOJOVACÍ
  6
Continuous
100
AcDbLine
 10
23.41005087719941
 20
314.8013790735904
 30
0.0
 11
22.01106647763344
 21
314.3307101210057
 31
0.0
  0
LINE
  5
2F1
330
1F
100
AcDbEntity
  8
SPOJOVACÍ
  6
Continuous
100
AcDbLine
 10
23.41005087719941
 20
314.2051363884429
 30
0.0
 11
22.01106647763344
 21
313.7344674358582
 31
0.0
  0
LINE
  5
2F2
330
1F
100
AcDbEntity
  8
SPOJOVACÍ
  6
Continuous
100
AcDbLine
 10
21.63341510668806
 20
314.1130489846882
 30
0.0
 11
22.01106647763344
 21
314.3307101210057
 31
0.0
  0
LINE
  5
2F3
330
1F
100
AcDbEntity
  8
SPOJOVACÍ
  6
Continuous
100
AcDbLine
 10
21.63341510668806
 20
314.1130489846882
 30
0.0
 11
22.01106647763344
 21
313.7344674358582
 31
0.0
  0
LINE
  5
2F4
330
1F
100
AcDbEntity
  8
SPOJOVACÍ
  6
Continuous
100
AcDbLine
 10
23.78770224814479
 20
314.4237277004622
 30
0.0
 11
23.41005087719941
 21
314.8013790735904
 31
0.0
  0
LINE
  5
2F5
330
1F
100
AcDbEntity
  8
SPOJOVACÍ
  6
Continuous
100
AcDbLine
 10
23.78770224814479
 20
314.4237277004622
 30
0.0
 11
23.41005087719941
 21
314.2051363884429
 31
0.0
  0
LINE
  5
2F6
330
1F
100
AcDbEntity
  8
SPOJOVACÍ
  6
Continuous
100
AcDbLine
 10
24.35231895861625
 20
317.4374972787818
 30
0.0
 11
21.23623004218507
 21
316.8040475620118
 31
0.0
  0
LINE
  5
2F7
330
1F
100
AcDbEntity
  8
SPOJOVACÍ
  6
Continuous
100
AcDbLine
 10
23.97466758330529
 20
317.8160788278883
 30
0.0
 11
21.61388141313045
 21
317.0217086980601
 31
0.0
  0
LINE
  5
2F8
330
1F
100
AcDbEntity
  8
SPOJOVACÍ
  6
Continuous
100
AcDbLine
 10
23.97466758330529
 20
317.2198361427335
 30
0.0
 11
21.61388141313045
 21
316.4254660131819
 31
0.0
  0
LINE
  5
2F9
330
1F
100
AcDbEntity
  8
SPOJOVACÍ
  6
Continuous
100
AcDbLine
 10
21.23623004218507
 20
316.8040475620118
 30
0.0
 11
21.61388141313045
 21
317.0217086980601
 31
0.0
  0
LINE
  5
2FA
330
1F
100
AcDbEntity
  8
SPOJOVACÍ
  6
Continuous
100
AcDbLine
 10
21.23623004218507
 20
316.8040475620118
 30
0.0
 11
21.61388141313045
 21
316.4254660131819
 31
0.0
  0
LINE
  5
2FB
330
1F
100
AcDbEntity
  8
SPOJOVACÍ
  6
Continuous
100
AcDbLine
 10
24.35231895861625
 20
317.4374972787818
 30
0.0
 11
23.97466758330529
 21
317.8160788278883
 31
0.0
  0
LINE
  5
2FC
330
1F
100
AcDbEntity
  8
SPOJOVACÍ
  6
Continuous
100
AcDbLine
 10
24.35231895861625
 20
317.4374972787818
 30
0.0
 11
23.97466758330529
 21
317.2198361427335
 31
0.0
  0
LINE
  5
2FD
330
1F
100
AcDbEntity
  8
SPOJOVACÍ
  6
Continuous
100
AcDbLine
 10
24.91693566472213
 20
320.4521970330797
 30
0.0
 11
20.79160601197918
 21
319.4792331507751
 31
0.0
  0
LINE
  5
2FE
330
1F
100
AcDbEntity
  8
SPOJOVACÍ
  6
Continuous
100
AcDbLine
 10
24.53835411643785
 20
320.8298484062079
 30
0.0
 11
21.16925738292457
 21
319.6968942868234
 31
0.0
  0
LINE
  5
2FF
330
1F
100
AcDbEntity
  8
SPOJOVACÍ
  6
Continuous
100
AcDbLine
 10
24.53835411643785
 20
320.2336057210532
 30
0.0
 11
21.16925738292457
 21
319.1006516016686
 31
0.0
  0
LINE
  5
300
330
1F
100
AcDbEntity
  8
SPOJOVACÍ
  6
Continuous
100
AcDbLine
 10
20.79160601197918
 20
319.4792331507751
 30
0.0
 11
21.16925738292457
 21
319.6968942868234
 31
0.0
  0
LINE
  5
301
330
1F
100
AcDbEntity
  8
SPOJOVACÍ
  6
Continuous
100
AcDbLine
 10
20.79160601197918
 20
319.4792331507751
 30
0.0
 11
21.16925738292457
 21
319.1006516016686
 31
0.0
  0
LINE
  5
302
330
1F
100
AcDbEntity
  8
SPOJOVACÍ
  6
Continuous
100
AcDbLine
 10
24.91693566472213
 20
320.4521970330797
 30
0.0
 11
24.53835411643785
 21
320.8298484062079
 31
0.0
  0
LINE
  5
303
330
1F
100
AcDbEntity
  8
SPOJOVACÍ
  6
Continuous
100
AcDbLine
 10
24.91693566472213
 20
320.4521970330797
 30
0.0
 11
24.53835411643785
 21
320.2336057210532
 31
0.0
  0
LINE
  5
304
330
1F
100
AcDbEntity
  8
SPOJOVACÍ
  6
Continuous
100
AcDbLine
 10
21.66690143413552
 20
319.8736276881727
 30
0.0
 11
21.42133502266779
 21
321.8446701994589
 31
0.0
  0
LINE
  5
305
330
1F
100
AcDbEntity
  8
SPOJOVACÍ
  6
Continuous
100
AcDbLine
 10
22.00548542669685
 20
317.1668161222742
 30
0.0
 11
21.73852497135931
 21
319.3034299251276
 31
0.0
  0
LINE
  5
306
330
1F
100
AcDbEntity
  8
SPOJOVACÍ
  6
Continuous
100
AcDbLine
 10
22.34499958786591
 20
314.449772622841
 30
0.0
 11
22.07710895955506
 21
316.5947580078254
 31
0.0
  0
LINE
  5
307
330
1F
100
AcDbEntity
  8
SPOJOVACÍ
  6
Continuous
100
AcDbLine
 10
23.1570430601173
 20
314.1335128523105
 30
0.0
 11
22.77102010621865
 21
311.0443990345056
 31
0.0
  0
LINE
  5
308
330
1F
100
AcDbEntity
  8
SPOJOVACÍ
  6
Continuous
100
AcDbLine
 10
23.52446249779723
 20
317.0747287185195
 30
0.0
 11
23.23424765264326
 21
314.7539401081639
 31
0.0
  0
LINE
  5
309
330
1F
100
AcDbEntity
  8
SPOJOVACÍ
  6
Continuous
100
AcDbLine
 10
23.89374229015493
 20
320.0271066942486
 30
0.0
 11
23.60352744063539
 21
317.7053879081841
 31
0.0
  0
LINE
  5
30A
330
1F
100
AcDbEntity
  8
SPOJOVACÍ
  6
Continuous
100
AcDbLine
 10
22.77102010621865
 20
311.0443990345056
 30
0.0
 11
22.4166231250897
 21
313.8805050357741
 31
0.0
  0
LINE
  5
30B
330
1F
100
AcDbEntity
  8
SPOJOVACÍ
  6
Continuous
100
AcDbLine
 10
24.12070518540395
 20
321.8446701994589
 30
0.0
 11
23.97094688268089
 21
320.6475339501021
 31
0.0
  0
LINE
  5
30C
330
1F
100
AcDbEntity
  8
SPOJOVACÍ
  6
Continuous
100
AcDbLine
 10
21.42133502266779
 20
322.1813938373425
 30
0.0
 11
21.42133502266779
 21
321.8446701994589
 31
0.0
  0
LINE
  5
30D
330
1F
100
AcDbEntity
  8
SPOJOVACÍ
  6
Continuous
100
AcDbLine
 10
21.42133502266779
 20
325.3039939839554
 30
0.0
 11
21.42133502266779
 21
322.7850779289265
 31
0.0
  0
LINE
  5
30E
330
1F
100
AcDbEntity
  8
SPOJOVACÍ
  6
Continuous
100
AcDbLine
 10
24.12070518540395
 20
323.0920359413476
 30
0.0
 11
24.12070518540395
 21
321.8446701994589
 31
0.0
  0
LINE
  5
30F
330
1F
100
AcDbEntity
  8
SPOJOVACÍ
  6
Continuous
100
AcDbLine
 10
24.12070518540395
 20
326.2062645058295
 30
0.0
 11
24.12070518540395
 21
323.6882786265023
 31
0.0
  0
LINE
  5
310
330
1F
100
AcDbEntity
  8
SPOJOVACÍ
  6
Continuous
100
AcDbLine
 10
21.42133502266779
 20
328.4256639545974
 30
0.0
 11
21.42133502266779
 21
325.9048875478883
 31
0.0
  0
LINE
  5
311
330
1F
100
AcDbEntity
  8
SPOJOVACÍ
  6
Continuous
100
AcDbLine
 10
24.12070518540395
 20
329.3390965859844
 30
0.0
 11
24.12070518540395
 21
326.8108787731152
 31
0.0
  0
LINE
  5
312
330
1F
100
AcDbEntity
  8
SPOJOVACÍ
  6
Continuous
100
AcDbLine
 10
24.12070518540395
 20
-46.45551941453868
 30
0.0
 11
24.12070518540395
 21
-43.92730160166957
 31
0.0
  0
LINE
  5
313
330
1F
100
AcDbEntity
  8
SPOJOVACÍ
  6
Continuous
100
AcDbLine
 10
21.42133502266779
 20
-45.54208678315172
 30
0.0
 11
21.42133502266779
 21
-43.02131037644267
 31
0.0
  0
LINE
  5
314
330
1F
100
AcDbEntity
  8
SPOJOVACÍ
  6
Continuous
100
AcDbLine
 10
24.12070518540395
 20
-43.32268733438377
 30
0.0
 11
24.12070518540395
 21
-40.8047014550566
 31
0.0
  0
LINE
  5
315
330
1F
100
AcDbEntity
  8
SPOJOVACÍ
  6
Continuous
100
AcDbLine
 10
24.12070518540395
 20
-40.20845876990188
 30
0.0
 11
24.12070518540395
 21
-38.96109302801324
 31
0.0
  0
LINE
  5
316
330
1F
100
AcDbEntity
  8
SPOJOVACÍ
  6
Continuous
100
AcDbLine
 10
21.42133502266779
 20
-42.42041681250976
 30
0.0
 11
21.42133502266779
 21
-39.90150075748079
 31
0.0
  0
LINE
  5
317
330
1F
100
AcDbEntity
  8
SPOJOVACÍ
  6
Continuous
100
AcDbLine
 10
21.42133502266779
 20
-39.29781666589679
 30
0.0
 11
21.42133502266779
 21
-38.96109302801324
 31
0.0
  0
LINE
  5
318
330
1F
100
AcDbEntity
  8
SPOJOVACÍ
  6
Continuous
100
AcDbLine
 10
24.12070518540395
 20
-38.96109302801324
 30
0.0
 11
23.97094688268089
 21
-37.76395677865639
 31
0.0
  0
LINE
  5
319
330
1F
100
AcDbEntity
  8
SPOJOVACÍ
  6
Continuous
100
AcDbLine
 10
22.77102010621865
 20
-28.16082186305994
 30
0.0
 11
22.4166231250897
 21
-30.99692786432842
 31
0.0
  0
LINE
  5
31A
330
1F
100
AcDbEntity
  8
SPOJOVACÍ
  6
Continuous
100
AcDbLine
 10
23.89374229015493
 20
-37.14352952280296
 30
0.0
 11
23.60352744063539
 21
-34.82181073673837
 31
0.0
  0
LINE
  5
31B
330
1F
100
AcDbEntity
  8
SPOJOVACÍ
  6
Continuous
100
AcDbLine
 10
23.52446249779723
 20
-34.19115154707379
 30
0.0
 11
23.23424765264326
 21
-31.87036293671826
 31
0.0
  0
LINE
  5
31C
330
1F
100
AcDbEntity
  8
SPOJOVACÍ
  6
Continuous
100
AcDbLine
 10
23.1570430601173
 20
-31.24993568086483
 30
0.0
 11
22.77102010621865
 21
-28.16082186305994
 31
0.0
  0
LINE
  5
31D
330
1F
100
AcDbEntity
  8
SPOJOVACÍ
  6
Continuous
100
AcDbLine
 10
22.34499958786591
 20
-31.56619545139529
 30
0.0
 11
22.07710895955506
 21
-33.71118083637975
 31
0.0
  0
LINE
  5
31E
330
1F
100
AcDbEntity
  8
SPOJOVACÍ
  6
Continuous
100
AcDbLine
 10
22.00548542669685
 20
-34.28323895082849
 30
0.0
 11
21.73852497135931
 21
-36.41985275368188
 31
0.0
  0
LINE
  5
31F
330
1F
100
AcDbEntity
  8
SPOJOVACÍ
  6
Continuous
100
AcDbLine
 10
21.66690143413552
 20
-36.99005051672702
 30
0.0
 11
21.42133502266779
 21
-38.96109302801324
 31
0.0
  0
LINE
  5
320
330
1F
100
AcDbEntity
  8
SPOJOVACÍ
  6
Continuous
100
AcDbLine
 10
24.91693566472213
 20
-37.56861986163403
 30
0.0
 11
24.53835411643785
 21
-37.35002854960749
 31
0.0
  0
LINE
  5
321
330
1F
100
AcDbEntity
  8
SPOJOVACÍ
  6
Continuous
100
AcDbLine
 10
24.91693566472213
 20
-37.56861986163403
 30
0.0
 11
24.53835411643785
 21
-37.9462712347622
 31
0.0
  0
LINE
  5
322
330
1F
100
AcDbEntity
  8
SPOJOVACÍ
  6
Continuous
100
AcDbLine
 10
20.79160601197918
 20
-36.59565597932942
 30
0.0
 11
21.16925738292457
 21
-36.21707443022296
 31
0.0
  0
LINE
  5
323
330
1F
100
AcDbEntity
  8
SPOJOVACÍ
  6
Continuous
100
AcDbLine
 10
20.79160601197918
 20
-36.59565597932942
 30
0.0
 11
21.16925738292457
 21
-36.81331711537768
 31
0.0
  0
LINE
  5
324
330
1F
100
AcDbEntity
  8
SPOJOVACÍ
  6
Continuous
100
AcDbLine
 10
24.53835411643785
 20
-37.35002854960749
 30
0.0
 11
21.16925738292457
 21
-36.21707443022296
 31
0.0
  0
LINE
  5
325
330
1F
100
AcDbEntity
  8
SPOJOVACÍ
  6
Continuous
100
AcDbLine
 10
24.53835411643785
 20
-37.9462712347622
 30
0.0
 11
21.16925738292457
 21
-36.81331711537768
 31
0.0
  0
LINE
  5
326
330
1F
100
AcDbEntity
  8
SPOJOVACÍ
  6
Continuous
100
AcDbLine
 10
24.91693566472213
 20
-37.56861986163403
 30
0.0
 11
20.79160601197918
 21
-36.59565597932942
 31
0.0
  0
LINE
  5
327
330
1F
100
AcDbEntity
  8
SPOJOVACÍ
  6
Continuous
100
AcDbLine
 10
24.35231895861625
 20
-34.55392010733612
 30
0.0
 11
23.97466758330529
 21
-34.33625897128786
 31
0.0
  0
LINE
  5
328
330
1F
100
AcDbEntity
  8
SPOJOVACÍ
  6
Continuous
100
AcDbLine
 10
24.35231895861625
 20
-34.55392010733612
 30
0.0
 11
23.97466758330529
 21
-34.93250165644258
 31
0.0
  0
LINE
  5
329
330
1F
100
AcDbEntity
  8
SPOJOVACÍ
  6
Continuous
100
AcDbLine
 10
21.23623004218507
 20
-33.92047039056615
 30
0.0
 11
21.61388141313045
 21
-33.54188884173618
 31
0.0
  0
LINE
  5
32A
330
1F
100
AcDbEntity
  8
SPOJOVACÍ
  6
Continuous
100
AcDbLine
 10
21.23623004218507
 20
-33.92047039056615
 30
0.0
 11
21.61388141313045
 21
-34.13813152661441
 31
0.0
  0
LINE
  5
32B
330
1F
100
AcDbEntity
  8
SPOJOVACÍ
  6
Continuous
100
AcDbLine
 10
23.97466758330529
 20
-34.33625897128786
 30
0.0
 11
21.61388141313045
 21
-33.54188884173618
 31
0.0
  0
LINE
  5
32C
330
1F
100
AcDbEntity
  8
SPOJOVACÍ
  6
Continuous
100
AcDbLine
 10
23.97466758330529
 20
-34.93250165644258
 30
0.0
 11
21.61388141313045
 21
-34.13813152661441
 31
0.0
  0
LINE
  5
32D
330
1F
100
AcDbEntity
  8
SPOJOVACÍ
  6
Continuous
100
AcDbLine
 10
24.35231895861625
 20
-34.55392010733612
 30
0.0
 11
21.23623004218507
 21
-33.92047039056615
 31
0.0
  0
LINE
  5
32E
330
1F
100
AcDbEntity
  8
SPOJOVACÍ
  6
Continuous
100
AcDbLine
 10
23.78770224814479
 20
-31.5401505290165
 30
0.0
 11
23.41005087719941
 21
-31.32155921699723
 31
0.0
  0
LINE
  5
32F
330
1F
100
AcDbEntity
  8
SPOJOVACÍ
  6
Continuous
100
AcDbLine
 10
23.78770224814479
 20
-31.5401505290165
 30
0.0
 11
23.41005087719941
 21
-31.91780190214467
 31
0.0
  0
LINE
  5
330
330
1F
100
AcDbEntity
  8
SPOJOVACÍ
  6
Continuous
100
AcDbLine
 10
21.63341510668806
 20
-31.22947181324252
 30
0.0
 11
22.01106647763344
 21
-30.85089026441255
 31
0.0
  0
LINE
  5
331
330
1F
100
AcDbEntity
  8
SPOJOVACÍ
  6
Continuous
100
AcDbLine
 10
21.63341510668806
 20
-31.22947181324252
 30
0.0
 11
22.01106647763344
 21
-31.44713294956
 31
0.0
  0
LINE
  5
332
330
1F
100
AcDbEntity
  8
SPOJOVACÍ
  6
Continuous
100
AcDbLine
 10
23.41005087719941
 20
-31.32155921699723
 30
0.0
 11
22.01106647763344
 21
-30.85089026441255
 31
0.0
  0
LINE
  5
333
330
1F
100
AcDbEntity
  8
SPOJOVACÍ
  6
Continuous
100
AcDbLine
 10
23.41005087719941
 20
-31.91780190214467
 30
0.0
 11
22.01106647763344
 21
-31.44713294956
 31
0.0
  0
LINE
  5
334
330
1F
100
AcDbEntity
  8
SPOJOVACÍ
  6
Continuous
100
AcDbLine
 10
23.78770224814479
 20
-31.5401505290165
 30
0.0
 11
21.63341510668806
 21
-31.22947181324252
 31
0.0
  0
LINE
  5
335
330
1F
100
AcDbEntity
  8
SPOJOVACÍ
  6
Continuous
100
AcDbLine
 10
25.17087365914312
 20
-43.76638118888786
 30
0.0
 11
20.37116655329418
 21
-42.56645441242563
 31
0.0
  0
LINE
  5
336
330
1F
100
AcDbEntity
  8
SPOJOVACÍ
  6
Continuous
100
AcDbLine
 10
25.17087365914312
 20
-43.76638118888786
 30
0.0
 11
24.79322228383216
 21
-43.54778987686859
 31
0.0
  0
LINE
  5
337
330
1F
100
AcDbEntity
  8
SPOJOVACÍ
  6
Continuous
100
AcDbLine
 10
25.17087365914312
 20
-43.76638118888786
 30
0.0
 11
24.79322228383216
 21
-44.14403256201604
 31
0.0
  0
LINE
  5
338
330
1F
100
AcDbEntity
  8
SPOJOVACÍ
  6
Continuous
100
AcDbLine
 10
20.37116655329418
 20
-42.56645441242563
 30
0.0
 11
20.74881792423957
 21
-42.18787286359566
 31
0.0
  0
LINE
  5
339
330
1F
100
AcDbEntity
  8
SPOJOVACÍ
  6
Continuous
100
AcDbLine
 10
20.37116655329418
 20
-42.56645441242563
 30
0.0
 11
20.74881792423957
 21
-42.78411554847389
 31
0.0
  0
LINE
  5
33A
330
1F
100
AcDbEntity
  8
SPOJOVACÍ
  6
Continuous
100
AcDbLine
 10
24.79322228383216
 20
-43.54778987686859
 30
0.0
 11
20.74881792423957
 21
-42.18787286359566
 31
0.0
  0
LINE
  5
33B
330
1F
100
AcDbEntity
  8
SPOJOVACÍ
  6
Continuous
100
AcDbLine
 10
24.79322228383216
 20
-44.14403256201604
 30
0.0
 11
20.74881792423957
 21
-42.78411554847389
 31
0.0
  0
LINE
  5
33C
330
1F
100
AcDbEntity
  8
SPOJOVACÍ
  6
Continuous
100
AcDbLine
 10
25.17087365914312
 20
-40.6456413939477
 30
0.0
 11
20.37116655329418
 21
-39.44571461748546
 31
0.0
  0
LINE
  5
33D
330
1F
100
AcDbEntity
  8
SPOJOVACÍ
  6
Continuous
100
AcDbLine
 10
25.17087365914312
 20
-40.6456413939477
 30
0.0
 11
24.79322228383216
 21
-40.42798025789943
 31
0.0
  0
LINE
  5
33E
330
1F
100
AcDbEntity
  8
SPOJOVACÍ
  6
Continuous
100
AcDbLine
 10
25.17087365914312
 20
-40.6456413939477
 30
0.0
 11
24.79322228383216
 21
-41.02422294305415
 31
0.0
  0
LINE
  5
33F
330
1F
100
AcDbEntity
  8
SPOJOVACÍ
  6
Continuous
100
AcDbLine
 10
20.37116655329418
 20
-39.44571461748546
 30
0.0
 11
20.74881792423957
 21
-39.06806324435729
 31
0.0
  0
LINE
  5
340
330
1F
100
AcDbEntity
  8
SPOJOVACÍ
  6
Continuous
100
AcDbLine
 10
20.37116655329418
 20
-39.44571461748546
 30
0.0
 11
20.74881792423957
 21
-39.66430592951201
 31
0.0
  0
LINE
  5
341
330
1F
100
AcDbEntity
  8
SPOJOVACÍ
  6
Continuous
100
AcDbLine
 10
24.79322228383216
 20
-40.42798025789943
 30
0.0
 11
20.74881792423957
 21
-39.06806324435729
 31
0.0
  0
LINE
  5
342
330
1F
100
AcDbEntity
  8
SPOJOVACÍ
  6
Continuous
100
AcDbLine
 10
24.79322228383216
 20
-41.02422294305415
 30
0.0
 11
20.74881792423957
 21
-39.66430592951201
 31
0.0
  0
LINE
  5
343
330
1F
100
AcDbEntity
  8
SPOJOVACÍ
  6
Continuous
100
AcDbLine
 10
20.58138628263668
 20
-60.26397910305513
 30
0.0
 11
19.37171213816009
 21
-61.7884034127228
 31
0.0
  0
LINE
  5
344
330
1F
100
AcDbEntity
  8
SPOJOVACÍ
  6
Continuous
100
AcDbLine
 10
21.19437213178434
 20
-58.85011189335182
 30
0.0
 11
20.58138628263668
 21
-60.26397910305513
 31
0.0
  0
LINE
  5
345
330
1F
100
AcDbEntity
  8
SPOJOVACÍ
  6
Continuous
100
AcDbLine
 10
21.42133502266779
 20
-57.32648393992258
 30
0.0
 11
21.19437213178434
 21
-58.85011189335182
 31
0.0
  0
LINE
  5
346
330
1F
100
AcDbEntity
  8
SPOJOVACÍ
  6
Continuous
100
AcDbLine
 10
27.87117399485259
 20
-63.92608121101057
 30
0.0
 11
27.87117399485259
 21
-62.72615443427913
 31
0.0
  0
LINE
  5
347
330
1F
100
AcDbEntity
  8
SPOJOVACÍ
  6
Continuous
100
AcDbLine
 10
24.18674766732556
 20
-58.11341266304498
 30
0.0
 11
24.12070518540395
 21
-57.32648393992258
 31
0.0
  0
LINE
  5
348
330
1F
100
AcDbEntity
  8
SPOJOVACÍ
  6
Continuous
100
AcDbLine
 10
24.61462853162493
 20
-59.59425253009522
 30
0.0
 11
24.18674766732556
 21
-58.11341266304498
 31
0.0
  0
LINE
  5
349
330
1F
100
AcDbEntity
  8
SPOJOVACÍ
  6
Continuous
100
AcDbLine
 10
25.41085901094311
 20
-60.91324180839274
 30
0.0
 11
24.61462853162493
 21
-59.59425253009522
 31
0.0
  0
LINE
  5
34A
330
1F
100
AcDbEntity
  8
SPOJOVACÍ
  6
Continuous
100
AcDbLine
 10
26.52148891130173
 20
-61.98201379780494
 30
0.0
 11
25.41085901094311
 21
-60.91324180839274
 31
0.0
  0
LINE
  5
34B
330
1F
100
AcDbEntity
  8
SPOJOVACÍ
  6
Continuous
100
AcDbLine
 10
27.87117399485259
 20
-62.72615443427913
 30
0.0
 11
26.52148891130173
 21
-61.98201379780494
 31
0.0
  0
LINE
  5
34C
330
1F
100
AcDbEntity
  8
SPOJOVACÍ
  6
Continuous
100
AcDbLine
 10
21.42133502266779
 20
-57.32648393992258
 30
0.0
 11
21.42133502266779
 21
-52.38352976099395
 31
0.0
  0
LINE
  5
34D
330
1F
100
AcDbEntity
  8
SPOJOVACÍ
  6
Continuous
100
AcDbLine
 10
24.12070518540395
 20
-57.32648393992258
 30
0.0
 11
24.12070518540395
 21
-53.28859081024257
 31
0.0
  0
LINE
  5
34E
330
1F
100
AcDbEntity
  8
SPOJOVACÍ
  6
Continuous
100
AcDbLine
 10
24.12070518540395
 20
-52.69327830106613
 30
0.0
 11
24.12070518540395
 21
-50.17436224603716
 31
0.0
  0
LINE
  5
34F
330
1F
100
AcDbEntity
  8
SPOJOVACÍ
  6
Continuous
100
AcDbLine
 10
24.12070518540395
 20
-49.57067815472237
 30
0.0
 11
24.12070518540395
 21
-47.04990174801332
 31
0.0
  0
LINE
  5
350
330
1F
100
AcDbEntity
  8
SPOJOVACÍ
  6
Continuous
100
AcDbLine
 10
21.42133502266779
 20
-51.77984566967916
 30
0.0
 11
21.42133502266779
 21
-49.2609296146502
 31
0.0
  0
LINE
  5
351
330
1F
100
AcDbEntity
  8
SPOJOVACÍ
  6
Continuous
100
AcDbLine
 10
21.42133502266779
 20
-48.66468692949547
 30
0.0
 11
21.42133502266779
 21
-46.13646911662636
 31
0.0
  0
LINE
  5
352
330
1F
100
AcDbEntity
  8
SPOJOVACÍ
  6
Continuous
100
AcDbLine
 10
25.17087365914312
 20
-53.12581004605727
 30
0.0
 11
20.37116655329418
 21
-51.92588326959503
 31
0.0
  0
LINE
  5
353
330
1F
100
AcDbEntity
  8
SPOJOVACÍ
  6
Continuous
100
AcDbLine
 10
25.17087365914312
 20
-53.12581004605727
 30
0.0
 11
24.79322228383216
 21
-52.908148910009
 31
0.0
  0
LINE
  5
354
330
1F
100
AcDbEntity
  8
SPOJOVACÍ
  6
Continuous
100
AcDbLine
 10
25.17087365914312
 20
-53.12581004605727
 30
0.0
 11
24.79322228383216
 21
-53.50439159488724
 31
0.0
  0
LINE
  5
355
330
1F
100
AcDbEntity
  8
SPOJOVACÍ
  6
Continuous
100
AcDbLine
 10
20.37116655329418
 20
-51.92588326959503
 30
0.0
 11
20.74881792423957
 21
-51.54823189646686
 31
0.0
  0
LINE
  5
356
330
1F
100
AcDbEntity
  8
SPOJOVACÍ
  6
Continuous
100
AcDbLine
 10
20.37116655329418
 20
-51.92588326959503
 30
0.0
 11
20.74881792423957
 21
-52.14447458162158
 31
0.0
  0
LINE
  5
357
330
1F
100
AcDbEntity
  8
SPOJOVACÍ
  6
Continuous
100
AcDbLine
 10
24.79322228383216
 20
-52.908148910009
 30
0.0
 11
20.74881792423957
 21
-51.54823189646686
 31
0.0
  0
LINE
  5
358
330
1F
100
AcDbEntity
  8
SPOJOVACÍ
  6
Continuous
100
AcDbLine
 10
24.79322228383216
 20
-53.50439159488724
 30
0.0
 11
20.74881792423957
 21
-52.14447458162158
 31
0.0
  0
LINE
  5
359
330
1F
100
AcDbEntity
  8
SPOJOVACÍ
  6
Continuous
100
AcDbLine
 10
25.17087365914312
 20
-50.00600042709539
 30
0.0
 11
20.37116655329418
 21
-48.80607365035666
 31
0.0
  0
LINE
  5
35A
330
1F
100
AcDbEntity
  8
SPOJOVACÍ
  6
Continuous
100
AcDbLine
 10
25.17087365914312
 20
-50.00600042709539
 30
0.0
 11
24.79322228383216
 21
-49.78740911506884
 31
0.0
  0
LINE
  5
35B
330
1F
100
AcDbEntity
  8
SPOJOVACÍ
  6
Continuous
100
AcDbLine
 10
25.17087365914312
 20
-50.00600042709539
 30
0.0
 11
24.79322228383216
 21
-50.38365180022356
 31
0.0
  0
LINE
  5
35C
330
1F
100
AcDbEntity
  8
SPOJOVACÍ
  6
Continuous
100
AcDbLine
 10
20.37116655329418
 20
-48.80607365035666
 30
0.0
 11
20.74881792423957
 21
-48.42842227750498
 31
0.0
  0
LINE
  5
35D
330
1F
100
AcDbEntity
  8
SPOJOVACÍ
  6
Continuous
100
AcDbLine
 10
20.37116655329418
 20
-48.80607365035666
 30
0.0
 11
20.74881792423957
 21
-49.02466496238321
 31
0.0
  0
LINE
  5
35E
330
1F
100
AcDbEntity
  8
SPOJOVACÍ
  6
Continuous
100
AcDbLine
 10
24.79322228383216
 20
-49.78740911506884
 30
0.0
 11
20.74881792423957
 21
-48.42842227750498
 31
0.0
  0
LINE
  5
35F
330
1F
100
AcDbEntity
  8
SPOJOVACÍ
  6
Continuous
100
AcDbLine
 10
24.79322228383216
 20
-50.38365180022356
 30
0.0
 11
20.74881792423957
 21
-49.02466496238321
 31
0.0
  0
LINE
  5
360
330
1F
100
AcDbEntity
  8
SPOJOVACÍ
  6
Continuous
100
AcDbLine
 10
25.17087365914312
 20
-46.88619080785701
 30
0.0
 11
20.37116655329418
 21
-45.68626403139478
 31
0.0
  0
LINE
  5
361
330
1F
100
AcDbEntity
  8
SPOJOVACÍ
  6
Continuous
100
AcDbLine
 10
25.17087365914312
 20
-46.88619080785701
 30
0.0
 11
24.79322228383216
 21
-46.66759949583047
 31
0.0
  0
LINE
  5
362
330
1F
100
AcDbEntity
  8
SPOJOVACÍ
  6
Continuous
100
AcDbLine
 10
25.17087365914312
 20
-46.88619080785701
 30
0.0
 11
24.79322228383216
 21
-47.26384218098519
 31
0.0
  0
LINE
  5
363
330
1F
100
AcDbEntity
  8
SPOJOVACÍ
  6
Continuous
100
AcDbLine
 10
20.37116655329418
 20
-45.68626403139478
 30
0.0
 11
20.74881792423957
 21
-45.30768248256481
 31
0.0
  0
LINE
  5
364
330
1F
100
AcDbEntity
  8
SPOJOVACÍ
  6
Continuous
100
AcDbLine
 10
20.37116655329418
 20
-45.68626403139478
 30
0.0
 11
20.74881792423957
 21
-45.90392516771226
 31
0.0
  0
LINE
  5
365
330
1F
100
AcDbEntity
  8
SPOJOVACÍ
  6
Continuous
100
AcDbLine
 10
24.79322228383216
 20
-46.66759949583047
 30
0.0
 11
20.74881792423957
 21
-45.30768248256481
 31
0.0
  0
LINE
  5
366
330
1F
100
AcDbEntity
  8
SPOJOVACÍ
  6
Continuous
100
AcDbLine
 10
24.79322228383216
 20
-47.26384218098519
 30
0.0
 11
20.74881792423957
 21
-45.90392516771226
 31
0.0
  0
LINE
  5
367
330
1F
100
AcDbEntity
  8
SPOJOVACÍ
  6
Continuous
100
AcDbLine
 10
27.87117399485259
 20
-62.72615443427913
 30
0.0
 11
17.67086621758471
 21
-62.72615443427913
 31
0.0
  0
LINE
  5
368
330
1F
100
AcDbEntity
  8
SPOJOVACÍ
  6
Continuous
100
AcDbLine
 10
17.67086621758471
 20
-63.92608121101057
 30
0.0
 11
17.67086621758471
 21
-62.72615443427913
 31
0.0
  0
LINE
  5
369
330
1F
100
AcDbEntity
  8
SPOJOVACÍ
  6
Continuous
100
AcDbLine
 10
27.87117399485259
 20
-63.92608121101057
 30
0.0
 11
17.67086621758471
 21
-63.92608121101057
 31
0.0
  0
LINE
  5
36A
330
1F
100
AcDbEntity
  8
SPOJOVACÍ
  6
Continuous
100
AcDbLine
 10
17.67086621758471
 20
-62.72615443427913
 30
0.0
 11
19.37171213816009
 21
-61.7884034127228
 31
0.0
  0
HATCH
  5
36B
330
1F
100
AcDbEntity
  8
izolace
100
AcDbHatch
 10
0.0
 20
0.0
 30
0.0
210
0.0
220
0.0
230
1.0
  2
SOLID
 70
     1
 71
     0
 91
        1
 92
        7
 72
     0
 73
     1
 93
        4
 10
334.6427811479702
 20
-47.92608121101056
 10
350.6427811479557
 20
-47.92608121101056
 10
350.6427811479557
 20
-45.92608121101057
 10
334.6427811479557
 20
-45.92608121101057
 97
        0
 75
     0
 76
     1
 47
0.1251877957572703
 98
        1
 10
340.8793677061444
 20
-47.00871773814561
  0
LWPOLYLINE
  5
36C
330
1F
100
AcDbEntity
  8
izolace
100
AcDbPolyline
 90
        4
 70
     1
 43
0.0
 10
350.6427811479557
 20
-45.92608121101057
 10
350.6427811479557
 20
-47.92608121101056
 10
334.6427811479557
 20
-47.92608121101056
 10
334.6427811479557
 20
-45.92608121101057
  0
HATCH
  5
36D
330
1F
100
AcDbEntity
  8
izolace
100
AcDbHatch
 10
0.0
 20
0.0
 30
0.0
210
0.0
220
0.0
230
1.0
  2
SOLID
 70
     1
 71
     0
 91
        1
 92
        7
 72
     0
 73
     1
 93
        4
 10
334.6427811479266
 20
328.8096583824562
 10
350.6427811479557
 20
328.8096583824562
 10
350.6427811479557
 20
330.8096583824562
 10
334.6427811479557
 20
330.8096583824562
 97
        0
 75
     0
 76
     1
 47
0.1251877957572703
 98
        1
 10
340.8793677061444
 20
329.7270218553212
  0
LWPOLYLINE
  5
36E
330
1F
100
AcDbEntity
  8
izolace
100
AcDbPolyline
 90
        4
 70
     1
 43
0.0
 10
350.6427811479557
 20
330.8096583824562
 10
350.6427811479557
 20
328.8096583824562
 10
334.6427811479557
 20
328.8096583824562
 10
334.6427811479557
 20
330.8096583824562
  0
LWPOLYLINE
  5
36F
330
1F
100
AcDbEntity
  8
izolace
100
AcDbPolyline
 90
        4
 70
     1
 43
0.0
 10
30.71921753098695
 20
330.8096583824562
 10
30.71921753098695
 20
328.8096583824562
 10
14.71921753098695
 20
328.8096583824562
 10
14.71921753098695
 20
330.8096583824562
  0
HATCH
  5
370
330
1F
100
AcDbEntity
  8
izolace
100
AcDbHatch
 10
0.0
 20
0.0
 30
0.0
210
0.0
220
0.0
230
1.0
  2
SOLID
 70
     1
 71
     0
 91
        1
 92
        7
 72
     0
 73
     1
 93
        4
 10
14.71921753099422
 20
328.8096583824562
 10
30.71921753098695
 20
328.8096583824562
 10
30.71921753098695
 20
330.8096583824562
 10
14.71921753098695
 20
330.8096583824562
 97
        0
 75
     0
 76
     1
 47
0.1251877957572703
 98
        1
 10
20.95580408917567
 20
329.7270218553212
  0
HATCH
  5
371
330
1F
100
AcDbEntity
  8
izolace
100
AcDbHatch
 10
0.0
 20
0.0
 30
0.0
210
0.0
220
0.0
230
1.0
  2
SOLID
 70
     1
 71
     0
 91
        1
 92
        7
 72
     0
 73
     1
 93
        4
 10
14.71921753099422
 20
-47.92608121101056
 10
30.71921753098695
 20
-47.92608121101056
 10
30.71921753098695
 20
-45.92608121101057
 10
14.71921753098695
 20
-45.92608121101057
 97
        0
 75
     0
 76
     1
 47
0.1251877957572703
 98
        1
 10
20.95580408917567
 20
-47.00871773814561
  0
LWPOLYLINE
  5
372
330
1F
100
AcDbEntity
  8
izolace
100
AcDbPolyline
 90
        4
 70
     1
 43
0.0
 10
30.71921753098695
 20
-45.92608121101057
 10
30.71921753098695
 20
-47.92608121101056
 10
14.71921753098695
 20
-47.92608121101056
 10
14.71921753098695
 20
-45.92608121101057
  0
LINE
  5
373
330
1F
100
AcDbEntity
  8
CETRIS
100
AcDbLine
 10
334.6427811479557
 20
328.8096583824562
 30
0.0
 11
334.6427811479557
 21
-45.92608121101057
 31
0.0
  0
LINE
  5
374
330
1F
100
AcDbEntity
  8
CETRIS
100
AcDbLine
 10
350.6427811479557
 20
328.8096583824562
 30
0.0
 11
350.6427811479557
 21
-45.92608121101057
 31
0.0
  0
LINE
  5
375
330
1F
100
AcDbEntity
  8
CETRIS
100
AcDbLine
 10
350.6427811479557
 20
-47.92608121101056
 30
0.0
 11
350.6427811479557
 21
-63.92608121101784
 31
0.0
  0
LINE
  5
376
330
1F
100
AcDbEntity
  8
CETRIS
100
AcDbLine
 10
350.6427811479557
 20
-45.92608121101057
 30
0.0
 11
334.6427811479557
 21
-45.92608121101057
 31
0.0
  0
LINE
  5
377
330
1F
100
AcDbEntity
  8
CETRIS
100
AcDbLine
 10
350.6427811479557
 20
328.8096583824562
 30
0.0
 11
334.6427811479557
 21
328.8096583824562
 31
0.0
  0
LINE
  5
378
330
1F
100
AcDbEntity
  8
CETRIS
100
AcDbLine
 10
350.6427811479557
 20
330.8096583824562
 30
0.0
 11
350.6427811479557
 21
346.8096583824562
 31
0.0
  0
LINE
  5
379
330
1F
100
AcDbEntity
  8
CETRIS
100
AcDbLine
 10
14.71921753098695
 20
-45.92608121101057
 30
0.0
 11
30.71921753098695
 21
-45.92608121101057
 31
0.0
  0
LINE
  5
37A
330
1F
100
AcDbEntity
  8
CETRIS
100
AcDbLine
 10
14.71921753098695
 20
-47.92608121101056
 30
0.0
 11
14.71921753098695
 21
-63.92608121101057
 31
0.0
  0
LINE
  5
37B
330
1F
100
AcDbEntity
  8
CETRIS
100
AcDbLine
 10
14.71921753098695
 20
330.8096583824562
 30
0.0
 11
14.71921753098695
 21
346.8096583824562
 31
0.0
  0
LINE
  5
37C
330
1F
100
AcDbEntity
  8
CETRIS
100
AcDbLine
 10
14.71921753098695
 20
328.8096583824562
 30
0.0
 11
30.71921753098695
 21
328.8096583824562
 31
0.0
  0
LINE
  5
37D
330
1F
100
AcDbEntity
  8
CETRIS
100
AcDbLine
 10
14.71921753098695
 20
346.8096583824562
 30
0.0
 11
350.6427811479557
 21
346.8096583824562
 31
0.0
  0
LINE
  5
37E
330
1F
100
AcDbEntity
  8
CETRIS
100
AcDbLine
 10
14.71921753098695
 20
-63.92608121101057
 30
0.0
 11
350.6427811479557
 21
-63.92608121101784
 31
0.0
  0
LINE
  5
37F
330
1F
100
AcDbEntity
  8
CETRIS
100
AcDbLine
 10
14.71921753098695
 20
328.8096583824562
 30
0.0
 11
14.71921753098695
 21
-45.92608121101057
 31
0.0
  0
LINE
  5
380
330
1F
100
AcDbEntity
  8
CETRIS
100
AcDbLine
 10
14.71921753098695
 20
330.8096583824562
 30
0.0
 11
350.6427811479557
 21
330.8096583824562
 31
0.0
  0
LINE
  5
381
330
1F
100
AcDbEntity
  8
CETRIS
100
AcDbLine
 10
14.71921753098695
 20
-47.92608121101056
 30
0.0
 11
350.6427811479557
 21
-47.92608121101056
 31
0.0
  0
LINE
  5
382
330
1F
100
AcDbEntity
  8
CETRIS
100
AcDbLine
 10
30.71921753098695
 20
328.8096583824562
 30
0.0
 11
30.71921753098695
 21
-45.92608121101057
 31
0.0
  0
LINE
  5
383
330
1F
100
AcDbEntity
  8
STAVBA OBRYS
100
AcDbLine
 10
32.68099933946769
 20
203.9413003044728
 30
0.0
 11
32.68099933946769
 21
328.9413003044728
 31
0.0
  0
LINE
  5
384
330
1F
100
AcDbEntity
  8
STAVBA OBRYS
100
AcDbLine
 10
51.21237140978746
 20
251.7476967888551
 30
0.0
 11
45.26888996446769
 21
209.5350503044728
 31
0.0
  0
LINE
  5
385
330
1F
100
AcDbEntity
  8
STAVBA OBRYS
100
AcDbLine
 10
38.83236652696769
 20
203.9413003044728
 30
0.0
 11
32.68099933946769
 21
203.9413003044728
 31
0.0
  0
ARC
  5
386
330
1F
100
AcDbEntity
  8
STAVBA OBRYS
100
AcDbCircle
 10
38.83236652696041
 20
210.4413003044746
 30
0.0
 40
6.5
100
AcDbArc
 50
270.0000323295899
 51
351.985552333809
  0
ARC
  5
387
330
1F
100
AcDbEntity
  8
STAVBA OBRYS
100
AcDbCircle
 10
61.90676838243644
 20
282.6417397576069
 30
0.0
 40
10.8000001907349
100
AcDbArc
 50
188.0145259859667
 51
269.9999640276981
  0
LINE
  5
388
330
1F
100
AcDbEntity
  8
STAVBA OBRYS
100
AcDbLine
 10
51.21224933946769
 20
281.1358803826051
 30
0.0
 11
45.26888996446769
 21
323.3475503044728
 31
0.0
  0
LINE
  5
389
330
1F
100
AcDbEntity
  8
STAVBA OBRYS
100
AcDbLine
 10
38.83236652696769
 20
328.9413003044728
 30
0.0
 11
32.68099933946769
 21
328.9413003044728
 31
0.0
  0
ARC
  5
38A
330
1F
100
AcDbEntity
  8
STAVBA OBRYS
100
AcDbCircle
 10
38.83236652696041
 20
322.4413003044746
 30
0.0
 40
6.5
100
AcDbArc
 50
8.01446269315485
 51
89.99998269732657
  0
LINE
  5
38B
330
1F
100
AcDbEntity
  8
STAVBA OBRYS
100
AcDbLine
 10
303.4552302965062
 20
271.8416909294728
 30
0.0
 11
61.90676838243644
 21
271.8416909294728
 31
0.0
  0
LINE
  5
38C
330
1F
100
AcDbEntity
  8
STAVBA OBRYS
100
AcDbLine
 10
303.4551082261864
 20
261.0418862419728
 30
0.0
 11
61.90689045275622
 21
261.0418862419728
 31
0.0
  0
ARC
  5
38D
330
1F
100
AcDbEntity
  8
STAVBA OBRYS
100
AcDbCircle
 10
61.90689045275622
 20
250.2418374138569
 30
0.0
 40
10.8000001907349
100
AcDbArc
 50
90.0
 51
171.9855473248403
  0
ARC
  5
38E
330
1F
100
AcDbEntity
  8
STAVBA OBRYS
100
AcDbCircle
 10
303.4552302965062
 20
282.6417397576069
 30
0.0
 40
10.8000001907349
100
AcDbArc
 50
269.9999640276981
 51
351.9855113526053
  0
LINE
  5
38F
330
1F
100
AcDbEntity
  8
STAVBA OBRYS
100
AcDbLine
 10
332.6809993394677
 20
203.9413003044728
 30
0.0
 11
332.6809993394677
 21
328.9413003044728
 31
0.0
  0
LINE
  5
390
330
1F
100
AcDbEntity
  8
STAVBA OBRYS
100
AcDbLine
 10
314.1496272691552
 20
251.7476967888551
 30
0.0
 11
320.0931087144677
 21
209.5350503044728
 31
0.0
  0
ARC
  5
391
330
1F
100
AcDbEntity
  8
STAVBA OBRYS
100
AcDbCircle
 10
303.4551082261864
 20
250.2418374138569
 30
0.0
 40
10.8000001907349
100
AcDbArc
 50
8.01446269315485
 51
89.99998269732657
  0
LINE
  5
392
330
1F
100
AcDbEntity
  8
STAVBA OBRYS
100
AcDbLine
 10
326.5296321519676
 20
203.9413003044728
 30
0.0
 11
332.6809993394677
 21
203.9413003044728
 31
0.0
  0
ARC
  5
393
330
1F
100
AcDbEntity
  8
STAVBA OBRYS
100
AcDbCircle
 10
326.5296321519604
 20
210.4413003044746
 30
0.0
 40
6.5
100
AcDbArc
 50
188.014457684186
 51
269.9999776880765
  0
LINE
  5
394
330
1F
100
AcDbEntity
  8
STAVBA OBRYS
100
AcDbLine
 10
314.1497493394676
 20
281.1358803826051
 30
0.0
 11
320.0931087144677
 21
323.3475503044728
 31
0.0
  0
LINE
  5
395
330
1F
100
AcDbEntity
  8
STAVBA OBRYS
100
AcDbLine
 10
326.5296321519676
 20
328.9413003044728
 30
0.0
 11
332.6809993394677
 21
328.9413003044728
 31
0.0
  0
ARC
  5
396
330
1F
100
AcDbEntity
  8
STAVBA OBRYS
100
AcDbCircle
 10
326.5296321519604
 20
322.4413003044746
 30
0.0
 40
6.5
100
AcDbArc
 50
90.00002732075669
 51
171.9855473248403
  0
ARC
  5
397
102
{ACAD_REACTORS
330
3C9
102
}
330
1F
100
AcDbEntity
  8
STAVBA OBRYS
100
AcDbCircle
 10
326.5296321519604
 20
72.44130030447468
 30
0.0
 40
6.5
100
AcDbArc
 50
90.00002732075669
 51
171.9855473248403
  0
LINE
  5
398
102
{ACAD_REACTORS
330
3C9
102
}
330
1F
100
AcDbEntity
  8
STAVBA OBRYS
100
AcDbLine
 10
326.5296321519676
 20
78.94130030447286
 30
0.0
 11
332.6809993394677
 21
78.94130030447286
 31
0.0
  0
LINE
  5
399
102
{ACAD_REACTORS
330
3C9
102
}
330
1F
100
AcDbEntity
  8
STAVBA OBRYS
100
AcDbLine
 10
314.1497493394676
 20
31.13588038260513
 30
0.0
 11
320.0931087144677
 21
73.34755030447286
 31
0.0
  0
ARC
  5
39A
102
{ACAD_REACTORS
330
3C9
102
}
330
1F
100
AcDbEntity
  8
STAVBA OBRYS
100
AcDbCircle
 10
326.5296321519604
 20
-39.55869969552532
 30
0.0
 40
6.5
100
AcDbArc
 50
188.014457684186
 51
269.9999776880765
  0
LINE
  5
39B
102
{ACAD_REACTORS
330
3C9
102
}
330
1F
100
AcDbEntity
  8
STAVBA OBRYS
100
AcDbLine
 10
326.5296321519676
 20
-46.05869969552713
 30
0.0
 11
332.6809993394677
 21
-46.05869969552713
 31
0.0
  0
ARC
  5
39C
102
{ACAD_REACTORS
330
3C9
102
}
330
1F
100
AcDbEntity
  8
STAVBA OBRYS
100
AcDbCircle
 10
303.4551082261864
 20
0.2418374138569561
 30
0.0
 40
10.8000001907349
100
AcDbArc
 50
8.01446269315485
 51
89.99998269732657
  0
LINE
  5
39D
102
{ACAD_REACTORS
330
3C9
102
}
330
1F
100
AcDbEntity
  8
STAVBA OBRYS
100
AcDbLine
 10
314.1496272691552
 20
1.747696788855137
 30
0.0
 11
320.0931087144677
 21
-40.46494969552713
 31
0.0
  0
LINE
  5
39E
102
{ACAD_REACTORS
330
3C9
102
}
330
1F
100
AcDbEntity
  8
STAVBA OBRYS
100
AcDbLine
 10
332.6809993394677
 20
-46.05869969552713
 30
0.0
 11
332.6809993394677
 21
78.94130030447286
 31
0.0
  0
ARC
  5
39F
102
{ACAD_REACTORS
330
3C9
102
}
330
1F
100
AcDbEntity
  8
STAVBA OBRYS
100
AcDbCircle
 10
303.4552302965062
 20
32.64173975760695
 30
0.0
 40
10.8000001907349
100
AcDbArc
 50
269.9999640276981
 51
351.9855113526053
  0
ARC
  5
3A0
102
{ACAD_REACTORS
330
3C9
102
}
330
1F
100
AcDbEntity
  8
STAVBA OBRYS
100
AcDbCircle
 10
61.90689045275622
 20
0.2418374138569561
 30
0.0
 40
10.8000001907349
100
AcDbArc
 50
90.0
 51
171.9855473248403
  0
LINE
  5
3A1
102
{ACAD_REACTORS
330
3C9
102
}
330
1F
100
AcDbEntity
  8
STAVBA OBRYS
100
AcDbLine
 10
303.4551082261864
 20
11.04188624197286
 30
0.0
 11
61.90689045275622
 21
11.04188624197286
 31
0.0
  0
LINE
  5
3A2
102
{ACAD_REACTORS
330
3C9
102
}
330
1F
100
AcDbEntity
  8
STAVBA OBRYS
100
AcDbLine
 10
303.4552302965062
 20
21.84169092947286
 30
0.0
 11
61.90676838243644
 21
21.84169092947286
 31
0.0
  0
ARC
  5
3A3
102
{ACAD_REACTORS
330
3C9
102
}
330
1F
100
AcDbEntity
  8
STAVBA OBRYS
100
AcDbCircle
 10
38.83236652696041
 20
72.44130030447468
 30
0.0
 40
6.5
100
AcDbArc
 50
8.01446269315485
 51
89.99998269732657
  0
LINE
  5
3A4
102
{ACAD_REACTORS
330
3C9
102
}
330
1F
100
AcDbEntity
  8
STAVBA OBRYS
100
AcDbLine
 10
38.83236652696769
 20
78.94130030447286
 30
0.0
 11
32.68099933946769
 21
78.94130030447286
 31
0.0
  0
LINE
  5
3A5
102
{ACAD_REACTORS
330
3C9
102
}
330
1F
100
AcDbEntity
  8
STAVBA OBRYS
100
AcDbLine
 10
51.21224933946769
 20
31.13588038260513
 30
0.0
 11
45.26888996446769
 21
73.34755030447286
 31
0.0
  0
ARC
  5
3A6
102
{ACAD_REACTORS
330
3C9
102
}
330
1F
100
AcDbEntity
  8
STAVBA OBRYS
100
AcDbCircle
 10
61.90676838243644
 20
32.64173975760695
 30
0.0
 40
10.8000001907349
100
AcDbArc
 50
188.0145259859667
 51
269.9999640276981
  0
ARC
  5
3A7
102
{ACAD_REACTORS
330
3C9
102
}
330
1F
100
AcDbEntity
  8
STAVBA OBRYS
100
AcDbCircle
 10
38.83236652696041
 20
-39.55869969552532
 30
0.0
 40
6.5
100
AcDbArc
 50
270.0000323295899
 51
351.985552333809
  0
LINE
  5
3A8
102
{ACAD_REACTORS
330
3C9
102
}
330
1F
100
AcDbEntity
  8
STAVBA OBRYS
100
AcDbLine
 10
38.83236652696769
 20
-46.05869969552713
 30
0.0
 11
32.68099933946769
 21
-46.05869969552713
 31
0.0
  0
LINE
  5
3A9
102
{ACAD_REACTORS
330
3C9
102
}
330
1F
100
AcDbEntity
  8
STAVBA OBRYS
100
AcDbLine
 10
51.21237140978746
 20
1.747696788855137
 30
0.0
 11
45.26888996446769
 21
-40.46494969552713
 31
0.0
  0
LINE
  5
3AA
102
{ACAD_REACTORS
330
3C9
102
}
330
1F
100
AcDbEntity
  8
STAVBA OBRYS
100
AcDbLine
 10
32.68099933946769
 20
-46.05869969552713
 30
0.0
 11
32.68099933946769
 21
78.94130030447286
 31
0.0
  0
TEXT
  5
3AC
330
1F
100
AcDbEntity
  8
POPIS
100
AcDbText
 10
-5.756070735816592
 20
472.29467994481
 30
0.0
 40
35.0
  1
PŮDORYS
 41
0.85
  7
SIMPLEX7
100
AcDbText
  0
TEXT
  5
3AD
330
1F
100
AcDbEntity
  8
POPIS
100
AcDbText
 10
-4.899445255108275
 20
596.0530482804052
 30
0.0
 40
50.0
  1
Protipožární obklad sloupu
 41
0.85
  7
SIMPLEX7
100
AcDbText
  0
TEXT
  5
3AE
330
1F
100
AcDbEntity
  8
POPIS
100
AcDbText
 10
665.5877118001995
 20
264.9972168341528
 30
0.0
 40
25.0
  1
01
 41
0.85
  7
SIMPLEX7
100
AcDbText
  0
TEXT
  5
3AF
330
1F
100
AcDbEntity
  8
POPIS
100
AcDbText
 10
719.9314149599417
 20
264.9972168341528
 30
0.0
 40
25.0
  1
Deska CETRIS     min. tl. 12 mm
 41
0.7
  7
SIMPLEX7
100
AcDbText
  0
TEXT
  5
3B0
330
1F
100
AcDbEntity
  8
POPIS
100
AcDbText
 10
665.5877118001995
 20
228.4022052185255
 30
0.0
 40
25.0
  1
02
 41
0.85
  7
SIMPLEX7
100
AcDbText
  0
TEXT
  5
3B1
330
1F
100
AcDbEntity
  8
POPIS
100
AcDbText
 10
719.9314149599417
 20
228.4022052185255
 30
0.0
 40
25.0
  1
Vrut Cetris 4,2x35 (45,55) mm - max. rozteč 200 mm
 41
0.7
  7
SIMPLEX7
100
AcDbText
  0
TEXT
  5
3B2
330
1F
100
AcDbEntity
  8
POPIS
100
AcDbText
 10
665.5877118001995
 20
151.4010943814509
 30
0.0
 40
25.0
  1
03
 41
0.85
  7
SIMPLEX7
100
AcDbText
  0
TEXT
  5
3B3
330
1F
100
AcDbEntity
  8
POPIS
100
AcDbText
 10
719.9314149599417
 20
151.4010943814509
 30
0.0
 40
25.0
  1
Žáruvzdorný tmel DEXAFLAMM - R
 41
0.7
  7
SIMPLEX7
100
AcDbText
  0
TEXT
  5
3B4
330
1F
100
AcDbEntity
  8
POPIS
100
AcDbText
 10
665.5877118001995
 20
115.9969331632864
 30
0.0
 40
25.0
  1
04
 41
0.85
  7
SIMPLEX7
100
AcDbText
  0
TEXT
  5
3B5
330
1F
100
AcDbEntity
  8
POPIS
100
AcDbText
 10
719.9314149599417
 20
115.9969331632864
 30
0.0
 40
25.0
  1
Ocelový sloup
 41
0.7
  7
SIMPLEX7
100
AcDbText
  0
TEXT
  5
3B6
330
1F
100
AcDbEntity
  8
POPIS
100
AcDbText
 10
887.557600198987
 20
289.9725269424316
 30
0.0
 40
12.0
  1
R
 41
0.85
  7
SIMPLEX7
100
AcDbText
  0
CIRCLE
  5
3B7
330
1F
100
AcDbEntity
  8
POPIS
100
AcDbCircle
 10
892.3166292541687
 20
295.5178726874192
 30
0.0
 40
11.13656048292026
  0
LINE
  5
3BD
330
1F
100
AcDbEntity
  8
POPIS
100
AcDbLine
 10
479.7354844462939
 20
129.1051579030217
 30
0.0
 11
344.287093659816
 21
129.1051579030217
 31
0.0
  0
TEXT
  5
3BE
330
1F
100
AcDbEntity
  8
POPIS
100
AcDbText
 10
491.6554067187576
 20
116.3583509518093
 30
0.0
 40
25.0
  1
01
 41
0.85
  7
SIMPLEX7
100
AcDbText
  0
INSERT
  5
3BF
330
1F
100
AcDbEntity
  8
POPIS
100
AcDbBlockReference
  2
E_PUNKT
 10
343.00948328419
 20
129.0760895721496
 30
0.0
  0
LINE
  5
3C0
330
1F
100
AcDbEntity
  8
POPIS
100
AcDbLine
 10
479.7354844462939
 20
-1.28539891609671
 30
0.0
 11
419.8830214196537
 21
-1.28539891609671
 31
0.0
  0
TEXT
  5
3C1
330
1F
100
AcDbEntity
  8
POPIS
100
AcDbText
 10
491.6554067187576
 20
-14.03220586730913
 30
0.0
 40
25.0
  1
03
 41
0.85
  7
SIMPLEX7
100
AcDbText
  0
INSERT
  5
3C2
330
1F
100
AcDbEntity
  8
POPIS
100
AcDbBlockReference
  2
E_PUNKT
 10
350.4519035628368
 20
-46.75290388090525
 30
0.0
  0
LINE
  5
3C3
330
1F
100
AcDbEntity
  8
POPIS
100
AcDbLine
 10
479.7354844462939
 20
-52.24997070481459
 30
0.0
 11
342.3450027187395
 21
-52.24997070481459
 31
0.0
  0
TEXT
  5
3C4
330
1F
100
AcDbEntity
  8
POPIS
100
AcDbText
 10
491.6554067187576
 20
-64.99677765602701
 30
0.0
 40
25.0
  1
02
 41
0.85
  7
SIMPLEX7
100
AcDbText
  0
LINE
  5
3C5
330
1F
100
AcDbEntity
  8
POPIS
100
AcDbLine
 10
350.6427811479557
 20
-45.92608121101057
 30
0.0
 11
419.8830214196537
 21
-1.28539891609671
 31
0.0
  0
TEXT
  5
3C6
330
1F
100
AcDbEntity
  8
POPIS
100
AcDbText
 10
491.6554067187576
 20
242.5662851039405
 30
0.0
 40
25.0
  1
04
 41
0.85
  7
SIMPLEX7
100
AcDbText
  0
LINE
  5
3C7
330
1F
100
AcDbEntity
  8
POPIS
100
AcDbLine
 10
479.7354844462939
 20
255.313092055153
 30
0.0
 11
322.5187098311112
 21
255.313092055153
 31
0.0
  0
INSERT
  5
3C8
330
1F
100
AcDbEntity
  8
POPIS
100
AcDbBlockReference
  2
E_PUNKT
 10
321.2410994554852
 20
255.2840237242808
 30
0.0
  0
HATCH
  5
3C9
330
1F
100
AcDbEntity
  8
STAVBA OBRYS
100
AcDbHatch
 10
0.0
 20
0.0
 30
0.0
210
0.0
220
0.0
230
1.0
  2
ANSI37
 70
     0
 71
     1
 91
        1
 92
       33
 93
       20
 72
     2
 10
303.4552302965062
 20
32.64173975760695
 40
10.8000001907349
 50
269.9999640278023
 51
351.9855113526054
 73
     1
 72
     1
 10
332.6809993394677
 20
-46.05869969552713
 11
332.6809993394677
 21
78.94130030447286
 72
     1
 10
314.1496272691552
 20
1.747696788855137
 11
320.0931087144677
 21
-40.46494969552713
 72
     2
 10
303.4551082261864
 20
0.2418374138569561
 40
10.8000001907349
 50
8.014462693140185
 51
89.99998269717028
 73
     1
 72
     1
 10
326.5296321519676
 20
-46.05869969552713
 11
332.6809993394677
 21
-46.05869969552713
 72
     2
 10
326.5296321519604
 20
-39.55869969552532
 40
6.5
 50
188.0144576841643
 51
269.9999776881806
 73
     1
 72
     1
 10
314.1497493394676
 20
31.13588038260513
 11
320.0931087144677
 21
73.34755030447286
 72
     1
 10
326.5296321519676
 20
78.94130030447286
 11
332.6809993394677
 21
78.94130030447286
 72
     2
 10
326.5296321519604
 20
72.44130030447468
 40
6.5
 50
90.00002732075669
 51
171.9855473248187
 73
     1
 72
     1
 10
32.68099933946769
 20
-46.05869969552713
 11
32.68099933946769
 21
78.94130030447286
 72
     2
 10
61.90676838243644
 20
32.64173975760695
 40
10.8000001907349
 50
188.0145259859518
 51
269.9999640278023
 73
     1
 72
     1
 10
51.21224933946769
 20
31.13588038260513
 11
45.26888996446769
 21
73.34755030447286
 72
     1
 10
38.83236652696769
 20
78.94130030447286
 11
32.68099933946769
 21
78.94130030447286
 72
     2
 10
38.83236652696041
 20
72.44130030447468
 40
6.5
 50
8.014462693140185
 51
89.99998269717028
 73
     1
 72
     1
 10
303.4552302965062
 20
21.84169092947286
 11
61.90676838243644
 21
21.84169092947286
 72
     1
 10
303.4551082261864
 20
11.04188624197286
 11
61.90689045275622
 21
11.04188624197286
 72
     2
 10
61.90689045275622
 20
0.2418374138569561
 40
10.8000001907349
 50
90.0
 51
171.9855473248187
 73
     1
 72
     1
 10
51.21237140978746
 20
1.747696788855137
 11
45.26888996446769
 21
-40.46494969552713
 72
     1
 10
38.83236652696769
 20
-46.05869969552713
 11
32.68099933946769
 21
-46.05869969552713
 72
     2
 10
38.83236652696041
 20
-39.55869969552532
 40
6.5
 50
270.000032329694
 51
351.9855523338018
 73
     1
 97
       20
330
39F
330
39E
330
39D
330
39C
330
39B
330
39A
330
399
330
398
330
397
330
3AA
330
3A6
330
3A5
330
3A4
330
3A3
330
3A2
330
3A1
330
3A0
330
3A9
330
3A8
330
3A7
 75
     0
 76
     1
 52
0.0
 41
1.0
 77
     0
 78
     2
 53
45.0
 43
-34680.30452406384
 44
-8490.498272295136
 45
-2.245064030267287
 46
2.245064030267288
 79
     0
 53
135.0
 43
-34680.30452406384
 44
-8490.498272295136
 45
-2.245064030267288
 46
-2.245064030267287
 79
     0
 98
        1
 10
-34680.30452406384
 20
-8490.498272295136
  0
HATCH
  5
3CA
330
1F
100
AcDbEntity
  8
STAVBA OBRYS
100
AcDbHatch
 10
0.0
 20
0.0
 30
0.0
210
0.0
220
0.0
230
1.0
  2
ANSI37
 70
     0
 71
     0
 91
        1
 92
       33
 93
       20
 72
     2
 10
303.4552302965062
 20
282.6417397576069
 40
10.8000001907349
 50
269.9999640278023
 51
351.9855113526054
 73
     1
 72
     1
 10
332.6809993394677
 20
203.9413003044728
 11
332.6809993394677
 21
328.9413003044728
 72
     1
 10
314.1496272691552
 20
251.7476967888551
 11
320.0931087144677
 21
209.5350503044728
 72
     2
 10
303.4551082261864
 20
250.2418374138569
 40
10.8000001907349
 50
8.014462693140185
 51
89.99998269717028
 73
     1
 72
     1
 10
326.5296321519676
 20
203.9413003044728
 11
332.6809993394677
 21
203.9413003044728
 72
     2
 10
326.5296321519604
 20
210.4413003044746
 40
6.5
 50
188.0144576841643
 51
269.9999776881806
 73
     1
 72
     1
 10
314.1497493394676
 20
281.1358803826051
 11
320.0931087144677
 21
323.3475503044728
 72
     1
 10
326.5296321519676
 20
328.9413003044728
 11
332.6809993394677
 21
328.9413003044728
 72
     2
 10
326.5296321519604
 20
322.4413003044746
 40
6.5
 50
90.00002732075669
 51
171.9855473248187
 73
     1
 72
     1
 10
32.68099933946769
 20
203.9413003044728
 11
32.68099933946769
 21
328.9413003044728
 72
     2
 10
61.90676838243644
 20
282.6417397576069
 40
10.8000001907349
 50
188.0145259859518
 51
269.9999640278023
 73
     1
 72
     1
 10
51.21224933946769
 20
281.1358803826051
 11
45.26888996446769
 21
323.3475503044728
 72
     1
 10
38.83236652696769
 20
328.9413003044728
 11
32.68099933946769
 21
328.9413003044728
 72
     2
 10
38.83236652696041
 20
322.4413003044746
 40
6.5
 50
8.014462693140185
 51
89.99998269717028
 73
     1
 72
     1
 10
303.4552302965062
 20
271.8416909294728
 11
61.90676838243644
 21
271.8416909294728
 72
     1
 10
303.4551082261864
 20
261.0418862419728
 11
61.90689045275622
 21
261.0418862419728
 72
     2
 10
61.90689045275622
 20
250.2418374138569
 40
10.8000001907349
 50
90.0
 51
171.9855473248187
 73
     1
 72
     1
 10
51.21237140978746
 20
251.7476967888551
 11
45.26888996446769
 21
209.5350503044728
 72
     1
 10
38.83236652696769
 20
203.9413003044728
 11
32.68099933946769
 21
203.9413003044728
 72
     2
 10
38.83236652696041
 20
210.4413003044746
 40
6.5
 50
270.000032329694
 51
351.9855523338018
 73
     1
 97
        0
 75
     0
 76
     1
 52
0.0
 41
1.0
 77
     0
 78
     2
 53
45.0
 43
-34680.30452406384
 44
-8490.498272295136
 45
-2.245064030267287
 46
2.245064030267288
 79
     0
 53
135.0
 43
-34680.30452406384
 44
-8490.498272295136
 45
-2.245064030267288
 46
-2.245064030267287
 79
     0
 98
        1
 10
-34680.30452406384
 20
-8240.498272295136
  0
HATCH
  5
3CB
330
1F
100
AcDbEntity
  8
CETRIS
100
AcDbHatch
 10
0.0
 20
0.0
 30
0.0
210
0.0
220
0.0
230
1.0
  2
ANSI31
 70
     0
 71
     0
 91
        6
 92
        7
 72
     0
 73
     1
 93
       19
 10
21.42133502266779
 20
340.2100611113774
 10
21.19437213179162
 20
341.7336890648011
 10
20.58138628262941
 20
343.1475562745208
 10
19.37171213816736
 20
344.6719805841739
 10
17.67086621758471
 20
345.6097316057284
 10
17.67086621758471
 20
346.8096583824562
 10
14.71921753098695
 20
346.8096583824562
 10
14.71921753098695
 20
330.8096583824562
 10
21.42133502266779
 20
330.8096583824562
 10
21.42133502266779
 20
331.5379763304727
 10
20.74881792424684
 20
331.3119994489507
 10
20.37116655330146
 20
331.6896508218042
 10
20.74881792422502
 20
331.9082421338253
 10
21.42133502266779
 20
332.1342190154
 10
21.42133502266779
 20
334.6579406222126
 10
20.74881792424684
 20
334.4318090679107
 10
20.37116655329418
 20
334.8094604410425
 10
20.74881792423957
 20
335.0280517530691
 10
21.42133502267506
 20
335.2541833073237
 97
        0
 92
        7
 72
     0
 73
     1
 93
       36
 10
341.2412934935387
 20
340.2100611113755
 10
341.1752510116243
 20
340.9969898345106
 10
340.7473701473177
 20
342.4778297015373
 10
339.9511396679995
 20
343.7968189798384
 10
338.8405097676554
 20
344.8655909692397
 10
337.49082468409
 20
345.609731605723
 10
337.49082468409
 20
346.8096583824544
 10
27.87117399485259
 20
346.8096583824562
 10
27.87117399485259
 20
345.6097316057266
 10
26.52148891130173
 20
344.865590969247
 10
25.41085901094311
 20
343.7968189798475
 10
24.61462853161765
 20
342.4778297015227
 10
24.18674766732556
 20
340.9969898345052
 10
24.12070518540395
 20
340.2100611113501
 10
24.12070518540395
 20
336.1618372120801
 10
24.79322228382489
 20
336.3879687663329
 10
25.17087365914312
 20
336.0093872175029
 10
24.79322228383944
 20
335.7917260814547
 10
24.12070518540395
 20
335.5655945271528
 10
24.12070518540395
 20
333.0412520901
 10
24.79322228381761
 20
333.2672289716674
 10
25.17087365914312
 20
332.8895775985411
 10
24.79322228383216
 20
332.6709862865127
 10
24.12070518540395
 20
332.4450094049907
 10
24.12070518541122
 20
330.8096583824562
 10
341.2412934935387
 20
330.8096583824562
 10
341.2412934935387
 20
332.4450094049925
 10
340.5687763950886
 20
332.67098628652
 10
340.1911250197995
 20
332.8895775985411
 10
340.5687763951032
 20
333.2672289716674
 10
341.2412934935459
 20
333.0412520900981
 10
341.2412934935459
 20
335.565594527151
 10
340.5687763951177
 20
335.7917260814547
 10
340.1911250197995
 20
336.0093872175029
 10
340.5687763951104
 20
336.3879687663366
 10
341.2412934935387
 20
336.1618372120819
 97
        0
 92
        7
 72
     0
 73
     1
 93
       19
 10
350.6427811479557
 20
346.8096583824562
 10
347.6911324613579
 20
346.8096583824562
 10
347.6911324613506
 20
345.6097316057248
 10
345.9902865407898
 20
344.6719805841685
 10
344.7806123962986
 20
343.1475562744844
 10
344.1676265471583
 20
341.7336890647902
 10
343.9406636562748
 20
340.2100611114283
 10
343.9406636562748
 20
335.2541833073237
 10
344.6131807547103
 20
335.0280517530636
 10
344.9908321256484
 20
334.8094604410389
 10
344.613180754703
 20
334.4318090679107
 10
343.9406636562748
 20
334.6579406222108
 10
343.9406636562748
 20
332.1342190153982
 10
344.6131807547103
 20
331.9082421338325
 10
344.9908321256557
 20
331.6896508218023
 10
344.613180754703
 20
331.3119994489507
 10
343.9406636562748
 20
331.5379763304745
 10
343.9406636562748
 20
330.8096583824562
 10
350.6427811479557
 20
330.8096583824562
 97
        0
 92
        7
 72
     1
 73
     1
 93
       20
 10
350.6427811479557
 20
-47.963127209935
 42
-0.102429420534644
 10
350.13730731863
 20
-47.92608121101056
 42
0.0
 10
343.9406636562748
 20
-47.92608121101056
 42
0.0
 10
343.9406636562675
 20
-48.65439915903062
 42
0.0
 10
344.6131807547103
 20
-48.42842227750316
 42
0.0
 10
344.9908321256484
 20
-48.80607365035666
 42
0.0
 10
344.6131807547176
 20
-49.02466496237957
 42
0.0
 10
343.9406636562748
 20
-49.25064184395433
 42
0.0
 10
343.9406636562748
 20
-51.77436345076512
 42
0.0
 10
344.6131807547103
 20
-51.54823189646504
 42
0.0
 10
344.9908321256484
 20
-51.92588326959503
 42
0.0
 10
344.6131807546885
 20
-52.14447458162339
 42
0.0
 10
343.9406636562821
 20
-52.37060613587255
 42
0.0
 10
343.9406636562748
 20
-57.3264839399244
 42
0.0
 10
344.1676265471583
 20
-58.85011189335364
 42
0.0
 10
344.7806123962841
 20
-60.26397910304604
 42
0.0
 10
345.9902865407753
 20
-61.78840341271189
 42
0.0
 10
347.6911324613579
 20
-62.72615443428094
 42
0.0
 10
347.6911324613579
 20
-63.92608121101784
 42
0.0
 10
350.6427811479557
 20
-63.92608121101784
 42
0.0
 97
        0
 92
        7
 72
     0
 73
     1
 93
       36
 10
341.2412934935387
 20
-53.27826004063445
 10
340.5687763951032
 20
-53.50439159488906
 10
340.1911250197995
 20
-53.12581004605727
 10
340.5687763951177
 20
-52.90814891000718
 10
341.2412934935459
 20
-52.68201735570892
 10
341.2412934935459
 20
-50.15767491865244
 10
340.5687763951104
 20
-50.38365180022356
 10
340.1911250197995
 20
-50.00600042709357
 10
340.5687763951032
 20
-49.78740911507248
 10
341.2412934935387
 20
-49.56143223354684
 10
341.2412934935387
 20
-47.92608121101056
 10
24.12070518540395
 20
-47.92608121101238
 10
24.12070518540395
 20
-49.56143223354501
 10
24.79322228381761
 20
-49.78740911506884
 10
25.17087365913585
 20
-50.0060004270972
 10
24.79322228383944
 20
-50.38365180022174
 10
24.12070518540395
 20
-50.15767491865062
 10
24.12070518540395
 20
-52.68201735570892
 10
24.79322228384671
 20
-52.90814891001264
 10
25.17087365913585
 20
-53.12581004605909
 10
24.79322228383216
 20
-53.5043915948836
 10
24.12070518539667
 20
-53.27826004063081
 10
24.12070518540395
 20
-57.32648393990621
 10
24.18674766732556
 20
-58.11341266305408
 10
24.61462853162493
 20
-59.59425253011705
 10
25.41085901094311
 20
-60.91324180839456
 10
26.52148891129445
 20
-61.98201379780494
 10
27.87117399485259
 20
-62.72615443427913
 10
27.87117399485259
 20
-63.92608121101239
 10
337.49082468409
 20
-63.92608121101784
 10
337.49082468409
 20
-62.72615443428094
 10
338.8405097676336
 20
-61.98201379781039
 10
339.9511396680068
 20
-60.91324180838364
 10
340.747370147325
 20
-59.59425253008794
 10
341.175251011617
 20
-58.11341266305589
 10
341.2412934935459
 20
-57.32648393986983
 97
        0
 92
        7
 72
     0
 73
     1
 93
       19
 10
21.42133502266779
 20
-52.37060613587255
 10
20.74881792424684
 20
-52.14447458162521
 10
20.37116655330146
 20
-51.92588326959685
 10
20.74881792423957
 20
-51.54823189646686
 10
21.42133502266051
 20
-51.77436345076512
 10
21.42133502266779
 20
-49.25064184395068
 10
20.7488179242323
 20
-49.02466496238321
 10
20.37116655329418
 20
-48.80607365035666
 10
20.74881792423957
 20
-48.42842227750861
 10
21.42133502266779
 20
-48.65439915903062
 10
21.42133502266779
 20
-47.92608121101056
 10
14.71921753098695
 20
-47.92608121101056
 10
14.71921753098695
 20
-63.92608121101057
 10
17.67086621758471
 20
-63.92608121101239
 10
17.67086621758471
 20
-62.72615443427731
 10
19.37171213816736
 20
-61.78840341272098
 10
20.58138628262941
 20
-60.26397910306605
 10
21.19437213178434
 20
-58.85011189335727
 10
21.42133502266779
 20
-57.32648393989894
 97
        0
 75
     0
 76
     1
 52
90.0
 41
1.0
 77
     0
 78
     1
 53
135.0
 43
-34680.30452406384
 44
-8490.498272295136
 45
-2.245064030267288
 46
-2.245064030267287
 79
     0
 47
0.6914500396757857
 98
        6
 10
16.79352652174975
 20
337.267307216226
 10
41.69932659988671
 20
338.6501922521393
 10
346.1034157479266
 20
335.8844221803201
 10
347.4870754962434
 20
-56.85926132805889
 10
328.1159144113448
 20
-56.16779551274067
 10
16.79352652174975
 20
-55.47637629215296
  0
HATCH
  5
3CC
330
1F
100
AcDbEntity
  8
CETRIS
100
AcDbHatch
 10
0.0
 20
0.0
 30
0.0
210
0.0
220
0.0
230
1.0
  2
ANSI31
 70
     0
 71
     0
 91
        3
 92
        7
 72
     0
 73
     1
 93
      112
 10
30.71921753098695
 20
328.8096583824562
 10
24.12070518540395
 20
328.8096583824562
 10
24.12070518540395
 20
326.8014781791616
 10
24.79322228383216
 20
327.0276097334599
 10
25.17087365914312
 20
326.6499583603354
 10
24.79322228382489
 20
326.4313670483106
 10
24.12070518541122
 20
326.2052354940597
 10
24.12070518540395
 20
323.6816685601979
 10
24.79322228383216
 20
323.907800114498
 10
25.17087365914312
 20
323.5292185653934
 10
24.79322228383944
 20
323.3115574293451
 10
24.12070518540395
 20
323.085425875045
 10
24.12070518540395
 20
321.8446701994171
 10
23.96983786907048
 20
320.6386687294734
 10
24.53835411643785
 20
320.8298484062079
 10
24.91693566471485
 20
320.4521970330779
 10
24.5383541164233
 20
320.2336057210477
 10
23.89240221777118
 20
320.0163861152022
 10
23.60167550603773
 20
317.6905724315065
 10
23.97466758329801
 20
317.8160788278846
 10
24.35231895862353
 20
317.4374972787854
 10
23.97466758331256
 20
317.2198361427317
 10
23.52362963017776
 20
317.068068446958
 10
23.2590611770106
 20
314.9523687746614
 10
23.78770224814479
 20
314.423727700464
 10
23.14696412840248
 20
314.0528571117929
 10
22.77102010621865
 20
311.0443990345111
 10
22.41777357538058
 20
313.8712984139337
 10
22.01106647763344
 20
313.7344674358601
 10
21.63341510668078
 20
314.1130489846864
 10
22.01106647763344
 20
314.3307101210075
 10
22.34580445649453
 20
314.4433280844032
 10
22.07871773179476
 20
316.5818766577986
 10
21.61388141312318
 20
316.4254660131819
 10
21.23623004218507
 20
316.8040475620118
 10
21.61388141314501
 20
317.0217086980619
 10
22.00708475896362
 20
317.1540158916623
 10
21.73988544019493
 20
319.2925414342435
 10
21.16925738292457
 20
319.1006516016686
 10
20.79160601197918
 20
319.4792331507769
 10
21.16925738293184
 20
319.6968942868252
 10
21.66802384691663
 20
319.8646186250325
 10
21.38150347128657
 20
322.1643787483599
 10
20.74881792423957
 20
321.951640415803
 10
20.37116655329418
 20
322.3292917889293
 10
20.74881792425412
 20
322.5478831009595
 10
21.42133502266051
 20
322.7740146552541
 10
21.42133502266779
 20
325.2975815892941
 10
20.74881792423957
 20
325.0714500350413
 10
20.37116655329418
 20
325.4500315838749
 10
20.74881792423957
 20
325.6676927199178
 10
21.42133502267506
 20
325.8938242742197
 10
21.42133502266779
 20
328.4173912082651
 10
20.74881792424684
 20
328.1912596540123
 10
20.13193860639558
 20
328.8096583824562
 10
14.71921753098695
 20
328.8096583824562
 10
14.71921753098695
 20
-45.92608121101057
 10
20.13193860640285
 20
-45.92608121101057
 10
20.74881792423957
 20
-45.30768248256481
 10
21.42133502267506
 20
-45.53381403681578
 10
21.42133502266051
 20
-43.01024710277033
 10
20.74881792424684
 20
-42.78411554847934
 10
20.37116655330146
 20
-42.56645441242563
 10
20.74881792423957
 20
-42.18787286359566
 10
21.42133502266051
 20
-42.41400441784662
 10
21.42133502266779
 20
-39.89043748381027
 10
20.74881792422502
 20
-39.66430592951019
 10
20.37116655329418
 20
-39.44571461748728
 10
20.74881792424684
 20
-39.06806324435365
 10
21.38150347128657
 20
-39.28080157691238
 10
21.66802384690936
 20
-36.98104145358684
 10
21.16925738293912
 20
-36.81331711537586
 10
20.79160601198645
 20
-36.59565597932942
 10
21.16925738292457
 20
-36.21707443022296
 10
21.73988544019493
 20
-36.40896426279596
 10
22.00708475896362
 20
-34.2704387202184
 10
21.61388141313773
 20
-34.13813152661623
 10
21.23623004218507
 20
-33.92047039056433
 10
21.61388141313773
 20
-33.541888841738
 10
22.07871773179476
 20
-33.69829948635288
 10
22.3458044565018
 20
-31.55975091295568
 10
22.01106647764072
 20
-31.44713294956545
 10
21.63341510668806
 20
-31.22947181324252
 10
22.01106647764072
 20
-30.85089026441073
 10
22.41777357538785
 20
-30.9877212424899
 10
22.77102010621865
 20
-28.16082186305811
 10
23.14696412841704
 20
-31.16927994035086
 10
23.78770224813752
 20
-31.54015052902014
 10
23.25906117700333
 20
-32.06879160321205
 10
23.52362963017776
 20
-34.18449127551594
 10
23.97466758329801
 20
-34.3362589712915
 10
24.35231895861625
 20
-34.55392010733794
 10
23.97466758330529
 20
-34.9325016564444
 10
23.60167550603045
 20
-34.80699526006265
 10
23.8924022177639
 20
-37.13280894376203
 10
24.53835411644513
 20
-37.35002854961294
 10
24.91693566472941
 20
-37.56861986163585
 10
24.53835411643785
 20
-37.9462712347622
 10
23.96983786907048
 20
-37.7550915580332
 10
24.12070518540395
 20
-38.96109302802779
 10
24.12070518541122
 20
-40.20184870359571
 10
24.79322228383944
 20
-40.42798025789943
 10
25.17087365914312
 20
-40.64564139394588
 10
24.79322228383216
 20
-41.02422294305597
 10
24.12070518540395
 20
-40.79809138875771
 10
24.12070518539667
 20
-43.32165832261398
 10
24.79322228383944
 20
-43.54778987686677
 10
25.17087365914312
 20
-43.76638118888604
 10
24.79322228383216
 20
-44.14403256201604
 10
24.12070518540395
 20
-43.91790100771231
 10
24.12070518540395
 20
-45.92608121101057
 10
30.71921753097967
 20
-45.92608121101238
 97
        0
 92
        7
 72
     0
 73
     1
 93
       58
 10
350.6427811479557
 20
328.8096583824562
 10
345.2300600725398
 20
328.8096583824562
 10
344.6131807547103
 20
328.1912596540105
 10
343.9406636562821
 20
328.4173912082669
 10
343.9406636562821
 20
325.8938242742178
 10
344.6131807546958
 20
325.6676927199214
 10
344.9908321256484
 20
325.4500315838713
 10
344.613180754703
 20
325.0714500350395
 10
343.9406636562748
 20
325.2975815892941
 10
343.9406636562675
 20
322.7740146552578
 10
344.613180754703
 20
322.547883100965
 10
344.9908321256484
 20
322.3292917889293
 10
344.613180754703
 20
321.951640415803
 10
343.980495207656
 20
322.1643787483617
 10
343.693974832026
 20
319.8646186250307
 10
344.1927412960108
 20
319.6968942868307
 10
344.5703926669634
 20
319.4792331507733
 10
344.1927412960253
 20
319.1006516016686
 10
343.6221132387622
 20
319.2925414342435
 10
343.3549139199862
 20
317.1540158916641
 10
343.7481172657976
 20
317.0217086980583
 10
344.1257686367575
 20
316.8040475620118
 10
343.7481172658122
 20
316.4254660131819
 10
343.2832809471479
 20
316.5818766578004
 10
343.0161942224553
 20
314.4433280844014
 10
343.3509322013164
 20
314.3307101210093
 10
343.7285835722545
 20
314.1130489846864
 10
343.3509322013092
 20
313.7344674358601
 10
342.9442251035475
 20
313.8712984139392
 10
342.590978572724
 20
311.0443990345147
 10
342.2150345505401
 20
314.0528571117947
 10
341.5742964307978
 20
314.4237277004622
 10
342.1029375019393
 20
314.952368774665
 10
341.8383690487648
 20
317.0680684469616
 10
341.3873310956446
 20
317.2198361427263
 10
341.0096797203264
 20
317.4374972787818
 10
341.3873310956373
 20
317.8160788278901
 10
341.7603231728976
 20
317.6905724315101
 10
341.4695964611787
 20
320.0163861152022
 10
340.8236445624975
 20
320.2336057210586
 10
340.4450630142205
 20
320.4521970330797
 10
340.8236445624975
 20
320.8298484062061
 10
341.3921608098648
 20
320.6386687294716
 10
341.2412934935314
 20
321.8446701994262
 10
341.2412934935387
 20
323.0854258750468
 10
340.5687763951323
 20
323.311557429336
 10
340.1911250197995
 20
323.5292185653952
 10
340.5687763951104
 20
323.9078001145017
 10
341.2412934935387
 20
323.6816685602034
 10
341.2412934935314
 20
326.2052354940597
 10
340.5687763951177
 20
326.4313670483106
 10
340.1911250197995
 20
326.6499583603317
 10
340.5687763951032
 20
327.0276097334617
 10
341.2412934935387
 20
326.8014781791634
 10
341.2412934935387
 20
328.8096583824562
 10
334.6427811479484
 20
328.8096583824562
 10
334.6427811479484
 20
255.313092055153
 10
350.6427811479557
 20
255.313092055153
 97
        0
 92
        7
 72
     1
 73
     1
 93
       64
 10
350.6427811479557
 20
255.313092055153
 42
0.0
 10
334.6427811479557
 20
255.313092055153
 42
0.0
 10
334.6427811479557
 20
-45.92608121101057
 42
0.0
 10
341.2412934935387
 20
-45.92608121101057
 42
0.0
 10
341.2412934935314
 20
-43.91790100771777
 42
0.0
 10
340.5687763951032
 20
-44.14403256201604
 42
0.0
 10
340.1911250198068
 20
-43.76638118888786
 42
0.0
 10
340.5687763951032
 20
-43.54778987687405
 42
0.0
 10
341.2412934935387
 20
-43.3216583226158
 42
0.0
 10
341.2412934935387
 20
-40.79809138875407
 42
0.0
 10
340.5687763951104
 20
-41.02422294305234
 42
0.0
 10
340.1911250197995
 20
-40.64564139394952
 42
0.0
 10
340.5687763951177
 20
-40.42798025789761
 42
0.0
 10
341.2412934935314
 20
-40.20184870360117
 42
0.0
 10
341.2412934935387
 20
-38.96109302803324
 42
0.0
 10
341.3921608098648
 20
-37.75509155802956
 42
0.0
 10
340.8236445624975
 20
-37.94627123476402
 42
0.0
 10
340.4450630142205
 20
-37.56861986163403
 42
0.0
 10
340.8236445625048
 20
-37.35002854960566
 42
0.0
 10
341.4695964611787
 20
-37.13280894375475
 42
0.0
 10
341.7603231728903
 20
-34.80699526006265
 42
0.0
 10
341.3873310956373
 20
-34.93250165644258
 42
0.0
 10
341.0096797203264
 20
-34.55392010733612
 42
0.0
 10
341.3873310956373
 20
-34.33625897128786
 42
0.0
 10
341.8383690487721
 20
-34.18449127551594
 42
0.0
 10
342.1029375019393
 20
-32.06879160321205
 42
0.0
 10
341.5742964308051
 20
-31.54015052901286
 42
0.0
 10
342.2150345505329
 20
-31.16927994034722
 42
0.0
 10
342.5909785727312
 20
-28.16082186307813
 42
0.0
 10
342.944225103562
 20
-30.98772124248807
 42
0.0
 10
343.3509322013092
 20
-30.85089026441073
 42
0.0
 10
343.7285835722545
 20
-31.22947181324252
 42
0.0
 10
343.3509322013164
 20
-31.44713294955818
 42
0.0
 10
343.0161942224408
 20
-31.55975091295931
 42
0.0
 10
343.2832809471406
 20
-33.69829948635651
 42
0.0
 10
343.7481172658194
 20
-33.54188884173618
 42
0.0
 10
344.1257686367575
 20
-33.92047039056433
 42
0.0
 10
343.7481172658194
 20
-34.13813152661259
 42
0.0
 10
343.3549139199862
 20
-34.2704387202184
 42
0.0
 10
343.6221132387404
 20
-36.4089642627996
 42
0.0
 10
344.192741296018
 20
-36.21707443022478
 42
0.0
 10
344.5703926669634
 20
-36.5956559793276
 42
0.0
 10
344.1927412960326
 20
-36.81331711537223
 42
0.0
 10
343.6939748320187
 20
-36.98104145358866
 42
0.0
 10
343.980495207656
 20
-39.28080157691238
 42
0.0
 10
344.613180754703
 20
-39.06806324435729
 42
0.0
 10
344.9908321256557
 20
-39.44571461748364
 42
0.0
 10
344.6131807547103
 20
-39.66430592951019
 42
0.0
 10
343.9406636562748
 20
-39.89043748381209
 42
0.0
 10
343.9406636562748
 20
-42.41400441785208
 42
0.0
 10
344.6131807547103
 20
-42.18787286359384
 42
0.0
 10
344.9908321256484
 20
-42.56645441242563
 42
0.0
 10
344.613180754703
 20
-42.78411554847389
 42
0.0
 10
343.9406636562821
 20
-43.01024710277215
 42
0.0
 10
343.9406636562675
 20
-45.53381403682124
 42
0.0
 10
344.6131807546958
 20
-45.307682482563
 42
0.0
 10
345.230060072547
 20
-45.92608121101057
 42
0.0
 10
349.5171792697697
 20
-45.92608121101057
 42
-0.257905813138184
 10
350.6427811479557
 20
-45.48454389013113
 42
0.0
 10
350.6427811479557
 20
129.1051579030217
 42
0.0
 10
344.287093659816
 20
129.1051579030217
 42
-1.0
 10
341.787093659816
 20
129.1051579030217
 42
-1.0
 10
344.287093659816
 20
129.1051579030217
 42
0.0
 10
350.6427811479557
 20
129.1051579030217
 42
0.0
 97
        0
 75
     0
 76
     1
 52
0.0
 41
1.0
 77
     0
 78
     1
 53
45.0
 43
-34680.30452406384
 44
-8490.498272295136
 45
-2.245064030267287
 46
2.245064030267288
 79
     0
 47
0.6914500396757857
 98
        3
 10
25.78727719004064
 20
247.3788013927378
 10
341.2606443245717
 20
272.2710116075004
 10
341.9525118944698
 20
232.8583454341251
  0
ENDSEC
  0
SECTION
  2
OBJECTS
  0
DICTIONARY
  5
C
330
0
100
AcDbDictionary
281
     1
  3
ACAD_GROUP
350
D
  3
ACAD_LAYOUT
350
1A
  3
ACAD_MLINESTYLE
350
17
  3
ACAD_PLOTSETTINGS
350
19
  3
ACAD_PLOTSTYLENAME
350
E
  3
AcDbVariableDictionary
350
423
  0
DICTIONARY
  5
3CE
330
1F
100
AcDbDictionary
280
     1
281
     1
  3
ACAD_LAYOUTSELFREF
360
408
  0
DICTIONARY
  5
3D0
330
1B
100
AcDbDictionary
280
     1
281
     1
  3
ACAD_LAYOUTSELFREF
360
407
  0
DICTIONARY
  5
3D2
330
23
100
AcDbDictionary
280
     1
281
     1
  3
ACAD_LAYOUTSELFREF
360
409
  0
DICTIONARY
  5
D
102
{ACAD_REACTORS
330
C
102
}
330
C
100
AcDbDictionary
281
     1
  0
DICTIONARY
  5
1A
102
{ACAD_REACTORS
330
C
102
}
330
C
100
AcDbDictionary
281
     1
  3
Model
350
22
  3
Rozvržení1
350
1E
  3
Rozvržení2
350
26
  0
DICTIONARY
  5
17
102
{ACAD_REACTORS
330
C
102
}
330
C
100
AcDbDictionary
281
     1
  3
Standard
350
18
  0
DICTIONARY
  5
19
102
{ACAD_REACTORS
330
C
102
}
330
C
100
AcDbDictionary
281
     1
  0
ACDBDICTIONARYWDFLT
  5
E
102
{ACAD_REACTORS
330
C
102
}
330
C
100
AcDbDictionary
281
     1
  3
Normal
350
F
100
AcDbDictionaryWithDefault
340
F
  0
DICTIONARY
  5
423
102
{ACAD_REACTORS
330
C
102
}
330
C
100
AcDbDictionary
281
     1
  3
DIMASSOC
350
424
  0
XRECORD
  5
408
102
{ACAD_REACTORS
330
3CE
102
}
330
3CE
100
AcDbXrecord
280
     1
340
1F
  0
XRECORD
  5
407
102
{ACAD_REACTORS
330
3D0
102
}
330
3D0
100
AcDbXrecord
280
     1
340
1B
  0
XRECORD
  5
409
102
{ACAD_REACTORS
330
3D2
102
}
330
3D2
100
AcDbXrecord
280
     1
340
23
  0
LAYOUT
  5
22
102
{ACAD_REACTORS
330
1A
102
}
330
1A
100
AcDbPlotSettings
  1

  2
HP DeskJet 690C
  4

  6

 40
0.0
 41
0.0
 42
0.0
 43
0.0
 44
0.0
 45
0.0
 46
0.0
 47
0.0
 48
0.0
 49
0.0
140
0.0
141
0.0
142
1.0
143
1.0
 70
  1712
 72
     0
 73
     0
 74
     0
  7
monochrome.ctb
 75
     0
147
1.0
148
0.0
149
0.0
100
AcDbLayout
  1
Model
 70
     1
 71
     0
 10
0.0
 20
0.0
 11
12.0
 21
9.0
 12
0.0
 22
0.0
 32
0.0
 14
0.0
 24
0.0
 34
0.0
 15
0.0
 25
0.0
 35
0.0
146
0.0
 13
0.0
 23
0.0
 33
0.0
 16
1.0
 26
0.0
 36
0.0
 17
0.0
 27
1.0
 37
0.0
 76
     0
330
1F
  0
LAYOUT
  5
1E
102
{ACAD_REACTORS
330
1A
102
}
330
1A
100
AcDbPlotSettings
  1

  2
HP DeskJet 690C
  4

  6

 40
0.0
 41
0.0
 42
0.0
 43
0.0
 44
0.0
 45
0.0
 46
0.0
 47
0.0
 48
0.0
 49
0.0
140
0.0
141
0.0
142
1.0
143
1.0
 70
   688
 72
     0
 73
     0
 74
     5
  7
monochrome.ctb
 75
    16
147
1.0
148
0.0
149
0.0
100
AcDbLayout
  1
Rozvržení1
 70
     1
 71
     1
 10
0.0
 20
0.0
 11
420.0
 21
297.0
 12
0.0
 22
0.0
 32
0.0
 14
1.000000000000000E+20
 24
1.000000000000000E+20
 34
1.000000000000000E+20
 15
-1.000000000000000E+20
 25
-1.000000000000000E+20
 35
-1.000000000000000E+20
146
0.0
 13
0.0
 23
0.0
 33
0.0
 16
1.0
 26
0.0
 36
0.0
 17
0.0
 27
1.0
 37
0.0
 76
     0
330
1B
  0
LAYOUT
  5
26
102
{ACAD_REACTORS
330
1A
102
}
330
1A
100
AcDbPlotSettings
  1

  2
HP DeskJet 690C
  4

  6

 40
0.0
 41
0.0
 42
0.0
 43
0.0
 44
0.0
 45
0.0
 46
0.0
 47
0.0
 48
0.0
 49
0.0
140
0.0
141
0.0
142
1.0
143
1.0
 70
   688
 72
     0
 73
     0
 74
     5
  7
monochrome.ctb
 75
    16
147
1.0
148
0.0
149
0.0
100
AcDbLayout
  1
Rozvržení2
 70
     1
 71
     2
 10
0.0
 20
0.0
 11
12.0
 21
9.0
 12
0.0
 22
0.0
 32
0.0
 14
0.0
 24
0.0
 34
0.0
 15
0.0
 25
0.0
 35
0.0
146
0.0
 13
0.0
 23
0.0
 33
0.0
 16
1.0
 26
0.0
 36
0.0
 17
0.0
 27
1.0
 37
0.0
 76
     0
330
23
  0
MLINESTYLE
  5
18
102
{ACAD_REACTORS
330
17
102
}
330
17
100
AcDbMlineStyle
  2
STANDARD
 70
     0
  3

 62
   256
 51
90.0
 52
90.0
 71
     2
 49
0.5
 62
   256
  6
BYLAYER
 49
-0.5
 62
   256
  6
BYLAYER
  0
ACDBPLACEHOLDER
  5
F
102
{ACAD_REACTORS
330
E
102
}
330
E
  0
DICTIONARYVAR
  5
424
102
{ACAD_REACTORS
330
423
102
}
330
423
100
DictionaryVariables
280
     0
  1
1
  0
ENDSEC
  0
EOF
