  0
SECTION
  2
HEADER
  9
$ACADVER
  1
AC1015
  9
$ACADMAINTVER
 70
    14
  9
$DWGCODEPAGE
  3
ANSI_1250
  9
$INSBASE
 10
0.0
 20
0.0
 30
0.0
  9
$EXTMIN
 10
325.1547198955513
 20
394.5723584913757
 30
0.0
  9
$EXTMAX
 10
1594.929674853243
 20
1075.721601837842
 30
2500.000155029299
  9
$LIMMIN
 10
0.0
 20
0.0
  9
$LIMMAX
 10
420.0
 20
297.0
  9
$ORTHOMODE
 70
     0
  9
$REGENMODE
 70
     1
  9
$FILLMODE
 70
     1
  9
$QTEXTMODE
 70
     0
  9
$MIRRTEXT
 70
     1
  9
$LTSCALE
 40
1.0
  9
$ATTMODE
 70
     1
  9
$TEXTSIZE
 40
2.5
  9
$TRACEWID
 40
1.0
  9
$TEXTSTYLE
  7
Standard
  9
$CLAYER
  8
0
  9
$CELTYPE
  6
ByLayer
  9
$CECOLOR
 62
   256
  9
$CELTSCALE
 40
1.0
  9
$DISPSILH
 70
     0
  9
$DIMSCALE
 40
1.0
  9
$DIMASZ
 40
2.5
  9
$DIMEXO
 40
0.625
  9
$DIMDLI
 40
3.75
  9
$DIMRND
 40
0.0
  9
$DIMDLE
 40
0.0
  9
$DIMEXE
 40
1.25
  9
$DIMTP
 40
0.0
  9
$DIMTM
 40
0.0
  9
$DIMTXT
 40
2.5
  9
$DIMCEN
 40
2.5
  9
$DIMTSZ
 40
0.0
  9
$DIMTOL
 70
     0
  9
$DIMLIM
 70
     0
  9
$DIMTIH
 70
     0
  9
$DIMTOH
 70
     0
  9
$DIMSE1
 70
     0
  9
$DIMSE2
 70
     0
  9
$DIMTAD
 70
     1
  9
$DIMZIN
 70
     8
  9
$DIMBLK
  1

  9
$DIMASO
 70
     1
  9
$DIMSHO
 70
     1
  9
$DIMPOST
  1

  9
$DIMAPOST
  1

  9
$DIMALT
 70
     0
  9
$DIMALTD
 70
     3
  9
$DIMALTF
 40
0.03937007874016
  9
$DIMLFAC
 40
1.0
  9
$DIMTOFL
 70
     1
  9
$DIMTVP
 40
0.0
  9
$DIMTIX
 70
     0
  9
$DIMSOXD
 70
     0
  9
$DIMSAH
 70
     0
  9
$DIMBLK1
  1

  9
$DIMBLK2
  1

  9
$DIMSTYLE
  2
ISO-25
  9
$DIMCLRD
 70
     0
  9
$DIMCLRE
 70
     0
  9
$DIMCLRT
 70
     0
  9
$DIMTFAC
 40
1.0
  9
$DIMGAP
 40
0.625
  9
$DIMJUST
 70
     0
  9
$DIMSD1
 70
     0
  9
$DIMSD2
 70
     0
  9
$DIMTOLJ
 70
     0
  9
$DIMTZIN
 70
     8
  9
$DIMALTZ
 70
     0
  9
$DIMALTTZ
 70
     0
  9
$DIMUPT
 70
     0
  9
$DIMDEC
 70
     2
  9
$DIMTDEC
 70
     2
  9
$DIMALTU
 70
     2
  9
$DIMALTTD
 70
     3
  9
$DIMTXSTY
  7
Standard
  9
$DIMAUNIT
 70
     0
  9
$DIMADEC
 70
     0
  9
$DIMALTRND
 40
0.0
  9
$DIMAZIN
 70
     0
  9
$DIMDSEP
 70
    44
  9
$DIMATFIT
 70
     3
  9
$DIMFRAC
 70
     0
  9
$DIMLDRBLK
  1

  9
$DIMLUNIT
 70
     2
  9
$DIMLWD
 70
    -2
  9
$DIMLWE
 70
    -2
  9
$DIMTMOVE
 70
     0
  9
$LUNITS
 70
     2
  9
$LUPREC
 70
     4
  9
$SKETCHINC
 40
1.0
  9
$FILLETRAD
 40
10.0
  9
$AUNITS
 70
     0
  9
$AUPREC
 70
     0
  9
$MENU
  1
.
  9
$ELEVATION
 40
0.0
  9
$PELEVATION
 40
0.0
  9
$THICKNESS
 40
0.0
  9
$LIMCHECK
 70
     0
  9
$CHAMFERA
 40
10.0
  9
$CHAMFERB
 40
10.0
  9
$CHAMFERC
 40
20.0
  9
$CHAMFERD
 40
0.0
  9
$SKPOLY
 70
     0
  9
$TDCREATE
 40
2452332.512107639
  9
$TDUCREATE
 40
2452332.470440972
  9
$TDUPDATE
 40
2455601.398336863
  9
$TDUUPDATE
 40
2455601.356670196
  9
$TDINDWG
 40
0.0336267130
  9
$TDUSRTIMER
 40
0.0336128241
  9
$USRTIMER
 70
     1
  9
$ANGBASE
 50
0.0
  9
$ANGDIR
 70
     0
  9
$PDMODE
 70
     0
  9
$PDSIZE
 40
0.0
  9
$PLINEWID
 40
0.0
  9
$SPLFRAME
 70
     0
  9
$SPLINETYPE
 70
     6
  9
$SPLINESEGS
 70
     8
  9
$HANDSEED
  5
8199
  9
$SURFTAB1
 70
     6
  9
$SURFTAB2
 70
     6
  9
$SURFTYPE
 70
     6
  9
$SURFU
 70
     6
  9
$SURFV
 70
     6
  9
$UCSBASE
  2

  9
$UCSNAME
  2

  9
$UCSORG
 10
0.0
 20
0.0
 30
0.0
  9
$UCSXDIR
 10
1.0
 20
0.0
 30
0.0
  9
$UCSYDIR
 10
0.0
 20
1.0
 30
0.0
  9
$UCSORTHOREF
  2

  9
$UCSORTHOVIEW
 70
     0
  9
$UCSORGTOP
 10
0.0
 20
0.0
 30
0.0
  9
$UCSORGBOTTOM
 10
0.0
 20
0.0
 30
0.0
  9
$UCSORGLEFT
 10
0.0
 20
0.0
 30
0.0
  9
$UCSORGRIGHT
 10
0.0
 20
0.0
 30
0.0
  9
$UCSORGFRONT
 10
0.0
 20
0.0
 30
0.0
  9
$UCSORGBACK
 10
0.0
 20
0.0
 30
0.0
  9
$PUCSBASE
  2

  9
$PUCSNAME
  2

  9
$PUCSORG
 10
0.0
 20
0.0
 30
0.0
  9
$PUCSXDIR
 10
1.0
 20
0.0
 30
0.0
  9
$PUCSYDIR
 10
0.0
 20
1.0
 30
0.0
  9
$PUCSORTHOREF
  2

  9
$PUCSORTHOVIEW
 70
     0
  9
$PUCSORGTOP
 10
0.0
 20
0.0
 30
0.0
  9
$PUCSORGBOTTOM
 10
0.0
 20
0.0
 30
0.0
  9
$PUCSORGLEFT
 10
0.0
 20
0.0
 30
0.0
  9
$PUCSORGRIGHT
 10
0.0
 20
0.0
 30
0.0
  9
$PUCSORGFRONT
 10
0.0
 20
0.0
 30
0.0
  9
$PUCSORGBACK
 10
0.0
 20
0.0
 30
0.0
  9
$USERI1
 70
     0
  9
$USERI2
 70
     0
  9
$USERI3
 70
     0
  9
$USERI4
 70
     0
  9
$USERI5
 70
     0
  9
$USERR1
 40
0.0
  9
$USERR2
 40
0.0
  9
$USERR3
 40
0.0
  9
$USERR4
 40
0.0
  9
$USERR5
 40
0.0
  9
$WORLDVIEW
 70
     1
  9
$SHADEDGE
 70
     3
  9
$SHADEDIF
 70
    70
  9
$TILEMODE
 70
     1
  9
$MAXACTVP
 70
    64
  9
$PINSBASE
 10
0.0
 20
0.0
 30
0.0
  9
$PLIMCHECK
 70
     0
  9
$PEXTMIN
 10
1.000000000000000E+20
 20
1.000000000000000E+20
 30
1.000000000000000E+20
  9
$PEXTMAX
 10
-1.000000000000000E+20
 20
-1.000000000000000E+20
 30
-1.000000000000000E+20
  9
$PLIMMIN
 10
0.0
 20
0.0
  9
$PLIMMAX
 10
420.0
 20
297.0
  9
$UNITMODE
 70
     0
  9
$VISRETAIN
 70
     1
  9
$PLINEGEN
 70
     0
  9
$PSLTSCALE
 70
     1
  9
$TREEDEPTH
 70
  3020
  9
$CMLSTYLE
  2
Standard
  9
$CMLJUST
 70
     0
  9
$CMLSCALE
 40
20.0
  9
$PROXYGRAPHICS
 70
     1
  9
$MEASUREMENT
 70
     1
  9
$CELWEIGHT
370
    -1
  9
$ENDCAPS
280
     0
  9
$JOINSTYLE
280
     0
  9
$LWDISPLAY
290
     0
  9
$INSUNITS
 70
     4
  9
$HYPERLINKBASE
  1

  9
$STYLESHEET
  1

  9
$XEDIT
290
     1
  9
$CEPSNTYPE
380
     0
  9
$PSTYLEMODE
290
     1
  9
$FINGERPRINTGUID
  2
{D99C744E-04C5-44F1-9703-862C59725F9B}
  9
$VERSIONGUID
  2
{9CA3C4FF-441D-4CD5-8346-F208CE7E6B35}
  9
$EXTNAMES
290
     1
  9
$PSVPSCALE
 40
0.0
  9
$OLESTARTUP
290
     0
  0
ENDSEC
  0
SECTION
  2
CLASSES
  0
CLASS
  1
ACDBDICTIONARYWDFLT
  2
AcDbDictionaryWithDefault
  3
AutoCAD 2000
 90
        0
280
     0
281
     0
  0
CLASS
  1
ACDBPLACEHOLDER
  2
AcDbPlaceHolder
  3
AutoCAD 2000
 90
        0
280
     0
281
     0
  0
CLASS
  1
LAYOUT
  2
AcDbLayout
  3
AutoCAD 2000
 90
        0
280
     0
281
     0
  0
CLASS
  1
DICTIONARYVAR
  2
AcDbDictionaryVar
  3
AutoCAD 2000
 90
        0
280
     0
281
     0
  0
ENDSEC
  0
SECTION
  2
TABLES
  0
TABLE
  2
VPORT
  5
8
330
0
100
AcDbSymbolTable
 70
     2
  0
VPORT
  5
8198
330
8
100
AcDbSymbolTableRecord
100
AcDbViewportTableRecord
  2
*Active
 70
     0
 10
0.0
 20
0.0
 11
1.0
 21
1.0
 12
938.1410980423638
 22
704.5516216325349
 13
0.0
 23
0.0
 14
10.0
 24
10.0
 15
10.0
 25
10.0
 16
0.0
 26
0.0
 36
1.0
 17
0.0
 27
0.0
 37
0.0
 40
944.2674810723897
 41
2.031862745098039
 42
50.0
 43
0.0
 44
0.0
 50
0.0
 51
0.0
 71
     0
 72
   100
 73
     1
 74
     3
 75
     0
 76
     0
 77
     0
 78
     0
281
     0
 65
     1
110
0.0
120
0.0
130
0.0
111
1.0
121
0.0
131
0.0
112
0.0
122
1.0
132
0.0
 79
     0
146
0.0
  0
ENDTAB
  0
TABLE
  2
LTYPE
  5
5
330
0
100
AcDbSymbolTable
 70
     1
  0
LTYPE
  5
14
330
5
100
AcDbSymbolTableRecord
100
AcDbLinetypeTableRecord
  2
ByBlock
 70
     0
  3

 72
    65
 73
     0
 40
0.0
  0
LTYPE
  5
15
330
5
100
AcDbSymbolTableRecord
100
AcDbLinetypeTableRecord
  2
ByLayer
 70
     0
  3

 72
    65
 73
     0
 40
0.0
  0
LTYPE
  5
16
330
5
100
AcDbSymbolTableRecord
100
AcDbLinetypeTableRecord
  2
Continuous
 70
     0
  3
Solid line
 72
    65
 73
     0
 40
0.0
  0
ENDTAB
  0
TABLE
  2
LAYER
  5
2
330
0
100
AcDbSymbolTable
 70
     6
  0
LAYER
  5
10
330
2
100
AcDbSymbolTableRecord
100
AcDbLayerTableRecord
  2
0
 70
     0
 62
     7
  6
Continuous
370
    -3
390
F
  0
LAYER
  5
3405
330
2
100
AcDbSymbolTableRecord
100
AcDbLayerTableRecord
  2
POPIS
 70
     0
 62
    30
  6
Continuous
370
    -3
390
F
  0
LAYER
  5
3406
330
2
100
AcDbSymbolTableRecord
100
AcDbLayerTableRecord
  2
SPOJOVACÍ
 70
     0
 62
   180
  6
Continuous
370
    -3
390
F
  0
LAYER
  5
3407
330
2
100
AcDbSymbolTableRecord
100
AcDbLayerTableRecord
  2
CETRIS
 70
     0
 62
     1
  6
Continuous
370
    -3
390
F
  0
LAYER
  5
3409
330
2
100
AcDbSymbolTableRecord
100
AcDbLayerTableRecord
  2
STAVBA OBRYS
 70
     0
 62
     6
  6
Continuous
370
    -3
390
F
  0
LAYER
  5
3758
330
2
100
AcDbSymbolTableRecord
100
AcDbLayerTableRecord
  2
NOSNÉ KONSTRUKCE
 70
     0
 62
    33
  6
Continuous
370
    -3
390
F
  0
ENDTAB
  0
TABLE
  2
STYLE
  5
3
330
0
100
AcDbSymbolTable
 70
     2
  0
STYLE
  5
11
330
3
100
AcDbSymbolTableRecord
100
AcDbTextStyleTableRecord
  2
Standard
 70
     0
 40
0.0
 41
1.0
 50
0.0
 71
     0
 42
2.5
  3
txt
  4

  0
STYLE
  5
340A
330
3
100
AcDbSymbolTableRecord
100
AcDbTextStyleTableRecord
  2
SIMPLEX7
 70
     0
 40
0.0
 41
0.85
 50
0.0
 71
     0
 42
102.0
  3

  4

1001
ACAD
1000
Arial CE
1071
    60962
  0
ENDTAB
  0
TABLE
  2
VIEW
  5
6
330
0
100
AcDbSymbolTable
 70
     0
  0
ENDTAB
  0
TABLE
  2
UCS
  5
7
330
0
100
AcDbSymbolTable
 70
     0
  0
ENDTAB
  0
TABLE
  2
APPID
  5
9
330
0
100
AcDbSymbolTable
 70
     1
  0
APPID
  5
12
330
9
100
AcDbSymbolTableRecord
100
AcDbRegAppTableRecord
  2
ACAD
 70
     0
  0
ENDTAB
  0
TABLE
  2
DIMSTYLE
  5
A
330
0
100
AcDbSymbolTable
 70
     1
100
AcDbDimStyleTable
 71
     0
  0
DIMSTYLE
105
27
330
A
100
AcDbSymbolTableRecord
100
AcDbDimStyleTableRecord
  2
ISO-25
 70
     0
 41
2.5
 42
0.625
 43
3.75
 44
1.25
 73
     0
 74
     0
 77
     1
 78
     8
140
2.5
141
2.5
143
0.03937007874016
147
0.625
171
     3
172
     1
271
     2
272
     2
274
     3
278
    44
283
     0
284
     8
340
11
  0
ENDTAB
  0
TABLE
  2
BLOCK_RECORD
  5
1
330
0
100
AcDbSymbolTable
 70
     2
  0
BLOCK_RECORD
  5
1F
330
1
100
AcDbSymbolTableRecord
100
AcDbBlockTableRecord
  2
*Model_Space
340
22
  0
BLOCK_RECORD
  5
1B
330
1
100
AcDbSymbolTableRecord
100
AcDbBlockTableRecord
  2
*Paper_Space
340
1E
  0
BLOCK_RECORD
  5
23
330
1
100
AcDbSymbolTableRecord
100
AcDbBlockTableRecord
  2
*Paper_Space0
340
26
  0
BLOCK_RECORD
  5
33FA
330
1
100
AcDbSymbolTableRecord
100
AcDbBlockTableRecord
  2
E_PUNKT
340
0
102
{BLKREFS
331
7C70
331
7C73
331
7C74
331
7C77
331
8188
102
}
  0
ENDTAB
  0
ENDSEC
  0
SECTION
  2
BLOCKS
  0
BLOCK
  5
20
330
1F
100
AcDbEntity
  8
0
100
AcDbBlockBegin
  2
*Model_Space
 70
     0
 10
0.0
 20
0.0
 30
0.0
  3
*Model_Space
  1

  0
ENDBLK
  5
21
330
1F
100
AcDbEntity
  8
0
100
AcDbBlockEnd
  0
BLOCK
  5
1C
330
1B
100
AcDbEntity
 67
     1
  8
0
100
AcDbBlockBegin
  2
*Paper_Space
 70
     0
 10
0.0
 20
0.0
 30
0.0
  3
*Paper_Space
  1

  0
ENDBLK
  5
1D
330
1B
100
AcDbEntity
 67
     1
  8
0
100
AcDbBlockEnd
  0
BLOCK
  5
24
330
23
100
AcDbEntity
  8
0
100
AcDbBlockBegin
  2
*Paper_Space0
 70
     0
 10
0.0
 20
0.0
 30
0.0
  3
*Paper_Space0
  1

  0
ENDBLK
  5
25
330
23
100
AcDbEntity
  8
0
100
AcDbBlockEnd
  0
BLOCK
  5
33FC
330
33FA
100
AcDbEntity
  8
0
100
AcDbBlockBegin
  2
E_PUNKT
 70
     0
 10
0.0
 20
0.0
 30
0.0
  3
E_PUNKT
  1

  0
LWPOLYLINE
  5
33FB
330
33FA
100
AcDbEntity
  8
POPIS
100
AcDbPolyline
 90
        2
 70
     1
 43
2.5
 10
1.27761037562675
 20
0.0290683308725193
 42
-1.0
 10
-1.222389624373249
 20
0.0290683308725193
 42
-1.0
  0
ENDBLK
  5
33FD
330
33FA
100
AcDbEntity
  8
0
100
AcDbBlockEnd
  0
ENDSEC
  0
SECTION
  2
ENTITIES
  0
HATCH
  5
7C6E
330
1F
100
AcDbEntity
  8
CETRIS
100
AcDbHatch
 10
0.0
 20
0.0
 30
0.0
210
0.0
220
0.0
230
1.0
  2
ANSI31
 70
     0
 71
     1
 91
        8
 92
        7
 72
     0
 73
     1
 93
       17
 10
535.7433727381858
 20
791.4584250991092
 10
535.6773302562714
 20
792.2453538222698
 10
535.2494493919648
 20
793.7261936892946
 10
534.4532189126539
 20
795.0451829675921
 10
533.342589012288
 20
796.1139549569898
 10
531.9929039287371
 20
796.8580955934822
 10
531.9929039287371
 20
798.05802237021
 10
496.8963543724376
 20
798.0580223702081
 10
496.8963543724376
 20
784.0580223702081
 10
534.6132850478961
 20
784.0580223702081
 10
535.0708556397576
 20
784.5155929594211
 10
535.7433727381858
 20
784.2896160778519
 10
535.7433727381858
 20
786.8139585149065
 10
535.0708556397503
 20
787.040090069212
 10
534.6932042644466
 20
787.2577512052548
 10
535.0708556397576
 20
787.6363327540848
 10
535.7433727381785
 20
787.4102011998302
 97
       17
330
7FC0
330
7FBF
330
7FBE
330
7FBD
330
7FB2
330
8005
330
7F96
330
7F23
330
7F95
330
7FC5
330
7FC4
330
7FBA
330
7FB6
330
7FB8
330
7FB7
330
7FB5
330
7FBB
 92
        7
 72
     0
 73
     1
 93
       27
 10
698.1116562061861
 20
791.4584250990637
 10
698.0456137242645
 20
792.2453538222444
 10
697.6177328599651
 20
793.7261936892855
 10
696.8215023806323
 20
795.0451829675866
 10
695.7108724802956
 20
796.1139549569971
 10
694.3611873967301
 20
796.8580955934785
 10
694.3611873967229
 20
798.0580223702081
 10
542.193211706005
 20
798.0580223702063
 10
542.193211706005
 20
796.8580955934785
 10
540.4923657854296
 20
795.9203445719167
 10
539.282691640953
 20
794.3959202622545
 10
538.6697057918127
 20
792.9820530525731
 10
538.4427429009219
 20
791.4584250991293
 10
538.4427429009219
 20
786.5025472950701
 10
539.1152599993501
 20
786.2764157408283
 10
539.4929113702882
 20
786.0578244287962
 10
539.1152599993501
 20
785.6801730556644
 10
538.4427429009219
 20
785.9063046099645
 10
538.4427429009219
 20
784.0580223702081
 10
696.9815685158964
 20
784.0580223702081
 10
697.4391391077506
 20
784.5155929594211
 10
698.1116562061788
 20
784.28961607785
 10
698.1116562061715
 20
786.8139585149083
 10
697.4391391077578
 20
787.0400900692048
 10
697.0614877324469
 20
787.2577512052567
 10
697.4391391077506
 20
787.636332754083
 10
698.1116562061788
 20
787.4102011998302
 97
       27
330
7DE4
330
7DE5
330
7DE6
330
7DE7
330
7DF2
330
7DB5
330
7F96
330
7FB4
330
7FB3
330
7FC3
330
7FC2
330
7FC1
330
7FBC
330
7FB5
330
7FC6
330
7FC7
330
7FB6
330
7FC8
330
7F95
330
7DDF
330
7DE0
330
7DEA
330
7DEE
330
7DEC
330
7DED
330
7DEF
330
7DE9
 92
        7
 72
     0
 73
     1
 93
       24
 10
855.7955047845162
 20
791.4584250990637
 10
855.5685418936327
 20
792.9820530525348
 10
854.9555560444559
 20
794.3959202622727
 10
853.7458819000084
 20
795.9203445719277
 10
852.0450359794258
 20
796.8580955934767
 10
852.0450359794258
 20
798.05802237021
 10
704.561495173998
 20
798.05802237021
 10
704.561495173998
 20
796.8580955934767
 10
702.8606492534227
 20
795.9203445719185
 10
701.650975108946
 20
794.395920262249
 10
701.0379892597984
 20
792.9820530525585
 10
700.8110263689077
 20
791.4584250991165
 10
700.8110263689077
 20
786.5025472950738
 10
701.4835434673504
 20
786.2764157408228
 10
701.8611948382885
 20
786.0578244287926
 10
701.4835434673432
 20
785.680173055668
 10
700.8110263689149
 20
785.9063046099663
 10
700.8110263689149
 20
784.0580223702081
 10
855.7955047845162
 20
784.0580223702063
 10
855.7955047845089
 20
785.9063046099645
 10
855.1229876860807
 20
785.6801730556644
 10
854.7453363151426
 20
786.0578244287944
 10
855.1229876860807
 20
786.2764157408191
 10
855.7955047845089
 20
786.5025472950738
 97
       24
330
7F81
330
7F80
330
7F7F
330
7F8F
330
7F8E
330
7F96
330
7DF0
330
7DF1
330
7DE1
330
7DE2
330
7DE3
330
7DE8
330
7DEF
330
7DDE
330
7DDD
330
7DEE
330
7DDC
330
7F95
330
7F6B
330
7F8C
330
7F6D
330
7F6E
330
7F8D
330
7F86
 92
        7
 72
     0
 73
     1
 93
       17
 10
897.3242235640928
 20
798.0580223702081
 10
862.2453437566937
 20
798.0580223702081
 10
862.245343756701
 20
796.8580955934767
 10
860.8956586731428
 20
796.1139549570061
 10
859.7850287727915
 20
795.0451829675994
 10
858.9887982934733
 20
793.7261936893055
 10
858.5609174291667
 20
792.2453538222225
 10
858.4948749472378
 20
791.4584250990729
 10
858.4948749472451
 20
787.410201199832
 10
859.1673920456733
 20
787.6363327540848
 10
859.5450434209842
 20
787.257751205253
 10
859.1673920456733
 20
787.0400900692065
 10
858.4948749472451
 20
786.8139585149083
 10
858.4948749472378
 20
784.28961607785
 10
859.1673920456733
 20
784.515592959423
 10
859.6249626375275
 20
784.0580223702081
 10
897.3242235641
 20
784.0580223702081
 97
       17
330
7F96
330
7F90
330
7F91
330
7F85
330
7F84
330
7F83
330
7F82
330
7F87
330
7F8D
330
7F8B
330
7F8A
330
7F8C
330
7F88
330
7F75
330
7F71
330
7F95
330
7F7D
 92
        7
 72
     0
 73
     1
 93
       17
 10
897.3242235641
 20
408.5723584913821
 10
859.6249626375348
 20
408.5723584913821
 10
859.1673920456733
 20
408.1147879021691
 10
858.4948749472451
 20
408.3407647837402
 10
858.4948749472451
 20
405.8164223466856
 10
859.1673920456806
 20
405.5902907923782
 10
859.5450434209842
 20
405.3726296563336
 10
859.1673920456806
 20
404.9940481075091
 10
858.4948749472451
 20
405.2201796617655
 10
858.4948749472523
 20
401.1719557624283
 10
858.5609174291667
 20
400.385027039335
 10
858.9887982934515
 20
398.9041871723011
 10
859.7850287727769
 20
397.5851978939981
 10
860.8956586731283
 20
396.5164259045987
 10
862.2453437566937
 20
395.7722852681099
 10
862.2453437566937
 20
394.5723584913803
 10
897.3242235641
 20
394.5723584913803
 97
       17
330
809A
330
80A6
330
80A2
330
808A
330
8086
330
8088
330
8087
330
8085
330
808B
330
8090
330
808F
330
808E
330
808D
330
8081
330
8082
330
8099
330
8098
 92
        7
 72
     0
 73
     1
 93
       24
 10
855.7955047845016
 20
406.1278335665183
 10
855.1229876861025
 20
406.353965120762
 10
854.7453363151353
 20
406.5725564327976
 10
855.122987686088
 20
406.9502078059294
 10
855.7955047845089
 20
406.7240762516312
 10
855.7955047845089
 20
408.5723584913821
 10
703.552034240608
 20
408.5723584913821
 10
703.552034240608
 20
406.7240762516275
 10
704.2245513390435
 20
406.9502078059277
 10
704.6022027099816
 20
406.5725564327976
 10
704.2245513390362
 20
406.3539651207711
 10
703.552034240608
 20
406.1278335665183
 10
703.5520342406153
 20
401.1719557624628
 10
703.7789971314841
 20
399.6483278090463
 10
704.3919829806464
 20
398.2344605993284
 10
705.6016571251302
 20
396.7100362896699
 10
707.3025030456911
 20
395.7722852681135
 10
707.3025030456911
 20
394.5723584913803
 10
852.0450359794258
 20
394.5723584913839
 10
852.0450359794258
 20
395.7722852681117
 10
853.7458818999938
 20
396.7100362896644
 10
854.9555560444705
 20
398.2344605993212
 10
855.5685418936182
 20
399.6483278090372
 10
855.7955047845089
 20
401.1719557624574
 97
       24
330
8085
330
80A9
330
80AA
330
8086
330
80AC
330
809A
330
7DB4
330
7DA2
330
7DB3
330
7DB2
330
7DA1
330
7DA8
330
7DAD
330
7DAE
330
7DAF
330
7D9F
330
7DA0
330
8099
330
8084
330
8083
330
8093
330
8092
330
8091
330
808C
 92
        7
 72
     0
 73
     1
 93
       27
 10
700.3587407316508
 20
398.9041871723011
 10
700.7866215959502
 20
400.3850270393622
 10
700.8526640778718
 20
401.1719557624647
 10
700.8526640778718
 20
405.22017966176
 10
700.1801469794436
 20
404.9940481075037
 10
699.8024956041327
 20
405.3726296563354
 10
700.1801469794509
 20
405.5902907923855
 10
700.8526640778718
 20
405.8164223466837
 10
700.8526640778718
 20
408.3407647837384
 10
700.1801469794436
 20
408.1147879021655
 10
699.7225763875895
 20
408.5723584913821
 10
538.4427429009219
 20
408.5723584913821
 10
538.4427429009219
 20
406.7240762516258
 10
539.1152599993501
 20
406.950207805924
 10
539.4929113702955
 20
406.5725564327976
 10
539.1152599993574
 20
406.3539651207729
 10
538.4427429009219
 20
406.1278335665165
 10
538.4427429009219
 20
401.1719557625046
 10
538.6697057918054
 20
399.6483278090445
 10
539.282691640953
 20
398.2344605993539
 10
540.4923657854369
 20
396.7100362896644
 10
542.193211706005
 20
395.7722852681135
 10
542.193211706005
 20
394.5723584913803
 10
697.1021952684232
 20
394.5723584913803
 10
697.1021952684232
 20
395.7722852681172
 10
698.4518803519886
 20
396.5164259045914
 10
699.5625102523327
 20
397.5851978940036
 97
       27
330
7DAB
330
7DAC
330
7DA7
330
7DA1
330
7DA3
330
7DA4
330
7DA2
330
7DA6
330
7DB0
330
7DB1
330
809A
330
8009
330
801B
330
800A
330
800B
330
801C
330
8015
330
8010
330
800F
330
800E
330
801E
330
801D
330
8099
330
7D9E
330
7D9D
330
7DA9
330
7DAA
 92
        7
 72
     0
 73
     1
 93
       17
 10
535.7433727381858
 20
405.22017966176
 10
535.0708556397576
 20
404.9940481075054
 10
534.6932042644466
 20
405.3726296563354
 10
535.0708556397576
 20
405.5902907923855
 10
535.7433727381858
 20
405.8164223466856
 10
535.7433727381858
 20
408.3407647837366
 10
535.0708556397503
 20
408.1147879021673
 10
534.6132850479034
 20
408.5723584913803
 10
496.8963543724376
 20
408.5723584913821
 10
496.8963543724376
 20
394.5723584913821
 10
531.9929039287371
 20
394.5723584913803
 10
531.9929039287371
 20
395.7722852681154
 10
533.342589012288
 20
396.5164259045877
 10
534.453218912632
 20
397.5851978939836
 10
535.2494493919575
 20
398.9041871722993
 10
535.6773302562642
 20
400.3850270393459
 10
535.7433727381858
 20
401.17195576241
 97
       17
330
801C
330
801A
330
8019
330
801B
330
8017
330
800D
330
800C
330
809A
330
7E0F
330
8099
330
801F
330
8020
330
8014
330
8013
330
8012
330
8011
330
8016
 75
     0
 76
     1
 52
0.0
 41
1.0
 77
     0
 78
     1
 53
45.0
 43
-32638.7508086024
 44
-11345.88358887185
 45
-2.245064030267287
 46
2.245064030267288
 79
     0
 47
0.6389416625911606
 98
        8
 10
523.8318246059634
 20
789.0664349533063
 10
558.3535434534851
 20
789.0664349533063
 10
758.451472310654
 20
790.3442926196467
 10
877.3594954123536
 20
792.2611503937178
 10
868.4094258506075
 20
403.1456270331936
 10
834.5270635855259
 20
401.2288167754913
 10
648.4935187707151
 20
398.0341013350798
 10
529.5854956690154
 20
401.8677218504771
  0
HATCH
  5
7C6F
330
1F
100
AcDbEntity
  8
CETRIS
100
AcDbHatch
 10
0.0
 20
0.0
 30
0.0
210
0.0
220
0.0
230
1.0
  2
ANSI31
 70
     0
 71
     1
 91
       12
 92
        7
 72
     0
 73
     1
 93
       17
 10
495.5689426196031
 20
798.0327045167095
 10
481.5689426195886
 20
798.0327045167078
 10
481.5689426195886
 20
725.9060482720023
 10
482.751199647434
 20
725.9060482720006
 10
483.4953402839082
 20
724.5563631884406
 10
484.5641122733277
 20
723.4457332880984
 10
485.8831015516398
 20
722.6495028087711
 10
487.3639414186682
 20
722.2216219444753
 10
488.150870141776
 20
722.1555794625537
 10
492.1990940410751
 20
722.1555794625519
 10
491.9729624868186
 20
722.8280965609819
 10
492.3515440356632
 20
723.2057479362947
 10
492.5692051717041
 20
722.8280965609801
 10
492.7953367260115
 20
722.1555794625537
 10
495.3196791630607
 20
722.1555794625519
 10
495.0937022814896
 20
722.8280965609838
 10
495.5689426195958
 20
723.3033369018403
 97
       17
330
8006
330
8007
330
7E3C
330
7E37
330
7E38
330
7E39
330
7E3A
330
7E3B
330
7E35
330
7E2A
330
7E2E
330
7E2F
330
7E2B
330
7E34
330
7E23
330
7E27
330
8008
 92
        7
 72
     0
 73
     1
 93
       27
 10
495.5689426195958
 20
719.4562092998157
 10
493.7029906309462
 20
719.4562092998157
 10
493.9291221852463
 20
718.7836922013875
 10
493.5514708121181
 20
718.4060408304439
 10
493.3328795000843
 20
718.7836922013603
 10
493.1067479458206
 20
719.4562092998175
 10
488.1508701417906
 20
719.4562092998157
 10
486.6272421883686
 20
719.2292464089359
 10
485.2133749786434
 20
718.616260559781
 10
483.6889506690049
 20
717.4065864153135
 10
482.751199647434
 20
715.7057404947344
 10
481.5689426195886
 20
715.7057404947344
 10
481.5689426195886
 20
596.1362832365185
 10
482.7511996474267
 20
596.1362832365202
 10
483.4953402839009
 20
594.786598152953
 10
484.5641122733131
 20
593.675968252618
 10
485.8831015516106
 20
592.8797377732926
 10
487.3639414186754
 20
592.4518569089878
 10
488.150870141776
 20
592.3858144270716
 10
492.1990940410751
 20
592.3858144270698
 10
491.9729624868186
 20
593.0583315255034
 10
492.3515440356559
 20
593.4359829008144
 10
492.5692051716969
 20
593.0583315255326
 10
492.7953367260043
 20
592.3858144270734
 10
495.3196791630607
 20
592.3858144270734
 10
495.0937022814896
 20
593.058331525498
 10
495.5689426195886
 20
593.5335718663509
 97
       27
330
7E32
330
7E2B
330
7E2D
330
7E2C
330
7E2A
330
7E36
330
7E3D
330
7E3E
330
7E3F
330
7E18
330
7E1A
330
8007
330
7CAD
330
7CB2
330
7CB1
330
7CB0
330
7CAF
330
7CAE
330
7CB4
330
7CBF
330
7CBB
330
7CBA
330
7CBE
330
7CB5
330
7CC6
330
7CC2
330
8008
 92
        7
 72
     0
 73
     1
 93
       24
 10
495.5689426196031
 20
589.6864442643354
 10
493.702990630939
 20
589.6864442643354
 10
493.929122185239
 20
589.0139271659054
 10
493.5514708121181
 20
588.6362757949618
 10
493.3328795000843
 20
589.0139271659018
 10
493.1067479458278
 20
589.6864442643336
 10
488.1508701417906
 20
589.6864442643336
 10
486.627242188354
 20
589.459481373452
 10
485.2133749786434
 20
588.846495524297
 10
483.6889506689904
 20
587.636821379835
 10
482.751199647434
 20
585.9359754592506
 10
481.5689426195886
 20
585.9359754592542
 10
481.5689426195886
 20
476.9246403668558
 10
482.751199647434
 20
476.9246403668558
 10
483.6889506689904
 20
475.2237944462804
 10
485.2133749786434
 20
474.0141203018183
 10
486.6272421883686
 20
473.4011344526615
 10
488.1508701417978
 20
473.1741715617727
 10
493.1067479458351
 20
473.1741715617745
 10
493.3328795000843
 20
473.8466886602063
 10
493.5514708121254
 20
474.2243400311499
 10
493.929122185239
 20
473.8466886601936
 10
493.702990630939
 20
473.1741715617727
 10
495.5689426195886
 20
473.1741715617727
 97
       24
330
7CB7
330
7CBE
330
7CBC
330
7CBD
330
7CBF
330
7CB3
330
7CAC
330
7CAB
330
7CAA
330
7CD1
330
7CCF
330
8007
330
7F20
330
7F22
330
7EFB
330
7EFC
330
7EFD
330
7F04
330
7F10
330
7F0E
330
7F0D
330
7F0F
330
7F08
330
8008
 92
        7
 72
     0
 73
     1
 93
       17
 10
495.5689426195958
 20
469.3270439597536
 10
495.0937022814896
 20
469.8022843006119
 10
495.3196791630461
 20
470.4748013990365
 10
492.795336725997
 20
470.4748013990365
 10
492.5692051717041
 20
469.8022843005901
 10
492.3515440356559
 20
469.4246329252973
 10
491.9729624868259
 20
469.802284300601
 10
492.1990940410751
 20
470.4748013990365
 10
488.1508701417614
 20
470.4748013990347
 10
487.3639414186536
 20
470.408758917113
 10
485.8831015516179
 20
469.9808780528155
 10
484.5641122733277
 20
469.1846475734991
 10
483.4953402839082
 20
468.0740176731387
 10
482.751199647434
 20
466.7243325895896
 10
481.5689426195886
 20
466.724332589586
 10
481.5689426195886
 20
394.5976763448807
 10
495.5689426195886
 20
394.5976763448807
 97
       17
330
7F13
330
7F17
330
7F06
330
7F0F
330
7F0B
330
7F0C
330
7F10
330
7F05
330
7EFF
330
7F00
330
7F01
330
7F02
330
7F03
330
7EFE
330
8007
330
7E0E
330
8008
 92
        7
 72
     0
 73
     1
 93
        4
 10
912.6693050658422
 20
428.1140803383777
 10
898.6693050658423
 20
428.1140803383777
 10
898.6693050658423
 20
394.5976763448807
 10
912.6693050658422
 20
394.5976763448807
 97
        4
330
7C71
330
8096
330
8094
330
8097
 92
        7
 72
     0
 73
     1
 93
       17
 10
912.6693050658422
 20
466.7243325895879
 10
911.4693782891109
 20
466.7243325895896
 10
910.7252376526439
 20
468.0740176731188
 10
909.6564656632244
 20
469.1846475734937
 10
908.3374763849342
 20
469.9808780528065
 10
906.856636517884
 20
470.4087589171167
 10
906.0697077947834
 20
470.4748013990365
 10
902.0214838954698
 20
470.4748013990365
 10
902.2476154497189
 20
469.8022843006064
 10
901.8690339008889
 20
469.4246329252918
 10
901.6513727648552
 20
469.8022843006028
 10
901.4252412105479
 20
470.4748013990365
 10
898.9008987734914
 20
470.4748013990383
 10
899.1268756550553
 20
469.8022843006119
 10
898.6693050658423
 20
469.3447137087487
 10
898.6693050658351
 20
428.1140803383777
 10
912.6693050658422
 20
428.114080338376
 97
       17
330
8120
330
811B
330
811C
330
811D
330
811E
330
811F
330
8119
330
810E
330
8112
330
8113
330
810F
330
8118
330
8107
330
810B
330
8096
330
7C71
330
8097
 92
        7
 72
     0
 73
     1
 93
       14
 10
912.6693050658422
 20
489.0229833042294
 10
898.6693050658423
 20
489.0229833042276
 10
898.6693050658423
 20
473.1741715617727
 10
900.5175873055987
 20
473.1741715617727
 10
900.2914557512985
 20
473.8466886602009
 10
900.669107124434
 20
474.2243400311481
 10
900.887698436446
 20
473.8466886602045
 10
901.1138299907024
 20
473.1741715617727
 10
906.069707794747
 20
473.1741715617708
 10
907.5933357481835
 20
473.4011344526579
 10
909.0072029578941
 20
474.0141203018074
 10
910.5316272675619
 20
475.2237944462804
 10
911.4693782891109
 20
476.9246403668539
 10
912.6693050658495
 20
476.9246403668575
 97
       14
330
7C76
330
8096
330
8116
330
810F
330
8111
330
8110
330
810E
330
811A
330
8121
330
8122
330
8123
330
80FC
330
80FE
330
8097
 92
        7
 72
     0
 73
     1
 93
        4
 10
912.6693050658422
 20
566.850326436298
 10
898.6693050658423
 20
566.850326436298
 10
898.6693050658496
 20
489.0229833042294
 10
912.6693050658422
 20
489.0229833042294
 97
        4
330
8182
330
8096
330
7C76
330
8097
 92
        7
 72
     0
 73
     1
 93
       14
 10
912.6693050658349
 20
585.9359754592506
 10
911.4693782891109
 20
585.9359754592524
 10
910.5316272675546
 20
587.6368213798222
 10
909.0072029578649
 20
588.8464955243116
 10
907.5933357481762
 20
589.4594813734502
 10
906.0697077947615
 20
589.6864442643354
 10
901.1138299907097
 20
589.6864442643373
 10
900.8876984364388
 20
589.013927165869
 10
900.6691071244267
 20
588.6362757949673
 10
900.2914557512985
 20
589.0139271658963
 10
900.5175873055987
 20
589.6864442643354
 10
898.6693050658423
 20
589.6864442643336
 10
898.6693050658423
 20
566.8503264362998
 10
912.6693050658422
 20
566.8503264362998
 97
       14
330
7CD4
330
7CD2
330
7CF9
330
7CF8
330
7CF7
330
7CF0
330
7CE4
330
7CE6
330
7CE7
330
7CE5
330
7CEC
330
8096
330
8182
330
8097
 92
        7
 72
     0
 73
     1
 93
       17
 10
912.6693050658422
 20
664.4932727278383
 10
898.6693050658423
 20
673.1240026664245
 10
898.6693050658423
 20
593.5159021173503
 10
899.126875655048
 20
593.058331525498
 10
898.9008987734841
 20
592.3858144270716
 10
901.4252412105406
 20
592.3858144270698
 10
901.6513727648479
 20
593.0583315255071
 10
901.8690339008889
 20
593.4359829008126
 10
902.2476154497116
 20
593.0583315254998
 10
902.0214838954553
 20
592.3858144270698
 10
906.069707794747
 20
592.3858144270679
 10
906.8566365178694
 20
592.4518569089932
 10
908.3374763849269
 20
592.8797377732944
 10
909.6564656632317
 20
593.6759682526144
 10
910.7252376526293
 20
594.7865981529712
 10
911.4693782891109
 20
596.1362832365202
 10
912.6693050658495
 20
596.1362832365202
 97
       17
330
7C78
330
8096
330
7CE1
330
7CDD
330
7CEE
330
7CE5
330
7CE9
330
7CE8
330
7CE4
330
7CEF
330
7CF5
330
7CF4
330
7CF3
330
7CF2
330
7CF1
330
7CF6
330
8097
 92
        7
 72
     0
 73
     1
 93
       14
 10
912.6693050658422
 20
715.7057404947327
 10
911.4693782891182
 20
715.7057404947344
 10
910.5316272675473
 20
717.4065864153171
 10
909.0072029579014
 20
718.6162605597883
 10
907.5933357481908
 20
719.2292464089341
 10
906.0697077947324
 20
719.4562092998175
 10
901.1138299906951
 20
719.4562092998157
 10
900.8876984364533
 20
718.7836922013821
 10
900.6691071244194
 20
718.4060408304439
 10
900.2914557513058
 20
718.7836922013875
 10
900.5175873056058
 20
719.4562092998194
 10
898.6693050658423
 20
719.4562092998175
 10
898.6693050658423
 20
673.1240026664318
 10
912.6693050658422
 20
664.4932727278383
 97
       14
330
7EC7
330
7EC9
330
7EA2
330
7EA3
330
7EA4
330
7EAB
330
7EB7
330
7EB5
330
7EB4
330
7EB6
330
7EAF
330
8096
330
7C78
330
8097
 92
        7
 72
     0
 73
     1
 93
       17
 10
912.6693050658422
 20
798.0327045167114
 10
898.6693050658496
 20
798.0327045167095
 10
898.6693050658496
 20
723.285667152827
 10
899.1268756550553
 20
722.8280965609819
 10
898.9008987734841
 20
722.1555794625519
 10
901.4252412105479
 20
722.1555794625537
 10
901.6513727648407
 20
722.8280965609819
 10
901.8690339008889
 20
723.2057479362911
 10
902.2476154497189
 20
722.828096560991
 10
902.0214838954553
 20
722.1555794625519
 10
906.0697077947615
 20
722.1555794625537
 10
906.8566365178767
 20
722.2216219444753
 10
908.3374763849196
 20
722.6495028087729
 10
909.6564656632171
 20
723.4457332880911
 10
910.7252376526366
 20
724.5563631884515
 10
911.4693782891109
 20
725.9060482720042
 10
912.6693050658495
 20
725.9060482720023
 97
       17
330
7F94
330
8096
330
7EBA
330
7EBE
330
7EAD
330
7EB6
330
7EB2
330
7EB3
330
7EB7
330
7EAC
330
7EA6
330
7EA7
330
7EA8
330
7EA9
330
7EAA
330
7EA5
330
8097
 75
     0
 76
     1
 52
90.0
 41
1.0
 77
     0
 78
     1
 53
135.0
 43
-32638.7508086024
 44
-11345.88358887185
 45
-2.245064030267288
 46
-2.245064030267287
 79
     0
 47
0.6389416625911606
 98
       12
 10
488.6708260587028
 20
736.6732252731189
 10
488.6708260587028
 20
695.780924655507
 10
488.031546358964
 20
542.4349161303571
 10
487.3922666592252
 20
444.6768327257987
 10
907.4061794790022
 20
403.1456270331936
 10
906.1276200795246
 20
449.7883584239052
 10
906.1276200795246
 20
487.4859436011129
 10
906.1276200795246
 20
520.7109081551998
 10
904.2097040975923
 20
577.5767384585078
 10
904.2097040975923
 20
621.6637070001698
 10
908.0454591787411
 20
692.5862092150955
 10
902.2918649983903
 20
747.5352292607013
  0
INSERT
  5
7C70
330
1F
100
AcDbEntity
  8
POPIS
100
AcDbBlockReference
  2
E_PUNKT
 10
896.0309337260468
 20
428.4032904962232
 30
0.0
 50
90.0
  0
LINE
  5
7C71
102
{ACAD_REACTORS
330
7C6F
102
}
330
1F
100
AcDbEntity
  8
POPIS
100
AcDbLine
 10
1006.205412120069
 20
428.1140803383777
 30
0.0
 11
896.5506489336686
 21
428.1140803383777
 31
0.0
  0
TEXT
  5
7C72
330
1F
100
AcDbEntity
  8
POPIS
100
AcDbText
 10
1018.125334392533
 20
415.3672733871653
 30
0.0
 40
25.0
  1
04
 41
0.85
  7
SIMPLEX7
100
AcDbText
  0
INSERT
  5
7C73
330
1F
100
AcDbEntity
  8
POPIS
100
AcDbBlockReference
  2
E_PUNKT
 10
896.0309337260468
 20
489.312193462073
 30
0.0
 50
90.0
  0
INSERT
  5
7C74
330
1F
100
AcDbEntity
  8
POPIS
100
AcDbBlockReference
  2
E_PUNKT
 10
872.1626976726756
 20
566.8542958411135
 30
0.0
 50
90.0
  0
TEXT
  5
7C75
330
1F
100
AcDbEntity
  8
POPIS
100
AcDbText
 10
1018.125334392533
 20
476.2761763530152
 30
0.0
 40
25.0
  1
05
 41
0.85
  7
SIMPLEX7
100
AcDbText
  0
LINE
  5
7C76
102
{ACAD_REACTORS
330
7C6F
102
}
330
1F
100
AcDbEntity
  8
POPIS
100
AcDbLine
 10
1006.205412120069
 20
489.0229833042276
 30
0.0
 11
896.5506489336686
 21
489.0229833042276
 31
0.0
  0
INSERT
  5
7C77
330
1F
100
AcDbEntity
  8
POPIS
100
AcDbBlockReference
  2
E_PUNKT
 10
826.7132554189801
 20
718.6261346333131
 30
0.0
 50
90.0
  0
LINE
  5
7C78
102
{ACAD_REACTORS
330
7C6F
102
}
330
1F
100
AcDbEntity
  8
POPIS
100
AcDbLine
 10
946.3529490934297
 20
643.7279559457119
 30
0.0
 11
825.446259321011
 21
718.2645978882019
 31
0.0
  0
LINE
  5
7C79
330
1F
100
AcDbEntity
  8
SPOJOVACÍ
  6
Continuous
100
AcDbLine
 10
499.0218346671745
 20
592.3858144270716
 30
0.0
 11
501.5500524800436
 21
592.3858144270716
 31
0.0
  0
LINE
  5
7C7A
330
1F
100
AcDbEntity
  8
SPOJOVACÍ
  6
Continuous
100
AcDbLine
 10
499.9352672985541
 20
589.6864442643354
 30
0.0
 11
502.4560437052705
 21
589.6864442643354
 31
0.0
  0
LINE
  5
7C7B
330
1F
100
AcDbEntity
  8
SPOJOVACÍ
  6
Continuous
100
AcDbLine
 10
502.1546667473294
 20
592.3858144270716
 30
0.0
 11
504.6726526266565
 21
592.3858144270716
 31
0.0
  0
LINE
  5
7C7C
330
1F
100
AcDbEntity
  8
SPOJOVACÍ
  6
Continuous
100
AcDbLine
 10
505.268895311804
 20
592.3858144270716
 30
0.0
 11
506.5162610536926
 21
592.3858144270716
 31
0.0
  0
LINE
  5
7C7D
330
1F
100
AcDbEntity
  8
SPOJOVACÍ
  6
Continuous
100
AcDbLine
 10
503.0569372691961
 20
589.6864442643354
 30
0.0
 11
505.5758533242324
 21
589.6864442643354
 31
0.0
  0
LINE
  5
7C7E
330
1F
100
AcDbEntity
  8
SPOJOVACÍ
  6
Continuous
100
AcDbLine
 10
506.1795374158091
 20
589.6864442643354
 30
0.0
 11
506.5162610536926
 21
589.6864442643354
 31
0.0
  0
LINE
  5
7C7F
330
1F
100
AcDbEntity
  8
SPOJOVACÍ
  6
Continuous
100
AcDbLine
 10
506.5162610536926
 20
592.3858144270716
 30
0.0
 11
507.7133973030568
 21
592.2360561243485
 31
0.0
  0
LINE
  5
7C80
330
1F
100
AcDbEntity
  8
SPOJOVACÍ
  6
Continuous
100
AcDbLine
 10
517.3165322186532
 20
591.0361293478863
 30
0.0
 11
514.4804262173847
 21
590.6817323667573
 31
0.0
  0
LINE
  5
7C81
330
1F
100
AcDbEntity
  8
SPOJOVACÍ
  6
Continuous
100
AcDbLine
 10
508.3338245589102
 20
592.1588515318226
 30
0.0
 11
510.6555433449675
 21
591.868636682303
 31
0.0
  0
LINE
  5
7C82
330
1F
100
AcDbEntity
  8
SPOJOVACÍ
  6
Continuous
100
AcDbLine
 10
511.2862025346394
 20
591.7895717394649
 30
0.0
 11
513.6069911449876
 21
591.4993568943109
 31
0.0
  0
LINE
  5
7C83
330
1F
100
AcDbEntity
  8
SPOJOVACÍ
  6
Continuous
100
AcDbLine
 10
514.227418400841
 20
591.4221523017849
 30
0.0
 11
517.3165322186532
 21
591.0361293478863
 31
0.0
  0
LINE
  5
7C84
330
1F
100
AcDbEntity
  8
SPOJOVACÍ
  6
Continuous
100
AcDbLine
 10
513.9111586303179
 20
590.6101088295335
 30
0.0
 11
511.7661732453261
 21
590.3422182012227
 31
0.0
  0
LINE
  5
7C85
330
1F
100
AcDbEntity
  8
SPOJOVACÍ
  6
Continuous
100
AcDbLine
 10
511.1941151308847
 20
590.2705946683645
 30
0.0
 11
509.0575013280313
 21
590.0036342130269
 31
0.0
  0
LINE
  5
7C86
330
1F
100
AcDbEntity
  8
SPOJOVACÍ
  6
Continuous
100
AcDbLine
 10
508.4873035649788
 20
589.9320106758032
 30
0.0
 11
506.5162610536926
 21
589.6864442643354
 31
0.0
  0
LINE
  5
7C87
330
1F
100
AcDbEntity
  8
SPOJOVACÍ
  6
Continuous
100
AcDbLine
 10
507.9087342200791
 20
593.1820449063898
 30
0.0
 11
508.1273255320984
 21
592.8034633581055
 31
0.0
  0
LINE
  5
7C88
330
1F
100
AcDbEntity
  8
SPOJOVACÍ
  6
Continuous
100
AcDbLine
 10
507.9087342200791
 20
593.1820449063898
 30
0.0
 11
507.5310828469509
 21
592.8034633581055
 31
0.0
  0
LINE
  5
7C89
330
1F
100
AcDbEntity
  8
SPOJOVACÍ
  6
Continuous
100
AcDbLine
 10
508.8816981023837
 20
589.0567152536468
 30
0.0
 11
509.2602796514829
 21
589.4343666245922
 31
0.0
  0
LINE
  5
7C8A
330
1F
100
AcDbEntity
  8
SPOJOVACÍ
  6
Continuous
100
AcDbLine
 10
508.8816981023837
 20
589.0567152536468
 30
0.0
 11
508.6640369663355
 21
589.4343666245922
 31
0.0
  0
LINE
  5
7C8B
330
1F
100
AcDbEntity
  8
SPOJOVACÍ
  6
Continuous
100
AcDbLine
 10
508.1273255320984
 20
592.8034633581055
 30
0.0
 11
509.2602796514829
 21
589.4343666245922
 31
0.0
  0
LINE
  5
7C8C
330
1F
100
AcDbEntity
  8
SPOJOVACÍ
  6
Continuous
100
AcDbLine
 10
507.5310828469509
 20
592.8034633581055
 30
0.0
 11
508.6640369663355
 21
589.4343666245922
 31
0.0
  0
LINE
  5
7C8D
330
1F
100
AcDbEntity
  8
SPOJOVACÍ
  6
Continuous
100
AcDbLine
 10
507.9087342200791
 20
593.1820449063898
 30
0.0
 11
508.8816981023837
 21
589.0567152536468
 31
0.0
  0
LINE
  5
7C8E
330
1F
100
AcDbEntity
  8
SPOJOVACÍ
  6
Continuous
100
AcDbLine
 10
510.9234339743697
 20
592.6174282002839
 30
0.0
 11
511.141095110418
 21
592.2397768249729
 31
0.0
  0
LINE
  5
7C8F
330
1F
100
AcDbEntity
  8
SPOJOVACÍ
  6
Continuous
100
AcDbLine
 10
510.9234339743697
 20
592.6174282002839
 30
0.0
 11
510.5448524252706
 21
592.2397768249729
 31
0.0
  0
LINE
  5
7C90
330
1F
100
AcDbEntity
  8
SPOJOVACÍ
  6
Continuous
100
AcDbLine
 10
511.5568836911397
 20
589.5013392838527
 30
0.0
 11
511.935465239977
 21
589.8789906547981
 31
0.0
  0
LINE
  5
7C91
330
1F
100
AcDbEntity
  8
SPOJOVACÍ
  6
Continuous
100
AcDbLine
 10
511.5568836911397
 20
589.5013392838527
 30
0.0
 11
511.3392225550914
 21
589.8789906547981
 31
0.0
  0
LINE
  5
7C92
330
1F
100
AcDbEntity
  8
SPOJOVACÍ
  6
Continuous
100
AcDbLine
 10
511.141095110418
 20
592.2397768249729
 30
0.0
 11
511.935465239977
 21
589.8789906547981
 31
0.0
  0
LINE
  5
7C93
330
1F
100
AcDbEntity
  8
SPOJOVACÍ
  6
Continuous
100
AcDbLine
 10
510.5448524252706
 20
592.2397768249729
 30
0.0
 11
511.3392225550914
 21
589.8789906547981
 31
0.0
  0
LINE
  5
7C94
330
1F
100
AcDbEntity
  8
SPOJOVACÍ
  6
Continuous
100
AcDbLine
 10
510.9234339743697
 20
592.6174282002839
 30
0.0
 11
511.5568836911397
 21
589.5013392838527
 31
0.0
  0
LINE
  5
7C95
330
1F
100
AcDbEntity
  8
SPOJOVACÍ
  6
Continuous
100
AcDbLine
 10
513.9372035526894
 20
592.0528114898124
 30
0.0
 11
514.1557948647086
 21
591.675160118867
 31
0.0
  0
LINE
  5
7C96
330
1F
100
AcDbEntity
  8
SPOJOVACÍ
  6
Continuous
100
AcDbLine
 10
513.9372035526894
 20
592.0528114898124
 30
0.0
 11
513.5595521795612
 21
591.675160118867
 31
0.0
  0
LINE
  5
7C97
330
1F
100
AcDbEntity
  8
SPOJOVACÍ
  6
Continuous
100
AcDbLine
 10
514.2478822684633
 20
589.8985243483557
 30
0.0
 11
514.6264638173006
 21
590.2761757193011
 31
0.0
  0
LINE
  5
7C98
330
1F
100
AcDbEntity
  8
SPOJOVACÍ
  6
Continuous
100
AcDbLine
 10
514.2478822684633
 20
589.8985243483557
 30
0.0
 11
514.0302211321531
 21
590.2761757193011
 31
0.0
  0
LINE
  5
7C99
330
1F
100
AcDbEntity
  8
SPOJOVACÍ
  6
Continuous
100
AcDbLine
 10
514.1557948647086
 20
591.675160118867
 30
0.0
 11
514.6264638173006
 21
590.2761757193011
 31
0.0
  0
LINE
  5
7C9A
330
1F
100
AcDbEntity
  8
SPOJOVACÍ
  6
Continuous
100
AcDbLine
 10
513.5595521795612
 20
591.675160118867
 30
0.0
 11
514.0302211321531
 21
590.2761757193011
 31
0.0
  0
LINE
  5
7C9B
330
1F
100
AcDbEntity
  8
SPOJOVACÍ
  6
Continuous
100
AcDbLine
 10
513.9372035526894
 20
592.0528114898124
 30
0.0
 11
514.2478822684633
 21
589.8985243483557
 31
0.0
  0
LINE
  5
7C9C
330
1F
100
AcDbEntity
  8
SPOJOVACÍ
  6
Continuous
100
AcDbLine
 10
501.710972892818
 20
593.4359829008108
 30
0.0
 11
502.9108996692802
 21
588.6362757949618
 31
0.0
  0
LINE
  5
7C9D
330
1F
100
AcDbEntity
  8
SPOJOVACÍ
  6
Continuous
100
AcDbLine
 10
501.710972892818
 20
593.4359829008108
 30
0.0
 11
501.9295642048373
 21
593.0583315254998
 31
0.0
  0
LINE
  5
7C9E
330
1F
100
AcDbEntity
  8
SPOJOVACÍ
  6
Continuous
100
AcDbLine
 10
501.710972892818
 20
593.4359829008108
 30
0.0
 11
501.3333215196898
 21
593.0583315254998
 31
0.0
  0
LINE
  5
7C9F
330
1F
100
AcDbEntity
  8
SPOJOVACÍ
  6
Continuous
100
AcDbLine
 10
502.9108996692802
 20
588.6362757949618
 30
0.0
 11
503.2894812181175
 21
589.0139271659072
 31
0.0
  0
LINE
  5
7CA0
330
1F
100
AcDbEntity
  8
SPOJOVACÍ
  6
Continuous
100
AcDbLine
 10
502.9108996692802
 20
588.6362757949618
 30
0.0
 11
502.693238533232
 21
589.0139271659072
 31
0.0
  0
LINE
  5
7CA1
330
1F
100
AcDbEntity
  8
SPOJOVACÍ
  6
Continuous
100
AcDbLine
 10
501.9295642048373
 20
593.0583315254998
 30
0.0
 11
503.2894812181175
 21
589.0139271659072
 31
0.0
  0
LINE
  5
7CA2
330
1F
100
AcDbEntity
  8
SPOJOVACÍ
  6
Continuous
100
AcDbLine
 10
501.3333215196898
 20
593.0583315254998
 30
0.0
 11
502.693238533232
 21
589.0139271659072
 31
0.0
  0
LINE
  5
7CA3
330
1F
100
AcDbEntity
  8
SPOJOVACÍ
  6
Continuous
100
AcDbLine
 10
504.8317126877654
 20
593.4359829008108
 30
0.0
 11
506.0316394642277
 21
588.6362757949618
 31
0.0
  0
LINE
  5
7CA4
330
1F
100
AcDbEntity
  8
SPOJOVACÍ
  6
Continuous
100
AcDbLine
 10
504.8317126877654
 20
593.4359829008108
 30
0.0
 11
505.0493738238137
 21
593.0583315254998
 31
0.0
  0
LINE
  5
7CA5
330
1F
100
AcDbEntity
  8
SPOJOVACÍ
  6
Continuous
100
AcDbLine
 10
504.8317126877654
 20
593.4359829008108
 30
0.0
 11
504.4531311386517
 21
593.0583315254998
 31
0.0
  0
LINE
  5
7CA6
330
1F
100
AcDbEntity
  8
SPOJOVACÍ
  6
Continuous
100
AcDbLine
 10
506.0316394642277
 20
588.6362757949618
 30
0.0
 11
506.4092908373559
 21
589.0139271659072
 31
0.0
  0
LINE
  5
7CA7
330
1F
100
AcDbEntity
  8
SPOJOVACÍ
  6
Continuous
100
AcDbLine
 10
506.0316394642277
 20
588.6362757949618
 30
0.0
 11
505.8130481521939
 21
589.0139271659072
 31
0.0
  0
LINE
  5
7CA8
330
1F
100
AcDbEntity
  8
SPOJOVACÍ
  6
Continuous
100
AcDbLine
 10
505.0493738238137
 20
593.0583315254998
 30
0.0
 11
506.4092908373559
 21
589.0139271659072
 31
0.0
  0
LINE
  5
7CA9
330
1F
100
AcDbEntity
  8
SPOJOVACÍ
  6
Continuous
100
AcDbLine
 10
504.4531311386517
 20
593.0583315254998
 30
0.0
 11
505.8130481521939
 21
589.0139271659072
 31
0.0
  0
LINE
  5
7CAA
102
{ACAD_REACTORS
330
7C6F
102
}
330
1F
100
AcDbEntity
  8
SPOJOVACÍ
  6
Continuous
100
AcDbLine
 10
485.213374978658
 20
588.8464955243043
 30
0.0
 11
483.6889506689904
 21
587.6368213798278
 31
0.0
  0
LINE
  5
7CAB
102
{ACAD_REACTORS
330
7C6F
102
}
330
1F
100
AcDbEntity
  8
SPOJOVACÍ
  6
Continuous
100
AcDbLine
 10
486.6272421883613
 20
589.459481373452
 30
0.0
 11
485.213374978658
 21
588.8464955243043
 31
0.0
  0
LINE
  5
7CAC
102
{ACAD_REACTORS
330
7C6F
102
}
330
1F
100
AcDbEntity
  8
SPOJOVACÍ
  6
Continuous
100
AcDbLine
 10
488.1508701417906
 20
589.6864442643354
 30
0.0
 11
486.6272421883613
 21
589.459481373452
 31
0.0
  0
LINE
  5
7CAD
102
{ACAD_REACTORS
330
7C6F
102
}
330
1F
100
AcDbEntity
  8
SPOJOVACÍ
  6
Continuous
100
AcDbLine
 10
481.5512728706953
 20
596.1362832365202
 30
0.0
 11
482.751199647434
 21
596.1362832365202
 31
0.0
  0
LINE
  5
7CAE
102
{ACAD_REACTORS
330
7C6F
102
}
330
1F
100
AcDbEntity
  8
SPOJOVACÍ
  6
Continuous
100
AcDbLine
 10
487.3639414186609
 20
592.4518569089932
 30
0.0
 11
488.1508701417906
 21
592.3858144270716
 31
0.0
  0
LINE
  5
7CAF
102
{ACAD_REACTORS
330
7C6F
102
}
330
1F
100
AcDbEntity
  8
SPOJOVACÍ
  6
Continuous
100
AcDbLine
 10
485.8831015516179
 20
592.8797377732926
 30
0.0
 11
487.3639414186609
 21
592.4518569089932
 31
0.0
  0
LINE
  5
7CB0
102
{ACAD_REACTORS
330
7C6F
102
}
330
1F
100
AcDbEntity
  8
SPOJOVACÍ
  6
Continuous
100
AcDbLine
 10
484.5641122733204
 20
593.6759682526107
 30
0.0
 11
485.8831015516179
 21
592.8797377732926
 31
0.0
  0
LINE
  5
7CB1
102
{ACAD_REACTORS
330
7C6F
102
}
330
1F
100
AcDbEntity
  8
SPOJOVACÍ
  6
Continuous
100
AcDbLine
 10
483.4953402839009
 20
594.7865981529694
 30
0.0
 11
484.5641122733204
 21
593.6759682526107
 31
0.0
  0
LINE
  5
7CB2
102
{ACAD_REACTORS
330
7C6F
102
}
330
1F
100
AcDbEntity
  8
SPOJOVACÍ
  6
Continuous
100
AcDbLine
 10
482.751199647434
 20
596.1362832365202
 30
0.0
 11
483.4953402839009
 21
594.7865981529694
 31
0.0
  0
LINE
  5
7CB3
102
{ACAD_REACTORS
330
7C6F
102
}
330
1F
100
AcDbEntity
  8
SPOJOVACÍ
  6
Continuous
100
AcDbLine
 10
488.1508701417906
 20
589.6864442643354
 30
0.0
 11
493.0938243207192
 21
589.6864442643354
 31
0.0
  0
LINE
  5
7CB4
102
{ACAD_REACTORS
330
7C6F
102
}
330
1F
100
AcDbEntity
  8
SPOJOVACÍ
  6
Continuous
100
AcDbLine
 10
488.1508701417906
 20
592.3858144270716
 30
0.0
 11
492.1887632714633
 21
592.3858144270716
 31
0.0
  0
LINE
  5
7CB5
102
{ACAD_REACTORS
330
7C6F
102
}
330
1F
100
AcDbEntity
  8
SPOJOVACÍ
  6
Continuous
100
AcDbLine
 10
492.7840757806397
 20
592.3858144270716
 30
0.0
 11
495.302991835676
 21
592.3858144270716
 31
0.0
  0
LINE
  5
7CB6
330
1F
100
AcDbEntity
  8
SPOJOVACÍ
  6
Continuous
100
AcDbLine
 10
495.9066759269908
 20
592.3858144270716
 30
0.0
 11
498.4274523336925
 21
592.3858144270716
 31
0.0
  0
LINE
  5
7CB7
102
{ACAD_REACTORS
330
7C6F
102
}
330
1F
100
AcDbEntity
  8
SPOJOVACÍ
  6
Continuous
100
AcDbLine
 10
493.697508412034
 20
589.6864442643354
 30
0.0
 11
496.2164244670557
 21
589.6864442643354
 31
0.0
  0
LINE
  5
7CB8
330
1F
100
AcDbEntity
  8
SPOJOVACÍ
  6
Continuous
100
AcDbLine
 10
496.8126671522177
 20
589.6864442643354
 30
0.0
 11
499.3408849650868
 21
589.6864442643354
 31
0.0
  0
LINE
  5
7CB9
330
1F
100
AcDbEntity
  8
SPOJOVACÍ
  6
Continuous
100
AcDbLine
 10
492.3515440356559
 20
593.4359829008108
 30
0.0
 11
493.5514708121181
 21
588.6362757949618
 31
0.0
  0
LINE
  5
7CBA
102
{ACAD_REACTORS
330
7C6F
102
}
330
1F
100
AcDbEntity
  8
SPOJOVACÍ
  6
Continuous
100
AcDbLine
 10
492.3515440356559
 20
593.4359829008108
 30
0.0
 11
492.5692051717041
 21
593.0583315254998
 31
0.0
  0
LINE
  5
7CBB
102
{ACAD_REACTORS
330
7C6F
102
}
330
1F
100
AcDbEntity
  8
SPOJOVACÍ
  6
Continuous
100
AcDbLine
 10
492.3515440356559
 20
593.4359829008108
 30
0.0
 11
491.9729624868186
 21
593.0583315254998
 31
0.0
  0
LINE
  5
7CBC
102
{ACAD_REACTORS
330
7C6F
102
}
330
1F
100
AcDbEntity
  8
SPOJOVACÍ
  6
Continuous
100
AcDbLine
 10
493.5514708121181
 20
588.6362757949618
 30
0.0
 11
493.9291221852463
 21
589.0139271659072
 31
0.0
  0
LINE
  5
7CBD
102
{ACAD_REACTORS
330
7C6F
102
}
330
1F
100
AcDbEntity
  8
SPOJOVACÍ
  6
Continuous
100
AcDbLine
 10
493.5514708121181
 20
588.6362757949618
 30
0.0
 11
493.3328795000843
 21
589.0139271659072
 31
0.0
  0
LINE
  5
7CBE
102
{ACAD_REACTORS
330
7C6F
102
}
330
1F
100
AcDbEntity
  8
SPOJOVACÍ
  6
Continuous
100
AcDbLine
 10
492.5692051717041
 20
593.0583315254998
 30
0.0
 11
493.9291221852463
 21
589.0139271659072
 31
0.0
  0
LINE
  5
7CBF
102
{ACAD_REACTORS
330
7C6F
102
}
330
1F
100
AcDbEntity
  8
SPOJOVACÍ
  6
Continuous
100
AcDbLine
 10
491.9729624868186
 20
593.0583315254998
 30
0.0
 11
493.3328795000843
 21
589.0139271659072
 31
0.0
  0
LINE
  5
7CC0
330
1F
100
AcDbEntity
  8
SPOJOVACÍ
  6
Continuous
100
AcDbLine
 10
495.4713536546178
 20
593.4359829008108
 30
0.0
 11
496.6712804313565
 21
588.6362757949618
 31
0.0
  0
LINE
  5
7CC1
330
1F
100
AcDbEntity
  8
SPOJOVACÍ
  6
Continuous
100
AcDbLine
 10
495.4713536546178
 20
593.4359829008108
 30
0.0
 11
495.689944966637
 21
593.0583315254998
 31
0.0
  0
LINE
  5
7CC2
102
{ACAD_REACTORS
330
7C6F
102
}
330
1F
100
AcDbEntity
  8
SPOJOVACÍ
  6
Continuous
100
AcDbLine
 10
495.4713536546178
 20
593.4359829008108
 30
0.0
 11
495.0937022814896
 21
593.0583315254998
 31
0.0
  0
LINE
  5
7CC3
330
1F
100
AcDbEntity
  8
SPOJOVACÍ
  6
Continuous
100
AcDbLine
 10
496.6712804313565
 20
588.6362757949618
 30
0.0
 11
497.0489318042082
 21
589.0139271659072
 31
0.0
  0
LINE
  5
7CC4
330
1F
100
AcDbEntity
  8
SPOJOVACÍ
  6
Continuous
100
AcDbLine
 10
496.6712804313565
 20
588.6362757949618
 30
0.0
 11
496.4526891193226
 21
589.0139271659072
 31
0.0
  0
LINE
  5
7CC5
330
1F
100
AcDbEntity
  8
SPOJOVACÍ
  6
Continuous
100
AcDbLine
 10
495.689944966637
 20
593.0583315254998
 30
0.0
 11
497.0489318042082
 21
589.0139271659072
 31
0.0
  0
LINE
  5
7CC6
102
{ACAD_REACTORS
330
7C6F
102
}
330
1F
100
AcDbEntity
  8
SPOJOVACÍ
  6
Continuous
100
AcDbLine
 10
495.0937022814896
 20
593.0583315254998
 30
0.0
 11
496.4526891193226
 21
589.0139271659072
 31
0.0
  0
LINE
  5
7CC7
330
1F
100
AcDbEntity
  8
SPOJOVACÍ
  6
Continuous
100
AcDbLine
 10
498.5911632738561
 20
593.4359829008108
 30
0.0
 11
499.7910900503184
 21
588.6362757949618
 31
0.0
  0
LINE
  5
7CC8
330
1F
100
AcDbEntity
  8
SPOJOVACÍ
  6
Continuous
100
AcDbLine
 10
498.5911632738561
 20
593.4359829008108
 30
0.0
 11
498.8097545858754
 21
593.0583315254998
 31
0.0
  0
LINE
  5
7CC9
330
1F
100
AcDbEntity
  8
SPOJOVACÍ
  6
Continuous
100
AcDbLine
 10
498.5911632738561
 20
593.4359829008108
 30
0.0
 11
498.213511900728
 21
593.0583315254998
 31
0.0
  0
LINE
  5
7CCA
330
1F
100
AcDbEntity
  8
SPOJOVACÍ
  6
Continuous
100
AcDbLine
 10
499.7910900503184
 20
588.6362757949618
 30
0.0
 11
500.169671599141
 21
589.0139271659072
 31
0.0
  0
LINE
  5
7CCB
330
1F
100
AcDbEntity
  8
SPOJOVACÍ
  6
Continuous
100
AcDbLine
 10
499.7910900503184
 20
588.6362757949618
 30
0.0
 11
499.5734289139936
 21
589.0139271659072
 31
0.0
  0
LINE
  5
7CCC
330
1F
100
AcDbEntity
  8
SPOJOVACÍ
  6
Continuous
100
AcDbLine
 10
498.8097545858754
 20
593.0583315254998
 30
0.0
 11
500.169671599141
 21
589.0139271659072
 31
0.0
  0
LINE
  5
7CCD
330
1F
100
AcDbEntity
  8
SPOJOVACÍ
  6
Continuous
100
AcDbLine
 10
498.213511900728
 20
593.0583315254998
 30
0.0
 11
499.5734289139936
 21
589.0139271659072
 31
0.0
  0
LINE
  5
7CCE
330
1F
100
AcDbEntity
  8
SPOJOVACÍ
  6
Continuous
100
AcDbLine
 10
482.751199647434
 20
596.1362832365202
 30
0.0
 11
482.751199647434
 21
585.9359754592524
 31
0.0
  0
LINE
  5
7CCF
102
{ACAD_REACTORS
330
7C6F
102
}
330
1F
100
AcDbEntity
  8
SPOJOVACÍ
  6
Continuous
100
AcDbLine
 10
481.5512728706953
 20
585.9359754592524
 30
0.0
 11
482.751199647434
 21
585.9359754592524
 31
0.0
  0
LINE
  5
7CD0
330
1F
100
AcDbEntity
  8
SPOJOVACÍ
  6
Continuous
100
AcDbLine
 10
481.5512728706953
 20
596.1362832365202
 30
0.0
 11
481.5512728706953
 21
585.9359754592524
 31
0.0
  0
LINE
  5
7CD1
102
{ACAD_REACTORS
330
7C6F
102
}
330
1F
100
AcDbEntity
  8
SPOJOVACÍ
  6
Continuous
100
AcDbLine
 10
482.751199647434
 20
585.9359754592524
 30
0.0
 11
483.6889506689904
 21
587.6368213798278
 31
0.0
  0
LINE
  5
7CD2
102
{ACAD_REACTORS
330
7C6F
102
}
330
1F
100
AcDbEntity
  8
SPOJOVACÍ
  6
Continuous
100
AcDbLine
 10
911.4693782891109
 20
585.9359754592524
 30
0.0
 11
910.5316272675546
 21
587.6368213798278
 31
0.0
  0
LINE
  5
7CD3
330
1F
100
AcDbEntity
  8
SPOJOVACÍ
  6
Continuous
100
AcDbLine
 10
912.6693050658422
 20
596.1362832365202
 30
0.0
 11
912.6693050658422
 21
585.9359754592524
 31
0.0
  0
LINE
  5
7CD4
102
{ACAD_REACTORS
330
7C6F
102
}
330
1F
100
AcDbEntity
  8
SPOJOVACÍ
  6
Continuous
100
AcDbLine
 10
912.6693050658422
 20
585.9359754592524
 30
0.0
 11
911.4693782891109
 21
585.9359754592524
 31
0.0
  0
LINE
  5
7CD5
330
1F
100
AcDbEntity
  8
SPOJOVACÍ
  6
Continuous
100
AcDbLine
 10
911.4693782891109
 20
596.1362832365202
 30
0.0
 11
911.4693782891109
 21
585.9359754592524
 31
0.0
  0
LINE
  5
7CD6
330
1F
100
AcDbEntity
  8
SPOJOVACÍ
  6
Continuous
100
AcDbLine
 10
896.0070660358169
 20
593.0583315254998
 30
0.0
 11
894.6471490225439
 21
589.0139271659072
 31
0.0
  0
LINE
  5
7CD7
330
1F
100
AcDbEntity
  8
SPOJOVACÍ
  6
Continuous
100
AcDbLine
 10
895.4108233506621
 20
593.0583315254998
 30
0.0
 11
894.0509063373966
 21
589.0139271659072
 31
0.0
  0
LINE
  5
7CD8
330
1F
100
AcDbEntity
  8
SPOJOVACÍ
  6
Continuous
100
AcDbLine
 10
894.4294878862265
 20
588.6362757949618
 30
0.0
 11
894.6471490225439
 21
589.0139271659072
 31
0.0
  0
LINE
  5
7CD9
330
1F
100
AcDbEntity
  8
SPOJOVACÍ
  6
Continuous
100
AcDbLine
 10
894.4294878862265
 20
588.6362757949618
 30
0.0
 11
894.0509063373966
 21
589.0139271659072
 31
0.0
  0
LINE
  5
7CDA
330
1F
100
AcDbEntity
  8
SPOJOVACÍ
  6
Continuous
100
AcDbLine
 10
895.6294146626888
 20
593.4359829008108
 30
0.0
 11
896.0070660358169
 21
593.0583315254998
 31
0.0
  0
LINE
  5
7CDB
330
1F
100
AcDbEntity
  8
SPOJOVACÍ
  6
Continuous
100
AcDbLine
 10
895.6294146626888
 20
593.4359829008108
 30
0.0
 11
895.4108233506621
 21
593.0583315254998
 31
0.0
  0
LINE
  5
7CDC
330
1F
100
AcDbEntity
  8
SPOJOVACÍ
  6
Continuous
100
AcDbLine
 10
895.6294146626888
 20
593.4359829008108
 30
0.0
 11
894.4294878862265
 21
588.6362757949618
 31
0.0
  0
LINE
  5
7CDD
102
{ACAD_REACTORS
330
7C6F
102
}
330
1F
100
AcDbEntity
  8
SPOJOVACÍ
  6
Continuous
100
AcDbLine
 10
899.1268756550553
 20
593.0583315254998
 30
0.0
 11
897.767888817215
 21
589.0139271659072
 31
0.0
  0
LINE
  5
7CDE
330
1F
100
AcDbEntity
  8
SPOJOVACÍ
  6
Continuous
100
AcDbLine
 10
898.5306329699005
 20
593.0583315254998
 30
0.0
 11
897.1716461323367
 21
589.0139271659072
 31
0.0
  0
LINE
  5
7CDF
330
1F
100
AcDbEntity
  8
SPOJOVACÍ
  6
Continuous
100
AcDbLine
 10
897.5492975051883
 20
588.6362757949618
 30
0.0
 11
897.767888817215
 21
589.0139271659072
 31
0.0
  0
LINE
  5
7CE0
330
1F
100
AcDbEntity
  8
SPOJOVACÍ
  6
Continuous
100
AcDbLine
 10
897.5492975051883
 20
588.6362757949618
 30
0.0
 11
897.1716461323367
 21
589.0139271659072
 31
0.0
  0
LINE
  5
7CE1
102
{ACAD_REACTORS
330
7C6F
102
}
330
1F
100
AcDbEntity
  8
SPOJOVACÍ
  6
Continuous
100
AcDbLine
 10
898.7492242819271
 20
593.4359829008108
 30
0.0
 11
899.1268756550553
 21
593.0583315254998
 31
0.0
  0
LINE
  5
7CE2
330
1F
100
AcDbEntity
  8
SPOJOVACÍ
  6
Continuous
100
AcDbLine
 10
898.7492242819271
 20
593.4359829008108
 30
0.0
 11
898.5306329699005
 21
593.0583315254998
 31
0.0
  0
LINE
  5
7CE3
330
1F
100
AcDbEntity
  8
SPOJOVACÍ
  6
Continuous
100
AcDbLine
 10
898.7492242819271
 20
593.4359829008108
 30
0.0
 11
897.5492975051883
 21
588.6362757949618
 31
0.0
  0
LINE
  5
7CE4
102
{ACAD_REACTORS
330
7C6F
102
}
330
1F
100
AcDbEntity
  8
SPOJOVACÍ
  6
Continuous
100
AcDbLine
 10
902.2476154497189
 20
593.0583315254998
 30
0.0
 11
900.8876984364533
 21
589.0139271659072
 31
0.0
  0
LINE
  5
7CE5
102
{ACAD_REACTORS
330
7C6F
102
}
330
1F
100
AcDbEntity
  8
SPOJOVACÍ
  6
Continuous
100
AcDbLine
 10
901.6513727648407
 20
593.0583315254998
 30
0.0
 11
900.2914557512985
 21
589.0139271659072
 31
0.0
  0
LINE
  5
7CE6
102
{ACAD_REACTORS
330
7C6F
102
}
330
1F
100
AcDbEntity
  8
SPOJOVACÍ
  6
Continuous
100
AcDbLine
 10
900.6691071244267
 20
588.6362757949618
 30
0.0
 11
900.8876984364533
 21
589.0139271659072
 31
0.0
  0
LINE
  5
7CE7
102
{ACAD_REACTORS
330
7C6F
102
}
330
1F
100
AcDbEntity
  8
SPOJOVACÍ
  6
Continuous
100
AcDbLine
 10
900.6691071244267
 20
588.6362757949618
 30
0.0
 11
900.2914557512985
 21
589.0139271659072
 31
0.0
  0
LINE
  5
7CE8
102
{ACAD_REACTORS
330
7C6F
102
}
330
1F
100
AcDbEntity
  8
SPOJOVACÍ
  6
Continuous
100
AcDbLine
 10
901.8690339008889
 20
593.4359829008108
 30
0.0
 11
902.2476154497189
 21
593.0583315254998
 31
0.0
  0
LINE
  5
7CE9
102
{ACAD_REACTORS
330
7C6F
102
}
330
1F
100
AcDbEntity
  8
SPOJOVACÍ
  6
Continuous
100
AcDbLine
 10
901.8690339008889
 20
593.4359829008108
 30
0.0
 11
901.6513727648407
 21
593.0583315254998
 31
0.0
  0
LINE
  5
7CEA
330
1F
100
AcDbEntity
  8
SPOJOVACÍ
  6
Continuous
100
AcDbLine
 10
901.8690339008889
 20
593.4359829008108
 30
0.0
 11
900.6691071244267
 21
588.6362757949618
 31
0.0
  0
LINE
  5
7CEB
330
1F
100
AcDbEntity
  8
SPOJOVACÍ
  6
Continuous
100
AcDbLine
 10
897.4079107843271
 20
589.6864442643354
 30
0.0
 11
894.879692971458
 21
589.6864442643354
 31
0.0
  0
LINE
  5
7CEC
102
{ACAD_REACTORS
330
7C6F
102
}
330
1F
100
AcDbEntity
  8
SPOJOVACÍ
  6
Continuous
100
AcDbLine
 10
900.5230695245108
 20
589.6864442643354
 30
0.0
 11
898.0041534694819
 21
589.6864442643354
 31
0.0
  0
LINE
  5
7CED
330
1F
100
AcDbEntity
  8
SPOJOVACÍ
  6
Continuous
100
AcDbLine
 10
898.313902009554
 20
592.3858144270716
 30
0.0
 11
895.793125602845
 21
592.3858144270716
 31
0.0
  0
LINE
  5
7CEE
102
{ACAD_REACTORS
330
7C6F
102
}
330
1F
100
AcDbEntity
  8
SPOJOVACÍ
  6
Continuous
100
AcDbLine
 10
901.4365021558978
 20
592.3858144270716
 30
0.0
 11
898.9175861008689
 21
592.3858144270716
 31
0.0
  0
LINE
  5
7CEF
102
{ACAD_REACTORS
330
7C6F
102
}
330
1F
100
AcDbEntity
  8
SPOJOVACÍ
  6
Continuous
100
AcDbLine
 10
906.0697077947542
 20
592.3858144270716
 30
0.0
 11
902.0318146650742
 21
592.3858144270716
 31
0.0
  0
LINE
  5
7CF0
102
{ACAD_REACTORS
330
7C6F
102
}
330
1F
100
AcDbEntity
  8
SPOJOVACÍ
  6
Continuous
100
AcDbLine
 10
906.0697077947542
 20
589.6864442643354
 30
0.0
 11
901.1267536158257
 21
589.6864442643354
 31
0.0
  0
LINE
  5
7CF1
102
{ACAD_REACTORS
330
7C6F
102
}
330
1F
100
AcDbEntity
  8
SPOJOVACÍ
  6
Continuous
100
AcDbLine
 10
911.4693782891109
 20
596.1362832365202
 30
0.0
 11
910.7252376526366
 21
594.7865981529694
 31
0.0
  0
LINE
  5
7CF2
102
{ACAD_REACTORS
330
7C6F
102
}
330
1F
100
AcDbEntity
  8
SPOJOVACÍ
  6
Continuous
100
AcDbLine
 10
910.7252376526366
 20
594.7865981529694
 30
0.0
 11
909.6564656632244
 21
593.6759682526107
 31
0.0
  0
LINE
  5
7CF3
102
{ACAD_REACTORS
330
7C6F
102
}
330
1F
100
AcDbEntity
  8
SPOJOVACÍ
  6
Continuous
100
AcDbLine
 10
909.6564656632244
 20
593.6759682526107
 30
0.0
 11
908.3374763849269
 21
592.8797377732926
 31
0.0
  0
LINE
  5
7CF4
102
{ACAD_REACTORS
330
7C6F
102
}
330
1F
100
AcDbEntity
  8
SPOJOVACÍ
  6
Continuous
100
AcDbLine
 10
908.3374763849269
 20
592.8797377732926
 30
0.0
 11
906.8566365178767
 21
592.4518569089932
 31
0.0
  0
LINE
  5
7CF5
102
{ACAD_REACTORS
330
7C6F
102
}
330
1F
100
AcDbEntity
  8
SPOJOVACÍ
  6
Continuous
100
AcDbLine
 10
906.8566365178767
 20
592.4518569089932
 30
0.0
 11
906.0697077947542
 21
592.3858144270716
 31
0.0
  0
LINE
  5
7CF6
102
{ACAD_REACTORS
330
7C6F
102
}
330
1F
100
AcDbEntity
  8
SPOJOVACÍ
  6
Continuous
100
AcDbLine
 10
912.6693050658422
 20
596.1362832365202
 30
0.0
 11
911.4693782891109
 21
596.1362832365202
 31
0.0
  0
LINE
  5
7CF7
102
{ACAD_REACTORS
330
7C6F
102
}
330
1F
100
AcDbEntity
  8
SPOJOVACÍ
  6
Continuous
100
AcDbLine
 10
906.0697077947542
 20
589.6864442643354
 30
0.0
 11
907.5933357481835
 21
589.459481373452
 31
0.0
  0
LINE
  5
7CF8
102
{ACAD_REACTORS
330
7C6F
102
}
330
1F
100
AcDbEntity
  8
SPOJOVACÍ
  6
Continuous
100
AcDbLine
 10
907.5933357481835
 20
589.459481373452
 30
0.0
 11
909.0072029578868
 21
588.8464955243043
 31
0.0
  0
LINE
  5
7CF9
102
{ACAD_REACTORS
330
7C6F
102
}
330
1F
100
AcDbEntity
  8
SPOJOVACÍ
  6
Continuous
100
AcDbLine
 10
909.0072029578868
 20
588.8464955243043
 30
0.0
 11
910.5316272675546
 21
587.6368213798278
 31
0.0
  0
LINE
  5
7CFA
330
1F
100
AcDbEntity
  8
SPOJOVACÍ
  6
Continuous
100
AcDbLine
 10
889.7674467978859
 20
593.0583315254998
 30
0.0
 11
888.4075297843438
 21
589.0139271659072
 31
0.0
  0
LINE
  5
7CFB
330
1F
100
AcDbEntity
  8
SPOJOVACÍ
  6
Continuous
100
AcDbLine
 10
889.1712041127311
 20
593.0583315254998
 30
0.0
 11
887.8112870991889
 21
589.0139271659072
 31
0.0
  0
LINE
  5
7CFC
330
1F
100
AcDbEntity
  8
SPOJOVACÍ
  6
Continuous
100
AcDbLine
 10
888.1889384723171
 20
588.6362757949618
 30
0.0
 11
888.4075297843438
 21
589.0139271659072
 31
0.0
  0
LINE
  5
7CFD
330
1F
100
AcDbEntity
  8
SPOJOVACÍ
  6
Continuous
100
AcDbLine
 10
888.1889384723171
 20
588.6362757949618
 30
0.0
 11
887.8112870991889
 21
589.0139271659072
 31
0.0
  0
LINE
  5
7CFE
330
1F
100
AcDbEntity
  8
SPOJOVACÍ
  6
Continuous
100
AcDbLine
 10
889.3888652487794
 20
593.4359829008108
 30
0.0
 11
889.7674467978859
 21
593.0583315254998
 31
0.0
  0
LINE
  5
7CFF
330
1F
100
AcDbEntity
  8
SPOJOVACÍ
  6
Continuous
100
AcDbLine
 10
889.3888652487794
 20
593.4359829008108
 30
0.0
 11
889.1712041127311
 21
593.0583315254998
 31
0.0
  0
LINE
  5
7D00
330
1F
100
AcDbEntity
  8
SPOJOVACÍ
  6
Continuous
100
AcDbLine
 10
889.3888652487794
 20
593.4359829008108
 30
0.0
 11
888.1889384723171
 21
588.6362757949618
 31
0.0
  0
LINE
  5
7D01
330
1F
100
AcDbEntity
  8
SPOJOVACÍ
  6
Continuous
100
AcDbLine
 10
892.8872564168477
 20
593.0583315254998
 30
0.0
 11
891.5273394033055
 21
589.0139271659072
 31
0.0
  0
LINE
  5
7D02
330
1F
100
AcDbEntity
  8
SPOJOVACÍ
  6
Continuous
100
AcDbLine
 10
892.2910137317003
 20
593.0583315254998
 30
0.0
 11
890.9310967184273
 21
589.0139271659072
 31
0.0
  0
LINE
  5
7D03
330
1F
100
AcDbEntity
  8
SPOJOVACÍ
  6
Continuous
100
AcDbLine
 10
891.3096782672573
 20
588.6362757949618
 30
0.0
 11
891.5273394033055
 21
589.0139271659072
 31
0.0
  0
LINE
  5
7D04
330
1F
100
AcDbEntity
  8
SPOJOVACÍ
  6
Continuous
100
AcDbLine
 10
891.3096782672573
 20
588.6362757949618
 30
0.0
 11
890.9310967184273
 21
589.0139271659072
 31
0.0
  0
LINE
  5
7D05
330
1F
100
AcDbEntity
  8
SPOJOVACÍ
  6
Continuous
100
AcDbLine
 10
892.5096050437195
 20
593.4359829008108
 30
0.0
 11
892.8872564168477
 21
593.0583315254998
 31
0.0
  0
LINE
  5
7D06
330
1F
100
AcDbEntity
  8
SPOJOVACÍ
  6
Continuous
100
AcDbLine
 10
892.5096050437195
 20
593.4359829008108
 30
0.0
 11
892.2910137317003
 21
593.0583315254998
 31
0.0
  0
LINE
  5
7D07
330
1F
100
AcDbEntity
  8
SPOJOVACÍ
  6
Continuous
100
AcDbLine
 10
892.5096050437195
 20
593.4359829008108
 30
0.0
 11
891.3096782672573
 21
588.6362757949618
 31
0.0
  0
LINE
  5
7D08
330
1F
100
AcDbEntity
  8
SPOJOVACÍ
  6
Continuous
100
AcDbLine
 10
880.2833743838482
 20
592.0528114898124
 30
0.0
 11
879.9726956680743
 21
589.8985243483557
 31
0.0
  0
LINE
  5
7D09
330
1F
100
AcDbEntity
  8
SPOJOVACÍ
  6
Continuous
100
AcDbLine
 10
880.6610257569763
 20
591.675160118867
 30
0.0
 11
880.1903568043917
 21
590.2761757193011
 31
0.0
  0
LINE
  5
7D0A
330
1F
100
AcDbEntity
  8
SPOJOVACÍ
  6
Continuous
100
AcDbLine
 10
880.064783071829
 20
591.675160118867
 30
0.0
 11
879.5941141192443
 21
590.2761757193011
 31
0.0
  0
LINE
  5
7D0B
330
1F
100
AcDbEntity
  8
SPOJOVACÍ
  6
Continuous
100
AcDbLine
 10
879.9726956680743
 20
589.8985243483557
 30
0.0
 11
880.1903568043917
 21
590.2761757193011
 31
0.0
  0
LINE
  5
7D0C
330
1F
100
AcDbEntity
  8
SPOJOVACÍ
  6
Continuous
100
AcDbLine
 10
879.9726956680743
 20
589.8985243483557
 30
0.0
 11
879.5941141192443
 21
590.2761757193011
 31
0.0
  0
LINE
  5
7D0D
330
1F
100
AcDbEntity
  8
SPOJOVACÍ
  6
Continuous
100
AcDbLine
 10
880.2833743838482
 20
592.0528114898124
 30
0.0
 11
880.6610257569763
 21
591.675160118867
 31
0.0
  0
LINE
  5
7D0E
330
1F
100
AcDbEntity
  8
SPOJOVACÍ
  6
Continuous
100
AcDbLine
 10
880.2833743838482
 20
592.0528114898124
 30
0.0
 11
880.064783071829
 21
591.675160118867
 31
0.0
  0
LINE
  5
7D0F
330
1F
100
AcDbEntity
  8
SPOJOVACÍ
  6
Continuous
100
AcDbLine
 10
883.2971439621678
 20
592.6174282002839
 30
0.0
 11
882.6636942453978
 21
589.5013392838527
 31
0.0
  0
LINE
  5
7D10
330
1F
100
AcDbEntity
  8
SPOJOVACÍ
  6
Continuous
100
AcDbLine
 10
883.6757255112743
 20
592.2397768249729
 30
0.0
 11
882.8813553814461
 21
589.8789906547981
 31
0.0
  0
LINE
  5
7D11
330
1F
100
AcDbEntity
  8
SPOJOVACÍ
  6
Continuous
100
AcDbLine
 10
883.0794828261195
 20
592.2397768249729
 30
0.0
 11
882.2851126965678
 21
589.8789906547981
 31
0.0
  0
LINE
  5
7D12
330
1F
100
AcDbEntity
  8
SPOJOVACÍ
  6
Continuous
100
AcDbLine
 10
882.6636942453978
 20
589.5013392838527
 30
0.0
 11
882.8813553814461
 21
589.8789906547981
 31
0.0
  0
LINE
  5
7D13
330
1F
100
AcDbEntity
  8
SPOJOVACÍ
  6
Continuous
100
AcDbLine
 10
882.6636942453978
 20
589.5013392838527
 30
0.0
 11
882.2851126965678
 21
589.8789906547981
 31
0.0
  0
LINE
  5
7D14
330
1F
100
AcDbEntity
  8
SPOJOVACÍ
  6
Continuous
100
AcDbLine
 10
883.2971439621678
 20
592.6174282002839
 30
0.0
 11
883.6757255112743
 21
592.2397768249729
 31
0.0
  0
LINE
  5
7D15
330
1F
100
AcDbEntity
  8
SPOJOVACÍ
  6
Continuous
100
AcDbLine
 10
883.2971439621678
 20
592.6174282002839
 30
0.0
 11
883.0794828261195
 21
592.2397768249729
 31
0.0
  0
LINE
  5
7D16
330
1F
100
AcDbEntity
  8
SPOJOVACÍ
  6
Continuous
100
AcDbLine
 10
886.3118437164658
 20
593.1820449063898
 30
0.0
 11
885.3388798341612
 21
589.0567152536468
 31
0.0
  0
LINE
  5
7D17
330
1F
100
AcDbEntity
  8
SPOJOVACÍ
  6
Continuous
100
AcDbLine
 10
886.689495089594
 20
592.8034633581055
 30
0.0
 11
885.5565409702094
 21
589.4343666245922
 31
0.0
  0
LINE
  5
7D18
330
1F
100
AcDbEntity
  8
SPOJOVACÍ
  6
Continuous
100
AcDbLine
 10
886.0932524044391
 20
592.8034633581055
 30
0.0
 11
884.9602982850546
 21
589.4343666245922
 31
0.0
  0
LINE
  5
7D19
330
1F
100
AcDbEntity
  8
SPOJOVACÍ
  6
Continuous
100
AcDbLine
 10
885.3388798341612
 20
589.0567152536468
 30
0.0
 11
885.5565409702094
 21
589.4343666245922
 31
0.0
  0
LINE
  5
7D1A
330
1F
100
AcDbEntity
  8
SPOJOVACÍ
  6
Continuous
100
AcDbLine
 10
885.3388798341612
 20
589.0567152536468
 30
0.0
 11
884.9602982850546
 21
589.4343666245922
 31
0.0
  0
LINE
  5
7D1B
330
1F
100
AcDbEntity
  8
SPOJOVACÍ
  6
Continuous
100
AcDbLine
 10
886.3118437164658
 20
593.1820449063898
 30
0.0
 11
886.689495089594
 21
592.8034633581055
 31
0.0
  0
LINE
  5
7D1C
330
1F
100
AcDbEntity
  8
SPOJOVACÍ
  6
Continuous
100
AcDbLine
 10
886.3118437164658
 20
593.1820449063898
 30
0.0
 11
886.0932524044391
 21
592.8034633581055
 31
0.0
  0
LINE
  5
7D1D
330
1F
100
AcDbEntity
  8
SPOJOVACÍ
  6
Continuous
100
AcDbLine
 10
885.7332743715588
 20
589.9320106758032
 30
0.0
 11
887.704316882845
 21
589.6864442643354
 31
0.0
  0
LINE
  5
7D1E
330
1F
100
AcDbEntity
  8
SPOJOVACÍ
  6
Continuous
100
AcDbLine
 10
883.0264628056601
 20
590.2705946683645
 30
0.0
 11
885.1630766085136
 21
590.0036342130269
 31
0.0
  0
LINE
  5
7D1F
330
1F
100
AcDbEntity
  8
SPOJOVACÍ
  6
Continuous
100
AcDbLine
 10
880.3094193062269
 20
590.6101088295335
 30
0.0
 11
882.4544046912114
 21
590.3422182012227
 31
0.0
  0
LINE
  5
7D20
330
1F
100
AcDbEntity
  8
SPOJOVACÍ
  6
Continuous
100
AcDbLine
 10
879.9931595356966
 20
591.4221523017849
 30
0.0
 11
876.9040457178917
 21
591.0361293478863
 31
0.0
  0
LINE
  5
7D21
330
1F
100
AcDbEntity
  8
SPOJOVACÍ
  6
Continuous
100
AcDbLine
 10
882.9343754019054
 20
591.7895717394649
 30
0.0
 11
880.61358679155
 21
591.4993568943109
 31
0.0
  0
LINE
  5
7D22
330
1F
100
AcDbEntity
  8
SPOJOVACÍ
  6
Continuous
100
AcDbLine
 10
885.8867533776347
 20
592.1588515318226
 30
0.0
 11
883.56503459157
 21
591.868636682303
 31
0.0
  0
LINE
  5
7D23
330
1F
100
AcDbEntity
  8
SPOJOVACÍ
  6
Continuous
100
AcDbLine
 10
876.9040457178917
 20
591.0361293478863
 30
0.0
 11
879.7401517191602
 21
590.6817323667573
 31
0.0
  0
LINE
  5
7D24
330
1F
100
AcDbEntity
  8
SPOJOVACÍ
  6
Continuous
100
AcDbLine
 10
887.704316882845
 20
592.3858144270716
 30
0.0
 11
886.5071806334881
 21
592.2360561243485
 31
0.0
  0
LINE
  5
7D25
330
1F
100
AcDbEntity
  8
SPOJOVACÍ
  6
Continuous
100
AcDbLine
 10
888.0410405207285
 20
589.6864442643354
 30
0.0
 11
887.704316882845
 21
589.6864442643354
 31
0.0
  0
LINE
  5
7D26
330
1F
100
AcDbEntity
  8
SPOJOVACÍ
  6
Continuous
100
AcDbLine
 10
891.1636406673414
 20
589.6864442643354
 30
0.0
 11
888.6447246123125
 21
589.6864442643354
 31
0.0
  0
LINE
  5
7D27
330
1F
100
AcDbEntity
  8
SPOJOVACÍ
  6
Continuous
100
AcDbLine
 10
888.9516826247335
 20
592.3858144270716
 30
0.0
 11
887.704316882845
 21
592.3858144270716
 31
0.0
  0
LINE
  5
7D28
330
1F
100
AcDbEntity
  8
SPOJOVACÍ
  6
Continuous
100
AcDbLine
 10
892.0659111892154
 20
592.3858144270716
 30
0.0
 11
889.5479253098883
 21
592.3858144270716
 31
0.0
  0
LINE
  5
7D29
330
1F
100
AcDbEntity
  8
SPOJOVACÍ
  6
Continuous
100
AcDbLine
 10
894.2853106379834
 20
589.6864442643354
 30
0.0
 11
891.7645342312743
 21
589.6864442643354
 31
0.0
  0
LINE
  5
7D2A
330
1F
100
AcDbEntity
  8
SPOJOVACÍ
  6
Continuous
100
AcDbLine
 10
895.1987432693703
 20
592.3858144270716
 30
0.0
 11
892.6705254565012
 21
592.3858144270716
 31
0.0
  0
ARC
  5
7D2B
330
1F
100
AcDbEntity
  8
NOSNÉ KONSTRUKCE
100
AcDbCircle
 10
1548.01512977715
 20
774.8088840429491
 30
0.0
 40
1.0
100
AcDbArc
 50
94.59628425844213
 51
180.0
  0
ARC
  5
7D2C
330
1F
100
AcDbEntity
  8
NOSNÉ KONSTRUKCE
100
AcDbCircle
 10
1550.015129777136
 20
772.9632170831455
 30
0.0
 40
1.0
100
AcDbArc
 50
94.59628425844213
 51
180.0
  0
LINE
  5
7D2D
330
1F
100
AcDbEntity
  8
NOSNÉ KONSTRUKCE
100
AcDbLine
 10
1547.934995496019
 20
775.8056681203643
 30
0.0
 11
1588.466307396766
 21
779.0640945099249
 31
0.0
  0
LINE
  5
7D2E
330
1F
100
AcDbEntity
  8
NOSNÉ KONSTRUKCE
100
AcDbLine
 10
1549.934995496004
 20
773.9600011605607
 30
0.0
 11
1562.486468835689
 21
774.9690494750621
 31
0.0
  0
LINE
  5
7D2F
330
1F
100
AcDbEntity
  8
NOSNÉ KONSTRUKCE
100
AcDbLine
 10
1549.015129777136
 20
750.1891878031265
 30
0.0
 11
1549.015129777136
 21
772.9632170831455
 31
0.0
  0
LINE
  5
7D30
330
1F
100
AcDbEntity
  8
NOSNÉ KONSTRUKCE
100
AcDbLine
 10
1547.015129777136
 20
750.1891878031265
 30
0.0
 11
1547.01512977715
 21
774.8088840429491
 31
0.0
  0
ARC
  5
7D31
330
1F
100
AcDbEntity
  8
NOSNÉ KONSTRUKCE
100
AcDbCircle
 10
1575.000803123722
 20
780.0337845560452
 30
0.0
 40
13.50037422122492
100
AcDbArc
 50
202.0339031319517
 51
355.8810748512746
  0
ARC
  5
7D32
330
1F
100
AcDbEntity
  8
NOSNÉ KONSTRUKCE
100
AcDbCircle
 10
1562.061489757775
 20
750.6029823435719
 30
0.0
 40
15.58254621860396
100
AcDbArc
 50
341.464387846756
 51
358.4783316064786
  0
ARC
  5
7D33
330
1F
100
AcDbEntity
  8
NOSNÉ KONSTRUKCE
100
AcDbCircle
 10
1564.187173442434
 20
750.6029823435701
 30
0.0
 40
15.58254621860396
100
AcDbArc
 50
270.0
 51
320.1318684090177
  0
LINE
  5
7D34
330
1F
100
AcDbEntity
  8
NOSNÉ KONSTRUKCE
100
AcDbLine
 10
1576.835710893522
 20
745.6493840062912
 30
0.0
 11
1570.639083007982
 21
745.6493840062912
 31
0.0
  0
LINE
  5
7D35
330
1F
100
AcDbEntity
  8
NOSNÉ KONSTRUKCE
100
AcDbLine
 10
1570.639083007989
 20
740.6142144918149
 30
0.0
 11
1576.147117566833
 21
740.6142144918149
 31
0.0
  0
LINE
  5
7D36
330
1F
100
AcDbEntity
  8
NOSNÉ KONSTRUKCE
100
AcDbLine
 10
1570.639083007989
 20
745.6493840062931
 30
0.0
 11
1570.639083007989
 21
740.6142144918149
 31
0.0
  0
ARC
  5
7D37
330
1F
100
AcDbEntity
  8
NOSNÉ KONSTRUKCE
100
AcDbCircle
 10
1531.956699118817
 20
750.6029823435701
 30
0.0
 40
15.58254621860396
100
AcDbArc
 50
181.5216683935213
 51
198.5356121532439
  0
LINE
  5
7D38
330
1F
100
AcDbEntity
  8
NOSNÉ KONSTRUKCE
100
AcDbLine
 10
1523.379105868603
 20
745.6493840062931
 30
0.0
 11
1523.379105868603
 21
740.6142144918149
 31
0.0
  0
LINE
  5
7D39
330
1F
100
AcDbEntity
  8
NOSNÉ KONSTRUKCE
100
AcDbLine
 10
1523.379105868603
 20
740.6142144918149
 30
0.0
 11
1517.87107130976
 21
740.6142144918149
 31
0.0
  0
LINE
  5
7D3A
330
1F
100
AcDbEntity
  8
NOSNÉ KONSTRUKCE
100
AcDbLine
 10
1517.182477983077
 20
745.6493840062931
 30
0.0
 11
1523.379105868603
 21
745.6493840062912
 31
0.0
  0
ARC
  5
7D3B
330
1F
100
AcDbEntity
  8
NOSNÉ KONSTRUKCE
100
AcDbCircle
 10
1529.831015434159
 20
750.6029823435701
 30
0.0
 40
15.58254621860396
100
AcDbArc
 50
219.8681315909822
 51
270.0
  0
LWPOLYLINE
  5
7D3C
330
1F
100
AcDbEntity
  8
NOSNÉ KONSTRUKCE
100
AcDbPolyline
 90
        2
 70
     0
 43
0.0
 10
1529.831015434159
 20
735.0204361249661
 10
1564.187173442434
 20
735.0204361249661
  0
LINE
  5
7D3D
330
1F
100
AcDbEntity
  8
NOSNÉ KONSTRUKCE
100
AcDbLine
 10
1516.379648026485
 20
750.1891878031265
 30
0.0
 11
1577.638540850114
 21
750.1891878031265
 31
0.0
  0
TEXT
  5
7D3E
330
1F
100
AcDbEntity
  8
POPIS
100
AcDbText
 10
1187.308597090624
 20
716.3975601381125
 30
0.0
 40
25.0
  1
CD profil 
 41
0.7
  7
SIMPLEX7
100
AcDbText
  0
TEXT
  5
7D3F
330
1F
100
AcDbEntity
  8
POPIS
100
AcDbText
 10
1132.964893930881
 20
716.3975601381125
 30
0.0
 40
25.0
  1
04
 41
0.85
  7
SIMPLEX7
100
AcDbText
  0
TEXT
  5
7D40
330
1F
100
AcDbEntity
  8
POPIS
100
AcDbText
 10
1132.964893930881
 20
823.5416923014446
 30
0.0
 40
25.0
  1
01
 41
0.85
  7
SIMPLEX7
100
AcDbText
  0
TEXT
  5
7D41
330
1F
100
AcDbEntity
  8
POPIS
100
AcDbText
 10
1187.308597090624
 20
823.5416923014446
 30
0.0
 40
25.0
  1
Deska CETRIS   
 41
0.7
  7
SIMPLEX7
100
AcDbText
  0
TEXT
  5
7D42
330
1F
100
AcDbEntity
  8
POPIS
100
AcDbText
 10
1132.964893930881
 20
786.9466806858172
 30
0.0
 40
25.0
  1
02
 41
0.85
  7
SIMPLEX7
100
AcDbText
  0
TEXT
  5
7D43
330
1F
100
AcDbEntity
  8
POPIS
100
AcDbText
 10
1187.308597090624
 20
786.9466806858172
 30
0.0
 40
25.0
  1
Vrut Cetris 4,2x35 (45,55) mm
 41
0.7
  7
SIMPLEX7
100
AcDbText
  0
TEXT
  5
7D44
330
1F
100
AcDbEntity
  8
POPIS
100
AcDbText
 10
1132.964893930881
 20
750.2828316773984
 30
0.0
 40
25.0
  1
03
 41
0.85
  7
SIMPLEX7
100
AcDbText
  0
TEXT
  5
7D45
330
1F
100
AcDbEntity
  8
POPIS
100
AcDbText
 10
1187.308597090624
 20
750.2828316773984
 30
0.0
 40
25.0
  1
Příchytka KNAUF
 41
0.7
  7
SIMPLEX7
100
AcDbText
  0
TEXT
  5
7D46
330
1F
100
AcDbEntity
  8
POPIS
100
AcDbText
 10
1187.308597090624
 20
681.0576635506504
 30
0.0
 40
25.0
  1
UD profil
 41
0.7
  7
SIMPLEX7
100
AcDbText
  0
TEXT
  5
7D47
330
1F
100
AcDbEntity
  8
POPIS
100
AcDbText
 10
1132.964893930881
 20
681.0576635506504
 30
0.0
 40
25.0
  1
05
 41
0.85
  7
SIMPLEX7
100
AcDbText
  0
TEXT
  5
7D48
330
1F
100
AcDbEntity
  8
POPIS
100
AcDbText
 10
1354.934782329669
 20
848.5170024097232
 30
0.0
 40
12.0
  1
R
 41
0.85
  7
SIMPLEX7
100
AcDbText
  0
CIRCLE
  5
7D49
330
1F
100
AcDbEntity
  8
POPIS
100
AcDbCircle
 10
1359.69381138485
 20
854.0623481547109
 30
0.0
 40
11.13656048292026
  0
HATCH
  5
7D4A
330
1F
100
AcDbEntity
  8
NOSNÉ KONSTRUKCE
100
AcDbHatch
 10
0.0
 20
0.0
 30
0.0
210
0.0
220
0.0
230
1.0
  2
SOLID
 70
     1
 71
     0
 91
        1
 92
        7
 72
     0
 73
     1
 93
       68
 10
1501.405635946058
 20
733.922198826177
 10
1499.819863678246
 20
735.5079478544494
 10
1501.405651118758
 20
737.0936817096544
 10
1501.405677021
 20
742.5079234575742
 10
1497.405685426179
 20
742.5079425939211
 10
1497.405680642091
 20
741.507942593932
 10
1500.405672236919
 20
741.5079282416818
 10
1500.405653100438
 20
737.5079071510035
 10
1498.405632987079
 20
735.5079546202623
 10
1500.405633964407
 20
733.5079829530286
 10
1500.405614827919
 20
729.5079618623576
 10
1498.405597106465
 20
728.007975633177
 10
1500.40560047567
 20
726.5079702675148
 10
1500.405581339181
 20
722.5079491768456
 10
1498.40556122583
 20
720.507996646108
 10
1500.405562203158
 20
718.5080249788689
 10
1500.405543066669
 20
714.508003888196
 10
1489.405606183186
 20
714.5080565129601
 10
1487.40560520585
 20
716.508028180192
 10
1483.405632561515
 20
716.5080473164498
 10
1481.405612448171
 20
714.5080947857049
 10
1470.40567556468
 20
714.5081474104654
 10
1459.405738681182
 20
714.5082000352295
 10
1457.405737703861
 20
716.5081717024613
 10
1453.405765059534
 20
716.508190838721
 10
1451.405744946182
 20
714.5082383079743
 10
1440.405808062684
 20
714.5082909327384
 10
1440.40582719918
 20
718.5083120234112
 10
1442.405847312517
 20
720.5082645541579
 10
1440.405846335196
 20
722.5082362213916
 10
1440.405865471678
 20
726.5082573120662
 10
1442.405883193153
 20
728.0082435412341
 10
1440.405879823933
 20
729.5082489069036
 10
1440.405898960422
 20
733.5082699975746
 10
1442.405919073774
 20
735.5082225283104
 10
1440.405918096453
 20
737.5081941955586
 10
1440.405937232927
 20
741.5082152862224
 10
1443.40567048604
 20
741.508200935209
 10
1443.405665703182
 20
742.5079425939211
 10
1439.405674108354
 20
742.5079234575742
 10
1439.405700010595
 20
737.0936817096653
 10
1440.991487451115
 20
735.5079478544421
 10
1439.405715183295
 20
733.9221988261751
 10
1439.405738693523
 20
729.0079546559436
 10
1440.739078743542
 20
728.007967659646
 10
1439.405748261632
 20
727.007967905728
 10
1439.405771771859
 20
722.0937237355092
 10
1440.991559212371
 20
720.5079898802896
 10
1439.405786944545
 20
718.9222408520118
 10
1439.405788924799
 20
718.5083168073242
 10
1439.405827199195
 20
718.5083168075079
 10
1439.405808062699
 20
714.5082957168369
 10
1439.405812846808
 20
713.507999104112
 10
1451.819956197802
 20
713.5080584945744
 10
1453.819957175138
 20
715.5080301618081
 10
1456.991516884408
 20
715.5080453348555
 10
1458.991427780848
 20
713.5082020173204
 10
1481.819814131609
 20
713.5080928041125
 10
1483.819834244975
 20
715.5080453348573
 10
1486.99139395423
 20
715.5080301618081
 10
1488.991394931551
 20
713.5080584945744
 10
1501.405538282552
 20
713.507999104112
 10
1501.405564184816
 20
718.9222408520045
 10
1499.819791916989
 20
720.5079898802932
 10
1501.405579357508
 20
722.0937237355165
 10
1501.405602867728
 20
727.0079679057298
 10
1500.072272385819
 20
728.0079676596406
 10
1501.405612435838
 20
729.0079546559399
 97
        0
 75
     0
 76
     1
 47
0.131671459398827
 98
        1
 10
1500.725260263781
 20
731.7911170735778
  0
LINE
  5
7D4B
330
1F
100
AcDbEntity
  8
NOSNÉ KONSTRUKCE
100
AcDbLine
 39
2500.000155029299
 10
1501.405538282552
 20
713.507999104112
 30
0.0
 11
1488.991394931551
 21
713.5080584945744
 31
0.0
  0
LINE
  5
7D4C
330
1F
100
AcDbEntity
  8
NOSNÉ KONSTRUKCE
100
AcDbLine
 39
2500.000155029299
 10
1501.405564184816
 20
718.9222408520118
 30
0.0
 11
1501.405538282552
 21
713.507999104112
 31
0.0
  0
LINE
  5
7D4D
330
1F
100
AcDbEntity
  8
NOSNÉ KONSTRUKCE
100
AcDbLine
 39
2500.000155029299
 10
1501.405564184816
 20
718.9222408520118
 30
0.0
 11
1499.819791916989
 21
720.5079898802896
 31
0.0
  0
LINE
  5
7D4E
330
1F
100
AcDbEntity
  8
NOSNÉ KONSTRUKCE
100
AcDbLine
 39
2500.000155029299
 10
1499.819791916989
 20
720.5079898802896
 30
0.0
 11
1501.405579357501
 21
722.0937237355128
 31
0.0
  0
LINE
  5
7D4F
330
1F
100
AcDbEntity
  8
NOSNÉ KONSTRUKCE
100
AcDbLine
 39
2500.000155029299
 10
1500.405562203158
 20
718.5080249788689
 30
0.0
 11
1498.405561225837
 21
720.5079966461044
 31
0.0
  0
LINE
  5
7D50
330
1F
100
AcDbEntity
  8
NOSNÉ KONSTRUKCE
100
AcDbLine
 39
2500.000155029299
 10
1498.405561225837
 20
720.5079966461044
 30
0.0
 11
1500.405581339188
 21
722.5079491768511
 31
0.0
  0
LINE
  5
7D51
330
1F
100
AcDbEntity
  8
NOSNÉ KONSTRUKCE
100
AcDbLine
 39
2500.000155029299
 10
1500.405543066669
 20
714.508003888196
 30
0.0
 11
1489.405606183178
 21
714.5080565129601
 31
0.0
  0
LINE
  5
7D52
330
1F
100
AcDbEntity
  8
NOSNÉ KONSTRUKCE
100
AcDbLine
 39
2500.000155029299
 10
1500.405562203158
 20
718.5080249788689
 30
0.0
 11
1500.405543066669
 21
714.508003888196
 31
0.0
  0
HATCH
  5
7D53
330
1F
100
AcDbEntity
  8
NOSNÉ KONSTRUKCE
100
AcDbHatch
 10
0.0
 20
0.0
 30
0.0
210
0.0
220
0.0
230
1.0
  2
SOLID
 70
     1
 71
     0
 91
        1
 92
        7
 72
     0
 73
     1
 93
        8
 10
1366.35136578173
 20
681.0673444772428
 10
1366.35136578173
 20
679.5673444772428
 10
1411.713845482859
 20
679.5673444772428
 10
1411.713845482844
 20
708.5672879670482
 10
1366.351365781737
 20
708.5672879670482
 10
1366.35136578173
 20
707.0672879670483
 10
1410.213845482859
 20
707.0672879670519
 10
1410.213845482852
 20
681.0673444772428
 97
        0
 75
     0
 76
     1
 47
0.1358226225865344
 98
        1
 10
1371.883409988978
 20
680.3414756885494
  0
LINE
  5
7D54
330
1F
100
AcDbEntity
  8
NOSNÉ KONSTRUKCE
100
AcDbLine
 10
835.4840965693282
 20
409.2565373520146
 30
0.0
 11
558.89384105322
 21
409.2565373520146
 31
0.0
  0
LINE
  5
7D55
330
1F
100
AcDbEntity
  8
NOSNÉ KONSTRUKCE
100
AcDbLine
 10
835.4779461053976
 20
415.1354681927996
 30
0.0
 11
558.89384105322
 21
415.1354681928014
 31
0.0
  0
LINE
  5
7D56
330
1F
100
AcDbEntity
  8
NOSNÉ KONSTRUKCE
100
AcDbLine
 10
835.4752857569465
 20
417.6783665360789
 30
0.0
 11
558.89384105322
 21
417.6783665360808
 31
0.0
  0
LINE
  5
7D57
330
1F
100
AcDbEntity
  8
NOSNÉ KONSTRUKCE
100
AcDbLine
 10
835.4698914233877
 20
422.834548946611
 30
0.0
 11
558.89384105322
 21
422.834548946611
 31
0.0
  0
LINE
  5
7D58
330
1F
100
AcDbEntity
  8
NOSNÉ KONSTRUKCE
100
AcDbLine
 10
835.4672748224466
 20
425.3356311621128
 30
0.0
 11
558.89384105322
 21
425.3356311621128
 31
0.0
  0
LINE
  5
7D59
330
1F
100
AcDbEntity
  8
NOSNÉ KONSTRUKCE
100
AcDbLine
 10
835.4625001745215
 20
429.8994860616903
 30
0.0
 11
558.89384105322
 21
429.8994860616903
 31
0.0
  0
LINE
  5
7D5A
330
1F
100
AcDbEntity
  8
NOSNÉ KONSTRUKCE
100
AcDbLine
 10
835.4596231992172
 20
432.6494475301233
 30
0.0
 11
558.89384105322
 21
432.6494475301251
 31
0.0
  0
LINE
  5
7D5B
330
1F
100
AcDbEntity
  8
NOSNÉ KONSTRUKCE
100
AcDbLine
 10
835.4536894011172
 20
438.3212779879495
 30
0.0
 11
558.89384105322
 21
438.3212779879641
 31
0.0
  0
LINE
  5
7D5C
330
1F
100
AcDbEntity
  8
SPOJOVACÍ
  6
Continuous
100
AcDbLine
 10
700.1801469794436
 20
411.2345975214075
 30
0.0
 11
704.2245513390362
 21
412.5945145346804
 31
0.0
  0
LINE
  5
7D5D
330
1F
100
AcDbEntity
  8
SPOJOVACÍ
  6
Continuous
100
AcDbLine
 10
700.1801469794436
 20
411.8308402065622
 30
0.0
 11
704.2245513390362
 21
413.1907572198278
 31
0.0
  0
LINE
  5
7D5E
330
1F
100
AcDbEntity
  8
SPOJOVACÍ
  6
Continuous
100
AcDbLine
 10
704.6022027099816
 20
412.8121756709979
 30
0.0
 11
704.2245513390362
 21
412.5945145346804
 31
0.0
  0
LINE
  5
7D5F
330
1F
100
AcDbEntity
  8
SPOJOVACÍ
  6
Continuous
100
AcDbLine
 10
704.6022027099816
 20
412.8121756709979
 30
0.0
 11
704.2245513390362
 21
413.1907572198278
 31
0.0
  0
LINE
  5
7D60
330
1F
100
AcDbEntity
  8
SPOJOVACÍ
  6
Continuous
100
AcDbLine
 10
699.8024956041327
 20
411.6122488945356
 30
0.0
 11
700.1801469794436
 21
411.2345975214075
 31
0.0
  0
LINE
  5
7D61
330
1F
100
AcDbEntity
  8
SPOJOVACÍ
  6
Continuous
100
AcDbLine
 10
699.8024956041327
 20
411.6122488945356
 30
0.0
 11
700.1801469794436
 21
411.8308402065622
 31
0.0
  0
LINE
  5
7D62
330
1F
100
AcDbEntity
  8
SPOJOVACÍ
  6
Continuous
100
AcDbLine
 10
699.8024956041327
 20
411.6122488945356
 30
0.0
 11
704.6022027099816
 21
412.8121756709979
 31
0.0
  0
LINE
  5
7D63
330
1F
100
AcDbEntity
  8
SPOJOVACÍ
  6
Continuous
100
AcDbLine
 10
700.1801469794436
 20
408.7110305873238
 30
0.0
 11
704.2245513390362
 21
410.0700174248877
 31
0.0
  0
LINE
  5
7D64
330
1F
100
AcDbEntity
  8
SPOJOVACÍ
  6
Continuous
100
AcDbLine
 10
704.6022027099816
 20
409.692366052036
 30
0.0
 11
704.2245513390362
 21
409.4737747400094
 31
0.0
  0
LINE
  5
7D65
330
1F
100
AcDbEntity
  8
SPOJOVACÍ
  6
Continuous
100
AcDbLine
 10
704.6022027099816
 20
409.692366052036
 30
0.0
 11
704.2245513390362
 21
410.0700174248877
 31
0.0
  0
LINE
  5
7D66
330
1F
100
AcDbEntity
  8
SPOJOVACÍ
  6
Continuous
100
AcDbLine
 10
699.8024956041327
 20
408.4924392752973
 30
0.0
 11
700.1801469794436
 21
408.7110305873238
 31
0.0
  0
LINE
  5
7D67
330
1F
100
AcDbEntity
  8
SPOJOVACÍ
  6
Continuous
100
AcDbLine
 10
699.8024956041327
 20
408.4924392752973
 30
0.0
 11
704.6022027099816
 21
409.692366052036
 31
0.0
  0
LINE
  5
7D68
330
1F
100
AcDbEntity
  8
SPOJOVACÍ
  6
Continuous
100
AcDbLine
 10
703.552034240608
 20
409.8337527728972
 30
0.0
 11
703.552034240608
 21
412.3619705857663
 31
0.0
  0
LINE
  5
7D69
330
1F
100
AcDbEntity
  8
SPOJOVACÍ
  6
Continuous
100
AcDbLine
 10
700.8526640778718
 20
408.9277615476703
 30
0.0
 11
700.8526640778718
 21
411.4485379543793
 31
0.0
  0
LINE
  5
7D6A
330
1F
100
AcDbEntity
  8
SPOJOVACÍ
  6
Continuous
100
AcDbLine
 10
700.1801469794436
 20
417.4742167593385
 30
0.0
 11
704.2245513390362
 21
418.8341337728807
 31
0.0
  0
LINE
  5
7D6B
330
1F
100
AcDbEntity
  8
SPOJOVACÍ
  6
Continuous
100
AcDbLine
 10
700.1801469794436
 20
418.0704594444932
 30
0.0
 11
704.2245513390362
 21
419.4303764580354
 31
0.0
  0
LINE
  5
7D6C
330
1F
100
AcDbEntity
  8
SPOJOVACÍ
  6
Continuous
100
AcDbLine
 10
704.6022027099816
 20
419.0527250849072
 30
0.0
 11
704.2245513390362
 21
418.8341337728807
 31
0.0
  0
LINE
  5
7D6D
330
1F
100
AcDbEntity
  8
SPOJOVACÍ
  6
Continuous
100
AcDbLine
 10
704.6022027099816
 20
419.0527250849072
 30
0.0
 11
704.2245513390362
 21
419.4303764580354
 31
0.0
  0
LINE
  5
7D6E
330
1F
100
AcDbEntity
  8
SPOJOVACÍ
  6
Continuous
100
AcDbLine
 10
699.8024956041327
 20
417.852798308445
 30
0.0
 11
700.1801469794436
 21
417.4742167593385
 31
0.0
  0
LINE
  5
7D6F
330
1F
100
AcDbEntity
  8
SPOJOVACÍ
  6
Continuous
100
AcDbLine
 10
699.8024956041327
 20
417.852798308445
 30
0.0
 11
700.1801469794436
 21
418.0704594444932
 31
0.0
  0
LINE
  5
7D70
330
1F
100
AcDbEntity
  8
SPOJOVACÍ
  6
Continuous
100
AcDbLine
 10
699.8024956041327
 20
417.852798308445
 30
0.0
 11
704.6022027099816
 21
419.0527250849072
 31
0.0
  0
LINE
  5
7D71
330
1F
100
AcDbEntity
  8
SPOJOVACÍ
  6
Continuous
100
AcDbLine
 10
700.1801469794436
 20
414.3544071403766
 30
0.0
 11
704.2245513390362
 21
415.7143241539188
 31
0.0
  0
LINE
  5
7D72
330
1F
100
AcDbEntity
  8
SPOJOVACÍ
  6
Continuous
100
AcDbLine
 10
700.1801469794436
 20
414.9506498255241
 30
0.0
 11
704.2245513390362
 21
416.310566838797
 31
0.0
  0
LINE
  5
7D73
330
1F
100
AcDbEntity
  8
SPOJOVACÍ
  6
Continuous
100
AcDbLine
 10
704.6022027099816
 20
415.931985289967
 30
0.0
 11
704.2245513390362
 21
415.7143241539188
 31
0.0
  0
LINE
  5
7D74
330
1F
100
AcDbEntity
  8
SPOJOVACÍ
  6
Continuous
100
AcDbLine
 10
704.6022027099816
 20
415.931985289967
 30
0.0
 11
704.2245513390362
 21
416.310566838797
 31
0.0
  0
LINE
  5
7D75
330
1F
100
AcDbEntity
  8
SPOJOVACÍ
  6
Continuous
100
AcDbLine
 10
699.8024956041327
 20
414.7320585135048
 30
0.0
 11
700.1801469794436
 21
414.3544071403766
 31
0.0
  0
LINE
  5
7D76
330
1F
100
AcDbEntity
  8
SPOJOVACÍ
  6
Continuous
100
AcDbLine
 10
699.8024956041327
 20
414.7320585135048
 30
0.0
 11
700.1801469794436
 21
414.9506498255241
 31
0.0
  0
LINE
  5
7D77
330
1F
100
AcDbEntity
  8
SPOJOVACÍ
  6
Continuous
100
AcDbLine
 10
699.8024956041327
 20
414.7320585135048
 30
0.0
 11
704.6022027099816
 21
415.931985289967
 31
0.0
  0
LINE
  5
7D78
330
1F
100
AcDbEntity
  8
SPOJOVACÍ
  6
Continuous
100
AcDbLine
 10
700.0564335985536
 20
420.9298198407586
 30
0.0
 11
704.1817632512966
 21
421.9027837230632
 31
0.0
  0
LINE
  5
7D79
330
1F
100
AcDbEntity
  8
SPOJOVACÍ
  6
Continuous
100
AcDbLine
 10
700.4350151468379
 20
420.5521684676305
 30
0.0
 11
703.8041118803512
 21
421.685122587015
 31
0.0
  0
LINE
  5
7D7A
330
1F
100
AcDbEntity
  8
SPOJOVACÍ
  6
Continuous
100
AcDbLine
 10
700.4350151468379
 20
421.1484111527852
 30
0.0
 11
703.8041118803512
 21
422.2813652721697
 31
0.0
  0
LINE
  5
7D7B
330
1F
100
AcDbEntity
  8
SPOJOVACÍ
  6
Continuous
100
AcDbLine
 10
704.1817632512966
 20
421.9027837230632
 30
0.0
 11
703.8041118803512
 21
421.685122587015
 31
0.0
  0
LINE
  5
7D7C
330
1F
100
AcDbEntity
  8
SPOJOVACÍ
  6
Continuous
100
AcDbLine
 10
704.1817632512966
 20
421.9027837230632
 30
0.0
 11
703.8041118803512
 21
422.2813652721697
 31
0.0
  0
LINE
  5
7D7D
330
1F
100
AcDbEntity
  8
SPOJOVACÍ
  6
Continuous
100
AcDbLine
 10
700.0564335985536
 20
420.9298198407586
 30
0.0
 11
700.4350151468379
 21
420.5521684676305
 31
0.0
  0
LINE
  5
7D7E
330
1F
100
AcDbEntity
  8
SPOJOVACÍ
  6
Continuous
100
AcDbLine
 10
700.0564335985536
 20
420.9298198407586
 30
0.0
 11
700.4350151468379
 21
421.1484111527852
 31
0.0
  0
LINE
  5
7D7F
330
1F
100
AcDbEntity
  8
SPOJOVACÍ
  6
Continuous
100
AcDbLine
 10
703.3064678291403
 20
421.5083891856656
 30
0.0
 11
703.552034240608
 21
419.5373466743794
 31
0.0
  0
LINE
  5
7D80
330
1F
100
AcDbEntity
  8
SPOJOVACÍ
  6
Continuous
100
AcDbLine
 10
701.0796269731208
 20
421.3549101795897
 30
0.0
 11
701.3698418226404
 21
423.6766289656543
 31
0.0
  0
LINE
  5
7D81
330
1F
100
AcDbEntity
  8
SPOJOVACÍ
  6
Continuous
100
AcDbLine
 10
700.8526640778718
 20
419.5373466743794
 30
0.0
 11
701.0024223805949
 21
420.7344829237363
 31
0.0
  0
LINE
  5
7D82
330
1F
100
AcDbEntity
  8
SPOJOVACÍ
  6
Continuous
100
AcDbLine
 10
703.552034240608
 20
419.2006230364959
 30
0.0
 11
703.552034240608
 21
419.5373466743794
 31
0.0
  0
LINE
  5
7D83
330
1F
100
AcDbEntity
  8
SPOJOVACÍ
  6
Continuous
100
AcDbLine
 10
703.552034240608
 20
416.0780228898829
 30
0.0
 11
703.552034240608
 21
418.5969389449119
 31
0.0
  0
LINE
  5
7D84
330
1F
100
AcDbEntity
  8
SPOJOVACÍ
  6
Continuous
100
AcDbLine
 10
700.8526640778718
 20
418.2899809324908
 30
0.0
 11
700.8526640778718
 21
419.5373466743794
 31
0.0
  0
LINE
  5
7D85
330
1F
100
AcDbEntity
  8
SPOJOVACÍ
  6
Continuous
100
AcDbLine
 10
700.8526640778718
 20
415.1757523680089
 30
0.0
 11
700.8526640778718
 21
417.6937382473361
 31
0.0
  0
LINE
  5
7D86
330
1F
100
AcDbEntity
  8
SPOJOVACÍ
  6
Continuous
100
AcDbLine
 10
703.552034240608
 20
412.9563529192409
 30
0.0
 11
703.552034240608
 21
415.47712932595
 31
0.0
  0
LINE
  5
7D87
330
1F
100
AcDbEntity
  8
SPOJOVACÍ
  6
Continuous
100
AcDbLine
 10
700.8526640778718
 20
412.042920287854
 30
0.0
 11
700.8526640778718
 21
414.5711381007231
 31
0.0
  0
LINE
  5
7D88
330
1F
100
AcDbEntity
  8
SPOJOVACÍ
  6
Continuous
100
AcDbLine
 10
701.185667015131
 20
426.9582891733762
 30
0.0
 11
703.3399541565877
 21
427.2689678891501
 31
0.0
  0
LINE
  5
7D89
330
1F
100
AcDbEntity
  8
SPOJOVACÍ
  6
Continuous
100
AcDbLine
 10
701.5633183860764
 20
426.580637800248
 30
0.0
 11
702.9623027856423
 21
427.0513067528327
 31
0.0
  0
LINE
  5
7D8A
330
1F
100
AcDbEntity
  8
SPOJOVACÍ
  6
Continuous
100
AcDbLine
 10
701.5633183860764
 20
427.1768804853954
 30
0.0
 11
702.9623027856423
 21
427.6475494379801
 31
0.0
  0
LINE
  5
7D8B
330
1F
100
AcDbEntity
  8
SPOJOVACÍ
  6
Continuous
100
AcDbLine
 10
703.3399541565877
 20
427.2689678891501
 30
0.0
 11
702.9623027856423
 21
427.0513067528327
 31
0.0
  0
LINE
  5
7D8C
330
1F
100
AcDbEntity
  8
SPOJOVACÍ
  6
Continuous
100
AcDbLine
 10
703.3399541565877
 20
427.2689678891501
 30
0.0
 11
702.9623027856423
 21
427.6475494379801
 31
0.0
  0
LINE
  5
7D8D
330
1F
100
AcDbEntity
  8
SPOJOVACÍ
  6
Continuous
100
AcDbLine
 10
701.185667015131
 20
426.9582891733762
 30
0.0
 11
701.5633183860764
 21
426.580637800248
 31
0.0
  0
LINE
  5
7D8E
330
1F
100
AcDbEntity
  8
SPOJOVACÍ
  6
Continuous
100
AcDbLine
 10
701.185667015131
 20
426.9582891733762
 30
0.0
 11
701.5633183860764
 21
427.1768804853954
 31
0.0
  0
LINE
  5
7D8F
330
1F
100
AcDbEntity
  8
SPOJOVACÍ
  6
Continuous
100
AcDbLine
 10
700.6210503046595
 20
423.9445195950565
 30
0.0
 11
703.7371392210907
 21
424.5779693118265
 31
0.0
  0
LINE
  5
7D90
330
1F
100
AcDbEntity
  8
SPOJOVACÍ
  6
Continuous
100
AcDbLine
 10
700.9987016799705
 20
423.5659380459501
 30
0.0
 11
703.3594878501453
 21
424.3603081757783
 31
0.0
  0
LINE
  5
7D91
330
1F
100
AcDbEntity
  8
SPOJOVACÍ
  6
Continuous
100
AcDbLine
 10
700.9987016799705
 20
424.1621807311048
 30
0.0
 11
703.3594878501453
 21
424.9565508606565
 31
0.0
  0
LINE
  5
7D92
330
1F
100
AcDbEntity
  8
SPOJOVACÍ
  6
Continuous
100
AcDbLine
 10
703.7371392210907
 20
424.5779693118265
 30
0.0
 11
703.3594878501453
 21
424.3603081757783
 31
0.0
  0
LINE
  5
7D93
330
1F
100
AcDbEntity
  8
SPOJOVACÍ
  6
Continuous
100
AcDbLine
 10
703.7371392210907
 20
424.5779693118265
 30
0.0
 11
703.3594878501453
 21
424.9565508606565
 31
0.0
  0
LINE
  5
7D94
330
1F
100
AcDbEntity
  8
SPOJOVACÍ
  6
Continuous
100
AcDbLine
 10
700.6210503046595
 20
423.9445195950565
 30
0.0
 11
700.9987016799705
 21
423.5659380459501
 31
0.0
  0
LINE
  5
7D95
330
1F
100
AcDbEntity
  8
SPOJOVACÍ
  6
Continuous
100
AcDbLine
 10
700.6210503046595
 20
423.9445195950565
 30
0.0
 11
700.9987016799705
 21
424.1621807311048
 31
0.0
  0
LINE
  5
7D96
330
1F
100
AcDbEntity
  8
SPOJOVACÍ
  6
Continuous
100
AcDbLine
 10
702.9678838365789
 20
424.2152007515642
 30
0.0
 11
703.2348442919165
 21
422.0785869487108
 31
0.0
  0
LINE
  5
7D97
330
1F
100
AcDbEntity
  8
SPOJOVACÍ
  6
Continuous
100
AcDbLine
 10
702.6283696754099
 20
426.9322442509974
 30
0.0
 11
702.8962603037207
 21
424.7872588660129
 31
0.0
  0
LINE
  5
7D98
330
1F
100
AcDbEntity
  8
SPOJOVACÍ
  6
Continuous
100
AcDbLine
 10
701.8163262031585
 20
427.2485040215278
 30
0.0
 11
702.2023491570571
 21
430.3376178393327
 31
0.0
  0
LINE
  5
7D99
330
1F
100
AcDbEntity
  8
SPOJOVACÍ
  6
Continuous
100
AcDbLine
 10
701.4489067654785
 20
424.3072881553189
 30
0.0
 11
701.7391216106325
 21
426.6280767656744
 31
0.0
  0
LINE
  5
7D9A
330
1F
100
AcDbEntity
  8
SPOJOVACÍ
  6
Continuous
100
AcDbLine
 10
702.2023491570571
 20
430.3376178393327
 30
0.0
 11
702.5567461381861
 21
427.5015118380642
 31
0.0
  0
LINE
  5
7D9B
330
1F
100
AcDbEntity
  8
SPOJOVACÍ
  6
Continuous
100
AcDbLine
 10
697.1021952684232
 20
394.5723584913821
 30
0.0
 11
707.3025030456911
 21
394.5723584913821
 31
0.0
  0
LINE
  5
7D9C
330
1F
100
AcDbEntity
  8
SPOJOVACÍ
  6
Continuous
100
AcDbLine
 10
697.1021952684232
 20
395.7722852681135
 30
0.0
 11
707.3025030456911
 21
395.7722852681135
 31
0.0
  0
LINE
  5
7D9D
102
{ACAD_REACTORS
330
7C6E
102
}
330
1F
100
AcDbEntity
  8
SPOJOVACÍ
  6
Continuous
100
AcDbLine
 10
697.1021952684232
 20
395.7722852681135
 30
0.0
 11
698.451880351974
 21
396.5164259045877
 31
0.0
  0
LINE
  5
7D9E
102
{ACAD_REACTORS
330
7C6E
102
}
330
1F
100
AcDbEntity
  8
SPOJOVACÍ
  6
Continuous
100
AcDbLine
 10
697.1021952684232
 20
394.5723584913821
 30
0.0
 11
697.1021952684232
 21
395.7722852681135
 31
0.0
  0
LINE
  5
7D9F
102
{ACAD_REACTORS
330
7C6E
102
}
330
1F
100
AcDbEntity
  8
SPOJOVACÍ
  6
Continuous
100
AcDbLine
 10
707.3025030456911
 20
395.7722852681135
 30
0.0
 11
705.6016571251229
 21
396.7100362896699
 31
0.0
  0
LINE
  5
7DA0
102
{ACAD_REACTORS
330
7C6E
102
}
330
1F
100
AcDbEntity
  8
SPOJOVACÍ
  6
Continuous
100
AcDbLine
 10
707.3025030456911
 20
394.5723584913821
 30
0.0
 11
707.3025030456911
 21
395.7722852681135
 31
0.0
  0
LINE
  5
7DA1
102
{ACAD_REACTORS
330
7C6E
102
}
330
1F
100
AcDbEntity
  8
SPOJOVACÍ
  6
Continuous
100
AcDbLine
 10
700.1801469794436
 20
404.9940481075054
 30
0.0
 11
704.2245513390362
 21
406.3539651207711
 31
0.0
  0
LINE
  5
7DA2
102
{ACAD_REACTORS
330
7C6E
102
}
330
1F
100
AcDbEntity
  8
SPOJOVACÍ
  6
Continuous
100
AcDbLine
 10
700.1801469794436
 20
405.5902907923837
 30
0.0
 11
704.2245513390362
 21
406.9502078059258
 31
0.0
  0
LINE
  5
7DA3
102
{ACAD_REACTORS
330
7C6E
102
}
330
1F
100
AcDbEntity
  8
SPOJOVACÍ
  6
Continuous
100
AcDbLine
 10
699.8024956041327
 20
405.3726296563354
 30
0.0
 11
700.1801469794436
 21
404.9940481075054
 31
0.0
  0
LINE
  5
7DA4
102
{ACAD_REACTORS
330
7C6E
102
}
330
1F
100
AcDbEntity
  8
SPOJOVACÍ
  6
Continuous
100
AcDbLine
 10
699.8024956041327
 20
405.3726296563354
 30
0.0
 11
700.1801469794436
 21
405.5902907923837
 31
0.0
  0
LINE
  5
7DA5
330
1F
100
AcDbEntity
  8
SPOJOVACÍ
  6
Continuous
100
AcDbLine
 10
699.8024956041327
 20
405.3726296563354
 30
0.0
 11
704.6022027099816
 21
406.5725564327976
 31
0.0
  0
LINE
  5
7DA6
102
{ACAD_REACTORS
330
7C6E
102
}
330
1F
100
AcDbEntity
  8
SPOJOVACÍ
  6
Continuous
100
AcDbLine
 10
700.8526640778718
 20
405.8051614013265
 30
0.0
 11
700.8526640778718
 21
408.3240774563555
 31
0.0
  0
LINE
  5
7DA7
102
{ACAD_REACTORS
330
7C6E
102
}
330
1F
100
AcDbEntity
  8
SPOJOVACÍ
  6
Continuous
100
AcDbLine
 10
700.8526640778718
 20
401.1719557624701
 30
0.0
 11
700.8526640778718
 21
405.2098488921501
 31
0.0
  0
LINE
  5
7DA8
102
{ACAD_REACTORS
330
7C6E
102
}
330
1F
100
AcDbEntity
  8
SPOJOVACÍ
  6
Continuous
100
AcDbLine
 10
703.552034240608
 20
401.1719557624701
 30
0.0
 11
703.552034240608
 21
406.1149099413987
 31
0.0
  0
LINE
  5
7DA9
102
{ACAD_REACTORS
330
7C6E
102
}
330
1F
100
AcDbEntity
  8
SPOJOVACÍ
  6
Continuous
100
AcDbLine
 10
698.451880351974
 20
396.5164259045877
 30
0.0
 11
699.5625102523327
 21
397.5851978939999
 31
0.0
  0
LINE
  5
7DAA
102
{ACAD_REACTORS
330
7C6E
102
}
330
1F
100
AcDbEntity
  8
SPOJOVACÍ
  6
Continuous
100
AcDbLine
 10
699.5625102523327
 20
397.5851978939999
 30
0.0
 11
700.3587407316508
 21
398.9041871722974
 31
0.0
  0
LINE
  5
7DAB
102
{ACAD_REACTORS
330
7C6E
102
}
330
1F
100
AcDbEntity
  8
SPOJOVACÍ
  6
Continuous
100
AcDbLine
 10
700.3587407316508
 20
398.9041871722974
 30
0.0
 11
700.7866215959502
 21
400.3850270393477
 31
0.0
  0
LINE
  5
7DAC
102
{ACAD_REACTORS
330
7C6E
102
}
330
1F
100
AcDbEntity
  8
SPOJOVACÍ
  6
Continuous
100
AcDbLine
 10
700.7866215959502
 20
400.3850270393477
 30
0.0
 11
700.8526640778718
 21
401.1719557624701
 31
0.0
  0
LINE
  5
7DAD
102
{ACAD_REACTORS
330
7C6E
102
}
330
1F
100
AcDbEntity
  8
SPOJOVACÍ
  6
Continuous
100
AcDbLine
 10
703.552034240608
 20
401.1719557624701
 30
0.0
 11
703.7789971314914
 21
399.6483278090408
 31
0.0
  0
LINE
  5
7DAE
102
{ACAD_REACTORS
330
7C6E
102
}
330
1F
100
AcDbEntity
  8
SPOJOVACÍ
  6
Continuous
100
AcDbLine
 10
703.7789971314914
 20
399.6483278090408
 30
0.0
 11
704.3919829806391
 21
398.2344605993375
 31
0.0
  0
LINE
  5
7DAF
102
{ACAD_REACTORS
330
7C6E
102
}
330
1F
100
AcDbEntity
  8
SPOJOVACÍ
  6
Continuous
100
AcDbLine
 10
704.3919829806391
 20
398.2344605993375
 30
0.0
 11
705.6016571251229
 21
396.7100362896699
 31
0.0
  0
LINE
  5
7DB0
102
{ACAD_REACTORS
330
7C6E
102
}
330
1F
100
AcDbEntity
  8
SPOJOVACÍ
  6
Continuous
100
AcDbLine
 10
700.1801469794436
 20
408.1147879021691
 30
0.0
 11
704.2245513390362
 21
409.4737747400094
 31
0.0
  0
LINE
  5
7DB1
102
{ACAD_REACTORS
330
7C6E
102
}
330
1F
100
AcDbEntity
  8
SPOJOVACÍ
  6
Continuous
100
AcDbLine
 10
699.8024956041327
 20
408.4924392752973
 30
0.0
 11
700.1801469794436
 21
408.1147879021691
 31
0.0
  0
LINE
  5
7DB2
102
{ACAD_REACTORS
330
7C6E
102
}
330
1F
100
AcDbEntity
  8
SPOJOVACÍ
  6
Continuous
100
AcDbLine
 10
704.6022027099816
 20
406.5725564327976
 30
0.0
 11
704.2245513390362
 21
406.3539651207711
 31
0.0
  0
LINE
  5
7DB3
102
{ACAD_REACTORS
330
7C6E
102
}
330
1F
100
AcDbEntity
  8
SPOJOVACÍ
  6
Continuous
100
AcDbLine
 10
704.6022027099816
 20
406.5725564327976
 30
0.0
 11
704.2245513390362
 21
406.9502078059258
 31
0.0
  0
LINE
  5
7DB4
102
{ACAD_REACTORS
330
7C6E
102
}
330
1F
100
AcDbEntity
  8
SPOJOVACÍ
  6
Continuous
100
AcDbLine
 10
703.552034240608
 20
406.7185940327135
 30
0.0
 11
703.552034240608
 21
409.2375100877425
 31
0.0
  0
LINE
  5
7DB5
102
{ACAD_REACTORS
330
7C6E
102
}
330
1F
100
AcDbEntity
  8
SPOJOVACÍ
  6
Continuous
100
AcDbLine
 10
694.3611873967301
 20
798.0580223702081
 30
0.0
 11
694.3611873967301
 21
796.8580955934767
 31
0.0
  0
LINE
  5
7DB6
330
1F
100
AcDbEntity
  8
SPOJOVACÍ
  6
Continuous
100
AcDbLine
 10
699.4613412853641
 20
762.2927630222575
 30
0.0
 11
699.815738266493
 21
765.128869023526
 31
0.0
  0
LINE
  5
7DB7
330
1F
100
AcDbEntity
  8
SPOJOVACÍ
  6
Continuous
100
AcDbLine
 10
698.7078988937855
 20
768.3230927062713
 30
0.0
 11
698.9981137389395
 21
766.0023040959158
 31
0.0
  0
LINE
  5
7DB8
330
1F
100
AcDbEntity
  8
SPOJOVACÍ
  6
Continuous
100
AcDbLine
 10
699.0753183314654
 20
765.3818768400624
 30
0.0
 11
699.4613412853641
 21
762.2927630222575
 31
0.0
  0
LINE
  5
7DB9
330
1F
100
AcDbEntity
  8
SPOJOVACÍ
  6
Continuous
100
AcDbLine
 10
699.8873618037168
 20
765.6981366105928
 30
0.0
 11
700.1552524320277
 21
767.8431219955773
 31
0.0
  0
LINE
  5
7DBA
330
1F
100
AcDbEntity
  8
SPOJOVACÍ
  6
Continuous
100
AcDbLine
 10
700.2268759648859
 20
768.415180110026
 30
0.0
 11
700.4938364202234
 21
770.5517939128794
 31
0.0
  0
LINE
  5
7DBB
330
1F
100
AcDbEntity
  8
SPOJOVACÍ
  6
Continuous
100
AcDbLine
 10
697.8800424329665
 20
768.6858612665337
 30
0.0
 11
698.2576938082774
 21
768.4682001304854
 31
0.0
  0
LINE
  5
7DBC
330
1F
100
AcDbEntity
  8
SPOJOVACÍ
  6
Continuous
100
AcDbLine
 10
697.8800424329665
 20
768.6858612665337
 30
0.0
 11
698.2576938082774
 21
769.0644428156401
 31
0.0
  0
LINE
  5
7DBD
330
1F
100
AcDbEntity
  8
SPOJOVACÍ
  6
Continuous
100
AcDbLine
 10
700.9961313493977
 20
768.0524115497637
 30
0.0
 11
700.6184799784523
 21
767.6738300009337
 31
0.0
  0
LINE
  5
7DBE
330
1F
100
AcDbEntity
  8
SPOJOVACÍ
  6
Continuous
100
AcDbLine
 10
700.9961313493977
 20
768.0524115497637
 30
0.0
 11
700.6184799784523
 21
768.2700726858119
 31
0.0
  0
LINE
  5
7DBF
330
1F
100
AcDbEntity
  8
SPOJOVACÍ
  6
Continuous
100
AcDbLine
 10
698.2576938082774
 20
768.4682001304854
 30
0.0
 11
700.6184799784523
 21
767.6738300009337
 31
0.0
  0
LINE
  5
7DC0
330
1F
100
AcDbEntity
  8
SPOJOVACÍ
  6
Continuous
100
AcDbLine
 10
698.2576938082774
 20
769.0644428156401
 30
0.0
 11
700.6184799784523
 21
768.2700726858119
 31
0.0
  0
LINE
  5
7DC1
330
1F
100
AcDbEntity
  8
SPOJOVACÍ
  6
Continuous
100
AcDbLine
 10
697.8800424329665
 20
768.6858612665337
 30
0.0
 11
700.9961313493977
 21
768.0524115497637
 31
0.0
  0
LINE
  5
7DC2
330
1F
100
AcDbEntity
  8
SPOJOVACÍ
  6
Continuous
100
AcDbLine
 10
698.4446591434379
 20
765.672091688214
 30
0.0
 11
698.8223105143833
 21
765.4535003761948
 31
0.0
  0
LINE
  5
7DC3
330
1F
100
AcDbEntity
  8
SPOJOVACÍ
  6
Continuous
100
AcDbLine
 10
698.4446591434379
 20
765.672091688214
 30
0.0
 11
698.8223105143833
 21
766.0497430613422
 31
0.0
  0
LINE
  5
7DC4
330
1F
100
AcDbEntity
  8
SPOJOVACÍ
  6
Continuous
100
AcDbLine
 10
700.5989462848947
 20
765.3614129724401
 30
0.0
 11
700.2212949139493
 21
764.9828314236101
 31
0.0
  0
LINE
  5
7DC5
330
1F
100
AcDbEntity
  8
SPOJOVACÍ
  6
Continuous
100
AcDbLine
 10
700.5989462848947
 20
765.3614129724401
 30
0.0
 11
700.2212949139493
 21
765.5790741087575
 31
0.0
  0
LINE
  5
7DC6
330
1F
100
AcDbEntity
  8
SPOJOVACÍ
  6
Continuous
100
AcDbLine
 10
698.8223105143833
 20
765.4535003761948
 30
0.0
 11
700.2212949139493
 21
764.9828314236101
 31
0.0
  0
LINE
  5
7DC7
330
1F
100
AcDbEntity
  8
SPOJOVACÍ
  6
Continuous
100
AcDbLine
 10
698.8223105143833
 20
766.0497430613422
 30
0.0
 11
700.2212949139493
 21
765.5790741087575
 31
0.0
  0
LINE
  5
7DC8
330
1F
100
AcDbEntity
  8
SPOJOVACÍ
  6
Continuous
100
AcDbLine
 10
698.4446591434379
 20
765.672091688214
 30
0.0
 11
700.5989462848947
 21
765.3614129724401
 31
0.0
  0
LINE
  5
7DC9
330
1F
100
AcDbEntity
  8
SPOJOVACÍ
  6
Continuous
100
AcDbLine
 10
698.1116562061788
 20
774.3403999290994
 30
0.0
 11
698.1116562061788
 21
773.0930341872108
 31
0.0
  0
LINE
  5
7DCA
330
1F
100
AcDbEntity
  8
SPOJOVACÍ
  6
Continuous
100
AcDbLine
 10
700.8110263689149
 20
776.5523579717073
 30
0.0
 11
700.8110263689149
 21
774.0334419166783
 31
0.0
  0
LINE
  5
7DCB
330
1F
100
AcDbEntity
  8
SPOJOVACÍ
  6
Continuous
100
AcDbLine
 10
700.8110263689149
 20
773.4297578250943
 30
0.0
 11
700.8110263689149
 21
773.0930341872108
 31
0.0
  0
LINE
  5
7DCC
330
1F
100
AcDbEntity
  8
SPOJOVACÍ
  6
Continuous
100
AcDbLine
 10
698.1116562061788
 20
773.0930341872108
 30
0.0
 11
698.2614145089018
 21
771.8958979378539
 31
0.0
  0
LINE
  5
7DCD
330
1F
100
AcDbEntity
  8
SPOJOVACÍ
  6
Continuous
100
AcDbLine
 10
698.3386191014278
 20
771.2754706820005
 30
0.0
 11
698.6288339509473
 21
768.9537518959359
 31
0.0
  0
LINE
  5
7DCE
330
1F
100
AcDbEntity
  8
SPOJOVACÍ
  6
Continuous
100
AcDbLine
 10
700.5654599574472
 20
771.1219916759246
 30
0.0
 11
700.8110263689149
 21
773.0930341872108
 31
0.0
  0
LINE
  5
7DCF
330
1F
100
AcDbEntity
  8
SPOJOVACÍ
  6
Continuous
100
AcDbLine
 10
697.3154257268606
 20
771.7005610208316
 30
0.0
 11
697.6940072751449
 21
771.481969708805
 31
0.0
  0
LINE
  5
7DD0
330
1F
100
AcDbEntity
  8
SPOJOVACÍ
  6
Continuous
100
AcDbLine
 10
697.3154257268606
 20
771.7005610208316
 30
0.0
 11
697.6940072751449
 21
772.0782123939597
 31
0.0
  0
LINE
  5
7DD1
330
1F
100
AcDbEntity
  8
SPOJOVACÍ
  6
Continuous
100
AcDbLine
 10
701.4407553796035
 20
770.727597138527
 30
0.0
 11
701.0631040086582
 21
770.3490155894205
 31
0.0
  0
LINE
  5
7DD2
330
1F
100
AcDbEntity
  8
SPOJOVACÍ
  6
Continuous
100
AcDbLine
 10
701.4407553796035
 20
770.727597138527
 30
0.0
 11
701.0631040086582
 21
770.9452582745752
 31
0.0
  0
LINE
  5
7DD3
330
1F
100
AcDbEntity
  8
SPOJOVACÍ
  6
Continuous
100
AcDbLine
 10
697.6940072751449
 20
771.481969708805
 30
0.0
 11
701.0631040086582
 21
770.3490155894205
 31
0.0
  0
LINE
  5
7DD4
330
1F
100
AcDbEntity
  8
SPOJOVACÍ
  6
Continuous
100
AcDbLine
 10
697.6940072751449
 20
772.0782123939597
 30
0.0
 11
701.0631040086582
 21
770.9452582745752
 31
0.0
  0
LINE
  5
7DD5
330
1F
100
AcDbEntity
  8
SPOJOVACÍ
  6
Continuous
100
AcDbLine
 10
697.3154257268606
 20
771.7005610208316
 30
0.0
 11
701.4407553796035
 21
770.727597138527
 31
0.0
  0
LINE
  5
7DD6
330
1F
100
AcDbEntity
  8
SPOJOVACÍ
  6
Continuous
100
AcDbLine
 10
697.0614877324396
 20
774.7775825531452
 30
0.0
 11
701.8611948382885
 21
773.577655776683
 31
0.0
  0
LINE
  5
7DD7
330
1F
100
AcDbEntity
  8
SPOJOVACÍ
  6
Continuous
100
AcDbLine
 10
697.0614877324396
 20
774.7775825531452
 30
0.0
 11
697.4391391077506
 21
774.559921417097
 31
0.0
  0
LINE
  5
7DD8
330
1F
100
AcDbEntity
  8
SPOJOVACÍ
  6
Continuous
100
AcDbLine
 10
701.8611948382885
 20
773.577655776683
 30
0.0
 11
701.4835434673432
 21
773.2000044035548
 31
0.0
  0
LINE
  5
7DD9
330
1F
100
AcDbEntity
  8
SPOJOVACÍ
  6
Continuous
100
AcDbLine
 10
701.8611948382885
 20
773.577655776683
 30
0.0
 11
701.4835434673432
 21
773.7962470887095
 31
0.0
  0
LINE
  5
7DDA
330
1F
100
AcDbEntity
  8
SPOJOVACÍ
  6
Continuous
100
AcDbLine
 10
697.4391391077506
 20
774.559921417097
 30
0.0
 11
701.4835434673432
 21
773.2000044035548
 31
0.0
  0
LINE
  5
7DDB
330
1F
100
AcDbEntity
  8
SPOJOVACÍ
  6
Continuous
100
AcDbLine
 10
697.4391391077506
 20
775.1561641022517
 30
0.0
 11
701.4835434673432
 21
773.7962470887095
 31
0.0
  0
LINE
  5
7DDC
102
{ACAD_REACTORS
330
7C6E
102
}
330
1F
100
AcDbEntity
  8
SPOJOVACÍ
  6
Continuous
100
AcDbLine
 10
700.8110263689149
 20
785.9117868288767
 30
0.0
 11
700.8110263689149
 21
783.3928707738477
 31
0.0
  0
LINE
  5
7DDD
102
{ACAD_REACTORS
330
7C6E
102
}
330
1F
100
AcDbEntity
  8
SPOJOVACÍ
  6
Continuous
100
AcDbLine
 10
701.8611948382885
 20
786.0578244287926
 30
0.0
 11
701.4835434673432
 21
785.6801730556644
 31
0.0
  0
LINE
  5
7DDE
102
{ACAD_REACTORS
330
7C6E
102
}
330
1F
100
AcDbEntity
  8
SPOJOVACÍ
  6
Continuous
100
AcDbLine
 10
701.8611948382885
 20
786.0578244287926
 30
0.0
 11
701.4835434673432
 21
786.2764157408191
 31
0.0
  0
LINE
  5
7DDF
102
{ACAD_REACTORS
330
7C6E
102
}
330
1F
100
AcDbEntity
  8
SPOJOVACÍ
  6
Continuous
100
AcDbLine
 10
697.0614877324396
 20
784.1379415862929
 30
0.0
 11
697.4391391077506
 21
784.5155929594211
 31
0.0
  0
LINE
  5
7DE0
102
{ACAD_REACTORS
330
7C6E
102
}
330
1F
100
AcDbEntity
  8
SPOJOVACÍ
  6
Continuous
100
AcDbLine
 10
697.4391391077506
 20
784.5155929594211
 30
0.0
 11
701.4835434673432
 21
783.1566061215808
 31
0.0
  0
LINE
  5
7DE1
102
{ACAD_REACTORS
330
7C6E
102
}
330
1F
100
AcDbEntity
  8
SPOJOVACÍ
  6
Continuous
100
AcDbLine
 10
701.650975108946
 20
794.3959202622527
 30
0.0
 11
702.86064925343
 21
795.9203445719204
 31
0.0
  0
LINE
  5
7DE2
102
{ACAD_REACTORS
330
7C6E
102
}
330
1F
100
AcDbEntity
  8
SPOJOVACÍ
  6
Continuous
100
AcDbLine
 10
701.0379892597984
 20
792.9820530525494
 30
0.0
 11
701.650975108946
 21
794.3959202622527
 31
0.0
  0
LINE
  5
7DE3
102
{ACAD_REACTORS
330
7C6E
102
}
330
1F
100
AcDbEntity
  8
SPOJOVACÍ
  6
Continuous
100
AcDbLine
 10
700.8110263689149
 20
791.4584250991201
 30
0.0
 11
701.0379892597984
 21
792.9820530525494
 31
0.0
  0
LINE
  5
7DE4
102
{ACAD_REACTORS
330
7C6E
102
}
330
1F
100
AcDbEntity
  8
SPOJOVACÍ
  6
Continuous
100
AcDbLine
 10
698.0456137242572
 20
792.2453538222425
 30
0.0
 11
698.1116562061788
 21
791.4584250991201
 31
0.0
  0
LINE
  5
7DE5
102
{ACAD_REACTORS
330
7C6E
102
}
330
1F
100
AcDbEntity
  8
SPOJOVACÍ
  6
Continuous
100
AcDbLine
 10
697.6177328599578
 20
793.7261936892928
 30
0.0
 11
698.0456137242572
 21
792.2453538222425
 31
0.0
  0
LINE
  5
7DE6
102
{ACAD_REACTORS
330
7C6E
102
}
330
1F
100
AcDbEntity
  8
SPOJOVACÍ
  6
Continuous
100
AcDbLine
 10
696.8215023806396
 20
795.0451829675903
 30
0.0
 11
697.6177328599578
 21
793.7261936892928
 31
0.0
  0
LINE
  5
7DE7
102
{ACAD_REACTORS
330
7C6E
102
}
330
1F
100
AcDbEntity
  8
SPOJOVACÍ
  6
Continuous
100
AcDbLine
 10
695.710872480281
 20
796.1139549570025
 30
0.0
 11
696.8215023806396
 21
795.0451829675903
 31
0.0
  0
LINE
  5
7DE8
102
{ACAD_REACTORS
330
7C6E
102
}
330
1F
100
AcDbEntity
  8
SPOJOVACÍ
  6
Continuous
100
AcDbLine
 10
700.8110263689149
 20
791.4584250991201
 30
0.0
 11
700.8110263689149
 21
786.5154709201915
 31
0.0
  0
LINE
  5
7DE9
102
{ACAD_REACTORS
330
7C6E
102
}
330
1F
100
AcDbEntity
  8
SPOJOVACÍ
  6
Continuous
100
AcDbLine
 10
698.1116562061788
 20
791.4584250991201
 30
0.0
 11
698.1116562061788
 21
787.4205319694401
 31
0.0
  0
LINE
  5
7DEA
102
{ACAD_REACTORS
330
7C6E
102
}
330
1F
100
AcDbEntity
  8
SPOJOVACÍ
  6
Continuous
100
AcDbLine
 10
698.1116562061788
 20
786.8252194602637
 30
0.0
 11
698.1116562061788
 21
784.3063034052347
 31
0.0
  0
LINE
  5
7DEB
330
1F
100
AcDbEntity
  8
SPOJOVACÍ
  6
Continuous
100
AcDbLine
 10
697.0614877324396
 20
787.2577512052548
 30
0.0
 11
701.8611948382885
 21
786.0578244287926
 31
0.0
  0
LINE
  5
7DEC
102
{ACAD_REACTORS
330
7C6E
102
}
330
1F
100
AcDbEntity
  8
SPOJOVACÍ
  6
Continuous
100
AcDbLine
 10
697.0614877324396
 20
787.2577512052548
 30
0.0
 11
697.4391391077506
 21
787.0400900692065
 31
0.0
  0
LINE
  5
7DED
102
{ACAD_REACTORS
330
7C6E
102
}
330
1F
100
AcDbEntity
  8
SPOJOVACÍ
  6
Continuous
100
AcDbLine
 10
697.0614877324396
 20
787.2577512052548
 30
0.0
 11
697.4391391077506
 21
787.6363327540848
 31
0.0
  0
LINE
  5
7DEE
102
{ACAD_REACTORS
330
7C6E
102
}
330
1F
100
AcDbEntity
  8
SPOJOVACÍ
  6
Continuous
100
AcDbLine
 10
697.4391391077506
 20
787.0400900692065
 30
0.0
 11
701.4835434673432
 21
785.6801730556644
 31
0.0
  0
LINE
  5
7DEF
102
{ACAD_REACTORS
330
7C6E
102
}
330
1F
100
AcDbEntity
  8
SPOJOVACÍ
  6
Continuous
100
AcDbLine
 10
697.4391391077506
 20
787.6363327540848
 30
0.0
 11
701.4835434673432
 21
786.2764157408191
 31
0.0
  0
LINE
  5
7DF0
102
{ACAD_REACTORS
330
7C6E
102
}
330
1F
100
AcDbEntity
  8
SPOJOVACÍ
  6
Continuous
100
AcDbLine
 10
704.561495173998
 20
798.0580223702081
 30
0.0
 11
704.561495173998
 21
796.8580955934767
 31
0.0
  0
LINE
  5
7DF1
102
{ACAD_REACTORS
330
7C6E
102
}
330
1F
100
AcDbEntity
  8
SPOJOVACÍ
  6
Continuous
100
AcDbLine
 10
704.561495173998
 20
796.8580955934767
 30
0.0
 11
702.86064925343
 21
795.9203445719204
 31
0.0
  0
LINE
  5
7DF2
102
{ACAD_REACTORS
330
7C6E
102
}
330
1F
100
AcDbEntity
  8
SPOJOVACÍ
  6
Continuous
100
AcDbLine
 10
694.3611873967301
 20
796.8580955934767
 30
0.0
 11
695.710872480281
 21
796.1139549570025
 31
0.0
  0
LINE
  5
7DF3
330
1F
100
AcDbEntity
  8
SPOJOVACÍ
  6
Continuous
100
AcDbLine
 10
694.3611873967301
 20
796.8580955934767
 30
0.0
 11
704.561495173998
 21
796.8580955934767
 31
0.0
  0
LINE
  5
7DF4
330
1F
100
AcDbEntity
  8
SPOJOVACÍ
  6
Continuous
100
AcDbLine
 10
694.3611873967301
 20
798.0580223702081
 30
0.0
 11
704.561495173998
 21
798.0580223702081
 31
0.0
  0
LINE
  5
7DF5
330
1F
100
AcDbEntity
  8
SPOJOVACÍ
  6
Continuous
100
AcDbLine
 10
698.1116562061788
 20
780.5874605737362
 30
0.0
 11
698.1116562061788
 21
778.0592427608671
 31
0.0
  0
LINE
  5
7DF6
330
1F
100
AcDbEntity
  8
SPOJOVACÍ
  6
Continuous
100
AcDbLine
 10
700.8110263689149
 20
779.6740279423493
 30
0.0
 11
700.8110263689149
 21
777.1532515356402
 31
0.0
  0
LINE
  5
7DF7
330
1F
100
AcDbEntity
  8
SPOJOVACÍ
  6
Continuous
100
AcDbLine
 10
698.1116562061788
 20
777.4546284935813
 30
0.0
 11
698.1116562061788
 21
774.9366426142541
 31
0.0
  0
LINE
  5
7DF8
330
1F
100
AcDbEntity
  8
SPOJOVACÍ
  6
Continuous
100
AcDbLine
 10
697.0614877324396
 20
777.8983223480854
 30
0.0
 11
701.8611948382885
 21
776.6983955716232
 31
0.0
  0
LINE
  5
7DF9
330
1F
100
AcDbEntity
  8
SPOJOVACÍ
  6
Continuous
100
AcDbLine
 10
697.0614877324396
 20
777.8983223480854
 30
0.0
 11
697.4391391077506
 21
777.6797310360661
 31
0.0
  0
LINE
  5
7DFA
330
1F
100
AcDbEntity
  8
SPOJOVACÍ
  6
Continuous
100
AcDbLine
 10
697.0614877324396
 20
777.8983223480854
 30
0.0
 11
697.4391391077506
 21
778.2759737212136
 31
0.0
  0
LINE
  5
7DFB
330
1F
100
AcDbEntity
  8
SPOJOVACÍ
  6
Continuous
100
AcDbLine
 10
701.8611948382885
 20
776.6983955716232
 30
0.0
 11
701.4835434673432
 21
776.3198140227932
 31
0.0
  0
LINE
  5
7DFC
330
1F
100
AcDbEntity
  8
SPOJOVACÍ
  6
Continuous
100
AcDbLine
 10
701.8611948382885
 20
776.6983955716232
 30
0.0
 11
701.4835434673432
 21
776.9160567076714
 31
0.0
  0
LINE
  5
7DFD
330
1F
100
AcDbEntity
  8
SPOJOVACÍ
  6
Continuous
100
AcDbLine
 10
697.4391391077506
 20
777.6797310360661
 30
0.0
 11
701.4835434673432
 21
776.3198140227932
 31
0.0
  0
LINE
  5
7DFE
330
1F
100
AcDbEntity
  8
SPOJOVACÍ
  6
Continuous
100
AcDbLine
 10
697.4391391077506
 20
778.2759737212136
 30
0.0
 11
701.4835434673432
 21
776.9160567076714
 31
0.0
  0
LINE
  5
7DFF
330
1F
100
AcDbEntity
  8
SPOJOVACÍ
  6
Continuous
100
AcDbLine
 10
697.0614877324396
 20
774.7775825531452
 30
0.0
 11
697.4391391077506
 21
775.1561641022517
 31
0.0
  0
LINE
  5
7E00
330
1F
100
AcDbEntity
  8
SPOJOVACÍ
  6
Continuous
100
AcDbLine
 10
698.1116562061788
 20
783.7026193139199
 30
0.0
 11
698.1116562061788
 21
781.1818429072109
 31
0.0
  0
LINE
  5
7E01
330
1F
100
AcDbEntity
  8
SPOJOVACÍ
  6
Continuous
100
AcDbLine
 10
700.8110263689149
 20
782.796628088693
 30
0.0
 11
700.8110263689149
 21
780.2684102758239
 31
0.0
  0
LINE
  5
7E02
330
1F
100
AcDbEntity
  8
SPOJOVACÍ
  6
Continuous
100
AcDbLine
 10
697.0614877324396
 20
784.1379415862929
 30
0.0
 11
701.8611948382885
 21
782.9380148095542
 31
0.0
  0
LINE
  5
7E03
330
1F
100
AcDbEntity
  8
SPOJOVACÍ
  6
Continuous
100
AcDbLine
 10
697.0614877324396
 20
784.1379415862929
 30
0.0
 11
697.4391391077506
 21
783.9193502742664
 31
0.0
  0
LINE
  5
7E04
330
1F
100
AcDbEntity
  8
SPOJOVACÍ
  6
Continuous
100
AcDbLine
 10
701.8611948382885
 20
782.9380148095542
 30
0.0
 11
701.4835434673432
 21
782.5603634367025
 31
0.0
  0
LINE
  5
7E05
330
1F
100
AcDbEntity
  8
SPOJOVACÍ
  6
Continuous
100
AcDbLine
 10
701.8611948382885
 20
782.9380148095542
 30
0.0
 11
701.4835434673432
 21
783.1566061215808
 31
0.0
  0
LINE
  5
7E06
330
1F
100
AcDbEntity
  8
SPOJOVACÍ
  6
Continuous
100
AcDbLine
 10
697.4391391077506
 20
783.9193502742664
 30
0.0
 11
701.4835434673432
 21
782.5603634367025
 31
0.0
  0
LINE
  5
7E07
330
1F
100
AcDbEntity
  8
SPOJOVACÍ
  6
Continuous
100
AcDbLine
 10
697.0614877324396
 20
781.0181319670546
 30
0.0
 11
701.8611948382885
 21
779.8182051905923
 31
0.0
  0
LINE
  5
7E08
330
1F
100
AcDbEntity
  8
SPOJOVACÍ
  6
Continuous
100
AcDbLine
 10
697.0614877324396
 20
781.0181319670546
 30
0.0
 11
697.4391391077506
 21
780.799540655028
 31
0.0
  0
LINE
  5
7E09
330
1F
100
AcDbEntity
  8
SPOJOVACÍ
  6
Continuous
100
AcDbLine
 10
697.0614877324396
 20
781.0181319670546
 30
0.0
 11
697.4391391077506
 21
781.3957833401827
 31
0.0
  0
LINE
  5
7E0A
330
1F
100
AcDbEntity
  8
SPOJOVACÍ
  6
Continuous
100
AcDbLine
 10
701.8611948382885
 20
779.8182051905923
 30
0.0
 11
701.4835434673432
 21
779.4396236417624
 31
0.0
  0
LINE
  5
7E0B
330
1F
100
AcDbEntity
  8
SPOJOVACÍ
  6
Continuous
100
AcDbLine
 10
701.8611948382885
 20
779.8182051905923
 30
0.0
 11
701.4835434673432
 21
780.0358663269098
 31
0.0
  0
LINE
  5
7E0C
330
1F
100
AcDbEntity
  8
SPOJOVACÍ
  6
Continuous
100
AcDbLine
 10
697.4391391077506
 20
780.799540655028
 30
0.0
 11
701.4835434673432
 21
779.4396236417624
 31
0.0
  0
LINE
  5
7E0D
330
1F
100
AcDbEntity
  8
SPOJOVACÍ
  6
Continuous
100
AcDbLine
 10
697.4391391077506
 20
781.3957833401827
 30
0.0
 11
701.4835434673432
 21
780.0358663269098
 31
0.0
  0
LINE
  5
7E0E
102
{ACAD_REACTORS
330
7C6F
102
}
330
1F
100
AcDbEntity
  8
CETRIS
100
AcDbLine
 10
481.5689426195886
 20
394.5976763448807
 30
0.0
 11
495.5689426195886
 21
394.5976763448807
 31
0.0
  0
LINE
  5
7E0F
102
{ACAD_REACTORS
330
7C6E
102
}
330
1F
100
AcDbEntity
  8
CETRIS
100
AcDbLine
 10
496.8963543724376
 20
394.5723584913821
 30
0.0
 11
496.8963543724376
 21
408.5723584913821
 31
0.0
  0
LINE
  5
7E10
330
1F
100
AcDbEntity
  8
NOSNÉ KONSTRUKCE
100
AcDbLine
 10
835.4536894011172
 20
754.3091028736407
 30
0.0
 11
558.89384105322
 21
754.3091028736262
 31
0.0
  0
LINE
  5
7E11
330
1F
100
AcDbEntity
  8
NOSNÉ KONSTRUKCE
100
AcDbLine
 10
835.4596231992172
 20
759.9809333314669
 30
0.0
 11
558.89384105322
 21
759.9809333314651
 31
0.0
  0
LINE
  5
7E12
330
1F
100
AcDbEntity
  8
NOSNÉ KONSTRUKCE
100
AcDbLine
 10
835.4625001745215
 20
762.7308947998999
 30
0.0
 11
558.89384105322
 21
762.7308947998999
 31
0.0
  0
LINE
  5
7E13
330
1F
100
AcDbEntity
  8
NOSNÉ KONSTRUKCE
100
AcDbLine
 10
835.4672748224466
 20
767.2947496994774
 30
0.0
 11
558.89384105322
 21
767.2947496994774
 31
0.0
  0
LINE
  5
7E14
330
1F
100
AcDbEntity
  8
NOSNÉ KONSTRUKCE
100
AcDbLine
 10
835.4698914233877
 20
769.7958319149793
 30
0.0
 11
558.89384105322
 21
769.7958319149793
 31
0.0
  0
LINE
  5
7E15
330
1F
100
AcDbEntity
  8
NOSNÉ KONSTRUKCE
100
AcDbLine
 10
835.4752857569465
 20
774.9520143255113
 30
0.0
 11
558.89384105322
 21
774.9520143255095
 31
0.0
  0
LINE
  5
7E16
330
1F
100
AcDbEntity
  8
NOSNÉ KONSTRUKCE
100
AcDbLine
 10
835.4779461053976
 20
777.4949126687906
 30
0.0
 11
558.89384105322
 21
777.4949126687888
 31
0.0
  0
LINE
  5
7E17
330
1F
100
AcDbEntity
  8
NOSNÉ KONSTRUKCE
100
AcDbLine
 10
835.4840965693282
 20
783.3738435095756
 30
0.0
 11
558.89384105322
 21
783.3738435095756
 31
0.0
  0
LINE
  5
7E18
102
{ACAD_REACTORS
330
7C6F
102
}
330
1F
100
AcDbEntity
  8
SPOJOVACÍ
  6
Continuous
100
AcDbLine
 10
482.751199647434
 20
715.7057404947344
 30
0.0
 11
483.6889506689904
 21
717.4065864153098
 31
0.0
  0
LINE
  5
7E19
330
1F
100
AcDbEntity
  8
SPOJOVACÍ
  6
Continuous
100
AcDbLine
 10
481.5512728706953
 20
725.9060482720023
 30
0.0
 11
481.5512728706953
 21
715.7057404947344
 31
0.0
  0
LINE
  5
7E1A
102
{ACAD_REACTORS
330
7C6F
102
}
330
1F
100
AcDbEntity
  8
SPOJOVACÍ
  6
Continuous
100
AcDbLine
 10
481.5512728706953
 20
715.7057404947344
 30
0.0
 11
482.751199647434
 21
715.7057404947344
 31
0.0
  0
LINE
  5
7E1B
330
1F
100
AcDbEntity
  8
SPOJOVACÍ
  6
Continuous
100
AcDbLine
 10
482.751199647434
 20
725.9060482720023
 30
0.0
 11
482.751199647434
 21
715.7057404947344
 31
0.0
  0
LINE
  5
7E1C
330
1F
100
AcDbEntity
  8
SPOJOVACÍ
  6
Continuous
100
AcDbLine
 10
498.213511900728
 20
722.8280965609819
 30
0.0
 11
499.5734289139936
 21
718.7836922013893
 31
0.0
  0
LINE
  5
7E1D
330
1F
100
AcDbEntity
  8
SPOJOVACÍ
  6
Continuous
100
AcDbLine
 10
498.8097545858754
 20
722.8280965609819
 30
0.0
 11
500.169671599141
 21
718.7836922013893
 31
0.0
  0
LINE
  5
7E1E
330
1F
100
AcDbEntity
  8
SPOJOVACÍ
  6
Continuous
100
AcDbLine
 10
499.7910900503184
 20
718.4060408304439
 30
0.0
 11
499.5734289139936
 21
718.7836922013893
 31
0.0
  0
LINE
  5
7E1F
330
1F
100
AcDbEntity
  8
SPOJOVACÍ
  6
Continuous
100
AcDbLine
 10
499.7910900503184
 20
718.4060408304439
 30
0.0
 11
500.169671599141
 21
718.7836922013893
 31
0.0
  0
LINE
  5
7E20
330
1F
100
AcDbEntity
  8
SPOJOVACÍ
  6
Continuous
100
AcDbLine
 10
498.5911632738561
 20
723.2057479362929
 30
0.0
 11
498.213511900728
 21
722.8280965609819
 31
0.0
  0
LINE
  5
7E21
330
1F
100
AcDbEntity
  8
SPOJOVACÍ
  6
Continuous
100
AcDbLine
 10
498.5911632738561
 20
723.2057479362929
 30
0.0
 11
498.8097545858754
 21
722.8280965609819
 31
0.0
  0
LINE
  5
7E22
330
1F
100
AcDbEntity
  8
SPOJOVACÍ
  6
Continuous
100
AcDbLine
 10
498.5911632738561
 20
723.2057479362929
 30
0.0
 11
499.7910900503184
 21
718.4060408304439
 31
0.0
  0
LINE
  5
7E23
102
{ACAD_REACTORS
330
7C6F
102
}
330
1F
100
AcDbEntity
  8
SPOJOVACÍ
  6
Continuous
100
AcDbLine
 10
495.0937022814896
 20
722.8280965609819
 30
0.0
 11
496.4526891193226
 21
718.7836922013893
 31
0.0
  0
LINE
  5
7E24
330
1F
100
AcDbEntity
  8
SPOJOVACÍ
  6
Continuous
100
AcDbLine
 10
495.689944966637
 20
722.8280965609819
 30
0.0
 11
497.0489318042082
 21
718.7836922013893
 31
0.0
  0
LINE
  5
7E25
330
1F
100
AcDbEntity
  8
SPOJOVACÍ
  6
Continuous
100
AcDbLine
 10
496.6712804313565
 20
718.4060408304439
 30
0.0
 11
496.4526891193226
 21
718.7836922013893
 31
0.0
  0
LINE
  5
7E26
330
1F
100
AcDbEntity
  8
SPOJOVACÍ
  6
Continuous
100
AcDbLine
 10
496.6712804313565
 20
718.4060408304439
 30
0.0
 11
497.0489318042082
 21
718.7836922013893
 31
0.0
  0
LINE
  5
7E27
102
{ACAD_REACTORS
330
7C6F
102
}
330
1F
100
AcDbEntity
  8
SPOJOVACÍ
  6
Continuous
100
AcDbLine
 10
495.4713536546178
 20
723.2057479362929
 30
0.0
 11
495.0937022814896
 21
722.8280965609819
 31
0.0
  0
LINE
  5
7E28
330
1F
100
AcDbEntity
  8
SPOJOVACÍ
  6
Continuous
100
AcDbLine
 10
495.4713536546178
 20
723.2057479362929
 30
0.0
 11
495.689944966637
 21
722.8280965609819
 31
0.0
  0
LINE
  5
7E29
330
1F
100
AcDbEntity
  8
SPOJOVACÍ
  6
Continuous
100
AcDbLine
 10
495.4713536546178
 20
723.2057479362929
 30
0.0
 11
496.6712804313565
 21
718.4060408304439
 31
0.0
  0
LINE
  5
7E2A
102
{ACAD_REACTORS
330
7C6F
102
}
330
1F
100
AcDbEntity
  8
SPOJOVACÍ
  6
Continuous
100
AcDbLine
 10
491.9729624868186
 20
722.8280965609819
 30
0.0
 11
493.3328795000843
 21
718.7836922013893
 31
0.0
  0
LINE
  5
7E2B
102
{ACAD_REACTORS
330
7C6F
102
}
330
1F
100
AcDbEntity
  8
SPOJOVACÍ
  6
Continuous
100
AcDbLine
 10
492.5692051717041
 20
722.8280965609819
 30
0.0
 11
493.9291221852463
 21
718.7836922013893
 31
0.0
  0
LINE
  5
7E2C
102
{ACAD_REACTORS
330
7C6F
102
}
330
1F
100
AcDbEntity
  8
SPOJOVACÍ
  6
Continuous
100
AcDbLine
 10
493.5514708121181
 20
718.4060408304439
 30
0.0
 11
493.3328795000843
 21
718.7836922013893
 31
0.0
  0
LINE
  5
7E2D
102
{ACAD_REACTORS
330
7C6F
102
}
330
1F
100
AcDbEntity
  8
SPOJOVACÍ
  6
Continuous
100
AcDbLine
 10
493.5514708121181
 20
718.4060408304439
 30
0.0
 11
493.9291221852463
 21
718.7836922013893
 31
0.0
  0
LINE
  5
7E2E
102
{ACAD_REACTORS
330
7C6F
102
}
330
1F
100
AcDbEntity
  8
SPOJOVACÍ
  6
Continuous
100
AcDbLine
 10
492.3515440356559
 20
723.2057479362929
 30
0.0
 11
491.9729624868186
 21
722.8280965609819
 31
0.0
  0
LINE
  5
7E2F
102
{ACAD_REACTORS
330
7C6F
102
}
330
1F
100
AcDbEntity
  8
SPOJOVACÍ
  6
Continuous
100
AcDbLine
 10
492.3515440356559
 20
723.2057479362929
 30
0.0
 11
492.5692051717041
 21
722.8280965609819
 31
0.0
  0
LINE
  5
7E30
330
1F
100
AcDbEntity
  8
SPOJOVACÍ
  6
Continuous
100
AcDbLine
 10
492.3515440356559
 20
723.2057479362929
 30
0.0
 11
493.5514708121181
 21
718.4060408304439
 31
0.0
  0
LINE
  5
7E31
330
1F
100
AcDbEntity
  8
SPOJOVACÍ
  6
Continuous
100
AcDbLine
 10
496.8126671522177
 20
719.4562092998175
 30
0.0
 11
499.3408849650868
 21
719.4562092998175
 31
0.0
  0
LINE
  5
7E32
102
{ACAD_REACTORS
330
7C6F
102
}
330
1F
100
AcDbEntity
  8
SPOJOVACÍ
  6
Continuous
100
AcDbLine
 10
493.697508412034
 20
719.4562092998175
 30
0.0
 11
496.2164244670557
 21
719.4562092998175
 31
0.0
  0
LINE
  5
7E33
330
1F
100
AcDbEntity
  8
SPOJOVACÍ
  6
Continuous
100
AcDbLine
 10
495.9066759269908
 20
722.1555794625537
 30
0.0
 11
498.4274523336925
 21
722.1555794625537
 31
0.0
  0
LINE
  5
7E34
102
{ACAD_REACTORS
330
7C6F
102
}
330
1F
100
AcDbEntity
  8
SPOJOVACÍ
  6
Continuous
100
AcDbLine
 10
492.7840757806397
 20
722.1555794625537
 30
0.0
 11
495.302991835676
 21
722.1555794625537
 31
0.0
  0
LINE
  5
7E35
102
{ACAD_REACTORS
330
7C6F
102
}
330
1F
100
AcDbEntity
  8
SPOJOVACÍ
  6
Continuous
100
AcDbLine
 10
488.1508701417906
 20
722.1555794625537
 30
0.0
 11
492.1887632714633
 21
722.1555794625537
 31
0.0
  0
LINE
  5
7E36
102
{ACAD_REACTORS
330
7C6F
102
}
330
1F
100
AcDbEntity
  8
SPOJOVACÍ
  6
Continuous
100
AcDbLine
 10
488.1508701417906
 20
719.4562092998175
 30
0.0
 11
493.0938243207192
 21
719.4562092998175
 31
0.0
  0
LINE
  5
7E37
102
{ACAD_REACTORS
330
7C6F
102
}
330
1F
100
AcDbEntity
  8
SPOJOVACÍ
  6
Continuous
100
AcDbLine
 10
482.751199647434
 20
725.9060482720023
 30
0.0
 11
483.4953402839009
 21
724.5563631884515
 31
0.0
  0
LINE
  5
7E38
102
{ACAD_REACTORS
330
7C6F
102
}
330
1F
100
AcDbEntity
  8
SPOJOVACÍ
  6
Continuous
100
AcDbLine
 10
483.4953402839009
 20
724.5563631884515
 30
0.0
 11
484.5641122733204
 21
723.4457332880928
 31
0.0
  0
LINE
  5
7E39
102
{ACAD_REACTORS
330
7C6F
102
}
330
1F
100
AcDbEntity
  8
SPOJOVACÍ
  6
Continuous
100
AcDbLine
 10
484.5641122733204
 20
723.4457332880928
 30
0.0
 11
485.8831015516179
 21
722.6495028087747
 31
0.0
  0
LINE
  5
7E3A
102
{ACAD_REACTORS
330
7C6F
102
}
330
1F
100
AcDbEntity
  8
SPOJOVACÍ
  6
Continuous
100
AcDbLine
 10
485.8831015516179
 20
722.6495028087747
 30
0.0
 11
487.3639414186609
 21
722.2216219444753
 31
0.0
  0
LINE
  5
7E3B
102
{ACAD_REACTORS
330
7C6F
102
}
330
1F
100
AcDbEntity
  8
SPOJOVACÍ
  6
Continuous
100
AcDbLine
 10
487.3639414186609
 20
722.2216219444753
 30
0.0
 11
488.1508701417906
 21
722.1555794625537
 31
0.0
  0
LINE
  5
7E3C
102
{ACAD_REACTORS
330
7C6F
102
}
330
1F
100
AcDbEntity
  8
SPOJOVACÍ
  6
Continuous
100
AcDbLine
 10
481.5512728706953
 20
725.9060482720023
 30
0.0
 11
482.751199647434
 21
725.9060482720023
 31
0.0
  0
LINE
  5
7E3D
102
{ACAD_REACTORS
330
7C6F
102
}
330
1F
100
AcDbEntity
  8
SPOJOVACÍ
  6
Continuous
100
AcDbLine
 10
488.1508701417906
 20
719.4562092998175
 30
0.0
 11
486.6272421883613
 21
719.2292464089341
 31
0.0
  0
LINE
  5
7E3E
102
{ACAD_REACTORS
330
7C6F
102
}
330
1F
100
AcDbEntity
  8
SPOJOVACÍ
  6
Continuous
100
AcDbLine
 10
486.6272421883613
 20
719.2292464089341
 30
0.0
 11
485.213374978658
 21
718.6162605597864
 31
0.0
  0
LINE
  5
7E3F
102
{ACAD_REACTORS
330
7C6F
102
}
330
1F
100
AcDbEntity
  8
SPOJOVACÍ
  6
Continuous
100
AcDbLine
 10
485.213374978658
 20
718.6162605597864
 30
0.0
 11
483.6889506689904
 21
717.4065864153098
 31
0.0
  0
LINE
  5
7E40
330
1F
100
AcDbEntity
  8
SPOJOVACÍ
  6
Continuous
100
AcDbLine
 10
504.4531311386517
 20
722.8280965609819
 30
0.0
 11
505.8130481521939
 21
718.7836922013893
 31
0.0
  0
LINE
  5
7E41
330
1F
100
AcDbEntity
  8
SPOJOVACÍ
  6
Continuous
100
AcDbLine
 10
505.0493738238137
 20
722.8280965609819
 30
0.0
 11
506.4092908373559
 21
718.7836922013893
 31
0.0
  0
LINE
  5
7E42
330
1F
100
AcDbEntity
  8
SPOJOVACÍ
  6
Continuous
100
AcDbLine
 10
506.0316394642277
 20
718.4060408304439
 30
0.0
 11
505.8130481521939
 21
718.7836922013893
 31
0.0
  0
LINE
  5
7E43
330
1F
100
AcDbEntity
  8
SPOJOVACÍ
  6
Continuous
100
AcDbLine
 10
506.0316394642277
 20
718.4060408304439
 30
0.0
 11
506.4092908373559
 21
718.7836922013893
 31
0.0
  0
LINE
  5
7E44
330
1F
100
AcDbEntity
  8
SPOJOVACÍ
  6
Continuous
100
AcDbLine
 10
504.8317126877654
 20
723.2057479362929
 30
0.0
 11
504.4531311386517
 21
722.8280965609819
 31
0.0
  0
LINE
  5
7E45
330
1F
100
AcDbEntity
  8
SPOJOVACÍ
  6
Continuous
100
AcDbLine
 10
504.8317126877654
 20
723.2057479362929
 30
0.0
 11
505.0493738238137
 21
722.8280965609819
 31
0.0
  0
LINE
  5
7E46
330
1F
100
AcDbEntity
  8
SPOJOVACÍ
  6
Continuous
100
AcDbLine
 10
504.8317126877654
 20
723.2057479362929
 30
0.0
 11
506.0316394642277
 21
718.4060408304439
 31
0.0
  0
LINE
  5
7E47
330
1F
100
AcDbEntity
  8
SPOJOVACÍ
  6
Continuous
100
AcDbLine
 10
501.3333215196898
 20
722.8280965609819
 30
0.0
 11
502.693238533232
 21
718.7836922013893
 31
0.0
  0
LINE
  5
7E48
330
1F
100
AcDbEntity
  8
SPOJOVACÍ
  6
Continuous
100
AcDbLine
 10
501.9295642048373
 20
722.8280965609819
 30
0.0
 11
503.2894812181175
 21
718.7836922013893
 31
0.0
  0
LINE
  5
7E49
330
1F
100
AcDbEntity
  8
SPOJOVACÍ
  6
Continuous
100
AcDbLine
 10
502.9108996692802
 20
718.4060408304439
 30
0.0
 11
502.693238533232
 21
718.7836922013893
 31
0.0
  0
LINE
  5
7E4A
330
1F
100
AcDbEntity
  8
SPOJOVACÍ
  6
Continuous
100
AcDbLine
 10
502.9108996692802
 20
718.4060408304439
 30
0.0
 11
503.2894812181175
 21
718.7836922013893
 31
0.0
  0
LINE
  5
7E4B
330
1F
100
AcDbEntity
  8
SPOJOVACÍ
  6
Continuous
100
AcDbLine
 10
501.710972892818
 20
723.2057479362929
 30
0.0
 11
501.3333215196898
 21
722.8280965609819
 31
0.0
  0
LINE
  5
7E4C
330
1F
100
AcDbEntity
  8
SPOJOVACÍ
  6
Continuous
100
AcDbLine
 10
501.710972892818
 20
723.2057479362929
 30
0.0
 11
501.9295642048373
 21
722.8280965609819
 31
0.0
  0
LINE
  5
7E4D
330
1F
100
AcDbEntity
  8
SPOJOVACÍ
  6
Continuous
100
AcDbLine
 10
501.710972892818
 20
723.2057479362929
 30
0.0
 11
502.9108996692802
 21
718.4060408304439
 31
0.0
  0
LINE
  5
7E4E
330
1F
100
AcDbEntity
  8
SPOJOVACÍ
  6
Continuous
100
AcDbLine
 10
513.9372035526894
 20
721.8225765252945
 30
0.0
 11
514.2478822684633
 21
719.6682893838378
 31
0.0
  0
LINE
  5
7E4F
330
1F
100
AcDbEntity
  8
SPOJOVACÍ
  6
Continuous
100
AcDbLine
 10
513.5595521795612
 20
721.4449251543491
 30
0.0
 11
514.0302211321531
 21
720.0459407547832
 31
0.0
  0
LINE
  5
7E50
330
1F
100
AcDbEntity
  8
SPOJOVACÍ
  6
Continuous
100
AcDbLine
 10
514.1557948647086
 20
721.4449251543491
 30
0.0
 11
514.6264638173006
 21
720.0459407547832
 31
0.0
  0
LINE
  5
7E51
330
1F
100
AcDbEntity
  8
SPOJOVACÍ
  6
Continuous
100
AcDbLine
 10
514.2478822684633
 20
719.6682893838378
 30
0.0
 11
514.0302211321531
 21
720.0459407547832
 31
0.0
  0
LINE
  5
7E52
330
1F
100
AcDbEntity
  8
SPOJOVACÍ
  6
Continuous
100
AcDbLine
 10
514.2478822684633
 20
719.6682893838378
 30
0.0
 11
514.6264638173006
 21
720.0459407547832
 31
0.0
  0
LINE
  5
7E53
330
1F
100
AcDbEntity
  8
SPOJOVACÍ
  6
Continuous
100
AcDbLine
 10
513.9372035526894
 20
721.8225765252945
 30
0.0
 11
513.5595521795612
 21
721.4449251543491
 31
0.0
  0
LINE
  5
7E54
330
1F
100
AcDbEntity
  8
SPOJOVACÍ
  6
Continuous
100
AcDbLine
 10
513.9372035526894
 20
721.8225765252945
 30
0.0
 11
514.1557948647086
 21
721.4449251543491
 31
0.0
  0
LINE
  5
7E55
330
1F
100
AcDbEntity
  8
SPOJOVACÍ
  6
Continuous
100
AcDbLine
 10
510.9234339743697
 20
722.387193235766
 30
0.0
 11
511.5568836911397
 21
719.2711043193348
 31
0.0
  0
LINE
  5
7E56
330
1F
100
AcDbEntity
  8
SPOJOVACÍ
  6
Continuous
100
AcDbLine
 10
510.5448524252706
 20
722.009541860455
 30
0.0
 11
511.3392225550914
 21
719.6487556902802
 31
0.0
  0
LINE
  5
7E57
330
1F
100
AcDbEntity
  8
SPOJOVACÍ
  6
Continuous
100
AcDbLine
 10
511.141095110418
 20
722.009541860455
 30
0.0
 11
511.935465239977
 21
719.6487556902802
 31
0.0
  0
LINE
  5
7E58
330
1F
100
AcDbEntity
  8
SPOJOVACÍ
  6
Continuous
100
AcDbLine
 10
511.5568836911397
 20
719.2711043193348
 30
0.0
 11
511.3392225550914
 21
719.6487556902802
 31
0.0
  0
LINE
  5
7E59
330
1F
100
AcDbEntity
  8
SPOJOVACÍ
  6
Continuous
100
AcDbLine
 10
511.5568836911397
 20
719.2711043193348
 30
0.0
 11
511.935465239977
 21
719.6487556902802
 31
0.0
  0
LINE
  5
7E5A
330
1F
100
AcDbEntity
  8
SPOJOVACÍ
  6
Continuous
100
AcDbLine
 10
510.9234339743697
 20
722.387193235766
 30
0.0
 11
510.5448524252706
 21
722.009541860455
 31
0.0
  0
LINE
  5
7E5B
330
1F
100
AcDbEntity
  8
SPOJOVACÍ
  6
Continuous
100
AcDbLine
 10
510.9234339743697
 20
722.387193235766
 30
0.0
 11
511.141095110418
 21
722.009541860455
 31
0.0
  0
LINE
  5
7E5C
330
1F
100
AcDbEntity
  8
SPOJOVACÍ
  6
Continuous
100
AcDbLine
 10
507.9087342200791
 20
722.9518099418719
 30
0.0
 11
508.8816981023837
 21
718.8264802891289
 31
0.0
  0
LINE
  5
7E5D
330
1F
100
AcDbEntity
  8
SPOJOVACÍ
  6
Continuous
100
AcDbLine
 10
507.5310828469509
 20
722.5732283935876
 30
0.0
 11
508.6640369663355
 21
719.2041316600743
 31
0.0
  0
LINE
  5
7E5E
330
1F
100
AcDbEntity
  8
SPOJOVACÍ
  6
Continuous
100
AcDbLine
 10
508.1273255320984
 20
722.5732283935876
 30
0.0
 11
509.2602796514829
 21
719.2041316600743
 31
0.0
  0
LINE
  5
7E5F
330
1F
100
AcDbEntity
  8
SPOJOVACÍ
  6
Continuous
100
AcDbLine
 10
508.8816981023837
 20
718.8264802891289
 30
0.0
 11
508.6640369663355
 21
719.2041316600743
 31
0.0
  0
LINE
  5
7E60
330
1F
100
AcDbEntity
  8
SPOJOVACÍ
  6
Continuous
100
AcDbLine
 10
508.8816981023837
 20
718.8264802891289
 30
0.0
 11
509.2602796514829
 21
719.2041316600743
 31
0.0
  0
LINE
  5
7E61
330
1F
100
AcDbEntity
  8
SPOJOVACÍ
  6
Continuous
100
AcDbLine
 10
507.9087342200791
 20
722.9518099418719
 30
0.0
 11
507.5310828469509
 21
722.5732283935876
 31
0.0
  0
LINE
  5
7E62
330
1F
100
AcDbEntity
  8
SPOJOVACÍ
  6
Continuous
100
AcDbLine
 10
507.9087342200791
 20
722.9518099418719
 30
0.0
 11
508.1273255320984
 21
722.5732283935876
 31
0.0
  0
LINE
  5
7E63
330
1F
100
AcDbEntity
  8
SPOJOVACÍ
  6
Continuous
100
AcDbLine
 10
508.4873035649788
 20
719.7017757112853
 30
0.0
 11
506.5162610536926
 21
719.4562092998175
 31
0.0
  0
LINE
  5
7E64
330
1F
100
AcDbEntity
  8
SPOJOVACÍ
  6
Continuous
100
AcDbLine
 10
511.1941151308847
 20
720.0403597038466
 30
0.0
 11
509.0575013280313
 21
719.773399248509
 31
0.0
  0
LINE
  5
7E65
330
1F
100
AcDbEntity
  8
SPOJOVACÍ
  6
Continuous
100
AcDbLine
 10
513.9111586303179
 20
720.3798738650156
 30
0.0
 11
511.7661732453261
 21
720.1119832367048
 31
0.0
  0
LINE
  5
7E66
330
1F
100
AcDbEntity
  8
SPOJOVACÍ
  6
Continuous
100
AcDbLine
 10
514.227418400841
 20
721.191917337267
 30
0.0
 11
517.3165322186532
 21
720.8058943833684
 31
0.0
  0
LINE
  5
7E67
330
1F
100
AcDbEntity
  8
SPOJOVACÍ
  6
Continuous
100
AcDbLine
 10
511.2862025346394
 20
721.559336774947
 30
0.0
 11
513.6069911449876
 21
721.269121929793
 31
0.0
  0
LINE
  5
7E68
330
1F
100
AcDbEntity
  8
SPOJOVACÍ
  6
Continuous
100
AcDbLine
 10
508.3338245589102
 20
721.9286165673047
 30
0.0
 11
510.6555433449675
 21
721.6384017177851
 31
0.0
  0
LINE
  5
7E69
330
1F
100
AcDbEntity
  8
SPOJOVACÍ
  6
Continuous
100
AcDbLine
 10
517.3165322186532
 20
720.8058943833684
 30
0.0
 11
514.4804262173847
 21
720.4514974022394
 31
0.0
  0
LINE
  5
7E6A
330
1F
100
AcDbEntity
  8
SPOJOVACÍ
  6
Continuous
100
AcDbLine
 10
506.5162610536926
 20
722.1555794625537
 30
0.0
 11
507.7133973030568
 21
722.0058211598306
 31
0.0
  0
LINE
  5
7E6B
330
1F
100
AcDbEntity
  8
SPOJOVACÍ
  6
Continuous
100
AcDbLine
 10
506.1795374158091
 20
719.4562092998175
 30
0.0
 11
506.5162610536926
 21
719.4562092998175
 31
0.0
  0
LINE
  5
7E6C
330
1F
100
AcDbEntity
  8
SPOJOVACÍ
  6
Continuous
100
AcDbLine
 10
503.0569372691961
 20
719.4562092998175
 30
0.0
 11
505.5758533242324
 21
719.4562092998175
 31
0.0
  0
LINE
  5
7E6D
330
1F
100
AcDbEntity
  8
SPOJOVACÍ
  6
Continuous
100
AcDbLine
 10
505.268895311804
 20
722.1555794625537
 30
0.0
 11
506.5162610536926
 21
722.1555794625537
 31
0.0
  0
LINE
  5
7E6E
330
1F
100
AcDbEntity
  8
SPOJOVACÍ
  6
Continuous
100
AcDbLine
 10
502.1546667473294
 20
722.1555794625537
 30
0.0
 11
504.6726526266565
 21
722.1555794625537
 31
0.0
  0
LINE
  5
7E6F
330
1F
100
AcDbEntity
  8
SPOJOVACÍ
  6
Continuous
100
AcDbLine
 10
499.9352672985541
 20
719.4562092998175
 30
0.0
 11
502.4560437052705
 21
719.4562092998175
 31
0.0
  0
LINE
  5
7E70
330
1F
100
AcDbEntity
  8
SPOJOVACÍ
  6
Continuous
100
AcDbLine
 10
499.0218346671745
 20
722.1555794625537
 30
0.0
 11
501.5500524800436
 21
722.1555794625537
 31
0.0
  0
LINE
  5
7E71
330
1F
100
AcDbEntity
  8
SPOJOVACÍ
  6
Continuous
100
AcDbLine
 10
895.1987432693703
 20
722.1555794625537
 30
0.0
 11
892.6705254565012
 21
722.1555794625537
 31
0.0
  0
LINE
  5
7E72
330
1F
100
AcDbEntity
  8
SPOJOVACÍ
  6
Continuous
100
AcDbLine
 10
894.2853106379834
 20
719.4562092998175
 30
0.0
 11
891.7645342312743
 21
719.4562092998175
 31
0.0
  0
LINE
  5
7E73
330
1F
100
AcDbEntity
  8
SPOJOVACÍ
  6
Continuous
100
AcDbLine
 10
892.0659111892154
 20
722.1555794625537
 30
0.0
 11
889.5479253098883
 21
722.1555794625537
 31
0.0
  0
LINE
  5
7E74
330
1F
100
AcDbEntity
  8
SPOJOVACÍ
  6
Continuous
100
AcDbLine
 10
888.9516826247335
 20
722.1555794625537
 30
0.0
 11
887.704316882845
 21
722.1555794625537
 31
0.0
  0
LINE
  5
7E75
330
1F
100
AcDbEntity
  8
SPOJOVACÍ
  6
Continuous
100
AcDbLine
 10
891.1636406673414
 20
719.4562092998175
 30
0.0
 11
888.6447246123125
 21
719.4562092998175
 31
0.0
  0
LINE
  5
7E76
330
1F
100
AcDbEntity
  8
SPOJOVACÍ
  6
Continuous
100
AcDbLine
 10
888.0410405207285
 20
719.4562092998175
 30
0.0
 11
887.704316882845
 21
719.4562092998175
 31
0.0
  0
LINE
  5
7E77
330
1F
100
AcDbEntity
  8
SPOJOVACÍ
  6
Continuous
100
AcDbLine
 10
887.704316882845
 20
722.1555794625537
 30
0.0
 11
886.5071806334881
 21
722.0058211598306
 31
0.0
  0
LINE
  5
7E78
330
1F
100
AcDbEntity
  8
SPOJOVACÍ
  6
Continuous
100
AcDbLine
 10
876.9040457178917
 20
720.8058943833684
 30
0.0
 11
879.7401517191602
 21
720.4514974022394
 31
0.0
  0
LINE
  5
7E79
330
1F
100
AcDbEntity
  8
SPOJOVACÍ
  6
Continuous
100
AcDbLine
 10
885.8867533776347
 20
721.9286165673047
 30
0.0
 11
883.56503459157
 21
721.6384017177851
 31
0.0
  0
LINE
  5
7E7A
330
1F
100
AcDbEntity
  8
SPOJOVACÍ
  6
Continuous
100
AcDbLine
 10
882.9343754019054
 20
721.559336774947
 30
0.0
 11
880.61358679155
 21
721.269121929793
 31
0.0
  0
LINE
  5
7E7B
330
1F
100
AcDbEntity
  8
SPOJOVACÍ
  6
Continuous
100
AcDbLine
 10
879.9931595356966
 20
721.191917337267
 30
0.0
 11
876.9040457178917
 21
720.8058943833684
 31
0.0
  0
LINE
  5
7E7C
330
1F
100
AcDbEntity
  8
SPOJOVACÍ
  6
Continuous
100
AcDbLine
 10
880.3094193062269
 20
720.3798738650156
 30
0.0
 11
882.4544046912114
 21
720.1119832367048
 31
0.0
  0
LINE
  5
7E7D
330
1F
100
AcDbEntity
  8
SPOJOVACÍ
  6
Continuous
100
AcDbLine
 10
883.0264628056601
 20
720.0403597038466
 30
0.0
 11
885.1630766085136
 21
719.773399248509
 31
0.0
  0
LINE
  5
7E7E
330
1F
100
AcDbEntity
  8
SPOJOVACÍ
  6
Continuous
100
AcDbLine
 10
885.7332743715588
 20
719.7017757112853
 30
0.0
 11
887.704316882845
 21
719.4562092998175
 31
0.0
  0
LINE
  5
7E7F
330
1F
100
AcDbEntity
  8
SPOJOVACÍ
  6
Continuous
100
AcDbLine
 10
886.3118437164658
 20
722.9518099418719
 30
0.0
 11
886.0932524044391
 21
722.5732283935876
 31
0.0
  0
LINE
  5
7E80
330
1F
100
AcDbEntity
  8
SPOJOVACÍ
  6
Continuous
100
AcDbLine
 10
886.3118437164658
 20
722.9518099418719
 30
0.0
 11
886.689495089594
 21
722.5732283935876
 31
0.0
  0
LINE
  5
7E81
330
1F
100
AcDbEntity
  8
SPOJOVACÍ
  6
Continuous
100
AcDbLine
 10
885.3388798341612
 20
718.8264802891289
 30
0.0
 11
884.9602982850546
 21
719.2041316600743
 31
0.0
  0
LINE
  5
7E82
330
1F
100
AcDbEntity
  8
SPOJOVACÍ
  6
Continuous
100
AcDbLine
 10
885.3388798341612
 20
718.8264802891289
 30
0.0
 11
885.5565409702094
 21
719.2041316600743
 31
0.0
  0
LINE
  5
7E83
330
1F
100
AcDbEntity
  8
SPOJOVACÍ
  6
Continuous
100
AcDbLine
 10
886.0932524044391
 20
722.5732283935876
 30
0.0
 11
884.9602982850546
 21
719.2041316600743
 31
0.0
  0
LINE
  5
7E84
330
1F
100
AcDbEntity
  8
SPOJOVACÍ
  6
Continuous
100
AcDbLine
 10
886.689495089594
 20
722.5732283935876
 30
0.0
 11
885.5565409702094
 21
719.2041316600743
 31
0.0
  0
LINE
  5
7E85
330
1F
100
AcDbEntity
  8
SPOJOVACÍ
  6
Continuous
100
AcDbLine
 10
886.3118437164658
 20
722.9518099418719
 30
0.0
 11
885.3388798341612
 21
718.8264802891289
 31
0.0
  0
LINE
  5
7E86
330
1F
100
AcDbEntity
  8
SPOJOVACÍ
  6
Continuous
100
AcDbLine
 10
883.2971439621678
 20
722.387193235766
 30
0.0
 11
883.0794828261195
 21
722.009541860455
 31
0.0
  0
LINE
  5
7E87
330
1F
100
AcDbEntity
  8
SPOJOVACÍ
  6
Continuous
100
AcDbLine
 10
883.2971439621678
 20
722.387193235766
 30
0.0
 11
883.6757255112743
 21
722.009541860455
 31
0.0
  0
LINE
  5
7E88
330
1F
100
AcDbEntity
  8
SPOJOVACÍ
  6
Continuous
100
AcDbLine
 10
882.6636942453978
 20
719.2711043193348
 30
0.0
 11
882.2851126965678
 21
719.6487556902802
 31
0.0
  0
LINE
  5
7E89
330
1F
100
AcDbEntity
  8
SPOJOVACÍ
  6
Continuous
100
AcDbLine
 10
882.6636942453978
 20
719.2711043193348
 30
0.0
 11
882.8813553814461
 21
719.6487556902802
 31
0.0
  0
LINE
  5
7E8A
330
1F
100
AcDbEntity
  8
SPOJOVACÍ
  6
Continuous
100
AcDbLine
 10
883.0794828261195
 20
722.009541860455
 30
0.0
 11
882.2851126965678
 21
719.6487556902802
 31
0.0
  0
LINE
  5
7E8B
330
1F
100
AcDbEntity
  8
SPOJOVACÍ
  6
Continuous
100
AcDbLine
 10
883.6757255112743
 20
722.009541860455
 30
0.0
 11
882.8813553814461
 21
719.6487556902802
 31
0.0
  0
LINE
  5
7E8C
330
1F
100
AcDbEntity
  8
SPOJOVACÍ
  6
Continuous
100
AcDbLine
 10
883.2971439621678
 20
722.387193235766
 30
0.0
 11
882.6636942453978
 21
719.2711043193348
 31
0.0
  0
LINE
  5
7E8D
330
1F
100
AcDbEntity
  8
SPOJOVACÍ
  6
Continuous
100
AcDbLine
 10
880.2833743838482
 20
721.8225765252945
 30
0.0
 11
880.064783071829
 21
721.4449251543491
 31
0.0
  0
LINE
  5
7E8E
330
1F
100
AcDbEntity
  8
SPOJOVACÍ
  6
Continuous
100
AcDbLine
 10
880.2833743838482
 20
721.8225765252945
 30
0.0
 11
880.6610257569763
 21
721.4449251543491
 31
0.0
  0
LINE
  5
7E8F
330
1F
100
AcDbEntity
  8
SPOJOVACÍ
  6
Continuous
100
AcDbLine
 10
879.9726956680743
 20
719.6682893838378
 30
0.0
 11
879.5941141192443
 21
720.0459407547832
 31
0.0
  0
LINE
  5
7E90
330
1F
100
AcDbEntity
  8
SPOJOVACÍ
  6
Continuous
100
AcDbLine
 10
879.9726956680743
 20
719.6682893838378
 30
0.0
 11
880.1903568043917
 21
720.0459407547832
 31
0.0
  0
LINE
  5
7E91
330
1F
100
AcDbEntity
  8
SPOJOVACÍ
  6
Continuous
100
AcDbLine
 10
880.064783071829
 20
721.4449251543491
 30
0.0
 11
879.5941141192443
 21
720.0459407547832
 31
0.0
  0
LINE
  5
7E92
330
1F
100
AcDbEntity
  8
SPOJOVACÍ
  6
Continuous
100
AcDbLine
 10
880.6610257569763
 20
721.4449251543491
 30
0.0
 11
880.1903568043917
 21
720.0459407547832
 31
0.0
  0
LINE
  5
7E93
330
1F
100
AcDbEntity
  8
SPOJOVACÍ
  6
Continuous
100
AcDbLine
 10
880.2833743838482
 20
721.8225765252945
 30
0.0
 11
879.9726956680743
 21
719.6682893838378
 31
0.0
  0
LINE
  5
7E94
330
1F
100
AcDbEntity
  8
SPOJOVACÍ
  6
Continuous
100
AcDbLine
 10
892.5096050437195
 20
723.2057479362929
 30
0.0
 11
891.3096782672573
 21
718.4060408304439
 31
0.0
  0
LINE
  5
7E95
330
1F
100
AcDbEntity
  8
SPOJOVACÍ
  6
Continuous
100
AcDbLine
 10
892.5096050437195
 20
723.2057479362929
 30
0.0
 11
892.2910137317003
 21
722.8280965609819
 31
0.0
  0
LINE
  5
7E96
330
1F
100
AcDbEntity
  8
SPOJOVACÍ
  6
Continuous
100
AcDbLine
 10
892.5096050437195
 20
723.2057479362929
 30
0.0
 11
892.8872564168477
 21
722.8280965609819
 31
0.0
  0
LINE
  5
7E97
330
1F
100
AcDbEntity
  8
SPOJOVACÍ
  6
Continuous
100
AcDbLine
 10
891.3096782672573
 20
718.4060408304439
 30
0.0
 11
890.9310967184273
 21
718.7836922013893
 31
0.0
  0
LINE
  5
7E98
330
1F
100
AcDbEntity
  8
SPOJOVACÍ
  6
Continuous
100
AcDbLine
 10
891.3096782672573
 20
718.4060408304439
 30
0.0
 11
891.5273394033055
 21
718.7836922013893
 31
0.0
  0
LINE
  5
7E99
330
1F
100
AcDbEntity
  8
SPOJOVACÍ
  6
Continuous
100
AcDbLine
 10
892.2910137317003
 20
722.8280965609819
 30
0.0
 11
890.9310967184273
 21
718.7836922013893
 31
0.0
  0
LINE
  5
7E9A
330
1F
100
AcDbEntity
  8
SPOJOVACÍ
  6
Continuous
100
AcDbLine
 10
892.8872564168477
 20
722.8280965609819
 30
0.0
 11
891.5273394033055
 21
718.7836922013893
 31
0.0
  0
LINE
  5
7E9B
330
1F
100
AcDbEntity
  8
SPOJOVACÍ
  6
Continuous
100
AcDbLine
 10
889.3888652487794
 20
723.2057479362929
 30
0.0
 11
888.1889384723171
 21
718.4060408304439
 31
0.0
  0
LINE
  5
7E9C
330
1F
100
AcDbEntity
  8
SPOJOVACÍ
  6
Continuous
100
AcDbLine
 10
889.3888652487794
 20
723.2057479362929
 30
0.0
 11
889.1712041127311
 21
722.8280965609819
 31
0.0
  0
LINE
  5
7E9D
330
1F
100
AcDbEntity
  8
SPOJOVACÍ
  6
Continuous
100
AcDbLine
 10
889.3888652487794
 20
723.2057479362929
 30
0.0
 11
889.7674467978859
 21
722.8280965609819
 31
0.0
  0
LINE
  5
7E9E
330
1F
100
AcDbEntity
  8
SPOJOVACÍ
  6
Continuous
100
AcDbLine
 10
888.1889384723171
 20
718.4060408304439
 30
0.0
 11
887.8112870991889
 21
718.7836922013893
 31
0.0
  0
LINE
  5
7E9F
330
1F
100
AcDbEntity
  8
SPOJOVACÍ
  6
Continuous
100
AcDbLine
 10
888.1889384723171
 20
718.4060408304439
 30
0.0
 11
888.4075297843438
 21
718.7836922013893
 31
0.0
  0
LINE
  5
7EA0
330
1F
100
AcDbEntity
  8
SPOJOVACÍ
  6
Continuous
100
AcDbLine
 10
889.1712041127311
 20
722.8280965609819
 30
0.0
 11
887.8112870991889
 21
718.7836922013893
 31
0.0
  0
LINE
  5
7EA1
330
1F
100
AcDbEntity
  8
SPOJOVACÍ
  6
Continuous
100
AcDbLine
 10
889.7674467978859
 20
722.8280965609819
 30
0.0
 11
888.4075297843438
 21
718.7836922013893
 31
0.0
  0
LINE
  5
7EA2
102
{ACAD_REACTORS
330
7C6F
102
}
330
1F
100
AcDbEntity
  8
SPOJOVACÍ
  6
Continuous
100
AcDbLine
 10
909.0072029578868
 20
718.6162605597864
 30
0.0
 11
910.5316272675546
 21
717.4065864153098
 31
0.0
  0
LINE
  5
7EA3
102
{ACAD_REACTORS
330
7C6F
102
}
330
1F
100
AcDbEntity
  8
SPOJOVACÍ
  6
Continuous
100
AcDbLine
 10
907.5933357481835
 20
719.2292464089341
 30
0.0
 11
909.0072029578868
 21
718.6162605597864
 31
0.0
  0
LINE
  5
7EA4
102
{ACAD_REACTORS
330
7C6F
102
}
330
1F
100
AcDbEntity
  8
SPOJOVACÍ
  6
Continuous
100
AcDbLine
 10
906.0697077947542
 20
719.4562092998175
 30
0.0
 11
907.5933357481835
 21
719.2292464089341
 31
0.0
  0
LINE
  5
7EA5
102
{ACAD_REACTORS
330
7C6F
102
}
330
1F
100
AcDbEntity
  8
SPOJOVACÍ
  6
Continuous
100
AcDbLine
 10
912.6693050658422
 20
725.9060482720023
 30
0.0
 11
911.4693782891109
 21
725.9060482720023
 31
0.0
  0
LINE
  5
7EA6
102
{ACAD_REACTORS
330
7C6F
102
}
330
1F
100
AcDbEntity
  8
SPOJOVACÍ
  6
Continuous
100
AcDbLine
 10
906.8566365178767
 20
722.2216219444753
 30
0.0
 11
906.0697077947542
 21
722.1555794625537
 31
0.0
  0
LINE
  5
7EA7
102
{ACAD_REACTORS
330
7C6F
102
}
330
1F
100
AcDbEntity
  8
SPOJOVACÍ
  6
Continuous
100
AcDbLine
 10
908.3374763849269
 20
722.6495028087747
 30
0.0
 11
906.8566365178767
 21
722.2216219444753
 31
0.0
  0
LINE
  5
7EA8
102
{ACAD_REACTORS
330
7C6F
102
}
330
1F
100
AcDbEntity
  8
SPOJOVACÍ
  6
Continuous
100
AcDbLine
 10
909.6564656632244
 20
723.4457332880928
 30
0.0
 11
908.3374763849269
 21
722.6495028087747
 31
0.0
  0
LINE
  5
7EA9
102
{ACAD_REACTORS
330
7C6F
102
}
330
1F
100
AcDbEntity
  8
SPOJOVACÍ
  6
Continuous
100
AcDbLine
 10
910.7252376526366
 20
724.5563631884515
 30
0.0
 11
909.6564656632244
 21
723.4457332880928
 31
0.0
  0
LINE
  5
7EAA
102
{ACAD_REACTORS
330
7C6F
102
}
330
1F
100
AcDbEntity
  8
SPOJOVACÍ
  6
Continuous
100
AcDbLine
 10
911.4693782891109
 20
725.9060482720023
 30
0.0
 11
910.7252376526366
 21
724.5563631884515
 31
0.0
  0
LINE
  5
7EAB
102
{ACAD_REACTORS
330
7C6F
102
}
330
1F
100
AcDbEntity
  8
SPOJOVACÍ
  6
Continuous
100
AcDbLine
 10
906.0697077947542
 20
719.4562092998175
 30
0.0
 11
901.1267536158257
 21
719.4562092998175
 31
0.0
  0
LINE
  5
7EAC
102
{ACAD_REACTORS
330
7C6F
102
}
330
1F
100
AcDbEntity
  8
SPOJOVACÍ
  6
Continuous
100
AcDbLine
 10
906.0697077947542
 20
722.1555794625537
 30
0.0
 11
902.0318146650742
 21
722.1555794625537
 31
0.0
  0
LINE
  5
7EAD
102
{ACAD_REACTORS
330
7C6F
102
}
330
1F
100
AcDbEntity
  8
SPOJOVACÍ
  6
Continuous
100
AcDbLine
 10
901.4365021558978
 20
722.1555794625537
 30
0.0
 11
898.9175861008689
 21
722.1555794625537
 31
0.0
  0
LINE
  5
7EAE
330
1F
100
AcDbEntity
  8
SPOJOVACÍ
  6
Continuous
100
AcDbLine
 10
898.313902009554
 20
722.1555794625537
 30
0.0
 11
895.793125602845
 21
722.1555794625537
 31
0.0
  0
LINE
  5
7EAF
102
{ACAD_REACTORS
330
7C6F
102
}
330
1F
100
AcDbEntity
  8
SPOJOVACÍ
  6
Continuous
100
AcDbLine
 10
900.5230695245108
 20
719.4562092998175
 30
0.0
 11
898.0041534694819
 21
719.4562092998175
 31
0.0
  0
LINE
  5
7EB0
330
1F
100
AcDbEntity
  8
SPOJOVACÍ
  6
Continuous
100
AcDbLine
 10
897.4079107843271
 20
719.4562092998175
 30
0.0
 11
894.879692971458
 21
719.4562092998175
 31
0.0
  0
LINE
  5
7EB1
330
1F
100
AcDbEntity
  8
SPOJOVACÍ
  6
Continuous
100
AcDbLine
 10
901.8690339008889
 20
723.2057479362929
 30
0.0
 11
900.6691071244267
 21
718.4060408304439
 31
0.0
  0
LINE
  5
7EB2
102
{ACAD_REACTORS
330
7C6F
102
}
330
1F
100
AcDbEntity
  8
SPOJOVACÍ
  6
Continuous
100
AcDbLine
 10
901.8690339008889
 20
723.2057479362929
 30
0.0
 11
901.6513727648407
 21
722.8280965609819
 31
0.0
  0
LINE
  5
7EB3
102
{ACAD_REACTORS
330
7C6F
102
}
330
1F
100
AcDbEntity
  8
SPOJOVACÍ
  6
Continuous
100
AcDbLine
 10
901.8690339008889
 20
723.2057479362929
 30
0.0
 11
902.2476154497189
 21
722.8280965609819
 31
0.0
  0
LINE
  5
7EB4
102
{ACAD_REACTORS
330
7C6F
102
}
330
1F
100
AcDbEntity
  8
SPOJOVACÍ
  6
Continuous
100
AcDbLine
 10
900.6691071244267
 20
718.4060408304439
 30
0.0
 11
900.2914557512985
 21
718.7836922013893
 31
0.0
  0
LINE
  5
7EB5
102
{ACAD_REACTORS
330
7C6F
102
}
330
1F
100
AcDbEntity
  8
SPOJOVACÍ
  6
Continuous
100
AcDbLine
 10
900.6691071244267
 20
718.4060408304439
 30
0.0
 11
900.8876984364533
 21
718.7836922013893
 31
0.0
  0
LINE
  5
7EB6
102
{ACAD_REACTORS
330
7C6F
102
}
330
1F
100
AcDbEntity
  8
SPOJOVACÍ
  6
Continuous
100
AcDbLine
 10
901.6513727648407
 20
722.8280965609819
 30
0.0
 11
900.2914557512985
 21
718.7836922013893
 31
0.0
  0
LINE
  5
7EB7
102
{ACAD_REACTORS
330
7C6F
102
}
330
1F
100
AcDbEntity
  8
SPOJOVACÍ
  6
Continuous
100
AcDbLine
 10
902.2476154497189
 20
722.8280965609819
 30
0.0
 11
900.8876984364533
 21
718.7836922013893
 31
0.0
  0
LINE
  5
7EB8
330
1F
100
AcDbEntity
  8
SPOJOVACÍ
  6
Continuous
100
AcDbLine
 10
898.7492242819271
 20
723.2057479362929
 30
0.0
 11
897.5492975051883
 21
718.4060408304439
 31
0.0
  0
LINE
  5
7EB9
330
1F
100
AcDbEntity
  8
SPOJOVACÍ
  6
Continuous
100
AcDbLine
 10
898.7492242819271
 20
723.2057479362929
 30
0.0
 11
898.5306329699005
 21
722.8280965609819
 31
0.0
  0
LINE
  5
7EBA
102
{ACAD_REACTORS
330
7C6F
102
}
330
1F
100
AcDbEntity
  8
SPOJOVACÍ
  6
Continuous
100
AcDbLine
 10
898.7492242819271
 20
723.2057479362929
 30
0.0
 11
899.1268756550553
 21
722.8280965609819
 31
0.0
  0
LINE
  5
7EBB
330
1F
100
AcDbEntity
  8
SPOJOVACÍ
  6
Continuous
100
AcDbLine
 10
897.5492975051883
 20
718.4060408304439
 30
0.0
 11
897.1716461323367
 21
718.7836922013893
 31
0.0
  0
LINE
  5
7EBC
330
1F
100
AcDbEntity
  8
SPOJOVACÍ
  6
Continuous
100
AcDbLine
 10
897.5492975051883
 20
718.4060408304439
 30
0.0
 11
897.767888817215
 21
718.7836922013893
 31
0.0
  0
LINE
  5
7EBD
330
1F
100
AcDbEntity
  8
SPOJOVACÍ
  6
Continuous
100
AcDbLine
 10
898.5306329699005
 20
722.8280965609819
 30
0.0
 11
897.1716461323367
 21
718.7836922013893
 31
0.0
  0
LINE
  5
7EBE
102
{ACAD_REACTORS
330
7C6F
102
}
330
1F
100
AcDbEntity
  8
SPOJOVACÍ
  6
Continuous
100
AcDbLine
 10
899.1268756550553
 20
722.8280965609819
 30
0.0
 11
897.767888817215
 21
718.7836922013893
 31
0.0
  0
LINE
  5
7EBF
330
1F
100
AcDbEntity
  8
SPOJOVACÍ
  6
Continuous
100
AcDbLine
 10
895.6294146626888
 20
723.2057479362929
 30
0.0
 11
894.4294878862265
 21
718.4060408304439
 31
0.0
  0
LINE
  5
7EC0
330
1F
100
AcDbEntity
  8
SPOJOVACÍ
  6
Continuous
100
AcDbLine
 10
895.6294146626888
 20
723.2057479362929
 30
0.0
 11
895.4108233506621
 21
722.8280965609819
 31
0.0
  0
LINE
  5
7EC1
330
1F
100
AcDbEntity
  8
SPOJOVACÍ
  6
Continuous
100
AcDbLine
 10
895.6294146626888
 20
723.2057479362929
 30
0.0
 11
896.0070660358169
 21
722.8280965609819
 31
0.0
  0
LINE
  5
7EC2
330
1F
100
AcDbEntity
  8
SPOJOVACÍ
  6
Continuous
100
AcDbLine
 10
894.4294878862265
 20
718.4060408304439
 30
0.0
 11
894.0509063373966
 21
718.7836922013893
 31
0.0
  0
LINE
  5
7EC3
330
1F
100
AcDbEntity
  8
SPOJOVACÍ
  6
Continuous
100
AcDbLine
 10
894.4294878862265
 20
718.4060408304439
 30
0.0
 11
894.6471490225439
 21
718.7836922013893
 31
0.0
  0
LINE
  5
7EC4
330
1F
100
AcDbEntity
  8
SPOJOVACÍ
  6
Continuous
100
AcDbLine
 10
895.4108233506621
 20
722.8280965609819
 30
0.0
 11
894.0509063373966
 21
718.7836922013893
 31
0.0
  0
LINE
  5
7EC5
330
1F
100
AcDbEntity
  8
SPOJOVACÍ
  6
Continuous
100
AcDbLine
 10
896.0070660358169
 20
722.8280965609819
 30
0.0
 11
894.6471490225439
 21
718.7836922013893
 31
0.0
  0
LINE
  5
7EC6
330
1F
100
AcDbEntity
  8
SPOJOVACÍ
  6
Continuous
100
AcDbLine
 10
911.4693782891109
 20
725.9060482720023
 30
0.0
 11
911.4693782891109
 21
715.7057404947344
 31
0.0
  0
LINE
  5
7EC7
102
{ACAD_REACTORS
330
7C6F
102
}
330
1F
100
AcDbEntity
  8
SPOJOVACÍ
  6
Continuous
100
AcDbLine
 10
912.6693050658422
 20
715.7057404947344
 30
0.0
 11
911.4693782891109
 21
715.7057404947344
 31
0.0
  0
LINE
  5
7EC8
330
1F
100
AcDbEntity
  8
SPOJOVACÍ
  6
Continuous
100
AcDbLine
 10
912.6693050658422
 20
725.9060482720023
 30
0.0
 11
912.6693050658422
 21
715.7057404947344
 31
0.0
  0
LINE
  5
7EC9
102
{ACAD_REACTORS
330
7C6F
102
}
330
1F
100
AcDbEntity
  8
SPOJOVACÍ
  6
Continuous
100
AcDbLine
 10
911.4693782891109
 20
715.7057404947344
 30
0.0
 11
910.5316272675546
 21
717.4065864153098
 31
0.0
  0
LINE
  5
7ECA
330
1F
100
AcDbEntity
  8
SPOJOVACÍ
  6
Continuous
100
AcDbLine
 10
499.0218346671745
 20
470.4748013990365
 30
0.0
 11
501.5500524800436
 21
470.4748013990365
 31
0.0
  0
LINE
  5
7ECB
330
1F
100
AcDbEntity
  8
SPOJOVACÍ
  6
Continuous
100
AcDbLine
 10
499.9352672985541
 20
473.1741715617727
 30
0.0
 11
502.4560437052705
 21
473.1741715617727
 31
0.0
  0
LINE
  5
7ECC
330
1F
100
AcDbEntity
  8
SPOJOVACÍ
  6
Continuous
100
AcDbLine
 10
502.1546667473294
 20
470.4748013990365
 30
0.0
 11
504.6726526266565
 21
470.4748013990365
 31
0.0
  0
LINE
  5
7ECD
330
1F
100
AcDbEntity
  8
SPOJOVACÍ
  6
Continuous
100
AcDbLine
 10
505.268895311804
 20
470.4748013990365
 30
0.0
 11
506.5162610536926
 21
470.4748013990365
 31
0.0
  0
LINE
  5
7ECE
330
1F
100
AcDbEntity
  8
SPOJOVACÍ
  6
Continuous
100
AcDbLine
 10
503.0569372691961
 20
473.1741715617727
 30
0.0
 11
505.5758533242324
 21
473.1741715617727
 31
0.0
  0
LINE
  5
7ECF
330
1F
100
AcDbEntity
  8
SPOJOVACÍ
  6
Continuous
100
AcDbLine
 10
506.1795374158091
 20
473.1741715617727
 30
0.0
 11
506.5162610536926
 21
473.1741715617727
 31
0.0
  0
LINE
  5
7ED0
330
1F
100
AcDbEntity
  8
SPOJOVACÍ
  6
Continuous
100
AcDbLine
 10
506.5162610536926
 20
470.4748013990365
 30
0.0
 11
507.7133973030568
 21
470.6245597017596
 31
0.0
  0
LINE
  5
7ED1
330
1F
100
AcDbEntity
  8
SPOJOVACÍ
  6
Continuous
100
AcDbLine
 10
517.3165322186532
 20
471.8244864782218
 30
0.0
 11
514.4804262173847
 21
472.1788834593508
 31
0.0
  0
LINE
  5
7ED2
330
1F
100
AcDbEntity
  8
SPOJOVACÍ
  6
Continuous
100
AcDbLine
 10
508.3338245589102
 20
470.7017642942855
 30
0.0
 11
510.6555433449675
 21
470.9919791438051
 31
0.0
  0
LINE
  5
7ED3
330
1F
100
AcDbEntity
  8
SPOJOVACÍ
  6
Continuous
100
AcDbLine
 10
511.2862025346394
 20
471.0710440866432
 30
0.0
 11
513.6069911449876
 21
471.3612589317972
 31
0.0
  0
LINE
  5
7ED4
330
1F
100
AcDbEntity
  8
SPOJOVACÍ
  6
Continuous
100
AcDbLine
 10
514.227418400841
 20
471.4384635243232
 30
0.0
 11
517.3165322186532
 21
471.8244864782218
 31
0.0
  0
LINE
  5
7ED5
330
1F
100
AcDbEntity
  8
SPOJOVACÍ
  6
Continuous
100
AcDbLine
 10
513.9111586303179
 20
472.2505069965746
 30
0.0
 11
511.7661732453261
 21
472.5183976248854
 31
0.0
  0
LINE
  5
7ED6
330
1F
100
AcDbEntity
  8
SPOJOVACÍ
  6
Continuous
100
AcDbLine
 10
511.1941151308847
 20
472.5900211577436
 30
0.0
 11
509.0575013280313
 21
472.8569816130812
 31
0.0
  0
LINE
  5
7ED7
330
1F
100
AcDbEntity
  8
SPOJOVACÍ
  6
Continuous
100
AcDbLine
 10
508.4873035649788
 20
472.9286051503049
 30
0.0
 11
506.5162610536926
 21
473.1741715617727
 31
0.0
  0
LINE
  5
7ED8
330
1F
100
AcDbEntity
  8
SPOJOVACÍ
  6
Continuous
100
AcDbLine
 10
507.9087342200791
 20
469.6785709197183
 30
0.0
 11
508.1273255320984
 21
470.0571524680026
 31
0.0
  0
LINE
  5
7ED9
330
1F
100
AcDbEntity
  8
SPOJOVACÍ
  6
Continuous
100
AcDbLine
 10
507.9087342200791
 20
469.6785709197183
 30
0.0
 11
507.5310828469509
 21
470.0571524680026
 31
0.0
  0
LINE
  5
7EDA
330
1F
100
AcDbEntity
  8
SPOJOVACÍ
  6
Continuous
100
AcDbLine
 10
508.8816981023837
 20
473.8039005724613
 30
0.0
 11
509.2602796514829
 21
473.4262492015159
 31
0.0
  0
LINE
  5
7EDB
330
1F
100
AcDbEntity
  8
SPOJOVACÍ
  6
Continuous
100
AcDbLine
 10
508.8816981023837
 20
473.8039005724613
 30
0.0
 11
508.6640369663355
 21
473.4262492015159
 31
0.0
  0
LINE
  5
7EDC
330
1F
100
AcDbEntity
  8
SPOJOVACÍ
  6
Continuous
100
AcDbLine
 10
508.1273255320984
 20
470.0571524680026
 30
0.0
 11
509.2602796514829
 21
473.4262492015159
 31
0.0
  0
LINE
  5
7EDD
330
1F
100
AcDbEntity
  8
SPOJOVACÍ
  6
Continuous
100
AcDbLine
 10
507.5310828469509
 20
470.0571524680026
 30
0.0
 11
508.6640369663355
 21
473.4262492015159
 31
0.0
  0
LINE
  5
7EDE
330
1F
100
AcDbEntity
  8
SPOJOVACÍ
  6
Continuous
100
AcDbLine
 10
507.9087342200791
 20
469.6785709197183
 30
0.0
 11
508.8816981023837
 21
473.8039005724613
 31
0.0
  0
LINE
  5
7EDF
330
1F
100
AcDbEntity
  8
SPOJOVACÍ
  6
Continuous
100
AcDbLine
 10
510.9234339743697
 20
470.2431876258242
 30
0.0
 11
511.141095110418
 21
470.6208390011352
 31
0.0
  0
LINE
  5
7EE0
330
1F
100
AcDbEntity
  8
SPOJOVACÍ
  6
Continuous
100
AcDbLine
 10
510.9234339743697
 20
470.2431876258242
 30
0.0
 11
510.5448524252706
 21
470.6208390011352
 31
0.0
  0
LINE
  5
7EE1
330
1F
100
AcDbEntity
  8
SPOJOVACÍ
  6
Continuous
100
AcDbLine
 10
511.5568836911397
 20
473.3592765422554
 30
0.0
 11
511.935465239977
 21
472.98162517131
 31
0.0
  0
LINE
  5
7EE2
330
1F
100
AcDbEntity
  8
SPOJOVACÍ
  6
Continuous
100
AcDbLine
 10
511.5568836911397
 20
473.3592765422554
 30
0.0
 11
511.3392225550914
 21
472.98162517131
 31
0.0
  0
LINE
  5
7EE3
330
1F
100
AcDbEntity
  8
SPOJOVACÍ
  6
Continuous
100
AcDbLine
 10
511.141095110418
 20
470.6208390011352
 30
0.0
 11
511.935465239977
 21
472.98162517131
 31
0.0
  0
LINE
  5
7EE4
330
1F
100
AcDbEntity
  8
SPOJOVACÍ
  6
Continuous
100
AcDbLine
 10
510.5448524252706
 20
470.6208390011352
 30
0.0
 11
511.3392225550914
 21
472.98162517131
 31
0.0
  0
LINE
  5
7EE5
330
1F
100
AcDbEntity
  8
SPOJOVACÍ
  6
Continuous
100
AcDbLine
 10
510.9234339743697
 20
470.2431876258242
 30
0.0
 11
511.5568836911397
 21
473.3592765422554
 31
0.0
  0
LINE
  5
7EE6
330
1F
100
AcDbEntity
  8
SPOJOVACÍ
  6
Continuous
100
AcDbLine
 10
513.9372035526894
 20
470.8078043362957
 30
0.0
 11
514.1557948647086
 21
471.1854557072411
 31
0.0
  0
LINE
  5
7EE7
330
1F
100
AcDbEntity
  8
SPOJOVACÍ
  6
Continuous
100
AcDbLine
 10
513.9372035526894
 20
470.8078043362957
 30
0.0
 11
513.5595521795612
 21
471.1854557072411
 31
0.0
  0
LINE
  5
7EE8
330
1F
100
AcDbEntity
  8
SPOJOVACÍ
  6
Continuous
100
AcDbLine
 10
514.2478822684633
 20
472.9620914777524
 30
0.0
 11
514.6264638173006
 21
472.584440106807
 31
0.0
  0
LINE
  5
7EE9
330
1F
100
AcDbEntity
  8
SPOJOVACÍ
  6
Continuous
100
AcDbLine
 10
514.2478822684633
 20
472.9620914777524
 30
0.0
 11
514.0302211321531
 21
472.584440106807
 31
0.0
  0
LINE
  5
7EEA
330
1F
100
AcDbEntity
  8
SPOJOVACÍ
  6
Continuous
100
AcDbLine
 10
514.1557948647086
 20
471.1854557072411
 30
0.0
 11
514.6264638173006
 21
472.584440106807
 31
0.0
  0
LINE
  5
7EEB
330
1F
100
AcDbEntity
  8
SPOJOVACÍ
  6
Continuous
100
AcDbLine
 10
513.5595521795612
 20
471.1854557072411
 30
0.0
 11
514.0302211321531
 21
472.584440106807
 31
0.0
  0
LINE
  5
7EEC
330
1F
100
AcDbEntity
  8
SPOJOVACÍ
  6
Continuous
100
AcDbLine
 10
513.9372035526894
 20
470.8078043362957
 30
0.0
 11
514.2478822684633
 21
472.9620914777524
 31
0.0
  0
LINE
  5
7EED
330
1F
100
AcDbEntity
  8
SPOJOVACÍ
  6
Continuous
100
AcDbLine
 10
501.710972892818
 20
469.4246329252973
 30
0.0
 11
502.9108996692802
 21
474.2243400311463
 31
0.0
  0
LINE
  5
7EEE
330
1F
100
AcDbEntity
  8
SPOJOVACÍ
  6
Continuous
100
AcDbLine
 10
501.710972892818
 20
469.4246329252973
 30
0.0
 11
501.9295642048373
 21
469.8022843006083
 31
0.0
  0
LINE
  5
7EEF
330
1F
100
AcDbEntity
  8
SPOJOVACÍ
  6
Continuous
100
AcDbLine
 10
501.710972892818
 20
469.4246329252973
 30
0.0
 11
501.3333215196898
 21
469.8022843006083
 31
0.0
  0
LINE
  5
7EF0
330
1F
100
AcDbEntity
  8
SPOJOVACÍ
  6
Continuous
100
AcDbLine
 10
502.9108996692802
 20
474.2243400311463
 30
0.0
 11
503.2894812181175
 21
473.8466886602009
 31
0.0
  0
LINE
  5
7EF1
330
1F
100
AcDbEntity
  8
SPOJOVACÍ
  6
Continuous
100
AcDbLine
 10
502.9108996692802
 20
474.2243400311463
 30
0.0
 11
502.693238533232
 21
473.8466886602009
 31
0.0
  0
LINE
  5
7EF2
330
1F
100
AcDbEntity
  8
SPOJOVACÍ
  6
Continuous
100
AcDbLine
 10
501.9295642048373
 20
469.8022843006083
 30
0.0
 11
503.2894812181175
 21
473.8466886602009
 31
0.0
  0
LINE
  5
7EF3
330
1F
100
AcDbEntity
  8
SPOJOVACÍ
  6
Continuous
100
AcDbLine
 10
501.3333215196898
 20
469.8022843006083
 30
0.0
 11
502.693238533232
 21
473.8466886602009
 31
0.0
  0
LINE
  5
7EF4
330
1F
100
AcDbEntity
  8
SPOJOVACÍ
  6
Continuous
100
AcDbLine
 10
504.8317126877654
 20
469.4246329252973
 30
0.0
 11
506.0316394642277
 21
474.2243400311463
 31
0.0
  0
LINE
  5
7EF5
330
1F
100
AcDbEntity
  8
SPOJOVACÍ
  6
Continuous
100
AcDbLine
 10
504.8317126877654
 20
469.4246329252973
 30
0.0
 11
505.0493738238137
 21
469.8022843006083
 31
0.0
  0
LINE
  5
7EF6
330
1F
100
AcDbEntity
  8
SPOJOVACÍ
  6
Continuous
100
AcDbLine
 10
504.8317126877654
 20
469.4246329252973
 30
0.0
 11
504.4531311386517
 21
469.8022843006083
 31
0.0
  0
LINE
  5
7EF7
330
1F
100
AcDbEntity
  8
SPOJOVACÍ
  6
Continuous
100
AcDbLine
 10
506.0316394642277
 20
474.2243400311463
 30
0.0
 11
506.4092908373559
 21
473.8466886602009
 31
0.0
  0
LINE
  5
7EF8
330
1F
100
AcDbEntity
  8
SPOJOVACÍ
  6
Continuous
100
AcDbLine
 10
506.0316394642277
 20
474.2243400311463
 30
0.0
 11
505.8130481521939
 21
473.8466886602009
 31
0.0
  0
LINE
  5
7EF9
330
1F
100
AcDbEntity
  8
SPOJOVACÍ
  6
Continuous
100
AcDbLine
 10
505.0493738238137
 20
469.8022843006083
 30
0.0
 11
506.4092908373559
 21
473.8466886602009
 31
0.0
  0
LINE
  5
7EFA
330
1F
100
AcDbEntity
  8
SPOJOVACÍ
  6
Continuous
100
AcDbLine
 10
504.4531311386517
 20
469.8022843006083
 30
0.0
 11
505.8130481521939
 21
473.8466886602009
 31
0.0
  0
LINE
  5
7EFB
102
{ACAD_REACTORS
330
7C6F
102
}
330
1F
100
AcDbEntity
  8
SPOJOVACÍ
  6
Continuous
100
AcDbLine
 10
485.213374978658
 20
474.0141203018038
 30
0.0
 11
483.6889506689904
 21
475.2237944462804
 31
0.0
  0
LINE
  5
7EFC
102
{ACAD_REACTORS
330
7C6F
102
}
330
1F
100
AcDbEntity
  8
SPOJOVACÍ
  6
Continuous
100
AcDbLine
 10
486.6272421883613
 20
473.4011344526561
 30
0.0
 11
485.213374978658
 21
474.0141203018038
 31
0.0
  0
LINE
  5
7EFD
102
{ACAD_REACTORS
330
7C6F
102
}
330
1F
100
AcDbEntity
  8
SPOJOVACÍ
  6
Continuous
100
AcDbLine
 10
488.1508701417906
 20
473.1741715617727
 30
0.0
 11
486.6272421883613
 21
473.4011344526561
 31
0.0
  0
LINE
  5
7EFE
102
{ACAD_REACTORS
330
7C6F
102
}
330
1F
100
AcDbEntity
  8
SPOJOVACÍ
  6
Continuous
100
AcDbLine
 10
481.5512728706953
 20
466.7243325895879
 30
0.0
 11
482.751199647434
 21
466.7243325895879
 31
0.0
  0
LINE
  5
7EFF
102
{ACAD_REACTORS
330
7C6F
102
}
330
1F
100
AcDbEntity
  8
SPOJOVACÍ
  6
Continuous
100
AcDbLine
 10
487.3639414186609
 20
470.4087589171149
 30
0.0
 11
488.1508701417906
 21
470.4748013990365
 31
0.0
  0
LINE
  5
7F00
102
{ACAD_REACTORS
330
7C6F
102
}
330
1F
100
AcDbEntity
  8
SPOJOVACÍ
  6
Continuous
100
AcDbLine
 10
485.8831015516179
 20
469.9808780528155
 30
0.0
 11
487.3639414186609
 21
470.4087589171149
 31
0.0
  0
LINE
  5
7F01
102
{ACAD_REACTORS
330
7C6F
102
}
330
1F
100
AcDbEntity
  8
SPOJOVACÍ
  6
Continuous
100
AcDbLine
 10
484.5641122733204
 20
469.1846475734974
 30
0.0
 11
485.8831015516179
 21
469.9808780528155
 31
0.0
  0
LINE
  5
7F02
102
{ACAD_REACTORS
330
7C6F
102
}
330
1F
100
AcDbEntity
  8
SPOJOVACÍ
  6
Continuous
100
AcDbLine
 10
483.4953402839009
 20
468.0740176731387
 30
0.0
 11
484.5641122733204
 21
469.1846475734974
 31
0.0
  0
LINE
  5
7F03
102
{ACAD_REACTORS
330
7C6F
102
}
330
1F
100
AcDbEntity
  8
SPOJOVACÍ
  6
Continuous
100
AcDbLine
 10
482.751199647434
 20
466.7243325895879
 30
0.0
 11
483.4953402839009
 21
468.0740176731387
 31
0.0
  0
LINE
  5
7F04
102
{ACAD_REACTORS
330
7C6F
102
}
330
1F
100
AcDbEntity
  8
SPOJOVACÍ
  6
Continuous
100
AcDbLine
 10
488.1508701417906
 20
473.1741715617727
 30
0.0
 11
493.0938243207192
 21
473.1741715617727
 31
0.0
  0
LINE
  5
7F05
102
{ACAD_REACTORS
330
7C6F
102
}
330
1F
100
AcDbEntity
  8
SPOJOVACÍ
  6
Continuous
100
AcDbLine
 10
488.1508701417906
 20
470.4748013990365
 30
0.0
 11
492.1887632714633
 21
470.4748013990365
 31
0.0
  0
LINE
  5
7F06
102
{ACAD_REACTORS
330
7C6F
102
}
330
1F
100
AcDbEntity
  8
SPOJOVACÍ
  6
Continuous
100
AcDbLine
 10
492.7840757806397
 20
470.4748013990365
 30
0.0
 11
495.302991835676
 21
470.4748013990365
 31
0.0
  0
LINE
  5
7F07
330
1F
100
AcDbEntity
  8
SPOJOVACÍ
  6
Continuous
100
AcDbLine
 10
495.9066759269908
 20
470.4748013990365
 30
0.0
 11
498.4274523336925
 21
470.4748013990365
 31
0.0
  0
LINE
  5
7F08
102
{ACAD_REACTORS
330
7C6F
102
}
330
1F
100
AcDbEntity
  8
SPOJOVACÍ
  6
Continuous
100
AcDbLine
 10
493.697508412034
 20
473.1741715617727
 30
0.0
 11
496.2164244670557
 21
473.1741715617727
 31
0.0
  0
LINE
  5
7F09
330
1F
100
AcDbEntity
  8
SPOJOVACÍ
  6
Continuous
100
AcDbLine
 10
496.8126671522177
 20
473.1741715617727
 30
0.0
 11
499.3408849650868
 21
473.1741715617727
 31
0.0
  0
LINE
  5
7F0A
330
1F
100
AcDbEntity
  8
SPOJOVACÍ
  6
Continuous
100
AcDbLine
 10
492.3515440356559
 20
469.4246329252973
 30
0.0
 11
493.5514708121181
 21
474.2243400311463
 31
0.0
  0
LINE
  5
7F0B
102
{ACAD_REACTORS
330
7C6F
102
}
330
1F
100
AcDbEntity
  8
SPOJOVACÍ
  6
Continuous
100
AcDbLine
 10
492.3515440356559
 20
469.4246329252973
 30
0.0
 11
492.5692051717041
 21
469.8022843006083
 31
0.0
  0
LINE
  5
7F0C
102
{ACAD_REACTORS
330
7C6F
102
}
330
1F
100
AcDbEntity
  8
SPOJOVACÍ
  6
Continuous
100
AcDbLine
 10
492.3515440356559
 20
469.4246329252973
 30
0.0
 11
491.9729624868186
 21
469.8022843006083
 31
0.0
  0
LINE
  5
7F0D
102
{ACAD_REACTORS
330
7C6F
102
}
330
1F
100
AcDbEntity
  8
SPOJOVACÍ
  6
Continuous
100
AcDbLine
 10
493.5514708121181
 20
474.2243400311463
 30
0.0
 11
493.9291221852463
 21
473.8466886602009
 31
0.0
  0
LINE
  5
7F0E
102
{ACAD_REACTORS
330
7C6F
102
}
330
1F
100
AcDbEntity
  8
SPOJOVACÍ
  6
Continuous
100
AcDbLine
 10
493.5514708121181
 20
474.2243400311463
 30
0.0
 11
493.3328795000843
 21
473.8466886602009
 31
0.0
  0
LINE
  5
7F0F
102
{ACAD_REACTORS
330
7C6F
102
}
330
1F
100
AcDbEntity
  8
SPOJOVACÍ
  6
Continuous
100
AcDbLine
 10
492.5692051717041
 20
469.8022843006083
 30
0.0
 11
493.9291221852463
 21
473.8466886602009
 31
0.0
  0
LINE
  5
7F10
102
{ACAD_REACTORS
330
7C6F
102
}
330
1F
100
AcDbEntity
  8
SPOJOVACÍ
  6
Continuous
100
AcDbLine
 10
491.9729624868186
 20
469.8022843006083
 30
0.0
 11
493.3328795000843
 21
473.8466886602009
 31
0.0
  0
LINE
  5
7F11
330
1F
100
AcDbEntity
  8
SPOJOVACÍ
  6
Continuous
100
AcDbLine
 10
495.4713536546178
 20
469.4246329252973
 30
0.0
 11
496.6712804313565
 21
474.2243400311463
 31
0.0
  0
LINE
  5
7F12
330
1F
100
AcDbEntity
  8
SPOJOVACÍ
  6
Continuous
100
AcDbLine
 10
495.4713536546178
 20
469.4246329252973
 30
0.0
 11
495.689944966637
 21
469.8022843006083
 31
0.0
  0
LINE
  5
7F13
102
{ACAD_REACTORS
330
7C6F
102
}
330
1F
100
AcDbEntity
  8
SPOJOVACÍ
  6
Continuous
100
AcDbLine
 10
495.4713536546178
 20
469.4246329252973
 30
0.0
 11
495.0937022814896
 21
469.8022843006083
 31
0.0
  0
LINE
  5
7F14
330
1F
100
AcDbEntity
  8
SPOJOVACÍ
  6
Continuous
100
AcDbLine
 10
496.6712804313565
 20
474.2243400311463
 30
0.0
 11
497.0489318042082
 21
473.8466886602009
 31
0.0
  0
LINE
  5
7F15
330
1F
100
AcDbEntity
  8
SPOJOVACÍ
  6
Continuous
100
AcDbLine
 10
496.6712804313565
 20
474.2243400311463
 30
0.0
 11
496.4526891193226
 21
473.8466886602009
 31
0.0
  0
LINE
  5
7F16
330
1F
100
AcDbEntity
  8
SPOJOVACÍ
  6
Continuous
100
AcDbLine
 10
495.689944966637
 20
469.8022843006083
 30
0.0
 11
497.0489318042082
 21
473.8466886602009
 31
0.0
  0
LINE
  5
7F17
102
{ACAD_REACTORS
330
7C6F
102
}
330
1F
100
AcDbEntity
  8
SPOJOVACÍ
  6
Continuous
100
AcDbLine
 10
495.0937022814896
 20
469.8022843006083
 30
0.0
 11
496.4526891193226
 21
473.8466886602009
 31
0.0
  0
LINE
  5
7F18
330
1F
100
AcDbEntity
  8
SPOJOVACÍ
  6
Continuous
100
AcDbLine
 10
498.5911632738561
 20
469.4246329252973
 30
0.0
 11
499.7910900503184
 21
474.2243400311463
 31
0.0
  0
LINE
  5
7F19
330
1F
100
AcDbEntity
  8
SPOJOVACÍ
  6
Continuous
100
AcDbLine
 10
498.5911632738561
 20
469.4246329252973
 30
0.0
 11
498.8097545858754
 21
469.8022843006083
 31
0.0
  0
LINE
  5
7F1A
330
1F
100
AcDbEntity
  8
SPOJOVACÍ
  6
Continuous
100
AcDbLine
 10
498.5911632738561
 20
469.4246329252973
 30
0.0
 11
498.213511900728
 21
469.8022843006083
 31
0.0
  0
LINE
  5
7F1B
330
1F
100
AcDbEntity
  8
SPOJOVACÍ
  6
Continuous
100
AcDbLine
 10
499.7910900503184
 20
474.2243400311463
 30
0.0
 11
500.169671599141
 21
473.8466886602009
 31
0.0
  0
LINE
  5
7F1C
330
1F
100
AcDbEntity
  8
SPOJOVACÍ
  6
Continuous
100
AcDbLine
 10
499.7910900503184
 20
474.2243400311463
 30
0.0
 11
499.5734289139936
 21
473.8466886602009
 31
0.0
  0
LINE
  5
7F1D
330
1F
100
AcDbEntity
  8
SPOJOVACÍ
  6
Continuous
100
AcDbLine
 10
498.8097545858754
 20
469.8022843006083
 30
0.0
 11
500.169671599141
 21
473.8466886602009
 31
0.0
  0
LINE
  5
7F1E
330
1F
100
AcDbEntity
  8
SPOJOVACÍ
  6
Continuous
100
AcDbLine
 10
498.213511900728
 20
469.8022843006083
 30
0.0
 11
499.5734289139936
 21
473.8466886602009
 31
0.0
  0
LINE
  5
7F1F
330
1F
100
AcDbEntity
  8
SPOJOVACÍ
  6
Continuous
100
AcDbLine
 10
482.751199647434
 20
466.7243325895879
 30
0.0
 11
482.751199647434
 21
476.9246403668558
 31
0.0
  0
LINE
  5
7F20
102
{ACAD_REACTORS
330
7C6F
102
}
330
1F
100
AcDbEntity
  8
SPOJOVACÍ
  6
Continuous
100
AcDbLine
 10
481.5512728706953
 20
476.9246403668558
 30
0.0
 11
482.751199647434
 21
476.9246403668558
 31
0.0
  0
LINE
  5
7F21
330
1F
100
AcDbEntity
  8
SPOJOVACÍ
  6
Continuous
100
AcDbLine
 10
481.5512728706953
 20
466.7243325895879
 30
0.0
 11
481.5512728706953
 21
476.9246403668558
 31
0.0
  0
LINE
  5
7F22
102
{ACAD_REACTORS
330
7C6F
102
}
330
1F
100
AcDbEntity
  8
SPOJOVACÍ
  6
Continuous
100
AcDbLine
 10
482.751199647434
 20
476.9246403668558
 30
0.0
 11
483.6889506689904
 21
475.2237944462804
 31
0.0
  0
LINE
  5
7F23
102
{ACAD_REACTORS
330
7C6E
102
}
330
1F
100
AcDbEntity
  8
CETRIS
100
AcDbLine
 10
496.8963543724376
 20
798.0580223702081
 30
0.0
 11
496.8963543724376
 21
784.0580223702081
 31
0.0
  0
LINE
  5
7F24
330
1F
100
AcDbEntity
  8
NOSNÉ KONSTRUKCE
100
AcDbLine
 10
864.8974369406415
 20
747.1395045950003
 30
0.0
 11
864.8974369406415
 21
724.3654753149812
 31
0.0
  0
LINE
  5
7F25
330
1F
100
AcDbEntity
  8
NOSNÉ KONSTRUKCE
100
AcDbLine
 10
866.8974369406415
 20
747.1395045950003
 30
0.0
 11
866.8974369406269
 21
722.5198083551776
 31
0.0
  0
HATCH
  5
7F26
330
1F
100
AcDbEntity
  8
NOSNÉ KONSTRUKCE
100
AcDbHatch
 10
0.0
 20
0.0
 30
0.0
210
0.0
220
0.0
230
1.0
  2
SOLID
 70
     1
 71
     0
 91
        1
 92
        7
 72
     0
 73
     1
 93
        8
 10
895.4126472720227
 20
700.9601700798839
 10
896.9126472720226
 20
700.9601700798839
 10
896.9126472720226
 20
746.3226497810128
 10
867.9127037822173
 20
746.3226497809983
 10
867.9127037822173
 20
700.9601700798912
 10
869.4127037822171
 20
700.9601700798839
 10
869.4127037822099
 20
744.8226497810128
 10
895.4126472720227
 20
744.8226497810055
 97
        0
 75
     0
 76
     1
 47
0.1358226225865344
 98
        1
 10
896.1385160607161
 20
706.4922142871319
  0
LINE
  5
7F27
330
1F
100
AcDbEntity
  8
NOSNÉ KONSTRUKCE
100
AcDbLine
 10
865.9775712217587
 20
721.5230242777624
 30
0.0
 11
825.446259321011
 21
718.2645978882019
 31
0.0
  0
ARC
  5
7F28
330
1F
100
AcDbEntity
  8
NOSNÉ KONSTRUKCE
100
AcDbCircle
 10
838.9117635940555
 20
717.2949078420815
 30
0.0
 40
13.50037422122492
100
AcDbArc
 50
22.03390313195182
 51
175.8810748512746
  0
LINE
  5
7F29
330
1F
100
AcDbEntity
  8
NOSNÉ KONSTRUKCE
100
AcDbLine
 10
863.9775712217733
 20
723.368691237566
 30
0.0
 11
851.4260978820884
 21
722.3596429230647
 31
0.0
  0
ARC
  5
7F2A
330
1F
100
AcDbEntity
  8
NOSNÉ KONSTRUKCE
100
AcDbCircle
 10
863.8974369406414
 20
724.3654753149812
 30
0.0
 40
1.0
100
AcDbArc
 50
274.5962842584421
 51
0.0
  0
ARC
  5
7F2B
330
1F
100
AcDbEntity
  8
NOSNÉ KONSTRUKCE
100
AcDbCircle
 10
865.8974369406269
 20
722.5198083551776
 30
0.0
 40
1.0
100
AcDbArc
 50
274.5962842584421
 51
0.0
  0
LINE
  5
7F2C
330
1F
100
AcDbEntity
  8
NOSNÉ KONSTRUKCE
100
AcDbLine
 10
897.5746194638549
 20
747.1395045950003
 30
0.0
 11
836.2248596765194
 21
747.139504595002
 31
0.0
  0
LWPOLYLINE
  5
7F2D
330
1F
100
AcDbEntity
  8
NOSNÉ KONSTRUKCE
100
AcDbPolyline
 90
        2
 70
     0
 43
0.0
 10
884.0815512836188
 20
762.3082562731606
 10
849.7253932753437
 20
762.3082562731606
  0
ARC
  5
7F2E
330
1F
100
AcDbEntity
  8
NOSNÉ KONSTRUKCE
100
AcDbCircle
 10
851.8019107688514
 20
746.7257100545566
 30
0.0
 40
15.58254621860396
100
AcDbArc
 50
161.464387846756
 51
178.4783316064786
  0
LINE
  5
7F2F
330
1F
100
AcDbEntity
  8
NOSNÉ KONSTRUKCE
100
AcDbLine
 10
843.2734837097878
 20
751.6793083918337
 30
0.0
 11
843.2734837097878
 21
756.7144779063119
 31
0.0
  0
LINE
  5
7F30
330
1F
100
AcDbEntity
  8
NOSNÉ KONSTRUKCE
100
AcDbLine
 10
843.2734837097878
 20
756.7144779063119
 30
0.0
 11
837.7654491509447
 21
756.7144779063119
 31
0.0
  0
LINE
  5
7F31
330
1F
100
AcDbEntity
  8
NOSNÉ KONSTRUKCE
100
AcDbLine
 10
837.0276896331116
 20
751.6793083918355
 30
0.0
 11
843.273483709795
 21
751.6793083918355
 31
0.0
  0
ARC
  5
7F32
330
1F
100
AcDbEntity
  8
NOSNÉ KONSTRUKCE
100
AcDbCircle
 10
849.7253932753437
 20
746.7257100545566
 30
0.0
 40
15.58254621860396
100
AcDbArc
 50
90.0
 51
140.1318684090177
  0
ARC
  5
7F33
330
1F
100
AcDbEntity
  8
NOSNÉ KONSTRUKCE
100
AcDbCircle
 10
884.0815512836188
 20
746.7257100545566
 30
0.0
 40
15.58254621860396
100
AcDbArc
 50
39.86813159098224
 51
90.0
  0
LINE
  5
7F34
330
1F
100
AcDbEntity
  8
NOSNÉ KONSTRUKCE
100
AcDbLine
 10
896.7717895072627
 20
751.6793083918337
 30
0.0
 11
890.5334608491749
 21
751.6793083918355
 31
0.0
  0
LINE
  5
7F35
330
1F
100
AcDbEntity
  8
NOSNÉ KONSTRUKCE
100
AcDbLine
 10
890.5334608491749
 20
756.7144779063119
 30
0.0
 11
896.0414954080178
 21
756.7144779063119
 31
0.0
  0
LINE
  5
7F36
330
1F
100
AcDbEntity
  8
NOSNÉ KONSTRUKCE
100
AcDbLine
 10
890.5334608491749
 20
751.6793083918337
 30
0.0
 11
890.5334608491749
 21
756.7144779063119
 31
0.0
  0
ARC
  5
7F37
330
1F
100
AcDbEntity
  8
NOSNÉ KONSTRUKCE
100
AcDbCircle
 10
881.9975683715229
 20
746.7257100545566
 30
0.0
 40
15.58254621860396
100
AcDbArc
 50
1.52166839352137
 51
18.53561215324396
  0
HATCH
  5
7F38
330
1F
100
AcDbEntity
  8
NOSNÉ KONSTRUKCE
100
AcDbHatch
 10
0.0
 20
0.0
 30
0.0
210
0.0
220
0.0
230
1.0
  2
SOLID
 70
     1
 71
     0
 91
        1
 92
        7
 72
     0
 73
     1
 93
       68
 10
897.3451532529717
 20
762.9612817692605
 10
895.7593809851596
 20
761.375532740988
 10
897.3451684256716
 20
759.789798885783
 10
897.3451943279133
 20
754.3755571378633
 10
893.3452027330922
 20
754.3755380015163
 10
893.3451979490046
 20
755.3755380015054
 10
896.3451895438328
 20
755.3755523537557
 10
896.3451704073513
 20
759.3755734444339
 10
894.3451502939923
 20
761.3755259751751
 10
896.3451512713209
 20
763.3754976424088
 10
896.3451321348321
 20
767.3755187330798
 10
894.3451144133787
 20
768.8755049622605
 10
896.3451177825836
 20
770.3755103279227
 10
896.3450986460948
 20
774.3755314185919
 10
894.3450785327431
 20
776.3754839493294
 10
896.3450795100715
 20
778.3754556165686
 10
896.3450603735827
 20
782.3754767072414
 10
885.3451234900994
 20
782.3754240824773
 10
883.3451225127637
 20
780.3754524152455
 10
879.3451498684289
 20
780.3754332789877
 10
877.3451297550845
 20
782.3753858097325
 10
866.3451928715939
 20
782.375333184972
 10
855.3452559880961
 20
782.3752805602079
 10
853.345255010775
 20
780.3753088929761
 10
849.3452823664474
 20
780.3752897567164
 10
847.3452622530958
 20
782.3752422874632
 10
836.3453253695979
 20
782.375189662699
 10
836.345344506094
 20
778.3751685720262
 10
838.3453646194311
 20
776.3752160412796
 10
836.34536364211
 20
774.3752443740459
 10
836.3453827785916
 20
770.3752232833712
 10
838.3454005000666
 20
768.8752370542033
 10
836.3453971308471
 20
767.3752316885338
 10
836.345416267336
 20
763.3752105978628
 10
838.3454363806876
 20
761.375258067127
 10
836.3454354033665
 20
759.3752863998788
 10
836.3454545398408
 20
755.3752653092151
 10
839.3451877929537
 20
755.3752796602284
 10
839.3451830100957
 20
754.3755380015163
 10
835.3451914152675
 20
754.3755571378633
 10
835.3452173175092
 20
759.7897988857721
 10
836.9310047580283
 20
761.3755327409953
 10
835.3452324902091
 20
762.9612817692623
 10
835.3452560004361
 20
767.8755259394939
 10
836.6785960504557
 20
768.8755129357915
 10
835.345265568546
 20
769.8755126897094
 10
835.345289078773
 20
774.7897568599283
 10
836.9310765192849
 20
776.3754907151478
 10
835.3453042514583
 20
777.9612397434257
 10
835.3453062317122
 20
778.3751637881132
 10
835.3453445061086
 20
778.3751637879295
 10
835.3453253696125
 20
782.3751848786005
 10
835.345330153722
 20
783.3754814913254
 10
847.7594735047158
 20
783.375422100863
 10
849.7594744820517
 20
781.3754504336293
 10
852.9310341913214
 20
781.375435260582
 10
854.9309450877617
 20
783.3752785781171
 10
877.7593314385221
 20
783.375387791325
 10
879.7593515518883
 20
781.3754352605801
 10
882.9309112611436
 20
781.3754504336293
 10
884.9309122384648
 20
783.375422100863
 10
897.3450555894659
 20
783.3754814913254
 10
897.3450814917296
 20
777.961239743433
 10
895.7593092239031
 20
776.3754907151442
 10
897.3450966644222
 20
774.789756859921
 10
897.3451201746421
 20
769.8755126897077
 10
896.0117896927322
 20
768.8755129357969
 10
897.3451297427518
 20
767.8755259394975
 97
        0
 75
     0
 76
     1
 47
0.131671459398827
 98
        1
 10
896.6647775706942
 20
765.0923635218596
  0
LINE
  5
7F39
330
1F
100
AcDbEntity
  8
SPOJOVACÍ
  6
Continuous
100
AcDbLine
 10
857.1451898680598
 20
762.2927630222575
 30
0.0
 11
856.7907928869308
 21
765.128869023526
 31
0.0
  0
LINE
  5
7F3A
330
1F
100
AcDbEntity
  8
SPOJOVACÍ
  6
Continuous
100
AcDbLine
 10
857.8986322596383
 20
768.3230927062713
 30
0.0
 11
857.6084174144844
 21
766.0023040959158
 31
0.0
  0
LINE
  5
7F3B
330
1F
100
AcDbEntity
  8
SPOJOVACÍ
  6
Continuous
100
AcDbLine
 10
857.5312128219584
 20
765.3818768400624
 30
0.0
 11
857.1451898680598
 21
762.2927630222575
 31
0.0
  0
LINE
  5
7F3C
330
1F
100
AcDbEntity
  8
SPOJOVACÍ
  6
Continuous
100
AcDbLine
 10
856.719169349707
 20
765.6981366105928
 30
0.0
 11
856.4512787213962
 21
767.8431219955773
 31
0.0
  0
LINE
  5
7F3D
330
1F
100
AcDbEntity
  8
SPOJOVACÍ
  6
Continuous
100
AcDbLine
 10
856.379655188538
 20
768.415180110026
 30
0.0
 11
856.1126947332004
 21
770.5517939128794
 31
0.0
  0
LINE
  5
7F3E
330
1F
100
AcDbEntity
  8
SPOJOVACÍ
  6
Continuous
100
AcDbLine
 10
858.7264887204574
 20
768.6858612665337
 30
0.0
 11
858.3488373451464
 21
768.4682001304854
 31
0.0
  0
LINE
  5
7F3F
330
1F
100
AcDbEntity
  8
SPOJOVACÍ
  6
Continuous
100
AcDbLine
 10
858.7264887204574
 20
768.6858612665337
 30
0.0
 11
858.3488373451464
 21
769.0644428156401
 31
0.0
  0
LINE
  5
7F40
330
1F
100
AcDbEntity
  8
SPOJOVACÍ
  6
Continuous
100
AcDbLine
 10
855.6103998040262
 20
768.0524115497637
 30
0.0
 11
855.9880511749716
 21
767.6738300009337
 31
0.0
  0
LINE
  5
7F41
330
1F
100
AcDbEntity
  8
SPOJOVACÍ
  6
Continuous
100
AcDbLine
 10
855.6103998040262
 20
768.0524115497637
 30
0.0
 11
855.9880511749716
 21
768.2700726858119
 31
0.0
  0
LINE
  5
7F42
330
1F
100
AcDbEntity
  8
SPOJOVACÍ
  6
Continuous
100
AcDbLine
 10
858.3488373451464
 20
768.4682001304854
 30
0.0
 11
855.9880511749716
 21
767.6738300009337
 31
0.0
  0
LINE
  5
7F43
330
1F
100
AcDbEntity
  8
SPOJOVACÍ
  6
Continuous
100
AcDbLine
 10
858.3488373451464
 20
769.0644428156401
 30
0.0
 11
855.9880511749716
 21
768.2700726858119
 31
0.0
  0
LINE
  5
7F44
330
1F
100
AcDbEntity
  8
SPOJOVACÍ
  6
Continuous
100
AcDbLine
 10
858.7264887204574
 20
768.6858612665337
 30
0.0
 11
855.6103998040262
 21
768.0524115497637
 31
0.0
  0
LINE
  5
7F45
330
1F
100
AcDbEntity
  8
SPOJOVACÍ
  6
Continuous
100
AcDbLine
 10
858.1618720099859
 20
765.672091688214
 30
0.0
 11
857.7842206390405
 21
765.4535003761948
 31
0.0
  0
LINE
  5
7F46
330
1F
100
AcDbEntity
  8
SPOJOVACÍ
  6
Continuous
100
AcDbLine
 10
858.1618720099859
 20
765.672091688214
 30
0.0
 11
857.7842206390405
 21
766.0497430613422
 31
0.0
  0
LINE
  5
7F47
330
1F
100
AcDbEntity
  8
SPOJOVACÍ
  6
Continuous
100
AcDbLine
 10
856.0075848685292
 20
765.3614129724401
 30
0.0
 11
856.3852362394746
 21
764.9828314236101
 31
0.0
  0
LINE
  5
7F48
330
1F
100
AcDbEntity
  8
SPOJOVACÍ
  6
Continuous
100
AcDbLine
 10
856.0075848685292
 20
765.3614129724401
 30
0.0
 11
856.3852362394746
 21
765.5790741087575
 31
0.0
  0
LINE
  5
7F49
330
1F
100
AcDbEntity
  8
SPOJOVACÍ
  6
Continuous
100
AcDbLine
 10
857.7842206390405
 20
765.4535003761948
 30
0.0
 11
856.3852362394746
 21
764.9828314236101
 31
0.0
  0
LINE
  5
7F4A
330
1F
100
AcDbEntity
  8
SPOJOVACÍ
  6
Continuous
100
AcDbLine
 10
857.7842206390405
 20
766.0497430613422
 30
0.0
 11
856.3852362394746
 21
765.5790741087575
 31
0.0
  0
LINE
  5
7F4B
330
1F
100
AcDbEntity
  8
SPOJOVACÍ
  6
Continuous
100
AcDbLine
 10
858.1618720099859
 20
765.672091688214
 30
0.0
 11
856.0075848685292
 21
765.3614129724401
 31
0.0
  0
LINE
  5
7F4C
330
1F
100
AcDbEntity
  8
SPOJOVACÍ
  6
Continuous
100
AcDbLine
 10
858.4948749472451
 20
780.5874605737362
 30
0.0
 11
858.4948749472451
 21
778.0592427608671
 31
0.0
  0
LINE
  5
7F4D
330
1F
100
AcDbEntity
  8
SPOJOVACÍ
  6
Continuous
100
AcDbLine
 10
855.7955047845089
 20
779.6740279423493
 30
0.0
 11
855.7955047845089
 21
777.1532515356402
 31
0.0
  0
LINE
  5
7F4E
330
1F
100
AcDbEntity
  8
SPOJOVACÍ
  6
Continuous
100
AcDbLine
 10
858.4948749472451
 20
777.4546284935813
 30
0.0
 11
858.4948749472451
 21
774.9366426142541
 31
0.0
  0
LINE
  5
7F4F
330
1F
100
AcDbEntity
  8
SPOJOVACÍ
  6
Continuous
100
AcDbLine
 10
858.4948749472451
 20
774.3403999290994
 30
0.0
 11
858.4948749472451
 21
773.0930341872108
 31
0.0
  0
LINE
  5
7F50
330
1F
100
AcDbEntity
  8
SPOJOVACÍ
  6
Continuous
100
AcDbLine
 10
855.7955047845089
 20
776.5523579717073
 30
0.0
 11
855.7955047845089
 21
774.0334419166783
 31
0.0
  0
LINE
  5
7F51
330
1F
100
AcDbEntity
  8
SPOJOVACÍ
  6
Continuous
100
AcDbLine
 10
855.7955047845089
 20
773.4297578250943
 30
0.0
 11
855.7955047845089
 21
773.0930341872108
 31
0.0
  0
LINE
  5
7F52
330
1F
100
AcDbEntity
  8
SPOJOVACÍ
  6
Continuous
100
AcDbLine
 10
858.4948749472451
 20
773.0930341872108
 30
0.0
 11
858.345116644522
 21
771.8958979378539
 31
0.0
  0
LINE
  5
7F53
330
1F
100
AcDbEntity
  8
SPOJOVACÍ
  6
Continuous
100
AcDbLine
 10
858.267912051996
 20
771.2754706820005
 30
0.0
 11
857.9776972024765
 21
768.9537518959359
 31
0.0
  0
LINE
  5
7F54
330
1F
100
AcDbEntity
  8
SPOJOVACÍ
  6
Continuous
100
AcDbLine
 10
856.0410711959766
 20
771.1219916759246
 30
0.0
 11
855.7955047845089
 21
773.0930341872108
 31
0.0
  0
LINE
  5
7F55
330
1F
100
AcDbEntity
  8
SPOJOVACÍ
  6
Continuous
100
AcDbLine
 10
859.2911054265632
 20
771.7005610208316
 30
0.0
 11
858.912523878279
 21
771.481969708805
 31
0.0
  0
LINE
  5
7F56
330
1F
100
AcDbEntity
  8
SPOJOVACÍ
  6
Continuous
100
AcDbLine
 10
859.2911054265632
 20
771.7005610208316
 30
0.0
 11
858.912523878279
 21
772.0782123939597
 31
0.0
  0
LINE
  5
7F57
330
1F
100
AcDbEntity
  8
SPOJOVACÍ
  6
Continuous
100
AcDbLine
 10
855.1657757738203
 20
770.727597138527
 30
0.0
 11
855.5434271447657
 21
770.3490155894205
 31
0.0
  0
LINE
  5
7F58
330
1F
100
AcDbEntity
  8
SPOJOVACÍ
  6
Continuous
100
AcDbLine
 10
855.1657757738203
 20
770.727597138527
 30
0.0
 11
855.5434271447657
 21
770.9452582745752
 31
0.0
  0
LINE
  5
7F59
330
1F
100
AcDbEntity
  8
SPOJOVACÍ
  6
Continuous
100
AcDbLine
 10
858.912523878279
 20
771.481969708805
 30
0.0
 11
855.5434271447657
 21
770.3490155894205
 31
0.0
  0
LINE
  5
7F5A
330
1F
100
AcDbEntity
  8
SPOJOVACÍ
  6
Continuous
100
AcDbLine
 10
858.912523878279
 20
772.0782123939597
 30
0.0
 11
855.5434271447657
 21
770.9452582745752
 31
0.0
  0
LINE
  5
7F5B
330
1F
100
AcDbEntity
  8
SPOJOVACÍ
  6
Continuous
100
AcDbLine
 10
859.2911054265632
 20
771.7005610208316
 30
0.0
 11
855.1657757738203
 21
770.727597138527
 31
0.0
  0
LINE
  5
7F5C
330
1F
100
AcDbEntity
  8
SPOJOVACÍ
  6
Continuous
100
AcDbLine
 10
859.5450434209842
 20
777.8983223480854
 30
0.0
 11
854.7453363151353
 21
776.6983955716232
 31
0.0
  0
LINE
  5
7F5D
330
1F
100
AcDbEntity
  8
SPOJOVACÍ
  6
Continuous
100
AcDbLine
 10
859.5450434209842
 20
777.8983223480854
 30
0.0
 11
859.1673920456733
 21
777.6797310360661
 31
0.0
  0
LINE
  5
7F5E
330
1F
100
AcDbEntity
  8
SPOJOVACÍ
  6
Continuous
100
AcDbLine
 10
859.5450434209842
 20
777.8983223480854
 30
0.0
 11
859.1673920456733
 21
778.2759737212136
 31
0.0
  0
LINE
  5
7F5F
330
1F
100
AcDbEntity
  8
SPOJOVACÍ
  6
Continuous
100
AcDbLine
 10
854.7453363151353
 20
776.6983955716232
 30
0.0
 11
855.1229876860807
 21
776.3198140227932
 31
0.0
  0
LINE
  5
7F60
330
1F
100
AcDbEntity
  8
SPOJOVACÍ
  6
Continuous
100
AcDbLine
 10
854.7453363151353
 20
776.6983955716232
 30
0.0
 11
855.1229876860807
 21
776.9160567076714
 31
0.0
  0
LINE
  5
7F61
330
1F
100
AcDbEntity
  8
SPOJOVACÍ
  6
Continuous
100
AcDbLine
 10
859.1673920456733
 20
777.6797310360661
 30
0.0
 11
855.1229876860807
 21
776.3198140227932
 31
0.0
  0
LINE
  5
7F62
330
1F
100
AcDbEntity
  8
SPOJOVACÍ
  6
Continuous
100
AcDbLine
 10
859.1673920456733
 20
778.2759737212136
 30
0.0
 11
855.1229876860807
 21
776.9160567076714
 31
0.0
  0
LINE
  5
7F63
330
1F
100
AcDbEntity
  8
SPOJOVACÍ
  6
Continuous
100
AcDbLine
 10
859.5450434209842
 20
774.7775825531452
 30
0.0
 11
854.7453363151353
 21
773.577655776683
 31
0.0
  0
LINE
  5
7F64
330
1F
100
AcDbEntity
  8
SPOJOVACÍ
  6
Continuous
100
AcDbLine
 10
859.5450434209842
 20
774.7775825531452
 30
0.0
 11
859.1673920456733
 21
774.559921417097
 31
0.0
  0
LINE
  5
7F65
330
1F
100
AcDbEntity
  8
SPOJOVACÍ
  6
Continuous
100
AcDbLine
 10
859.5450434209842
 20
774.7775825531452
 30
0.0
 11
859.1673920456733
 21
775.1561641022517
 31
0.0
  0
LINE
  5
7F66
330
1F
100
AcDbEntity
  8
SPOJOVACÍ
  6
Continuous
100
AcDbLine
 10
854.7453363151353
 20
773.577655776683
 30
0.0
 11
855.1229876860807
 21
773.2000044035548
 31
0.0
  0
LINE
  5
7F67
330
1F
100
AcDbEntity
  8
SPOJOVACÍ
  6
Continuous
100
AcDbLine
 10
854.7453363151353
 20
773.577655776683
 30
0.0
 11
855.1229876860807
 21
773.7962470887095
 31
0.0
  0
LINE
  5
7F68
330
1F
100
AcDbEntity
  8
SPOJOVACÍ
  6
Continuous
100
AcDbLine
 10
859.1673920456733
 20
774.559921417097
 30
0.0
 11
855.1229876860807
 21
773.2000044035548
 31
0.0
  0
LINE
  5
7F69
330
1F
100
AcDbEntity
  8
SPOJOVACÍ
  6
Continuous
100
AcDbLine
 10
859.1673920456733
 20
775.1561641022517
 30
0.0
 11
855.1229876860807
 21
773.7962470887095
 31
0.0
  0
LINE
  5
7F6A
330
1F
100
AcDbEntity
  8
SPOJOVACÍ
  6
Continuous
100
AcDbLine
 10
858.4948749472451
 20
783.7026193139199
 30
0.0
 11
858.4948749472451
 21
781.1818429072109
 31
0.0
  0
LINE
  5
7F6B
102
{ACAD_REACTORS
330
7C6E
102
}
330
1F
100
AcDbEntity
  8
SPOJOVACÍ
  6
Continuous
100
AcDbLine
 10
855.7955047845089
 20
785.9117868288767
 30
0.0
 11
855.7955047845089
 21
783.3928707738477
 31
0.0
  0
LINE
  5
7F6C
330
1F
100
AcDbEntity
  8
SPOJOVACÍ
  6
Continuous
100
AcDbLine
 10
855.7955047845089
 20
782.796628088693
 30
0.0
 11
855.7955047845089
 21
780.2684102758239
 31
0.0
  0
LINE
  5
7F6D
102
{ACAD_REACTORS
330
7C6E
102
}
330
1F
100
AcDbEntity
  8
SPOJOVACÍ
  6
Continuous
100
AcDbLine
 10
854.7453363151353
 20
786.0578244287926
 30
0.0
 11
855.1229876860807
 21
785.6801730556644
 31
0.0
  0
LINE
  5
7F6E
102
{ACAD_REACTORS
330
7C6E
102
}
330
1F
100
AcDbEntity
  8
SPOJOVACÍ
  6
Continuous
100
AcDbLine
 10
854.7453363151353
 20
786.0578244287926
 30
0.0
 11
855.1229876860807
 21
786.2764157408191
 31
0.0
  0
LINE
  5
7F6F
330
1F
100
AcDbEntity
  8
SPOJOVACÍ
  6
Continuous
100
AcDbLine
 10
859.5450434209842
 20
784.1379415862929
 30
0.0
 11
854.7453363151353
 21
782.9380148095542
 31
0.0
  0
LINE
  5
7F70
330
1F
100
AcDbEntity
  8
SPOJOVACÍ
  6
Continuous
100
AcDbLine
 10
859.5450434209842
 20
784.1379415862929
 30
0.0
 11
859.1673920456733
 21
783.9193502742664
 31
0.0
  0
LINE
  5
7F71
102
{ACAD_REACTORS
330
7C6E
102
}
330
1F
100
AcDbEntity
  8
SPOJOVACÍ
  6
Continuous
100
AcDbLine
 10
859.5450434209842
 20
784.1379415862929
 30
0.0
 11
859.1673920456733
 21
784.5155929594211
 31
0.0
  0
LINE
  5
7F72
330
1F
100
AcDbEntity
  8
SPOJOVACÍ
  6
Continuous
100
AcDbLine
 10
854.7453363151353
 20
782.9380148095542
 30
0.0
 11
855.1229876860807
 21
782.5603634367025
 31
0.0
  0
LINE
  5
7F73
330
1F
100
AcDbEntity
  8
SPOJOVACÍ
  6
Continuous
100
AcDbLine
 10
854.7453363151353
 20
782.9380148095542
 30
0.0
 11
855.1229876860807
 21
783.1566061215808
 31
0.0
  0
LINE
  5
7F74
330
1F
100
AcDbEntity
  8
SPOJOVACÍ
  6
Continuous
100
AcDbLine
 10
859.1673920456733
 20
783.9193502742664
 30
0.0
 11
855.1229876860807
 21
782.5603634367025
 31
0.0
  0
LINE
  5
7F75
102
{ACAD_REACTORS
330
7C6E
102
}
330
1F
100
AcDbEntity
  8
SPOJOVACÍ
  6
Continuous
100
AcDbLine
 10
859.1673920456733
 20
784.5155929594211
 30
0.0
 11
855.1229876860807
 21
783.1566061215808
 31
0.0
  0
LINE
  5
7F76
330
1F
100
AcDbEntity
  8
SPOJOVACÍ
  6
Continuous
100
AcDbLine
 10
859.5450434209842
 20
781.0181319670546
 30
0.0
 11
854.7453363151353
 21
779.8182051905923
 31
0.0
  0
LINE
  5
7F77
330
1F
100
AcDbEntity
  8
SPOJOVACÍ
  6
Continuous
100
AcDbLine
 10
859.5450434209842
 20
781.0181319670546
 30
0.0
 11
859.1673920456733
 21
780.799540655028
 31
0.0
  0
LINE
  5
7F78
330
1F
100
AcDbEntity
  8
SPOJOVACÍ
  6
Continuous
100
AcDbLine
 10
859.5450434209842
 20
781.0181319670546
 30
0.0
 11
859.1673920456733
 21
781.3957833401827
 31
0.0
  0
LINE
  5
7F79
330
1F
100
AcDbEntity
  8
SPOJOVACÍ
  6
Continuous
100
AcDbLine
 10
854.7453363151353
 20
779.8182051905923
 30
0.0
 11
855.1229876860807
 21
779.4396236417624
 31
0.0
  0
LINE
  5
7F7A
330
1F
100
AcDbEntity
  8
SPOJOVACÍ
  6
Continuous
100
AcDbLine
 10
854.7453363151353
 20
779.8182051905923
 30
0.0
 11
855.1229876860807
 21
780.0358663269098
 31
0.0
  0
LINE
  5
7F7B
330
1F
100
AcDbEntity
  8
SPOJOVACÍ
  6
Continuous
100
AcDbLine
 10
859.1673920456733
 20
780.799540655028
 30
0.0
 11
855.1229876860807
 21
779.4396236417624
 31
0.0
  0
LINE
  5
7F7C
330
1F
100
AcDbEntity
  8
SPOJOVACÍ
  6
Continuous
100
AcDbLine
 10
859.1673920456733
 20
781.3957833401827
 30
0.0
 11
855.1229876860807
 21
780.0358663269098
 31
0.0
  0
LINE
  5
7F7D
102
{ACAD_REACTORS
330
7C6E
102
}
330
1F
100
AcDbEntity
  8
CETRIS
100
AcDbLine
 10
897.3242235641
 20
784.0580223702081
 30
0.0
 11
897.3242235641
 21
798.0580223702081
 31
0.0
  0
LINE
  5
7F7E
330
1F
100
AcDbEntity
  8
CETRIS
100
AcDbLine
 10
897.3418933129932
 20
784.0580223702081
 30
0.0
 11
897.3418933129932
 21
798.0580223702081
 31
0.0
  0
LINE
  5
7F7F
102
{ACAD_REACTORS
330
7C6E
102
}
330
1F
100
AcDbEntity
  8
SPOJOVACÍ
  6
Continuous
100
AcDbLine
 10
854.9555560444778
 20
794.3959202622527
 30
0.0
 11
853.7458819000011
 21
795.9203445719204
 31
0.0
  0
LINE
  5
7F80
102
{ACAD_REACTORS
330
7C6E
102
}
330
1F
100
AcDbEntity
  8
SPOJOVACÍ
  6
Continuous
100
AcDbLine
 10
855.5685418936255
 20
792.9820530525494
 30
0.0
 11
854.9555560444778
 21
794.3959202622527
 31
0.0
  0
LINE
  5
7F81
102
{ACAD_REACTORS
330
7C6E
102
}
330
1F
100
AcDbEntity
  8
SPOJOVACÍ
  6
Continuous
100
AcDbLine
 10
855.7955047845089
 20
791.4584250991201
 30
0.0
 11
855.5685418936255
 21
792.9820530525494
 31
0.0
  0
LINE
  5
7F82
102
{ACAD_REACTORS
330
7C6E
102
}
330
1F
100
AcDbEntity
  8
SPOJOVACÍ
  6
Continuous
100
AcDbLine
 10
858.5609174291667
 20
792.2453538222425
 30
0.0
 11
858.4948749472451
 21
791.4584250991201
 31
0.0
  0
LINE
  5
7F83
102
{ACAD_REACTORS
330
7C6E
102
}
330
1F
100
AcDbEntity
  8
SPOJOVACÍ
  6
Continuous
100
AcDbLine
 10
858.988798293466
 20
793.7261936892928
 30
0.0
 11
858.5609174291667
 21
792.2453538222425
 31
0.0
  0
LINE
  5
7F84
102
{ACAD_REACTORS
330
7C6E
102
}
330
1F
100
AcDbEntity
  8
SPOJOVACÍ
  6
Continuous
100
AcDbLine
 10
859.7850287727842
 20
795.0451829675903
 30
0.0
 11
858.988798293466
 21
793.7261936892928
 31
0.0
  0
LINE
  5
7F85
102
{ACAD_REACTORS
330
7C6E
102
}
330
1F
100
AcDbEntity
  8
SPOJOVACÍ
  6
Continuous
100
AcDbLine
 10
860.8956586731428
 20
796.1139549570025
 30
0.0
 11
859.7850287727842
 21
795.0451829675903
 31
0.0
  0
LINE
  5
7F86
102
{ACAD_REACTORS
330
7C6E
102
}
330
1F
100
AcDbEntity
  8
SPOJOVACÍ
  6
Continuous
100
AcDbLine
 10
855.7955047845089
 20
791.4584250991201
 30
0.0
 11
855.7955047845089
 21
786.5154709201915
 31
0.0
  0
LINE
  5
7F87
102
{ACAD_REACTORS
330
7C6E
102
}
330
1F
100
AcDbEntity
  8
SPOJOVACÍ
  6
Continuous
100
AcDbLine
 10
858.4948749472451
 20
791.4584250991201
 30
0.0
 11
858.4948749472451
 21
787.4205319694401
 31
0.0
  0
LINE
  5
7F88
102
{ACAD_REACTORS
330
7C6E
102
}
330
1F
100
AcDbEntity
  8
SPOJOVACÍ
  6
Continuous
100
AcDbLine
 10
858.4948749472451
 20
786.8252194602637
 30
0.0
 11
858.4948749472451
 21
784.3063034052347
 31
0.0
  0
LINE
  5
7F89
330
1F
100
AcDbEntity
  8
SPOJOVACÍ
  6
Continuous
100
AcDbLine
 10
859.5450434209842
 20
787.2577512052548
 30
0.0
 11
854.7453363151353
 21
786.0578244287926
 31
0.0
  0
LINE
  5
7F8A
102
{ACAD_REACTORS
330
7C6E
102
}
330
1F
100
AcDbEntity
  8
SPOJOVACÍ
  6
Continuous
100
AcDbLine
 10
859.5450434209842
 20
787.2577512052548
 30
0.0
 11
859.1673920456733
 21
787.0400900692065
 31
0.0
  0
LINE
  5
7F8B
102
{ACAD_REACTORS
330
7C6E
102
}
330
1F
100
AcDbEntity
  8
SPOJOVACÍ
  6
Continuous
100
AcDbLine
 10
859.5450434209842
 20
787.2577512052548
 30
0.0
 11
859.1673920456733
 21
787.6363327540848
 31
0.0
  0
LINE
  5
7F8C
102
{ACAD_REACTORS
330
7C6E
102
}
330
1F
100
AcDbEntity
  8
SPOJOVACÍ
  6
Continuous
100
AcDbLine
 10
859.1673920456733
 20
787.0400900692065
 30
0.0
 11
855.1229876860807
 21
785.6801730556644
 31
0.0
  0
LINE
  5
7F8D
102
{ACAD_REACTORS
330
7C6E
102
}
330
1F
100
AcDbEntity
  8
SPOJOVACÍ
  6
Continuous
100
AcDbLine
 10
859.1673920456733
 20
787.6363327540848
 30
0.0
 11
855.1229876860807
 21
786.2764157408191
 31
0.0
  0
LINE
  5
7F8E
102
{ACAD_REACTORS
330
7C6E
102
}
330
1F
100
AcDbEntity
  8
SPOJOVACÍ
  6
Continuous
100
AcDbLine
 10
852.0450359794258
 20
798.0580223702081
 30
0.0
 11
852.0450359794258
 21
796.8580955934767
 31
0.0
  0
LINE
  5
7F8F
102
{ACAD_REACTORS
330
7C6E
102
}
330
1F
100
AcDbEntity
  8
SPOJOVACÍ
  6
Continuous
100
AcDbLine
 10
852.0450359794258
 20
796.8580955934767
 30
0.0
 11
853.7458819000011
 21
795.9203445719204
 31
0.0
  0
LINE
  5
7F90
102
{ACAD_REACTORS
330
7C6E
102
}
330
1F
100
AcDbEntity
  8
SPOJOVACÍ
  6
Continuous
100
AcDbLine
 10
862.2453437566937
 20
798.0580223702081
 30
0.0
 11
862.2453437566937
 21
796.8580955934767
 31
0.0
  0
LINE
  5
7F91
102
{ACAD_REACTORS
330
7C6E
102
}
330
1F
100
AcDbEntity
  8
SPOJOVACÍ
  6
Continuous
100
AcDbLine
 10
862.2453437566937
 20
796.8580955934767
 30
0.0
 11
860.8956586731428
 21
796.1139549570025
 31
0.0
  0
LINE
  5
7F92
330
1F
100
AcDbEntity
  8
SPOJOVACÍ
  6
Continuous
100
AcDbLine
 10
862.2453437566937
 20
796.8580955934767
 30
0.0
 11
852.0450359794258
 21
796.8580955934767
 31
0.0
  0
LINE
  5
7F93
330
1F
100
AcDbEntity
  8
SPOJOVACÍ
  6
Continuous
100
AcDbLine
 10
862.2453437566937
 20
798.0580223702081
 30
0.0
 11
852.0450359794258
 21
798.0580223702081
 31
0.0
  0
LINE
  5
7F94
102
{ACAD_REACTORS
330
7C6F
102
}
330
1F
100
AcDbEntity
  8
CETRIS
100
AcDbLine
 10
898.6693050658423
 20
798.0327045167095
 30
0.0
 11
912.6693050658422
 21
798.0327045167095
 31
0.0
  0
LINE
  5
7F95
102
{ACAD_REACTORS
330
7C6E
102
}
330
1F
100
AcDbEntity
  8
CETRIS
100
AcDbLine
 10
496.8963543724376
 20
784.0580223702081
 30
0.0
 11
897.3242235641
 21
784.0580223702081
 31
0.0
  0
LINE
  5
7F96
102
{ACAD_REACTORS
330
7C6E
102
}
330
1F
100
AcDbEntity
  8
CETRIS
100
AcDbLine
 10
496.8963543724376
 20
798.0580223702081
 30
0.0
 11
897.3242235641
 21
798.0580223702081
 31
0.0
  0
LINE
  5
7F97
330
1F
100
AcDbEntity
  8
SPOJOVACÍ
  6
Continuous
100
AcDbLine
 10
535.0708556397576
 20
781.3957833401827
 30
0.0
 11
539.1152599993501
 21
780.0358663269098
 31
0.0
  0
LINE
  5
7F98
330
1F
100
AcDbEntity
  8
SPOJOVACÍ
  6
Continuous
100
AcDbLine
 10
535.0708556397576
 20
780.799540655028
 30
0.0
 11
539.1152599993501
 21
779.4396236417624
 31
0.0
  0
LINE
  5
7F99
330
1F
100
AcDbEntity
  8
SPOJOVACÍ
  6
Continuous
100
AcDbLine
 10
539.4929113702955
 20
779.8182051905923
 30
0.0
 11
539.1152599993501
 21
780.0358663269098
 31
0.0
  0
LINE
  5
7F9A
330
1F
100
AcDbEntity
  8
SPOJOVACÍ
  6
Continuous
100
AcDbLine
 10
539.4929113702955
 20
779.8182051905923
 30
0.0
 11
539.1152599993501
 21
779.4396236417624
 31
0.0
  0
LINE
  5
7F9B
330
1F
100
AcDbEntity
  8
SPOJOVACÍ
  6
Continuous
100
AcDbLine
 10
534.6932042644466
 20
781.0181319670546
 30
0.0
 11
535.0708556397576
 21
781.3957833401827
 31
0.0
  0
LINE
  5
7F9C
330
1F
100
AcDbEntity
  8
SPOJOVACÍ
  6
Continuous
100
AcDbLine
 10
534.6932042644466
 20
781.0181319670546
 30
0.0
 11
535.0708556397576
 21
780.799540655028
 31
0.0
  0
LINE
  5
7F9D
330
1F
100
AcDbEntity
  8
SPOJOVACÍ
  6
Continuous
100
AcDbLine
 10
534.6932042644466
 20
781.0181319670546
 30
0.0
 11
539.4929113702955
 21
779.8182051905923
 31
0.0
  0
LINE
  5
7F9E
330
1F
100
AcDbEntity
  8
SPOJOVACÍ
  6
Continuous
100
AcDbLine
 10
535.0708556397576
 20
783.9193502742664
 30
0.0
 11
539.1152599993501
 21
782.5603634367025
 31
0.0
  0
LINE
  5
7F9F
330
1F
100
AcDbEntity
  8
SPOJOVACÍ
  6
Continuous
100
AcDbLine
 10
539.4929113702955
 20
782.9380148095542
 30
0.0
 11
539.1152599993501
 21
783.1566061215808
 31
0.0
  0
LINE
  5
7FA0
330
1F
100
AcDbEntity
  8
SPOJOVACÍ
  6
Continuous
100
AcDbLine
 10
539.4929113702955
 20
782.9380148095542
 30
0.0
 11
539.1152599993501
 21
782.5603634367025
 31
0.0
  0
LINE
  5
7FA1
330
1F
100
AcDbEntity
  8
SPOJOVACÍ
  6
Continuous
100
AcDbLine
 10
534.6932042644466
 20
784.1379415862929
 30
0.0
 11
535.0708556397576
 21
783.9193502742664
 31
0.0
  0
LINE
  5
7FA2
330
1F
100
AcDbEntity
  8
SPOJOVACÍ
  6
Continuous
100
AcDbLine
 10
534.6932042644466
 20
784.1379415862929
 30
0.0
 11
539.4929113702955
 21
782.9380148095542
 31
0.0
  0
LINE
  5
7FA3
330
1F
100
AcDbEntity
  8
SPOJOVACÍ
  6
Continuous
100
AcDbLine
 10
538.4427429009219
 20
782.796628088693
 30
0.0
 11
538.4427429009219
 21
780.2684102758239
 31
0.0
  0
LINE
  5
7FA4
330
1F
100
AcDbEntity
  8
SPOJOVACÍ
  6
Continuous
100
AcDbLine
 10
535.7433727381858
 20
783.7026193139199
 30
0.0
 11
535.7433727381858
 21
781.1818429072109
 31
0.0
  0
LINE
  5
7FA5
330
1F
100
AcDbEntity
  8
SPOJOVACÍ
  6
Continuous
100
AcDbLine
 10
534.6932042644466
 20
774.7775825531452
 30
0.0
 11
535.0708556397576
 21
775.1561641022517
 31
0.0
  0
LINE
  5
7FA6
330
1F
100
AcDbEntity
  8
SPOJOVACÍ
  6
Continuous
100
AcDbLine
 10
535.0708556397576
 20
778.2759737212136
 30
0.0
 11
539.1152599993501
 21
776.9160567076714
 31
0.0
  0
LINE
  5
7FA7
330
1F
100
AcDbEntity
  8
SPOJOVACÍ
  6
Continuous
100
AcDbLine
 10
535.0708556397576
 20
777.6797310360661
 30
0.0
 11
539.1152599993501
 21
776.3198140227932
 31
0.0
  0
LINE
  5
7FA8
330
1F
100
AcDbEntity
  8
SPOJOVACÍ
  6
Continuous
100
AcDbLine
 10
539.4929113702955
 20
776.6983955716232
 30
0.0
 11
539.1152599993501
 21
776.9160567076714
 31
0.0
  0
LINE
  5
7FA9
330
1F
100
AcDbEntity
  8
SPOJOVACÍ
  6
Continuous
100
AcDbLine
 10
539.4929113702955
 20
776.6983955716232
 30
0.0
 11
539.1152599993501
 21
776.3198140227932
 31
0.0
  0
LINE
  5
7FAA
330
1F
100
AcDbEntity
  8
SPOJOVACÍ
  6
Continuous
100
AcDbLine
 10
534.6932042644466
 20
777.8983223480854
 30
0.0
 11
535.0708556397576
 21
778.2759737212136
 31
0.0
  0
LINE
  5
7FAB
330
1F
100
AcDbEntity
  8
SPOJOVACÍ
  6
Continuous
100
AcDbLine
 10
534.6932042644466
 20
777.8983223480854
 30
0.0
 11
535.0708556397576
 21
777.6797310360661
 31
0.0
  0
LINE
  5
7FAC
330
1F
100
AcDbEntity
  8
SPOJOVACÍ
  6
Continuous
100
AcDbLine
 10
534.6932042644466
 20
777.8983223480854
 30
0.0
 11
539.4929113702955
 21
776.6983955716232
 31
0.0
  0
LINE
  5
7FAD
330
1F
100
AcDbEntity
  8
SPOJOVACÍ
  6
Continuous
100
AcDbLine
 10
535.7433727381858
 20
777.4546284935813
 30
0.0
 11
535.7433727381858
 21
774.9366426142541
 31
0.0
  0
LINE
  5
7FAE
330
1F
100
AcDbEntity
  8
SPOJOVACÍ
  6
Continuous
100
AcDbLine
 10
538.4427429009219
 20
779.6740279423493
 30
0.0
 11
538.4427429009219
 21
777.1532515356402
 31
0.0
  0
LINE
  5
7FAF
330
1F
100
AcDbEntity
  8
SPOJOVACÍ
  6
Continuous
100
AcDbLine
 10
535.7433727381858
 20
780.5874605737362
 30
0.0
 11
535.7433727381858
 21
778.0592427608671
 31
0.0
  0
LINE
  5
7FB0
330
1F
100
AcDbEntity
  8
SPOJOVACÍ
  6
Continuous
100
AcDbLine
 10
531.9929039287371
 20
798.0580223702081
 30
0.0
 11
542.193211706005
 21
798.0580223702081
 31
0.0
  0
LINE
  5
7FB1
330
1F
100
AcDbEntity
  8
SPOJOVACÍ
  6
Continuous
100
AcDbLine
 10
531.9929039287371
 20
796.8580955934767
 30
0.0
 11
542.193211706005
 21
796.8580955934767
 31
0.0
  0
LINE
  5
7FB2
102
{ACAD_REACTORS
330
7C6E
102
}
330
1F
100
AcDbEntity
  8
SPOJOVACÍ
  6
Continuous
100
AcDbLine
 10
531.9929039287371
 20
796.8580955934767
 30
0.0
 11
533.342589012288
 21
796.1139549570025
 31
0.0
  0
LINE
  5
7FB3
102
{ACAD_REACTORS
330
7C6E
102
}
330
1F
100
AcDbEntity
  8
SPOJOVACÍ
  6
Continuous
100
AcDbLine
 10
542.193211706005
 20
796.8580955934767
 30
0.0
 11
540.4923657854369
 21
795.9203445719204
 31
0.0
  0
LINE
  5
7FB4
102
{ACAD_REACTORS
330
7C6E
102
}
330
1F
100
AcDbEntity
  8
SPOJOVACÍ
  6
Continuous
100
AcDbLine
 10
542.193211706005
 20
798.0580223702081
 30
0.0
 11
542.193211706005
 21
796.8580955934767
 31
0.0
  0
LINE
  5
7FB5
102
{ACAD_REACTORS
330
7C6E
102
}
330
1F
100
AcDbEntity
  8
SPOJOVACÍ
  6
Continuous
100
AcDbLine
 10
535.0708556397576
 20
787.6363327540848
 30
0.0
 11
539.1152599993501
 21
786.2764157408191
 31
0.0
  0
LINE
  5
7FB6
102
{ACAD_REACTORS
330
7C6E
102
}
330
1F
100
AcDbEntity
  8
SPOJOVACÍ
  6
Continuous
100
AcDbLine
 10
535.0708556397576
 20
787.0400900692065
 30
0.0
 11
539.1152599993501
 21
785.6801730556644
 31
0.0
  0
LINE
  5
7FB7
102
{ACAD_REACTORS
330
7C6E
102
}
330
1F
100
AcDbEntity
  8
SPOJOVACÍ
  6
Continuous
100
AcDbLine
 10
534.6932042644466
 20
787.2577512052548
 30
0.0
 11
535.0708556397576
 21
787.6363327540848
 31
0.0
  0
LINE
  5
7FB8
102
{ACAD_REACTORS
330
7C6E
102
}
330
1F
100
AcDbEntity
  8
SPOJOVACÍ
  6
Continuous
100
AcDbLine
 10
534.6932042644466
 20
787.2577512052548
 30
0.0
 11
535.0708556397576
 21
787.0400900692065
 31
0.0
  0
LINE
  5
7FB9
330
1F
100
AcDbEntity
  8
SPOJOVACÍ
  6
Continuous
100
AcDbLine
 10
534.6932042644466
 20
787.2577512052548
 30
0.0
 11
539.4929113702955
 21
786.0578244287926
 31
0.0
  0
LINE
  5
7FBA
102
{ACAD_REACTORS
330
7C6E
102
}
330
1F
100
AcDbEntity
  8
SPOJOVACÍ
  6
Continuous
100
AcDbLine
 10
535.7433727381858
 20
786.8252194602637
 30
0.0
 11
535.7433727381858
 21
784.3063034052347
 31
0.0
  0
LINE
  5
7FBB
102
{ACAD_REACTORS
330
7C6E
102
}
330
1F
100
AcDbEntity
  8
SPOJOVACÍ
  6
Continuous
100
AcDbLine
 10
535.7433727381858
 20
791.4584250991201
 30
0.0
 11
535.7433727381858
 21
787.4205319694401
 31
0.0
  0
LINE
  5
7FBC
102
{ACAD_REACTORS
330
7C6E
102
}
330
1F
100
AcDbEntity
  8
SPOJOVACÍ
  6
Continuous
100
AcDbLine
 10
538.4427429009219
 20
791.4584250991201
 30
0.0
 11
538.4427429009219
 21
786.5154709201915
 31
0.0
  0
LINE
  5
7FBD
102
{ACAD_REACTORS
330
7C6E
102
}
330
1F
100
AcDbEntity
  8
SPOJOVACÍ
  6
Continuous
100
AcDbLine
 10
533.342589012288
 20
796.1139549570025
 30
0.0
 11
534.4532189126466
 21
795.0451829675903
 31
0.0
  0
LINE
  5
7FBE
102
{ACAD_REACTORS
330
7C6E
102
}
330
1F
100
AcDbEntity
  8
SPOJOVACÍ
  6
Continuous
100
AcDbLine
 10
534.4532189126466
 20
795.0451829675903
 30
0.0
 11
535.2494493919648
 21
793.7261936892928
 31
0.0
  0
LINE
  5
7FBF
102
{ACAD_REACTORS
330
7C6E
102
}
330
1F
100
AcDbEntity
  8
SPOJOVACÍ
  6
Continuous
100
AcDbLine
 10
535.2494493919648
 20
793.7261936892928
 30
0.0
 11
535.6773302562642
 21
792.2453538222425
 31
0.0
  0
LINE
  5
7FC0
102
{ACAD_REACTORS
330
7C6E
102
}
330
1F
100
AcDbEntity
  8
SPOJOVACÍ
  6
Continuous
100
AcDbLine
 10
535.6773302562642
 20
792.2453538222425
 30
0.0
 11
535.7433727381858
 21
791.4584250991201
 31
0.0
  0
LINE
  5
7FC1
102
{ACAD_REACTORS
330
7C6E
102
}
330
1F
100
AcDbEntity
  8
SPOJOVACÍ
  6
Continuous
100
AcDbLine
 10
538.4427429009219
 20
791.4584250991201
 30
0.0
 11
538.6697057918054
 21
792.9820530525494
 31
0.0
  0
LINE
  5
7FC2
102
{ACAD_REACTORS
330
7C6E
102
}
330
1F
100
AcDbEntity
  8
SPOJOVACÍ
  6
Continuous
100
AcDbLine
 10
538.6697057918054
 20
792.9820530525494
 30
0.0
 11
539.282691640953
 21
794.3959202622527
 31
0.0
  0
LINE
  5
7FC3
102
{ACAD_REACTORS
330
7C6E
102
}
330
1F
100
AcDbEntity
  8
SPOJOVACÍ
  6
Continuous
100
AcDbLine
 10
539.282691640953
 20
794.3959202622527
 30
0.0
 11
540.4923657854369
 21
795.9203445719204
 31
0.0
  0
LINE
  5
7FC4
102
{ACAD_REACTORS
330
7C6E
102
}
330
1F
100
AcDbEntity
  8
SPOJOVACÍ
  6
Continuous
100
AcDbLine
 10
535.0708556397576
 20
784.5155929594211
 30
0.0
 11
539.1152599993501
 21
783.1566061215808
 31
0.0
  0
LINE
  5
7FC5
102
{ACAD_REACTORS
330
7C6E
102
}
330
1F
100
AcDbEntity
  8
SPOJOVACÍ
  6
Continuous
100
AcDbLine
 10
534.6932042644466
 20
784.1379415862929
 30
0.0
 11
535.0708556397576
 21
784.5155929594211
 31
0.0
  0
LINE
  5
7FC6
102
{ACAD_REACTORS
330
7C6E
102
}
330
1F
100
AcDbEntity
  8
SPOJOVACÍ
  6
Continuous
100
AcDbLine
 10
539.4929113702955
 20
786.0578244287926
 30
0.0
 11
539.1152599993501
 21
786.2764157408191
 31
0.0
  0
LINE
  5
7FC7
102
{ACAD_REACTORS
330
7C6E
102
}
330
1F
100
AcDbEntity
  8
SPOJOVACÍ
  6
Continuous
100
AcDbLine
 10
539.4929113702955
 20
786.0578244287926
 30
0.0
 11
539.1152599993501
 21
785.6801730556644
 31
0.0
  0
LINE
  5
7FC8
102
{ACAD_REACTORS
330
7C6E
102
}
330
1F
100
AcDbEntity
  8
SPOJOVACÍ
  6
Continuous
100
AcDbLine
 10
538.4427429009219
 20
785.9117868288767
 30
0.0
 11
538.4427429009219
 21
783.3928707738477
 31
0.0
  0
LINE
  5
7FC9
330
1F
100
AcDbEntity
  8
NOSNÉ KONSTRUKCE
100
AcDbLine
 10
496.6636282215758
 20
747.1395045950003
 30
0.0
 11
558.0133880089115
 21
747.139504595002
 31
0.0
  0
LINE
  5
7FCA
330
1F
100
AcDbEntity
  8
SPOJOVACÍ
  6
Continuous
100
AcDbLine
 10
535.0708556397576
 20
775.1561641022517
 30
0.0
 11
539.1152599993501
 21
773.7962470887095
 31
0.0
  0
LINE
  5
7FCB
330
1F
100
AcDbEntity
  8
SPOJOVACÍ
  6
Continuous
100
AcDbLine
 10
535.0708556397576
 20
774.559921417097
 30
0.0
 11
539.1152599993501
 21
773.2000044035548
 31
0.0
  0
LINE
  5
7FCC
330
1F
100
AcDbEntity
  8
SPOJOVACÍ
  6
Continuous
100
AcDbLine
 10
539.4929113702955
 20
773.577655776683
 30
0.0
 11
539.1152599993501
 21
773.7962470887095
 31
0.0
  0
LINE
  5
7FCD
330
1F
100
AcDbEntity
  8
SPOJOVACÍ
  6
Continuous
100
AcDbLine
 10
539.4929113702955
 20
773.577655776683
 30
0.0
 11
539.1152599993501
 21
773.2000044035548
 31
0.0
  0
LINE
  5
7FCE
330
1F
100
AcDbEntity
  8
SPOJOVACÍ
  6
Continuous
100
AcDbLine
 10
534.6932042644466
 20
774.7775825531452
 30
0.0
 11
535.0708556397576
 21
774.559921417097
 31
0.0
  0
LINE
  5
7FCF
330
1F
100
AcDbEntity
  8
SPOJOVACÍ
  6
Continuous
100
AcDbLine
 10
534.6932042644466
 20
774.7775825531452
 30
0.0
 11
539.4929113702955
 21
773.577655776683
 31
0.0
  0
LINE
  5
7FD0
330
1F
100
AcDbEntity
  8
SPOJOVACÍ
  6
Continuous
100
AcDbLine
 10
534.9471422588676
 20
771.7005610208316
 30
0.0
 11
539.0724719116105
 21
770.727597138527
 31
0.0
  0
LINE
  5
7FD1
330
1F
100
AcDbEntity
  8
SPOJOVACÍ
  6
Continuous
100
AcDbLine
 10
535.3257238071519
 20
772.0782123939597
 30
0.0
 11
538.6948205406651
 21
770.9452582745752
 31
0.0
  0
LINE
  5
7FD2
330
1F
100
AcDbEntity
  8
SPOJOVACÍ
  6
Continuous
100
AcDbLine
 10
535.3257238071519
 20
771.481969708805
 30
0.0
 11
538.6948205406651
 21
770.3490155894205
 31
0.0
  0
LINE
  5
7FD3
330
1F
100
AcDbEntity
  8
SPOJOVACÍ
  6
Continuous
100
AcDbLine
 10
539.0724719116105
 20
770.727597138527
 30
0.0
 11
538.6948205406651
 21
770.9452582745752
 31
0.0
  0
LINE
  5
7FD4
330
1F
100
AcDbEntity
  8
SPOJOVACÍ
  6
Continuous
100
AcDbLine
 10
539.0724719116105
 20
770.727597138527
 30
0.0
 11
538.6948205406651
 21
770.3490155894205
 31
0.0
  0
LINE
  5
7FD5
330
1F
100
AcDbEntity
  8
SPOJOVACÍ
  6
Continuous
100
AcDbLine
 10
534.9471422588676
 20
771.7005610208316
 30
0.0
 11
535.3257238071519
 21
772.0782123939597
 31
0.0
  0
LINE
  5
7FD6
330
1F
100
AcDbEntity
  8
SPOJOVACÍ
  6
Continuous
100
AcDbLine
 10
534.9471422588676
 20
771.7005610208316
 30
0.0
 11
535.3257238071519
 21
771.481969708805
 31
0.0
  0
LINE
  5
7FD7
330
1F
100
AcDbEntity
  8
SPOJOVACÍ
  6
Continuous
100
AcDbLine
 10
538.1971764894542
 20
771.1219916759246
 30
0.0
 11
538.4427429009219
 21
773.0930341872108
 31
0.0
  0
LINE
  5
7FD8
330
1F
100
AcDbEntity
  8
SPOJOVACÍ
  6
Continuous
100
AcDbLine
 10
535.9703356334348
 20
771.2754706820005
 30
0.0
 11
536.2605504829543
 21
768.9537518959359
 31
0.0
  0
LINE
  5
7FD9
330
1F
100
AcDbEntity
  8
SPOJOVACÍ
  6
Continuous
100
AcDbLine
 10
535.7433727381858
 20
773.0930341872108
 30
0.0
 11
535.8931310409088
 21
771.8958979378539
 31
0.0
  0
LINE
  5
7FDA
330
1F
100
AcDbEntity
  8
SPOJOVACÍ
  6
Continuous
100
AcDbLine
 10
538.4427429009219
 20
773.4297578250943
 30
0.0
 11
538.4427429009219
 21
773.0930341872108
 31
0.0
  0
LINE
  5
7FDB
330
1F
100
AcDbEntity
  8
SPOJOVACÍ
  6
Continuous
100
AcDbLine
 10
538.4427429009219
 20
776.5523579717073
 30
0.0
 11
538.4427429009219
 21
774.0334419166783
 31
0.0
  0
LINE
  5
7FDC
330
1F
100
AcDbEntity
  8
SPOJOVACÍ
  6
Continuous
100
AcDbLine
 10
535.7433727381858
 20
774.3403999290994
 30
0.0
 11
535.7433727381858
 21
773.0930341872108
 31
0.0
  0
LINE
  5
7FDD
330
1F
100
AcDbEntity
  8
SPOJOVACÍ
  6
Continuous
100
AcDbLine
 10
536.0763756754449
 20
765.672091688214
 30
0.0
 11
538.2306628169017
 21
765.3614129724401
 31
0.0
  0
LINE
  5
7FDE
330
1F
100
AcDbEntity
  8
SPOJOVACÍ
  6
Continuous
100
AcDbLine
 10
536.4540270463903
 20
766.0497430613422
 30
0.0
 11
537.8530114459563
 21
765.5790741087575
 31
0.0
  0
LINE
  5
7FDF
330
1F
100
AcDbEntity
  8
SPOJOVACÍ
  6
Continuous
100
AcDbLine
 10
536.4540270463903
 20
765.4535003761948
 30
0.0
 11
537.8530114459563
 21
764.9828314236101
 31
0.0
  0
LINE
  5
7FE0
330
1F
100
AcDbEntity
  8
SPOJOVACÍ
  6
Continuous
100
AcDbLine
 10
538.2306628169017
 20
765.3614129724401
 30
0.0
 11
537.8530114459563
 21
765.5790741087575
 31
0.0
  0
LINE
  5
7FE1
330
1F
100
AcDbEntity
  8
SPOJOVACÍ
  6
Continuous
100
AcDbLine
 10
538.2306628169017
 20
765.3614129724401
 30
0.0
 11
537.8530114459563
 21
764.9828314236101
 31
0.0
  0
LINE
  5
7FE2
330
1F
100
AcDbEntity
  8
SPOJOVACÍ
  6
Continuous
100
AcDbLine
 10
536.0763756754449
 20
765.672091688214
 30
0.0
 11
536.4540270463903
 21
766.0497430613422
 31
0.0
  0
LINE
  5
7FE3
330
1F
100
AcDbEntity
  8
SPOJOVACÍ
  6
Continuous
100
AcDbLine
 10
536.0763756754449
 20
765.672091688214
 30
0.0
 11
536.4540270463903
 21
765.4535003761948
 31
0.0
  0
LINE
  5
7FE4
330
1F
100
AcDbEntity
  8
SPOJOVACÍ
  6
Continuous
100
AcDbLine
 10
535.5117589649735
 20
768.6858612665337
 30
0.0
 11
538.6278478814046
 21
768.0524115497637
 31
0.0
  0
LINE
  5
7FE5
330
1F
100
AcDbEntity
  8
SPOJOVACÍ
  6
Continuous
100
AcDbLine
 10
535.8894103402844
 20
769.0644428156401
 30
0.0
 11
538.2501965104593
 21
768.2700726858119
 31
0.0
  0
LINE
  5
7FE6
330
1F
100
AcDbEntity
  8
SPOJOVACÍ
  6
Continuous
100
AcDbLine
 10
535.8894103402844
 20
768.4682001304854
 30
0.0
 11
538.2501965104593
 21
767.6738300009337
 31
0.0
  0
LINE
  5
7FE7
330
1F
100
AcDbEntity
  8
SPOJOVACÍ
  6
Continuous
100
AcDbLine
 10
538.6278478814046
 20
768.0524115497637
 30
0.0
 11
538.2501965104593
 21
768.2700726858119
 31
0.0
  0
LINE
  5
7FE8
330
1F
100
AcDbEntity
  8
SPOJOVACÍ
  6
Continuous
100
AcDbLine
 10
538.6278478814046
 20
768.0524115497637
 30
0.0
 11
538.2501965104593
 21
767.6738300009337
 31
0.0
  0
LINE
  5
7FE9
330
1F
100
AcDbEntity
  8
SPOJOVACÍ
  6
Continuous
100
AcDbLine
 10
535.5117589649735
 20
768.6858612665337
 30
0.0
 11
535.8894103402844
 21
769.0644428156401
 31
0.0
  0
LINE
  5
7FEA
330
1F
100
AcDbEntity
  8
SPOJOVACÍ
  6
Continuous
100
AcDbLine
 10
535.5117589649735
 20
768.6858612665337
 30
0.0
 11
535.8894103402844
 21
768.4682001304854
 31
0.0
  0
LINE
  5
7FEB
330
1F
100
AcDbEntity
  8
SPOJOVACÍ
  6
Continuous
100
AcDbLine
 10
537.8585924968929
 20
768.415180110026
 30
0.0
 11
538.1255529522304
 21
770.5517939128794
 31
0.0
  0
LINE
  5
7FEC
330
1F
100
AcDbEntity
  8
SPOJOVACÍ
  6
Continuous
100
AcDbLine
 10
537.5190783357238
 20
765.6981366105928
 30
0.0
 11
537.7869689640347
 21
767.8431219955773
 31
0.0
  0
LINE
  5
7FED
330
1F
100
AcDbEntity
  8
SPOJOVACÍ
  6
Continuous
100
AcDbLine
 10
536.7070348634724
 20
765.3818768400624
 30
0.0
 11
537.0930578173711
 21
762.2927630222575
 31
0.0
  0
LINE
  5
7FEE
330
1F
100
AcDbEntity
  8
SPOJOVACÍ
  6
Continuous
100
AcDbLine
 10
536.3396154257925
 20
768.3230927062713
 30
0.0
 11
536.6298302709465
 21
766.0023040959158
 31
0.0
  0
LINE
  5
7FEF
330
1F
100
AcDbEntity
  8
SPOJOVACÍ
  6
Continuous
100
AcDbLine
 10
537.0930578173711
 20
762.2927630222575
 30
0.0
 11
537.4474547985
 21
765.128869023526
 31
0.0
  0
HATCH
  5
7FF0
330
1F
100
AcDbEntity
  8
NOSNÉ KONSTRUKCE
100
AcDbHatch
 10
0.0
 20
0.0
 30
0.0
210
0.0
220
0.0
230
1.0
  2
SOLID
 70
     1
 71
     0
 91
        1
 92
        7
 72
     0
 73
     1
 93
       68
 10
496.8930944324665
 20
762.9612817692605
 10
498.4788667002712
 20
761.375532740988
 10
496.8930792597666
 20
759.789798885783
 10
496.8930533575176
 20
754.3755571378633
 10
500.8930449523459
 20
754.3755380015163
 10
500.8930497364335
 20
755.3755380015054
 10
497.8930581416052
 20
755.3755523537557
 10
497.8930772780868
 20
759.3755734444339
 10
499.8930973914384
 20
761.3755259751751
 10
497.8930964141173
 20
763.3754976424088
 10
497.8931155505988
 20
767.3755187330798
 10
499.8931332720522
 20
768.8755049622605
 10
497.8931299028472
 20
770.3755103279227
 10
497.8931490393433
 20
774.3755314185919
 10
499.893169152695
 20
776.3754839493294
 10
497.8931681753592
 20
778.3754556165686
 10
497.8931873118553
 20
782.3754767072414
 10
508.8931241953387
 20
782.3754240824773
 10
510.8931251726744
 20
780.3754524152455
 10
514.8930978170092
 20
780.3754332789877
 10
516.8931179303463
 20
782.3753858097325
 10
527.8930548138442
 20
782.375333184972
 10
538.892991697342
 20
782.3752805602079
 10
540.8929926746631
 20
780.3753088929761
 10
544.8929653189834
 20
780.3752897567164
 10
546.892985432335
 20
782.3752422874632
 10
557.8929223158329
 20
782.375189662699
 10
557.8929031793368
 20
778.3751685720262
 10
555.8928830659997
 20
776.3752160412796
 10
557.8928840433209
 20
774.3752443740459
 10
557.8928649068394
 20
770.3752232833712
 10
555.8928471853715
 20
768.8752370542033
 10
557.8928505545909
 20
767.3752316885338
 10
557.8928314180948
 20
763.3752105978628
 10
555.8928113047431
 20
761.375258067127
 10
557.8928122820643
 20
759.3752863998788
 10
557.8927931455973
 20
755.3752653092151
 10
554.8930598924771
 20
755.3752796602284
 10
554.8930646753424
 20
754.3755380015163
 10
558.8930562701707
 20
754.3755571378633
 10
558.8930303679217
 20
759.7897988857721
 10
557.3072429274025
 20
761.3755327409953
 10
558.8930151952218
 20
762.9612817692623
 10
558.892991685002
 20
767.8755259394939
 10
557.5596516349751
 20
768.8755129357915
 10
558.8929821168849
 20
769.8755126897094
 10
558.8929586066651
 20
774.7897568599283
 10
557.307171166146
 20
776.3754907151478
 10
558.8929434339798
 20
777.9612397434257
 10
558.892941453726
 20
778.3751637881132
 10
558.8929031793222
 20
778.3751637879295
 10
558.8929223158183
 20
782.3751848786005
 10
558.8929175317161
 20
783.3754814913254
 10
546.4787741807222
 20
783.375422100863
 10
544.4787732033865
 20
781.3754504336293
 10
541.3072134941167
 20
781.375435260582
 10
539.3073025976764
 20
783.3752785781171
 10
516.4789162469087
 20
783.375387791325
 10
514.4788961335425
 20
781.3754352605801
 10
511.3073364242873
 20
781.3754504336293
 10
509.3073354469661
 20
783.375422100863
 10
496.8931920959721
 20
783.3754814913254
 10
496.8931661937086
 20
777.961239743433
 10
498.4789384615278
 20
776.3754907151442
 10
496.8931510210086
 20
774.789756859921
 10
496.8931275107888
 20
769.8755126897077
 10
498.2264579926987
 20
768.8755129357969
 10
496.8931179426863
 20
767.8755259394975
 97
        0
 75
     0
 76
     1
 47
0.131671459398827
 98
        1
 10
497.5734701147439
 20
765.0923635218596
  0
ARC
  5
7FF1
330
1F
100
AcDbEntity
  8
NOSNÉ KONSTRUKCE
100
AcDbCircle
 10
544.5128544100871
 20
746.7257100545566
 30
0.0
 40
15.58254621860396
100
AcDbArc
 50
39.86813159098224
 51
90.0
  0
LINE
  5
7FF2
330
1F
100
AcDbEntity
  8
NOSNÉ KONSTRUKCE
100
AcDbLine
 10
557.2105580523193
 20
751.6793083918355
 30
0.0
 11
550.9647639756431
 21
751.6793083918355
 31
0.0
  0
LINE
  5
7FF3
330
1F
100
AcDbEntity
  8
NOSNÉ KONSTRUKCE
100
AcDbLine
 10
550.9647639756431
 20
756.7144779063119
 30
0.0
 11
556.4727985344934
 21
756.7144779063119
 31
0.0
  0
LINE
  5
7FF4
330
1F
100
AcDbEntity
  8
NOSNÉ KONSTRUKCE
100
AcDbLine
 10
550.9647639756431
 20
751.6793083918337
 30
0.0
 11
550.9647639756431
 21
756.7144779063119
 31
0.0
  0
ARC
  5
7FF5
330
1F
100
AcDbEntity
  8
NOSNÉ KONSTRUKCE
100
AcDbCircle
 10
542.4363369165794
 20
746.7257100545566
 30
0.0
 40
15.58254621860396
100
AcDbArc
 50
1.52166839352137
 51
18.53561215324396
  0
LWPOLYLINE
  5
7FF6
330
1F
100
AcDbEntity
  8
NOSNÉ KONSTRUKCE
100
AcDbPolyline
 90
        2
 70
     0
 43
0.0
 10
510.156696401812
 20
762.3082562731606
 10
544.5128544100871
 20
762.3082562731606
  0
LINE
  5
7FF7
330
1F
100
AcDbEntity
  8
NOSNÉ KONSTRUKCE
100
AcDbLine
 10
530.2606764636575
 20
723.368691237566
 30
0.0
 11
542.8121498033424
 21
722.3596429230647
 31
0.0
  0
ARC
  5
7FF8
330
1F
100
AcDbEntity
  8
NOSNÉ KONSTRUKCE
100
AcDbCircle
 10
555.3264840913753
 20
717.2949078420815
 30
0.0
 40
13.50037422122492
100
AcDbArc
 50
4.118925148725332
 51
157.9660968680482
  0
LINE
  5
7FF9
330
1F
100
AcDbEntity
  8
NOSNÉ KONSTRUKCE
100
AcDbLine
 10
528.2606764636721
 20
721.5230242777624
 30
0.0
 11
568.7919883644199
 21
718.2645978882019
 31
0.0
  0
LINE
  5
7FFA
330
1F
100
AcDbEntity
  8
STAVBA OBRYS
100
AcDbLine
 10
739.3379876495519
 20
740.1638232432987
 30
0.0
 11
739.3379876495519
 21
746.3151904307988
 31
0.0
  0
ARC
  5
7FFB
330
1F
100
AcDbEntity
  8
NOSNÉ KONSTRUKCE
100
AcDbCircle
 10
528.340810744804
 20
722.5198083551776
 30
0.0
 40
1.0
100
AcDbArc
 50
180.0
 51
265.4037157415578
  0
ARC
  5
7FFC
330
1F
100
AcDbEntity
  8
NOSNÉ KONSTRUKCE
100
AcDbCircle
 10
530.3408107447894
 20
724.3654753149812
 30
0.0
 40
1.0
100
AcDbArc
 50
180.0
 51
265.4037157415578
  0
LINE
  5
7FFD
330
1F
100
AcDbEntity
  8
NOSNÉ KONSTRUKCE
100
AcDbLine
 10
529.3408107447894
 20
747.1395045950003
 30
0.0
 11
529.3408107447894
 21
724.3654753149812
 31
0.0
  0
LINE
  5
7FFE
330
1F
100
AcDbEntity
  8
NOSNÉ KONSTRUKCE
100
AcDbLine
 10
527.3408107447894
 20
747.1395045950003
 30
0.0
 11
527.340810744804
 21
722.5198083551776
 31
0.0
  0
HATCH
  5
7FFF
330
1F
100
AcDbEntity
  8
NOSNÉ KONSTRUKCE
100
AcDbHatch
 10
0.0
 20
0.0
 30
0.0
210
0.0
220
0.0
230
1.0
  2
SOLID
 70
     1
 71
     0
 91
        1
 92
        7
 72
     0
 73
     1
 93
        8
 10
498.8256004134155
 20
700.9601700798839
 10
497.3256004134155
 20
700.9601700798839
 10
497.3256004134155
 20
746.3226497810128
 10
526.3255439032209
 20
746.3226497809983
 10
526.3255439032209
 20
700.9601700798912
 10
524.8255439032209
 20
700.9601700798839
 10
524.8255439032209
 20
744.8226497810128
 10
498.8256004134155
 20
744.8226497810055
 97
        0
 75
     0
 76
     1
 47
0.1358226225865344
 98
        1
 10
498.0997316247221
 20
706.4922142871319
  0
ARC
  5
8000
330
1F
100
AcDbEntity
  8
NOSNÉ KONSTRUKCE
100
AcDbCircle
 10
512.240679313908
 20
746.7257100545566
 30
0.0
 40
15.58254621860396
100
AcDbArc
 50
161.464387846756
 51
178.4783316064786
  0
LINE
  5
8001
330
1F
100
AcDbEntity
  8
NOSNÉ KONSTRUKCE
100
AcDbLine
 10
503.704786836256
 20
751.6793083918337
 30
0.0
 11
503.704786836256
 21
756.7144779063119
 31
0.0
  0
LINE
  5
8002
330
1F
100
AcDbEntity
  8
NOSNÉ KONSTRUKCE
100
AcDbLine
 10
503.704786836256
 20
756.7144779063119
 30
0.0
 11
498.1967522774202
 21
756.7144779063119
 31
0.0
  0
LINE
  5
8003
330
1F
100
AcDbEntity
  8
NOSNÉ KONSTRUKCE
100
AcDbLine
 10
497.466458178168
 20
751.6793083918337
 30
0.0
 11
503.704786836256
 21
751.6793083918355
 31
0.0
  0
ARC
  5
8004
330
1F
100
AcDbEntity
  8
NOSNÉ KONSTRUKCE
100
AcDbCircle
 10
510.156696401812
 20
746.7257100545566
 30
0.0
 40
15.58254621860396
100
AcDbArc
 50
90.0
 51
140.1318684090177
  0
LINE
  5
8005
102
{ACAD_REACTORS
330
7C6E
102
}
330
1F
100
AcDbEntity
  8
SPOJOVACÍ
  6
Continuous
100
AcDbLine
 10
531.9929039287371
 20
798.0580223702081
 30
0.0
 11
531.9929039287371
 21
796.8580955934767
 31
0.0
  0
LINE
  5
8006
102
{ACAD_REACTORS
330
7C6F
102
}
330
1F
100
AcDbEntity
  8
CETRIS
100
AcDbLine
 10
495.5689426195886
 20
798.0327045167095
 30
0.0
 11
481.5689426195886
 21
798.0327045167095
 31
0.0
  0
LINE
  5
8007
102
{ACAD_REACTORS
330
7C6F
102
}
330
1F
100
AcDbEntity
  8
CETRIS
100
AcDbLine
 10
481.5689426195886
 20
394.5976763448807
 30
0.0
 11
481.5689426195886
 21
798.0327045167095
 31
0.0
  0
LINE
  5
8008
102
{ACAD_REACTORS
330
7C6F
102
}
330
1F
100
AcDbEntity
  8
CETRIS
100
AcDbLine
 10
495.5689426195886
 20
394.5976763448807
 30
0.0
 11
495.5689426196031
 21
798.0327045167095
 31
0.0
  0
LINE
  5
8009
102
{ACAD_REACTORS
330
7C6E
102
}
330
1F
100
AcDbEntity
  8
SPOJOVACÍ
  6
Continuous
100
AcDbLine
 10
538.4427429009219
 20
406.7185940327135
 30
0.0
 11
538.4427429009219
 21
409.2375100877425
 31
0.0
  0
LINE
  5
800A
102
{ACAD_REACTORS
330
7C6E
102
}
330
1F
100
AcDbEntity
  8
SPOJOVACÍ
  6
Continuous
100
AcDbLine
 10
539.4929113702955
 20
406.5725564327976
 30
0.0
 11
539.1152599993501
 21
406.9502078059258
 31
0.0
  0
LINE
  5
800B
102
{ACAD_REACTORS
330
7C6E
102
}
330
1F
100
AcDbEntity
  8
SPOJOVACÍ
  6
Continuous
100
AcDbLine
 10
539.4929113702955
 20
406.5725564327976
 30
0.0
 11
539.1152599993501
 21
406.3539651207711
 31
0.0
  0
LINE
  5
800C
102
{ACAD_REACTORS
330
7C6E
102
}
330
1F
100
AcDbEntity
  8
SPOJOVACÍ
  6
Continuous
100
AcDbLine
 10
534.6932042644466
 20
408.4924392752973
 30
0.0
 11
535.0708556397576
 21
408.1147879021691
 31
0.0
  0
LINE
  5
800D
102
{ACAD_REACTORS
330
7C6E
102
}
330
1F
100
AcDbEntity
  8
SPOJOVACÍ
  6
Continuous
100
AcDbLine
 10
535.0708556397576
 20
408.1147879021691
 30
0.0
 11
539.1152599993501
 21
409.4737747400094
 31
0.0
  0
LINE
  5
800E
102
{ACAD_REACTORS
330
7C6E
102
}
330
1F
100
AcDbEntity
  8
SPOJOVACÍ
  6
Continuous
100
AcDbLine
 10
539.282691640953
 20
398.2344605993375
 30
0.0
 11
540.4923657854369
 21
396.7100362896699
 31
0.0
  0
LINE
  5
800F
102
{ACAD_REACTORS
330
7C6E
102
}
330
1F
100
AcDbEntity
  8
SPOJOVACÍ
  6
Continuous
100
AcDbLine
 10
538.6697057918054
 20
399.6483278090408
 30
0.0
 11
539.282691640953
 21
398.2344605993375
 31
0.0
  0
LINE
  5
8010
102
{ACAD_REACTORS
330
7C6E
102
}
330
1F
100
AcDbEntity
  8
SPOJOVACÍ
  6
Continuous
100
AcDbLine
 10
538.4427429009219
 20
401.1719557624701
 30
0.0
 11
538.6697057918054
 21
399.6483278090408
 31
0.0
  0
LINE
  5
8011
102
{ACAD_REACTORS
330
7C6E
102
}
330
1F
100
AcDbEntity
  8
SPOJOVACÍ
  6
Continuous
100
AcDbLine
 10
535.6773302562642
 20
400.3850270393477
 30
0.0
 11
535.7433727381858
 21
401.1719557624701
 31
0.0
  0
LINE
  5
8012
102
{ACAD_REACTORS
330
7C6E
102
}
330
1F
100
AcDbEntity
  8
SPOJOVACÍ
  6
Continuous
100
AcDbLine
 10
535.2494493919648
 20
398.9041871722974
 30
0.0
 11
535.6773302562642
 21
400.3850270393477
 31
0.0
  0
LINE
  5
8013
102
{ACAD_REACTORS
330
7C6E
102
}
330
1F
100
AcDbEntity
  8
SPOJOVACÍ
  6
Continuous
100
AcDbLine
 10
534.4532189126466
 20
397.5851978939999
 30
0.0
 11
535.2494493919648
 21
398.9041871722974
 31
0.0
  0
LINE
  5
8014
102
{ACAD_REACTORS
330
7C6E
102
}
330
1F
100
AcDbEntity
  8
SPOJOVACÍ
  6
Continuous
100
AcDbLine
 10
533.342589012288
 20
396.5164259045877
 30
0.0
 11
534.4532189126466
 21
397.5851978939999
 31
0.0
  0
LINE
  5
8015
102
{ACAD_REACTORS
330
7C6E
102
}
330
1F
100
AcDbEntity
  8
SPOJOVACÍ
  6
Continuous
100
AcDbLine
 10
538.4427429009219
 20
401.1719557624701
 30
0.0
 11
538.4427429009219
 21
406.1149099413987
 31
0.0
  0
LINE
  5
8016
102
{ACAD_REACTORS
330
7C6E
102
}
330
1F
100
AcDbEntity
  8
SPOJOVACÍ
  6
Continuous
100
AcDbLine
 10
535.7433727381858
 20
401.1719557624701
 30
0.0
 11
535.7433727381858
 21
405.2098488921501
 31
0.0
  0
LINE
  5
8017
102
{ACAD_REACTORS
330
7C6E
102
}
330
1F
100
AcDbEntity
  8
SPOJOVACÍ
  6
Continuous
100
AcDbLine
 10
535.7433727381858
 20
405.8051614013265
 30
0.0
 11
535.7433727381858
 21
408.3240774563555
 31
0.0
  0
LINE
  5
8018
330
1F
100
AcDbEntity
  8
SPOJOVACÍ
  6
Continuous
100
AcDbLine
 10
534.6932042644466
 20
405.3726296563354
 30
0.0
 11
539.4929113702955
 21
406.5725564327976
 31
0.0
  0
LINE
  5
8019
102
{ACAD_REACTORS
330
7C6E
102
}
330
1F
100
AcDbEntity
  8
SPOJOVACÍ
  6
Continuous
100
AcDbLine
 10
534.6932042644466
 20
405.3726296563354
 30
0.0
 11
535.0708556397576
 21
405.5902907923837
 31
0.0
  0
LINE
  5
801A
102
{ACAD_REACTORS
330
7C6E
102
}
330
1F
100
AcDbEntity
  8
SPOJOVACÍ
  6
Continuous
100
AcDbLine
 10
534.6932042644466
 20
405.3726296563354
 30
0.0
 11
535.0708556397576
 21
404.9940481075054
 31
0.0
  0
LINE
  5
801B
102
{ACAD_REACTORS
330
7C6E
102
}
330
1F
100
AcDbEntity
  8
SPOJOVACÍ
  6
Continuous
100
AcDbLine
 10
535.0708556397576
 20
405.5902907923837
 30
0.0
 11
539.1152599993501
 21
406.9502078059258
 31
0.0
  0
LINE
  5
801C
102
{ACAD_REACTORS
330
7C6E
102
}
330
1F
100
AcDbEntity
  8
SPOJOVACÍ
  6
Continuous
100
AcDbLine
 10
535.0708556397576
 20
404.9940481075054
 30
0.0
 11
539.1152599993501
 21
406.3539651207711
 31
0.0
  0
LINE
  5
801D
102
{ACAD_REACTORS
330
7C6E
102
}
330
1F
100
AcDbEntity
  8
SPOJOVACÍ
  6
Continuous
100
AcDbLine
 10
542.193211706005
 20
394.5723584913821
 30
0.0
 11
542.193211706005
 21
395.7722852681135
 31
0.0
  0
LINE
  5
801E
102
{ACAD_REACTORS
330
7C6E
102
}
330
1F
100
AcDbEntity
  8
SPOJOVACÍ
  6
Continuous
100
AcDbLine
 10
542.193211706005
 20
395.7722852681135
 30
0.0
 11
540.4923657854369
 21
396.7100362896699
 31
0.0
  0
LINE
  5
801F
102
{ACAD_REACTORS
330
7C6E
102
}
330
1F
100
AcDbEntity
  8
SPOJOVACÍ
  6
Continuous
100
AcDbLine
 10
531.9929039287371
 20
394.5723584913821
 30
0.0
 11
531.9929039287371
 21
395.7722852681135
 31
0.0
  0
LINE
  5
8020
102
{ACAD_REACTORS
330
7C6E
102
}
330
1F
100
AcDbEntity
  8
SPOJOVACÍ
  6
Continuous
100
AcDbLine
 10
531.9929039287371
 20
395.7722852681135
 30
0.0
 11
533.342589012288
 21
396.5164259045877
 31
0.0
  0
LINE
  5
8021
330
1F
100
AcDbEntity
  8
SPOJOVACÍ
  6
Continuous
100
AcDbLine
 10
531.9929039287371
 20
395.7722852681135
 30
0.0
 11
542.193211706005
 21
395.7722852681135
 31
0.0
  0
LINE
  5
8022
330
1F
100
AcDbEntity
  8
SPOJOVACÍ
  6
Continuous
100
AcDbLine
 10
531.9929039287371
 20
394.5723584913821
 30
0.0
 11
542.193211706005
 21
394.5723584913821
 31
0.0
  0
LWPOLYLINE
  5
8023
330
1F
100
AcDbEntity
  8
NOSNÉ KONSTRUKCE
100
AcDbPolyline
 90
        2
 70
     0
 43
0.0
 10
510.156696401812
 20
430.3221245884296
 10
544.5128544100871
 20
430.3221245884296
  0
LINE
  5
8024
330
1F
100
AcDbEntity
  8
NOSNÉ KONSTRUKCE
100
AcDbLine
 10
496.6636282215758
 20
445.49087626659
 30
0.0
 11
558.0133880089115
 21
445.4908762665882
 31
0.0
  0
ARC
  5
8025
330
1F
100
AcDbEntity
  8
NOSNÉ KONSTRUKCE
100
AcDbCircle
 10
542.4363369165794
 20
445.9046708070336
 30
0.0
 40
15.58254621860396
100
AcDbArc
 50
341.464387846756
 51
358.4783316064786
  0
LINE
  5
8026
330
1F
100
AcDbEntity
  8
NOSNÉ KONSTRUKCE
100
AcDbLine
 10
550.9647639756431
 20
440.9510724697565
 30
0.0
 11
550.9647639756431
 21
435.9159029552784
 31
0.0
  0
LINE
  5
8027
330
1F
100
AcDbEntity
  8
NOSNÉ KONSTRUKCE
100
AcDbLine
 10
550.9647639756431
 20
435.9159029552784
 30
0.0
 11
556.4727985344934
 21
435.9159029552784
 31
0.0
  0
LINE
  5
8028
330
1F
100
AcDbEntity
  8
NOSNÉ KONSTRUKCE
100
AcDbLine
 10
557.2105580523193
 20
440.9510724697547
 30
0.0
 11
550.9647639756431
 21
440.9510724697547
 31
0.0
  0
ARC
  5
8029
330
1F
100
AcDbEntity
  8
NOSNÉ KONSTRUKCE
100
AcDbCircle
 10
544.5128544100871
 20
445.9046708070336
 30
0.0
 40
15.58254621860396
100
AcDbArc
 50
270.0
 51
320.1318684090177
  0
ARC
  5
802A
330
1F
100
AcDbEntity
  8
NOSNÉ KONSTRUKCE
100
AcDbCircle
 10
510.156696401812
 20
445.9046708070336
 30
0.0
 40
15.58254621860396
100
AcDbArc
 50
219.8681315909822
 51
270.0
  0
LINE
  5
802B
330
1F
100
AcDbEntity
  8
NOSNÉ KONSTRUKCE
100
AcDbLine
 10
497.466458178168
 20
440.9510724697565
 30
0.0
 11
503.704786836256
 21
440.9510724697547
 31
0.0
  0
LINE
  5
802C
330
1F
100
AcDbEntity
  8
NOSNÉ KONSTRUKCE
100
AcDbLine
 10
503.704786836256
 20
435.9159029552784
 30
0.0
 11
498.1967522774202
 21
435.9159029552784
 31
0.0
  0
LINE
  5
802D
330
1F
100
AcDbEntity
  8
NOSNÉ KONSTRUKCE
100
AcDbLine
 10
503.704786836256
 20
440.9510724697565
 30
0.0
 11
503.704786836256
 21
435.9159029552784
 31
0.0
  0
ARC
  5
802E
330
1F
100
AcDbEntity
  8
NOSNÉ KONSTRUKCE
100
AcDbCircle
 10
512.240679313908
 20
445.9046708070336
 30
0.0
 40
15.58254621860396
100
AcDbArc
 50
181.5216683935213
 51
198.5356121532439
  0
HATCH
  5
802F
330
1F
100
AcDbEntity
  8
NOSNÉ KONSTRUKCE
100
AcDbHatch
 10
0.0
 20
0.0
 30
0.0
210
0.0
220
0.0
230
1.0
  2
SOLID
 70
     1
 71
     0
 91
        1
 92
        7
 72
     0
 73
     1
 93
       68
 10
496.8930944324665
 20
429.6690990923297
 10
498.4788667002712
 20
431.2548481206022
 10
496.8930792597666
 20
432.8405819758073
 10
496.8930533575176
 20
438.2548237237269
 10
500.8930449523459
 20
438.2548428600739
 10
500.8930497364335
 20
437.2548428600849
 10
497.8930581416052
 20
437.2548285078346
 10
497.8930772780868
 20
433.2548074171564
 10
499.8930973914384
 20
431.2548548864151
 10
497.8930964141173
 20
429.2548832191815
 10
497.8931155505988
 20
425.2548621285105
 10
499.8931332720522
 20
423.7548758993297
 10
497.8931299028472
 20
422.2548705336675
 10
497.8931490393433
 20
418.2548494429984
 10
499.893169152695
 20
416.2548969122608
 10
497.8931681753592
 20
414.2549252450216
 10
497.8931873118553
 20
410.2549041543488
 10
508.8931241953387
 20
410.2549567791129
 10
510.8931251726744
 20
412.2549284463448
 10
514.8930978170092
 20
412.2549475826026
 10
516.8931179303463
 20
410.2549950518578
 10
527.8930548138442
 20
410.2550476766182
 10
538.892991697342
 20
410.2551003013823
 10
540.8929926746631
 20
412.2550719686142
 10
544.8929653189834
 20
412.2550911048738
 10
546.892985432335
 20
410.2551385741271
 10
557.8929223158329
 20
410.2551911988912
 10
557.8929031793368
 20
414.255212289564
 10
555.8928830659997
 20
416.2551648203106
 10
557.8928840433209
 20
418.2551364875443
 10
557.8928649068394
 20
422.255157578219
 10
555.8928471853715
 20
423.7551438073869
 10
557.8928505545909
 20
425.2551491730564
 10
557.8928314180948
 20
429.2551702637275
 10
555.8928113047431
 20
431.2551227944632
 10
557.8928122820643
 20
433.2550944617114
 10
557.8927931455973
 20
437.2551155523751
 10
554.8930598924771
 20
437.2551012013619
 10
554.8930646753424
 20
438.2548428600739
 10
558.8930562701707
 20
438.2548237237269
 10
558.8930303679217
 20
432.8405819758181
 10
557.3072429274025
 20
431.2548481205949
 10
558.8930151952218
 20
429.669099092328
 10
558.892991685002
 20
424.7548549220964
 10
557.5596516349751
 20
423.7548679257988
 10
558.8929821168849
 20
422.7548681718808
 10
558.8929586066651
 20
417.840624001662
 10
557.307171166146
 20
416.2548901464424
 10
558.8929434339798
 20
414.6691411181645
 10
558.892941453726
 20
414.255217073477
 10
558.8929031793222
 20
414.2552170736608
 10
558.8929223158183
 20
410.2551959829898
 10
558.8929175317161
 20
409.2548993702648
 10
546.4787741807222
 20
409.2549587607273
 10
544.4787732033865
 20
411.2549304279609
 10
541.3072134941167
 20
411.2549456010083
 10
539.3073025976764
 20
409.2551022834731
 10
516.4789162469087
 20
409.2549930702652
 10
514.4788961335425
 20
411.2549456010101
 10
511.3073364242873
 20
411.2549304279609
 10
509.3073354469661
 20
409.2549587607273
 10
496.8931920959721
 20
409.2548993702648
 10
496.8931661937086
 20
414.6691411181572
 10
498.4789384615278
 20
416.254890146446
 10
496.8931510210086
 20
417.8406240016693
 10
496.8931275107888
 20
422.7548681718826
 10
498.2264579926987
 20
423.7548679257933
 10
496.8931179426863
 20
424.7548549220928
 97
        0
 75
     0
 76
     1
 47
0.131671459398827
 98
        1
 10
497.5734701147439
 20
427.5380173397307
  0
LINE
  5
8030
330
1F
100
AcDbEntity
  8
SPOJOVACÍ
  6
Continuous
100
AcDbLine
 10
537.0930578173711
 20
430.3376178393327
 30
0.0
 11
537.4474547985
 21
427.5015118380642
 31
0.0
  0
LINE
  5
8031
330
1F
100
AcDbEntity
  8
SPOJOVACÍ
  6
Continuous
100
AcDbLine
 10
536.3396154257925
 20
424.3072881553189
 30
0.0
 11
536.6298302709465
 21
426.6280767656744
 31
0.0
  0
LINE
  5
8032
330
1F
100
AcDbEntity
  8
SPOJOVACÍ
  6
Continuous
100
AcDbLine
 10
536.7070348634724
 20
427.2485040215278
 30
0.0
 11
537.0930578173711
 21
430.3376178393327
 31
0.0
  0
LINE
  5
8033
330
1F
100
AcDbEntity
  8
SPOJOVACÍ
  6
Continuous
100
AcDbLine
 10
537.5190783357238
 20
426.9322442509974
 30
0.0
 11
537.7869689640347
 21
424.7872588660129
 31
0.0
  0
LINE
  5
8034
330
1F
100
AcDbEntity
  8
SPOJOVACÍ
  6
Continuous
100
AcDbLine
 10
537.8585924968929
 20
424.2152007515642
 30
0.0
 11
538.1255529522304
 21
422.0785869487108
 31
0.0
  0
LINE
  5
8035
330
1F
100
AcDbEntity
  8
SPOJOVACÍ
  6
Continuous
100
AcDbLine
 10
535.5117589649735
 20
423.9445195950565
 30
0.0
 11
535.8894103402844
 21
424.1621807311048
 31
0.0
  0
LINE
  5
8036
330
1F
100
AcDbEntity
  8
SPOJOVACÍ
  6
Continuous
100
AcDbLine
 10
535.5117589649735
 20
423.9445195950565
 30
0.0
 11
535.8894103402844
 21
423.5659380459501
 31
0.0
  0
LINE
  5
8037
330
1F
100
AcDbEntity
  8
SPOJOVACÍ
  6
Continuous
100
AcDbLine
 10
538.6278478814046
 20
424.5779693118265
 30
0.0
 11
538.2501965104593
 21
424.9565508606565
 31
0.0
  0
LINE
  5
8038
330
1F
100
AcDbEntity
  8
SPOJOVACÍ
  6
Continuous
100
AcDbLine
 10
538.6278478814046
 20
424.5779693118265
 30
0.0
 11
538.2501965104593
 21
424.3603081757783
 31
0.0
  0
LINE
  5
8039
330
1F
100
AcDbEntity
  8
SPOJOVACÍ
  6
Continuous
100
AcDbLine
 10
535.8894103402844
 20
424.1621807311048
 30
0.0
 11
538.2501965104593
 21
424.9565508606565
 31
0.0
  0
LINE
  5
803A
330
1F
100
AcDbEntity
  8
SPOJOVACÍ
  6
Continuous
100
AcDbLine
 10
535.8894103402844
 20
423.5659380459501
 30
0.0
 11
538.2501965104593
 21
424.3603081757783
 31
0.0
  0
LINE
  5
803B
330
1F
100
AcDbEntity
  8
SPOJOVACÍ
  6
Continuous
100
AcDbLine
 10
535.5117589649735
 20
423.9445195950565
 30
0.0
 11
538.6278478814046
 21
424.5779693118265
 31
0.0
  0
LINE
  5
803C
330
1F
100
AcDbEntity
  8
SPOJOVACÍ
  6
Continuous
100
AcDbLine
 10
536.0763756754449
 20
426.9582891733762
 30
0.0
 11
536.4540270463903
 21
427.1768804853954
 31
0.0
  0
LINE
  5
803D
330
1F
100
AcDbEntity
  8
SPOJOVACÍ
  6
Continuous
100
AcDbLine
 10
536.0763756754449
 20
426.9582891733762
 30
0.0
 11
536.4540270463903
 21
426.580637800248
 31
0.0
  0
LINE
  5
803E
330
1F
100
AcDbEntity
  8
SPOJOVACÍ
  6
Continuous
100
AcDbLine
 10
538.2306628169017
 20
427.2689678891501
 30
0.0
 11
537.8530114459563
 21
427.6475494379801
 31
0.0
  0
LINE
  5
803F
330
1F
100
AcDbEntity
  8
SPOJOVACÍ
  6
Continuous
100
AcDbLine
 10
538.2306628169017
 20
427.2689678891501
 30
0.0
 11
537.8530114459563
 21
427.0513067528327
 31
0.0
  0
LINE
  5
8040
330
1F
100
AcDbEntity
  8
SPOJOVACÍ
  6
Continuous
100
AcDbLine
 10
536.4540270463903
 20
427.1768804853954
 30
0.0
 11
537.8530114459563
 21
427.6475494379801
 31
0.0
  0
LINE
  5
8041
330
1F
100
AcDbEntity
  8
SPOJOVACÍ
  6
Continuous
100
AcDbLine
 10
536.4540270463903
 20
426.580637800248
 30
0.0
 11
537.8530114459563
 21
427.0513067528327
 31
0.0
  0
LINE
  5
8042
330
1F
100
AcDbEntity
  8
SPOJOVACÍ
  6
Continuous
100
AcDbLine
 10
536.0763756754449
 20
426.9582891733762
 30
0.0
 11
538.2306628169017
 21
427.2689678891501
 31
0.0
  0
LINE
  5
8043
330
1F
100
AcDbEntity
  8
SPOJOVACÍ
  6
Continuous
100
AcDbLine
 10
535.7433727381858
 20
412.042920287854
 30
0.0
 11
535.7433727381858
 21
414.5711381007231
 31
0.0
  0
LINE
  5
8044
330
1F
100
AcDbEntity
  8
SPOJOVACÍ
  6
Continuous
100
AcDbLine
 10
538.4427429009219
 20
412.9563529192409
 30
0.0
 11
538.4427429009219
 21
415.47712932595
 31
0.0
  0
LINE
  5
8045
330
1F
100
AcDbEntity
  8
SPOJOVACÍ
  6
Continuous
100
AcDbLine
 10
535.7433727381858
 20
415.1757523680089
 30
0.0
 11
535.7433727381858
 21
417.6937382473361
 31
0.0
  0
LINE
  5
8046
330
1F
100
AcDbEntity
  8
SPOJOVACÍ
  6
Continuous
100
AcDbLine
 10
535.7433727381858
 20
418.2899809324908
 30
0.0
 11
535.7433727381858
 21
419.5373466743794
 31
0.0
  0
LINE
  5
8047
330
1F
100
AcDbEntity
  8
SPOJOVACÍ
  6
Continuous
100
AcDbLine
 10
538.4427429009219
 20
416.0780228898829
 30
0.0
 11
538.4427429009219
 21
418.5969389449119
 31
0.0
  0
LINE
  5
8048
330
1F
100
AcDbEntity
  8
SPOJOVACÍ
  6
Continuous
100
AcDbLine
 10
538.4427429009219
 20
419.2006230364959
 30
0.0
 11
538.4427429009219
 21
419.5373466743794
 31
0.0
  0
LINE
  5
8049
330
1F
100
AcDbEntity
  8
SPOJOVACÍ
  6
Continuous
100
AcDbLine
 10
535.7433727381858
 20
419.5373466743794
 30
0.0
 11
535.8931310409088
 21
420.7344829237363
 31
0.0
  0
LINE
  5
804A
330
1F
100
AcDbEntity
  8
SPOJOVACÍ
  6
Continuous
100
AcDbLine
 10
535.9703356334348
 20
421.3549101795897
 30
0.0
 11
536.2605504829543
 21
423.6766289656543
 31
0.0
  0
LINE
  5
804B
330
1F
100
AcDbEntity
  8
SPOJOVACÍ
  6
Continuous
100
AcDbLine
 10
538.1971764894542
 20
421.5083891856656
 30
0.0
 11
538.4427429009219
 21
419.5373466743794
 31
0.0
  0
LINE
  5
804C
330
1F
100
AcDbEntity
  8
SPOJOVACÍ
  6
Continuous
100
AcDbLine
 10
534.9471422588676
 20
420.9298198407586
 30
0.0
 11
535.3257238071519
 21
421.1484111527852
 31
0.0
  0
LINE
  5
804D
330
1F
100
AcDbEntity
  8
SPOJOVACÍ
  6
Continuous
100
AcDbLine
 10
534.9471422588676
 20
420.9298198407586
 30
0.0
 11
535.3257238071519
 21
420.5521684676305
 31
0.0
  0
LINE
  5
804E
330
1F
100
AcDbEntity
  8
SPOJOVACÍ
  6
Continuous
100
AcDbLine
 10
539.0724719116105
 20
421.9027837230632
 30
0.0
 11
538.6948205406651
 21
422.2813652721697
 31
0.0
  0
LINE
  5
804F
330
1F
100
AcDbEntity
  8
SPOJOVACÍ
  6
Continuous
100
AcDbLine
 10
539.0724719116105
 20
421.9027837230632
 30
0.0
 11
538.6948205406651
 21
421.685122587015
 31
0.0
  0
LINE
  5
8050
330
1F
100
AcDbEntity
  8
SPOJOVACÍ
  6
Continuous
100
AcDbLine
 10
535.3257238071519
 20
421.1484111527852
 30
0.0
 11
538.6948205406651
 21
422.2813652721697
 31
0.0
  0
LINE
  5
8051
330
1F
100
AcDbEntity
  8
SPOJOVACÍ
  6
Continuous
100
AcDbLine
 10
535.3257238071519
 20
420.5521684676305
 30
0.0
 11
538.6948205406651
 21
421.685122587015
 31
0.0
  0
LINE
  5
8052
330
1F
100
AcDbEntity
  8
SPOJOVACÍ
  6
Continuous
100
AcDbLine
 10
534.9471422588676
 20
420.9298198407586
 30
0.0
 11
539.0724719116105
 21
421.9027837230632
 31
0.0
  0
LINE
  5
8053
330
1F
100
AcDbEntity
  8
SPOJOVACÍ
  6
Continuous
100
AcDbLine
 10
534.6932042644466
 20
414.7320585135048
 30
0.0
 11
539.4929113702955
 21
415.931985289967
 31
0.0
  0
LINE
  5
8054
330
1F
100
AcDbEntity
  8
SPOJOVACÍ
  6
Continuous
100
AcDbLine
 10
534.6932042644466
 20
414.7320585135048
 30
0.0
 11
535.0708556397576
 21
414.9506498255241
 31
0.0
  0
LINE
  5
8055
330
1F
100
AcDbEntity
  8
SPOJOVACÍ
  6
Continuous
100
AcDbLine
 10
534.6932042644466
 20
414.7320585135048
 30
0.0
 11
535.0708556397576
 21
414.3544071403766
 31
0.0
  0
LINE
  5
8056
330
1F
100
AcDbEntity
  8
SPOJOVACÍ
  6
Continuous
100
AcDbLine
 10
539.4929113702955
 20
415.931985289967
 30
0.0
 11
539.1152599993501
 21
416.310566838797
 31
0.0
  0
LINE
  5
8057
330
1F
100
AcDbEntity
  8
SPOJOVACÍ
  6
Continuous
100
AcDbLine
 10
539.4929113702955
 20
415.931985289967
 30
0.0
 11
539.1152599993501
 21
415.7143241539188
 31
0.0
  0
LINE
  5
8058
330
1F
100
AcDbEntity
  8
SPOJOVACÍ
  6
Continuous
100
AcDbLine
 10
535.0708556397576
 20
414.9506498255241
 30
0.0
 11
539.1152599993501
 21
416.310566838797
 31
0.0
  0
LINE
  5
8059
330
1F
100
AcDbEntity
  8
SPOJOVACÍ
  6
Continuous
100
AcDbLine
 10
535.0708556397576
 20
414.3544071403766
 30
0.0
 11
539.1152599993501
 21
415.7143241539188
 31
0.0
  0
LINE
  5
805A
330
1F
100
AcDbEntity
  8
SPOJOVACÍ
  6
Continuous
100
AcDbLine
 10
534.6932042644466
 20
417.852798308445
 30
0.0
 11
539.4929113702955
 21
419.0527250849072
 31
0.0
  0
LINE
  5
805B
330
1F
100
AcDbEntity
  8
SPOJOVACÍ
  6
Continuous
100
AcDbLine
 10
534.6932042644466
 20
417.852798308445
 30
0.0
 11
535.0708556397576
 21
418.0704594444932
 31
0.0
  0
LINE
  5
805C
330
1F
100
AcDbEntity
  8
SPOJOVACÍ
  6
Continuous
100
AcDbLine
 10
534.6932042644466
 20
417.852798308445
 30
0.0
 11
535.0708556397576
 21
417.4742167593385
 31
0.0
  0
LINE
  5
805D
330
1F
100
AcDbEntity
  8
SPOJOVACÍ
  6
Continuous
100
AcDbLine
 10
539.4929113702955
 20
419.0527250849072
 30
0.0
 11
539.1152599993501
 21
419.4303764580354
 31
0.0
  0
LINE
  5
805E
330
1F
100
AcDbEntity
  8
SPOJOVACÍ
  6
Continuous
100
AcDbLine
 10
539.4929113702955
 20
419.0527250849072
 30
0.0
 11
539.1152599993501
 21
418.8341337728807
 31
0.0
  0
LINE
  5
805F
330
1F
100
AcDbEntity
  8
SPOJOVACÍ
  6
Continuous
100
AcDbLine
 10
535.0708556397576
 20
418.0704594444932
 30
0.0
 11
539.1152599993501
 21
419.4303764580354
 31
0.0
  0
LINE
  5
8060
330
1F
100
AcDbEntity
  8
SPOJOVACÍ
  6
Continuous
100
AcDbLine
 10
535.0708556397576
 20
417.4742167593385
 30
0.0
 11
539.1152599993501
 21
418.8341337728807
 31
0.0
  0
LINE
  5
8061
330
1F
100
AcDbEntity
  8
SPOJOVACÍ
  6
Continuous
100
AcDbLine
 10
535.7433727381858
 20
408.9277615476703
 30
0.0
 11
535.7433727381858
 21
411.4485379543793
 31
0.0
  0
LINE
  5
8062
330
1F
100
AcDbEntity
  8
SPOJOVACÍ
  6
Continuous
100
AcDbLine
 10
538.4427429009219
 20
409.8337527728972
 30
0.0
 11
538.4427429009219
 21
412.3619705857663
 31
0.0
  0
LINE
  5
8063
330
1F
100
AcDbEntity
  8
SPOJOVACÍ
  6
Continuous
100
AcDbLine
 10
534.6932042644466
 20
408.4924392752973
 30
0.0
 11
539.4929113702955
 21
409.692366052036
 31
0.0
  0
LINE
  5
8064
330
1F
100
AcDbEntity
  8
SPOJOVACÍ
  6
Continuous
100
AcDbLine
 10
534.6932042644466
 20
408.4924392752973
 30
0.0
 11
535.0708556397576
 21
408.7110305873238
 31
0.0
  0
LINE
  5
8065
330
1F
100
AcDbEntity
  8
SPOJOVACÍ
  6
Continuous
100
AcDbLine
 10
539.4929113702955
 20
409.692366052036
 30
0.0
 11
539.1152599993501
 21
410.0700174248877
 31
0.0
  0
LINE
  5
8066
330
1F
100
AcDbEntity
  8
SPOJOVACÍ
  6
Continuous
100
AcDbLine
 10
539.4929113702955
 20
409.692366052036
 30
0.0
 11
539.1152599993501
 21
409.4737747400094
 31
0.0
  0
LINE
  5
8067
330
1F
100
AcDbEntity
  8
SPOJOVACÍ
  6
Continuous
100
AcDbLine
 10
535.0708556397576
 20
408.7110305873238
 30
0.0
 11
539.1152599993501
 21
410.0700174248877
 31
0.0
  0
LINE
  5
8068
330
1F
100
AcDbEntity
  8
SPOJOVACÍ
  6
Continuous
100
AcDbLine
 10
534.6932042644466
 20
411.6122488945356
 30
0.0
 11
539.4929113702955
 21
412.8121756709979
 31
0.0
  0
LINE
  5
8069
330
1F
100
AcDbEntity
  8
SPOJOVACÍ
  6
Continuous
100
AcDbLine
 10
534.6932042644466
 20
411.6122488945356
 30
0.0
 11
535.0708556397576
 21
411.8308402065622
 31
0.0
  0
LINE
  5
806A
330
1F
100
AcDbEntity
  8
SPOJOVACÍ
  6
Continuous
100
AcDbLine
 10
534.6932042644466
 20
411.6122488945356
 30
0.0
 11
535.0708556397576
 21
411.2345975214075
 31
0.0
  0
LINE
  5
806B
330
1F
100
AcDbEntity
  8
SPOJOVACÍ
  6
Continuous
100
AcDbLine
 10
539.4929113702955
 20
412.8121756709979
 30
0.0
 11
539.1152599993501
 21
413.1907572198278
 31
0.0
  0
LINE
  5
806C
330
1F
100
AcDbEntity
  8
SPOJOVACÍ
  6
Continuous
100
AcDbLine
 10
539.4929113702955
 20
412.8121756709979
 30
0.0
 11
539.1152599993501
 21
412.5945145346804
 31
0.0
  0
LINE
  5
806D
330
1F
100
AcDbEntity
  8
SPOJOVACÍ
  6
Continuous
100
AcDbLine
 10
535.0708556397576
 20
411.8308402065622
 30
0.0
 11
539.1152599993501
 21
413.1907572198278
 31
0.0
  0
LINE
  5
806E
330
1F
100
AcDbEntity
  8
SPOJOVACÍ
  6
Continuous
100
AcDbLine
 10
535.0708556397576
 20
411.2345975214075
 30
0.0
 11
539.1152599993501
 21
412.5945145346804
 31
0.0
  0
LINE
  5
806F
330
1F
100
AcDbEntity
  8
NOSNÉ KONSTRUKCE
100
AcDbLine
 10
497.2609974396318
 20
446.3821473347297
 30
0.0
 11
497.2609974396172
 21
746.3151904307896
 31
0.0
  0
LINE
  5
8070
330
1F
100
AcDbEntity
  8
NOSNÉ KONSTRUKCE
100
AcDbLine
 10
526.3257380755667
 20
446.3821473347297
 30
0.0
 11
526.3257380755667
 21
746.3151904307896
 31
0.0
  0
LINE
  5
8071
330
1F
100
AcDbEntity
  8
NOSNÉ KONSTRUKCE
100
AcDbLine
 10
520.44680723478
 20
446.3821473347297
 30
0.0
 11
520.44680723478
 21
746.3151904307896
 31
0.0
  0
LINE
  5
8072
330
1F
100
AcDbEntity
  8
NOSNÉ KONSTRUKCE
100
AcDbLine
 10
517.9039088915005
 20
446.3821473347297
 30
0.0
 11
517.9039088915005
 21
746.3151904307896
 31
0.0
  0
LINE
  5
8073
330
1F
100
AcDbEntity
  8
NOSNÉ KONSTRUKCE
100
AcDbLine
 10
512.7477264809704
 20
446.3821473347297
 30
0.0
 11
512.7477264809704
 21
746.3151904307896
 31
0.0
  0
LINE
  5
8074
330
1F
100
AcDbEntity
  8
NOSNÉ KONSTRUKCE
100
AcDbLine
 10
510.2466442654685
 20
446.3821473347297
 30
0.0
 11
510.2466442654685
 21
746.3151904307896
 31
0.0
  0
LINE
  5
8075
330
1F
100
AcDbEntity
  8
NOSNÉ KONSTRUKCE
100
AcDbLine
 10
505.682789365891
 20
446.3821473347297
 30
0.0
 11
505.682789365891
 21
746.3151904307896
 31
0.0
  0
LINE
  5
8076
330
1F
100
AcDbEntity
  8
NOSNÉ KONSTRUKCE
100
AcDbLine
 10
502.9328278974563
 20
446.3821473347297
 30
0.0
 11
502.9328278974563
 21
746.3151904307896
 31
0.0
  0
HATCH
  5
8077
330
1F
100
AcDbEntity
  8
NOSNÉ KONSTRUKCE
100
AcDbHatch
 10
0.0
 20
0.0
 30
0.0
210
0.0
220
0.0
230
1.0
  2
SOLID
 70
     1
 71
     0
 91
        1
 92
        7
 72
     0
 73
     1
 93
        8
 10
498.8256004134155
 20
491.6702107817063
 10
497.3256004134155
 20
491.6702107817063
 10
497.3256004134155
 20
446.3077310805775
 10
526.3255439032209
 20
446.307731080592
 10
526.3255439032209
 20
491.670210781699
 10
524.8255439032209
 20
491.6702107817063
 10
524.8255439032209
 20
447.8077310805774
 10
498.8256004134155
 20
447.8077310805847
 97
        0
 75
     0
 76
     1
 47
0.1358226225865344
 98
        1
 10
498.0997316247221
 20
486.1381665744584
  0
LINE
  5
8078
330
1F
100
AcDbEntity
  8
NOSNÉ KONSTRUKCE
100
AcDbLine
 10
527.3408107447894
 20
445.49087626659
 30
0.0
 11
527.340810744804
 21
470.1105725064126
 31
0.0
  0
LINE
  5
8079
330
1F
100
AcDbEntity
  8
NOSNÉ KONSTRUKCE
100
AcDbLine
 10
529.3408107447894
 20
445.49087626659
 30
0.0
 11
529.3408107447894
 21
468.264905546609
 31
0.0
  0
LINE
  5
807A
330
1F
100
AcDbEntity
  8
NOSNÉ KONSTRUKCE
100
AcDbLine
 10
528.2606764636721
 20
471.1073565838278
 30
0.0
 11
568.7919883644199
 21
474.3657829733884
 31
0.0
  0
ARC
  5
807B
330
1F
100
AcDbEntity
  8
NOSNÉ KONSTRUKCE
100
AcDbCircle
 10
555.3264840913753
 20
475.3354730195087
 30
0.0
 40
13.50037422122492
100
AcDbArc
 50
202.0339031319517
 51
355.8810748512746
  0
LINE
  5
807C
330
1F
100
AcDbEntity
  8
NOSNÉ KONSTRUKCE
100
AcDbLine
 10
530.2606764636575
 20
469.2616896240243
 30
0.0
 11
542.8121498033424
 21
470.2707379385255
 31
0.0
  0
ARC
  5
807D
330
1F
100
AcDbEntity
  8
NOSNÉ KONSTRUKCE
100
AcDbCircle
 10
530.3408107447894
 20
468.264905546609
 30
0.0
 40
1.0
100
AcDbArc
 50
94.59628425844213
 51
180.0
  0
ARC
  5
807E
330
1F
100
AcDbEntity
  8
NOSNÉ KONSTRUKCE
100
AcDbCircle
 10
528.340810744804
 20
470.1105725064126
 30
0.0
 40
1.0
100
AcDbArc
 50
94.59628425844213
 51
180.0
  0
LINE
  5
807F
330
1F
100
AcDbEntity
  8
SPOJOVACÍ
  6
Continuous
100
AcDbLine
 10
862.2453437566937
 20
394.5723584913821
 30
0.0
 11
852.0450359794258
 21
394.5723584913821
 31
0.0
  0
LINE
  5
8080
330
1F
100
AcDbEntity
  8
SPOJOVACÍ
  6
Continuous
100
AcDbLine
 10
862.2453437566937
 20
395.7722852681135
 30
0.0
 11
852.0450359794258
 21
395.7722852681135
 31
0.0
  0
LINE
  5
8081
102
{ACAD_REACTORS
330
7C6E
102
}
330
1F
100
AcDbEntity
  8
SPOJOVACÍ
  6
Continuous
100
AcDbLine
 10
862.2453437566937
 20
395.7722852681135
 30
0.0
 11
860.8956586731428
 21
396.5164259045877
 31
0.0
  0
LINE
  5
8082
102
{ACAD_REACTORS
330
7C6E
102
}
330
1F
100
AcDbEntity
  8
SPOJOVACÍ
  6
Continuous
100
AcDbLine
 10
862.2453437566937
 20
394.5723584913821
 30
0.0
 11
862.2453437566937
 21
395.7722852681135
 31
0.0
  0
LINE
  5
8083
102
{ACAD_REACTORS
330
7C6E
102
}
330
1F
100
AcDbEntity
  8
SPOJOVACÍ
  6
Continuous
100
AcDbLine
 10
852.0450359794258
 20
395.7722852681135
 30
0.0
 11
853.7458819000011
 21
396.7100362896699
 31
0.0
  0
LINE
  5
8084
102
{ACAD_REACTORS
330
7C6E
102
}
330
1F
100
AcDbEntity
  8
SPOJOVACÍ
  6
Continuous
100
AcDbLine
 10
852.0450359794258
 20
394.5723584913821
 30
0.0
 11
852.0450359794258
 21
395.7722852681135
 31
0.0
  0
LINE
  5
8085
102
{ACAD_REACTORS
330
7C6E
102
}
330
1F
100
AcDbEntity
  8
SPOJOVACÍ
  6
Continuous
100
AcDbLine
 10
859.1673920456733
 20
404.9940481075054
 30
0.0
 11
855.1229876860807
 21
406.3539651207711
 31
0.0
  0
LINE
  5
8086
102
{ACAD_REACTORS
330
7C6E
102
}
330
1F
100
AcDbEntity
  8
SPOJOVACÍ
  6
Continuous
100
AcDbLine
 10
859.1673920456733
 20
405.5902907923837
 30
0.0
 11
855.1229876860807
 21
406.9502078059258
 31
0.0
  0
LINE
  5
8087
102
{ACAD_REACTORS
330
7C6E
102
}
330
1F
100
AcDbEntity
  8
SPOJOVACÍ
  6
Continuous
100
AcDbLine
 10
859.5450434209842
 20
405.3726296563354
 30
0.0
 11
859.1673920456733
 21
404.9940481075054
 31
0.0
  0
LINE
  5
8088
102
{ACAD_REACTORS
330
7C6E
102
}
330
1F
100
AcDbEntity
  8
SPOJOVACÍ
  6
Continuous
100
AcDbLine
 10
859.5450434209842
 20
405.3726296563354
 30
0.0
 11
859.1673920456733
 21
405.5902907923837
 31
0.0
  0
LINE
  5
8089
330
1F
100
AcDbEntity
  8
SPOJOVACÍ
  6
Continuous
100
AcDbLine
 10
859.5450434209842
 20
405.3726296563354
 30
0.0
 11
854.7453363151353
 21
406.5725564327976
 31
0.0
  0
LINE
  5
808A
102
{ACAD_REACTORS
330
7C6E
102
}
330
1F
100
AcDbEntity
  8
SPOJOVACÍ
  6
Continuous
100
AcDbLine
 10
858.4948749472451
 20
405.8051614013265
 30
0.0
 11
858.4948749472451
 21
408.3240774563555
 31
0.0
  0
LINE
  5
808B
102
{ACAD_REACTORS
330
7C6E
102
}
330
1F
100
AcDbEntity
  8
SPOJOVACÍ
  6
Continuous
100
AcDbLine
 10
858.4948749472451
 20
401.1719557624701
 30
0.0
 11
858.4948749472451
 21
405.2098488921501
 31
0.0
  0
LINE
  5
808C
102
{ACAD_REACTORS
330
7C6E
102
}
330
1F
100
AcDbEntity
  8
SPOJOVACÍ
  6
Continuous
100
AcDbLine
 10
855.7955047845089
 20
401.1719557624701
 30
0.0
 11
855.7955047845089
 21
406.1149099413987
 31
0.0
  0
LINE
  5
808D
102
{ACAD_REACTORS
330
7C6E
102
}
330
1F
100
AcDbEntity
  8
SPOJOVACÍ
  6
Continuous
100
AcDbLine
 10
860.8956586731428
 20
396.5164259045877
 30
0.0
 11
859.7850287727842
 21
397.5851978939999
 31
0.0
  0
LINE
  5
808E
102
{ACAD_REACTORS
330
7C6E
102
}
330
1F
100
AcDbEntity
  8
SPOJOVACÍ
  6
Continuous
100
AcDbLine
 10
859.7850287727842
 20
397.5851978939999
 30
0.0
 11
858.988798293466
 21
398.9041871722974
 31
0.0
  0
LINE
  5
808F
102
{ACAD_REACTORS
330
7C6E
102
}
330
1F
100
AcDbEntity
  8
SPOJOVACÍ
  6
Continuous
100
AcDbLine
 10
858.988798293466
 20
398.9041871722974
 30
0.0
 11
858.5609174291667
 21
400.3850270393477
 31
0.0
  0
LINE
  5
8090
102
{ACAD_REACTORS
330
7C6E
102
}
330
1F
100
AcDbEntity
  8
SPOJOVACÍ
  6
Continuous
100
AcDbLine
 10
858.5609174291667
 20
400.3850270393477
 30
0.0
 11
858.4948749472451
 21
401.1719557624701
 31
0.0
  0
LINE
  5
8091
102
{ACAD_REACTORS
330
7C6E
102
}
330
1F
100
AcDbEntity
  8
SPOJOVACÍ
  6
Continuous
100
AcDbLine
 10
855.7955047845089
 20
401.1719557624701
 30
0.0
 11
855.5685418936255
 21
399.6483278090408
 31
0.0
  0
LINE
  5
8092
102
{ACAD_REACTORS
330
7C6E
102
}
330
1F
100
AcDbEntity
  8
SPOJOVACÍ
  6
Continuous
100
AcDbLine
 10
855.5685418936255
 20
399.6483278090408
 30
0.0
 11
854.9555560444778
 21
398.2344605993375
 31
0.0
  0
LINE
  5
8093
102
{ACAD_REACTORS
330
7C6E
102
}
330
1F
100
AcDbEntity
  8
SPOJOVACÍ
  6
Continuous
100
AcDbLine
 10
854.9555560444778
 20
398.2344605993375
 30
0.0
 11
853.7458819000011
 21
396.7100362896699
 31
0.0
  0
LINE
  5
8094
102
{ACAD_REACTORS
330
7C6F
102
}
330
1F
100
AcDbEntity
  8
CETRIS
100
AcDbLine
 10
898.6693050658423
 20
394.5976763448807
 30
0.0
 11
912.6693050658422
 21
394.5976763448807
 31
0.0
  0
LINE
  5
8095
330
1F
100
AcDbEntity
  8
CETRIS
100
AcDbLine
 10
897.3418933129932
 20
408.5723584913821
 30
0.0
 11
897.3418933129932
 21
394.5723584913821
 31
0.0
  0
LINE
  5
8096
102
{ACAD_REACTORS
330
7C6F
102
}
330
1F
100
AcDbEntity
  8
CETRIS
100
AcDbLine
 10
898.6693050658423
 20
394.5976763448807
 30
0.0
 11
898.6693050658423
 21
798.0327045167095
 31
0.0
  0
LINE
  5
8097
102
{ACAD_REACTORS
330
7C6F
102
}
330
1F
100
AcDbEntity
  8
CETRIS
100
AcDbLine
 10
912.6693050658422
 20
394.5976763448807
 30
0.0
 11
912.6693050658422
 21
798.0327045167095
 31
0.0
  0
LINE
  5
8098
102
{ACAD_REACTORS
330
7C6E
102
}
330
1F
100
AcDbEntity
  8
CETRIS
100
AcDbLine
 10
897.3242235641
 20
408.5723584913821
 30
0.0
 11
897.3242235641
 21
394.5723584913821
 31
0.0
  0
LINE
  5
8099
102
{ACAD_REACTORS
330
7C6E
102
}
330
1F
100
AcDbEntity
  8
CETRIS
100
AcDbLine
 10
496.8963543724376
 20
394.5723584913821
 30
0.0
 11
897.3242235641
 21
394.5723584913821
 31
0.0
  0
LINE
  5
809A
102
{ACAD_REACTORS
330
7C6E
102
}
330
1F
100
AcDbEntity
  8
CETRIS
100
AcDbLine
 10
496.8963543724376
 20
408.5723584913821
 30
0.0
 11
897.3242235641
 21
408.5723584913821
 31
0.0
  0
LINE
  5
809B
330
1F
100
AcDbEntity
  8
SPOJOVACÍ
  6
Continuous
100
AcDbLine
 10
859.1673920456733
 20
411.2345975214075
 30
0.0
 11
855.1229876860807
 21
412.5945145346804
 31
0.0
  0
LINE
  5
809C
330
1F
100
AcDbEntity
  8
SPOJOVACÍ
  6
Continuous
100
AcDbLine
 10
859.1673920456733
 20
411.8308402065622
 30
0.0
 11
855.1229876860807
 21
413.1907572198278
 31
0.0
  0
LINE
  5
809D
330
1F
100
AcDbEntity
  8
SPOJOVACÍ
  6
Continuous
100
AcDbLine
 10
854.7453363151353
 20
412.8121756709979
 30
0.0
 11
855.1229876860807
 21
412.5945145346804
 31
0.0
  0
LINE
  5
809E
330
1F
100
AcDbEntity
  8
SPOJOVACÍ
  6
Continuous
100
AcDbLine
 10
854.7453363151353
 20
412.8121756709979
 30
0.0
 11
855.1229876860807
 21
413.1907572198278
 31
0.0
  0
LINE
  5
809F
330
1F
100
AcDbEntity
  8
SPOJOVACÍ
  6
Continuous
100
AcDbLine
 10
859.5450434209842
 20
411.6122488945356
 30
0.0
 11
859.1673920456733
 21
411.2345975214075
 31
0.0
  0
LINE
  5
80A0
330
1F
100
AcDbEntity
  8
SPOJOVACÍ
  6
Continuous
100
AcDbLine
 10
859.5450434209842
 20
411.6122488945356
 30
0.0
 11
859.1673920456733
 21
411.8308402065622
 31
0.0
  0
LINE
  5
80A1
330
1F
100
AcDbEntity
  8
SPOJOVACÍ
  6
Continuous
100
AcDbLine
 10
859.5450434209842
 20
411.6122488945356
 30
0.0
 11
854.7453363151353
 21
412.8121756709979
 31
0.0
  0
LINE
  5
80A2
102
{ACAD_REACTORS
330
7C6E
102
}
330
1F
100
AcDbEntity
  8
SPOJOVACÍ
  6
Continuous
100
AcDbLine
 10
859.1673920456733
 20
408.1147879021691
 30
0.0
 11
855.1229876860807
 21
409.4737747400094
 31
0.0
  0
LINE
  5
80A3
330
1F
100
AcDbEntity
  8
SPOJOVACÍ
  6
Continuous
100
AcDbLine
 10
859.1673920456733
 20
408.7110305873238
 30
0.0
 11
855.1229876860807
 21
410.0700174248877
 31
0.0
  0
LINE
  5
80A4
330
1F
100
AcDbEntity
  8
SPOJOVACÍ
  6
Continuous
100
AcDbLine
 10
854.7453363151353
 20
409.692366052036
 30
0.0
 11
855.1229876860807
 21
409.4737747400094
 31
0.0
  0
LINE
  5
80A5
330
1F
100
AcDbEntity
  8
SPOJOVACÍ
  6
Continuous
100
AcDbLine
 10
854.7453363151353
 20
409.692366052036
 30
0.0
 11
855.1229876860807
 21
410.0700174248877
 31
0.0
  0
LINE
  5
80A6
102
{ACAD_REACTORS
330
7C6E
102
}
330
1F
100
AcDbEntity
  8
SPOJOVACÍ
  6
Continuous
100
AcDbLine
 10
859.5450434209842
 20
408.4924392752973
 30
0.0
 11
859.1673920456733
 21
408.1147879021691
 31
0.0
  0
LINE
  5
80A7
330
1F
100
AcDbEntity
  8
SPOJOVACÍ
  6
Continuous
100
AcDbLine
 10
859.5450434209842
 20
408.4924392752973
 30
0.0
 11
859.1673920456733
 21
408.7110305873238
 31
0.0
  0
LINE
  5
80A8
330
1F
100
AcDbEntity
  8
SPOJOVACÍ
  6
Continuous
100
AcDbLine
 10
859.5450434209842
 20
408.4924392752973
 30
0.0
 11
854.7453363151353
 21
409.692366052036
 31
0.0
  0
LINE
  5
80A9
102
{ACAD_REACTORS
330
7C6E
102
}
330
1F
100
AcDbEntity
  8
SPOJOVACÍ
  6
Continuous
100
AcDbLine
 10
854.7453363151353
 20
406.5725564327976
 30
0.0
 11
855.1229876860807
 21
406.3539651207711
 31
0.0
  0
LINE
  5
80AA
102
{ACAD_REACTORS
330
7C6E
102
}
330
1F
100
AcDbEntity
  8
SPOJOVACÍ
  6
Continuous
100
AcDbLine
 10
854.7453363151353
 20
406.5725564327976
 30
0.0
 11
855.1229876860807
 21
406.9502078059258
 31
0.0
  0
LINE
  5
80AB
330
1F
100
AcDbEntity
  8
SPOJOVACÍ
  6
Continuous
100
AcDbLine
 10
855.7955047845089
 20
409.8337527728972
 30
0.0
 11
855.7955047845089
 21
412.3619705857663
 31
0.0
  0
LINE
  5
80AC
102
{ACAD_REACTORS
330
7C6E
102
}
330
1F
100
AcDbEntity
  8
SPOJOVACÍ
  6
Continuous
100
AcDbLine
 10
855.7955047845089
 20
406.7185940327135
 30
0.0
 11
855.7955047845089
 21
409.2375100877425
 31
0.0
  0
LINE
  5
80AD
330
1F
100
AcDbEntity
  8
SPOJOVACÍ
  6
Continuous
100
AcDbLine
 10
858.4948749472451
 20
408.9277615476703
 30
0.0
 11
858.4948749472451
 21
411.4485379543793
 31
0.0
  0
LINE
  5
80AE
330
1F
100
AcDbEntity
  8
SPOJOVACÍ
  6
Continuous
100
AcDbLine
 10
859.1673920456733
 20
417.4742167593385
 30
0.0
 11
855.1229876860807
 21
418.8341337728807
 31
0.0
  0
LINE
  5
80AF
330
1F
100
AcDbEntity
  8
SPOJOVACÍ
  6
Continuous
100
AcDbLine
 10
859.1673920456733
 20
418.0704594444932
 30
0.0
 11
855.1229876860807
 21
419.4303764580354
 31
0.0
  0
LINE
  5
80B0
330
1F
100
AcDbEntity
  8
SPOJOVACÍ
  6
Continuous
100
AcDbLine
 10
854.7453363151353
 20
419.0527250849072
 30
0.0
 11
855.1229876860807
 21
418.8341337728807
 31
0.0
  0
LINE
  5
80B1
330
1F
100
AcDbEntity
  8
SPOJOVACÍ
  6
Continuous
100
AcDbLine
 10
854.7453363151353
 20
419.0527250849072
 30
0.0
 11
855.1229876860807
 21
419.4303764580354
 31
0.0
  0
LINE
  5
80B2
330
1F
100
AcDbEntity
  8
SPOJOVACÍ
  6
Continuous
100
AcDbLine
 10
859.5450434209842
 20
417.852798308445
 30
0.0
 11
859.1673920456733
 21
417.4742167593385
 31
0.0
  0
LINE
  5
80B3
330
1F
100
AcDbEntity
  8
SPOJOVACÍ
  6
Continuous
100
AcDbLine
 10
859.5450434209842
 20
417.852798308445
 30
0.0
 11
859.1673920456733
 21
418.0704594444932
 31
0.0
  0
LINE
  5
80B4
330
1F
100
AcDbEntity
  8
SPOJOVACÍ
  6
Continuous
100
AcDbLine
 10
859.5450434209842
 20
417.852798308445
 30
0.0
 11
854.7453363151353
 21
419.0527250849072
 31
0.0
  0
LINE
  5
80B5
330
1F
100
AcDbEntity
  8
SPOJOVACÍ
  6
Continuous
100
AcDbLine
 10
859.1673920456733
 20
414.3544071403766
 30
0.0
 11
855.1229876860807
 21
415.7143241539188
 31
0.0
  0
LINE
  5
80B6
330
1F
100
AcDbEntity
  8
SPOJOVACÍ
  6
Continuous
100
AcDbLine
 10
859.1673920456733
 20
414.9506498255241
 30
0.0
 11
855.1229876860807
 21
416.310566838797
 31
0.0
  0
LINE
  5
80B7
330
1F
100
AcDbEntity
  8
SPOJOVACÍ
  6
Continuous
100
AcDbLine
 10
854.7453363151353
 20
415.931985289967
 30
0.0
 11
855.1229876860807
 21
415.7143241539188
 31
0.0
  0
LINE
  5
80B8
330
1F
100
AcDbEntity
  8
SPOJOVACÍ
  6
Continuous
100
AcDbLine
 10
854.7453363151353
 20
415.931985289967
 30
0.0
 11
855.1229876860807
 21
416.310566838797
 31
0.0
  0
LINE
  5
80B9
330
1F
100
AcDbEntity
  8
SPOJOVACÍ
  6
Continuous
100
AcDbLine
 10
859.5450434209842
 20
414.7320585135048
 30
0.0
 11
859.1673920456733
 21
414.3544071403766
 31
0.0
  0
LINE
  5
80BA
330
1F
100
AcDbEntity
  8
SPOJOVACÍ
  6
Continuous
100
AcDbLine
 10
859.5450434209842
 20
414.7320585135048
 30
0.0
 11
859.1673920456733
 21
414.9506498255241
 31
0.0
  0
LINE
  5
80BB
330
1F
100
AcDbEntity
  8
SPOJOVACÍ
  6
Continuous
100
AcDbLine
 10
859.5450434209842
 20
414.7320585135048
 30
0.0
 11
854.7453363151353
 21
415.931985289967
 31
0.0
  0
LINE
  5
80BC
330
1F
100
AcDbEntity
  8
SPOJOVACÍ
  6
Continuous
100
AcDbLine
 10
859.2911054265632
 20
420.9298198407586
 30
0.0
 11
855.1657757738203
 21
421.9027837230632
 31
0.0
  0
LINE
  5
80BD
330
1F
100
AcDbEntity
  8
SPOJOVACÍ
  6
Continuous
100
AcDbLine
 10
858.912523878279
 20
420.5521684676305
 30
0.0
 11
855.5434271447657
 21
421.685122587015
 31
0.0
  0
LINE
  5
80BE
330
1F
100
AcDbEntity
  8
SPOJOVACÍ
  6
Continuous
100
AcDbLine
 10
858.912523878279
 20
421.1484111527852
 30
0.0
 11
855.5434271447657
 21
422.2813652721697
 31
0.0
  0
LINE
  5
80BF
330
1F
100
AcDbEntity
  8
SPOJOVACÍ
  6
Continuous
100
AcDbLine
 10
855.1657757738203
 20
421.9027837230632
 30
0.0
 11
855.5434271447657
 21
421.685122587015
 31
0.0
  0
LINE
  5
80C0
330
1F
100
AcDbEntity
  8
SPOJOVACÍ
  6
Continuous
100
AcDbLine
 10
855.1657757738203
 20
421.9027837230632
 30
0.0
 11
855.5434271447657
 21
422.2813652721697
 31
0.0
  0
LINE
  5
80C1
330
1F
100
AcDbEntity
  8
SPOJOVACÍ
  6
Continuous
100
AcDbLine
 10
859.2911054265632
 20
420.9298198407586
 30
0.0
 11
858.912523878279
 21
420.5521684676305
 31
0.0
  0
LINE
  5
80C2
330
1F
100
AcDbEntity
  8
SPOJOVACÍ
  6
Continuous
100
AcDbLine
 10
859.2911054265632
 20
420.9298198407586
 30
0.0
 11
858.912523878279
 21
421.1484111527852
 31
0.0
  0
LINE
  5
80C3
330
1F
100
AcDbEntity
  8
SPOJOVACÍ
  6
Continuous
100
AcDbLine
 10
856.0410711959766
 20
421.5083891856656
 30
0.0
 11
855.7955047845089
 21
419.5373466743794
 31
0.0
  0
LINE
  5
80C4
330
1F
100
AcDbEntity
  8
SPOJOVACÍ
  6
Continuous
100
AcDbLine
 10
858.267912051996
 20
421.3549101795897
 30
0.0
 11
857.9776972024765
 21
423.6766289656543
 31
0.0
  0
LINE
  5
80C5
330
1F
100
AcDbEntity
  8
SPOJOVACÍ
  6
Continuous
100
AcDbLine
 10
858.4948749472451
 20
419.5373466743794
 30
0.0
 11
858.345116644522
 21
420.7344829237363
 31
0.0
  0
LINE
  5
80C6
330
1F
100
AcDbEntity
  8
SPOJOVACÍ
  6
Continuous
100
AcDbLine
 10
855.7955047845089
 20
419.2006230364959
 30
0.0
 11
855.7955047845089
 21
419.5373466743794
 31
0.0
  0
LINE
  5
80C7
330
1F
100
AcDbEntity
  8
SPOJOVACÍ
  6
Continuous
100
AcDbLine
 10
855.7955047845089
 20
416.0780228898829
 30
0.0
 11
855.7955047845089
 21
418.5969389449119
 31
0.0
  0
LINE
  5
80C8
330
1F
100
AcDbEntity
  8
SPOJOVACÍ
  6
Continuous
100
AcDbLine
 10
858.4948749472451
 20
418.2899809324908
 30
0.0
 11
858.4948749472451
 21
419.5373466743794
 31
0.0
  0
LINE
  5
80C9
330
1F
100
AcDbEntity
  8
SPOJOVACÍ
  6
Continuous
100
AcDbLine
 10
858.4948749472451
 20
415.1757523680089
 30
0.0
 11
858.4948749472451
 21
417.6937382473361
 31
0.0
  0
LINE
  5
80CA
330
1F
100
AcDbEntity
  8
SPOJOVACÍ
  6
Continuous
100
AcDbLine
 10
855.7955047845089
 20
412.9563529192409
 30
0.0
 11
855.7955047845089
 21
415.47712932595
 31
0.0
  0
LINE
  5
80CB
330
1F
100
AcDbEntity
  8
SPOJOVACÍ
  6
Continuous
100
AcDbLine
 10
858.4948749472451
 20
412.042920287854
 30
0.0
 11
858.4948749472451
 21
414.5711381007231
 31
0.0
  0
LINE
  5
80CC
330
1F
100
AcDbEntity
  8
SPOJOVACÍ
  6
Continuous
100
AcDbLine
 10
858.1618720099859
 20
426.9582891733762
 30
0.0
 11
856.0075848685292
 21
427.2689678891501
 31
0.0
  0
LINE
  5
80CD
330
1F
100
AcDbEntity
  8
SPOJOVACÍ
  6
Continuous
100
AcDbLine
 10
857.7842206390405
 20
426.580637800248
 30
0.0
 11
856.3852362394746
 21
427.0513067528327
 31
0.0
  0
LINE
  5
80CE
330
1F
100
AcDbEntity
  8
SPOJOVACÍ
  6
Continuous
100
AcDbLine
 10
857.7842206390405
 20
427.1768804853954
 30
0.0
 11
856.3852362394746
 21
427.6475494379801
 31
0.0
  0
LINE
  5
80CF
330
1F
100
AcDbEntity
  8
SPOJOVACÍ
  6
Continuous
100
AcDbLine
 10
856.0075848685292
 20
427.2689678891501
 30
0.0
 11
856.3852362394746
 21
427.0513067528327
 31
0.0
  0
LINE
  5
80D0
330
1F
100
AcDbEntity
  8
SPOJOVACÍ
  6
Continuous
100
AcDbLine
 10
856.0075848685292
 20
427.2689678891501
 30
0.0
 11
856.3852362394746
 21
427.6475494379801
 31
0.0
  0
LINE
  5
80D1
330
1F
100
AcDbEntity
  8
SPOJOVACÍ
  6
Continuous
100
AcDbLine
 10
858.1618720099859
 20
426.9582891733762
 30
0.0
 11
857.7842206390405
 21
426.580637800248
 31
0.0
  0
LINE
  5
80D2
330
1F
100
AcDbEntity
  8
SPOJOVACÍ
  6
Continuous
100
AcDbLine
 10
858.1618720099859
 20
426.9582891733762
 30
0.0
 11
857.7842206390405
 21
427.1768804853954
 31
0.0
  0
LINE
  5
80D3
330
1F
100
AcDbEntity
  8
SPOJOVACÍ
  6
Continuous
100
AcDbLine
 10
858.7264887204574
 20
423.9445195950565
 30
0.0
 11
855.6103998040262
 21
424.5779693118265
 31
0.0
  0
LINE
  5
80D4
330
1F
100
AcDbEntity
  8
SPOJOVACÍ
  6
Continuous
100
AcDbLine
 10
858.3488373451464
 20
423.5659380459501
 30
0.0
 11
855.9880511749716
 21
424.3603081757783
 31
0.0
  0
LINE
  5
80D5
330
1F
100
AcDbEntity
  8
SPOJOVACÍ
  6
Continuous
100
AcDbLine
 10
858.3488373451464
 20
424.1621807311048
 30
0.0
 11
855.9880511749716
 21
424.9565508606565
 31
0.0
  0
LINE
  5
80D6
330
1F
100
AcDbEntity
  8
SPOJOVACÍ
  6
Continuous
100
AcDbLine
 10
855.6103998040262
 20
424.5779693118265
 30
0.0
 11
855.9880511749716
 21
424.3603081757783
 31
0.0
  0
LINE
  5
80D7
330
1F
100
AcDbEntity
  8
SPOJOVACÍ
  6
Continuous
100
AcDbLine
 10
855.6103998040262
 20
424.5779693118265
 30
0.0
 11
855.9880511749716
 21
424.9565508606565
 31
0.0
  0
LINE
  5
80D8
330
1F
100
AcDbEntity
  8
SPOJOVACÍ
  6
Continuous
100
AcDbLine
 10
858.7264887204574
 20
423.9445195950565
 30
0.0
 11
858.3488373451464
 21
423.5659380459501
 31
0.0
  0
LINE
  5
80D9
330
1F
100
AcDbEntity
  8
SPOJOVACÍ
  6
Continuous
100
AcDbLine
 10
858.7264887204574
 20
423.9445195950565
 30
0.0
 11
858.3488373451464
 21
424.1621807311048
 31
0.0
  0
LINE
  5
80DA
330
1F
100
AcDbEntity
  8
SPOJOVACÍ
  6
Continuous
100
AcDbLine
 10
856.379655188538
 20
424.2152007515642
 30
0.0
 11
856.1126947332004
 21
422.0785869487108
 31
0.0
  0
LINE
  5
80DB
330
1F
100
AcDbEntity
  8
SPOJOVACÍ
  6
Continuous
100
AcDbLine
 10
856.719169349707
 20
426.9322442509974
 30
0.0
 11
856.4512787213962
 21
424.7872588660129
 31
0.0
  0
LINE
  5
80DC
330
1F
100
AcDbEntity
  8
SPOJOVACÍ
  6
Continuous
100
AcDbLine
 10
857.5312128219584
 20
427.2485040215278
 30
0.0
 11
857.1451898680598
 21
430.3376178393327
 31
0.0
  0
LINE
  5
80DD
330
1F
100
AcDbEntity
  8
SPOJOVACÍ
  6
Continuous
100
AcDbLine
 10
857.8986322596383
 20
424.3072881553189
 30
0.0
 11
857.6084174144844
 21
426.6280767656744
 31
0.0
  0
LINE
  5
80DE
330
1F
100
AcDbEntity
  8
SPOJOVACÍ
  6
Continuous
100
AcDbLine
 10
857.1451898680598
 20
430.3376178393327
 30
0.0
 11
856.7907928869308
 21
427.5015118380642
 31
0.0
  0
HATCH
  5
80DF
330
1F
100
AcDbEntity
  8
NOSNÉ KONSTRUKCE
100
AcDbHatch
 10
0.0
 20
0.0
 30
0.0
210
0.0
220
0.0
230
1.0
  2
SOLID
 70
     1
 71
     0
 91
        1
 92
        7
 72
     0
 73
     1
 93
       68
 10
897.3451532529717
 20
429.6690990923297
 10
895.7593809851596
 20
431.2548481206022
 10
897.3451684256716
 20
432.8405819758073
 10
897.3451943279133
 20
438.2548237237269
 10
893.3452027330922
 20
438.2548428600739
 10
893.3451979490046
 20
437.2548428600849
 10
896.3451895438328
 20
437.2548285078346
 10
896.3451704073513
 20
433.2548074171564
 10
894.3451502939923
 20
431.2548548864151
 10
896.3451512713209
 20
429.2548832191815
 10
896.3451321348321
 20
425.2548621285105
 10
894.3451144133787
 20
423.7548758993297
 10
896.3451177825836
 20
422.2548705336675
 10
896.3450986460948
 20
418.2548494429984
 10
894.3450785327431
 20
416.2548969122608
 10
896.3450795100715
 20
414.2549252450216
 10
896.3450603735827
 20
410.2549041543488
 10
885.3451234900994
 20
410.2549567791129
 10
883.3451225127637
 20
412.2549284463448
 10
879.3451498684289
 20
412.2549475826026
 10
877.3451297550845
 20
410.2549950518578
 10
866.3451928715939
 20
410.2550476766182
 10
855.3452559880961
 20
410.2551003013823
 10
853.345255010775
 20
412.2550719686142
 10
849.3452823664474
 20
412.2550911048738
 10
847.3452622530958
 20
410.2551385741271
 10
836.3453253695979
 20
410.2551911988912
 10
836.345344506094
 20
414.255212289564
 10
838.3453646194311
 20
416.2551648203106
 10
836.34536364211
 20
418.2551364875443
 10
836.3453827785916
 20
422.255157578219
 10
838.3454005000666
 20
423.7551438073869
 10
836.3453971308471
 20
425.2551491730564
 10
836.345416267336
 20
429.2551702637275
 10
838.3454363806876
 20
431.2551227944632
 10
836.3454354033665
 20
433.2550944617114
 10
836.3454545398408
 20
437.2551155523751
 10
839.3451877929537
 20
437.2551012013619
 10
839.3451830100957
 20
438.2548428600739
 10
835.3451914152675
 20
438.2548237237269
 10
835.3452173175092
 20
432.8405819758181
 10
836.9310047580283
 20
431.2548481205949
 10
835.3452324902091
 20
429.669099092328
 10
835.3452560004361
 20
424.7548549220964
 10
836.6785960504557
 20
423.7548679257988
 10
835.345265568546
 20
422.7548681718808
 10
835.345289078773
 20
417.840624001662
 10
836.9310765192849
 20
416.2548901464424
 10
835.3453042514583
 20
414.6691411181645
 10
835.3453062317122
 20
414.255217073477
 10
835.3453445061086
 20
414.2552170736608
 10
835.3453253696125
 20
410.2551959829898
 10
835.345330153722
 20
409.2548993702648
 10
847.7594735047158
 20
409.2549587607273
 10
849.7594744820517
 20
411.2549304279609
 10
852.9310341913214
 20
411.2549456010083
 10
854.9309450877617
 20
409.2551022834731
 10
877.7593314385221
 20
409.2549930702652
 10
879.7593515518883
 20
411.2549456010101
 10
882.9309112611436
 20
411.2549304279609
 10
884.9309122384648
 20
409.2549587607273
 10
897.3450555894659
 20
409.2548993702648
 10
897.3450814917296
 20
414.6691411181572
 10
895.7593092239031
 20
416.254890146446
 10
897.3450966644222
 20
417.8406240016693
 10
897.3451201746421
 20
422.7548681718826
 10
896.0117896927322
 20
423.7548679257933
 10
897.3451297427518
 20
424.7548549220928
 97
        0
 75
     0
 76
     1
 47
0.131671459398827
 98
        1
 10
896.6647775706942
 20
427.5380173397307
  0
ARC
  5
80E0
330
1F
100
AcDbEntity
  8
NOSNÉ KONSTRUKCE
100
AcDbCircle
 10
881.9975683715229
 20
445.9046708070336
 30
0.0
 40
15.58254621860396
100
AcDbArc
 50
341.464387846756
 51
358.4783316064786
  0
LINE
  5
80E1
330
1F
100
AcDbEntity
  8
NOSNÉ KONSTRUKCE
100
AcDbLine
 10
890.5334608491749
 20
440.9510724697565
 30
0.0
 11
890.5334608491749
 21
435.9159029552784
 31
0.0
  0
LINE
  5
80E2
330
1F
100
AcDbEntity
  8
NOSNÉ KONSTRUKCE
100
AcDbLine
 10
890.5334608491749
 20
435.9159029552784
 30
0.0
 11
896.0414954080178
 21
435.9159029552784
 31
0.0
  0
LINE
  5
80E3
330
1F
100
AcDbEntity
  8
NOSNÉ KONSTRUKCE
100
AcDbLine
 10
896.7717895072627
 20
440.9510724697565
 30
0.0
 11
890.5334608491749
 21
440.9510724697547
 31
0.0
  0
ARC
  5
80E4
330
1F
100
AcDbEntity
  8
NOSNÉ KONSTRUKCE
100
AcDbCircle
 10
884.0815512836188
 20
445.9046708070336
 30
0.0
 40
15.58254621860396
100
AcDbArc
 50
270.0
 51
320.1318684090177
  0
ARC
  5
80E5
330
1F
100
AcDbEntity
  8
NOSNÉ KONSTRUKCE
100
AcDbCircle
 10
849.7253932753437
 20
445.9046708070336
 30
0.0
 40
15.58254621860396
100
AcDbArc
 50
219.8681315909822
 51
270.0
  0
LINE
  5
80E6
330
1F
100
AcDbEntity
  8
NOSNÉ KONSTRUKCE
100
AcDbLine
 10
837.0276896331116
 20
440.9510724697547
 30
0.0
 11
843.273483709795
 21
440.9510724697547
 31
0.0
  0
LINE
  5
80E7
330
1F
100
AcDbEntity
  8
NOSNÉ KONSTRUKCE
100
AcDbLine
 10
843.2734837097878
 20
435.9159029552784
 30
0.0
 11
837.7654491509447
 21
435.9159029552784
 31
0.0
  0
LINE
  5
80E8
330
1F
100
AcDbEntity
  8
NOSNÉ KONSTRUKCE
100
AcDbLine
 10
843.2734837097878
 20
440.9510724697565
 30
0.0
 11
843.2734837097878
 21
435.9159029552784
 31
0.0
  0
ARC
  5
80E9
330
1F
100
AcDbEntity
  8
NOSNÉ KONSTRUKCE
100
AcDbCircle
 10
851.8019107688514
 20
445.9046708070336
 30
0.0
 40
15.58254621860396
100
AcDbArc
 50
181.5216683935213
 51
198.5356121532439
  0
LINE
  5
80EA
330
1F
100
AcDbEntity
  8
NOSNÉ KONSTRUKCE
100
AcDbLine
 10
897.5746194638549
 20
445.49087626659
 30
0.0
 11
836.2248596765194
 21
445.4908762665882
 31
0.0
  0
LWPOLYLINE
  5
80EB
330
1F
100
AcDbEntity
  8
NOSNÉ KONSTRUKCE
100
AcDbPolyline
 90
        2
 70
     0
 43
0.0
 10
884.0815512836188
 20
430.3221245884296
 10
849.7253932753437
 20
430.3221245884296
  0
ARC
  5
80EC
330
1F
100
AcDbEntity
  8
NOSNÉ KONSTRUKCE
100
AcDbCircle
 10
865.8974369406269
 20
470.1105725064126
 30
0.0
 40
1.0
100
AcDbArc
 50
0.0
 51
85.40371574155786
  0
ARC
  5
80ED
330
1F
100
AcDbEntity
  8
NOSNÉ KONSTRUKCE
100
AcDbCircle
 10
863.8974369406414
 20
468.264905546609
 30
0.0
 40
1.0
100
AcDbArc
 50
0.0
 51
85.40371574155786
  0
LINE
  5
80EE
330
1F
100
AcDbEntity
  8
NOSNÉ KONSTRUKCE
100
AcDbLine
 10
863.9775712217733
 20
469.2616896240243
 30
0.0
 11
851.4260978820884
 21
470.2707379385255
 31
0.0
  0
LINE
  5
80EF
330
1F
100
AcDbEntity
  8
NOSNÉ KONSTRUKCE
100
AcDbLine
 10
864.8974369406415
 20
445.49087626659
 30
0.0
 11
864.8974369406415
 21
468.264905546609
 31
0.0
  0
LINE
  5
80F0
330
1F
100
AcDbEntity
  8
NOSNÉ KONSTRUKCE
100
AcDbLine
 10
866.8974369406415
 20
445.49087626659
 30
0.0
 11
866.8974369406269
 21
470.1105725064126
 31
0.0
  0
ARC
  5
80F1
330
1F
100
AcDbEntity
  8
NOSNÉ KONSTRUKCE
100
AcDbCircle
 10
838.9117635940555
 20
475.3354730195087
 30
0.0
 40
13.50037422122492
100
AcDbArc
 50
184.1189251487253
 51
337.9660968680481
  0
LINE
  5
80F2
330
1F
100
AcDbEntity
  8
NOSNÉ KONSTRUKCE
100
AcDbLine
 10
865.9775712217587
 20
471.1073565838278
 30
0.0
 11
825.446259321011
 21
474.3657829733884
 31
0.0
  0
HATCH
  5
80F3
330
1F
100
AcDbEntity
  8
NOSNÉ KONSTRUKCE
100
AcDbHatch
 10
0.0
 20
0.0
 30
0.0
210
0.0
220
0.0
230
1.0
  2
SOLID
 70
     1
 71
     0
 91
        1
 92
        7
 72
     0
 73
     1
 93
        8
 10
895.4126472720227
 20
491.6702107817063
 10
896.9126472720226
 20
491.6702107817063
 10
896.9126472720226
 20
446.3077310805775
 10
867.9127037822173
 20
446.307731080592
 10
867.9127037822173
 20
491.670210781699
 10
869.4127037822171
 20
491.6702107817063
 10
869.4127037822099
 20
447.8077310805774
 10
895.4126472720227
 20
447.8077310805847
 97
        0
 75
     0
 76
     1
 47
0.1358226225865344
 98
        1
 10
896.1385160607161
 20
486.1381665744584
  0
LINE
  5
80F4
330
1F
100
AcDbEntity
  8
NOSNÉ KONSTRUKCE
100
AcDbLine
 10
891.3054197879747
 20
446.3821473347297
 30
0.0
 11
891.3054197879747
 21
746.3151904307896
 31
0.0
  0
LINE
  5
80F5
330
1F
100
AcDbEntity
  8
NOSNÉ KONSTRUKCE
100
AcDbLine
 10
888.5554583195471
 20
446.3821473347297
 30
0.0
 11
888.5554583195398
 21
746.3151904307896
 31
0.0
  0
LINE
  5
80F6
330
1F
100
AcDbEntity
  8
NOSNÉ KONSTRUKCE
100
AcDbLine
 10
883.9916034199623
 20
446.3821473347297
 30
0.0
 11
883.9916034199623
 21
746.3151904307896
 31
0.0
  0
LINE
  5
80F7
330
1F
100
AcDbEntity
  8
NOSNÉ KONSTRUKCE
100
AcDbLine
 10
881.4905212044605
 20
446.3821473347297
 30
0.0
 11
881.4905212044605
 21
746.3151904307896
 31
0.0
  0
LINE
  5
80F8
330
1F
100
AcDbEntity
  8
NOSNÉ KONSTRUKCE
100
AcDbLine
 10
876.3343387939302
 20
446.3821473347297
 30
0.0
 11
876.3343387939302
 21
746.3151904307896
 31
0.0
  0
LINE
  5
80F9
330
1F
100
AcDbEntity
  8
NOSNÉ KONSTRUKCE
100
AcDbLine
 10
873.7914404506582
 20
446.3821473347297
 30
0.0
 11
873.7914404506582
 21
746.3151904307896
 31
0.0
  0
LINE
  5
80FA
330
1F
100
AcDbEntity
  8
NOSNÉ KONSTRUKCE
100
AcDbLine
 10
867.9125096098642
 20
446.3821473347297
 30
0.0
 11
867.9125096098642
 21
746.3151904307896
 31
0.0
  0
LINE
  5
80FB
330
1F
100
AcDbEntity
  8
NOSNÉ KONSTRUKCE
100
AcDbLine
 10
896.9772502458063
 20
446.3821473347297
 30
0.0
 11
896.9772502458136
 21
746.3151904307896
 31
0.0
  0
LINE
  5
80FC
102
{ACAD_REACTORS
330
7C6F
102
}
330
1F
100
AcDbEntity
  8
SPOJOVACÍ
  6
Continuous
100
AcDbLine
 10
911.4693782891109
 20
476.9246403668558
 30
0.0
 11
910.5316272675546
 21
475.2237944462804
 31
0.0
  0
LINE
  5
80FD
330
1F
100
AcDbEntity
  8
SPOJOVACÍ
  6
Continuous
100
AcDbLine
 10
912.6693050658422
 20
466.7243325895879
 30
0.0
 11
912.6693050658422
 21
476.9246403668558
 31
0.0
  0
LINE
  5
80FE
102
{ACAD_REACTORS
330
7C6F
102
}
330
1F
100
AcDbEntity
  8
SPOJOVACÍ
  6
Continuous
100
AcDbLine
 10
912.6693050658422
 20
476.9246403668558
 30
0.0
 11
911.4693782891109
 21
476.9246403668558
 31
0.0
  0
LINE
  5
80FF
330
1F
100
AcDbEntity
  8
SPOJOVACÍ
  6
Continuous
100
AcDbLine
 10
911.4693782891109
 20
466.7243325895879
 30
0.0
 11
911.4693782891109
 21
476.9246403668558
 31
0.0
  0
LINE
  5
8100
330
1F
100
AcDbEntity
  8
SPOJOVACÍ
  6
Continuous
100
AcDbLine
 10
896.0070660358169
 20
469.8022843006083
 30
0.0
 11
894.6471490225439
 21
473.8466886602009
 31
0.0
  0
LINE
  5
8101
330
1F
100
AcDbEntity
  8
SPOJOVACÍ
  6
Continuous
100
AcDbLine
 10
895.4108233506621
 20
469.8022843006083
 30
0.0
 11
894.0509063373966
 21
473.8466886602009
 31
0.0
  0
LINE
  5
8102
330
1F
100
AcDbEntity
  8
SPOJOVACÍ
  6
Continuous
100
AcDbLine
 10
894.4294878862265
 20
474.2243400311463
 30
0.0
 11
894.6471490225439
 21
473.8466886602009
 31
0.0
  0
LINE
  5
8103
330
1F
100
AcDbEntity
  8
SPOJOVACÍ
  6
Continuous
100
AcDbLine
 10
894.4294878862265
 20
474.2243400311463
 30
0.0
 11
894.0509063373966
 21
473.8466886602009
 31
0.0
  0
LINE
  5
8104
330
1F
100
AcDbEntity
  8
SPOJOVACÍ
  6
Continuous
100
AcDbLine
 10
895.6294146626888
 20
469.4246329252973
 30
0.0
 11
896.0070660358169
 21
469.8022843006083
 31
0.0
  0
LINE
  5
8105
330
1F
100
AcDbEntity
  8
SPOJOVACÍ
  6
Continuous
100
AcDbLine
 10
895.6294146626888
 20
469.4246329252973
 30
0.0
 11
895.4108233506621
 21
469.8022843006083
 31
0.0
  0
LINE
  5
8106
330
1F
100
AcDbEntity
  8
SPOJOVACÍ
  6
Continuous
100
AcDbLine
 10
895.6294146626888
 20
469.4246329252973
 30
0.0
 11
894.4294878862265
 21
474.2243400311463
 31
0.0
  0
LINE
  5
8107
102
{ACAD_REACTORS
330
7C6F
102
}
330
1F
100
AcDbEntity
  8
SPOJOVACÍ
  6
Continuous
100
AcDbLine
 10
899.1268756550553
 20
469.8022843006083
 30
0.0
 11
897.767888817215
 21
473.8466886602009
 31
0.0
  0
LINE
  5
8108
330
1F
100
AcDbEntity
  8
SPOJOVACÍ
  6
Continuous
100
AcDbLine
 10
898.5306329699005
 20
469.8022843006083
 30
0.0
 11
897.1716461323367
 21
473.8466886602009
 31
0.0
  0
LINE
  5
8109
330
1F
100
AcDbEntity
  8
SPOJOVACÍ
  6
Continuous
100
AcDbLine
 10
897.5492975051883
 20
474.2243400311463
 30
0.0
 11
897.767888817215
 21
473.8466886602009
 31
0.0
  0
LINE
  5
810A
330
1F
100
AcDbEntity
  8
SPOJOVACÍ
  6
Continuous
100
AcDbLine
 10
897.5492975051883
 20
474.2243400311463
 30
0.0
 11
897.1716461323367
 21
473.8466886602009
 31
0.0
  0
LINE
  5
810B
102
{ACAD_REACTORS
330
7C6F
102
}
330
1F
100
AcDbEntity
  8
SPOJOVACÍ
  6
Continuous
100
AcDbLine
 10
898.7492242819271
 20
469.4246329252973
 30
0.0
 11
899.1268756550553
 21
469.8022843006083
 31
0.0
  0
LINE
  5
810C
330
1F
100
AcDbEntity
  8
SPOJOVACÍ
  6
Continuous
100
AcDbLine
 10
898.7492242819271
 20
469.4246329252973
 30
0.0
 11
898.5306329699005
 21
469.8022843006083
 31
0.0
  0
LINE
  5
810D
330
1F
100
AcDbEntity
  8
SPOJOVACÍ
  6
Continuous
100
AcDbLine
 10
898.7492242819271
 20
469.4246329252973
 30
0.0
 11
897.5492975051883
 21
474.2243400311463
 31
0.0
  0
LINE
  5
810E
102
{ACAD_REACTORS
330
7C6F
102
}
330
1F
100
AcDbEntity
  8
SPOJOVACÍ
  6
Continuous
100
AcDbLine
 10
902.2476154497189
 20
469.8022843006083
 30
0.0
 11
900.8876984364533
 21
473.8466886602009
 31
0.0
  0
LINE
  5
810F
102
{ACAD_REACTORS
330
7C6F
102
}
330
1F
100
AcDbEntity
  8
SPOJOVACÍ
  6
Continuous
100
AcDbLine
 10
901.6513727648407
 20
469.8022843006083
 30
0.0
 11
900.2914557512985
 21
473.8466886602009
 31
0.0
  0
LINE
  5
8110
102
{ACAD_REACTORS
330
7C6F
102
}
330
1F
100
AcDbEntity
  8
SPOJOVACÍ
  6
Continuous
100
AcDbLine
 10
900.6691071244267
 20
474.2243400311463
 30
0.0
 11
900.8876984364533
 21
473.8466886602009
 31
0.0
  0
LINE
  5
8111
102
{ACAD_REACTORS
330
7C6F
102
}
330
1F
100
AcDbEntity
  8
SPOJOVACÍ
  6
Continuous
100
AcDbLine
 10
900.6691071244267
 20
474.2243400311463
 30
0.0
 11
900.2914557512985
 21
473.8466886602009
 31
0.0
  0
LINE
  5
8112
102
{ACAD_REACTORS
330
7C6F
102
}
330
1F
100
AcDbEntity
  8
SPOJOVACÍ
  6
Continuous
100
AcDbLine
 10
901.8690339008889
 20
469.4246329252973
 30
0.0
 11
902.2476154497189
 21
469.8022843006083
 31
0.0
  0
LINE
  5
8113
102
{ACAD_REACTORS
330
7C6F
102
}
330
1F
100
AcDbEntity
  8
SPOJOVACÍ
  6
Continuous
100
AcDbLine
 10
901.8690339008889
 20
469.4246329252973
 30
0.0
 11
901.6513727648407
 21
469.8022843006083
 31
0.0
  0
LINE
  5
8114
330
1F
100
AcDbEntity
  8
SPOJOVACÍ
  6
Continuous
100
AcDbLine
 10
901.8690339008889
 20
469.4246329252973
 30
0.0
 11
900.6691071244267
 21
474.2243400311463
 31
0.0
  0
LINE
  5
8115
330
1F
100
AcDbEntity
  8
SPOJOVACÍ
  6
Continuous
100
AcDbLine
 10
897.4079107843271
 20
473.1741715617727
 30
0.0
 11
894.879692971458
 21
473.1741715617727
 31
0.0
  0
LINE
  5
8116
102
{ACAD_REACTORS
330
7C6F
102
}
330
1F
100
AcDbEntity
  8
SPOJOVACÍ
  6
Continuous
100
AcDbLine
 10
900.5230695245108
 20
473.1741715617727
 30
0.0
 11
898.0041534694819
 21
473.1741715617727
 31
0.0
  0
LINE
  5
8117
330
1F
100
AcDbEntity
  8
SPOJOVACÍ
  6
Continuous
100
AcDbLine
 10
898.313902009554
 20
470.4748013990365
 30
0.0
 11
895.793125602845
 21
470.4748013990365
 31
0.0
  0
LINE
  5
8118
102
{ACAD_REACTORS
330
7C6F
102
}
330
1F
100
AcDbEntity
  8
SPOJOVACÍ
  6
Continuous
100
AcDbLine
 10
901.4365021558978
 20
470.4748013990365
 30
0.0
 11
898.9175861008689
 21
470.4748013990365
 31
0.0
  0
LINE
  5
8119
102
{ACAD_REACTORS
330
7C6F
102
}
330
1F
100
AcDbEntity
  8
SPOJOVACÍ
  6
Continuous
100
AcDbLine
 10
906.0697077947542
 20
470.4748013990365
 30
0.0
 11
902.0318146650742
 21
470.4748013990365
 31
0.0
  0
LINE
  5
811A
102
{ACAD_REACTORS
330
7C6F
102
}
330
1F
100
AcDbEntity
  8
SPOJOVACÍ
  6
Continuous
100
AcDbLine
 10
906.0697077947542
 20
473.1741715617727
 30
0.0
 11
901.1267536158257
 21
473.1741715617727
 31
0.0
  0
LINE
  5
811B
102
{ACAD_REACTORS
330
7C6F
102
}
330
1F
100
AcDbEntity
  8
SPOJOVACÍ
  6
Continuous
100
AcDbLine
 10
911.4693782891109
 20
466.7243325895879
 30
0.0
 11
910.7252376526366
 21
468.0740176731387
 31
0.0
  0
LINE
  5
811C
102
{ACAD_REACTORS
330
7C6F
102
}
330
1F
100
AcDbEntity
  8
SPOJOVACÍ
  6
Continuous
100
AcDbLine
 10
910.7252376526366
 20
468.0740176731387
 30
0.0
 11
909.6564656632244
 21
469.1846475734974
 31
0.0
  0
LINE
  5
811D
102
{ACAD_REACTORS
330
7C6F
102
}
330
1F
100
AcDbEntity
  8
SPOJOVACÍ
  6
Continuous
100
AcDbLine
 10
909.6564656632244
 20
469.1846475734974
 30
0.0
 11
908.3374763849269
 21
469.9808780528155
 31
0.0
  0
LINE
  5
811E
102
{ACAD_REACTORS
330
7C6F
102
}
330
1F
100
AcDbEntity
  8
SPOJOVACÍ
  6
Continuous
100
AcDbLine
 10
908.3374763849269
 20
469.9808780528155
 30
0.0
 11
906.8566365178767
 21
470.4087589171149
 31
0.0
  0
LINE
  5
811F
102
{ACAD_REACTORS
330
7C6F
102
}
330
1F
100
AcDbEntity
  8
SPOJOVACÍ
  6
Continuous
100
AcDbLine
 10
906.8566365178767
 20
470.4087589171149
 30
0.0
 11
906.0697077947542
 21
470.4748013990365
 31
0.0
  0
LINE
  5
8120
102
{ACAD_REACTORS
330
7C6F
102
}
330
1F
100
AcDbEntity
  8
SPOJOVACÍ
  6
Continuous
100
AcDbLine
 10
912.6693050658422
 20
466.7243325895879
 30
0.0
 11
911.4693782891109
 21
466.7243325895879
 31
0.0
  0
LINE
  5
8121
102
{ACAD_REACTORS
330
7C6F
102
}
330
1F
100
AcDbEntity
  8
SPOJOVACÍ
  6
Continuous
100
AcDbLine
 10
906.0697077947542
 20
473.1741715617727
 30
0.0
 11
907.5933357481835
 21
473.4011344526561
 31
0.0
  0
LINE
  5
8122
102
{ACAD_REACTORS
330
7C6F
102
}
330
1F
100
AcDbEntity
  8
SPOJOVACÍ
  6
Continuous
100
AcDbLine
 10
907.5933357481835
 20
473.4011344526561
 30
0.0
 11
909.0072029578868
 21
474.0141203018038
 31
0.0
  0
LINE
  5
8123
102
{ACAD_REACTORS
330
7C6F
102
}
330
1F
100
AcDbEntity
  8
SPOJOVACÍ
  6
Continuous
100
AcDbLine
 10
909.0072029578868
 20
474.0141203018038
 30
0.0
 11
910.5316272675546
 21
475.2237944462804
 31
0.0
  0
LINE
  5
8124
330
1F
100
AcDbEntity
  8
SPOJOVACÍ
  6
Continuous
100
AcDbLine
 10
889.7674467978859
 20
469.8022843006083
 30
0.0
 11
888.4075297843438
 21
473.8466886602009
 31
0.0
  0
LINE
  5
8125
330
1F
100
AcDbEntity
  8
SPOJOVACÍ
  6
Continuous
100
AcDbLine
 10
889.1712041127311
 20
469.8022843006083
 30
0.0
 11
887.8112870991889
 21
473.8466886602009
 31
0.0
  0
LINE
  5
8126
330
1F
100
AcDbEntity
  8
SPOJOVACÍ
  6
Continuous
100
AcDbLine
 10
888.1889384723171
 20
474.2243400311463
 30
0.0
 11
888.4075297843438
 21
473.8466886602009
 31
0.0
  0
LINE
  5
8127
330
1F
100
AcDbEntity
  8
SPOJOVACÍ
  6
Continuous
100
AcDbLine
 10
888.1889384723171
 20
474.2243400311463
 30
0.0
 11
887.8112870991889
 21
473.8466886602009
 31
0.0
  0
LINE
  5
8128
330
1F
100
AcDbEntity
  8
SPOJOVACÍ
  6
Continuous
100
AcDbLine
 10
889.3888652487794
 20
469.4246329252973
 30
0.0
 11
889.7674467978859
 21
469.8022843006083
 31
0.0
  0
LINE
  5
8129
330
1F
100
AcDbEntity
  8
SPOJOVACÍ
  6
Continuous
100
AcDbLine
 10
889.3888652487794
 20
469.4246329252973
 30
0.0
 11
889.1712041127311
 21
469.8022843006083
 31
0.0
  0
LINE
  5
812A
330
1F
100
AcDbEntity
  8
SPOJOVACÍ
  6
Continuous
100
AcDbLine
 10
889.3888652487794
 20
469.4246329252973
 30
0.0
 11
888.1889384723171
 21
474.2243400311463
 31
0.0
  0
LINE
  5
812B
330
1F
100
AcDbEntity
  8
SPOJOVACÍ
  6
Continuous
100
AcDbLine
 10
892.8872564168477
 20
469.8022843006083
 30
0.0
 11
891.5273394033055
 21
473.8466886602009
 31
0.0
  0
LINE
  5
812C
330
1F
100
AcDbEntity
  8
SPOJOVACÍ
  6
Continuous
100
AcDbLine
 10
892.2910137317003
 20
469.8022843006083
 30
0.0
 11
890.9310967184273
 21
473.8466886602009
 31
0.0
  0
LINE
  5
812D
330
1F
100
AcDbEntity
  8
SPOJOVACÍ
  6
Continuous
100
AcDbLine
 10
891.3096782672573
 20
474.2243400311463
 30
0.0
 11
891.5273394033055
 21
473.8466886602009
 31
0.0
  0
LINE
  5
812E
330
1F
100
AcDbEntity
  8
SPOJOVACÍ
  6
Continuous
100
AcDbLine
 10
891.3096782672573
 20
474.2243400311463
 30
0.0
 11
890.9310967184273
 21
473.8466886602009
 31
0.0
  0
LINE
  5
812F
330
1F
100
AcDbEntity
  8
SPOJOVACÍ
  6
Continuous
100
AcDbLine
 10
892.5096050437195
 20
469.4246329252973
 30
0.0
 11
892.8872564168477
 21
469.8022843006083
 31
0.0
  0
LINE
  5
8130
330
1F
100
AcDbEntity
  8
SPOJOVACÍ
  6
Continuous
100
AcDbLine
 10
892.5096050437195
 20
469.4246329252973
 30
0.0
 11
892.2910137317003
 21
469.8022843006083
 31
0.0
  0
LINE
  5
8131
330
1F
100
AcDbEntity
  8
SPOJOVACÍ
  6
Continuous
100
AcDbLine
 10
892.5096050437195
 20
469.4246329252973
 30
0.0
 11
891.3096782672573
 21
474.2243400311463
 31
0.0
  0
LINE
  5
8132
330
1F
100
AcDbEntity
  8
SPOJOVACÍ
  6
Continuous
100
AcDbLine
 10
880.2833743838482
 20
470.8078043362957
 30
0.0
 11
879.9726956680743
 21
472.9620914777524
 31
0.0
  0
LINE
  5
8133
330
1F
100
AcDbEntity
  8
SPOJOVACÍ
  6
Continuous
100
AcDbLine
 10
880.6610257569763
 20
471.1854557072411
 30
0.0
 11
880.1903568043917
 21
472.584440106807
 31
0.0
  0
LINE
  5
8134
330
1F
100
AcDbEntity
  8
SPOJOVACÍ
  6
Continuous
100
AcDbLine
 10
880.064783071829
 20
471.1854557072411
 30
0.0
 11
879.5941141192443
 21
472.584440106807
 31
0.0
  0
LINE
  5
8135
330
1F
100
AcDbEntity
  8
SPOJOVACÍ
  6
Continuous
100
AcDbLine
 10
879.9726956680743
 20
472.9620914777524
 30
0.0
 11
880.1903568043917
 21
472.584440106807
 31
0.0
  0
LINE
  5
8136
330
1F
100
AcDbEntity
  8
SPOJOVACÍ
  6
Continuous
100
AcDbLine
 10
879.9726956680743
 20
472.9620914777524
 30
0.0
 11
879.5941141192443
 21
472.584440106807
 31
0.0
  0
LINE
  5
8137
330
1F
100
AcDbEntity
  8
SPOJOVACÍ
  6
Continuous
100
AcDbLine
 10
880.2833743838482
 20
470.8078043362957
 30
0.0
 11
880.6610257569763
 21
471.1854557072411
 31
0.0
  0
LINE
  5
8138
330
1F
100
AcDbEntity
  8
SPOJOVACÍ
  6
Continuous
100
AcDbLine
 10
880.2833743838482
 20
470.8078043362957
 30
0.0
 11
880.064783071829
 21
471.1854557072411
 31
0.0
  0
LINE
  5
8139
330
1F
100
AcDbEntity
  8
SPOJOVACÍ
  6
Continuous
100
AcDbLine
 10
883.2971439621678
 20
470.2431876258242
 30
0.0
 11
882.6636942453978
 21
473.3592765422554
 31
0.0
  0
LINE
  5
813A
330
1F
100
AcDbEntity
  8
SPOJOVACÍ
  6
Continuous
100
AcDbLine
 10
883.6757255112743
 20
470.6208390011352
 30
0.0
 11
882.8813553814461
 21
472.98162517131
 31
0.0
  0
LINE
  5
813B
330
1F
100
AcDbEntity
  8
SPOJOVACÍ
  6
Continuous
100
AcDbLine
 10
883.0794828261195
 20
470.6208390011352
 30
0.0
 11
882.2851126965678
 21
472.98162517131
 31
0.0
  0
LINE
  5
813C
330
1F
100
AcDbEntity
  8
SPOJOVACÍ
  6
Continuous
100
AcDbLine
 10
882.6636942453978
 20
473.3592765422554
 30
0.0
 11
882.8813553814461
 21
472.98162517131
 31
0.0
  0
LINE
  5
813D
330
1F
100
AcDbEntity
  8
SPOJOVACÍ
  6
Continuous
100
AcDbLine
 10
882.6636942453978
 20
473.3592765422554
 30
0.0
 11
882.2851126965678
 21
472.98162517131
 31
0.0
  0
LINE
  5
813E
330
1F
100
AcDbEntity
  8
SPOJOVACÍ
  6
Continuous
100
AcDbLine
 10
883.2971439621678
 20
470.2431876258242
 30
0.0
 11
883.6757255112743
 21
470.6208390011352
 31
0.0
  0
LINE
  5
813F
330
1F
100
AcDbEntity
  8
SPOJOVACÍ
  6
Continuous
100
AcDbLine
 10
883.2971439621678
 20
470.2431876258242
 30
0.0
 11
883.0794828261195
 21
470.6208390011352
 31
0.0
  0
LINE
  5
8140
330
1F
100
AcDbEntity
  8
SPOJOVACÍ
  6
Continuous
100
AcDbLine
 10
886.3118437164658
 20
469.6785709197183
 30
0.0
 11
885.3388798341612
 21
473.8039005724613
 31
0.0
  0
LINE
  5
8141
330
1F
100
AcDbEntity
  8
SPOJOVACÍ
  6
Continuous
100
AcDbLine
 10
886.689495089594
 20
470.0571524680026
 30
0.0
 11
885.5565409702094
 21
473.4262492015159
 31
0.0
  0
LINE
  5
8142
330
1F
100
AcDbEntity
  8
SPOJOVACÍ
  6
Continuous
100
AcDbLine
 10
886.0932524044391
 20
470.0571524680026
 30
0.0
 11
884.9602982850546
 21
473.4262492015159
 31
0.0
  0
LINE
  5
8143
330
1F
100
AcDbEntity
  8
SPOJOVACÍ
  6
Continuous
100
AcDbLine
 10
885.3388798341612
 20
473.8039005724613
 30
0.0
 11
885.5565409702094
 21
473.4262492015159
 31
0.0
  0
LINE
  5
8144
330
1F
100
AcDbEntity
  8
SPOJOVACÍ
  6
Continuous
100
AcDbLine
 10
885.3388798341612
 20
473.8039005724613
 30
0.0
 11
884.9602982850546
 21
473.4262492015159
 31
0.0
  0
LINE
  5
8145
330
1F
100
AcDbEntity
  8
SPOJOVACÍ
  6
Continuous
100
AcDbLine
 10
886.3118437164658
 20
469.6785709197183
 30
0.0
 11
886.689495089594
 21
470.0571524680026
 31
0.0
  0
LINE
  5
8146
330
1F
100
AcDbEntity
  8
SPOJOVACÍ
  6
Continuous
100
AcDbLine
 10
886.3118437164658
 20
469.6785709197183
 30
0.0
 11
886.0932524044391
 21
470.0571524680026
 31
0.0
  0
LINE
  5
8147
330
1F
100
AcDbEntity
  8
SPOJOVACÍ
  6
Continuous
100
AcDbLine
 10
885.7332743715588
 20
472.9286051503049
 30
0.0
 11
887.704316882845
 21
473.1741715617727
 31
0.0
  0
LINE
  5
8148
330
1F
100
AcDbEntity
  8
SPOJOVACÍ
  6
Continuous
100
AcDbLine
 10
883.0264628056601
 20
472.5900211577436
 30
0.0
 11
885.1630766085136
 21
472.8569816130812
 31
0.0
  0
LINE
  5
8149
330
1F
100
AcDbEntity
  8
SPOJOVACÍ
  6
Continuous
100
AcDbLine
 10
880.3094193062269
 20
472.2505069965746
 30
0.0
 11
882.4544046912114
 21
472.5183976248854
 31
0.0
  0
LINE
  5
814A
330
1F
100
AcDbEntity
  8
SPOJOVACÍ
  6
Continuous
100
AcDbLine
 10
879.9931595356966
 20
471.4384635243232
 30
0.0
 11
876.9040457178917
 21
471.8244864782218
 31
0.0
  0
LINE
  5
814B
330
1F
100
AcDbEntity
  8
SPOJOVACÍ
  6
Continuous
100
AcDbLine
 10
882.9343754019054
 20
471.0710440866432
 30
0.0
 11
880.61358679155
 21
471.3612589317972
 31
0.0
  0
LINE
  5
814C
330
1F
100
AcDbEntity
  8
SPOJOVACÍ
  6
Continuous
100
AcDbLine
 10
885.8867533776347
 20
470.7017642942855
 30
0.0
 11
883.56503459157
 21
470.9919791438051
 31
0.0
  0
LINE
  5
814D
330
1F
100
AcDbEntity
  8
SPOJOVACÍ
  6
Continuous
100
AcDbLine
 10
876.9040457178917
 20
471.8244864782218
 30
0.0
 11
879.7401517191602
 21
472.1788834593508
 31
0.0
  0
LINE
  5
814E
330
1F
100
AcDbEntity
  8
SPOJOVACÍ
  6
Continuous
100
AcDbLine
 10
887.704316882845
 20
470.4748013990365
 30
0.0
 11
886.5071806334881
 21
470.6245597017596
 31
0.0
  0
LINE
  5
814F
330
1F
100
AcDbEntity
  8
SPOJOVACÍ
  6
Continuous
100
AcDbLine
 10
888.0410405207285
 20
473.1741715617727
 30
0.0
 11
887.704316882845
 21
473.1741715617727
 31
0.0
  0
LINE
  5
8150
330
1F
100
AcDbEntity
  8
SPOJOVACÍ
  6
Continuous
100
AcDbLine
 10
891.1636406673414
 20
473.1741715617727
 30
0.0
 11
888.6447246123125
 21
473.1741715617727
 31
0.0
  0
LINE
  5
8151
330
1F
100
AcDbEntity
  8
SPOJOVACÍ
  6
Continuous
100
AcDbLine
 10
888.9516826247335
 20
470.4748013990365
 30
0.0
 11
887.704316882845
 21
470.4748013990365
 31
0.0
  0
LINE
  5
8152
330
1F
100
AcDbEntity
  8
SPOJOVACÍ
  6
Continuous
100
AcDbLine
 10
892.0659111892154
 20
470.4748013990365
 30
0.0
 11
889.5479253098883
 21
470.4748013990365
 31
0.0
  0
LINE
  5
8153
330
1F
100
AcDbEntity
  8
SPOJOVACÍ
  6
Continuous
100
AcDbLine
 10
894.2853106379834
 20
473.1741715617727
 30
0.0
 11
891.7645342312743
 21
473.1741715617727
 31
0.0
  0
LINE
  5
8154
330
1F
100
AcDbEntity
  8
SPOJOVACÍ
  6
Continuous
100
AcDbLine
 10
895.1987432693703
 20
470.4748013990365
 30
0.0
 11
892.6705254565012
 21
470.4748013990365
 31
0.0
  0
LINE
  5
8155
330
1F
100
AcDbEntity
  8
STAVBA OBRYS
100
AcDbLine
 10
654.9002600358862
 20
446.3151904307915
 30
0.0
 11
529.9002600358862
 21
446.3151904307915
 31
0.0
  0
LINE
  5
8156
330
1F
100
AcDbEntity
  8
STAVBA OBRYS
100
AcDbLine
 10
607.093863551504
 20
464.8465625011112
 30
0.0
 11
649.3065100358863
 21
458.9030810557915
 31
0.0
  0
LINE
  5
8157
330
1F
100
AcDbEntity
  8
STAVBA OBRYS
100
AcDbLine
 10
654.9002600358862
 20
452.4665576182915
 30
0.0
 11
654.9002600358862
 21
446.3151904307915
 31
0.0
  0
ARC
  5
8158
330
1F
100
AcDbEntity
  8
STAVBA OBRYS
100
AcDbCircle
 10
648.4002600358863
 20
452.4665576182861
 30
0.0
 40
6.5
100
AcDbArc
 50
0.0000323296940839
 51
81.98555233400226
  0
ARC
  5
8159
330
1F
100
AcDbEntity
  8
STAVBA OBRYS
100
AcDbCircle
 10
576.199820582754
 20
475.5409594737621
 30
0.0
 40
10.8000001907349
100
AcDbArc
 50
278.0145259859509
 51
359.9999640278023
  0
LINE
  5
815A
330
1F
100
AcDbEntity
  8
STAVBA OBRYS
100
AcDbLine
 10
577.705679957754
 20
464.8464404307914
 30
0.0
 11
535.4940100358862
 21
458.9030810557915
 31
0.0
  0
LINE
  5
815B
330
1F
100
AcDbEntity
  8
STAVBA OBRYS
100
AcDbLine
 10
529.9002600358862
 20
452.4665576182915
 30
0.0
 11
529.9002600358862
 21
446.3151904307915
 31
0.0
  0
ARC
  5
815C
330
1F
100
AcDbEntity
  8
STAVBA OBRYS
100
AcDbCircle
 10
536.4002600358863
 20
452.4665576182861
 30
0.0
 40
6.5
100
AcDbArc
 50
98.01446269293471
 51
179.9999826972223
  0
LINE
  5
815D
330
1F
100
AcDbEntity
  8
STAVBA OBRYS
100
AcDbLine
 10
586.9998694108862
 20
717.08942138783
 30
0.0
 11
586.9998694108862
 21
475.5409594737602
 31
0.0
  0
LINE
  5
815E
330
1F
100
AcDbEntity
  8
STAVBA OBRYS
100
AcDbLine
 10
597.7996740983862
 20
717.0892993175102
 30
0.0
 11
597.7996740983862
 21
475.54108154408
 31
0.0
  0
ARC
  5
815F
330
1F
100
AcDbEntity
  8
STAVBA OBRYS
100
AcDbCircle
 10
608.5997229265039
 20
475.5410815440818
 30
0.0
 40
10.8000001907349
100
AcDbArc
 50
180.0
 51
261.9855473250177
  0
ARC
  5
8160
330
1F
100
AcDbEntity
  8
STAVBA OBRYS
100
AcDbCircle
 10
576.199820582754
 20
717.0894213878319
 30
0.0
 40
10.8000001907349
100
AcDbArc
 50
359.9999640278023
 51
81.98551135281235
  0
LINE
  5
8161
330
1F
100
AcDbEntity
  8
STAVBA OBRYS
100
AcDbLine
 10
654.9002600358862
 20
746.3151904307915
 30
0.0
 11
529.9002600358862
 21
746.3151904307915
 31
0.0
  0
LINE
  5
8162
330
1F
100
AcDbEntity
  8
STAVBA OBRYS
100
AcDbLine
 10
607.093863551504
 20
727.783818360479
 30
0.0
 11
649.3065100358863
 21
733.7272998057914
 31
0.0
  0
ARC
  5
8163
330
1F
100
AcDbEntity
  8
STAVBA OBRYS
100
AcDbCircle
 10
608.5997229265039
 20
717.0892993175121
 30
0.0
 40
10.8000001907349
100
AcDbArc
 50
98.01446269293471
 51
179.9999826972223
  0
LINE
  5
8164
330
1F
100
AcDbEntity
  8
STAVBA OBRYS
100
AcDbLine
 10
654.9002600358862
 20
740.1638232432915
 30
0.0
 11
654.9002600358862
 21
746.3151904307915
 31
0.0
  0
ARC
  5
8165
330
1F
100
AcDbEntity
  8
STAVBA OBRYS
100
AcDbCircle
 10
648.4002600358863
 20
740.163823243286
 30
0.0
 40
6.5
100
AcDbArc
 50
278.0144576843642
 51
359.9999776881807
  0
LINE
  5
8166
330
1F
100
AcDbEntity
  8
STAVBA OBRYS
100
AcDbLine
 10
577.705679957754
 20
727.7839404307915
 30
0.0
 11
535.4940100358862
 21
733.7272998057914
 31
0.0
  0
LINE
  5
8167
330
1F
100
AcDbEntity
  8
STAVBA OBRYS
100
AcDbLine
 10
529.9002600358862
 20
740.1638232432915
 30
0.0
 11
529.9002600358862
 21
746.3151904307915
 31
0.0
  0
ARC
  5
8168
330
1F
100
AcDbEntity
  8
STAVBA OBRYS
100
AcDbCircle
 10
536.4002600358863
 20
740.163823243286
 30
0.0
 40
6.5
100
AcDbArc
 50
180.0000273207566
 51
261.9855473250177
  0
ARC
  5
8169
102
{ACAD_REACTORS
330
8189
102
}
330
1F
100
AcDbEntity
  8
STAVBA OBRYS
100
AcDbCircle
 10
745.8379876495519
 20
740.163823243286
 30
0.0
 40
6.5
100
AcDbArc
 50
180.0000273207566
 51
261.9855473250177
  0
LINE
  5
816A
102
{ACAD_REACTORS
330
8189
102
}
330
1F
100
AcDbEntity
  8
STAVBA OBRYS
100
AcDbLine
 10
739.3379876495519
 20
740.1638232432915
 30
0.0
 11
739.3379876495519
 21
746.3151904307915
 31
0.0
  0
LINE
  5
816B
102
{ACAD_REACTORS
330
8189
102
}
330
1F
100
AcDbEntity
  8
STAVBA OBRYS
100
AcDbLine
 10
787.1434075714196
 20
727.7839404307915
 30
0.0
 11
744.9317376495518
 21
733.7272998057914
 31
0.0
  0
ARC
  5
816C
102
{ACAD_REACTORS
330
8189
102
}
330
1F
100
AcDbEntity
  8
STAVBA OBRYS
100
AcDbCircle
 10
857.8379876495519
 20
740.163823243286
 30
0.0
 40
6.5
100
AcDbArc
 50
278.0144576843642
 51
359.9999776881807
  0
LINE
  5
816D
102
{ACAD_REACTORS
330
8189
102
}
330
1F
100
AcDbEntity
  8
STAVBA OBRYS
100
AcDbLine
 10
864.3379876495519
 20
740.1638232432915
 30
0.0
 11
864.3379876495519
 21
746.3151904307915
 31
0.0
  0
ARC
  5
816E
102
{ACAD_REACTORS
330
8189
102
}
330
1F
100
AcDbEntity
  8
STAVBA OBRYS
100
AcDbCircle
 10
818.0374505401696
 20
717.0892993175121
 30
0.0
 40
10.8000001907349
100
AcDbArc
 50
98.01446269293471
 51
179.9999826972223
  0
LINE
  5
816F
102
{ACAD_REACTORS
330
8189
102
}
330
1F
100
AcDbEntity
  8
STAVBA OBRYS
100
AcDbLine
 10
816.5315911651696
 20
727.783818360479
 30
0.0
 11
858.7442376495518
 21
733.7272998057914
 31
0.0
  0
LINE
  5
8170
102
{ACAD_REACTORS
330
8189
102
}
330
1F
100
AcDbEntity
  8
STAVBA OBRYS
100
AcDbLine
 10
864.3379876495519
 20
746.3151904307915
 30
0.0
 11
739.3379876495519
 21
746.3151904307915
 31
0.0
  0
ARC
  5
8171
102
{ACAD_REACTORS
330
8189
102
}
330
1F
100
AcDbEntity
  8
STAVBA OBRYS
100
AcDbCircle
 10
785.6375481964196
 20
717.0894213878319
 30
0.0
 40
10.8000001907349
100
AcDbArc
 50
359.9999640278023
 51
81.98551135281235
  0
ARC
  5
8172
102
{ACAD_REACTORS
330
8189
102
}
330
1F
100
AcDbEntity
  8
STAVBA OBRYS
100
AcDbCircle
 10
818.0374505401696
 20
475.5410815440818
 30
0.0
 40
10.8000001907349
100
AcDbArc
 50
180.0
 51
261.9855473250177
  0
LINE
  5
8173
102
{ACAD_REACTORS
330
8189
102
}
330
1F
100
AcDbEntity
  8
STAVBA OBRYS
100
AcDbLine
 10
807.237401712052
 20
717.0892993175102
 30
0.0
 11
807.237401712052
 21
475.54108154408
 31
0.0
  0
LINE
  5
8174
102
{ACAD_REACTORS
330
8189
102
}
330
1F
100
AcDbEntity
  8
STAVBA OBRYS
100
AcDbLine
 10
796.4375970245519
 20
717.08942138783
 30
0.0
 11
796.4375970245519
 21
475.5409594737602
 31
0.0
  0
ARC
  5
8175
102
{ACAD_REACTORS
330
8189
102
}
330
1F
100
AcDbEntity
  8
STAVBA OBRYS
100
AcDbCircle
 10
745.8379876495519
 20
452.4665576182861
 30
0.0
 40
6.5
100
AcDbArc
 50
98.01446269293471
 51
179.9999826972223
  0
LINE
  5
8176
102
{ACAD_REACTORS
330
8189
102
}
330
1F
100
AcDbEntity
  8
STAVBA OBRYS
100
AcDbLine
 10
739.3379876495519
 20
452.4665576182915
 30
0.0
 11
739.3379876495519
 21
446.3151904307915
 31
0.0
  0
LINE
  5
8177
102
{ACAD_REACTORS
330
8189
102
}
330
1F
100
AcDbEntity
  8
STAVBA OBRYS
100
AcDbLine
 10
787.1434075714196
 20
464.8464404307914
 30
0.0
 11
744.9317376495518
 21
458.9030810557915
 31
0.0
  0
ARC
  5
8178
102
{ACAD_REACTORS
330
8189
102
}
330
1F
100
AcDbEntity
  8
STAVBA OBRYS
100
AcDbCircle
 10
785.6375481964196
 20
475.5409594737621
 30
0.0
 40
10.8000001907349
100
AcDbArc
 50
278.0145259859509
 51
359.9999640278023
  0
ARC
  5
8179
102
{ACAD_REACTORS
330
8189
102
}
330
1F
100
AcDbEntity
  8
STAVBA OBRYS
100
AcDbCircle
 10
857.8379876495519
 20
452.4665576182861
 30
0.0
 40
6.5
100
AcDbArc
 50
0.0000323296940839
 51
81.98555233400226
  0
LINE
  5
817A
102
{ACAD_REACTORS
330
8189
102
}
330
1F
100
AcDbEntity
  8
STAVBA OBRYS
100
AcDbLine
 10
864.3379876495519
 20
452.4665576182915
 30
0.0
 11
864.3379876495519
 21
446.3151904307915
 31
0.0
  0
LINE
  5
817B
102
{ACAD_REACTORS
330
8189
102
}
330
1F
100
AcDbEntity
  8
STAVBA OBRYS
100
AcDbLine
 10
816.5315911651696
 20
464.8465625011112
 30
0.0
 11
858.7442376495518
 21
458.9030810557915
 31
0.0
  0
LINE
  5
817C
102
{ACAD_REACTORS
330
8189
102
}
330
1F
100
AcDbEntity
  8
STAVBA OBRYS
100
AcDbLine
 10
864.3379876495519
 20
446.3151904307915
 30
0.0
 11
739.3379876495519
 21
446.3151904307915
 31
0.0
  0
TEXT
  5
817E
330
1F
100
AcDbEntity
  8
POPIS
100
AcDbText
 10
325.1547198955513
 20
888.7299456441295
 30
0.0
 40
35.0
  1
PŮDORYS
 41
0.85
  7
SIMPLEX7
100
AcDbText
  0
TEXT
  5
817F
330
1F
100
AcDbEntity
  8
POPIS
100
AcDbText
 10
326.0113453762596
 20
1012.488313979724
 30
0.0
 40
50.0
  1
Protipožární obklad sloupu
 41
0.85
  7
SIMPLEX7
100
AcDbText
  0
TEXT
  5
8180
330
1F
100
AcDbEntity
  8
POPIS
100
AcDbText
 10
1018.125334392533
 20
754.6097253119742
 30
0.0
 40
25.0
  1
01
 41
0.85
  7
SIMPLEX7
100
AcDbText
  0
LINE
  5
8181
330
1F
100
AcDbEntity
  8
POPIS
100
AcDbLine
 10
1006.205412120069
 20
767.3565322631866
 30
0.0
 11
912.6693050658422
 21
767.3565322631866
 31
0.0
  0
LINE
  5
8182
102
{ACAD_REACTORS
330
7C6F
102
}
330
1F
100
AcDbEntity
  8
POPIS
100
AcDbLine
 10
1006.205412120069
 20
566.850326436298
 30
0.0
 11
870.7570213335921
 21
566.850326436298
 31
0.0
  0
TEXT
  5
8183
330
1F
100
AcDbEntity
  8
POPIS
100
AcDbText
 10
1018.125334392533
 20
554.1035194850856
 30
0.0
 40
25.0
  1
04
 41
0.85
  7
SIMPLEX7
100
AcDbText
  0
LINE
  5
8184
330
1F
100
AcDbEntity
  8
POPIS
100
AcDbLine
 10
1006.205412120069
 20
721.208976612429
 30
0.0
 11
912.6693050658422
 21
721.208976612429
 31
0.0
  0
TEXT
  5
8185
330
1F
100
AcDbEntity
  8
POPIS
100
AcDbText
 10
1018.125334392533
 20
708.4621696612166
 30
0.0
 40
25.0
  1
02
 41
0.85
  7
SIMPLEX7
100
AcDbText
  0
TEXT
  5
8186
330
1F
100
AcDbEntity
  8
POPIS
100
AcDbText
 10
1018.125334392533
 20
630.9811489944995
 30
0.0
 40
25.0
  1
03
 41
0.85
  7
SIMPLEX7
100
AcDbText
  0
LINE
  5
8187
330
1F
100
AcDbEntity
  8
POPIS
100
AcDbLine
 10
1006.205412120069
 20
643.7279559457119
 30
0.0
 11
946.3529490934297
 21
643.7279559457119
 31
0.0
  0
INSERT
  5
8188
330
1F
100
AcDbEntity
  8
POPIS
100
AcDbBlockReference
  2
E_PUNKT
 10
912.7070232885516
 20
721.2817768864779
 30
0.0
 50
90.0
  0
HATCH
  5
8189
330
1F
100
AcDbEntity
  8
STAVBA OBRYS
100
AcDbHatch
 10
0.0
 20
0.0
 30
0.0
210
0.0
220
0.0
230
1.0
  2
ANSI37
 70
     0
 71
     1
 91
        1
 92
       33
 93
       20
 72
     2
 10
785.6375481964196
 20
717.0894213878319
 40
10.8000001907349
 50
359.9999640278023
 51
441.9855113526055
 73
     1
 72
     1
 10
864.3379876495519
 20
746.3151904307915
 11
739.3379876495519
 21
746.3151904307915
 72
     1
 10
816.5315911651696
 20
727.783818360479
 11
858.7442376495518
 21
733.7272998057914
 72
     2
 10
818.0374505401696
 20
717.0892993175121
 40
10.8000001907349
 50
98.0144626931402
 51
179.9999826971702
 73
     1
 72
     1
 10
864.3379876495519
 20
740.1638232432915
 11
864.3379876495519
 21
746.3151904307915
 72
     2
 10
857.8379876495519
 20
740.163823243286
 40
6.5
 50
278.0144576841643
 51
359.9999776881807
 73
     1
 72
     1
 10
787.1434075714196
 20
727.7839404307915
 11
744.9317376495518
 21
733.7272998057914
 72
     1
 10
739.3379876495519
 20
740.1638232432915
 11
739.3379876495519
 21
746.3151904307915
 72
     2
 10
745.8379876495519
 20
740.163823243286
 40
6.5
 50
180.0000273207567
 51
261.9855473248187
 73
     1
 72
     1
 10
864.3379876495519
 20
446.3151904307915
 11
739.3379876495519
 21
446.3151904307915
 72
     2
 10
785.6375481964196
 20
475.5409594737621
 40
10.8000001907349
 50
278.0145259859518
 51
359.9999640278023
 73
     1
 72
     1
 10
787.1434075714196
 20
464.8464404307914
 11
744.9317376495518
 21
458.9030810557915
 72
     1
 10
739.3379876495519
 20
452.4665576182915
 11
739.3379876495519
 21
446.3151904307915
 72
     2
 10
745.8379876495519
 20
452.4665576182861
 40
6.5
 50
98.0144626931402
 51
179.9999826971702
 73
     1
 72
     1
 10
796.4375970245519
 20
717.08942138783
 11
796.4375970245519
 21
475.5409594737602
 72
     1
 10
807.237401712052
 20
717.0892993175102
 11
807.237401712052
 21
475.54108154408
 72
     2
 10
818.0374505401696
 20
475.5410815440818
 40
10.8000001907349
 50
180.0
 51
261.9855473248187
 73
     1
 72
     1
 10
816.5315911651696
 20
464.8465625011112
 11
858.7442376495518
 21
458.9030810557915
 72
     1
 10
864.3379876495519
 20
452.4665576182915
 11
864.3379876495519
 21
446.3151904307915
 72
     2
 10
857.8379876495519
 20
452.4665576182861
 40
6.5
 50
0.0000323296941218
 51
81.9855523338019
 73
     1
 97
       20
330
8171
330
8170
330
816F
330
816E
330
816D
330
816C
330
816B
330
816A
330
8169
330
817C
330
8178
330
8177
330
8176
330
8175
330
8174
330
8173
330
8172
330
817B
330
817A
330
8179
 75
     0
 76
     1
 52
90.0
 41
1.0
 77
     0
 78
     2
 53
135.0
 43
9308.77756024916
 44
-34266.67033297252
 45
-2.245064030267288
 46
-2.245064030267287
 79
     0
 53
225.0
 43
9308.77756024916
 44
-34266.67033297252
 45
2.245064030267287
 46
-2.245064030267288
 79
     0
 98
        1
 10
9308.77756024916
 20
-34266.67033297252
  0
HATCH
  5
818A
330
1F
100
AcDbEntity
  8
STAVBA OBRYS
100
AcDbHatch
 10
0.0
 20
0.0
 30
0.0
210
0.0
220
0.0
230
1.0
  2
ANSI37
 70
     0
 71
     0
 91
        1
 92
       33
 93
       20
 72
     2
 10
576.199820582754
 20
717.08942138783
 40
10.8000001907349
 50
359.9999640278023
 51
441.9855113526055
 73
     1
 72
     1
 10
654.9002600358862
 20
746.3151904307915
 11
529.9002600358862
 21
746.3151904307915
 72
     1
 10
607.093863551504
 20
727.783818360479
 11
649.3065100358863
 21
733.7272998057914
 72
     2
 10
608.5997229265039
 20
717.0892993175102
 40
10.8000001907349
 50
98.0144626931402
 51
179.9999826971702
 73
     1
 72
     1
 10
654.9002600358862
 20
740.1638232432915
 11
654.9002600358862
 21
746.3151904307915
 72
     2
 10
648.4002600358863
 20
740.1638232432842
 40
6.5
 50
278.0144576841643
 51
359.9999776881807
 73
     1
 72
     1
 10
577.705679957754
 20
727.7839404307915
 11
535.4940100358862
 21
733.7272998057914
 72
     1
 10
529.9002600358862
 20
740.1638232432915
 11
529.9002600358862
 21
746.3151904307915
 72
     2
 10
536.4002600358863
 20
740.1638232432842
 40
6.5
 50
180.0000273207566
 51
261.9855473248187
 73
     1
 72
     1
 10
654.9002600358862
 20
446.3151904307915
 11
529.9002600358862
 21
446.3151904307915
 72
     2
 10
576.199820582754
 20
475.5409594737602
 40
10.8000001907349
 50
278.0145259859518
 51
359.9999640278023
 73
     1
 72
     1
 10
577.705679957754
 20
464.8464404307914
 11
535.4940100358862
 21
458.9030810557915
 72
     1
 10
529.9002600358862
 20
452.4665576182915
 11
529.9002600358862
 21
446.3151904307915
 72
     2
 10
536.4002600358863
 20
452.4665576182842
 40
6.5
 50
98.0144626931402
 51
179.9999826971702
 73
     1
 72
     1
 10
586.9998694108862
 20
717.08942138783
 11
586.9998694108862
 21
475.5409594737602
 72
     1
 10
597.7996740983862
 20
717.0892993175102
 11
597.7996740983862
 21
475.54108154408
 72
     2
 10
608.5997229265039
 20
475.54108154408
 40
10.8000001907349
 50
180.0
 51
261.9855473248187
 73
     1
 72
     1
 10
607.093863551504
 20
464.8465625011112
 11
649.3065100358863
 21
458.9030810557915
 72
     1
 10
654.9002600358862
 20
452.4665576182915
 11
654.9002600358862
 21
446.3151904307915
 72
     2
 10
648.4002600358863
 20
452.4665576182842
 40
6.5
 50
360.000032329694
 51
441.9855523338019
 73
     1
 97
        0
 75
     0
 76
     1
 52
90.0
 41
1.0
 77
     0
 78
     2
 53
135.0
 43
9349.339832635495
 44
-34266.67033297252
 45
-2.245064030267288
 46
-2.245064030267287
 79
     0
 53
225.0
 43
9349.339832635495
 44
-34266.67033297252
 45
2.245064030267287
 46
-2.245064030267288
 79
     0
 98
        1
 10
9099.339832635495
 20
-34266.67033297252
  0
ENDSEC
  0
SECTION
  2
OBJECTS
  0
DICTIONARY
  5
C
330
0
100
AcDbDictionary
281
     1
  3
ACAD_GROUP
350
D
  3
ACAD_LAYOUT
350
1A
  3
ACAD_MLINESTYLE
350
17
  3
ACAD_PLOTSETTINGS
350
19
  3
ACAD_PLOTSTYLENAME
350
E
  3
AcDbVariableDictionary
350
8196
  0
DICTIONARY
  5
D
102
{ACAD_REACTORS
330
C
102
}
330
C
100
AcDbDictionary
281
     1
  0
DICTIONARY
  5
1A
102
{ACAD_REACTORS
330
C
102
}
330
C
100
AcDbDictionary
281
     1
  3
Model
350
22
  3
Rozvržení1
350
1E
  3
Rozvržení2
350
26
  0
DICTIONARY
  5
17
102
{ACAD_REACTORS
330
C
102
}
330
C
100
AcDbDictionary
281
     1
  3
Standard
350
18
  0
DICTIONARY
  5
19
102
{ACAD_REACTORS
330
C
102
}
330
C
100
AcDbDictionary
281
     1
  0
ACDBDICTIONARYWDFLT
  5
E
102
{ACAD_REACTORS
330
C
102
}
330
C
100
AcDbDictionary
281
     1
  3
Normal
350
F
100
AcDbDictionaryWithDefault
340
F
  0
DICTIONARY
  5
8196
102
{ACAD_REACTORS
330
C
102
}
330
C
100
AcDbDictionary
281
     1
  3
DIMASSOC
350
8197
  0
LAYOUT
  5
22
102
{ACAD_REACTORS
330
1A
102
}
330
1A
100
AcDbPlotSettings
  1

  2
HP DeskJet 690C
  4

  6

 40
0.0
 41
0.0
 42
0.0
 43
0.0
 44
0.0
 45
0.0
 46
0.0
 47
0.0
 48
0.0
 49
0.0
140
0.0
141
0.0
142
1.0
143
1.0
 70
  1712
 72
     0
 73
     0
 74
     0
  7
monochrome.ctb
 75
     0
147
1.0
148
0.0
149
0.0
100
AcDbLayout
  1
Model
 70
     1
 71
     0
 10
0.0
 20
0.0
 11
12.0
 21
9.0
 12
0.0
 22
0.0
 32
0.0
 14
0.0
 24
0.0
 34
0.0
 15
0.0
 25
0.0
 35
0.0
146
0.0
 13
0.0
 23
0.0
 33
0.0
 16
1.0
 26
0.0
 36
0.0
 17
0.0
 27
1.0
 37
0.0
 76
     0
330
1F
  0
LAYOUT
  5
1E
102
{ACAD_REACTORS
330
1A
102
}
330
1A
100
AcDbPlotSettings
  1

  2
HP DeskJet 690C
  4

  6

 40
0.0
 41
0.0
 42
0.0
 43
0.0
 44
0.0
 45
0.0
 46
0.0
 47
0.0
 48
0.0
 49
0.0
140
0.0
141
0.0
142
1.0
143
1.0
 70
   688
 72
     0
 73
     0
 74
     5
  7
monochrome.ctb
 75
    16
147
1.0
148
0.0
149
0.0
100
AcDbLayout
  1
Rozvržení1
 70
     1
 71
     1
 10
0.0
 20
0.0
 11
420.0
 21
297.0
 12
0.0
 22
0.0
 32
0.0
 14
1.000000000000000E+20
 24
1.000000000000000E+20
 34
1.000000000000000E+20
 15
-1.000000000000000E+20
 25
-1.000000000000000E+20
 35
-1.000000000000000E+20
146
0.0
 13
0.0
 23
0.0
 33
0.0
 16
1.0
 26
0.0
 36
0.0
 17
0.0
 27
1.0
 37
0.0
 76
     0
330
1B
  0
LAYOUT
  5
26
102
{ACAD_REACTORS
330
1A
102
}
330
1A
100
AcDbPlotSettings
  1

  2
HP DeskJet 690C
  4

  6

 40
0.0
 41
0.0
 42
0.0
 43
0.0
 44
0.0
 45
0.0
 46
0.0
 47
0.0
 48
0.0
 49
0.0
140
0.0
141
0.0
142
1.0
143
1.0
 70
   688
 72
     0
 73
     0
 74
     5
  7
monochrome.ctb
 75
    16
147
1.0
148
0.0
149
0.0
100
AcDbLayout
  1
Rozvržení2
 70
     1
 71
     2
 10
0.0
 20
0.0
 11
12.0
 21
9.0
 12
0.0
 22
0.0
 32
0.0
 14
0.0
 24
0.0
 34
0.0
 15
0.0
 25
0.0
 35
0.0
146
0.0
 13
0.0
 23
0.0
 33
0.0
 16
1.0
 26
0.0
 36
0.0
 17
0.0
 27
1.0
 37
0.0
 76
     0
330
23
  0
MLINESTYLE
  5
18
102
{ACAD_REACTORS
330
17
102
}
330
17
100
AcDbMlineStyle
  2
STANDARD
 70
     0
  3

 62
   256
 51
90.0
 52
90.0
 71
     2
 49
0.5
 62
   256
  6
BYLAYER
 49
-0.5
 62
   256
  6
BYLAYER
  0
ACDBPLACEHOLDER
  5
F
102
{ACAD_REACTORS
330
E
102
}
330
E
  0
DICTIONARYVAR
  5
8197
102
{ACAD_REACTORS
330
8196
102
}
330
8196
100
DictionaryVariables
280
     0
  1
1
  0
ENDSEC
  0
EOF
