  0
SECTION
  2
HEADER
  9
$ACADVER
  1
AC1015
  9
$ACADMAINTVER
 70
    14
  9
$DWGCODEPAGE
  3
ANSI_1250
  9
$INSBASE
 10
0.0
 20
0.0
 30
0.0
  9
$EXTMIN
 10
6211.530417669674
 20
-2367.221880167148
 30
-0.0015258207003583
  9
$EXTMAX
 10
7642.889874833134
 20
-1824.867188067532
 30
0.0000000349246037
  9
$LIMMIN
 10
0.0
 20
0.0
  9
$LIMMAX
 10
420.0
 20
297.0
  9
$ORTHOMODE
 70
     0
  9
$REGENMODE
 70
     1
  9
$FILLMODE
 70
     1
  9
$QTEXTMODE
 70
     0
  9
$MIRRTEXT
 70
     1
  9
$LTSCALE
 40
1.0
  9
$ATTMODE
 70
     1
  9
$TEXTSIZE
 40
2.5
  9
$TRACEWID
 40
1.0
  9
$TEXTSTYLE
  7
Standard
  9
$CLAYER
  8
CETRIS
  9
$CELTYPE
  6
ByLayer
  9
$CECOLOR
 62
   256
  9
$CELTSCALE
 40
1.0
  9
$DISPSILH
 70
     0
  9
$DIMSCALE
 40
1.0
  9
$DIMASZ
 40
2.5
  9
$DIMEXO
 40
0.625
  9
$DIMDLI
 40
3.75
  9
$DIMRND
 40
0.0
  9
$DIMDLE
 40
0.0
  9
$DIMEXE
 40
1.25
  9
$DIMTP
 40
0.0
  9
$DIMTM
 40
0.0
  9
$DIMTXT
 40
2.5
  9
$DIMCEN
 40
2.5
  9
$DIMTSZ
 40
0.0
  9
$DIMTOL
 70
     0
  9
$DIMLIM
 70
     0
  9
$DIMTIH
 70
     0
  9
$DIMTOH
 70
     0
  9
$DIMSE1
 70
     0
  9
$DIMSE2
 70
     0
  9
$DIMTAD
 70
     1
  9
$DIMZIN
 70
     8
  9
$DIMBLK
  1

  9
$DIMASO
 70
     1
  9
$DIMSHO
 70
     1
  9
$DIMPOST
  1

  9
$DIMAPOST
  1

  9
$DIMALT
 70
     0
  9
$DIMALTD
 70
     3
  9
$DIMALTF
 40
0.03937007874016
  9
$DIMLFAC
 40
1.0
  9
$DIMTOFL
 70
     1
  9
$DIMTVP
 40
0.0
  9
$DIMTIX
 70
     0
  9
$DIMSOXD
 70
     0
  9
$DIMSAH
 70
     0
  9
$DIMBLK1
  1

  9
$DIMBLK2
  1

  9
$DIMSTYLE
  2
ISO-25
  9
$DIMCLRD
 70
     0
  9
$DIMCLRE
 70
     0
  9
$DIMCLRT
 70
     0
  9
$DIMTFAC
 40
1.0
  9
$DIMGAP
 40
0.625
  9
$DIMJUST
 70
     0
  9
$DIMSD1
 70
     0
  9
$DIMSD2
 70
     0
  9
$DIMTOLJ
 70
     0
  9
$DIMTZIN
 70
     8
  9
$DIMALTZ
 70
     0
  9
$DIMALTTZ
 70
     0
  9
$DIMUPT
 70
     0
  9
$DIMDEC
 70
     2
  9
$DIMTDEC
 70
     2
  9
$DIMALTU
 70
     2
  9
$DIMALTTD
 70
     3
  9
$DIMTXSTY
  7
Standard
  9
$DIMAUNIT
 70
     0
  9
$DIMADEC
 70
     0
  9
$DIMALTRND
 40
0.0
  9
$DIMAZIN
 70
     0
  9
$DIMDSEP
 70
    44
  9
$DIMATFIT
 70
     3
  9
$DIMFRAC
 70
     0
  9
$DIMLDRBLK
  1

  9
$DIMLUNIT
 70
     2
  9
$DIMLWD
 70
    -2
  9
$DIMLWE
 70
    -2
  9
$DIMTMOVE
 70
     0
  9
$LUNITS
 70
     2
  9
$LUPREC
 70
     4
  9
$SKETCHINC
 40
1.0
  9
$FILLETRAD
 40
0.0
  9
$AUNITS
 70
     0
  9
$AUPREC
 70
     0
  9
$MENU
  1
.
  9
$ELEVATION
 40
0.0
  9
$PELEVATION
 40
0.0
  9
$THICKNESS
 40
0.0
  9
$LIMCHECK
 70
     0
  9
$CHAMFERA
 40
10.0
  9
$CHAMFERB
 40
10.0
  9
$CHAMFERC
 40
20.0
  9
$CHAMFERD
 40
0.0
  9
$SKPOLY
 70
     0
  9
$TDCREATE
 40
2452332.512107639
  9
$TDUCREATE
 40
2452332.470440972
  9
$TDUPDATE
 40
2455601.322967337
  9
$TDUUPDATE
 40
2455601.281300671
  9
$TDINDWG
 40
1.0585679977
  9
$TDUSRTIMER
 40
1.0585541088
  9
$USRTIMER
 70
     1
  9
$ANGBASE
 50
0.0
  9
$ANGDIR
 70
     0
  9
$PDMODE
 70
     0
  9
$PDSIZE
 40
0.0
  9
$PLINEWID
 40
0.0
  9
$SPLFRAME
 70
     0
  9
$SPLINETYPE
 70
     6
  9
$SPLINESEGS
 70
     8
  9
$HANDSEED
  5
9FB6
  9
$SURFTAB1
 70
     6
  9
$SURFTAB2
 70
     6
  9
$SURFTYPE
 70
     6
  9
$SURFU
 70
     6
  9
$SURFV
 70
     6
  9
$UCSBASE
  2

  9
$UCSNAME
  2

  9
$UCSORG
 10
0.0
 20
0.0
 30
0.0
  9
$UCSXDIR
 10
1.0
 20
0.0
 30
0.0
  9
$UCSYDIR
 10
0.0
 20
1.0
 30
0.0
  9
$UCSORTHOREF
  2

  9
$UCSORTHOVIEW
 70
     0
  9
$UCSORGTOP
 10
0.0
 20
0.0
 30
0.0
  9
$UCSORGBOTTOM
 10
0.0
 20
0.0
 30
0.0
  9
$UCSORGLEFT
 10
0.0
 20
0.0
 30
0.0
  9
$UCSORGRIGHT
 10
0.0
 20
0.0
 30
0.0
  9
$UCSORGFRONT
 10
0.0
 20
0.0
 30
0.0
  9
$UCSORGBACK
 10
0.0
 20
0.0
 30
0.0
  9
$PUCSBASE
  2

  9
$PUCSNAME
  2

  9
$PUCSORG
 10
0.0
 20
0.0
 30
0.0
  9
$PUCSXDIR
 10
1.0
 20
0.0
 30
0.0
  9
$PUCSYDIR
 10
0.0
 20
1.0
 30
0.0
  9
$PUCSORTHOREF
  2

  9
$PUCSORTHOVIEW
 70
     0
  9
$PUCSORGTOP
 10
0.0
 20
0.0
 30
0.0
  9
$PUCSORGBOTTOM
 10
0.0
 20
0.0
 30
0.0
  9
$PUCSORGLEFT
 10
0.0
 20
0.0
 30
0.0
  9
$PUCSORGRIGHT
 10
0.0
 20
0.0
 30
0.0
  9
$PUCSORGFRONT
 10
0.0
 20
0.0
 30
0.0
  9
$PUCSORGBACK
 10
0.0
 20
0.0
 30
0.0
  9
$USERI1
 70
     0
  9
$USERI2
 70
     0
  9
$USERI3
 70
     0
  9
$USERI4
 70
     0
  9
$USERI5
 70
     0
  9
$USERR1
 40
0.0
  9
$USERR2
 40
0.0
  9
$USERR3
 40
0.0
  9
$USERR4
 40
0.0
  9
$USERR5
 40
0.0
  9
$WORLDVIEW
 70
     1
  9
$SHADEDGE
 70
     3
  9
$SHADEDIF
 70
    70
  9
$TILEMODE
 70
     1
  9
$MAXACTVP
 70
    64
  9
$PINSBASE
 10
0.0
 20
0.0
 30
0.0
  9
$PLIMCHECK
 70
     0
  9
$PEXTMIN
 10
1.000000000000000E+20
 20
1.000000000000000E+20
 30
1.000000000000000E+20
  9
$PEXTMAX
 10
-1.000000000000000E+20
 20
-1.000000000000000E+20
 30
-1.000000000000000E+20
  9
$PLIMMIN
 10
0.0
 20
0.0
  9
$PLIMMAX
 10
420.0
 20
297.0
  9
$UNITMODE
 70
     0
  9
$VISRETAIN
 70
     1
  9
$PLINEGEN
 70
     0
  9
$PSLTSCALE
 70
     1
  9
$TREEDEPTH
 70
  3020
  9
$CMLSTYLE
  2
Standard
  9
$CMLJUST
 70
     0
  9
$CMLSCALE
 40
20.0
  9
$PROXYGRAPHICS
 70
     1
  9
$MEASUREMENT
 70
     1
  9
$CELWEIGHT
370
    -1
  9
$ENDCAPS
280
     0
  9
$JOINSTYLE
280
     0
  9
$LWDISPLAY
290
     0
  9
$INSUNITS
 70
     4
  9
$HYPERLINKBASE
  1

  9
$STYLESHEET
  1

  9
$XEDIT
290
     1
  9
$CEPSNTYPE
380
     0
  9
$PSTYLEMODE
290
     1
  9
$FINGERPRINTGUID
  2
{D99C744E-04C5-44F1-9703-862C59725F9B}
  9
$VERSIONGUID
  2
{038615EC-B80A-4C58-9D62-1CB2EB38F4C0}
  9
$EXTNAMES
290
     1
  9
$PSVPSCALE
 40
0.0
  9
$OLESTARTUP
290
     0
  0
ENDSEC
  0
SECTION
  2
CLASSES
  0
CLASS
  1
ACDBDICTIONARYWDFLT
  2
AcDbDictionaryWithDefault
  3
AutoCAD 2000
 90
        0
280
     0
281
     0
  0
CLASS
  1
ACDBPLACEHOLDER
  2
AcDbPlaceHolder
  3
AutoCAD 2000
 90
        0
280
     0
281
     0
  0
CLASS
  1
LAYOUT
  2
AcDbLayout
  3
AutoCAD 2000
 90
        0
280
     0
281
     0
  0
CLASS
  1
DICTIONARYVAR
  2
AcDbDictionaryVar
  3
AutoCAD 2000
 90
        0
280
     0
281
     0
  0
ENDSEC
  0
SECTION
  2
TABLES
  0
TABLE
  2
VPORT
  5
8
330
0
100
AcDbSymbolTable
 70
     2
  0
VPORT
  5
9FB5
330
8
100
AcDbSymbolTableRecord
100
AcDbViewportTableRecord
  2
*Active
 70
     0
 10
0.0
 20
0.0
 11
1.0
 21
1.0
 12
6899.074531176734
 22
-2124.986348094307
 13
0.0
 23
0.0
 14
10.0
 24
10.0
 15
10.0
 25
10.0
 16
0.0
 26
0.0
 36
1.0
 17
0.0
 27
0.0
 37
0.0
 40
793.0211262856701
 41
2.031862745098039
 42
50.0
 43
0.0
 44
0.0
 50
0.0
 51
0.0
 71
     0
 72
   100
 73
     1
 74
     3
 75
     0
 76
     1
 77
     0
 78
     0
281
     0
 65
     1
110
0.0
120
0.0
130
0.0
111
1.0
121
0.0
131
0.0
112
0.0
122
1.0
132
0.0
 79
     0
146
0.0
  0
ENDTAB
  0
TABLE
  2
LTYPE
  5
5
330
0
100
AcDbSymbolTable
 70
     5
  0
LTYPE
  5
14
330
5
100
AcDbSymbolTableRecord
100
AcDbLinetypeTableRecord
  2
ByBlock
 70
     0
  3

 72
    65
 73
     0
 40
0.0
  0
LTYPE
  5
15
330
5
100
AcDbSymbolTableRecord
100
AcDbLinetypeTableRecord
  2
ByLayer
 70
     0
  3

 72
    65
 73
     0
 40
0.0
  0
LTYPE
  5
16
330
5
100
AcDbSymbolTableRecord
100
AcDbLinetypeTableRecord
  2
Continuous
 70
     0
  3
Solid line
 72
    65
 73
     0
 40
0.0
  0
LTYPE
  5
33
330
5
100
AcDbSymbolTableRecord
100
AcDbLinetypeTableRecord
  2
DASHED
 70
     0
  3
Dashed __ __ __ __ __ __ __ __ __ __ __ __ __ _
 72
    65
 73
     2
 40
19.04999999999999
 49
12.7
 74
     0
 49
-6.349999999999999
 74
     0
  0
LTYPE
  5
34
330
5
100
AcDbSymbolTableRecord
100
AcDbLinetypeTableRecord
  2
DASHDOT2
 70
     0
  3
Dash dot (.5x) _._._._._._._._._._._._._._._.
 72
    65
 73
     4
 40
12.7
 49
6.349999999999999
 74
     0
 49
-3.174999999999999
 74
     0
 49
0.0
 74
     0
 49
-3.174999999999999
 74
     0
  0
LTYPE
  5
35
330
5
100
AcDbSymbolTableRecord
100
AcDbLinetypeTableRecord
  2
CIKCAK
 70
     0
  3
Cik-cak /\/\/\/\/\/\/\/\/\/\/\/\/\/\/\/\/\/\/\/
 72
    65
 73
     4
 40
20.32254
 49
0.00254
 74
     0
 49
-5.08
 74
     4
 75
   131
340
3E
 46
5.08
 50
0.0
 44
-5.08
 45
0.0
 49
-10.16
 74
     4
 75
   131
340
3E
 46
5.08
 50
180.0
 44
5.08
 45
0.0
 49
-5.08
 74
     0
  0
LTYPE
  5
36
330
5
100
AcDbSymbolTableRecord
100
AcDbLinetypeTableRecord
  2
IZOLACE
 70
     0
  3
Izolace SSSSSSSSSSSSSSSSSSSSSSSSSSSSSSSSSSSSSSS
 72
    65
 73
     4
 40
10.16253999999999
 49
0.00254
 74
     0
 49
-2.54
 74
     4
 75
   134
340
3E
 46
2.54
 50
0.0
 44
-2.54
 45
0.0
 49
-5.08
 74
     4
 75
   134
340
3E
 46
2.54
 50
180.0
 44
2.54
 45
0.0
 49
-2.54
 74
     0
  0
ENDTAB
  0
TABLE
  2
LAYER
  5
2
330
0
100
AcDbSymbolTable
 70
     8
  0
LAYER
  5
10
330
2
100
AcDbSymbolTableRecord
100
AcDbLayerTableRecord
  2
0
 70
     0
 62
     7
  6
Continuous
370
    -3
390
F
  0
LAYER
  5
37
330
2
100
AcDbSymbolTableRecord
100
AcDbLayerTableRecord
  2
POPIS
 70
     0
 62
    30
  6
Continuous
370
    -3
390
F
  0
LAYER
  5
38
330
2
100
AcDbSymbolTableRecord
100
AcDbLayerTableRecord
  2
SPOJOVACÍ
 70
     0
 62
   180
  6
Continuous
370
    -3
390
F
  0
LAYER
  5
39
330
2
100
AcDbSymbolTableRecord
100
AcDbLayerTableRecord
  2
CETRIS
 70
     0
 62
     1
  6
Continuous
370
    -3
390
F
  0
LAYER
  5
3A
330
2
100
AcDbSymbolTableRecord
100
AcDbLayerTableRecord
  2
NOSNÉ KONSTRUKCE
 70
     0
 62
    33
  6
Continuous
370
    -3
390
F
  0
LAYER
  5
3B
330
2
100
AcDbSymbolTableRecord
100
AcDbLayerTableRecord
  2
izolace
 70
     0
 62
    73
  6
Continuous
370
    -3
390
F
  0
LAYER
  5
3C
330
2
100
AcDbSymbolTableRecord
100
AcDbLayerTableRecord
  2
STAVBA OBRYS
 70
     0
 62
     6
  6
Continuous
370
    -3
390
F
  0
LAYER
  5
1B41
330
2
100
AcDbSymbolTableRecord
100
AcDbLayerTableRecord
  2
Defpoints
 70
     0
 62
     7
  6
Continuous
290
     0
370
    -3
390
F
  0
ENDTAB
  0
TABLE
  2
STYLE
  5
3
330
0
100
AcDbSymbolTable
 70
     3
  0
STYLE
  5
11
330
3
100
AcDbSymbolTableRecord
100
AcDbTextStyleTableRecord
  2
Standard
 70
     0
 40
0.0
 41
1.0
 50
0.0
 71
     0
 42
2.5
  3
txt
  4

  0
STYLE
  5
3D
330
3
100
AcDbSymbolTableRecord
100
AcDbTextStyleTableRecord
  2
SIMPLEX7
 70
     0
 40
0.0
 41
0.85
 50
0.0
 71
     0
 42
102.0
  3
ARIAL.TTF
  4

1001
ACAD
1000
Arial CE
1071
    60962
  0
STYLE
  5
3E
330
3
100
AcDbSymbolTableRecord
100
AcDbTextStyleTableRecord
  2

 70
     1
 40
0.0
 41
1.0
 50
0.0
 71
     0
 42
2.5
  3
ltypeshp.shx
  4

  0
ENDTAB
  0
TABLE
  2
VIEW
  5
6
330
0
100
AcDbSymbolTable
 70
     0
  0
ENDTAB
  0
TABLE
  2
UCS
  5
7
330
0
100
AcDbSymbolTable
 70
     0
  0
ENDTAB
  0
TABLE
  2
APPID
  5
9
330
0
100
AcDbSymbolTable
 70
     1
  0
APPID
  5
12
330
9
100
AcDbSymbolTableRecord
100
AcDbRegAppTableRecord
  2
ACAD
 70
     0
  0
ENDTAB
  0
TABLE
  2
DIMSTYLE
  5
A
330
0
100
AcDbSymbolTable
 70
     1
100
AcDbDimStyleTable
 71
     1
340
27
  0
DIMSTYLE
105
27
330
A
100
AcDbSymbolTableRecord
100
AcDbDimStyleTableRecord
  2
ISO-25
 70
     0
 41
2.5
 42
0.625
 43
3.75
 44
1.25
 73
     0
 74
     0
 77
     1
 78
     8
140
2.5
141
2.5
143
0.03937007874016
147
0.625
171
     3
172
     1
271
     2
272
     2
274
     3
278
    44
283
     0
284
     8
340
11
  0
ENDTAB
  0
TABLE
  2
BLOCK_RECORD
  5
1
330
0
100
AcDbSymbolTable
 70
     3
  0
BLOCK_RECORD
  5
1F
330
1
100
AcDbSymbolTableRecord
100
AcDbBlockTableRecord
  2
*Model_Space
340
22
  0
BLOCK_RECORD
  5
1B
330
1
100
AcDbSymbolTableRecord
100
AcDbBlockTableRecord
  2
*Paper_Space
340
1E
  0
BLOCK_RECORD
  5
23
330
1
100
AcDbSymbolTableRecord
100
AcDbBlockTableRecord
  2
*Paper_Space0
340
26
  0
BLOCK_RECORD
  5
2B
330
1
100
AcDbSymbolTableRecord
100
AcDbBlockTableRecord
  2
E_PUNKT
340
0
102
{BLKREFS
331
D05
331
D1A
331
D1D
331
1138
331
1350
331
1351
331
1352
331
1353
331
1414
331
1415
331
1416
331
EAD
331
EB1
331
EB4
331
EB9
331
EBF
331
EC1
331
15BB
331
15BC
331
15C2
331
15C3
331
15CA
331
1D1A
331
1FE7
331
2073
331
2074
331
208A
331
208C
331
2113
331
23A8
331
2669
331
25ED
331
2AB6
331
2B8E
331
2BEE
331
2F0B
331
2E50
331
2E2C
331
2DB0
331
2F0A
331
3527
331
365E
331
371B
331
3C9E
331
3C9F
331
3CA8
331
3CAB
331
3CAC
331
3CAE
331
449A
331
4533
331
45E9
331
45B0
331
4420
331
4498
331
4379
331
45F5
331
47D7
331
4CE5
331
4CE8
331
4CEB
331
5176
331
519A
331
5197
331
5199
331
5198
331
519B
331
519D
331
51A1
331
524F
331
5251
331
5413
331
5412
331
5414
331
5417
331
541A
331
541D
331
567D
331
5667
331
56B3
331
56D8
331
56DC
331
56D9
331
5D48
331
5D4C
331
5F2A
331
5F30
331
5F31
331
5F39
331
5F3B
331
60B5
331
60B6
331
611F
331
6123
331
6126
331
6131
331
612F
331
6130
331
6148
331
6C59
331
6C5A
331
6AD5
331
7412
331
6C86
331
74A2
331
6C7B
331
745F
331
6A75
331
74D0
331
7592
331
74DB
331
74DA
331
75EE
331
75F4
331
75F7
331
75FB
331
75FC
331
7601
331
79D9
331
79DA
331
79DC
331
8178
331
8177
331
8179
331
817D
331
8180
331
8182
331
8186
331
8189
331
818C
331
8B1A
331
8B1F
331
8B21
331
8A05
331
8B1D
331
88E8
331
8CB1
331
8CB9
102
}
  0
BLOCK_RECORD
  5
2F
330
1
100
AcDbSymbolTableRecord
100
AcDbBlockTableRecord
  2
_ArchTick
340
0
102
{BLKREFS
331
B3F
331
B47
331
B48
331
205C
331
205D
102
}
  0
ENDTAB
  0
ENDSEC
  0
SECTION
  2
BLOCKS
  0
BLOCK
  5
20
330
1F
100
AcDbEntity
  8
0
100
AcDbBlockBegin
  2
*Model_Space
 70
     0
 10
0.0
 20
0.0
 30
0.0
  3
*Model_Space
  1

  0
ENDBLK
  5
21
330
1F
100
AcDbEntity
  8
0
100
AcDbBlockEnd
  0
BLOCK
  5
1C
330
1B
100
AcDbEntity
 67
     1
  8
0
100
AcDbBlockBegin
  2
*Paper_Space
 70
     0
 10
0.0
 20
0.0
 30
0.0
  3
*Paper_Space
  1

  0
ENDBLK
  5
1D
330
1B
100
AcDbEntity
 67
     1
  8
0
100
AcDbBlockEnd
  0
BLOCK
  5
24
330
23
100
AcDbEntity
  8
0
100
AcDbBlockBegin
  2
*Paper_Space0
 70
     0
 10
0.0
 20
0.0
 30
0.0
  3
*Paper_Space0
  1

  0
ENDBLK
  5
25
330
23
100
AcDbEntity
  8
0
100
AcDbBlockEnd
  0
BLOCK
  5
2D
330
2B
100
AcDbEntity
  8
0
100
AcDbBlockBegin
  2
E_PUNKT
 70
     0
 10
0.0
 20
0.0
 30
0.0
  3
E_PUNKT
  1

  0
LWPOLYLINE
  5
2C
330
2B
100
AcDbEntity
  8
POPIS
100
AcDbPolyline
 90
        2
 70
     1
 43
2.5
 10
1.27761037562675
 20
0.0290683308725193
 42
-1.0
 10
-1.222389624373249
 20
0.0290683308725193
 42
-1.0
  0
ENDBLK
  5
2E
330
2B
100
AcDbEntity
  8
0
100
AcDbBlockEnd
  0
BLOCK
  5
31
330
2F
100
AcDbEntity
  8
0
100
AcDbBlockBegin
  2
_ArchTick
 70
     0
 10
0.0
 20
0.0
 30
0.0
  3
_ArchTick
  1

  0
LWPOLYLINE
  5
30
330
2F
100
AcDbEntity
  8
0
  6
ByBlock
 62
     0
100
AcDbPolyline
 90
        2
 70
     0
 43
0.15
 10
-0.5
 20
-0.5
 10
0.5
 20
0.5
  0
ENDBLK
  5
32
330
2F
100
AcDbEntity
  8
0
100
AcDbBlockEnd
  0
ENDSEC
  0
SECTION
  2
ENTITIES
  0
LINE
  5
3CE9
330
1F
100
AcDbEntity
  8
POPIS
100
AcDbLine
 10
7009.464326587544
 20
-2327.384015154136
 30
0.0
 11
7053.38811320548
 21
-2088.901219988805
 31
0.0
  0
LINE
  5
3CEA
330
1F
100
AcDbEntity
  8
SPOJOVACÍ
  6
Continuous
100
AcDbLine
 10
6829.86286092507
 20
-2137.388101672889
 30
0.0
 11
6829.86286092507
 21
-2138.635467414777
 31
0.0
  0
LINE
  5
3CEB
330
1F
100
AcDbEntity
  8
SPOJOVACÍ
  6
Continuous
100
AcDbLine
 10
6830.913029398809
 20
-2136.950919048843
 30
0.0
 11
6826.11332229296
 21
-2138.150845825305
 31
0.0
  0
LINE
  5
3CEC
330
1F
100
AcDbEntity
  8
SPOJOVACÍ
  6
Continuous
100
AcDbLine
 10
6826.11332229296
 20
-2138.150845825305
 30
0.0
 11
6826.490973663905
 21
-2137.932254513279
 31
0.0
  0
LINE
  5
3CED
330
1F
100
AcDbEntity
  8
SPOJOVACÍ
  6
Continuous
100
AcDbLine
 10
6830.535378023498
 20
-2137.168580184891
 30
0.0
 11
6826.490973663905
 21
-2138.528497198433
 31
0.0
  0
LINE
  5
3CEE
330
1F
100
AcDbEntity
  8
CETRIS
100
AcDbLine
 10
6786.968723760693
 20
-2101.67047923178
 30
0.0
 11
6786.968723760695
 21
-2288.144282379966
 31
0.0
  0
LINE
  5
3CEF
330
1F
100
AcDbEntity
  8
CETRIS
100
AcDbLine
 10
6798.968723760694
 20
-2288.144282379966
 30
0.0
 11
6798.968723760694
 21
-2113.67047923178
 31
0.0
  0
HATCH
  5
3CF0
330
1F
100
AcDbEntity
  8
NOSNÉ KONSTRUKCE
100
AcDbHatch
 10
0.0
 20
0.0
 30
0.0
210
0.0
220
0.0
230
1.0
  2
SOLID
 70
     1
 71
     0
 91
        1
 92
        7
 72
     1
 73
     1
 93
       60
 10
6799.095229155112
 20
-2146.277976512323
 42
0.0
 10
6799.095229155113
 20
-2180.155075636262
 42
-0.3073346934841183
 10
6800.242401643334
 20
-2181.87026619933
 42
0.0
 10
6800.242401643334
 20
-2185.631500299852
 42
-0.307334693483106
 10
6799.095229155112
 20
-2187.346690862913
 42
0.0
 10
6799.095229155113
 20
-2197.688140951437
 42
0.4142135623730951
 10
6801.065229155113
 20
-2199.658140951436
 42
0.0
 10
6809.141099716197
 20
-2199.658140951436
 42
-0.7595816512230912
 10
6812.678670251436
 20
-2199.658140951437
 42
0.0
 10
6821.716901614928
 20
-2199.658140951433
 42
-0.7595816493590427
 10
6825.254472182634
 20
-2199.658140951436
 42
0.0
 10
6834.292701542853
 20
-2199.658140951436
 42
-0.7767342353201953
 10
6837.849988248317
 20
-2199.734928776521
 42
0.0
 10
6844.319575846245
 20
-2199.734928776521
 42
0.4142135623730868
 10
6846.289575846245
 20
-2197.764928776521
 42
0.0
 10
6846.289575846245
 20
-2194.981982871702
 42
0.0
 10
6845.304575846245
 20
-2194.981982871702
 42
0.0
 10
6845.304575846245
 20
-2197.764928776521
 42
-0.4142135623730951
 10
6844.319575846245
 20
-2198.749928776521
 42
0.0
 10
6838.510345239853
 20
-2198.749928776521
 42
0.5694936494219963
 10
6833.658289037106
 20
-2198.673140951437
 42
0.0
 10
6825.888886632808
 20
-2198.673140951437
 42
0.5590616644338513
 10
6821.082487164756
 20
-2198.673140951433
 42
0.0
 10
6813.313084702191
 20
-2198.673140951437
 42
0.5590616643157284
 10
6808.506685265442
 20
-2198.673140951437
 42
0.0
 10
6801.065229155113
 20
-2198.673140951437
 42
-0.4142135623731451
 10
6800.080229155113
 20
-2197.688140951437
 42
0.0
 10
6800.080229155113
 20
-2187.904131823475
 42
0.2364174637114482
 10
6801.218356355267
 20
-2185.656509911316
 42
0.0
 10
6801.218356355267
 20
-2181.84525658786
 42
0.2364174637115772
 10
6800.080229155113
 20
-2179.597634675701
 42
0.0
 10
6800.080229155113
 20
-2146.831832407954
 42
0.2353201211467568
 10
6801.207690268888
 20
-2144.590548124867
 42
0.0
 10
6801.205507932452
 20
-2140.779295426222
 42
0.2364174637122881
 10
6800.066093923035
 20
-2138.532325577975
 42
0.0
 10
6800.060491566596
 20
-2128.748318053977
 42
-0.4142135623730951
 10
6801.044927390815
 20
-2127.762754201152
 42
0.0
 10
6808.486382281211
 20
-2127.758493198427
 42
0.5590616643157161
 10
6813.292780930011
 20
-2127.75574103799
 42
0.0
 10
6821.062182118883
 20
-2127.751292252086
 42
0.5590616644338511
 10
6825.868580798985
 20
-2127.748540091628
 42
0.0
 10
6833.637981929588
 20
-2127.744091305755
 42
0.5694936494220229
 10
6838.489993367935
 20
-2127.664525189604
 42
0.0
 10
6844.299223021979
 20
-2127.661198804676
 42
-0.4142135623730951
 10
6845.284786874803
 20
-2128.645634628894
 42
0.0
 10
6845.286380398961
 20
-2131.428580077485
 42
0.0
 10
6846.271380237483
 20
-2131.428016063181
 42
0.0
 10
6846.269786713325
 20
-2128.64507061459
 42
0.4142135623730618
 10
6844.298659007676
 20
-2126.676198966154
 42
0.0
 10
6837.829072470353
 20
-2126.67990347371
 42
-0.7767342353201953
 10
6834.271830317026
 20
-2126.758728200504
 42
0.0
 10
6825.233602438513
 20
-2126.763903520948
 42
-0.759581649359043
 10
6821.696032450745
 20
-2126.765929145723
 42
0.0
 10
6812.657802568956
 20
-2126.771104467309
 42
-0.7595816512230912
 10
6809.120232613657
 20
-2126.773130092063
 42
0.0
 10
6801.044363376511
 20
-2126.777754362631
 42
0.4142135623731117
 10
6799.075491728075
 20
-2128.74888206828
 42
0.0
 10
6799.081413277078
 20
-2139.090330461455
 42
-0.3073346934834261
 10
6800.229567701101
 20
-2140.804863868519
 42
0.0
 10
6800.231721396364
 20
-2144.566097352438
 42
-0.3057747226774016
 97
        0
 75
     0
 76
     1
 47
0.1180065091547201
 98
        1
 10
6799.48988307453
 20
-2155.498935099605
  0
LINE
  5
3CF1
330
1F
100
AcDbEntity
  8
CETRIS
100
AcDbLine
 10
6803.968723760693
 20
-2288.144282379966
 30
0.0
 11
7016.691504749904
 21
-2288.144282379966
 31
0.0
  0
LINE
  5
3CF2
330
1F
100
AcDbEntity
  8
NOSNÉ KONSTRUKCE
100
AcDbLine
 10
6800.583438367778
 20
-2187.381328259762
 30
0.0
 11
7035.25003637354
 21
-2187.381328259762
 31
0.0
  0
LINE
  5
3CF3
330
1F
100
AcDbEntity
  8
NOSNÉ KONSTRUKCE
100
AcDbLine
 10
6800.583438367778
 20
-2199.570429853128
 30
0.0
 11
7033.005046343629
 21
-2199.570429853128
 31
0.0
  0
LINE
  5
3CF4
330
1F
100
AcDbEntity
  8
CETRIS
100
AcDbLine
 10
6803.968723760693
 20
-2276.144282379967
 30
0.0
 11
7018.901666028205
 21
-2276.144282379967
 31
0.0
  0
LINE
  5
3CF5
330
1F
100
AcDbEntity
  8
NOSNÉ KONSTRUKCE
  6
DASHED
100
AcDbLine
 10
6798.968723760694
 20
-2179.215133059992
 30
0.0
 11
7036.754087075337
 21
-2179.215133059993
 31
0.0
  0
LINE
  5
3CF6
330
1F
100
AcDbEntity
  8
izolace
  6
IZOLACE
 48
2.2
100
AcDbLine
 10
6798.968723760694
 20
-2163.645484643537
 30
0.0
 11
7039.621706579237
 21
-2163.645484643537
 31
0.0
  0
LINE
  5
3CF7
330
1F
100
AcDbEntity
  8
NOSNÉ KONSTRUKCE
  6
DASHED
100
AcDbLine
 10
6798.968723760694
 20
-2146.596734906718
 30
0.0
 11
7042.761747121883
 21
-2146.596734906718
 31
0.0
  0
LINE
  5
3CF8
330
1F
100
AcDbEntity
  8
NOSNÉ KONSTRUKCE
100
AcDbLine
 10
6798.968723760694
 20
-2139.098599888903
 30
0.0
 11
7044.142754428202
 21
-2139.098599888903
 31
0.0
  0
LINE
  5
3CF9
330
1F
100
AcDbEntity
  8
SPOJOVACÍ
  6
Continuous
100
AcDbLine
 10
6830.356784271289
 20
-2283.81245369905
 30
0.0
 11
6829.92890340699
 21
-2282.331613832
 31
0.0
  0
LINE
  5
3CFA
330
1F
100
AcDbEntity
  8
SPOJOVACÍ
  6
Continuous
100
AcDbLine
 10
6826.936527871449
 20
-2283.068313062307
 30
0.0
 11
6826.323542022301
 21
-2284.48218027201
 31
0.0
  0
LINE
  5
3CFE
330
1F
100
AcDbEntity
  8
SPOJOVACÍ
  6
Continuous
100
AcDbLine
 10
6833.613329734517
 20
-2286.944355603234
 30
0.0
 11
6832.263644650966
 21
-2286.20021496676
 31
0.0
  0
LINE
  5
3CFF
330
1F
100
AcDbEntity
  8
SPOJOVACÍ
  6
Continuous
100
AcDbLine
 10
6832.263644650966
 20
-2286.20021496676
 30
0.0
 11
6831.153014750608
 21
-2285.131442977348
 31
0.0
  0
LINE
  5
3D00
330
1F
100
AcDbEntity
  8
SPOJOVACÍ
  6
Continuous
100
AcDbLine
 10
6831.153014750608
 20
-2285.131442977348
 30
0.0
 11
6830.356784271289
 21
-2283.81245369905
 31
0.0
  0
LINE
  5
3D01
330
1F
100
AcDbEntity
  8
SPOJOVACÍ
  6
Continuous
100
AcDbLine
 10
6825.365460952316
 20
-2285.689548454909
 30
0.0
 11
6824.128327143417
 21
-2286.607631965351
 31
0.0
  0
LINE
  5
3D02
330
1F
100
AcDbEntity
  8
SPOJOVACÍ
  6
Continuous
100
AcDbLine
 10
6824.128327143417
 20
-2286.607631965351
 30
0.0
 11
6823.413021957249
 21
-2286.944355603234
 31
0.0
  0
LINE
  5
3D03
330
1F
100
AcDbEntity
  8
SPOJOVACÍ
  6
Continuous
100
AcDbLine
 10
6833.613329734517
 20
-2286.944355603234
 30
0.0
 11
6823.413021957249
 21
-2286.944355603234
 31
0.0
  0
LINE
  5
3D04
330
1F
100
AcDbEntity
  8
SPOJOVACÍ
  6
Continuous
100
AcDbLine
 10
6833.613329734517
 20
-2288.144282379966
 30
0.0
 11
6833.613329734517
 21
-2286.944355603234
 31
0.0
  0
LINE
  5
3D05
330
1F
100
AcDbEntity
  8
SPOJOVACÍ
  6
Continuous
100
AcDbLine
 10
6833.613329734517
 20
-2288.144282379966
 30
0.0
 11
6823.413021957249
 21
-2288.144282379966
 31
0.0
  0
LINE
  5
3D06
330
1F
100
AcDbEntity
  8
SPOJOVACÍ
  6
Continuous
100
AcDbLine
 10
6823.413021957249
 20
-2288.144282379966
 30
0.0
 11
6823.413021957249
 21
-2286.944355603234
 31
0.0
  0
LINE
  5
3D07
330
1F
100
AcDbEntity
  8
SPOJOVACÍ
  6
Continuous
100
AcDbLine
 10
6826.323542022301
 20
-2284.48218027201
 30
0.0
 11
6825.365460952316
 21
-2285.689548454909
 31
0.0
  0
LINE
  5
3D09
330
1F
100
AcDbEntity
  8
SPOJOVACÍ
  6
Continuous
100
AcDbLine
 10
6800.88880454461
 20
-2161.38675282123
 30
0.0
 11
6800.511153171481
 21
-2161.764404196542
 31
0.0
  0
LINE
  5
3D0A
330
1F
100
AcDbEntity
  8
SPOJOVACÍ
  6
Continuous
100
AcDbLine
 10
6800.88880454461
 20
-2161.38675282123
 30
0.0
 11
6801.107395856636
 21
-2161.764404196542
 31
0.0
  0
LINE
  5
3D0B
330
1F
100
AcDbEntity
  8
SPOJOVACÍ
  6
Continuous
100
AcDbLine
 10
6797.390413376817
 20
-2161.764404196542
 30
0.0
 11
6798.750330390084
 21
-2165.808808556134
 31
0.0
  0
LINE
  5
3D0C
330
1F
100
AcDbEntity
  8
SPOJOVACÍ
  6
Continuous
100
AcDbLine
 10
6797.986656061695
 20
-2161.764404196542
 30
0.0
 11
6799.346573075237
 21
-2165.808808556134
 31
0.0
  0
LINE
  5
3D0D
330
1F
100
AcDbEntity
  8
SPOJOVACÍ
  6
Continuous
100
AcDbLine
 10
6798.968921702109
 20
-2166.18645992708
 30
0.0
 11
6798.750330390084
 21
-2165.808808556134
 31
0.0
  0
LINE
  5
3D0E
330
1F
100
AcDbEntity
  8
SPOJOVACÍ
  6
Continuous
100
AcDbLine
 10
6798.968921702109
 20
-2166.18645992708
 30
0.0
 11
6799.346573075237
 21
-2165.808808556134
 31
0.0
  0
LINE
  5
3D0F
330
1F
100
AcDbEntity
  8
SPOJOVACÍ
  6
Continuous
100
AcDbLine
 10
6797.768994925647
 20
-2161.38675282123
 30
0.0
 11
6797.390413376817
 21
-2161.764404196542
 31
0.0
  0
LINE
  5
3D10
330
1F
100
AcDbEntity
  8
SPOJOVACÍ
  6
Continuous
100
AcDbLine
 10
6797.768994925647
 20
-2161.38675282123
 30
0.0
 11
6797.986656061695
 21
-2161.764404196542
 31
0.0
  0
LINE
  5
3D11
330
1F
100
AcDbEntity
  8
SPOJOVACÍ
  6
Continuous
100
AcDbLine
 10
6797.768994925647
 20
-2161.38675282123
 30
0.0
 11
6798.968921702109
 21
-2166.18645992708
 31
0.0
  0
LINE
  5
3D12
330
1F
100
AcDbEntity
  8
SPOJOVACÍ
  6
Continuous
100
AcDbLine
 10
6798.201526670638
 20
-2162.43692129497
 30
0.0
 11
6800.720442725668
 21
-2162.43692129497
 31
0.0
  0
LINE
  5
3D13
330
1F
100
AcDbEntity
  8
SPOJOVACÍ
  6
Continuous
100
AcDbLine
 10
6793.568321031782
 20
-2162.43692129497
 30
0.0
 11
6797.606214161461
 21
-2162.43692129497
 31
0.0
  0
LINE
  5
3D14
330
1F
100
AcDbEntity
  8
SPOJOVACÍ
  6
Continuous
100
AcDbLine
 10
6793.568321031782
 20
-2165.136291457706
 30
0.0
 11
6798.511275210711
 21
-2165.136291457706
 31
0.0
  0
LINE
  5
3D15
330
1F
100
AcDbEntity
  8
SPOJOVACÍ
  6
Continuous
100
AcDbLine
 10
6788.168650537426
 20
-2158.686452485521
 30
0.0
 11
6788.912791173899
 21
-2160.036137569072
 31
0.0
  0
LINE
  5
3D16
330
1F
100
AcDbEntity
  8
SPOJOVACÍ
  6
Continuous
100
AcDbLine
 10
6788.912791173899
 20
-2160.036137569072
 30
0.0
 11
6789.981563163312
 21
-2161.146767469431
 31
0.0
  0
LINE
  5
3D17
330
1F
100
AcDbEntity
  8
SPOJOVACÍ
  6
Continuous
100
AcDbLine
 10
6789.981563163312
 20
-2161.146767469431
 30
0.0
 11
6791.300552441609
 21
-2161.942997948749
 31
0.0
  0
LINE
  5
3D18
330
1F
100
AcDbEntity
  8
SPOJOVACÍ
  6
Continuous
100
AcDbLine
 10
6791.300552441609
 20
-2161.942997948749
 30
0.0
 11
6792.78139230866
 21
-2162.370878813048
 31
0.0
  0
LINE
  5
3D19
330
1F
100
AcDbEntity
  8
SPOJOVACÍ
  6
Continuous
100
AcDbLine
 10
6792.78139230866
 20
-2162.370878813048
 30
0.0
 11
6793.568321031782
 21
-2162.43692129497
 31
0.0
  0
LINE
  5
3D1A
330
1F
100
AcDbEntity
  8
SPOJOVACÍ
  6
Continuous
100
AcDbLine
 10
6789.423457685751
 20
-2166.934321267722
 30
0.0
 11
6788.50537417531
 21
-2168.171455076621
 31
0.0
  0
LINE
  5
3D1B
330
1F
100
AcDbEntity
  8
SPOJOVACÍ
  6
Continuous
100
AcDbLine
 10
6788.50537417531
 20
-2168.171455076621
 30
0.0
 11
6788.168650537426
 21
-2168.886760262789
 31
0.0
  0
LINE
  5
3D1C
330
1F
100
AcDbEntity
  8
SPOJOVACÍ
  6
Continuous
100
AcDbLine
 10
6788.168650537426
 20
-2158.686452485521
 30
0.0
 11
6788.168650537426
 21
-2168.886760262789
 31
0.0
  0
LINE
  5
3D1D
330
1F
100
AcDbEntity
  8
SPOJOVACÍ
  6
Continuous
100
AcDbLine
 10
6786.968723760693
 20
-2158.686452485521
 30
0.0
 11
6788.168650537426
 21
-2158.686452485521
 31
0.0
  0
LINE
  5
3D1E
330
1F
100
AcDbEntity
  8
SPOJOVACÍ
  6
Continuous
100
AcDbLine
 10
6786.968723760693
 20
-2158.686452485521
 30
0.0
 11
6786.968723760693
 21
-2168.886760262789
 31
0.0
  0
LINE
  5
3D1F
330
1F
100
AcDbEntity
  8
SPOJOVACÍ
  6
Continuous
100
AcDbLine
 10
6786.968723760693
 20
-2168.886760262789
 30
0.0
 11
6788.168650537426
 21
-2168.886760262789
 31
0.0
  0
LINE
  5
3D20
330
1F
100
AcDbEntity
  8
SPOJOVACÍ
  6
Continuous
100
AcDbLine
 10
6793.568321031782
 20
-2165.136291457706
 30
0.0
 11
6792.044693078352
 21
-2165.363254348589
 31
0.0
  0
LINE
  5
3D21
330
1F
100
AcDbEntity
  8
SPOJOVACÍ
  6
Continuous
100
AcDbLine
 10
6792.044693078352
 20
-2165.363254348589
 30
0.0
 11
6790.63082586865
 21
-2165.976240197737
 31
0.0
  0
LINE
  5
3D22
330
1F
100
AcDbEntity
  8
SPOJOVACÍ
  6
Continuous
100
AcDbLine
 10
6790.63082586865
 20
-2165.976240197737
 30
0.0
 11
6789.423457685751
 21
-2166.934321267722
 31
0.0
  0
LINE
  5
3D23
330
1F
100
AcDbEntity
  8
SPOJOVACÍ
  6
Continuous
100
AcDbLine
 10
6809.870582028651
 20
-2161.764404196542
 30
0.0
 11
6811.230499042193
 21
-2165.808808556134
 31
0.0
  0
LINE
  5
3D24
330
1F
100
AcDbEntity
  8
SPOJOVACÍ
  6
Continuous
100
AcDbLine
 10
6810.466824713805
 20
-2161.764404196542
 30
0.0
 11
6811.826741727347
 21
-2165.808808556134
 31
0.0
  0
LINE
  5
3D25
330
1F
100
AcDbEntity
  8
SPOJOVACÍ
  6
Continuous
100
AcDbLine
 10
6811.449090354219
 20
-2166.18645992708
 30
0.0
 11
6811.230499042193
 21
-2165.808808556134
 31
0.0
  0
LINE
  5
3D26
330
1F
100
AcDbEntity
  8
SPOJOVACÍ
  6
Continuous
100
AcDbLine
 10
6811.449090354219
 20
-2166.18645992708
 30
0.0
 11
6811.826741727347
 21
-2165.808808556134
 31
0.0
  0
LINE
  5
3D27
330
1F
100
AcDbEntity
  8
SPOJOVACÍ
  6
Continuous
100
AcDbLine
 10
6810.249163577757
 20
-2161.38675282123
 30
0.0
 11
6809.870582028651
 21
-2161.764404196542
 31
0.0
  0
LINE
  5
3D28
330
1F
100
AcDbEntity
  8
SPOJOVACÍ
  6
Continuous
100
AcDbLine
 10
6810.249163577757
 20
-2161.38675282123
 30
0.0
 11
6810.466824713805
 21
-2161.764404196542
 31
0.0
  0
LINE
  5
3D29
330
1F
100
AcDbEntity
  8
SPOJOVACÍ
  6
Continuous
100
AcDbLine
 10
6810.249163577757
 20
-2161.38675282123
 30
0.0
 11
6811.449090354219
 21
-2166.18645992708
 31
0.0
  0
LINE
  5
3D2A
330
1F
100
AcDbEntity
  8
SPOJOVACÍ
  6
Continuous
100
AcDbLine
 10
6806.750772409689
 20
-2161.764404196542
 30
0.0
 11
6808.11068942323
 21
-2165.808808556134
 31
0.0
  0
LINE
  5
3D2B
330
1F
100
AcDbEntity
  8
SPOJOVACÍ
  6
Continuous
100
AcDbLine
 10
6807.347015094837
 20
-2161.764404196542
 30
0.0
 11
6808.706932108108
 21
-2165.808808556134
 31
0.0
  0
LINE
  5
3D2C
330
1F
100
AcDbEntity
  8
SPOJOVACÍ
  6
Continuous
100
AcDbLine
 10
6808.328350559278
 20
-2166.18645992708
 30
0.0
 11
6808.11068942323
 21
-2165.808808556134
 31
0.0
  0
LINE
  5
3D2D
330
1F
100
AcDbEntity
  8
SPOJOVACÍ
  6
Continuous
100
AcDbLine
 10
6808.328350559278
 20
-2166.18645992708
 30
0.0
 11
6808.706932108108
 21
-2165.808808556134
 31
0.0
  0
LINE
  5
3D2E
330
1F
100
AcDbEntity
  8
SPOJOVACÍ
  6
Continuous
100
AcDbLine
 10
6807.128423782817
 20
-2161.38675282123
 30
0.0
 11
6806.750772409689
 21
-2161.764404196542
 31
0.0
  0
LINE
  5
3D2F
330
1F
100
AcDbEntity
  8
SPOJOVACÍ
  6
Continuous
100
AcDbLine
 10
6807.128423782817
 20
-2161.38675282123
 30
0.0
 11
6807.347015094837
 21
-2161.764404196542
 31
0.0
  0
LINE
  5
3D30
330
1F
100
AcDbEntity
  8
SPOJOVACÍ
  6
Continuous
100
AcDbLine
 10
6807.128423782817
 20
-2161.38675282123
 30
0.0
 11
6808.328350559278
 21
-2166.18645992708
 31
0.0
  0
LINE
  5
3D31
330
1F
100
AcDbEntity
  8
SPOJOVACÍ
  6
Continuous
100
AcDbLine
 10
6803.63096279072
 20
-2161.764404196542
 30
0.0
 11
6804.990879803992
 21
-2165.808808556134
 31
0.0
  0
LINE
  5
3D32
330
1F
100
AcDbEntity
  8
SPOJOVACÍ
  6
Continuous
100
AcDbLine
 10
6804.227205475874
 20
-2161.764404196542
 30
0.0
 11
6805.58712248914
 21
-2165.808808556134
 31
0.0
  0
LINE
  5
3D33
330
1F
100
AcDbEntity
  8
SPOJOVACÍ
  6
Continuous
100
AcDbLine
 10
6805.20854094031
 20
-2166.18645992708
 30
0.0
 11
6804.990879803992
 21
-2165.808808556134
 31
0.0
  0
LINE
  5
3D34
330
1F
100
AcDbEntity
  8
SPOJOVACÍ
  6
Continuous
100
AcDbLine
 10
6805.20854094031
 20
-2166.18645992708
 30
0.0
 11
6805.58712248914
 21
-2165.808808556134
 31
0.0
  0
LINE
  5
3D35
330
1F
100
AcDbEntity
  8
SPOJOVACÍ
  6
Continuous
100
AcDbLine
 10
6804.008614163848
 20
-2161.38675282123
 30
0.0
 11
6803.63096279072
 21
-2161.764404196542
 31
0.0
  0
LINE
  5
3D36
330
1F
100
AcDbEntity
  8
SPOJOVACÍ
  6
Continuous
100
AcDbLine
 10
6804.008614163848
 20
-2161.38675282123
 30
0.0
 11
6804.227205475874
 21
-2161.764404196542
 31
0.0
  0
LINE
  5
3D37
330
1F
100
AcDbEntity
  8
SPOJOVACÍ
  6
Continuous
100
AcDbLine
 10
6804.008614163848
 20
-2161.38675282123
 30
0.0
 11
6805.20854094031
 21
-2166.18645992708
 31
0.0
  0
LINE
  5
3D38
330
1F
100
AcDbEntity
  8
SPOJOVACÍ
  6
Continuous
100
AcDbLine
 10
6812.948533736943
 20
-2162.019272363936
 30
0.0
 11
6814.081487856327
 21
-2165.388369097449
 31
0.0
  0
LINE
  5
3D39
330
1F
100
AcDbEntity
  8
SPOJOVACÍ
  6
Continuous
100
AcDbLine
 10
6813.326185110071
 20
-2161.640690815652
 30
0.0
 11
6812.948533736943
 21
-2162.019272363936
 31
0.0
  0
LINE
  5
3D3A
330
1F
100
AcDbEntity
  8
SPOJOVACÍ
  6
Continuous
100
AcDbLine
 10
6813.326185110071
 20
-2161.640690815652
 30
0.0
 11
6813.544776422097
 21
-2162.019272363936
 31
0.0
  0
LINE
  5
3D3B
330
1F
100
AcDbEntity
  8
SPOJOVACÍ
  6
Continuous
100
AcDbLine
 10
6802.088731321347
 20
-2166.18645992708
 30
0.0
 11
6801.870140009322
 21
-2165.808808556134
 31
0.0
  0
LINE
  5
3D3C
330
1F
100
AcDbEntity
  8
SPOJOVACÍ
  6
Continuous
100
AcDbLine
 10
6802.088731321347
 20
-2166.18645992708
 30
0.0
 11
6802.4663826942
 21
-2165.808808556134
 31
0.0
  0
LINE
  5
3D3D
330
1F
100
AcDbEntity
  8
SPOJOVACÍ
  6
Continuous
100
AcDbLine
 10
6813.904754454978
 20
-2164.890725046238
 30
0.0
 11
6811.933711943692
 21
-2165.136291457706
 31
0.0
  0
LINE
  5
3D3E
330
1F
100
AcDbEntity
  8
SPOJOVACÍ
  6
Continuous
100
AcDbLine
 10
6811.933711943692
 20
-2162.43692129497
 30
0.0
 11
6813.130848193049
 21
-2162.586679597693
 31
0.0
  0
LINE
  5
3D3F
330
1F
100
AcDbEntity
  8
SPOJOVACÍ
  6
Continuous
100
AcDbLine
 10
6811.596988305808
 20
-2165.136291457706
 30
0.0
 11
6811.933711943692
 21
-2165.136291457706
 31
0.0
  0
LINE
  5
3D40
330
1F
100
AcDbEntity
  8
SPOJOVACÍ
  6
Continuous
100
AcDbLine
 10
6808.474388159194
 20
-2165.136291457706
 30
0.0
 11
6810.993304214225
 21
-2165.136291457706
 31
0.0
  0
LINE
  5
3D41
330
1F
100
AcDbEntity
  8
SPOJOVACÍ
  6
Continuous
100
AcDbLine
 10
6810.686346201802
 20
-2162.43692129497
 30
0.0
 11
6811.933711943692
 21
-2162.43692129497
 31
0.0
  0
LINE
  5
3D42
330
1F
100
AcDbEntity
  8
SPOJOVACÍ
  6
Continuous
100
AcDbLine
 10
6807.57211763732
 20
-2162.43692129497
 30
0.0
 11
6810.090103516649
 21
-2162.43692129497
 31
0.0
  0
LINE
  5
3D43
330
1F
100
AcDbEntity
  8
SPOJOVACÍ
  6
Continuous
100
AcDbLine
 10
6805.352718188553
 20
-2165.136291457706
 30
0.0
 11
6807.873494595262
 21
-2165.136291457706
 31
0.0
  0
LINE
  5
3D44
330
1F
100
AcDbEntity
  8
SPOJOVACÍ
  6
Continuous
100
AcDbLine
 10
6802.230118042209
 20
-2165.136291457706
 30
0.0
 11
6804.758335855078
 21
-2165.136291457706
 31
0.0
  0
LINE
  5
3D45
330
1F
100
AcDbEntity
  8
SPOJOVACÍ
  6
Continuous
100
AcDbLine
 10
6804.439285557165
 20
-2162.43692129497
 30
0.0
 11
6806.967503370035
 21
-2162.43692129497
 31
0.0
  0
LINE
  5
3D47
330
1F
100
AcDbEntity
  8
SPOJOVACÍ
  6
Continuous
100
AcDbLine
 10
6800.511153171481
 20
-2161.764404196542
 30
0.0
 11
6801.870140009322
 21
-2165.808808556134
 31
0.0
  0
LINE
  5
3D48
330
1F
100
AcDbEntity
  8
SPOJOVACÍ
  6
Continuous
100
AcDbLine
 10
6801.107395856636
 20
-2161.764404196542
 30
0.0
 11
6802.4663826942
 21
-2165.808808556134
 31
0.0
  0
LINE
  5
3D49
330
1F
100
AcDbEntity
  8
SPOJOVACÍ
  6
Continuous
100
AcDbLine
 10
6800.88880454461
 20
-2161.38675282123
 30
0.0
 11
6802.088731321347
 21
-2166.18645992708
 31
0.0
  0
LINE
  5
3D4A
330
1F
100
AcDbEntity
  8
SPOJOVACÍ
  6
Continuous
100
AcDbLine
 10
6799.114959302025
 20
-2165.136291457706
 30
0.0
 11
6801.633875357055
 21
-2165.136291457706
 31
0.0
  0
LINE
  5
3D4B
330
1F
100
AcDbEntity
  8
SPOJOVACÍ
  6
Continuous
100
AcDbLine
 10
6801.324126816982
 20
-2162.43692129497
 30
0.0
 11
6803.844903223691
 21
-2162.43692129497
 31
0.0
  0
LINE
  5
3D4C
330
1F
100
AcDbEntity
  8
SPOJOVACÍ
  6
Continuous
100
AcDbLine
 10
6819.354654442688
 20
-2162.769924232229
 30
0.0
 11
6819.665333158463
 21
-2164.924211373686
 31
0.0
  0
LINE
  5
3D4D
330
1F
100
AcDbEntity
  8
SPOJOVACÍ
  6
Continuous
100
AcDbLine
 10
6818.97700306956
 20
-2163.147575603174
 30
0.0
 11
6819.447672022144
 21
-2164.54656000274
 31
0.0
  0
LINE
  5
3D4E
330
1F
100
AcDbEntity
  8
SPOJOVACÍ
  6
Continuous
100
AcDbLine
 10
6819.573245754708
 20
-2163.147575603174
 30
0.0
 11
6820.043914707293
 21
-2164.54656000274
 31
0.0
  0
LINE
  5
3D4F
330
1F
100
AcDbEntity
  8
SPOJOVACÍ
  6
Continuous
100
AcDbLine
 10
6819.665333158463
 20
-2164.924211373686
 30
0.0
 11
6819.447672022144
 21
-2164.54656000274
 31
0.0
  0
LINE
  5
3D50
330
1F
100
AcDbEntity
  8
SPOJOVACÍ
  6
Continuous
100
AcDbLine
 10
6819.665333158463
 20
-2164.924211373686
 30
0.0
 11
6820.043914707293
 21
-2164.54656000274
 31
0.0
  0
LINE
  5
3D51
330
1F
100
AcDbEntity
  8
SPOJOVACÍ
  6
Continuous
100
AcDbLine
 10
6819.354654442688
 20
-2162.769924232229
 30
0.0
 11
6818.97700306956
 21
-2163.147575603174
 31
0.0
  0
LINE
  5
3D52
330
1F
100
AcDbEntity
  8
SPOJOVACÍ
  6
Continuous
100
AcDbLine
 10
6819.354654442688
 20
-2162.769924232229
 30
0.0
 11
6819.573245754708
 21
-2163.147575603174
 31
0.0
  0
LINE
  5
3D53
330
1F
100
AcDbEntity
  8
SPOJOVACÍ
  6
Continuous
100
AcDbLine
 10
6816.340884864368
 20
-2162.205307521757
 30
0.0
 11
6816.974334581138
 21
-2165.321396438188
 31
0.0
  0
LINE
  5
3D54
330
1F
100
AcDbEntity
  8
SPOJOVACÍ
  6
Continuous
100
AcDbLine
 10
6815.962303315263
 20
-2162.582958897068
 30
0.0
 11
6816.75667344509
 21
-2164.943745067243
 31
0.0
  0
LINE
  5
3D55
330
1F
100
AcDbEntity
  8
SPOJOVACÍ
  6
Continuous
100
AcDbLine
 10
6816.558546000416
 20
-2162.582958897068
 30
0.0
 11
6817.352916129968
 21
-2164.943745067243
 31
0.0
  0
LINE
  5
3D56
330
1F
100
AcDbEntity
  8
SPOJOVACÍ
  6
Continuous
100
AcDbLine
 10
6816.974334581138
 20
-2165.321396438188
 30
0.0
 11
6816.75667344509
 21
-2164.943745067243
 31
0.0
  0
LINE
  5
3D57
330
1F
100
AcDbEntity
  8
SPOJOVACÍ
  6
Continuous
100
AcDbLine
 10
6816.974334581138
 20
-2165.321396438188
 30
0.0
 11
6817.352916129968
 21
-2164.943745067243
 31
0.0
  0
LINE
  5
3D58
330
1F
100
AcDbEntity
  8
SPOJOVACÍ
  6
Continuous
100
AcDbLine
 10
6816.340884864368
 20
-2162.205307521757
 30
0.0
 11
6815.962303315263
 21
-2162.582958897068
 31
0.0
  0
LINE
  5
3D59
330
1F
100
AcDbEntity
  8
SPOJOVACÍ
  6
Continuous
100
AcDbLine
 10
6816.340884864368
 20
-2162.205307521757
 30
0.0
 11
6816.558546000416
 21
-2162.582958897068
 31
0.0
  0
LINE
  5
3D5A
330
1F
100
AcDbEntity
  8
SPOJOVACÍ
  6
Continuous
100
AcDbLine
 10
6814.299148992375
 20
-2165.766020468395
 30
0.0
 11
6814.677730541482
 21
-2165.388369097449
 31
0.0
  0
LINE
  5
3D5B
330
1F
100
AcDbEntity
  8
SPOJOVACÍ
  6
Continuous
100
AcDbLine
 10
6816.611566020876
 20
-2164.552141053677
 30
0.0
 11
6814.474952218024
 21
-2164.819101509015
 31
0.0
  0
LINE
  5
3D5C
330
1F
100
AcDbEntity
  8
SPOJOVACÍ
  6
Continuous
100
AcDbLine
 10
6819.328609520309
 20
-2164.212626892508
 30
0.0
 11
6817.183624135324
 21
-2164.480517520819
 31
0.0
  0
LINE
  5
3D5D
330
1F
100
AcDbEntity
  8
SPOJOVACÍ
  6
Continuous
100
AcDbLine
 10
6819.64486929084
 20
-2163.400583420256
 30
0.0
 11
6822.733983108645
 21
-2163.786606374155
 31
0.0
  0
LINE
  5
3D5E
330
1F
100
AcDbEntity
  8
SPOJOVACÍ
  6
Continuous
100
AcDbLine
 10
6816.703653424631
 20
-2163.033163982576
 30
0.0
 11
6819.024442034987
 21
-2163.323378827731
 31
0.0
  0
LINE
  5
3D5F
330
1F
100
AcDbEntity
  8
SPOJOVACÍ
  6
Continuous
100
AcDbLine
 10
6822.733983108645
 20
-2163.786606374155
 30
0.0
 11
6819.897877107377
 21
-2164.141003355284
 31
0.0
  0
LINE
  5
3D60
330
1F
100
AcDbEntity
  8
SPOJOVACÍ
  6
Continuous
100
AcDbLine
 10
6813.326185110071
 20
-2161.640690815652
 30
0.0
 11
6814.299148992375
 21
-2165.766020468395
 31
0.0
  0
LINE
  5
3D61
330
1F
100
AcDbEntity
  8
SPOJOVACÍ
  6
Continuous
100
AcDbLine
 10
6813.544776422097
 20
-2162.019272363936
 30
0.0
 11
6814.677730541482
 21
-2165.388369097449
 31
0.0
  0
LINE
  5
3D62
330
1F
100
AcDbEntity
  8
SPOJOVACÍ
  6
Continuous
100
AcDbLine
 10
6814.299148992375
 20
-2165.766020468395
 30
0.0
 11
6814.081487856327
 21
-2165.388369097449
 31
0.0
  0
LINE
  5
3D63
330
1F
100
AcDbEntity
  8
SPOJOVACÍ
  6
Continuous
100
AcDbLine
 10
6813.751275448902
 20
-2162.663884190219
 30
0.0
 11
6816.072994234966
 21
-2162.954099039738
 31
0.0
  0
LINE
  5
3D64
330
1F
100
AcDbEntity
  8
SPOJOVACÍ
  6
Continuous
100
AcDbLine
 10
6830.913029398807
 20
-2274.224201596051
 30
0.0
 11
6830.535378023497
 21
-2274.601852969179
 31
0.0
  0
LINE
  5
3D65
330
1F
100
AcDbEntity
  8
SPOJOVACÍ
  6
Continuous
100
AcDbLine
 10
6830.913029398807
 20
-2274.224201596051
 30
0.0
 11
6830.535378023497
 21
-2274.005610284024
 31
0.0
  0
LINE
  5
3D66
330
1F
100
AcDbEntity
  8
SPOJOVACÍ
  6
Continuous
100
AcDbLine
 10
6830.535378023497
 20
-2277.722592763843
 30
0.0
 11
6826.490973663904
 21
-2276.362675750577
 31
0.0
  0
LINE
  5
3D67
330
1F
100
AcDbEntity
  8
SPOJOVACÍ
  6
Continuous
100
AcDbLine
 10
6830.535378023497
 20
-2277.126350078964
 30
0.0
 11
6826.490973663904
 21
-2275.766433065422
 31
0.0
  0
LINE
  5
3D68
330
1F
100
AcDbEntity
  8
SPOJOVACÍ
  6
Continuous
100
AcDbLine
 10
6826.113322292958
 20
-2276.14408443855
 30
0.0
 11
6826.490973663904
 21
-2276.362675750577
 31
0.0
  0
LINE
  5
3D69
330
1F
100
AcDbEntity
  8
SPOJOVACÍ
  6
Continuous
100
AcDbLine
 10
6826.113322292958
 20
-2276.14408443855
 30
0.0
 11
6826.490973663904
 21
-2275.766433065422
 31
0.0
  0
LINE
  5
3D6A
330
1F
100
AcDbEntity
  8
SPOJOVACÍ
  6
Continuous
100
AcDbLine
 10
6830.913029398807
 20
-2277.344011215013
 30
0.0
 11
6830.535378023497
 21
-2277.722592763843
 31
0.0
  0
LINE
  5
3D6B
330
1F
100
AcDbEntity
  8
SPOJOVACÍ
  6
Continuous
100
AcDbLine
 10
6830.913029398807
 20
-2277.344011215013
 30
0.0
 11
6830.535378023497
 21
-2277.126350078964
 31
0.0
  0
LINE
  5
3D6C
330
1F
100
AcDbEntity
  8
SPOJOVACÍ
  6
Continuous
100
AcDbLine
 10
6830.913029398807
 20
-2277.344011215013
 30
0.0
 11
6826.113322292958
 21
-2276.14408443855
 31
0.0
  0
LINE
  5
3D6D
330
1F
100
AcDbEntity
  8
SPOJOVACÍ
  6
Continuous
100
AcDbLine
 10
6829.862860925068
 20
-2276.911479470022
 30
0.0
 11
6829.862860925068
 21
-2274.392563414993
 31
0.0
  0
LINE
  5
3D6E
330
1F
100
AcDbEntity
  8
SPOJOVACÍ
  6
Continuous
100
AcDbLine
 10
6829.862860925068
 20
-2281.544685108878
 30
0.0
 11
6829.862860925068
 21
-2277.506791979198
 31
0.0
  0
LINE
  5
3D6F
330
1F
100
AcDbEntity
  8
SPOJOVACÍ
  6
Continuous
100
AcDbLine
 10
6827.163490762332
 20
-2281.544685108878
 30
0.0
 11
6827.163490762332
 21
-2276.601730929949
 31
0.0
  0
LINE
  5
3D70
330
1F
100
AcDbEntity
  8
SPOJOVACÍ
  6
Continuous
100
AcDbLine
 10
6829.92890340699
 20
-2282.331613832
 30
0.0
 11
6829.862860925068
 21
-2281.544685108878
 31
0.0
  0
LINE
  5
3D71
330
1F
100
AcDbEntity
  8
SPOJOVACÍ
  6
Continuous
100
AcDbLine
 10
6827.163490762332
 20
-2281.544685108878
 30
0.0
 11
6826.936527871449
 21
-2283.068313062307
 31
0.0
  0
LINE
  5
3D72
330
1F
100
AcDbEntity
  8
SPOJOVACÍ
  6
Continuous
100
AcDbLine
 10
6830.535378023497
 20
-2265.242424112009
 30
0.0
 11
6826.490973663904
 21
-2263.882507098467
 31
0.0
  0
LINE
  5
3D73
330
1F
100
AcDbEntity
  8
SPOJOVACÍ
  6
Continuous
100
AcDbLine
 10
6830.535378023497
 20
-2264.646181426855
 30
0.0
 11
6826.490973663904
 21
-2263.286264413312
 31
0.0
  0
LINE
  5
3D74
330
1F
100
AcDbEntity
  8
SPOJOVACÍ
  6
Continuous
100
AcDbLine
 10
6826.113322292958
 20
-2263.663915786441
 30
0.0
 11
6826.490973663904
 21
-2263.882507098467
 31
0.0
  0
LINE
  5
3D75
330
1F
100
AcDbEntity
  8
SPOJOVACÍ
  6
Continuous
100
AcDbLine
 10
6826.113322292958
 20
-2263.663915786441
 30
0.0
 11
6826.490973663904
 21
-2263.286264413312
 31
0.0
  0
LINE
  5
3D76
330
1F
100
AcDbEntity
  8
SPOJOVACÍ
  6
Continuous
100
AcDbLine
 10
6830.913029398807
 20
-2264.863842562903
 30
0.0
 11
6830.535378023497
 21
-2265.242424112009
 31
0.0
  0
LINE
  5
3D77
330
1F
100
AcDbEntity
  8
SPOJOVACÍ
  6
Continuous
100
AcDbLine
 10
6830.913029398807
 20
-2264.863842562903
 30
0.0
 11
6830.535378023497
 21
-2264.646181426855
 31
0.0
  0
LINE
  5
3D78
330
1F
100
AcDbEntity
  8
SPOJOVACÍ
  6
Continuous
100
AcDbLine
 10
6830.913029398807
 20
-2264.863842562903
 30
0.0
 11
6826.113322292958
 21
-2263.663915786441
 31
0.0
  0
LINE
  5
3D79
330
1F
100
AcDbEntity
  8
SPOJOVACÍ
  6
Continuous
100
AcDbLine
 10
6830.535378023497
 20
-2268.362233730971
 30
0.0
 11
6826.490973663904
 21
-2267.002316717429
 31
0.0
  0
LINE
  5
3D7A
330
1F
100
AcDbEntity
  8
SPOJOVACÍ
  6
Continuous
100
AcDbLine
 10
6830.535378023497
 20
-2267.765991045824
 30
0.0
 11
6826.490973663904
 21
-2266.406074032551
 31
0.0
  0
LINE
  5
3D7B
330
1F
100
AcDbEntity
  8
SPOJOVACÍ
  6
Continuous
100
AcDbLine
 10
6826.113322292958
 20
-2266.784655581381
 30
0.0
 11
6826.490973663904
 21
-2267.002316717429
 31
0.0
  0
LINE
  5
3D7C
330
1F
100
AcDbEntity
  8
SPOJOVACÍ
  6
Continuous
100
AcDbLine
 10
6826.113322292958
 20
-2266.784655581381
 30
0.0
 11
6826.490973663904
 21
-2266.406074032551
 31
0.0
  0
LINE
  5
3D7D
330
1F
100
AcDbEntity
  8
SPOJOVACÍ
  6
Continuous
100
AcDbLine
 10
6830.913029398807
 20
-2267.984582357843
 30
0.0
 11
6830.535378023497
 21
-2268.362233730971
 31
0.0
  0
LINE
  5
3D7E
330
1F
100
AcDbEntity
  8
SPOJOVACÍ
  6
Continuous
100
AcDbLine
 10
6830.913029398807
 20
-2267.984582357843
 30
0.0
 11
6830.535378023497
 21
-2267.765991045824
 31
0.0
  0
LINE
  5
3D7F
330
1F
100
AcDbEntity
  8
SPOJOVACÍ
  6
Continuous
100
AcDbLine
 10
6830.913029398807
 20
-2267.984582357843
 30
0.0
 11
6826.113322292958
 21
-2266.784655581381
 31
0.0
  0
LINE
  5
3D80
330
1F
100
AcDbEntity
  8
SPOJOVACÍ
  6
Continuous
100
AcDbLine
 10
6830.535378023497
 20
-2271.48204334994
 30
0.0
 11
6826.490973663904
 21
-2270.122126336667
 31
0.0
  0
LINE
  5
3D81
330
1F
100
AcDbEntity
  8
SPOJOVACÍ
  6
Continuous
100
AcDbLine
 10
6830.535378023497
 20
-2270.885800664786
 30
0.0
 11
6826.490973663904
 21
-2269.52588365152
 31
0.0
  0
LINE
  5
3D82
330
1F
100
AcDbEntity
  8
SPOJOVACÍ
  6
Continuous
100
AcDbLine
 10
6826.113322292958
 20
-2269.90446520035
 30
0.0
 11
6826.490973663904
 21
-2270.122126336667
 31
0.0
  0
LINE
  5
3D83
330
1F
100
AcDbEntity
  8
SPOJOVACÍ
  6
Continuous
100
AcDbLine
 10
6826.113322292958
 20
-2269.90446520035
 30
0.0
 11
6826.490973663904
 21
-2269.52588365152
 31
0.0
  0
LINE
  5
3D84
330
1F
100
AcDbEntity
  8
SPOJOVACÍ
  6
Continuous
100
AcDbLine
 10
6830.913029398807
 20
-2271.104391976812
 30
0.0
 11
6830.535378023497
 21
-2271.48204334994
 31
0.0
  0
LINE
  5
3D85
330
1F
100
AcDbEntity
  8
SPOJOVACÍ
  6
Continuous
100
AcDbLine
 10
6830.913029398807
 20
-2271.104391976812
 30
0.0
 11
6830.535378023497
 21
-2270.885800664786
 31
0.0
  0
LINE
  5
3D86
330
1F
100
AcDbEntity
  8
SPOJOVACÍ
  6
Continuous
100
AcDbLine
 10
6830.913029398807
 20
-2271.104391976812
 30
0.0
 11
6826.113322292958
 21
-2269.90446520035
 31
0.0
  0
LINE
  5
3D87
330
1F
100
AcDbEntity
  8
SPOJOVACÍ
  6
Continuous
100
AcDbLine
 10
6830.280509856102
 20
-2262.164472403717
 30
0.0
 11
6826.911413122589
 21
-2261.031518284333
 31
0.0
  0
LINE
  5
3D88
330
1F
100
AcDbEntity
  8
SPOJOVACÍ
  6
Continuous
100
AcDbLine
 10
6830.659091404386
 20
-2261.786821030589
 30
0.0
 11
6830.280509856102
 21
-2262.164472403717
 31
0.0
  0
LINE
  5
3D89
330
1F
100
AcDbEntity
  8
SPOJOVACÍ
  6
Continuous
100
AcDbLine
 10
6830.659091404386
 20
-2261.786821030589
 30
0.0
 11
6830.280509856102
 21
-2261.568229718563
 31
0.0
  0
LINE
  5
3D8A
330
1F
100
AcDbEntity
  8
SPOJOVACÍ
  6
Continuous
100
AcDbLine
 10
6826.113322292958
 20
-2273.024274819312
 30
0.0
 11
6826.490973663904
 21
-2273.242866131338
 31
0.0
  0
LINE
  5
3D8B
330
1F
100
AcDbEntity
  8
SPOJOVACÍ
  6
Continuous
100
AcDbLine
 10
6826.113322292958
 20
-2273.024274819312
 30
0.0
 11
6826.490973663904
 21
-2272.64662344646
 31
0.0
  0
LINE
  5
3D8C
330
1F
100
AcDbEntity
  8
SPOJOVACÍ
  6
Continuous
100
AcDbLine
 10
6827.4090571738
 20
-2261.208251685682
 30
0.0
 11
6827.163490762332
 21
-2263.179294196969
 31
0.0
  0
LINE
  5
3D8D
330
1F
100
AcDbEntity
  8
SPOJOVACÍ
  6
Continuous
100
AcDbLine
 10
6829.862860925068
 20
-2263.179294196969
 30
0.0
 11
6829.713102622346
 21
-2261.982157947612
 31
0.0
  0
LINE
  5
3D8E
330
1F
100
AcDbEntity
  8
SPOJOVACÍ
  6
Continuous
100
AcDbLine
 10
6827.163490762332
 20
-2263.516017834852
 30
0.0
 11
6827.163490762332
 21
-2263.179294196969
 31
0.0
  0
LINE
  5
3D8F
330
1F
100
AcDbEntity
  8
SPOJOVACÍ
  6
Continuous
100
AcDbLine
 10
6827.163490762332
 20
-2266.638617981465
 30
0.0
 11
6827.163490762332
 21
-2264.119701926436
 31
0.0
  0
LINE
  5
3D90
330
1F
100
AcDbEntity
  8
SPOJOVACÍ
  6
Continuous
100
AcDbLine
 10
6829.862860925068
 20
-2264.426659938857
 30
0.0
 11
6829.862860925068
 21
-2263.179294196969
 31
0.0
  0
LINE
  5
3D91
330
1F
100
AcDbEntity
  8
SPOJOVACÍ
  6
Continuous
100
AcDbLine
 10
6829.862860925068
 20
-2267.540888503339
 30
0.0
 11
6829.862860925068
 21
-2265.022902624012
 31
0.0
  0
LINE
  5
3D92
330
1F
100
AcDbEntity
  8
SPOJOVACÍ
  6
Continuous
100
AcDbLine
 10
6827.163490762332
 20
-2269.760287952107
 30
0.0
 11
6827.163490762332
 21
-2267.239511545398
 31
0.0
  0
LINE
  5
3D93
330
1F
100
AcDbEntity
  8
SPOJOVACÍ
  6
Continuous
100
AcDbLine
 10
6827.163490762332
 20
-2272.882888098451
 30
0.0
 11
6827.163490762332
 21
-2270.354670285582
 31
0.0
  0
LINE
  5
3D94
330
1F
100
AcDbEntity
  8
SPOJOVACÍ
  6
Continuous
100
AcDbLine
 10
6829.862860925068
 20
-2270.673720583494
 30
0.0
 11
6829.862860925068
 21
-2268.145502770625
 31
0.0
  0
LINE
  5
3D96
330
1F
100
AcDbEntity
  8
SPOJOVACÍ
  6
Continuous
100
AcDbLine
 10
6830.535378023497
 20
-2274.601852969179
 30
0.0
 11
6826.490973663904
 21
-2273.242866131338
 31
0.0
  0
LINE
  5
3D97
330
1F
100
AcDbEntity
  8
SPOJOVACÍ
  6
Continuous
100
AcDbLine
 10
6830.535378023497
 20
-2274.005610284024
 30
0.0
 11
6826.490973663904
 21
-2272.64662344646
 31
0.0
  0
LINE
  5
3D98
330
1F
100
AcDbEntity
  8
SPOJOVACÍ
  6
Continuous
100
AcDbLine
 10
6830.913029398807
 20
-2274.224201596051
 30
0.0
 11
6826.113322292958
 21
-2273.024274819312
 31
0.0
  0
LINE
  5
3D99
330
1F
100
AcDbEntity
  8
SPOJOVACÍ
  6
Continuous
100
AcDbLine
 10
6827.163490762332
 20
-2275.998046838635
 30
0.0
 11
6827.163490762332
 21
-2273.479130783605
 31
0.0
  0
LINE
  5
3D9A
330
1F
100
AcDbEntity
  8
SPOJOVACÍ
  6
Continuous
100
AcDbLine
 10
6829.862860925068
 20
-2273.788879323678
 30
0.0
 11
6829.862860925068
 21
-2271.268102916969
 31
0.0
  0
LINE
  5
3D9B
330
1F
100
AcDbEntity
  8
SPOJOVACÍ
  6
Continuous
100
AcDbLine
 10
6829.529857987809
 20
-2255.758351697972
 30
0.0
 11
6827.375570846353
 21
-2255.447672982198
 31
0.0
  0
LINE
  5
3D9C
330
1F
100
AcDbEntity
  8
SPOJOVACÍ
  6
Continuous
100
AcDbLine
 10
6829.152206616864
 20
-2256.1360030711
 30
0.0
 11
6827.753222217298
 21
-2255.665334118515
 31
0.0
  0
LINE
  5
3D9D
330
1F
100
AcDbEntity
  8
SPOJOVACÍ
  6
Continuous
100
AcDbLine
 10
6829.152206616864
 20
-2255.539760385953
 30
0.0
 11
6827.753222217298
 21
-2255.069091433368
 31
0.0
  0
LINE
  5
3D9E
330
1F
100
AcDbEntity
  8
SPOJOVACÍ
  6
Continuous
100
AcDbLine
 10
6827.375570846353
 20
-2255.447672982198
 30
0.0
 11
6827.753222217298
 21
-2255.665334118515
 31
0.0
  0
LINE
  5
3D9F
330
1F
100
AcDbEntity
  8
SPOJOVACÍ
  6
Continuous
100
AcDbLine
 10
6827.375570846353
 20
-2255.447672982198
 30
0.0
 11
6827.753222217298
 21
-2255.069091433368
 31
0.0
  0
LINE
  5
3DA0
330
1F
100
AcDbEntity
  8
SPOJOVACÍ
  6
Continuous
100
AcDbLine
 10
6829.529857987809
 20
-2255.758351697972
 30
0.0
 11
6829.152206616864
 21
-2256.1360030711
 31
0.0
  0
LINE
  5
3DA1
330
1F
100
AcDbEntity
  8
SPOJOVACÍ
  6
Continuous
100
AcDbLine
 10
6829.529857987809
 20
-2255.758351697972
 30
0.0
 11
6829.152206616864
 21
-2255.539760385953
 31
0.0
  0
LINE
  5
3DA2
330
1F
100
AcDbEntity
  8
SPOJOVACÍ
  6
Continuous
100
AcDbLine
 10
6830.094474698281
 20
-2258.772121276292
 30
0.0
 11
6826.978385781849
 21
-2258.138671559521
 31
0.0
  0
LINE
  5
3DA3
330
1F
100
AcDbEntity
  8
SPOJOVACÍ
  6
Continuous
100
AcDbLine
 10
6829.71682332297
 20
-2259.150702825398
 30
0.0
 11
6827.356037152795
 21
-2258.35633269557
 31
0.0
  0
LINE
  5
3DA4
330
1F
100
AcDbEntity
  8
SPOJOVACÍ
  6
Continuous
100
AcDbLine
 10
6829.71682332297
 20
-2258.554460140243
 30
0.0
 11
6827.356037152795
 21
-2257.760090010692
 31
0.0
  0
LINE
  5
3DA5
330
1F
100
AcDbEntity
  8
SPOJOVACÍ
  6
Continuous
100
AcDbLine
 10
6826.978385781849
 20
-2258.138671559521
 30
0.0
 11
6827.356037152795
 21
-2258.35633269557
 31
0.0
  0
LINE
  5
3DA6
330
1F
100
AcDbEntity
  8
SPOJOVACÍ
  6
Continuous
100
AcDbLine
 10
6826.978385781849
 20
-2258.138671559521
 30
0.0
 11
6827.356037152795
 21
-2257.760090010692
 31
0.0
  0
LINE
  5
3DA7
330
1F
100
AcDbEntity
  8
SPOJOVACÍ
  6
Continuous
100
AcDbLine
 10
6830.094474698281
 20
-2258.772121276292
 30
0.0
 11
6829.71682332297
 21
-2259.150702825398
 31
0.0
  0
LINE
  5
3DA8
330
1F
100
AcDbEntity
  8
SPOJOVACÍ
  6
Continuous
100
AcDbLine
 10
6830.094474698281
 20
-2258.772121276292
 30
0.0
 11
6829.71682332297
 21
-2258.554460140243
 31
0.0
  0
LINE
  5
3DA9
330
1F
100
AcDbEntity
  8
SPOJOVACÍ
  6
Continuous
100
AcDbLine
 10
6826.533761751644
 20
-2260.813857148284
 30
0.0
 11
6826.911413122589
 21
-2260.435275599178
 31
0.0
  0
LINE
  5
3DAA
330
1F
100
AcDbEntity
  8
SPOJOVACÍ
  6
Continuous
100
AcDbLine
 10
6827.747641166361
 20
-2258.501440119784
 30
0.0
 11
6827.480680711023
 21
-2260.638053922637
 31
0.0
  0
LINE
  5
3DAB
330
1F
100
AcDbEntity
  8
SPOJOVACÍ
  6
Continuous
100
AcDbLine
 10
6828.08715532753
 20
-2255.784396620351
 30
0.0
 11
6827.819264699219
 21
-2257.929382005335
 31
0.0
  0
LINE
  5
3DAC
330
1F
100
AcDbEntity
  8
SPOJOVACÍ
  6
Continuous
100
AcDbLine
 10
6828.899198799781
 20
-2255.46813684982
 30
0.0
 11
6828.513175845883
 21
-2252.379023032015
 31
0.0
  0
LINE
  5
3DAD
330
1F
100
AcDbEntity
  8
SPOJOVACÍ
  6
Continuous
100
AcDbLine
 10
6829.266618237461
 20
-2258.409352716029
 30
0.0
 11
6828.976403392307
 21
-2256.088564105673
 31
0.0
  0
LINE
  5
3DAE
330
1F
100
AcDbEntity
  8
SPOJOVACÍ
  6
Continuous
100
AcDbLine
 10
6828.513175845883
 20
-2252.379023032015
 30
0.0
 11
6828.158778864754
 21
-2255.215129033284
 31
0.0
  0
LINE
  5
3DAF
330
1F
100
AcDbEntity
  8
SPOJOVACÍ
  6
Continuous
100
AcDbLine
 10
6830.659091404386
 20
-2261.786821030589
 30
0.0
 11
6826.533761751644
 21
-2260.813857148284
 31
0.0
  0
LINE
  5
3DB0
330
1F
100
AcDbEntity
  8
SPOJOVACÍ
  6
Continuous
100
AcDbLine
 10
6830.280509856102
 20
-2261.568229718563
 30
0.0
 11
6826.911413122589
 21
-2260.435275599178
 31
0.0
  0
LINE
  5
3DB1
330
1F
100
AcDbEntity
  8
SPOJOVACÍ
  6
Continuous
100
AcDbLine
 10
6826.533761751644
 20
-2260.813857148284
 30
0.0
 11
6826.911413122589
 21
-2261.031518284333
 31
0.0
  0
LINE
  5
3DB2
330
1F
100
AcDbEntity
  8
SPOJOVACÍ
  6
Continuous
100
AcDbLine
 10
6829.635898029819
 20
-2261.361730691758
 30
0.0
 11
6829.345683180299
 21
-2259.040011905694
 31
0.0
  0
LINE
  5
3DB3
330
1F
100
AcDbEntity
  8
SPOJOVACÍ
  6
Continuous
100
AcDbLine
 10
6827.163490762334
 20
-2138.298743776894
 30
0.0
 11
6827.163490762334
 21
-2138.635467414777
 31
0.0
  0
LINE
  5
3DB4
330
1F
100
AcDbEntity
  8
SPOJOVACÍ
  6
Continuous
100
AcDbLine
 10
6829.86286092507
 20
-2138.635467414777
 30
0.0
 11
6829.713102622346
 21
-2139.832603664134
 31
0.0
  0
LINE
  5
3DB5
330
1F
100
AcDbEntity
  8
SPOJOVACÍ
  6
Continuous
100
AcDbLine
 10
6827.409057173801
 20
-2140.606509926064
 30
0.0
 11
6827.163490762334
 21
-2138.635467414777
 31
0.0
  0
LINE
  5
3DB6
330
1F
100
AcDbEntity
  8
SPOJOVACÍ
  6
Continuous
100
AcDbLine
 10
6830.659091404388
 20
-2140.027940581157
 30
0.0
 11
6830.280509856104
 21
-2140.246531893183
 31
0.0
  0
LINE
  5
3DB7
330
1F
100
AcDbEntity
  8
SPOJOVACÍ
  6
Continuous
100
AcDbLine
 10
6830.659091404388
 20
-2140.027940581157
 30
0.0
 11
6830.280509856104
 21
-2139.650289208029
 31
0.0
  0
LINE
  5
3DB8
330
1F
100
AcDbEntity
  8
SPOJOVACÍ
  6
Continuous
100
AcDbLine
 10
6830.280509856104
 20
-2139.650289208029
 30
0.0
 11
6826.911413122591
 21
-2140.783243327413
 31
0.0
  0
LINE
  5
3DB9
330
1F
100
AcDbEntity
  8
SPOJOVACÍ
  6
Continuous
100
AcDbLine
 10
6826.11332229296
 20
-2138.150845825305
 30
0.0
 11
6826.490973663905
 21
-2138.528497198433
 31
0.0
  0
LINE
  5
3DBA
330
1F
100
AcDbEntity
  8
SPOJOVACÍ
  6
Continuous
100
AcDbLine
 10
6828.513175845884
 20
-2149.435738579731
 30
0.0
 11
6828.158778864755
 21
-2146.599632578462
 31
0.0
  0
LINE
  5
3DBB
330
1F
100
AcDbEntity
  8
SPOJOVACÍ
  6
Continuous
100
AcDbLine
 10
6829.266618237463
 20
-2143.405408895717
 30
0.0
 11
6828.976403392309
 21
-2145.726197506073
 31
0.0
  0
LINE
  5
3DBC
330
1F
100
AcDbEntity
  8
SPOJOVACÍ
  6
Continuous
100
AcDbLine
 10
6828.899198799783
 20
-2146.346624761926
 30
0.0
 11
6828.513175845884
 21
-2149.435738579731
 31
0.0
  0
LINE
  5
3DBD
330
1F
100
AcDbEntity
  8
SPOJOVACÍ
  6
Continuous
100
AcDbLine
 10
6828.087155327532
 20
-2146.030364991395
 30
0.0
 11
6827.819264699221
 21
-2143.885379606411
 31
0.0
  0
LINE
  5
3DBE
330
1F
100
AcDbEntity
  8
SPOJOVACÍ
  6
Continuous
100
AcDbLine
 10
6827.747641166363
 20
-2143.313321491962
 30
0.0
 11
6827.480680711025
 21
-2141.176707689109
 31
0.0
  0
LINE
  5
3DBF
330
1F
100
AcDbEntity
  8
SPOJOVACÍ
  6
Continuous
100
AcDbLine
 10
6826.533761751645
 20
-2141.000904463461
 30
0.0
 11
6826.911413122591
 21
-2141.379486012568
 31
0.0
  0
LINE
  5
3DC0
330
1F
100
AcDbEntity
  8
SPOJOVACÍ
  6
Continuous
100
AcDbLine
 10
6830.094474698282
 20
-2143.042640335454
 30
0.0
 11
6829.716823322971
 21
-2143.260301471503
 31
0.0
  0
LINE
  5
3DC1
330
1F
100
AcDbEntity
  8
SPOJOVACÍ
  6
Continuous
100
AcDbLine
 10
6830.094474698282
 20
-2143.042640335454
 30
0.0
 11
6829.716823322971
 21
-2142.664058786348
 31
0.0
  0
LINE
  5
3DC2
330
1F
100
AcDbEntity
  8
SPOJOVACÍ
  6
Continuous
100
AcDbLine
 10
6826.978385781851
 20
-2143.676090052224
 30
0.0
 11
6827.356037152796
 21
-2144.054671601054
 31
0.0
  0
LINE
  5
3DC3
330
1F
100
AcDbEntity
  8
SPOJOVACÍ
  6
Continuous
100
AcDbLine
 10
6826.978385781851
 20
-2143.676090052224
 30
0.0
 11
6827.356037152796
 21
-2143.458428916176
 31
0.0
  0
LINE
  5
3DC4
330
1F
100
AcDbEntity
  8
SPOJOVACÍ
  6
Continuous
100
AcDbLine
 10
6829.716823322971
 20
-2143.260301471503
 30
0.0
 11
6827.356037152796
 21
-2144.054671601054
 31
0.0
  0
LINE
  5
3DC5
330
1F
100
AcDbEntity
  8
SPOJOVACÍ
  6
Continuous
100
AcDbLine
 10
6829.716823322971
 20
-2142.664058786348
 30
0.0
 11
6827.356037152796
 21
-2143.458428916176
 31
0.0
  0
LINE
  5
3DC6
330
1F
100
AcDbEntity
  8
SPOJOVACÍ
  6
Continuous
100
AcDbLine
 10
6830.094474698282
 20
-2143.042640335454
 30
0.0
 11
6826.978385781851
 21
-2143.676090052224
 31
0.0
  0
LINE
  5
3DC7
330
1F
100
AcDbEntity
  8
SPOJOVACÍ
  6
Continuous
100
AcDbLine
 10
6829.529857987811
 20
-2146.056409913774
 30
0.0
 11
6829.152206616865
 21
-2146.275001225793
 31
0.0
  0
LINE
  5
3DC8
330
1F
100
AcDbEntity
  8
SPOJOVACÍ
  6
Continuous
100
AcDbLine
 10
6829.529857987811
 20
-2146.056409913774
 30
0.0
 11
6829.152206616865
 21
-2145.678758540646
 31
0.0
  0
LINE
  5
3DC9
330
1F
100
AcDbEntity
  8
SPOJOVACÍ
  6
Continuous
100
AcDbLine
 10
6827.375570846354
 20
-2146.367088629548
 30
0.0
 11
6827.7532222173
 21
-2146.745670178378
 31
0.0
  0
LINE
  5
3DCA
330
1F
100
AcDbEntity
  8
SPOJOVACÍ
  6
Continuous
100
AcDbLine
 10
6827.375570846354
 20
-2146.367088629548
 30
0.0
 11
6827.7532222173
 21
-2146.14942749323
 31
0.0
  0
LINE
  5
3DCB
330
1F
100
AcDbEntity
  8
SPOJOVACÍ
  6
Continuous
100
AcDbLine
 10
6829.152206616865
 20
-2146.275001225793
 30
0.0
 11
6827.7532222173
 21
-2146.745670178378
 31
0.0
  0
LINE
  5
3DCC
330
1F
100
AcDbEntity
  8
SPOJOVACÍ
  6
Continuous
100
AcDbLine
 10
6829.152206616865
 20
-2145.678758540646
 30
0.0
 11
6827.7532222173
 21
-2146.14942749323
 31
0.0
  0
LINE
  5
3DCD
330
1F
100
AcDbEntity
  8
SPOJOVACÍ
  6
Continuous
100
AcDbLine
 10
6829.529857987811
 20
-2146.056409913774
 30
0.0
 11
6827.375570846354
 21
-2146.367088629548
 31
0.0
  0
LINE
  5
3DCE
330
1F
100
AcDbEntity
  8
SPOJOVACÍ
  6
Continuous
100
AcDbLine
 10
6829.63589802982
 20
-2140.453030919988
 30
0.0
 11
6829.345683180301
 21
-2142.774749706052
 31
0.0
  0
LINE
  5
3DCF
330
1F
100
AcDbEntity
  8
SPOJOVACÍ
  6
Continuous
100
AcDbLine
 10
6826.533761751645
 20
-2141.000904463461
 30
0.0
 11
6826.911413122591
 21
-2140.783243327413
 31
0.0
  0
LINE
  5
3DD0
330
1F
100
AcDbEntity
  8
SPOJOVACÍ
  6
Continuous
100
AcDbLine
 10
6830.280509856104
 20
-2140.246531893183
 30
0.0
 11
6826.911413122591
 21
-2141.379486012568
 31
0.0
  0
LINE
  5
3DD1
330
1F
100
AcDbEntity
  8
SPOJOVACÍ
  6
Continuous
100
AcDbLine
 10
6830.659091404388
 20
-2140.027940581157
 30
0.0
 11
6826.533761751645
 21
-2141.000904463461
 31
0.0
  0
LINE
  5
3DD2
330
1F
100
AcDbEntity
  8
CETRIS
100
AcDbLine
 10
6803.968723760694
 20
-2113.670479231779
 30
0.0
 11
7048.826108399563
 21
-2113.670479231779
 31
0.0
  0
LINE
  5
3DD3
330
1F
100
AcDbEntity
  8
NOSNÉ KONSTRUKCE
100
AcDbLine
 10
6798.968723760694
 20
-2126.711903127753
 30
0.0
 11
7046.424137557163
 21
-2126.711903127753
 31
0.0
  0
LINE
  5
3DD4
330
1F
100
AcDbEntity
  8
CETRIS
100
AcDbLine
 10
6803.968723760694
 20
-2125.670479231779
 30
0.0
 11
7046.615947121262
 21
-2125.670479231779
 31
0.0
  0
LINE
  5
3DD5
330
1F
100
AcDbEntity
  8
SPOJOVACÍ
  6
Continuous
100
AcDbLine
 10
6829.86286092507
 20
-2128.025882288068
 30
0.0
 11
6829.86286092507
 21
-2130.546658694777
 31
0.0
  0
LINE
  5
3DD6
330
1F
100
AcDbEntity
  8
SPOJOVACÍ
  6
Continuous
100
AcDbLine
 10
6827.163490762334
 20
-2125.816714773111
 30
0.0
 11
6827.163490762334
 21
-2128.335630828141
 31
0.0
  0
LINE
  5
3DD7
330
1F
100
AcDbEntity
  8
SPOJOVACÍ
  6
Continuous
100
AcDbLine
 10
6830.913029398809
 20
-2127.590560015695
 30
0.0
 11
6826.11332229296
 21
-2128.790486792434
 31
0.0
  0
LINE
  5
3DD8
330
1F
100
AcDbEntity
  8
SPOJOVACÍ
  6
Continuous
100
AcDbLine
 10
6830.535378023498
 20
-2127.809151327722
 30
0.0
 11
6826.490973663905
 21
-2129.168138165286
 31
0.0
  0
LINE
  5
3DD9
330
1F
100
AcDbEntity
  8
SPOJOVACÍ
  6
Continuous
100
AcDbLine
 10
6830.535378023498
 20
-2127.212908642567
 30
0.0
 11
6826.490973663905
 21
-2128.571895480408
 31
0.0
  0
LINE
  5
3DDB
330
1F
100
AcDbEntity
  8
SPOJOVACÍ
  6
Continuous
100
AcDbLine
 10
6829.86286092507
 20
-2131.141041028252
 30
0.0
 11
6829.86286092507
 21
-2133.669258841121
 31
0.0
  0
LINE
  5
3DDC
330
1F
100
AcDbEntity
  8
SPOJOVACÍ
  6
Continuous
100
AcDbLine
 10
6827.163490762334
 20
-2128.931873513295
 30
0.0
 11
6827.163490762334
 21
-2131.460091326164
 31
0.0
  0
LINE
  5
3DDD
330
1F
100
AcDbEntity
  8
SPOJOVACÍ
  6
Continuous
100
AcDbLine
 10
6827.163490762334
 20
-2132.054473659639
 30
0.0
 11
6827.163490762334
 21
-2134.575250066348
 31
0.0
  0
LINE
  5
3DDE
330
1F
100
AcDbEntity
  8
SPOJOVACÍ
  6
Continuous
100
AcDbLine
 10
6829.86286092507
 20
-2134.273873108407
 30
0.0
 11
6829.86286092507
 21
-2136.791858987734
 31
0.0
  0
LINE
  5
3DDF
330
1F
100
AcDbEntity
  8
SPOJOVACÍ
  6
Continuous
100
AcDbLine
 10
6827.163490762334
 20
-2135.176143630281
 30
0.0
 11
6827.163490762334
 21
-2137.69505968531
 31
0.0
  0
LINE
  5
3DE0
330
1F
100
AcDbEntity
  8
SPOJOVACÍ
  6
Continuous
100
AcDbLine
 10
6826.11332229296
 20
-2128.790486792434
 30
0.0
 11
6826.490973663905
 21
-2129.168138165286
 31
0.0
  0
LINE
  5
3DE1
330
1F
100
AcDbEntity
  8
SPOJOVACÍ
  6
Continuous
100
AcDbLine
 10
6826.11332229296
 20
-2128.790486792434
 30
0.0
 11
6826.490973663905
 21
-2128.571895480408
 31
0.0
  0
LINE
  5
3DE2
330
1F
100
AcDbEntity
  8
SPOJOVACÍ
  6
Continuous
100
AcDbLine
 10
6830.913029398809
 20
-2130.710369634934
 30
0.0
 11
6826.11332229296
 21
-2131.910296411396
 31
0.0
  0
LINE
  5
3DE3
330
1F
100
AcDbEntity
  8
SPOJOVACÍ
  6
Continuous
100
AcDbLine
 10
6830.913029398809
 20
-2130.710369634934
 30
0.0
 11
6830.535378023498
 21
-2130.92896094696
 31
0.0
  0
LINE
  5
3DE4
330
1F
100
AcDbEntity
  8
SPOJOVACÍ
  6
Continuous
100
AcDbLine
 10
6830.913029398809
 20
-2130.710369634934
 30
0.0
 11
6830.535378023498
 21
-2130.332718261806
 31
0.0
  0
LINE
  5
3DE5
330
1F
100
AcDbEntity
  8
SPOJOVACÍ
  6
Continuous
100
AcDbLine
 10
6826.11332229296
 20
-2131.910296411396
 30
0.0
 11
6826.490973663905
 21
-2132.288877960226
 31
0.0
  0
LINE
  5
3DE6
330
1F
100
AcDbEntity
  8
SPOJOVACÍ
  6
Continuous
100
AcDbLine
 10
6826.11332229296
 20
-2131.910296411396
 30
0.0
 11
6826.490973663905
 21
-2131.692635275078
 31
0.0
  0
LINE
  5
3DE7
330
1F
100
AcDbEntity
  8
SPOJOVACÍ
  6
Continuous
100
AcDbLine
 10
6830.535378023498
 20
-2130.92896094696
 30
0.0
 11
6826.490973663905
 21
-2132.288877960226
 31
0.0
  0
LINE
  5
3DE8
330
1F
100
AcDbEntity
  8
SPOJOVACÍ
  6
Continuous
100
AcDbLine
 10
6830.535378023498
 20
-2130.332718261806
 30
0.0
 11
6826.490973663905
 21
-2131.692635275078
 31
0.0
  0
LINE
  5
3DE9
330
1F
100
AcDbEntity
  8
SPOJOVACÍ
  6
Continuous
100
AcDbLine
 10
6830.913029398809
 20
-2133.830179253903
 30
0.0
 11
6826.11332229296
 21
-2135.030106030365
 31
0.0
  0
LINE
  5
3DEA
330
1F
100
AcDbEntity
  8
SPOJOVACÍ
  6
Continuous
100
AcDbLine
 10
6830.913029398809
 20
-2133.830179253903
 30
0.0
 11
6830.535378023498
 21
-2134.048770565922
 31
0.0
  0
LINE
  5
3DEB
330
1F
100
AcDbEntity
  8
SPOJOVACÍ
  6
Continuous
100
AcDbLine
 10
6830.913029398809
 20
-2133.830179253903
 30
0.0
 11
6830.535378023498
 21
-2133.452527880775
 31
0.0
  0
LINE
  5
3DEC
330
1F
100
AcDbEntity
  8
SPOJOVACÍ
  6
Continuous
100
AcDbLine
 10
6826.11332229296
 20
-2135.030106030365
 30
0.0
 11
6826.490973663905
 21
-2135.408687579195
 31
0.0
  0
LINE
  5
3DED
330
1F
100
AcDbEntity
  8
SPOJOVACÍ
  6
Continuous
100
AcDbLine
 10
6826.11332229296
 20
-2135.030106030365
 30
0.0
 11
6826.490973663905
 21
-2134.812444894317
 31
0.0
  0
LINE
  5
3DEE
330
1F
100
AcDbEntity
  8
SPOJOVACÍ
  6
Continuous
100
AcDbLine
 10
6830.535378023498
 20
-2134.048770565922
 30
0.0
 11
6826.490973663905
 21
-2135.408687579195
 31
0.0
  0
LINE
  5
3DEF
330
1F
100
AcDbEntity
  8
SPOJOVACÍ
  6
Continuous
100
AcDbLine
 10
6830.535378023498
 20
-2133.452527880775
 30
0.0
 11
6826.490973663905
 21
-2134.812444894317
 31
0.0
  0
LINE
  5
3DF0
330
1F
100
AcDbEntity
  8
SPOJOVACÍ
  6
Continuous
100
AcDbLine
 10
6830.913029398809
 20
-2136.950919048843
 30
0.0
 11
6830.535378023498
 21
-2137.168580184891
 31
0.0
  0
LINE
  5
3DF1
330
1F
100
AcDbEntity
  8
SPOJOVACÍ
  6
Continuous
100
AcDbLine
 10
6830.913029398809
 20
-2136.950919048843
 30
0.0
 11
6830.535378023498
 21
-2136.572337499737
 31
0.0
  0
LINE
  5
3DF2
330
1F
100
AcDbEntity
  8
SPOJOVACÍ
  6
Continuous
100
AcDbLine
 10
6830.535378023498
 20
-2136.572337499737
 30
0.0
 11
6826.490973663905
 21
-2137.932254513279
 31
0.0
  0
LINE
  5
3DF3
330
1F
100
AcDbEntity
  8
SPOJOVACÍ
  6
Continuous
100
AcDbLine
 10
6826.323542022302
 20
-2117.332581339736
 30
0.0
 11
6825.365460952318
 21
-2116.125213156837
 31
0.0
  0
LINE
  5
3DF4
330
1F
100
AcDbEntity
  8
SPOJOVACÍ
  6
Continuous
100
AcDbLine
 10
6826.93652787145
 20
-2118.746448549439
 30
0.0
 11
6826.323542022302
 21
-2117.332581339736
 31
0.0
  0
LINE
  5
3DF5
330
1F
100
AcDbEntity
  8
SPOJOVACÍ
  6
Continuous
100
AcDbLine
 10
6827.163490762334
 20
-2120.270076502868
 30
0.0
 11
6826.93652787145
 21
-2118.746448549439
 31
0.0
  0
LINE
  5
3DF6
330
1F
100
AcDbEntity
  8
SPOJOVACÍ
  6
Continuous
100
AcDbLine
 10
6823.41302195725
 20
-2113.67047923178
 30
0.0
 11
6823.41302195725
 21
-2114.870406008511
 31
0.0
  0
LINE
  5
3DF7
330
1F
100
AcDbEntity
  8
SPOJOVACÍ
  6
Continuous
100
AcDbLine
 10
6833.613329734518
 20
-2113.67047923178
 30
0.0
 11
6823.41302195725
 21
-2113.67047923178
 31
0.0
  0
LINE
  5
3DF8
330
1F
100
AcDbEntity
  8
SPOJOVACÍ
  6
Continuous
100
AcDbLine
 10
6833.613329734518
 20
-2113.67047923178
 30
0.0
 11
6833.613329734518
 21
-2114.870406008511
 31
0.0
  0
LINE
  5
3DF9
330
1F
100
AcDbEntity
  8
SPOJOVACÍ
  6
Continuous
100
AcDbLine
 10
6833.613329734518
 20
-2114.870406008511
 30
0.0
 11
6823.41302195725
 21
-2114.870406008511
 31
0.0
  0
LINE
  5
3DFA
330
1F
100
AcDbEntity
  8
SPOJOVACÍ
  6
Continuous
100
AcDbLine
 10
6824.128327143418
 20
-2115.207129646395
 30
0.0
 11
6823.41302195725
 21
-2114.870406008511
 31
0.0
  0
LINE
  5
3DFB
330
1F
100
AcDbEntity
  8
SPOJOVACÍ
  6
Continuous
100
AcDbLine
 10
6825.365460952318
 20
-2116.125213156837
 30
0.0
 11
6824.128327143418
 21
-2115.207129646395
 31
0.0
  0
LINE
  5
3DFC
330
1F
100
AcDbEntity
  8
SPOJOVACÍ
  6
Continuous
100
AcDbLine
 10
6829.928903406991
 20
-2119.483147779746
 30
0.0
 11
6829.86286092507
 21
-2120.270076502868
 31
0.0
  0
LINE
  5
3DFD
330
1F
100
AcDbEntity
  8
SPOJOVACÍ
  6
Continuous
100
AcDbLine
 10
6830.356784271291
 20
-2118.002307912695
 30
0.0
 11
6829.928903406991
 21
-2119.483147779746
 31
0.0
  0
LINE
  5
3DFE
330
1F
100
AcDbEntity
  8
SPOJOVACÍ
  6
Continuous
100
AcDbLine
 10
6831.153014750609
 20
-2116.683318634398
 30
0.0
 11
6830.356784271291
 21
-2118.002307912695
 31
0.0
  0
LINE
  5
3DFF
330
1F
100
AcDbEntity
  8
SPOJOVACÍ
  6
Continuous
100
AcDbLine
 10
6832.263644650968
 20
-2115.614546644986
 30
0.0
 11
6831.153014750609
 21
-2116.683318634398
 31
0.0
  0
LINE
  5
3E00
330
1F
100
AcDbEntity
  8
SPOJOVACÍ
  6
Continuous
100
AcDbLine
 10
6833.613329734518
 20
-2114.870406008511
 30
0.0
 11
6832.263644650968
 21
-2115.614546644986
 31
0.0
  0
LINE
  5
3E01
330
1F
100
AcDbEntity
  8
SPOJOVACÍ
  6
Continuous
100
AcDbLine
 10
6827.163490762334
 20
-2120.270076502868
 30
0.0
 11
6827.163490762334
 21
-2125.213030681797
 31
0.0
  0
LINE
  5
3E02
330
1F
100
AcDbEntity
  8
SPOJOVACÍ
  6
Continuous
100
AcDbLine
 10
6829.86286092507
 20
-2120.270076502868
 30
0.0
 11
6829.86286092507
 21
-2124.307969632548
 31
0.0
  0
LINE
  5
3E03
330
1F
100
AcDbEntity
  8
SPOJOVACÍ
  6
Continuous
100
AcDbLine
 10
6829.86286092507
 20
-2124.903282141724
 30
0.0
 11
6829.86286092507
 21
-2127.422198196753
 31
0.0
  0
LINE
  5
3E04
330
1F
100
AcDbEntity
  8
SPOJOVACÍ
  6
Continuous
100
AcDbLine
 10
6830.913029398809
 20
-2124.470750396733
 30
0.0
 11
6826.11332229296
 21
-2125.670677173196
 31
0.0
  0
LINE
  5
3E05
330
1F
100
AcDbEntity
  8
SPOJOVACÍ
  6
Continuous
100
AcDbLine
 10
6830.913029398809
 20
-2124.470750396733
 30
0.0
 11
6830.535378023498
 21
-2124.688411532781
 31
0.0
  0
LINE
  5
3E06
330
1F
100
AcDbEntity
  8
SPOJOVACÍ
  6
Continuous
100
AcDbLine
 10
6830.913029398809
 20
-2124.470750396733
 30
0.0
 11
6830.535378023498
 21
-2124.092168847903
 31
0.0
  0
LINE
  5
3E07
330
1F
100
AcDbEntity
  8
SPOJOVACÍ
  6
Continuous
100
AcDbLine
 10
6826.11332229296
 20
-2125.670677173196
 30
0.0
 11
6826.490973663905
 21
-2126.048328546324
 31
0.0
  0
LINE
  5
3E08
330
1F
100
AcDbEntity
  8
SPOJOVACÍ
  6
Continuous
100
AcDbLine
 10
6826.11332229296
 20
-2125.670677173196
 30
0.0
 11
6826.490973663905
 21
-2125.452085861169
 31
0.0
  0
LINE
  5
3E09
330
1F
100
AcDbEntity
  8
SPOJOVACÍ
  6
Continuous
100
AcDbLine
 10
6830.535378023498
 20
-2124.688411532781
 30
0.0
 11
6826.490973663905
 21
-2126.048328546324
 31
0.0
  0
LINE
  5
3E0A
330
1F
100
AcDbEntity
  8
SPOJOVACÍ
  6
Continuous
100
AcDbLine
 10
6830.535378023498
 20
-2124.092168847903
 30
0.0
 11
6826.490973663905
 21
-2125.452085861169
 31
0.0
  0
LINE
  5
3E0B
330
1F
100
AcDbEntity
  8
SPOJOVACÍ
  6
Continuous
100
AcDbLine
 10
6830.913029398809
 20
-2127.590560015695
 30
0.0
 11
6830.535378023498
 21
-2127.809151327722
 31
0.0
  0
LINE
  5
3E0C
330
1F
100
AcDbEntity
  8
SPOJOVACÍ
  6
Continuous
100
AcDbLine
 10
6830.913029398809
 20
-2127.590560015695
 30
0.0
 11
6830.535378023498
 21
-2127.212908642567
 31
0.0
  0
LWPOLYLINE
  5
3E0D
330
1F
100
AcDbEntity
  8
izolace
100
AcDbPolyline
 90
        4
 70
     1
 43
0.0
 10
6803.968723760694
 20
-2113.670479231767
 10
6798.968723760694
 20
-2113.670479231767
 10
6798.968723760694
 20
-2125.670479231767
 10
6803.968723760694
 20
-2125.670479231767
  0
HATCH
  5
3E0E
330
1F
100
AcDbEntity
  8
izolace
100
AcDbHatch
 10
0.0
 20
0.0
 30
0.0
210
0.0
220
0.0
230
1.0
  2
AR-SAND
 70
     0
 71
     0
 91
        1
 92
        7
 72
     0
 73
     1
 93
        4
 10
6803.968723760694
 20
-2113.670479231767
 10
6798.968723760694
 20
-2113.670479231768
 10
6798.968723760694
 20
-2125.670479231767
 10
6803.968723760694
 20
-2125.670479231767
 97
        0
 75
     0
 76
     1
 52
90.0
 41
0.05
 77
     0
 78
     4
 53
127.5
 43
-17156.16172208814
 44
-3602.167756489394
 45
-2.447066186646711
 46
-0.0800015647992021
 79
     6
 49
0.0
 49
-1.9304
 49
0.0
 49
-2.159
 49
0.0
 49
-2.06375
 53
97.49999999999985
 43
-17156.16172208814
 44
-3602.167756489394
 45
-3.584125502841771
 46
2.247616415690013
 79
     6
 49
0.0
 49
-1.041399999999999
 49
0.0
 49
-1.7399
 49
0.0
 49
-0.66675
 53
57.5
 43
-17156.16172208814
 44
-3603.729856489394
 45
-0.0071859233927282
 46
3.95496185120729
 79
     6
 49
0.0
 49
-0.635
 49
0.0
 49
-2.286
 49
0.0
 49
-2.9845
 53
47.5
 43
-17156.16172208814
 44
-3603.729856489394
 45
-1.11464661628608
 46
3.817782262361486
 79
     6
 49
0.0
 49
-0.3175
 49
0.0
 49
-1.498599999999999
 49
0.0
 49
-1.7145
 47
0.2359071171925059
 98
        1
 10
6800.992875857888
 20
-2119.837013332552
  0
LINE
  5
3E10
330
1F
100
AcDbEntity
  8
CETRIS
100
AcDbLine
 10
6803.968723760694
 20
-2125.670479231779
 30
0.0
 11
6803.968723760694
 21
-2113.670479231779
 31
0.0
  0
LINE
  5
3E11
330
1F
100
AcDbEntity
  8
CETRIS
100
AcDbLine
 10
6798.968723760694
 20
-2113.67047923178
 30
0.0
 11
6786.968723760693
 21
-2113.670479231779
 31
0.0
  0
HATCH
  5
42A3
330
1F
100
AcDbEntity
  8
NOSNÉ KONSTRUKCE
100
AcDbHatch
 10
0.0
 20
0.0
 30
0.0
210
0.0
220
0.0
230
1.0
  2
SOLID
 70
     1
 71
     0
 91
        1
 92
        7
 72
     1
 73
     1
 93
       52
 10
6459.361170310611
 20
-2180.326717017786
 42
0.0
 10
6459.361170310611
 20
-2146.449617893849
 42
-0.3073346934841183
 10
6458.213997822389
 20
-2144.734427330781
 42
0.0
 10
6458.213997822389
 20
-2140.973193230257
 42
-0.307334693483106
 10
6459.361170310611
 20
-2139.258002667197
 42
0.0
 10
6459.361170310609
 20
-2128.916552578674
 42
0.4142135623730951
 10
6457.391170310611
 20
-2126.946552578673
 42
0.0
 10
6449.315299749527
 20
-2126.946552578673
 42
-0.7595816512230912
 10
6445.777729214288
 20
-2126.946552578673
 42
0.0
 10
6436.739497850796
 20
-2126.946552578677
 42
-0.7595816493590427
 10
6433.201927283089
 20
-2126.946552578673
 42
0.0
 10
6424.163697922871
 20
-2126.946552578673
 42
-0.7767342353201953
 10
6420.606411217407
 20
-2126.869764753589
 42
0.0
 10
6412.166823619479
 20
-2126.869764753589
 42
0.0
 10
6412.166823619479
 20
-2127.854764753589
 42
0.0
 10
6419.946054225872
 20
-2127.854764753589
 42
0.5694936494219963
 10
6424.798110428617
 20
-2127.931552578674
 42
0.0
 10
6432.567512832917
 20
-2127.931552578674
 42
0.5590616644338513
 10
6437.373912300967
 20
-2127.931552578677
 42
0.0
 10
6445.143314763533
 20
-2127.931552578674
 42
0.5590616643157284
 10
6449.949714200283
 20
-2127.931552578674
 42
0.0
 10
6457.391170310611
 20
-2127.931552578674
 42
-0.4142135623731451
 10
6458.376170310611
 20
-2128.916552578674
 42
0.0
 10
6458.376170310611
 20
-2138.700561706635
 42
0.2364174637114482
 10
6457.238043110456
 20
-2140.948183618794
 42
0.0
 10
6457.238043110456
 20
-2144.759436942249
 42
0.2364174637115772
 10
6458.376170310611
 20
-2147.007058854409
 42
0.0
 10
6458.376170310611
 20
-2179.772861122156
 42
0.2353201211467568
 10
6457.248709196836
 20
-2182.014145405243
 42
0.0
 10
6457.25089153327
 20
-2185.825398103888
 42
0.2364174637122881
 10
6458.390305542687
 20
-2188.072367952135
 42
0.0
 10
6458.395907899127
 20
-2197.856375476132
 42
-0.4142135623730951
 10
6457.411472074909
 20
-2198.841939328957
 42
0.0
 10
6449.970017184513
 20
-2198.846200331683
 42
0.5590616643157161
 10
6445.163618535712
 20
-2198.84895249212
 42
0.0
 10
6437.394217346841
 20
-2198.853401278023
 42
0.5590616644338511
 10
6432.587818666738
 20
-2198.856153438482
 42
0.0
 10
6424.818417536136
 20
-2198.860602224355
 42
0.5694936494220229
 10
6419.966406097789
 20
-2198.940168340505
 42
0.0
 10
6412.185964844752
 20
-2198.944623447991
 42
0.0
 10
6412.186528859056
 20
-2199.929623286513
 42
0.0
 10
6420.627326995371
 20
-2199.9247900564
 42
-0.7767342353201953
 10
6424.184569148697
 20
-2199.845965329605
 42
0.0
 10
6433.22279702721
 20
-2199.840790009161
 42
-0.759581649359043
 10
6436.760367014979
 20
-2199.838764384386
 42
0.0
 10
6445.798596896766
 20
-2199.8335890628
 42
-0.7595816512230912
 10
6449.336166852067
 20
-2199.831563438047
 42
0.0
 10
6457.412036089213
 20
-2199.826939167479
 42
0.4142135623731117
 10
6459.380907737649
 20
-2197.855811461829
 42
0.0
 10
6459.374986188645
 20
-2187.514363068655
 42
-0.3073346934834261
 10
6458.226831764621
 20
-2185.79982966159
 42
0.0
 10
6458.224678069361
 20
-2182.038596177672
 42
-0.3057747226774016
 97
        0
 75
     0
 76
     1
 47
0.1192862808561033
 98
        1
 10
6458.817135094389
 20
-2172.889003543231
  0
LINE
  5
42A5
330
1F
100
AcDbEntity
  8
POPIS
100
AcDbLine
 10
6211.736818012798
 20
-2330.853587333152
 30
0.0
 11
6256.29963080426
 21
-2088.901219988805
 31
0.0
  0
LINE
  5
42A6
330
1F
100
AcDbEntity
  8
CETRIS
100
AcDbLine
 10
6219.603022348688
 20
-2288.144282379966
 30
0.0
 11
6459.753396833185
 21
-2288.144282379966
 31
0.0
  0
LINE
  5
42A7
330
1F
100
AcDbEntity
  8
CETRIS
100
AcDbLine
 10
6221.813183626988
 20
-2276.144282379966
 30
0.0
 11
6459.753396833185
 21
-2276.144282379967
 31
0.0
  0
LINE
  5
42A8
330
1F
100
AcDbEntity
  8
NOSNÉ KONSTRUKCE
100
AcDbLine
 10
6235.82578176725
 20
-2200.063328770785
 30
0.0
 11
6458.173809780679
 21
-2200.063328770785
 31
0.0
  0
LINE
  5
42A9
330
1F
100
AcDbEntity
  8
NOSNÉ KONSTRUKCE
100
AcDbLine
 10
6238.070771797161
 20
-2187.874227177418
 30
0.0
 11
6458.173809780679
 21
-2187.874227177418
 31
0.0
  0
LINE
  5
42AA
330
1F
100
AcDbEntity
  8
NOSNÉ KONSTRUKCE
  6
DASHED
100
AcDbLine
 10
6239.574822498959
 20
-2179.70803197765
 30
0.0
 11
6458.173809780679
 21
-2179.70803197765
 31
0.0
  0
LINE
  5
42AB
330
1F
100
AcDbEntity
  8
izolace
  6
IZOLACE
 48
2.2
100
AcDbLine
 10
6242.533224178018
 20
-2163.645484643538
 30
0.0
 11
6458.173809780679
 21
-2163.645484643537
 31
0.0
  0
LINE
  5
42AC
330
1F
100
AcDbEntity
  8
NOSNÉ KONSTRUKCE
  6
DASHED
100
AcDbLine
 10
6245.673264720665
 20
-2146.596734906719
 30
0.0
 11
6458.173809780679
 21
-2146.596734906718
 31
0.0
  0
LINE
  5
42AD
330
1F
100
AcDbEntity
  8
NOSNÉ KONSTRUKCE
100
AcDbLine
 10
6247.054272026986
 20
-2139.098599888903
 30
0.0
 11
6458.173809780679
 21
-2139.098599888903
 31
0.0
  0
LINE
  5
42AE
330
1F
100
AcDbEntity
  8
SPOJOVACÍ
  6
Continuous
100
AcDbLine
 10
6436.606336795036
 20
-2288.144282379966
 30
0.0
 11
6426.406029017768
 21
-2288.144282379966
 31
0.0
  0
LINE
  5
42AF
330
1F
100
AcDbEntity
  8
SPOJOVACÍ
  6
Continuous
100
AcDbLine
 10
6436.606336795036
 20
-2286.944355603234
 30
0.0
 11
6426.406029017768
 21
-2286.944355603234
 31
0.0
  0
LINE
  5
42B0
330
1F
100
AcDbEntity
  8
SPOJOVACÍ
  6
Continuous
100
AcDbLine
 10
6426.406029017768
 20
-2288.144282379966
 30
0.0
 11
6426.406029017768
 21
-2286.944355603234
 31
0.0
  0
LINE
  5
42B1
330
1F
100
AcDbEntity
  8
SPOJOVACÍ
  6
Continuous
100
AcDbLine
 10
6427.121334203936
 20
-2286.607631965351
 30
0.0
 11
6426.406029017768
 21
-2286.944355603234
 31
0.0
  0
LINE
  5
42B2
330
1F
100
AcDbEntity
  8
NOSNÉ KONSTRUKCE
100
AcDbLine
 10
6249.335655155946
 20
-2126.711903127753
 30
0.0
 11
6458.173809780679
 21
-2126.711903127753
 31
0.0
  0
LINE
  5
42B3
330
1F
100
AcDbEntity
  8
CETRIS
100
AcDbLine
 10
6249.527464720043
 20
-2125.67047923178
 30
0.0
 11
6459.753396833185
 21
-2125.670479231779
 31
0.0
  0
LINE
  5
42B4
330
1F
100
AcDbEntity
  8
CETRIS
100
AcDbLine
 10
6251.737625998345
 20
-2113.67047923178
 30
0.0
 11
6459.753396833185
 21
-2113.67047923178
 31
0.0
  0
LINE
  5
42B5
330
1F
100
AcDbEntity
  8
SPOJOVACÍ
  6
Continuous
100
AcDbLine
 10
6427.121334203936
 20
-2115.207129646395
 30
0.0
 11
6426.406029017768
 21
-2114.870406008511
 31
0.0
  0
LINE
  5
42B6
330
1F
100
AcDbEntity
  8
SPOJOVACÍ
  6
Continuous
100
AcDbLine
 10
6436.606336795036
 20
-2114.870406008511
 30
0.0
 11
6426.406029017768
 21
-2114.870406008511
 31
0.0
  0
LINE
  5
42B7
330
1F
100
AcDbEntity
  8
SPOJOVACÍ
  6
Continuous
100
AcDbLine
 10
6436.606336795036
 20
-2113.67047923178
 30
0.0
 11
6426.406029017768
 21
-2113.67047923178
 31
0.0
  0
LINE
  5
42B8
330
1F
100
AcDbEntity
  8
SPOJOVACÍ
  6
Continuous
100
AcDbLine
 10
6426.406029017768
 20
-2113.67047923178
 30
0.0
 11
6426.406029017768
 21
-2114.870406008511
 31
0.0
  0
LINE
  5
42B9
330
1F
100
AcDbEntity
  8
POPIS
100
AcDbLine
 10
6587.736467243266
 20
-2327.384015154136
 30
0.0
 11
6633.870415139502
 21
-2076.901219988805
 31
0.0
  0
LINE
  5
42BA
330
1F
100
AcDbEntity
  8
POPIS
100
AcDbLine
 10
6582.652368720324
 20
-2327.384015154136
 30
0.0
 11
6628.786316616559
 21
-2076.901219988805
 31
0.0
  0
LINE
  5
42BB
330
1F
100
AcDbEntity
  8
SPOJOVACÍ
  6
Continuous
100
AcDbLine
 10
6433.528385084016
 20
-2137.168580184891
 30
0.0
 11
6429.483980724423
 21
-2138.528497198433
 31
0.0
  0
LINE
  5
42BC
330
1F
100
AcDbEntity
  8
SPOJOVACÍ
  6
Continuous
100
AcDbLine
 10
6429.106329353477
 20
-2138.150845825305
 30
0.0
 11
6429.483980724423
 21
-2137.932254513279
 31
0.0
  0
LINE
  5
42BD
330
1F
100
AcDbEntity
  8
SPOJOVACÍ
  6
Continuous
100
AcDbLine
 10
6433.906036459326
 20
-2136.950919048843
 30
0.0
 11
6429.106329353477
 21
-2138.150845825305
 31
0.0
  0
LINE
  5
42BE
330
1F
100
AcDbEntity
  8
SPOJOVACÍ
  6
Continuous
100
AcDbLine
 10
6432.855867985587
 20
-2137.388101672889
 30
0.0
 11
6432.855867985587
 21
-2138.635467414777
 31
0.0
  0
LINE
  5
42C0
330
1F
100
AcDbEntity
  8
SPOJOVACÍ
  6
Continuous
100
AcDbLine
 10
6429.929534931968
 20
-2283.068313062307
 30
0.0
 11
6429.31654908282
 21
-2284.48218027201
 31
0.0
  0
LINE
  5
42C1
330
1F
100
AcDbEntity
  8
SPOJOVACÍ
  6
Continuous
100
AcDbLine
 10
6433.349791331808
 20
-2283.81245369905
 30
0.0
 11
6432.921910467509
 21
-2282.331613832
 31
0.0
  0
LINE
  5
42C2
330
1F
100
AcDbEntity
  8
CETRIS
100
AcDbLine
 10
6459.753396833185
 20
-2300.144282379967
 30
0.0
 11
6459.753396833185
 21
-2276.144282379967
 31
0.0
  0
LINE
  5
42C3
330
1F
100
AcDbEntity
  8
SPOJOVACÍ
  6
Continuous
100
AcDbLine
 10
6436.606336795036
 20
-2288.144282379966
 30
0.0
 11
6436.606336795036
 21
-2286.944355603234
 31
0.0
  0
LINE
  5
42C4
330
1F
100
AcDbEntity
  8
SPOJOVACÍ
  6
Continuous
100
AcDbLine
 10
6435.256651711485
 20
-2286.20021496676
 30
0.0
 11
6434.146021811127
 21
-2285.131442977348
 31
0.0
  0
LINE
  5
42C5
330
1F
100
AcDbEntity
  8
SPOJOVACÍ
  6
Continuous
100
AcDbLine
 10
6436.606336795036
 20
-2286.944355603234
 30
0.0
 11
6435.256651711485
 21
-2286.20021496676
 31
0.0
  0
LINE
  5
42C6
330
1F
100
AcDbEntity
  8
SPOJOVACÍ
  6
Continuous
100
AcDbLine
 10
6429.31654908282
 20
-2284.48218027201
 30
0.0
 11
6428.358468012835
 21
-2285.689548454909
 31
0.0
  0
LINE
  5
42C7
330
1F
100
AcDbEntity
  8
SPOJOVACÍ
  6
Continuous
100
AcDbLine
 10
6428.358468012835
 20
-2285.689548454909
 30
0.0
 11
6427.121334203936
 21
-2286.607631965351
 31
0.0
  0
LINE
  5
42C8
330
1F
100
AcDbEntity
  8
SPOJOVACÍ
  6
Continuous
100
AcDbLine
 10
6434.146021811127
 20
-2285.131442977348
 30
0.0
 11
6433.349791331808
 21
-2283.81245369905
 31
0.0
  0
LINE
  5
42CA
330
1F
100
AcDbEntity
  8
SPOJOVACÍ
  6
Continuous
100
AcDbLine
 10
6431.506182906402
 20
-2252.379023032015
 30
0.0
 11
6431.151785925273
 21
-2255.215129033284
 31
0.0
  0
LINE
  5
42CB
330
1F
100
AcDbEntity
  8
SPOJOVACÍ
  6
Continuous
100
AcDbLine
 10
6432.25962529798
 20
-2258.409352716029
 30
0.0
 11
6431.969410452826
 21
-2256.088564105673
 31
0.0
  0
LINE
  5
42CC
330
1F
100
AcDbEntity
  8
SPOJOVACÍ
  6
Continuous
100
AcDbLine
 10
6431.8922058603
 20
-2255.46813684982
 30
0.0
 11
6431.506182906402
 21
-2252.379023032015
 31
0.0
  0
LINE
  5
42CD
330
1F
100
AcDbEntity
  8
SPOJOVACÍ
  6
Continuous
100
AcDbLine
 10
6431.080162388049
 20
-2255.784396620351
 30
0.0
 11
6430.812271759738
 21
-2257.929382005335
 31
0.0
  0
LINE
  5
42CE
330
1F
100
AcDbEntity
  8
SPOJOVACÍ
  6
Continuous
100
AcDbLine
 10
6433.0874817588
 20
-2258.772121276292
 30
0.0
 11
6432.709830383489
 21
-2258.554460140243
 31
0.0
  0
LINE
  5
42CF
330
1F
100
AcDbEntity
  8
SPOJOVACÍ
  6
Continuous
100
AcDbLine
 10
6433.0874817588
 20
-2258.772121276292
 30
0.0
 11
6432.709830383489
 21
-2259.150702825398
 31
0.0
  0
LINE
  5
42D0
330
1F
100
AcDbEntity
  8
SPOJOVACÍ
  6
Continuous
100
AcDbLine
 10
6429.971392842368
 20
-2258.138671559521
 30
0.0
 11
6430.349044213314
 21
-2257.760090010692
 31
0.0
  0
LINE
  5
42D1
330
1F
100
AcDbEntity
  8
SPOJOVACÍ
  6
Continuous
100
AcDbLine
 10
6429.971392842368
 20
-2258.138671559521
 30
0.0
 11
6430.349044213314
 21
-2258.35633269557
 31
0.0
  0
LINE
  5
42D2
330
1F
100
AcDbEntity
  8
SPOJOVACÍ
  6
Continuous
100
AcDbLine
 10
6432.709830383489
 20
-2258.554460140243
 30
0.0
 11
6430.349044213314
 21
-2257.760090010692
 31
0.0
  0
LINE
  5
42D3
330
1F
100
AcDbEntity
  8
SPOJOVACÍ
  6
Continuous
100
AcDbLine
 10
6432.709830383489
 20
-2259.150702825398
 30
0.0
 11
6430.349044213314
 21
-2258.35633269557
 31
0.0
  0
LINE
  5
42D4
330
1F
100
AcDbEntity
  8
SPOJOVACÍ
  6
Continuous
100
AcDbLine
 10
6433.0874817588
 20
-2258.772121276292
 30
0.0
 11
6429.971392842368
 21
-2258.138671559521
 31
0.0
  0
LINE
  5
42D5
330
1F
100
AcDbEntity
  8
SPOJOVACÍ
  6
Continuous
100
AcDbLine
 10
6432.522865048328
 20
-2255.758351697972
 30
0.0
 11
6432.145213677383
 21
-2255.539760385953
 31
0.0
  0
LINE
  5
42D6
330
1F
100
AcDbEntity
  8
SPOJOVACÍ
  6
Continuous
100
AcDbLine
 10
6432.522865048328
 20
-2255.758351697972
 30
0.0
 11
6432.145213677383
 21
-2256.1360030711
 31
0.0
  0
LINE
  5
42D7
330
1F
100
AcDbEntity
  8
SPOJOVACÍ
  6
Continuous
100
AcDbLine
 10
6430.368577906872
 20
-2255.447672982198
 30
0.0
 11
6430.746229277817
 21
-2255.069091433368
 31
0.0
  0
LINE
  5
42D8
330
1F
100
AcDbEntity
  8
SPOJOVACÍ
  6
Continuous
100
AcDbLine
 10
6430.368577906872
 20
-2255.447672982198
 30
0.0
 11
6430.746229277817
 21
-2255.665334118515
 31
0.0
  0
LINE
  5
42D9
330
1F
100
AcDbEntity
  8
SPOJOVACÍ
  6
Continuous
100
AcDbLine
 10
6432.145213677383
 20
-2255.539760385953
 30
0.0
 11
6430.746229277817
 21
-2255.069091433368
 31
0.0
  0
LINE
  5
42DA
330
1F
100
AcDbEntity
  8
SPOJOVACÍ
  6
Continuous
100
AcDbLine
 10
6432.145213677383
 20
-2256.1360030711
 30
0.0
 11
6430.746229277817
 21
-2255.665334118515
 31
0.0
  0
LINE
  5
42DB
330
1F
100
AcDbEntity
  8
SPOJOVACÍ
  6
Continuous
100
AcDbLine
 10
6432.522865048328
 20
-2255.758351697972
 30
0.0
 11
6430.368577906872
 21
-2255.447672982198
 31
0.0
  0
LINE
  5
42DC
330
1F
100
AcDbEntity
  8
SPOJOVACÍ
  6
Continuous
100
AcDbLine
 10
6429.526768812163
 20
-2260.813857148284
 30
0.0
 11
6429.904420183108
 21
-2261.031518284333
 31
0.0
  0
LINE
  5
42DD
330
1F
100
AcDbEntity
  8
SPOJOVACÍ
  6
Continuous
100
AcDbLine
 10
6433.273516916621
 20
-2261.568229718563
 30
0.0
 11
6429.904420183108
 21
-2260.435275599178
 31
0.0
  0
LINE
  5
42DE
330
1F
100
AcDbEntity
  8
SPOJOVACÍ
  6
Continuous
100
AcDbLine
 10
6433.652098464905
 20
-2261.786821030589
 30
0.0
 11
6429.526768812163
 21
-2260.813857148284
 31
0.0
  0
LINE
  5
42DF
330
1F
100
AcDbEntity
  8
SPOJOVACÍ
  6
Continuous
100
AcDbLine
 10
6429.526768812163
 20
-2260.813857148284
 30
0.0
 11
6429.904420183108
 21
-2260.435275599178
 31
0.0
  0
LINE
  5
42E0
330
1F
100
AcDbEntity
  8
SPOJOVACÍ
  6
Continuous
100
AcDbLine
 10
6432.855867985587
 20
-2273.788879323678
 30
0.0
 11
6432.855867985587
 21
-2271.268102916969
 31
0.0
  0
LINE
  5
42E1
330
1F
100
AcDbEntity
  8
SPOJOVACÍ
  6
Continuous
100
AcDbLine
 10
6430.156497822851
 20
-2275.998046838635
 30
0.0
 11
6430.156497822851
 21
-2273.479130783605
 31
0.0
  0
LINE
  5
42E2
330
1F
100
AcDbEntity
  8
SPOJOVACÍ
  6
Continuous
100
AcDbLine
 10
6433.906036459326
 20
-2274.224201596051
 30
0.0
 11
6429.106329353477
 21
-2273.024274819312
 31
0.0
  0
LINE
  5
42E3
330
1F
100
AcDbEntity
  8
SPOJOVACÍ
  6
Continuous
100
AcDbLine
 10
6433.528385084016
 20
-2274.005610284024
 30
0.0
 11
6429.483980724423
 21
-2272.64662344646
 31
0.0
  0
LINE
  5
42E4
330
1F
100
AcDbEntity
  8
SPOJOVACÍ
  6
Continuous
100
AcDbLine
 10
6433.528385084016
 20
-2274.601852969179
 30
0.0
 11
6429.483980724423
 21
-2273.242866131338
 31
0.0
  0
LINE
  5
42E5
330
1F
100
AcDbEntity
  8
SPOJOVACÍ
  6
Continuous
100
AcDbLine
 10
6432.855867985587
 20
-2270.673720583494
 30
0.0
 11
6432.855867985587
 21
-2268.145502770625
 31
0.0
  0
LINE
  5
42E6
330
1F
100
AcDbEntity
  8
SPOJOVACÍ
  6
Continuous
100
AcDbLine
 10
6430.156497822851
 20
-2272.882888098451
 30
0.0
 11
6430.156497822851
 21
-2270.354670285582
 31
0.0
  0
LINE
  5
42E7
330
1F
100
AcDbEntity
  8
SPOJOVACÍ
  6
Continuous
100
AcDbLine
 10
6430.156497822851
 20
-2269.760287952107
 30
0.0
 11
6430.156497822851
 21
-2267.239511545398
 31
0.0
  0
LINE
  5
42E8
330
1F
100
AcDbEntity
  8
SPOJOVACÍ
  6
Continuous
100
AcDbLine
 10
6432.855867985587
 20
-2267.540888503339
 30
0.0
 11
6432.855867985587
 21
-2265.022902624012
 31
0.0
  0
LINE
  5
42E9
330
1F
100
AcDbEntity
  8
SPOJOVACÍ
  6
Continuous
100
AcDbLine
 10
6432.855867985587
 20
-2264.426659938857
 30
0.0
 11
6432.855867985587
 21
-2263.179294196969
 31
0.0
  0
LINE
  5
42EA
330
1F
100
AcDbEntity
  8
SPOJOVACÍ
  6
Continuous
100
AcDbLine
 10
6430.156497822851
 20
-2266.638617981465
 30
0.0
 11
6430.156497822851
 21
-2264.119701926436
 31
0.0
  0
LINE
  5
42EB
330
1F
100
AcDbEntity
  8
SPOJOVACÍ
  6
Continuous
100
AcDbLine
 10
6430.156497822851
 20
-2263.516017834852
 30
0.0
 11
6430.156497822851
 21
-2263.179294196969
 31
0.0
  0
LINE
  5
42EC
330
1F
100
AcDbEntity
  8
SPOJOVACÍ
  6
Continuous
100
AcDbLine
 10
6432.855867985587
 20
-2263.179294196969
 30
0.0
 11
6432.706109682865
 21
-2261.982157947612
 31
0.0
  0
LINE
  5
42ED
330
1F
100
AcDbEntity
  8
SPOJOVACÍ
  6
Continuous
100
AcDbLine
 10
6430.402064234319
 20
-2261.208251685682
 30
0.0
 11
6430.156497822851
 21
-2263.179294196969
 31
0.0
  0
LINE
  5
42EE
330
1F
100
AcDbEntity
  8
SPOJOVACÍ
  6
Continuous
100
AcDbLine
 10
6429.106329353477
 20
-2273.024274819312
 30
0.0
 11
6429.483980724423
 21
-2272.64662344646
 31
0.0
  0
LINE
  5
42EF
330
1F
100
AcDbEntity
  8
SPOJOVACÍ
  6
Continuous
100
AcDbLine
 10
6429.106329353477
 20
-2273.024274819312
 30
0.0
 11
6429.483980724423
 21
-2273.242866131338
 31
0.0
  0
LINE
  5
42F0
330
1F
100
AcDbEntity
  8
SPOJOVACÍ
  6
Continuous
100
AcDbLine
 10
6433.652098464905
 20
-2261.786821030589
 30
0.0
 11
6433.273516916621
 21
-2261.568229718563
 31
0.0
  0
LINE
  5
42F1
330
1F
100
AcDbEntity
  8
SPOJOVACÍ
  6
Continuous
100
AcDbLine
 10
6433.652098464905
 20
-2261.786821030589
 30
0.0
 11
6433.273516916621
 21
-2262.164472403717
 31
0.0
  0
LINE
  5
42F2
330
1F
100
AcDbEntity
  8
SPOJOVACÍ
  6
Continuous
100
AcDbLine
 10
6433.273516916621
 20
-2262.164472403717
 30
0.0
 11
6429.904420183108
 21
-2261.031518284333
 31
0.0
  0
LINE
  5
42F3
330
1F
100
AcDbEntity
  8
SPOJOVACÍ
  6
Continuous
100
AcDbLine
 10
6433.906036459326
 20
-2271.104391976812
 30
0.0
 11
6429.106329353477
 21
-2269.90446520035
 31
0.0
  0
LINE
  5
42F4
330
1F
100
AcDbEntity
  8
SPOJOVACÍ
  6
Continuous
100
AcDbLine
 10
6433.906036459326
 20
-2271.104391976812
 30
0.0
 11
6433.528385084016
 21
-2270.885800664786
 31
0.0
  0
LINE
  5
42F5
330
1F
100
AcDbEntity
  8
SPOJOVACÍ
  6
Continuous
100
AcDbLine
 10
6433.906036459326
 20
-2271.104391976812
 30
0.0
 11
6433.528385084016
 21
-2271.48204334994
 31
0.0
  0
LINE
  5
42F6
330
1F
100
AcDbEntity
  8
SPOJOVACÍ
  6
Continuous
100
AcDbLine
 10
6429.106329353477
 20
-2269.90446520035
 30
0.0
 11
6429.483980724423
 21
-2269.52588365152
 31
0.0
  0
LINE
  5
42F7
330
1F
100
AcDbEntity
  8
SPOJOVACÍ
  6
Continuous
100
AcDbLine
 10
6429.106329353477
 20
-2269.90446520035
 30
0.0
 11
6429.483980724423
 21
-2270.122126336667
 31
0.0
  0
LINE
  5
42F8
330
1F
100
AcDbEntity
  8
SPOJOVACÍ
  6
Continuous
100
AcDbLine
 10
6433.528385084016
 20
-2270.885800664786
 30
0.0
 11
6429.483980724423
 21
-2269.52588365152
 31
0.0
  0
LINE
  5
42F9
330
1F
100
AcDbEntity
  8
SPOJOVACÍ
  6
Continuous
100
AcDbLine
 10
6433.528385084016
 20
-2271.48204334994
 30
0.0
 11
6429.483980724423
 21
-2270.122126336667
 31
0.0
  0
LINE
  5
42FA
330
1F
100
AcDbEntity
  8
SPOJOVACÍ
  6
Continuous
100
AcDbLine
 10
6433.906036459326
 20
-2267.984582357843
 30
0.0
 11
6429.106329353477
 21
-2266.784655581381
 31
0.0
  0
LINE
  5
42FB
330
1F
100
AcDbEntity
  8
SPOJOVACÍ
  6
Continuous
100
AcDbLine
 10
6433.906036459326
 20
-2267.984582357843
 30
0.0
 11
6433.528385084016
 21
-2267.765991045824
 31
0.0
  0
LINE
  5
42FC
330
1F
100
AcDbEntity
  8
SPOJOVACÍ
  6
Continuous
100
AcDbLine
 10
6433.906036459326
 20
-2267.984582357843
 30
0.0
 11
6433.528385084016
 21
-2268.362233730971
 31
0.0
  0
LINE
  5
42FD
330
1F
100
AcDbEntity
  8
SPOJOVACÍ
  6
Continuous
100
AcDbLine
 10
6429.106329353477
 20
-2266.784655581381
 30
0.0
 11
6429.483980724423
 21
-2266.406074032551
 31
0.0
  0
LINE
  5
42FE
330
1F
100
AcDbEntity
  8
SPOJOVACÍ
  6
Continuous
100
AcDbLine
 10
6429.106329353477
 20
-2266.784655581381
 30
0.0
 11
6429.483980724423
 21
-2267.002316717429
 31
0.0
  0
LINE
  5
42FF
330
1F
100
AcDbEntity
  8
SPOJOVACÍ
  6
Continuous
100
AcDbLine
 10
6433.528385084016
 20
-2267.765991045824
 30
0.0
 11
6429.483980724423
 21
-2266.406074032551
 31
0.0
  0
LINE
  5
4300
330
1F
100
AcDbEntity
  8
SPOJOVACÍ
  6
Continuous
100
AcDbLine
 10
6433.528385084016
 20
-2268.362233730971
 30
0.0
 11
6429.483980724423
 21
-2267.002316717429
 31
0.0
  0
LINE
  5
4301
330
1F
100
AcDbEntity
  8
SPOJOVACÍ
  6
Continuous
100
AcDbLine
 10
6433.906036459326
 20
-2264.863842562903
 30
0.0
 11
6429.106329353477
 21
-2263.663915786441
 31
0.0
  0
LINE
  5
4302
330
1F
100
AcDbEntity
  8
SPOJOVACÍ
  6
Continuous
100
AcDbLine
 10
6433.906036459326
 20
-2264.863842562903
 30
0.0
 11
6433.528385084016
 21
-2264.646181426855
 31
0.0
  0
LINE
  5
4303
330
1F
100
AcDbEntity
  8
SPOJOVACÍ
  6
Continuous
100
AcDbLine
 10
6433.906036459326
 20
-2264.863842562903
 30
0.0
 11
6433.528385084016
 21
-2265.242424112009
 31
0.0
  0
LINE
  5
4304
330
1F
100
AcDbEntity
  8
SPOJOVACÍ
  6
Continuous
100
AcDbLine
 10
6429.106329353477
 20
-2263.663915786441
 30
0.0
 11
6429.483980724423
 21
-2263.286264413312
 31
0.0
  0
LINE
  5
4305
330
1F
100
AcDbEntity
  8
SPOJOVACÍ
  6
Continuous
100
AcDbLine
 10
6429.106329353477
 20
-2263.663915786441
 30
0.0
 11
6429.483980724423
 21
-2263.882507098467
 31
0.0
  0
LINE
  5
4306
330
1F
100
AcDbEntity
  8
SPOJOVACÍ
  6
Continuous
100
AcDbLine
 10
6433.528385084016
 20
-2264.646181426855
 30
0.0
 11
6429.483980724423
 21
-2263.286264413312
 31
0.0
  0
LINE
  5
4307
330
1F
100
AcDbEntity
  8
SPOJOVACÍ
  6
Continuous
100
AcDbLine
 10
6433.528385084016
 20
-2265.242424112009
 30
0.0
 11
6429.483980724423
 21
-2263.882507098467
 31
0.0
  0
LINE
  5
4308
330
1F
100
AcDbEntity
  8
SPOJOVACÍ
  6
Continuous
100
AcDbLine
 10
6430.156497822851
 20
-2281.544685108878
 30
0.0
 11
6429.929534931968
 21
-2283.068313062307
 31
0.0
  0
LINE
  5
4309
330
1F
100
AcDbEntity
  8
SPOJOVACÍ
  6
Continuous
100
AcDbLine
 10
6432.921910467509
 20
-2282.331613832
 30
0.0
 11
6432.855867985587
 21
-2281.544685108878
 31
0.0
  0
LINE
  5
430A
330
1F
100
AcDbEntity
  8
SPOJOVACÍ
  6
Continuous
100
AcDbLine
 10
6430.156497822851
 20
-2281.544685108878
 30
0.0
 11
6430.156497822851
 21
-2276.601730929949
 31
0.0
  0
LINE
  5
430B
330
1F
100
AcDbEntity
  8
SPOJOVACÍ
  6
Continuous
100
AcDbLine
 10
6432.855867985587
 20
-2281.544685108878
 30
0.0
 11
6432.855867985587
 21
-2277.506791979198
 31
0.0
  0
LINE
  5
430C
330
1F
100
AcDbEntity
  8
SPOJOVACÍ
  6
Continuous
100
AcDbLine
 10
6432.855867985587
 20
-2276.911479470022
 30
0.0
 11
6432.855867985587
 21
-2274.392563414993
 31
0.0
  0
LINE
  5
430D
330
1F
100
AcDbEntity
  8
SPOJOVACÍ
  6
Continuous
100
AcDbLine
 10
6433.906036459326
 20
-2277.344011215013
 30
0.0
 11
6429.106329353477
 21
-2276.14408443855
 31
0.0
  0
LINE
  5
430E
330
1F
100
AcDbEntity
  8
SPOJOVACÍ
  6
Continuous
100
AcDbLine
 10
6433.906036459326
 20
-2277.344011215013
 30
0.0
 11
6433.528385084016
 21
-2277.126350078964
 31
0.0
  0
LINE
  5
430F
330
1F
100
AcDbEntity
  8
SPOJOVACÍ
  6
Continuous
100
AcDbLine
 10
6433.906036459326
 20
-2277.344011215013
 30
0.0
 11
6433.528385084016
 21
-2277.722592763843
 31
0.0
  0
LINE
  5
4310
330
1F
100
AcDbEntity
  8
SPOJOVACÍ
  6
Continuous
100
AcDbLine
 10
6429.106329353477
 20
-2276.14408443855
 30
0.0
 11
6429.483980724423
 21
-2275.766433065422
 31
0.0
  0
LINE
  5
4311
330
1F
100
AcDbEntity
  8
SPOJOVACÍ
  6
Continuous
100
AcDbLine
 10
6429.106329353477
 20
-2276.14408443855
 30
0.0
 11
6429.483980724423
 21
-2276.362675750577
 31
0.0
  0
LINE
  5
4312
330
1F
100
AcDbEntity
  8
SPOJOVACÍ
  6
Continuous
100
AcDbLine
 10
6433.528385084016
 20
-2277.126350078964
 30
0.0
 11
6429.483980724423
 21
-2275.766433065422
 31
0.0
  0
LINE
  5
4313
330
1F
100
AcDbEntity
  8
SPOJOVACÍ
  6
Continuous
100
AcDbLine
 10
6433.528385084016
 20
-2277.722592763843
 30
0.0
 11
6429.483980724423
 21
-2276.362675750577
 31
0.0
  0
LINE
  5
4314
330
1F
100
AcDbEntity
  8
SPOJOVACÍ
  6
Continuous
100
AcDbLine
 10
6433.906036459326
 20
-2274.224201596051
 30
0.0
 11
6433.528385084016
 21
-2274.005610284024
 31
0.0
  0
LINE
  5
4315
330
1F
100
AcDbEntity
  8
SPOJOVACÍ
  6
Continuous
100
AcDbLine
 10
6433.906036459326
 20
-2274.224201596051
 30
0.0
 11
6433.528385084016
 21
-2274.601852969179
 31
0.0
  0
LINE
  5
4316
330
1F
100
AcDbEntity
  8
SPOJOVACÍ
  6
Continuous
100
AcDbLine
 10
6432.628905090338
 20
-2261.361730691758
 30
0.0
 11
6432.338690240818
 21
-2259.040011905694
 31
0.0
  0
LINE
  5
4317
330
1F
100
AcDbEntity
  8
SPOJOVACÍ
  6
Continuous
100
AcDbLine
 10
6430.74064822688
 20
-2258.501440119784
 30
0.0
 11
6430.473687771542
 21
-2260.638053922637
 31
0.0
  0
LINE
  5
4318
330
1F
100
AcDbEntity
  8
SPOJOVACÍ
  6
Continuous
100
AcDbLine
 10
6429.106329353477
 20
-2138.150845825305
 30
0.0
 11
6429.483980724423
 21
-2138.528497198433
 31
0.0
  0
LINE
  5
4319
330
1F
100
AcDbEntity
  8
SPOJOVACÍ
  6
Continuous
100
AcDbLine
 10
6433.273516916621
 20
-2139.650289208029
 30
0.0
 11
6429.904420183108
 21
-2140.783243327413
 31
0.0
  0
LINE
  5
431A
330
1F
100
AcDbEntity
  8
SPOJOVACÍ
  6
Continuous
100
AcDbLine
 10
6433.652098464905
 20
-2140.027940581157
 30
0.0
 11
6433.273516916621
 21
-2139.650289208029
 31
0.0
  0
LINE
  5
431B
330
1F
100
AcDbEntity
  8
SPOJOVACÍ
  6
Continuous
100
AcDbLine
 10
6433.652098464905
 20
-2140.027940581157
 30
0.0
 11
6433.273516916621
 21
-2140.246531893183
 31
0.0
  0
LINE
  5
431C
330
1F
100
AcDbEntity
  8
SPOJOVACÍ
  6
Continuous
100
AcDbLine
 10
6430.402064234319
 20
-2140.606509926064
 30
0.0
 11
6430.156497822851
 21
-2138.635467414777
 31
0.0
  0
LINE
  5
431D
330
1F
100
AcDbEntity
  8
SPOJOVACÍ
  6
Continuous
100
AcDbLine
 10
6432.855867985587
 20
-2138.635467414777
 30
0.0
 11
6432.706109682865
 21
-2139.832603664134
 31
0.0
  0
LINE
  5
431E
330
1F
100
AcDbEntity
  8
SPOJOVACÍ
  6
Continuous
100
AcDbLine
 10
6430.156497822851
 20
-2138.298743776894
 30
0.0
 11
6430.156497822851
 21
-2138.635467414777
 31
0.0
  0
LINE
  5
431F
330
1F
100
AcDbEntity
  8
SPOJOVACÍ
  6
Continuous
100
AcDbLine
 10
6432.522865048328
 20
-2146.056409913774
 30
0.0
 11
6430.368577906872
 21
-2146.367088629548
 31
0.0
  0
LINE
  5
4320
330
1F
100
AcDbEntity
  8
SPOJOVACÍ
  6
Continuous
100
AcDbLine
 10
6432.145213677383
 20
-2145.678758540646
 30
0.0
 11
6430.746229277817
 21
-2146.14942749323
 31
0.0
  0
LINE
  5
4321
330
1F
100
AcDbEntity
  8
SPOJOVACÍ
  6
Continuous
100
AcDbLine
 10
6432.145213677383
 20
-2146.275001225793
 30
0.0
 11
6430.746229277817
 21
-2146.745670178378
 31
0.0
  0
LINE
  5
4322
330
1F
100
AcDbEntity
  8
SPOJOVACÍ
  6
Continuous
100
AcDbLine
 10
6430.368577906872
 20
-2146.367088629548
 30
0.0
 11
6430.746229277817
 21
-2146.14942749323
 31
0.0
  0
LINE
  5
4323
330
1F
100
AcDbEntity
  8
SPOJOVACÍ
  6
Continuous
100
AcDbLine
 10
6430.368577906872
 20
-2146.367088629548
 30
0.0
 11
6430.746229277817
 21
-2146.745670178378
 31
0.0
  0
LINE
  5
4324
330
1F
100
AcDbEntity
  8
SPOJOVACÍ
  6
Continuous
100
AcDbLine
 10
6432.522865048328
 20
-2146.056409913774
 30
0.0
 11
6432.145213677383
 21
-2145.678758540646
 31
0.0
  0
LINE
  5
4325
330
1F
100
AcDbEntity
  8
SPOJOVACÍ
  6
Continuous
100
AcDbLine
 10
6432.522865048328
 20
-2146.056409913774
 30
0.0
 11
6432.145213677383
 21
-2146.275001225793
 31
0.0
  0
LINE
  5
4326
330
1F
100
AcDbEntity
  8
SPOJOVACÍ
  6
Continuous
100
AcDbLine
 10
6433.0874817588
 20
-2143.042640335454
 30
0.0
 11
6429.971392842368
 21
-2143.676090052224
 31
0.0
  0
LINE
  5
4327
330
1F
100
AcDbEntity
  8
SPOJOVACÍ
  6
Continuous
100
AcDbLine
 10
6432.709830383489
 20
-2142.664058786348
 30
0.0
 11
6430.349044213314
 21
-2143.458428916176
 31
0.0
  0
LINE
  5
4328
330
1F
100
AcDbEntity
  8
SPOJOVACÍ
  6
Continuous
100
AcDbLine
 10
6432.709830383489
 20
-2143.260301471503
 30
0.0
 11
6430.349044213314
 21
-2144.054671601054
 31
0.0
  0
LINE
  5
4329
330
1F
100
AcDbEntity
  8
SPOJOVACÍ
  6
Continuous
100
AcDbLine
 10
6429.971392842368
 20
-2143.676090052224
 30
0.0
 11
6430.349044213314
 21
-2143.458428916176
 31
0.0
  0
LINE
  5
432A
330
1F
100
AcDbEntity
  8
SPOJOVACÍ
  6
Continuous
100
AcDbLine
 10
6429.971392842368
 20
-2143.676090052224
 30
0.0
 11
6430.349044213314
 21
-2144.054671601054
 31
0.0
  0
LINE
  5
432B
330
1F
100
AcDbEntity
  8
SPOJOVACÍ
  6
Continuous
100
AcDbLine
 10
6433.0874817588
 20
-2143.042640335454
 30
0.0
 11
6432.709830383489
 21
-2142.664058786348
 31
0.0
  0
LINE
  5
432C
330
1F
100
AcDbEntity
  8
SPOJOVACÍ
  6
Continuous
100
AcDbLine
 10
6433.0874817588
 20
-2143.042640335454
 30
0.0
 11
6432.709830383489
 21
-2143.260301471503
 31
0.0
  0
LINE
  5
432D
330
1F
100
AcDbEntity
  8
SPOJOVACÍ
  6
Continuous
100
AcDbLine
 10
6429.526768812163
 20
-2141.000904463461
 30
0.0
 11
6429.904420183108
 21
-2141.379486012568
 31
0.0
  0
LINE
  5
432E
330
1F
100
AcDbEntity
  8
SPOJOVACÍ
  6
Continuous
100
AcDbLine
 10
6430.74064822688
 20
-2143.313321491962
 30
0.0
 11
6430.473687771542
 21
-2141.176707689109
 31
0.0
  0
LINE
  5
432F
330
1F
100
AcDbEntity
  8
SPOJOVACÍ
  6
Continuous
100
AcDbLine
 10
6431.080162388049
 20
-2146.030364991395
 30
0.0
 11
6430.812271759738
 21
-2143.885379606411
 31
0.0
  0
LINE
  5
4330
330
1F
100
AcDbEntity
  8
SPOJOVACÍ
  6
Continuous
100
AcDbLine
 10
6431.8922058603
 20
-2146.346624761926
 30
0.0
 11
6431.506182906402
 21
-2149.435738579731
 31
0.0
  0
LINE
  5
4331
330
1F
100
AcDbEntity
  8
SPOJOVACÍ
  6
Continuous
100
AcDbLine
 10
6432.25962529798
 20
-2143.405408895717
 30
0.0
 11
6431.969410452826
 21
-2145.726197506073
 31
0.0
  0
LINE
  5
4332
330
1F
100
AcDbEntity
  8
SPOJOVACÍ
  6
Continuous
100
AcDbLine
 10
6431.506182906402
 20
-2149.435738579731
 30
0.0
 11
6431.151785925273
 21
-2146.599632578462
 31
0.0
  0
LINE
  5
4333
330
1F
100
AcDbEntity
  8
SPOJOVACÍ
  6
Continuous
100
AcDbLine
 10
6433.652098464905
 20
-2140.027940581157
 30
0.0
 11
6429.526768812163
 21
-2141.000904463461
 31
0.0
  0
LINE
  5
4334
330
1F
100
AcDbEntity
  8
SPOJOVACÍ
  6
Continuous
100
AcDbLine
 10
6433.273516916621
 20
-2140.246531893183
 30
0.0
 11
6429.904420183108
 21
-2141.379486012568
 31
0.0
  0
LINE
  5
4335
330
1F
100
AcDbEntity
  8
SPOJOVACÍ
  6
Continuous
100
AcDbLine
 10
6429.526768812163
 20
-2141.000904463461
 30
0.0
 11
6429.904420183108
 21
-2140.783243327413
 31
0.0
  0
LINE
  5
4336
330
1F
100
AcDbEntity
  8
SPOJOVACÍ
  6
Continuous
100
AcDbLine
 10
6432.628905090338
 20
-2140.453030919988
 30
0.0
 11
6432.338690240818
 21
-2142.774749706052
 31
0.0
  0
LINE
  5
4338
330
1F
100
AcDbEntity
  8
SPOJOVACÍ
  6
Continuous
100
AcDbLine
 10
6433.906036459326
 20
-2127.590560015695
 30
0.0
 11
6433.528385084016
 21
-2127.212908642567
 31
0.0
  0
LINE
  5
4339
330
1F
100
AcDbEntity
  8
SPOJOVACÍ
  6
Continuous
100
AcDbLine
 10
6433.906036459326
 20
-2127.590560015695
 30
0.0
 11
6433.528385084016
 21
-2127.809151327722
 31
0.0
  0
LINE
  5
433A
330
1F
100
AcDbEntity
  8
SPOJOVACÍ
  6
Continuous
100
AcDbLine
 10
6433.528385084016
 20
-2124.092168847903
 30
0.0
 11
6429.483980724423
 21
-2125.452085861169
 31
0.0
  0
LINE
  5
433B
330
1F
100
AcDbEntity
  8
SPOJOVACÍ
  6
Continuous
100
AcDbLine
 10
6433.528385084016
 20
-2124.688411532781
 30
0.0
 11
6429.483980724423
 21
-2126.048328546324
 31
0.0
  0
LINE
  5
433C
330
1F
100
AcDbEntity
  8
SPOJOVACÍ
  6
Continuous
100
AcDbLine
 10
6429.106329353477
 20
-2125.670677173196
 30
0.0
 11
6429.483980724423
 21
-2125.452085861169
 31
0.0
  0
LINE
  5
433D
330
1F
100
AcDbEntity
  8
SPOJOVACÍ
  6
Continuous
100
AcDbLine
 10
6429.106329353477
 20
-2125.670677173196
 30
0.0
 11
6429.483980724423
 21
-2126.048328546324
 31
0.0
  0
LINE
  5
433E
330
1F
100
AcDbEntity
  8
SPOJOVACÍ
  6
Continuous
100
AcDbLine
 10
6433.906036459326
 20
-2124.470750396733
 30
0.0
 11
6433.528385084016
 21
-2124.092168847903
 31
0.0
  0
LINE
  5
433F
330
1F
100
AcDbEntity
  8
SPOJOVACÍ
  6
Continuous
100
AcDbLine
 10
6433.906036459326
 20
-2124.470750396733
 30
0.0
 11
6433.528385084016
 21
-2124.688411532781
 31
0.0
  0
LINE
  5
4340
330
1F
100
AcDbEntity
  8
SPOJOVACÍ
  6
Continuous
100
AcDbLine
 10
6433.906036459326
 20
-2124.470750396733
 30
0.0
 11
6429.106329353477
 21
-2125.670677173196
 31
0.0
  0
LINE
  5
4341
330
1F
100
AcDbEntity
  8
SPOJOVACÍ
  6
Continuous
100
AcDbLine
 10
6432.855867985587
 20
-2124.903282141724
 30
0.0
 11
6432.855867985587
 21
-2127.422198196753
 31
0.0
  0
LINE
  5
4342
330
1F
100
AcDbEntity
  8
SPOJOVACÍ
  6
Continuous
100
AcDbLine
 10
6432.855867985587
 20
-2120.270076502868
 30
0.0
 11
6432.855867985587
 21
-2124.307969632548
 31
0.0
  0
LINE
  5
4343
330
1F
100
AcDbEntity
  8
SPOJOVACÍ
  6
Continuous
100
AcDbLine
 10
6430.156497822851
 20
-2120.270076502868
 30
0.0
 11
6430.156497822851
 21
-2125.213030681797
 31
0.0
  0
LINE
  5
4344
330
1F
100
AcDbEntity
  8
SPOJOVACÍ
  6
Continuous
100
AcDbLine
 10
6436.606336795036
 20
-2114.870406008511
 30
0.0
 11
6435.256651711485
 21
-2115.614546644986
 31
0.0
  0
LINE
  5
4345
330
1F
100
AcDbEntity
  8
SPOJOVACÍ
  6
Continuous
100
AcDbLine
 10
6435.256651711485
 20
-2115.614546644986
 30
0.0
 11
6434.146021811127
 21
-2116.683318634398
 31
0.0
  0
LINE
  5
4346
330
1F
100
AcDbEntity
  8
SPOJOVACÍ
  6
Continuous
100
AcDbLine
 10
6434.146021811127
 20
-2116.683318634398
 30
0.0
 11
6433.349791331808
 21
-2118.002307912695
 31
0.0
  0
LINE
  5
4347
330
1F
100
AcDbEntity
  8
SPOJOVACÍ
  6
Continuous
100
AcDbLine
 10
6433.349791331808
 20
-2118.002307912695
 30
0.0
 11
6432.921910467509
 21
-2119.483147779746
 31
0.0
  0
LINE
  5
4348
330
1F
100
AcDbEntity
  8
SPOJOVACÍ
  6
Continuous
100
AcDbLine
 10
6432.921910467509
 20
-2119.483147779746
 30
0.0
 11
6432.855867985587
 21
-2120.270076502868
 31
0.0
  0
LINE
  5
4349
330
1F
100
AcDbEntity
  8
SPOJOVACÍ
  6
Continuous
100
AcDbLine
 10
6428.358468012835
 20
-2116.125213156837
 30
0.0
 11
6427.121334203936
 21
-2115.207129646395
 31
0.0
  0
LINE
  5
434A
330
1F
100
AcDbEntity
  8
SPOJOVACÍ
  6
Continuous
100
AcDbLine
 10
6436.606336795036
 20
-2113.67047923178
 30
0.0
 11
6436.606336795036
 21
-2114.870406008511
 31
0.0
  0
LINE
  5
434B
330
1F
100
AcDbEntity
  8
SPOJOVACÍ
  6
Continuous
100
AcDbLine
 10
6430.156497822851
 20
-2120.270076502868
 30
0.0
 11
6429.929534931968
 21
-2118.746448549439
 31
0.0
  0
LINE
  5
434C
330
1F
100
AcDbEntity
  8
SPOJOVACÍ
  6
Continuous
100
AcDbLine
 10
6429.929534931968
 20
-2118.746448549439
 30
0.0
 11
6429.31654908282
 21
-2117.332581339736
 31
0.0
  0
LINE
  5
434D
330
1F
100
AcDbEntity
  8
SPOJOVACÍ
  6
Continuous
100
AcDbLine
 10
6429.31654908282
 20
-2117.332581339736
 30
0.0
 11
6428.358468012835
 21
-2116.125213156837
 31
0.0
  0
LINE
  5
434E
330
1F
100
AcDbEntity
  8
SPOJOVACÍ
  6
Continuous
100
AcDbLine
 10
6433.528385084016
 20
-2136.572337499737
 30
0.0
 11
6429.483980724423
 21
-2137.932254513279
 31
0.0
  0
LINE
  5
434F
330
1F
100
AcDbEntity
  8
SPOJOVACÍ
  6
Continuous
100
AcDbLine
 10
6433.906036459326
 20
-2136.950919048843
 30
0.0
 11
6433.528385084016
 21
-2136.572337499737
 31
0.0
  0
LINE
  5
4350
330
1F
100
AcDbEntity
  8
SPOJOVACÍ
  6
Continuous
100
AcDbLine
 10
6433.906036459326
 20
-2136.950919048843
 30
0.0
 11
6433.528385084016
 21
-2137.168580184891
 31
0.0
  0
LINE
  5
4351
330
1F
100
AcDbEntity
  8
SPOJOVACÍ
  6
Continuous
100
AcDbLine
 10
6433.528385084016
 20
-2133.452527880775
 30
0.0
 11
6429.483980724423
 21
-2134.812444894317
 31
0.0
  0
LINE
  5
4352
330
1F
100
AcDbEntity
  8
SPOJOVACÍ
  6
Continuous
100
AcDbLine
 10
6433.528385084016
 20
-2134.048770565922
 30
0.0
 11
6429.483980724423
 21
-2135.408687579195
 31
0.0
  0
LINE
  5
4353
330
1F
100
AcDbEntity
  8
SPOJOVACÍ
  6
Continuous
100
AcDbLine
 10
6429.106329353477
 20
-2135.030106030365
 30
0.0
 11
6429.483980724423
 21
-2134.812444894317
 31
0.0
  0
LINE
  5
4354
330
1F
100
AcDbEntity
  8
SPOJOVACÍ
  6
Continuous
100
AcDbLine
 10
6429.106329353477
 20
-2135.030106030365
 30
0.0
 11
6429.483980724423
 21
-2135.408687579195
 31
0.0
  0
LINE
  5
4355
330
1F
100
AcDbEntity
  8
SPOJOVACÍ
  6
Continuous
100
AcDbLine
 10
6433.906036459326
 20
-2133.830179253903
 30
0.0
 11
6433.528385084016
 21
-2133.452527880775
 31
0.0
  0
LINE
  5
4356
330
1F
100
AcDbEntity
  8
SPOJOVACÍ
  6
Continuous
100
AcDbLine
 10
6433.906036459326
 20
-2133.830179253903
 30
0.0
 11
6433.528385084016
 21
-2134.048770565922
 31
0.0
  0
LINE
  5
4357
330
1F
100
AcDbEntity
  8
SPOJOVACÍ
  6
Continuous
100
AcDbLine
 10
6433.906036459326
 20
-2133.830179253903
 30
0.0
 11
6429.106329353477
 21
-2135.030106030365
 31
0.0
  0
LINE
  5
4358
330
1F
100
AcDbEntity
  8
SPOJOVACÍ
  6
Continuous
100
AcDbLine
 10
6433.528385084016
 20
-2130.332718261806
 30
0.0
 11
6429.483980724423
 21
-2131.692635275078
 31
0.0
  0
LINE
  5
4359
330
1F
100
AcDbEntity
  8
SPOJOVACÍ
  6
Continuous
100
AcDbLine
 10
6433.528385084016
 20
-2130.92896094696
 30
0.0
 11
6429.483980724423
 21
-2132.288877960226
 31
0.0
  0
LINE
  5
435A
330
1F
100
AcDbEntity
  8
SPOJOVACÍ
  6
Continuous
100
AcDbLine
 10
6429.106329353477
 20
-2131.910296411396
 30
0.0
 11
6429.483980724423
 21
-2131.692635275078
 31
0.0
  0
LINE
  5
435B
330
1F
100
AcDbEntity
  8
SPOJOVACÍ
  6
Continuous
100
AcDbLine
 10
6429.106329353477
 20
-2131.910296411396
 30
0.0
 11
6429.483980724423
 21
-2132.288877960226
 31
0.0
  0
LINE
  5
435C
330
1F
100
AcDbEntity
  8
SPOJOVACÍ
  6
Continuous
100
AcDbLine
 10
6433.906036459326
 20
-2130.710369634934
 30
0.0
 11
6433.528385084016
 21
-2130.332718261806
 31
0.0
  0
LINE
  5
435D
330
1F
100
AcDbEntity
  8
SPOJOVACÍ
  6
Continuous
100
AcDbLine
 10
6433.906036459326
 20
-2130.710369634934
 30
0.0
 11
6433.528385084016
 21
-2130.92896094696
 31
0.0
  0
LINE
  5
435E
330
1F
100
AcDbEntity
  8
SPOJOVACÍ
  6
Continuous
100
AcDbLine
 10
6433.906036459326
 20
-2130.710369634934
 30
0.0
 11
6429.106329353477
 21
-2131.910296411396
 31
0.0
  0
LINE
  5
435F
330
1F
100
AcDbEntity
  8
SPOJOVACÍ
  6
Continuous
100
AcDbLine
 10
6429.106329353477
 20
-2128.790486792434
 30
0.0
 11
6429.483980724423
 21
-2128.571895480408
 31
0.0
  0
LINE
  5
4360
330
1F
100
AcDbEntity
  8
SPOJOVACÍ
  6
Continuous
100
AcDbLine
 10
6429.106329353477
 20
-2128.790486792434
 30
0.0
 11
6429.483980724423
 21
-2129.168138165286
 31
0.0
  0
LINE
  5
4361
330
1F
100
AcDbEntity
  8
SPOJOVACÍ
  6
Continuous
100
AcDbLine
 10
6430.156497822851
 20
-2135.176143630281
 30
0.0
 11
6430.156497822851
 21
-2137.69505968531
 31
0.0
  0
LINE
  5
4362
330
1F
100
AcDbEntity
  8
SPOJOVACÍ
  6
Continuous
100
AcDbLine
 10
6432.855867985587
 20
-2134.273873108407
 30
0.0
 11
6432.855867985587
 21
-2136.791858987734
 31
0.0
  0
LINE
  5
4363
330
1F
100
AcDbEntity
  8
SPOJOVACÍ
  6
Continuous
100
AcDbLine
 10
6430.156497822851
 20
-2132.054473659639
 30
0.0
 11
6430.156497822851
 21
-2134.575250066348
 31
0.0
  0
LINE
  5
4364
330
1F
100
AcDbEntity
  8
SPOJOVACÍ
  6
Continuous
100
AcDbLine
 10
6430.156497822851
 20
-2128.931873513295
 30
0.0
 11
6430.156497822851
 21
-2131.460091326164
 31
0.0
  0
LINE
  5
4365
330
1F
100
AcDbEntity
  8
SPOJOVACÍ
  6
Continuous
100
AcDbLine
 10
6432.855867985587
 20
-2131.141041028252
 30
0.0
 11
6432.855867985587
 21
-2133.669258841121
 31
0.0
  0
LINE
  5
4367
330
1F
100
AcDbEntity
  8
SPOJOVACÍ
  6
Continuous
100
AcDbLine
 10
6433.528385084016
 20
-2127.212908642567
 30
0.0
 11
6429.483980724423
 21
-2128.571895480408
 31
0.0
  0
LINE
  5
4368
330
1F
100
AcDbEntity
  8
SPOJOVACÍ
  6
Continuous
100
AcDbLine
 10
6433.528385084016
 20
-2127.809151327722
 30
0.0
 11
6429.483980724423
 21
-2129.168138165286
 31
0.0
  0
LINE
  5
4369
330
1F
100
AcDbEntity
  8
SPOJOVACÍ
  6
Continuous
100
AcDbLine
 10
6433.906036459326
 20
-2127.590560015695
 30
0.0
 11
6429.106329353477
 21
-2128.790486792434
 31
0.0
  0
LINE
  5
436A
330
1F
100
AcDbEntity
  8
SPOJOVACÍ
  6
Continuous
100
AcDbLine
 10
6430.156497822851
 20
-2125.816714773111
 30
0.0
 11
6430.156497822851
 21
-2128.335630828141
 31
0.0
  0
LINE
  5
436B
330
1F
100
AcDbEntity
  8
SPOJOVACÍ
  6
Continuous
100
AcDbLine
 10
6432.855867985587
 20
-2128.025882288068
 30
0.0
 11
6432.855867985587
 21
-2130.546658694777
 31
0.0
  0
LINE
  5
436C
330
1F
100
AcDbEntity
  8
CETRIS
100
AcDbLine
 10
6459.753396833185
 20
-2125.67047923178
 30
0.0
 11
6459.753396833185
 21
-2101.67047923178
 31
0.0
  0
LINE
  5
4687
330
1F
100
AcDbEntity
  8
NOSNÉ KONSTRUKCE
100
AcDbLine
 10
6231.748855056434
 20
-2222.19887200473
 30
0.0
 11
6458.173809780679
 21
-2222.19887200473
 31
0.0
  0
LINE
  5
4688
330
1F
100
AcDbEntity
  8
NOSNÉ KONSTRUKCE
100
AcDbLine
 10
6233.252905758231
 20
-2214.03267680496
 30
0.0
 11
6458.173809780679
 21
-2214.03267680496
 31
0.0
  0
HATCH
  5
4689
330
1F
100
AcDbEntity
  8
NOSNÉ KONSTRUKCE
100
AcDbHatch
 10
0.0
 20
0.0
 30
0.0
210
0.0
220
0.0
230
1.0
  2
SOLID
 70
     1
 71
     0
 91
        1
 92
        7
 72
     1
 73
     1
 93
       52
 10
6459.361170310611
 20
-2221.580186964593
 42
0.0
 10
6459.361170310611
 20
-2255.457286088531
 42
0.3073346934841183
 10
6458.213997822389
 20
-2257.172476651599
 42
0.0
 10
6458.213997822389
 20
-2260.933710752122
 42
0.307334693483106
 10
6459.361170310611
 20
-2262.648901315183
 42
0.0
 10
6459.361170310609
 20
-2272.990351403705
 42
-0.4142135623730951
 10
6457.391170310611
 20
-2274.960351403706
 42
0.0
 10
6449.315299749527
 20
-2274.960351403706
 42
0.7595816512230912
 10
6445.777729214288
 20
-2274.960351403706
 42
0.0
 10
6436.739497850796
 20
-2274.960351403702
 42
0.7595816493590427
 10
6433.201927283089
 20
-2274.960351403706
 42
0.0
 10
6424.163697922871
 20
-2274.960351403706
 42
0.7767342353201953
 10
6420.606411217407
 20
-2275.03713922879
 42
0.0
 10
6412.166823619479
 20
-2275.03713922879
 42
0.0
 10
6412.166823619479
 20
-2274.05213922879
 42
0.0
 10
6419.946054225872
 20
-2274.05213922879
 42
-0.5694936494219963
 10
6424.798110428617
 20
-2273.975351403706
 42
0.0
 10
6432.567512832917
 20
-2273.975351403706
 42
-0.5590616644338513
 10
6437.373912300967
 20
-2273.975351403702
 42
0.0
 10
6445.143314763533
 20
-2273.975351403706
 42
-0.5590616643157284
 10
6449.949714200283
 20
-2273.975351403706
 42
0.0
 10
6457.391170310611
 20
-2273.975351403706
 42
0.4142135623731451
 10
6458.376170310611
 20
-2272.990351403705
 42
0.0
 10
6458.376170310611
 20
-2263.206342275744
 42
-0.2364174637114482
 10
6457.238043110456
 20
-2260.958720363585
 42
0.0
 10
6457.238043110456
 20
-2257.14746704013
 42
-0.2364174637115772
 10
6458.376170310611
 20
-2254.89984512797
 42
0.0
 10
6458.376170310611
 20
-2222.134042860223
 42
-0.2353201211467568
 10
6457.248709196836
 20
-2219.892758577137
 42
0.0
 10
6457.25089153327
 20
-2216.081505878491
 42
-0.2364174637122881
 10
6458.390305542687
 20
-2213.834536030244
 42
0.0
 10
6458.395907899127
 20
-2204.050528506247
 42
0.4142135623730951
 10
6457.411472074909
 20
-2203.064964653422
 42
0.0
 10
6449.970017184513
 20
-2203.060703650697
 42
-0.5590616643157161
 10
6445.163618535712
 20
-2203.057951490259
 42
0.0
 10
6437.394217346841
 20
-2203.053502704356
 42
-0.5590616644338511
 10
6432.587818666738
 20
-2203.050750543897
 42
0.0
 10
6424.818417536136
 20
-2203.046301758024
 42
-0.5694936494220229
 10
6419.966406097789
 20
-2202.966735641874
 42
0.0
 10
6412.185964844752
 20
-2202.962280534388
 42
0.0
 10
6412.186528859056
 20
-2201.977280695866
 42
0.0
 10
6420.627326995371
 20
-2201.982113925979
 42
0.7767342353201953
 10
6424.184569148697
 20
-2202.060938652774
 42
0.0
 10
6433.22279702721
 20
-2202.066113973218
 42
0.759581649359043
 10
6436.760367014979
 20
-2202.068139597993
 42
0.0
 10
6445.798596896766
 20
-2202.073314919579
 42
0.7595816512230912
 10
6449.336166852067
 20
-2202.075340544332
 42
0.0
 10
6457.412036089213
 20
-2202.0799648149
 42
-0.4142135623731117
 10
6459.380907737649
 20
-2204.05109252055
 42
0.0
 10
6459.374986188645
 20
-2214.392540913724
 42
0.3073346934834261
 10
6458.226831764621
 20
-2216.107074320789
 42
0.0
 10
6458.224678069361
 20
-2219.868307804707
 42
0.3057747226774016
 97
        0
 75
     0
 76
     1
 47
0.1192862808561033
 98
        1
 10
6458.817135094389
 20
-2229.017900439149
  0
LINE
  5
468A
330
1F
100
AcDbEntity
  8
NOSNÉ KONSTRUKCE
100
AcDbLine
 10
6224.269405528408
 20
-2262.808304093477
 30
0.0
 11
6458.173809780679
 21
-2262.808304093477
 31
0.0
  0
LINE
  5
468B
330
1F
100
AcDbEntity
  8
NOSNÉ KONSTRUKCE
100
AcDbLine
 10
6225.650412834728
 20
-2255.310169075661
 30
0.0
 11
6458.173809780679
 21
-2255.310169075661
 31
0.0
  0
LINE
  5
468D
330
1F
100
AcDbEntity
  8
NOSNÉ KONSTRUKCE
100
AcDbLine
 10
6235.497895788142
 20
-2201.843575211594
 30
0.0
 11
6458.173809780679
 21
-2201.843575211595
 31
0.0
  0
LINE
  5
468E
330
1F
100
AcDbEntity
  8
NOSNÉ KONSTRUKCE
100
AcDbLine
 10
6800.583438367778
 20
-2214.525575722617
 30
0.0
 11
7030.250605984289
 21
-2214.525575722617
 31
0.0
  0
LINE
  5
468F
330
1F
100
AcDbEntity
  8
NOSNÉ KONSTRUKCE
100
AcDbLine
 10
6798.968723760694
 20
-2222.691770922387
 30
0.0
 11
7028.746555282491
 21
-2222.691770922386
 31
0.0
  0
HATCH
  5
4691
330
1F
100
AcDbEntity
  8
NOSNÉ KONSTRUKCE
100
AcDbHatch
 10
0.0
 20
0.0
 30
0.0
210
0.0
220
0.0
230
1.0
  2
SOLID
 70
     1
 71
     0
 91
        1
 92
        7
 72
     1
 73
     1
 93
       60
 10
6799.095229155112
 20
-2255.628927470056
 42
0.0
 10
6799.095229155113
 20
-2221.751828346117
 42
0.3073346934841183
 10
6800.242401643334
 20
-2220.03663778305
 42
0.0
 10
6800.242401643334
 20
-2216.275403682527
 42
0.307334693483106
 10
6799.095229155112
 20
-2214.560213119466
 42
0.0
 10
6799.095229155113
 20
-2204.218763030942
 42
-0.4142135623730951
 10
6801.065229155113
 20
-2202.248763030943
 42
0.0
 10
6809.141099716197
 20
-2202.248763030943
 42
0.7595816512230912
 10
6812.678670251436
 20
-2202.248763030942
 42
0.0
 10
6821.716901614928
 20
-2202.248763030947
 42
0.7595816493590427
 10
6825.254472182634
 20
-2202.248763030943
 42
0.0
 10
6834.292701542853
 20
-2202.248763030943
 42
0.7767342353201953
 10
6837.849988248317
 20
-2202.171975205858
 42
0.0
 10
6844.319575846245
 20
-2202.171975205859
 42
-0.4142135623730868
 10
6846.289575846245
 20
-2204.141975205858
 42
0.0
 10
6846.289575846245
 20
-2206.924921110677
 42
0.0
 10
6845.304575846245
 20
-2206.924921110677
 42
0.0
 10
6845.304575846245
 20
-2204.141975205858
 42
0.4142135623730951
 10
6844.319575846245
 20
-2203.156975205858
 42
0.0
 10
6838.510345239853
 20
-2203.156975205858
 42
-0.5694936494219963
 10
6833.658289037106
 20
-2203.233763030943
 42
0.0
 10
6825.888886632808
 20
-2203.233763030943
 42
-0.5590616644338513
 10
6821.082487164756
 20
-2203.233763030946
 42
0.0
 10
6813.313084702191
 20
-2203.233763030943
 42
-0.5590616643157284
 10
6808.506685265442
 20
-2203.233763030943
 42
0.0
 10
6801.065229155113
 20
-2203.233763030943
 42
0.4142135623731451
 10
6800.080229155113
 20
-2204.218763030942
 42
0.0
 10
6800.080229155113
 20
-2214.002772158905
 42
-0.2364174637114482
 10
6801.218356355267
 20
-2216.250394071063
 42
0.0
 10
6801.218356355267
 20
-2220.061647394519
 42
-0.2364174637115772
 10
6800.080229155113
 20
-2222.309269306679
 42
0.0
 10
6800.080229155113
 20
-2255.075071574425
 42
-0.2353201211467568
 10
6801.207690268888
 20
-2257.316355857512
 42
0.0
 10
6801.205507932452
 20
-2261.127608556158
 42
-0.2364174637122881
 10
6800.066093923035
 20
-2263.374578404404
 42
0.0
 10
6800.060491566596
 20
-2273.158585928402
 42
0.4142135623730951
 10
6801.044927390815
 20
-2274.144149781227
 42
0.0
 10
6808.486382281211
 20
-2274.148410783952
 42
-0.5590616643157161
 10
6813.292780930011
 20
-2274.151162944389
 42
0.0
 10
6821.062182118883
 20
-2274.155611730293
 42
-0.5590616644338511
 10
6825.868580798985
 20
-2274.158363890751
 42
0.0
 10
6833.637981929588
 20
-2274.162812676625
 42
-0.5694936494220229
 10
6838.489993367935
 20
-2274.242378792775
 42
0.0
 10
6844.299223021979
 20
-2274.245705177703
 42
0.4142135623730951
 10
6845.284786874803
 20
-2273.261269353485
 42
0.0
 10
6845.286380398961
 20
-2270.478323904894
 42
0.0
 10
6846.271380237483
 20
-2270.478887919197
 42
0.0
 10
6846.269786713325
 20
-2273.261833367789
 42
-0.4142135623730618
 10
6844.298659007676
 20
-2275.230705016225
 42
0.0
 10
6837.829072470353
 20
-2275.227000508669
 42
0.7767342353201953
 10
6834.271830317026
 20
-2275.148175781875
 42
0.0
 10
6825.233602438513
 20
-2275.143000461431
 42
0.759581649359043
 10
6821.696032450745
 20
-2275.140974836656
 42
0.0
 10
6812.657802568956
 20
-2275.13579951507
 42
0.7595816512230912
 10
6809.120232613657
 20
-2275.133773890317
 42
0.0
 10
6801.044363376511
 20
-2275.129149619749
 42
-0.4142135623731117
 10
6799.075491728075
 20
-2273.158021914098
 42
0.0
 10
6799.081413277078
 20
-2262.816573520925
 42
0.3073346934834261
 10
6800.229567701101
 20
-2261.10204011386
 42
0.0
 10
6800.231721396364
 20
-2257.340806629942
 42
0.3057747226774016
 97
        0
 75
     0
 76
     1
 47
0.1180065091547201
 98
        1
 10
6799.48988307453
 20
-2246.407968882774
  0
LINE
  5
4692
330
1F
100
AcDbEntity
  8
SPOJOVACÍ
  6
Continuous
100
AcDbLine
 10
6813.751275448902
 20
-2239.24301979216
 30
0.0
 11
6816.072994234966
 21
-2238.952804942641
 31
0.0
  0
LINE
  5
4693
330
1F
100
AcDbEntity
  8
SPOJOVACÍ
  6
Continuous
100
AcDbLine
 10
6822.733983108645
 20
-2238.120297608224
 30
0.0
 11
6819.897877107377
 21
-2237.765900627095
 31
0.0
  0
LINE
  5
4694
330
1F
100
AcDbEntity
  8
SPOJOVACÍ
  6
Continuous
100
AcDbLine
 10
6816.703653424631
 20
-2238.873739999803
 30
0.0
 11
6819.024442034987
 21
-2238.583525154649
 31
0.0
  0
LINE
  5
4695
330
1F
100
AcDbEntity
  8
SPOJOVACÍ
  6
Continuous
100
AcDbLine
 10
6819.64486929084
 20
-2238.506320562123
 30
0.0
 11
6822.733983108645
 21
-2238.120297608224
 31
0.0
  0
LINE
  5
4696
330
1F
100
AcDbEntity
  8
SPOJOVACÍ
  6
Continuous
100
AcDbLine
 10
6819.328609520309
 20
-2237.694277089871
 30
0.0
 11
6817.183624135324
 21
-2237.426386461561
 31
0.0
  0
LINE
  5
4697
330
1F
100
AcDbEntity
  8
SPOJOVACÍ
  6
Continuous
100
AcDbLine
 10
6816.611566020876
 20
-2237.354762928702
 30
0.0
 11
6814.474952218024
 21
-2237.087802473365
 31
0.0
  0
LINE
  5
4698
330
1F
100
AcDbEntity
  8
SPOJOVACÍ
  6
Continuous
100
AcDbLine
 10
6816.340884864368
 20
-2239.701596460622
 30
0.0
 11
6816.558546000416
 21
-2239.323945085311
 31
0.0
  0
LINE
  5
4699
330
1F
100
AcDbEntity
  8
SPOJOVACÍ
  6
Continuous
100
AcDbLine
 10
6816.340884864368
 20
-2239.701596460622
 30
0.0
 11
6815.962303315263
 21
-2239.323945085311
 31
0.0
  0
LINE
  5
469A
330
1F
100
AcDbEntity
  8
SPOJOVACÍ
  6
Continuous
100
AcDbLine
 10
6816.974334581138
 20
-2236.58550754419
 30
0.0
 11
6817.352916129968
 21
-2236.963158915136
 31
0.0
  0
LINE
  5
469B
330
1F
100
AcDbEntity
  8
SPOJOVACÍ
  6
Continuous
100
AcDbLine
 10
6816.974334581138
 20
-2236.58550754419
 30
0.0
 11
6816.75667344509
 21
-2236.963158915136
 31
0.0
  0
LINE
  5
469C
330
1F
100
AcDbEntity
  8
SPOJOVACÍ
  6
Continuous
100
AcDbLine
 10
6816.558546000416
 20
-2239.323945085311
 30
0.0
 11
6817.352916129968
 21
-2236.963158915136
 31
0.0
  0
LINE
  5
469D
330
1F
100
AcDbEntity
  8
SPOJOVACÍ
  6
Continuous
100
AcDbLine
 10
6815.962303315263
 20
-2239.323945085311
 30
0.0
 11
6816.75667344509
 21
-2236.963158915136
 31
0.0
  0
LINE
  5
469E
330
1F
100
AcDbEntity
  8
SPOJOVACÍ
  6
Continuous
100
AcDbLine
 10
6816.340884864368
 20
-2239.701596460622
 30
0.0
 11
6816.974334581138
 21
-2236.58550754419
 31
0.0
  0
LINE
  5
469F
330
1F
100
AcDbEntity
  8
SPOJOVACÍ
  6
Continuous
100
AcDbLine
 10
6819.354654442688
 20
-2239.136979750151
 30
0.0
 11
6819.573245754708
 21
-2238.759328379205
 31
0.0
  0
LINE
  5
46A0
330
1F
100
AcDbEntity
  8
SPOJOVACÍ
  6
Continuous
100
AcDbLine
 10
6819.354654442688
 20
-2239.136979750151
 30
0.0
 11
6818.97700306956
 21
-2238.759328379205
 31
0.0
  0
LINE
  5
46A1
330
1F
100
AcDbEntity
  8
SPOJOVACÍ
  6
Continuous
100
AcDbLine
 10
6819.665333158463
 20
-2236.982692608694
 30
0.0
 11
6820.043914707293
 21
-2237.360343979639
 31
0.0
  0
LINE
  5
46A2
330
1F
100
AcDbEntity
  8
SPOJOVACÍ
  6
Continuous
100
AcDbLine
 10
6819.665333158463
 20
-2236.982692608694
 30
0.0
 11
6819.447672022144
 21
-2237.360343979639
 31
0.0
  0
LINE
  5
46A3
330
1F
100
AcDbEntity
  8
SPOJOVACÍ
  6
Continuous
100
AcDbLine
 10
6819.573245754708
 20
-2238.759328379205
 30
0.0
 11
6820.043914707293
 21
-2237.360343979639
 31
0.0
  0
LINE
  5
46A4
330
1F
100
AcDbEntity
  8
SPOJOVACÍ
  6
Continuous
100
AcDbLine
 10
6818.97700306956
 20
-2238.759328379205
 30
0.0
 11
6819.447672022144
 21
-2237.360343979639
 31
0.0
  0
LINE
  5
46A5
330
1F
100
AcDbEntity
  8
SPOJOVACÍ
  6
Continuous
100
AcDbLine
 10
6819.354654442688
 20
-2239.136979750151
 30
0.0
 11
6819.665333158463
 21
-2236.982692608694
 31
0.0
  0
LINE
  5
46A6
330
1F
100
AcDbEntity
  8
SPOJOVACÍ
  6
Continuous
100
AcDbLine
 10
6811.933711943692
 20
-2239.469982687409
 30
0.0
 11
6813.130848193049
 21
-2239.320224384687
 31
0.0
  0
LINE
  5
46A7
330
1F
100
AcDbEntity
  8
SPOJOVACÍ
  6
Continuous
100
AcDbLine
 10
6813.904754454978
 20
-2237.016178936141
 30
0.0
 11
6811.933711943692
 21
-2236.770612524674
 31
0.0
  0
LINE
  5
46A8
330
1F
100
AcDbEntity
  8
SPOJOVACÍ
  6
Continuous
100
AcDbLine
 10
6813.326185110071
 20
-2240.266213166728
 30
0.0
 11
6812.948533736943
 21
-2239.887631618443
 31
0.0
  0
LINE
  5
46A9
330
1F
100
AcDbEntity
  8
SPOJOVACÍ
  6
Continuous
100
AcDbLine
 10
6812.948533736943
 20
-2239.887631618443
 30
0.0
 11
6814.081487856327
 21
-2236.51853488493
 31
0.0
  0
LINE
  5
46AA
330
1F
100
AcDbEntity
  8
SPOJOVACÍ
  6
Continuous
100
AcDbLine
 10
6801.324126816982
 20
-2239.469982687409
 30
0.0
 11
6803.844903223691
 21
-2239.469982687409
 31
0.0
  0
LINE
  5
46AB
330
1F
100
AcDbEntity
  8
SPOJOVACÍ
  6
Continuous
100
AcDbLine
 10
6799.114959302025
 20
-2236.770612524674
 30
0.0
 11
6801.633875357055
 21
-2236.770612524674
 31
0.0
  0
LINE
  5
46AC
330
1F
100
AcDbEntity
  8
SPOJOVACÍ
  6
Continuous
100
AcDbLine
 10
6800.88880454461
 20
-2240.520151161148
 30
0.0
 11
6802.088731321347
 21
-2235.7204440553
 31
0.0
  0
LINE
  5
46AD
330
1F
100
AcDbEntity
  8
SPOJOVACÍ
  6
Continuous
100
AcDbLine
 10
6801.107395856636
 20
-2240.142499785838
 30
0.0
 11
6802.4663826942
 21
-2236.098095426245
 31
0.0
  0
LINE
  5
46AE
330
1F
100
AcDbEntity
  8
SPOJOVACÍ
  6
Continuous
100
AcDbLine
 10
6800.511153171481
 20
-2240.142499785838
 30
0.0
 11
6801.870140009322
 21
-2236.098095426245
 31
0.0
  0
LINE
  5
46B0
330
1F
100
AcDbEntity
  8
SPOJOVACÍ
  6
Continuous
100
AcDbLine
 10
6804.439285557165
 20
-2239.469982687409
 30
0.0
 11
6806.967503370035
 21
-2239.469982687409
 31
0.0
  0
LINE
  5
46B1
330
1F
100
AcDbEntity
  8
SPOJOVACÍ
  6
Continuous
100
AcDbLine
 10
6802.230118042209
 20
-2236.770612524674
 30
0.0
 11
6804.758335855078
 21
-2236.770612524674
 31
0.0
  0
LINE
  5
46B2
330
1F
100
AcDbEntity
  8
SPOJOVACÍ
  6
Continuous
100
AcDbLine
 10
6805.352718188553
 20
-2236.770612524674
 30
0.0
 11
6807.873494595262
 21
-2236.770612524674
 31
0.0
  0
LINE
  5
46B3
330
1F
100
AcDbEntity
  8
SPOJOVACÍ
  6
Continuous
100
AcDbLine
 10
6807.57211763732
 20
-2239.469982687409
 30
0.0
 11
6810.090103516649
 21
-2239.469982687409
 31
0.0
  0
LINE
  5
46B4
330
1F
100
AcDbEntity
  8
SPOJOVACÍ
  6
Continuous
100
AcDbLine
 10
6810.686346201802
 20
-2239.469982687409
 30
0.0
 11
6811.933711943692
 21
-2239.469982687409
 31
0.0
  0
LINE
  5
46B5
330
1F
100
AcDbEntity
  8
SPOJOVACÍ
  6
Continuous
100
AcDbLine
 10
6808.474388159194
 20
-2236.770612524674
 30
0.0
 11
6810.993304214225
 21
-2236.770612524674
 31
0.0
  0
LINE
  5
46B6
330
1F
100
AcDbEntity
  8
SPOJOVACÍ
  6
Continuous
100
AcDbLine
 10
6811.596988305808
 20
-2236.770612524674
 30
0.0
 11
6811.933711943692
 21
-2236.770612524674
 31
0.0
  0
LINE
  5
46B7
330
1F
100
AcDbEntity
  8
SPOJOVACÍ
  6
Continuous
100
AcDbLine
 10
6802.088731321347
 20
-2235.7204440553
 30
0.0
 11
6802.4663826942
 21
-2236.098095426245
 31
0.0
  0
LINE
  5
46B8
330
1F
100
AcDbEntity
  8
SPOJOVACÍ
  6
Continuous
100
AcDbLine
 10
6802.088731321347
 20
-2235.7204440553
 30
0.0
 11
6801.870140009322
 21
-2236.098095426245
 31
0.0
  0
LINE
  5
46B9
330
1F
100
AcDbEntity
  8
SPOJOVACÍ
  6
Continuous
100
AcDbLine
 10
6804.008614163848
 20
-2240.520151161148
 30
0.0
 11
6805.20854094031
 21
-2235.7204440553
 31
0.0
  0
LINE
  5
46BA
330
1F
100
AcDbEntity
  8
SPOJOVACÍ
  6
Continuous
100
AcDbLine
 10
6804.008614163848
 20
-2240.520151161148
 30
0.0
 11
6804.227205475874
 21
-2240.142499785838
 31
0.0
  0
LINE
  5
46BB
330
1F
100
AcDbEntity
  8
SPOJOVACÍ
  6
Continuous
100
AcDbLine
 10
6804.008614163848
 20
-2240.520151161148
 30
0.0
 11
6803.63096279072
 21
-2240.142499785838
 31
0.0
  0
LINE
  5
46BC
330
1F
100
AcDbEntity
  8
SPOJOVACÍ
  6
Continuous
100
AcDbLine
 10
6805.20854094031
 20
-2235.7204440553
 30
0.0
 11
6805.58712248914
 21
-2236.098095426245
 31
0.0
  0
LINE
  5
46BD
330
1F
100
AcDbEntity
  8
SPOJOVACÍ
  6
Continuous
100
AcDbLine
 10
6805.20854094031
 20
-2235.7204440553
 30
0.0
 11
6804.990879803992
 21
-2236.098095426245
 31
0.0
  0
LINE
  5
46BE
330
1F
100
AcDbEntity
  8
SPOJOVACÍ
  6
Continuous
100
AcDbLine
 10
6804.227205475874
 20
-2240.142499785838
 30
0.0
 11
6805.58712248914
 21
-2236.098095426245
 31
0.0
  0
LINE
  5
46BF
330
1F
100
AcDbEntity
  8
SPOJOVACÍ
  6
Continuous
100
AcDbLine
 10
6803.63096279072
 20
-2240.142499785838
 30
0.0
 11
6804.990879803992
 21
-2236.098095426245
 31
0.0
  0
LINE
  5
46C0
330
1F
100
AcDbEntity
  8
SPOJOVACÍ
  6
Continuous
100
AcDbLine
 10
6807.128423782817
 20
-2240.520151161148
 30
0.0
 11
6808.328350559278
 21
-2235.7204440553
 31
0.0
  0
LINE
  5
46C1
330
1F
100
AcDbEntity
  8
SPOJOVACÍ
  6
Continuous
100
AcDbLine
 10
6807.128423782817
 20
-2240.520151161148
 30
0.0
 11
6807.347015094837
 21
-2240.142499785838
 31
0.0
  0
LINE
  5
46C2
330
1F
100
AcDbEntity
  8
SPOJOVACÍ
  6
Continuous
100
AcDbLine
 10
6807.128423782817
 20
-2240.520151161148
 30
0.0
 11
6806.750772409689
 21
-2240.142499785838
 31
0.0
  0
LINE
  5
46C3
330
1F
100
AcDbEntity
  8
SPOJOVACÍ
  6
Continuous
100
AcDbLine
 10
6808.328350559278
 20
-2235.7204440553
 30
0.0
 11
6808.706932108108
 21
-2236.098095426245
 31
0.0
  0
LINE
  5
46C4
330
1F
100
AcDbEntity
  8
SPOJOVACÍ
  6
Continuous
100
AcDbLine
 10
6808.328350559278
 20
-2235.7204440553
 30
0.0
 11
6808.11068942323
 21
-2236.098095426245
 31
0.0
  0
LINE
  5
46C5
330
1F
100
AcDbEntity
  8
SPOJOVACÍ
  6
Continuous
100
AcDbLine
 10
6807.347015094837
 20
-2240.142499785838
 30
0.0
 11
6808.706932108108
 21
-2236.098095426245
 31
0.0
  0
LINE
  5
46C6
330
1F
100
AcDbEntity
  8
SPOJOVACÍ
  6
Continuous
100
AcDbLine
 10
6806.750772409689
 20
-2240.142499785838
 30
0.0
 11
6808.11068942323
 21
-2236.098095426245
 31
0.0
  0
LINE
  5
46C7
330
1F
100
AcDbEntity
  8
SPOJOVACÍ
  6
Continuous
100
AcDbLine
 10
6810.249163577757
 20
-2240.520151161148
 30
0.0
 11
6811.449090354219
 21
-2235.7204440553
 31
0.0
  0
LINE
  5
46C8
330
1F
100
AcDbEntity
  8
SPOJOVACÍ
  6
Continuous
100
AcDbLine
 10
6810.249163577757
 20
-2240.520151161148
 30
0.0
 11
6810.466824713805
 21
-2240.142499785838
 31
0.0
  0
LINE
  5
46C9
330
1F
100
AcDbEntity
  8
SPOJOVACÍ
  6
Continuous
100
AcDbLine
 10
6810.249163577757
 20
-2240.520151161148
 30
0.0
 11
6809.870582028651
 21
-2240.142499785838
 31
0.0
  0
LINE
  5
46CA
330
1F
100
AcDbEntity
  8
SPOJOVACÍ
  6
Continuous
100
AcDbLine
 10
6811.449090354219
 20
-2235.7204440553
 30
0.0
 11
6811.826741727347
 21
-2236.098095426245
 31
0.0
  0
LINE
  5
46CB
330
1F
100
AcDbEntity
  8
SPOJOVACÍ
  6
Continuous
100
AcDbLine
 10
6811.449090354219
 20
-2235.7204440553
 30
0.0
 11
6811.230499042193
 21
-2236.098095426245
 31
0.0
  0
LINE
  5
46CC
330
1F
100
AcDbEntity
  8
SPOJOVACÍ
  6
Continuous
100
AcDbLine
 10
6810.466824713805
 20
-2240.142499785838
 30
0.0
 11
6811.826741727347
 21
-2236.098095426245
 31
0.0
  0
LINE
  5
46CD
330
1F
100
AcDbEntity
  8
SPOJOVACÍ
  6
Continuous
100
AcDbLine
 10
6809.870582028651
 20
-2240.142499785838
 30
0.0
 11
6811.230499042193
 21
-2236.098095426245
 31
0.0
  0
LINE
  5
46CE
330
1F
100
AcDbEntity
  8
SPOJOVACÍ
  6
Continuous
100
AcDbLine
 10
6790.63082586865
 20
-2235.930663784642
 30
0.0
 11
6789.423457685751
 21
-2234.972582714658
 31
0.0
  0
LINE
  5
46CF
330
1F
100
AcDbEntity
  8
SPOJOVACÍ
  6
Continuous
100
AcDbLine
 10
6792.044693078352
 20
-2236.54364963379
 30
0.0
 11
6790.63082586865
 21
-2235.930663784642
 31
0.0
  0
LINE
  5
46D0
330
1F
100
AcDbEntity
  8
SPOJOVACÍ
  6
Continuous
100
AcDbLine
 10
6793.568321031782
 20
-2236.770612524674
 30
0.0
 11
6792.044693078352
 21
-2236.54364963379
 31
0.0
  0
LINE
  5
46D1
330
1F
100
AcDbEntity
  8
SPOJOVACÍ
  6
Continuous
100
AcDbLine
 10
6786.968723760693
 20
-2233.02014371959
 30
0.0
 11
6788.168650537426
 21
-2233.02014371959
 31
0.0
  0
LINE
  5
46D2
330
1F
100
AcDbEntity
  8
SPOJOVACÍ
  6
Continuous
100
AcDbLine
 10
6786.968723760693
 20
-2243.220451496858
 30
0.0
 11
6786.968723760693
 21
-2233.02014371959
 31
0.0
  0
LINE
  5
46D3
330
1F
100
AcDbEntity
  8
SPOJOVACÍ
  6
Continuous
100
AcDbLine
 10
6786.968723760693
 20
-2243.220451496858
 30
0.0
 11
6788.168650537426
 21
-2243.220451496858
 31
0.0
  0
LINE
  5
46D4
330
1F
100
AcDbEntity
  8
SPOJOVACÍ
  6
Continuous
100
AcDbLine
 10
6788.168650537426
 20
-2243.220451496858
 30
0.0
 11
6788.168650537426
 21
-2233.02014371959
 31
0.0
  0
LINE
  5
46D5
330
1F
100
AcDbEntity
  8
SPOJOVACÍ
  6
Continuous
100
AcDbLine
 10
6788.50537417531
 20
-2233.735448905758
 30
0.0
 11
6788.168650537426
 21
-2233.02014371959
 31
0.0
  0
LINE
  5
46D6
330
1F
100
AcDbEntity
  8
SPOJOVACÍ
  6
Continuous
100
AcDbLine
 10
6789.423457685751
 20
-2234.972582714658
 30
0.0
 11
6788.50537417531
 21
-2233.735448905758
 31
0.0
  0
LINE
  5
46D7
330
1F
100
AcDbEntity
  8
SPOJOVACÍ
  6
Continuous
100
AcDbLine
 10
6792.78139230866
 20
-2239.536025169331
 30
0.0
 11
6793.568321031782
 21
-2239.469982687409
 31
0.0
  0
LINE
  5
46D8
330
1F
100
AcDbEntity
  8
SPOJOVACÍ
  6
Continuous
100
AcDbLine
 10
6791.300552441609
 20
-2239.963906033631
 30
0.0
 11
6792.78139230866
 21
-2239.536025169331
 31
0.0
  0
LINE
  5
46D9
330
1F
100
AcDbEntity
  8
SPOJOVACÍ
  6
Continuous
100
AcDbLine
 10
6789.981563163312
 20
-2240.760136512949
 30
0.0
 11
6791.300552441609
 21
-2239.963906033631
 31
0.0
  0
LINE
  5
46DA
330
1F
100
AcDbEntity
  8
SPOJOVACÍ
  6
Continuous
100
AcDbLine
 10
6788.912791173899
 20
-2241.870766413307
 30
0.0
 11
6789.981563163312
 21
-2240.760136512949
 31
0.0
  0
LINE
  5
46DB
330
1F
100
AcDbEntity
  8
SPOJOVACÍ
  6
Continuous
100
AcDbLine
 10
6788.168650537426
 20
-2243.220451496858
 30
0.0
 11
6788.912791173899
 21
-2241.870766413307
 31
0.0
  0
LINE
  5
46DC
330
1F
100
AcDbEntity
  8
SPOJOVACÍ
  6
Continuous
100
AcDbLine
 10
6793.568321031782
 20
-2236.770612524674
 30
0.0
 11
6798.511275210711
 21
-2236.770612524674
 31
0.0
  0
LINE
  5
46DD
330
1F
100
AcDbEntity
  8
SPOJOVACÍ
  6
Continuous
100
AcDbLine
 10
6793.568321031782
 20
-2239.469982687409
 30
0.0
 11
6797.606214161461
 21
-2239.469982687409
 31
0.0
  0
LINE
  5
46DE
330
1F
100
AcDbEntity
  8
SPOJOVACÍ
  6
Continuous
100
AcDbLine
 10
6798.201526670638
 20
-2239.469982687409
 30
0.0
 11
6800.720442725668
 21
-2239.469982687409
 31
0.0
  0
LINE
  5
46DF
330
1F
100
AcDbEntity
  8
SPOJOVACÍ
  6
Continuous
100
AcDbLine
 10
6797.768994925647
 20
-2240.520151161148
 30
0.0
 11
6798.968921702109
 21
-2235.7204440553
 31
0.0
  0
LINE
  5
46E0
330
1F
100
AcDbEntity
  8
SPOJOVACÍ
  6
Continuous
100
AcDbLine
 10
6797.768994925647
 20
-2240.520151161148
 30
0.0
 11
6797.986656061695
 21
-2240.142499785838
 31
0.0
  0
LINE
  5
46E1
330
1F
100
AcDbEntity
  8
SPOJOVACÍ
  6
Continuous
100
AcDbLine
 10
6797.768994925647
 20
-2240.520151161148
 30
0.0
 11
6797.390413376817
 21
-2240.142499785838
 31
0.0
  0
LINE
  5
46E2
330
1F
100
AcDbEntity
  8
SPOJOVACÍ
  6
Continuous
100
AcDbLine
 10
6798.968921702109
 20
-2235.7204440553
 30
0.0
 11
6799.346573075237
 21
-2236.098095426245
 31
0.0
  0
LINE
  5
46E3
330
1F
100
AcDbEntity
  8
SPOJOVACÍ
  6
Continuous
100
AcDbLine
 10
6798.968921702109
 20
-2235.7204440553
 30
0.0
 11
6798.750330390084
 21
-2236.098095426245
 31
0.0
  0
LINE
  5
46E4
330
1F
100
AcDbEntity
  8
SPOJOVACÍ
  6
Continuous
100
AcDbLine
 10
6797.986656061695
 20
-2240.142499785838
 30
0.0
 11
6799.346573075237
 21
-2236.098095426245
 31
0.0
  0
LINE
  5
46E5
330
1F
100
AcDbEntity
  8
SPOJOVACÍ
  6
Continuous
100
AcDbLine
 10
6797.390413376817
 20
-2240.142499785838
 30
0.0
 11
6798.750330390084
 21
-2236.098095426245
 31
0.0
  0
LINE
  5
46E6
330
1F
100
AcDbEntity
  8
SPOJOVACÍ
  6
Continuous
100
AcDbLine
 10
6800.88880454461
 20
-2240.520151161148
 30
0.0
 11
6801.107395856636
 21
-2240.142499785838
 31
0.0
  0
LINE
  5
46E7
330
1F
100
AcDbEntity
  8
SPOJOVACÍ
  6
Continuous
100
AcDbLine
 10
6800.88880454461
 20
-2240.520151161148
 30
0.0
 11
6800.511153171481
 21
-2240.142499785838
 31
0.0
  0
LINE
  5
46E8
330
1F
100
AcDbEntity
  8
SPOJOVACÍ
  6
Continuous
100
AcDbLine
 10
6814.299148992375
 20
-2236.140883513985
 30
0.0
 11
6814.081487856327
 21
-2236.51853488493
 31
0.0
  0
LINE
  5
46E9
330
1F
100
AcDbEntity
  8
SPOJOVACÍ
  6
Continuous
100
AcDbLine
 10
6813.544776422097
 20
-2239.887631618443
 30
0.0
 11
6814.677730541482
 21
-2236.51853488493
 31
0.0
  0
LINE
  5
46EA
330
1F
100
AcDbEntity
  8
SPOJOVACÍ
  6
Continuous
100
AcDbLine
 10
6813.326185110071
 20
-2240.266213166728
 30
0.0
 11
6814.299148992375
 21
-2236.140883513985
 31
0.0
  0
LINE
  5
46EB
330
1F
100
AcDbEntity
  8
SPOJOVACÍ
  6
Continuous
100
AcDbLine
 10
6814.299148992375
 20
-2236.140883513985
 30
0.0
 11
6814.677730541482
 21
-2236.51853488493
 31
0.0
  0
LINE
  5
46EC
330
1F
100
AcDbEntity
  8
SPOJOVACÍ
  6
Continuous
100
AcDbLine
 10
6813.326185110071
 20
-2240.266213166728
 30
0.0
 11
6813.544776422097
 21
-2239.887631618443
 31
0.0
  0
LINE
  5
46ED
330
1F
100
AcDbEntity
  8
NOSNÉ KONSTRUKCE
100
AcDbLine
 10
6798.968723760694
 20
-2275.195000854626
 30
0.0
 11
7019.076504800664
 21
-2275.195000854626
 31
0.0
  0
LINE
  5
46EE
330
1F
100
AcDbEntity
  8
NOSNÉ KONSTRUKCE
100
AcDbLine
 10
6798.968723760694
 20
-2262.808304093477
 30
0.0
 11
7021.357887929626
 21
-2262.808304093477
 31
0.0
  0
LINE
  5
46EF
330
1F
100
AcDbEntity
  8
NOSNÉ KONSTRUKCE
100
AcDbLine
 10
6798.968723760694
 20
-2255.310169075661
 30
0.0
 11
7022.738895235947
 21
-2255.310169075661
 31
0.0
  0
LINE
  5
46F0
330
1F
100
AcDbEntity
  8
NOSNÉ KONSTRUKCE
100
AcDbLine
 10
6800.583438367778
 20
-2202.336474129251
 30
0.0
 11
7033.005046343629
 21
-2202.336474129251
 31
0.0
  0
LINE
  5
4758
330
1F
100
AcDbEntity
  8
CETRIS
100
AcDbLine
 10
6253.947787276644
 20
-2101.67047923178
 30
0.0
 11
6459.753396833185
 21
-2101.67047923178
 31
0.0
  0
LINE
  5
4759
330
1F
100
AcDbEntity
  8
CETRIS
100
AcDbLine
 10
6217.392861070386
 20
-2300.144282379967
 30
0.0
 11
6459.753396833185
 21
-2300.144282379967
 31
0.0
  0
LINE
  5
4A51
330
1F
100
AcDbEntity
  8
SPOJOVACÍ
  6
Continuous
100
AcDbLine
 10
6445.127897569931
 20
-2137.435738579731
 30
0.0
 11
6445.48229455106
 21
-2134.599632578462
 31
0.0
  0
LINE
  5
4A52
330
1F
100
AcDbEntity
  8
SPOJOVACÍ
  6
Continuous
100
AcDbLine
 10
6443.105695392318
 20
-2124.572337499736
 30
0.0
 11
6447.15009975191
 21
-2125.932254513279
 31
0.0
  0
LINE
  5
4A53
330
1F
100
AcDbEntity
  8
SPOJOVACÍ
  6
Continuous
100
AcDbLine
 10
6443.105695392318
 20
-2121.452527880775
 30
0.0
 11
6447.15009975191
 21
-2122.812444894317
 31
0.0
  0
LINE
  5
4A54
330
1F
100
AcDbEntity
  8
SPOJOVACÍ
  6
Continuous
100
AcDbLine
 10
6443.105695392318
 20
-2122.048770565922
 30
0.0
 11
6447.15009975191
 21
-2123.408687579195
 31
0.0
  0
LINE
  5
4A55
330
1F
100
AcDbEntity
  8
SPOJOVACÍ
  6
Continuous
100
AcDbLine
 10
6442.728044017006
 20
-2121.830179253903
 30
0.0
 11
6447.527751122855
 21
-2123.030106030365
 31
0.0
  0
LINE
  5
4A56
330
1F
100
AcDbEntity
  8
SPOJOVACÍ
  6
Continuous
100
AcDbLine
 10
6443.105695392318
 20
-2118.332718261805
 30
0.0
 11
6447.15009975191
 21
-2119.692635275078
 31
0.0
  0
LINE
  5
4A57
330
1F
100
AcDbEntity
  8
SPOJOVACÍ
  6
Continuous
100
AcDbLine
 10
6443.105695392318
 20
-2118.928960946961
 30
0.0
 11
6447.15009975191
 21
-2120.288877960226
 31
0.0
  0
LINE
  5
4A58
330
1F
100
AcDbEntity
  8
SPOJOVACÍ
  6
Continuous
100
AcDbLine
 10
6442.728044017006
 20
-2118.710369634933
 30
0.0
 11
6447.527751122855
 21
-2119.910296411396
 31
0.0
  0
LINE
  5
4A59
330
1F
100
AcDbEntity
  8
SPOJOVACÍ
  6
Continuous
100
AcDbLine
 10
6443.105695392318
 20
-2115.212908642567
 30
0.0
 11
6447.15009975191
 21
-2116.571895480408
 31
0.0
  0
LINE
  5
4A5A
330
1F
100
AcDbEntity
  8
SPOJOVACÍ
  6
Continuous
100
AcDbLine
 10
6443.105695392318
 20
-2115.809151327722
 30
0.0
 11
6447.15009975191
 21
-2117.168138165286
 31
0.0
  0
LINE
  5
4A5B
330
1F
100
AcDbEntity
  8
SPOJOVACÍ
  6
Continuous
100
AcDbLine
 10
6442.728044017006
 20
-2115.590560015695
 30
0.0
 11
6447.527751122855
 21
-2116.790486792434
 31
0.0
  0
LINE
  5
4A5C
330
1F
100
AcDbEntity
  8
SPOJOVACÍ
  6
Continuous
100
AcDbLine
 10
6443.105695392318
 20
-2112.092168847904
 30
0.0
 11
6447.15009975191
 21
-2113.452085861169
 31
0.0
  0
LINE
  5
4A5D
330
1F
100
AcDbEntity
  8
SPOJOVACÍ
  6
Continuous
100
AcDbLine
 10
6443.105695392318
 20
-2112.688411532782
 30
0.0
 11
6447.15009975191
 21
-2114.048328546324
 31
0.0
  0
LINE
  5
4A5E
330
1F
100
AcDbEntity
  8
SPOJOVACÍ
  6
Continuous
100
AcDbLine
 10
6442.728044017006
 20
-2112.470750396734
 30
0.0
 11
6447.527751122855
 21
-2113.670677173196
 31
0.0
  0
LINE
  5
4A5F
330
1F
100
AcDbEntity
  8
SPOJOVACÍ
  6
Continuous
100
AcDbLine
 10
6440.027743681297
 20
-2102.870406008511
 30
0.0
 11
6450.228051458565
 21
-2102.870406008511
 31
0.0
  0
LINE
  5
4A60
330
1F
100
AcDbEntity
  8
SPOJOVACÍ
  6
Continuous
100
AcDbLine
 10
6440.027743681297
 20
-2101.67047923178
 30
0.0
 11
6450.228051458565
 21
-2101.67047923178
 31
0.0
  0
LINE
  5
4A61
330
1F
100
AcDbEntity
  8
SPOJOVACÍ
  6
Continuous
100
AcDbLine
 10
6444.111215428005
 20
-2134.056409913774
 30
0.0
 11
6446.265502569461
 21
-2134.367088629548
 31
0.0
  0
LINE
  5
4A62
330
1F
100
AcDbEntity
  8
SPOJOVACÍ
  6
Continuous
100
AcDbLine
 10
6444.48886679895
 20
-2133.678758540646
 30
0.0
 11
6445.887851198516
 21
-2134.149427493231
 31
0.0
  0
LINE
  5
4A63
330
1F
100
AcDbEntity
  8
SPOJOVACÍ
  6
Continuous
100
AcDbLine
 10
6444.48886679895
 20
-2134.275001225793
 30
0.0
 11
6445.887851198516
 21
-2134.745670178378
 31
0.0
  0
LINE
  5
4A64
330
1F
100
AcDbEntity
  8
SPOJOVACÍ
  6
Continuous
100
AcDbLine
 10
6443.546598717533
 20
-2131.042640335455
 30
0.0
 11
6446.662687633964
 21
-2131.676090052225
 31
0.0
  0
LINE
  5
4A65
330
1F
100
AcDbEntity
  8
SPOJOVACÍ
  6
Continuous
100
AcDbLine
 10
6443.924250092845
 20
-2130.664058786348
 30
0.0
 11
6446.285036263019
 21
-2131.458428916177
 31
0.0
  0
LINE
  5
4A66
330
1F
100
AcDbEntity
  8
SPOJOVACÍ
  6
Continuous
100
AcDbLine
 10
6443.924250092845
 20
-2131.260301471503
 30
0.0
 11
6446.285036263019
 21
-2132.054671601055
 31
0.0
  0
LINE
  5
4A67
330
1F
100
AcDbEntity
  8
SPOJOVACÍ
  6
Continuous
100
AcDbLine
 10
6442.981982011428
 20
-2128.027940581156
 30
0.0
 11
6447.10731166417
 21
-2129.000904463461
 31
0.0
  0
LINE
  5
4A68
330
1F
100
AcDbEntity
  8
SPOJOVACÍ
  6
Continuous
100
AcDbLine
 10
6443.360563559711
 20
-2127.650289208028
 30
0.0
 11
6446.729660293225
 21
-2128.783243327413
 31
0.0
  0
LINE
  5
4A69
330
1F
100
AcDbEntity
  8
SPOJOVACÍ
  6
Continuous
100
AcDbLine
 10
6443.360563559711
 20
-2128.246531893184
 30
0.0
 11
6446.729660293225
 21
-2129.379486012568
 31
0.0
  0
LINE
  5
4A6A
330
1F
100
AcDbEntity
  8
SPOJOVACÍ
  6
Continuous
100
AcDbLine
 10
6443.105695392318
 20
-2125.168580184892
 30
0.0
 11
6447.15009975191
 21
-2126.528497198433
 31
0.0
  0
LINE
  5
4A6B
330
1F
100
AcDbEntity
  8
SPOJOVACÍ
  6
Continuous
100
AcDbLine
 10
6442.728044017006
 20
-2124.950919048843
 30
0.0
 11
6447.527751122855
 21
-2126.150845825305
 31
0.0
  0
LINE
  5
4A6C
330
1F
100
AcDbEntity
  8
SPOJOVACÍ
  6
Continuous
100
AcDbLine
 10
6444.741874616032
 20
-2134.346624761926
 30
0.0
 11
6445.127897569931
 21
-2137.435738579731
 31
0.0
  0
LINE
  5
4A6D
330
1F
100
AcDbEntity
  8
SPOJOVACÍ
  6
Continuous
100
AcDbLine
 10
6442.728044017006
 20
-2124.950919048843
 30
0.0
 11
6443.105695392318
 21
-2124.572337499736
 31
0.0
  0
LINE
  5
4A6E
330
1F
100
AcDbEntity
  8
SPOJOVACÍ
  6
Continuous
100
AcDbLine
 10
6442.728044017006
 20
-2124.950919048843
 30
0.0
 11
6443.105695392318
 21
-2125.168580184892
 31
0.0
  0
LINE
  5
4A6F
330
1F
100
AcDbEntity
  8
SPOJOVACÍ
  6
Continuous
100
AcDbLine
 10
6442.728044017006
 20
-2121.830179253903
 30
0.0
 11
6443.105695392318
 21
-2121.452527880775
 31
0.0
  0
LINE
  5
4A70
330
1F
100
AcDbEntity
  8
SPOJOVACÍ
  6
Continuous
100
AcDbLine
 10
6442.728044017006
 20
-2121.830179253903
 30
0.0
 11
6443.105695392318
 21
-2122.048770565922
 31
0.0
  0
LINE
  5
4A71
330
1F
100
AcDbEntity
  8
SPOJOVACÍ
  6
Continuous
100
AcDbLine
 10
6442.728044017006
 20
-2118.710369634933
 30
0.0
 11
6443.105695392318
 21
-2118.332718261805
 31
0.0
  0
LINE
  5
4A72
330
1F
100
AcDbEntity
  8
SPOJOVACÍ
  6
Continuous
100
AcDbLine
 10
6442.728044017006
 20
-2118.710369634933
 30
0.0
 11
6443.105695392318
 21
-2118.928960946961
 31
0.0
  0
LINE
  5
4A73
330
1F
100
AcDbEntity
  8
SPOJOVACÍ
  6
Continuous
100
AcDbLine
 10
6442.728044017006
 20
-2115.590560015695
 30
0.0
 11
6443.105695392318
 21
-2115.212908642567
 31
0.0
  0
LINE
  5
4A74
330
1F
100
AcDbEntity
  8
SPOJOVACÍ
  6
Continuous
100
AcDbLine
 10
6442.728044017006
 20
-2115.590560015695
 30
0.0
 11
6443.105695392318
 21
-2115.809151327722
 31
0.0
  0
LINE
  5
4A75
330
1F
100
AcDbEntity
  8
SPOJOVACÍ
  6
Continuous
100
AcDbLine
 10
6442.728044017006
 20
-2112.470750396734
 30
0.0
 11
6443.105695392318
 21
-2112.092168847904
 31
0.0
  0
LINE
  5
4A76
330
1F
100
AcDbEntity
  8
SPOJOVACÍ
  6
Continuous
100
AcDbLine
 10
6442.728044017006
 20
-2112.470750396734
 30
0.0
 11
6443.105695392318
 21
-2112.688411532782
 31
0.0
  0
LINE
  5
4A77
330
1F
100
AcDbEntity
  8
SPOJOVACÍ
  6
Continuous
100
AcDbLine
 10
6443.778212490745
 20
-2122.273873108407
 30
0.0
 11
6443.778212490745
 21
-2124.791858987734
 31
0.0
  0
LINE
  5
4A78
330
1F
100
AcDbEntity
  8
SPOJOVACÍ
  6
Continuous
100
AcDbLine
 10
6443.778212490745
 20
-2119.141041028252
 30
0.0
 11
6443.778212490745
 21
-2121.669258841121
 31
0.0
  0
LINE
  5
4A79
330
1F
100
AcDbEntity
  8
SPOJOVACÍ
  6
Continuous
100
AcDbLine
 10
6443.778212490745
 20
-2116.025882288068
 30
0.0
 11
6443.778212490745
 21
-2118.546658694778
 31
0.0
  0
LINE
  5
4A7A
330
1F
100
AcDbEntity
  8
SPOJOVACÍ
  6
Continuous
100
AcDbLine
 10
6443.778212490745
 20
-2112.903282141725
 30
0.0
 11
6443.778212490745
 21
-2115.422198196753
 31
0.0
  0
LINE
  5
4A7B
330
1F
100
AcDbEntity
  8
SPOJOVACÍ
  6
Continuous
100
AcDbLine
 10
6443.778212490745
 20
-2108.270076502868
 30
0.0
 11
6443.778212490745
 21
-2112.307969632548
 31
0.0
  0
LINE
  5
4A7C
330
1F
100
AcDbEntity
  8
SPOJOVACÍ
  6
Continuous
100
AcDbLine
 10
6440.027743681297
 20
-2102.870406008511
 30
0.0
 11
6441.377428764848
 21
-2103.614546644986
 31
0.0
  0
LINE
  5
4A7D
330
1F
100
AcDbEntity
  8
SPOJOVACÍ
  6
Continuous
100
AcDbLine
 10
6441.377428764848
 20
-2103.614546644986
 30
0.0
 11
6442.488058665206
 21
-2104.683318634398
 31
0.0
  0
LINE
  5
4A7E
330
1F
100
AcDbEntity
  8
SPOJOVACÍ
  6
Continuous
100
AcDbLine
 10
6442.488058665206
 20
-2104.683318634398
 30
0.0
 11
6443.284289144525
 21
-2106.002307912695
 31
0.0
  0
LINE
  5
4A7F
330
1F
100
AcDbEntity
  8
SPOJOVACÍ
  6
Continuous
100
AcDbLine
 10
6443.284289144525
 20
-2106.002307912695
 30
0.0
 11
6443.712170008824
 21
-2107.483147779745
 31
0.0
  0
LINE
  5
4A80
330
1F
100
AcDbEntity
  8
SPOJOVACÍ
  6
Continuous
100
AcDbLine
 10
6443.712170008824
 20
-2107.483147779745
 30
0.0
 11
6443.778212490745
 21
-2108.270076502868
 31
0.0
  0
LINE
  5
4A81
330
1F
100
AcDbEntity
  8
SPOJOVACÍ
  6
Continuous
100
AcDbLine
 10
6440.027743681297
 20
-2101.67047923178
 30
0.0
 11
6440.027743681297
 21
-2102.870406008511
 31
0.0
  0
LINE
  5
4A82
330
1F
100
AcDbEntity
  8
SPOJOVACÍ
  6
Continuous
100
AcDbLine
 10
6444.111215428005
 20
-2134.056409913774
 30
0.0
 11
6444.48886679895
 21
-2133.678758540646
 31
0.0
  0
LINE
  5
4A83
330
1F
100
AcDbEntity
  8
SPOJOVACÍ
  6
Continuous
100
AcDbLine
 10
6444.111215428005
 20
-2134.056409913774
 30
0.0
 11
6444.48886679895
 21
-2134.275001225793
 31
0.0
  0
LINE
  5
4A84
330
1F
100
AcDbEntity
  8
SPOJOVACÍ
  6
Continuous
100
AcDbLine
 10
6443.546598717533
 20
-2131.042640335455
 30
0.0
 11
6443.924250092845
 21
-2130.664058786348
 31
0.0
  0
LINE
  5
4A85
330
1F
100
AcDbEntity
  8
SPOJOVACÍ
  6
Continuous
100
AcDbLine
 10
6443.546598717533
 20
-2131.042640335455
 30
0.0
 11
6443.924250092845
 21
-2131.260301471503
 31
0.0
  0
LINE
  5
4A86
330
1F
100
AcDbEntity
  8
SPOJOVACÍ
  6
Continuous
100
AcDbLine
 10
6442.981982011428
 20
-2128.027940581156
 30
0.0
 11
6443.360563559711
 21
-2127.650289208028
 31
0.0
  0
LINE
  5
4A87
330
1F
100
AcDbEntity
  8
SPOJOVACÍ
  6
Continuous
100
AcDbLine
 10
6442.981982011428
 20
-2128.027940581156
 30
0.0
 11
6443.360563559711
 21
-2128.246531893184
 31
0.0
  0
LINE
  5
4A88
330
1F
100
AcDbEntity
  8
SPOJOVACÍ
  6
Continuous
100
AcDbLine
 10
6444.374455178352
 20
-2131.405408895717
 30
0.0
 11
6444.664670023506
 21
-2133.726197506072
 31
0.0
  0
LINE
  5
4A89
330
1F
100
AcDbEntity
  8
SPOJOVACÍ
  6
Continuous
100
AcDbLine
 10
6444.005175385995
 20
-2128.453030919988
 30
0.0
 11
6444.295390235514
 21
-2130.774749706052
 31
0.0
  0
LINE
  5
4A8A
330
1F
100
AcDbEntity
  8
SPOJOVACÍ
  6
Continuous
100
AcDbLine
 10
6443.778212490745
 20
-2126.635467414777
 30
0.0
 11
6443.927970793469
 21
-2127.832603664134
 31
0.0
  0
LINE
  5
4A8B
330
1F
100
AcDbEntity
  8
SPOJOVACÍ
  6
Continuous
100
AcDbLine
 10
6443.778212490745
 20
-2125.388101672889
 30
0.0
 11
6443.778212490745
 21
-2126.635467414777
 31
0.0
  0
LINE
  5
4A8C
330
1F
100
AcDbEntity
  8
SPOJOVACÍ
  6
Continuous
100
AcDbLine
 10
6447.527751122855
 20
-2123.030106030365
 30
0.0
 11
6447.15009975191
 21
-2122.812444894317
 31
0.0
  0
LINE
  5
4A8D
330
1F
100
AcDbEntity
  8
SPOJOVACÍ
  6
Continuous
100
AcDbLine
 10
6447.527751122855
 20
-2123.030106030365
 30
0.0
 11
6447.15009975191
 21
-2123.408687579195
 31
0.0
  0
LINE
  5
4A8E
330
1F
100
AcDbEntity
  8
SPOJOVACÍ
  6
Continuous
100
AcDbLine
 10
6447.527751122855
 20
-2119.910296411396
 30
0.0
 11
6447.15009975191
 21
-2119.692635275078
 31
0.0
  0
LINE
  5
4A8F
330
1F
100
AcDbEntity
  8
SPOJOVACÍ
  6
Continuous
100
AcDbLine
 10
6447.527751122855
 20
-2119.910296411396
 30
0.0
 11
6447.15009975191
 21
-2120.288877960226
 31
0.0
  0
LINE
  5
4A90
330
1F
100
AcDbEntity
  8
SPOJOVACÍ
  6
Continuous
100
AcDbLine
 10
6447.527751122855
 20
-2116.790486792434
 30
0.0
 11
6447.15009975191
 21
-2116.571895480408
 31
0.0
  0
LINE
  5
4A91
330
1F
100
AcDbEntity
  8
SPOJOVACÍ
  6
Continuous
100
AcDbLine
 10
6447.527751122855
 20
-2116.790486792434
 30
0.0
 11
6447.15009975191
 21
-2117.168138165286
 31
0.0
  0
LINE
  5
4A92
330
1F
100
AcDbEntity
  8
SPOJOVACÍ
  6
Continuous
100
AcDbLine
 10
6447.527751122855
 20
-2113.670677173196
 30
0.0
 11
6447.15009975191
 21
-2113.452085861169
 31
0.0
  0
LINE
  5
4A93
330
1F
100
AcDbEntity
  8
SPOJOVACÍ
  6
Continuous
100
AcDbLine
 10
6447.527751122855
 20
-2113.670677173196
 30
0.0
 11
6447.15009975191
 21
-2114.048328546324
 31
0.0
  0
LINE
  5
4A94
330
1F
100
AcDbEntity
  8
SPOJOVACÍ
  6
Continuous
100
AcDbLine
 10
6446.477582653482
 20
-2123.176143630281
 30
0.0
 11
6446.477582653482
 21
-2125.69505968531
 31
0.0
  0
LINE
  5
4A95
330
1F
100
AcDbEntity
  8
SPOJOVACÍ
  6
Continuous
100
AcDbLine
 10
6446.477582653482
 20
-2120.054473659639
 30
0.0
 11
6446.477582653482
 21
-2122.575250066348
 31
0.0
  0
LINE
  5
4A96
330
1F
100
AcDbEntity
  8
SPOJOVACÍ
  6
Continuous
100
AcDbLine
 10
6446.477582653482
 20
-2116.931873513296
 30
0.0
 11
6446.477582653482
 21
-2119.460091326164
 31
0.0
  0
LINE
  5
4A97
330
1F
100
AcDbEntity
  8
SPOJOVACÍ
  6
Continuous
100
AcDbLine
 10
6446.477582653482
 20
-2113.816714773112
 30
0.0
 11
6446.477582653482
 21
-2116.33563082814
 31
0.0
  0
LINE
  5
4A98
330
1F
100
AcDbEntity
  8
SPOJOVACÍ
  6
Continuous
100
AcDbLine
 10
6446.477582653482
 20
-2108.270076502868
 30
0.0
 11
6446.477582653482
 21
-2113.213030681797
 31
0.0
  0
LINE
  5
4A99
330
1F
100
AcDbEntity
  8
SPOJOVACÍ
  6
Continuous
100
AcDbLine
 10
6448.275612463497
 20
-2104.125213156837
 30
0.0
 11
6449.512746272397
 21
-2103.207129646395
 31
0.0
  0
LINE
  5
4A9A
330
1F
100
AcDbEntity
  8
SPOJOVACÍ
  6
Continuous
100
AcDbLine
 10
6449.512746272397
 20
-2103.207129646395
 30
0.0
 11
6450.228051458565
 21
-2102.870406008511
 31
0.0
  0
LINE
  5
4A9B
330
1F
100
AcDbEntity
  8
SPOJOVACÍ
  6
Continuous
100
AcDbLine
 10
6450.228051458565
 20
-2101.67047923178
 30
0.0
 11
6450.228051458565
 21
-2102.870406008511
 31
0.0
  0
LINE
  5
4A9C
330
1F
100
AcDbEntity
  8
SPOJOVACÍ
  6
Continuous
100
AcDbLine
 10
6446.477582653482
 20
-2108.270076502868
 30
0.0
 11
6446.704545544365
 21
-2106.746448549439
 31
0.0
  0
LINE
  5
4A9D
330
1F
100
AcDbEntity
  8
SPOJOVACÍ
  6
Continuous
100
AcDbLine
 10
6446.704545544365
 20
-2106.746448549439
 30
0.0
 11
6447.317531393513
 21
-2105.332581339736
 31
0.0
  0
LINE
  5
4A9E
330
1F
100
AcDbEntity
  8
SPOJOVACÍ
  6
Continuous
100
AcDbLine
 10
6447.317531393513
 20
-2105.332581339736
 30
0.0
 11
6448.275612463497
 21
-2104.125213156837
 31
0.0
  0
LINE
  5
4A9F
330
1F
100
AcDbEntity
  8
SPOJOVACÍ
  6
Continuous
100
AcDbLine
 10
6447.527751122855
 20
-2126.150845825305
 30
0.0
 11
6447.15009975191
 21
-2126.528497198433
 31
0.0
  0
LINE
  5
4AA0
330
1F
100
AcDbEntity
  8
SPOJOVACÍ
  6
Continuous
100
AcDbLine
 10
6446.265502569461
 20
-2134.367088629548
 30
0.0
 11
6445.887851198516
 21
-2134.149427493231
 31
0.0
  0
LINE
  5
4AA1
330
1F
100
AcDbEntity
  8
SPOJOVACÍ
  6
Continuous
100
AcDbLine
 10
6446.265502569461
 20
-2134.367088629548
 30
0.0
 11
6445.887851198516
 21
-2134.745670178378
 31
0.0
  0
LINE
  5
4AA2
330
1F
100
AcDbEntity
  8
SPOJOVACÍ
  6
Continuous
100
AcDbLine
 10
6446.662687633964
 20
-2131.676090052225
 30
0.0
 11
6446.285036263019
 21
-2131.458428916177
 31
0.0
  0
LINE
  5
4AA3
330
1F
100
AcDbEntity
  8
SPOJOVACÍ
  6
Continuous
100
AcDbLine
 10
6446.662687633964
 20
-2131.676090052225
 30
0.0
 11
6446.285036263019
 21
-2132.054671601055
 31
0.0
  0
LINE
  5
4AA4
330
1F
100
AcDbEntity
  8
SPOJOVACÍ
  6
Continuous
100
AcDbLine
 10
6447.10731166417
 20
-2129.000904463461
 30
0.0
 11
6446.729660293225
 21
-2128.783243327413
 31
0.0
  0
LINE
  5
4AA5
330
1F
100
AcDbEntity
  8
SPOJOVACÍ
  6
Continuous
100
AcDbLine
 10
6447.10731166417
 20
-2129.000904463461
 30
0.0
 11
6446.729660293225
 21
-2129.379486012568
 31
0.0
  0
LINE
  5
4AA6
330
1F
100
AcDbEntity
  8
SPOJOVACÍ
  6
Continuous
100
AcDbLine
 10
6446.232016242014
 20
-2128.606509926064
 30
0.0
 11
6446.477582653482
 21
-2126.635467414777
 31
0.0
  0
LINE
  5
4AA7
330
1F
100
AcDbEntity
  8
SPOJOVACÍ
  6
Continuous
100
AcDbLine
 10
6445.893432249452
 20
-2131.313321491962
 30
0.0
 11
6446.16039270479
 21
-2129.176707689109
 31
0.0
  0
LINE
  5
4AA8
330
1F
100
AcDbEntity
  8
SPOJOVACÍ
  6
Continuous
100
AcDbLine
 10
6445.553918088283
 20
-2134.030364991395
 30
0.0
 11
6445.821808716594
 21
-2131.885379606411
 31
0.0
  0
LINE
  5
4AA9
330
1F
100
AcDbEntity
  8
SPOJOVACÍ
  6
Continuous
100
AcDbLine
 10
6446.477582653482
 20
-2126.298743776894
 30
0.0
 11
6446.477582653482
 21
-2126.635467414777
 31
0.0
  0
LINE
  5
4AAA
330
1F
100
AcDbEntity
  8
SPOJOVACÍ
  6
Continuous
100
AcDbLine
 10
6447.527751122855
 20
-2126.150845825305
 30
0.0
 11
6447.15009975191
 21
-2125.932254513279
 31
0.0
  0
LINE
  5
4AAB
330
1F
100
AcDbEntity
  8
SPOJOVACÍ
  6
Continuous
100
AcDbLine
 10
6446.477582653482
 20
-2293.544685108879
 30
0.0
 11
6446.477582653482
 21
-2288.60173092995
 31
0.0
  0
LINE
  5
4AAC
330
1F
100
AcDbEntity
  8
SPOJOVACÍ
  6
Continuous
100
AcDbLine
 10
6443.778212490745
 20
-2293.544685108879
 30
0.0
 11
6443.778212490745
 21
-2289.506791979199
 31
0.0
  0
LINE
  5
4AAD
330
1F
100
AcDbEntity
  8
SPOJOVACÍ
  6
Continuous
100
AcDbLine
 10
6440.027743681297
 20
-2300.144282379967
 30
0.0
 11
6450.228051458565
 21
-2300.144282379967
 31
0.0
  0
LINE
  5
4AAE
330
1F
100
AcDbEntity
  8
SPOJOVACÍ
  6
Continuous
100
AcDbLine
 10
6440.027743681297
 20
-2298.944355603235
 30
0.0
 11
6450.228051458565
 21
-2298.944355603235
 31
0.0
  0
LINE
  5
4AAF
330
1F
100
AcDbEntity
  8
SPOJOVACÍ
  6
Continuous
100
AcDbLine
 10
6440.027743681297
 20
-2300.144282379967
 30
0.0
 11
6440.027743681297
 21
-2298.944355603235
 31
0.0
  0
LINE
  5
4AB0
330
1F
100
AcDbEntity
  8
SPOJOVACÍ
  6
Continuous
100
AcDbLine
 10
6443.712170008824
 20
-2294.331613832001
 30
0.0
 11
6443.778212490745
 21
-2293.544685108879
 31
0.0
  0
LINE
  5
4AB1
330
1F
100
AcDbEntity
  8
SPOJOVACÍ
  6
Continuous
100
AcDbLine
 10
6443.284289144525
 20
-2295.812453699051
 30
0.0
 11
6443.712170008824
 21
-2294.331613832001
 31
0.0
  0
LINE
  5
4AB2
330
1F
100
AcDbEntity
  8
SPOJOVACÍ
  6
Continuous
100
AcDbLine
 10
6442.488058665206
 20
-2297.131442977349
 30
0.0
 11
6443.284289144525
 21
-2295.812453699051
 31
0.0
  0
LINE
  5
4AB3
330
1F
100
AcDbEntity
  8
SPOJOVACÍ
  6
Continuous
100
AcDbLine
 10
6441.377428764848
 20
-2298.200214966761
 30
0.0
 11
6442.488058665206
 21
-2297.131442977349
 31
0.0
  0
LINE
  5
4AB4
330
1F
100
AcDbEntity
  8
SPOJOVACÍ
  6
Continuous
100
AcDbLine
 10
6440.027743681297
 20
-2298.944355603235
 30
0.0
 11
6441.377428764848
 21
-2298.200214966761
 31
0.0
  0
LINE
  5
4AB5
330
1F
100
AcDbEntity
  8
SPOJOVACÍ
  6
Continuous
100
AcDbLine
 10
6447.317531393513
 20
-2296.482180272011
 30
0.0
 11
6448.275612463497
 21
-2297.68954845491
 31
0.0
  0
LINE
  5
4AB6
330
1F
100
AcDbEntity
  8
SPOJOVACÍ
  6
Continuous
100
AcDbLine
 10
6446.704545544365
 20
-2295.068313062308
 30
0.0
 11
6447.317531393513
 21
-2296.482180272011
 31
0.0
  0
LINE
  5
4AB7
330
1F
100
AcDbEntity
  8
SPOJOVACÍ
  6
Continuous
100
AcDbLine
 10
6446.477582653482
 20
-2293.544685108879
 30
0.0
 11
6446.704545544365
 21
-2295.068313062308
 31
0.0
  0
LINE
  5
4AB8
330
1F
100
AcDbEntity
  8
SPOJOVACÍ
  6
Continuous
100
AcDbLine
 10
6450.228051458565
 20
-2300.144282379967
 30
0.0
 11
6450.228051458565
 21
-2298.944355603235
 31
0.0
  0
LINE
  5
4AB9
330
1F
100
AcDbEntity
  8
SPOJOVACÍ
  6
Continuous
100
AcDbLine
 10
6449.512746272397
 20
-2298.607631965352
 30
0.0
 11
6450.228051458565
 21
-2298.944355603235
 31
0.0
  0
LINE
  5
4ABA
330
1F
100
AcDbEntity
  8
SPOJOVACÍ
  6
Continuous
100
AcDbLine
 10
6448.275612463497
 20
-2297.68954845491
 30
0.0
 11
6449.512746272397
 21
-2298.607631965352
 31
0.0
  0
LINE
  5
4ABB
330
1F
100
AcDbEntity
  8
SPOJOVACÍ
  6
Continuous
100
AcDbLine
 10
6442.728044017006
 20
-2276.863842562904
 30
0.0
 11
6447.527751122855
 21
-2275.663915786442
 31
0.0
  0
LINE
  5
4ABC
330
1F
100
AcDbEntity
  8
SPOJOVACÍ
  6
Continuous
100
AcDbLine
 10
6443.105695392318
 20
-2276.646181426856
 30
0.0
 11
6447.15009975191
 21
-2275.286264413313
 31
0.0
  0
LINE
  5
4ABD
330
1F
100
AcDbEntity
  8
SPOJOVACÍ
  6
Continuous
100
AcDbLine
 10
6443.360563559711
 20
-2273.568229718564
 30
0.0
 11
6446.729660293225
 21
-2272.435275599179
 31
0.0
  0
LINE
  5
4ABE
330
1F
100
AcDbEntity
  8
SPOJOVACÍ
  6
Continuous
100
AcDbLine
 10
6443.360563559711
 20
-2274.164472403718
 30
0.0
 11
6446.729660293225
 21
-2273.031518284334
 31
0.0
  0
LINE
  5
4ABF
330
1F
100
AcDbEntity
  8
SPOJOVACÍ
  6
Continuous
100
AcDbLine
 10
6442.981982011428
 20
-2273.78682103059
 30
0.0
 11
6447.10731166417
 21
-2272.813857148285
 31
0.0
  0
LINE
  5
4AC0
330
1F
100
AcDbEntity
  8
SPOJOVACÍ
  6
Continuous
100
AcDbLine
 10
6443.924250092845
 20
-2270.554460140244
 30
0.0
 11
6446.285036263019
 21
-2269.760090010692
 31
0.0
  0
LINE
  5
4AC1
330
1F
100
AcDbEntity
  8
SPOJOVACÍ
  6
Continuous
100
AcDbLine
 10
6443.924250092845
 20
-2271.150702825399
 30
0.0
 11
6446.285036263019
 21
-2270.356332695571
 31
0.0
  0
LINE
  5
4AC2
330
1F
100
AcDbEntity
  8
SPOJOVACÍ
  6
Continuous
100
AcDbLine
 10
6443.546598717533
 20
-2270.772121276292
 30
0.0
 11
6446.662687633964
 21
-2270.138671559522
 31
0.0
  0
LINE
  5
4AC3
330
1F
100
AcDbEntity
  8
SPOJOVACÍ
  6
Continuous
100
AcDbLine
 10
6444.48886679895
 20
-2267.539760385953
 30
0.0
 11
6445.887851198516
 21
-2267.069091433369
 31
0.0
  0
LINE
  5
4AC4
330
1F
100
AcDbEntity
  8
SPOJOVACÍ
  6
Continuous
100
AcDbLine
 10
6444.48886679895
 20
-2268.136003071101
 30
0.0
 11
6445.887851198516
 21
-2267.665334118516
 31
0.0
  0
LINE
  5
4AC5
330
1F
100
AcDbEntity
  8
SPOJOVACÍ
  6
Continuous
100
AcDbLine
 10
6444.111215428005
 20
-2267.758351697973
 30
0.0
 11
6446.265502569461
 21
-2267.447672982199
 31
0.0
  0
LINE
  5
4AC6
330
1F
100
AcDbEntity
  8
SPOJOVACÍ
  6
Continuous
100
AcDbLine
 10
6442.728044017006
 20
-2289.344011215014
 30
0.0
 11
6447.527751122855
 21
-2288.144084438551
 31
0.0
  0
LINE
  5
4AC7
330
1F
100
AcDbEntity
  8
SPOJOVACÍ
  6
Continuous
100
AcDbLine
 10
6443.105695392318
 20
-2289.126350078965
 30
0.0
 11
6447.15009975191
 21
-2287.766433065423
 31
0.0
  0
LINE
  5
4AC8
330
1F
100
AcDbEntity
  8
SPOJOVACÍ
  6
Continuous
100
AcDbLine
 10
6443.105695392318
 20
-2289.722592763844
 30
0.0
 11
6447.15009975191
 21
-2288.362675750577
 31
0.0
  0
LINE
  5
4AC9
330
1F
100
AcDbEntity
  8
SPOJOVACÍ
  6
Continuous
100
AcDbLine
 10
6442.728044017006
 20
-2286.224201596052
 30
0.0
 11
6447.527751122855
 21
-2285.024274819313
 31
0.0
  0
LINE
  5
4ACA
330
1F
100
AcDbEntity
  8
SPOJOVACÍ
  6
Continuous
100
AcDbLine
 10
6443.105695392318
 20
-2286.005610284025
 30
0.0
 11
6447.15009975191
 21
-2284.646623446461
 31
0.0
  0
LINE
  5
4ACB
330
1F
100
AcDbEntity
  8
SPOJOVACÍ
  6
Continuous
100
AcDbLine
 10
6443.105695392318
 20
-2286.60185296918
 30
0.0
 11
6447.15009975191
 21
-2285.242866131339
 31
0.0
  0
LINE
  5
4ACC
330
1F
100
AcDbEntity
  8
SPOJOVACÍ
  6
Continuous
100
AcDbLine
 10
6442.728044017006
 20
-2283.104391976813
 30
0.0
 11
6447.527751122855
 21
-2281.904465200351
 31
0.0
  0
LINE
  5
4ACD
330
1F
100
AcDbEntity
  8
SPOJOVACÍ
  6
Continuous
100
AcDbLine
 10
6443.105695392318
 20
-2282.885800664787
 30
0.0
 11
6447.15009975191
 21
-2281.525883651521
 31
0.0
  0
LINE
  5
4ACE
330
1F
100
AcDbEntity
  8
SPOJOVACÍ
  6
Continuous
100
AcDbLine
 10
6443.105695392318
 20
-2283.482043349941
 30
0.0
 11
6447.15009975191
 21
-2282.122126336668
 31
0.0
  0
LINE
  5
4ACF
330
1F
100
AcDbEntity
  8
SPOJOVACÍ
  6
Continuous
100
AcDbLine
 10
6442.728044017006
 20
-2279.984582357844
 30
0.0
 11
6447.527751122855
 21
-2278.784655581382
 31
0.0
  0
LINE
  5
4AD0
330
1F
100
AcDbEntity
  8
SPOJOVACÍ
  6
Continuous
100
AcDbLine
 10
6443.105695392318
 20
-2279.765991045825
 30
0.0
 11
6447.15009975191
 21
-2278.406074032552
 31
0.0
  0
LINE
  5
4AD1
330
1F
100
AcDbEntity
  8
SPOJOVACÍ
  6
Continuous
100
AcDbLine
 10
6443.105695392318
 20
-2280.362233730972
 30
0.0
 11
6447.15009975191
 21
-2279.00231671743
 31
0.0
  0
LINE
  5
4AD2
330
1F
100
AcDbEntity
  8
SPOJOVACÍ
  6
Continuous
100
AcDbLine
 10
6443.105695392318
 20
-2277.24242411201
 30
0.0
 11
6447.15009975191
 21
-2275.882507098468
 31
0.0
  0
LINE
  5
4AD3
330
1F
100
AcDbEntity
  8
SPOJOVACÍ
  6
Continuous
100
AcDbLine
 10
6445.127897569931
 20
-2264.379023032016
 30
0.0
 11
6445.48229455106
 21
-2267.215129033285
 31
0.0
  0
LINE
  5
4AD4
330
1F
100
AcDbEntity
  8
SPOJOVACÍ
  6
Continuous
100
AcDbLine
 10
6443.778212490745
 20
-2276.426659938858
 30
0.0
 11
6443.778212490745
 21
-2275.179294196969
 31
0.0
  0
LINE
  5
4AD5
330
1F
100
AcDbEntity
  8
SPOJOVACÍ
  6
Continuous
100
AcDbLine
 10
6443.778212490745
 20
-2275.179294196969
 30
0.0
 11
6443.927970793469
 21
-2273.982157947612
 31
0.0
  0
LINE
  5
4AD6
330
1F
100
AcDbEntity
  8
SPOJOVACÍ
  6
Continuous
100
AcDbLine
 10
6444.005175385995
 20
-2273.361730691759
 30
0.0
 11
6444.295390235514
 21
-2271.040011905694
 31
0.0
  0
LINE
  5
4AD7
330
1F
100
AcDbEntity
  8
SPOJOVACÍ
  6
Continuous
100
AcDbLine
 10
6444.374455178352
 20
-2270.40935271603
 30
0.0
 11
6444.664670023506
 21
-2268.088564105674
 31
0.0
  0
LINE
  5
4AD8
330
1F
100
AcDbEntity
  8
SPOJOVACÍ
  6
Continuous
100
AcDbLine
 10
6442.981982011428
 20
-2273.78682103059
 30
0.0
 11
6443.360563559711
 21
-2273.568229718564
 31
0.0
  0
LINE
  5
4AD9
330
1F
100
AcDbEntity
  8
SPOJOVACÍ
  6
Continuous
100
AcDbLine
 10
6442.981982011428
 20
-2273.78682103059
 30
0.0
 11
6443.360563559711
 21
-2274.164472403718
 31
0.0
  0
LINE
  5
4ADA
330
1F
100
AcDbEntity
  8
SPOJOVACÍ
  6
Continuous
100
AcDbLine
 10
6443.546598717533
 20
-2270.772121276292
 30
0.0
 11
6443.924250092845
 21
-2270.554460140244
 31
0.0
  0
LINE
  5
4ADB
330
1F
100
AcDbEntity
  8
SPOJOVACÍ
  6
Continuous
100
AcDbLine
 10
6443.546598717533
 20
-2270.772121276292
 30
0.0
 11
6443.924250092845
 21
-2271.150702825399
 31
0.0
  0
LINE
  5
4ADC
330
1F
100
AcDbEntity
  8
SPOJOVACÍ
  6
Continuous
100
AcDbLine
 10
6444.111215428005
 20
-2267.758351697973
 30
0.0
 11
6444.48886679895
 21
-2267.539760385953
 31
0.0
  0
LINE
  5
4ADD
330
1F
100
AcDbEntity
  8
SPOJOVACÍ
  6
Continuous
100
AcDbLine
 10
6444.111215428005
 20
-2267.758351697973
 30
0.0
 11
6444.48886679895
 21
-2268.136003071101
 31
0.0
  0
LINE
  5
4ADE
330
1F
100
AcDbEntity
  8
SPOJOVACÍ
  6
Continuous
100
AcDbLine
 10
6443.778212490745
 20
-2288.911479470022
 30
0.0
 11
6443.778212490745
 21
-2286.392563414993
 31
0.0
  0
LINE
  5
4ADF
330
1F
100
AcDbEntity
  8
SPOJOVACÍ
  6
Continuous
100
AcDbLine
 10
6443.778212490745
 20
-2285.788879323678
 30
0.0
 11
6443.778212490745
 21
-2283.26810291697
 31
0.0
  0
LINE
  5
4AE0
330
1F
100
AcDbEntity
  8
SPOJOVACÍ
  6
Continuous
100
AcDbLine
 10
6443.778212490745
 20
-2282.673720583495
 30
0.0
 11
6443.778212490745
 21
-2280.145502770626
 31
0.0
  0
LINE
  5
4AE1
330
1F
100
AcDbEntity
  8
SPOJOVACÍ
  6
Continuous
100
AcDbLine
 10
6443.778212490745
 20
-2279.54088850334
 30
0.0
 11
6443.778212490745
 21
-2277.022902624012
 31
0.0
  0
LINE
  5
4AE2
330
1F
100
AcDbEntity
  8
SPOJOVACÍ
  6
Continuous
100
AcDbLine
 10
6442.728044017006
 20
-2289.344011215014
 30
0.0
 11
6443.105695392318
 21
-2289.126350078965
 31
0.0
  0
LINE
  5
4AE3
330
1F
100
AcDbEntity
  8
SPOJOVACÍ
  6
Continuous
100
AcDbLine
 10
6442.728044017006
 20
-2289.344011215014
 30
0.0
 11
6443.105695392318
 21
-2289.722592763844
 31
0.0
  0
LINE
  5
4AE4
330
1F
100
AcDbEntity
  8
SPOJOVACÍ
  6
Continuous
100
AcDbLine
 10
6442.728044017006
 20
-2286.224201596052
 30
0.0
 11
6443.105695392318
 21
-2286.005610284025
 31
0.0
  0
LINE
  5
4AE5
330
1F
100
AcDbEntity
  8
SPOJOVACÍ
  6
Continuous
100
AcDbLine
 10
6442.728044017006
 20
-2286.224201596052
 30
0.0
 11
6443.105695392318
 21
-2286.60185296918
 31
0.0
  0
LINE
  5
4AE6
330
1F
100
AcDbEntity
  8
SPOJOVACÍ
  6
Continuous
100
AcDbLine
 10
6442.728044017006
 20
-2283.104391976813
 30
0.0
 11
6443.105695392318
 21
-2282.885800664787
 31
0.0
  0
LINE
  5
4AE7
330
1F
100
AcDbEntity
  8
SPOJOVACÍ
  6
Continuous
100
AcDbLine
 10
6442.728044017006
 20
-2283.104391976813
 30
0.0
 11
6443.105695392318
 21
-2283.482043349941
 31
0.0
  0
LINE
  5
4AE8
330
1F
100
AcDbEntity
  8
SPOJOVACÍ
  6
Continuous
100
AcDbLine
 10
6442.728044017006
 20
-2279.984582357844
 30
0.0
 11
6443.105695392318
 21
-2279.765991045825
 31
0.0
  0
LINE
  5
4AE9
330
1F
100
AcDbEntity
  8
SPOJOVACÍ
  6
Continuous
100
AcDbLine
 10
6442.728044017006
 20
-2279.984582357844
 30
0.0
 11
6443.105695392318
 21
-2280.362233730972
 31
0.0
  0
LINE
  5
4AEA
330
1F
100
AcDbEntity
  8
SPOJOVACÍ
  6
Continuous
100
AcDbLine
 10
6442.728044017006
 20
-2276.863842562904
 30
0.0
 11
6443.105695392318
 21
-2276.646181426856
 31
0.0
  0
LINE
  5
4AEB
330
1F
100
AcDbEntity
  8
SPOJOVACÍ
  6
Continuous
100
AcDbLine
 10
6442.728044017006
 20
-2276.863842562904
 30
0.0
 11
6443.105695392318
 21
-2277.24242411201
 31
0.0
  0
LINE
  5
4AEC
330
1F
100
AcDbEntity
  8
SPOJOVACÍ
  6
Continuous
100
AcDbLine
 10
6444.741874616032
 20
-2267.468136849821
 30
0.0
 11
6445.127897569931
 21
-2264.379023032016
 31
0.0
  0
LINE
  5
4AED
330
1F
100
AcDbEntity
  8
SPOJOVACÍ
  6
Continuous
100
AcDbLine
 10
6447.527751122855
 20
-2275.663915786442
 30
0.0
 11
6447.15009975191
 21
-2275.882507098468
 31
0.0
  0
LINE
  5
4AEE
330
1F
100
AcDbEntity
  8
SPOJOVACÍ
  6
Continuous
100
AcDbLine
 10
6446.477582653482
 20
-2275.516017834853
 30
0.0
 11
6446.477582653482
 21
-2275.179294196969
 31
0.0
  0
LINE
  5
4AEF
330
1F
100
AcDbEntity
  8
SPOJOVACÍ
  6
Continuous
100
AcDbLine
 10
6445.553918088283
 20
-2267.784396620351
 30
0.0
 11
6445.821808716594
 21
-2269.929382005336
 31
0.0
  0
LINE
  5
4AF0
330
1F
100
AcDbEntity
  8
SPOJOVACÍ
  6
Continuous
100
AcDbLine
 10
6445.893432249452
 20
-2270.501440119784
 30
0.0
 11
6446.16039270479
 21
-2272.638053922638
 31
0.0
  0
LINE
  5
4AF1
330
1F
100
AcDbEntity
  8
SPOJOVACÍ
  6
Continuous
100
AcDbLine
 10
6446.232016242014
 20
-2273.208251685683
 30
0.0
 11
6446.477582653482
 21
-2275.179294196969
 31
0.0
  0
LINE
  5
4AF2
330
1F
100
AcDbEntity
  8
SPOJOVACÍ
  6
Continuous
100
AcDbLine
 10
6447.10731166417
 20
-2272.813857148285
 30
0.0
 11
6446.729660293225
 21
-2272.435275599179
 31
0.0
  0
LINE
  5
4AF3
330
1F
100
AcDbEntity
  8
SPOJOVACÍ
  6
Continuous
100
AcDbLine
 10
6447.10731166417
 20
-2272.813857148285
 30
0.0
 11
6446.729660293225
 21
-2273.031518284334
 31
0.0
  0
LINE
  5
4AF4
330
1F
100
AcDbEntity
  8
SPOJOVACÍ
  6
Continuous
100
AcDbLine
 10
6446.662687633964
 20
-2270.138671559522
 30
0.0
 11
6446.285036263019
 21
-2269.760090010692
 31
0.0
  0
LINE
  5
4AF5
330
1F
100
AcDbEntity
  8
SPOJOVACÍ
  6
Continuous
100
AcDbLine
 10
6446.662687633964
 20
-2270.138671559522
 30
0.0
 11
6446.285036263019
 21
-2270.356332695571
 31
0.0
  0
LINE
  5
4AF6
330
1F
100
AcDbEntity
  8
SPOJOVACÍ
  6
Continuous
100
AcDbLine
 10
6446.265502569461
 20
-2267.447672982199
 30
0.0
 11
6445.887851198516
 21
-2267.069091433369
 31
0.0
  0
LINE
  5
4AF7
330
1F
100
AcDbEntity
  8
SPOJOVACÍ
  6
Continuous
100
AcDbLine
 10
6446.265502569461
 20
-2267.447672982199
 30
0.0
 11
6445.887851198516
 21
-2267.665334118516
 31
0.0
  0
LINE
  5
4AF8
330
1F
100
AcDbEntity
  8
SPOJOVACÍ
  6
Continuous
100
AcDbLine
 10
6447.527751122855
 20
-2275.663915786442
 30
0.0
 11
6447.15009975191
 21
-2275.286264413313
 31
0.0
  0
LINE
  5
4AF9
330
1F
100
AcDbEntity
  8
SPOJOVACÍ
  6
Continuous
100
AcDbLine
 10
6446.477582653482
 20
-2287.998046838635
 30
0.0
 11
6446.477582653482
 21
-2285.479130783606
 31
0.0
  0
LINE
  5
4AFA
330
1F
100
AcDbEntity
  8
SPOJOVACÍ
  6
Continuous
100
AcDbLine
 10
6446.477582653482
 20
-2284.882888098452
 30
0.0
 11
6446.477582653482
 21
-2282.354670285582
 31
0.0
  0
LINE
  5
4AFB
330
1F
100
AcDbEntity
  8
SPOJOVACÍ
  6
Continuous
100
AcDbLine
 10
6446.477582653482
 20
-2281.760287952108
 30
0.0
 11
6446.477582653482
 21
-2279.239511545399
 31
0.0
  0
LINE
  5
4AFC
330
1F
100
AcDbEntity
  8
SPOJOVACÍ
  6
Continuous
100
AcDbLine
 10
6446.477582653482
 20
-2278.638617981466
 30
0.0
 11
6446.477582653482
 21
-2276.119701926437
 31
0.0
  0
LINE
  5
4AFD
330
1F
100
AcDbEntity
  8
SPOJOVACÍ
  6
Continuous
100
AcDbLine
 10
6447.527751122855
 20
-2288.144084438551
 30
0.0
 11
6447.15009975191
 21
-2287.766433065423
 31
0.0
  0
LINE
  5
4AFE
330
1F
100
AcDbEntity
  8
SPOJOVACÍ
  6
Continuous
100
AcDbLine
 10
6447.527751122855
 20
-2288.144084438551
 30
0.0
 11
6447.15009975191
 21
-2288.362675750577
 31
0.0
  0
LINE
  5
4AFF
330
1F
100
AcDbEntity
  8
SPOJOVACÍ
  6
Continuous
100
AcDbLine
 10
6447.527751122855
 20
-2285.024274819313
 30
0.0
 11
6447.15009975191
 21
-2284.646623446461
 31
0.0
  0
LINE
  5
4B00
330
1F
100
AcDbEntity
  8
SPOJOVACÍ
  6
Continuous
100
AcDbLine
 10
6447.527751122855
 20
-2285.024274819313
 30
0.0
 11
6447.15009975191
 21
-2285.242866131339
 31
0.0
  0
LINE
  5
4B01
330
1F
100
AcDbEntity
  8
SPOJOVACÍ
  6
Continuous
100
AcDbLine
 10
6447.527751122855
 20
-2281.904465200351
 30
0.0
 11
6447.15009975191
 21
-2281.525883651521
 31
0.0
  0
LINE
  5
4B02
330
1F
100
AcDbEntity
  8
SPOJOVACÍ
  6
Continuous
100
AcDbLine
 10
6447.527751122855
 20
-2281.904465200351
 30
0.0
 11
6447.15009975191
 21
-2282.122126336668
 31
0.0
  0
LINE
  5
4B03
330
1F
100
AcDbEntity
  8
SPOJOVACÍ
  6
Continuous
100
AcDbLine
 10
6447.527751122855
 20
-2278.784655581382
 30
0.0
 11
6447.15009975191
 21
-2278.406074032552
 31
0.0
  0
LINE
  5
4B04
330
1F
100
AcDbEntity
  8
SPOJOVACÍ
  6
Continuous
100
AcDbLine
 10
6447.527751122855
 20
-2278.784655581382
 30
0.0
 11
6447.15009975191
 21
-2279.00231671743
 31
0.0
  0
LINE
  5
4B05
330
1F
100
AcDbEntity
  8
SPOJOVACÍ
  6
Continuous
100
AcDbLine
 10
6816.603236664135
 20
-2137.435738579731
 30
0.0
 11
6816.957633645263
 21
-2134.599632578462
 31
0.0
  0
LINE
  5
4B06
330
1F
100
AcDbEntity
  8
SPOJOVACÍ
  6
Continuous
100
AcDbLine
 10
6814.581034486521
 20
-2124.572337499736
 30
0.0
 11
6818.625438846114
 21
-2125.932254513279
 31
0.0
  0
LINE
  5
4B07
330
1F
100
AcDbEntity
  8
SPOJOVACÍ
  6
Continuous
100
AcDbLine
 10
6814.581034486521
 20
-2121.452527880775
 30
0.0
 11
6818.625438846114
 21
-2122.812444894317
 31
0.0
  0
LINE
  5
4B08
330
1F
100
AcDbEntity
  8
SPOJOVACÍ
  6
Continuous
100
AcDbLine
 10
6814.581034486521
 20
-2122.048770565922
 30
0.0
 11
6818.625438846114
 21
-2123.408687579195
 31
0.0
  0
LINE
  5
4B09
330
1F
100
AcDbEntity
  8
SPOJOVACÍ
  6
Continuous
100
AcDbLine
 10
6814.20338311121
 20
-2121.830179253903
 30
0.0
 11
6819.003090217059
 21
-2123.030106030365
 31
0.0
  0
LINE
  5
4B0A
330
1F
100
AcDbEntity
  8
SPOJOVACÍ
  6
Continuous
100
AcDbLine
 10
6814.581034486521
 20
-2118.332718261805
 30
0.0
 11
6818.625438846114
 21
-2119.692635275078
 31
0.0
  0
LINE
  5
4B0B
330
1F
100
AcDbEntity
  8
SPOJOVACÍ
  6
Continuous
100
AcDbLine
 10
6814.581034486521
 20
-2118.928960946961
 30
0.0
 11
6818.625438846114
 21
-2120.288877960226
 31
0.0
  0
LINE
  5
4B0C
330
1F
100
AcDbEntity
  8
SPOJOVACÍ
  6
Continuous
100
AcDbLine
 10
6814.20338311121
 20
-2118.710369634933
 30
0.0
 11
6819.003090217059
 21
-2119.910296411396
 31
0.0
  0
LINE
  5
4B0D
330
1F
100
AcDbEntity
  8
SPOJOVACÍ
  6
Continuous
100
AcDbLine
 10
6814.581034486521
 20
-2115.212908642567
 30
0.0
 11
6818.625438846114
 21
-2116.571895480408
 31
0.0
  0
LINE
  5
4B0E
330
1F
100
AcDbEntity
  8
SPOJOVACÍ
  6
Continuous
100
AcDbLine
 10
6814.581034486521
 20
-2115.809151327722
 30
0.0
 11
6818.625438846114
 21
-2117.168138165286
 31
0.0
  0
LINE
  5
4B0F
330
1F
100
AcDbEntity
  8
SPOJOVACÍ
  6
Continuous
100
AcDbLine
 10
6814.20338311121
 20
-2115.590560015695
 30
0.0
 11
6819.003090217059
 21
-2116.790486792434
 31
0.0
  0
LINE
  5
4B10
330
1F
100
AcDbEntity
  8
SPOJOVACÍ
  6
Continuous
100
AcDbLine
 10
6814.581034486521
 20
-2112.092168847904
 30
0.0
 11
6818.625438846114
 21
-2113.452085861169
 31
0.0
  0
LINE
  5
4B11
330
1F
100
AcDbEntity
  8
SPOJOVACÍ
  6
Continuous
100
AcDbLine
 10
6814.581034486521
 20
-2112.688411532782
 30
0.0
 11
6818.625438846114
 21
-2114.048328546324
 31
0.0
  0
LINE
  5
4B12
330
1F
100
AcDbEntity
  8
SPOJOVACÍ
  6
Continuous
100
AcDbLine
 10
6814.20338311121
 20
-2112.470750396734
 30
0.0
 11
6819.003090217059
 21
-2113.670677173196
 31
0.0
  0
LINE
  5
4B13
330
1F
100
AcDbEntity
  8
SPOJOVACÍ
  6
Continuous
100
AcDbLine
 10
6811.503082775501
 20
-2102.870406008511
 30
0.0
 11
6821.703390552769
 21
-2102.870406008511
 31
0.0
  0
LINE
  5
4B14
330
1F
100
AcDbEntity
  8
SPOJOVACÍ
  6
Continuous
100
AcDbLine
 10
6811.503082775501
 20
-2101.67047923178
 30
0.0
 11
6821.703390552769
 21
-2101.67047923178
 31
0.0
  0
LINE
  5
4B15
330
1F
100
AcDbEntity
  8
SPOJOVACÍ
  6
Continuous
100
AcDbLine
 10
6815.586554522209
 20
-2134.056409913774
 30
0.0
 11
6817.740841663665
 21
-2134.367088629548
 31
0.0
  0
LINE
  5
4B16
330
1F
100
AcDbEntity
  8
SPOJOVACÍ
  6
Continuous
100
AcDbLine
 10
6815.964205893154
 20
-2133.678758540646
 30
0.0
 11
6817.36319029272
 21
-2134.149427493231
 31
0.0
  0
LINE
  5
4B17
330
1F
100
AcDbEntity
  8
SPOJOVACÍ
  6
Continuous
100
AcDbLine
 10
6815.964205893154
 20
-2134.275001225793
 30
0.0
 11
6817.36319029272
 21
-2134.745670178378
 31
0.0
  0
LINE
  5
4B18
330
1F
100
AcDbEntity
  8
SPOJOVACÍ
  6
Continuous
100
AcDbLine
 10
6815.021937811737
 20
-2131.042640335455
 30
0.0
 11
6818.138026728168
 21
-2131.676090052225
 31
0.0
  0
LINE
  5
4B19
330
1F
100
AcDbEntity
  8
SPOJOVACÍ
  6
Continuous
100
AcDbLine
 10
6815.399589187048
 20
-2130.664058786348
 30
0.0
 11
6817.760375357223
 21
-2131.458428916177
 31
0.0
  0
LINE
  5
4B1A
330
1F
100
AcDbEntity
  8
SPOJOVACÍ
  6
Continuous
100
AcDbLine
 10
6815.399589187048
 20
-2131.260301471503
 30
0.0
 11
6817.760375357223
 21
-2132.054671601055
 31
0.0
  0
LINE
  5
4B1B
330
1F
100
AcDbEntity
  8
SPOJOVACÍ
  6
Continuous
100
AcDbLine
 10
6814.457321105631
 20
-2128.027940581156
 30
0.0
 11
6818.582650758374
 21
-2129.000904463461
 31
0.0
  0
LINE
  5
4B1C
330
1F
100
AcDbEntity
  8
SPOJOVACÍ
  6
Continuous
100
AcDbLine
 10
6814.835902653915
 20
-2127.650289208028
 30
0.0
 11
6818.204999387429
 21
-2128.783243327413
 31
0.0
  0
LINE
  5
4B1D
330
1F
100
AcDbEntity
  8
SPOJOVACÍ
  6
Continuous
100
AcDbLine
 10
6814.835902653915
 20
-2128.246531893184
 30
0.0
 11
6818.204999387429
 21
-2129.379486012568
 31
0.0
  0
LINE
  5
4B1E
330
1F
100
AcDbEntity
  8
SPOJOVACÍ
  6
Continuous
100
AcDbLine
 10
6814.581034486521
 20
-2125.168580184892
 30
0.0
 11
6818.625438846114
 21
-2126.528497198433
 31
0.0
  0
LINE
  5
4B1F
330
1F
100
AcDbEntity
  8
SPOJOVACÍ
  6
Continuous
100
AcDbLine
 10
6814.20338311121
 20
-2124.950919048843
 30
0.0
 11
6819.003090217059
 21
-2126.150845825305
 31
0.0
  0
LINE
  5
4B20
330
1F
100
AcDbEntity
  8
SPOJOVACÍ
  6
Continuous
100
AcDbLine
 10
6816.217213710236
 20
-2134.346624761926
 30
0.0
 11
6816.603236664135
 21
-2137.435738579731
 31
0.0
  0
LINE
  5
4B21
330
1F
100
AcDbEntity
  8
SPOJOVACÍ
  6
Continuous
100
AcDbLine
 10
6814.20338311121
 20
-2124.950919048843
 30
0.0
 11
6814.581034486521
 21
-2124.572337499736
 31
0.0
  0
LINE
  5
4B22
330
1F
100
AcDbEntity
  8
SPOJOVACÍ
  6
Continuous
100
AcDbLine
 10
6814.20338311121
 20
-2124.950919048843
 30
0.0
 11
6814.581034486521
 21
-2125.168580184892
 31
0.0
  0
LINE
  5
4B23
330
1F
100
AcDbEntity
  8
SPOJOVACÍ
  6
Continuous
100
AcDbLine
 10
6814.20338311121
 20
-2121.830179253903
 30
0.0
 11
6814.581034486521
 21
-2121.452527880775
 31
0.0
  0
LINE
  5
4B24
330
1F
100
AcDbEntity
  8
SPOJOVACÍ
  6
Continuous
100
AcDbLine
 10
6814.20338311121
 20
-2121.830179253903
 30
0.0
 11
6814.581034486521
 21
-2122.048770565922
 31
0.0
  0
LINE
  5
4B25
330
1F
100
AcDbEntity
  8
SPOJOVACÍ
  6
Continuous
100
AcDbLine
 10
6814.20338311121
 20
-2118.710369634933
 30
0.0
 11
6814.581034486521
 21
-2118.332718261805
 31
0.0
  0
LINE
  5
4B26
330
1F
100
AcDbEntity
  8
SPOJOVACÍ
  6
Continuous
100
AcDbLine
 10
6814.20338311121
 20
-2118.710369634933
 30
0.0
 11
6814.581034486521
 21
-2118.928960946961
 31
0.0
  0
LINE
  5
4B27
330
1F
100
AcDbEntity
  8
SPOJOVACÍ
  6
Continuous
100
AcDbLine
 10
6814.20338311121
 20
-2115.590560015695
 30
0.0
 11
6814.581034486521
 21
-2115.212908642567
 31
0.0
  0
LINE
  5
4B28
330
1F
100
AcDbEntity
  8
SPOJOVACÍ
  6
Continuous
100
AcDbLine
 10
6814.20338311121
 20
-2115.590560015695
 30
0.0
 11
6814.581034486521
 21
-2115.809151327722
 31
0.0
  0
LINE
  5
4B29
330
1F
100
AcDbEntity
  8
SPOJOVACÍ
  6
Continuous
100
AcDbLine
 10
6814.20338311121
 20
-2112.470750396734
 30
0.0
 11
6814.581034486521
 21
-2112.092168847904
 31
0.0
  0
LINE
  5
4B2A
330
1F
100
AcDbEntity
  8
SPOJOVACÍ
  6
Continuous
100
AcDbLine
 10
6814.20338311121
 20
-2112.470750396734
 30
0.0
 11
6814.581034486521
 21
-2112.688411532782
 31
0.0
  0
LINE
  5
4B2B
330
1F
100
AcDbEntity
  8
SPOJOVACÍ
  6
Continuous
100
AcDbLine
 10
6815.253551584949
 20
-2122.273873108407
 30
0.0
 11
6815.253551584949
 21
-2124.791858987734
 31
0.0
  0
LINE
  5
4B2C
330
1F
100
AcDbEntity
  8
SPOJOVACÍ
  6
Continuous
100
AcDbLine
 10
6815.253551584949
 20
-2119.141041028252
 30
0.0
 11
6815.253551584949
 21
-2121.669258841121
 31
0.0
  0
LINE
  5
4B2D
330
1F
100
AcDbEntity
  8
SPOJOVACÍ
  6
Continuous
100
AcDbLine
 10
6815.253551584949
 20
-2116.025882288068
 30
0.0
 11
6815.253551584949
 21
-2118.546658694778
 31
0.0
  0
LINE
  5
4B2E
330
1F
100
AcDbEntity
  8
SPOJOVACÍ
  6
Continuous
100
AcDbLine
 10
6815.253551584949
 20
-2112.903282141725
 30
0.0
 11
6815.253551584949
 21
-2115.422198196753
 31
0.0
  0
LINE
  5
4B2F
330
1F
100
AcDbEntity
  8
SPOJOVACÍ
  6
Continuous
100
AcDbLine
 10
6815.253551584949
 20
-2108.270076502868
 30
0.0
 11
6815.253551584949
 21
-2112.307969632548
 31
0.0
  0
LINE
  5
4B30
330
1F
100
AcDbEntity
  8
SPOJOVACÍ
  6
Continuous
100
AcDbLine
 10
6811.503082775501
 20
-2102.870406008511
 30
0.0
 11
6812.852767859052
 21
-2103.614546644986
 31
0.0
  0
LINE
  5
4B31
330
1F
100
AcDbEntity
  8
SPOJOVACÍ
  6
Continuous
100
AcDbLine
 10
6812.852767859052
 20
-2103.614546644986
 30
0.0
 11
6813.96339775941
 21
-2104.683318634398
 31
0.0
  0
LINE
  5
4B32
330
1F
100
AcDbEntity
  8
SPOJOVACÍ
  6
Continuous
100
AcDbLine
 10
6813.96339775941
 20
-2104.683318634398
 30
0.0
 11
6814.759628238729
 21
-2106.002307912695
 31
0.0
  0
LINE
  5
4B33
330
1F
100
AcDbEntity
  8
SPOJOVACÍ
  6
Continuous
100
AcDbLine
 10
6814.759628238729
 20
-2106.002307912695
 30
0.0
 11
6815.187509103028
 21
-2107.483147779745
 31
0.0
  0
LINE
  5
4B34
330
1F
100
AcDbEntity
  8
SPOJOVACÍ
  6
Continuous
100
AcDbLine
 10
6815.187509103028
 20
-2107.483147779745
 30
0.0
 11
6815.253551584949
 21
-2108.270076502868
 31
0.0
  0
LINE
  5
4B35
330
1F
100
AcDbEntity
  8
SPOJOVACÍ
  6
Continuous
100
AcDbLine
 10
6811.503082775501
 20
-2101.67047923178
 30
0.0
 11
6811.503082775501
 21
-2102.870406008511
 31
0.0
  0
LINE
  5
4B36
330
1F
100
AcDbEntity
  8
SPOJOVACÍ
  6
Continuous
100
AcDbLine
 10
6815.586554522209
 20
-2134.056409913774
 30
0.0
 11
6815.964205893154
 21
-2133.678758540646
 31
0.0
  0
LINE
  5
4B37
330
1F
100
AcDbEntity
  8
SPOJOVACÍ
  6
Continuous
100
AcDbLine
 10
6815.586554522209
 20
-2134.056409913774
 30
0.0
 11
6815.964205893154
 21
-2134.275001225793
 31
0.0
  0
LINE
  5
4B38
330
1F
100
AcDbEntity
  8
SPOJOVACÍ
  6
Continuous
100
AcDbLine
 10
6815.021937811737
 20
-2131.042640335455
 30
0.0
 11
6815.399589187048
 21
-2130.664058786348
 31
0.0
  0
LINE
  5
4B39
330
1F
100
AcDbEntity
  8
SPOJOVACÍ
  6
Continuous
100
AcDbLine
 10
6815.021937811737
 20
-2131.042640335455
 30
0.0
 11
6815.399589187048
 21
-2131.260301471503
 31
0.0
  0
LINE
  5
4B3A
330
1F
100
AcDbEntity
  8
SPOJOVACÍ
  6
Continuous
100
AcDbLine
 10
6814.457321105631
 20
-2128.027940581156
 30
0.0
 11
6814.835902653915
 21
-2127.650289208028
 31
0.0
  0
LINE
  5
4B3B
330
1F
100
AcDbEntity
  8
SPOJOVACÍ
  6
Continuous
100
AcDbLine
 10
6814.457321105631
 20
-2128.027940581156
 30
0.0
 11
6814.835902653915
 21
-2128.246531893184
 31
0.0
  0
LINE
  5
4B3C
330
1F
100
AcDbEntity
  8
SPOJOVACÍ
  6
Continuous
100
AcDbLine
 10
6815.849794272556
 20
-2131.405408895717
 30
0.0
 11
6816.14000911771
 21
-2133.726197506072
 31
0.0
  0
LINE
  5
4B3D
330
1F
100
AcDbEntity
  8
SPOJOVACÍ
  6
Continuous
100
AcDbLine
 10
6815.480514480198
 20
-2128.453030919988
 30
0.0
 11
6815.770729329718
 21
-2130.774749706052
 31
0.0
  0
LINE
  5
4B3E
330
1F
100
AcDbEntity
  8
SPOJOVACÍ
  6
Continuous
100
AcDbLine
 10
6815.253551584949
 20
-2126.635467414777
 30
0.0
 11
6815.403309887672
 21
-2127.832603664134
 31
0.0
  0
LINE
  5
4B3F
330
1F
100
AcDbEntity
  8
SPOJOVACÍ
  6
Continuous
100
AcDbLine
 10
6815.253551584949
 20
-2125.388101672889
 30
0.0
 11
6815.253551584949
 21
-2126.635467414777
 31
0.0
  0
LINE
  5
4B40
330
1F
100
AcDbEntity
  8
SPOJOVACÍ
  6
Continuous
100
AcDbLine
 10
6819.003090217059
 20
-2123.030106030365
 30
0.0
 11
6818.625438846114
 21
-2122.812444894317
 31
0.0
  0
LINE
  5
4B41
330
1F
100
AcDbEntity
  8
SPOJOVACÍ
  6
Continuous
100
AcDbLine
 10
6819.003090217059
 20
-2123.030106030365
 30
0.0
 11
6818.625438846114
 21
-2123.408687579195
 31
0.0
  0
LINE
  5
4B42
330
1F
100
AcDbEntity
  8
SPOJOVACÍ
  6
Continuous
100
AcDbLine
 10
6819.003090217059
 20
-2119.910296411396
 30
0.0
 11
6818.625438846114
 21
-2119.692635275078
 31
0.0
  0
LINE
  5
4B43
330
1F
100
AcDbEntity
  8
SPOJOVACÍ
  6
Continuous
100
AcDbLine
 10
6819.003090217059
 20
-2119.910296411396
 30
0.0
 11
6818.625438846114
 21
-2120.288877960226
 31
0.0
  0
LINE
  5
4B44
330
1F
100
AcDbEntity
  8
SPOJOVACÍ
  6
Continuous
100
AcDbLine
 10
6819.003090217059
 20
-2116.790486792434
 30
0.0
 11
6818.625438846114
 21
-2116.571895480408
 31
0.0
  0
LINE
  5
4B45
330
1F
100
AcDbEntity
  8
SPOJOVACÍ
  6
Continuous
100
AcDbLine
 10
6819.003090217059
 20
-2116.790486792434
 30
0.0
 11
6818.625438846114
 21
-2117.168138165286
 31
0.0
  0
LINE
  5
4B46
330
1F
100
AcDbEntity
  8
SPOJOVACÍ
  6
Continuous
100
AcDbLine
 10
6819.003090217059
 20
-2113.670677173196
 30
0.0
 11
6818.625438846114
 21
-2113.452085861169
 31
0.0
  0
LINE
  5
4B47
330
1F
100
AcDbEntity
  8
SPOJOVACÍ
  6
Continuous
100
AcDbLine
 10
6819.003090217059
 20
-2113.670677173196
 30
0.0
 11
6818.625438846114
 21
-2114.048328546324
 31
0.0
  0
LINE
  5
4B48
330
1F
100
AcDbEntity
  8
SPOJOVACÍ
  6
Continuous
100
AcDbLine
 10
6817.952921747686
 20
-2123.176143630281
 30
0.0
 11
6817.952921747686
 21
-2125.69505968531
 31
0.0
  0
LINE
  5
4B49
330
1F
100
AcDbEntity
  8
SPOJOVACÍ
  6
Continuous
100
AcDbLine
 10
6817.952921747686
 20
-2120.054473659639
 30
0.0
 11
6817.952921747686
 21
-2122.575250066348
 31
0.0
  0
LINE
  5
4B4A
330
1F
100
AcDbEntity
  8
SPOJOVACÍ
  6
Continuous
100
AcDbLine
 10
6817.952921747686
 20
-2116.931873513296
 30
0.0
 11
6817.952921747686
 21
-2119.460091326164
 31
0.0
  0
LINE
  5
4B4B
330
1F
100
AcDbEntity
  8
SPOJOVACÍ
  6
Continuous
100
AcDbLine
 10
6817.952921747686
 20
-2113.816714773112
 30
0.0
 11
6817.952921747686
 21
-2116.33563082814
 31
0.0
  0
LINE
  5
4B4C
330
1F
100
AcDbEntity
  8
SPOJOVACÍ
  6
Continuous
100
AcDbLine
 10
6817.952921747686
 20
-2108.270076502868
 30
0.0
 11
6817.952921747686
 21
-2113.213030681797
 31
0.0
  0
LINE
  5
4B4D
330
1F
100
AcDbEntity
  8
SPOJOVACÍ
  6
Continuous
100
AcDbLine
 10
6819.750951557701
 20
-2104.125213156837
 30
0.0
 11
6820.9880853666
 21
-2103.207129646395
 31
0.0
  0
LINE
  5
4B4E
330
1F
100
AcDbEntity
  8
SPOJOVACÍ
  6
Continuous
100
AcDbLine
 10
6820.9880853666
 20
-2103.207129646395
 30
0.0
 11
6821.703390552769
 21
-2102.870406008511
 31
0.0
  0
LINE
  5
4B4F
330
1F
100
AcDbEntity
  8
SPOJOVACÍ
  6
Continuous
100
AcDbLine
 10
6821.703390552769
 20
-2101.67047923178
 30
0.0
 11
6821.703390552769
 21
-2102.870406008511
 31
0.0
  0
LINE
  5
4B50
330
1F
100
AcDbEntity
  8
SPOJOVACÍ
  6
Continuous
100
AcDbLine
 10
6817.952921747686
 20
-2108.270076502868
 30
0.0
 11
6818.179884638569
 21
-2106.746448549439
 31
0.0
  0
LINE
  5
4B51
330
1F
100
AcDbEntity
  8
SPOJOVACÍ
  6
Continuous
100
AcDbLine
 10
6818.179884638569
 20
-2106.746448549439
 30
0.0
 11
6818.792870487716
 21
-2105.332581339736
 31
0.0
  0
LINE
  5
4B52
330
1F
100
AcDbEntity
  8
SPOJOVACÍ
  6
Continuous
100
AcDbLine
 10
6818.792870487716
 20
-2105.332581339736
 30
0.0
 11
6819.750951557701
 21
-2104.125213156837
 31
0.0
  0
LINE
  5
4B53
330
1F
100
AcDbEntity
  8
SPOJOVACÍ
  6
Continuous
100
AcDbLine
 10
6819.003090217059
 20
-2126.150845825305
 30
0.0
 11
6818.625438846114
 21
-2126.528497198433
 31
0.0
  0
LINE
  5
4B54
330
1F
100
AcDbEntity
  8
SPOJOVACÍ
  6
Continuous
100
AcDbLine
 10
6817.740841663665
 20
-2134.367088629548
 30
0.0
 11
6817.36319029272
 21
-2134.149427493231
 31
0.0
  0
LINE
  5
4B55
330
1F
100
AcDbEntity
  8
SPOJOVACÍ
  6
Continuous
100
AcDbLine
 10
6817.740841663665
 20
-2134.367088629548
 30
0.0
 11
6817.36319029272
 21
-2134.745670178378
 31
0.0
  0
LINE
  5
4B56
330
1F
100
AcDbEntity
  8
SPOJOVACÍ
  6
Continuous
100
AcDbLine
 10
6818.138026728168
 20
-2131.676090052225
 30
0.0
 11
6817.760375357223
 21
-2131.458428916177
 31
0.0
  0
LINE
  5
4B57
330
1F
100
AcDbEntity
  8
SPOJOVACÍ
  6
Continuous
100
AcDbLine
 10
6818.138026728168
 20
-2131.676090052225
 30
0.0
 11
6817.760375357223
 21
-2132.054671601055
 31
0.0
  0
LINE
  5
4B58
330
1F
100
AcDbEntity
  8
SPOJOVACÍ
  6
Continuous
100
AcDbLine
 10
6818.582650758374
 20
-2129.000904463461
 30
0.0
 11
6818.204999387429
 21
-2128.783243327413
 31
0.0
  0
LINE
  5
4B59
330
1F
100
AcDbEntity
  8
SPOJOVACÍ
  6
Continuous
100
AcDbLine
 10
6818.582650758374
 20
-2129.000904463461
 30
0.0
 11
6818.204999387429
 21
-2129.379486012568
 31
0.0
  0
LINE
  5
4B5A
330
1F
100
AcDbEntity
  8
SPOJOVACÍ
  6
Continuous
100
AcDbLine
 10
6817.707355336217
 20
-2128.606509926064
 30
0.0
 11
6817.952921747686
 21
-2126.635467414777
 31
0.0
  0
LINE
  5
4B5B
330
1F
100
AcDbEntity
  8
SPOJOVACÍ
  6
Continuous
100
AcDbLine
 10
6817.368771343656
 20
-2131.313321491962
 30
0.0
 11
6817.635731798993
 21
-2129.176707689109
 31
0.0
  0
LINE
  5
4B5C
330
1F
100
AcDbEntity
  8
SPOJOVACÍ
  6
Continuous
100
AcDbLine
 10
6817.029257182487
 20
-2134.030364991395
 30
0.0
 11
6817.297147810798
 21
-2131.885379606411
 31
0.0
  0
LINE
  5
4B5D
330
1F
100
AcDbEntity
  8
SPOJOVACÍ
  6
Continuous
100
AcDbLine
 10
6817.952921747686
 20
-2126.298743776894
 30
0.0
 11
6817.952921747686
 21
-2126.635467414777
 31
0.0
  0
LINE
  5
4B5E
330
1F
100
AcDbEntity
  8
SPOJOVACÍ
  6
Continuous
100
AcDbLine
 10
6819.003090217059
 20
-2126.150845825305
 30
0.0
 11
6818.625438846114
 21
-2125.932254513279
 31
0.0
  0
LINE
  5
4B5F
330
1F
100
AcDbEntity
  8
SPOJOVACÍ
  6
Continuous
100
AcDbLine
 10
6817.952921747686
 20
-2293.544685108879
 30
0.0
 11
6817.952921747686
 21
-2288.60173092995
 31
0.0
  0
LINE
  5
4B60
330
1F
100
AcDbEntity
  8
SPOJOVACÍ
  6
Continuous
100
AcDbLine
 10
6815.253551584949
 20
-2293.544685108879
 30
0.0
 11
6815.253551584949
 21
-2289.506791979199
 31
0.0
  0
LINE
  5
4B61
330
1F
100
AcDbEntity
  8
SPOJOVACÍ
  6
Continuous
100
AcDbLine
 10
6811.503082775501
 20
-2300.144282379967
 30
0.0
 11
6821.703390552769
 21
-2300.144282379967
 31
0.0
  0
LINE
  5
4B62
330
1F
100
AcDbEntity
  8
SPOJOVACÍ
  6
Continuous
100
AcDbLine
 10
6811.503082775501
 20
-2298.944355603235
 30
0.0
 11
6821.703390552769
 21
-2298.944355603235
 31
0.0
  0
LINE
  5
4B63
330
1F
100
AcDbEntity
  8
SPOJOVACÍ
  6
Continuous
100
AcDbLine
 10
6811.503082775501
 20
-2300.144282379967
 30
0.0
 11
6811.503082775501
 21
-2298.944355603235
 31
0.0
  0
LINE
  5
4B64
330
1F
100
AcDbEntity
  8
SPOJOVACÍ
  6
Continuous
100
AcDbLine
 10
6815.187509103028
 20
-2294.331613832001
 30
0.0
 11
6815.253551584949
 21
-2293.544685108879
 31
0.0
  0
LINE
  5
4B65
330
1F
100
AcDbEntity
  8
SPOJOVACÍ
  6
Continuous
100
AcDbLine
 10
6814.759628238729
 20
-2295.812453699051
 30
0.0
 11
6815.187509103028
 21
-2294.331613832001
 31
0.0
  0
LINE
  5
4B66
330
1F
100
AcDbEntity
  8
SPOJOVACÍ
  6
Continuous
100
AcDbLine
 10
6813.96339775941
 20
-2297.131442977349
 30
0.0
 11
6814.759628238729
 21
-2295.812453699051
 31
0.0
  0
LINE
  5
4B67
330
1F
100
AcDbEntity
  8
SPOJOVACÍ
  6
Continuous
100
AcDbLine
 10
6812.852767859052
 20
-2298.200214966761
 30
0.0
 11
6813.96339775941
 21
-2297.131442977349
 31
0.0
  0
LINE
  5
4B68
330
1F
100
AcDbEntity
  8
SPOJOVACÍ
  6
Continuous
100
AcDbLine
 10
6811.503082775501
 20
-2298.944355603235
 30
0.0
 11
6812.852767859052
 21
-2298.200214966761
 31
0.0
  0
LINE
  5
4B69
330
1F
100
AcDbEntity
  8
SPOJOVACÍ
  6
Continuous
100
AcDbLine
 10
6818.792870487716
 20
-2296.482180272011
 30
0.0
 11
6819.750951557701
 21
-2297.68954845491
 31
0.0
  0
LINE
  5
4B6A
330
1F
100
AcDbEntity
  8
SPOJOVACÍ
  6
Continuous
100
AcDbLine
 10
6818.179884638569
 20
-2295.068313062308
 30
0.0
 11
6818.792870487716
 21
-2296.482180272011
 31
0.0
  0
LINE
  5
4B6B
330
1F
100
AcDbEntity
  8
SPOJOVACÍ
  6
Continuous
100
AcDbLine
 10
6817.952921747686
 20
-2293.544685108879
 30
0.0
 11
6818.179884638569
 21
-2295.068313062308
 31
0.0
  0
LINE
  5
4B6C
330
1F
100
AcDbEntity
  8
SPOJOVACÍ
  6
Continuous
100
AcDbLine
 10
6821.703390552769
 20
-2300.144282379967
 30
0.0
 11
6821.703390552769
 21
-2298.944355603235
 31
0.0
  0
LINE
  5
4B6D
330
1F
100
AcDbEntity
  8
SPOJOVACÍ
  6
Continuous
100
AcDbLine
 10
6820.9880853666
 20
-2298.607631965352
 30
0.0
 11
6821.703390552769
 21
-2298.944355603235
 31
0.0
  0
LINE
  5
4B6E
330
1F
100
AcDbEntity
  8
SPOJOVACÍ
  6
Continuous
100
AcDbLine
 10
6819.750951557701
 20
-2297.68954845491
 30
0.0
 11
6820.9880853666
 21
-2298.607631965352
 31
0.0
  0
LINE
  5
4B6F
330
1F
100
AcDbEntity
  8
SPOJOVACÍ
  6
Continuous
100
AcDbLine
 10
6814.20338311121
 20
-2276.863842562904
 30
0.0
 11
6819.003090217059
 21
-2275.663915786442
 31
0.0
  0
LINE
  5
4B70
330
1F
100
AcDbEntity
  8
SPOJOVACÍ
  6
Continuous
100
AcDbLine
 10
6814.581034486521
 20
-2276.646181426856
 30
0.0
 11
6818.625438846114
 21
-2275.286264413313
 31
0.0
  0
LINE
  5
4B71
330
1F
100
AcDbEntity
  8
SPOJOVACÍ
  6
Continuous
100
AcDbLine
 10
6814.835902653915
 20
-2273.568229718564
 30
0.0
 11
6818.204999387429
 21
-2272.435275599179
 31
0.0
  0
LINE
  5
4B72
330
1F
100
AcDbEntity
  8
SPOJOVACÍ
  6
Continuous
100
AcDbLine
 10
6814.835902653915
 20
-2274.164472403718
 30
0.0
 11
6818.204999387429
 21
-2273.031518284334
 31
0.0
  0
LINE
  5
4B73
330
1F
100
AcDbEntity
  8
SPOJOVACÍ
  6
Continuous
100
AcDbLine
 10
6814.457321105631
 20
-2273.78682103059
 30
0.0
 11
6818.582650758374
 21
-2272.813857148285
 31
0.0
  0
LINE
  5
4B74
330
1F
100
AcDbEntity
  8
SPOJOVACÍ
  6
Continuous
100
AcDbLine
 10
6815.399589187048
 20
-2270.554460140244
 30
0.0
 11
6817.760375357223
 21
-2269.760090010692
 31
0.0
  0
LINE
  5
4B75
330
1F
100
AcDbEntity
  8
SPOJOVACÍ
  6
Continuous
100
AcDbLine
 10
6815.399589187048
 20
-2271.150702825399
 30
0.0
 11
6817.760375357223
 21
-2270.356332695571
 31
0.0
  0
LINE
  5
4B76
330
1F
100
AcDbEntity
  8
SPOJOVACÍ
  6
Continuous
100
AcDbLine
 10
6815.021937811737
 20
-2270.772121276292
 30
0.0
 11
6818.138026728168
 21
-2270.138671559522
 31
0.0
  0
LINE
  5
4B77
330
1F
100
AcDbEntity
  8
SPOJOVACÍ
  6
Continuous
100
AcDbLine
 10
6815.964205893154
 20
-2267.539760385953
 30
0.0
 11
6817.36319029272
 21
-2267.069091433369
 31
0.0
  0
LINE
  5
4B78
330
1F
100
AcDbEntity
  8
SPOJOVACÍ
  6
Continuous
100
AcDbLine
 10
6815.964205893154
 20
-2268.136003071101
 30
0.0
 11
6817.36319029272
 21
-2267.665334118516
 31
0.0
  0
LINE
  5
4B79
330
1F
100
AcDbEntity
  8
SPOJOVACÍ
  6
Continuous
100
AcDbLine
 10
6815.586554522209
 20
-2267.758351697973
 30
0.0
 11
6817.740841663665
 21
-2267.447672982199
 31
0.0
  0
LINE
  5
4B7A
330
1F
100
AcDbEntity
  8
SPOJOVACÍ
  6
Continuous
100
AcDbLine
 10
6814.20338311121
 20
-2289.344011215014
 30
0.0
 11
6819.003090217059
 21
-2288.144084438551
 31
0.0
  0
LINE
  5
4B7B
330
1F
100
AcDbEntity
  8
SPOJOVACÍ
  6
Continuous
100
AcDbLine
 10
6814.581034486521
 20
-2289.126350078965
 30
0.0
 11
6818.625438846114
 21
-2287.766433065423
 31
0.0
  0
LINE
  5
4B7C
330
1F
100
AcDbEntity
  8
SPOJOVACÍ
  6
Continuous
100
AcDbLine
 10
6814.581034486521
 20
-2289.722592763844
 30
0.0
 11
6818.625438846114
 21
-2288.362675750577
 31
0.0
  0
LINE
  5
4B7D
330
1F
100
AcDbEntity
  8
SPOJOVACÍ
  6
Continuous
100
AcDbLine
 10
6814.20338311121
 20
-2286.224201596052
 30
0.0
 11
6819.003090217059
 21
-2285.024274819313
 31
0.0
  0
LINE
  5
4B7E
330
1F
100
AcDbEntity
  8
SPOJOVACÍ
  6
Continuous
100
AcDbLine
 10
6814.581034486521
 20
-2286.005610284025
 30
0.0
 11
6818.625438846114
 21
-2284.646623446461
 31
0.0
  0
LINE
  5
4B7F
330
1F
100
AcDbEntity
  8
SPOJOVACÍ
  6
Continuous
100
AcDbLine
 10
6814.581034486521
 20
-2286.60185296918
 30
0.0
 11
6818.625438846114
 21
-2285.242866131339
 31
0.0
  0
LINE
  5
4B80
330
1F
100
AcDbEntity
  8
SPOJOVACÍ
  6
Continuous
100
AcDbLine
 10
6814.20338311121
 20
-2283.104391976813
 30
0.0
 11
6819.003090217059
 21
-2281.904465200351
 31
0.0
  0
LINE
  5
4B81
330
1F
100
AcDbEntity
  8
SPOJOVACÍ
  6
Continuous
100
AcDbLine
 10
6814.581034486521
 20
-2282.885800664787
 30
0.0
 11
6818.625438846114
 21
-2281.525883651521
 31
0.0
  0
LINE
  5
4B82
330
1F
100
AcDbEntity
  8
SPOJOVACÍ
  6
Continuous
100
AcDbLine
 10
6814.581034486521
 20
-2283.482043349941
 30
0.0
 11
6818.625438846114
 21
-2282.122126336668
 31
0.0
  0
LINE
  5
4B83
330
1F
100
AcDbEntity
  8
SPOJOVACÍ
  6
Continuous
100
AcDbLine
 10
6814.20338311121
 20
-2279.984582357844
 30
0.0
 11
6819.003090217059
 21
-2278.784655581382
 31
0.0
  0
LINE
  5
4B84
330
1F
100
AcDbEntity
  8
SPOJOVACÍ
  6
Continuous
100
AcDbLine
 10
6814.581034486521
 20
-2279.765991045825
 30
0.0
 11
6818.625438846114
 21
-2278.406074032552
 31
0.0
  0
LINE
  5
4B85
330
1F
100
AcDbEntity
  8
SPOJOVACÍ
  6
Continuous
100
AcDbLine
 10
6814.581034486521
 20
-2280.362233730972
 30
0.0
 11
6818.625438846114
 21
-2279.00231671743
 31
0.0
  0
LINE
  5
4B86
330
1F
100
AcDbEntity
  8
SPOJOVACÍ
  6
Continuous
100
AcDbLine
 10
6814.581034486521
 20
-2277.24242411201
 30
0.0
 11
6818.625438846114
 21
-2275.882507098468
 31
0.0
  0
LINE
  5
4B87
330
1F
100
AcDbEntity
  8
SPOJOVACÍ
  6
Continuous
100
AcDbLine
 10
6816.603236664135
 20
-2264.379023032016
 30
0.0
 11
6816.957633645263
 21
-2267.215129033285
 31
0.0
  0
LINE
  5
4B88
330
1F
100
AcDbEntity
  8
SPOJOVACÍ
  6
Continuous
100
AcDbLine
 10
6815.253551584949
 20
-2276.426659938858
 30
0.0
 11
6815.253551584949
 21
-2275.179294196969
 31
0.0
  0
LINE
  5
4B89
330
1F
100
AcDbEntity
  8
SPOJOVACÍ
  6
Continuous
100
AcDbLine
 10
6815.253551584949
 20
-2275.179294196969
 30
0.0
 11
6815.403309887672
 21
-2273.982157947612
 31
0.0
  0
LINE
  5
4B8A
330
1F
100
AcDbEntity
  8
SPOJOVACÍ
  6
Continuous
100
AcDbLine
 10
6815.480514480198
 20
-2273.361730691759
 30
0.0
 11
6815.770729329718
 21
-2271.040011905694
 31
0.0
  0
LINE
  5
4B8B
330
1F
100
AcDbEntity
  8
SPOJOVACÍ
  6
Continuous
100
AcDbLine
 10
6815.849794272556
 20
-2270.40935271603
 30
0.0
 11
6816.14000911771
 21
-2268.088564105674
 31
0.0
  0
LINE
  5
4B8C
330
1F
100
AcDbEntity
  8
SPOJOVACÍ
  6
Continuous
100
AcDbLine
 10
6814.457321105631
 20
-2273.78682103059
 30
0.0
 11
6814.835902653915
 21
-2273.568229718564
 31
0.0
  0
LINE
  5
4B8D
330
1F
100
AcDbEntity
  8
SPOJOVACÍ
  6
Continuous
100
AcDbLine
 10
6814.457321105631
 20
-2273.78682103059
 30
0.0
 11
6814.835902653915
 21
-2274.164472403718
 31
0.0
  0
LINE
  5
4B8E
330
1F
100
AcDbEntity
  8
SPOJOVACÍ
  6
Continuous
100
AcDbLine
 10
6815.021937811737
 20
-2270.772121276292
 30
0.0
 11
6815.399589187048
 21
-2270.554460140244
 31
0.0
  0
LINE
  5
4B8F
330
1F
100
AcDbEntity
  8
SPOJOVACÍ
  6
Continuous
100
AcDbLine
 10
6815.021937811737
 20
-2270.772121276292
 30
0.0
 11
6815.399589187048
 21
-2271.150702825399
 31
0.0
  0
LINE
  5
4B90
330
1F
100
AcDbEntity
  8
SPOJOVACÍ
  6
Continuous
100
AcDbLine
 10
6815.586554522209
 20
-2267.758351697973
 30
0.0
 11
6815.964205893154
 21
-2267.539760385953
 31
0.0
  0
LINE
  5
4B91
330
1F
100
AcDbEntity
  8
SPOJOVACÍ
  6
Continuous
100
AcDbLine
 10
6815.586554522209
 20
-2267.758351697973
 30
0.0
 11
6815.964205893154
 21
-2268.136003071101
 31
0.0
  0
LINE
  5
4B92
330
1F
100
AcDbEntity
  8
SPOJOVACÍ
  6
Continuous
100
AcDbLine
 10
6815.253551584949
 20
-2288.911479470022
 30
0.0
 11
6815.253551584949
 21
-2286.392563414993
 31
0.0
  0
LINE
  5
4B93
330
1F
100
AcDbEntity
  8
SPOJOVACÍ
  6
Continuous
100
AcDbLine
 10
6815.253551584949
 20
-2285.788879323678
 30
0.0
 11
6815.253551584949
 21
-2283.26810291697
 31
0.0
  0
LINE
  5
4B94
330
1F
100
AcDbEntity
  8
SPOJOVACÍ
  6
Continuous
100
AcDbLine
 10
6815.253551584949
 20
-2282.673720583495
 30
0.0
 11
6815.253551584949
 21
-2280.145502770626
 31
0.0
  0
LINE
  5
4B95
330
1F
100
AcDbEntity
  8
SPOJOVACÍ
  6
Continuous
100
AcDbLine
 10
6815.253551584949
 20
-2279.54088850334
 30
0.0
 11
6815.253551584949
 21
-2277.022902624012
 31
0.0
  0
LINE
  5
4B96
330
1F
100
AcDbEntity
  8
SPOJOVACÍ
  6
Continuous
100
AcDbLine
 10
6814.20338311121
 20
-2289.344011215014
 30
0.0
 11
6814.581034486521
 21
-2289.126350078965
 31
0.0
  0
LINE
  5
4B97
330
1F
100
AcDbEntity
  8
SPOJOVACÍ
  6
Continuous
100
AcDbLine
 10
6814.20338311121
 20
-2289.344011215014
 30
0.0
 11
6814.581034486521
 21
-2289.722592763844
 31
0.0
  0
LINE
  5
4B98
330
1F
100
AcDbEntity
  8
SPOJOVACÍ
  6
Continuous
100
AcDbLine
 10
6814.20338311121
 20
-2286.224201596052
 30
0.0
 11
6814.581034486521
 21
-2286.005610284025
 31
0.0
  0
LINE
  5
4B99
330
1F
100
AcDbEntity
  8
SPOJOVACÍ
  6
Continuous
100
AcDbLine
 10
6814.20338311121
 20
-2286.224201596052
 30
0.0
 11
6814.581034486521
 21
-2286.60185296918
 31
0.0
  0
LINE
  5
4B9A
330
1F
100
AcDbEntity
  8
SPOJOVACÍ
  6
Continuous
100
AcDbLine
 10
6814.20338311121
 20
-2283.104391976813
 30
0.0
 11
6814.581034486521
 21
-2282.885800664787
 31
0.0
  0
LINE
  5
4B9B
330
1F
100
AcDbEntity
  8
SPOJOVACÍ
  6
Continuous
100
AcDbLine
 10
6814.20338311121
 20
-2283.104391976813
 30
0.0
 11
6814.581034486521
 21
-2283.482043349941
 31
0.0
  0
LINE
  5
4B9C
330
1F
100
AcDbEntity
  8
SPOJOVACÍ
  6
Continuous
100
AcDbLine
 10
6814.20338311121
 20
-2279.984582357844
 30
0.0
 11
6814.581034486521
 21
-2279.765991045825
 31
0.0
  0
LINE
  5
4B9D
330
1F
100
AcDbEntity
  8
SPOJOVACÍ
  6
Continuous
100
AcDbLine
 10
6814.20338311121
 20
-2279.984582357844
 30
0.0
 11
6814.581034486521
 21
-2280.362233730972
 31
0.0
  0
LINE
  5
4B9E
330
1F
100
AcDbEntity
  8
SPOJOVACÍ
  6
Continuous
100
AcDbLine
 10
6814.20338311121
 20
-2276.863842562904
 30
0.0
 11
6814.581034486521
 21
-2276.646181426856
 31
0.0
  0
LINE
  5
4B9F
330
1F
100
AcDbEntity
  8
SPOJOVACÍ
  6
Continuous
100
AcDbLine
 10
6814.20338311121
 20
-2276.863842562904
 30
0.0
 11
6814.581034486521
 21
-2277.24242411201
 31
0.0
  0
LINE
  5
4BA0
330
1F
100
AcDbEntity
  8
SPOJOVACÍ
  6
Continuous
100
AcDbLine
 10
6816.217213710236
 20
-2267.468136849821
 30
0.0
 11
6816.603236664135
 21
-2264.379023032016
 31
0.0
  0
LINE
  5
4BA1
330
1F
100
AcDbEntity
  8
SPOJOVACÍ
  6
Continuous
100
AcDbLine
 10
6819.003090217059
 20
-2275.663915786442
 30
0.0
 11
6818.625438846114
 21
-2275.882507098468
 31
0.0
  0
LINE
  5
4BA2
330
1F
100
AcDbEntity
  8
SPOJOVACÍ
  6
Continuous
100
AcDbLine
 10
6817.952921747686
 20
-2275.516017834853
 30
0.0
 11
6817.952921747686
 21
-2275.179294196969
 31
0.0
  0
LINE
  5
4BA3
330
1F
100
AcDbEntity
  8
SPOJOVACÍ
  6
Continuous
100
AcDbLine
 10
6817.029257182487
 20
-2267.784396620351
 30
0.0
 11
6817.297147810798
 21
-2269.929382005336
 31
0.0
  0
LINE
  5
4BA4
330
1F
100
AcDbEntity
  8
SPOJOVACÍ
  6
Continuous
100
AcDbLine
 10
6817.368771343656
 20
-2270.501440119784
 30
0.0
 11
6817.635731798993
 21
-2272.638053922638
 31
0.0
  0
LINE
  5
4BA5
330
1F
100
AcDbEntity
  8
SPOJOVACÍ
  6
Continuous
100
AcDbLine
 10
6817.707355336217
 20
-2273.208251685683
 30
0.0
 11
6817.952921747686
 21
-2275.179294196969
 31
0.0
  0
LINE
  5
4BA6
330
1F
100
AcDbEntity
  8
SPOJOVACÍ
  6
Continuous
100
AcDbLine
 10
6818.582650758374
 20
-2272.813857148285
 30
0.0
 11
6818.204999387429
 21
-2272.435275599179
 31
0.0
  0
LINE
  5
4BA7
330
1F
100
AcDbEntity
  8
SPOJOVACÍ
  6
Continuous
100
AcDbLine
 10
6818.582650758374
 20
-2272.813857148285
 30
0.0
 11
6818.204999387429
 21
-2273.031518284334
 31
0.0
  0
LINE
  5
4BA8
330
1F
100
AcDbEntity
  8
SPOJOVACÍ
  6
Continuous
100
AcDbLine
 10
6818.138026728168
 20
-2270.138671559522
 30
0.0
 11
6817.760375357223
 21
-2269.760090010692
 31
0.0
  0
LINE
  5
4BA9
330
1F
100
AcDbEntity
  8
SPOJOVACÍ
  6
Continuous
100
AcDbLine
 10
6818.138026728168
 20
-2270.138671559522
 30
0.0
 11
6817.760375357223
 21
-2270.356332695571
 31
0.0
  0
LINE
  5
4BAA
330
1F
100
AcDbEntity
  8
SPOJOVACÍ
  6
Continuous
100
AcDbLine
 10
6817.740841663665
 20
-2267.447672982199
 30
0.0
 11
6817.36319029272
 21
-2267.069091433369
 31
0.0
  0
LINE
  5
4BAB
330
1F
100
AcDbEntity
  8
SPOJOVACÍ
  6
Continuous
100
AcDbLine
 10
6817.740841663665
 20
-2267.447672982199
 30
0.0
 11
6817.36319029272
 21
-2267.665334118516
 31
0.0
  0
LINE
  5
4BAC
330
1F
100
AcDbEntity
  8
SPOJOVACÍ
  6
Continuous
100
AcDbLine
 10
6819.003090217059
 20
-2275.663915786442
 30
0.0
 11
6818.625438846114
 21
-2275.286264413313
 31
0.0
  0
LINE
  5
4BAD
330
1F
100
AcDbEntity
  8
SPOJOVACÍ
  6
Continuous
100
AcDbLine
 10
6817.952921747686
 20
-2287.998046838635
 30
0.0
 11
6817.952921747686
 21
-2285.479130783606
 31
0.0
  0
LINE
  5
4BAE
330
1F
100
AcDbEntity
  8
SPOJOVACÍ
  6
Continuous
100
AcDbLine
 10
6817.952921747686
 20
-2284.882888098452
 30
0.0
 11
6817.952921747686
 21
-2282.354670285582
 31
0.0
  0
LINE
  5
4BAF
330
1F
100
AcDbEntity
  8
SPOJOVACÍ
  6
Continuous
100
AcDbLine
 10
6817.952921747686
 20
-2281.760287952108
 30
0.0
 11
6817.952921747686
 21
-2279.239511545399
 31
0.0
  0
LINE
  5
4BB0
330
1F
100
AcDbEntity
  8
SPOJOVACÍ
  6
Continuous
100
AcDbLine
 10
6817.952921747686
 20
-2278.638617981466
 30
0.0
 11
6817.952921747686
 21
-2276.119701926437
 31
0.0
  0
LINE
  5
4BB1
330
1F
100
AcDbEntity
  8
SPOJOVACÍ
  6
Continuous
100
AcDbLine
 10
6819.003090217059
 20
-2288.144084438551
 30
0.0
 11
6818.625438846114
 21
-2287.766433065423
 31
0.0
  0
LINE
  5
4BB2
330
1F
100
AcDbEntity
  8
SPOJOVACÍ
  6
Continuous
100
AcDbLine
 10
6819.003090217059
 20
-2288.144084438551
 30
0.0
 11
6818.625438846114
 21
-2288.362675750577
 31
0.0
  0
LINE
  5
4BB3
330
1F
100
AcDbEntity
  8
SPOJOVACÍ
  6
Continuous
100
AcDbLine
 10
6819.003090217059
 20
-2285.024274819313
 30
0.0
 11
6818.625438846114
 21
-2284.646623446461
 31
0.0
  0
LINE
  5
4BB4
330
1F
100
AcDbEntity
  8
SPOJOVACÍ
  6
Continuous
100
AcDbLine
 10
6819.003090217059
 20
-2285.024274819313
 30
0.0
 11
6818.625438846114
 21
-2285.242866131339
 31
0.0
  0
LINE
  5
4BB5
330
1F
100
AcDbEntity
  8
SPOJOVACÍ
  6
Continuous
100
AcDbLine
 10
6819.003090217059
 20
-2281.904465200351
 30
0.0
 11
6818.625438846114
 21
-2281.525883651521
 31
0.0
  0
LINE
  5
4BB6
330
1F
100
AcDbEntity
  8
SPOJOVACÍ
  6
Continuous
100
AcDbLine
 10
6819.003090217059
 20
-2281.904465200351
 30
0.0
 11
6818.625438846114
 21
-2282.122126336668
 31
0.0
  0
LINE
  5
4BB7
330
1F
100
AcDbEntity
  8
SPOJOVACÍ
  6
Continuous
100
AcDbLine
 10
6819.003090217059
 20
-2278.784655581382
 30
0.0
 11
6818.625438846114
 21
-2278.406074032552
 31
0.0
  0
LINE
  5
4BB8
330
1F
100
AcDbEntity
  8
SPOJOVACÍ
  6
Continuous
100
AcDbLine
 10
6819.003090217059
 20
-2278.784655581382
 30
0.0
 11
6818.625438846114
 21
-2279.00231671743
 31
0.0
  0
HATCH
  5
4CCC
330
1F
100
AcDbEntity
  8
izolace
100
AcDbHatch
 10
0.0
 20
0.0
 30
0.0
210
0.0
220
0.0
230
1.0
  2
SOLID
 70
     1
 71
     0
 91
        4
 92
        7
 72
     0
 73
     1
 93
        4
 10
6385.445257728061
 20
-2199.962321090283
 10
6397.946334735036
 20
-2199.962321090283
 10
6397.946334735036
 20
-2201.962321090286
 10
6385.445257728061
 20
-2201.962321090286
 97
        0
 92
        7
 72
     0
 73
     1
 93
        4
 10
6405.603045649634
 20
-2199.962321090283
 10
6418.104122656611
 20
-2199.962321090283
 10
6418.104122656611
 20
-2201.962321090286
 10
6405.603045649633
 20
-2201.962321090286
 97
        0
 92
        7
 72
     0
 73
     1
 93
        4
 10
6426.337281671263
 20
-2199.962321090283
 10
6438.838358678241
 20
-2199.962321090283
 10
6438.838358678241
 20
-2201.962321090286
 10
6426.337281671263
 20
-2201.962321090286
 97
        0
 92
        7
 72
     1
 73
     1
 93
        7
 10
6447.481532584126
 20
-2200.441246752404
 42
0.0
 10
6447.481532584126
 20
-2199.962321090283
 42
0.0
 10
6459.982609591101
 20
-2199.962321090283
 42
0.0
 10
6459.982609591101
 20
-2201.962321090286
 42
0.0
 10
6447.717920578381
 20
-2201.962321090286
 42
0.0
 10
6447.481532584126
 20
-2201.803713718205
 42
0.0
 10
6447.481532584126
 20
-2201.728041176217
 42
0.2771233679601331
 97
        0
 75
     0
 76
     1
 47
0.1334780420591298
 98
        4
 10
6390.666033299538
 20
-2201.26431019883
 10
6406.428119631846
 20
-2201.26431019883
 10
6433.410677268053
 20
-2201.26431019883
 10
6451.710728326962
 20
-2201.26431019883
  0
LWPOLYLINE
  5
4CCD
330
1F
100
AcDbEntity
  8
izolace
100
AcDbPolyline
 90
        4
 70
     1
 43
0.0
 10
6460.002149319979
 20
-2199.959209131587
 10
6460.002149319979
 20
-2201.956150437128
 10
6385.291921313285
 20
-2201.956150437128
 10
6385.291921313285
 20
-2199.959209131587
  0
HATCH
  5
4CCE
330
1F
100
AcDbEntity
  8
izolace
100
AcDbHatch
 10
0.0
 20
0.0
 30
0.0
210
0.0
220
0.0
230
1.0
  2
SOLID
 70
     1
 71
     0
 91
        4
 92
        7
 72
     0
 73
     1
 93
        4
 10
6799.612956129924
 20
-2199.962321090283
 10
6812.114033136899
 20
-2199.962321090283
 10
6812.114033136899
 20
-2201.962321090286
 10
6799.612956129924
 20
-2201.962321090286
 97
        0
 92
        7
 72
     0
 73
     1
 93
        4
 10
6819.770744051497
 20
-2199.962321090283
 10
6832.271821058474
 20
-2199.962321090283
 10
6832.271821058474
 20
-2201.962321090286
 10
6819.770744051496
 20
-2201.962321090286
 97
        0
 92
        7
 72
     0
 73
     1
 93
        4
 10
6840.504980073126
 20
-2199.962321090283
 10
6853.006057080104
 20
-2199.962321090283
 10
6853.006057080104
 20
-2201.962321090286
 10
6840.504980073126
 20
-2201.962321090286
 97
        0
 92
        7
 72
     1
 73
     1
 93
        7
 10
6861.649230985989
 20
-2200.441246752404
 42
0.0
 10
6861.649230985989
 20
-2199.962321090283
 42
0.0
 10
6874.150307992964
 20
-2199.962321090283
 42
0.0
 10
6874.150307992964
 20
-2201.962321090286
 42
0.0
 10
6861.885618980244
 20
-2201.962321090286
 42
0.0
 10
6861.649230985989
 20
-2201.803713718205
 42
0.0
 10
6861.649230985989
 20
-2201.728041176217
 42
0.2771233679601331
 97
        0
 75
     0
 76
     1
 47
0.1334780420591298
 98
        4
 10
6804.833731701402
 20
-2201.26431019883
 10
6820.595818033709
 20
-2201.26431019883
 10
6847.578375669916
 20
-2201.26431019883
 10
6865.878426728825
 20
-2201.26431019883
  0
LWPOLYLINE
  5
4CCF
330
1F
100
AcDbEntity
  8
izolace
100
AcDbPolyline
 90
        4
 70
     1
 43
0.0
 10
6874.169847721842
 20
-2199.959209131587
 10
6874.169847721842
 20
-2201.956150437128
 10
6799.459619715148
 20
-2201.956150437128
 10
6799.459619715148
 20
-2199.959209131587
  0
LINE
  5
4CE9
330
1F
100
AcDbEntity
  8
POPIS
100
AcDbLine
 10
6416.58003918772
 20
-2126.711903127753
 30
0.0
 11
6416.58003918772
 21
-2054.009815898045
 31
0.0
  0
TEXT
  5
4CEA
330
1F
100
AcDbEntity
  8
POPIS
100
AcDbText
 10
6398.923591699269
 20
-2049.308752761521
 30
0.0
 40
25.0
  1
10
 41
0.85
  7
SIMPLEX7
100
AcDbText
  0
INSERT
  5
4CEB
330
1F
100
AcDbEntity
  8
POPIS
100
AcDbBlockReference
  2
E_PUNKT
 10
6416.552428812095
 20
-2127.982404394134
 30
0.0
  0
LINE
  5
4DC2
330
1F
100
AcDbEntity
  8
CETRIS
100
AcDbLine
 10
6791.968723760695
 20
-2101.67047923178
 30
0.0
 11
7051.036269677863
 21
-2101.670479231779
 31
0.0
  0
LINE
  5
4E23
330
1F
100
AcDbEntity
  8
CETRIS
100
AcDbLine
 10
6774.968723760693
 20
-2101.67047923178
 30
0.0
 11
6774.968723760693
 21
-2300.144282379967
 31
0.0
  0
LINE
  5
4E24
330
1F
100
AcDbEntity
  8
CETRIS
100
AcDbLine
 10
6791.968723760693
 20
-2113.670479231779
 30
0.0
 11
6791.968723760693
 21
-2101.67047923178
 31
0.0
  0
HATCH
  5
4E25
330
1F
100
AcDbEntity
  8
izolace
100
AcDbHatch
 10
0.0
 20
0.0
 30
0.0
210
0.0
220
0.0
230
1.0
  2
AR-SAND
 70
     0
 71
     0
 91
        1
 92
        7
 72
     0
 73
     1
 93
        4
 10
6791.968723760693
 20
-2101.670479231767
 10
6786.968723760693
 20
-2101.670479231768
 10
6786.968723760693
 20
-2113.670479231767
 10
6791.968723760693
 20
-2113.670479231767
 97
        0
 75
     0
 76
     1
 52
90.0
 41
0.05
 77
     0
 78
     4
 53
127.5
 43
-17168.16172208814
 44
-3590.167756489394
 45
-2.447066186646711
 46
-0.0800015647992021
 79
     6
 49
0.0
 49
-1.9304
 49
0.0
 49
-2.159
 49
0.0
 49
-2.06375
 53
97.49999999999985
 43
-17168.16172208814
 44
-3590.167756489394
 45
-3.584125502841771
 46
2.247616415690013
 79
     6
 49
0.0
 49
-1.041399999999999
 49
0.0
 49
-1.7399
 49
0.0
 49
-0.66675
 53
57.5
 43
-17168.16172208814
 44
-3591.729856489394
 45
-0.0071859233927282
 46
3.95496185120729
 79
     6
 49
0.0
 49
-0.635
 49
0.0
 49
-2.286
 49
0.0
 49
-2.9845
 53
47.5
 43
-17168.16172208814
 44
-3591.729856489394
 45
-1.11464661628608
 46
3.817782262361486
 79
     6
 49
0.0
 49
-0.3175
 49
0.0
 49
-1.498599999999999
 49
0.0
 49
-1.7145
 47
0.2359071171925059
 98
        1
 10
6788.992875857887
 20
-2107.837013332552
  0
LWPOLYLINE
  5
4E26
330
1F
100
AcDbEntity
  8
izolace
100
AcDbPolyline
 90
        4
 70
     1
 43
0.0
 10
6791.968723760693
 20
-2101.670479231767
 10
6786.968723760693
 20
-2101.670479231767
 10
6786.968723760693
 20
-2113.670479231767
 10
6791.968723760693
 20
-2113.670479231767
  0
LINE
  5
4E27
330
1F
100
AcDbEntity
  8
CETRIS
100
AcDbLine
 10
6786.968723760693
 20
-2101.670479231767
 30
0.0
 11
6774.968723760693
 21
-2101.670479231767
 31
0.0
  0
LINE
  5
4E2B
330
1F
100
AcDbEntity
  8
CETRIS
100
AcDbLine
 10
6791.968723760693
 20
-2300.144282379978
 30
0.0
 11
7014.481343471605
 21
-2300.144282379967
 31
0.0
  0
LWPOLYLINE
  5
4E2F
330
1F
100
AcDbEntity
  8
izolace
100
AcDbPolyline
 90
        4
 70
     1
 43
0.0
 10
6791.968723760693
 20
-2300.144282379978
 10
6786.968723760693
 20
-2300.144282379978
 10
6786.968723760693
 20
-2288.144282379979
 10
6791.968723760693
 20
-2288.144282379979
  0
HATCH
  5
4E30
330
1F
100
AcDbEntity
  8
izolace
100
AcDbHatch
 10
0.0
 20
0.0
 30
0.0
210
0.0
220
0.0
230
1.0
  2
AR-SAND
 70
     0
 71
     0
 91
        1
 92
        7
 72
     0
 73
     1
 93
        4
 10
6791.968723760693
 20
-2300.144282379978
 10
6786.968723760693
 20
-2300.144282379978
 10
6786.968723760693
 20
-2288.144282379979
 10
6791.968723760693
 20
-2288.144282379979
 97
        0
 75
     0
 76
     1
 52
90.0
 41
0.05
 77
     0
 78
     4
 53
232.5
 43
-17168.16172208814
 44
-811.6470051223522
 45
-2.447066186646711
 46
0.0800015647992021
 79
     6
 49
0.0
 49
-1.9304
 49
0.0
 49
-2.159
 49
0.0
 49
-2.06375
 53
262.5000000000001
 43
-17168.16172208814
 44
-811.6470051223522
 45
-3.584125502841771
 46
-2.247616415690013
 79
     6
 49
0.0
 49
-1.041399999999999
 49
0.0
 49
-1.7399
 49
0.0
 49
-0.66675
 53
302.4999999999999
 43
-17168.16172208814
 44
-810.0849051223521
 45
-0.0071859233927282
 46
-3.95496185120729
 79
     6
 49
0.0
 49
-0.635
 49
0.0
 49
-2.286
 49
0.0
 49
-2.9845
 53
312.5
 43
-17168.16172208814
 44
-810.0849051223521
 45
-1.11464661628608
 46
-3.817782262361486
 79
     6
 49
0.0
 49
-0.3175
 49
0.0
 49
-1.498599999999999
 49
0.0
 49
-1.7145
 47
0.2359071171925059
 98
        1
 10
6788.992875857887
 20
-2293.977748279194
  0
LINE
  5
4E31
330
1F
100
AcDbEntity
  8
CETRIS
100
AcDbLine
 10
6791.968723760693
 20
-2288.144282379966
 30
0.0
 11
6791.968723760693
 21
-2300.144282379966
 31
0.0
  0
LINE
  5
4E32
330
1F
100
AcDbEntity
  8
CETRIS
100
AcDbLine
 10
6798.968723760694
 20
-2288.144282379966
 30
0.0
 11
6786.968723760693
 21
-2288.144282379966
 31
0.0
  0
LINE
  5
4E33
330
1F
100
AcDbEntity
  8
CETRIS
100
AcDbLine
 10
6803.968723760694
 20
-2276.144282379967
 30
0.0
 11
6803.968723760694
 21
-2288.144282379966
 31
0.0
  0
HATCH
  5
4E35
330
1F
100
AcDbEntity
  8
izolace
100
AcDbHatch
 10
0.0
 20
0.0
 30
0.0
210
0.0
220
0.0
230
1.0
  2
AR-SAND
 70
     0
 71
     0
 91
        1
 92
        7
 72
     0
 73
     1
 93
        4
 10
6803.968723760694
 20
-2288.144282379979
 10
6798.968723760694
 20
-2288.144282379978
 10
6798.968723760694
 20
-2276.144282379979
 10
6803.968723760694
 20
-2276.144282379979
 97
        0
 75
     0
 76
     1
 52
90.0
 41
0.05
 77
     0
 78
     4
 53
232.5
 43
-17156.16172208814
 44
-799.6470051223528
 45
-2.447066186646711
 46
0.0800015647992021
 79
     6
 49
0.0
 49
-1.9304
 49
0.0
 49
-2.159
 49
0.0
 49
-2.06375
 53
262.5000000000001
 43
-17156.16172208814
 44
-799.6470051223528
 45
-3.584125502841771
 46
-2.247616415690013
 79
     6
 49
0.0
 49
-1.041399999999999
 49
0.0
 49
-1.7399
 49
0.0
 49
-0.66675
 53
302.4999999999999
 43
-17156.16172208814
 44
-798.0849051223526
 45
-0.0071859233927282
 46
-3.95496185120729
 79
     6
 49
0.0
 49
-0.635
 49
0.0
 49
-2.286
 49
0.0
 49
-2.9845
 53
312.5
 43
-17156.16172208814
 44
-798.0849051223526
 45
-1.11464661628608
 46
-3.817782262361486
 79
     6
 49
0.0
 49
-0.3175
 49
0.0
 49
-1.498599999999999
 49
0.0
 49
-1.7145
 47
0.2359071171925059
 98
        1
 10
6800.992875857888
 20
-2281.977748279194
  0
LWPOLYLINE
  5
4E36
330
1F
100
AcDbEntity
  8
izolace
100
AcDbPolyline
 90
        4
 70
     1
 43
0.0
 10
6803.968723760694
 20
-2288.144282379979
 10
6798.968723760694
 20
-2288.144282379979
 10
6798.968723760694
 20
-2276.144282379979
 10
6803.968723760694
 20
-2276.144282379979
  0
LINE
  5
4E37
330
1F
100
AcDbEntity
  8
CETRIS
100
AcDbLine
 10
6786.968723760693
 20
-2300.144282379978
 30
0.0
 11
6774.968723760693
 21
-2300.144282379978
 31
0.0
  0
LINE
  5
4F0B
330
1F
100
AcDbEntity
  8
SPOJOVACÍ
  6
Continuous
100
AcDbLine
 10
6776.505374175309
 20
-2146.627570653869
 30
0.0
 11
6776.168650537425
 21
-2147.342875840037
 31
0.0
  0
LINE
  5
4F0C
330
1F
100
AcDbEntity
  8
SPOJOVACÍ
  6
Continuous
100
AcDbLine
 10
6774.968723760693
 20
-2137.14256806277
 30
0.0
 11
6774.968723760693
 21
-2147.342875840037
 31
0.0
  0
LINE
  5
4F0D
330
1F
100
AcDbEntity
  8
SPOJOVACÍ
  6
Continuous
100
AcDbLine
 10
6776.168650537425
 20
-2137.14256806277
 30
0.0
 11
6776.168650537425
 21
-2147.342875840037
 31
0.0
  0
LINE
  5
4F0E
330
1F
100
AcDbEntity
  8
SPOJOVACÍ
  6
Continuous
100
AcDbLine
 10
6774.968723760693
 20
-2147.342875840037
 30
0.0
 11
6776.168650537425
 21
-2147.342875840037
 31
0.0
  0
LINE
  5
4F0F
330
1F
100
AcDbEntity
  8
SPOJOVACÍ
  6
Continuous
100
AcDbLine
 10
6792.439285557165
 20
-2140.893036872218
 30
0.0
 11
6794.967503370035
 21
-2140.893036872218
 31
0.0
  0
LINE
  5
4F10
330
1F
100
AcDbEntity
  8
SPOJOVACÍ
  6
Continuous
100
AcDbLine
 10
6793.352718188552
 20
-2143.592407034954
 30
0.0
 11
6795.873494595261
 21
-2143.592407034954
 31
0.0
  0
LINE
  5
4F11
330
1F
100
AcDbEntity
  8
SPOJOVACÍ
  6
Continuous
100
AcDbLine
 10
6801.751275448902
 20
-2141.119999767467
 30
0.0
 11
6804.072994234966
 21
-2141.410214616987
 31
0.0
  0
LINE
  5
4F12
330
1F
100
AcDbEntity
  8
SPOJOVACÍ
  6
Continuous
100
AcDbLine
 10
6807.354654442687
 20
-2141.226039809477
 30
0.0
 11
6807.573245754707
 21
-2141.603691180423
 31
0.0
  0
LINE
  5
4F13
330
1F
100
AcDbEntity
  8
SPOJOVACÍ
  6
Continuous
100
AcDbLine
 10
6807.354654442687
 20
-2141.226039809477
 30
0.0
 11
6806.977003069559
 21
-2141.603691180423
 31
0.0
  0
LINE
  5
4F14
330
1F
100
AcDbEntity
  8
SPOJOVACÍ
  6
Continuous
100
AcDbLine
 10
6798.686346201802
 20
-2140.893036872218
 30
0.0
 11
6799.933711943691
 21
-2140.893036872218
 31
0.0
  0
LINE
  5
4F15
330
1F
100
AcDbEntity
  8
SPOJOVACÍ
  6
Continuous
100
AcDbLine
 10
6799.933711943691
 20
-2140.893036872218
 30
0.0
 11
6801.130848193048
 21
-2141.042795174941
 31
0.0
  0
LINE
  5
4F16
330
1F
100
AcDbEntity
  8
SPOJOVACÍ
  6
Continuous
100
AcDbLine
 10
6801.32618511007
 20
-2140.0968063929
 30
0.0
 11
6801.544776422097
 21
-2140.475387941184
 31
0.0
  0
LINE
  5
4F17
330
1F
100
AcDbEntity
  8
SPOJOVACÍ
  6
Continuous
100
AcDbLine
 10
6801.32618511007
 20
-2140.0968063929
 30
0.0
 11
6800.948533736942
 21
-2140.475387941184
 31
0.0
  0
LINE
  5
4F18
330
1F
100
AcDbEntity
  8
SPOJOVACÍ
  6
Continuous
100
AcDbLine
 10
6804.340884864368
 20
-2140.661423099006
 30
0.0
 11
6804.558546000416
 21
-2141.039074474317
 31
0.0
  0
LINE
  5
4F19
330
1F
100
AcDbEntity
  8
SPOJOVACÍ
  6
Continuous
100
AcDbLine
 10
6804.340884864368
 20
-2140.661423099006
 30
0.0
 11
6803.962303315262
 21
-2141.039074474317
 31
0.0
  0
LINE
  5
4F1A
330
1F
100
AcDbEntity
  8
SPOJOVACÍ
  6
Continuous
100
AcDbLine
 10
6795.57211763732
 20
-2140.893036872218
 30
0.0
 11
6798.090103516648
 21
-2140.893036872218
 31
0.0
  0
LINE
  5
4F1B
330
1F
100
AcDbEntity
  8
SPOJOVACÍ
  6
Continuous
100
AcDbLine
 10
6795.128423782816
 20
-2139.842868398479
 30
0.0
 11
6795.347015094836
 21
-2140.22051977379
 31
0.0
  0
LINE
  5
4F1C
330
1F
100
AcDbEntity
  8
SPOJOVACÍ
  6
Continuous
100
AcDbLine
 10
6795.128423782816
 20
-2139.842868398479
 30
0.0
 11
6794.750772409688
 21
-2140.22051977379
 31
0.0
  0
LINE
  5
4F1D
330
1F
100
AcDbEntity
  8
SPOJOVACÍ
  6
Continuous
100
AcDbLine
 10
6798.249163577756
 20
-2139.842868398479
 30
0.0
 11
6798.466824713805
 21
-2140.22051977379
 31
0.0
  0
LINE
  5
4F1E
330
1F
100
AcDbEntity
  8
SPOJOVACÍ
  6
Continuous
100
AcDbLine
 10
6798.249163577756
 20
-2139.842868398479
 30
0.0
 11
6797.87058202865
 21
-2140.22051977379
 31
0.0
  0
LINE
  5
4F1F
330
1F
100
AcDbEntity
  8
SPOJOVACÍ
  6
Continuous
100
AcDbLine
 10
6807.328609520308
 20
-2142.668742469756
 30
0.0
 11
6805.183624135324
 21
-2142.936633098067
 31
0.0
  0
LINE
  5
4F20
330
1F
100
AcDbEntity
  8
SPOJOVACÍ
  6
Continuous
100
AcDbLine
 10
6804.70365342463
 20
-2141.489279559825
 30
0.0
 11
6807.024442034986
 21
-2141.779494404979
 31
0.0
  0
LINE
  5
4F21
330
1F
100
AcDbEntity
  8
SPOJOVACÍ
  6
Continuous
100
AcDbLine
 10
6807.64486929084
 20
-2141.856698997505
 30
0.0
 11
6810.733983108645
 21
-2142.242721951403
 31
0.0
  0
LINE
  5
4F22
330
1F
100
AcDbEntity
  8
SPOJOVACÍ
  6
Continuous
100
AcDbLine
 10
6807.573245754707
 20
-2141.603691180423
 30
0.0
 11
6808.043914707292
 21
-2143.002675579988
 31
0.0
  0
LINE
  5
4F23
330
1F
100
AcDbEntity
  8
SPOJOVACÍ
  6
Continuous
100
AcDbLine
 10
6806.977003069559
 20
-2141.603691180423
 30
0.0
 11
6807.447672022144
 21
-2143.002675579988
 31
0.0
  0
LINE
  5
4F24
330
1F
100
AcDbEntity
  8
SPOJOVACÍ
  6
Continuous
100
AcDbLine
 10
6810.733983108645
 20
-2142.242721951403
 30
0.0
 11
6807.897877107376
 21
-2142.597118932533
 31
0.0
  0
LINE
  5
4F25
330
1F
100
AcDbEntity
  8
SPOJOVACÍ
  6
Continuous
100
AcDbLine
 10
6799.449090354219
 20
-2144.642575504328
 30
0.0
 11
6799.230499042193
 21
-2144.264924133382
 31
0.0
  0
LINE
  5
4F26
330
1F
100
AcDbEntity
  8
SPOJOVACÍ
  6
Continuous
100
AcDbLine
 10
6799.596988305808
 20
-2143.592407034954
 30
0.0
 11
6799.933711943691
 21
-2143.592407034954
 31
0.0
  0
LINE
  5
4F27
330
1F
100
AcDbEntity
  8
SPOJOVACÍ
  6
Continuous
100
AcDbLine
 10
6801.904754454977
 20
-2143.346840623487
 30
0.0
 11
6799.933711943691
 21
-2143.592407034954
 31
0.0
  0
LINE
  5
4F28
330
1F
100
AcDbEntity
  8
SPOJOVACÍ
  6
Continuous
100
AcDbLine
 10
6802.299148992375
 20
-2144.222136045643
 30
0.0
 11
6802.677730541481
 21
-2143.844484674697
 31
0.0
  0
LINE
  5
4F29
330
1F
100
AcDbEntity
  8
SPOJOVACÍ
  6
Continuous
100
AcDbLine
 10
6802.299148992375
 20
-2144.222136045643
 30
0.0
 11
6802.081487856327
 21
-2143.844484674697
 31
0.0
  0
LINE
  5
4F2A
330
1F
100
AcDbEntity
  8
SPOJOVACÍ
  6
Continuous
100
AcDbLine
 10
6804.974334581138
 20
-2143.777512015437
 30
0.0
 11
6805.352916129968
 21
-2143.399860644492
 31
0.0
  0
LINE
  5
4F2B
330
1F
100
AcDbEntity
  8
SPOJOVACÍ
  6
Continuous
100
AcDbLine
 10
6804.974334581138
 20
-2143.777512015437
 30
0.0
 11
6804.75667344509
 21
-2143.399860644492
 31
0.0
  0
LINE
  5
4F2C
330
1F
100
AcDbEntity
  8
SPOJOVACÍ
  6
Continuous
100
AcDbLine
 10
6799.449090354219
 20
-2144.642575504328
 30
0.0
 11
6799.826741727347
 21
-2144.264924133382
 31
0.0
  0
LINE
  5
4F2D
330
1F
100
AcDbEntity
  8
SPOJOVACÍ
  6
Continuous
100
AcDbLine
 10
6796.474388159194
 20
-2143.592407034954
 30
0.0
 11
6798.993304214224
 21
-2143.592407034954
 31
0.0
  0
LINE
  5
4F2E
330
1F
100
AcDbEntity
  8
SPOJOVACÍ
  6
Continuous
100
AcDbLine
 10
6796.328350559278
 20
-2144.642575504328
 30
0.0
 11
6796.706932108108
 21
-2144.264924133382
 31
0.0
  0
LINE
  5
4F2F
330
1F
100
AcDbEntity
  8
SPOJOVACÍ
  6
Continuous
100
AcDbLine
 10
6796.328350559278
 20
-2144.642575504328
 30
0.0
 11
6796.11068942323
 21
-2144.264924133382
 31
0.0
  0
LINE
  5
4F30
330
1F
100
AcDbEntity
  8
SPOJOVACÍ
  6
Continuous
100
AcDbLine
 10
6798.249163577756
 20
-2139.842868398479
 30
0.0
 11
6799.449090354219
 21
-2144.642575504328
 31
0.0
  0
LINE
  5
4F31
330
1F
100
AcDbEntity
  8
SPOJOVACÍ
  6
Continuous
100
AcDbLine
 10
6798.466824713805
 20
-2140.22051977379
 30
0.0
 11
6799.826741727347
 21
-2144.264924133382
 31
0.0
  0
LINE
  5
4F32
330
1F
100
AcDbEntity
  8
SPOJOVACÍ
  6
Continuous
100
AcDbLine
 10
6801.544776422097
 20
-2140.475387941184
 30
0.0
 11
6802.677730541481
 21
-2143.844484674697
 31
0.0
  0
LINE
  5
4F33
330
1F
100
AcDbEntity
  8
SPOJOVACÍ
  6
Continuous
100
AcDbLine
 10
6800.948533736942
 20
-2140.475387941184
 30
0.0
 11
6802.081487856327
 21
-2143.844484674697
 31
0.0
  0
LINE
  5
4F34
330
1F
100
AcDbEntity
  8
SPOJOVACÍ
  6
Continuous
100
AcDbLine
 10
6801.32618511007
 20
-2140.0968063929
 30
0.0
 11
6802.299148992375
 21
-2144.222136045643
 31
0.0
  0
LINE
  5
4F35
330
1F
100
AcDbEntity
  8
SPOJOVACÍ
  6
Continuous
100
AcDbLine
 10
6804.558546000416
 20
-2141.039074474317
 30
0.0
 11
6805.352916129968
 21
-2143.399860644492
 31
0.0
  0
LINE
  5
4F36
330
1F
100
AcDbEntity
  8
SPOJOVACÍ
  6
Continuous
100
AcDbLine
 10
6803.962303315262
 20
-2141.039074474317
 30
0.0
 11
6804.75667344509
 21
-2143.399860644492
 31
0.0
  0
LINE
  5
4F37
330
1F
100
AcDbEntity
  8
SPOJOVACÍ
  6
Continuous
100
AcDbLine
 10
6804.340884864368
 20
-2140.661423099006
 30
0.0
 11
6804.974334581138
 21
-2143.777512015437
 31
0.0
  0
LINE
  5
4F38
330
1F
100
AcDbEntity
  8
SPOJOVACÍ
  6
Continuous
100
AcDbLine
 10
6807.354654442687
 20
-2141.226039809477
 30
0.0
 11
6807.665333158462
 21
-2143.380326950934
 31
0.0
  0
LINE
  5
4F39
330
1F
100
AcDbEntity
  8
SPOJOVACÍ
  6
Continuous
100
AcDbLine
 10
6795.128423782816
 20
-2139.842868398479
 30
0.0
 11
6796.328350559278
 21
-2144.642575504328
 31
0.0
  0
LINE
  5
4F3A
330
1F
100
AcDbEntity
  8
SPOJOVACÍ
  6
Continuous
100
AcDbLine
 10
6795.347015094836
 20
-2140.22051977379
 30
0.0
 11
6796.706932108108
 21
-2144.264924133382
 31
0.0
  0
LINE
  5
4F3B
330
1F
100
AcDbEntity
  8
SPOJOVACÍ
  6
Continuous
100
AcDbLine
 10
6794.750772409688
 20
-2140.22051977379
 30
0.0
 11
6796.11068942323
 21
-2144.264924133382
 31
0.0
  0
LINE
  5
4F3C
330
1F
100
AcDbEntity
  8
SPOJOVACÍ
  6
Continuous
100
AcDbLine
 10
6797.87058202865
 20
-2140.22051977379
 30
0.0
 11
6799.230499042193
 21
-2144.264924133382
 31
0.0
  0
LINE
  5
4F3D
330
1F
100
AcDbEntity
  8
SPOJOVACÍ
  6
Continuous
100
AcDbLine
 10
6804.611566020875
 20
-2143.008256630925
 30
0.0
 11
6802.474952218023
 21
-2143.275217086263
 31
0.0
  0
LINE
  5
4F3E
330
1F
100
AcDbEntity
  8
SPOJOVACÍ
  6
Continuous
100
AcDbLine
 10
6807.665333158462
 20
-2143.380326950934
 30
0.0
 11
6808.043914707292
 21
-2143.002675579988
 31
0.0
  0
LINE
  5
4F3F
330
1F
100
AcDbEntity
  8
SPOJOVACÍ
  6
Continuous
100
AcDbLine
 10
6807.665333158462
 20
-2143.380326950934
 30
0.0
 11
6807.447672022144
 21
-2143.002675579988
 31
0.0
  0
LINE
  5
4F40
330
1F
100
AcDbEntity
  8
SPOJOVACÍ
  6
Continuous
100
AcDbLine
 10
6774.968723760693
 20
-2137.14256806277
 30
0.0
 11
6776.168650537425
 21
-2137.14256806277
 31
0.0
  0
LINE
  5
4F41
330
1F
100
AcDbEntity
  8
SPOJOVACÍ
  6
Continuous
100
AcDbLine
 10
6780.78139230866
 20
-2140.826994390296
 30
0.0
 11
6781.568321031781
 21
-2140.893036872218
 31
0.0
  0
LINE
  5
4F42
330
1F
100
AcDbEntity
  8
SPOJOVACÍ
  6
Continuous
100
AcDbLine
 10
6779.300552441609
 20
-2140.399113525997
 30
0.0
 11
6780.78139230866
 21
-2140.826994390296
 31
0.0
  0
LINE
  5
4F43
330
1F
100
AcDbEntity
  8
SPOJOVACÍ
  6
Continuous
100
AcDbLine
 10
6777.981563163312
 20
-2139.602883046679
 30
0.0
 11
6779.300552441609
 21
-2140.399113525997
 31
0.0
  0
LINE
  5
4F44
330
1F
100
AcDbEntity
  8
SPOJOVACÍ
  6
Continuous
100
AcDbLine
 10
6776.912791173899
 20
-2138.49225314632
 30
0.0
 11
6777.981563163312
 21
-2139.602883046679
 31
0.0
  0
LINE
  5
4F45
330
1F
100
AcDbEntity
  8
SPOJOVACÍ
  6
Continuous
100
AcDbLine
 10
6776.168650537425
 20
-2137.14256806277
 30
0.0
 11
6776.912791173899
 21
-2138.49225314632
 31
0.0
  0
LINE
  5
4F46
330
1F
100
AcDbEntity
  8
SPOJOVACÍ
  6
Continuous
100
AcDbLine
 10
6781.568321031781
 20
-2140.893036872218
 30
0.0
 11
6785.606214161461
 21
-2140.893036872218
 31
0.0
  0
LINE
  5
4F47
330
1F
100
AcDbEntity
  8
SPOJOVACÍ
  6
Continuous
100
AcDbLine
 10
6786.201526670637
 20
-2140.893036872218
 30
0.0
 11
6788.720442725668
 21
-2140.893036872218
 31
0.0
  0
LINE
  5
4F48
330
1F
100
AcDbEntity
  8
SPOJOVACÍ
  6
Continuous
100
AcDbLine
 10
6789.324126816982
 20
-2140.893036872218
 30
0.0
 11
6791.84490322369
 21
-2140.893036872218
 31
0.0
  0
LINE
  5
4F49
330
1F
100
AcDbEntity
  8
SPOJOVACÍ
  6
Continuous
100
AcDbLine
 10
6785.768994925646
 20
-2139.842868398479
 30
0.0
 11
6785.986656061695
 21
-2140.22051977379
 31
0.0
  0
LINE
  5
4F4A
330
1F
100
AcDbEntity
  8
SPOJOVACÍ
  6
Continuous
100
AcDbLine
 10
6785.768994925646
 20
-2139.842868398479
 30
0.0
 11
6785.390413376816
 21
-2140.22051977379
 31
0.0
  0
LINE
  5
4F4B
330
1F
100
AcDbEntity
  8
SPOJOVACÍ
  6
Continuous
100
AcDbLine
 10
6788.888804544609
 20
-2139.842868398479
 30
0.0
 11
6789.107395856635
 21
-2140.22051977379
 31
0.0
  0
LINE
  5
4F4C
330
1F
100
AcDbEntity
  8
SPOJOVACÍ
  6
Continuous
100
AcDbLine
 10
6788.888804544609
 20
-2139.842868398479
 30
0.0
 11
6788.511153171481
 21
-2140.22051977379
 31
0.0
  0
LINE
  5
4F4D
330
1F
100
AcDbEntity
  8
SPOJOVACÍ
  6
Continuous
100
AcDbLine
 10
6792.008614163847
 20
-2139.842868398479
 30
0.0
 11
6792.227205475874
 21
-2140.22051977379
 31
0.0
  0
LINE
  5
4F4E
330
1F
100
AcDbEntity
  8
SPOJOVACÍ
  6
Continuous
100
AcDbLine
 10
6792.008614163847
 20
-2139.842868398479
 30
0.0
 11
6791.630962790719
 21
-2140.22051977379
 31
0.0
  0
LINE
  5
4F4F
330
1F
100
AcDbEntity
  8
SPOJOVACÍ
  6
Continuous
100
AcDbLine
 10
6778.630825868649
 20
-2144.432355774986
 30
0.0
 11
6777.423457685751
 21
-2145.39043684497
 31
0.0
  0
LINE
  5
4F50
330
1F
100
AcDbEntity
  8
SPOJOVACÍ
  6
Continuous
100
AcDbLine
 10
6780.044693078352
 20
-2143.819369925838
 30
0.0
 11
6778.630825868649
 21
-2144.432355774986
 31
0.0
  0
LINE
  5
4F51
330
1F
100
AcDbEntity
  8
SPOJOVACÍ
  6
Continuous
100
AcDbLine
 10
6781.568321031781
 20
-2143.592407034954
 30
0.0
 11
6780.044693078352
 21
-2143.819369925838
 31
0.0
  0
LINE
  5
4F52
330
1F
100
AcDbEntity
  8
SPOJOVACÍ
  6
Continuous
100
AcDbLine
 10
6777.423457685751
 20
-2145.39043684497
 30
0.0
 11
6776.505374175309
 21
-2146.627570653869
 31
0.0
  0
LINE
  5
4F53
330
1F
100
AcDbEntity
  8
SPOJOVACÍ
  6
Continuous
100
AcDbLine
 10
6781.568321031781
 20
-2143.592407034954
 30
0.0
 11
6786.511275210711
 21
-2143.592407034954
 31
0.0
  0
LINE
  5
4F54
330
1F
100
AcDbEntity
  8
SPOJOVACÍ
  6
Continuous
100
AcDbLine
 10
6787.114959302025
 20
-2143.592407034954
 30
0.0
 11
6789.633875357054
 21
-2143.592407034954
 31
0.0
  0
LINE
  5
4F55
330
1F
100
AcDbEntity
  8
SPOJOVACÍ
  6
Continuous
100
AcDbLine
 10
6790.230118042209
 20
-2143.592407034954
 30
0.0
 11
6792.758335855078
 21
-2143.592407034954
 31
0.0
  0
LINE
  5
4F56
330
1F
100
AcDbEntity
  8
SPOJOVACÍ
  6
Continuous
100
AcDbLine
 10
6786.968921702109
 20
-2144.642575504328
 30
0.0
 11
6787.346573075237
 21
-2144.264924133382
 31
0.0
  0
LINE
  5
4F57
330
1F
100
AcDbEntity
  8
SPOJOVACÍ
  6
Continuous
100
AcDbLine
 10
6786.968921702109
 20
-2144.642575504328
 30
0.0
 11
6786.750330390083
 21
-2144.264924133382
 31
0.0
  0
LINE
  5
4F58
330
1F
100
AcDbEntity
  8
SPOJOVACÍ
  6
Continuous
100
AcDbLine
 10
6790.088731321347
 20
-2144.642575504328
 30
0.0
 11
6790.4663826942
 21
-2144.264924133382
 31
0.0
  0
LINE
  5
4F59
330
1F
100
AcDbEntity
  8
SPOJOVACÍ
  6
Continuous
100
AcDbLine
 10
6790.088731321347
 20
-2144.642575504328
 30
0.0
 11
6789.870140009321
 21
-2144.264924133382
 31
0.0
  0
LINE
  5
4F5A
330
1F
100
AcDbEntity
  8
SPOJOVACÍ
  6
Continuous
100
AcDbLine
 10
6793.20854094031
 20
-2144.642575504328
 30
0.0
 11
6793.58712248914
 21
-2144.264924133382
 31
0.0
  0
LINE
  5
4F5B
330
1F
100
AcDbEntity
  8
SPOJOVACÍ
  6
Continuous
100
AcDbLine
 10
6793.20854094031
 20
-2144.642575504328
 30
0.0
 11
6792.990879803991
 21
-2144.264924133382
 31
0.0
  0
LINE
  5
4F5C
330
1F
100
AcDbEntity
  8
SPOJOVACÍ
  6
Continuous
100
AcDbLine
 10
6785.768994925646
 20
-2139.842868398479
 30
0.0
 11
6786.968921702109
 21
-2144.642575504328
 31
0.0
  0
LINE
  5
4F5D
330
1F
100
AcDbEntity
  8
SPOJOVACÍ
  6
Continuous
100
AcDbLine
 10
6785.986656061695
 20
-2140.22051977379
 30
0.0
 11
6787.346573075237
 21
-2144.264924133382
 31
0.0
  0
LINE
  5
4F5E
330
1F
100
AcDbEntity
  8
SPOJOVACÍ
  6
Continuous
100
AcDbLine
 10
6785.390413376816
 20
-2140.22051977379
 30
0.0
 11
6786.750330390083
 21
-2144.264924133382
 31
0.0
  0
LINE
  5
4F5F
330
1F
100
AcDbEntity
  8
SPOJOVACÍ
  6
Continuous
100
AcDbLine
 10
6788.888804544609
 20
-2139.842868398479
 30
0.0
 11
6790.088731321347
 21
-2144.642575504328
 31
0.0
  0
LINE
  5
4F60
330
1F
100
AcDbEntity
  8
SPOJOVACÍ
  6
Continuous
100
AcDbLine
 10
6789.107395856635
 20
-2140.22051977379
 30
0.0
 11
6790.4663826942
 21
-2144.264924133382
 31
0.0
  0
LINE
  5
4F61
330
1F
100
AcDbEntity
  8
SPOJOVACÍ
  6
Continuous
100
AcDbLine
 10
6788.511153171481
 20
-2140.22051977379
 30
0.0
 11
6789.870140009321
 21
-2144.264924133382
 31
0.0
  0
LINE
  5
4F62
330
1F
100
AcDbEntity
  8
SPOJOVACÍ
  6
Continuous
100
AcDbLine
 10
6792.008614163847
 20
-2139.842868398479
 30
0.0
 11
6793.20854094031
 21
-2144.642575504328
 31
0.0
  0
LINE
  5
4F63
330
1F
100
AcDbEntity
  8
SPOJOVACÍ
  6
Continuous
100
AcDbLine
 10
6792.227205475874
 20
-2140.22051977379
 30
0.0
 11
6793.58712248914
 21
-2144.264924133382
 31
0.0
  0
LINE
  5
4F64
330
1F
100
AcDbEntity
  8
SPOJOVACÍ
  6
Continuous
100
AcDbLine
 10
6791.630962790719
 20
-2140.22051977379
 30
0.0
 11
6792.990879803991
 21
-2144.264924133382
 31
0.0
  0
LINE
  5
4F65
330
1F
100
AcDbEntity
  8
SPOJOVACÍ
  6
Continuous
100
AcDbLine
 10
6792.439285557165
 20
-2258.015932419997
 30
0.0
 11
6794.967503370035
 21
-2258.015932419997
 31
0.0
  0
LINE
  5
4F66
330
1F
100
AcDbEntity
  8
SPOJOVACÍ
  6
Continuous
100
AcDbLine
 10
6793.352718188552
 20
-2260.715302582732
 30
0.0
 11
6795.873494595261
 21
-2260.715302582732
 31
0.0
  0
LINE
  5
4F67
330
1F
100
AcDbEntity
  8
SPOJOVACÍ
  6
Continuous
100
AcDbLine
 10
6801.751275448902
 20
-2258.242895315246
 30
0.0
 11
6804.072994234966
 21
-2258.533110164765
 31
0.0
  0
LINE
  5
4F68
330
1F
100
AcDbEntity
  8
SPOJOVACÍ
  6
Continuous
100
AcDbLine
 10
6807.354654442687
 20
-2258.348935357255
 30
0.0
 11
6807.573245754707
 21
-2258.726586728201
 31
0.0
  0
LINE
  5
4F69
330
1F
100
AcDbEntity
  8
SPOJOVACÍ
  6
Continuous
100
AcDbLine
 10
6807.354654442687
 20
-2258.348935357255
 30
0.0
 11
6806.977003069559
 21
-2258.726586728201
 31
0.0
  0
LINE
  5
4F6A
330
1F
100
AcDbEntity
  8
SPOJOVACÍ
  6
Continuous
100
AcDbLine
 10
6798.686346201802
 20
-2258.015932419997
 30
0.0
 11
6799.933711943691
 21
-2258.015932419997
 31
0.0
  0
LINE
  5
4F6B
330
1F
100
AcDbEntity
  8
SPOJOVACÍ
  6
Continuous
100
AcDbLine
 10
6799.933711943691
 20
-2258.015932419997
 30
0.0
 11
6801.130848193048
 21
-2258.165690722719
 31
0.0
  0
LINE
  5
4F6C
330
1F
100
AcDbEntity
  8
SPOJOVACÍ
  6
Continuous
100
AcDbLine
 10
6801.32618511007
 20
-2257.219701940678
 30
0.0
 11
6801.544776422097
 21
-2257.598283488963
 31
0.0
  0
LINE
  5
4F6D
330
1F
100
AcDbEntity
  8
SPOJOVACÍ
  6
Continuous
100
AcDbLine
 10
6801.32618511007
 20
-2257.219701940678
 30
0.0
 11
6800.948533736942
 21
-2257.598283488963
 31
0.0
  0
LINE
  5
4F6E
330
1F
100
AcDbEntity
  8
SPOJOVACÍ
  6
Continuous
100
AcDbLine
 10
6804.340884864368
 20
-2257.784318646784
 30
0.0
 11
6804.558546000416
 21
-2258.161970022095
 31
0.0
  0
LINE
  5
4F6F
330
1F
100
AcDbEntity
  8
SPOJOVACÍ
  6
Continuous
100
AcDbLine
 10
6804.340884864368
 20
-2257.784318646784
 30
0.0
 11
6803.962303315262
 21
-2258.161970022095
 31
0.0
  0
LINE
  5
4F70
330
1F
100
AcDbEntity
  8
SPOJOVACÍ
  6
Continuous
100
AcDbLine
 10
6795.57211763732
 20
-2258.015932419997
 30
0.0
 11
6798.090103516648
 21
-2258.015932419997
 31
0.0
  0
LINE
  5
4F71
330
1F
100
AcDbEntity
  8
SPOJOVACÍ
  6
Continuous
100
AcDbLine
 10
6795.128423782816
 20
-2256.965763946257
 30
0.0
 11
6795.347015094836
 21
-2257.343415321568
 31
0.0
  0
LINE
  5
4F72
330
1F
100
AcDbEntity
  8
SPOJOVACÍ
  6
Continuous
100
AcDbLine
 10
6795.128423782816
 20
-2256.965763946257
 30
0.0
 11
6794.750772409688
 21
-2257.343415321568
 31
0.0
  0
LINE
  5
4F73
330
1F
100
AcDbEntity
  8
SPOJOVACÍ
  6
Continuous
100
AcDbLine
 10
6798.249163577756
 20
-2256.965763946257
 30
0.0
 11
6798.466824713805
 21
-2257.343415321568
 31
0.0
  0
LINE
  5
4F74
330
1F
100
AcDbEntity
  8
SPOJOVACÍ
  6
Continuous
100
AcDbLine
 10
6798.249163577756
 20
-2256.965763946257
 30
0.0
 11
6797.87058202865
 21
-2257.343415321568
 31
0.0
  0
LINE
  5
4F75
330
1F
100
AcDbEntity
  8
SPOJOVACÍ
  6
Continuous
100
AcDbLine
 10
6807.328609520308
 20
-2259.791638017535
 30
0.0
 11
6805.183624135324
 21
-2260.059528645845
 31
0.0
  0
LINE
  5
4F76
330
1F
100
AcDbEntity
  8
SPOJOVACÍ
  6
Continuous
100
AcDbLine
 10
6804.70365342463
 20
-2258.612175107603
 30
0.0
 11
6807.024442034986
 21
-2258.902389952757
 31
0.0
  0
LINE
  5
4F77
330
1F
100
AcDbEntity
  8
SPOJOVACÍ
  6
Continuous
100
AcDbLine
 10
6807.64486929084
 20
-2258.979594545283
 30
0.0
 11
6810.733983108645
 21
-2259.365617499182
 31
0.0
  0
LINE
  5
4F78
330
1F
100
AcDbEntity
  8
SPOJOVACÍ
  6
Continuous
100
AcDbLine
 10
6807.573245754707
 20
-2258.726586728201
 30
0.0
 11
6808.043914707292
 21
-2260.125571127767
 31
0.0
  0
LINE
  5
4F79
330
1F
100
AcDbEntity
  8
SPOJOVACÍ
  6
Continuous
100
AcDbLine
 10
6806.977003069559
 20
-2258.726586728201
 30
0.0
 11
6807.447672022144
 21
-2260.125571127767
 31
0.0
  0
LINE
  5
4F7A
330
1F
100
AcDbEntity
  8
SPOJOVACÍ
  6
Continuous
100
AcDbLine
 10
6810.733983108645
 20
-2259.365617499182
 30
0.0
 11
6807.897877107376
 21
-2259.720014480311
 31
0.0
  0
LINE
  5
4F7B
330
1F
100
AcDbEntity
  8
SPOJOVACÍ
  6
Continuous
100
AcDbLine
 10
6799.449090354219
 20
-2261.765471052106
 30
0.0
 11
6799.230499042193
 21
-2261.387819681161
 31
0.0
  0
LINE
  5
4F7C
330
1F
100
AcDbEntity
  8
SPOJOVACÍ
  6
Continuous
100
AcDbLine
 10
6799.596988305808
 20
-2260.715302582732
 30
0.0
 11
6799.933711943691
 21
-2260.715302582732
 31
0.0
  0
LINE
  5
4F7D
330
1F
100
AcDbEntity
  8
SPOJOVACÍ
  6
Continuous
100
AcDbLine
 10
6801.904754454977
 20
-2260.469736171265
 30
0.0
 11
6799.933711943691
 21
-2260.715302582732
 31
0.0
  0
LINE
  5
4F7E
330
1F
100
AcDbEntity
  8
SPOJOVACÍ
  6
Continuous
100
AcDbLine
 10
6802.299148992375
 20
-2261.345031593421
 30
0.0
 11
6802.677730541481
 21
-2260.967380222476
 31
0.0
  0
LINE
  5
4F7F
330
1F
100
AcDbEntity
  8
SPOJOVACÍ
  6
Continuous
100
AcDbLine
 10
6802.299148992375
 20
-2261.345031593421
 30
0.0
 11
6802.081487856327
 21
-2260.967380222476
 31
0.0
  0
LINE
  5
4F80
330
1F
100
AcDbEntity
  8
SPOJOVACÍ
  6
Continuous
100
AcDbLine
 10
6804.974334581138
 20
-2260.900407563215
 30
0.0
 11
6805.352916129968
 21
-2260.52275619227
 31
0.0
  0
LINE
  5
4F81
330
1F
100
AcDbEntity
  8
SPOJOVACÍ
  6
Continuous
100
AcDbLine
 10
6804.974334581138
 20
-2260.900407563215
 30
0.0
 11
6804.75667344509
 21
-2260.52275619227
 31
0.0
  0
LINE
  5
4F82
330
1F
100
AcDbEntity
  8
SPOJOVACÍ
  6
Continuous
100
AcDbLine
 10
6799.449090354219
 20
-2261.765471052106
 30
0.0
 11
6799.826741727347
 21
-2261.387819681161
 31
0.0
  0
LINE
  5
4F83
330
1F
100
AcDbEntity
  8
SPOJOVACÍ
  6
Continuous
100
AcDbLine
 10
6796.474388159194
 20
-2260.715302582732
 30
0.0
 11
6798.993304214224
 21
-2260.715302582732
 31
0.0
  0
LINE
  5
4F84
330
1F
100
AcDbEntity
  8
SPOJOVACÍ
  6
Continuous
100
AcDbLine
 10
6796.328350559278
 20
-2261.765471052106
 30
0.0
 11
6796.706932108108
 21
-2261.387819681161
 31
0.0
  0
LINE
  5
4F85
330
1F
100
AcDbEntity
  8
SPOJOVACÍ
  6
Continuous
100
AcDbLine
 10
6796.328350559278
 20
-2261.765471052106
 30
0.0
 11
6796.11068942323
 21
-2261.387819681161
 31
0.0
  0
LINE
  5
4F86
330
1F
100
AcDbEntity
  8
SPOJOVACÍ
  6
Continuous
100
AcDbLine
 10
6798.249163577756
 20
-2256.965763946257
 30
0.0
 11
6799.449090354219
 21
-2261.765471052106
 31
0.0
  0
LINE
  5
4F87
330
1F
100
AcDbEntity
  8
SPOJOVACÍ
  6
Continuous
100
AcDbLine
 10
6798.466824713805
 20
-2257.343415321568
 30
0.0
 11
6799.826741727347
 21
-2261.387819681161
 31
0.0
  0
LINE
  5
4F88
330
1F
100
AcDbEntity
  8
SPOJOVACÍ
  6
Continuous
100
AcDbLine
 10
6801.544776422097
 20
-2257.598283488963
 30
0.0
 11
6802.677730541481
 21
-2260.967380222476
 31
0.0
  0
LINE
  5
4F89
330
1F
100
AcDbEntity
  8
SPOJOVACÍ
  6
Continuous
100
AcDbLine
 10
6800.948533736942
 20
-2257.598283488963
 30
0.0
 11
6802.081487856327
 21
-2260.967380222476
 31
0.0
  0
LINE
  5
4F8A
330
1F
100
AcDbEntity
  8
SPOJOVACÍ
  6
Continuous
100
AcDbLine
 10
6801.32618511007
 20
-2257.219701940678
 30
0.0
 11
6802.299148992375
 21
-2261.345031593421
 31
0.0
  0
LINE
  5
4F8B
330
1F
100
AcDbEntity
  8
SPOJOVACÍ
  6
Continuous
100
AcDbLine
 10
6804.558546000416
 20
-2258.161970022095
 30
0.0
 11
6805.352916129968
 21
-2260.52275619227
 31
0.0
  0
LINE
  5
4F8C
330
1F
100
AcDbEntity
  8
SPOJOVACÍ
  6
Continuous
100
AcDbLine
 10
6803.962303315262
 20
-2258.161970022095
 30
0.0
 11
6804.75667344509
 21
-2260.52275619227
 31
0.0
  0
LINE
  5
4F8D
330
1F
100
AcDbEntity
  8
SPOJOVACÍ
  6
Continuous
100
AcDbLine
 10
6804.340884864368
 20
-2257.784318646784
 30
0.0
 11
6804.974334581138
 21
-2260.900407563215
 31
0.0
  0
LINE
  5
4F8E
330
1F
100
AcDbEntity
  8
SPOJOVACÍ
  6
Continuous
100
AcDbLine
 10
6807.354654442687
 20
-2258.348935357255
 30
0.0
 11
6807.665333158462
 21
-2260.503222498712
 31
0.0
  0
LINE
  5
4F8F
330
1F
100
AcDbEntity
  8
SPOJOVACÍ
  6
Continuous
100
AcDbLine
 10
6795.128423782816
 20
-2256.965763946257
 30
0.0
 11
6796.328350559278
 21
-2261.765471052106
 31
0.0
  0
LINE
  5
4F90
330
1F
100
AcDbEntity
  8
SPOJOVACÍ
  6
Continuous
100
AcDbLine
 10
6795.347015094836
 20
-2257.343415321568
 30
0.0
 11
6796.706932108108
 21
-2261.387819681161
 31
0.0
  0
LINE
  5
4F91
330
1F
100
AcDbEntity
  8
SPOJOVACÍ
  6
Continuous
100
AcDbLine
 10
6794.750772409688
 20
-2257.343415321568
 30
0.0
 11
6796.11068942323
 21
-2261.387819681161
 31
0.0
  0
LINE
  5
4F92
330
1F
100
AcDbEntity
  8
SPOJOVACÍ
  6
Continuous
100
AcDbLine
 10
6797.87058202865
 20
-2257.343415321568
 30
0.0
 11
6799.230499042193
 21
-2261.387819681161
 31
0.0
  0
LINE
  5
4F93
330
1F
100
AcDbEntity
  8
SPOJOVACÍ
  6
Continuous
100
AcDbLine
 10
6804.611566020875
 20
-2260.131152178704
 30
0.0
 11
6802.474952218023
 21
-2260.398112634041
 31
0.0
  0
LINE
  5
4F94
330
1F
100
AcDbEntity
  8
SPOJOVACÍ
  6
Continuous
100
AcDbLine
 10
6807.665333158462
 20
-2260.503222498712
 30
0.0
 11
6808.043914707292
 21
-2260.125571127767
 31
0.0
  0
LINE
  5
4F95
330
1F
100
AcDbEntity
  8
SPOJOVACÍ
  6
Continuous
100
AcDbLine
 10
6807.665333158462
 20
-2260.503222498712
 30
0.0
 11
6807.447672022144
 21
-2260.125571127767
 31
0.0
  0
LINE
  5
4F96
330
1F
100
AcDbEntity
  8
SPOJOVACÍ
  6
Continuous
100
AcDbLine
 10
6774.968723760693
 20
-2254.265463610548
 30
0.0
 11
6776.168650537425
 21
-2254.265463610548
 31
0.0
  0
LINE
  5
4F97
330
1F
100
AcDbEntity
  8
SPOJOVACÍ
  6
Continuous
100
AcDbLine
 10
6780.78139230866
 20
-2257.949889938075
 30
0.0
 11
6781.568321031781
 21
-2258.015932419997
 31
0.0
  0
LINE
  5
4F98
330
1F
100
AcDbEntity
  8
SPOJOVACÍ
  6
Continuous
100
AcDbLine
 10
6779.300552441609
 20
-2257.522009073775
 30
0.0
 11
6780.78139230866
 21
-2257.949889938075
 31
0.0
  0
LINE
  5
4F99
330
1F
100
AcDbEntity
  8
SPOJOVACÍ
  6
Continuous
100
AcDbLine
 10
6777.981563163312
 20
-2256.725778594457
 30
0.0
 11
6779.300552441609
 21
-2257.522009073775
 31
0.0
  0
LINE
  5
4F9A
330
1F
100
AcDbEntity
  8
SPOJOVACÍ
  6
Continuous
100
AcDbLine
 10
6776.912791173899
 20
-2255.615148694098
 30
0.0
 11
6777.981563163312
 21
-2256.725778594457
 31
0.0
  0
LINE
  5
4F9B
330
1F
100
AcDbEntity
  8
SPOJOVACÍ
  6
Continuous
100
AcDbLine
 10
6776.168650537425
 20
-2254.265463610548
 30
0.0
 11
6776.912791173899
 21
-2255.615148694098
 31
0.0
  0
LINE
  5
4F9C
330
1F
100
AcDbEntity
  8
SPOJOVACÍ
  6
Continuous
100
AcDbLine
 10
6781.568321031781
 20
-2258.015932419997
 30
0.0
 11
6785.606214161461
 21
-2258.015932419997
 31
0.0
  0
LINE
  5
4F9D
330
1F
100
AcDbEntity
  8
SPOJOVACÍ
  6
Continuous
100
AcDbLine
 10
6786.201526670637
 20
-2258.015932419997
 30
0.0
 11
6788.720442725668
 21
-2258.015932419997
 31
0.0
  0
LINE
  5
4F9E
330
1F
100
AcDbEntity
  8
SPOJOVACÍ
  6
Continuous
100
AcDbLine
 10
6789.324126816982
 20
-2258.015932419997
 30
0.0
 11
6791.84490322369
 21
-2258.015932419997
 31
0.0
  0
LINE
  5
4F9F
330
1F
100
AcDbEntity
  8
SPOJOVACÍ
  6
Continuous
100
AcDbLine
 10
6785.768994925646
 20
-2256.965763946257
 30
0.0
 11
6785.986656061695
 21
-2257.343415321568
 31
0.0
  0
LINE
  5
4FA0
330
1F
100
AcDbEntity
  8
SPOJOVACÍ
  6
Continuous
100
AcDbLine
 10
6785.768994925646
 20
-2256.965763946257
 30
0.0
 11
6785.390413376816
 21
-2257.343415321568
 31
0.0
  0
LINE
  5
4FA1
330
1F
100
AcDbEntity
  8
SPOJOVACÍ
  6
Continuous
100
AcDbLine
 10
6788.888804544609
 20
-2256.965763946257
 30
0.0
 11
6789.107395856635
 21
-2257.343415321568
 31
0.0
  0
LINE
  5
4FA2
330
1F
100
AcDbEntity
  8
SPOJOVACÍ
  6
Continuous
100
AcDbLine
 10
6788.888804544609
 20
-2256.965763946257
 30
0.0
 11
6788.511153171481
 21
-2257.343415321568
 31
0.0
  0
LINE
  5
4FA3
330
1F
100
AcDbEntity
  8
SPOJOVACÍ
  6
Continuous
100
AcDbLine
 10
6792.008614163847
 20
-2256.965763946257
 30
0.0
 11
6792.227205475874
 21
-2257.343415321568
 31
0.0
  0
LINE
  5
4FA4
330
1F
100
AcDbEntity
  8
SPOJOVACÍ
  6
Continuous
100
AcDbLine
 10
6792.008614163847
 20
-2256.965763946257
 30
0.0
 11
6791.630962790719
 21
-2257.343415321568
 31
0.0
  0
LINE
  5
4FA5
330
1F
100
AcDbEntity
  8
SPOJOVACÍ
  6
Continuous
100
AcDbLine
 10
6778.630825868649
 20
-2261.555251322764
 30
0.0
 11
6777.423457685751
 21
-2262.513332392748
 31
0.0
  0
LINE
  5
4FA6
330
1F
100
AcDbEntity
  8
SPOJOVACÍ
  6
Continuous
100
AcDbLine
 10
6780.044693078352
 20
-2260.942265473616
 30
0.0
 11
6778.630825868649
 21
-2261.555251322764
 31
0.0
  0
LINE
  5
4FA7
330
1F
100
AcDbEntity
  8
SPOJOVACÍ
  6
Continuous
100
AcDbLine
 10
6781.568321031781
 20
-2260.715302582732
 30
0.0
 11
6780.044693078352
 21
-2260.942265473616
 31
0.0
  0
LINE
  5
4FA8
330
1F
100
AcDbEntity
  8
SPOJOVACÍ
  6
Continuous
100
AcDbLine
 10
6774.968723760693
 20
-2264.465771387816
 30
0.0
 11
6776.168650537425
 21
-2264.465771387816
 31
0.0
  0
LINE
  5
4FA9
330
1F
100
AcDbEntity
  8
SPOJOVACÍ
  6
Continuous
100
AcDbLine
 10
6776.505374175309
 20
-2263.750466201648
 30
0.0
 11
6776.168650537425
 21
-2264.465771387816
 31
0.0
  0
LINE
  5
4FAA
330
1F
100
AcDbEntity
  8
SPOJOVACÍ
  6
Continuous
100
AcDbLine
 10
6777.423457685751
 20
-2262.513332392748
 30
0.0
 11
6776.505374175309
 21
-2263.750466201648
 31
0.0
  0
LINE
  5
4FAB
330
1F
100
AcDbEntity
  8
SPOJOVACÍ
  6
Continuous
100
AcDbLine
 10
6781.568321031781
 20
-2260.715302582732
 30
0.0
 11
6786.511275210711
 21
-2260.715302582732
 31
0.0
  0
LINE
  5
4FAC
330
1F
100
AcDbEntity
  8
SPOJOVACÍ
  6
Continuous
100
AcDbLine
 10
6787.114959302025
 20
-2260.715302582732
 30
0.0
 11
6789.633875357054
 21
-2260.715302582732
 31
0.0
  0
LINE
  5
4FAD
330
1F
100
AcDbEntity
  8
SPOJOVACÍ
  6
Continuous
100
AcDbLine
 10
6790.230118042209
 20
-2260.715302582732
 30
0.0
 11
6792.758335855078
 21
-2260.715302582732
 31
0.0
  0
LINE
  5
4FAE
330
1F
100
AcDbEntity
  8
SPOJOVACÍ
  6
Continuous
100
AcDbLine
 10
6786.968921702109
 20
-2261.765471052106
 30
0.0
 11
6787.346573075237
 21
-2261.387819681161
 31
0.0
  0
LINE
  5
4FAF
330
1F
100
AcDbEntity
  8
SPOJOVACÍ
  6
Continuous
100
AcDbLine
 10
6786.968921702109
 20
-2261.765471052106
 30
0.0
 11
6786.750330390083
 21
-2261.387819681161
 31
0.0
  0
LINE
  5
4FB0
330
1F
100
AcDbEntity
  8
SPOJOVACÍ
  6
Continuous
100
AcDbLine
 10
6790.088731321347
 20
-2261.765471052106
 30
0.0
 11
6790.4663826942
 21
-2261.387819681161
 31
0.0
  0
LINE
  5
4FB1
330
1F
100
AcDbEntity
  8
SPOJOVACÍ
  6
Continuous
100
AcDbLine
 10
6790.088731321347
 20
-2261.765471052106
 30
0.0
 11
6789.870140009321
 21
-2261.387819681161
 31
0.0
  0
LINE
  5
4FB2
330
1F
100
AcDbEntity
  8
SPOJOVACÍ
  6
Continuous
100
AcDbLine
 10
6793.20854094031
 20
-2261.765471052106
 30
0.0
 11
6793.58712248914
 21
-2261.387819681161
 31
0.0
  0
LINE
  5
4FB3
330
1F
100
AcDbEntity
  8
SPOJOVACÍ
  6
Continuous
100
AcDbLine
 10
6793.20854094031
 20
-2261.765471052106
 30
0.0
 11
6792.990879803991
 21
-2261.387819681161
 31
0.0
  0
LINE
  5
4FB4
330
1F
100
AcDbEntity
  8
SPOJOVACÍ
  6
Continuous
100
AcDbLine
 10
6774.968723760693
 20
-2254.265463610548
 30
0.0
 11
6774.968723760693
 21
-2264.465771387816
 31
0.0
  0
LINE
  5
4FB5
330
1F
100
AcDbEntity
  8
SPOJOVACÍ
  6
Continuous
100
AcDbLine
 10
6776.168650537425
 20
-2254.265463610548
 30
0.0
 11
6776.168650537425
 21
-2264.465771387816
 31
0.0
  0
LINE
  5
4FB6
330
1F
100
AcDbEntity
  8
SPOJOVACÍ
  6
Continuous
100
AcDbLine
 10
6785.768994925646
 20
-2256.965763946257
 30
0.0
 11
6786.968921702109
 21
-2261.765471052106
 31
0.0
  0
LINE
  5
4FB7
330
1F
100
AcDbEntity
  8
SPOJOVACÍ
  6
Continuous
100
AcDbLine
 10
6785.986656061695
 20
-2257.343415321568
 30
0.0
 11
6787.346573075237
 21
-2261.387819681161
 31
0.0
  0
LINE
  5
4FB8
330
1F
100
AcDbEntity
  8
SPOJOVACÍ
  6
Continuous
100
AcDbLine
 10
6785.390413376816
 20
-2257.343415321568
 30
0.0
 11
6786.750330390083
 21
-2261.387819681161
 31
0.0
  0
LINE
  5
4FB9
330
1F
100
AcDbEntity
  8
SPOJOVACÍ
  6
Continuous
100
AcDbLine
 10
6788.888804544609
 20
-2256.965763946257
 30
0.0
 11
6790.088731321347
 21
-2261.765471052106
 31
0.0
  0
LINE
  5
4FBA
330
1F
100
AcDbEntity
  8
SPOJOVACÍ
  6
Continuous
100
AcDbLine
 10
6789.107395856635
 20
-2257.343415321568
 30
0.0
 11
6790.4663826942
 21
-2261.387819681161
 31
0.0
  0
LINE
  5
4FBB
330
1F
100
AcDbEntity
  8
SPOJOVACÍ
  6
Continuous
100
AcDbLine
 10
6788.511153171481
 20
-2257.343415321568
 30
0.0
 11
6789.870140009321
 21
-2261.387819681161
 31
0.0
  0
LINE
  5
4FBC
330
1F
100
AcDbEntity
  8
SPOJOVACÍ
  6
Continuous
100
AcDbLine
 10
6792.008614163847
 20
-2256.965763946257
 30
0.0
 11
6793.20854094031
 21
-2261.765471052106
 31
0.0
  0
LINE
  5
4FBD
330
1F
100
AcDbEntity
  8
SPOJOVACÍ
  6
Continuous
100
AcDbLine
 10
6792.227205475874
 20
-2257.343415321568
 30
0.0
 11
6793.58712248914
 21
-2261.387819681161
 31
0.0
  0
LINE
  5
4FBE
330
1F
100
AcDbEntity
  8
SPOJOVACÍ
  6
Continuous
100
AcDbLine
 10
6791.630962790719
 20
-2257.343415321568
 30
0.0
 11
6792.990879803991
 21
-2261.387819681161
 31
0.0
  0
LINE
  5
60BC
330
1F
100
AcDbEntity
  8
STAVBA OBRYS
100
AcDbLine
 10
6480.598215446487
 20
-2300.223282365689
 30
0.0
 11
6480.598215446488
 21
-2094.92663793068
 31
0.0
  0
LINE
  5
60BF
330
1F
100
AcDbEntity
  8
STAVBA OBRYS
100
AcDbLine
 10
6481.598215446488
 20
-2291.223282365689
 30
0.0
 11
6589.312456337323
 21
-2291.223282365689
 31
0.0
  0
LINE
  5
60C0
330
1F
100
AcDbEntity
  8
STAVBA OBRYS
100
AcDbLine
 10
6471.59821544649
 20
-2311.223282365689
 30
0.0
 11
6585.628854206823
 21
-2311.223282365689
 31
0.0
  0
LINE
  5
60C1
330
1F
100
AcDbEntity
  8
STAVBA OBRYS
100
AcDbLine
 10
6481.598215446488
 20
-2301.223282365689
 30
0.0
 11
6481.598215446488
 21
-2291.223282365689
 31
0.0
  0
LINE
  5
60C2
330
1F
100
AcDbEntity
  8
STAVBA OBRYS
100
AcDbLine
 10
6471.598215446488
 20
-2301.223282365689
 30
0.0
 11
6481.598215446488
 21
-2301.223282365689
 31
0.0
  0
LINE
  5
60C3
330
1F
100
AcDbEntity
  8
STAVBA OBRYS
100
AcDbLine
 10
6469.598215446488
 20
-2300.223282365689
 30
0.0
 11
6480.598215446487
 21
-2300.223282365689
 31
0.0
  0
CIRCLE
  5
60C4
330
1F
100
AcDbEntity
  8
STAVBA OBRYS
100
AcDbCircle
 10
6469.912191167215
 20
-2317.586831997785
 30
0.0
 40
5.114196154685487
  0
LINE
  5
60C5
330
1F
100
AcDbEntity
  8
STAVBA OBRYS
100
AcDbLine
 10
6471.59821544649
 20
-2311.223282365689
 30
0.0
 11
6471.598215446488
 21
-2301.223282365689
 31
0.0
  0
LINE
  5
60C6
330
1F
100
AcDbEntity
  8
STAVBA OBRYS
100
AcDbLine
 10
6423.686403080804
 20
-2311.223282365689
 30
0.0
 11
6469.598215446488
 21
-2311.223282365689
 31
0.0
  0
LINE
  5
60C7
330
1F
100
AcDbEntity
  8
STAVBA OBRYS
100
AcDbLine
 10
6469.598215446488
 20
-2311.223282365689
 30
0.0
 11
6469.598215446488
 21
-2300.223282365689
 31
0.0
  0
LINE
  5
60C8
330
1F
100
AcDbEntity
  8
STAVBA OBRYS
100
AcDbLine
 10
6476.59821544649
 20
-2090.926637930679
 30
0.0
 11
6626.09511159572
 21
-2090.926637930679
 31
0.0
  0
LINE
  5
60C9
330
1F
100
AcDbEntity
  8
STAVBA OBRYS
100
AcDbLine
 10
6424.686403080802
 20
-2090.926637930679
 30
0.0
 11
6476.59821544649
 21
-2090.926637930679
 31
0.0
  0
ARC
  5
60CA
330
1F
100
AcDbEntity
  8
STAVBA OBRYS
100
AcDbCircle
 10
6476.59821544649
 20
-2094.92663793068
 30
0.0
 40
4.0
100
AcDbArc
 50
359.9999999999996
 51
90.0
  0
ARC
  5
60CB
330
1F
100
AcDbEntity
  8
STAVBA OBRYS
100
AcDbCircle
 10
6424.686403080802
 20
-2094.92663793068
 30
0.0
 40
4.0
100
AcDbArc
 50
90.00000000000019
 51
180.0
  0
LINE
  5
60CC
330
1F
100
AcDbEntity
  8
STAVBA OBRYS
100
AcDbLine
 10
6420.686403080804
 20
-2094.92663793068
 30
0.0
 11
6420.686403080804
 21
-2100.92663793068
 31
0.0
  0
LINE
  5
60CD
330
1F
100
AcDbEntity
  8
STAVBA OBRYS
100
AcDbLine
 10
6460.598215446491
 20
-2301.223282365689
 30
0.0
 11
6460.59821544649
 21
-2100.92663793068
 31
0.0
  0
LINE
  5
60CE
330
1F
100
AcDbEntity
  8
STAVBA OBRYS
100
AcDbLine
 10
6420.686403080804
 20
-2100.92663793068
 30
0.0
 11
6460.59821544649
 21
-2100.92663793068
 31
0.0
  0
LINE
  5
60CF
330
1F
100
AcDbEntity
  8
STAVBA OBRYS
100
AcDbLine
 10
6419.686403080802
 20
-2301.223282365689
 30
0.0
 11
6460.598215446491
 21
-2301.223282365689
 31
0.0
  0
LINE
  5
60D0
330
1F
100
AcDbEntity
  8
STAVBA OBRYS
100
AcDbLine
 10
6419.686403080802
 20
-2301.223282365689
 30
0.0
 11
6419.686403080802
 21
-2307.223282365689
 31
0.0
  0
ARC
  5
60D1
330
1F
100
AcDbEntity
  8
STAVBA OBRYS
100
AcDbCircle
 10
6423.686403080804
 20
-2307.223282365689
 30
0.0
 40
4.0
100
AcDbArc
 50
180.0
 51
270.0000000000001
  0
LINE
  5
60D2
330
1F
100
AcDbEntity
  8
STAVBA OBRYS
100
AcDbLine
 10
6613.002373943603
 20
-2190.203582494848
 30
0.0
 11
6741.228020740192
 21
-2190.203582494848
 31
0.0
  0
LINE
  5
60D3
330
1F
100
AcDbEntity
  8
STAVBA OBRYS
100
AcDbLine
 10
6612.265653517503
 20
-2194.203582494848
 30
0.0
 11
6741.228020740192
 21
-2194.203582494848
 31
0.0
  0
LINE
  5
60D4
330
1F
100
AcDbEntity
  8
STAVBA OBRYS
100
AcDbLine
 10
6609.652270955933
 20
-2208.392859561066
 30
0.0
 11
6741.228020740194
 21
-2208.392859561066
 31
0.0
  0
LINE
  5
60D5
330
1F
100
AcDbEntity
  8
STAVBA OBRYS
100
AcDbLine
 10
6610.388991382034
 20
-2204.392859561065
 30
0.0
 11
6741.228020740194
 21
-2204.392859561065
 31
0.0
  0
HATCH
  5
60D7
330
1F
100
AcDbEntity
  8
STAVBA OBRYS
100
AcDbHatch
 10
0.0
 20
0.0
 30
0.0
210
0.0
220
0.0
230
1.0
  2
ANSI31
 70
     0
 71
     0
 91
        1
 92
        7
 72
     1
 73
     1
 93
        7
 10
6741.028020740192
 20
-2221.381405882965
 42
-0.0132534220143565
 10
6740.35040989195
 20
-2221.36344140238
 42
-0.2733732564835251
 10
6735.266615388559
 20
-2217.983677441345
 42
0.1690972520006713
 10
6731.637202859912
 20
-2214.354264912697
 42
-0.2733734698090497
 10
6728.257438646465
 20
-2209.270465652199
 42
-0.0132533288716882
 10
6728.239474418294
 20
-2208.592859561065
 42
0.0
 10
6741.028020740192
 20
-2208.592859561065
 42
0.0
 97
        0
 75
     0
 76
     1
 52
90.0
 41
1.0
 77
     0
 78
     1
 53
135.0
 43
1346.346724302449
 44
-321.7859308595379
 45
-2.245064030267288
 46
-2.245064030267287
 79
     0
 47
0.1157442511596116
 98
        1
 10
6736.40930155944
 20
-2212.899358075741
  0
ARC
  5
60D8
330
1F
100
AcDbEntity
  8
STAVBA OBRYS
100
AcDbCircle
 10
6740.668324452926
 20
-2215.371869794536
 30
0.0
 40
6.0
100
AcDbArc
 50
205.8044659877265
 51
266.9627172457071
  0
LINE
  5
60D9
330
1F
100
AcDbEntity
  8
STAVBA OBRYS
100
AcDbLine
 10
6728.239474418531
 20
-2208.592859561065
 30
0.0
 11
6741.028020740192
 21
-2208.592859561065
 31
0.0
  0
ARC
  5
60DB
330
1F
100
AcDbEntity
  8
STAVBA OBRYS
100
AcDbCircle
 10
6740.668324452926
 20
-2183.262846630839
 30
0.0
 40
6.0
100
AcDbArc
 50
93.03728275429289
 51
154.1955340122734
  0
LINE
  5
60DC
330
1F
100
AcDbEntity
  8
STAVBA OBRYS
100
AcDbLine
 10
6728.239474418531
 20
-2190.04185686431
 30
0.0
 11
6741.028020740192
 21
-2190.04185686431
 31
0.0
  0
LWPOLYLINE
  5
60DD
330
1F
100
AcDbEntity
  8
STAVBA OBRYS
100
AcDbPolyline
 90
        4
 70
     1
 43
0.0
 10
6741.005029507171
 20
-2204.096461208612
 10
6734.930357643749
 20
-2204.096461208612
 10
6734.930357643749
 20
-2194.538255216762
 10
6741.005029507171
 20
-2194.538255216762
  0
LINE
  5
60DE
330
1F
100
AcDbEntity
  8
STAVBA OBRYS
100
AcDbLine
 10
6734.930357643749
 20
-2194.538255216762
 30
0.0
 11
6741.005029507171
 21
-2204.096461208612
 31
0.0
  0
LINE
  5
60DF
330
1F
100
AcDbEntity
  8
STAVBA OBRYS
100
AcDbLine
 10
6734.930357643749
 20
-2204.096461208612
 30
0.0
 11
6741.005029507171
 21
-2194.538255216762
 31
0.0
  0
ARC
  5
60E0
330
1F
100
AcDbEntity
  8
STAVBA OBRYS
100
AcDbCircle
 10
6728.239474418294
 20
-2221.381405882965
 30
0.0
 40
7.805464033546741
100
AcDbArc
 50
25.80446598772436
 51
64.19553401227227
  0
ARC
  5
60E1
330
1F
100
AcDbEntity
  8
STAVBA OBRYS
100
AcDbCircle
 10
6734.249010506721
 20
-2208.95255584833
 30
0.0
 40
6.0
100
AcDbArc
 50
183.0372827542921
 51
244.1955340122855
  0
ARC
  5
60E2
330
1F
100
AcDbEntity
  8
STAVBA OBRYS
100
AcDbCircle
 10
6741.028020740192
 20
-2208.592859561065
 30
0.0
 40
12.78854632189904
100
AcDbArc
 50
180.0
 51
183.037282754292
  0
ARC
  5
60E3
330
1F
100
AcDbEntity
  8
STAVBA OBRYS
100
AcDbCircle
 10
6728.239474418294
 20
-2177.253310542411
 30
0.0
 40
7.805464033546741
100
AcDbArc
 50
295.8044659877277
 51
334.1955340122756
  0
ARC
  5
60E4
330
1F
100
AcDbEntity
  8
STAVBA OBRYS
100
AcDbCircle
 10
6734.249010506721
 20
-2189.682160577045
 30
0.0
 40
6.0
100
AcDbArc
 50
115.8044659877144
 51
176.9627172457078
  0
ARC
  5
60E5
330
1F
100
AcDbEntity
  8
STAVBA OBRYS
100
AcDbCircle
 10
6741.028020740192
 20
-2190.04185686431
 30
0.0
 40
12.78854632189904
100
AcDbArc
 50
176.9627172457079
 51
180.0
  0
ARC
  5
60E6
330
1F
100
AcDbEntity
  8
STAVBA OBRYS
100
AcDbCircle
 10
6741.028020740192
 20
-2208.592859561065
 30
0.0
 40
12.78854632189904
100
AcDbArc
 50
266.9627172457054
 51
270.0
  0
LINE
  5
60E7
330
1F
100
AcDbEntity
  8
STAVBA OBRYS
100
AcDbLine
 10
6741.028020740192
 20
-2221.381405882965
 30
0.0
 11
6741.028020740192
 21
-2208.592859561065
 31
0.0
  0
ARC
  5
60E8
330
1F
100
AcDbEntity
  8
STAVBA OBRYS
100
AcDbCircle
 10
6741.028020740192
 20
-2190.04185686431
 30
0.0
 40
12.78854632189904
100
AcDbArc
 50
90.00000000000003
 51
93.03728275429461
  0
LINE
  5
60E9
330
1F
100
AcDbEntity
  8
STAVBA OBRYS
100
AcDbLine
 10
6741.028020740192
 20
-2177.253310542411
 30
0.0
 11
6741.028020740192
 21
-2190.04185686431
 31
0.0
  0
LWPOLYLINE
  5
60EB
330
1F
100
AcDbEntity
  8
STAVBA OBRYS
100
AcDbPolyline
 90
        6
 70
     1
 43
0.0
 10
6773.968723760694
 20
-2228.61000642594
 10
6745.228020740192
 20
-2228.61000642594
 42
-0.4142135623730898
 10
6741.228020740194
 20
-2224.61000642594
 10
6741.228020740192
 20
-2177.204755185806
 42
-0.4142135623730951
 10
6745.228020740191
 20
-2173.204755185806
 10
6773.968723760694
 20
-2173.204755185806
  0
LINE
  5
60F3
330
1F
100
AcDbEntity
  8
STAVBA OBRYS
100
AcDbLine
 10
6592.753484127324
 20
-2300.144282379978
 30
0.0
 11
6773.298834558699
 21
-2300.144282379978
 31
0.0
  0
LINE
  5
60F4
330
1F
100
AcDbEntity
  8
STAVBA OBRYS
100
AcDbLine
 10
6629.308410333585
 20
-2101.67047923178
 30
0.0
 11
6773.298834558699
 21
-2101.67047923178
 31
0.0
  0
HATCH
  5
610C
330
1F
100
AcDbEntity
  8
STAVBA OBRYS
100
AcDbHatch
 10
0.0
 20
0.0
 30
0.0
210
0.0
220
0.0
230
1.0
  2
ANSI31
 70
     0
 71
     0
 91
        2
 92
        7
 72
     1
 73
     1
 93
       13
 10
6480.598215446488
 20
-2094.92663793068
 42
0.4142135623731137
 10
6476.59821544649
 20
-2090.926637930679
 42
0.0
 10
6424.686403080802
 20
-2090.926637930679
 42
0.414213562373094
 10
6420.686403080804
 20
-2094.92663793068
 42
0.0
 10
6420.686403080802
 20
-2100.92663793068
 42
0.0
 10
6460.59821544649
 20
-2100.92663793068
 42
0.0
 10
6460.598215446491
 20
-2301.223282365689
 42
0.0
 10
6419.686403080802
 20
-2301.223282365689
 42
0.0
 10
6419.686403080802
 20
-2307.223282365689
 42
0.4142135623730958
 10
6423.686403080804
 20
-2311.223282365689
 42
0.0
 10
6469.598215446488
 20
-2311.223282365689
 42
0.0
 10
6469.598215446487
 20
-2300.223282365689
 42
0.0
 10
6480.598215446488
 20
-2300.223282365689
 42
0.0
 97
        0
 92
        7
 72
     1
 73
     1
 93
        7
 10
6773.968723760694
 20
-2173.204755185806
 42
0.0
 10
6745.228020740191
 20
-2173.204755185806
 42
0.4178887041088945
 10
6741.2283348078
 20
-2177.254879453613
 42
0.0000061403789499
 10
6741.228020740192
 20
-2177.254874537452
 42
0.0
 10
6741.228020740194
 20
-2224.61000642594
 42
0.4142135623730898
 10
6745.228020740192
 20
-2228.61000642594
 42
0.0
 10
6773.968723760694
 20
-2228.610006425939
 42
0.0
 97
        0
 75
     0
 76
     1
 52
0.0
 41
1.0
 77
     0
 78
     1
 53
45.0
 43
1346.346724302449
 44
-321.7859308595379
 45
-2.245064030267287
 46
2.245064030267288
 79
     0
 47
0.664820191864242
 98
        2
 10
6467.28251296782
 20
-2106.420524058225
 10
6760.685592334478
 20
-2190.187869029867
  0
HATCH
  5
611C
330
1F
100
AcDbEntity
  8
STAVBA OBRYS
100
AcDbHatch
 10
0.0
 20
0.0
 30
0.0
210
0.0
220
0.0
230
1.0
  2
ANSI31
 70
     0
 71
     0
 91
        2
 92
        7
 72
     0
 73
     1
 93
        6
 10
6589.312456337323
 20
-2291.223282365689
 10
6481.598215446488
 20
-2291.223282365688
 10
6481.598215446488
 20
-2301.223282365689
 10
6471.598215446487
 20
-2301.223282365689
 10
6471.59821544649
 20
-2311.223282365689
 10
6585.628854206824
 20
-2311.223282365689
 97
        0
 92
        7
 72
     1
 73
     1
 93
        7
 10
6741.028020740192
 20
-2177.253310542411
 42
0.0132534220143565
 10
6740.35040989195
 20
-2177.271275022995
 42
0.2733732564835217
 10
6735.266615388559
 20
-2180.65103898403
 42
-0.1690972520006699
 10
6731.637202859912
 20
-2184.280451512678
 42
0.2733730963963506
 10
6728.257439088299
 20
-2189.364242446162
 42
0.0132534919119532
 10
6728.239474418294
 20
-2190.04185686431
 42
0.0
 10
6741.028020740192
 20
-2190.04185686431
 42
0.0
 97
        0
 75
     0
 76
     1
 52
90.0
 41
1.0
 77
     0
 78
     1
 53
135.0
 43
1346.346724302449
 44
-321.7859308595379
 45
-2.245064030267288
 46
-2.245064030267287
 79
     0
 47
0.1442752124049902
 98
        2
 10
6494.560350648324
 20
-2302.542484951757
 10
6736.069002771706
 20
-2186.198950268923
  0
TEXT
  5
611E
330
1F
100
AcDbEntity
  8
POPIS
100
AcDbText
 10
6253.400819687045
 20
-2049.308752761518
 30
0.0
 40
25.0
  1
01
 41
0.85
  7
SIMPLEX7
100
AcDbText
  0
INSERT
  5
611F
330
1F
100
AcDbEntity
  8
POPIS
100
AcDbBlockReference
  2
E_PUNKT
 10
6270.934534676754
 20
-2113.699547562653
 30
0.0
  0
LINE
  5
6120
330
1F
100
AcDbEntity
  8
POPIS
100
AcDbLine
 10
6271.057267175496
 20
-2113.670479231778
 30
0.0
 11
6271.057267175496
 21
-2054.009815898041
 31
0.0
  0
TEXT
  5
6121
330
1F
100
AcDbEntity
  8
POPIS
100
AcDbText
 10
6301.984551131401
 20
-2049.308752761521
 30
0.0
 40
25.0
  1
03
 41
0.85
  7
SIMPLEX7
100
AcDbText
  0
LINE
  5
6122
330
1F
100
AcDbEntity
  8
POPIS
100
AcDbLine
 10
6319.640998619853
 20
-2151.145484643537
 30
0.0
 11
6319.640998619853
 21
-2054.009815898045
 31
0.0
  0
INSERT
  5
6123
330
1F
100
AcDbEntity
  8
POPIS
100
AcDbBlockReference
  2
E_PUNKT
 10
6319.613388244227
 20
-2151.17455297441
 30
0.0
  0
TEXT
  5
6124
330
1F
100
AcDbEntity
  8
POPIS
100
AcDbText
 10
6354.820360061051
 20
-2049.308752761521
 30
0.0
 40
25.0
  1
05
 41
0.85
  7
SIMPLEX7
100
AcDbText
  0
LINE
  5
6125
330
1F
100
AcDbEntity
  8
POPIS
100
AcDbLine
 10
6369.818209355421
 20
-2139.098599888903
 30
0.0
 11
6369.818209355421
 21
-2054.009815898041
 31
0.0
  0
INSERT
  5
6126
330
1F
100
AcDbEntity
  8
POPIS
100
AcDbBlockReference
  2
E_PUNKT
 10
6369.248472945542
 20
-2138.939357907408
 30
0.0
  0
TEXT
  5
6127
330
1F
100
AcDbEntity
  8
POPIS
100
AcDbText
 10
6771.789036281051
 20
-2049.308752761521
 30
0.0
 40
25.0
  1
06
 41
0.85
  7
SIMPLEX7
100
AcDbText
  0
TEXT
  5
6128
330
1F
100
AcDbEntity
  8
POPIS
100
AcDbText
 10
6822.687738372664
 20
-2049.308752761521
 30
0.0
 40
25.0
  1
02
 41
0.85
  7
SIMPLEX7
100
AcDbText
  0
TEXT
  5
6129
330
1F
100
AcDbEntity
  8
POPIS
100
AcDbText
 10
6873.151722932671
 20
-2049.308752761521
 30
0.0
 40
25.0
  1
04
 41
0.85
  7
SIMPLEX7
100
AcDbText
  0
LINE
  5
612B
330
1F
100
AcDbEntity
  8
POPIS
100
AcDbLine
 10
6789.445483769501
 20
-2107.67047923178
 30
0.0
 11
6789.445483769501
 21
-2054.009815898045
 31
0.0
  0
LINE
  5
612C
330
1F
100
AcDbEntity
  8
POPIS
100
AcDbLine
 10
6883.31521101683
 20
-2054.009815898045
 30
0.0
 11
6843.665406003696
 21
-2083.840147564911
 31
0.0
  0
LINE
  5
612D
330
1F
100
AcDbEntity
  8
POPIS
100
AcDbLine
 10
6843.665406003696
 20
-2083.840147564911
 30
0.0
 11
6843.665406003696
 21
-2125.67047923178
 31
0.0
  0
LINE
  5
612E
330
1F
100
AcDbEntity
  8
POPIS
100
AcDbLine
 10
6816.546770585498
 20
-2083.840147564911
 30
0.0
 11
6816.546770585498
 21
-2101.67047923178
 31
0.0
  0
INSERT
  5
612F
330
1F
100
AcDbEntity
  8
POPIS
100
AcDbBlockReference
  2
E_PUNKT
 10
6816.519160209875
 20
-2102.014482053762
 30
0.0
  0
INSERT
  5
6130
330
1F
100
AcDbEntity
  8
POPIS
100
AcDbBlockReference
  2
E_PUNKT
 10
6789.417873393876
 20
-2107.513347589674
 30
0.0
  0
INSERT
  5
6131
330
1F
100
AcDbEntity
  8
POPIS
100
AcDbBlockReference
  2
E_PUNKT
 10
6842.664293928741
 20
-2128.764158861057
 30
0.0
  0
LINE
  5
6132
330
1F
100
AcDbEntity
  8
POPIS
100
AcDbLine
 10
6839.380608390617
 20
-2054.009815898045
 30
0.0
 11
6816.546770585498
 21
-2083.840147564911
 31
0.0
  0
TEXT
  5
6135
330
1F
100
AcDbEntity
  8
POPIS
100
AcDbText
 10
7178.477970749884
 20
-2221.444925432373
 30
0.0
 40
25.0
  1
CW profil (ocelový nosník I, U) - stojina
 41
0.7
  7
SIMPLEX7
100
AcDbText
  0
TEXT
  5
6136
330
1F
100
AcDbEntity
  8
POPIS
100
AcDbText
 10
7178.477970749884
 20
-2326.419129513749
 30
0.0
 40
25.0
  1
Těsnící páska
 41
0.7
  7
SIMPLEX7
100
AcDbText
  0
TEXT
  5
6137
330
1F
100
AcDbEntity
  8
POPIS
100
AcDbText
 10
7124.134267590142
 20
-2186.040764214211
 30
0.0
 40
25.0
  1
03
 41
0.85
  7
SIMPLEX7
100
AcDbText
  0
TEXT
  5
6138
330
1F
100
AcDbEntity
  8
POPIS
100
AcDbText
 10
7178.477970749884
 20
-2186.040764214211
 30
0.0
 40
25.0
  1
Minerální plsť (vzduchová mezera)
 41
0.7
  7
SIMPLEX7
100
AcDbText
  0
TEXT
  5
6139
330
1F
100
AcDbEntity
  8
POPIS
100
AcDbText
 10
7178.477970749884
 20
-2255.330196971659
 30
0.0
 40
25.0
  1
UW profil (ocelový nosník I, U)
 41
0.7
  7
SIMPLEX7
100
AcDbText
  0
TEXT
  5
613A
330
1F
100
AcDbEntity
  8
POPIS
100
AcDbText
 10
7178.477970749884
 20
-2292.165736974551
 30
0.0
 40
25.0
  1
Tmel DEXAFLAMM - R
 41
0.7
  7
SIMPLEX7
100
AcDbText
  0
TEXT
  5
613B
330
1F
100
AcDbEntity
  8
POPIS
100
AcDbText
 10
7124.134267590142
 20
-2292.165736974551
 30
0.0
 40
25.0
  1
06
 41
0.85
  7
SIMPLEX7
100
AcDbText
  0
TEXT
  5
613C
330
1F
100
AcDbEntity
  8
POPIS
100
AcDbText
 10
7178.477970749884
 20
-2359.58432787755
 30
0.0
 40
25.0
  1
UA profil (ostění otvoru)
 41
0.7
  7
SIMPLEX7
100
AcDbText
  0
TEXT
  5
613D
330
1F
100
AcDbEntity
  8
POPIS
100
AcDbText
 10
7124.134267590142
 20
-2359.58432787755
 30
0.0
 40
25.0
  1
10
 41
0.85
  7
SIMPLEX7
100
AcDbText
  0
TEXT
  5
613E
330
1F
100
AcDbEntity
  8
POPIS
100
AcDbText
 10
7124.134267590142
 20
-2326.419129513749
 30
0.0
 40
25.0
  1
09
 41
0.85
  7
SIMPLEX7
100
AcDbText
  0
TEXT
  5
613F
330
1F
100
AcDbEntity
  8
POPIS
100
AcDbText
 10
7124.134267590142
 20
-2221.444925432373
 30
0.0
 40
25.0
  1
04
 41
0.85
  7
SIMPLEX7
100
AcDbText
  0
TEXT
  5
6140
330
1F
100
AcDbEntity
  8
POPIS
100
AcDbText
 10
7124.134267590142
 20
-2255.330196971659
 30
0.0
 40
25.0
  1
05
 41
0.85
  7
SIMPLEX7
100
AcDbText
  0
TEXT
  5
6141
330
1F
100
AcDbEntity
  8
POPIS
100
AcDbText
 10
7178.477970749884
 20
-2080.779959423771
 30
0.0
 40
25.0
  1
Deska CETRIS   
 41
0.7
  7
SIMPLEX7
100
AcDbText
  0
TEXT
  5
6142
330
1F
100
AcDbEntity
  8
POPIS
100
AcDbText
 10
7178.477970749884
 20
-2117.374971039398
 30
0.0
 40
25.0
  1
Vrut 4,2x35 (45,55) mm
 41
0.7
  7
SIMPLEX7
100
AcDbText
  0
TEXT
  5
6143
330
1F
100
AcDbEntity
  8
POPIS
100
AcDbText
 10
7124.134267590142
 20
-2117.374971039398
 30
0.0
 40
25.0
  1
02
 41
0.85
  7
SIMPLEX7
100
AcDbText
  0
TEXT
  5
6144
330
1F
100
AcDbEntity
  8
POPIS
100
AcDbText
 10
7124.134267590142
 20
-2080.779959423771
 30
0.0
 40
25.0
  1
01
 41
0.85
  7
SIMPLEX7
100
AcDbText
  0
CIRCLE
  5
6145
330
1F
100
AcDbEntity
  8
POPIS
100
AcDbCircle
 10
7350.863185044111
 20
-2050.259303570503
 30
0.0
 40
11.13656048292026
  0
TEXT
  5
6146
330
1F
100
AcDbEntity
  8
POPIS
100
AcDbText
 10
7346.104155988929
 20
-2055.80464931549
 30
0.0
 40
12.0
  1
R
 41
0.85
  7
SIMPLEX7
100
AcDbText
  0
LINE
  5
6147
330
1F
100
AcDbEntity
  8
POPIS
100
AcDbLine
 10
6870.869945262551
 20
-2093.255054875789
 30
0.0
 11
6870.869945262551
 21
-2197.437255539237
 31
0.0
  0
INSERT
  5
6148
330
1F
100
AcDbEntity
  8
POPIS
100
AcDbBlockReference
  2
E_PUNKT
 10
6869.868833187597
 20
-2200.530935168514
 30
0.0
  0
TEXT
  5
6149
330
1F
100
AcDbEntity
  8
POPIS
100
AcDbText
 10
6912.870344946686
 20
-2049.308752761521
 30
0.0
 40
25.0
  1
09
 41
0.85
  7
SIMPLEX7
100
AcDbText
  0
LINE
  5
614A
330
1F
100
AcDbEntity
  8
POPIS
100
AcDbLine
 10
6923.033833030844
 20
-2054.009815898045
 30
0.0
 11
6870.869945262551
 21
-2093.255054875789
 31
0.0
  0
HATCH
  5
66C1
330
1F
100
AcDbEntity
  8
CETRIS
100
AcDbHatch
 10
0.0
 20
0.0
 30
0.0
210
0.0
220
0.0
230
1.0
  2
ANSI31
 70
     0
 71
     0
 91
       12
 92
        7
 72
     0
 73
     1
 93
       12
 10
7016.691504749904
 20
-2288.144282379966
 10
6819.002748241679
 20
-2288.144282379966
 10
6818.625438846115
 20
-2288.362675750577
 10
6817.952921747684
 20
-2288.588807304831
 10
6817.952921747686
 20
-2293.544685108876
 10
6818.179884638569
 20
-2295.068313062306
 10
6818.792870487716
 20
-2296.482180272011
 10
6819.750951557701
 20
-2297.68954845491
 10
6820.9880853666
 20
-2298.607631965352
 10
6821.703390552769
 20
-2298.944355603235
 10
6821.703390552767
 20
-2300.144282379977
 10
7014.481343471604
 20
-2300.144282379967
 97
        0
 92
        7
 72
     0
 73
     1
 93
       17
 10
6815.253551584949
 20
-2293.54468510889
 10
6815.253551584948
 20
-2289.49646120959
 10
6814.581034486521
 20
-2289.722592763844
 10
6814.203383111209
 20
-2289.344011215014
 10
6814.581034486522
 20
-2289.126350078965
 10
6815.253551584949
 20
-2288.900218524667
 10
6815.253551584949
 20
-2288.144282379966
 10
6803.968723760693
 20
-2288.144282379966
 10
6798.968723760694
 20
-2288.144282379979
 10
6791.968723760693
 20
-2288.144282379972
 10
6791.968723760693
 20
-2300.144282379978
 10
6811.503082775499
 20
-2300.144282379978
 10
6811.503082775501
 20
-2298.944355603235
 10
6812.852767859052
 20
-2298.200214966761
 10
6813.96339775941
 20
-2297.13144297735
 10
6814.759628238727
 20
-2295.812453699051
 10
6815.187509103028
 20
-2294.331613832001
 97
        0
 92
        7
 72
     0
 73
     1
 93
       22
 10
6798.968723760694
 20
-2260.715302582732
 10
6796.480800553853
 20
-2260.715302582732
 10
6796.70693210811
 20
-2261.38781968116
 10
6796.328350559281
 20
-2261.765471052107
 10
6796.110689423233
 20
-2261.387819681166
 10
6795.884557868932
 20
-2260.715302582732
 10
6793.360990934885
 20
-2260.715302582732
 10
6793.58712248914
 20
-2261.387819681161
 10
6793.20854094031
 20
-2261.765471052106
 10
6792.990879803991
 20
-2261.387819681159
 10
6792.764748249739
 20
-2260.715302582732
 10
6790.240405812676
 20
-2260.715302582732
 10
6790.466382694201
 20
-2261.387819681161
 10
6790.088731321347
 20
-2261.765471052107
 10
6789.87014000932
 20
-2261.387819681157
 10
6789.644163127751
 20
-2260.715302582732
 10
6787.120441520939
 20
-2260.715302582732
 10
6787.346573075237
 20
-2261.387819681161
 10
6786.968723760695
 20
-2261.765668993519
 10
6786.968723760695
 20
-2288.144282379966
 10
6798.968723760694
 20
-2288.144282379966
 10
6798.968723760694
 20
-2276.144282379979
 97
        0
 92
        7
 72
     0
 73
     1
 93
       35
 10
6798.968723760693
 20
-2239.469982687409
 10
6798.212787615996
 20
-2239.469982687409
 10
6797.986656061697
 20
-2240.142499785839
 10
6797.768994925646
 20
-2240.520151161149
 10
6797.390413376817
 20
-2240.142499785839
 10
6797.61654493107
 20
-2239.469982687409
 10
6793.568321031783
 20
-2239.469982687409
 10
6792.78139230866
 20
-2239.536025169331
 10
6791.300552441609
 20
-2239.963906033631
 10
6789.981563163313
 20
-2240.760136512949
 10
6788.912791173898
 20
-2241.870766413304
 10
6788.168650537426
 20
-2243.220451496858
 10
6786.968723760695
 20
-2243.220451496858
 10
6786.968723760695
 20
-2258.015932419997
 10
6788.737130053049
 20
-2258.015932419997
 10
6788.511153171481
 20
-2257.343415321568
 10
6788.888804544609
 20
-2256.965763946257
 10
6789.107395856635
 20
-2257.343415321567
 10
6789.33337273816
 20
-2258.015932419997
 10
6791.857094344973
 20
-2258.015932419996
 10
6791.630962790718
 20
-2257.343415321568
 10
6792.008614163847
 20
-2256.965763946256
 10
6792.227205475874
 20
-2257.343415321564
 10
6792.453337030128
 20
-2258.015932419995
 10
6794.976903963988
 20
-2258.015932419996
 10
6794.750772409688
 20
-2257.343415321568
 10
6795.128423782816
 20
-2256.965763946257
 10
6795.347015094835
 20
-2257.343415321567
 10
6795.57314664909
 20
-2258.015932419997
 10
6798.09671358295
 20
-2258.015932419997
 10
6797.870582028649
 20
-2257.343415321568
 10
6798.249163577756
 20
-2256.965763946257
 10
6798.466824713807
 20
-2257.343415321572
 10
6798.692956268105
 20
-2258.015932419997
 10
6798.968723760694
 20
-2258.015932419997
 97
        0
 92
        7
 72
     0
 73
     1
 93
       20
 10
6798.968723760694
 20
-2166.1861179517
 10
6798.750330390085
 20
-2165.808808556138
 10
6798.52419883583
 20
-2165.136291457706
 10
6793.568321031782
 20
-2165.136291457706
 10
6792.044693078354
 20
-2165.36325434859
 10
6790.63082586865
 20
-2165.976240197737
 10
6789.423457685751
 20
-2166.934321267723
 10
6788.505374175312
 20
-2168.171455076614
 10
6788.168650537425
 20
-2168.886760262789
 10
6786.968723760693
 20
-2168.886760262788
 10
6786.968723760695
 20
-2233.02014371959
 10
6788.168650537426
 20
-2233.02014371959
 10
6788.505374175312
 20
-2233.735448905762
 10
6789.423457685751
 20
-2234.972582714658
 10
6790.63082586865
 20
-2235.930663784643
 10
6792.044693078352
 20
-2236.54364963379
 10
6793.568321031781
 20
-2236.770612524673
 10
6798.52419883583
 20
-2236.770612524674
 10
6798.750330390084
 20
-2236.098095426243
 10
6798.968723760694
 20
-2235.720786030679
 97
        0
 92
        7
 72
     0
 73
     1
 93
       32
 10
6798.968723760694
 20
-2143.592407034954
 10
6796.480800553855
 20
-2143.592407034954
 10
6796.706932108108
 20
-2144.264924133382
 10
6796.32835055928
 20
-2144.642575504327
 10
6796.11068942323
 20
-2144.264924133381
 10
6795.88455786893
 20
-2143.592407034954
 10
6793.360990934885
 20
-2143.592407034954
 10
6793.58712248914
 20
-2144.264924133382
 10
6793.20854094031
 20
-2144.642575504328
 10
6792.990879803993
 20
-2144.264924133383
 10
6792.764748249739
 20
-2143.592407034954
 10
6790.240405812674
 20
-2143.592407034954
 10
6790.466382694201
 20
-2144.264924133382
 10
6790.088731321347
 20
-2144.642575504329
 10
6789.870140009319
 20
-2144.264924133378
 10
6789.644163127751
 20
-2143.592407034954
 10
6787.120441520937
 20
-2143.592407034954
 10
6787.346573075237
 20
-2144.264924133384
 10
6786.968723760695
 20
-2144.642773445741
 10
6786.968723760695
 20
-2158.686452485521
 10
6788.168650537426
 20
-2158.686452485521
 10
6788.912791173899
 20
-2160.036137569073
 10
6789.981563163312
 20
-2161.14676746943
 10
6791.300552441611
 20
-2161.942997948749
 10
6792.78139230866
 20
-2162.370878813048
 10
6793.568321031789
 20
-2162.43692129497
 10
6797.616544931071
 20
-2162.436921294969
 10
6797.390413376817
 20
-2161.764404196542
 10
6797.768994925649
 20
-2161.38675282123
 10
6797.986656061692
 20
-2161.764404196537
 10
6798.212787615994
 20
-2162.43692129497
 10
6798.968723760694
 20
-2162.43692129497
 97
        0
 92
        7
 72
     0
 73
     1
 93
       24
 10
6798.968723760694
 20
-2113.67047923178
 10
6786.968723760693
 20
-2113.670479231779
 10
6786.968723760693
 20
-2140.893036872218
 10
6788.73713005305
 20
-2140.893036872218
 10
6788.51115317148
 20
-2140.22051977379
 10
6788.888804544609
 20
-2139.842868398479
 10
6789.107395856634
 20
-2140.220519773786
 10
6789.333372738159
 20
-2140.893036872218
 10
6791.857094344973
 20
-2140.893036872218
 10
6791.630962790719
 20
-2140.22051977379
 10
6792.008614163847
 20
-2139.842868398479
 10
6792.227205475872
 20
-2140.22051977379
 10
6792.453337030126
 20
-2140.893036872218
 10
6794.976903963989
 20
-2140.893036872218
 10
6794.750772409688
 20
-2140.22051977379
 10
6795.128423782817
 20
-2139.84286839848
 10
6795.347015094837
 20
-2140.220519773794
 10
6795.573146649092
 20
-2140.893036872218
 10
6798.096713582949
 20
-2140.893036872218
 10
6797.870582028652
 20
-2140.22051977379
 10
6798.249163577756
 20
-2139.842868398479
 10
6798.466824713807
 20
-2140.22051977379
 10
6798.692956268107
 20
-2140.893036872218
 10
6798.968723760694
 20
-2140.893036872218
 97
        0
 92
        7
 72
     0
 73
     1
 93
       24
 10
6815.253551584949
 20
-2119.155092501214
 10
6814.581034486518
 20
-2118.928960946959
 10
6814.203383111209
 20
-2118.710369634935
 10
6814.581034486521
 20
-2118.332718261805
 10
6815.253551584949
 20
-2118.55884981606
 10
6815.253551584949
 20
-2116.035128209245
 10
6814.581034486518
 20
-2115.809151327721
 10
6814.203383111212
 20
-2115.590560015696
 10
6814.581034486521
 20
-2115.212908642567
 10
6815.253551584949
 20
-2115.438885524136
 10
6815.253551584949
 20
-2113.67047923178
 10
6803.968723760694
 20
-2113.67047923178
 10
6803.968723760694
 20
-2125.670479231779
 10
6815.253551584949
 20
-2125.670479231779
 10
6815.253551584949
 20
-2125.394711739191
 10
6814.581034486521
 20
-2125.168580184892
 10
6814.203383111212
 20
-2124.950919048844
 10
6814.581034486521
 20
-2124.572337499736
 10
6815.253551584949
 20
-2124.798469054036
 10
6815.253551584949
 20
-2122.274902120177
 10
6814.581034486521
 20
-2122.048770565922
 10
6814.203383111207
 20
-2121.830179253903
 10
6814.581034486519
 20
-2121.452527880775
 10
6815.253551584949
 20
-2121.678659435074
 97
        0
 92
        7
 72
     0
 73
     1
 93
       29
 10
6826.93652787145
 20
-2118.746448549438
 10
6826.323542022302
 20
-2117.332581339737
 10
6825.365460952315
 20
-2116.125213156837
 10
6824.128327143418
 20
-2115.207129646396
 10
6823.41302195725
 20
-2114.870406008511
 10
6823.41302195725
 20
-2113.67047923178
 10
6819.003288158473
 20
-2113.67047923178
 10
6818.625438846114
 20
-2114.048328546324
 10
6817.952921747686
 20
-2113.822196992025
 10
6817.952921747686
 20
-2116.345918598838
 10
6818.625438846115
 20
-2116.571895480408
 10
6819.003090217059
 20
-2116.790486792434
 10
6818.625438846114
 20
-2117.168138165286
 10
6817.952921747686
 20
-2116.942161283763
 10
6817.952921747686
 20
-2119.466503720824
 10
6818.625438846114
 20
-2119.692635275078
 10
6819.003090217059
 20
-2119.910296411396
 10
6818.625438846114
 20
-2120.288877960226
 10
6817.952921747686
 20
-2120.062746405973
 10
6817.952921747686
 20
-2122.586313340017
 10
6818.625438846115
 20
-2122.812444894317
 10
6819.003090217058
 20
-2123.030106030365
 10
6818.625438846114
 20
-2123.408687579195
 10
6817.952921747686
 20
-2123.182556024941
 10
6817.952921747684
 20
-2125.670479231779
 10
6826.113664268341
 20
-2125.670479231779
 10
6826.490973663908
 20
-2125.452085861168
 10
6827.163490762332
 20
-2125.225954306916
 10
6827.163490762334
 20
-2120.270076502872
 97
        0
 92
        7
 72
     0
 73
     1
 93
       15
 10
6843.665406003696
 20
-2113.670479231779
 10
6833.613329734517
 20
-2113.670479231779
 10
6833.613329734518
 20
-2114.870406008511
 10
6832.263644650966
 20
-2115.614546644987
 10
6831.15301475061
 20
-2116.683318634396
 10
6830.356784271289
 20
-2118.0023079127
 10
6829.928903406991
 20
-2119.483147779741
 10
6829.86286092507
 20
-2120.270076502879
 10
6829.86286092507
 20
-2124.318300402157
 10
6830.535378023497
 20
-2124.092168847903
 10
6830.913029398807
 20
-2124.470750396733
 10
6830.535378023499
 20
-2124.688411532781
 10
6829.86286092507
 20
-2124.914543087082
 10
6829.86286092507
 20
-2125.670479231779
 10
6843.665406003696
 20
-2125.670479231779
 97
        0
 92
        7
 72
     0
 73
     1
 93
        4
 10
6870.869945262549
 20
-2113.670479231779
 10
6843.665406003696
 20
-2113.670479231779
 10
6843.665406003696
 20
-2125.670479231779
 10
6870.869945262551
 20
-2125.670479231779
 97
        0
 92
        7
 72
     0
 73
     1
 93
        4
 10
7048.826108399565
 20
-2113.67047923178
 10
6870.869945262551
 20
-2113.67047923178
 10
6870.869945262551
 20
-2125.670479231779
 10
7046.615947121262
 20
-2125.670479231778
 97
        0
 75
     0
 76
     1
 52
90.0
 41
2.5
 77
     0
 78
     1
 53
135.0
 43
1346.346724302449
 44
-321.7859308595379
 45
-5.612660075668221
 46
-5.61266007566822
 79
     0
 47
0.4535426003970839
 98
       24
 10
6922.128888610022
 20
-2106.779941370927
 10
6851.777651387725
 20
-2108.594107989323
 10
6834.984147781485
 20
-2108.594107989323
 10
6805.028135524917
 20
-2109.501203967814
 10
6795.95054868668
 20
-2121.293312325979
 10
6794.58892281575
 20
-2157.123172720424
 10
6794.58892281575
 20
-2181.614472745952
 10
6795.496688129471
 20
-2251.006491596494
 10
6795.496688129471
 20
-2274.13717299287
 10
6812.744074392576
 20
-2281.39385213575
 10
6825.452678286386
 20
-2281.39385213575
 10
6851.777651387725
 20
-2281.39385213575
 10
6852.231534044586
 20
-2293.185960493914
 10
6807.751409366422
 20
-2294.093043803113
 10
6795.496688129471
 20
-2270.962375076029
 10
6796.404431343536
 20
-2247.378158359701
 10
6796.404431343536
 20
-2212.908916594406
 10
6796.404431343536
 20
-2152.58774350514
 10
6796.858314000397
 20
-2125.375193552017
 10
6810.020800551068
 20
-2119.47913303829
 10
6822.275521788019
 20
-2119.47913303829
 10
6838.615164837055
 20
-2121.293312325979
 10
6852.231534044586
 20
-2121.293312325979
 10
6900.342697877976
 20
-2122.653930955129
  0
HATCH
  5
6762
330
1F
100
AcDbEntity
  8
CETRIS
100
AcDbHatch
 10
0.0
 20
0.0
 30
0.0
210
0.0
220
0.0
230
1.0
  2
ANSI31
 70
     0
 71
     0
 91
       10
 92
        7
 72
     0
 73
     1
 93
        4
 10
7051.036269677864
 20
-2101.67047923178
 10
6870.869945262551
 20
-2101.67047923178
 10
6870.869945262551
 20
-2113.670479231779
 10
7048.826108399564
 20
-2113.67047923178
 97
        0
 92
        7
 72
     0
 73
     1
 93
        4
 10
6870.869945262551
 20
-2101.67047923178
 10
6843.665406003696
 20
-2101.67047923178
 10
6843.665406003696
 20
-2113.670479231779
 10
6870.869945262551
 20
-2113.67047923178
 97
        0
 92
        7
 72
     0
 73
     1
 93
       12
 10
6843.665406003696
 20
-2101.670479231779
 10
6821.703390552769
 20
-2101.670479231779
 10
6821.703390552769
 20
-2102.870406008512
 10
6820.9880853666
 20
-2103.207129646394
 10
6819.7509515577
 20
-2104.125213156835
 10
6818.792870487716
 20
-2105.332581339736
 10
6818.179884638569
 20
-2106.74644854944
 10
6817.952921747684
 20
-2108.270076502867
 10
6817.952921747686
 20
-2113.225954306916
 10
6818.625438846112
 20
-2113.452085861168
 10
6819.002748241678
 20
-2113.670479231779
 10
6843.665406003696
 20
-2113.670479231779
 97
        0
 92
        7
 72
     0
 73
     1
 93
       17
 10
6815.253551584949
 20
-2108.270076502873
 10
6815.187509103028
 20
-2107.48314777975
 10
6814.759628238729
 20
-2106.002307912696
 10
6813.963397759408
 20
-2104.683318634397
 10
6812.85276785905
 20
-2103.614546644985
 10
6811.503082775499
 20
-2102.870406008512
 10
6811.503082775501
 20
-2101.670479231779
 10
6791.968723760693
 20
-2101.670479231779
 10
6791.968723760693
 20
-2113.670479231779
 10
6798.968723760694
 20
-2113.67047923178
 10
6803.968723760694
 20
-2113.670479231767
 10
6815.253551584949
 20
-2113.670479231767
 10
6815.253551584949
 20
-2112.914543087081
 10
6814.581034486519
 20
-2112.688411532782
 10
6814.20338311121
 20
-2112.470750396734
 10
6814.581034486521
 20
-2112.092168847904
 10
6815.253551584949
 20
-2112.318300402157
 97
        0
 92
        7
 72
     0
 73
     1
 93
       15
 10
6786.968723760693
 20
-2101.670479231767
 10
6774.968723760693
 20
-2101.670479231767
 10
6774.968723760693
 20
-2137.14256806277
 10
6776.168650537425
 20
-2137.14256806277
 10
6776.912791173899
 20
-2138.492253146322
 10
6777.981563163312
 20
-2139.602883046678
 10
6779.30055244161
 20
-2140.399113525997
 10
6780.781392308661
 20
-2140.826994390296
 10
6781.568321031777
 20
-2140.893036872218
 10
6785.616544931073
 20
-2140.893036872218
 10
6785.390413376816
 20
-2140.22051977379
 10
6785.768994925646
 20
-2139.842868398479
 10
6785.986656061695
 20
-2140.220519773789
 10
6786.212787615994
 20
-2140.893036872218
 10
6786.968723760693
 20
-2140.893036872218
 97
        0
 92
        7
 72
     0
 73
     1
 93
       23
 10
6786.968723760695
 20
-2144.642233528949
 10
6786.750330390086
 20
-2144.26492413339
 10
6786.524198835831
 20
-2143.592407034954
 10
6781.568321031781
 20
-2143.592407034954
 10
6780.044693078355
 20
-2143.819369925837
 10
6778.63082586865
 20
-2144.432355774985
 10
6777.423457685749
 20
-2145.390436844971
 10
6776.505374175307
 20
-2146.62757065387
 10
6776.168650537425
 20
-2147.342875840037
 10
6774.968723760692
 20
-2147.342875840037
 10
6774.968723760692
 20
-2254.265463610547
 10
6776.168650537425
 20
-2254.265463610548
 10
6776.912791173899
 20
-2255.615148694098
 10
6777.981563163312
 20
-2256.725778594457
 10
6779.300552441609
 20
-2257.522009073775
 10
6780.781392308658
 20
-2257.949889938074
 10
6781.568321031784
 20
-2258.015932419997
 10
6785.616544931071
 20
-2258.015932419996
 10
6785.390413376816
 20
-2257.343415321569
 10
6785.768994925646
 20
-2256.965763946257
 10
6785.986656061696
 20
-2257.343415321569
 10
6786.212787615994
 20
-2258.015932419997
 10
6786.968723760693
 20
-2258.015932419996
 97
        0
 92
        7
 72
     0
 73
     1
 93
       13
 10
6786.968723760697
 20
-2261.76512907673
 10
6786.750330390086
 20
-2261.387819681161
 10
6786.524198835834
 20
-2260.715302582732
 10
6781.56832103178
 20
-2260.715302582732
 10
6780.044693078355
 20
-2260.942265473615
 10
6778.630825868649
 20
-2261.555251322764
 10
6777.423457685753
 20
-2262.513332392746
 10
6776.505374175309
 20
-2263.750466201648
 10
6776.168650537425
 20
-2264.465771387816
 10
6774.968723760693
 20
-2264.465771387816
 10
6774.968723760693
 20
-2300.144282379979
 10
6786.968723760693
 20
-2300.144282379978
 10
6786.968723760693
 20
-2288.144282379979
 97
        0
 92
        7
 72
     0
 73
     1
 93
       24
 10
6815.253551584949
 20
-2280.136102176672
 10
6814.581034486521
 20
-2280.362233730972
 10
6814.20338311121
 20
-2279.984582357844
 10
6814.581034486521
 20
-2279.765991045825
 10
6815.253551584949
 20
-2279.539859491569
 10
6815.253551584949
 20
-2277.01629255771
 10
6814.581034486521
 20
-2277.24242411201
 10
6814.203383111209
 20
-2276.863842562904
 10
6814.581034486522
 20
-2276.646181426855
 10
6815.253551584949
 20
-2276.420049872557
 10
6815.253551584949
 20
-2276.144282379967
 10
6803.968723760694
 20
-2276.144282379967
 10
6803.968723760693
 20
-2288.144282379966
 10
6815.253551584949
 20
-2288.144282379966
 10
6815.253551584949
 20
-2286.37587608761
 10
6814.581034486519
 20
-2286.601852969179
 10
6814.20338311121
 20
-2286.224201596051
 10
6814.581034486522
 20
-2286.005610284025
 10
6815.253551584949
 20
-2285.779633402502
 10
6815.253551584948
 20
-2283.255911795687
 10
6814.581034486521
 20
-2283.482043349941
 10
6814.20338311121
 20
-2283.104391976813
 10
6814.581034486521
 20
-2282.885800664785
 10
6815.253551584949
 20
-2282.659669110532
 97
        0
 92
        7
 72
     0
 73
     1
 93
       29
 10
6827.163490762332
 20
-2281.544685108877
 10
6827.163490762332
 20
-2276.58880730483
 10
6826.490973663904
 20
-2276.362675750577
 10
6826.113664268341
 20
-2276.144282379966
 10
6817.952921747686
 20
-2276.144282379966
 10
6817.952921747686
 20
-2278.632205586807
 10
6818.625438846112
 20
-2278.406074032552
 10
6819.003090217059
 20
-2278.784655581381
 10
6818.625438846112
 20
-2279.00231671743
 10
6817.952921747686
 20
-2279.228448271729
 10
6817.952921747686
 20
-2281.752015205774
 10
6818.625438846114
 20
-2281.525883651521
 10
6819.003090217059
 20
-2281.904465200351
 10
6818.625438846114
 20
-2282.122126336668
 10
6817.952921747686
 20
-2282.348257890923
 10
6817.952921747686
 20
-2284.872600327984
 10
6818.625438846112
 20
-2284.646623446461
 10
6819.003090217059
 20
-2285.024274819313
 10
6818.625438846114
 20
-2285.242866131339
 10
6817.952921747686
 20
-2285.468843012909
 10
6817.952921747686
 20
-2287.992564619723
 10
6818.625438846114
 20
-2287.766433065423
 10
6819.003288158474
 20
-2288.144282379966
 10
6823.41302195725
 20
-2288.144282379966
 10
6823.41302195725
 20
-2286.944355603234
 10
6824.128327143416
 20
-2286.60763196535
 10
6825.365460952316
 20
-2285.689548454908
 10
6826.323542022304
 20
-2284.482180272005
 10
6826.936527871449
 20
-2283.068313062304
 97
        0
 92
        7
 72
     0
 73
     1
 93
       15
 10
7018.901666028206
 20
-2276.144282379967
 10
6829.86286092507
 20
-2276.144282379967
 10
6829.862860925067
 20
-2276.900218524665
 10
6830.535378023495
 20
-2277.126350078964
 10
6830.913029398807
 20
-2277.344011215013
 10
6830.535378023498
 20
-2277.722592763843
 10
6829.862860925068
 20
-2277.496461209589
 10
6829.862860925068
 20
-2281.544685108876
 10
6829.928903406991
 20
-2282.331613832004
 10
6830.356784271291
 20
-2283.812453699051
 10
6831.153014750606
 20
-2285.131442977347
 10
6832.263644650968
 20
-2286.200214966761
 10
6833.613329734517
 20
-2286.944355603234
 10
6833.613329734517
 20
-2288.144282379966
 10
7016.691504749904
 20
-2288.144282379966
 97
        0
 75
     0
 76
     1
 52
0.0
 41
2.5
 77
     0
 78
     1
 53
45.0
 43
1346.346724302449
 44
-321.7859308595379
 45
-5.61266007566822
 46
5.612660075668221
 79
     0
 47
0.4535426003970839
 98
       10
 10
6918.951732111658
 20
-2108.14057266937
 10
6858.131964384458
 20
-2108.14057266937
 10
6835.891890995551
 20
-2108.14057266937
 10
6800.943213712831
 20
-2109.954739287766
 10
6786.419101291234
 20
-2118.118501739846
 10
6782.78806213601
 20
-2186.149901961236
 10
6783.695827449726
 20
-2273.230089683671
 10
6812.290191735716
 20
-2281.847400124996
 10
6822.72940444488
 20
-2281.847400124996
 10
6850.416025516799
 20
-2281.847400124996
  0
HATCH
  5
67FD
330
1F
100
AcDbEntity
  8
CETRIS
100
AcDbHatch
 10
0.0
 20
0.0
 30
0.0
210
0.0
220
0.0
230
1.0
  2
ANSI31
 70
     0
 71
     0
 91
        9
 92
        7
 72
     1
 73
     1
 93
        6
 10
6319.640998619853
 20
-2113.67047923178
 42
0.0
 10
6272.212145052382
 20
-2113.67047923178
 42
-1.0
 10
6269.712145052381
 20
-2113.67047923178
 42
0.0
 10
6251.737625998345
 20
-2113.67047923178
 42
0.0
 10
6249.527464720044
 20
-2125.67047923178
 42
0.0
 10
6319.640998619853
 20
-2125.67047923178
 42
0.0
 97
        0
 92
        7
 72
     0
 73
     1
 93
        4
 10
6369.818209355421
 20
-2113.67047923178
 10
6319.640998619853
 20
-2113.67047923178
 10
6319.640998619853
 20
-2125.67047923178
 10
6369.818209355419
 20
-2125.67047923178
 97
        0
 92
        7
 72
     0
 73
     1
 93
        4
 10
6416.580039187718
 20
-2113.67047923178
 10
6369.818209355421
 20
-2113.67047923178
 10
6369.818209355421
 20
-2125.67047923178
 10
6416.58003918772
 20
-2125.67047923178
 97
        0
 92
        7
 72
     0
 73
     1
 93
       12
 10
6429.31654908282
 20
-2117.332581339737
 10
6428.358468012835
 20
-2116.125213156836
 10
6427.121334203936
 20
-2115.207129646395
 10
6426.406029017768
 20
-2114.870406008511
 10
6426.406029017768
 20
-2113.67047923178
 10
6416.58003918772
 20
-2113.67047923178
 10
6416.58003918772
 20
-2125.670479231779
 10
6429.106671328859
 20
-2125.67047923178
 10
6429.483980724424
 20
-2125.45208586117
 10
6430.156497822851
 20
-2125.225954306916
 10
6430.156497822851
 20
-2120.270076502872
 10
6429.929534931969
 20
-2118.746448549441
 97
        0
 92
        7
 72
     0
 73
     1
 93
       35
 10
6443.105695392318
 20
-2118.332718261805
 10
6443.778212490745
 20
-2118.558849816061
 10
6443.778212490745
 20
-2116.035128209245
 10
6443.105695392318
 20
-2115.809151327722
 10
6442.728044017006
 20
-2115.590560015695
 10
6443.105695392318
 20
-2115.212908642568
 10
6443.778212490745
 20
-2115.438885524137
 10
6443.778212490745
 20
-2113.67047923178
 10
6436.606336795037
 20
-2113.67047923178
 10
6436.606336795037
 20
-2114.870406008512
 10
6435.256651711483
 20
-2115.614546644988
 10
6434.146021811127
 20
-2116.683318634399
 10
6433.349791331806
 20
-2118.002307912698
 10
6432.92191046751
 20
-2119.483147779746
 10
6432.855867985587
 20
-2120.270076502872
 10
6432.855867985587
 20
-2124.318300402158
 10
6433.528385084017
 20
-2124.092168847903
 10
6433.906036459326
 20
-2124.470750396733
 10
6433.528385084018
 20
-2124.688411532783
 10
6432.855867985587
 20
-2124.914543087083
 10
6432.855867985587
 20
-2125.670479231779
 10
6443.778212490747
 20
-2125.67047923178
 10
6443.778212490745
 20
-2125.394711739191
 10
6443.105695392316
 20
-2125.16858018489
 10
6442.728044017008
 20
-2124.950919048843
 10
6443.105695392318
 20
-2124.572337499736
 10
6443.778212490745
 20
-2124.798469054037
 10
6443.778212490745
 20
-2122.274902120177
 10
6443.105695392318
 20
-2122.048770565922
 10
6442.728044017006
 20
-2121.830179253903
 10
6443.105695392318
 20
-2121.452527880775
 10
6443.778212490745
 20
-2121.678659435075
 10
6443.778212490745
 20
-2119.155092501214
 10
6443.105695392318
 20
-2118.928960946961
 10
6442.728044017006
 20
-2118.710369634933
 97
        0
 92
        7
 72
     0
 73
     1
 93
       21
 10
6459.753396833185
 20
-2113.67047923178
 10
6447.527949064269
 20
-2113.67047923178
 10
6447.15009975191
 20
-2114.048328546324
 10
6446.477582653482
 20
-2113.822196992024
 10
6446.477582653482
 20
-2116.345918598838
 10
6447.150099751912
 20
-2116.571895480408
 10
6447.527751122855
 20
-2116.790486792434
 10
6447.150099751912
 20
-2117.168138165286
 10
6446.477582653482
 20
-2116.942161283762
 10
6446.477582653482
 20
-2119.466503720823
 10
6447.15009975191
 20
-2119.692635275079
 10
6447.527751122855
 20
-2119.910296411397
 10
6447.15009975191
 20
-2120.288877960226
 10
6446.477582653482
 20
-2120.062746405972
 10
6446.477582653482
 20
-2122.586313340017
 10
6447.150099751912
 20
-2122.812444894317
 10
6447.527751122857
 20
-2123.030106030365
 10
6447.15009975191
 20
-2123.408687579195
 10
6446.477582653482
 20
-2123.182556024941
 10
6446.477582653482
 20
-2125.670479231779
 10
6459.753396833185
 20
-2125.670479231779
 97
        0
 92
        7
 72
     0
 73
     1
 93
       21
 10
6459.753396833185
 20
-2276.144282379967
 10
6446.477582653482
 20
-2276.144282379966
 10
6446.477582653482
 20
-2278.632205586807
 10
6447.15009975191
 20
-2278.406074032552
 10
6447.527751122857
 20
-2278.784655581382
 10
6447.150099751912
 20
-2279.00231671743
 10
6446.477582653482
 20
-2279.22844827173
 10
6446.477582653482
 20
-2281.752015205774
 10
6447.15009975191
 20
-2281.525883651521
 10
6447.527751122855
 20
-2281.904465200351
 10
6447.15009975191
 20
-2282.122126336669
 10
6446.477582653482
 20
-2282.348257890923
 10
6446.477582653482
 20
-2284.872600327984
 10
6447.15009975191
 20
-2284.646623446461
 10
6447.527751122857
 20
-2285.024274819313
 10
6447.150099751913
 20
-2285.242866131339
 10
6446.477582653482
 20
-2285.468843012909
 10
6446.477582653482
 20
-2287.992564619722
 10
6447.15009975191
 20
-2287.766433065423
 10
6447.527949064269
 20
-2288.144282379966
 10
6459.753396833185
 20
-2288.144282379966
 97
        0
 92
        7
 72
     0
 73
     1
 93
       35
 10
6443.778212490745
 20
-2283.255911795686
 10
6443.105695392318
 20
-2283.482043349941
 10
6442.728044017006
 20
-2283.104391976813
 10
6443.105695392318
 20
-2282.885800664785
 10
6443.778212490745
 20
-2282.659669110531
 10
6443.778212490747
 20
-2280.136102176673
 10
6443.105695392318
 20
-2280.362233730972
 10
6442.728044017006
 20
-2279.984582357844
 10
6443.105695392318
 20
-2279.765991045823
 10
6443.778212490745
 20
-2279.539859491569
 10
6443.778212490745
 20
-2277.01629255771
 10
6443.105695392318
 20
-2277.24242411201
 10
6442.728044017006
 20
-2276.863842562904
 10
6443.10569539232
 20
-2276.646181426854
 10
6443.778212490745
 20
-2276.420049872556
 10
6443.778212490745
 20
-2276.144282379966
 10
6432.855867985587
 20
-2276.144282379967
 10
6432.855867985587
 20
-2276.900218524664
 10
6433.528385084017
 20
-2277.126350078964
 10
6433.906036459326
 20
-2277.344011215013
 10
6433.528385084014
 20
-2277.722592763843
 10
6432.855867985587
 20
-2277.496461209589
 10
6432.855867985587
 20
-2281.544685108874
 10
6432.921910467509
 20
-2282.331613831995
 10
6433.349791331808
 20
-2283.812453699049
 10
6434.146021811128
 20
-2285.131442977349
 10
6435.256651711482
 20
-2286.200214966759
 10
6436.606336795036
 20
-2286.944355603234
 10
6436.606336795036
 20
-2288.144282379966
 10
6443.778212490745
 20
-2288.144282379966
 10
6443.778212490745
 20
-2286.37587608761
 10
6443.105695392318
 20
-2286.601852969179
 10
6442.728044017006
 20
-2286.224201596052
 10
6443.105695392316
 20
-2286.005610284026
 10
6443.778212490745
 20
-2285.779633402502
 97
        0
 92
        7
 72
     0
 73
     1
 93
       12
 10
6429.929534931968
 20
-2283.068313062303
 10
6430.156497822851
 20
-2281.544685108879
 10
6430.156497822851
 20
-2276.58880730483
 10
6429.483980724423
 20
-2276.362675750577
 10
6429.106671328859
 20
-2276.144282379966
 10
6221.813183626987
 20
-2276.144282379966
 10
6219.603022348688
 20
-2288.144282379966
 10
6426.406029017768
 20
-2288.144282379966
 10
6426.406029017768
 20
-2286.944355603235
 10
6427.121334203936
 20
-2286.607631965351
 10
6428.358468012835
 20
-2285.689548454909
 10
6429.316549082823
 20
-2284.482180272009
 97
        0
 75
     0
 76
     1
 52
0.0
 41
2.5
 77
     0
 78
     1
 53
45.0
 43
1346.346724302449
 44
-321.7859308595379
 45
-5.61266007566822
 46
5.612660075668221
 79
     0
 47
0.4535426003970845
 98
        9
 10
6290.269776718294
 20
-2120.837407848395
 10
6340.650331736328
 20
-2119.930324539196
 10
6383.314925787054
 20
-2117.662609931554
 10
6423.256268095923
 20
-2118.569693240754
 10
6435.057128775667
 20
-2118.569693240754
 10
6453.666163009351
 20
-2120.837407848395
 10
6451.850654481565
 20
-2284.112745575008
 10
6437.780402617176
 20
-2283.659210255055
 10
6405.101116519102
 20
-2283.205662265809
  0
HATCH
  5
684A
330
1F
100
AcDbEntity
  8
CETRIS
100
AcDbHatch
 10
0.0
 20
0.0
 30
0.0
210
0.0
220
0.0
230
1.0
  2
ANSI31
 70
     0
 71
     0
 91
        8
 92
        7
 72
     0
 73
     1
 93
       12
 10
6459.753396833185
 20
-2101.67047923178
 10
6450.228051458565
 20
-2101.67047923178
 10
6450.228051458566
 20
-2102.870406008511
 10
6449.512746272396
 20
-2103.207129646395
 10
6448.275612463501
 20
-2104.125213156836
 10
6447.317531393513
 20
-2105.332581339735
 10
6446.704545544365
 20
-2106.746448549441
 10
6446.477582653483
 20
-2108.270076502866
 10
6446.477582653482
 20
-2113.225954306916
 10
6447.15009975191
 20
-2113.452085861169
 10
6447.527409147475
 20
-2113.67047923178
 10
6459.753396833185
 20
-2113.67047923178
 97
        0
 92
        7
 72
     0
 73
     1
 93
       15
 10
6443.712170008824
 20
-2107.483147779745
 10
6443.284289144526
 20
-2106.002307912697
 10
6442.488058665208
 20
-2104.6833186344
 10
6441.377428764846
 20
-2103.614546644985
 10
6440.027743681297
 20
-2102.870406008512
 10
6440.027743681297
 20
-2101.67047923178
 10
6416.58003918772
 20
-2101.67047923178
 10
6416.58003918772
 20
-2113.67047923178
 10
6443.778212490745
 20
-2113.67047923178
 10
6443.778212490745
 20
-2112.914543087082
 10
6443.105695392318
 20
-2112.688411532782
 10
6442.728044017006
 20
-2112.470750396734
 10
6443.105695392318
 20
-2112.092168847904
 10
6443.778212490745
 20
-2112.318300402157
 10
6443.778212490745
 20
-2108.270076502865
 97
        0
 92
        7
 72
     0
 73
     1
 93
        4
 10
6416.58003918772
 20
-2101.67047923178
 10
6369.818209355421
 20
-2101.67047923178
 10
6369.818209355421
 20
-2113.67047923178
 10
6416.58003918772
 20
-2113.67047923178
 97
        0
 92
        7
 72
     0
 73
     1
 93
        4
 10
6369.818209355419
 20
-2101.67047923178
 10
6319.640998619853
 20
-2101.67047923178
 10
6319.640998619853
 20
-2113.67047923178
 10
6369.818209355419
 20
-2113.67047923178
 97
        0
 92
        7
 72
     1
 73
     1
 93
        5
 10
6319.640998619852
 20
-2101.67047923178
 42
0.0
 10
6271.057267175496
 20
-2101.67047923178
 42
0.0
 10
6271.057267175496
 20
-2112.424103774026
 42
-0.3920754397125287
 10
6272.212145052381
 20
-2113.67047923178
 42
0.0
 10
6319.640998619852
 20
-2113.67047923178
 42
0.0
 97
        0
 92
        7
 72
     1
 73
     1
 93
        5
 10
6271.057267175496
 20
-2101.67047923178
 42
0.0
 10
6253.947787276644
 20
-2101.67047923178
 42
0.0
 10
6251.737625998343
 20
-2113.67047923178
 42
0.0
 10
6269.712145052381
 20
-2113.67047923178
 42
-0.4367037467540482
 10
6271.057267175496
 20
-2112.424103774026
 42
0.0
 97
        0
 92
        7
 72
     0
 73
     1
 93
       15
 10
6443.778212490745
 20
-2293.544685108869
 10
6443.778212490747
 20
-2289.49646120959
 10
6443.105695392318
 20
-2289.722592763844
 10
6442.728044017006
 20
-2289.344011215013
 10
6443.105695392318
 20
-2289.126350078965
 10
6443.778212490745
 20
-2288.900218524665
 10
6443.778212490747
 20
-2288.144282379966
 10
6219.603022348687
 20
-2288.144282379966
 10
6217.392861070386
 20
-2300.144282379967
 10
6440.027743681297
 20
-2300.144282379966
 10
6440.027743681297
 20
-2298.944355603235
 10
6441.377428764848
 20
-2298.200214966763
 10
6442.488058665208
 20
-2297.131442977349
 10
6443.284289144526
 20
-2295.812453699048
 10
6443.712170008824
 20
-2294.331613832008
 97
        0
 92
        7
 72
     0
 73
     1
 93
       12
 10
6459.753396833185
 20
-2288.144282379966
 10
6447.527409147477
 20
-2288.144282379966
 10
6447.15009975191
 20
-2288.362675750577
 10
6446.477582653483
 20
-2288.588807304831
 10
6446.477582653482
 20
-2293.544685108882
 10
6446.704545544365
 20
-2295.068313062309
 10
6447.317531393513
 20
-2296.482180272009
 10
6448.275612463499
 20
-2297.689548454911
 10
6449.512746272396
 20
-2298.60763196535
 10
6450.228051458566
 20
-2298.944355603235
 10
6450.228051458565
 20
-2300.144282379966
 10
6459.753396833185
 20
-2300.144282379967
 97
        0
 75
     0
 76
     1
 52
90.0
 41
2.5
 77
     0
 78
     1
 53
135.0
 43
1346.346724302449
 44
-321.7859308595379
 45
-5.612660075668221
 46
-5.61266007566822
 79
     0
 47
0.4535426003970845
 98
        8
 10
6452.304515038773
 20
-2106.777584882589
 10
6437.326519960315
 20
-2107.684668191786
 10
6404.193373305036
 20
-2108.138216181032
 10
6345.642996762483
 20
-2109.045299490231
 10
6299.801224113736
 20
-2110.405918119382
 10
6266.668077458457
 20
-2110.859466108628
 10
6302.524497955245
 20
-2293.63713932553
 10
6457.297202164577
 20
-2294.544222634728
  0
TEXT
  5
79AE
330
1F
100
AcDbEntity
  8
POPIS
100
AcDbText
 10
6244.276209040322
 20
-1882.321715343214
 30
0.0
 40
45.0
  1
Požárně dělící příčka (stěna) - vícevrstvé opláštění
 41
0.7
  7
SIMPLEX7
100
AcDbText
  0
TEXT
  5
79B4
330
1F
100
AcDbEntity
  8
POPIS
100
AcDbText
 10
6247.119516481536
 20
-1933.422029964404
 30
0.0
 40
35.0
  1
Otvor ve stěně
 41
0.85
  7
SIMPLEX7
100
AcDbText
  0
TEXT
  5
79B5
330
1F
100
AcDbEntity
  8
POPIS
100
AcDbText
 10
6247.119516481536
 20
-1972.836917965292
 30
0.0
 40
25.0
  1
Vodorovný řez
 41
0.7
  7
SIMPLEX7
100
AcDbText
  0
TEXT
  5
9FA0
330
1F
100
AcDbEntity
  8
POPIS
100
AcDbText
 10
7119.530530305533
 20
-2150.370864312103
 30
0.0
 40
25.0
  1
(v exteriéru vrut s viditelnou hlavou a těsnící podložkou)
 41
0.6
 51
10.0
  7
SIMPLEX7
100
AcDbText
  0
ENDSEC
  0
SECTION
  2
OBJECTS
  0
DICTIONARY
  5
C
330
0
100
AcDbDictionary
281
     1
  3
ACAD_GROUP
350
D
  3
ACAD_LAYOUT
350
1A
  3
ACAD_MLINESTYLE
350
17
  3
ACAD_PLOTSETTINGS
350
19
  3
ACAD_PLOTSTYLENAME
350
E
  3
AcDbVariableDictionary
350
17BD
  0
DICTIONARY
  5
D
102
{ACAD_REACTORS
330
C
102
}
330
C
100
AcDbDictionary
281
     1
  0
DICTIONARY
  5
1A
102
{ACAD_REACTORS
330
C
102
}
330
C
100
AcDbDictionary
281
     1
  3
Model
350
22
  3
Rozvržení1
350
1E
  3
Rozvržení2
350
26
  0
DICTIONARY
  5
17
102
{ACAD_REACTORS
330
C
102
}
330
C
100
AcDbDictionary
281
     1
  3
Standard
350
18
  0
DICTIONARY
  5
19
102
{ACAD_REACTORS
330
C
102
}
330
C
100
AcDbDictionary
281
     1
  0
ACDBDICTIONARYWDFLT
  5
E
102
{ACAD_REACTORS
330
C
102
}
330
C
100
AcDbDictionary
281
     1
  3
Normal
350
F
100
AcDbDictionaryWithDefault
340
F
  0
DICTIONARY
  5
17BD
102
{ACAD_REACTORS
330
C
102
}
330
C
100
AcDbDictionary
281
     1
  3
DIMASSOC
350
9F87
  3
SORTENTS
350
17BE
  0
LAYOUT
  5
22
102
{ACAD_REACTORS
330
1A
102
}
330
1A
100
AcDbPlotSettings
  1

  2
HP DeskJet 690C
  4

  6

 40
0.0
 41
0.0
 42
0.0
 43
0.0
 44
0.0
 45
0.0
 46
0.0
 47
0.0
 48
0.0
 49
0.0
140
0.0
141
0.0
142
1.0
143
1.0
 70
  1712
 72
     0
 73
     0
 74
     0
  7
monochrome.ctb
 75
     0
147
1.0
148
0.0
149
0.0
100
AcDbLayout
  1
Model
 70
     1
 71
     0
 10
0.0
 20
0.0
 11
12.0
 21
9.0
 12
0.0
 22
0.0
 32
0.0
 14
0.0
 24
0.0
 34
0.0
 15
0.0
 25
0.0
 35
0.0
146
0.0
 13
0.0
 23
0.0
 33
0.0
 16
1.0
 26
0.0
 36
0.0
 17
0.0
 27
1.0
 37
0.0
 76
     0
330
1F
  0
LAYOUT
  5
1E
102
{ACAD_REACTORS
330
1A
102
}
330
1A
100
AcDbPlotSettings
  1

  2
HP DeskJet 690C
  4

  6

 40
0.0
 41
0.0
 42
0.0
 43
0.0
 44
0.0
 45
0.0
 46
0.0
 47
0.0
 48
0.0
 49
0.0
140
0.0
141
0.0
142
1.0
143
1.0
 70
   688
 72
     0
 73
     0
 74
     5
  7
monochrome.ctb
 75
    16
147
1.0
148
0.0
149
0.0
100
AcDbLayout
  1
Rozvržení1
 70
     1
 71
     1
 10
0.0
 20
0.0
 11
420.0
 21
297.0
 12
0.0
 22
0.0
 32
0.0
 14
1.000000000000000E+20
 24
1.000000000000000E+20
 34
1.000000000000000E+20
 15
-1.000000000000000E+20
 25
-1.000000000000000E+20
 35
-1.000000000000000E+20
146
0.0
 13
0.0
 23
0.0
 33
0.0
 16
1.0
 26
0.0
 36
0.0
 17
0.0
 27
1.0
 37
0.0
 76
     0
330
1B
  0
LAYOUT
  5
26
102
{ACAD_REACTORS
330
1A
102
}
330
1A
100
AcDbPlotSettings
  1

  2
HP DeskJet 690C
  4

  6

 40
0.0
 41
0.0
 42
0.0
 43
0.0
 44
0.0
 45
0.0
 46
0.0
 47
0.0
 48
0.0
 49
0.0
140
0.0
141
0.0
142
1.0
143
1.0
 70
   688
 72
     0
 73
     0
 74
     5
  7
monochrome.ctb
 75
    16
147
1.0
148
0.0
149
0.0
100
AcDbLayout
  1
Rozvržení2
 70
     1
 71
     2
 10
0.0
 20
0.0
 11
12.0
 21
9.0
 12
0.0
 22
0.0
 32
0.0
 14
0.0
 24
0.0
 34
0.0
 15
0.0
 25
0.0
 35
0.0
146
0.0
 13
0.0
 23
0.0
 33
0.0
 16
1.0
 26
0.0
 36
0.0
 17
0.0
 27
1.0
 37
0.0
 76
     0
330
23
  0
MLINESTYLE
  5
18
102
{ACAD_REACTORS
330
17
102
}
330
17
100
AcDbMlineStyle
  2
STANDARD
 70
     0
  3

 62
   256
 51
90.0
 52
90.0
 71
     2
 49
0.5
 62
   256
  6
BYLAYER
 49
-0.5
 62
   256
  6
BYLAYER
  0
ACDBPLACEHOLDER
  5
F
102
{ACAD_REACTORS
330
E
102
}
330
E
  0
DICTIONARYVAR
  5
9F87
102
{ACAD_REACTORS
330
17BD
102
}
330
17BD
100
DictionaryVariables
280
     0
  1
1
  0
DICTIONARYVAR
  5
17BE
102
{ACAD_REACTORS
330
17BD
102
}
330
17BD
100
DictionaryVariables
280
     0
  1
96
  0
ENDSEC
  0
EOF
