  0
SECTION
  2
HEADER
  9
$ACADVER
  1
AC1015
  9
$ACADMAINTVER
 70
    14
  9
$DWGCODEPAGE
  3
ANSI_1250
  9
$INSBASE
 10
0.0
 20
0.0
 30
0.0
  9
$EXTMIN
 10
4893.397892633522
 20
-2549.808623449909
 30
-0.0015258207003583
  9
$EXTMAX
 10
6079.076247075493
 20
-1835.077630948475
 30
0.0000000349246037
  9
$LIMMIN
 10
0.0
 20
0.0
  9
$LIMMAX
 10
420.0
 20
297.0
  9
$ORTHOMODE
 70
     0
  9
$REGENMODE
 70
     1
  9
$FILLMODE
 70
     1
  9
$QTEXTMODE
 70
     0
  9
$MIRRTEXT
 70
     1
  9
$LTSCALE
 40
1.0
  9
$ATTMODE
 70
     1
  9
$TEXTSIZE
 40
2.5
  9
$TRACEWID
 40
1.0
  9
$TEXTSTYLE
  7
Standard
  9
$CLAYER
  8
CETRIS
  9
$CELTYPE
  6
ByLayer
  9
$CECOLOR
 62
   256
  9
$CELTSCALE
 40
1.0
  9
$DISPSILH
 70
     0
  9
$DIMSCALE
 40
1.0
  9
$DIMASZ
 40
2.5
  9
$DIMEXO
 40
0.625
  9
$DIMDLI
 40
3.75
  9
$DIMRND
 40
0.0
  9
$DIMDLE
 40
0.0
  9
$DIMEXE
 40
1.25
  9
$DIMTP
 40
0.0
  9
$DIMTM
 40
0.0
  9
$DIMTXT
 40
2.5
  9
$DIMCEN
 40
2.5
  9
$DIMTSZ
 40
0.0
  9
$DIMTOL
 70
     0
  9
$DIMLIM
 70
     0
  9
$DIMTIH
 70
     0
  9
$DIMTOH
 70
     0
  9
$DIMSE1
 70
     0
  9
$DIMSE2
 70
     0
  9
$DIMTAD
 70
     1
  9
$DIMZIN
 70
     8
  9
$DIMBLK
  1

  9
$DIMASO
 70
     1
  9
$DIMSHO
 70
     1
  9
$DIMPOST
  1

  9
$DIMAPOST
  1

  9
$DIMALT
 70
     0
  9
$DIMALTD
 70
     3
  9
$DIMALTF
 40
0.03937007874016
  9
$DIMLFAC
 40
1.0
  9
$DIMTOFL
 70
     1
  9
$DIMTVP
 40
0.0
  9
$DIMTIX
 70
     0
  9
$DIMSOXD
 70
     0
  9
$DIMSAH
 70
     0
  9
$DIMBLK1
  1

  9
$DIMBLK2
  1

  9
$DIMSTYLE
  2
ISO-25
  9
$DIMCLRD
 70
     0
  9
$DIMCLRE
 70
     0
  9
$DIMCLRT
 70
     0
  9
$DIMTFAC
 40
1.0
  9
$DIMGAP
 40
0.625
  9
$DIMJUST
 70
     0
  9
$DIMSD1
 70
     0
  9
$DIMSD2
 70
     0
  9
$DIMTOLJ
 70
     0
  9
$DIMTZIN
 70
     8
  9
$DIMALTZ
 70
     0
  9
$DIMALTTZ
 70
     0
  9
$DIMUPT
 70
     0
  9
$DIMDEC
 70
     2
  9
$DIMTDEC
 70
     2
  9
$DIMALTU
 70
     2
  9
$DIMALTTD
 70
     3
  9
$DIMTXSTY
  7
Standard
  9
$DIMAUNIT
 70
     0
  9
$DIMADEC
 70
     0
  9
$DIMALTRND
 40
0.0
  9
$DIMAZIN
 70
     0
  9
$DIMDSEP
 70
    44
  9
$DIMATFIT
 70
     3
  9
$DIMFRAC
 70
     0
  9
$DIMLDRBLK
  1

  9
$DIMLUNIT
 70
     2
  9
$DIMLWD
 70
    -2
  9
$DIMLWE
 70
    -2
  9
$DIMTMOVE
 70
     0
  9
$LUNITS
 70
     2
  9
$LUPREC
 70
     4
  9
$SKETCHINC
 40
1.0
  9
$FILLETRAD
 40
0.0
  9
$AUNITS
 70
     0
  9
$AUPREC
 70
     0
  9
$MENU
  1
.
  9
$ELEVATION
 40
0.0
  9
$PELEVATION
 40
0.0
  9
$THICKNESS
 40
0.0
  9
$LIMCHECK
 70
     0
  9
$CHAMFERA
 40
10.0
  9
$CHAMFERB
 40
10.0
  9
$CHAMFERC
 40
20.0
  9
$CHAMFERD
 40
0.0
  9
$SKPOLY
 70
     0
  9
$TDCREATE
 40
2452332.512107639
  9
$TDUCREATE
 40
2452332.470440972
  9
$TDUPDATE
 40
2455601.290896469
  9
$TDUUPDATE
 40
2455601.249229803
  9
$TDINDWG
 40
1.0585705208
  9
$TDUSRTIMER
 40
1.0585566319
  9
$USRTIMER
 70
     1
  9
$ANGBASE
 50
0.0
  9
$ANGDIR
 70
     0
  9
$PDMODE
 70
     0
  9
$PDSIZE
 40
0.0
  9
$PLINEWID
 40
0.0
  9
$SPLFRAME
 70
     0
  9
$SPLINETYPE
 70
     6
  9
$SPLINESEGS
 70
     8
  9
$HANDSEED
  5
9FB5
  9
$SURFTAB1
 70
     6
  9
$SURFTAB2
 70
     6
  9
$SURFTYPE
 70
     6
  9
$SURFU
 70
     6
  9
$SURFV
 70
     6
  9
$UCSBASE
  2

  9
$UCSNAME
  2

  9
$UCSORG
 10
0.0
 20
0.0
 30
0.0
  9
$UCSXDIR
 10
1.0
 20
0.0
 30
0.0
  9
$UCSYDIR
 10
0.0
 20
1.0
 30
0.0
  9
$UCSORTHOREF
  2

  9
$UCSORTHOVIEW
 70
     0
  9
$UCSORGTOP
 10
0.0
 20
0.0
 30
0.0
  9
$UCSORGBOTTOM
 10
0.0
 20
0.0
 30
0.0
  9
$UCSORGLEFT
 10
0.0
 20
0.0
 30
0.0
  9
$UCSORGRIGHT
 10
0.0
 20
0.0
 30
0.0
  9
$UCSORGFRONT
 10
0.0
 20
0.0
 30
0.0
  9
$UCSORGBACK
 10
0.0
 20
0.0
 30
0.0
  9
$PUCSBASE
  2

  9
$PUCSNAME
  2

  9
$PUCSORG
 10
0.0
 20
0.0
 30
0.0
  9
$PUCSXDIR
 10
1.0
 20
0.0
 30
0.0
  9
$PUCSYDIR
 10
0.0
 20
1.0
 30
0.0
  9
$PUCSORTHOREF
  2

  9
$PUCSORTHOVIEW
 70
     0
  9
$PUCSORGTOP
 10
0.0
 20
0.0
 30
0.0
  9
$PUCSORGBOTTOM
 10
0.0
 20
0.0
 30
0.0
  9
$PUCSORGLEFT
 10
0.0
 20
0.0
 30
0.0
  9
$PUCSORGRIGHT
 10
0.0
 20
0.0
 30
0.0
  9
$PUCSORGFRONT
 10
0.0
 20
0.0
 30
0.0
  9
$PUCSORGBACK
 10
0.0
 20
0.0
 30
0.0
  9
$USERI1
 70
     0
  9
$USERI2
 70
     0
  9
$USERI3
 70
     0
  9
$USERI4
 70
     0
  9
$USERI5
 70
     0
  9
$USERR1
 40
0.0
  9
$USERR2
 40
0.0
  9
$USERR3
 40
0.0
  9
$USERR4
 40
0.0
  9
$USERR5
 40
0.0
  9
$WORLDVIEW
 70
     1
  9
$SHADEDGE
 70
     3
  9
$SHADEDIF
 70
    70
  9
$TILEMODE
 70
     1
  9
$MAXACTVP
 70
    64
  9
$PINSBASE
 10
0.0
 20
0.0
 30
0.0
  9
$PLIMCHECK
 70
     0
  9
$PEXTMIN
 10
1.000000000000000E+20
 20
1.000000000000000E+20
 30
1.000000000000000E+20
  9
$PEXTMAX
 10
-1.000000000000000E+20
 20
-1.000000000000000E+20
 30
-1.000000000000000E+20
  9
$PLIMMIN
 10
0.0
 20
0.0
  9
$PLIMMAX
 10
420.0
 20
297.0
  9
$UNITMODE
 70
     0
  9
$VISRETAIN
 70
     1
  9
$PLINEGEN
 70
     0
  9
$PSLTSCALE
 70
     1
  9
$TREEDEPTH
 70
  3020
  9
$CMLSTYLE
  2
Standard
  9
$CMLJUST
 70
     0
  9
$CMLSCALE
 40
20.0
  9
$PROXYGRAPHICS
 70
     1
  9
$MEASUREMENT
 70
     1
  9
$CELWEIGHT
370
    -1
  9
$ENDCAPS
280
     0
  9
$JOINSTYLE
280
     0
  9
$LWDISPLAY
290
     0
  9
$INSUNITS
 70
     4
  9
$HYPERLINKBASE
  1

  9
$STYLESHEET
  1

  9
$XEDIT
290
     1
  9
$CEPSNTYPE
380
     0
  9
$PSTYLEMODE
290
     1
  9
$FINGERPRINTGUID
  2
{D99C744E-04C5-44F1-9703-862C59725F9B}
  9
$VERSIONGUID
  2
{C262B78D-6F7D-4052-8FF2-2E3ED527A54E}
  9
$EXTNAMES
290
     1
  9
$PSVPSCALE
 40
0.0
  9
$OLESTARTUP
290
     0
  0
ENDSEC
  0
SECTION
  2
CLASSES
  0
CLASS
  1
ACDBDICTIONARYWDFLT
  2
AcDbDictionaryWithDefault
  3
AutoCAD 2000
 90
        0
280
     0
281
     0
  0
CLASS
  1
ACDBPLACEHOLDER
  2
AcDbPlaceHolder
  3
AutoCAD 2000
 90
        0
280
     0
281
     0
  0
CLASS
  1
LAYOUT
  2
AcDbLayout
  3
AutoCAD 2000
 90
        0
280
     0
281
     0
  0
CLASS
  1
DICTIONARYVAR
  2
AcDbDictionaryVar
  3
AutoCAD 2000
 90
        0
280
     0
281
     0
  0
ENDSEC
  0
SECTION
  2
TABLES
  0
TABLE
  2
VPORT
  5
8
330
0
100
AcDbSymbolTable
 70
     2
  0
VPORT
  5
9FB4
330
8
100
AcDbSymbolTableRecord
100
AcDbViewportTableRecord
  2
*Active
 70
     0
 10
0.0
 20
0.0
 11
1.0
 21
1.0
 12
5308.255157638509
 22
-2217.33503529522
 13
0.0
 23
0.0
 14
10.0
 24
10.0
 15
10.0
 25
10.0
 16
0.0
 26
0.0
 36
1.0
 17
0.0
 27
0.0
 37
0.0
 40
807.5769728108388
 41
2.031862745098039
 42
50.0
 43
0.0
 44
0.0
 50
0.0
 51
0.0
 71
     0
 72
   100
 73
     1
 74
     3
 75
     0
 76
     1
 77
     0
 78
     0
281
     0
 65
     1
110
0.0
120
0.0
130
0.0
111
1.0
121
0.0
131
0.0
112
0.0
122
1.0
132
0.0
 79
     0
146
0.0
  0
ENDTAB
  0
TABLE
  2
LTYPE
  5
5
330
0
100
AcDbSymbolTable
 70
     5
  0
LTYPE
  5
14
330
5
100
AcDbSymbolTableRecord
100
AcDbLinetypeTableRecord
  2
ByBlock
 70
     0
  3

 72
    65
 73
     0
 40
0.0
  0
LTYPE
  5
15
330
5
100
AcDbSymbolTableRecord
100
AcDbLinetypeTableRecord
  2
ByLayer
 70
     0
  3

 72
    65
 73
     0
 40
0.0
  0
LTYPE
  5
16
330
5
100
AcDbSymbolTableRecord
100
AcDbLinetypeTableRecord
  2
Continuous
 70
     0
  3
Solid line
 72
    65
 73
     0
 40
0.0
  0
LTYPE
  5
33
330
5
100
AcDbSymbolTableRecord
100
AcDbLinetypeTableRecord
  2
DASHED
 70
     0
  3
Dashed __ __ __ __ __ __ __ __ __ __ __ __ __ _
 72
    65
 73
     2
 40
19.04999999999999
 49
12.7
 74
     0
 49
-6.349999999999999
 74
     0
  0
LTYPE
  5
34
330
5
100
AcDbSymbolTableRecord
100
AcDbLinetypeTableRecord
  2
DASHDOT2
 70
     0
  3
Dash dot (.5x) _._._._._._._._._._._._._._._.
 72
    65
 73
     4
 40
12.7
 49
6.349999999999999
 74
     0
 49
-3.174999999999999
 74
     0
 49
0.0
 74
     0
 49
-3.174999999999999
 74
     0
  0
LTYPE
  5
35
330
5
100
AcDbSymbolTableRecord
100
AcDbLinetypeTableRecord
  2
CIKCAK
 70
     0
  3
Cik-cak /\/\/\/\/\/\/\/\/\/\/\/\/\/\/\/\/\/\/\/
 72
    65
 73
     4
 40
20.32254
 49
0.00254
 74
     0
 49
-5.08
 74
     4
 75
   131
340
3E
 46
5.08
 50
0.0
 44
-5.08
 45
0.0
 49
-10.16
 74
     4
 75
   131
340
3E
 46
5.08
 50
180.0
 44
5.08
 45
0.0
 49
-5.08
 74
     0
  0
LTYPE
  5
36
330
5
100
AcDbSymbolTableRecord
100
AcDbLinetypeTableRecord
  2
IZOLACE
 70
     0
  3
Izolace SSSSSSSSSSSSSSSSSSSSSSSSSSSSSSSSSSSSSSS
 72
    65
 73
     4
 40
10.16253999999999
 49
0.00254
 74
     0
 49
-2.54
 74
     4
 75
   134
340
3E
 46
2.54
 50
0.0
 44
-2.54
 45
0.0
 49
-5.08
 74
     4
 75
   134
340
3E
 46
2.54
 50
180.0
 44
2.54
 45
0.0
 49
-2.54
 74
     0
  0
ENDTAB
  0
TABLE
  2
LAYER
  5
2
330
0
100
AcDbSymbolTable
 70
     8
  0
LAYER
  5
10
330
2
100
AcDbSymbolTableRecord
100
AcDbLayerTableRecord
  2
0
 70
     0
 62
     7
  6
Continuous
370
    -3
390
F
  0
LAYER
  5
37
330
2
100
AcDbSymbolTableRecord
100
AcDbLayerTableRecord
  2
POPIS
 70
     0
 62
    30
  6
Continuous
370
    -3
390
F
  0
LAYER
  5
38
330
2
100
AcDbSymbolTableRecord
100
AcDbLayerTableRecord
  2
SPOJOVACÍ
 70
     0
 62
   180
  6
Continuous
370
    -3
390
F
  0
LAYER
  5
39
330
2
100
AcDbSymbolTableRecord
100
AcDbLayerTableRecord
  2
CETRIS
 70
     0
 62
     1
  6
Continuous
370
    -3
390
F
  0
LAYER
  5
3A
330
2
100
AcDbSymbolTableRecord
100
AcDbLayerTableRecord
  2
NOSNÉ KONSTRUKCE
 70
     0
 62
    33
  6
Continuous
370
    -3
390
F
  0
LAYER
  5
3B
330
2
100
AcDbSymbolTableRecord
100
AcDbLayerTableRecord
  2
izolace
 70
     0
 62
    73
  6
Continuous
370
    -3
390
F
  0
LAYER
  5
3C
330
2
100
AcDbSymbolTableRecord
100
AcDbLayerTableRecord
  2
STAVBA OBRYS
 70
     0
 62
     6
  6
Continuous
370
    -3
390
F
  0
LAYER
  5
1B41
330
2
100
AcDbSymbolTableRecord
100
AcDbLayerTableRecord
  2
Defpoints
 70
     0
 62
     7
  6
Continuous
290
     0
370
    -3
390
F
  0
ENDTAB
  0
TABLE
  2
STYLE
  5
3
330
0
100
AcDbSymbolTable
 70
     3
  0
STYLE
  5
11
330
3
100
AcDbSymbolTableRecord
100
AcDbTextStyleTableRecord
  2
Standard
 70
     0
 40
0.0
 41
1.0
 50
0.0
 71
     0
 42
2.5
  3
txt
  4

  0
STYLE
  5
3D
330
3
100
AcDbSymbolTableRecord
100
AcDbTextStyleTableRecord
  2
SIMPLEX7
 70
     0
 40
0.0
 41
0.85
 50
0.0
 71
     0
 42
102.0
  3
ARIAL.TTF
  4

1001
ACAD
1000
Arial CE
1071
    60962
  0
STYLE
  5
3E
330
3
100
AcDbSymbolTableRecord
100
AcDbTextStyleTableRecord
  2

 70
     1
 40
0.0
 41
1.0
 50
0.0
 71
     0
 42
2.5
  3
ltypeshp.shx
  4

  0
ENDTAB
  0
TABLE
  2
VIEW
  5
6
330
0
100
AcDbSymbolTable
 70
     0
  0
ENDTAB
  0
TABLE
  2
UCS
  5
7
330
0
100
AcDbSymbolTable
 70
     0
  0
ENDTAB
  0
TABLE
  2
APPID
  5
9
330
0
100
AcDbSymbolTable
 70
     1
  0
APPID
  5
12
330
9
100
AcDbSymbolTableRecord
100
AcDbRegAppTableRecord
  2
ACAD
 70
     0
  0
ENDTAB
  0
TABLE
  2
DIMSTYLE
  5
A
330
0
100
AcDbSymbolTable
 70
     1
100
AcDbDimStyleTable
 71
     1
340
27
  0
DIMSTYLE
105
27
330
A
100
AcDbSymbolTableRecord
100
AcDbDimStyleTableRecord
  2
ISO-25
 70
     0
 41
2.5
 42
0.625
 43
3.75
 44
1.25
 73
     0
 74
     0
 77
     1
 78
     8
140
2.5
141
2.5
143
0.03937007874016
147
0.625
171
     3
172
     1
271
     2
272
     2
274
     3
278
    44
283
     0
284
     8
340
11
  0
ENDTAB
  0
TABLE
  2
BLOCK_RECORD
  5
1
330
0
100
AcDbSymbolTable
 70
     3
  0
BLOCK_RECORD
  5
1F
330
1
100
AcDbSymbolTableRecord
100
AcDbBlockTableRecord
  2
*Model_Space
340
22
  0
BLOCK_RECORD
  5
1B
330
1
100
AcDbSymbolTableRecord
100
AcDbBlockTableRecord
  2
*Paper_Space
340
1E
  0
BLOCK_RECORD
  5
23
330
1
100
AcDbSymbolTableRecord
100
AcDbBlockTableRecord
  2
*Paper_Space0
340
26
  0
BLOCK_RECORD
  5
2B
330
1
100
AcDbSymbolTableRecord
100
AcDbBlockTableRecord
  2
E_PUNKT
340
0
102
{BLKREFS
331
D05
331
D1A
331
D1D
331
1138
331
1350
331
1351
331
1352
331
1353
331
1414
331
1415
331
1416
331
EAD
331
EB1
331
EB4
331
EB9
331
EBF
331
EC1
331
15BB
331
15BC
331
15C2
331
15C3
331
15CA
331
1D1A
331
1FE7
331
2073
331
2074
331
208A
331
208C
331
2113
331
23A8
331
2669
331
25ED
331
2AB6
331
2B8E
331
2BEE
331
2F0B
331
2E50
331
2E2C
331
2DB0
331
2F0A
331
3527
331
365E
331
371B
331
3C9E
331
3C9F
331
3CA8
331
3CAB
331
3CAC
331
3CAE
331
449A
331
4533
331
45E9
331
45B0
331
4420
331
4498
331
4379
331
45F5
331
47D7
331
4CE5
331
4CE8
331
4CEB
331
5176
331
519A
331
5197
331
5199
331
5198
331
519B
331
519D
331
51A1
331
524F
331
5251
331
5413
331
5412
331
5414
331
5417
331
541A
331
541D
331
567D
331
5667
331
56B3
331
56D8
331
56DC
331
56D9
331
5D48
331
5D4C
331
5F2A
331
5F30
331
5F31
331
5F39
331
5F3B
331
60B5
331
60B6
331
611F
331
6123
331
6126
331
6131
331
612F
331
6130
331
6148
331
6C59
331
6C5A
331
6AD5
331
7412
331
6C86
331
74A2
331
6C7B
331
745F
331
6A75
331
74D0
331
7592
331
74DB
331
74DA
331
75EE
331
75F4
331
75F7
331
75FB
331
75FC
331
7601
331
79D9
331
79DA
331
79DC
331
8178
331
8177
331
8179
331
817D
331
8180
331
8182
331
8186
331
8189
331
818C
331
8B1A
331
8B1F
331
8B21
331
8A05
331
8B1D
331
88E8
331
8CB1
331
8CB9
102
}
  0
BLOCK_RECORD
  5
2F
330
1
100
AcDbSymbolTableRecord
100
AcDbBlockTableRecord
  2
_ArchTick
340
0
102
{BLKREFS
331
B3F
331
B47
331
B48
331
205C
331
205D
102
}
  0
ENDTAB
  0
ENDSEC
  0
SECTION
  2
BLOCKS
  0
BLOCK
  5
20
330
1F
100
AcDbEntity
  8
0
100
AcDbBlockBegin
  2
*Model_Space
 70
     0
 10
0.0
 20
0.0
 30
0.0
  3
*Model_Space
  1

  0
ENDBLK
  5
21
330
1F
100
AcDbEntity
  8
0
100
AcDbBlockEnd
  0
BLOCK
  5
1C
330
1B
100
AcDbEntity
 67
     1
  8
0
100
AcDbBlockBegin
  2
*Paper_Space
 70
     0
 10
0.0
 20
0.0
 30
0.0
  3
*Paper_Space
  1

  0
ENDBLK
  5
1D
330
1B
100
AcDbEntity
 67
     1
  8
0
100
AcDbBlockEnd
  0
BLOCK
  5
24
330
23
100
AcDbEntity
  8
0
100
AcDbBlockBegin
  2
*Paper_Space0
 70
     0
 10
0.0
 20
0.0
 30
0.0
  3
*Paper_Space0
  1

  0
ENDBLK
  5
25
330
23
100
AcDbEntity
  8
0
100
AcDbBlockEnd
  0
BLOCK
  5
2D
330
2B
100
AcDbEntity
  8
0
100
AcDbBlockBegin
  2
E_PUNKT
 70
     0
 10
0.0
 20
0.0
 30
0.0
  3
E_PUNKT
  1

  0
LWPOLYLINE
  5
2C
330
2B
100
AcDbEntity
  8
POPIS
100
AcDbPolyline
 90
        2
 70
     1
 43
2.5
 10
1.27761037562675
 20
0.0290683308725193
 42
-1.0
 10
-1.222389624373249
 20
0.0290683308725193
 42
-1.0
  0
ENDBLK
  5
2E
330
2B
100
AcDbEntity
  8
0
100
AcDbBlockEnd
  0
BLOCK
  5
31
330
2F
100
AcDbEntity
  8
0
100
AcDbBlockBegin
  2
_ArchTick
 70
     0
 10
0.0
 20
0.0
 30
0.0
  3
_ArchTick
  1

  0
LWPOLYLINE
  5
30
330
2F
100
AcDbEntity
  8
0
  6
ByBlock
 62
     0
100
AcDbPolyline
 90
        2
 70
     0
 43
0.15
 10
-0.5
 20
-0.5
 10
0.5
 20
0.5
  0
ENDBLK
  5
32
330
2F
100
AcDbEntity
  8
0
100
AcDbBlockEnd
  0
ENDSEC
  0
SECTION
  2
ENTITIES
  0
LINE
  5
4055
330
1F
100
AcDbEntity
  8
NOSNÉ KONSTRUKCE
100
AcDbLine
 10
4917.259684649978
 20
-2187.518177889257
 30
0.0
 11
5503.89825750681
 21
-2187.518177889256
 31
0.0
  0
LINE
  5
4056
330
1F
100
AcDbEntity
  8
NOSNÉ KONSTRUKCE
  6
DASHED
100
AcDbLine
 10
4918.763735351776
 20
-2179.351982689487
 30
0.0
 11
5505.402308208607
 21
-2179.351982689487
 31
0.0
  0
LINE
  5
4057
330
1F
100
AcDbEntity
  8
NOSNÉ KONSTRUKCE
  6
DASHED
100
AcDbLine
 10
4924.796600377659
 20
-2146.596734906718
 30
0.0
 11
5511.664693419866
 21
-2146.596734906718
 31
0.0
  0
LINE
  5
4058
330
1F
100
AcDbEntity
  8
NOSNÉ KONSTRUKCE
100
AcDbLine
 10
4926.177607683979
 20
-2139.098599888903
 30
0.0
 11
5513.045700726188
 21
-2139.098599888903
 31
0.0
  0
LINE
  5
4059
330
1F
100
AcDbEntity
  8
CETRIS
100
AcDbLine
 10
4898.726358005681
 20
-2288.144282379966
 30
0.0
 11
5485.594451047889
 21
-2288.144282379966
 31
0.0
  0
LINE
  5
405A
330
1F
100
AcDbEntity
  8
NOSNÉ KONSTRUKCE
100
AcDbLine
 10
4915.014694620068
 20
-2199.707279482622
 30
0.0
 11
5501.653267476899
 21
-2199.707279482622
 31
0.0
  0
LINE
  5
405B
330
1F
100
AcDbEntity
  8
CETRIS
100
AcDbLine
 10
4900.936519283981
 20
-2276.144282379966
 30
0.0
 11
5487.80461232619
 21
-2276.144282379966
 31
0.0
  0
LINE
  5
405C
330
1F
100
AcDbEntity
  8
izolace
  6
IZOLACE
 48
2.2
100
AcDbLine
 10
4921.656559835014
 20
-2163.645484643537
 30
0.0
 11
5508.524652877222
 21
-2163.645484643537
 31
0.0
  0
LINE
  5
405D
330
1F
100
AcDbEntity
  8
CETRIS
100
AcDbLine
 10
4930.86096165534
 20
-2113.67047923178
 30
0.0
 11
5517.729054697547
 21
-2113.67047923178
 31
0.0
  0
LINE
  5
405E
330
1F
100
AcDbEntity
  8
CETRIS
100
AcDbLine
 10
4928.650800377038
 20
-2125.67047923178
 30
0.0
 11
5515.518893419248
 21
-2125.67047923178
 31
0.0
  0
LINE
  5
405F
330
1F
100
AcDbEntity
  8
NOSNÉ KONSTRUKCE
100
AcDbLine
 10
4928.458990812941
 20
-2126.711903127753
 30
0.0
 11
5515.327083855149
 21
-2126.711903127753
 31
0.0
  0
LINE
  5
4060
330
1F
100
AcDbEntity
  8
POPIS
100
AcDbLine
 10
5179.31528428895
 20
-2496.835163823361
 30
0.0
 11
5352.876660081204
 21
-2549.690870904271
 31
0.0
  0
LINE
  5
4061
330
1F
100
AcDbEntity
  8
izolace
  6
IZOLACE
 48
2.2
100
AcDbLine
 10
5267.890971483887
 20
-2295.127251172315
 30
0.0
 11
5267.890971483887
 21
-2523.809659476528
 31
0.0
  0
LINE
  5
4062
330
1F
100
AcDbEntity
  8
NOSNÉ KONSTRUKCE
100
AcDbLine
 10
5305.198938831539
 20
-2293.438072069752
 30
0.0
 11
5305.198938831539
 21
-2535.171282907493
 31
0.0
  0
LINE
  5
4063
330
1F
100
AcDbEntity
  8
NOSNÉ KONSTRUKCE
100
AcDbLine
 10
5230.957389968103
 20
-2293.438072069752
 30
0.0
 11
5230.957389968103
 21
-2512.562050052276
 31
0.0
  0
LINE
  5
4064
330
1F
100
AcDbEntity
  8
CETRIS
100
AcDbLine
 10
5229.91596607213
 20
-2288.144282379966
 30
0.0
 11
5229.91596607213
 21
-2300.144282379967
 31
0.0
  0
LINE
  5
4065
330
1F
100
AcDbEntity
  8
CETRIS
100
AcDbLine
 10
5217.91596607213
 20
-2305.362327361156
 30
0.0
 11
5217.91596607213
 21
-2508.5904654862
 31
0.0
  0
LINE
  5
4066
330
1F
100
AcDbEntity
  8
CETRIS
100
AcDbLine
 10
5318.148220356881
 20
-2305.362327361156
 30
0.0
 11
5318.148220356881
 21
-2539.114806793999
 31
0.0
  0
LINE
  5
4067
330
1F
100
AcDbEntity
  8
CETRIS
100
AcDbLine
 10
5306.14822035688
 20
-2288.144282379966
 30
0.0
 11
5306.14822035688
 21
-2300.144282379967
 31
0.0
  0
LINE
  5
4068
330
1F
100
AcDbEntity
  8
NOSNÉ KONSTRUKCE
100
AcDbLine
 10
5243.344086729253
 20
-2293.438072069752
 30
0.0
 11
5243.344086729253
 21
-2516.334246560393
 31
0.0
  0
LINE
  5
4069
330
1F
100
AcDbEntity
  8
NOSNÉ KONSTRUKCE
  6
DASHED
100
AcDbLine
 10
5250.842221747068
 20
-2293.438072069752
 30
0.0
 11
5250.842221747068
 21
-2518.617699467732
 31
0.0
  0
LINE
  5
406A
330
1F
100
AcDbEntity
  8
NOSNÉ KONSTRUKCE
  6
DASHED
100
AcDbLine
 10
5284.843642038403
 20
-2293.438072069752
 30
0.0
 11
5284.843642038403
 21
-2528.972359904424
 31
0.0
  0
LINE
  5
406B
330
1F
100
AcDbEntity
  8
NOSNÉ KONSTRUKCE
100
AcDbLine
 10
5293.009837238173
 20
-2293.438072069752
 30
0.0
 11
5293.009837238173
 21
-2531.459261264097
 31
0.0
  0
LINE
  5
406C
330
1F
100
AcDbEntity
  8
SPOJOVACÍ
  6
Continuous
100
AcDbLine
 10
5293.694223206715
 20
-2137.168580184891
 30
0.0
 11
5289.649818847123
 21
-2138.528497198433
 31
0.0
  0
LINE
  5
406D
330
1F
100
AcDbEntity
  8
SPOJOVACÍ
  6
Continuous
100
AcDbLine
 10
5289.272167476177
 20
-2138.150845825305
 30
0.0
 11
5289.649818847123
 21
-2137.932254513279
 31
0.0
  0
LINE
  5
406E
330
1F
100
AcDbEntity
  8
SPOJOVACÍ
  6
Continuous
100
AcDbLine
 10
5294.071874582026
 20
-2136.950919048843
 30
0.0
 11
5289.272167476177
 21
-2138.150845825305
 31
0.0
  0
LINE
  5
406F
330
1F
100
AcDbEntity
  8
SPOJOVACÍ
  6
Continuous
100
AcDbLine
 10
5293.021706108287
 20
-2137.388101672889
 30
0.0
 11
5293.021706108287
 21
-2138.635467414777
 31
0.0
  0
LINE
  5
4070
330
1F
100
AcDbEntity
  8
SPOJOVACÍ
  6
Continuous
100
AcDbLine
 10
5254.910653729435
 20
-2137.388101672889
 30
0.0
 11
5254.910653729435
 21
-2138.635467414777
 31
0.0
  0
LINE
  5
4071
330
1F
100
AcDbEntity
  8
SPOJOVACÍ
  6
Continuous
100
AcDbLine
 10
5253.860485255696
 20
-2136.950919048843
 30
0.0
 11
5258.660192361545
 21
-2138.150845825305
 31
0.0
  0
LINE
  5
4072
330
1F
100
AcDbEntity
  8
SPOJOVACÍ
  6
Continuous
100
AcDbLine
 10
5258.660192361545
 20
-2138.150845825305
 30
0.0
 11
5258.282540990599
 21
-2137.932254513279
 31
0.0
  0
LINE
  5
4073
330
1F
100
AcDbEntity
  8
SPOJOVACÍ
  6
Continuous
100
AcDbLine
 10
5254.238136631006
 20
-2137.168580184891
 30
0.0
 11
5258.282540990599
 21
-2138.528497198433
 31
0.0
  0
HATCH
  5
4074
330
1F
100
AcDbEntity
  8
NOSNÉ KONSTRUKCE
100
AcDbHatch
 10
0.0
 20
0.0
 30
0.0
210
0.0
220
0.0
230
1.0
  2
SOLID
 70
     1
 71
     0
 91
        1
 92
        7
 72
     1
 73
     1
 93
       60
 10
5248.797335908555
 20
-2146.27676170665
 42
0.0
 10
5248.797335908556
 20
-2180.153860830589
 42
-0.3073346934841183
 10
5249.944508396776
 20
-2181.869051393656
 42
0.0
 10
5249.944508396776
 20
-2185.630285494179
 42
-0.307334693483106
 10
5248.797335908555
 20
-2187.34547605724
 42
0.0
 10
5248.797335908556
 20
-2197.686926145764
 42
0.4142135623730951
 10
5250.767335908555
 20
-2199.656926145763
 42
0.0
 10
5258.843206469638
 20
-2199.656926145763
 42
-0.7595816512230912
 10
5262.380777004878
 20
-2199.656926145764
 42
0.0
 10
5271.419008368369
 20
-2199.656926145759
 42
-0.7595816493590427
 10
5274.956578936077
 20
-2199.656926145763
 42
0.0
 10
5283.994808296294
 20
-2199.656926145763
 42
-0.7767342353201953
 10
5287.552095001758
 20
-2199.733713970848
 42
0.0
 10
5294.021682599687
 20
-2199.733713970848
 42
0.4142135623730868
 10
5295.991682599686
 20
-2197.763713970848
 42
0.0
 10
5295.991682599687
 20
-2194.980768066029
 42
0.0
 10
5295.006682599686
 20
-2194.980768066029
 42
0.0
 10
5295.006682599686
 20
-2197.763713970848
 42
-0.4142135623730951
 10
5294.021682599687
 20
-2198.748713970848
 42
0.0
 10
5288.212451993293
 20
-2198.748713970848
 42
0.5694936494219963
 10
5283.360395790547
 20
-2198.671926145763
 42
0.0
 10
5275.590993386249
 20
-2198.671926145763
 42
0.5590616644338513
 10
5270.784593918199
 20
-2198.67192614576
 42
0.0
 10
5263.015191455633
 20
-2198.671926145763
 42
0.5590616643157284
 10
5258.208792018884
 20
-2198.671926145763
 42
0.0
 10
5250.767335908555
 20
-2198.671926145763
 42
-0.4142135623731451
 10
5249.782335908555
 20
-2197.686926145764
 42
0.0
 10
5249.782335908555
 20
-2187.902917017801
 42
0.2364174637114482
 10
5250.920463108709
 20
-2185.655295105644
 42
0.0
 10
5250.920463108709
 20
-2181.844041782187
 42
0.2364174637115772
 10
5249.782335908555
 20
-2179.596419870027
 42
0.0
 10
5249.782335908555
 20
-2146.830617602281
 42
0.2353201211467568
 10
5250.90979702233
 20
-2144.589333319194
 42
0.0
 10
5250.907614685894
 20
-2140.778080620548
 42
0.2364174637122881
 10
5249.768200676478
 20
-2138.531110772302
 42
0.0
 10
5249.762598320038
 20
-2128.747103248304
 42
-0.4142135623730951
 10
5250.747034144257
 20
-2127.761539395479
 42
0.0
 10
5258.188489034652
 20
-2127.757278392754
 42
0.5590616643157161
 10
5262.994887683453
 20
-2127.754526232317
 42
0.0
 10
5270.764288872323
 20
-2127.750077446413
 42
0.5590616644338511
 10
5275.570687552427
 20
-2127.747325285955
 42
0.0
 10
5283.340088683029
 20
-2127.742876500081
 42
0.5694936494220229
 10
5288.192100121376
 20
-2127.663310383931
 42
0.0
 10
5294.00132977542
 20
-2127.659983999003
 42
-0.4142135623730951
 10
5294.986893628244
 20
-2128.644419823221
 42
0.0
 10
5294.988487152402
 20
-2131.427365271812
 42
0.0
 10
5295.973486990925
 20
-2131.426801257509
 42
0.0
 10
5295.971893466766
 20
-2128.643855808917
 42
0.4142135623730618
 10
5294.000765761117
 20
-2126.674984160481
 42
0.0
 10
5287.531179223794
 20
-2126.678688668037
 42
-0.7767342353201953
 10
5283.973937070468
 20
-2126.757513394831
 42
0.0
 10
5274.935709191955
 20
-2126.762688715275
 42
-0.759581649359043
 10
5271.398139204187
 20
-2126.76471434005
 42
0.0
 10
5262.359909322399
 20
-2126.769889661636
 42
-0.7595816512230912
 10
5258.822339367099
 20
-2126.771915286389
 42
0.0
 10
5250.746470129953
 20
-2126.776539556957
 42
0.4142135623731117
 10
5248.777598481517
 20
-2128.747667262608
 42
0.0
 10
5248.78352003052
 20
-2139.089115655781
 42
-0.3073346934834261
 10
5249.931674454543
 20
-2140.803649062846
 42
0.0
 10
5249.933828149805
 20
-2144.564882546765
 42
-0.3057747226774016
 97
        0
 75
     0
 76
     1
 47
0.1180065091547201
 98
        1
 10
5249.191989827971
 20
-2155.497720293932
  0
LINE
  5
4075
330
1F
100
AcDbEntity
  8
SPOJOVACÍ
  6
Continuous
100
AcDbLine
 10
5281.676572848478
 20
-2286.944355603235
 30
0.0
 11
5283.026257932029
 21
-2286.200214966761
 31
0.0
  0
LINE
  5
4076
330
1F
100
AcDbEntity
  8
SPOJOVACÍ
  6
Continuous
100
AcDbLine
 10
5281.676572848478
 20
-2286.944355603235
 30
0.0
 11
5291.876880625746
 21
-2286.944355603235
 31
0.0
  0
LINE
  5
4077
330
1F
100
AcDbEntity
  8
SPOJOVACÍ
  6
Continuous
100
AcDbLine
 10
5281.676572848478
 20
-2288.144282379966
 30
0.0
 11
5291.876880625746
 21
-2288.144282379966
 31
0.0
  0
HATCH
  5
4078
330
1F
100
AcDbEntity
  8
NOSNÉ KONSTRUKCE
100
AcDbHatch
 10
0.0
 20
0.0
 30
0.0
210
0.0
220
0.0
230
1.0
  2
SOLID
 70
     1
 71
     0
 91
        1
 92
        7
 72
     1
 73
     1
 93
       60
 10
5250.820190555817
 20
-2292.140090126057
 42
0.0
 10
5285.21318459027
 20
-2292.140090126057
 42
0.3073346934841183
 10
5286.954494806584
 20
-2293.304732246078
 42
0.0
 10
5290.773006583766
 20
-2293.304732246078
 42
0.307334693483106
 10
5292.514316800069
 20
-2292.140090126057
 42
0.0
 10
5303.013250900093
 20
-2292.140090126057
 42
-0.4142135623730951
 10
5305.013250900093
 20
-2294.140090126057
 42
0.0
 10
5305.013250900093
 20
-2302.338943487563
 42
0.7595816512230912
 10
5305.013250900093
 20
-2305.930385655319
 42
0.0
 10
5305.013250900089
 20
-2315.106255059879
 42
0.7595816493590427
 10
5305.013250900093
 20
-2318.697697260597
 42
0.0
 10
5305.013250900093
 20
-2327.873564631375
 42
0.7767342353201953
 10
5305.09120808292
 20
-2331.485023215603
 42
0.0
 10
5305.091208082919
 20
-2338.053132452079
 42
-0.4142135623730868
 10
5303.09120808292
 20
-2340.053132452078
 42
0.0
 10
5300.265882291225
 20
-2340.053132452078
 42
0.0
 10
5300.265882291224
 20
-2339.053132452078
 42
0.0
 10
5303.09120808292
 20
-2339.053132452078
 42
0.4142135623730951
 10
5304.091208082919
 20
-2338.053132452079
 42
0.0
 10
5304.091208082919
 20
-2332.155436404979
 42
-0.5694936494219963
 10
5304.013250900093
 20
-2327.229491021481
 42
0.0
 10
5304.013250900093
 20
-2319.341772844528
 42
-0.5590616644338513
 10
5304.01325090009
 20
-2314.462179475949
 42
0.0
 10
5304.013250900093
 20
-2306.574461239842
 42
-0.5590616643157284
 10
5304.013250900093
 20
-2301.69486790304
 42
0.0
 10
5304.013250900093
 20
-2294.140090126057
 42
0.4142135623731451
 10
5303.013250900093
 20
-2293.140090126057
 42
0.0
 10
5293.080246709269
 20
-2293.140090126057
 42
-0.2364174637114482
 10
5290.798397052256
 20
-2294.295549212508
 42
0.0
 10
5286.929104338088
 20
-2294.295549212508
 42
-0.2364174637115772
 10
5284.647254681072
 20
-2293.140090126057
 42
0.0
 10
5251.382480805187
 20
-2293.140090126057
 42
-0.2353201211467568
 10
5249.107065289363
 20
-2294.284720698418
 42
0.0
 10
5245.23777320952
 20
-2294.282505128432
 42
-0.2364174637122881
 10
5242.956585546325
 20
-2293.125739636639
 42
0.0
 10
5233.023582983891
 20
-2293.120051965126
 42
0.4142135623730951
 10
5232.023010544474
 20
-2294.119479197834
 42
0.0
 10
5232.018684653382
 20
-2301.674255736307
 42
-0.5590616643157161
 10
5232.015890581873
 20
-2306.553848273162
 42
0.0
 10
5232.011374047961
 20
-2314.441565216177
 42
-0.5590616644338511
 10
5232.008579976429
 20
-2319.321157784809
 42
0.0
 10
5232.004063442548
 20
-2327.208874668671
 42
-0.5694936494220229
 10
5231.923285659655
 20
-2332.134774606079
 42
0.0
 10
5231.919908619118
 20
-2338.032469686326
 42
0.4142135623730951
 10
5232.919335851827
 20
-2339.033042125742
 42
0.0
 10
5235.744661180345
 20
-2339.034659916765
 42
0.0
 10
5235.744088576991
 20
-2340.034659752828
 42
0.0
 10
5232.918763248473
 20
-2340.033041961805
 42
-0.4142135623730618
 10
5230.919908783056
 20
-2338.031897082972
 42
0.0
 10
5230.923669704432
 20
-2331.463788923255
 42
0.7767342353201953
 10
5231.003694807776
 20
-2327.852375569624
 42
0.0
 10
5231.008948940206
 20
-2318.676509703112
 42
0.759581649359043
 10
5231.01100541206
 20
-2315.085068091166
 42
0.0
 10
5231.016259545651
 20
-2305.909200190873
 42
0.7595816512230912
 10
5231.01831601748
 20
-2302.317758611889
 42
0.0
 10
5231.023010708412
 20
-2294.118906594481
 42
-0.4142135623731117
 10
5233.024155587244
 20
-2292.120052129063
 42
0.0
 10
5243.523087966101
 20
-2292.12606385394
 42
0.3073346934834261
 10
5245.263731018959
 20
-2293.291702863102
 42
0.0
 10
5249.082242170145
 20
-2293.293889355751
 42
0.3057747226774016
 97
        0
 75
     0
 76
     1
 47
0.1180065091547201
 98
        1
 10
5260.181569832244
 20
-2292.540754003637
  0
LINE
  5
4079
330
1F
100
AcDbEntity
  8
izolace
100
AcDbLine
 10
5243.828790262957
 20
-2291.640818540289
 30
0.0
 11
5305.865065119022
 21
-2291.640818540289
 31
0.0
  0
LINE
  5
407A
330
1F
100
AcDbEntity
  8
izolace
100
AcDbLine
 10
5243.828790262957
 20
-2289.640818540285
 30
0.0
 11
5305.865065119022
 21
-2289.640818540285
 31
0.0
  0
HATCH
  5
407B
330
1F
100
AcDbEntity
  8
izolace
100
AcDbHatch
 10
0.0
 20
0.0
 30
0.0
210
0.0
220
0.0
230
1.0
  2
SOLID
 70
     1
 71
     0
 91
        4
 92
        7
 72
     0
 73
     1
 93
        4
 10
5231.327713255982
 20
-2291.640818540289
 10
5243.828790262957
 20
-2291.640818540289
 10
5243.828790262957
 20
-2289.640818540285
 10
5231.327713255982
 20
-2289.640818540285
 97
        0
 92
        7
 72
     0
 73
     1
 93
        4
 10
5251.485501177555
 20
-2291.640818540289
 10
5263.986578184534
 20
-2291.640818540289
 10
5263.986578184534
 20
-2289.640818540285
 10
5251.485501177555
 20
-2289.640818540285
 97
        0
 92
        7
 72
     0
 73
     1
 93
        4
 10
5272.219737199185
 20
-2291.640818540289
 10
5284.720814206163
 20
-2291.640818540289
 10
5284.720814206163
 20
-2289.640818540285
 10
5272.219737199185
 20
-2289.640818540285
 97
        0
 92
        7
 72
     1
 73
     1
 93
        7
 10
5293.363988112048
 20
-2291.161892878168
 42
0.0
 10
5293.363988112048
 20
-2291.640818540289
 42
0.0
 10
5305.865065119022
 20
-2291.640818540289
 42
0.0
 10
5305.865065119022
 20
-2289.640818540285
 42
0.0
 10
5293.600376106303
 20
-2289.640818540285
 42
0.0
 10
5293.363988112048
 20
-2289.799425912366
 42
0.0
 10
5293.363988112048
 20
-2289.875098454355
 42
-0.2771233679601331
 97
        0
 75
     0
 76
     1
 47
0.1334780420591298
 98
        4
 10
5236.548488827459
 20
-2290.338829431742
 10
5252.310575159768
 20
-2290.338829431742
 10
5279.293132795974
 20
-2290.338829431742
 10
5297.593183854884
 20
-2290.338829431742
  0
HATCH
  5
407C
330
1F
100
AcDbEntity
  8
izolace
100
AcDbHatch
 10
0.0
 20
0.0
 30
0.0
210
0.0
220
0.0
230
1.0
  2
AR-SAND
 70
     0
 71
     0
 91
        2
 92
        1
 93
        4
 72
     1
 10
5217.91596607213
 20
-2305.36232736116
 11
5217.91596607213
 21
-2300.14428237997
 72
     1
 10
5217.91596607213
 20
-2300.14428237997
 11
5229.91596607213
 21
-2300.14428237997
 72
     1
 10
5229.91596607213
 20
-2300.14428237997
 11
5229.91596607213
 21
-2305.36232736116
 72
     1
 10
5229.91596607213
 20
-2305.36232736116
 11
5217.91596607213
 21
-2305.36232736116
 97
        0
 92
        1
 93
        4
 72
     1
 10
5318.148220356881
 20
-2305.36232736116
 11
5318.148220356881
 21
-2300.14428237997
 72
     1
 10
5318.148220356881
 20
-2300.14428237997
 11
5306.14822035688
 21
-2300.14428237997
 72
     1
 10
5306.14822035688
 20
-2300.14428237997
 11
5306.14822035688
 21
-2305.36232736116
 72
     1
 10
5306.14822035688
 20
-2305.36232736116
 11
5318.148220356881
 21
-2305.36232736116
 97
        0
 75
     0
 76
     1
 52
180.0
 41
0.05
 77
     0
 78
     4
 53
142.5
 43
5632.459842749708
 44
-2252.968991308163
 45
0.080001564799202
 46
2.447066186646711
 79
     6
 49
0.0
 49
-1.9304
 49
0.0
 49
-2.159
 49
0.0
 49
-2.06375
 53
172.5
 43
5632.459842749708
 44
-2252.968991308163
 45
-2.247616415690013
 46
3.584125502841771
 79
     6
 49
0.0
 49
-1.0414
 49
0.0
 49
-1.7399
 49
0.0
 49
-0.6667500000000001
 53
212.5
 43
5634.021942749708
 44
-2252.968991308163
 45
-3.95496185120729
 46
0.007185923392728
 79
     6
 49
0.0
 49
-0.6349999999999989
 49
0.0
 49
-2.285999999999995
 49
0.0
 49
-2.984499999999995
 53
222.5
 43
5634.021942749708
 44
-2252.968991308163
 45
-3.817782262361486
 46
1.11464661628608
 79
     6
 49
0.0
 49
-0.3175
 49
0.0
 49
-1.498599999999999
 49
0.0
 49
-1.7145
 98
        1
 10
5632.459842749708
 20
-2252.968991308163
  0
LINE
  5
407E
330
1F
100
AcDbEntity
  8
SPOJOVACÍ
100
AcDbLine
 10
5269.386851349688
 20
-2263.028038924088
 30
0.0
 11
5269.386851349688
 21
-2290.503028503267
 31
0.0
  0
LINE
  5
407F
330
1F
100
AcDbEntity
  8
SPOJOVACÍ
100
AcDbLine
 10
5265.964976349688
 20
-2263.028038924088
 30
0.0
 11
5265.964976349688
 21
-2290.503028503271
 31
0.0
  0
LINE
  5
4080
330
1F
100
AcDbEntity
  8
SPOJOVACÍ
  6
DASHDOT2
100
AcDbLine
 10
5267.675913849688
 20
-2305.024126172583
 30
0.0
 11
5267.675913849688
 21
-2247.677198937127
 31
0.0
  0
LINE
  5
4081
330
1F
100
AcDbEntity
  8
SPOJOVACÍ
  6
Continuous
100
AcDbLine
 10
5220.370699997186
 20
-2326.798624141543
 30
0.0
 11
5219.452616486744
 21
-2328.035757950443
 31
0.0
  0
LWPOLYLINE
  5
4083
330
1F
100
AcDbEntity
  8
izolace
100
AcDbPolyline
 90
        4
 70
     1
 43
0.0
 10
5217.91596607213
 20
-2305.362327361156
 10
5217.91596607213
 20
-2300.144282379967
 10
5229.91596607213
 20
-2300.144282379967
 10
5229.91596607213
 20
-2305.362327361156
  0
LINE
  5
4084
330
1F
100
AcDbEntity
  8
SPOJOVACÍ
  6
Continuous
100
AcDbLine
 10
5219.860033485336
 20
-2319.900440442894
 30
0.0
 11
5220.928805474748
 21
-2321.011070343252
 31
0.0
  0
LINE
  5
4085
330
1F
100
AcDbEntity
  8
CETRIS
100
AcDbLine
 10
5229.91596607213
 20
-2305.362327361152
 30
0.0
 11
5217.91596607213
 21
-2305.362327361156
 31
0.0
  0
LINE
  5
4086
330
1F
100
AcDbEntity
  8
SPOJOVACÍ
  6
Continuous
100
AcDbLine
 10
5219.452616486744
 20
-2328.035757950443
 30
0.0
 11
5219.115892848861
 21
-2328.751063136611
 31
0.0
  0
LINE
  5
4087
330
1F
100
AcDbEntity
  8
SPOJOVACÍ
  6
Continuous
100
AcDbLine
 10
5217.91596607213
 20
-2328.751063136611
 30
0.0
 11
5219.115892848861
 21
-2328.751063136611
 31
0.0
  0
LINE
  5
4088
330
1F
100
AcDbEntity
  8
SPOJOVACÍ
  6
Continuous
100
AcDbLine
 10
5219.115892848861
 20
-2318.550755359343
 30
0.0
 11
5219.860033485336
 21
-2319.900440442894
 31
0.0
  0
LINE
  5
4089
330
1F
100
AcDbEntity
  8
SPOJOVACÍ
  6
Continuous
100
AcDbLine
 10
5217.91596607213
 20
-2318.550755359343
 30
0.0
 11
5219.115892848861
 21
-2318.550755359343
 31
0.0
  0
LINE
  5
408A
330
1F
100
AcDbEntity
  8
SPOJOVACÍ
  6
Continuous
100
AcDbLine
 10
5219.115892848861
 20
-2318.550755359343
 30
0.0
 11
5219.115892848861
 21
-2328.751063136611
 31
0.0
  0
LINE
  5
408B
330
1F
100
AcDbEntity
  8
SPOJOVACÍ
  6
Continuous
100
AcDbLine
 10
5217.91596607213
 20
-2318.550755359343
 30
0.0
 11
5217.91596607213
 21
-2328.751063136611
 31
0.0
  0
LINE
  5
408C
330
1F
100
AcDbEntity
  8
SPOJOVACÍ
  6
Continuous
100
AcDbLine
 10
5281.676572848478
 20
-2288.144282379966
 30
0.0
 11
5281.676572848478
 21
-2286.944355603235
 31
0.0
  0
LINE
  5
408D
330
1F
100
AcDbEntity
  8
SPOJOVACÍ
  6
Continuous
100
AcDbLine
 10
5229.916164013545
 20
-2326.050762800901
 30
0.0
 11
5229.697572701518
 21
-2325.673111429956
 31
0.0
  0
LINE
  5
408E
330
1F
100
AcDbEntity
  8
SPOJOVACÍ
  6
Continuous
100
AcDbLine
 10
5229.916164013545
 20
-2326.050762800901
 30
0.0
 11
5230.293815386673
 21
-2325.673111429956
 31
0.0
  0
LINE
  5
408F
330
1F
100
AcDbEntity
  8
SPOJOVACÍ
  6
Continuous
100
AcDbLine
 10
5224.515563343217
 20
-2325.000594331528
 30
0.0
 11
5229.458517522147
 21
-2325.000594331528
 31
0.0
  0
LINE
  5
4090
330
1F
100
AcDbEntity
  8
SPOJOVACÍ
  6
Continuous
100
AcDbLine
 10
5224.515563343217
 20
-2325.000594331528
 30
0.0
 11
5222.991935389789
 21
-2325.227557222411
 31
0.0
  0
LINE
  5
4091
330
1F
100
AcDbEntity
  8
SPOJOVACÍ
  6
Continuous
100
AcDbLine
 10
5222.991935389789
 20
-2325.227557222411
 30
0.0
 11
5221.578068180085
 21
-2325.840543071559
 31
0.0
  0
LINE
  5
4092
330
1F
100
AcDbEntity
  8
SPOJOVACÍ
  6
Continuous
100
AcDbLine
 10
5221.578068180085
 20
-2325.840543071559
 30
0.0
 11
5220.370699997186
 21
-2326.798624141543
 31
0.0
  0
LINE
  5
4093
330
1F
100
AcDbEntity
  8
SPOJOVACÍ
  6
Continuous
100
AcDbLine
 10
5231.836046856045
 20
-2321.251055695053
 30
0.0
 11
5231.458395482917
 21
-2321.628707070364
 31
0.0
  0
LINE
  5
4094
330
1F
100
AcDbEntity
  8
SPOJOVACÍ
  6
Continuous
100
AcDbLine
 10
5231.836046856045
 20
-2321.251055695053
 30
0.0
 11
5232.054638168071
 21
-2321.628707070364
 31
0.0
  0
LINE
  5
4095
330
1F
100
AcDbEntity
  8
SPOJOVACÍ
  6
Continuous
100
AcDbLine
 10
5228.716237237083
 20
-2321.251055695053
 30
0.0
 11
5228.337655688253
 21
-2321.628707070364
 31
0.0
  0
LINE
  5
4096
330
1F
100
AcDbEntity
  8
SPOJOVACÍ
  6
Continuous
100
AcDbLine
 10
5228.716237237083
 20
-2321.251055695053
 30
0.0
 11
5228.933898373131
 21
-2321.628707070364
 31
0.0
  0
LINE
  5
4097
330
1F
100
AcDbEntity
  8
SPOJOVACÍ
  6
Continuous
100
AcDbLine
 10
5229.148768982074
 20
-2322.301224168792
 30
0.0
 11
5231.667685037103
 21
-2322.301224168792
 31
0.0
  0
LINE
  5
4098
330
1F
100
AcDbEntity
  8
SPOJOVACÍ
  6
Continuous
100
AcDbLine
 10
5224.515563343217
 20
-2322.301224168792
 30
0.0
 11
5228.553456472898
 21
-2322.301224168792
 31
0.0
  0
LINE
  5
4099
330
1F
100
AcDbEntity
  8
SPOJOVACÍ
  6
Continuous
100
AcDbLine
 10
5220.928805474748
 20
-2321.011070343252
 30
0.0
 11
5222.247794753045
 21
-2321.807300822571
 31
0.0
  0
LINE
  5
409A
330
1F
100
AcDbEntity
  8
SPOJOVACÍ
  6
Continuous
100
AcDbLine
 10
5222.247794753045
 20
-2321.807300822571
 30
0.0
 11
5223.728634620095
 21
-2322.23518168687
 31
0.0
  0
LINE
  5
409B
330
1F
100
AcDbEntity
  8
SPOJOVACÍ
  6
Continuous
100
AcDbLine
 10
5223.728634620095
 20
-2322.23518168687
 30
0.0
 11
5224.515563343217
 21
-2322.301224168792
 31
0.0
  0
LINE
  5
409C
330
1F
100
AcDbEntity
  8
SPOJOVACÍ
  6
Continuous
100
AcDbLine
 10
5228.337655688253
 20
-2321.628707070364
 30
0.0
 11
5229.697572701518
 21
-2325.673111429956
 31
0.0
  0
LINE
  5
409D
330
1F
100
AcDbEntity
  8
SPOJOVACÍ
  6
Continuous
100
AcDbLine
 10
5228.933898373131
 20
-2321.628707070364
 30
0.0
 11
5230.293815386673
 21
-2325.673111429956
 31
0.0
  0
LINE
  5
409E
330
1F
100
AcDbEntity
  8
SPOJOVACÍ
  6
Continuous
100
AcDbLine
 10
5228.716237237083
 20
-2321.251055695053
 30
0.0
 11
5229.916164013545
 21
-2326.050762800901
 31
0.0
  0
LINE
  5
409F
330
1F
100
AcDbEntity
  8
SPOJOVACÍ
  6
Continuous
100
AcDbLine
 10
5242.396332665655
 20
-2326.050762800901
 30
0.0
 11
5242.177741353629
 21
-2325.673111429956
 31
0.0
  0
LINE
  5
40A0
330
1F
100
AcDbEntity
  8
SPOJOVACÍ
  6
Continuous
100
AcDbLine
 10
5242.396332665655
 20
-2326.050762800901
 30
0.0
 11
5242.773984038783
 21
-2325.673111429956
 31
0.0
  0
LINE
  5
40A1
330
1F
100
AcDbEntity
  8
SPOJOVACÍ
  6
Continuous
100
AcDbLine
 10
5239.275592870715
 20
-2326.050762800901
 30
0.0
 11
5239.057931734667
 21
-2325.673111429956
 31
0.0
  0
LINE
  5
40A2
330
1F
100
AcDbEntity
  8
SPOJOVACÍ
  6
Continuous
100
AcDbLine
 10
5239.275592870715
 20
-2326.050762800901
 30
0.0
 11
5239.654174419545
 21
-2325.673111429956
 31
0.0
  0
LINE
  5
40A3
330
1F
100
AcDbEntity
  8
SPOJOVACÍ
  6
Continuous
100
AcDbLine
 10
5236.155783251746
 20
-2326.050762800901
 30
0.0
 11
5235.938122115427
 21
-2325.673111429956
 31
0.0
  0
LINE
  5
40A4
330
1F
100
AcDbEntity
  8
SPOJOVACÍ
  6
Continuous
100
AcDbLine
 10
5236.155783251746
 20
-2326.050762800901
 30
0.0
 11
5236.534364800576
 21
-2325.673111429956
 31
0.0
  0
LINE
  5
40A5
330
1F
100
AcDbEntity
  8
SPOJOVACÍ
  6
Continuous
100
AcDbLine
 10
5247.921576892574
 20
-2325.185699312011
 30
0.0
 11
5247.703915756526
 21
-2324.808047941065
 31
0.0
  0
LINE
  5
40A6
330
1F
100
AcDbEntity
  8
SPOJOVACÍ
  6
Continuous
100
AcDbLine
 10
5247.921576892574
 20
-2325.185699312011
 30
0.0
 11
5248.300158441404
 21
-2324.808047941065
 31
0.0
  0
LINE
  5
40A7
330
1F
100
AcDbEntity
  8
SPOJOVACÍ
  6
Continuous
100
AcDbLine
 10
5245.246391303811
 20
-2325.630323342216
 30
0.0
 11
5245.028730167763
 21
-2325.252671971271
 31
0.0
  0
LINE
  5
40A8
330
1F
100
AcDbEntity
  8
SPOJOVACÍ
  6
Continuous
100
AcDbLine
 10
5245.246391303811
 20
-2325.630323342216
 30
0.0
 11
5245.624972852917
 21
-2325.252671971271
 31
0.0
  0
LINE
  5
40A9
330
1F
100
AcDbEntity
  8
SPOJOVACÍ
  6
Continuous
100
AcDbLine
 10
5233.035973632784
 20
-2326.050762800901
 30
0.0
 11
5232.817382320757
 21
-2325.673111429956
 31
0.0
  0
LINE
  5
40AA
330
1F
100
AcDbEntity
  8
SPOJOVACÍ
  6
Continuous
100
AcDbLine
 10
5233.035973632784
 20
-2326.050762800901
 30
0.0
 11
5233.413625005635
 21
-2325.673111429956
 31
0.0
  0
LINE
  5
40AB
330
1F
100
AcDbEntity
  8
SPOJOVACÍ
  6
Continuous
100
AcDbLine
 10
5244.851996766414
 20
-2324.75502792006
 30
0.0
 11
5242.880954255127
 21
-2325.000594331528
 31
0.0
  0
LINE
  5
40AC
330
1F
100
AcDbEntity
  8
SPOJOVACÍ
  6
Continuous
100
AcDbLine
 10
5242.544230617244
 20
-2325.000594331528
 30
0.0
 11
5242.880954255127
 21
-2325.000594331528
 31
0.0
  0
LINE
  5
40AD
330
1F
100
AcDbEntity
  8
SPOJOVACÍ
  6
Continuous
100
AcDbLine
 10
5239.42163047063
 20
-2325.000594331528
 30
0.0
 11
5241.940546525659
 21
-2325.000594331528
 31
0.0
  0
LINE
  5
40AE
330
1F
100
AcDbEntity
  8
SPOJOVACÍ
  6
Continuous
100
AcDbLine
 10
5236.299960499988
 20
-2325.000594331528
 30
0.0
 11
5238.820736906697
 21
-2325.000594331528
 31
0.0
  0
LINE
  5
40AF
330
1F
100
AcDbEntity
  8
SPOJOVACÍ
  6
Continuous
100
AcDbLine
 10
5233.177360353645
 20
-2325.000594331528
 30
0.0
 11
5235.705578166514
 21
-2325.000594331528
 31
0.0
  0
LINE
  5
40B0
330
1F
100
AcDbEntity
  8
SPOJOVACÍ
  6
Continuous
100
AcDbLine
 10
5241.196405889192
 20
-2321.251055695053
 30
0.0
 11
5240.817824340086
 21
-2321.628707070364
 31
0.0
  0
LINE
  5
40B1
330
1F
100
AcDbEntity
  8
SPOJOVACÍ
  6
Continuous
100
AcDbLine
 10
5241.196405889192
 20
-2321.251055695053
 30
0.0
 11
5241.414067025241
 21
-2321.628707070364
 31
0.0
  0
LINE
  5
40B2
330
1F
100
AcDbEntity
  8
SPOJOVACÍ
  6
Continuous
100
AcDbLine
 10
5238.075666094252
 20
-2321.251055695053
 30
0.0
 11
5237.698014721124
 21
-2321.628707070364
 31
0.0
  0
LINE
  5
40B3
330
1F
100
AcDbEntity
  8
SPOJOVACÍ
  6
Continuous
100
AcDbLine
 10
5238.075666094252
 20
-2321.251055695053
 30
0.0
 11
5238.294257406272
 21
-2321.628707070364
 31
0.0
  0
LINE
  5
40B4
330
1F
100
AcDbEntity
  8
SPOJOVACÍ
  6
Continuous
100
AcDbLine
 10
5234.955856475283
 20
-2321.251055695053
 30
0.0
 11
5234.578205102155
 21
-2321.628707070364
 31
0.0
  0
LINE
  5
40B5
330
1F
100
AcDbEntity
  8
SPOJOVACÍ
  6
Continuous
100
AcDbLine
 10
5234.955856475283
 20
-2321.251055695053
 30
0.0
 11
5235.17444778731
 21
-2321.628707070364
 31
0.0
  0
LINE
  5
40B6
330
1F
100
AcDbEntity
  8
SPOJOVACÍ
  6
Continuous
100
AcDbLine
 10
5249.924245380995
 20
-2323.011878476996
 30
0.0
 11
5250.39491433358
 21
-2324.410862876562
 31
0.0
  0
LINE
  5
40B7
330
1F
100
AcDbEntity
  8
SPOJOVACÍ
  6
Continuous
100
AcDbLine
 10
5250.520488066143
 20
-2323.011878476996
 30
0.0
 11
5250.991157018727
 21
-2324.410862876562
 31
0.0
  0
LINE
  5
40B8
330
1F
100
AcDbEntity
  8
SPOJOVACÍ
  6
Continuous
100
AcDbLine
 10
5250.301896754123
 20
-2322.634227106051
 30
0.0
 11
5249.924245380995
 21
-2323.011878476996
 31
0.0
  0
LINE
  5
40B9
330
1F
100
AcDbEntity
  8
SPOJOVACÍ
  6
Continuous
100
AcDbLine
 10
5250.301896754123
 20
-2322.634227106051
 30
0.0
 11
5250.520488066143
 21
-2323.011878476996
 31
0.0
  0
LINE
  5
40BA
330
1F
100
AcDbEntity
  8
SPOJOVACÍ
  6
Continuous
100
AcDbLine
 10
5247.288127175804
 20
-2322.069610395579
 30
0.0
 11
5246.909545626698
 21
-2322.447261770891
 31
0.0
  0
LINE
  5
40BB
330
1F
100
AcDbEntity
  8
SPOJOVACÍ
  6
Continuous
100
AcDbLine
 10
5247.288127175804
 20
-2322.069610395579
 30
0.0
 11
5247.505788311852
 21
-2322.447261770891
 31
0.0
  0
LINE
  5
40BC
330
1F
100
AcDbEntity
  8
SPOJOVACÍ
  6
Continuous
100
AcDbLine
 10
5244.273427421506
 20
-2321.504993689474
 30
0.0
 11
5243.895776048378
 21
-2321.883575237758
 31
0.0
  0
LINE
  5
40BD
330
1F
100
AcDbEntity
  8
SPOJOVACÍ
  6
Continuous
100
AcDbLine
 10
5244.273427421506
 20
-2321.504993689474
 30
0.0
 11
5244.492018733533
 21
-2321.883575237758
 31
0.0
  0
LINE
  5
40BE
330
1F
100
AcDbEntity
  8
SPOJOVACÍ
  6
Continuous
100
AcDbLine
 10
5250.275851831744
 20
-2324.07692976633
 30
0.0
 11
5248.130866446761
 21
-2324.344820394641
 31
0.0
  0
LINE
  5
40BF
330
1F
100
AcDbEntity
  8
SPOJOVACÍ
  6
Continuous
100
AcDbLine
 10
5250.592111602276
 20
-2323.264886294079
 30
0.0
 11
5253.681225420081
 21
-2323.650909247977
 31
0.0
  0
LINE
  5
40C0
330
1F
100
AcDbEntity
  8
SPOJOVACÍ
  6
Continuous
100
AcDbLine
 10
5247.650895736066
 20
-2322.897466856399
 30
0.0
 11
5249.971684346422
 21
-2323.187681701552
 31
0.0
  0
LINE
  5
40C1
330
1F
100
AcDbEntity
  8
SPOJOVACÍ
  6
Continuous
100
AcDbLine
 10
5244.698517760337
 20
-2322.528187064041
 30
0.0
 11
5247.020236546402
 21
-2322.81840191356
 31
0.0
  0
LINE
  5
40C2
330
1F
100
AcDbEntity
  8
SPOJOVACÍ
  6
Continuous
100
AcDbLine
 10
5253.681225420081
 20
-2323.650909247977
 30
0.0
 11
5250.845119418812
 21
-2324.005306229106
 31
0.0
  0
LINE
  5
40C3
330
1F
100
AcDbEntity
  8
SPOJOVACÍ
  6
Continuous
100
AcDbLine
 10
5242.880954255127
 20
-2322.301224168792
 30
0.0
 11
5244.078090504483
 21
-2322.450982471515
 31
0.0
  0
LINE
  5
40C4
330
1F
100
AcDbEntity
  8
SPOJOVACÍ
  6
Continuous
100
AcDbLine
 10
5241.633588513238
 20
-2322.301224168792
 30
0.0
 11
5242.880954255127
 21
-2322.301224168792
 31
0.0
  0
LINE
  5
40C5
330
1F
100
AcDbEntity
  8
SPOJOVACÍ
  6
Continuous
100
AcDbLine
 10
5238.519359948757
 20
-2322.301224168792
 30
0.0
 11
5241.037345828083
 21
-2322.301224168792
 31
0.0
  0
LINE
  5
40C6
330
1F
100
AcDbEntity
  8
SPOJOVACÍ
  6
Continuous
100
AcDbLine
 10
5235.386527868602
 20
-2322.301224168792
 30
0.0
 11
5237.914745681471
 21
-2322.301224168792
 31
0.0
  0
LINE
  5
40C7
330
1F
100
AcDbEntity
  8
SPOJOVACÍ
  6
Continuous
100
AcDbLine
 10
5240.817824340086
 20
-2321.628707070364
 30
0.0
 11
5242.177741353629
 21
-2325.673111429956
 31
0.0
  0
LINE
  5
40C8
330
1F
100
AcDbEntity
  8
SPOJOVACÍ
  6
Continuous
100
AcDbLine
 10
5241.414067025241
 20
-2321.628707070364
 30
0.0
 11
5242.773984038783
 21
-2325.673111429956
 31
0.0
  0
LINE
  5
40C9
330
1F
100
AcDbEntity
  8
SPOJOVACÍ
  6
Continuous
100
AcDbLine
 10
5241.196405889192
 20
-2321.251055695053
 30
0.0
 11
5242.396332665655
 21
-2326.050762800901
 31
0.0
  0
LINE
  5
40CA
330
1F
100
AcDbEntity
  8
SPOJOVACÍ
  6
Continuous
100
AcDbLine
 10
5237.698014721124
 20
-2321.628707070364
 30
0.0
 11
5239.057931734667
 21
-2325.673111429956
 31
0.0
  0
LINE
  5
40CB
330
1F
100
AcDbEntity
  8
SPOJOVACÍ
  6
Continuous
100
AcDbLine
 10
5238.294257406272
 20
-2321.628707070364
 30
0.0
 11
5239.654174419545
 21
-2325.673111429956
 31
0.0
  0
LINE
  5
40CC
330
1F
100
AcDbEntity
  8
SPOJOVACÍ
  6
Continuous
100
AcDbLine
 10
5238.075666094252
 20
-2321.251055695053
 30
0.0
 11
5239.275592870715
 21
-2326.050762800901
 31
0.0
  0
LINE
  5
40CD
330
1F
100
AcDbEntity
  8
SPOJOVACÍ
  6
Continuous
100
AcDbLine
 10
5234.578205102155
 20
-2321.628707070364
 30
0.0
 11
5235.938122115427
 21
-2325.673111429956
 31
0.0
  0
LINE
  5
40CE
330
1F
100
AcDbEntity
  8
SPOJOVACÍ
  6
Continuous
100
AcDbLine
 10
5235.17444778731
 20
-2321.628707070364
 30
0.0
 11
5236.534364800576
 21
-2325.673111429956
 31
0.0
  0
LINE
  5
40CF
330
1F
100
AcDbEntity
  8
SPOJOVACÍ
  6
Continuous
100
AcDbLine
 10
5234.955856475283
 20
-2321.251055695053
 30
0.0
 11
5236.155783251746
 21
-2326.050762800901
 31
0.0
  0
LINE
  5
40D0
330
1F
100
AcDbEntity
  8
SPOJOVACÍ
  6
Continuous
100
AcDbLine
 10
5250.301896754123
 20
-2322.634227106051
 30
0.0
 11
5250.612575469897
 21
-2324.788514247507
 31
0.0
  0
LINE
  5
40D1
330
1F
100
AcDbEntity
  8
SPOJOVACÍ
  6
Continuous
100
AcDbLine
 10
5250.612575469897
 20
-2324.788514247507
 30
0.0
 11
5250.39491433358
 21
-2324.410862876562
 31
0.0
  0
LINE
  5
40D2
330
1F
100
AcDbEntity
  8
SPOJOVACÍ
  6
Continuous
100
AcDbLine
 10
5250.612575469897
 20
-2324.788514247507
 30
0.0
 11
5250.991157018727
 21
-2324.410862876562
 31
0.0
  0
LINE
  5
40D3
330
1F
100
AcDbEntity
  8
SPOJOVACÍ
  6
Continuous
100
AcDbLine
 10
5247.288127175804
 20
-2322.069610395579
 30
0.0
 11
5247.921576892574
 21
-2325.185699312011
 31
0.0
  0
LINE
  5
40D4
330
1F
100
AcDbEntity
  8
SPOJOVACÍ
  6
Continuous
100
AcDbLine
 10
5246.909545626698
 20
-2322.447261770891
 30
0.0
 11
5247.703915756526
 21
-2324.808047941065
 31
0.0
  0
LINE
  5
40D5
330
1F
100
AcDbEntity
  8
SPOJOVACÍ
  6
Continuous
100
AcDbLine
 10
5247.505788311852
 20
-2322.447261770891
 30
0.0
 11
5248.300158441404
 21
-2324.808047941065
 31
0.0
  0
LINE
  5
40D6
330
1F
100
AcDbEntity
  8
SPOJOVACÍ
  6
Continuous
100
AcDbLine
 10
5244.273427421506
 20
-2321.504993689474
 30
0.0
 11
5245.246391303811
 21
-2325.630323342216
 31
0.0
  0
LINE
  5
40D7
330
1F
100
AcDbEntity
  8
SPOJOVACÍ
  6
Continuous
100
AcDbLine
 10
5243.895776048378
 20
-2321.883575237758
 30
0.0
 11
5245.028730167763
 21
-2325.252671971271
 31
0.0
  0
LINE
  5
40D8
330
1F
100
AcDbEntity
  8
SPOJOVACÍ
  6
Continuous
100
AcDbLine
 10
5244.492018733533
 20
-2321.883575237758
 30
0.0
 11
5245.624972852917
 21
-2325.252671971271
 31
0.0
  0
LINE
  5
40D9
330
1F
100
AcDbEntity
  8
SPOJOVACÍ
  6
Continuous
100
AcDbLine
 10
5247.558808332311
 20
-2324.416443927499
 30
0.0
 11
5245.422194529458
 21
-2324.683404382836
 31
0.0
  0
LINE
  5
40DB
330
1F
100
AcDbEntity
  8
SPOJOVACÍ
  6
Continuous
100
AcDbLine
 10
5231.458395482917
 20
-2321.628707070364
 30
0.0
 11
5232.817382320757
 21
-2325.673111429956
 31
0.0
  0
LINE
  5
40DC
330
1F
100
AcDbEntity
  8
SPOJOVACÍ
  6
Continuous
100
AcDbLine
 10
5232.054638168071
 20
-2321.628707070364
 30
0.0
 11
5233.413625005635
 21
-2325.673111429956
 31
0.0
  0
LINE
  5
40DD
330
1F
100
AcDbEntity
  8
SPOJOVACÍ
  6
Continuous
100
AcDbLine
 10
5231.836046856045
 20
-2321.251055695053
 30
0.0
 11
5233.035973632784
 21
-2326.050762800901
 31
0.0
  0
LINE
  5
40DE
330
1F
100
AcDbEntity
  8
SPOJOVACÍ
  6
Continuous
100
AcDbLine
 10
5230.062201613461
 20
-2325.000594331528
 30
0.0
 11
5232.58111766849
 21
-2325.000594331528
 31
0.0
  0
LINE
  5
40DF
330
1F
100
AcDbEntity
  8
SPOJOVACÍ
  6
Continuous
100
AcDbLine
 10
5232.271369128418
 20
-2322.301224168792
 30
0.0
 11
5234.792145535127
 21
-2322.301224168792
 31
0.0
  0
LINE
  5
40E0
330
1F
100
AcDbEntity
  8
SPOJOVACÍ
100
AcDbLine
 10
5260.925913849688
 20
-2293.685662805845
 30
0.0
 11
5274.425913849689
 21
-2293.685662805845
 31
0.0
  0
LINE
  5
40E1
330
1F
100
AcDbEntity
  8
SPOJOVACÍ
100
AcDbLine
 10
5260.925913849688
 20
-2295.127251172315
 30
0.0
 11
5274.425913849689
 21
-2295.127251172315
 31
0.0
  0
LINE
  5
40E2
330
1F
100
AcDbEntity
  8
SPOJOVACÍ
100
AcDbLine
 10
5274.425913849689
 20
-2295.127251172315
 30
0.0
 11
5274.425913849689
 21
-2293.685662805845
 31
0.0
  0
LINE
  5
40E3
330
1F
100
AcDbEntity
  8
SPOJOVACÍ
100
AcDbLine
 10
5260.925913849688
 20
-2295.127251172315
 30
0.0
 11
5260.925913849688
 21
-2293.685662805845
 31
0.0
  0
LINE
  5
40E4
330
1F
100
AcDbEntity
  8
SPOJOVACÍ
100
AcDbLine
 10
5274.425913849689
 20
-2293.685662805845
 30
0.0
 11
5274.425913849689
 21
-2294.562573427979
 31
0.0
  0
LINE
  5
40E5
330
1F
100
AcDbEntity
  8
SPOJOVACÍ
100
AcDbLine
 10
5274.425913849689
 20
-2293.685662805845
 30
0.0
 11
5269.386851349688
 21
-2290.503028503267
 31
0.0
  0
LINE
  5
40E6
330
1F
100
AcDbEntity
  8
SPOJOVACÍ
  6
DASHED
100
AcDbLine
 10
5260.925913849688
 20
-2293.685662805845
 30
0.0
 11
5265.964976349688
 21
-2290.503028503271
 31
0.0
  0
LINE
  5
40E7
330
1F
100
AcDbEntity
  8
SPOJOVACÍ
100
AcDbLine
 10
5260.925913849688
 20
-2293.685662805845
 30
0.0
 11
5260.925913849688
 21
-2294.562573427979
 31
0.0
  0
LINE
  5
40E8
330
1F
100
AcDbEntity
  8
SPOJOVACÍ
100
AcDbLine
 10
5260.925913849688
 20
-2294.562573427979
 30
0.0
 11
5260.925913849688
 21
-2293.685662805845
 31
0.0
  0
LINE
  5
40E9
330
1F
100
AcDbEntity
  8
SPOJOVACÍ
  6
Continuous
100
AcDbLine
 10
5265.277708457263
 20
-2289.547724090474
 30
0.0
 11
5270.074119252468
 21
-2287.934947507227
 31
0.0
  0
LINE
  5
40EA
330
1F
100
AcDbEntity
  8
SPOJOVACÍ
  6
Continuous
100
AcDbLine
 10
5265.277708457263
 20
-2288.840617531049
 30
0.0
 11
5270.074119252468
 21
-2287.227840947806
 31
0.0
  0
LINE
  5
40EB
330
1F
100
AcDbEntity
  8
SPOJOVACÍ
  6
Continuous
100
AcDbLine
 10
5270.521990175198
 20
-2287.675711873126
 30
0.0
 11
5270.074119252468
 21
-2287.934947507227
 31
0.0
  0
LINE
  5
40EC
330
1F
100
AcDbEntity
  8
SPOJOVACÍ
  6
Continuous
100
AcDbLine
 10
5270.521990175198
 20
-2287.675711873126
 30
0.0
 11
5270.074119252468
 21
-2287.227840947806
 31
0.0
  0
LINE
  5
40ED
330
1F
100
AcDbEntity
  8
SPOJOVACÍ
  6
Continuous
100
AcDbLine
 10
5264.829837529355
 20
-2289.098750034584
 30
0.0
 11
5265.277708457263
 21
-2289.547724090474
 31
0.0
  0
LINE
  5
40EE
330
1F
100
AcDbEntity
  8
SPOJOVACÍ
  6
Continuous
100
AcDbLine
 10
5264.829837529355
 20
-2289.098750034584
 30
0.0
 11
5265.277708457263
 21
-2288.840617531049
 31
0.0
  0
LINE
  5
40EF
330
1F
100
AcDbEntity
  8
SPOJOVACÍ
  6
Continuous
100
AcDbLine
 10
5264.829837529355
 20
-2289.098750034584
 30
0.0
 11
5270.521990175198
 21
-2287.675711873126
 31
0.0
  0
LINE
  5
40F0
330
1F
100
AcDbEntity
  8
SPOJOVACÍ
  6
Continuous
100
AcDbLine
 10
5265.277708457263
 20
-2286.151734176223
 30
0.0
 11
5270.074119252468
 21
-2284.538957592977
 31
0.0
  0
LINE
  5
40F1
330
1F
100
AcDbEntity
  8
SPOJOVACÍ
  6
Continuous
100
AcDbLine
 10
5265.277708457263
 20
-2285.444627616799
 30
0.0
 11
5270.074119252468
 21
-2283.831851033556
 31
0.0
  0
LINE
  5
40F2
330
1F
100
AcDbEntity
  8
SPOJOVACÍ
  6
Continuous
100
AcDbLine
 10
5270.521990175198
 20
-2284.279721958876
 30
0.0
 11
5270.074119252468
 21
-2284.538957592977
 31
0.0
  0
LINE
  5
40F3
330
1F
100
AcDbEntity
  8
SPOJOVACÍ
  6
Continuous
100
AcDbLine
 10
5270.521990175198
 20
-2284.279721958876
 30
0.0
 11
5270.074119252468
 21
-2283.831851033556
 31
0.0
  0
LINE
  5
40F4
330
1F
100
AcDbEntity
  8
SPOJOVACÍ
  6
Continuous
100
AcDbLine
 10
5264.829837529355
 20
-2285.702760120334
 30
0.0
 11
5265.277708457263
 21
-2286.151734176223
 31
0.0
  0
LINE
  5
40F5
330
1F
100
AcDbEntity
  8
SPOJOVACÍ
  6
Continuous
100
AcDbLine
 10
5264.829837529355
 20
-2285.702760120334
 30
0.0
 11
5265.277708457263
 21
-2285.444627616799
 31
0.0
  0
LINE
  5
40F6
330
1F
100
AcDbEntity
  8
SPOJOVACÍ
  6
Continuous
100
AcDbLine
 10
5264.829837529355
 20
-2285.702760120334
 30
0.0
 11
5270.521990175198
 21
-2284.279721958876
 31
0.0
  0
LINE
  5
40F7
330
1F
100
AcDbEntity
  8
SPOJOVACÍ
  6
Continuous
100
AcDbLine
 10
5257.610023892171
 20
-2138.298743776894
 30
0.0
 11
5257.610023892171
 21
-2138.635467414777
 31
0.0
  0
LINE
  5
40F8
330
1F
100
AcDbEntity
  8
SPOJOVACÍ
  6
Continuous
100
AcDbLine
 10
5254.910653729435
 20
-2138.635467414777
 30
0.0
 11
5255.060412032158
 21
-2139.832603664134
 31
0.0
  0
LINE
  5
40F9
330
1F
100
AcDbEntity
  8
SPOJOVACÍ
  6
Continuous
100
AcDbLine
 10
5256.26033880862
 20
-2149.435738579731
 30
0.0
 11
5256.614735789749
 21
-2146.599632578462
 31
0.0
  0
LINE
  5
40FA
330
1F
100
AcDbEntity
  8
SPOJOVACÍ
  6
Continuous
100
AcDbLine
 10
5255.137616624684
 20
-2140.453030919988
 30
0.0
 11
5255.427831474204
 21
-2142.774749706052
 31
0.0
  0
LINE
  5
40FB
330
1F
100
AcDbEntity
  8
SPOJOVACÍ
  6
Continuous
100
AcDbLine
 10
5255.506896417042
 20
-2143.405408895717
 30
0.0
 11
5255.797111262196
 21
-2145.726197506073
 31
0.0
  0
LINE
  5
40FC
330
1F
100
AcDbEntity
  8
SPOJOVACÍ
  6
Continuous
100
AcDbLine
 10
5255.874315854722
 20
-2146.346624761926
 30
0.0
 11
5256.26033880862
 21
-2149.435738579731
 31
0.0
  0
LINE
  5
40FD
330
1F
100
AcDbEntity
  8
SPOJOVACÍ
  6
Continuous
100
AcDbLine
 10
5256.686359326973
 20
-2146.030364991395
 30
0.0
 11
5256.954249955284
 21
-2143.885379606411
 31
0.0
  0
LINE
  5
40FE
330
1F
100
AcDbEntity
  8
SPOJOVACÍ
  6
Continuous
100
AcDbLine
 10
5257.025873488142
 20
-2143.313321491962
 30
0.0
 11
5257.29283394348
 21
-2141.176707689109
 31
0.0
  0
LINE
  5
40FF
330
1F
100
AcDbEntity
  8
SPOJOVACÍ
  6
Continuous
100
AcDbLine
 10
5257.364457480703
 20
-2140.606509926064
 30
0.0
 11
5257.610023892171
 21
-2138.635467414777
 31
0.0
  0
LINE
  5
4100
330
1F
100
AcDbEntity
  8
SPOJOVACÍ
  6
Continuous
100
AcDbLine
 10
5254.114423250117
 20
-2140.027940581157
 30
0.0
 11
5254.493004798401
 21
-2140.246531893183
 31
0.0
  0
LINE
  5
4101
330
1F
100
AcDbEntity
  8
SPOJOVACÍ
  6
Continuous
100
AcDbLine
 10
5254.114423250117
 20
-2140.027940581157
 30
0.0
 11
5254.493004798401
 21
-2139.650289208029
 31
0.0
  0
LINE
  5
4102
330
1F
100
AcDbEntity
  8
SPOJOVACÍ
  6
Continuous
100
AcDbLine
 10
5258.239752902859
 20
-2141.000904463461
 30
0.0
 11
5257.862101531914
 21
-2141.379486012568
 31
0.0
  0
LINE
  5
4103
330
1F
100
AcDbEntity
  8
SPOJOVACÍ
  6
Continuous
100
AcDbLine
 10
5258.239752902859
 20
-2141.000904463461
 30
0.0
 11
5257.862101531914
 21
-2140.783243327413
 31
0.0
  0
LINE
  5
4104
330
1F
100
AcDbEntity
  8
SPOJOVACÍ
  6
Continuous
100
AcDbLine
 10
5254.493004798401
 20
-2140.246531893183
 30
0.0
 11
5257.862101531914
 21
-2141.379486012568
 31
0.0
  0
LINE
  5
4105
330
1F
100
AcDbEntity
  8
SPOJOVACÍ
  6
Continuous
100
AcDbLine
 10
5254.493004798401
 20
-2139.650289208029
 30
0.0
 11
5257.862101531914
 21
-2140.783243327413
 31
0.0
  0
LINE
  5
4106
330
1F
100
AcDbEntity
  8
SPOJOVACÍ
  6
Continuous
100
AcDbLine
 10
5254.114423250117
 20
-2140.027940581157
 30
0.0
 11
5258.239752902859
 21
-2141.000904463461
 31
0.0
  0
LINE
  5
4107
330
1F
100
AcDbEntity
  8
SPOJOVACÍ
  6
Continuous
100
AcDbLine
 10
5254.679039956222
 20
-2143.042640335454
 30
0.0
 11
5255.056691331533
 21
-2143.260301471503
 31
0.0
  0
LINE
  5
4108
330
1F
100
AcDbEntity
  8
SPOJOVACÍ
  6
Continuous
100
AcDbLine
 10
5254.679039956222
 20
-2143.042640335454
 30
0.0
 11
5255.056691331533
 21
-2142.664058786348
 31
0.0
  0
LINE
  5
4109
330
1F
100
AcDbEntity
  8
SPOJOVACÍ
  6
Continuous
100
AcDbLine
 10
5257.795128872654
 20
-2143.676090052224
 30
0.0
 11
5257.417477501708
 21
-2144.054671601054
 31
0.0
  0
LINE
  5
410A
330
1F
100
AcDbEntity
  8
SPOJOVACÍ
  6
Continuous
100
AcDbLine
 10
5257.795128872654
 20
-2143.676090052224
 30
0.0
 11
5257.417477501708
 21
-2143.458428916176
 31
0.0
  0
LINE
  5
410B
330
1F
100
AcDbEntity
  8
SPOJOVACÍ
  6
Continuous
100
AcDbLine
 10
5255.056691331533
 20
-2143.260301471503
 30
0.0
 11
5257.417477501708
 21
-2144.054671601054
 31
0.0
  0
LINE
  5
410C
330
1F
100
AcDbEntity
  8
SPOJOVACÍ
  6
Continuous
100
AcDbLine
 10
5255.056691331533
 20
-2142.664058786348
 30
0.0
 11
5257.417477501708
 21
-2143.458428916176
 31
0.0
  0
LINE
  5
410D
330
1F
100
AcDbEntity
  8
SPOJOVACÍ
  6
Continuous
100
AcDbLine
 10
5254.679039956222
 20
-2143.042640335454
 30
0.0
 11
5257.795128872654
 21
-2143.676090052224
 31
0.0
  0
LINE
  5
410E
330
1F
100
AcDbEntity
  8
SPOJOVACÍ
  6
Continuous
100
AcDbLine
 10
5255.243656666694
 20
-2146.056409913774
 30
0.0
 11
5255.621308037639
 21
-2146.275001225793
 31
0.0
  0
LINE
  5
410F
330
1F
100
AcDbEntity
  8
SPOJOVACÍ
  6
Continuous
100
AcDbLine
 10
5255.243656666694
 20
-2146.056409913774
 30
0.0
 11
5255.621308037639
 21
-2145.678758540646
 31
0.0
  0
LINE
  5
4110
330
1F
100
AcDbEntity
  8
SPOJOVACÍ
  6
Continuous
100
AcDbLine
 10
5257.39794380815
 20
-2146.367088629548
 30
0.0
 11
5257.020292437205
 21
-2146.745670178378
 31
0.0
  0
LINE
  5
4111
330
1F
100
AcDbEntity
  8
SPOJOVACÍ
  6
Continuous
100
AcDbLine
 10
5257.39794380815
 20
-2146.367088629548
 30
0.0
 11
5257.020292437205
 21
-2146.14942749323
 31
0.0
  0
LINE
  5
4112
330
1F
100
AcDbEntity
  8
SPOJOVACÍ
  6
Continuous
100
AcDbLine
 10
5255.621308037639
 20
-2146.275001225793
 30
0.0
 11
5257.020292437205
 21
-2146.745670178378
 31
0.0
  0
LINE
  5
4113
330
1F
100
AcDbEntity
  8
SPOJOVACÍ
  6
Continuous
100
AcDbLine
 10
5255.621308037639
 20
-2145.678758540646
 30
0.0
 11
5257.020292437205
 21
-2146.14942749323
 31
0.0
  0
LINE
  5
4114
330
1F
100
AcDbEntity
  8
SPOJOVACÍ
  6
Continuous
100
AcDbLine
 10
5255.243656666694
 20
-2146.056409913774
 30
0.0
 11
5257.39794380815
 21
-2146.367088629548
 31
0.0
  0
LINE
  5
4115
330
1F
100
AcDbEntity
  8
SPOJOVACÍ
  6
Continuous
100
AcDbLine
 10
5258.660192361545
 20
-2138.150845825305
 30
0.0
 11
5258.282540990599
 21
-2138.528497198433
 31
0.0
  0
LINE
  5
4116
330
1F
100
AcDbEntity
  8
SPOJOVACÍ
  6
Continuous
100
AcDbLine
 10
5264.829837529355
 20
-2282.306770206084
 30
0.0
 11
5265.277708457263
 21
-2282.048637702549
 31
0.0
  0
LINE
  5
4117
330
1F
100
AcDbEntity
  8
SPOJOVACÍ
  6
Continuous
100
AcDbLine
 10
5264.829837529355
 20
-2282.306770206084
 30
0.0
 11
5265.277708457263
 21
-2282.755744261973
 31
0.0
  0
LINE
  5
4118
330
1F
100
AcDbEntity
  8
SPOJOVACÍ
  6
Continuous
100
AcDbLine
 10
5264.829837526767
 20
-2275.514790378453
 30
0.0
 11
5270.52199017261
 21
-2274.091752216996
 31
0.0
  0
LINE
  5
4119
330
1F
100
AcDbEntity
  8
SPOJOVACÍ
  6
Continuous
100
AcDbLine
 10
5264.829837526767
 20
-2275.514790378453
 30
0.0
 11
5265.277708454675
 21
-2275.256657874918
 31
0.0
  0
LINE
  5
411A
330
1F
100
AcDbEntity
  8
SPOJOVACÍ
  6
Continuous
100
AcDbLine
 10
5264.829837526767
 20
-2275.514790378453
 30
0.0
 11
5265.277708454675
 21
-2275.963764434342
 31
0.0
  0
LINE
  5
411B
330
1F
100
AcDbEntity
  8
SPOJOVACÍ
  6
Continuous
100
AcDbLine
 10
5270.52199017261
 20
-2274.091752216996
 30
0.0
 11
5270.07411924988
 21
-2273.643881291675
 31
0.0
  0
LINE
  5
411C
330
1F
100
AcDbEntity
  8
SPOJOVACÍ
  6
Continuous
100
AcDbLine
 10
5270.52199017261
 20
-2274.091752216996
 30
0.0
 11
5270.07411924988
 21
-2274.350987851096
 31
0.0
  0
LINE
  5
411D
330
1F
100
AcDbEntity
  8
SPOJOVACÍ
  6
Continuous
100
AcDbLine
 10
5265.277708454675
 20
-2275.256657874918
 30
0.0
 11
5270.07411924988
 21
-2273.643881291675
 31
0.0
  0
LINE
  5
411E
330
1F
100
AcDbEntity
  8
SPOJOVACÍ
  6
Continuous
100
AcDbLine
 10
5265.277708454675
 20
-2275.963764434342
 30
0.0
 11
5270.07411924988
 21
-2274.350987851096
 31
0.0
  0
LINE
  5
411F
330
1F
100
AcDbEntity
  8
SPOJOVACÍ
  6
Continuous
100
AcDbLine
 10
5264.829837526767
 20
-2278.910780292703
 30
0.0
 11
5270.52199017261
 21
-2277.487742131245
 31
0.0
  0
LINE
  5
4120
330
1F
100
AcDbEntity
  8
SPOJOVACÍ
  6
Continuous
100
AcDbLine
 10
5264.829837526767
 20
-2278.910780292703
 30
0.0
 11
5265.277708454675
 21
-2278.652647789168
 31
0.0
  0
LINE
  5
4121
330
1F
100
AcDbEntity
  8
SPOJOVACÍ
  6
Continuous
100
AcDbLine
 10
5264.829837526767
 20
-2278.910780292703
 30
0.0
 11
5265.277708454675
 21
-2279.359754348593
 31
0.0
  0
LINE
  5
4122
330
1F
100
AcDbEntity
  8
SPOJOVACÍ
  6
Continuous
100
AcDbLine
 10
5270.52199017261
 20
-2277.487742131245
 30
0.0
 11
5270.07411924988
 21
-2277.039871205925
 31
0.0
  0
LINE
  5
4123
330
1F
100
AcDbEntity
  8
SPOJOVACÍ
  6
Continuous
100
AcDbLine
 10
5270.52199017261
 20
-2277.487742131245
 30
0.0
 11
5270.07411924988
 21
-2277.746977765346
 31
0.0
  0
LINE
  5
4124
330
1F
100
AcDbEntity
  8
SPOJOVACÍ
  6
Continuous
100
AcDbLine
 10
5265.277708454675
 20
-2278.652647789168
 30
0.0
 11
5270.07411924988
 21
-2277.039871205925
 31
0.0
  0
LINE
  5
4125
330
1F
100
AcDbEntity
  8
SPOJOVACÍ
  6
Continuous
100
AcDbLine
 10
5265.277708454675
 20
-2279.359754348593
 30
0.0
 11
5270.07411924988
 21
-2277.746977765346
 31
0.0
  0
LINE
  5
4126
330
1F
100
AcDbEntity
  8
SPOJOVACÍ
  6
Continuous
100
AcDbLine
 10
5265.277708454675
 20
-2272.567774520092
 30
0.0
 11
5270.07411924988
 21
-2270.954997936847
 31
0.0
  0
LINE
  5
4127
330
1F
100
AcDbEntity
  8
SPOJOVACÍ
  6
Continuous
100
AcDbLine
 10
5265.277708454675
 20
-2271.860667960668
 30
0.0
 11
5270.07411924988
 21
-2270.247891377425
 31
0.0
  0
LINE
  5
4128
330
1F
100
AcDbEntity
  8
SPOJOVACÍ
  6
Continuous
100
AcDbLine
 10
5270.52199017261
 20
-2270.695762302745
 30
0.0
 11
5270.07411924988
 21
-2270.954997936847
 31
0.0
  0
LINE
  5
4129
330
1F
100
AcDbEntity
  8
SPOJOVACÍ
  6
Continuous
100
AcDbLine
 10
5270.52199017261
 20
-2270.695762302745
 30
0.0
 11
5270.07411924988
 21
-2270.247891377425
 31
0.0
  0
LINE
  5
412A
330
1F
100
AcDbEntity
  8
SPOJOVACÍ
  6
Continuous
100
AcDbLine
 10
5264.829837526767
 20
-2272.118800464203
 30
0.0
 11
5265.277708454675
 21
-2272.567774520092
 31
0.0
  0
LINE
  5
412B
330
1F
100
AcDbEntity
  8
SPOJOVACÍ
  6
Continuous
100
AcDbLine
 10
5264.829837526767
 20
-2272.118800464203
 30
0.0
 11
5265.277708454675
 21
-2271.860667960668
 31
0.0
  0
LINE
  5
412C
330
1F
100
AcDbEntity
  8
SPOJOVACÍ
  6
Continuous
100
AcDbLine
 10
5264.829837526767
 20
-2272.118800464203
 30
0.0
 11
5270.52199017261
 21
-2270.695762302745
 31
0.0
  0
LINE
  5
412D
330
1F
100
AcDbEntity
  8
SPOJOVACÍ
  6
Continuous
100
AcDbLine
 10
5265.277708454675
 20
-2269.171784605843
 30
0.0
 11
5270.07411924988
 21
-2267.559008022596
 31
0.0
  0
LINE
  5
412E
330
1F
100
AcDbEntity
  8
SPOJOVACÍ
  6
Continuous
100
AcDbLine
 10
5265.277708454675
 20
-2268.464678046418
 30
0.0
 11
5270.07411924988
 21
-2266.851901463175
 31
0.0
  0
LINE
  5
412F
330
1F
100
AcDbEntity
  8
SPOJOVACÍ
  6
Continuous
100
AcDbLine
 10
5270.52199017261
 20
-2267.299772388495
 30
0.0
 11
5270.07411924988
 21
-2267.559008022596
 31
0.0
  0
LINE
  5
4130
330
1F
100
AcDbEntity
  8
SPOJOVACÍ
  6
Continuous
100
AcDbLine
 10
5270.52199017261
 20
-2267.299772388495
 30
0.0
 11
5270.07411924988
 21
-2266.851901463175
 31
0.0
  0
LINE
  5
4131
330
1F
100
AcDbEntity
  8
SPOJOVACÍ
  6
Continuous
100
AcDbLine
 10
5264.829837526767
 20
-2268.722810549953
 30
0.0
 11
5265.277708454675
 21
-2269.171784605843
 31
0.0
  0
LINE
  5
4132
330
1F
100
AcDbEntity
  8
SPOJOVACÍ
  6
Continuous
100
AcDbLine
 10
5264.829837526767
 20
-2268.722810549953
 30
0.0
 11
5265.277708454675
 21
-2268.464678046418
 31
0.0
  0
LINE
  5
4133
330
1F
100
AcDbEntity
  8
SPOJOVACÍ
  6
Continuous
100
AcDbLine
 10
5264.829837526767
 20
-2268.722810549953
 30
0.0
 11
5270.52199017261
 21
-2267.299772388495
 31
0.0
  0
LINE
  5
4134
330
1F
100
AcDbEntity
  8
SPOJOVACÍ
  6
Continuous
100
AcDbLine
 10
5264.829837526767
 20
-2264.207981842364
 30
0.0
 11
5265.277708454675
 21
-2263.949849338829
 31
0.0
  0
LINE
  5
4135
330
1F
100
AcDbEntity
  8
SPOJOVACÍ
  6
Continuous
100
AcDbLine
 10
5264.829837526767
 20
-2264.207981842364
 30
0.0
 11
5265.277708454675
 21
-2264.656955898253
 31
0.0
  0
LINE
  5
4136
330
1F
100
AcDbEntity
  8
SPOJOVACÍ
  6
Continuous
100
AcDbLine
 10
5270.521990175198
 20
-2280.883732044626
 30
0.0
 11
5270.074119252468
 21
-2280.435861119306
 31
0.0
  0
LINE
  5
4137
330
1F
100
AcDbEntity
  8
SPOJOVACÍ
  6
Continuous
100
AcDbLine
 10
5270.521990175198
 20
-2280.883732044626
 30
0.0
 11
5270.074119252468
 21
-2281.142967678727
 31
0.0
  0
LINE
  5
4138
330
1F
100
AcDbEntity
  8
SPOJOVACÍ
  6
Continuous
100
AcDbLine
 10
5270.52199017261
 20
-2262.784943680906
 30
0.0
 11
5270.07411924988
 21
-2262.337072755586
 31
0.0
  0
LINE
  5
4139
330
1F
100
AcDbEntity
  8
SPOJOVACÍ
  6
Continuous
100
AcDbLine
 10
5270.52199017261
 20
-2262.784943680906
 30
0.0
 11
5270.07411924988
 21
-2263.044179315007
 31
0.0
  0
LINE
  5
413A
330
1F
100
AcDbEntity
  8
SPOJOVACÍ
  6
DASHED
100
AcDbLine
 10
5267.675913849688
 20
-2250.322778800394
 30
0.0
 11
5269.386851349688
 21
-2263.028038924088
 31
0.0
  0
LINE
  5
413B
330
1F
100
AcDbEntity
  8
SPOJOVACÍ
  6
DASHED
100
AcDbLine
 10
5267.675913849688
 20
-2250.322778800394
 30
0.0
 11
5265.964976349688
 21
-2263.028038924088
 31
0.0
  0
LINE
  5
413C
330
1F
100
AcDbEntity
  8
SPOJOVACÍ
  6
Continuous
100
AcDbLine
 10
5265.277708454675
 20
-2261.260965984003
 30
0.0
 11
5270.07411924988
 21
-2259.648189400757
 31
0.0
  0
LINE
  5
413D
330
1F
100
AcDbEntity
  8
SPOJOVACÍ
  6
Continuous
100
AcDbLine
 10
5265.277708454675
 20
-2260.553859424578
 30
0.0
 11
5270.07411924988
 21
-2258.941082841336
 31
0.0
  0
LINE
  5
413E
330
1F
100
AcDbEntity
  8
SPOJOVACÍ
  6
Continuous
100
AcDbLine
 10
5270.52199017261
 20
-2259.388953766656
 30
0.0
 11
5270.07411924988
 21
-2259.648189400757
 31
0.0
  0
LINE
  5
413F
330
1F
100
AcDbEntity
  8
SPOJOVACÍ
  6
Continuous
100
AcDbLine
 10
5270.52199017261
 20
-2259.388953766656
 30
0.0
 11
5270.07411924988
 21
-2258.941082841336
 31
0.0
  0
LINE
  5
4140
330
1F
100
AcDbEntity
  8
SPOJOVACÍ
  6
Continuous
100
AcDbLine
 10
5264.829837526767
 20
-2260.811991928114
 30
0.0
 11
5265.277708454675
 21
-2261.260965984003
 31
0.0
  0
LINE
  5
4141
330
1F
100
AcDbEntity
  8
SPOJOVACÍ
  6
Continuous
100
AcDbLine
 10
5264.829837526767
 20
-2260.811991928114
 30
0.0
 11
5265.277708454675
 21
-2260.553859424578
 31
0.0
  0
LINE
  5
4142
330
1F
100
AcDbEntity
  8
SPOJOVACÍ
  6
Continuous
100
AcDbLine
 10
5264.829837526767
 20
-2260.811991928114
 30
0.0
 11
5270.52199017261
 21
-2259.388953766656
 31
0.0
  0
LINE
  5
4143
330
1F
100
AcDbEntity
  8
SPOJOVACÍ
  6
Continuous
100
AcDbLine
 10
5266.627460390827
 20
-2251.329147637037
 30
0.0
 11
5268.849069005455
 21
-2251.008760211394
 31
0.0
  0
LINE
  5
4144
330
1F
100
AcDbEntity
  8
SPOJOVACÍ
  6
Continuous
100
AcDbLine
 10
5267.016913367115
 20
-2251.718600615573
 30
0.0
 11
5268.459616029167
 21
-2251.233223258224
 31
0.0
  0
LINE
  5
4145
330
1F
100
AcDbEntity
  8
SPOJOVACÍ
  6
Continuous
100
AcDbLine
 10
5267.016913367115
 20
-2251.103725346516
 30
0.0
 11
5268.459616029167
 21
-2250.61834798916
 31
0.0
  0
LINE
  5
4146
330
1F
100
AcDbEntity
  8
SPOJOVACÍ
  6
Continuous
100
AcDbLine
 10
5268.849069005455
 20
-2251.008760211394
 30
0.0
 11
5268.459616029167
 21
-2251.233223258224
 31
0.0
  0
LINE
  5
4147
330
1F
100
AcDbEntity
  8
SPOJOVACÍ
  6
Continuous
100
AcDbLine
 10
5268.849069005455
 20
-2251.008760211394
 30
0.0
 11
5268.459616029167
 21
-2250.61834798916
 31
0.0
  0
LINE
  5
4148
330
1F
100
AcDbEntity
  8
SPOJOVACÍ
  6
Continuous
100
AcDbLine
 10
5266.627460390827
 20
-2251.329147637037
 30
0.0
 11
5267.016913367115
 21
-2251.718600615573
 31
0.0
  0
LINE
  5
4149
330
1F
100
AcDbEntity
  8
SPOJOVACÍ
  6
Continuous
100
AcDbLine
 10
5266.627460390827
 20
-2251.329147637037
 30
0.0
 11
5267.016913367115
 21
-2251.103725346516
 31
0.0
  0
LINE
  5
414A
330
1F
100
AcDbEntity
  8
SPOJOVACÍ
  6
Continuous
100
AcDbLine
 10
5266.045199408154
 20
-2254.437097514679
 30
0.0
 11
5269.258666103223
 21
-2253.783852494261
 31
0.0
  0
LINE
  5
414B
330
1F
100
AcDbEntity
  8
SPOJOVACÍ
  6
Continuous
100
AcDbLine
 10
5266.434652388943
 20
-2254.827509737193
 30
0.0
 11
5268.869213126936
 21
-2254.008315540808
 31
0.0
  0
LINE
  5
414C
330
1F
100
AcDbEntity
  8
SPOJOVACÍ
  6
Continuous
100
AcDbLine
 10
5266.434652388943
 20
-2254.212634468129
 30
0.0
 11
5268.869213126936
 21
-2253.393440272031
 31
0.0
  0
LINE
  5
414D
330
1F
100
AcDbEntity
  8
SPOJOVACÍ
  6
Continuous
100
AcDbLine
 10
5269.258666103223
 20
-2253.783852494261
 30
0.0
 11
5268.869213126936
 21
-2254.008315540808
 31
0.0
  0
LINE
  5
414E
330
1F
100
AcDbEntity
  8
SPOJOVACÍ
  6
Continuous
100
AcDbLine
 10
5269.258666103223
 20
-2253.783852494261
 30
0.0
 11
5268.869213126936
 21
-2253.393440272031
 31
0.0
  0
LINE
  5
414F
330
1F
100
AcDbEntity
  8
SPOJOVACÍ
  6
Continuous
100
AcDbLine
 10
5266.045199408154
 20
-2254.437097514679
 30
0.0
 11
5266.434652388943
 21
-2254.827509737193
 31
0.0
  0
LINE
  5
4150
330
1F
100
AcDbEntity
  8
SPOJOVACÍ
  6
Continuous
100
AcDbLine
 10
5266.045199408154
 20
-2254.437097514679
 30
0.0
 11
5266.434652388943
 21
-2254.212634468129
 31
0.0
  0
LINE
  5
4151
330
1F
100
AcDbEntity
  8
SPOJOVACÍ
  6
Continuous
100
AcDbLine
 10
5265.462938429982
 20
-2257.546006636299
 30
0.0
 11
5269.717184634373
 21
-2256.54263763267
 31
0.0
  0
LINE
  5
4152
330
1F
100
AcDbEntity
  8
SPOJOVACÍ
  6
Continuous
100
AcDbLine
 10
5265.853350651649
 20
-2257.935459614838
 30
0.0
 11
5269.327731658085
 21
-2256.76710067922
 31
0.0
  0
LINE
  5
4153
330
1F
100
AcDbEntity
  8
SPOJOVACÍ
  6
Continuous
100
AcDbLine
 10
5265.853350651649
 20
-2257.320584345771
 30
0.0
 11
5269.327731658085
 21
-2256.152225410156
 31
0.0
  0
LINE
  5
4154
330
1F
100
AcDbEntity
  8
SPOJOVACÍ
  6
Continuous
100
AcDbLine
 10
5269.717184634373
 20
-2256.54263763267
 30
0.0
 11
5269.327731658085
 21
-2256.76710067922
 31
0.0
  0
LINE
  5
4155
330
1F
100
AcDbEntity
  8
SPOJOVACÍ
  6
Continuous
100
AcDbLine
 10
5269.717184634373
 20
-2256.54263763267
 30
0.0
 11
5269.327731658085
 21
-2256.152225410156
 31
0.0
  0
LINE
  5
4156
330
1F
100
AcDbEntity
  8
SPOJOVACÍ
  6
Continuous
100
AcDbLine
 10
5265.462938429982
 20
-2257.546006636299
 30
0.0
 11
5265.853350651649
 21
-2257.935459614838
 31
0.0
  0
LINE
  5
4157
330
1F
100
AcDbEntity
  8
SPOJOVACÍ
  6
Continuous
100
AcDbLine
 10
5265.462938429982
 20
-2257.546006636299
 30
0.0
 11
5265.853350651649
 21
-2257.320584345771
 31
0.0
  0
LINE
  5
4158
330
1F
100
AcDbEntity
  8
SPOJOVACÍ
  6
Continuous
100
AcDbLine
 10
5264.829837526767
 20
-2264.207981842364
 30
0.0
 11
5270.52199017261
 21
-2262.784943680906
 31
0.0
  0
LINE
  5
4159
330
1F
100
AcDbEntity
  8
SPOJOVACÍ
  6
Continuous
100
AcDbLine
 10
5265.277708454675
 20
-2263.949849338829
 30
0.0
 11
5270.07411924988
 21
-2262.337072755586
 31
0.0
  0
LINE
  5
415A
330
1F
100
AcDbEntity
  8
SPOJOVACÍ
  6
Continuous
100
AcDbLine
 10
5265.277708454675
 20
-2264.656955898253
 30
0.0
 11
5270.07411924988
 21
-2263.044179315007
 31
0.0
  0
LINE
  5
415B
330
1F
100
AcDbEntity
  8
SPOJOVACÍ
  6
Continuous
100
AcDbLine
 10
5264.829837529355
 20
-2282.306770206084
 30
0.0
 11
5270.521990175198
 21
-2280.883732044626
 31
0.0
  0
LINE
  5
415C
330
1F
100
AcDbEntity
  8
SPOJOVACÍ
  6
Continuous
100
AcDbLine
 10
5265.277708457263
 20
-2282.048637702549
 30
0.0
 11
5270.074119252468
 21
-2280.435861119306
 31
0.0
  0
LINE
  5
415D
330
1F
100
AcDbEntity
  8
SPOJOVACÍ
  6
Continuous
100
AcDbLine
 10
5265.277708457263
 20
-2282.755744261973
 30
0.0
 11
5270.074119252468
 21
-2281.142967678727
 31
0.0
  0
LINE
  5
415E
330
1F
100
AcDbEntity
  8
SPOJOVACÍ
  6
Continuous
100
AcDbLine
 10
5288.353374711546
 20
-2283.068313062308
 30
0.0
 11
5288.966360560694
 21
-2284.482180272011
 31
0.0
  0
LINE
  5
415F
330
1F
100
AcDbEntity
  8
SPOJOVACÍ
  6
Continuous
100
AcDbLine
 10
5284.933118311705
 20
-2283.812453699051
 30
0.0
 11
5285.360999176005
 21
-2282.331613832
 31
0.0
  0
LINE
  5
4160
330
1F
100
AcDbEntity
  8
SPOJOVACÍ
  6
Continuous
100
AcDbLine
 10
5283.026257932029
 20
-2286.200214966761
 30
0.0
 11
5284.136887832388
 21
-2285.131442977348
 31
0.0
  0
LINE
  5
4161
330
1F
100
AcDbEntity
  8
SPOJOVACÍ
  6
Continuous
100
AcDbLine
 10
5284.136887832388
 20
-2285.131442977348
 30
0.0
 11
5284.933118311705
 21
-2283.812453699051
 31
0.0
  0
LINE
  5
4162
330
1F
100
AcDbEntity
  8
SPOJOVACÍ
  6
Continuous
100
AcDbLine
 10
5289.924441630678
 20
-2285.68954845491
 30
0.0
 11
5291.161575439578
 21
-2286.607631965351
 31
0.0
  0
LINE
  5
4163
330
1F
100
AcDbEntity
  8
SPOJOVACÍ
  6
Continuous
100
AcDbLine
 10
5291.161575439578
 20
-2286.607631965351
 30
0.0
 11
5291.876880625746
 21
-2286.944355603235
 31
0.0
  0
LINE
  5
4164
330
1F
100
AcDbEntity
  8
SPOJOVACÍ
  6
Continuous
100
AcDbLine
 10
5291.876880625746
 20
-2288.144282379966
 30
0.0
 11
5291.876880625746
 21
-2286.944355603235
 31
0.0
  0
LINE
  5
4165
330
1F
100
AcDbEntity
  8
SPOJOVACÍ
  6
Continuous
100
AcDbLine
 10
5288.966360560694
 20
-2284.482180272011
 30
0.0
 11
5289.924441630678
 21
-2285.68954845491
 31
0.0
  0
LINE
  5
4166
330
1F
100
AcDbEntity
  8
SPOJOVACÍ
  6
Continuous
100
AcDbLine
 10
5282.38296100893
 20
-2323.315759207152
 30
0.0
 11
5285.219067010198
 21
-2323.670156188281
 31
0.0
  0
LINE
  5
4167
330
1F
100
AcDbEntity
  8
SPOJOVACÍ
  6
Continuous
100
AcDbLine
 10
5285.472074826735
 20
-2322.929736253253
 30
0.0
 11
5282.38296100893
 21
-2323.315759207152
 31
0.0
  0
LINE
  5
4168
330
1F
100
AcDbEntity
  8
SPOJOVACÍ
  6
Continuous
100
AcDbLine
 10
5285.762289674886
 20
-2322.299077065225
 30
0.0
 11
5285.543698362867
 21
-2322.676728436171
 31
0.0
  0
LINE
  5
4169
330
1F
100
AcDbEntity
  8
SPOJOVACÍ
  6
Continuous
100
AcDbLine
 10
5285.543698362867
 20
-2322.676728436171
 30
0.0
 11
5285.073029410282
 21
-2324.075712835737
 31
0.0
  0
LINE
  5
416A
330
1F
100
AcDbEntity
  8
SPOJOVACÍ
  6
Continuous
100
AcDbLine
 10
5285.451610959112
 20
-2324.453364206682
 30
0.0
 11
5285.073029410282
 21
-2324.075712835737
 31
0.0
  0
LINE
  5
416B
330
1F
100
AcDbEntity
  8
SPOJOVACÍ
  6
Continuous
100
AcDbLine
 10
5285.451610959112
 20
-2324.453364206682
 30
0.0
 11
5285.66927209543
 21
-2324.075712835737
 31
0.0
  0
LINE
  5
416C
330
1F
100
AcDbEntity
  8
SPOJOVACÍ
  6
Continuous
100
AcDbLine
 10
5285.762289674886
 20
-2322.299077065225
 30
0.0
 11
5285.451610959112
 21
-2324.453364206682
 31
0.0
  0
LINE
  5
416D
330
1F
100
AcDbEntity
  8
SPOJOVACÍ
  6
Continuous
100
AcDbLine
 10
5311.548623085792
 20
-2324.665444290702
 30
0.0
 11
5306.605668906864
 21
-2324.665444290702
 31
0.0
  0
LINE
  5
416E
330
1F
100
AcDbEntity
  8
SPOJOVACÍ
  6
Continuous
100
AcDbLine
 10
5306.001984815549
 20
-2324.665444290702
 30
0.0
 11
5303.48306876052
 21
-2324.665444290702
 31
0.0
  0
LINE
  5
416F
330
1F
100
AcDbEntity
  8
SPOJOVACÍ
  6
Continuous
100
AcDbLine
 10
5302.886826075365
 20
-2324.665444290702
 30
0.0
 11
5300.358608262496
 21
-2324.665444290702
 31
0.0
  0
LINE
  5
4170
330
1F
100
AcDbEntity
  8
SPOJOVACÍ
  6
Continuous
100
AcDbLine
 10
5299.764225929021
 20
-2324.665444290702
 30
0.0
 11
5297.243449522312
 21
-2324.665444290702
 31
0.0
  0
LINE
  5
4171
330
1F
100
AcDbEntity
  8
SPOJOVACÍ
  6
Continuous
100
AcDbLine
 10
5296.64255595838
 20
-2324.665444290702
 30
0.0
 11
5294.12363990335
 21
-2324.665444290702
 31
0.0
  0
LINE
  5
4172
330
1F
100
AcDbEntity
  8
SPOJOVACÍ
  6
Continuous
100
AcDbLine
 10
5293.519955811767
 20
-2324.665444290702
 30
0.0
 11
5293.183232173883
 21
-2324.665444290702
 31
0.0
  0
LINE
  5
4173
330
1F
100
AcDbEntity
  8
SPOJOVACÍ
  6
Continuous
100
AcDbLine
 10
5291.212189662597
 20
-2324.419877879235
 30
0.0
 11
5293.183232173883
 21
-2324.665444290702
 31
0.0
  0
LINE
  5
4174
330
1F
100
AcDbEntity
  8
SPOJOVACÍ
  6
Continuous
100
AcDbLine
 10
5306.148022415465
 20
-2325.715612760076
 30
0.0
 11
5305.770371042337
 21
-2325.337961389131
 31
0.0
  0
LINE
  5
4175
330
1F
100
AcDbEntity
  8
SPOJOVACÍ
  6
Continuous
100
AcDbLine
 10
5306.148022415465
 20
-2325.715612760076
 30
0.0
 11
5306.366613727491
 21
-2325.337961389131
 31
0.0
  0
LINE
  5
4176
330
1F
100
AcDbEntity
  8
SPOJOVACÍ
  6
Continuous
100
AcDbLine
 10
5303.028212796227
 20
-2325.715612760076
 30
0.0
 11
5302.650561423375
 21
-2325.337961389131
 31
0.0
  0
LINE
  5
4177
330
1F
100
AcDbEntity
  8
SPOJOVACÍ
  6
Continuous
100
AcDbLine
 10
5303.028212796227
 20
-2325.715612760076
 30
0.0
 11
5303.246804108253
 21
-2325.337961389131
 31
0.0
  0
LINE
  5
4178
330
1F
100
AcDbEntity
  8
SPOJOVACÍ
  6
Continuous
100
AcDbLine
 10
5290.8177951252
 20
-2325.295173301391
 30
0.0
 11
5290.439213576092
 21
-2324.917521930446
 31
0.0
  0
LINE
  5
4179
330
1F
100
AcDbEntity
  8
SPOJOVACÍ
  6
Continuous
100
AcDbLine
 10
5290.8177951252
 20
-2325.295173301391
 30
0.0
 11
5291.035456261248
 21
-2324.917521930446
 31
0.0
  0
LINE
  5
417A
330
1F
100
AcDbEntity
  8
SPOJOVACÍ
  6
Continuous
100
AcDbLine
 10
5288.142609536436
 20
-2324.850549271185
 30
0.0
 11
5287.764027987606
 21
-2324.47289790024
 31
0.0
  0
LINE
  5
417B
330
1F
100
AcDbEntity
  8
SPOJOVACÍ
  6
Continuous
100
AcDbLine
 10
5288.142609536436
 20
-2324.850549271185
 30
0.0
 11
5288.360270672484
 21
-2324.47289790024
 31
0.0
  0
LINE
  5
417C
330
1F
100
AcDbEntity
  8
SPOJOVACÍ
  6
Continuous
100
AcDbLine
 10
5299.908403177265
 20
-2325.715612760076
 30
0.0
 11
5299.529821628435
 21
-2325.337961389131
 31
0.0
  0
LINE
  5
417D
330
1F
100
AcDbEntity
  8
SPOJOVACÍ
  6
Continuous
100
AcDbLine
 10
5299.908403177265
 20
-2325.715612760076
 30
0.0
 11
5300.126064313582
 21
-2325.337961389131
 31
0.0
  0
LINE
  5
417E
330
1F
100
AcDbEntity
  8
SPOJOVACÍ
  6
Continuous
100
AcDbLine
 10
5296.788593558296
 20
-2325.715612760076
 30
0.0
 11
5296.410012009466
 21
-2325.337961389131
 31
0.0
  0
LINE
  5
417F
330
1F
100
AcDbEntity
  8
SPOJOVACÍ
  6
Continuous
100
AcDbLine
 10
5296.788593558296
 20
-2325.715612760076
 30
0.0
 11
5297.006254694344
 21
-2325.337961389131
 31
0.0
  0
LINE
  5
4180
330
1F
100
AcDbEntity
  8
SPOJOVACÍ
  6
Continuous
100
AcDbLine
 10
5293.667853763356
 20
-2325.715612760076
 30
0.0
 11
5293.290202390227
 21
-2325.337961389131
 31
0.0
  0
LINE
  5
4181
330
1F
100
AcDbEntity
  8
SPOJOVACÍ
  6
Continuous
100
AcDbLine
 10
5293.667853763356
 20
-2325.715612760076
 30
0.0
 11
5293.886445075382
 21
-2325.337961389131
 31
0.0
  0
LINE
  5
4182
330
1F
100
AcDbEntity
  8
SPOJOVACÍ
  6
Continuous
100
AcDbLine
 10
5312.335551808915
 20
-2321.900031646045
 30
0.0
 11
5311.548623085792
 21
-2321.966074127967
 31
0.0
  0
LINE
  5
4183
330
1F
100
AcDbEntity
  8
SPOJOVACÍ
  6
Continuous
100
AcDbLine
 10
5311.548623085792
 20
-2321.966074127967
 30
0.0
 11
5307.510729956113
 21
-2321.966074127967
 31
0.0
  0
LINE
  5
4184
330
1F
100
AcDbEntity
  8
SPOJOVACÍ
  6
Continuous
100
AcDbLine
 10
5306.915417446936
 20
-2321.966074127967
 30
0.0
 11
5304.396501391907
 21
-2321.966074127967
 31
0.0
  0
LINE
  5
4185
330
1F
100
AcDbEntity
  8
SPOJOVACÍ
  6
Continuous
100
AcDbLine
 10
5303.792817300593
 20
-2321.966074127967
 30
0.0
 11
5301.272040893883
 21
-2321.966074127967
 31
0.0
  0
LINE
  5
4186
330
1F
100
AcDbEntity
  8
SPOJOVACÍ
  6
Continuous
100
AcDbLine
 10
5300.677658560409
 20
-2321.966074127967
 30
0.0
 11
5298.14944074754
 21
-2321.966074127967
 31
0.0
  0
LINE
  5
4187
330
1F
100
AcDbEntity
  8
SPOJOVACÍ
  6
Continuous
100
AcDbLine
 10
5297.544826480254
 20
-2321.966074127967
 30
0.0
 11
5295.026840600926
 21
-2321.966074127967
 31
0.0
  0
LINE
  5
4188
330
1F
100
AcDbEntity
  8
SPOJOVACÍ
  6
Continuous
100
AcDbLine
 10
5294.430597915772
 20
-2321.966074127967
 30
0.0
 11
5293.183232173883
 21
-2321.966074127967
 31
0.0
  0
LINE
  5
4189
330
1F
100
AcDbEntity
  8
SPOJOVACÍ
  6
Continuous
100
AcDbLine
 10
5293.183232173883
 20
-2321.966074127967
 30
0.0
 11
5291.986095924526
 21
-2322.115832430689
 31
0.0
  0
LINE
  5
418A
330
1F
100
AcDbEntity
  8
SPOJOVACÍ
  6
Continuous
100
AcDbLine
 10
5291.365668668673
 20
-2322.193037023216
 30
0.0
 11
5289.043949882608
 21
-2322.483251872735
 31
0.0
  0
LINE
  5
418B
330
1F
100
AcDbEntity
  8
SPOJOVACÍ
  6
Continuous
100
AcDbLine
 10
5288.413290692943
 20
-2322.562316815573
 30
0.0
 11
5286.092502082588
 21
-2322.852531660727
 31
0.0
  0
LINE
  5
418C
330
1F
100
AcDbEntity
  8
SPOJOVACÍ
  6
Continuous
100
AcDbLine
 10
5307.347949191927
 20
-2320.915905654227
 30
0.0
 11
5307.130288055879
 21
-2321.293557029538
 31
0.0
  0
LINE
  5
418D
330
1F
100
AcDbEntity
  8
SPOJOVACÍ
  6
Continuous
100
AcDbLine
 10
5307.347949191927
 20
-2320.915905654227
 30
0.0
 11
5307.726530740757
 21
-2321.293557029538
 31
0.0
  0
LINE
  5
418E
330
1F
100
AcDbEntity
  8
SPOJOVACÍ
  6
Continuous
100
AcDbLine
 10
5304.228139572965
 20
-2320.915905654227
 30
0.0
 11
5304.009548260939
 21
-2321.293557029538
 31
0.0
  0
LINE
  5
418F
330
1F
100
AcDbEntity
  8
SPOJOVACÍ
  6
Continuous
100
AcDbLine
 10
5304.228139572965
 20
-2320.915905654227
 30
0.0
 11
5304.605790946093
 21
-2321.293557029538
 31
0.0
  0
LINE
  5
4190
330
1F
100
AcDbEntity
  8
SPOJOVACÍ
  6
Continuous
100
AcDbLine
 10
5291.790759007504
 20
-2321.169843648648
 30
0.0
 11
5291.572167695477
 21
-2321.548425196933
 31
0.0
  0
LINE
  5
4191
330
1F
100
AcDbEntity
  8
SPOJOVACÍ
  6
Continuous
100
AcDbLine
 10
5291.790759007504
 20
-2321.169843648648
 30
0.0
 11
5292.168410380632
 21
-2321.548425196933
 31
0.0
  0
LINE
  5
4192
330
1F
100
AcDbEntity
  8
SPOJOVACÍ
  6
Continuous
100
AcDbLine
 10
5288.776059253206
 20
-2321.734460354754
 30
0.0
 11
5288.558398117157
 21
-2322.112111730065
 31
0.0
  0
LINE
  5
4193
330
1F
100
AcDbEntity
  8
SPOJOVACÍ
  6
Continuous
100
AcDbLine
 10
5288.776059253206
 20
-2321.734460354754
 30
0.0
 11
5289.154640802312
 21
-2322.112111730065
 31
0.0
  0
LINE
  5
4194
330
1F
100
AcDbEntity
  8
SPOJOVACÍ
  6
Continuous
100
AcDbLine
 10
5301.108329953727
 20
-2320.915905654227
 30
0.0
 11
5300.8897386417
 21
-2321.293557029538
 31
0.0
  0
LINE
  5
4195
330
1F
100
AcDbEntity
  8
SPOJOVACÍ
  6
Continuous
100
AcDbLine
 10
5301.108329953727
 20
-2320.915905654227
 30
0.0
 11
5301.485981326855
 21
-2321.293557029538
 31
0.0
  0
LINE
  5
4196
330
1F
100
AcDbEntity
  8
SPOJOVACÍ
  6
Continuous
100
AcDbLine
 10
5297.988520334758
 20
-2320.915905654227
 30
0.0
 11
5297.769929022738
 21
-2321.293557029538
 31
0.0
  0
LINE
  5
4197
330
1F
100
AcDbEntity
  8
SPOJOVACÍ
  6
Continuous
100
AcDbLine
 10
5297.988520334758
 20
-2320.915905654227
 30
0.0
 11
5298.366171707886
 21
-2321.293557029538
 31
0.0
  0
LINE
  5
4198
330
1F
100
AcDbEntity
  8
SPOJOVACÍ
  6
Continuous
100
AcDbLine
 10
5294.867780539817
 20
-2320.915905654227
 30
0.0
 11
5294.650119403769
 21
-2321.293557029538
 31
0.0
  0
LINE
  5
4199
330
1F
100
AcDbEntity
  8
SPOJOVACÍ
  6
Continuous
100
AcDbLine
 10
5294.867780539817
 20
-2320.915905654227
 30
0.0
 11
5295.246362088924
 21
-2321.293557029538
 31
0.0
  0
LINE
  5
419A
330
1F
100
AcDbEntity
  8
SPOJOVACÍ
  6
Continuous
100
AcDbLine
 10
5288.505378096698
 20
-2324.081293886674
 30
0.0
 11
5290.641991899551
 21
-2324.348254342011
 31
0.0
  0
LINE
  5
419B
330
1F
100
AcDbEntity
  8
SPOJOVACÍ
  6
Continuous
100
AcDbLine
 10
5307.347949191927
 20
-2320.915905654227
 30
0.0
 11
5306.148022415465
 21
-2325.715612760076
 31
0.0
  0
LINE
  5
419C
330
1F
100
AcDbEntity
  8
SPOJOVACÍ
  6
Continuous
100
AcDbLine
 10
5307.130288055879
 20
-2321.293557029538
 30
0.0
 11
5305.770371042337
 21
-2325.337961389131
 31
0.0
  0
LINE
  5
419D
330
1F
100
AcDbEntity
  8
SPOJOVACÍ
  6
Continuous
100
AcDbLine
 10
5307.726530740757
 20
-2321.293557029538
 30
0.0
 11
5306.366613727491
 21
-2325.337961389131
 31
0.0
  0
LINE
  5
419E
330
1F
100
AcDbEntity
  8
SPOJOVACÍ
  6
Continuous
100
AcDbLine
 10
5304.228139572965
 20
-2320.915905654227
 30
0.0
 11
5303.028212796227
 21
-2325.715612760076
 31
0.0
  0
LINE
  5
419F
330
1F
100
AcDbEntity
  8
SPOJOVACÍ
  6
Continuous
100
AcDbLine
 10
5304.009548260939
 20
-2321.293557029538
 30
0.0
 11
5302.650561423375
 21
-2325.337961389131
 31
0.0
  0
LINE
  5
41A0
330
1F
100
AcDbEntity
  8
SPOJOVACÍ
  6
Continuous
100
AcDbLine
 10
5304.605790946093
 20
-2321.293557029538
 30
0.0
 11
5303.246804108253
 21
-2325.337961389131
 31
0.0
  0
LINE
  5
41A1
330
1F
100
AcDbEntity
  8
SPOJOVACÍ
  6
Continuous
100
AcDbLine
 10
5291.572167695477
 20
-2321.548425196933
 30
0.0
 11
5290.439213576092
 21
-2324.917521930446
 31
0.0
  0
LINE
  5
41A2
330
1F
100
AcDbEntity
  8
SPOJOVACÍ
  6
Continuous
100
AcDbLine
 10
5292.168410380632
 20
-2321.548425196933
 30
0.0
 11
5291.035456261248
 21
-2324.917521930446
 31
0.0
  0
LINE
  5
41A3
330
1F
100
AcDbEntity
  8
SPOJOVACÍ
  6
Continuous
100
AcDbLine
 10
5291.790759007504
 20
-2321.169843648648
 30
0.0
 11
5290.8177951252
 21
-2325.295173301391
 31
0.0
  0
LINE
  5
41A4
330
1F
100
AcDbEntity
  8
SPOJOVACÍ
  6
Continuous
100
AcDbLine
 10
5288.558398117157
 20
-2322.112111730065
 30
0.0
 11
5287.764027987606
 21
-2324.47289790024
 31
0.0
  0
LINE
  5
41A5
330
1F
100
AcDbEntity
  8
SPOJOVACÍ
  6
Continuous
100
AcDbLine
 10
5289.154640802312
 20
-2322.112111730065
 30
0.0
 11
5288.360270672484
 21
-2324.47289790024
 31
0.0
  0
LINE
  5
41A6
330
1F
100
AcDbEntity
  8
SPOJOVACÍ
  6
Continuous
100
AcDbLine
 10
5288.776059253206
 20
-2321.734460354754
 30
0.0
 11
5288.142609536436
 21
-2324.850549271185
 31
0.0
  0
LINE
  5
41A7
330
1F
100
AcDbEntity
  8
SPOJOVACÍ
  6
Continuous
100
AcDbLine
 10
5301.108329953727
 20
-2320.915905654227
 30
0.0
 11
5299.908403177265
 21
-2325.715612760076
 31
0.0
  0
LINE
  5
41A8
330
1F
100
AcDbEntity
  8
SPOJOVACÍ
  6
Continuous
100
AcDbLine
 10
5300.8897386417
 20
-2321.293557029538
 30
0.0
 11
5299.529821628435
 21
-2325.337961389131
 31
0.0
  0
LINE
  5
41A9
330
1F
100
AcDbEntity
  8
SPOJOVACÍ
  6
Continuous
100
AcDbLine
 10
5301.485981326855
 20
-2321.293557029538
 30
0.0
 11
5300.126064313582
 21
-2325.337961389131
 31
0.0
  0
LINE
  5
41AA
330
1F
100
AcDbEntity
  8
SPOJOVACÍ
  6
Continuous
100
AcDbLine
 10
5297.988520334758
 20
-2320.915905654227
 30
0.0
 11
5296.788593558296
 21
-2325.715612760076
 31
0.0
  0
LINE
  5
41AB
330
1F
100
AcDbEntity
  8
SPOJOVACÍ
  6
Continuous
100
AcDbLine
 10
5297.769929022738
 20
-2321.293557029538
 30
0.0
 11
5296.410012009466
 21
-2325.337961389131
 31
0.0
  0
LINE
  5
41AC
330
1F
100
AcDbEntity
  8
SPOJOVACÍ
  6
Continuous
100
AcDbLine
 10
5298.366171707886
 20
-2321.293557029538
 30
0.0
 11
5297.006254694344
 21
-2325.337961389131
 31
0.0
  0
LINE
  5
41AD
330
1F
100
AcDbEntity
  8
SPOJOVACÍ
  6
Continuous
100
AcDbLine
 10
5294.867780539817
 20
-2320.915905654227
 30
0.0
 11
5293.667853763356
 21
-2325.715612760076
 31
0.0
  0
LINE
  5
41AE
330
1F
100
AcDbEntity
  8
SPOJOVACÍ
  6
Continuous
100
AcDbLine
 10
5294.650119403769
 20
-2321.293557029538
 30
0.0
 11
5293.290202390227
 21
-2325.337961389131
 31
0.0
  0
LINE
  5
41AF
330
1F
100
AcDbEntity
  8
SPOJOVACÍ
  6
Continuous
100
AcDbLine
 10
5295.246362088924
 20
-2321.293557029538
 30
0.0
 11
5293.886445075382
 21
-2325.337961389131
 31
0.0
  0
LINE
  5
41B0
330
1F
100
AcDbEntity
  8
SPOJOVACÍ
  6
Continuous
100
AcDbLine
 10
5285.788334597265
 20
-2323.741779725505
 30
0.0
 11
5287.93331998225
 21
-2324.009670353815
 31
0.0
  0
LINE
  5
41B1
330
1F
100
AcDbEntity
  8
SPOJOVACÍ
  6
Continuous
100
AcDbLine
 10
5285.762289674886
 20
-2322.299077065225
 30
0.0
 11
5286.139941048014
 21
-2322.676728436171
 31
0.0
  0
LINE
  5
41B2
330
1F
100
AcDbEntity
  8
SPOJOVACÍ
  6
Continuous
100
AcDbLine
 10
5286.139941048014
 20
-2322.676728436171
 30
0.0
 11
5285.66927209543
 21
-2324.075712835737
 31
0.0
  0
LINE
  5
41B3
330
1F
100
AcDbEntity
  8
SPOJOVACÍ
  6
Continuous
100
AcDbLine
 10
5314.486118248925
 20
-2325.505393030734
 30
0.0
 11
5315.693486431824
 21
-2326.463474100718
 31
0.0
  0
LINE
  5
41B4
330
1F
100
AcDbEntity
  8
SPOJOVACÍ
  6
Continuous
100
AcDbLine
 10
5313.072251039222
 20
-2324.892407181586
 30
0.0
 11
5314.486118248925
 21
-2325.505393030734
 31
0.0
  0
LINE
  5
41B5
330
1F
100
AcDbEntity
  8
SPOJOVACÍ
  6
Continuous
100
AcDbLine
 10
5318.148220356881
 20
-2328.415913095786
 30
0.0
 11
5316.948293580149
 21
-2328.415913095786
 31
0.0
  0
LINE
  5
41B6
330
1F
100
AcDbEntity
  8
SPOJOVACÍ
  6
Continuous
100
AcDbLine
 10
5316.611569942265
 20
-2327.700607909618
 30
0.0
 11
5316.948293580149
 21
-2328.415913095786
 31
0.0
  0
LINE
  5
41B7
330
1F
100
AcDbEntity
  8
SPOJOVACÍ
  6
Continuous
100
AcDbLine
 10
5315.693486431824
 20
-2326.463474100718
 30
0.0
 11
5316.611569942265
 21
-2327.700607909618
 31
0.0
  0
LINE
  5
41B8
330
1F
100
AcDbEntity
  8
SPOJOVACÍ
  6
Continuous
100
AcDbLine
 10
5318.148220356881
 20
-2318.215605318518
 30
0.0
 11
5316.948293580149
 21
-2318.215605318518
 31
0.0
  0
LINE
  5
41B9
330
1F
100
AcDbEntity
  8
SPOJOVACÍ
  6
Continuous
100
AcDbLine
 10
5315.135380954263
 20
-2320.675920302427
 30
0.0
 11
5313.816391675965
 21
-2321.472150781745
 31
0.0
  0
LINE
  5
41BA
330
1F
100
AcDbEntity
  8
SPOJOVACÍ
  6
Continuous
100
AcDbLine
 10
5316.204152943675
 20
-2319.565290402068
 30
0.0
 11
5315.135380954263
 21
-2320.675920302427
 31
0.0
  0
LINE
  5
41BB
330
1F
100
AcDbEntity
  8
SPOJOVACÍ
  6
Continuous
100
AcDbLine
 10
5316.948293580149
 20
-2318.215605318518
 30
0.0
 11
5316.204152943675
 21
-2319.565290402068
 31
0.0
  0
LINE
  5
41BC
330
1F
100
AcDbEntity
  8
SPOJOVACÍ
  6
Continuous
100
AcDbLine
 10
5318.148220356881
 20
-2318.215605318518
 30
0.0
 11
5318.148220356881
 21
-2328.415913095786
 31
0.0
  0
LINE
  5
41BD
330
1F
100
AcDbEntity
  8
SPOJOVACÍ
  6
Continuous
100
AcDbLine
 10
5316.948293580149
 20
-2318.215605318518
 30
0.0
 11
5316.948293580149
 21
-2328.415913095786
 31
0.0
  0
LWPOLYLINE
  5
41BE
330
1F
100
AcDbEntity
  8
izolace
100
AcDbPolyline
 90
        4
 70
     1
 43
0.0
 10
5318.148220356881
 20
-2305.362327361156
 10
5318.148220356881
 20
-2300.144282379967
 10
5306.14822035688
 20
-2300.144282379967
 10
5306.14822035688
 20
-2305.362327361156
  0
LINE
  5
41BF
330
1F
100
AcDbEntity
  8
SPOJOVACÍ
  6
Continuous
100
AcDbLine
 10
5311.548623085792
 20
-2324.665444290702
 30
0.0
 11
5313.072251039222
 21
-2324.892407181586
 31
0.0
  0
LINE
  5
41C0
330
1F
100
AcDbEntity
  8
SPOJOVACÍ
  6
Continuous
100
AcDbLine
 10
5313.816391675965
 20
-2321.472150781745
 30
0.0
 11
5312.335551808915
 21
-2321.900031646045
 31
0.0
  0
LINE
  5
41C1
330
1F
100
AcDbEntity
  8
SPOJOVACÍ
  6
Continuous
100
AcDbLine
 10
5289.272167476177
 20
-2138.150845825305
 30
0.0
 11
5289.649818847123
 21
-2138.528497198433
 31
0.0
  0
LINE
  5
41C2
330
1F
100
AcDbEntity
  8
SPOJOVACÍ
  6
Continuous
100
AcDbLine
 10
5292.688703171028
 20
-2146.056409913774
 30
0.0
 11
5290.534416029571
 21
-2146.367088629548
 31
0.0
  0
LINE
  5
41C3
330
1F
100
AcDbEntity
  8
SPOJOVACÍ
  6
Continuous
100
AcDbLine
 10
5292.311051800083
 20
-2145.678758540646
 30
0.0
 11
5290.912067400516
 21
-2146.14942749323
 31
0.0
  0
LINE
  5
41C4
330
1F
100
AcDbEntity
  8
SPOJOVACÍ
  6
Continuous
100
AcDbLine
 10
5292.311051800083
 20
-2146.275001225793
 30
0.0
 11
5290.912067400516
 21
-2146.745670178378
 31
0.0
  0
LINE
  5
41C5
330
1F
100
AcDbEntity
  8
SPOJOVACÍ
  6
Continuous
100
AcDbLine
 10
5290.534416029571
 20
-2146.367088629548
 30
0.0
 11
5290.912067400516
 21
-2146.14942749323
 31
0.0
  0
LINE
  5
41C6
330
1F
100
AcDbEntity
  8
SPOJOVACÍ
  6
Continuous
100
AcDbLine
 10
5290.534416029571
 20
-2146.367088629548
 30
0.0
 11
5290.912067400516
 21
-2146.745670178378
 31
0.0
  0
LINE
  5
41C7
330
1F
100
AcDbEntity
  8
SPOJOVACÍ
  6
Continuous
100
AcDbLine
 10
5292.688703171028
 20
-2146.056409913774
 30
0.0
 11
5292.311051800083
 21
-2145.678758540646
 31
0.0
  0
LINE
  5
41C8
330
1F
100
AcDbEntity
  8
SPOJOVACÍ
  6
Continuous
100
AcDbLine
 10
5292.688703171028
 20
-2146.056409913774
 30
0.0
 11
5292.311051800083
 21
-2146.275001225793
 31
0.0
  0
LINE
  5
41C9
330
1F
100
AcDbEntity
  8
SPOJOVACÍ
  6
Continuous
100
AcDbLine
 10
5293.253319881499
 20
-2143.042640335454
 30
0.0
 11
5290.137230965068
 21
-2143.676090052224
 31
0.0
  0
LINE
  5
41CA
330
1F
100
AcDbEntity
  8
SPOJOVACÍ
  6
Continuous
100
AcDbLine
 10
5292.875668506188
 20
-2142.664058786348
 30
0.0
 11
5290.514882336013
 21
-2143.458428916176
 31
0.0
  0
LINE
  5
41CB
330
1F
100
AcDbEntity
  8
SPOJOVACÍ
  6
Continuous
100
AcDbLine
 10
5292.875668506188
 20
-2143.260301471503
 30
0.0
 11
5290.514882336013
 21
-2144.054671601054
 31
0.0
  0
LINE
  5
41CC
330
1F
100
AcDbEntity
  8
SPOJOVACÍ
  6
Continuous
100
AcDbLine
 10
5290.137230965068
 20
-2143.676090052224
 30
0.0
 11
5290.514882336013
 21
-2143.458428916176
 31
0.0
  0
LINE
  5
41CD
330
1F
100
AcDbEntity
  8
SPOJOVACÍ
  6
Continuous
100
AcDbLine
 10
5290.137230965068
 20
-2143.676090052224
 30
0.0
 11
5290.514882336013
 21
-2144.054671601054
 31
0.0
  0
LINE
  5
41CE
330
1F
100
AcDbEntity
  8
SPOJOVACÍ
  6
Continuous
100
AcDbLine
 10
5293.253319881499
 20
-2143.042640335454
 30
0.0
 11
5292.875668506188
 21
-2142.664058786348
 31
0.0
  0
LINE
  5
41CF
330
1F
100
AcDbEntity
  8
SPOJOVACÍ
  6
Continuous
100
AcDbLine
 10
5293.253319881499
 20
-2143.042640335454
 30
0.0
 11
5292.875668506188
 21
-2143.260301471503
 31
0.0
  0
LINE
  5
41D0
330
1F
100
AcDbEntity
  8
SPOJOVACÍ
  6
Continuous
100
AcDbLine
 10
5293.817936587605
 20
-2140.027940581157
 30
0.0
 11
5289.692606934862
 21
-2141.000904463461
 31
0.0
  0
LINE
  5
41D1
330
1F
100
AcDbEntity
  8
SPOJOVACÍ
  6
Continuous
100
AcDbLine
 10
5293.439355039321
 20
-2139.650289208029
 30
0.0
 11
5290.070258305807
 21
-2140.783243327413
 31
0.0
  0
LINE
  5
41D2
330
1F
100
AcDbEntity
  8
SPOJOVACÍ
  6
Continuous
100
AcDbLine
 10
5293.439355039321
 20
-2140.246531893183
 30
0.0
 11
5290.070258305807
 21
-2141.379486012568
 31
0.0
  0
LINE
  5
41D3
330
1F
100
AcDbEntity
  8
SPOJOVACÍ
  6
Continuous
100
AcDbLine
 10
5289.692606934862
 20
-2141.000904463461
 30
0.0
 11
5290.070258305807
 21
-2140.783243327413
 31
0.0
  0
LINE
  5
41D4
330
1F
100
AcDbEntity
  8
SPOJOVACÍ
  6
Continuous
100
AcDbLine
 10
5289.692606934862
 20
-2141.000904463461
 30
0.0
 11
5290.070258305807
 21
-2141.379486012568
 31
0.0
  0
LINE
  5
41D5
330
1F
100
AcDbEntity
  8
SPOJOVACÍ
  6
Continuous
100
AcDbLine
 10
5293.817936587605
 20
-2140.027940581157
 30
0.0
 11
5293.439355039321
 21
-2139.650289208029
 31
0.0
  0
LINE
  5
41D6
330
1F
100
AcDbEntity
  8
SPOJOVACÍ
  6
Continuous
100
AcDbLine
 10
5293.817936587605
 20
-2140.027940581157
 30
0.0
 11
5293.439355039321
 21
-2140.246531893183
 31
0.0
  0
LINE
  5
41D7
330
1F
100
AcDbEntity
  8
SPOJOVACÍ
  6
Continuous
100
AcDbLine
 10
5290.567902357018
 20
-2140.606509926064
 30
0.0
 11
5290.322335945551
 21
-2138.635467414777
 31
0.0
  0
LINE
  5
41D8
330
1F
100
AcDbEntity
  8
SPOJOVACÍ
  6
Continuous
100
AcDbLine
 10
5290.90648634958
 20
-2143.313321491962
 30
0.0
 11
5290.639525894242
 21
-2141.176707689109
 31
0.0
  0
LINE
  5
41D9
330
1F
100
AcDbEntity
  8
SPOJOVACÍ
  6
Continuous
100
AcDbLine
 10
5291.246000510749
 20
-2146.030364991395
 30
0.0
 11
5290.978109882438
 21
-2143.885379606411
 31
0.0
  0
LINE
  5
41DA
330
1F
100
AcDbEntity
  8
SPOJOVACÍ
  6
Continuous
100
AcDbLine
 10
5292.058043983001
 20
-2146.346624761926
 30
0.0
 11
5291.672021029102
 21
-2149.435738579731
 31
0.0
  0
LINE
  5
41DB
330
1F
100
AcDbEntity
  8
SPOJOVACÍ
  6
Continuous
100
AcDbLine
 10
5292.425463420681
 20
-2143.405408895717
 30
0.0
 11
5292.135248575526
 21
-2145.726197506073
 31
0.0
  0
LINE
  5
41DC
330
1F
100
AcDbEntity
  8
SPOJOVACÍ
  6
Continuous
100
AcDbLine
 10
5292.794743213038
 20
-2140.453030919988
 30
0.0
 11
5292.504528363519
 21
-2142.774749706052
 31
0.0
  0
LINE
  5
41DD
330
1F
100
AcDbEntity
  8
SPOJOVACÍ
  6
Continuous
100
AcDbLine
 10
5291.672021029102
 20
-2149.435738579731
 30
0.0
 11
5291.317624047973
 21
-2146.599632578462
 31
0.0
  0
LINE
  5
41DE
330
1F
100
AcDbEntity
  8
SPOJOVACÍ
  6
Continuous
100
AcDbLine
 10
5293.021706108287
 20
-2138.635467414777
 30
0.0
 11
5292.871947805564
 21
-2139.832603664134
 31
0.0
  0
LINE
  5
41DF
330
1F
100
AcDbEntity
  8
SPOJOVACÍ
  6
Continuous
100
AcDbLine
 10
5290.322335945551
 20
-2138.298743776894
 30
0.0
 11
5290.322335945551
 21
-2138.635467414777
 31
0.0
  0
LINE
  5
41E0
330
1F
100
AcDbEntity
  8
SPOJOVACÍ
  6
Continuous
100
AcDbLine
 10
5285.760044595186
 20
-2255.758351697972
 30
0.0
 11
5287.914331736643
 21
-2255.447672982198
 31
0.0
  0
LINE
  5
41E1
330
1F
100
AcDbEntity
  8
SPOJOVACÍ
  6
Continuous
100
AcDbLine
 10
5286.137695966131
 20
-2255.539760385953
 30
0.0
 11
5287.536680365697
 21
-2255.069091433368
 31
0.0
  0
LINE
  5
41E2
330
1F
100
AcDbEntity
  8
SPOJOVACÍ
  6
Continuous
100
AcDbLine
 10
5287.914331736643
 20
-2255.447672982198
 30
0.0
 11
5287.536680365697
 21
-2255.665334118515
 31
0.0
  0
LINE
  5
41E3
330
1F
100
AcDbEntity
  8
SPOJOVACÍ
  6
Continuous
100
AcDbLine
 10
5287.914331736643
 20
-2255.447672982198
 30
0.0
 11
5287.536680365697
 21
-2255.069091433368
 31
0.0
  0
LINE
  5
41E4
330
1F
100
AcDbEntity
  8
SPOJOVACÍ
  6
Continuous
100
AcDbLine
 10
5285.760044595186
 20
-2255.758351697972
 30
0.0
 11
5286.137695966131
 21
-2255.539760385953
 31
0.0
  0
LINE
  5
41E5
330
1F
100
AcDbEntity
  8
SPOJOVACÍ
  6
Continuous
100
AcDbLine
 10
5286.390703783213
 20
-2255.46813684982
 30
0.0
 11
5286.776726737112
 21
-2252.379023032016
 31
0.0
  0
LINE
  5
41E6
330
1F
100
AcDbEntity
  8
SPOJOVACÍ
  6
Continuous
100
AcDbLine
 10
5286.776726737112
 20
-2252.379023032016
 30
0.0
 11
5287.131123718241
 21
-2255.215129033284
 31
0.0
  0
LINE
  5
41E7
330
1F
100
AcDbEntity
  8
SPOJOVACÍ
  6
Continuous
100
AcDbLine
 10
5284.754524559499
 20
-2265.24242411201
 30
0.0
 11
5288.798928919091
 21
-2263.882507098468
 31
0.0
  0
LINE
  5
41E8
330
1F
100
AcDbEntity
  8
SPOJOVACÍ
  6
Continuous
100
AcDbLine
 10
5284.754524559499
 20
-2264.646181426855
 30
0.0
 11
5288.798928919091
 21
-2263.286264413313
 31
0.0
  0
LINE
  5
41E9
330
1F
100
AcDbEntity
  8
SPOJOVACÍ
  6
Continuous
100
AcDbLine
 10
5289.176580290036
 20
-2263.663915786441
 30
0.0
 11
5288.798928919091
 21
-2263.882507098468
 31
0.0
  0
LINE
  5
41EA
330
1F
100
AcDbEntity
  8
SPOJOVACÍ
  6
Continuous
100
AcDbLine
 10
5289.176580290036
 20
-2263.663915786441
 30
0.0
 11
5288.798928919091
 21
-2263.286264413313
 31
0.0
  0
LINE
  5
41EB
330
1F
100
AcDbEntity
  8
SPOJOVACÍ
  6
Continuous
100
AcDbLine
 10
5284.376873184188
 20
-2264.863842562903
 30
0.0
 11
5284.754524559499
 21
-2265.24242411201
 31
0.0
  0
LINE
  5
41EC
330
1F
100
AcDbEntity
  8
SPOJOVACÍ
  6
Continuous
100
AcDbLine
 10
5284.376873184188
 20
-2264.863842562903
 30
0.0
 11
5284.754524559499
 21
-2264.646181426855
 31
0.0
  0
LINE
  5
41ED
330
1F
100
AcDbEntity
  8
SPOJOVACÍ
  6
Continuous
100
AcDbLine
 10
5284.376873184188
 20
-2264.863842562903
 30
0.0
 11
5289.176580290036
 21
-2263.663915786441
 31
0.0
  0
LINE
  5
41EE
330
1F
100
AcDbEntity
  8
SPOJOVACÍ
  6
Continuous
100
AcDbLine
 10
5284.754524559499
 20
-2268.362233730972
 30
0.0
 11
5288.798928919091
 21
-2267.00231671743
 31
0.0
  0
LINE
  5
41EF
330
1F
100
AcDbEntity
  8
SPOJOVACÍ
  6
Continuous
100
AcDbLine
 10
5284.754524559499
 20
-2267.765991045824
 30
0.0
 11
5288.798928919091
 21
-2266.406074032552
 31
0.0
  0
LINE
  5
41F0
330
1F
100
AcDbEntity
  8
SPOJOVACÍ
  6
Continuous
100
AcDbLine
 10
5289.176580290036
 20
-2266.784655581381
 30
0.0
 11
5288.798928919091
 21
-2267.00231671743
 31
0.0
  0
LINE
  5
41F1
330
1F
100
AcDbEntity
  8
SPOJOVACÍ
  6
Continuous
100
AcDbLine
 10
5289.176580290036
 20
-2266.784655581381
 30
0.0
 11
5288.798928919091
 21
-2266.406074032552
 31
0.0
  0
LINE
  5
41F2
330
1F
100
AcDbEntity
  8
SPOJOVACÍ
  6
Continuous
100
AcDbLine
 10
5284.376873184188
 20
-2267.984582357843
 30
0.0
 11
5284.754524559499
 21
-2268.362233730972
 31
0.0
  0
LINE
  5
41F3
330
1F
100
AcDbEntity
  8
SPOJOVACÍ
  6
Continuous
100
AcDbLine
 10
5284.376873184188
 20
-2267.984582357843
 30
0.0
 11
5284.754524559499
 21
-2267.765991045824
 31
0.0
  0
LINE
  5
41F4
330
1F
100
AcDbEntity
  8
SPOJOVACÍ
  6
Continuous
100
AcDbLine
 10
5284.376873184188
 20
-2267.984582357843
 30
0.0
 11
5289.176580290036
 21
-2266.784655581381
 31
0.0
  0
LINE
  5
41F5
330
1F
100
AcDbEntity
  8
SPOJOVACÍ
  6
Continuous
100
AcDbLine
 10
5284.754524559499
 20
-2271.482043349941
 30
0.0
 11
5288.798928919091
 21
-2270.122126336668
 31
0.0
  0
LINE
  5
41F6
330
1F
100
AcDbEntity
  8
SPOJOVACÍ
  6
Continuous
100
AcDbLine
 10
5284.754524559499
 20
-2270.885800664786
 30
0.0
 11
5288.798928919091
 21
-2269.525883651521
 31
0.0
  0
LINE
  5
41F7
330
1F
100
AcDbEntity
  8
SPOJOVACÍ
  6
Continuous
100
AcDbLine
 10
5289.176580290036
 20
-2269.904465200351
 30
0.0
 11
5288.798928919091
 21
-2270.122126336668
 31
0.0
  0
LINE
  5
41F8
330
1F
100
AcDbEntity
  8
SPOJOVACÍ
  6
Continuous
100
AcDbLine
 10
5289.176580290036
 20
-2269.904465200351
 30
0.0
 11
5288.798928919091
 21
-2269.525883651521
 31
0.0
  0
LINE
  5
41F9
330
1F
100
AcDbEntity
  8
SPOJOVACÍ
  6
Continuous
100
AcDbLine
 10
5284.376873184188
 20
-2271.104391976813
 30
0.0
 11
5284.754524559499
 21
-2271.482043349941
 31
0.0
  0
LINE
  5
41FA
330
1F
100
AcDbEntity
  8
SPOJOVACÍ
  6
Continuous
100
AcDbLine
 10
5284.376873184188
 20
-2271.104391976813
 30
0.0
 11
5284.754524559499
 21
-2270.885800664786
 31
0.0
  0
LINE
  5
41FB
330
1F
100
AcDbEntity
  8
SPOJOVACÍ
  6
Continuous
100
AcDbLine
 10
5284.376873184188
 20
-2271.104391976813
 30
0.0
 11
5289.176580290036
 21
-2269.904465200351
 31
0.0
  0
LINE
  5
41FC
330
1F
100
AcDbEntity
  8
SPOJOVACÍ
  6
Continuous
100
AcDbLine
 10
5285.195427884715
 20
-2258.772121276292
 30
0.0
 11
5288.311516801146
 21
-2258.138671559522
 31
0.0
  0
LINE
  5
41FD
330
1F
100
AcDbEntity
  8
SPOJOVACÍ
  6
Continuous
100
AcDbLine
 10
5285.573079260025
 20
-2259.150702825398
 30
0.0
 11
5287.933865430201
 21
-2258.35633269557
 31
0.0
  0
LINE
  5
41FE
330
1F
100
AcDbEntity
  8
SPOJOVACÍ
  6
Continuous
100
AcDbLine
 10
5285.573079260025
 20
-2258.554460140243
 30
0.0
 11
5287.933865430201
 21
-2257.760090010692
 31
0.0
  0
LINE
  5
41FF
330
1F
100
AcDbEntity
  8
SPOJOVACÍ
  6
Continuous
100
AcDbLine
 10
5288.311516801146
 20
-2258.138671559522
 30
0.0
 11
5287.933865430201
 21
-2258.35633269557
 31
0.0
  0
LINE
  5
4200
330
1F
100
AcDbEntity
  8
SPOJOVACÍ
  6
Continuous
100
AcDbLine
 10
5288.311516801146
 20
-2258.138671559522
 30
0.0
 11
5287.933865430201
 21
-2257.760090010692
 31
0.0
  0
LINE
  5
4201
330
1F
100
AcDbEntity
  8
SPOJOVACÍ
  6
Continuous
100
AcDbLine
 10
5285.195427884715
 20
-2258.772121276292
 30
0.0
 11
5285.573079260025
 21
-2259.150702825398
 31
0.0
  0
LINE
  5
4202
330
1F
100
AcDbEntity
  8
SPOJOVACÍ
  6
Continuous
100
AcDbLine
 10
5285.195427884715
 20
-2258.772121276292
 30
0.0
 11
5285.573079260025
 21
-2258.554460140243
 31
0.0
  0
LINE
  5
4203
330
1F
100
AcDbEntity
  8
SPOJOVACÍ
  6
Continuous
100
AcDbLine
 10
5284.630811178608
 20
-2261.78682103059
 30
0.0
 11
5288.756140831352
 21
-2260.813857148285
 31
0.0
  0
LINE
  5
4204
330
1F
100
AcDbEntity
  8
SPOJOVACÍ
  6
Continuous
100
AcDbLine
 10
5285.009392726893
 20
-2262.164472403718
 30
0.0
 11
5288.378489460406
 21
-2261.031518284333
 31
0.0
  0
LINE
  5
4205
330
1F
100
AcDbEntity
  8
SPOJOVACÍ
  6
Continuous
100
AcDbLine
 10
5285.009392726893
 20
-2261.568229718563
 30
0.0
 11
5288.378489460406
 21
-2260.435275599179
 31
0.0
  0
LINE
  5
4206
330
1F
100
AcDbEntity
  8
SPOJOVACÍ
  6
Continuous
100
AcDbLine
 10
5288.756140831352
 20
-2260.813857148285
 30
0.0
 11
5288.378489460406
 21
-2261.031518284333
 31
0.0
  0
LINE
  5
4207
330
1F
100
AcDbEntity
  8
SPOJOVACÍ
  6
Continuous
100
AcDbLine
 10
5288.756140831352
 20
-2260.813857148285
 30
0.0
 11
5288.378489460406
 21
-2260.435275599179
 31
0.0
  0
LINE
  5
4208
330
1F
100
AcDbEntity
  8
SPOJOVACÍ
  6
Continuous
100
AcDbLine
 10
5284.630811178608
 20
-2261.78682103059
 30
0.0
 11
5285.009392726893
 21
-2262.164472403718
 31
0.0
  0
LINE
  5
4209
330
1F
100
AcDbEntity
  8
SPOJOVACÍ
  6
Continuous
100
AcDbLine
 10
5284.630811178608
 20
-2261.78682103059
 30
0.0
 11
5285.009392726893
 21
-2261.568229718563
 31
0.0
  0
LINE
  5
420A
330
1F
100
AcDbEntity
  8
SPOJOVACÍ
  6
Continuous
100
AcDbLine
 10
5284.754524559499
 20
-2274.601852969179
 30
0.0
 11
5288.798928919091
 21
-2273.242866131339
 31
0.0
  0
LINE
  5
420B
330
1F
100
AcDbEntity
  8
SPOJOVACÍ
  6
Continuous
100
AcDbLine
 10
5284.754524559499
 20
-2274.005610284024
 30
0.0
 11
5288.798928919091
 21
-2272.646623446461
 31
0.0
  0
LINE
  5
420C
330
1F
100
AcDbEntity
  8
SPOJOVACÍ
  6
Continuous
100
AcDbLine
 10
5289.176580290036
 20
-2273.024274819313
 30
0.0
 11
5288.798928919091
 21
-2273.242866131339
 31
0.0
  0
LINE
  5
420D
330
1F
100
AcDbEntity
  8
SPOJOVACÍ
  6
Continuous
100
AcDbLine
 10
5289.176580290036
 20
-2273.024274819313
 30
0.0
 11
5288.798928919091
 21
-2272.646623446461
 31
0.0
  0
LINE
  5
420E
330
1F
100
AcDbEntity
  8
SPOJOVACÍ
  6
Continuous
100
AcDbLine
 10
5284.376873184188
 20
-2274.224201596051
 30
0.0
 11
5284.754524559499
 21
-2274.601852969179
 31
0.0
  0
LINE
  5
420F
330
1F
100
AcDbEntity
  8
SPOJOVACÍ
  6
Continuous
100
AcDbLine
 10
5284.376873184188
 20
-2274.224201596051
 30
0.0
 11
5284.754524559499
 21
-2274.005610284024
 31
0.0
  0
LINE
  5
4210
330
1F
100
AcDbEntity
  8
SPOJOVACÍ
  6
Continuous
100
AcDbLine
 10
5284.376873184188
 20
-2274.224201596051
 30
0.0
 11
5289.176580290036
 21
-2273.024274819313
 31
0.0
  0
LINE
  5
4211
330
1F
100
AcDbEntity
  8
SPOJOVACÍ
  6
Continuous
100
AcDbLine
 10
5284.754524559499
 20
-2277.722592763843
 30
0.0
 11
5288.798928919091
 21
-2276.362675750577
 31
0.0
  0
LINE
  5
4212
330
1F
100
AcDbEntity
  8
SPOJOVACÍ
  6
Continuous
100
AcDbLine
 10
5284.754524559499
 20
-2277.126350078965
 30
0.0
 11
5288.798928919091
 21
-2275.766433065423
 31
0.0
  0
LINE
  5
4213
330
1F
100
AcDbEntity
  8
SPOJOVACÍ
  6
Continuous
100
AcDbLine
 10
5289.176580290036
 20
-2276.144084438551
 30
0.0
 11
5288.798928919091
 21
-2276.362675750577
 31
0.0
  0
LINE
  5
4214
330
1F
100
AcDbEntity
  8
SPOJOVACÍ
  6
Continuous
100
AcDbLine
 10
5289.176580290036
 20
-2276.144084438551
 30
0.0
 11
5288.798928919091
 21
-2275.766433065423
 31
0.0
  0
LINE
  5
4215
330
1F
100
AcDbEntity
  8
SPOJOVACÍ
  6
Continuous
100
AcDbLine
 10
5284.376873184188
 20
-2277.344011215013
 30
0.0
 11
5284.754524559499
 21
-2277.722592763843
 31
0.0
  0
LINE
  5
4216
330
1F
100
AcDbEntity
  8
SPOJOVACÍ
  6
Continuous
100
AcDbLine
 10
5284.376873184188
 20
-2277.344011215013
 30
0.0
 11
5284.754524559499
 21
-2277.126350078965
 31
0.0
  0
LINE
  5
4217
330
1F
100
AcDbEntity
  8
SPOJOVACÍ
  6
Continuous
100
AcDbLine
 10
5284.376873184188
 20
-2277.344011215013
 30
0.0
 11
5289.176580290036
 21
-2276.144084438551
 31
0.0
  0
LINE
  5
4218
330
1F
100
AcDbEntity
  8
SPOJOVACÍ
  6
Continuous
100
AcDbLine
 10
5287.880845409195
 20
-2261.208251685683
 30
0.0
 11
5288.126411820663
 21
-2263.179294196969
 31
0.0
  0
LINE
  5
4219
330
1F
100
AcDbEntity
  8
SPOJOVACÍ
  6
Continuous
100
AcDbLine
 10
5287.542261416634
 20
-2258.501440119784
 30
0.0
 11
5287.809221871971
 21
-2260.638053922638
 31
0.0
  0
LINE
  5
421A
330
1F
100
AcDbEntity
  8
SPOJOVACÍ
  6
Continuous
100
AcDbLine
 10
5286.023284345533
 20
-2258.40935271603
 30
0.0
 11
5286.313499190687
 21
-2256.088564105674
 31
0.0
  0
LINE
  5
421B
330
1F
100
AcDbEntity
  8
SPOJOVACÍ
  6
Continuous
100
AcDbLine
 10
5285.654004553176
 20
-2261.361730691759
 30
0.0
 11
5285.944219402695
 21
-2259.040011905694
 31
0.0
  0
LINE
  5
421C
330
1F
100
AcDbEntity
  8
SPOJOVACÍ
  6
Continuous
100
AcDbLine
 10
5285.427041657927
 20
-2263.179294196969
 30
0.0
 11
5285.57679996065
 21
-2261.982157947612
 31
0.0
  0
LINE
  5
421D
330
1F
100
AcDbEntity
  8
SPOJOVACÍ
  6
Continuous
100
AcDbLine
 10
5288.126411820663
 20
-2263.516017834852
 30
0.0
 11
5288.126411820663
 21
-2263.179294196969
 31
0.0
  0
LINE
  5
421E
330
1F
100
AcDbEntity
  8
SPOJOVACÍ
  6
Continuous
100
AcDbLine
 10
5288.126411820663
 20
-2266.638617981465
 30
0.0
 11
5288.126411820663
 21
-2264.119701926436
 31
0.0
  0
LINE
  5
421F
330
1F
100
AcDbEntity
  8
SPOJOVACÍ
  6
Continuous
100
AcDbLine
 10
5285.427041657927
 20
-2264.426659938858
 30
0.0
 11
5285.427041657927
 21
-2263.179294196969
 31
0.0
  0
LINE
  5
4220
330
1F
100
AcDbEntity
  8
SPOJOVACÍ
  6
Continuous
100
AcDbLine
 10
5285.427041657927
 20
-2267.54088850334
 30
0.0
 11
5285.427041657927
 21
-2265.022902624012
 31
0.0
  0
LINE
  5
4221
330
1F
100
AcDbEntity
  8
SPOJOVACÍ
  6
Continuous
100
AcDbLine
 10
5288.126411820663
 20
-2269.760287952107
 30
0.0
 11
5288.126411820663
 21
-2267.239511545398
 31
0.0
  0
LINE
  5
4222
330
1F
100
AcDbEntity
  8
SPOJOVACÍ
  6
Continuous
100
AcDbLine
 10
5288.126411820663
 20
-2272.882888098451
 30
0.0
 11
5288.126411820663
 21
-2270.354670285582
 31
0.0
  0
LINE
  5
4223
330
1F
100
AcDbEntity
  8
SPOJOVACÍ
  6
Continuous
100
AcDbLine
 10
5288.126411820663
 20
-2275.998046838635
 30
0.0
 11
5288.126411820663
 21
-2273.479130783606
 31
0.0
  0
LINE
  5
4224
330
1F
100
AcDbEntity
  8
SPOJOVACÍ
  6
Continuous
100
AcDbLine
 10
5285.427041657927
 20
-2270.673720583495
 30
0.0
 11
5285.427041657927
 21
-2268.145502770625
 31
0.0
  0
LINE
  5
4225
330
1F
100
AcDbEntity
  8
SPOJOVACÍ
  6
Continuous
100
AcDbLine
 10
5285.427041657927
 20
-2273.788879323678
 30
0.0
 11
5285.427041657927
 21
-2271.268102916969
 31
0.0
  0
LINE
  5
4226
330
1F
100
AcDbEntity
  8
SPOJOVACÍ
  6
Continuous
100
AcDbLine
 10
5285.427041657927
 20
-2276.911479470022
 30
0.0
 11
5285.427041657927
 21
-2274.392563414993
 31
0.0
  0
LINE
  5
4227
330
1F
100
AcDbEntity
  8
SPOJOVACÍ
  6
Continuous
100
AcDbLine
 10
5285.427041657927
 20
-2281.544685108878
 30
0.0
 11
5285.427041657927
 21
-2277.506791979198
 31
0.0
  0
LINE
  5
4228
330
1F
100
AcDbEntity
  8
SPOJOVACÍ
  6
Continuous
100
AcDbLine
 10
5288.126411820663
 20
-2281.544685108878
 30
0.0
 11
5288.126411820663
 21
-2276.60173092995
 31
0.0
  0
LINE
  5
4229
330
1F
100
AcDbEntity
  8
SPOJOVACÍ
  6
Continuous
100
AcDbLine
 10
5285.360999176005
 20
-2282.331613832
 30
0.0
 11
5285.427041657927
 21
-2281.544685108878
 31
0.0
  0
LINE
  5
422A
330
1F
100
AcDbEntity
  8
SPOJOVACÍ
  6
Continuous
100
AcDbLine
 10
5286.137695966131
 20
-2256.1360030711
 30
0.0
 11
5287.536680365697
 21
-2255.665334118515
 31
0.0
  0
LINE
  5
422B
330
1F
100
AcDbEntity
  8
SPOJOVACÍ
  6
Continuous
100
AcDbLine
 10
5285.760044595186
 20
-2255.758351697972
 30
0.0
 11
5286.137695966131
 21
-2256.1360030711
 31
0.0
  0
LINE
  5
422C
330
1F
100
AcDbEntity
  8
SPOJOVACÍ
  6
Continuous
100
AcDbLine
 10
5287.202747255465
 20
-2255.784396620351
 30
0.0
 11
5287.470637883775
 21
-2257.929382005336
 31
0.0
  0
LINE
  5
422D
330
1F
100
AcDbEntity
  8
SPOJOVACÍ
  6
Continuous
100
AcDbLine
 10
5288.126411820663
 20
-2281.544685108878
 30
0.0
 11
5288.353374711546
 21
-2283.068313062308
 31
0.0
  0
HATCH
  5
4230
330
1F
100
AcDbEntity
  8
izolace
100
AcDbHatch
 10
0.0
 20
0.0
 30
0.0
210
0.0
220
0.0
230
1.0
  2
AR-SAND
 70
     0
 71
     0
 91
        1
 92
        7
 72
     0
 73
     1
 93
        4
 10
5276.466179918861
 20
-2113.67047923178
 10
5271.46617991886
 20
-2113.670479231781
 10
5271.46617991886
 20
-2125.67047923178
 10
5276.466179918861
 20
-2125.67047923178
 97
        0
 75
     0
 76
     1
 52
90.0
 41
0.05
 77
     0
 78
     4
 53
127.5
 43
-18683.66426592997
 44
-3602.167756489407
 45
-2.447066186646711
 46
-0.0800015647992021
 79
     6
 49
0.0
 49
-1.9304
 49
0.0
 49
-2.159
 49
0.0
 49
-2.06375
 53
97.49999999999985
 43
-18683.66426592997
 44
-3602.167756489407
 45
-3.584125502841771
 46
2.247616415690013
 79
     6
 49
0.0
 49
-1.041399999999999
 49
0.0
 49
-1.7399
 49
0.0
 49
-0.66675
 53
57.5
 43
-18683.66426592997
 44
-3603.729856489407
 45
-0.0071859233927282
 46
3.95496185120729
 79
     6
 49
0.0
 49
-0.635
 49
0.0
 49
-2.286
 49
0.0
 49
-2.9845
 53
47.5
 43
-18683.66426592997
 44
-3603.729856489407
 45
-1.11464661628608
 46
3.817782262361486
 79
     6
 49
0.0
 49
-0.3175
 49
0.0
 49
-1.498599999999999
 49
0.0
 49
-1.7145
 47
0.2359071171925059
 98
        1
 10
5273.490332016055
 20
-2119.837013332565
  0
LWPOLYLINE
  5
4231
330
1F
100
AcDbEntity
  8
izolace
100
AcDbPolyline
 90
        4
 70
     1
 43
0.0
 10
5276.466179918861
 20
-2113.67047923178
 10
5271.46617991886
 20
-2113.67047923178
 10
5271.46617991886
 20
-2125.67047923178
 10
5276.466179918861
 20
-2125.67047923178
  0
LINE
  5
4232
330
1F
100
AcDbEntity
  8
CETRIS
100
AcDbLine
 10
5276.466179918861
 20
-2125.67047923178
 30
0.0
 11
5276.466179918861
 21
-2113.67047923178
 31
0.0
  0
LINE
  5
4233
330
1F
100
AcDbEntity
  8
CETRIS
100
AcDbLine
 10
5271.46617991886
 20
-2125.67047923178
 30
0.0
 11
5271.46617991886
 21
-2113.67047923178
 31
0.0
  0
LINE
  5
4234
330
1F
100
AcDbEntity
  8
SPOJOVACÍ
  6
Continuous
100
AcDbLine
 10
5258.449972632202
 20
-2117.332581339736
 30
0.0
 11
5259.408053702187
 21
-2116.125213156837
 31
0.0
  0
LINE
  5
4235
330
1F
100
AcDbEntity
  8
SPOJOVACÍ
  6
Continuous
100
AcDbLine
 10
5257.836986783054
 20
-2118.746448549439
 30
0.0
 11
5258.449972632202
 21
-2117.332581339736
 31
0.0
  0
LINE
  5
4236
330
1F
100
AcDbEntity
  8
SPOJOVACÍ
  6
Continuous
100
AcDbLine
 10
5257.610023892171
 20
-2120.270076502868
 30
0.0
 11
5257.836986783054
 21
-2118.746448549439
 31
0.0
  0
LINE
  5
4237
330
1F
100
AcDbEntity
  8
SPOJOVACÍ
  6
Continuous
100
AcDbLine
 10
5261.360492697254
 20
-2113.67047923178
 30
0.0
 11
5261.360492697254
 21
-2114.870406008511
 31
0.0
  0
LINE
  5
4238
330
1F
100
AcDbEntity
  8
SPOJOVACÍ
  6
Continuous
100
AcDbLine
 10
5251.160184919986
 20
-2113.67047923178
 30
0.0
 11
5261.360492697254
 21
-2113.67047923178
 31
0.0
  0
LINE
  5
4239
330
1F
100
AcDbEntity
  8
SPOJOVACÍ
  6
Continuous
100
AcDbLine
 10
5251.160184919986
 20
-2113.67047923178
 30
0.0
 11
5251.160184919986
 21
-2114.870406008511
 31
0.0
  0
LINE
  5
423A
330
1F
100
AcDbEntity
  8
SPOJOVACÍ
  6
Continuous
100
AcDbLine
 10
5251.160184919986
 20
-2114.870406008511
 30
0.0
 11
5261.360492697254
 21
-2114.870406008511
 31
0.0
  0
LINE
  5
423B
330
1F
100
AcDbEntity
  8
SPOJOVACÍ
  6
Continuous
100
AcDbLine
 10
5260.645187511086
 20
-2115.207129646395
 30
0.0
 11
5261.360492697254
 21
-2114.870406008511
 31
0.0
  0
LINE
  5
423C
330
1F
100
AcDbEntity
  8
SPOJOVACÍ
  6
Continuous
100
AcDbLine
 10
5259.408053702187
 20
-2116.125213156837
 30
0.0
 11
5260.645187511086
 21
-2115.207129646395
 31
0.0
  0
LINE
  5
423D
330
1F
100
AcDbEntity
  8
SPOJOVACÍ
  6
Continuous
100
AcDbLine
 10
5254.844611247513
 20
-2119.483147779746
 30
0.0
 11
5254.910653729435
 21
-2120.270076502868
 31
0.0
  0
LINE
  5
423E
330
1F
100
AcDbEntity
  8
SPOJOVACÍ
  6
Continuous
100
AcDbLine
 10
5254.416730383214
 20
-2118.002307912695
 30
0.0
 11
5254.844611247513
 21
-2119.483147779746
 31
0.0
  0
LINE
  5
423F
330
1F
100
AcDbEntity
  8
SPOJOVACÍ
  6
Continuous
100
AcDbLine
 10
5253.620499903895
 20
-2116.683318634398
 30
0.0
 11
5254.416730383214
 21
-2118.002307912695
 31
0.0
  0
LINE
  5
4240
330
1F
100
AcDbEntity
  8
SPOJOVACÍ
  6
Continuous
100
AcDbLine
 10
5252.509870003537
 20
-2115.614546644986
 30
0.0
 11
5253.620499903895
 21
-2116.683318634398
 31
0.0
  0
LINE
  5
4241
330
1F
100
AcDbEntity
  8
SPOJOVACÍ
  6
Continuous
100
AcDbLine
 10
5251.160184919986
 20
-2114.870406008511
 30
0.0
 11
5252.509870003537
 21
-2115.614546644986
 31
0.0
  0
LINE
  5
4242
330
1F
100
AcDbEntity
  8
SPOJOVACÍ
  6
Continuous
100
AcDbLine
 10
5257.610023892171
 20
-2120.270076502868
 30
0.0
 11
5257.610023892171
 21
-2125.213030681797
 31
0.0
  0
LINE
  5
4243
330
1F
100
AcDbEntity
  8
SPOJOVACÍ
  6
Continuous
100
AcDbLine
 10
5254.910653729435
 20
-2120.270076502868
 30
0.0
 11
5254.910653729435
 21
-2124.307969632548
 31
0.0
  0
LINE
  5
4244
330
1F
100
AcDbEntity
  8
SPOJOVACÍ
  6
Continuous
100
AcDbLine
 10
5254.910653729435
 20
-2124.903282141724
 30
0.0
 11
5254.910653729435
 21
-2127.422198196753
 31
0.0
  0
LINE
  5
4245
330
1F
100
AcDbEntity
  8
SPOJOVACÍ
  6
Continuous
100
AcDbLine
 10
5253.860485255696
 20
-2124.470750396733
 30
0.0
 11
5258.660192361545
 21
-2125.670677173196
 31
0.0
  0
LINE
  5
4246
330
1F
100
AcDbEntity
  8
SPOJOVACÍ
  6
Continuous
100
AcDbLine
 10
5253.860485255696
 20
-2124.470750396733
 30
0.0
 11
5254.238136631006
 21
-2124.688411532781
 31
0.0
  0
LINE
  5
4247
330
1F
100
AcDbEntity
  8
SPOJOVACÍ
  6
Continuous
100
AcDbLine
 10
5253.860485255696
 20
-2124.470750396733
 30
0.0
 11
5254.238136631006
 21
-2124.092168847903
 31
0.0
  0
LINE
  5
4248
330
1F
100
AcDbEntity
  8
SPOJOVACÍ
  6
Continuous
100
AcDbLine
 10
5258.660192361545
 20
-2125.670677173196
 30
0.0
 11
5258.282540990599
 21
-2126.048328546324
 31
0.0
  0
LINE
  5
4249
330
1F
100
AcDbEntity
  8
SPOJOVACÍ
  6
Continuous
100
AcDbLine
 10
5258.660192361545
 20
-2125.670677173196
 30
0.0
 11
5258.282540990599
 21
-2125.452085861169
 31
0.0
  0
LINE
  5
424A
330
1F
100
AcDbEntity
  8
SPOJOVACÍ
  6
Continuous
100
AcDbLine
 10
5254.238136631006
 20
-2124.688411532781
 30
0.0
 11
5258.282540990599
 21
-2126.048328546324
 31
0.0
  0
LINE
  5
424B
330
1F
100
AcDbEntity
  8
SPOJOVACÍ
  6
Continuous
100
AcDbLine
 10
5254.238136631006
 20
-2124.092168847903
 30
0.0
 11
5258.282540990599
 21
-2125.452085861169
 31
0.0
  0
LINE
  5
424C
330
1F
100
AcDbEntity
  8
SPOJOVACÍ
  6
Continuous
100
AcDbLine
 10
5253.860485255696
 20
-2127.590560015695
 30
0.0
 11
5254.238136631006
 21
-2127.809151327722
 31
0.0
  0
LINE
  5
424D
330
1F
100
AcDbEntity
  8
SPOJOVACÍ
  6
Continuous
100
AcDbLine
 10
5253.860485255696
 20
-2127.590560015695
 30
0.0
 11
5254.238136631006
 21
-2127.212908642567
 31
0.0
  0
LINE
  5
424E
330
1F
100
AcDbEntity
  8
SPOJOVACÍ
  6
Continuous
100
AcDbLine
 10
5254.910653729435
 20
-2131.141041028252
 30
0.0
 11
5254.910653729435
 21
-2133.669258841121
 31
0.0
  0
LINE
  5
424F
330
1F
100
AcDbEntity
  8
SPOJOVACÍ
  6
Continuous
100
AcDbLine
 10
5257.610023892171
 20
-2128.931873513295
 30
0.0
 11
5257.610023892171
 21
-2131.460091326164
 31
0.0
  0
LINE
  5
4250
330
1F
100
AcDbEntity
  8
SPOJOVACÍ
  6
Continuous
100
AcDbLine
 10
5257.610023892171
 20
-2132.054473659639
 30
0.0
 11
5257.610023892171
 21
-2134.575250066348
 31
0.0
  0
LINE
  5
4251
330
1F
100
AcDbEntity
  8
SPOJOVACÍ
  6
Continuous
100
AcDbLine
 10
5254.910653729435
 20
-2134.273873108407
 30
0.0
 11
5254.910653729435
 21
-2136.791858987734
 31
0.0
  0
LINE
  5
4252
330
1F
100
AcDbEntity
  8
SPOJOVACÍ
  6
Continuous
100
AcDbLine
 10
5257.610023892171
 20
-2135.176143630281
 30
0.0
 11
5257.610023892171
 21
-2137.69505968531
 31
0.0
  0
LINE
  5
4253
330
1F
100
AcDbEntity
  8
SPOJOVACÍ
  6
Continuous
100
AcDbLine
 10
5258.660192361545
 20
-2128.790486792434
 30
0.0
 11
5258.282540990599
 21
-2129.168138165286
 31
0.0
  0
LINE
  5
4254
330
1F
100
AcDbEntity
  8
SPOJOVACÍ
  6
Continuous
100
AcDbLine
 10
5258.660192361545
 20
-2128.790486792434
 30
0.0
 11
5258.282540990599
 21
-2128.571895480408
 31
0.0
  0
LINE
  5
4255
330
1F
100
AcDbEntity
  8
SPOJOVACÍ
  6
Continuous
100
AcDbLine
 10
5253.860485255696
 20
-2130.710369634934
 30
0.0
 11
5258.660192361545
 21
-2131.910296411396
 31
0.0
  0
LINE
  5
4256
330
1F
100
AcDbEntity
  8
SPOJOVACÍ
  6
Continuous
100
AcDbLine
 10
5253.860485255696
 20
-2130.710369634934
 30
0.0
 11
5254.238136631006
 21
-2130.92896094696
 31
0.0
  0
LINE
  5
4257
330
1F
100
AcDbEntity
  8
SPOJOVACÍ
  6
Continuous
100
AcDbLine
 10
5253.860485255696
 20
-2130.710369634934
 30
0.0
 11
5254.238136631006
 21
-2130.332718261806
 31
0.0
  0
LINE
  5
4258
330
1F
100
AcDbEntity
  8
SPOJOVACÍ
  6
Continuous
100
AcDbLine
 10
5258.660192361545
 20
-2131.910296411396
 30
0.0
 11
5258.282540990599
 21
-2132.288877960226
 31
0.0
  0
LINE
  5
4259
330
1F
100
AcDbEntity
  8
SPOJOVACÍ
  6
Continuous
100
AcDbLine
 10
5258.660192361545
 20
-2131.910296411396
 30
0.0
 11
5258.282540990599
 21
-2131.692635275078
 31
0.0
  0
LINE
  5
425A
330
1F
100
AcDbEntity
  8
SPOJOVACÍ
  6
Continuous
100
AcDbLine
 10
5254.238136631006
 20
-2130.92896094696
 30
0.0
 11
5258.282540990599
 21
-2132.288877960226
 31
0.0
  0
LINE
  5
425B
330
1F
100
AcDbEntity
  8
SPOJOVACÍ
  6
Continuous
100
AcDbLine
 10
5254.238136631006
 20
-2130.332718261806
 30
0.0
 11
5258.282540990599
 21
-2131.692635275078
 31
0.0
  0
LINE
  5
425C
330
1F
100
AcDbEntity
  8
SPOJOVACÍ
  6
Continuous
100
AcDbLine
 10
5253.860485255696
 20
-2133.830179253903
 30
0.0
 11
5258.660192361545
 21
-2135.030106030365
 31
0.0
  0
LINE
  5
425D
330
1F
100
AcDbEntity
  8
SPOJOVACÍ
  6
Continuous
100
AcDbLine
 10
5253.860485255696
 20
-2133.830179253903
 30
0.0
 11
5254.238136631006
 21
-2134.048770565922
 31
0.0
  0
LINE
  5
425E
330
1F
100
AcDbEntity
  8
SPOJOVACÍ
  6
Continuous
100
AcDbLine
 10
5253.860485255696
 20
-2133.830179253903
 30
0.0
 11
5254.238136631006
 21
-2133.452527880775
 31
0.0
  0
LINE
  5
425F
330
1F
100
AcDbEntity
  8
SPOJOVACÍ
  6
Continuous
100
AcDbLine
 10
5258.660192361545
 20
-2135.030106030365
 30
0.0
 11
5258.282540990599
 21
-2135.408687579195
 31
0.0
  0
LINE
  5
4260
330
1F
100
AcDbEntity
  8
SPOJOVACÍ
  6
Continuous
100
AcDbLine
 10
5258.660192361545
 20
-2135.030106030365
 30
0.0
 11
5258.282540990599
 21
-2134.812444894317
 31
0.0
  0
LINE
  5
4261
330
1F
100
AcDbEntity
  8
SPOJOVACÍ
  6
Continuous
100
AcDbLine
 10
5254.238136631006
 20
-2134.048770565922
 30
0.0
 11
5258.282540990599
 21
-2135.408687579195
 31
0.0
  0
LINE
  5
4262
330
1F
100
AcDbEntity
  8
SPOJOVACÍ
  6
Continuous
100
AcDbLine
 10
5254.238136631006
 20
-2133.452527880775
 30
0.0
 11
5258.282540990599
 21
-2134.812444894317
 31
0.0
  0
LINE
  5
4263
330
1F
100
AcDbEntity
  8
SPOJOVACÍ
  6
Continuous
100
AcDbLine
 10
5253.860485255696
 20
-2136.950919048843
 30
0.0
 11
5254.238136631006
 21
-2137.168580184891
 31
0.0
  0
LINE
  5
4264
330
1F
100
AcDbEntity
  8
SPOJOVACÍ
  6
Continuous
100
AcDbLine
 10
5253.860485255696
 20
-2136.950919048843
 30
0.0
 11
5254.238136631006
 21
-2136.572337499737
 31
0.0
  0
LINE
  5
4265
330
1F
100
AcDbEntity
  8
SPOJOVACÍ
  6
Continuous
100
AcDbLine
 10
5254.238136631006
 20
-2136.572337499737
 30
0.0
 11
5258.282540990599
 21
-2137.932254513279
 31
0.0
  0
LINE
  5
4266
330
1F
100
AcDbEntity
  8
SPOJOVACÍ
  6
Continuous
100
AcDbLine
 10
5254.910653729435
 20
-2128.025882288068
 30
0.0
 11
5254.910653729435
 21
-2130.546658694777
 31
0.0
  0
LINE
  5
4267
330
1F
100
AcDbEntity
  8
SPOJOVACÍ
  6
Continuous
100
AcDbLine
 10
5257.610023892171
 20
-2125.816714773111
 30
0.0
 11
5257.610023892171
 21
-2128.335630828141
 31
0.0
  0
LINE
  5
4268
330
1F
100
AcDbEntity
  8
SPOJOVACÍ
  6
Continuous
100
AcDbLine
 10
5253.860485255696
 20
-2127.590560015695
 30
0.0
 11
5258.660192361545
 21
-2128.790486792434
 31
0.0
  0
LINE
  5
4269
330
1F
100
AcDbEntity
  8
SPOJOVACÍ
  6
Continuous
100
AcDbLine
 10
5254.238136631006
 20
-2127.809151327722
 30
0.0
 11
5258.282540990599
 21
-2129.168138165286
 31
0.0
  0
LINE
  5
426A
330
1F
100
AcDbEntity
  8
SPOJOVACÍ
  6
Continuous
100
AcDbLine
 10
5254.238136631006
 20
-2127.212908642567
 30
0.0
 11
5258.282540990599
 21
-2128.571895480408
 31
0.0
  0
LINE
  5
426B
330
1F
100
AcDbEntity
  8
SPOJOVACÍ
  6
Continuous
100
AcDbLine
 10
5294.071874582026
 20
-2127.590560015695
 30
0.0
 11
5293.694223206715
 21
-2127.212908642567
 31
0.0
  0
LINE
  5
426C
330
1F
100
AcDbEntity
  8
SPOJOVACÍ
  6
Continuous
100
AcDbLine
 10
5294.071874582026
 20
-2127.590560015695
 30
0.0
 11
5293.694223206715
 21
-2127.809151327722
 31
0.0
  0
LINE
  5
426D
330
1F
100
AcDbEntity
  8
SPOJOVACÍ
  6
Continuous
100
AcDbLine
 10
5293.694223206715
 20
-2124.092168847903
 30
0.0
 11
5289.649818847123
 21
-2125.452085861169
 31
0.0
  0
LINE
  5
426E
330
1F
100
AcDbEntity
  8
SPOJOVACÍ
  6
Continuous
100
AcDbLine
 10
5293.694223206715
 20
-2124.688411532781
 30
0.0
 11
5289.649818847123
 21
-2126.048328546324
 31
0.0
  0
LINE
  5
426F
330
1F
100
AcDbEntity
  8
SPOJOVACÍ
  6
Continuous
100
AcDbLine
 10
5289.272167476177
 20
-2125.670677173196
 30
0.0
 11
5289.649818847123
 21
-2125.452085861169
 31
0.0
  0
LINE
  5
4270
330
1F
100
AcDbEntity
  8
SPOJOVACÍ
  6
Continuous
100
AcDbLine
 10
5289.272167476177
 20
-2125.670677173196
 30
0.0
 11
5289.649818847123
 21
-2126.048328546324
 31
0.0
  0
LINE
  5
4271
330
1F
100
AcDbEntity
  8
SPOJOVACÍ
  6
Continuous
100
AcDbLine
 10
5294.071874582026
 20
-2124.470750396733
 30
0.0
 11
5293.694223206715
 21
-2124.092168847903
 31
0.0
  0
LINE
  5
4272
330
1F
100
AcDbEntity
  8
SPOJOVACÍ
  6
Continuous
100
AcDbLine
 10
5294.071874582026
 20
-2124.470750396733
 30
0.0
 11
5293.694223206715
 21
-2124.688411532781
 31
0.0
  0
LINE
  5
4273
330
1F
100
AcDbEntity
  8
SPOJOVACÍ
  6
Continuous
100
AcDbLine
 10
5294.071874582026
 20
-2124.470750396733
 30
0.0
 11
5289.272167476177
 21
-2125.670677173196
 31
0.0
  0
LINE
  5
4274
330
1F
100
AcDbEntity
  8
SPOJOVACÍ
  6
Continuous
100
AcDbLine
 10
5293.021706108287
 20
-2124.903282141724
 30
0.0
 11
5293.021706108287
 21
-2127.422198196753
 31
0.0
  0
LINE
  5
4275
330
1F
100
AcDbEntity
  8
SPOJOVACÍ
  6
Continuous
100
AcDbLine
 10
5293.021706108287
 20
-2120.270076502868
 30
0.0
 11
5293.021706108287
 21
-2124.307969632548
 31
0.0
  0
LINE
  5
4276
330
1F
100
AcDbEntity
  8
SPOJOVACÍ
  6
Continuous
100
AcDbLine
 10
5290.322335945551
 20
-2120.270076502868
 30
0.0
 11
5290.322335945551
 21
-2125.213030681797
 31
0.0
  0
LINE
  5
4277
330
1F
100
AcDbEntity
  8
SPOJOVACÍ
  6
Continuous
100
AcDbLine
 10
5296.772174917736
 20
-2114.870406008511
 30
0.0
 11
5295.422489834185
 21
-2115.614546644986
 31
0.0
  0
LINE
  5
4278
330
1F
100
AcDbEntity
  8
SPOJOVACÍ
  6
Continuous
100
AcDbLine
 10
5295.422489834185
 20
-2115.614546644986
 30
0.0
 11
5294.311859933826
 21
-2116.683318634398
 31
0.0
  0
LINE
  5
4279
330
1F
100
AcDbEntity
  8
SPOJOVACÍ
  6
Continuous
100
AcDbLine
 10
5294.311859933826
 20
-2116.683318634398
 30
0.0
 11
5293.515629454508
 21
-2118.002307912695
 31
0.0
  0
LINE
  5
427A
330
1F
100
AcDbEntity
  8
SPOJOVACÍ
  6
Continuous
100
AcDbLine
 10
5293.515629454508
 20
-2118.002307912695
 30
0.0
 11
5293.087748590209
 21
-2119.483147779746
 31
0.0
  0
LINE
  5
427B
330
1F
100
AcDbEntity
  8
SPOJOVACÍ
  6
Continuous
100
AcDbLine
 10
5293.087748590209
 20
-2119.483147779746
 30
0.0
 11
5293.021706108287
 21
-2120.270076502868
 31
0.0
  0
LINE
  5
427C
330
1F
100
AcDbEntity
  8
SPOJOVACÍ
  6
Continuous
100
AcDbLine
 10
5288.524306135535
 20
-2116.125213156837
 30
0.0
 11
5287.287172326635
 21
-2115.207129646395
 31
0.0
  0
LINE
  5
427D
330
1F
100
AcDbEntity
  8
SPOJOVACÍ
  6
Continuous
100
AcDbLine
 10
5287.287172326635
 20
-2115.207129646395
 30
0.0
 11
5286.571867140468
 21
-2114.870406008511
 31
0.0
  0
LINE
  5
427E
330
1F
100
AcDbEntity
  8
SPOJOVACÍ
  6
Continuous
100
AcDbLine
 10
5296.772174917736
 20
-2114.870406008511
 30
0.0
 11
5286.571867140468
 21
-2114.870406008511
 31
0.0
  0
LINE
  5
427F
330
1F
100
AcDbEntity
  8
SPOJOVACÍ
  6
Continuous
100
AcDbLine
 10
5296.772174917736
 20
-2113.67047923178
 30
0.0
 11
5296.772174917736
 21
-2114.870406008511
 31
0.0
  0
LINE
  5
4280
330
1F
100
AcDbEntity
  8
SPOJOVACÍ
  6
Continuous
100
AcDbLine
 10
5296.772174917736
 20
-2113.67047923178
 30
0.0
 11
5286.571867140468
 21
-2113.67047923178
 31
0.0
  0
LINE
  5
4281
330
1F
100
AcDbEntity
  8
SPOJOVACÍ
  6
Continuous
100
AcDbLine
 10
5286.571867140468
 20
-2113.67047923178
 30
0.0
 11
5286.571867140468
 21
-2114.870406008511
 31
0.0
  0
LINE
  5
4282
330
1F
100
AcDbEntity
  8
SPOJOVACÍ
  6
Continuous
100
AcDbLine
 10
5290.322335945551
 20
-2120.270076502868
 30
0.0
 11
5290.095373054668
 21
-2118.746448549439
 31
0.0
  0
LINE
  5
4283
330
1F
100
AcDbEntity
  8
SPOJOVACÍ
  6
Continuous
100
AcDbLine
 10
5290.095373054668
 20
-2118.746448549439
 30
0.0
 11
5289.48238720552
 21
-2117.332581339736
 31
0.0
  0
LINE
  5
4284
330
1F
100
AcDbEntity
  8
SPOJOVACÍ
  6
Continuous
100
AcDbLine
 10
5289.48238720552
 20
-2117.332581339736
 30
0.0
 11
5288.524306135535
 21
-2116.125213156837
 31
0.0
  0
LINE
  5
4285
330
1F
100
AcDbEntity
  8
SPOJOVACÍ
  6
Continuous
100
AcDbLine
 10
5293.694223206715
 20
-2136.572337499737
 30
0.0
 11
5289.649818847123
 21
-2137.932254513279
 31
0.0
  0
LINE
  5
4286
330
1F
100
AcDbEntity
  8
SPOJOVACÍ
  6
Continuous
100
AcDbLine
 10
5294.071874582026
 20
-2136.950919048843
 30
0.0
 11
5293.694223206715
 21
-2136.572337499737
 31
0.0
  0
LINE
  5
4287
330
1F
100
AcDbEntity
  8
SPOJOVACÍ
  6
Continuous
100
AcDbLine
 10
5294.071874582026
 20
-2136.950919048843
 30
0.0
 11
5293.694223206715
 21
-2137.168580184891
 31
0.0
  0
LINE
  5
4288
330
1F
100
AcDbEntity
  8
SPOJOVACÍ
  6
Continuous
100
AcDbLine
 10
5293.694223206715
 20
-2133.452527880775
 30
0.0
 11
5289.649818847123
 21
-2134.812444894317
 31
0.0
  0
LINE
  5
4289
330
1F
100
AcDbEntity
  8
SPOJOVACÍ
  6
Continuous
100
AcDbLine
 10
5293.694223206715
 20
-2134.048770565922
 30
0.0
 11
5289.649818847123
 21
-2135.408687579195
 31
0.0
  0
LINE
  5
428A
330
1F
100
AcDbEntity
  8
SPOJOVACÍ
  6
Continuous
100
AcDbLine
 10
5289.272167476177
 20
-2135.030106030365
 30
0.0
 11
5289.649818847123
 21
-2134.812444894317
 31
0.0
  0
LINE
  5
428B
330
1F
100
AcDbEntity
  8
SPOJOVACÍ
  6
Continuous
100
AcDbLine
 10
5289.272167476177
 20
-2135.030106030365
 30
0.0
 11
5289.649818847123
 21
-2135.408687579195
 31
0.0
  0
LINE
  5
428C
330
1F
100
AcDbEntity
  8
SPOJOVACÍ
  6
Continuous
100
AcDbLine
 10
5294.071874582026
 20
-2133.830179253903
 30
0.0
 11
5293.694223206715
 21
-2133.452527880775
 31
0.0
  0
LINE
  5
428D
330
1F
100
AcDbEntity
  8
SPOJOVACÍ
  6
Continuous
100
AcDbLine
 10
5294.071874582026
 20
-2133.830179253903
 30
0.0
 11
5293.694223206715
 21
-2134.048770565922
 31
0.0
  0
LINE
  5
428E
330
1F
100
AcDbEntity
  8
SPOJOVACÍ
  6
Continuous
100
AcDbLine
 10
5294.071874582026
 20
-2133.830179253903
 30
0.0
 11
5289.272167476177
 21
-2135.030106030365
 31
0.0
  0
LINE
  5
428F
330
1F
100
AcDbEntity
  8
SPOJOVACÍ
  6
Continuous
100
AcDbLine
 10
5293.694223206715
 20
-2130.332718261806
 30
0.0
 11
5289.649818847123
 21
-2131.692635275078
 31
0.0
  0
LINE
  5
4290
330
1F
100
AcDbEntity
  8
SPOJOVACÍ
  6
Continuous
100
AcDbLine
 10
5293.694223206715
 20
-2130.92896094696
 30
0.0
 11
5289.649818847123
 21
-2132.288877960226
 31
0.0
  0
LINE
  5
4291
330
1F
100
AcDbEntity
  8
SPOJOVACÍ
  6
Continuous
100
AcDbLine
 10
5289.272167476177
 20
-2131.910296411396
 30
0.0
 11
5289.649818847123
 21
-2131.692635275078
 31
0.0
  0
LINE
  5
4292
330
1F
100
AcDbEntity
  8
SPOJOVACÍ
  6
Continuous
100
AcDbLine
 10
5289.272167476177
 20
-2131.910296411396
 30
0.0
 11
5289.649818847123
 21
-2132.288877960226
 31
0.0
  0
LINE
  5
4293
330
1F
100
AcDbEntity
  8
SPOJOVACÍ
  6
Continuous
100
AcDbLine
 10
5294.071874582026
 20
-2130.710369634934
 30
0.0
 11
5293.694223206715
 21
-2130.332718261806
 31
0.0
  0
LINE
  5
4294
330
1F
100
AcDbEntity
  8
SPOJOVACÍ
  6
Continuous
100
AcDbLine
 10
5294.071874582026
 20
-2130.710369634934
 30
0.0
 11
5293.694223206715
 21
-2130.92896094696
 31
0.0
  0
LINE
  5
4295
330
1F
100
AcDbEntity
  8
SPOJOVACÍ
  6
Continuous
100
AcDbLine
 10
5294.071874582026
 20
-2130.710369634934
 30
0.0
 11
5289.272167476177
 21
-2131.910296411396
 31
0.0
  0
LINE
  5
4296
330
1F
100
AcDbEntity
  8
SPOJOVACÍ
  6
Continuous
100
AcDbLine
 10
5289.272167476177
 20
-2128.790486792434
 30
0.0
 11
5289.649818847123
 21
-2128.571895480408
 31
0.0
  0
LINE
  5
4297
330
1F
100
AcDbEntity
  8
SPOJOVACÍ
  6
Continuous
100
AcDbLine
 10
5289.272167476177
 20
-2128.790486792434
 30
0.0
 11
5289.649818847123
 21
-2129.168138165286
 31
0.0
  0
LINE
  5
4298
330
1F
100
AcDbEntity
  8
SPOJOVACÍ
  6
Continuous
100
AcDbLine
 10
5290.322335945551
 20
-2135.176143630281
 30
0.0
 11
5290.322335945551
 21
-2137.69505968531
 31
0.0
  0
LINE
  5
4299
330
1F
100
AcDbEntity
  8
SPOJOVACÍ
  6
Continuous
100
AcDbLine
 10
5293.021706108287
 20
-2134.273873108407
 30
0.0
 11
5293.021706108287
 21
-2136.791858987734
 31
0.0
  0
LINE
  5
429A
330
1F
100
AcDbEntity
  8
SPOJOVACÍ
  6
Continuous
100
AcDbLine
 10
5290.322335945551
 20
-2132.054473659639
 30
0.0
 11
5290.322335945551
 21
-2134.575250066348
 31
0.0
  0
LINE
  5
429B
330
1F
100
AcDbEntity
  8
SPOJOVACÍ
  6
Continuous
100
AcDbLine
 10
5290.322335945551
 20
-2128.931873513295
 30
0.0
 11
5290.322335945551
 21
-2131.460091326164
 31
0.0
  0
LINE
  5
429C
330
1F
100
AcDbEntity
  8
SPOJOVACÍ
  6
Continuous
100
AcDbLine
 10
5293.021706108287
 20
-2131.141041028252
 30
0.0
 11
5293.021706108287
 21
-2133.669258841121
 31
0.0
  0
LINE
  5
429E
330
1F
100
AcDbEntity
  8
SPOJOVACÍ
  6
Continuous
100
AcDbLine
 10
5293.694223206715
 20
-2127.212908642567
 30
0.0
 11
5289.649818847123
 21
-2128.571895480408
 31
0.0
  0
LINE
  5
429F
330
1F
100
AcDbEntity
  8
SPOJOVACÍ
  6
Continuous
100
AcDbLine
 10
5293.694223206715
 20
-2127.809151327722
 30
0.0
 11
5289.649818847123
 21
-2129.168138165286
 31
0.0
  0
LINE
  5
42A0
330
1F
100
AcDbEntity
  8
SPOJOVACÍ
  6
Continuous
100
AcDbLine
 10
5294.071874582026
 20
-2127.590560015695
 30
0.0
 11
5289.272167476177
 21
-2128.790486792434
 31
0.0
  0
LINE
  5
42A1
330
1F
100
AcDbEntity
  8
SPOJOVACÍ
  6
Continuous
100
AcDbLine
 10
5290.322335945551
 20
-2125.816714773111
 30
0.0
 11
5290.322335945551
 21
-2128.335630828141
 31
0.0
  0
LINE
  5
42A2
330
1F
100
AcDbEntity
  8
SPOJOVACÍ
  6
Continuous
100
AcDbLine
 10
5293.021706108287
 20
-2128.025882288068
 30
0.0
 11
5293.021706108287
 21
-2130.546658694777
 31
0.0
  0
LINE
  5
42A4
330
1F
100
AcDbEntity
  8
POPIS
100
AcDbLine
 10
5479.267992662415
 20
-2322.493585922233
 30
0.0
 11
5522.291059503465
 21
-2088.901219988805
 31
0.0
  0
LINE
  5
437D
330
1F
100
AcDbEntity
  8
POPIS
100
AcDbLine
 10
4893.668344247335
 20
-2315.606606372375
 30
0.0
 11
4935.422966461256
 21
-2088.901219988805
 31
0.0
  0
LINE
  5
467F
330
1F
100
AcDbEntity
  8
NOSNÉ KONSTRUKCE
100
AcDbLine
 10
4912.310664219404
 20
-2214.388726093123
 30
0.0
 11
5499.178757261613
 21
-2214.388726093122
 31
0.0
  0
LINE
  5
4680
330
1F
100
AcDbEntity
  8
NOSNÉ KONSTRUKCE
100
AcDbLine
 10
4914.555654249316
 20
-2202.199624499756
 30
0.0
 11
5501.653267476899
 21
-2202.199624499757
 31
0.0
  0
LINE
  5
4681
330
1F
100
AcDbEntity
  8
NOSNÉ KONSTRUKCE
100
AcDbLine
 10
4910.806613517607
 20
-2222.554921292892
 30
0.0
 11
5497.674706559815
 21
-2222.554921292892
 31
0.0
  0
LINE
  5
4682
330
1F
100
AcDbEntity
  8
NOSNÉ KONSTRUKCE
100
AcDbLine
 10
4901.111358056442
 20
-2275.195000854626
 30
0.0
 11
5487.979451098649
 21
-2275.195000854626
 31
0.0
  0
LINE
  5
4684
330
1F
100
AcDbEntity
  8
NOSNÉ KONSTRUKCE
100
AcDbLine
 10
4903.392741185403
 20
-2262.808304093477
 30
0.0
 11
5490.260834227611
 21
-2262.808304093477
 31
0.0
  0
LINE
  5
4685
330
1F
100
AcDbEntity
  8
NOSNÉ KONSTRUKCE
100
AcDbLine
 10
4904.773748491724
 20
-2255.310169075661
 30
0.0
 11
5491.641841533931
 21
-2255.310169075661
 31
0.0
  0
HATCH
  5
4686
330
1F
100
AcDbEntity
  8
NOSNÉ KONSTRUKCE
100
AcDbHatch
 10
0.0
 20
0.0
 30
0.0
210
0.0
220
0.0
230
1.0
  2
SOLID
 70
     1
 71
     0
 91
        1
 92
        7
 72
     1
 73
     1
 93
       60
 10
5248.797335908555
 20
-2255.630142275729
 42
0.0
 10
5248.797335908556
 20
-2221.75304315179
 42
0.3073346934841183
 10
5249.944508396776
 20
-2220.037852588723
 42
0.0
 10
5249.944508396776
 20
-2216.2766184882
 42
0.307334693483106
 10
5248.797335908555
 20
-2214.561427925139
 42
0.0
 10
5248.797335908556
 20
-2204.219977836615
 42
-0.4142135623730951
 10
5250.767335908555
 20
-2202.249977836616
 42
0.0
 10
5258.843206469638
 20
-2202.249977836616
 42
0.7595816512230912
 10
5262.380777004878
 20
-2202.249977836616
 42
0.0
 10
5271.419008368369
 20
-2202.24997783662
 42
0.7595816493590427
 10
5274.956578936077
 20
-2202.249977836616
 42
0.0
 10
5283.994808296294
 20
-2202.249977836616
 42
0.7767342353201953
 10
5287.552095001758
 20
-2202.173190011531
 42
0.0
 10
5294.021682599687
 20
-2202.173190011532
 42
-0.4142135623730868
 10
5295.991682599686
 20
-2204.143190011531
 42
0.0
 10
5295.991682599687
 20
-2206.926135916351
 42
0.0
 10
5295.006682599686
 20
-2206.926135916351
 42
0.0
 10
5295.006682599686
 20
-2204.143190011531
 42
0.4142135623730951
 10
5294.021682599687
 20
-2203.158190011531
 42
0.0
 10
5288.212451993293
 20
-2203.158190011531
 42
-0.5694936494219963
 10
5283.360395790547
 20
-2203.234977836616
 42
0.0
 10
5275.590993386249
 20
-2203.234977836616
 42
-0.5590616644338513
 10
5270.784593918199
 20
-2203.234977836619
 42
0.0
 10
5263.015191455633
 20
-2203.234977836616
 42
-0.5590616643157284
 10
5258.208792018884
 20
-2203.234977836616
 42
0.0
 10
5250.767335908555
 20
-2203.234977836616
 42
0.4142135623731451
 10
5249.782335908555
 20
-2204.219977836615
 42
0.0
 10
5249.782335908555
 20
-2214.003986964578
 42
-0.2364174637114482
 10
5250.920463108709
 20
-2216.251608876736
 42
0.0
 10
5250.920463108709
 20
-2220.062862200192
 42
-0.2364174637115772
 10
5249.782335908555
 20
-2222.310484112352
 42
0.0
 10
5249.782335908555
 20
-2255.076286380098
 42
-0.2353201211467568
 10
5250.90979702233
 20
-2257.317570663185
 42
0.0
 10
5250.907614685894
 20
-2261.12882336183
 42
-0.2364174637122881
 10
5249.768200676478
 20
-2263.375793210077
 42
0.0
 10
5249.762598320038
 20
-2273.159800734075
 42
0.4142135623730951
 10
5250.747034144257
 20
-2274.1453645869
 42
0.0
 10
5258.188489034652
 20
-2274.149625589625
 42
-0.5590616643157161
 10
5262.994887683453
 20
-2274.152377750062
 42
0.0
 10
5270.764288872323
 20
-2274.156826535965
 42
-0.5590616644338511
 10
5275.570687552427
 20
-2274.159578696424
 42
0.0
 10
5283.340088683029
 20
-2274.164027482298
 42
-0.5694936494220229
 10
5288.192100121376
 20
-2274.243593598448
 42
0.0
 10
5294.00132977542
 20
-2274.246919983376
 42
0.4142135623730951
 10
5294.986893628244
 20
-2273.262484159158
 42
0.0
 10
5294.988487152402
 20
-2270.479538710568
 42
0.0
 10
5295.973486990925
 20
-2270.48010272487
 42
0.0
 10
5295.971893466766
 20
-2273.263048173462
 42
-0.4142135623730618
 10
5294.000765761117
 20
-2275.231919821898
 42
0.0
 10
5287.531179223794
 20
-2275.228215314342
 42
0.7767342353201953
 10
5283.973937070468
 20
-2275.149390587548
 42
0.0
 10
5274.935709191955
 20
-2275.144215267104
 42
0.759581649359043
 10
5271.398139204187
 20
-2275.142189642329
 42
0.0
 10
5262.359909322399
 20
-2275.137014320743
 42
0.7595816512230912
 10
5258.822339367099
 20
-2275.134988695989
 42
0.0
 10
5250.746470129953
 20
-2275.130364425422
 42
-0.4142135623731117
 10
5248.777598481517
 20
-2273.159236719771
 42
0.0
 10
5248.78352003052
 20
-2262.817788326598
 42
0.3073346934834261
 10
5249.931674454543
 20
-2261.103254919533
 42
0.0
 10
5249.933828149805
 20
-2257.342021435615
 42
0.3057747226774016
 97
        0
 75
     0
 76
     1
 47
0.1180065091547201
 98
        1
 10
5249.191989827971
 20
-2246.409183688447
  0
LINE
  5
4756
330
1F
100
AcDbEntity
  8
CETRIS
100
AcDbLine
 10
4933.07112293364
 20
-2101.67047923178
 30
0.0
 11
5519.939215975847
 21
-2101.67047923178
 31
0.0
  0
LINE
  5
4757
330
1F
100
AcDbEntity
  8
CETRIS
100
AcDbLine
 10
4896.516196727382
 20
-2300.144282379967
 30
0.0
 11
5229.91596607213
 21
-2300.144282379967
 31
0.0
  0
LINE
  5
4C6E
330
1F
100
AcDbEntity
  8
SPOJOVACÍ
  6
Continuous
100
AcDbLine
 10
5268.934157857268
 20
-2126.150845825305
 30
0.0
 11
5268.556506486323
 21
-2125.932254513279
 31
0.0
  0
LINE
  5
4C6F
330
1F
100
AcDbEntity
  8
SPOJOVACÍ
  6
Continuous
100
AcDbLine
 10
5267.883989387894
 20
-2126.298743776894
 30
0.0
 11
5267.883989387894
 21
-2126.635467414777
 31
0.0
  0
LINE
  5
4C70
330
1F
100
AcDbEntity
  8
SPOJOVACÍ
  6
Continuous
100
AcDbLine
 10
5266.960324822696
 20
-2134.030364991395
 30
0.0
 11
5267.228215451007
 21
-2131.885379606411
 31
0.0
  0
LINE
  5
4C71
330
1F
100
AcDbEntity
  8
SPOJOVACÍ
  6
Continuous
100
AcDbLine
 10
5267.299838983865
 20
-2131.313321491962
 30
0.0
 11
5267.566799439203
 21
-2129.176707689109
 31
0.0
  0
LINE
  5
4C72
330
1F
100
AcDbEntity
  8
SPOJOVACÍ
  6
Continuous
100
AcDbLine
 10
5267.638422976427
 20
-2128.606509926064
 30
0.0
 11
5267.883989387894
 21
-2126.635467414777
 31
0.0
  0
LINE
  5
4C73
330
1F
100
AcDbEntity
  8
SPOJOVACÍ
  6
Continuous
100
AcDbLine
 10
5268.513718398583
 20
-2129.000904463461
 30
0.0
 11
5268.136067027637
 21
-2129.379486012568
 31
0.0
  0
LINE
  5
4C74
330
1F
100
AcDbEntity
  8
SPOJOVACÍ
  6
Continuous
100
AcDbLine
 10
5268.513718398583
 20
-2129.000904463461
 30
0.0
 11
5268.136067027637
 21
-2128.783243327413
 31
0.0
  0
LINE
  5
4C75
330
1F
100
AcDbEntity
  8
SPOJOVACÍ
  6
Continuous
100
AcDbLine
 10
5268.069094368377
 20
-2131.676090052225
 30
0.0
 11
5267.691442997431
 21
-2132.054671601055
 31
0.0
  0
LINE
  5
4C76
330
1F
100
AcDbEntity
  8
SPOJOVACÍ
  6
Continuous
100
AcDbLine
 10
5268.069094368377
 20
-2131.676090052225
 30
0.0
 11
5267.691442997431
 21
-2131.458428916177
 31
0.0
  0
LINE
  5
4C77
330
1F
100
AcDbEntity
  8
SPOJOVACÍ
  6
Continuous
100
AcDbLine
 10
5267.671909303874
 20
-2134.367088629548
 30
0.0
 11
5267.294257932928
 21
-2134.745670178378
 31
0.0
  0
LINE
  5
4C78
330
1F
100
AcDbEntity
  8
SPOJOVACÍ
  6
Continuous
100
AcDbLine
 10
5267.671909303874
 20
-2134.367088629548
 30
0.0
 11
5267.294257932928
 21
-2134.149427493231
 31
0.0
  0
LINE
  5
4C79
330
1F
100
AcDbEntity
  8
SPOJOVACÍ
  6
Continuous
100
AcDbLine
 10
5268.934157857268
 20
-2126.150845825305
 30
0.0
 11
5268.556506486323
 21
-2126.528497198433
 31
0.0
  0
LINE
  5
4C7A
330
1F
100
AcDbEntity
  8
SPOJOVACÍ
  6
Continuous
100
AcDbLine
 10
5268.110952278778
 20
-2106.746448549439
 30
0.0
 11
5268.723938127926
 21
-2105.332581339736
 31
0.0
  0
LINE
  5
4C7B
330
1F
100
AcDbEntity
  8
SPOJOVACÍ
  6
Continuous
100
AcDbLine
 10
5267.883989387894
 20
-2108.270076502868
 30
0.0
 11
5268.110952278778
 21
-2106.746448549439
 31
0.0
  0
LINE
  5
4C7C
330
1F
100
AcDbEntity
  8
SPOJOVACÍ
  6
Continuous
100
AcDbLine
 10
5267.883989387894
 20
-2108.270076502868
 30
0.0
 11
5267.883989387894
 21
-2113.213030681797
 31
0.0
  0
LINE
  5
4C7D
330
1F
100
AcDbEntity
  8
SPOJOVACÍ
  6
Continuous
100
AcDbLine
 10
5267.883989387894
 20
-2113.816714773112
 30
0.0
 11
5267.883989387894
 21
-2116.33563082814
 31
0.0
  0
LINE
  5
4C7E
330
1F
100
AcDbEntity
  8
SPOJOVACÍ
  6
Continuous
100
AcDbLine
 10
5267.883989387894
 20
-2116.931873513296
 30
0.0
 11
5267.883989387894
 21
-2119.460091326164
 31
0.0
  0
LINE
  5
4C7F
330
1F
100
AcDbEntity
  8
SPOJOVACÍ
  6
Continuous
100
AcDbLine
 10
5267.883989387894
 20
-2120.054473659639
 30
0.0
 11
5267.883989387894
 21
-2122.575250066348
 31
0.0
  0
LINE
  5
4C80
330
1F
100
AcDbEntity
  8
SPOJOVACÍ
  6
Continuous
100
AcDbLine
 10
5267.883989387894
 20
-2123.176143630281
 30
0.0
 11
5267.883989387894
 21
-2125.69505968531
 31
0.0
  0
LINE
  5
4C81
330
1F
100
AcDbEntity
  8
SPOJOVACÍ
  6
Continuous
100
AcDbLine
 10
5268.934157857268
 20
-2113.670677173196
 30
0.0
 11
5268.556506486323
 21
-2114.048328546324
 31
0.0
  0
LINE
  5
4C82
330
1F
100
AcDbEntity
  8
SPOJOVACÍ
  6
Continuous
100
AcDbLine
 10
5268.934157857268
 20
-2113.670677173196
 30
0.0
 11
5268.556506486323
 21
-2113.452085861169
 31
0.0
  0
LINE
  5
4C83
330
1F
100
AcDbEntity
  8
SPOJOVACÍ
  6
Continuous
100
AcDbLine
 10
5268.934157857268
 20
-2116.790486792434
 30
0.0
 11
5268.556506486323
 21
-2117.168138165286
 31
0.0
  0
LINE
  5
4C84
330
1F
100
AcDbEntity
  8
SPOJOVACÍ
  6
Continuous
100
AcDbLine
 10
5268.934157857268
 20
-2116.790486792434
 30
0.0
 11
5268.556506486323
 21
-2116.571895480408
 31
0.0
  0
LINE
  5
4C85
330
1F
100
AcDbEntity
  8
SPOJOVACÍ
  6
Continuous
100
AcDbLine
 10
5268.934157857268
 20
-2119.910296411396
 30
0.0
 11
5268.556506486323
 21
-2120.288877960226
 31
0.0
  0
LINE
  5
4C86
330
1F
100
AcDbEntity
  8
SPOJOVACÍ
  6
Continuous
100
AcDbLine
 10
5268.934157857268
 20
-2119.910296411396
 30
0.0
 11
5268.556506486323
 21
-2119.692635275078
 31
0.0
  0
LINE
  5
4C87
330
1F
100
AcDbEntity
  8
SPOJOVACÍ
  6
Continuous
100
AcDbLine
 10
5268.934157857268
 20
-2123.030106030365
 30
0.0
 11
5268.556506486323
 21
-2123.408687579195
 31
0.0
  0
LINE
  5
4C88
330
1F
100
AcDbEntity
  8
SPOJOVACÍ
  6
Continuous
100
AcDbLine
 10
5268.934157857268
 20
-2123.030106030365
 30
0.0
 11
5268.556506486323
 21
-2122.812444894317
 31
0.0
  0
LINE
  5
4C89
330
1F
100
AcDbEntity
  8
SPOJOVACÍ
  6
Continuous
100
AcDbLine
 10
5265.184619225158
 20
-2125.388101672889
 30
0.0
 11
5265.184619225158
 21
-2126.635467414777
 31
0.0
  0
LINE
  5
4C8A
330
1F
100
AcDbEntity
  8
SPOJOVACÍ
  6
Continuous
100
AcDbLine
 10
5265.184619225158
 20
-2126.635467414777
 30
0.0
 11
5265.334377527882
 21
-2127.832603664134
 31
0.0
  0
LINE
  5
4C8B
330
1F
100
AcDbEntity
  8
SPOJOVACÍ
  6
Continuous
100
AcDbLine
 10
5265.411582120407
 20
-2128.453030919988
 30
0.0
 11
5265.701796969927
 21
-2130.774749706052
 31
0.0
  0
LINE
  5
4C8C
330
1F
100
AcDbEntity
  8
SPOJOVACÍ
  6
Continuous
100
AcDbLine
 10
5265.780861912765
 20
-2131.405408895717
 30
0.0
 11
5266.071076757919
 21
-2133.726197506072
 31
0.0
  0
LINE
  5
4C8D
330
1F
100
AcDbEntity
  8
SPOJOVACÍ
  6
Continuous
100
AcDbLine
 10
5264.38838874584
 20
-2128.027940581156
 30
0.0
 11
5264.766970294124
 21
-2128.246531893184
 31
0.0
  0
LINE
  5
4C8E
330
1F
100
AcDbEntity
  8
SPOJOVACÍ
  6
Continuous
100
AcDbLine
 10
5264.38838874584
 20
-2128.027940581156
 30
0.0
 11
5264.766970294124
 21
-2127.650289208028
 31
0.0
  0
LINE
  5
4C8F
330
1F
100
AcDbEntity
  8
SPOJOVACÍ
  6
Continuous
100
AcDbLine
 10
5264.953005451946
 20
-2131.042640335455
 30
0.0
 11
5265.330656827257
 21
-2131.260301471503
 31
0.0
  0
LINE
  5
4C90
330
1F
100
AcDbEntity
  8
SPOJOVACÍ
  6
Continuous
100
AcDbLine
 10
5264.953005451946
 20
-2131.042640335455
 30
0.0
 11
5265.330656827257
 21
-2130.664058786348
 31
0.0
  0
LINE
  5
4C91
330
1F
100
AcDbEntity
  8
SPOJOVACÍ
  6
Continuous
100
AcDbLine
 10
5265.517622162417
 20
-2134.056409913774
 30
0.0
 11
5265.895273533363
 21
-2134.275001225793
 31
0.0
  0
LINE
  5
4C92
330
1F
100
AcDbEntity
  8
SPOJOVACÍ
  6
Continuous
100
AcDbLine
 10
5265.517622162417
 20
-2134.056409913774
 30
0.0
 11
5265.895273533363
 21
-2133.678758540646
 31
0.0
  0
LINE
  5
4C93
330
1F
100
AcDbEntity
  8
SPOJOVACÍ
  6
Continuous
100
AcDbLine
 10
5261.434150415709
 20
-2101.67047923178
 30
0.0
 11
5261.434150415709
 21
-2102.870406008511
 31
0.0
  0
LINE
  5
4C94
330
1F
100
AcDbEntity
  8
SPOJOVACÍ
  6
Continuous
100
AcDbLine
 10
5265.118576743237
 20
-2107.483147779745
 30
0.0
 11
5265.184619225158
 21
-2108.270076502868
 31
0.0
  0
LINE
  5
4C95
330
1F
100
AcDbEntity
  8
SPOJOVACÍ
  6
Continuous
100
AcDbLine
 10
5264.690695878937
 20
-2106.002307912695
 30
0.0
 11
5265.118576743237
 21
-2107.483147779745
 31
0.0
  0
LINE
  5
4C96
330
1F
100
AcDbEntity
  8
SPOJOVACÍ
  6
Continuous
100
AcDbLine
 10
5263.894465399619
 20
-2104.683318634398
 30
0.0
 11
5264.690695878937
 21
-2106.002307912695
 31
0.0
  0
LINE
  5
4C97
330
1F
100
AcDbEntity
  8
SPOJOVACÍ
  6
Continuous
100
AcDbLine
 10
5262.78383549926
 20
-2103.614546644986
 30
0.0
 11
5263.894465399619
 21
-2104.683318634398
 31
0.0
  0
LINE
  5
4C98
330
1F
100
AcDbEntity
  8
SPOJOVACÍ
  6
Continuous
100
AcDbLine
 10
5261.434150415709
 20
-2102.870406008511
 30
0.0
 11
5262.78383549926
 21
-2103.614546644986
 31
0.0
  0
LINE
  5
4C99
330
1F
100
AcDbEntity
  8
SPOJOVACÍ
  6
Continuous
100
AcDbLine
 10
5265.184619225158
 20
-2108.270076502868
 30
0.0
 11
5265.184619225158
 21
-2112.307969632548
 31
0.0
  0
LINE
  5
4C9A
330
1F
100
AcDbEntity
  8
SPOJOVACÍ
  6
Continuous
100
AcDbLine
 10
5265.184619225158
 20
-2112.903282141725
 30
0.0
 11
5265.184619225158
 21
-2115.422198196753
 31
0.0
  0
LINE
  5
4C9B
330
1F
100
AcDbEntity
  8
SPOJOVACÍ
  6
Continuous
100
AcDbLine
 10
5265.184619225158
 20
-2116.025882288068
 30
0.0
 11
5265.184619225158
 21
-2118.546658694778
 31
0.0
  0
LINE
  5
4C9C
330
1F
100
AcDbEntity
  8
SPOJOVACÍ
  6
Continuous
100
AcDbLine
 10
5265.184619225158
 20
-2119.141041028252
 30
0.0
 11
5265.184619225158
 21
-2121.669258841121
 31
0.0
  0
LINE
  5
4C9D
330
1F
100
AcDbEntity
  8
SPOJOVACÍ
  6
Continuous
100
AcDbLine
 10
5265.184619225158
 20
-2122.273873108407
 30
0.0
 11
5265.184619225158
 21
-2124.791858987734
 31
0.0
  0
LINE
  5
4C9E
330
1F
100
AcDbEntity
  8
SPOJOVACÍ
  6
Continuous
100
AcDbLine
 10
5264.134450751419
 20
-2112.470750396734
 30
0.0
 11
5264.51210212673
 21
-2112.688411532782
 31
0.0
  0
LINE
  5
4C9F
330
1F
100
AcDbEntity
  8
SPOJOVACÍ
  6
Continuous
100
AcDbLine
 10
5264.134450751419
 20
-2112.470750396734
 30
0.0
 11
5264.51210212673
 21
-2112.092168847904
 31
0.0
  0
LINE
  5
4CA0
330
1F
100
AcDbEntity
  8
SPOJOVACÍ
  6
Continuous
100
AcDbLine
 10
5264.134450751419
 20
-2115.590560015695
 30
0.0
 11
5264.51210212673
 21
-2115.809151327722
 31
0.0
  0
LINE
  5
4CA1
330
1F
100
AcDbEntity
  8
SPOJOVACÍ
  6
Continuous
100
AcDbLine
 10
5264.134450751419
 20
-2115.590560015695
 30
0.0
 11
5264.51210212673
 21
-2115.212908642567
 31
0.0
  0
LINE
  5
4CA2
330
1F
100
AcDbEntity
  8
SPOJOVACÍ
  6
Continuous
100
AcDbLine
 10
5264.134450751419
 20
-2118.710369634933
 30
0.0
 11
5264.51210212673
 21
-2118.928960946961
 31
0.0
  0
LINE
  5
4CA3
330
1F
100
AcDbEntity
  8
SPOJOVACÍ
  6
Continuous
100
AcDbLine
 10
5264.134450751419
 20
-2118.710369634933
 30
0.0
 11
5264.51210212673
 21
-2118.332718261805
 31
0.0
  0
LINE
  5
4CA4
330
1F
100
AcDbEntity
  8
SPOJOVACÍ
  6
Continuous
100
AcDbLine
 10
5264.134450751419
 20
-2121.830179253903
 30
0.0
 11
5264.51210212673
 21
-2122.048770565922
 31
0.0
  0
LINE
  5
4CA5
330
1F
100
AcDbEntity
  8
SPOJOVACÍ
  6
Continuous
100
AcDbLine
 10
5264.134450751419
 20
-2121.830179253903
 30
0.0
 11
5264.51210212673
 21
-2121.452527880775
 31
0.0
  0
LINE
  5
4CA6
330
1F
100
AcDbEntity
  8
SPOJOVACÍ
  6
Continuous
100
AcDbLine
 10
5264.134450751419
 20
-2124.950919048843
 30
0.0
 11
5264.51210212673
 21
-2125.168580184892
 31
0.0
  0
LINE
  5
4CA7
330
1F
100
AcDbEntity
  8
SPOJOVACÍ
  6
Continuous
100
AcDbLine
 10
5264.134450751419
 20
-2124.950919048843
 30
0.0
 11
5264.51210212673
 21
-2124.572337499736
 31
0.0
  0
LINE
  5
4CA8
330
1F
100
AcDbEntity
  8
SPOJOVACÍ
  6
Continuous
100
AcDbLine
 10
5266.148281350445
 20
-2134.346624761926
 30
0.0
 11
5266.534304304343
 21
-2137.435738579731
 31
0.0
  0
LINE
  5
4CA9
330
1F
100
AcDbEntity
  8
SPOJOVACÍ
  6
Continuous
100
AcDbLine
 10
5264.134450751419
 20
-2124.950919048843
 30
0.0
 11
5268.934157857268
 21
-2126.150845825305
 31
0.0
  0
LINE
  5
4CAA
330
1F
100
AcDbEntity
  8
SPOJOVACÍ
  6
Continuous
100
AcDbLine
 10
5264.51210212673
 20
-2125.168580184892
 30
0.0
 11
5268.556506486323
 21
-2126.528497198433
 31
0.0
  0
LINE
  5
4CAB
330
1F
100
AcDbEntity
  8
SPOJOVACÍ
  6
Continuous
100
AcDbLine
 10
5264.766970294124
 20
-2128.246531893184
 30
0.0
 11
5268.136067027637
 21
-2129.379486012568
 31
0.0
  0
LINE
  5
4CAC
330
1F
100
AcDbEntity
  8
SPOJOVACÍ
  6
Continuous
100
AcDbLine
 10
5264.766970294124
 20
-2127.650289208028
 30
0.0
 11
5268.136067027637
 21
-2128.783243327413
 31
0.0
  0
LINE
  5
4CAD
330
1F
100
AcDbEntity
  8
SPOJOVACÍ
  6
Continuous
100
AcDbLine
 10
5264.38838874584
 20
-2128.027940581156
 30
0.0
 11
5268.513718398583
 21
-2129.000904463461
 31
0.0
  0
LINE
  5
4CAE
330
1F
100
AcDbEntity
  8
SPOJOVACÍ
  6
Continuous
100
AcDbLine
 10
5265.330656827257
 20
-2131.260301471503
 30
0.0
 11
5267.691442997431
 21
-2132.054671601055
 31
0.0
  0
LINE
  5
4CAF
330
1F
100
AcDbEntity
  8
SPOJOVACÍ
  6
Continuous
100
AcDbLine
 10
5265.330656827257
 20
-2130.664058786348
 30
0.0
 11
5267.691442997431
 21
-2131.458428916177
 31
0.0
  0
LINE
  5
4CB0
330
1F
100
AcDbEntity
  8
SPOJOVACÍ
  6
Continuous
100
AcDbLine
 10
5264.953005451946
 20
-2131.042640335455
 30
0.0
 11
5268.069094368377
 21
-2131.676090052225
 31
0.0
  0
LINE
  5
4CB1
330
1F
100
AcDbEntity
  8
SPOJOVACÍ
  6
Continuous
100
AcDbLine
 10
5265.895273533363
 20
-2134.275001225793
 30
0.0
 11
5267.294257932928
 21
-2134.745670178378
 31
0.0
  0
LINE
  5
4CB2
330
1F
100
AcDbEntity
  8
SPOJOVACÍ
  6
Continuous
100
AcDbLine
 10
5265.895273533363
 20
-2133.678758540646
 30
0.0
 11
5267.294257932928
 21
-2134.149427493231
 31
0.0
  0
LINE
  5
4CB3
330
1F
100
AcDbEntity
  8
SPOJOVACÍ
  6
Continuous
100
AcDbLine
 10
5265.517622162417
 20
-2134.056409913774
 30
0.0
 11
5267.671909303874
 21
-2134.367088629548
 31
0.0
  0
LINE
  5
4CB4
330
1F
100
AcDbEntity
  8
SPOJOVACÍ
  6
Continuous
100
AcDbLine
 10
5264.134450751419
 20
-2112.470750396734
 30
0.0
 11
5268.934157857268
 21
-2113.670677173196
 31
0.0
  0
LINE
  5
4CB5
330
1F
100
AcDbEntity
  8
SPOJOVACÍ
  6
Continuous
100
AcDbLine
 10
5264.51210212673
 20
-2112.688411532782
 30
0.0
 11
5268.556506486323
 21
-2114.048328546324
 31
0.0
  0
LINE
  5
4CB6
330
1F
100
AcDbEntity
  8
SPOJOVACÍ
  6
Continuous
100
AcDbLine
 10
5264.51210212673
 20
-2112.092168847904
 30
0.0
 11
5268.556506486323
 21
-2113.452085861169
 31
0.0
  0
LINE
  5
4CB7
330
1F
100
AcDbEntity
  8
SPOJOVACÍ
  6
Continuous
100
AcDbLine
 10
5264.134450751419
 20
-2115.590560015695
 30
0.0
 11
5268.934157857268
 21
-2116.790486792434
 31
0.0
  0
LINE
  5
4CB8
330
1F
100
AcDbEntity
  8
SPOJOVACÍ
  6
Continuous
100
AcDbLine
 10
5264.51210212673
 20
-2115.809151327722
 30
0.0
 11
5268.556506486323
 21
-2117.168138165286
 31
0.0
  0
LINE
  5
4CB9
330
1F
100
AcDbEntity
  8
SPOJOVACÍ
  6
Continuous
100
AcDbLine
 10
5264.51210212673
 20
-2115.212908642567
 30
0.0
 11
5268.556506486323
 21
-2116.571895480408
 31
0.0
  0
LINE
  5
4CBA
330
1F
100
AcDbEntity
  8
SPOJOVACÍ
  6
Continuous
100
AcDbLine
 10
5264.134450751419
 20
-2118.710369634933
 30
0.0
 11
5268.934157857268
 21
-2119.910296411396
 31
0.0
  0
LINE
  5
4CBB
330
1F
100
AcDbEntity
  8
SPOJOVACÍ
  6
Continuous
100
AcDbLine
 10
5264.51210212673
 20
-2118.928960946961
 30
0.0
 11
5268.556506486323
 21
-2120.288877960226
 31
0.0
  0
LINE
  5
4CBC
330
1F
100
AcDbEntity
  8
SPOJOVACÍ
  6
Continuous
100
AcDbLine
 10
5264.51210212673
 20
-2118.332718261805
 30
0.0
 11
5268.556506486323
 21
-2119.692635275078
 31
0.0
  0
LINE
  5
4CBD
330
1F
100
AcDbEntity
  8
SPOJOVACÍ
  6
Continuous
100
AcDbLine
 10
5264.134450751419
 20
-2121.830179253903
 30
0.0
 11
5268.934157857268
 21
-2123.030106030365
 31
0.0
  0
LINE
  5
4CBE
330
1F
100
AcDbEntity
  8
SPOJOVACÍ
  6
Continuous
100
AcDbLine
 10
5264.51210212673
 20
-2122.048770565922
 30
0.0
 11
5268.556506486323
 21
-2123.408687579195
 31
0.0
  0
LINE
  5
4CBF
330
1F
100
AcDbEntity
  8
SPOJOVACÍ
  6
Continuous
100
AcDbLine
 10
5264.51210212673
 20
-2121.452527880775
 30
0.0
 11
5268.556506486323
 21
-2122.812444894317
 31
0.0
  0
LINE
  5
4CC0
330
1F
100
AcDbEntity
  8
SPOJOVACÍ
  6
Continuous
100
AcDbLine
 10
5264.51210212673
 20
-2124.572337499736
 30
0.0
 11
5268.556506486323
 21
-2125.932254513279
 31
0.0
  0
LINE
  5
4CC1
330
1F
100
AcDbEntity
  8
SPOJOVACÍ
  6
Continuous
100
AcDbLine
 10
5266.534304304343
 20
-2137.435738579731
 30
0.0
 11
5266.888701285473
 21
-2134.599632578462
 31
0.0
  0
LINE
  5
4CC3
330
1F
100
AcDbEntity
  8
SPOJOVACÍ
  6
Continuous
100
AcDbLine
 10
5268.723938127926
 20
-2105.332581339736
 30
0.0
 11
5269.68201919791
 21
-2104.125213156837
 31
0.0
  0
LINE
  5
4CC4
330
1F
100
AcDbEntity
  8
SPOJOVACÍ
  6
Continuous
100
AcDbLine
 10
5271.634458192977
 20
-2101.67047923178
 30
0.0
 11
5271.634458192977
 21
-2102.870406008511
 31
0.0
  0
LINE
  5
4CC5
330
1F
100
AcDbEntity
  8
SPOJOVACÍ
  6
Continuous
100
AcDbLine
 10
5270.91915300681
 20
-2103.207129646395
 30
0.0
 11
5271.634458192977
 21
-2102.870406008511
 31
0.0
  0
LINE
  5
4CC6
330
1F
100
AcDbEntity
  8
SPOJOVACÍ
  6
Continuous
100
AcDbLine
 10
5269.68201919791
 20
-2104.125213156837
 30
0.0
 11
5270.91915300681
 21
-2103.207129646395
 31
0.0
  0
HATCH
  5
4CCA
330
1F
100
AcDbEntity
  8
izolace
100
AcDbHatch
 10
0.0
 20
0.0
 30
0.0
210
0.0
220
0.0
230
1.0
  2
SOLID
 70
     1
 71
     0
 91
        4
 92
        7
 72
     0
 73
     1
 93
        4
 10
5233.90741486878
 20
-2199.962321090283
 10
5246.408491875754
 20
-2199.962321090283
 10
5246.408491875754
 20
-2201.962321090286
 10
5233.90741486878
 20
-2201.962321090286
 97
        0
 92
        7
 72
     0
 73
     1
 93
        4
 10
5254.065202790353
 20
-2199.962321090283
 10
5266.566279797331
 20
-2199.962321090283
 10
5266.566279797331
 20
-2201.962321090286
 10
5254.065202790352
 20
-2201.962321090286
 97
        0
 92
        7
 72
     0
 73
     1
 93
        4
 10
5274.799438811982
 20
-2199.962321090283
 10
5287.30051581896
 20
-2199.962321090283
 10
5287.30051581896
 20
-2201.962321090286
 10
5274.799438811982
 20
-2201.962321090286
 97
        0
 92
        7
 72
     1
 73
     1
 93
        7
 10
5295.943689724845
 20
-2200.441246752404
 42
0.0
 10
5295.943689724845
 20
-2199.962321090283
 42
0.0
 10
5308.44476673182
 20
-2199.962321090283
 42
0.0
 10
5308.44476673182
 20
-2201.962321090286
 42
0.0
 10
5296.1800777191
 20
-2201.962321090286
 42
0.0
 10
5295.943689724845
 20
-2201.803713718205
 42
0.0
 10
5295.943689724845
 20
-2201.728041176217
 42
0.2771233679601331
 97
        0
 75
     0
 76
     1
 47
0.1334780420591298
 98
        4
 10
5239.128190440257
 20
-2201.26431019883
 10
5254.890276772565
 20
-2201.26431019883
 10
5281.872834408772
 20
-2201.26431019883
 10
5300.172885467681
 20
-2201.26431019883
  0
LWPOLYLINE
  5
4CCB
330
1F
100
AcDbEntity
  8
izolace
100
AcDbPolyline
 90
        4
 70
     1
 43
0.0
 10
5308.464306460697
 20
-2199.959209131587
 10
5308.464306460697
 20
-2201.956150437128
 10
5233.754078454003
 20
-2201.956150437128
 10
5233.754078454003
 20
-2199.959209131587
  0
LINE
  5
4CD6
330
1F
100
AcDbEntity
  8
CETRIS
100
AcDbLine
 10
5306.14822035688
 20
-2300.144282379967
 30
0.0
 11
5483.384289769589
 21
-2300.144282379967
 31
0.0
  0
LINE
  5
4CD9
330
1F
100
AcDbEntity
  8
CETRIS
100
AcDbLine
 10
5229.91596607213
 20
-2305.362327361152
 30
0.0
 11
5229.91596607213
 21
-2512.24489886503
 31
0.0
  0
LINE
  5
4CDA
330
1F
100
AcDbEntity
  8
CETRIS
100
AcDbLine
 10
5306.14822035688
 20
-2305.362327361156
 30
0.0
 11
5306.14822035688
 21
-2535.460373415169
 31
0.0
  0
TEXT
  5
4CE7
330
1F
100
AcDbEntity
  8
POPIS
100
AcDbText
 10
5311.705172397179
 20
-2049.308752761521
 30
0.0
 40
25.0
  1
04
 41
0.85
  7
SIMPLEX7
100
AcDbText
  0
INSERT
  5
4CE8
330
1F
100
AcDbEntity
  8
POPIS
100
AcDbBlockReference
  2
E_PUNKT
 10
5281.217743393249
 20
-2128.764158861057
 30
0.0
  0
LINE
  5
5F29
330
1F
100
AcDbEntity
  8
POPIS
100
AcDbLine
 10
4960.664931384705
 20
-2113.670479231778
 30
0.0
 11
4960.664931384705
 21
-2054.009815898041
 31
0.0
  0
INSERT
  5
5F2A
330
1F
100
AcDbEntity
  8
POPIS
100
AcDbBlockReference
  2
E_PUNKT
 10
4960.542198885963
 20
-2113.699547562653
 30
0.0
  0
TEXT
  5
5F2B
330
1F
100
AcDbEntity
  8
POPIS
100
AcDbText
 10
4943.008483896254
 20
-2049.308752761518
 30
0.0
 40
25.0
  1
01
 41
0.85
  7
SIMPLEX7
100
AcDbText
  0
TEXT
  5
5F2C
330
1F
100
AcDbEntity
  8
POPIS
100
AcDbText
 10
5256.429520334401
 20
-2049.308752761521
 30
0.0
 40
25.0
  1
06
 41
0.85
  7
SIMPLEX7
100
AcDbText
  0
LINE
  5
5F2D
330
1F
100
AcDbEntity
  8
POPIS
100
AcDbLine
 10
5216.826162585552
 20
-2054.009815898045
 30
0.0
 11
5256.475967598686
 21
-2083.840147564911
 31
0.0
  0
TEXT
  5
5F2E
330
1F
100
AcDbEntity
  8
POPIS
100
AcDbText
 10
5200.365043897207
 20
-2049.308752761521
 30
0.0
 40
25.0
  1
02
 41
0.85
  7
SIMPLEX7
100
AcDbText
  0
LINE
  5
5F2F
330
1F
100
AcDbEntity
  8
POPIS
100
AcDbLine
 10
5274.085967822852
 20
-2113.67047923178
 30
0.0
 11
5274.085967822852
 21
-2054.009815898045
 31
0.0
  0
INSERT
  5
5F30
330
1F
100
AcDbEntity
  8
POPIS
100
AcDbBlockReference
  2
E_PUNKT
 10
5256.448357223064
 20
-2113.699547562653
 30
0.0
  0
INSERT
  5
5F31
330
1F
100
AcDbEntity
  8
POPIS
100
AcDbBlockReference
  2
E_PUNKT
 10
5274.058357447226
 20
-2113.699547562653
 30
0.0
  0
LINE
  5
5F33
330
1F
100
AcDbEntity
  8
POPIS
100
AcDbLine
 10
5256.475967598686
 20
-2083.840147564911
 30
0.0
 11
5256.475967598686
 21
-2113.609093458995
 31
0.0
  0
LINE
  5
5F35
330
1F
100
AcDbEntity
  8
POPIS
100
AcDbLine
 10
5321.868660481338
 20
-2054.009815898045
 30
0.0
 11
5282.218855468204
 21
-2083.840147564911
 31
0.0
  0
LINE
  5
5F36
330
1F
100
AcDbEntity
  8
POPIS
100
AcDbLine
 10
5282.218855468204
 20
-2083.840147564911
 30
0.0
 11
5282.218855468204
 21
-2125.67047923178
 31
0.0
  0
LINE
  5
5F37
330
1F
100
AcDbEntity
  8
POPIS
100
AcDbLine
 10
5035.229721142881
 20
-2151.145484643537
 30
0.0
 11
5035.229721142881
 21
-2054.009815898045
 31
0.0
  0
TEXT
  5
5F38
330
1F
100
AcDbEntity
  8
POPIS
100
AcDbText
 10
5017.573273654431
 20
-2049.308752761521
 30
0.0
 40
25.0
  1
03
 41
0.85
  7
SIMPLEX7
100
AcDbText
  0
INSERT
  5
5F39
330
1F
100
AcDbEntity
  8
POPIS
100
AcDbBlockReference
  2
E_PUNKT
 10
5035.202110767255
 20
-2151.17455297441
 30
0.0
  0
LINE
  5
5F3A
330
1F
100
AcDbEntity
  8
POPIS
100
AcDbLine
 10
5121.13084286065
 20
-2139.098599888903
 30
0.0
 11
5121.13084286065
 21
-2054.009815898041
 31
0.0
  0
INSERT
  5
5F3B
330
1F
100
AcDbEntity
  8
POPIS
100
AcDbBlockReference
  2
E_PUNKT
 10
5120.561106450772
 20
-2138.939357907408
 30
0.0
  0
TEXT
  5
5F3C
330
1F
100
AcDbEntity
  8
POPIS
100
AcDbText
 10
5106.13299356628
 20
-2049.308752761521
 30
0.0
 40
25.0
  1
05
 41
0.85
  7
SIMPLEX7
100
AcDbText
  0
HATCH
  5
5F96
330
1F
100
AcDbEntity
  8
CETRIS
100
AcDbHatch
 10
0.0
 20
0.0
 30
0.0
210
0.0
220
0.0
230
1.0
  2
ANSI31
 70
     0
 71
     0
 91
        9
 92
        7
 72
     1
 73
     1
 93
        5
 10
4959.31980926159
 20
-2113.67047923178
 42
-0.4367037467541023
 10
4960.664931384705
 20
-2112.424103774026
 42
0.0
 10
4960.664931384705
 20
-2101.67047923178
 42
0.0
 10
4933.07112293364
 20
-2101.67047923178
 42
0.0
 10
4930.86096165534
 20
-2113.67047923178
 42
0.0
 97
        0
 92
        7
 72
     1
 73
     1
 93
        5
 10
5035.229721142881
 20
-2113.67047923178
 42
0.0
 10
5035.229721142883
 20
-2101.67047923178
 42
0.0
 10
4960.664931384705
 20
-2101.67047923178
 42
0.0
 10
4960.664931384705
 20
-2112.424103774026
 42
-0.3920754397125287
 10
4961.81980926159
 20
-2113.67047923178
 42
0.0
 97
        0
 92
        7
 72
     0
 73
     1
 93
        4
 10
5121.13084286065
 20
-2113.67047923178
 10
5121.130842860651
 20
-2101.67047923178
 10
5035.229721142883
 20
-2101.670479231781
 10
5035.229721142883
 20
-2113.67047923178
 97
        0
 92
        7
 72
     1
 73
     1
 93
        5
 10
5121.13084286065
 20
-2101.67047923178
 42
0.0
 10
5121.130842860649
 20
-2113.67047923178
 42
0.0
 10
5255.225967598691
 20
-2113.67047923178
 42
-0.4142135623718698
 10
5256.475967598686
 20
-2112.420479231781
 42
0.0
 10
5256.475967598686
 20
-2101.67047923178
 42
0.0
 97
        0
 92
        7
 72
     1
 73
     1
 93
       16
 10
5256.475967598686
 20
-2112.420479231781
 42
-0.4142135623737877
 10
5257.72596759869
 20
-2113.67047923178
 42
0.0
 10
5261.360492697254
 20
-2113.67047923178
 42
0.0
 10
5265.184619225158
 20
-2113.670479231781
 42
0.0
 10
5265.184619225158
 20
-2112.914543087082
 42
0.0
 10
5264.066715998465
 20
-2112.538651983644
 42
0.0
 10
5264.51210212673
 20
-2112.092168847904
 42
0.0
 10
5265.184619225158
 20
-2112.318300402157
 42
0.0
 10
5265.184619225158
 20
-2108.27007650287
 42
0.0
 10
5265.118576743237
 20
-2107.483147779745
 42
0.0
 10
5264.690695878937
 20
-2106.002307912697
 42
0.0
 10
5263.894465399618
 20
-2104.683318634398
 42
0.0
 10
5262.78383549926
 20
-2103.614546644986
 42
0.0
 10
5261.434150415709
 20
-2102.870406008512
 42
0.0
 10
5261.434150415709
 20
-2101.67047923178
 42
0.0
 10
5256.475967598686
 20
-2101.67047923178
 42
0.0
 97
        0
 92
        7
 72
     1
 73
     1
 93
       13
 10
5268.110952278776
 20
-2106.746448549439
 42
0.0
 10
5267.883989387894
 20
-2108.270076502866
 42
0.0
 10
5267.883989387894
 20
-2113.225954306915
 42
0.0
 10
5269.002713574763
 20
-2113.602121455304
 42
0.0
 10
5268.934355798682
 20
-2113.67047923178
 42
0.0
 10
5272.835967822853
 20
-2113.67047923178
 42
-0.4142135623728287
 10
5274.085967822852
 20
-2112.420479231781
 42
0.0
 10
5274.085967822852
 20
-2101.67047923178
 42
0.0
 10
5271.634458192978
 20
-2101.670479231781
 42
0.0
 10
5271.634458192977
 20
-2102.870406008512
 42
0.0
 10
5270.919153006804
 20
-2103.207129646398
 42
0.0
 10
5269.682019197911
 20
-2104.125213156836
 42
0.0
 10
5268.723938127926
 20
-2105.332581339734
 42
0.0
 97
        0
 92
        7
 72
     1
 73
     1
 93
        6
 10
5274.085967822852
 20
-2112.420479231781
 42
-0.4142135623729353
 10
5275.335967822852
 20
-2113.67047923178
 42
0.0
 10
5276.466179918861
 20
-2113.67047923178
 42
0.0
 10
5282.218855468205
 20
-2113.67047923178
 42
0.0
 10
5282.218855468205
 20
-2101.67047923178
 42
0.0
 10
5274.085967822852
 20
-2101.67047923178
 42
0.0
 97
        0
 92
        7
 72
     0
 73
     1
 93
        4
 10
5229.915966072129
 20
-2300.144282379967
 10
5229.91596607213
 20
-2288.144282379966
 10
4898.726358005682
 20
-2288.144282379966
 10
4896.516196727382
 20
-2300.144282379967
 97
        0
 92
        7
 72
     0
 73
     1
 93
        4
 10
5306.14822035688
 20
-2288.144282379966
 10
5306.14822035688
 20
-2300.144282379967
 10
5483.384289769589
 20
-2300.144282379967
 10
5485.594451047891
 20
-2288.144282379966
 97
        0
 75
     0
 76
     1
 52
90.0
 41
2.5
 77
     0
 78
     1
 53
135.0
 43
732.5710283586813
 44
-321.7859308595379
 45
-5.612660075668221
 46
-5.61266007566822
 79
     0
 47
1.061916406967607
 98
        9
 10
4946.623916732322
 20
-2109.598613664096
 10
5005.072614014534
 20
-2109.598613664096
 10
5056.082399664985
 20
-2109.598613664096
 10
5196.359287966869
 20
-2106.41286678917
 10
5260.121512617644
 20
-2107.474779581267
 10
5270.748537705629
 20
-2107.474779581267
 10
5277.124764618078
 20
-2108.536692373365
 10
5103.904057034641
 20
-2295.433989678663
 10
5353.639428269183
 20
-2293.310155595834
  0
HATCH
  5
5FAD
330
1F
100
AcDbEntity
  8
CETRIS
100
AcDbHatch
 10
0.0
 20
0.0
 30
0.0
210
0.0
220
0.0
230
1.0
  2
ANSI31
 70
     0
 71
     0
 91
        1
 92
        7
 72
     0
 73
     1
 93
        4
 10
5517.729054697546
 20
-2113.67047923178
 10
5519.939215975846
 20
-2101.67047923178
 10
5282.218855468203
 20
-2101.67047923178
 10
5282.218855468203
 20
-2113.67047923178
 97
        0
 75
     0
 76
     1
 52
90.0
 41
2.5
 77
     0
 78
     1
 53
135.0
 43
732.5710283586813
 44
-321.7859308595379
 45
-5.612660075668221
 46
-5.61266007566822
 79
     0
 47
1.061916406967607
 98
        1
 10
5442.906545745187
 20
-2110.660526456193
  0
HATCH
  5
605D
330
1F
100
AcDbEntity
  8
CETRIS
100
AcDbHatch
 10
0.0
 20
0.0
 30
0.0
210
0.0
220
0.0
230
1.0
  2
ANSI31
 70
     0
 71
     0
 91
       11
 92
        7
 72
     0
 73
     1
 93
       14
 10
5517.729054697547
 20
-2113.67047923178
 10
5296.772174917736
 20
-2113.670479231779
 10
5296.772174917734
 20
-2114.870406008512
 10
5295.422489834182
 20
-2115.614546644988
 10
5294.311859933822
 20
-2116.6833186344
 10
5293.515629454507
 20
-2118.002307912693
 10
5293.087748590209
 20
-2119.483147779746
 10
5293.021706108286
 20
-2120.270076502873
 10
5293.021706108287
 20
-2124.318300402157
 10
5293.694223206713
 20
-2124.092168847903
 10
5294.139609334979
 20
-2124.538651983644
 10
5293.021706108287
 20
-2124.914543087081
 10
5293.021706108287
 20
-2125.67047923178
 10
5515.518893419248
 20
-2125.67047923178
 97
        0
 92
        7
 72
     0
 73
     1
 93
       14
 10
5254.844611247513
 20
-2119.483147779744
 10
5254.416730383215
 20
-2118.002307912696
 10
5253.620499903896
 20
-2116.683318634398
 10
5252.509870003535
 20
-2115.614546644985
 10
5251.160184919985
 20
-2114.870406008511
 10
5251.160184919986
 20
-2113.67047923178
 10
5121.13084286065
 20
-2113.67047923178
 10
5121.13084286065
 20
-2125.67047923178
 10
5254.910653729435
 20
-2125.67047923178
 10
5254.910653729433
 20
-2124.914543087082
 10
5253.792750502743
 20
-2124.538651983644
 10
5254.238136631007
 20
-2124.092168847904
 10
5254.910653729435
 20
-2124.318300402157
 10
5254.910653729435
 20
-2120.270076502872
 97
        0
 92
        7
 72
     0
 73
     1
 93
        4
 10
5121.13084286065
 20
-2113.67047923178
 10
5035.229721142881
 20
-2113.67047923178
 10
5035.229721142881
 20
-2125.67047923178
 10
5121.13084286065
 20
-2125.67047923178
 97
        0
 92
        7
 72
     1
 73
     1
 93
        6
 10
5035.229721142881
 20
-2113.67047923178
 42
0.0
 10
4961.819809261591
 20
-2113.67047923178
 42
-1.0
 10
4959.31980926159
 20
-2113.67047923178
 42
0.0
 10
4930.86096165534
 20
-2113.67047923178
 42
0.0
 10
4928.650800377038
 20
-2125.67047923178
 42
0.0
 10
5035.229721142883
 20
-2125.67047923178
 42
0.0
 97
        0
 92
        7
 72
     0
 73
     1
 93
       28
 10
5265.184619225158
 20
-2119.155092501214
 10
5264.065895034428
 20
-2118.778925351528
 10
5264.51210212673
 20
-2118.332718261805
 10
5265.184619225159
 20
-2118.55884981606
 10
5265.184619225159
 20
-2116.035128209245
 10
5264.065818221371
 20
-2115.659192545347
 10
5264.51210212673
 20
-2115.212908642568
 10
5265.184619225158
 20
-2115.438885524137
 10
5265.184619225158
 20
-2113.67047923178
 10
5261.360492697254
 20
-2113.67047923178
 10
5261.360492697254
 20
-2114.870406008512
 10
5260.645187511084
 20
-2115.207129646397
 10
5259.408053702187
 20
-2116.125213156839
 10
5258.449972632201
 20
-2117.332581339737
 10
5257.836986783055
 20
-2118.746448549438
 10
5257.610023892171
 20
-2120.270076502866
 10
5257.610023892171
 20
-2125.225954306916
 10
5258.72874807904
 20
-2125.602121455304
 10
5258.660390302959
 20
-2125.67047923178
 10
5265.184619225158
 20
-2125.67047923178
 10
5265.184619225158
 20
-2125.394711739191
 10
5264.066715998502
 20
-2125.018820635766
 10
5264.512102126729
 20
-2124.572337499736
 10
5265.184619225158
 20
-2124.798469054037
 10
5265.184619225158
 20
-2122.274902120177
 10
5264.065895034434
 20
-2121.898734970491
 10
5264.51210212673
 20
-2121.452527880775
 10
5265.184619225158
 20
-2121.678659435074
 97
        0
 92
        7
 72
     0
 73
     1
 93
       18
 10
5271.46617991886
 20
-2113.67047923178
 10
5268.934355798682
 20
-2113.67047923178
 10
5268.556506486321
 20
-2114.048328546324
 10
5267.883989387894
 20
-2113.822196992025
 10
5267.883989387893
 20
-2116.345918598838
 10
5269.002790387834
 20
-2116.721854261522
 10
5268.556506486323
 20
-2117.168138165286
 10
5267.883989387894
 20
-2116.942161283762
 10
5267.883989387894
 20
-2119.466503720824
 10
5269.001892610953
 20
-2119.842394822965
 10
5268.556506486323
 20
-2120.288877960226
 10
5267.883989387894
 20
-2120.062746405973
 10
5267.883989387894
 20
-2122.586313340018
 10
5269.001892610731
 20
-2122.962204442158
 10
5268.556506486323
 20
-2123.408687579196
 10
5267.883989387894
 20
-2123.182556024941
 10
5267.883989387894
 20
-2125.67047923178
 10
5271.46617991886
 20
-2125.67047923178
 97
        0
 92
        7
 72
     0
 73
     1
 93
        4
 10
5282.218855468204
 20
-2113.67047923178
 10
5276.466179918861
 20
-2113.670479231779
 10
5276.466179918861
 20
-2125.67047923178
 10
5282.218855468204
 20
-2125.67047923178
 97
        0
 92
        7
 72
     0
 73
     1
 93
       12
 10
5290.322335945551
 20
-2120.270076502871
 10
5290.095373054668
 20
-2118.74644854944
 10
5289.48238720552
 20
-2117.332581339737
 10
5288.524306135535
 20
-2116.125213156836
 10
5287.287172326635
 20
-2115.207129646395
 10
5286.571867140468
 20
-2114.870406008512
 10
5286.571867140468
 20
-2113.67047923178
 10
5282.218855468204
 20
-2113.67047923178
 10
5282.218855468204
 20
-2125.67047923178
 10
5289.272509451556
 20
-2125.67047923178
 10
5289.64981884712
 20
-2125.452085861169
 10
5290.322335945551
 20
-2125.225954306915
 97
        0
 92
        7
 72
     0
 73
     1
 93
       12
 10
5487.80461232619
 20
-2276.144282379966
 10
5289.176238314658
 20
-2276.144282379966
 10
5288.798928919092
 20
-2276.362675750576
 10
5288.126411820663
 20
-2276.588807304829
 10
5288.126411820663
 20
-2281.54468510888
 10
5288.353374711546
 20
-2283.068313062309
 10
5288.966360560695
 20
-2284.482180272012
 10
5289.924441630676
 20
-2285.689548454909
 10
5291.161575439578
 20
-2286.607631965351
 10
5291.876880625746
 20
-2286.944355603235
 10
5291.876880625746
 20
-2288.144282379966
 10
5485.594451047889
 20
-2288.144282379966
 97
        0
 92
        7
 72
     0
 73
     1
 93
       32
 10
5285.360999176005
 20
-2282.331613832002
 10
5285.427041657927
 20
-2281.544685108873
 10
5285.427041657927
 20
-2277.49646120959
 10
5284.754524559499
 20
-2277.722592763843
 10
5284.309138431233
 20
-2277.276109628103
 10
5285.427041657928
 20
-2276.900218524666
 10
5285.427041657928
 20
-2276.144282379966
 10
5269.386851349688
 20
-2276.144282379967
 10
5269.386851349688
 20
-2277.27096266643
 10
5270.07411924988
 20
-2277.039871205925
 10
5270.52199017261
 20
-2277.487742131245
 10
5270.074119249883
 20
-2277.746977765345
 10
5269.386851349687
 20
-2277.978069225851
 10
5269.386851349687
 20
-2280.666952580682
 10
5270.074119252467
 20
-2280.435861119306
 10
5270.521990175197
 20
-2280.883732044626
 10
5270.074119252467
 20
-2281.142967678727
 10
5269.386851349688
 20
-2281.374059140102
 10
5269.386851349688
 20
-2284.062942494931
 10
5270.074119252468
 20
-2283.831851033556
 10
5270.521990175198
 20
-2284.279721958875
 10
5270.074119252467
 20
-2284.538957592977
 10
5269.386851349688
 20
-2284.770049054352
 10
5269.386851349688
 20
-2287.458932409181
 10
5270.07411925247
 20
-2287.227840947806
 10
5270.521990175197
 20
-2287.675711873126
 10
5269.712459857387
 20
-2288.144282379966
 10
5281.676572848478
 20
-2288.144282379966
 10
5281.676572848478
 20
-2286.944355603235
 10
5283.026257932028
 20
-2286.200214966761
 10
5284.136887832388
 20
-2285.131442977348
 10
5284.933118311705
 20
-2283.81245369905
 97
        0
 92
        7
 72
     0
 73
     1
 93
       19
 10
5265.964976349688
 20
-2282.52465280408
 10
5265.277708457263
 20
-2282.755744261973
 10
5264.829837529355
 20
-2282.306770206084
 10
5265.277708457261
 20
-2282.048637702549
 10
5265.964976349688
 20
-2281.817546244656
 10
5265.964976349688
 20
-2279.128662889828
 10
5265.277708454675
 20
-2279.359754348592
 10
5264.829837526767
 20
-2278.910780292703
 10
5265.277708454674
 20
-2278.652647789167
 10
5265.964976349688
 20
-2278.421556330404
 10
5265.964976349688
 20
-2276.144282379966
 10
4900.936519283981
 20
-2276.144282379966
 10
4898.726358005681
 20
-2288.144282379966
 10
5265.964976349687
 20
-2288.144282379966
 10
5265.964976349687
 20
-2285.92064271833
 10
5265.277708457263
 20
-2286.151734176223
 10
5264.829837529355
 20
-2285.702760120334
 10
5265.277708457262
 20
-2285.444627616799
 10
5265.964976349688
 20
-2285.213536158905
 97
        0
 75
     0
 76
     1
 52
0.0
 41
2.5
 77
     0
 78
     1
 53
45.0
 43
732.5710283586813
 44
-321.7859308595379
 45
-5.61266007566822
 46
5.612660075668221
 79
     0
 47
1.061916406967607
 98
       11
 10
5443.96924528907
 20
-2119.155862787507
 10
5170.854395141639
 20
-2120.217775579605
 10
5073.085651665421
 20
-2120.217775579605
 10
5012.511540470867
 20
-2121.279696870335
 10
5260.121512617644
 20
-2121.279696870335
 10
5269.685838161746
 20
-2120.217775579605
 10
5279.25017853042
 20
-2118.093941496776
 10
5285.626390618297
 20
-2121.279696870335
 10
5350.451314812959
 20
-2281.629072389596
 10
5280.312878074303
 20
-2282.690985181692
 10
5245.243659704978
 20
-2283.752906472424
  0
HATCH
  5
609E
330
1F
100
AcDbEntity
  8
CETRIS
100
AcDbHatch
 10
0.0
 20
0.0
 30
0.0
210
0.0
220
0.0
230
1.0
  2
ANSI31
 70
     0
 71
     0
 91
        4
 92
        7
 72
     0
 73
     1
 93
       12
 10
5229.915966072129
 20
-2326.050420825521
 10
5229.697572701518
 20
-2325.673111429957
 10
5229.471441147265
 20
-2325.000594331527
 10
5224.515563343216
 20
-2325.000594331527
 10
5222.99193538979
 20
-2325.22755722241
 10
5221.578068180086
 20
-2325.840543071556
 10
5220.370699997189
 20
-2326.798624141543
 10
5219.452616486744
 20
-2328.035757950442
 10
5219.115892848861
 20
-2328.751063136611
 10
5217.91596607213
 20
-2328.751063136611
 10
5217.91596607213
 20
-2508.5904654862
 10
5229.91596607213
 20
-2512.244898865029
 97
        0
 92
        7
 72
     0
 73
     1
 93
       14
 10
5229.91596607213
 20
-2305.362327361152
 10
5217.91596607213
 20
-2305.362327361156
 10
5217.915966072131
 20
-2318.550755359342
 10
5219.115892848861
 20
-2318.550755359343
 10
5219.860033485336
 20
-2319.900440442896
 10
5220.928805474748
 20
-2321.011070343252
 10
5222.247794753045
 20
-2321.80730082257
 10
5223.728634620094
 20
-2322.23518168687
 10
5224.515563343217
 20
-2322.301224168792
 10
5228.563787242507
 20
-2322.301224168792
 10
5228.337655688253
 20
-2321.628707070364
 10
5228.784138823994
 20
-2321.1833209421
 10
5229.160029927431
 20
-2322.301224168792
 10
5229.91596607213
 20
-2322.301224168792
 97
        0
 92
        7
 72
     0
 73
     1
 93
       14
 10
5318.148220356881
 20
-2305.362327361156
 10
5306.14822035688
 20
-2305.362327361156
 10
5306.14822035688
 20
-2321.966074127967
 10
5306.904156501579
 20
-2321.966074127967
 10
5307.280047605017
 20
-2320.848170901274
 10
5307.726530740757
 20
-2321.293557029539
 10
5307.500399186505
 20
-2321.966074127967
 10
5311.548623085792
 20
-2321.966074127967
 10
5312.335551808915
 20
-2321.900031646045
 10
5313.816391675967
 20
-2321.472150781745
 10
5315.135380954259
 20
-2320.675920302429
 10
5316.204152943674
 20
-2319.565290402072
 10
5316.948293580148
 20
-2318.215605318518
 10
5318.148220356881
 20
-2318.215605318518
 97
        0
 92
        7
 72
     0
 73
     1
 93
       12
 10
5318.148220356881
 20
-2328.415913095786
 10
5316.94829358015
 20
-2328.415913095786
 10
5316.611569942264
 20
-2327.700607909617
 10
5315.693486431824
 20
-2326.463474100718
 10
5314.486118248924
 20
-2325.505393030734
 10
5313.072251039222
 20
-2324.892407181586
 10
5311.548623085792
 20
-2324.665444290702
 10
5306.592745281746
 20
-2324.665444290702
 10
5306.216578133356
 20
-2325.784168477572
 10
5306.14822035688
 20
-2325.715810701491
 10
5306.14822035688
 20
-2535.460373415169
 10
5318.148220356881
 20
-2539.114806793999
 97
        0
 75
     0
 76
     1
 52
0.0
 41
2.5
 77
     0
 78
     1
 53
45.0
 43
732.5710283586813
 44
-321.7859308595379
 45
-5.61266007566822
 46
5.612660075668221
 79
     0
 47
1.061916406967607
 98
        4
 10
5225.052279423744
 20
-2374.015799751513
 10
5222.926880335977
 20
-2314.548479426852
 10
5311.131283443523
 20
-2314.548479426852
 10
5309.005884355756
 20
-2338.972558631428
  0
INSERT
  5
60B5
330
1F
100
AcDbEntity
  8
POPIS
100
AcDbBlockReference
  2
E_PUNKT
 10
5267.539468066209
 20
-2262.70528727087
 30
0.0
 41
-1.0
 50
90.0
  0
INSERT
  5
60B6
330
1F
100
AcDbEntity
  8
POPIS
100
AcDbBlockReference
  2
E_PUNKT
 10
5238.990676295809
 20
-2290.766097361078
 30
0.0
 41
-1.0
 50
90.0
  0
LINE
  5
60B7
330
1F
100
AcDbEntity
  8
POPIS
100
AcDbLine
 10
5238.961607964937
 20
-2290.793707736705
 30
0.0
 11
5151.682319236257
 21
-2363.252490699769
 31
0.0
  0
LINE
  5
60B8
330
1F
100
AcDbEntity
  8
POPIS
100
AcDbLine
 10
5267.675913849689
 20
-2262.212576893759
 30
0.0
 11
5149.244655803737
 21
-2317.734843754856
 31
0.0
  0
TEXT
  5
60B9
330
1F
100
AcDbEntity
  8
POPIS
100
AcDbText
 10
5111.209880360005
 20
-2375.249876777616
 30
0.0
 40
25.0
  1
07
 41
0.85
  7
SIMPLEX7
100
AcDbText
  0
TEXT
  5
60BA
330
1F
100
AcDbEntity
  8
POPIS
100
AcDbText
 10
5111.968942991596
 20
-2333.539414947297
 30
0.0
 40
25.0
  1
08
 41
0.85
  7
SIMPLEX7
100
AcDbText
  0
TEXT
  5
7979
330
1F
100
AcDbEntity
  8
POPIS
100
AcDbText
 10
5613.011692418224
 20
-2354.978039836929
 30
0.0
 40
25.0
  1
Podtmelení profilu (papír SIBRAL)
 41
0.7
  7
SIMPLEX7
100
AcDbText
  0
TEXT
  5
797A
330
1F
100
AcDbEntity
  8
POPIS
100
AcDbText
 10
5613.011692418224
 20
-2250.003835755553
 30
0.0
 40
25.0
  1
CW profil (ocelový nosník I, U) - stojina
 41
0.7
  7
SIMPLEX7
100
AcDbText
  0
TEXT
  5
797B
330
1F
100
AcDbEntity
  8
POPIS
100
AcDbText
 10
5613.011692418224
 20
-2214.59967453739
 30
0.0
 40
25.0
  1
Minerální plsť (vzduchová mezera)
 41
0.7
  7
SIMPLEX7
100
AcDbText
  0
TEXT
  5
797D
330
1F
100
AcDbEntity
  8
POPIS
100
AcDbText
 10
5613.011692418224
 20
-2388.143238200729
 30
0.0
 40
25.0
  1
Hmoždinka
 41
0.7
  7
SIMPLEX7
100
AcDbText
  0
TEXT
  5
797E
330
1F
100
AcDbEntity
  8
POPIS
100
AcDbText
 10
5613.011692418224
 20
-2320.724647297731
 30
0.0
 40
25.0
  1
Tmel DEXAFLAMM - R
 41
0.7
  7
SIMPLEX7
100
AcDbText
  0
TEXT
  5
797F
330
1F
100
AcDbEntity
  8
POPIS
100
AcDbText
 10
5613.011692418224
 20
-2145.933881362578
 30
0.0
 40
25.0
  1
Vrut 4,2x35 (45,55) mm
 41
0.7
  7
SIMPLEX7
100
AcDbText
  0
TEXT
  5
7980
330
1F
100
AcDbEntity
  8
POPIS
100
AcDbText
 10
5613.011692418224
 20
-2283.889107294839
 30
0.0
 40
25.0
  1
UW profil (ocelový nosník I, U)
 41
0.7
  7
SIMPLEX7
100
AcDbText
  0
TEXT
  5
7981
330
1F
100
AcDbEntity
  8
POPIS
100
AcDbText
 10
5613.011692418224
 20
-2109.338869746951
 30
0.0
 40
25.0
  1
Deska CETRIS   
 41
0.7
  7
SIMPLEX7
100
AcDbText
  0
TEXT
  5
7982
330
1F
100
AcDbEntity
  8
POPIS
100
AcDbText
 10
5558.667989258482
 20
-2250.003835755553
 30
0.0
 40
25.0
  1
04
 41
0.85
  7
SIMPLEX7
100
AcDbText
  0
TEXT
  5
7983
330
1F
100
AcDbEntity
  8
POPIS
100
AcDbText
 10
5558.667989258482
 20
-2283.889107294839
 30
0.0
 40
25.0
  1
05
 41
0.85
  7
SIMPLEX7
100
AcDbText
  0
TEXT
  5
7984
330
1F
100
AcDbEntity
  8
POPIS
100
AcDbText
 10
5558.667989258482
 20
-2320.724647297731
 30
0.0
 40
25.0
  1
06
 41
0.85
  7
SIMPLEX7
100
AcDbText
  0
TEXT
  5
7986
330
1F
100
AcDbEntity
  8
POPIS
100
AcDbText
 10
5558.667989258482
 20
-2388.143238200729
 30
0.0
 40
25.0
  1
08
 41
0.85
  7
SIMPLEX7
100
AcDbText
  0
TEXT
  5
7987
330
1F
100
AcDbEntity
  8
POPIS
100
AcDbText
 10
5558.667989258482
 20
-2354.978039836929
 30
0.0
 40
25.0
  1
07
 41
0.85
  7
SIMPLEX7
100
AcDbText
  0
TEXT
  5
7988
330
1F
100
AcDbEntity
  8
POPIS
100
AcDbText
 10
5558.667989258482
 20
-2109.338869746951
 30
0.0
 40
25.0
  1
01
 41
0.85
  7
SIMPLEX7
100
AcDbText
  0
TEXT
  5
7989
330
1F
100
AcDbEntity
  8
POPIS
100
AcDbText
 10
5558.667989258482
 20
-2214.59967453739
 30
0.0
 40
25.0
  1
03
 41
0.85
  7
SIMPLEX7
100
AcDbText
  0
TEXT
  5
798A
330
1F
100
AcDbEntity
  8
POPIS
100
AcDbText
 10
5558.667989258482
 20
-2145.933881362578
 30
0.0
 40
25.0
  1
02
 41
0.85
  7
SIMPLEX7
100
AcDbText
  0
CIRCLE
  5
798B
330
1F
100
AcDbEntity
  8
POPIS
100
AcDbCircle
 10
5785.396906712451
 20
-2078.818213893682
 30
0.0
 40
11.13656048292026
  0
TEXT
  5
798C
330
1F
100
AcDbEntity
  8
POPIS
100
AcDbText
 10
5780.637877657269
 20
-2084.36355963867
 30
0.0
 40
12.0
  1
R
 41
0.85
  7
SIMPLEX7
100
AcDbText
  0
TEXT
  5
79AE
330
1F
100
AcDbEntity
  8
POPIS
100
AcDbText
 10
4914.733439205531
 20
-1892.484732721221
 30
0.0
 40
45.0
  1
Požárně dělící příčka (stěna) - vícevrstvé opláštění
 41
0.7
  7
SIMPLEX7
100
AcDbText
  0
TEXT
  5
79B2
330
1F
100
AcDbEntity
  8
POPIS
100
AcDbText
 10
4918.494607785499
 20
-1987.065533831859
 30
0.0
 40
25.0
  1
Vodorovný řez
 41
0.7
  7
SIMPLEX7
100
AcDbText
  0
TEXT
  5
79B3
330
1F
100
AcDbEntity
  8
POPIS
100
AcDbText
 10
4918.494607785499
 20
-1947.65064583097
 30
0.0
 40
35.0
  1
T spoj
 41
0.85
  7
SIMPLEX7
100
AcDbText
  0
TEXT
  5
9F9F
330
1F
100
AcDbEntity
  8
POPIS
100
AcDbText
 10
5556.136100306028
 20
-2177.630486352112
 30
0.0
 40
25.0
  1
(v exteriéru vrut s viditelnou hlavou a těsnící podložkou)
 41
0.6
 51
10.0
  7
SIMPLEX7
100
AcDbText
  0
ENDSEC
  0
SECTION
  2
OBJECTS
  0
DICTIONARY
  5
C
330
0
100
AcDbDictionary
281
     1
  3
ACAD_GROUP
350
D
  3
ACAD_LAYOUT
350
1A
  3
ACAD_MLINESTYLE
350
17
  3
ACAD_PLOTSETTINGS
350
19
  3
ACAD_PLOTSTYLENAME
350
E
  3
AcDbVariableDictionary
350
17BD
  0
DICTIONARY
  5
D
102
{ACAD_REACTORS
330
C
102
}
330
C
100
AcDbDictionary
281
     1
  0
DICTIONARY
  5
1A
102
{ACAD_REACTORS
330
C
102
}
330
C
100
AcDbDictionary
281
     1
  3
Model
350
22
  3
Rozvržení1
350
1E
  3
Rozvržení2
350
26
  0
DICTIONARY
  5
17
102
{ACAD_REACTORS
330
C
102
}
330
C
100
AcDbDictionary
281
     1
  3
Standard
350
18
  0
DICTIONARY
  5
19
102
{ACAD_REACTORS
330
C
102
}
330
C
100
AcDbDictionary
281
     1
  0
ACDBDICTIONARYWDFLT
  5
E
102
{ACAD_REACTORS
330
C
102
}
330
C
100
AcDbDictionary
281
     1
  3
Normal
350
F
100
AcDbDictionaryWithDefault
340
F
  0
DICTIONARY
  5
17BD
102
{ACAD_REACTORS
330
C
102
}
330
C
100
AcDbDictionary
281
     1
  3
DIMASSOC
350
9F87
  3
SORTENTS
350
17BE
  0
LAYOUT
  5
22
102
{ACAD_REACTORS
330
1A
102
}
330
1A
100
AcDbPlotSettings
  1

  2
HP DeskJet 690C
  4

  6

 40
0.0
 41
0.0
 42
0.0
 43
0.0
 44
0.0
 45
0.0
 46
0.0
 47
0.0
 48
0.0
 49
0.0
140
0.0
141
0.0
142
1.0
143
1.0
 70
  1712
 72
     0
 73
     0
 74
     0
  7
monochrome.ctb
 75
     0
147
1.0
148
0.0
149
0.0
100
AcDbLayout
  1
Model
 70
     1
 71
     0
 10
0.0
 20
0.0
 11
12.0
 21
9.0
 12
0.0
 22
0.0
 32
0.0
 14
0.0
 24
0.0
 34
0.0
 15
0.0
 25
0.0
 35
0.0
146
0.0
 13
0.0
 23
0.0
 33
0.0
 16
1.0
 26
0.0
 36
0.0
 17
0.0
 27
1.0
 37
0.0
 76
     0
330
1F
  0
LAYOUT
  5
1E
102
{ACAD_REACTORS
330
1A
102
}
330
1A
100
AcDbPlotSettings
  1

  2
HP DeskJet 690C
  4

  6

 40
0.0
 41
0.0
 42
0.0
 43
0.0
 44
0.0
 45
0.0
 46
0.0
 47
0.0
 48
0.0
 49
0.0
140
0.0
141
0.0
142
1.0
143
1.0
 70
   688
 72
     0
 73
     0
 74
     5
  7
monochrome.ctb
 75
    16
147
1.0
148
0.0
149
0.0
100
AcDbLayout
  1
Rozvržení1
 70
     1
 71
     1
 10
0.0
 20
0.0
 11
420.0
 21
297.0
 12
0.0
 22
0.0
 32
0.0
 14
1.000000000000000E+20
 24
1.000000000000000E+20
 34
1.000000000000000E+20
 15
-1.000000000000000E+20
 25
-1.000000000000000E+20
 35
-1.000000000000000E+20
146
0.0
 13
0.0
 23
0.0
 33
0.0
 16
1.0
 26
0.0
 36
0.0
 17
0.0
 27
1.0
 37
0.0
 76
     0
330
1B
  0
LAYOUT
  5
26
102
{ACAD_REACTORS
330
1A
102
}
330
1A
100
AcDbPlotSettings
  1

  2
HP DeskJet 690C
  4

  6

 40
0.0
 41
0.0
 42
0.0
 43
0.0
 44
0.0
 45
0.0
 46
0.0
 47
0.0
 48
0.0
 49
0.0
140
0.0
141
0.0
142
1.0
143
1.0
 70
   688
 72
     0
 73
     0
 74
     5
  7
monochrome.ctb
 75
    16
147
1.0
148
0.0
149
0.0
100
AcDbLayout
  1
Rozvržení2
 70
     1
 71
     2
 10
0.0
 20
0.0
 11
12.0
 21
9.0
 12
0.0
 22
0.0
 32
0.0
 14
0.0
 24
0.0
 34
0.0
 15
0.0
 25
0.0
 35
0.0
146
0.0
 13
0.0
 23
0.0
 33
0.0
 16
1.0
 26
0.0
 36
0.0
 17
0.0
 27
1.0
 37
0.0
 76
     0
330
23
  0
MLINESTYLE
  5
18
102
{ACAD_REACTORS
330
17
102
}
330
17
100
AcDbMlineStyle
  2
STANDARD
 70
     0
  3

 62
   256
 51
90.0
 52
90.0
 71
     2
 49
0.5
 62
   256
  6
BYLAYER
 49
-0.5
 62
   256
  6
BYLAYER
  0
ACDBPLACEHOLDER
  5
F
102
{ACAD_REACTORS
330
E
102
}
330
E
  0
DICTIONARYVAR
  5
9F87
102
{ACAD_REACTORS
330
17BD
102
}
330
17BD
100
DictionaryVariables
280
     0
  1
1
  0
DICTIONARYVAR
  5
17BE
102
{ACAD_REACTORS
330
17BD
102
}
330
17BD
100
DictionaryVariables
280
     0
  1
96
  0
ENDSEC
  0
EOF
