  0
SECTION
  2
HEADER
  9
$ACADVER
  1
AC1015
  9
$ACADMAINTVER
 70
    14
  9
$DWGCODEPAGE
  3
ANSI_1250
  9
$INSBASE
 10
0.0
 20
0.0
 30
0.0
  9
$EXTMIN
 10
2416.647529545596
 20
-1223.652277501416
 30
-0.0015258207003583
  9
$EXTMAX
 10
3538.235161538487
 20
-778.5970999143282
 30
0.0000000349246037
  9
$LIMMIN
 10
0.0
 20
0.0
  9
$LIMMAX
 10
420.0
 20
297.0
  9
$ORTHOMODE
 70
     0
  9
$REGENMODE
 70
     1
  9
$FILLMODE
 70
     1
  9
$QTEXTMODE
 70
     0
  9
$MIRRTEXT
 70
     1
  9
$LTSCALE
 40
1.0
  9
$ATTMODE
 70
     1
  9
$TEXTSIZE
 40
2.5
  9
$TRACEWID
 40
1.0
  9
$TEXTSTYLE
  7
Standard
  9
$CLAYER
  8
CETRIS
  9
$CELTYPE
  6
ByLayer
  9
$CECOLOR
 62
   256
  9
$CELTSCALE
 40
1.0
  9
$DISPSILH
 70
     0
  9
$DIMSCALE
 40
1.0
  9
$DIMASZ
 40
2.5
  9
$DIMEXO
 40
0.625
  9
$DIMDLI
 40
3.75
  9
$DIMRND
 40
0.0
  9
$DIMDLE
 40
0.0
  9
$DIMEXE
 40
1.25
  9
$DIMTP
 40
0.0
  9
$DIMTM
 40
0.0
  9
$DIMTXT
 40
2.5
  9
$DIMCEN
 40
2.5
  9
$DIMTSZ
 40
0.0
  9
$DIMTOL
 70
     0
  9
$DIMLIM
 70
     0
  9
$DIMTIH
 70
     0
  9
$DIMTOH
 70
     0
  9
$DIMSE1
 70
     0
  9
$DIMSE2
 70
     0
  9
$DIMTAD
 70
     1
  9
$DIMZIN
 70
     8
  9
$DIMBLK
  1

  9
$DIMASO
 70
     1
  9
$DIMSHO
 70
     1
  9
$DIMPOST
  1

  9
$DIMAPOST
  1

  9
$DIMALT
 70
     0
  9
$DIMALTD
 70
     3
  9
$DIMALTF
 40
0.03937007874016
  9
$DIMLFAC
 40
1.0
  9
$DIMTOFL
 70
     1
  9
$DIMTVP
 40
0.0
  9
$DIMTIX
 70
     0
  9
$DIMSOXD
 70
     0
  9
$DIMSAH
 70
     0
  9
$DIMBLK1
  1

  9
$DIMBLK2
  1

  9
$DIMSTYLE
  2
ISO-25
  9
$DIMCLRD
 70
     0
  9
$DIMCLRE
 70
     0
  9
$DIMCLRT
 70
     0
  9
$DIMTFAC
 40
1.0
  9
$DIMGAP
 40
0.625
  9
$DIMJUST
 70
     0
  9
$DIMSD1
 70
     0
  9
$DIMSD2
 70
     0
  9
$DIMTOLJ
 70
     0
  9
$DIMTZIN
 70
     8
  9
$DIMALTZ
 70
     0
  9
$DIMALTTZ
 70
     0
  9
$DIMUPT
 70
     0
  9
$DIMDEC
 70
     2
  9
$DIMTDEC
 70
     2
  9
$DIMALTU
 70
     2
  9
$DIMALTTD
 70
     3
  9
$DIMTXSTY
  7
Standard
  9
$DIMAUNIT
 70
     0
  9
$DIMADEC
 70
     0
  9
$DIMALTRND
 40
0.0
  9
$DIMAZIN
 70
     0
  9
$DIMDSEP
 70
    44
  9
$DIMATFIT
 70
     3
  9
$DIMFRAC
 70
     0
  9
$DIMLDRBLK
  1

  9
$DIMLUNIT
 70
     2
  9
$DIMLWD
 70
    -2
  9
$DIMLWE
 70
    -2
  9
$DIMTMOVE
 70
     0
  9
$LUNITS
 70
     2
  9
$LUPREC
 70
     4
  9
$SKETCHINC
 40
1.0
  9
$FILLETRAD
 40
0.0
  9
$AUNITS
 70
     0
  9
$AUPREC
 70
     0
  9
$MENU
  1
.
  9
$ELEVATION
 40
0.0
  9
$PELEVATION
 40
0.0
  9
$THICKNESS
 40
0.0
  9
$LIMCHECK
 70
     0
  9
$CHAMFERA
 40
10.0
  9
$CHAMFERB
 40
10.0
  9
$CHAMFERC
 40
20.0
  9
$CHAMFERD
 40
0.0
  9
$SKPOLY
 70
     0
  9
$TDCREATE
 40
2452332.512107639
  9
$TDUCREATE
 40
2452332.470440972
  9
$TDUPDATE
 40
2455601.287856423
  9
$TDUUPDATE
 40
2455601.246189757
  9
$TDINDWG
 40
1.0584117477
  9
$TDUSRTIMER
 40
1.0583978588
  9
$USRTIMER
 70
     1
  9
$ANGBASE
 50
0.0
  9
$ANGDIR
 70
     0
  9
$PDMODE
 70
     0
  9
$PDSIZE
 40
0.0
  9
$PLINEWID
 40
0.0
  9
$SPLFRAME
 70
     0
  9
$SPLINETYPE
 70
     6
  9
$SPLINESEGS
 70
     8
  9
$HANDSEED
  5
9FB2
  9
$SURFTAB1
 70
     6
  9
$SURFTAB2
 70
     6
  9
$SURFTYPE
 70
     6
  9
$SURFU
 70
     6
  9
$SURFV
 70
     6
  9
$UCSBASE
  2

  9
$UCSNAME
  2

  9
$UCSORG
 10
0.0
 20
0.0
 30
0.0
  9
$UCSXDIR
 10
1.0
 20
0.0
 30
0.0
  9
$UCSYDIR
 10
0.0
 20
1.0
 30
0.0
  9
$UCSORTHOREF
  2

  9
$UCSORTHOVIEW
 70
     0
  9
$UCSORGTOP
 10
0.0
 20
0.0
 30
0.0
  9
$UCSORGBOTTOM
 10
0.0
 20
0.0
 30
0.0
  9
$UCSORGLEFT
 10
0.0
 20
0.0
 30
0.0
  9
$UCSORGRIGHT
 10
0.0
 20
0.0
 30
0.0
  9
$UCSORGFRONT
 10
0.0
 20
0.0
 30
0.0
  9
$UCSORGBACK
 10
0.0
 20
0.0
 30
0.0
  9
$PUCSBASE
  2

  9
$PUCSNAME
  2

  9
$PUCSORG
 10
0.0
 20
0.0
 30
0.0
  9
$PUCSXDIR
 10
1.0
 20
0.0
 30
0.0
  9
$PUCSYDIR
 10
0.0
 20
1.0
 30
0.0
  9
$PUCSORTHOREF
  2

  9
$PUCSORTHOVIEW
 70
     0
  9
$PUCSORGTOP
 10
0.0
 20
0.0
 30
0.0
  9
$PUCSORGBOTTOM
 10
0.0
 20
0.0
 30
0.0
  9
$PUCSORGLEFT
 10
0.0
 20
0.0
 30
0.0
  9
$PUCSORGRIGHT
 10
0.0
 20
0.0
 30
0.0
  9
$PUCSORGFRONT
 10
0.0
 20
0.0
 30
0.0
  9
$PUCSORGBACK
 10
0.0
 20
0.0
 30
0.0
  9
$USERI1
 70
     0
  9
$USERI2
 70
     0
  9
$USERI3
 70
     0
  9
$USERI4
 70
     0
  9
$USERI5
 70
     0
  9
$USERR1
 40
0.0
  9
$USERR2
 40
0.0
  9
$USERR3
 40
0.0
  9
$USERR4
 40
0.0
  9
$USERR5
 40
0.0
  9
$WORLDVIEW
 70
     1
  9
$SHADEDGE
 70
     3
  9
$SHADEDIF
 70
    70
  9
$TILEMODE
 70
     1
  9
$MAXACTVP
 70
    64
  9
$PINSBASE
 10
0.0
 20
0.0
 30
0.0
  9
$PLIMCHECK
 70
     0
  9
$PEXTMIN
 10
1.000000000000000E+20
 20
1.000000000000000E+20
 30
1.000000000000000E+20
  9
$PEXTMAX
 10
-1.000000000000000E+20
 20
-1.000000000000000E+20
 30
-1.000000000000000E+20
  9
$PLIMMIN
 10
0.0
 20
0.0
  9
$PLIMMAX
 10
420.0
 20
297.0
  9
$UNITMODE
 70
     0
  9
$VISRETAIN
 70
     1
  9
$PLINEGEN
 70
     0
  9
$PSLTSCALE
 70
     1
  9
$TREEDEPTH
 70
  3020
  9
$CMLSTYLE
  2
Standard
  9
$CMLJUST
 70
     0
  9
$CMLSCALE
 40
20.0
  9
$PROXYGRAPHICS
 70
     1
  9
$MEASUREMENT
 70
     1
  9
$CELWEIGHT
370
    -1
  9
$ENDCAPS
280
     0
  9
$JOINSTYLE
280
     0
  9
$LWDISPLAY
290
     0
  9
$INSUNITS
 70
     4
  9
$HYPERLINKBASE
  1

  9
$STYLESHEET
  1

  9
$XEDIT
290
     1
  9
$CEPSNTYPE
380
     0
  9
$PSTYLEMODE
290
     1
  9
$FINGERPRINTGUID
  2
{D99C744E-04C5-44F1-9703-862C59725F9B}
  9
$VERSIONGUID
  2
{0F54C3CD-8F12-4E4E-A6C6-1EA3B7A26EAA}
  9
$EXTNAMES
290
     1
  9
$PSVPSCALE
 40
0.0
  9
$OLESTARTUP
290
     0
  0
ENDSEC
  0
SECTION
  2
CLASSES
  0
CLASS
  1
ACDBDICTIONARYWDFLT
  2
AcDbDictionaryWithDefault
  3
AutoCAD 2000
 90
        0
280
     0
281
     0
  0
CLASS
  1
ACDBPLACEHOLDER
  2
AcDbPlaceHolder
  3
AutoCAD 2000
 90
        0
280
     0
281
     0
  0
CLASS
  1
LAYOUT
  2
AcDbLayout
  3
AutoCAD 2000
 90
        0
280
     0
281
     0
  0
CLASS
  1
DICTIONARYVAR
  2
AcDbDictionaryVar
  3
AutoCAD 2000
 90
        0
280
     0
281
     0
  0
ENDSEC
  0
SECTION
  2
TABLES
  0
TABLE
  2
VPORT
  5
8
330
0
100
AcDbSymbolTable
 70
     2
  0
VPORT
  5
9FB1
330
8
100
AcDbSymbolTableRecord
100
AcDbViewportTableRecord
  2
*Active
 70
     0
 10
0.0
 20
0.0
 11
1.0
 21
1.0
 12
2912.744734455887
 22
-1073.091370780603
 13
0.0
 23
0.0
 14
10.0
 24
10.0
 15
10.0
 25
10.0
 16
0.0
 26
0.0
 36
1.0
 17
0.0
 27
0.0
 37
0.0
 40
775.3212347830194
 41
2.031862745098039
 42
50.0
 43
0.0
 44
0.0
 50
0.0
 51
0.0
 71
     0
 72
   100
 73
     1
 74
     3
 75
     0
 76
     1
 77
     0
 78
     0
281
     0
 65
     1
110
0.0
120
0.0
130
0.0
111
1.0
121
0.0
131
0.0
112
0.0
122
1.0
132
0.0
 79
     0
146
0.0
  0
ENDTAB
  0
TABLE
  2
LTYPE
  5
5
330
0
100
AcDbSymbolTable
 70
     5
  0
LTYPE
  5
14
330
5
100
AcDbSymbolTableRecord
100
AcDbLinetypeTableRecord
  2
ByBlock
 70
     0
  3

 72
    65
 73
     0
 40
0.0
  0
LTYPE
  5
15
330
5
100
AcDbSymbolTableRecord
100
AcDbLinetypeTableRecord
  2
ByLayer
 70
     0
  3

 72
    65
 73
     0
 40
0.0
  0
LTYPE
  5
16
330
5
100
AcDbSymbolTableRecord
100
AcDbLinetypeTableRecord
  2
Continuous
 70
     0
  3
Solid line
 72
    65
 73
     0
 40
0.0
  0
LTYPE
  5
33
330
5
100
AcDbSymbolTableRecord
100
AcDbLinetypeTableRecord
  2
DASHED
 70
     0
  3
Dashed __ __ __ __ __ __ __ __ __ __ __ __ __ _
 72
    65
 73
     2
 40
19.04999999999999
 49
12.7
 74
     0
 49
-6.349999999999999
 74
     0
  0
LTYPE
  5
34
330
5
100
AcDbSymbolTableRecord
100
AcDbLinetypeTableRecord
  2
DASHDOT2
 70
     0
  3
Dash dot (.5x) _._._._._._._._._._._._._._._.
 72
    65
 73
     4
 40
12.7
 49
6.349999999999999
 74
     0
 49
-3.174999999999999
 74
     0
 49
0.0
 74
     0
 49
-3.174999999999999
 74
     0
  0
LTYPE
  5
35
330
5
100
AcDbSymbolTableRecord
100
AcDbLinetypeTableRecord
  2
CIKCAK
 70
     0
  3
Cik-cak /\/\/\/\/\/\/\/\/\/\/\/\/\/\/\/\/\/\/\/
 72
    65
 73
     4
 40
20.32254
 49
0.00254
 74
     0
 49
-5.08
 74
     4
 75
   131
340
3E
 46
5.08
 50
0.0
 44
-5.08
 45
0.0
 49
-10.16
 74
     4
 75
   131
340
3E
 46
5.08
 50
180.0
 44
5.08
 45
0.0
 49
-5.08
 74
     0
  0
LTYPE
  5
36
330
5
100
AcDbSymbolTableRecord
100
AcDbLinetypeTableRecord
  2
IZOLACE
 70
     0
  3
Izolace SSSSSSSSSSSSSSSSSSSSSSSSSSSSSSSSSSSSSSS
 72
    65
 73
     4
 40
10.16253999999999
 49
0.00254
 74
     0
 49
-2.54
 74
     4
 75
   134
340
3E
 46
2.54
 50
0.0
 44
-2.54
 45
0.0
 49
-5.08
 74
     4
 75
   134
340
3E
 46
2.54
 50
180.0
 44
2.54
 45
0.0
 49
-2.54
 74
     0
  0
ENDTAB
  0
TABLE
  2
LAYER
  5
2
330
0
100
AcDbSymbolTable
 70
     8
  0
LAYER
  5
10
330
2
100
AcDbSymbolTableRecord
100
AcDbLayerTableRecord
  2
0
 70
     0
 62
     7
  6
Continuous
370
    -3
390
F
  0
LAYER
  5
37
330
2
100
AcDbSymbolTableRecord
100
AcDbLayerTableRecord
  2
POPIS
 70
     0
 62
    30
  6
Continuous
370
    -3
390
F
  0
LAYER
  5
38
330
2
100
AcDbSymbolTableRecord
100
AcDbLayerTableRecord
  2
SPOJOVACÍ
 70
     0
 62
   180
  6
Continuous
370
    -3
390
F
  0
LAYER
  5
39
330
2
100
AcDbSymbolTableRecord
100
AcDbLayerTableRecord
  2
CETRIS
 70
     0
 62
     1
  6
Continuous
370
    -3
390
F
  0
LAYER
  5
3A
330
2
100
AcDbSymbolTableRecord
100
AcDbLayerTableRecord
  2
NOSNÉ KONSTRUKCE
 70
     0
 62
    33
  6
Continuous
370
    -3
390
F
  0
LAYER
  5
3B
330
2
100
AcDbSymbolTableRecord
100
AcDbLayerTableRecord
  2
izolace
 70
     0
 62
    73
  6
Continuous
370
    -3
390
F
  0
LAYER
  5
3C
330
2
100
AcDbSymbolTableRecord
100
AcDbLayerTableRecord
  2
STAVBA OBRYS
 70
     0
 62
     6
  6
Continuous
370
    -3
390
F
  0
LAYER
  5
1B41
330
2
100
AcDbSymbolTableRecord
100
AcDbLayerTableRecord
  2
Defpoints
 70
     0
 62
     7
  6
Continuous
290
     0
370
    -3
390
F
  0
ENDTAB
  0
TABLE
  2
STYLE
  5
3
330
0
100
AcDbSymbolTable
 70
     3
  0
STYLE
  5
11
330
3
100
AcDbSymbolTableRecord
100
AcDbTextStyleTableRecord
  2
Standard
 70
     0
 40
0.0
 41
1.0
 50
0.0
 71
     0
 42
2.5
  3
txt
  4

  0
STYLE
  5
3D
330
3
100
AcDbSymbolTableRecord
100
AcDbTextStyleTableRecord
  2
SIMPLEX7
 70
     0
 40
0.0
 41
0.85
 50
0.0
 71
     0
 42
102.0
  3
ARIAL.TTF
  4

1001
ACAD
1000
Arial CE
1071
    60962
  0
STYLE
  5
3E
330
3
100
AcDbSymbolTableRecord
100
AcDbTextStyleTableRecord
  2

 70
     1
 40
0.0
 41
1.0
 50
0.0
 71
     0
 42
2.5
  3
ltypeshp.shx
  4

  0
ENDTAB
  0
TABLE
  2
VIEW
  5
6
330
0
100
AcDbSymbolTable
 70
     0
  0
ENDTAB
  0
TABLE
  2
UCS
  5
7
330
0
100
AcDbSymbolTable
 70
     0
  0
ENDTAB
  0
TABLE
  2
APPID
  5
9
330
0
100
AcDbSymbolTable
 70
     1
  0
APPID
  5
12
330
9
100
AcDbSymbolTableRecord
100
AcDbRegAppTableRecord
  2
ACAD
 70
     0
  0
ENDTAB
  0
TABLE
  2
DIMSTYLE
  5
A
330
0
100
AcDbSymbolTable
 70
     1
100
AcDbDimStyleTable
 71
     1
340
27
  0
DIMSTYLE
105
27
330
A
100
AcDbSymbolTableRecord
100
AcDbDimStyleTableRecord
  2
ISO-25
 70
     0
 41
2.5
 42
0.625
 43
3.75
 44
1.25
 73
     0
 74
     0
 77
     1
 78
     8
140
2.5
141
2.5
143
0.03937007874016
147
0.625
171
     3
172
     1
271
     2
272
     2
274
     3
278
    44
283
     0
284
     8
340
11
  0
ENDTAB
  0
TABLE
  2
BLOCK_RECORD
  5
1
330
0
100
AcDbSymbolTable
 70
     3
  0
BLOCK_RECORD
  5
1F
330
1
100
AcDbSymbolTableRecord
100
AcDbBlockTableRecord
  2
*Model_Space
340
22
  0
BLOCK_RECORD
  5
1B
330
1
100
AcDbSymbolTableRecord
100
AcDbBlockTableRecord
  2
*Paper_Space
340
1E
  0
BLOCK_RECORD
  5
23
330
1
100
AcDbSymbolTableRecord
100
AcDbBlockTableRecord
  2
*Paper_Space0
340
26
  0
BLOCK_RECORD
  5
2B
330
1
100
AcDbSymbolTableRecord
100
AcDbBlockTableRecord
  2
E_PUNKT
340
0
102
{BLKREFS
331
D05
331
D1A
331
D1D
331
1138
331
1350
331
1351
331
1352
331
1353
331
1414
331
1415
331
1416
331
EAD
331
EB1
331
EB4
331
EB9
331
EBF
331
EC1
331
15BB
331
15BC
331
15C2
331
15C3
331
15CA
331
1D1A
331
1FE7
331
2073
331
2074
331
208A
331
208C
331
2113
331
23A8
331
2669
331
25ED
331
2AB6
331
2B8E
331
2BEE
331
2F0B
331
2E50
331
2E2C
331
2DB0
331
2F0A
331
3527
331
365E
331
371B
331
3C9E
331
3C9F
331
3CA8
331
3CAB
331
3CAC
331
3CAE
331
449A
331
4533
331
45E9
331
45B0
331
4420
331
4498
331
4379
331
45F5
331
47D7
331
4CE5
331
4CE8
331
4CEB
331
5176
331
519A
331
5197
331
5199
331
5198
331
519B
331
519D
331
51A1
331
524F
331
5251
331
5413
331
5412
331
5414
331
5417
331
541A
331
541D
331
567D
331
5667
331
56B3
331
56D8
331
56DC
331
56D9
331
5D48
331
5D4C
331
5F2A
331
5F30
331
5F31
331
5F39
331
5F3B
331
60B5
331
60B6
331
611F
331
6123
331
6126
331
6131
331
612F
331
6130
331
6148
331
6C59
331
6C5A
331
6AD5
331
7412
331
6C86
331
74A2
331
6C7B
331
745F
331
6A75
331
74D0
331
7592
331
74DB
331
74DA
331
75EE
331
75F4
331
75F7
331
75FB
331
75FC
331
7601
331
79D9
331
79DA
331
79DC
331
8178
331
8177
331
8179
331
817D
331
8180
331
8182
331
8186
331
8189
331
818C
331
8B1A
331
8B1F
331
8B21
331
8A05
331
8B1D
331
88E8
331
8CB1
331
8CB9
102
}
  0
BLOCK_RECORD
  5
2F
330
1
100
AcDbSymbolTableRecord
100
AcDbBlockTableRecord
  2
_ArchTick
340
0
102
{BLKREFS
331
B3F
331
B47
331
B48
331
205C
331
205D
102
}
  0
ENDTAB
  0
ENDSEC
  0
SECTION
  2
BLOCKS
  0
BLOCK
  5
20
330
1F
100
AcDbEntity
  8
0
100
AcDbBlockBegin
  2
*Model_Space
 70
     0
 10
0.0
 20
0.0
 30
0.0
  3
*Model_Space
  1

  0
ENDBLK
  5
21
330
1F
100
AcDbEntity
  8
0
100
AcDbBlockEnd
  0
BLOCK
  5
1C
330
1B
100
AcDbEntity
 67
     1
  8
0
100
AcDbBlockBegin
  2
*Paper_Space
 70
     0
 10
0.0
 20
0.0
 30
0.0
  3
*Paper_Space
  1

  0
ENDBLK
  5
1D
330
1B
100
AcDbEntity
 67
     1
  8
0
100
AcDbBlockEnd
  0
BLOCK
  5
24
330
23
100
AcDbEntity
  8
0
100
AcDbBlockBegin
  2
*Paper_Space0
 70
     0
 10
0.0
 20
0.0
 30
0.0
  3
*Paper_Space0
  1

  0
ENDBLK
  5
25
330
23
100
AcDbEntity
  8
0
100
AcDbBlockEnd
  0
BLOCK
  5
2D
330
2B
100
AcDbEntity
  8
0
100
AcDbBlockBegin
  2
E_PUNKT
 70
     0
 10
0.0
 20
0.0
 30
0.0
  3
E_PUNKT
  1

  0
LWPOLYLINE
  5
2C
330
2B
100
AcDbEntity
  8
POPIS
100
AcDbPolyline
 90
        2
 70
     1
 43
2.5
 10
1.27761037562675
 20
0.0290683308725193
 42
-1.0
 10
-1.222389624373249
 20
0.0290683308725193
 42
-1.0
  0
ENDBLK
  5
2E
330
2B
100
AcDbEntity
  8
0
100
AcDbBlockEnd
  0
BLOCK
  5
31
330
2F
100
AcDbEntity
  8
0
100
AcDbBlockBegin
  2
_ArchTick
 70
     0
 10
0.0
 20
0.0
 30
0.0
  3
_ArchTick
  1

  0
LWPOLYLINE
  5
30
330
2F
100
AcDbEntity
  8
0
  6
ByBlock
 62
     0
100
AcDbPolyline
 90
        2
 70
     0
 43
0.15
 10
-0.5
 20
-0.5
 10
0.5
 20
0.5
  0
ENDBLK
  5
32
330
2F
100
AcDbEntity
  8
0
100
AcDbBlockEnd
  0
ENDSEC
  0
SECTION
  2
ENTITIES
  0
INSERT
  5
B3F
330
1F
100
AcDbEntity
  8
POPIS
100
AcDbBlockReference
  2
_ArchTick
 10
2674.784433398196
 20
-1210.680903452117
 30
0.0
 41
20.0
 42
20.0
 43
20.0
 50
180.0
  0
LINE
  5
B40
330
1F
100
AcDbEntity
  8
POPIS
100
AcDbLine
 10
2674.784433398196
 20
-1175.35341758147
 30
0.0
 11
2674.784433398196
 21
-1223.180903452117
 31
0.0
  0
LINE
  5
B43
330
1F
100
AcDbEntity
  8
POPIS
100
AcDbLine
 10
2603.91400257995
 20
-1175.35341758147
 30
0.0
 11
2603.91400257995
 21
-1223.180903452117
 31
0.0
  0
LINE
  5
B44
330
1F
100
AcDbEntity
  8
POPIS
100
AcDbLine
 10
2664.673630299405
 20
-1175.35341758147
 30
0.0
 11
2664.673630299405
 21
-1223.180903452117
 31
0.0
  0
LINE
  5
B45
330
1F
100
AcDbEntity
  8
POPIS
100
AcDbLine
 10
2649.614911481873
 20
-1210.680903452117
 30
0.0
 11
2582.392378820975
 21
-1210.680903452117
 31
0.0
  0
LINE
  5
B46
330
1F
100
AcDbEntity
  8
POPIS
100
AcDbLine
 10
2649.614911481873
 20
-1210.680903452117
 30
0.0
 11
2715.449939085976
 21
-1210.680903452117
 31
0.0
  0
INSERT
  5
B47
330
1F
100
AcDbEntity
  8
POPIS
100
AcDbBlockReference
  2
_ArchTick
 10
2603.91400257995
 20
-1210.680903452117
 30
0.0
 41
20.0
 42
20.0
 43
20.0
  0
INSERT
  5
B48
330
1F
100
AcDbEntity
  8
POPIS
100
AcDbBlockReference
  2
_ArchTick
 10
2664.673630299405
 20
-1210.680903452117
 30
0.0
 41
20.0
 42
20.0
 43
20.0
 50
180.0
  0
MTEXT
  5
B49
330
1F
100
AcDbEntity
  8
POPIS
100
AcDbMText
 10
2637.592596847085
 20
-1194.219443697684
 30
0.0
 40
20.0
 41
0.0
 71
     5
 72
     1
  1
{\fArial|b0|i0|c238|p34;>50}
 73
     1
 44
1.0
  0
LINE
  5
B9D
330
1F
100
AcDbEntity
  8
SPOJOVACÍ
  6
Continuous
100
AcDbLine
 10
2704.222040427067
 20
-1112.816312047573
 30
0.0
 11
2711.505060180036
 21
-1112.816312047573
 31
0.0
  0
LINE
  5
B9E
102
{ACAD_REACTORS
330
9E7B
102
}
330
1F
100
AcDbEntity
  8
SPOJOVACÍ
  6
Continuous
100
AcDbLine
 10
2711.505060180036
 20
-1113.673059766159
 30
0.0
 11
2711.505060180036
 21
-1112.816312047573
 31
0.0
  0
LINE
  5
B9F
102
{ACAD_REACTORS
330
9E7B
102
}
330
1F
100
AcDbEntity
  8
SPOJOVACÍ
  6
Continuous
100
AcDbLine
 10
2711.505060180036
 20
-1112.816312047573
 30
0.0
 11
2710.541385030382
 21
-1112.284995633131
 31
0.0
  0
LINE
  5
BFA
330
1F
100
AcDbEntity
  8
SPOJOVACÍ
  6
Continuous
100
AcDbLine
 10
2706.419697948736
 20
-1097.321132962838
 30
0.0
 11
2709.307402661485
 21
-1096.35015221517
 31
0.0
  0
LINE
  5
BFB
330
1F
100
AcDbEntity
  8
SPOJOVACÍ
  6
Continuous
100
AcDbLine
 10
2706.419697948736
 20
-1096.895415685638
 30
0.0
 11
2709.307402661485
 21
-1095.924434937968
 31
0.0
  0
LINE
  5
BFC
330
1F
100
AcDbEntity
  8
SPOJOVACÍ
  6
Continuous
100
AcDbLine
 10
2709.577045740338
 20
-1096.194078018382
 30
0.0
 11
2709.307402661485
 21
-1096.35015221517
 31
0.0
  0
LINE
  5
BFD
330
1F
100
AcDbEntity
  8
SPOJOVACÍ
  6
Continuous
100
AcDbLine
 10
2709.577045740338
 20
-1096.194078018382
 30
0.0
 11
2709.307402661485
 21
-1095.924434937968
 31
0.0
  0
LINE
  5
BFE
330
1F
100
AcDbEntity
  8
SPOJOVACÍ
  6
Continuous
100
AcDbLine
 10
2706.150054866765
 20
-1097.050825736777
 30
0.0
 11
2706.419697948736
 21
-1097.321132962838
 31
0.0
  0
LINE
  5
BFF
330
1F
100
AcDbEntity
  8
SPOJOVACÍ
  6
Continuous
100
AcDbLine
 10
2706.150054866765
 20
-1097.050825736777
 30
0.0
 11
2706.419697948736
 21
-1096.895415685638
 31
0.0
  0
LINE
  5
C00
330
1F
100
AcDbEntity
  8
SPOJOVACÍ
  6
Continuous
100
AcDbLine
 10
2706.150054866765
 20
-1097.050825736777
 30
0.0
 11
2709.577045740338
 21
-1096.194078018382
 31
0.0
  0
LINE
  5
C01
330
1F
100
AcDbEntity
  8
SPOJOVACÍ
  6
Continuous
100
AcDbLine
 10
2706.419697948736
 20
-1099.548677030777
 30
0.0
 11
2709.307402661485
 21
-1098.577696283108
 31
0.0
  0
LINE
  5
C02
330
1F
100
AcDbEntity
  8
SPOJOVACÍ
  6
Continuous
100
AcDbLine
 10
2706.419697948736
 20
-1099.122959753581
 30
0.0
 11
2709.307402661485
 21
-1098.151979006105
 31
0.0
  0
LINE
  5
C03
330
1F
100
AcDbEntity
  8
SPOJOVACÍ
  6
Continuous
100
AcDbLine
 10
2709.577045740338
 20
-1098.42228623197
 30
0.0
 11
2709.307402661485
 21
-1098.577696283108
 31
0.0
  0
LINE
  5
C04
330
1F
100
AcDbEntity
  8
SPOJOVACÍ
  6
Continuous
100
AcDbLine
 10
2709.577045740338
 20
-1098.42228623197
 30
0.0
 11
2709.307402661485
 21
-1098.151979006105
 31
0.0
  0
LINE
  5
C05
330
1F
100
AcDbEntity
  8
SPOJOVACÍ
  6
Continuous
100
AcDbLine
 10
2706.150054866765
 20
-1099.279033950363
 30
0.0
 11
2706.419697948736
 21
-1099.548677030777
 31
0.0
  0
LINE
  5
C06
330
1F
100
AcDbEntity
  8
SPOJOVACÍ
  6
Continuous
100
AcDbLine
 10
2706.150054866765
 20
-1099.279033950363
 30
0.0
 11
2706.419697948736
 21
-1099.122959753581
 31
0.0
  0
LINE
  5
C07
330
1F
100
AcDbEntity
  8
SPOJOVACÍ
  6
Continuous
100
AcDbLine
 10
2706.150054866765
 20
-1099.279033950363
 30
0.0
 11
2709.577045740338
 21
-1098.42228623197
 31
0.0
  0
LINE
  5
C08
102
{ACAD_REACTORS
330
9E7B
102
}
330
1F
100
AcDbEntity
  8
SPOJOVACÍ
  6
Continuous
100
AcDbLine
 10
2706.419697948736
 20
-1101.776221098721
 30
0.0
 11
2709.307402661485
 21
-1100.805240351243
 31
0.0
  0
LINE
  5
C09
330
1F
100
AcDbEntity
  8
SPOJOVACÍ
  6
Continuous
100
AcDbLine
 10
2706.419697948736
 20
-1101.350503821521
 30
0.0
 11
2709.307402661485
 21
-1100.379523074049
 31
0.0
  0
LINE
  5
C0A
330
1F
100
AcDbEntity
  8
SPOJOVACÍ
  6
Continuous
100
AcDbLine
 10
2709.577045740338
 20
-1100.649830299914
 30
0.0
 11
2709.307402661485
 21
-1100.805240351243
 31
0.0
  0
LINE
  5
C0B
330
1F
100
AcDbEntity
  8
SPOJOVACÍ
  6
Continuous
100
AcDbLine
 10
2709.577045740338
 20
-1100.649830299914
 30
0.0
 11
2709.307402661485
 21
-1100.379523074049
 31
0.0
  0
LINE
  5
C0C
102
{ACAD_REACTORS
330
9E7B
102
}
330
1F
100
AcDbEntity
  8
SPOJOVACÍ
  6
Continuous
100
AcDbLine
 10
2706.150054866765
 20
-1101.506578018307
 30
0.0
 11
2706.419697948736
 21
-1101.776221098721
 31
0.0
  0
LINE
  5
C0D
330
1F
100
AcDbEntity
  8
SPOJOVACÍ
  6
Continuous
100
AcDbLine
 10
2706.150054866765
 20
-1101.506578018307
 30
0.0
 11
2706.419697948736
 21
-1101.350503821521
 31
0.0
  0
LINE
  5
C0E
330
1F
100
AcDbEntity
  8
SPOJOVACÍ
  6
Continuous
100
AcDbLine
 10
2706.150054866765
 20
-1101.506578018307
 30
0.0
 11
2709.577045740338
 21
-1100.649830299914
 31
0.0
  0
LINE
  5
C0F
330
1F
100
AcDbEntity
  8
SPOJOVACÍ
  6
Continuous
100
AcDbLine
 10
2707.137639254216
 20
-1090.549505259215
 30
0.0
 11
2708.675800273217
 21
-1090.327680656152
 31
0.0
  0
LINE
  5
C10
330
1F
100
AcDbEntity
  8
SPOJOVACÍ
  6
Continuous
100
AcDbLine
 10
2707.407282333072
 20
-1090.819148339628
 30
0.0
 11
2708.406157194361
 21
-1090.483090707483
 31
0.0
  0
LINE
  5
C11
330
1F
100
AcDbEntity
  8
SPOJOVACÍ
  6
Continuous
100
AcDbLine
 10
2707.407282333072
 20
-1090.393431062434
 30
0.0
 11
2708.406157194361
 21
-1090.057373430288
 31
0.0
  0
LINE
  5
C12
330
1F
100
AcDbEntity
  8
SPOJOVACÍ
  6
Continuous
100
AcDbLine
 10
2708.675800273217
 20
-1090.327680656152
 30
0.0
 11
2708.406157194361
 21
-1090.483090707483
 31
0.0
  0
LINE
  5
C13
330
1F
100
AcDbEntity
  8
SPOJOVACÍ
  6
Continuous
100
AcDbLine
 10
2708.675800273217
 20
-1090.327680656152
 30
0.0
 11
2708.406157194361
 21
-1090.057373430288
 31
0.0
  0
LINE
  5
C14
330
1F
100
AcDbEntity
  8
SPOJOVACÍ
  6
Continuous
100
AcDbLine
 10
2707.137639254216
 20
-1090.549505259215
 30
0.0
 11
2707.407282333072
 21
-1090.819148339628
 31
0.0
  0
LINE
  5
C15
330
1F
100
AcDbEntity
  8
SPOJOVACÍ
  6
Continuous
100
AcDbLine
 10
2707.137639254216
 20
-1090.549505259215
 30
0.0
 11
2707.407282333072
 21
-1090.393431062434
 31
0.0
  0
LINE
  5
C16
330
1F
100
AcDbEntity
  8
SPOJOVACÍ
  6
Continuous
100
AcDbLine
 10
2706.734502922941
 20
-1092.701336738135
 30
0.0
 11
2708.959390409273
 21
-1092.249053640362
 31
0.0
  0
LINE
  5
C17
330
1F
100
AcDbEntity
  8
SPOJOVACÍ
  6
Continuous
100
AcDbLine
 10
2707.004146004911
 20
-1092.971643964196
 30
0.0
 11
2708.689747330417
 21
-1092.404463691501
 31
0.0
  0
LINE
  5
C18
330
1F
100
AcDbEntity
  8
SPOJOVACÍ
  6
Continuous
100
AcDbLine
 10
2707.004146004911
 20
-1092.545926686997
 30
0.0
 11
2708.689747330417
 21
-1091.978746414498
 31
0.0
  0
LINE
  5
C19
330
1F
100
AcDbEntity
  8
SPOJOVACÍ
  6
Continuous
100
AcDbLine
 10
2708.959390409273
 20
-1092.249053640362
 30
0.0
 11
2708.689747330417
 21
-1092.404463691501
 31
0.0
  0
LINE
  5
C1A
330
1F
100
AcDbEntity
  8
SPOJOVACÍ
  6
Continuous
100
AcDbLine
 10
2708.959390409273
 20
-1092.249053640362
 30
0.0
 11
2708.689747330417
 21
-1091.978746414498
 31
0.0
  0
LINE
  5
C1B
330
1F
100
AcDbEntity
  8
SPOJOVACÍ
  6
Continuous
100
AcDbLine
 10
2706.734502922941
 20
-1092.701336738135
 30
0.0
 11
2707.004146004911
 21
-1092.971643964196
 31
0.0
  0
LINE
  5
C1C
330
1F
100
AcDbEntity
  8
SPOJOVACÍ
  6
Continuous
100
AcDbLine
 10
2706.734502922941
 20
-1092.701336738135
 30
0.0
 11
2707.004146004911
 21
-1092.545926686997
 31
0.0
  0
LINE
  5
C1D
330
1F
100
AcDbEntity
  8
SPOJOVACÍ
  6
Continuous
100
AcDbLine
 10
2706.331366594779
 20
-1094.853832362704
 30
0.0
 11
2709.276851966839
 21
-1094.159136150739
 31
0.0
  0
LINE
  5
C1E
330
1F
100
AcDbEntity
  8
SPOJOVACÍ
  6
Continuous
100
AcDbLine
 10
2706.601673820257
 20
-1095.123475443118
 30
0.0
 11
2709.007208887983
 21
-1094.314546201877
 31
0.0
  0
LINE
  5
C1F
330
1F
100
AcDbEntity
  8
SPOJOVACÍ
  6
Continuous
100
AcDbLine
 10
2706.601673820257
 20
-1094.697758165918
 30
0.0
 11
2709.007208887983
 21
-1093.888828924677
 31
0.0
  0
LINE
  5
C20
330
1F
100
AcDbEntity
  8
SPOJOVACÍ
  6
Continuous
100
AcDbLine
 10
2709.276851966839
 20
-1094.159136150739
 30
0.0
 11
2709.007208887983
 21
-1094.314546201877
 31
0.0
  0
LINE
  5
C21
330
1F
100
AcDbEntity
  8
SPOJOVACÍ
  6
Continuous
100
AcDbLine
 10
2709.276851966839
 20
-1094.159136150739
 30
0.0
 11
2709.007208887983
 21
-1093.888828924677
 31
0.0
  0
LINE
  5
C22
330
1F
100
AcDbEntity
  8
SPOJOVACÍ
  6
Continuous
100
AcDbLine
 10
2706.331366594779
 20
-1094.853832362704
 30
0.0
 11
2706.601673820257
 21
-1095.123475443118
 31
0.0
  0
LINE
  5
C23
330
1F
100
AcDbEntity
  8
SPOJOVACÍ
  6
Continuous
100
AcDbLine
 10
2706.331366594779
 20
-1094.853832362704
 30
0.0
 11
2706.601673820257
 21
-1094.697758165918
 31
0.0
  0
LINE
  5
C24
102
{ACAD_REACTORS
330
9E7B
102
}
330
1F
100
AcDbEntity
  8
SPOJOVACÍ
  6
Continuous
100
AcDbLine
 10
2706.419697948736
 20
-1104.003765166858
 30
0.0
 11
2709.307402661485
 21
-1103.033448564639
 31
0.0
  0
LINE
  5
C25
102
{ACAD_REACTORS
330
9E7B
102
}
330
1F
100
AcDbEntity
  8
SPOJOVACÍ
  6
Continuous
100
AcDbLine
 10
2706.419697948736
 20
-1103.578047889656
 30
0.0
 11
2709.307402661485
 21
-1102.607731287636
 31
0.0
  0
LINE
  5
C26
102
{ACAD_REACTORS
330
9E7B
102
}
330
1F
100
AcDbEntity
  8
SPOJOVACÍ
  6
Continuous
100
AcDbLine
 10
2709.577045740338
 20
-1102.877374367853
 30
0.0
 11
2709.307402661485
 21
-1103.033448564639
 31
0.0
  0
LINE
  5
C27
102
{ACAD_REACTORS
330
9E7B
102
}
330
1F
100
AcDbEntity
  8
SPOJOVACÍ
  6
Continuous
100
AcDbLine
 10
2709.577045740338
 20
-1102.877374367853
 30
0.0
 11
2709.307402661485
 21
-1102.607731287636
 31
0.0
  0
LINE
  5
C28
102
{ACAD_REACTORS
330
9E7B
102
}
330
1F
100
AcDbEntity
  8
SPOJOVACÍ
  6
Continuous
100
AcDbLine
 10
2706.150054866765
 20
-1103.734122086444
 30
0.0
 11
2706.419697948736
 21
-1104.003765166858
 31
0.0
  0
LINE
  5
C29
102
{ACAD_REACTORS
330
9E7B
102
}
330
1F
100
AcDbEntity
  8
SPOJOVACÍ
  6
Continuous
100
AcDbLine
 10
2706.150054866765
 20
-1103.734122086444
 30
0.0
 11
2706.419697948736
 21
-1103.578047889656
 31
0.0
  0
LINE
  5
C2A
330
1F
100
AcDbEntity
  8
SPOJOVACÍ
  6
Continuous
100
AcDbLine
 10
2706.150054866765
 20
-1103.734122086444
 30
0.0
 11
2709.577045740338
 21
-1102.877374367853
 31
0.0
  0
LINE
  5
C2B
102
{ACAD_REACTORS
330
9E7B
102
}
330
1F
100
AcDbEntity
  8
SPOJOVACÍ
  6
Continuous
100
AcDbLine
 10
2706.419697948736
 20
-1106.231973380247
 30
0.0
 11
2709.307402661485
 21
-1105.260992632776
 31
0.0
  0
LINE
  5
C2C
102
{ACAD_REACTORS
330
9E7B
102
}
330
1F
100
AcDbEntity
  8
SPOJOVACÍ
  6
Continuous
100
AcDbLine
 10
2706.419697948736
 20
-1105.806256103244
 30
0.0
 11
2709.307402661485
 21
-1104.835275355574
 31
0.0
  0
LINE
  5
C2D
102
{ACAD_REACTORS
330
9E7B
102
}
330
1F
100
AcDbEntity
  8
SPOJOVACÍ
  6
Continuous
100
AcDbLine
 10
2709.577045740338
 20
-1105.104918435988
 30
0.0
 11
2709.307402661485
 21
-1105.260992632776
 31
0.0
  0
LINE
  5
C2E
102
{ACAD_REACTORS
330
9E7B
102
}
330
1F
100
AcDbEntity
  8
SPOJOVACÍ
  6
Continuous
100
AcDbLine
 10
2709.577045740338
 20
-1105.104918435988
 30
0.0
 11
2709.307402661485
 21
-1104.835275355574
 31
0.0
  0
LINE
  5
C2F
102
{ACAD_REACTORS
330
9E7B
102
}
330
1F
100
AcDbEntity
  8
SPOJOVACÍ
  6
Continuous
100
AcDbLine
 10
2706.150054866765
 20
-1105.961666154383
 30
0.0
 11
2706.419697948736
 21
-1106.231973380247
 31
0.0
  0
LINE
  5
C30
102
{ACAD_REACTORS
330
9E7B
102
}
330
1F
100
AcDbEntity
  8
SPOJOVACÍ
  6
Continuous
100
AcDbLine
 10
2706.150054866765
 20
-1105.961666154383
 30
0.0
 11
2706.419697948736
 21
-1105.806256103244
 31
0.0
  0
LINE
  5
C31
330
1F
100
AcDbEntity
  8
SPOJOVACÍ
  6
Continuous
100
AcDbLine
 10
2706.150054866765
 20
-1105.961666154383
 30
0.0
 11
2709.577045740338
 21
-1105.104918435988
 31
0.0
  0
LINE
  5
C32
330
1F
100
AcDbEntity
  8
SPOJOVACÍ
  6
Continuous
100
AcDbLine
 10
2708.651891035418
 20
-1094.440733850441
 30
0.0
 11
2708.827225453207
 21
-1095.848058203499
 31
0.0
  0
LINE
  5
C33
330
1F
100
AcDbEntity
  8
SPOJOVACÍ
  6
Continuous
100
AcDbLine
 10
2708.410142064732
 20
-1092.508070392389
 30
0.0
 11
2708.60075182984
 21
-1094.033612647625
 31
0.0
  0
LINE
  5
C34
330
1F
100
AcDbEntity
  8
SPOJOVACÍ
  6
Continuous
100
AcDbLine
 10
2708.167728953657
 20
-1090.568101333793
 30
0.0
 11
2708.359002862268
 21
-1092.099620898673
 31
0.0
  0
LINE
  5
C35
330
1F
100
AcDbEntity
  8
SPOJOVACÍ
  6
Continuous
100
AcDbLine
 10
2707.58792991447
 20
-1090.342291857635
 30
0.0
 11
2707.863550303552
 21
-1088.136664591723
 31
0.0
  0
LINE
  5
C36
330
1F
100
AcDbEntity
  8
SPOJOVACÍ
  6
Continuous
100
AcDbLine
 10
2707.325592435966
 20
-1092.442319986109
 30
0.0
 11
2707.532805835403
 21
-1090.785276918314
 31
0.0
  0
LINE
  5
C37
330
1F
100
AcDbEntity
  8
SPOJOVACÍ
  6
Continuous
100
AcDbLine
 10
2707.061926664221
 20
-1094.550317860778
 30
0.0
 11
2707.26914006678
 21
-1092.892610647529
 31
0.0
  0
LINE
  5
C38
330
1F
100
AcDbEntity
  8
SPOJOVACÍ
  6
Continuous
100
AcDbLine
 10
2707.863550303552
 20
-1088.136664591723
 30
0.0
 11
2708.11658974808
 21
-1090.161644276629
 31
0.0
  0
LINE
  5
C39
330
1F
100
AcDbEntity
  8
SPOJOVACÍ
  6
Continuous
100
AcDbLine
 10
2706.899875157015
 20
-1095.848058203499
 30
0.0
 11
2707.006802585159
 21
-1094.993302921458
 31
0.0
  0
LINE
  5
C3A
330
1F
100
AcDbEntity
  8
SPOJOVACÍ
  6
Continuous
100
AcDbLine
 10
2708.827225453207
 20
-1096.088478880947
 30
0.0
 11
2708.827225453207
 21
-1095.848058203499
 31
0.0
  0
LINE
  5
C3B
330
1F
100
AcDbEntity
  8
SPOJOVACÍ
  6
Continuous
100
AcDbLine
 10
2708.827225453207
 20
-1098.318015385629
 30
0.0
 11
2708.827225453207
 21
-1096.519509322338
 31
0.0
  0
LINE
  5
C3C
330
1F
100
AcDbEntity
  8
SPOJOVACÍ
  6
Continuous
100
AcDbLine
 10
2706.899875157015
 20
-1096.738677343207
 30
0.0
 11
2706.899875157015
 21
-1095.848058203499
 31
0.0
  0
LINE
  5
C3D
330
1F
100
AcDbEntity
  8
SPOJOVACÍ
  6
Continuous
100
AcDbLine
 10
2706.899875157015
 20
-1098.962236538248
 30
0.0
 11
2706.899875157015
 21
-1097.164394620408
 31
0.0
  0
LINE
  5
C3E
330
1F
100
AcDbEntity
  8
SPOJOVACÍ
  6
Continuous
100
AcDbLine
 10
2708.827225453207
 20
-1100.546887744668
 30
0.0
 11
2708.827225453207
 21
-1098.747053390279
 31
0.0
  0
LINE
  5
C3F
102
{ACAD_REACTORS
330
9E7B
102
}
330
1F
100
AcDbEntity
  8
SPOJOVACÍ
  6
Continuous
100
AcDbLine
 10
2708.827225453207
 20
-1102.776424249158
 30
0.0
 11
2708.827225453207
 21
-1100.971276730769
 31
0.0
  0
LINE
  5
C40
102
{ACAD_REACTORS
330
9E7B
102
}
330
1F
100
AcDbEntity
  8
SPOJOVACÍ
  6
Continuous
100
AcDbLine
 10
2708.827225453207
 20
-1105.000647589648
 30
0.0
 11
2708.827225453207
 21
-1103.202141526357
 31
0.0
  0
LINE
  5
C41
330
1F
100
AcDbEntity
  8
SPOJOVACÍ
  6
Continuous
100
AcDbLine
 10
2706.899875157015
 20
-1101.199078643479
 30
0.0
 11
2706.899875157015
 21
-1099.393931125089
 31
0.0
  0
LINE
  5
C42
102
{ACAD_REACTORS
330
9E7B
102
}
330
1F
100
AcDbEntity
  8
SPOJOVACÍ
  6
Continuous
100
AcDbLine
 10
2706.899875157015
 20
-1103.423301983969
 30
0.0
 11
2706.899875157015
 21
-1101.623467629579
 31
0.0
  0
LINE
  5
C43
102
{ACAD_REACTORS
330
9E7B
102
}
330
1F
100
AcDbEntity
  8
SPOJOVACÍ
  6
Continuous
100
AcDbLine
 10
2706.899875157015
 20
-1105.652838488459
 30
0.0
 11
2706.899875157015
 21
-1103.854332425168
 31
0.0
  0
LINE
  5
C44
102
{ACAD_REACTORS
330
9E7B
102
}
330
1F
100
AcDbEntity
  8
SPOJOVACÍ
  6
Continuous
100
AcDbLine
 10
2706.899875157015
 20
-1108.960947314602
 30
0.0
 11
2706.899875157015
 21
-1106.077891620011
 31
0.0
  0
LINE
  5
C45
102
{ACAD_REACTORS
330
9E7B
102
}
330
1F
100
AcDbEntity
  8
SPOJOVACÍ
  6
Continuous
100
AcDbLine
 10
2708.827225453207
 20
-1108.960947314602
 30
0.0
 11
2708.827225453207
 21
-1105.431678030848
 31
0.0
  0
LINE
  5
C46
102
{ACAD_REACTORS
330
9E7B
102
}
330
1F
100
AcDbEntity
  8
SPOJOVACÍ
  6
Continuous
100
AcDbLine
 10
2704.222040427067
 20
-1112.816312047573
 30
0.0
 11
2705.185715576722
 21
-1112.284995633131
 31
0.0
  0
LINE
  5
C47
102
{ACAD_REACTORS
330
9E7B
102
}
330
1F
100
AcDbEntity
  8
SPOJOVACÍ
  6
Continuous
100
AcDbLine
 10
2705.185715576722
 20
-1112.284995633131
 30
0.0
 11
2705.978705325579
 21
-1111.521892432689
 31
0.0
  0
LINE
  5
C48
102
{ACAD_REACTORS
330
9E7B
102
}
330
1F
100
AcDbEntity
  8
SPOJOVACÍ
  6
Continuous
100
AcDbLine
 10
2705.978705325579
 20
-1111.521892432689
 30
0.0
 11
2706.547213887811
 21
-1110.580134087985
 31
0.0
  0
LINE
  5
C49
102
{ACAD_REACTORS
330
9E7B
102
}
330
1F
100
AcDbEntity
  8
SPOJOVACÍ
  6
Continuous
100
AcDbLine
 10
2706.547213887811
 20
-1110.580134087985
 30
0.0
 11
2706.852720824922
 21
-1109.522814422912
 31
0.0
  0
LINE
  5
C4A
102
{ACAD_REACTORS
330
9E7B
102
}
330
1F
100
AcDbEntity
  8
SPOJOVACÍ
  6
Continuous
100
AcDbLine
 10
2706.852720824922
 20
-1109.522814422912
 30
0.0
 11
2706.899875157015
 21
-1108.960947314602
 31
0.0
  0
LINE
  5
C4B
102
{ACAD_REACTORS
330
9E7B
102
}
330
1F
100
AcDbEntity
  8
SPOJOVACÍ
  6
Continuous
100
AcDbLine
 10
2710.111018737557
 20
-1111.920379743668
 30
0.0
 11
2710.994332277111
 21
-1112.575891370123
 31
0.0
  0
LINE
  5
C4C
102
{ACAD_REACTORS
330
9E7B
102
}
330
1F
100
AcDbEntity
  8
SPOJOVACÍ
  6
Continuous
100
AcDbLine
 10
2704.222040427067
 20
-1113.673059766159
 30
0.0
 11
2704.222040427067
 21
-1112.816312047573
 31
0.0
  0
LINE
  5
C4D
102
{ACAD_REACTORS
330
9E7B
102
}
330
1F
100
AcDbEntity
  8
SPOJOVACÍ
  6
Continuous
100
AcDbLine
 10
2708.827225453207
 20
-1108.960947314602
 30
0.0
 11
2708.989276957299
 21
-1110.048817673351
 31
0.0
  0
LINE
  5
C4E
102
{ACAD_REACTORS
330
9E7B
102
}
330
1F
100
AcDbEntity
  8
SPOJOVACÍ
  6
Continuous
100
AcDbLine
 10
2708.989276957299
 20
-1110.048817673351
 30
0.0
 11
2709.426948853591
 21
-1111.058318861078
 31
0.0
  0
LINE
  5
C4F
102
{ACAD_REACTORS
330
9E7B
102
}
330
1F
100
AcDbEntity
  8
SPOJOVACÍ
  6
Continuous
100
AcDbLine
 10
2709.426948853591
 20
-1111.058318861078
 30
0.0
 11
2710.111018737557
 21
-1111.920379743668
 31
0.0
  0
LINE
  5
C50
102
{ACAD_REACTORS
330
9F5C
102
}
330
1F
100
AcDbEntity
  8
SPOJOVACÍ
  6
Continuous
100
AcDbLine
 10
2709.426948853591
 20
-1041.876199496945
 30
0.0
 11
2710.111018737557
 21
-1041.014138614355
 31
0.0
  0
LINE
  5
C51
102
{ACAD_REACTORS
330
9F5C
102
}
330
1F
100
AcDbEntity
  8
SPOJOVACÍ
  6
Continuous
100
AcDbLine
 10
2708.989276957299
 20
-1042.885700684674
 30
0.0
 11
2709.426948853591
 21
-1041.876199496945
 31
0.0
  0
LINE
  5
C52
102
{ACAD_REACTORS
330
9F5C
102
}
330
1F
100
AcDbEntity
  8
SPOJOVACÍ
  6
Continuous
100
AcDbLine
 10
2708.827225453207
 20
-1043.973571043422
 30
0.0
 11
2708.989276957299
 21
-1042.885700684674
 31
0.0
  0
LINE
  5
C53
102
{ACAD_REACTORS
330
9F5C
102
}
330
1F
100
AcDbEntity
  8
SPOJOVACÍ
  6
Continuous
100
AcDbLine
 10
2711.505060180036
 20
-1039.261458591866
 30
0.0
 11
2711.505060180036
 21
-1040.118206310452
 31
0.0
  0
LINE
  5
C54
330
1F
100
AcDbEntity
  8
SPOJOVACÍ
  6
Continuous
100
AcDbLine
 10
2704.222040427067
 20
-1039.261458591866
 30
0.0
 11
2711.505060180036
 21
-1039.261458591866
 31
0.0
  0
LINE
  5
C55
102
{ACAD_REACTORS
330
9F5C
102
}
330
1F
100
AcDbEntity
  8
SPOJOVACÍ
  6
Continuous
100
AcDbLine
 10
2704.222040427067
 20
-1039.261458591866
 30
0.0
 11
2704.222040427067
 21
-1040.118206310452
 31
0.0
  0
LINE
  5
C56
330
1F
100
AcDbEntity
  8
SPOJOVACÍ
  6
Continuous
100
AcDbLine
 10
2704.222040427067
 20
-1040.118206310452
 30
0.0
 11
2711.505060180036
 21
-1040.118206310452
 31
0.0
  0
LINE
  5
C57
102
{ACAD_REACTORS
330
9F5C
102
}
330
1F
100
AcDbEntity
  8
SPOJOVACÍ
  6
Continuous
100
AcDbLine
 10
2710.994332277111
 20
-1040.3586269879
 30
0.0
 11
2711.505060180036
 21
-1040.118206310452
 31
0.0
  0
LINE
  5
C58
102
{ACAD_REACTORS
330
9F5C
102
}
330
1F
100
AcDbEntity
  8
SPOJOVACÍ
  6
Continuous
100
AcDbLine
 10
2710.111018737557
 20
-1041.014138614355
 30
0.0
 11
2710.994332277111
 21
-1040.3586269879
 31
0.0
  0
LINE
  5
C59
102
{ACAD_REACTORS
330
9F5C
102
}
330
1F
100
AcDbEntity
  8
SPOJOVACÍ
  6
Continuous
100
AcDbLine
 10
2706.852720824922
 20
-1043.411703935114
 30
0.0
 11
2706.899875157015
 21
-1043.973571043422
 31
0.0
  0
LINE
  5
C5A
102
{ACAD_REACTORS
330
9F5C
102
}
330
1F
100
AcDbEntity
  8
SPOJOVACÍ
  6
Continuous
100
AcDbLine
 10
2706.547213887811
 20
-1042.354384270039
 30
0.0
 11
2706.852720824922
 21
-1043.411703935114
 31
0.0
  0
LINE
  5
C5B
102
{ACAD_REACTORS
330
9F5C
102
}
330
1F
100
AcDbEntity
  8
SPOJOVACÍ
  6
Continuous
100
AcDbLine
 10
2705.978705325579
 20
-1041.412625925334
 30
0.0
 11
2706.547213887811
 21
-1042.354384270039
 31
0.0
  0
LINE
  5
C5C
102
{ACAD_REACTORS
330
9F5C
102
}
330
1F
100
AcDbEntity
  8
SPOJOVACÍ
  6
Continuous
100
AcDbLine
 10
2705.185715576722
 20
-1040.649522724895
 30
0.0
 11
2705.978705325579
 21
-1041.412625925334
 31
0.0
  0
LINE
  5
C5D
102
{ACAD_REACTORS
330
9F5C
102
}
330
1F
100
AcDbEntity
  8
SPOJOVACÍ
  6
Continuous
100
AcDbLine
 10
2704.222040427067
 20
-1040.118206310452
 30
0.0
 11
2705.185715576722
 21
-1040.649522724895
 31
0.0
  0
LINE
  5
C5E
102
{ACAD_REACTORS
330
9F5C
102
}
330
1F
100
AcDbEntity
  8
SPOJOVACÍ
  6
Continuous
100
AcDbLine
 10
2708.827225453207
 20
-1043.973571043422
 30
0.0
 11
2708.827225453207
 21
-1047.502840327177
 31
0.0
  0
LINE
  5
C5F
102
{ACAD_REACTORS
330
9F5C
102
}
330
1F
100
AcDbEntity
  8
SPOJOVACÍ
  6
Continuous
100
AcDbLine
 10
2706.899875157015
 20
-1043.973571043422
 30
0.0
 11
2706.899875157015
 21
-1046.856626738014
 31
0.0
  0
LINE
  5
C60
102
{ACAD_REACTORS
330
9F5C
102
}
330
1F
100
AcDbEntity
  8
SPOJOVACÍ
  6
Continuous
100
AcDbLine
 10
2706.899875157015
 20
-1047.281679869566
 30
0.0
 11
2706.899875157015
 21
-1049.080185932857
 31
0.0
  0
LINE
  5
C61
102
{ACAD_REACTORS
330
9F5C
102
}
330
1F
100
AcDbEntity
  8
SPOJOVACÍ
  6
Continuous
100
AcDbLine
 10
2706.899875157015
 20
-1049.511216374055
 30
0.0
 11
2706.899875157015
 21
-1051.311050728446
 31
0.0
  0
LINE
  5
C62
330
1F
100
AcDbEntity
  8
SPOJOVACÍ
  6
Continuous
100
AcDbLine
 10
2706.899875157015
 20
-1051.735439714547
 30
0.0
 11
2706.899875157015
 21
-1053.540587232934
 31
0.0
  0
LINE
  5
C63
102
{ACAD_REACTORS
330
9F5C
102
}
330
1F
100
AcDbEntity
  8
SPOJOVACÍ
  6
Continuous
100
AcDbLine
 10
2708.827225453207
 20
-1047.933870768377
 30
0.0
 11
2708.827225453207
 21
-1049.732376831666
 31
0.0
  0
LINE
  5
C64
102
{ACAD_REACTORS
330
9F5C
102
}
330
1F
100
AcDbEntity
  8
SPOJOVACÍ
  6
Continuous
100
AcDbLine
 10
2708.827225453207
 20
-1050.158094108867
 30
0.0
 11
2708.827225453207
 21
-1051.963241627257
 31
0.0
  0
LINE
  5
C65
330
1F
100
AcDbEntity
  8
SPOJOVACÍ
  6
Continuous
100
AcDbLine
 10
2708.827225453207
 20
-1052.387630613358
 30
0.0
 11
2708.827225453207
 21
-1054.187464967747
 31
0.0
  0
LINE
  5
C66
330
1F
100
AcDbEntity
  8
SPOJOVACÍ
  6
Continuous
100
AcDbLine
 10
2706.899875157015
 20
-1053.972281819777
 30
0.0
 11
2706.899875157015
 21
-1055.770123737617
 31
0.0
  0
LINE
  5
C67
330
1F
100
AcDbEntity
  8
SPOJOVACÍ
  6
Continuous
100
AcDbLine
 10
2706.899875157015
 20
-1056.195841014817
 30
0.0
 11
2706.899875157015
 21
-1057.086460154526
 31
0.0
  0
LINE
  5
C68
330
1F
100
AcDbEntity
  8
SPOJOVACÍ
  6
Continuous
100
AcDbLine
 10
2708.827225453207
 20
-1054.616502972395
 30
0.0
 11
2708.827225453207
 21
-1056.415009035686
 31
0.0
  0
LINE
  5
C69
330
1F
100
AcDbEntity
  8
SPOJOVACÍ
  6
Continuous
100
AcDbLine
 10
2708.827225453207
 20
-1056.846039477076
 30
0.0
 11
2708.827225453207
 21
-1057.086460154526
 31
0.0
  0
LINE
  5
C6A
330
1F
100
AcDbEntity
  8
SPOJOVACÍ
  6
Continuous
100
AcDbLine
 10
2706.899875157015
 20
-1057.086460154526
 30
0.0
 11
2707.006802585159
 21
-1057.941215436566
 31
0.0
  0
LINE
  5
C6B
330
1F
100
AcDbEntity
  8
SPOJOVACÍ
  6
Continuous
100
AcDbLine
 10
2707.863550303552
 20
-1064.815186295521
 30
0.0
 11
2708.11658974808
 21
-1062.790206610615
 31
0.0
  0
LINE
  5
C6C
330
1F
100
AcDbEntity
  8
SPOJOVACÍ
  6
Continuous
100
AcDbLine
 10
2707.061926664221
 20
-1058.384200497245
 30
0.0
 11
2707.26914006678
 21
-1060.041907710497
 31
0.0
  0
LINE
  5
C6D
330
1F
100
AcDbEntity
  8
SPOJOVACÍ
  6
Continuous
100
AcDbLine
 10
2707.325592435966
 20
-1060.492198371916
 30
0.0
 11
2707.532805835403
 21
-1062.149241439709
 31
0.0
  0
LINE
  5
C6E
330
1F
100
AcDbEntity
  8
SPOJOVACÍ
  6
Continuous
100
AcDbLine
 10
2707.58792991447
 20
-1062.609559029607
 30
0.0
 11
2707.863550303552
 21
-1064.815186295521
 31
0.0
  0
LINE
  5
C6F
330
1F
100
AcDbEntity
  8
SPOJOVACÍ
  6
Continuous
100
AcDbLine
 10
2708.167728953657
 20
-1062.36641702423
 30
0.0
 11
2708.359002862268
 21
-1060.834897459352
 31
0.0
  0
LINE
  5
C70
330
1F
100
AcDbEntity
  8
SPOJOVACÍ
  6
Continuous
100
AcDbLine
 10
2708.410142064732
 20
-1060.426447965636
 30
0.0
 11
2708.60075182984
 21
-1058.900905710398
 31
0.0
  0
LINE
  5
C71
330
1F
100
AcDbEntity
  8
SPOJOVACÍ
  6
Continuous
100
AcDbLine
 10
2708.651891035418
 20
-1058.493784507584
 30
0.0
 11
2708.827225453207
 21
-1057.086460154526
 31
0.0
  0
LINE
  5
C72
330
1F
100
AcDbEntity
  8
SPOJOVACÍ
  6
Continuous
100
AcDbLine
 10
2706.150054866765
 20
-1046.972852203643
 30
0.0
 11
2709.577045740338
 21
-1047.829599922036
 31
0.0
  0
LINE
  5
C73
102
{ACAD_REACTORS
330
9F5C
102
}
330
1F
100
AcDbEntity
  8
SPOJOVACÍ
  6
Continuous
100
AcDbLine
 10
2706.150054866765
 20
-1046.972852203643
 30
0.0
 11
2706.419697948736
 21
-1047.128262254781
 31
0.0
  0
LINE
  5
C74
102
{ACAD_REACTORS
330
9F5C
102
}
330
1F
100
AcDbEntity
  8
SPOJOVACÍ
  6
Continuous
100
AcDbLine
 10
2706.150054866765
 20
-1046.972852203643
 30
0.0
 11
2706.419697948736
 21
-1046.702544977778
 31
0.0
  0
LINE
  5
C75
102
{ACAD_REACTORS
330
9F5C
102
}
330
1F
100
AcDbEntity
  8
SPOJOVACÍ
  6
Continuous
100
AcDbLine
 10
2709.577045740338
 20
-1047.829599922036
 30
0.0
 11
2709.307402661485
 21
-1048.099243002449
 31
0.0
  0
LINE
  5
C76
102
{ACAD_REACTORS
330
9F5C
102
}
330
1F
100
AcDbEntity
  8
SPOJOVACÍ
  6
Continuous
100
AcDbLine
 10
2709.577045740338
 20
-1047.829599922036
 30
0.0
 11
2709.307402661485
 21
-1047.67352572525
 31
0.0
  0
LINE
  5
C77
102
{ACAD_REACTORS
330
9F5C
102
}
330
1F
100
AcDbEntity
  8
SPOJOVACÍ
  6
Continuous
100
AcDbLine
 10
2706.419697948736
 20
-1047.128262254781
 30
0.0
 11
2709.307402661485
 21
-1048.099243002449
 31
0.0
  0
LINE
  5
C78
102
{ACAD_REACTORS
330
9F5C
102
}
330
1F
100
AcDbEntity
  8
SPOJOVACÍ
  6
Continuous
100
AcDbLine
 10
2706.419697948736
 20
-1046.702544977778
 30
0.0
 11
2709.307402661485
 21
-1047.67352572525
 31
0.0
  0
LINE
  5
C79
330
1F
100
AcDbEntity
  8
SPOJOVACÍ
  6
Continuous
100
AcDbLine
 10
2706.150054866765
 20
-1049.200396271581
 30
0.0
 11
2709.577045740338
 21
-1050.057143990173
 31
0.0
  0
LINE
  5
C7A
102
{ACAD_REACTORS
330
9F5C
102
}
330
1F
100
AcDbEntity
  8
SPOJOVACÍ
  6
Continuous
100
AcDbLine
 10
2706.150054866765
 20
-1049.200396271581
 30
0.0
 11
2706.419697948736
 21
-1049.356470468367
 31
0.0
  0
LINE
  5
C7B
102
{ACAD_REACTORS
330
9F5C
102
}
330
1F
100
AcDbEntity
  8
SPOJOVACÍ
  6
Continuous
100
AcDbLine
 10
2706.150054866765
 20
-1049.200396271581
 30
0.0
 11
2706.419697948736
 21
-1048.930753191168
 31
0.0
  0
LINE
  5
C7C
102
{ACAD_REACTORS
330
9F5C
102
}
330
1F
100
AcDbEntity
  8
SPOJOVACÍ
  6
Continuous
100
AcDbLine
 10
2709.577045740338
 20
-1050.057143990173
 30
0.0
 11
2709.307402661485
 21
-1050.326787070388
 31
0.0
  0
LINE
  5
C7D
102
{ACAD_REACTORS
330
9F5C
102
}
330
1F
100
AcDbEntity
  8
SPOJOVACÍ
  6
Continuous
100
AcDbLine
 10
2709.577045740338
 20
-1050.057143990173
 30
0.0
 11
2709.307402661485
 21
-1049.901069793385
 31
0.0
  0
LINE
  5
C7E
102
{ACAD_REACTORS
330
9F5C
102
}
330
1F
100
AcDbEntity
  8
SPOJOVACÍ
  6
Continuous
100
AcDbLine
 10
2706.419697948736
 20
-1049.356470468367
 30
0.0
 11
2709.307402661485
 21
-1050.326787070388
 31
0.0
  0
LINE
  5
C7F
102
{ACAD_REACTORS
330
9F5C
102
}
330
1F
100
AcDbEntity
  8
SPOJOVACÍ
  6
Continuous
100
AcDbLine
 10
2706.419697948736
 20
-1048.930753191168
 30
0.0
 11
2709.307402661485
 21
-1049.901069793385
 31
0.0
  0
LINE
  5
C80
330
1F
100
AcDbEntity
  8
SPOJOVACÍ
  6
Continuous
100
AcDbLine
 10
2706.331366594779
 20
-1058.08068599532
 30
0.0
 11
2706.601673820257
 21
-1058.236760192107
 31
0.0
  0
LINE
  5
C81
330
1F
100
AcDbEntity
  8
SPOJOVACÍ
  6
Continuous
100
AcDbLine
 10
2706.331366594779
 20
-1058.08068599532
 30
0.0
 11
2706.601673820257
 21
-1057.811042914906
 31
0.0
  0
LINE
  5
C82
330
1F
100
AcDbEntity
  8
SPOJOVACÍ
  6
Continuous
100
AcDbLine
 10
2709.276851966839
 20
-1058.775382207285
 30
0.0
 11
2709.007208887983
 21
-1059.045689433348
 31
0.0
  0
LINE
  5
C83
330
1F
100
AcDbEntity
  8
SPOJOVACÍ
  6
Continuous
100
AcDbLine
 10
2709.276851966839
 20
-1058.775382207285
 30
0.0
 11
2709.007208887983
 21
-1058.619972156147
 31
0.0
  0
LINE
  5
C84
330
1F
100
AcDbEntity
  8
SPOJOVACÍ
  6
Continuous
100
AcDbLine
 10
2706.601673820257
 20
-1058.236760192107
 30
0.0
 11
2709.007208887983
 21
-1059.045689433348
 31
0.0
  0
LINE
  5
C85
330
1F
100
AcDbEntity
  8
SPOJOVACÍ
  6
Continuous
100
AcDbLine
 10
2706.601673820257
 20
-1057.811042914906
 30
0.0
 11
2709.007208887983
 21
-1058.619972156147
 31
0.0
  0
LINE
  5
C86
330
1F
100
AcDbEntity
  8
SPOJOVACÍ
  6
Continuous
100
AcDbLine
 10
2706.331366594779
 20
-1058.08068599532
 30
0.0
 11
2709.276851966839
 21
-1058.775382207285
 31
0.0
  0
LINE
  5
C87
330
1F
100
AcDbEntity
  8
SPOJOVACÍ
  6
Continuous
100
AcDbLine
 10
2706.734502922941
 20
-1060.23318161989
 30
0.0
 11
2707.004146004911
 21
-1060.388591671028
 31
0.0
  0
LINE
  5
C88
330
1F
100
AcDbEntity
  8
SPOJOVACÍ
  6
Continuous
100
AcDbLine
 10
2706.734502922941
 20
-1060.23318161989
 30
0.0
 11
2707.004146004911
 21
-1059.962874393827
 31
0.0
  0
LINE
  5
C89
330
1F
100
AcDbEntity
  8
SPOJOVACÍ
  6
Continuous
100
AcDbLine
 10
2708.959390409273
 20
-1060.685464717663
 30
0.0
 11
2708.689747330417
 21
-1060.955771943528
 31
0.0
  0
LINE
  5
C8A
330
1F
100
AcDbEntity
  8
SPOJOVACÍ
  6
Continuous
100
AcDbLine
 10
2708.959390409273
 20
-1060.685464717663
 30
0.0
 11
2708.689747330417
 21
-1060.530054666524
 31
0.0
  0
LINE
  5
C8B
330
1F
100
AcDbEntity
  8
SPOJOVACÍ
  6
Continuous
100
AcDbLine
 10
2707.004146004911
 20
-1060.388591671028
 30
0.0
 11
2708.689747330417
 21
-1060.955771943528
 31
0.0
  0
LINE
  5
C8C
330
1F
100
AcDbEntity
  8
SPOJOVACÍ
  6
Continuous
100
AcDbLine
 10
2707.004146004911
 20
-1059.962874393827
 30
0.0
 11
2708.689747330417
 21
-1060.530054666524
 31
0.0
  0
LINE
  5
C8D
330
1F
100
AcDbEntity
  8
SPOJOVACÍ
  6
Continuous
100
AcDbLine
 10
2706.734502922941
 20
-1060.23318161989
 30
0.0
 11
2708.959390409273
 21
-1060.685464717663
 31
0.0
  0
LINE
  5
C8E
330
1F
100
AcDbEntity
  8
SPOJOVACÍ
  6
Continuous
100
AcDbLine
 10
2707.137639254216
 20
-1062.402345628027
 30
0.0
 11
2707.407282333072
 21
-1062.558419824809
 31
0.0
  0
LINE
  5
C8F
330
1F
100
AcDbEntity
  8
SPOJOVACÍ
  6
Continuous
100
AcDbLine
 10
2707.137639254216
 20
-1062.402345628027
 30
0.0
 11
2707.407282333072
 21
-1062.132702547613
 31
0.0
  0
LINE
  5
C90
330
1F
100
AcDbEntity
  8
SPOJOVACÍ
  6
Continuous
100
AcDbLine
 10
2708.675800273217
 20
-1062.624170231089
 30
0.0
 11
2708.406157194361
 21
-1062.894477456954
 31
0.0
  0
LINE
  5
C91
330
1F
100
AcDbEntity
  8
SPOJOVACÍ
  6
Continuous
100
AcDbLine
 10
2708.675800273217
 20
-1062.624170231089
 30
0.0
 11
2708.406157194361
 21
-1062.46876017976
 31
0.0
  0
LINE
  5
C92
330
1F
100
AcDbEntity
  8
SPOJOVACÍ
  6
Continuous
100
AcDbLine
 10
2707.407282333072
 20
-1062.558419824809
 30
0.0
 11
2708.406157194361
 21
-1062.894477456954
 31
0.0
  0
LINE
  5
C93
330
1F
100
AcDbEntity
  8
SPOJOVACÍ
  6
Continuous
100
AcDbLine
 10
2707.407282333072
 20
-1062.132702547613
 30
0.0
 11
2708.406157194361
 21
-1062.46876017976
 31
0.0
  0
LINE
  5
C94
330
1F
100
AcDbEntity
  8
SPOJOVACÍ
  6
Continuous
100
AcDbLine
 10
2707.137639254216
 20
-1062.402345628027
 30
0.0
 11
2708.675800273217
 21
-1062.624170231089
 31
0.0
  0
LINE
  5
C95
330
1F
100
AcDbEntity
  8
SPOJOVACÍ
  6
Continuous
100
AcDbLine
 10
2706.150054866765
 20
-1051.427940339716
 30
0.0
 11
2709.577045740338
 21
-1052.284688058111
 31
0.0
  0
LINE
  5
C96
330
1F
100
AcDbEntity
  8
SPOJOVACÍ
  6
Continuous
100
AcDbLine
 10
2706.150054866765
 20
-1051.427940339716
 30
0.0
 11
2706.419697948736
 21
-1051.584014536504
 31
0.0
  0
LINE
  5
C97
102
{ACAD_REACTORS
330
9F5C
102
}
330
1F
100
AcDbEntity
  8
SPOJOVACÍ
  6
Continuous
100
AcDbLine
 10
2706.150054866765
 20
-1051.427940339716
 30
0.0
 11
2706.419697948736
 21
-1051.158297259303
 31
0.0
  0
LINE
  5
C98
330
1F
100
AcDbEntity
  8
SPOJOVACÍ
  6
Continuous
100
AcDbLine
 10
2709.577045740338
 20
-1052.284688058111
 30
0.0
 11
2709.307402661485
 21
-1052.554995283976
 31
0.0
  0
LINE
  5
C99
330
1F
100
AcDbEntity
  8
SPOJOVACÍ
  6
Continuous
100
AcDbLine
 10
2709.577045740338
 20
-1052.284688058111
 30
0.0
 11
2709.307402661485
 21
-1052.12927800678
 31
0.0
  0
LINE
  5
C9A
330
1F
100
AcDbEntity
  8
SPOJOVACÍ
  6
Continuous
100
AcDbLine
 10
2706.419697948736
 20
-1051.584014536504
 30
0.0
 11
2709.307402661485
 21
-1052.554995283976
 31
0.0
  0
LINE
  5
C9B
102
{ACAD_REACTORS
330
9F5C
102
}
330
1F
100
AcDbEntity
  8
SPOJOVACÍ
  6
Continuous
100
AcDbLine
 10
2706.419697948736
 20
-1051.158297259303
 30
0.0
 11
2709.307402661485
 21
-1052.12927800678
 31
0.0
  0
LINE
  5
C9C
330
1F
100
AcDbEntity
  8
SPOJOVACÍ
  6
Continuous
100
AcDbLine
 10
2706.150054866765
 20
-1053.65548440766
 30
0.0
 11
2709.577045740338
 21
-1054.512232126056
 31
0.0
  0
LINE
  5
C9D
330
1F
100
AcDbEntity
  8
SPOJOVACÍ
  6
Continuous
100
AcDbLine
 10
2706.150054866765
 20
-1053.65548440766
 30
0.0
 11
2706.419697948736
 21
-1053.811558604443
 31
0.0
  0
LINE
  5
C9E
330
1F
100
AcDbEntity
  8
SPOJOVACÍ
  6
Continuous
100
AcDbLine
 10
2706.150054866765
 20
-1053.65548440766
 30
0.0
 11
2706.419697948736
 21
-1053.385841327247
 31
0.0
  0
LINE
  5
C9F
330
1F
100
AcDbEntity
  8
SPOJOVACÍ
  6
Continuous
100
AcDbLine
 10
2709.577045740338
 20
-1054.512232126056
 30
0.0
 11
2709.307402661485
 21
-1054.78253935192
 31
0.0
  0
LINE
  5
CA0
330
1F
100
AcDbEntity
  8
SPOJOVACÍ
  6
Continuous
100
AcDbLine
 10
2709.577045740338
 20
-1054.512232126056
 30
0.0
 11
2709.307402661485
 21
-1054.356822074917
 31
0.0
  0
LINE
  5
CA1
330
1F
100
AcDbEntity
  8
SPOJOVACÍ
  6
Continuous
100
AcDbLine
 10
2706.419697948736
 20
-1053.811558604443
 30
0.0
 11
2709.307402661485
 21
-1054.78253935192
 31
0.0
  0
LINE
  5
CA2
330
1F
100
AcDbEntity
  8
SPOJOVACÍ
  6
Continuous
100
AcDbLine
 10
2706.419697948736
 20
-1053.385841327247
 30
0.0
 11
2709.307402661485
 21
-1054.356822074917
 31
0.0
  0
LINE
  5
CA3
330
1F
100
AcDbEntity
  8
SPOJOVACÍ
  6
Continuous
100
AcDbLine
 10
2706.150054866765
 20
-1055.883692621248
 30
0.0
 11
2709.577045740338
 21
-1056.740440339642
 31
0.0
  0
LINE
  5
CA4
330
1F
100
AcDbEntity
  8
SPOJOVACÍ
  6
Continuous
100
AcDbLine
 10
2706.150054866765
 20
-1055.883692621248
 30
0.0
 11
2706.419697948736
 21
-1056.039102672387
 31
0.0
  0
LINE
  5
CA5
330
1F
100
AcDbEntity
  8
SPOJOVACÍ
  6
Continuous
100
AcDbLine
 10
2706.150054866765
 20
-1055.883692621248
 30
0.0
 11
2706.419697948736
 21
-1055.613385395186
 31
0.0
  0
LINE
  5
CA6
330
1F
100
AcDbEntity
  8
SPOJOVACÍ
  6
Continuous
100
AcDbLine
 10
2709.577045740338
 20
-1056.740440339642
 30
0.0
 11
2709.307402661485
 21
-1057.010083420055
 31
0.0
  0
LINE
  5
CA7
330
1F
100
AcDbEntity
  8
SPOJOVACÍ
  6
Continuous
100
AcDbLine
 10
2709.577045740338
 20
-1056.740440339642
 30
0.0
 11
2709.307402661485
 21
-1056.584366142856
 31
0.0
  0
LINE
  5
CA8
330
1F
100
AcDbEntity
  8
SPOJOVACÍ
  6
Continuous
100
AcDbLine
 10
2706.419697948736
 20
-1056.039102672387
 30
0.0
 11
2709.307402661485
 21
-1057.010083420055
 31
0.0
  0
LINE
  5
CA9
330
1F
100
AcDbEntity
  8
SPOJOVACÍ
  6
Continuous
100
AcDbLine
 10
2706.419697948736
 20
-1055.613385395186
 30
0.0
 11
2709.307402661485
 21
-1056.584366142856
 31
0.0
  0
TEXT
  5
D04
330
1F
100
AcDbEntity
  8
POPIS
100
AcDbText
 10
2843.591648450677
 20
-961.6271395362584
 30
0.0
 40
25.0
  1
03
 41
0.85
  7
SIMPLEX7
100
AcDbText
  0
INSERT
  5
D05
330
1F
100
AcDbEntity
  8
POPIS
100
AcDbBlockReference
  2
E_PUNKT
 10
2859.382237498826
 20
-1076.854820274146
 30
0.0
  0
LINE
  5
D06
330
1F
100
AcDbEntity
  8
POPIS
100
AcDbLine
 10
2859.409847874444
 20
-1075.389120125408
 30
0.0
 11
2859.409847874444
 21
-966.3282026727813
 31
0.0
  0
TEXT
  5
D07
330
1F
100
AcDbEntity
  8
POPIS
100
AcDbText
 10
2712.310245443755
 20
-961.6271395362584
 30
0.0
 40
25.0
  1
02
 41
0.85
  7
SIMPLEX7
100
AcDbText
  0
TEXT
  5
D0A
330
1F
100
AcDbEntity
  8
POPIS
100
AcDbText
 10
2652.706754820407
 20
-961.6271395362549
 30
0.0
 40
25.0
  1
06
 41
0.85
  7
SIMPLEX7
100
AcDbText
  0
LINE
  5
D0B
330
1F
100
AcDbEntity
  8
POPIS
100
AcDbLine
 10
2667.86593473245
 20
-1031.537749043811
 30
0.0
 11
2667.86593473245
 21
-966.3282026727777
 31
0.0
  0
LINE
  5
D10
102
{ACAD_REACTORS
330
9F5C
102
}
330
1F
100
AcDbEntity
  8
POPIS
100
AcDbLine
 10
2622.553498482343
 20
-1051.261458591867
 30
0.0
 11
2622.553498482343
 21
-966.3282026727813
 31
0.0
  0
TEXT
  5
D15
330
1F
100
AcDbEntity
  8
POPIS
100
AcDbText
 10
2607.640297830138
 20
-961.6271395362584
 30
0.0
 40
25.0
  1
05
 41
0.85
  7
SIMPLEX7
100
AcDbText
  0
INSERT
  5
D1A
330
1F
100
AcDbEntity
  8
POPIS
100
AcDbBlockReference
  2
E_PUNKT
 10
2760.600682476525
 20
-1026.017934337389
 30
0.0
  0
INSERT
  5
D1D
330
1F
100
AcDbEntity
  8
POPIS
100
AcDbBlockReference
  2
E_PUNKT
 10
2526.022692311735
 20
-1026.017934337389
 30
0.0
  0
LINE
  5
D1E
330
1F
100
AcDbEntity
  8
POPIS
100
AcDbLine
 10
2526.145424810476
 20
-1025.988866006513
 30
0.0
 11
2526.145424810476
 21
-966.3282026727777
 31
0.0
  0
TEXT
  5
D1F
330
1F
100
AcDbEntity
  8
POPIS
100
AcDbText
 10
2508.488977322025
 20
-961.6271395362549
 30
0.0
 40
25.0
  1
01
 41
0.85
  7
SIMPLEX7
100
AcDbText
  0
LINE
  5
D20
330
1F
100
AcDbEntity
  8
NOSNÉ KONSTRUKCE
100
AcDbLine
 10
2740.433258018861
 20
-1038.825406339682
 30
0.0
 11
2912.755680992149
 21
-1038.825406339682
 31
0.0
  0
LINE
  5
D21
330
1F
100
AcDbEntity
  8
NOSNÉ KONSTRUKCE
100
AcDbLine
 10
2740.433258018859
 20
-1112.396057727237
 30
0.0
 11
2908.603884241685
 21
-1112.396057727237
 31
0.0
  0
LINE
  5
D23
330
1F
100
AcDbEntity
  8
izolace
  6
IZOLACE
 48
1.5
100
AcDbLine
 10
2740.43325801886
 20
-1075.389120125408
 30
0.0
 11
2906.623420609362
 21
-1075.389120125408
 31
0.0
  0
LINE
  5
D26
102
{ACAD_REACTORS
330
9E7B
102
}
330
1F
100
AcDbEntity
  8
CETRIS
100
AcDbLine
 10
2603.914002579954
 20
-1101.612036007611
 30
0.0
 11
2735.433258018859
 21
-1101.612036007611
 31
0.0
  0
LINE
  5
D27
102
{ACAD_REACTORS
330
9E7B
102
}
330
1F
100
AcDbEntity
  8
CETRIS
100
AcDbLine
 10
2603.91400257995
 20
-1113.612036007611
 30
0.0
 11
2735.433258018862
 21
-1113.612036007611
 31
0.0
  0
LINE
  5
D2A
330
1F
100
AcDbEntity
  8
SPOJOVACÍ
  6
Continuous
100
AcDbLine
 10
2763.645871387799
 20
-1103.319262023309
 30
0.0
 11
2759.601467028206
 21
-1101.959345009767
 31
0.0
  0
LINE
  5
D2B
330
1F
100
AcDbEntity
  8
SPOJOVACÍ
  6
Continuous
100
AcDbLine
 10
2763.645871387799
 20
-1102.723019338154
 30
0.0
 11
2759.601467028206
 21
-1101.363102324612
 31
0.0
  0
LINE
  5
D2C
330
1F
100
AcDbEntity
  8
SPOJOVACÍ
  6
Continuous
100
AcDbLine
 10
2759.223815657261
 20
-1101.740753697741
 30
0.0
 11
2759.601467028206
 21
-1101.959345009767
 31
0.0
  0
LINE
  5
D2D
330
1F
100
AcDbEntity
  8
SPOJOVACÍ
  6
Continuous
100
AcDbLine
 10
2759.223815657261
 20
-1101.740753697741
 30
0.0
 11
2759.601467028206
 21
-1101.363102324612
 31
0.0
  0
LINE
  5
D2E
330
1F
100
AcDbEntity
  8
SPOJOVACÍ
  6
Continuous
100
AcDbLine
 10
2764.02352276311
 20
-1102.940680474203
 30
0.0
 11
2763.645871387799
 21
-1103.319262023309
 31
0.0
  0
LINE
  5
D2F
330
1F
100
AcDbEntity
  8
SPOJOVACÍ
  6
Continuous
100
AcDbLine
 10
2764.02352276311
 20
-1102.940680474203
 30
0.0
 11
2763.645871387799
 21
-1102.723019338154
 31
0.0
  0
LINE
  5
D30
330
1F
100
AcDbEntity
  8
SPOJOVACÍ
  6
Continuous
100
AcDbLine
 10
2764.02352276311
 20
-1102.940680474203
 30
0.0
 11
2759.223815657261
 21
-1101.740753697741
 31
0.0
  0
LINE
  5
D31
330
1F
100
AcDbEntity
  8
SPOJOVACÍ
  6
Continuous
100
AcDbLine
 10
2763.645871387799
 20
-1106.439071642271
 30
0.0
 11
2759.601467028206
 21
-1105.079154628729
 31
0.0
  0
LINE
  5
D32
330
1F
100
AcDbEntity
  8
SPOJOVACÍ
  6
Continuous
100
AcDbLine
 10
2763.645871387799
 20
-1105.842828957124
 30
0.0
 11
2759.601467028206
 21
-1104.482911943851
 31
0.0
  0
LINE
  5
D33
330
1F
100
AcDbEntity
  8
SPOJOVACÍ
  6
Continuous
100
AcDbLine
 10
2759.223815657261
 20
-1104.861493492681
 30
0.0
 11
2759.601467028206
 21
-1105.079154628729
 31
0.0
  0
LINE
  5
D34
330
1F
100
AcDbEntity
  8
SPOJOVACÍ
  6
Continuous
100
AcDbLine
 10
2759.223815657261
 20
-1104.861493492681
 30
0.0
 11
2759.601467028206
 21
-1104.482911943851
 31
0.0
  0
LINE
  5
D35
330
1F
100
AcDbEntity
  8
SPOJOVACÍ
  6
Continuous
100
AcDbLine
 10
2764.02352276311
 20
-1106.061420269143
 30
0.0
 11
2763.645871387799
 21
-1106.439071642271
 31
0.0
  0
LINE
  5
D36
330
1F
100
AcDbEntity
  8
SPOJOVACÍ
  6
Continuous
100
AcDbLine
 10
2764.02352276311
 20
-1106.061420269143
 30
0.0
 11
2763.645871387799
 21
-1105.842828957124
 31
0.0
  0
LINE
  5
D37
330
1F
100
AcDbEntity
  8
SPOJOVACÍ
  6
Continuous
100
AcDbLine
 10
2764.02352276311
 20
-1106.061420269143
 30
0.0
 11
2759.223815657261
 21
-1104.861493492681
 31
0.0
  0
LINE
  5
D38
330
1F
100
AcDbEntity
  8
SPOJOVACÍ
  6
Continuous
100
AcDbLine
 10
2763.645871387799
 20
-1109.55888126124
 30
0.0
 11
2759.601467028206
 21
-1108.198964247967
 31
0.0
  0
LINE
  5
D39
330
1F
100
AcDbEntity
  8
SPOJOVACÍ
  6
Continuous
100
AcDbLine
 10
2763.645871387799
 20
-1108.962638576086
 30
0.0
 11
2759.601467028206
 21
-1107.60272156282
 31
0.0
  0
LINE
  5
D3A
330
1F
100
AcDbEntity
  8
SPOJOVACÍ
  6
Continuous
100
AcDbLine
 10
2759.223815657261
 20
-1107.98130311165
 30
0.0
 11
2759.601467028206
 21
-1108.198964247967
 31
0.0
  0
LINE
  5
D3B
330
1F
100
AcDbEntity
  8
SPOJOVACÍ
  6
Continuous
100
AcDbLine
 10
2759.223815657261
 20
-1107.98130311165
 30
0.0
 11
2759.601467028206
 21
-1107.60272156282
 31
0.0
  0
LINE
  5
D3C
330
1F
100
AcDbEntity
  8
SPOJOVACÍ
  6
Continuous
100
AcDbLine
 10
2764.02352276311
 20
-1109.181229888112
 30
0.0
 11
2763.645871387799
 21
-1109.55888126124
 31
0.0
  0
LINE
  5
D3D
330
1F
100
AcDbEntity
  8
SPOJOVACÍ
  6
Continuous
100
AcDbLine
 10
2764.02352276311
 20
-1109.181229888112
 30
0.0
 11
2763.645871387799
 21
-1108.962638576086
 31
0.0
  0
LINE
  5
D3E
330
1F
100
AcDbEntity
  8
SPOJOVACÍ
  6
Continuous
100
AcDbLine
 10
2764.02352276311
 20
-1109.181229888112
 30
0.0
 11
2759.223815657261
 21
-1107.98130311165
 31
0.0
  0
LINE
  5
D3F
330
1F
100
AcDbEntity
  8
SPOJOVACÍ
  6
Continuous
100
AcDbLine
 10
2762.640351352112
 20
-1093.835189609272
 30
0.0
 11
2760.486064210655
 21
-1093.524510893498
 31
0.0
  0
LINE
  5
D40
330
1F
100
AcDbEntity
  8
SPOJOVACÍ
  6
Continuous
100
AcDbLine
 10
2762.262699981166
 20
-1094.2128409824
 30
0.0
 11
2760.8637155816
 21
-1093.742172029815
 31
0.0
  0
LINE
  5
D41
330
1F
100
AcDbEntity
  8
SPOJOVACÍ
  6
Continuous
100
AcDbLine
 10
2762.262699981166
 20
-1093.616598297252
 30
0.0
 11
2760.8637155816
 21
-1093.145929344668
 31
0.0
  0
LINE
  5
D42
330
1F
100
AcDbEntity
  8
SPOJOVACÍ
  6
Continuous
100
AcDbLine
 10
2760.486064210655
 20
-1093.524510893498
 30
0.0
 11
2760.8637155816
 21
-1093.742172029815
 31
0.0
  0
LINE
  5
D43
330
1F
100
AcDbEntity
  8
SPOJOVACÍ
  6
Continuous
100
AcDbLine
 10
2760.486064210655
 20
-1093.524510893498
 30
0.0
 11
2760.8637155816
 21
-1093.145929344668
 31
0.0
  0
LINE
  5
D44
330
1F
100
AcDbEntity
  8
SPOJOVACÍ
  6
Continuous
100
AcDbLine
 10
2762.640351352112
 20
-1093.835189609272
 30
0.0
 11
2762.262699981166
 21
-1094.2128409824
 31
0.0
  0
LINE
  5
D45
330
1F
100
AcDbEntity
  8
SPOJOVACÍ
  6
Continuous
100
AcDbLine
 10
2762.640351352112
 20
-1093.835189609272
 30
0.0
 11
2762.262699981166
 21
-1093.616598297252
 31
0.0
  0
LINE
  5
D46
330
1F
100
AcDbEntity
  8
SPOJOVACÍ
  6
Continuous
100
AcDbLine
 10
2763.204968062583
 20
-1096.848959187591
 30
0.0
 11
2760.088879146152
 21
-1096.215509470821
 31
0.0
  0
LINE
  5
D47
330
1F
100
AcDbEntity
  8
SPOJOVACÍ
  6
Continuous
100
AcDbLine
 10
2762.827316687272
 20
-1097.227540736698
 30
0.0
 11
2760.466530517097
 21
-1096.433170606869
 31
0.0
  0
LINE
  5
D48
330
1F
100
AcDbEntity
  8
SPOJOVACÍ
  6
Continuous
100
AcDbLine
 10
2762.827316687272
 20
-1096.631298051543
 30
0.0
 11
2760.466530517097
 21
-1095.836927921991
 31
0.0
  0
LINE
  5
D49
330
1F
100
AcDbEntity
  8
SPOJOVACÍ
  6
Continuous
100
AcDbLine
 10
2760.088879146152
 20
-1096.215509470821
 30
0.0
 11
2760.466530517097
 21
-1096.433170606869
 31
0.0
  0
LINE
  5
D4A
330
1F
100
AcDbEntity
  8
SPOJOVACÍ
  6
Continuous
100
AcDbLine
 10
2760.088879146152
 20
-1096.215509470821
 30
0.0
 11
2760.466530517097
 21
-1095.836927921991
 31
0.0
  0
LINE
  5
D4B
330
1F
100
AcDbEntity
  8
SPOJOVACÍ
  6
Continuous
100
AcDbLine
 10
2763.204968062583
 20
-1096.848959187591
 30
0.0
 11
2762.827316687272
 21
-1097.227540736698
 31
0.0
  0
LINE
  5
D4C
330
1F
100
AcDbEntity
  8
SPOJOVACÍ
  6
Continuous
100
AcDbLine
 10
2763.204968062583
 20
-1096.848959187591
 30
0.0
 11
2762.827316687272
 21
-1096.631298051543
 31
0.0
  0
LINE
  5
D4D
330
1F
100
AcDbEntity
  8
SPOJOVACÍ
  6
Continuous
100
AcDbLine
 10
2763.769584768689
 20
-1099.863658941889
 30
0.0
 11
2759.644255115946
 21
-1098.890695059584
 31
0.0
  0
LINE
  5
D4E
330
1F
100
AcDbEntity
  8
SPOJOVACÍ
  6
Continuous
100
AcDbLine
 10
2763.391003220405
 20
-1100.241310315017
 30
0.0
 11
2760.021906486891
 21
-1099.108356195633
 31
0.0
  0
LINE
  5
D4F
330
1F
100
AcDbEntity
  8
SPOJOVACÍ
  6
Continuous
100
AcDbLine
 10
2763.391003220405
 20
-1099.645067629863
 30
0.0
 11
2760.021906486891
 21
-1098.512113510478
 31
0.0
  0
LINE
  5
D50
330
1F
100
AcDbEntity
  8
SPOJOVACÍ
  6
Continuous
100
AcDbLine
 10
2759.644255115946
 20
-1098.890695059584
 30
0.0
 11
2760.021906486891
 21
-1099.108356195633
 31
0.0
  0
LINE
  5
D51
330
1F
100
AcDbEntity
  8
SPOJOVACÍ
  6
Continuous
100
AcDbLine
 10
2759.644255115946
 20
-1098.890695059584
 30
0.0
 11
2760.021906486891
 21
-1098.512113510478
 31
0.0
  0
LINE
  5
D52
330
1F
100
AcDbEntity
  8
SPOJOVACÍ
  6
Continuous
100
AcDbLine
 10
2763.769584768689
 20
-1099.863658941889
 30
0.0
 11
2763.391003220405
 21
-1100.241310315017
 31
0.0
  0
LINE
  5
D53
330
1F
100
AcDbEntity
  8
SPOJOVACÍ
  6
Continuous
100
AcDbLine
 10
2763.769584768689
 20
-1099.863658941889
 30
0.0
 11
2763.391003220405
 21
-1099.645067629863
 31
0.0
  0
LINE
  5
D54
330
1F
100
AcDbEntity
  8
SPOJOVACÍ
  6
Continuous
100
AcDbLine
 10
2763.645871387799
 20
-1112.678690880479
 30
0.0
 11
2759.601467028206
 21
-1111.319704042638
 31
0.0
  0
LINE
  5
D55
330
1F
100
AcDbEntity
  8
SPOJOVACÍ
  6
Continuous
100
AcDbLine
 10
2763.645871387799
 20
-1112.082448195324
 30
0.0
 11
2759.601467028206
 21
-1110.72346135776
 31
0.0
  0
LINE
  5
D56
330
1F
100
AcDbEntity
  8
SPOJOVACÍ
  6
Continuous
100
AcDbLine
 10
2759.223815657261
 20
-1111.101112730612
 30
0.0
 11
2759.601467028206
 21
-1111.319704042638
 31
0.0
  0
LINE
  5
D57
330
1F
100
AcDbEntity
  8
SPOJOVACÍ
  6
Continuous
100
AcDbLine
 10
2759.223815657261
 20
-1111.101112730612
 30
0.0
 11
2759.601467028206
 21
-1110.72346135776
 31
0.0
  0
LINE
  5
D58
330
1F
100
AcDbEntity
  8
SPOJOVACÍ
  6
Continuous
100
AcDbLine
 10
2764.02352276311
 20
-1112.30103950735
 30
0.0
 11
2763.645871387799
 21
-1112.678690880479
 31
0.0
  0
LINE
  5
D59
330
1F
100
AcDbEntity
  8
SPOJOVACÍ
  6
Continuous
100
AcDbLine
 10
2764.02352276311
 20
-1112.30103950735
 30
0.0
 11
2763.645871387799
 21
-1112.082448195324
 31
0.0
  0
LINE
  5
D5A
330
1F
100
AcDbEntity
  8
SPOJOVACÍ
  6
Continuous
100
AcDbLine
 10
2764.02352276311
 20
-1112.30103950735
 30
0.0
 11
2759.223815657261
 21
-1111.101112730612
 31
0.0
  0
LINE
  5
D5B
102
{ACAD_REACTORS
330
9F5C
102
}
330
1F
100
AcDbEntity
  8
SPOJOVACÍ
  6
Continuous
100
AcDbLine
 10
2763.645871387799
 20
-1115.799430675142
 30
0.0
 11
2759.601467028206
 21
-1114.439513661877
 31
0.0
  0
LINE
  5
D5C
102
{ACAD_REACTORS
330
9F5C
102
}
330
1F
100
AcDbEntity
  8
SPOJOVACÍ
  6
Continuous
100
AcDbLine
 10
2763.645871387799
 20
-1115.203187990264
 30
0.0
 11
2759.601467028206
 21
-1113.843270976722
 31
0.0
  0
LINE
  5
D5D
102
{ACAD_REACTORS
330
9F5C
102
}
330
1F
100
AcDbEntity
  8
SPOJOVACÍ
  6
Continuous
100
AcDbLine
 10
2759.223815657261
 20
-1114.22092234985
 30
0.0
 11
2759.601467028206
 21
-1114.439513661877
 31
0.0
  0
LINE
  5
D5E
330
1F
100
AcDbEntity
  8
SPOJOVACÍ
  6
Continuous
100
AcDbLine
 10
2759.223815657261
 20
-1114.22092234985
 30
0.0
 11
2759.601467028206
 21
-1113.843270976722
 31
0.0
  0
LINE
  5
D5F
102
{ACAD_REACTORS
330
9F5C
102
}
330
1F
100
AcDbEntity
  8
SPOJOVACÍ
  6
Continuous
100
AcDbLine
 10
2764.02352276311
 20
-1115.420849126312
 30
0.0
 11
2763.645871387799
 21
-1115.799430675142
 31
0.0
  0
LINE
  5
D60
102
{ACAD_REACTORS
330
9F5C
102
}
330
1F
100
AcDbEntity
  8
SPOJOVACÍ
  6
Continuous
100
AcDbLine
 10
2764.02352276311
 20
-1115.420849126312
 30
0.0
 11
2763.645871387799
 21
-1115.203187990264
 31
0.0
  0
LINE
  5
D61
330
1F
100
AcDbEntity
  8
SPOJOVACÍ
  6
Continuous
100
AcDbLine
 10
2764.02352276311
 20
-1115.420849126312
 30
0.0
 11
2759.223815657261
 21
-1114.22092234985
 31
0.0
  0
LINE
  5
D62
330
1F
100
AcDbEntity
  8
SPOJOVACÍ
  6
Continuous
100
AcDbLine
 10
2760.519550538102
 20
-1099.285089596982
 30
0.0
 11
2760.273984126635
 21
-1101.256132108268
 31
0.0
  0
LINE
  5
D63
330
1F
100
AcDbEntity
  8
SPOJOVACÍ
  6
Continuous
100
AcDbLine
 10
2760.858134530664
 20
-1096.578278031084
 30
0.0
 11
2760.591174075326
 21
-1098.714891833937
 31
0.0
  0
LINE
  5
D64
330
1F
100
AcDbEntity
  8
SPOJOVACÍ
  6
Continuous
100
AcDbLine
 10
2761.197648691833
 20
-1093.86123453165
 30
0.0
 11
2760.929758063522
 21
-1096.006219916635
 31
0.0
  0
LINE
  5
D65
330
1F
100
AcDbEntity
  8
SPOJOVACÍ
  6
Continuous
100
AcDbLine
 10
2762.009692164084
 20
-1093.54497476112
 30
0.0
 11
2761.623669210186
 21
-1090.455860943315
 31
0.0
  0
LINE
  5
D66
330
1F
100
AcDbEntity
  8
SPOJOVACÍ
  6
Continuous
100
AcDbLine
 10
2762.377111601764
 20
-1096.486190627329
 30
0.0
 11
2762.08689675661
 21
-1094.165402016973
 31
0.0
  0
LINE
  5
D67
330
1F
100
AcDbEntity
  8
SPOJOVACÍ
  6
Continuous
100
AcDbLine
 10
2762.746391394122
 20
-1099.438568603058
 30
0.0
 11
2762.456176544602
 21
-1097.116849816994
 31
0.0
  0
LINE
  5
D68
330
1F
100
AcDbEntity
  8
SPOJOVACÍ
  6
Continuous
100
AcDbLine
 10
2761.623669210186
 20
-1090.455860943315
 30
0.0
 11
2761.269272229057
 21
-1093.291966944583
 31
0.0
  0
LINE
  5
D69
330
1F
100
AcDbEntity
  8
SPOJOVACÍ
  6
Continuous
100
AcDbLine
 10
2762.973354289371
 20
-1101.256132108268
 30
0.0
 11
2762.823595986648
 21
-1100.058995858911
 31
0.0
  0
LINE
  5
D6A
330
1F
100
AcDbEntity
  8
SPOJOVACÍ
  6
Continuous
100
AcDbLine
 10
2760.273984126635
 20
-1101.592855746152
 30
0.0
 11
2760.273984126635
 21
-1101.256132108268
 31
0.0
  0
LINE
  5
D6B
330
1F
100
AcDbEntity
  8
SPOJOVACÍ
  6
Continuous
100
AcDbLine
 10
2760.273984126635
 20
-1104.715455892765
 30
0.0
 11
2760.273984126635
 21
-1102.196539837736
 31
0.0
  0
LINE
  5
D6C
330
1F
100
AcDbEntity
  8
SPOJOVACÍ
  6
Continuous
100
AcDbLine
 10
2762.973354289371
 20
-1102.503497850157
 30
0.0
 11
2762.973354289371
 21
-1101.256132108268
 31
0.0
  0
LINE
  5
D6D
330
1F
100
AcDbEntity
  8
SPOJOVACÍ
  6
Continuous
100
AcDbLine
 10
2762.973354289371
 20
-1105.617726414639
 30
0.0
 11
2762.973354289371
 21
-1103.099740535312
 31
0.0
  0
LINE
  5
D6E
330
1F
100
AcDbEntity
  8
SPOJOVACÍ
  6
Continuous
100
AcDbLine
 10
2760.273984126635
 20
-1107.837125863407
 30
0.0
 11
2760.273984126635
 21
-1105.316349456698
 31
0.0
  0
LINE
  5
D6F
330
1F
100
AcDbEntity
  8
SPOJOVACÍ
  6
Continuous
100
AcDbLine
 10
2760.273984126635
 20
-1110.959726009751
 30
0.0
 11
2760.273984126635
 21
-1108.431508196882
 31
0.0
  0
LINE
  5
D70
330
1F
100
AcDbEntity
  8
SPOJOVACÍ
  6
Continuous
100
AcDbLine
 10
2760.273984126635
 20
-1114.074884749934
 30
0.0
 11
2760.273984126635
 21
-1111.555968694905
 31
0.0
  0
LINE
  5
D71
330
1F
100
AcDbEntity
  8
SPOJOVACÍ
  6
Continuous
100
AcDbLine
 10
2762.973354289371
 20
-1108.750558494794
 30
0.0
 11
2762.973354289371
 21
-1106.222340681925
 31
0.0
  0
LINE
  5
D72
330
1F
100
AcDbEntity
  8
SPOJOVACÍ
  6
Continuous
100
AcDbLine
 10
2762.973354289371
 20
-1111.865717234977
 30
0.0
 11
2762.973354289371
 21
-1109.344940828268
 31
0.0
  0
LINE
  5
D73
102
{ACAD_REACTORS
330
9F5C
102
}
330
1F
100
AcDbEntity
  8
SPOJOVACÍ
  6
Continuous
100
AcDbLine
 10
2762.973354289371
 20
-1114.988317381321
 30
0.0
 11
2762.973354289371
 21
-1112.469401326292
 31
0.0
  0
LINE
  5
D74
102
{ACAD_REACTORS
330
9F5C
102
}
330
1F
100
AcDbEntity
  8
SPOJOVACÍ
  6
Continuous
100
AcDbLine
 10
2762.973354289371
 20
-1119.621523020178
 30
0.0
 11
2762.973354289371
 21
-1115.583629890498
 31
0.0
  0
LINE
  5
D75
102
{ACAD_REACTORS
330
9F5C
102
}
330
1F
100
AcDbEntity
  8
SPOJOVACÍ
  6
Continuous
100
AcDbLine
 10
2760.273984126635
 20
-1119.621523020178
 30
0.0
 11
2760.273984126635
 21
-1114.678568841249
 31
0.0
  0
LINE
  5
D76
102
{ACAD_REACTORS
330
9F5C
102
}
330
1F
100
AcDbEntity
  8
SPOJOVACÍ
  6
Continuous
100
AcDbLine
 10
2766.72382309882
 20
-1125.021193514534
 30
0.0
 11
2765.374138015268
 21
-1124.27705287806
 31
0.0
  0
LINE
  5
D77
102
{ACAD_REACTORS
330
9F5C
102
}
330
1F
100
AcDbEntity
  8
SPOJOVACÍ
  6
Continuous
100
AcDbLine
 10
2765.374138015268
 20
-1124.27705287806
 30
0.0
 11
2764.26350811491
 21
-1123.208280888648
 31
0.0
  0
LINE
  5
D78
102
{ACAD_REACTORS
330
9F5C
102
}
330
1F
100
AcDbEntity
  8
SPOJOVACÍ
  6
Continuous
100
AcDbLine
 10
2764.26350811491
 20
-1123.208280888648
 30
0.0
 11
2763.467277635592
 21
-1121.88929161035
 31
0.0
  0
LINE
  5
D79
102
{ACAD_REACTORS
330
9F5C
102
}
330
1F
100
AcDbEntity
  8
SPOJOVACÍ
  6
Continuous
100
AcDbLine
 10
2763.467277635592
 20
-1121.88929161035
 30
0.0
 11
2763.039396771292
 21
-1120.4084517433
 31
0.0
  0
LINE
  5
D7A
102
{ACAD_REACTORS
330
9F5C
102
}
330
1F
100
AcDbEntity
  8
SPOJOVACÍ
  6
Continuous
100
AcDbLine
 10
2763.039396771292
 20
-1120.4084517433
 30
0.0
 11
2762.973354289371
 21
-1119.621523020178
 31
0.0
  0
LINE
  5
D7B
102
{ACAD_REACTORS
330
9F5C
102
}
330
1F
100
AcDbEntity
  8
SPOJOVACÍ
  6
Continuous
100
AcDbLine
 10
2758.475954316619
 20
-1123.766386366209
 30
0.0
 11
2757.238820507719
 21
-1124.684469876651
 31
0.0
  0
LINE
  5
D7C
102
{ACAD_REACTORS
330
9F5C
102
}
330
1F
100
AcDbEntity
  8
SPOJOVACÍ
  6
Continuous
100
AcDbLine
 10
2757.238820507719
 20
-1124.684469876651
 30
0.0
 11
2756.523515321552
 21
-1125.021193514534
 31
0.0
  0
LINE
  5
D7D
330
1F
100
AcDbEntity
  8
SPOJOVACÍ
  6
Continuous
100
AcDbLine
 10
2766.72382309882
 20
-1125.021193514534
 30
0.0
 11
2756.523515321552
 21
-1125.021193514534
 31
0.0
  0
LINE
  5
D7E
102
{ACAD_REACTORS
330
9F5C
102
}
330
1F
100
AcDbEntity
  8
SPOJOVACÍ
  6
Continuous
100
AcDbLine
 10
2766.72382309882
 20
-1126.221120291266
 30
0.0
 11
2766.72382309882
 21
-1125.021193514534
 31
0.0
  0
LINE
  5
D7F
330
1F
100
AcDbEntity
  8
SPOJOVACÍ
  6
Continuous
100
AcDbLine
 10
2766.72382309882
 20
-1126.221120291266
 30
0.0
 11
2756.523515321552
 21
-1126.221120291266
 31
0.0
  0
LINE
  5
D80
102
{ACAD_REACTORS
330
9F5C
102
}
330
1F
100
AcDbEntity
  8
SPOJOVACÍ
  6
Continuous
100
AcDbLine
 10
2756.523515321552
 20
-1126.221120291266
 30
0.0
 11
2756.523515321552
 21
-1125.021193514534
 31
0.0
  0
LINE
  5
D81
102
{ACAD_REACTORS
330
9F5C
102
}
330
1F
100
AcDbEntity
  8
SPOJOVACÍ
  6
Continuous
100
AcDbLine
 10
2760.273984126635
 20
-1119.621523020178
 30
0.0
 11
2760.047021235751
 21
-1121.145150973607
 31
0.0
  0
LINE
  5
D82
102
{ACAD_REACTORS
330
9F5C
102
}
330
1F
100
AcDbEntity
  8
SPOJOVACÍ
  6
Continuous
100
AcDbLine
 10
2760.047021235751
 20
-1121.145150973607
 30
0.0
 11
2759.434035386604
 21
-1122.55901818331
 31
0.0
  0
LINE
  5
D83
102
{ACAD_REACTORS
330
9F5C
102
}
330
1F
100
AcDbEntity
  8
SPOJOVACÍ
  6
Continuous
100
AcDbLine
 10
2759.434035386604
 20
-1122.55901818331
 30
0.0
 11
2758.475954316619
 21
-1123.766386366209
 31
0.0
  0
LINE
  5
D84
330
1F
100
AcDbEntity
  8
SPOJOVACÍ
  6
Continuous
100
AcDbLine
 10
2759.473785778854
 20
-1048.890724274473
 30
0.0
 11
2763.518190138446
 21
-1050.250641288015
 31
0.0
  0
LINE
  5
D85
330
1F
100
AcDbEntity
  8
SPOJOVACÍ
  6
Continuous
100
AcDbLine
 10
2759.473785778854
 20
-1049.486966959628
 30
0.0
 11
2763.518190138446
 21
-1050.84688397317
 31
0.0
  0
LINE
  5
D86
330
1F
100
AcDbEntity
  8
SPOJOVACÍ
  6
Continuous
100
AcDbLine
 10
2763.895841509392
 20
-1050.469232600042
 30
0.0
 11
2763.518190138446
 21
-1050.250641288015
 31
0.0
  0
LINE
  5
D87
330
1F
100
AcDbEntity
  8
SPOJOVACÍ
  6
Continuous
100
AcDbLine
 10
2763.895841509392
 20
-1050.469232600042
 30
0.0
 11
2763.518190138446
 21
-1050.84688397317
 31
0.0
  0
LINE
  5
D88
330
1F
100
AcDbEntity
  8
SPOJOVACÍ
  6
Continuous
100
AcDbLine
 10
2759.096134403543
 20
-1049.26930582358
 30
0.0
 11
2759.473785778854
 21
-1048.890724274473
 31
0.0
  0
LINE
  5
D89
330
1F
100
AcDbEntity
  8
SPOJOVACÍ
  6
Continuous
100
AcDbLine
 10
2759.096134403543
 20
-1049.26930582358
 30
0.0
 11
2759.473785778854
 21
-1049.486966959628
 31
0.0
  0
LINE
  5
D8A
330
1F
100
AcDbEntity
  8
SPOJOVACÍ
  6
Continuous
100
AcDbLine
 10
2759.096134403543
 20
-1049.26930582358
 30
0.0
 11
2763.895841509392
 21
-1050.469232600042
 31
0.0
  0
LINE
  5
D8B
330
1F
100
AcDbEntity
  8
SPOJOVACÍ
  6
Continuous
100
AcDbLine
 10
2759.473785778854
 20
-1045.770914655512
 30
0.0
 11
2763.518190138446
 21
-1047.130831669054
 31
0.0
  0
LINE
  5
D8C
330
1F
100
AcDbEntity
  8
SPOJOVACÍ
  6
Continuous
100
AcDbLine
 10
2759.473785778854
 20
-1046.367157340659
 30
0.0
 11
2763.518190138446
 21
-1047.727074353932
 31
0.0
  0
LINE
  5
D8D
330
1F
100
AcDbEntity
  8
SPOJOVACÍ
  6
Continuous
100
AcDbLine
 10
2763.895841509392
 20
-1047.348492805102
 30
0.0
 11
2763.518190138446
 21
-1047.130831669054
 31
0.0
  0
LINE
  5
D8E
330
1F
100
AcDbEntity
  8
SPOJOVACÍ
  6
Continuous
100
AcDbLine
 10
2763.895841509392
 20
-1047.348492805102
 30
0.0
 11
2763.518190138446
 21
-1047.727074353932
 31
0.0
  0
LINE
  5
D8F
330
1F
100
AcDbEntity
  8
SPOJOVACÍ
  6
Continuous
100
AcDbLine
 10
2759.096134403543
 20
-1046.14856602864
 30
0.0
 11
2759.473785778854
 21
-1045.770914655512
 31
0.0
  0
LINE
  5
D90
330
1F
100
AcDbEntity
  8
SPOJOVACÍ
  6
Continuous
100
AcDbLine
 10
2759.096134403543
 20
-1046.14856602864
 30
0.0
 11
2759.473785778854
 21
-1046.367157340659
 31
0.0
  0
LINE
  5
D91
330
1F
100
AcDbEntity
  8
SPOJOVACÍ
  6
Continuous
100
AcDbLine
 10
2759.096134403543
 20
-1046.14856602864
 30
0.0
 11
2763.895841509392
 21
-1047.348492805102
 31
0.0
  0
LINE
  5
D92
330
1F
100
AcDbEntity
  8
SPOJOVACÍ
  6
Continuous
100
AcDbLine
 10
2759.473785778854
 20
-1042.651105036542
 30
0.0
 11
2763.518190138446
 21
-1044.011022049815
 31
0.0
  0
LINE
  5
D93
330
1F
100
AcDbEntity
  8
SPOJOVACÍ
  6
Continuous
100
AcDbLine
 10
2759.473785778854
 20
-1043.247347721697
 30
0.0
 11
2763.518190138446
 21
-1044.607264734963
 31
0.0
  0
LINE
  5
D94
330
1F
100
AcDbEntity
  8
SPOJOVACÍ
  6
Continuous
100
AcDbLine
 10
2763.895841509392
 20
-1044.228683186133
 30
0.0
 11
2763.518190138446
 21
-1044.011022049815
 31
0.0
  0
LINE
  5
D95
330
1F
100
AcDbEntity
  8
SPOJOVACÍ
  6
Continuous
100
AcDbLine
 10
2763.895841509392
 20
-1044.228683186133
 30
0.0
 11
2763.518190138446
 21
-1044.607264734963
 31
0.0
  0
LINE
  5
D96
330
1F
100
AcDbEntity
  8
SPOJOVACÍ
  6
Continuous
100
AcDbLine
 10
2759.096134403543
 20
-1043.02875640967
 30
0.0
 11
2759.473785778854
 21
-1042.651105036542
 31
0.0
  0
LINE
  5
D97
330
1F
100
AcDbEntity
  8
SPOJOVACÍ
  6
Continuous
100
AcDbLine
 10
2759.096134403543
 20
-1043.02875640967
 30
0.0
 11
2759.473785778854
 21
-1043.247347721697
 31
0.0
  0
LINE
  5
D98
330
1F
100
AcDbEntity
  8
SPOJOVACÍ
  6
Continuous
100
AcDbLine
 10
2759.096134403543
 20
-1043.02875640967
 30
0.0
 11
2763.895841509392
 21
-1044.228683186133
 31
0.0
  0
LINE
  5
D99
330
1F
100
AcDbEntity
  8
SPOJOVACÍ
  6
Continuous
100
AcDbLine
 10
2760.479305814541
 20
-1058.374796688511
 30
0.0
 11
2762.633592955998
 21
-1058.685475404285
 31
0.0
  0
LINE
  5
D9A
330
1F
100
AcDbEntity
  8
SPOJOVACÍ
  6
Continuous
100
AcDbLine
 10
2760.856957185486
 20
-1057.997145315383
 30
0.0
 11
2762.255941585053
 21
-1058.467814267967
 31
0.0
  0
LINE
  5
D9B
330
1F
100
AcDbEntity
  8
SPOJOVACÍ
  6
Continuous
100
AcDbLine
 10
2760.856957185486
 20
-1058.59338800053
 30
0.0
 11
2762.255941585053
 21
-1059.064056953115
 31
0.0
  0
LINE
  5
D9C
330
1F
100
AcDbEntity
  8
SPOJOVACÍ
  6
Continuous
100
AcDbLine
 10
2762.633592955998
 20
-1058.685475404285
 30
0.0
 11
2762.255941585053
 21
-1058.467814267967
 31
0.0
  0
LINE
  5
D9D
330
1F
100
AcDbEntity
  8
SPOJOVACÍ
  6
Continuous
100
AcDbLine
 10
2762.633592955998
 20
-1058.685475404285
 30
0.0
 11
2762.255941585053
 21
-1059.064056953115
 31
0.0
  0
LINE
  5
D9E
330
1F
100
AcDbEntity
  8
SPOJOVACÍ
  6
Continuous
100
AcDbLine
 10
2760.479305814541
 20
-1058.374796688511
 30
0.0
 11
2760.856957185486
 21
-1057.997145315383
 31
0.0
  0
LINE
  5
D9F
330
1F
100
AcDbEntity
  8
SPOJOVACÍ
  6
Continuous
100
AcDbLine
 10
2760.479305814541
 20
-1058.374796688511
 30
0.0
 11
2760.856957185486
 21
-1058.59338800053
 31
0.0
  0
LINE
  5
DA0
330
1F
100
AcDbEntity
  8
SPOJOVACÍ
  6
Continuous
100
AcDbLine
 10
2759.91468910407
 20
-1055.361027110191
 30
0.0
 11
2763.030778020501
 21
-1055.994476826961
 31
0.0
  0
LINE
  5
DA1
330
1F
100
AcDbEntity
  8
SPOJOVACÍ
  6
Continuous
100
AcDbLine
 10
2760.292340479381
 20
-1054.982445561085
 30
0.0
 11
2762.653126649555
 21
-1055.776815690913
 31
0.0
  0
LINE
  5
DA2
330
1F
100
AcDbEntity
  8
SPOJOVACÍ
  6
Continuous
100
AcDbLine
 10
2760.292340479381
 20
-1055.57868824624
 30
0.0
 11
2762.653126649555
 21
-1056.373058375791
 31
0.0
  0
LINE
  5
DA3
330
1F
100
AcDbEntity
  8
SPOJOVACÍ
  6
Continuous
100
AcDbLine
 10
2763.030778020501
 20
-1055.994476826961
 30
0.0
 11
2762.653126649555
 21
-1055.776815690913
 31
0.0
  0
LINE
  5
DA4
330
1F
100
AcDbEntity
  8
SPOJOVACÍ
  6
Continuous
100
AcDbLine
 10
2763.030778020501
 20
-1055.994476826961
 30
0.0
 11
2762.653126649555
 21
-1056.373058375791
 31
0.0
  0
LINE
  5
DA5
330
1F
100
AcDbEntity
  8
SPOJOVACÍ
  6
Continuous
100
AcDbLine
 10
2759.91468910407
 20
-1055.361027110191
 30
0.0
 11
2760.292340479381
 21
-1054.982445561085
 31
0.0
  0
LINE
  5
DA6
330
1F
100
AcDbEntity
  8
SPOJOVACÍ
  6
Continuous
100
AcDbLine
 10
2759.91468910407
 20
-1055.361027110191
 30
0.0
 11
2760.292340479381
 21
-1055.57868824624
 31
0.0
  0
LINE
  5
DA7
330
1F
100
AcDbEntity
  8
SPOJOVACÍ
  6
Continuous
100
AcDbLine
 10
2759.350072397964
 20
-1052.346327355893
 30
0.0
 11
2763.475402050707
 21
-1053.319291238198
 31
0.0
  0
LINE
  5
DA8
330
1F
100
AcDbEntity
  8
SPOJOVACÍ
  6
Continuous
100
AcDbLine
 10
2759.728653946248
 20
-1051.968675982765
 30
0.0
 11
2763.097750679762
 21
-1053.10163010215
 31
0.0
  0
LINE
  5
DA9
330
1F
100
AcDbEntity
  8
SPOJOVACÍ
  6
Continuous
100
AcDbLine
 10
2759.728653946248
 20
-1052.56491866792
 30
0.0
 11
2763.097750679762
 21
-1053.697872787304
 31
0.0
  0
LINE
  5
DAA
330
1F
100
AcDbEntity
  8
SPOJOVACÍ
  6
Continuous
100
AcDbLine
 10
2763.475402050707
 20
-1053.319291238198
 30
0.0
 11
2763.097750679762
 21
-1053.10163010215
 31
0.0
  0
LINE
  5
DAB
330
1F
100
AcDbEntity
  8
SPOJOVACÍ
  6
Continuous
100
AcDbLine
 10
2763.475402050707
 20
-1053.319291238198
 30
0.0
 11
2763.097750679762
 21
-1053.697872787304
 31
0.0
  0
LINE
  5
DAC
330
1F
100
AcDbEntity
  8
SPOJOVACÍ
  6
Continuous
100
AcDbLine
 10
2759.350072397964
 20
-1052.346327355893
 30
0.0
 11
2759.728653946248
 21
-1051.968675982765
 31
0.0
  0
LINE
  5
DAD
330
1F
100
AcDbEntity
  8
SPOJOVACÍ
  6
Continuous
100
AcDbLine
 10
2759.350072397964
 20
-1052.346327355893
 30
0.0
 11
2759.728653946248
 21
-1052.56491866792
 31
0.0
  0
LINE
  5
DAE
330
1F
100
AcDbEntity
  8
SPOJOVACÍ
  6
Continuous
100
AcDbLine
 10
2759.473785778854
 20
-1039.531295417304
 30
0.0
 11
2763.518190138446
 21
-1040.890282255144
 31
0.0
  0
LINE
  5
DAF
330
1F
100
AcDbEntity
  8
SPOJOVACÍ
  6
Continuous
100
AcDbLine
 10
2759.473785778854
 20
-1040.127538102459
 30
0.0
 11
2763.518190138446
 21
-1041.486524940022
 31
0.0
  0
LINE
  5
DB0
330
1F
100
AcDbEntity
  8
SPOJOVACÍ
  6
Continuous
100
AcDbLine
 10
2763.895841509392
 20
-1041.108873567171
 30
0.0
 11
2763.518190138446
 21
-1040.890282255144
 31
0.0
  0
LINE
  5
DB1
330
1F
100
AcDbEntity
  8
SPOJOVACÍ
  6
Continuous
100
AcDbLine
 10
2763.895841509392
 20
-1041.108873567171
 30
0.0
 11
2763.518190138446
 21
-1041.486524940022
 31
0.0
  0
LINE
  5
DB2
330
1F
100
AcDbEntity
  8
SPOJOVACÍ
  6
Continuous
100
AcDbLine
 10
2759.096134403543
 20
-1039.908946790432
 30
0.0
 11
2759.473785778854
 21
-1039.531295417304
 31
0.0
  0
LINE
  5
DB3
330
1F
100
AcDbEntity
  8
SPOJOVACÍ
  6
Continuous
100
AcDbLine
 10
2759.096134403543
 20
-1039.908946790432
 30
0.0
 11
2759.473785778854
 21
-1040.127538102459
 31
0.0
  0
LINE
  5
DB4
330
1F
100
AcDbEntity
  8
SPOJOVACÍ
  6
Continuous
100
AcDbLine
 10
2759.096134403543
 20
-1039.908946790432
 30
0.0
 11
2763.895841509392
 21
-1041.108873567171
 31
0.0
  0
LINE
  5
DB5
330
1F
100
AcDbEntity
  8
SPOJOVACÍ
  6
Continuous
100
AcDbLine
 10
2759.473785778854
 20
-1036.41055562264
 30
0.0
 11
2763.518190138446
 21
-1037.770472635906
 31
0.0
  0
LINE
  5
DB6
330
1F
100
AcDbEntity
  8
SPOJOVACÍ
  6
Continuous
100
AcDbLine
 10
2759.473785778854
 20
-1037.006798307519
 30
0.0
 11
2763.518190138446
 21
-1038.366715321061
 31
0.0
  0
LINE
  5
DB7
330
1F
100
AcDbEntity
  8
SPOJOVACÍ
  6
Continuous
100
AcDbLine
 10
2763.895841509392
 20
-1037.989063947932
 30
0.0
 11
2763.518190138446
 21
-1037.770472635906
 31
0.0
  0
LINE
  5
DB8
330
1F
100
AcDbEntity
  8
SPOJOVACÍ
  6
Continuous
100
AcDbLine
 10
2763.895841509392
 20
-1037.989063947932
 30
0.0
 11
2763.518190138446
 21
-1038.366715321061
 31
0.0
  0
LINE
  5
DB9
330
1F
100
AcDbEntity
  8
SPOJOVACÍ
  6
Continuous
100
AcDbLine
 10
2759.096134403543
 20
-1036.78913717147
 30
0.0
 11
2759.473785778854
 21
-1036.41055562264
 31
0.0
  0
LINE
  5
DBA
330
1F
100
AcDbEntity
  8
SPOJOVACÍ
  6
Continuous
100
AcDbLine
 10
2759.096134403543
 20
-1036.78913717147
 30
0.0
 11
2759.473785778854
 21
-1037.006798307519
 31
0.0
  0
LINE
  5
DBB
330
1F
100
AcDbEntity
  8
SPOJOVACÍ
  6
Continuous
100
AcDbLine
 10
2759.096134403543
 20
-1036.78913717147
 30
0.0
 11
2763.895841509392
 21
-1037.989063947932
 31
0.0
  0
LINE
  5
DBC
330
1F
100
AcDbEntity
  8
SPOJOVACÍ
  6
Continuous
100
AcDbLine
 10
2762.60010662855
 20
-1052.9248967008
 30
0.0
 11
2762.845673040018
 21
-1050.953854189514
 31
0.0
  0
LINE
  5
DBD
330
1F
100
AcDbEntity
  8
SPOJOVACÍ
  6
Continuous
100
AcDbLine
 10
2762.261522635989
 20
-1055.631708266699
 30
0.0
 11
2762.528483091327
 21
-1053.495094463846
 31
0.0
  0
LINE
  5
DBE
330
1F
100
AcDbEntity
  8
SPOJOVACÍ
  6
Continuous
100
AcDbLine
 10
2761.92200847482
 20
-1058.348751766132
 30
0.0
 11
2762.189899103131
 21
-1056.203766381148
 31
0.0
  0
LINE
  5
DBF
330
1F
100
AcDbEntity
  8
SPOJOVACÍ
  6
Continuous
100
AcDbLine
 10
2761.109965002569
 20
-1058.665011536663
 30
0.0
 11
2761.495987956467
 21
-1061.754125354468
 31
0.0
  0
LINE
  5
DC0
330
1F
100
AcDbEntity
  8
SPOJOVACÍ
  6
Continuous
100
AcDbLine
 10
2760.742545564889
 20
-1055.723795670454
 30
0.0
 11
2761.032760410043
 21
-1058.044584280809
 31
0.0
  0
LINE
  5
DC1
330
1F
100
AcDbEntity
  8
SPOJOVACÍ
  6
Continuous
100
AcDbLine
 10
2760.373265772531
 20
-1052.771417694724
 30
0.0
 11
2760.663480622051
 21
-1055.093136480789
 31
0.0
  0
LINE
  5
DC2
330
1F
100
AcDbEntity
  8
SPOJOVACÍ
  6
Continuous
100
AcDbLine
 10
2761.495987956467
 20
-1061.754125354468
 30
0.0
 11
2761.850384937596
 21
-1058.918019353199
 31
0.0
  0
LINE
  5
DC3
330
1F
100
AcDbEntity
  8
SPOJOVACÍ
  6
Continuous
100
AcDbLine
 10
2760.146302877282
 20
-1050.953854189514
 30
0.0
 11
2760.296061180005
 21
-1052.150990438871
 31
0.0
  0
LINE
  5
DC4
330
1F
100
AcDbEntity
  8
SPOJOVACÍ
  6
Continuous
100
AcDbLine
 10
2762.845673040018
 20
-1050.617130551631
 30
0.0
 11
2762.845673040018
 21
-1050.953854189514
 31
0.0
  0
LINE
  5
DC5
330
1F
100
AcDbEntity
  8
SPOJOVACÍ
  6
Continuous
100
AcDbLine
 10
2762.845673040018
 20
-1047.494530405018
 30
0.0
 11
2762.845673040018
 21
-1050.013446460047
 31
0.0
  0
LINE
  5
DC6
330
1F
100
AcDbEntity
  8
SPOJOVACÍ
  6
Continuous
100
AcDbLine
 10
2760.146302877282
 20
-1049.706488447626
 30
0.0
 11
2760.146302877282
 21
-1050.953854189514
 31
0.0
  0
LINE
  5
DC7
330
1F
100
AcDbEntity
  8
SPOJOVACÍ
  6
Continuous
100
AcDbLine
 10
2760.146302877282
 20
-1046.592259883144
 30
0.0
 11
2760.146302877282
 21
-1049.110245762471
 31
0.0
  0
LINE
  5
DC8
330
1F
100
AcDbEntity
  8
SPOJOVACÍ
  6
Continuous
100
AcDbLine
 10
2762.845673040018
 20
-1044.372860434376
 30
0.0
 11
2762.845673040018
 21
-1046.893636841085
 31
0.0
  0
LINE
  5
DC9
330
1F
100
AcDbEntity
  8
SPOJOVACÍ
  6
Continuous
100
AcDbLine
 10
2762.845673040018
 20
-1041.250260288032
 30
0.0
 11
2762.845673040018
 21
-1043.778478100901
 31
0.0
  0
LINE
  5
DCA
330
1F
100
AcDbEntity
  8
SPOJOVACÍ
  6
Continuous
100
AcDbLine
 10
2762.845673040018
 20
-1038.135101547848
 30
0.0
 11
2762.845673040018
 21
-1040.654017602877
 31
0.0
  0
LINE
  5
DCB
330
1F
100
AcDbEntity
  8
SPOJOVACÍ
  6
Continuous
100
AcDbLine
 10
2760.146302877282
 20
-1043.459427802989
 30
0.0
 11
2760.146302877282
 21
-1045.987645615858
 31
0.0
  0
LINE
  5
DCC
330
1F
100
AcDbEntity
  8
SPOJOVACÍ
  6
Continuous
100
AcDbLine
 10
2760.146302877282
 20
-1040.344269062805
 30
0.0
 11
2760.146302877282
 21
-1042.865045469514
 31
0.0
  0
LINE
  5
DCD
330
1F
100
AcDbEntity
  8
SPOJOVACÍ
  6
Continuous
100
AcDbLine
 10
2760.146302877282
 20
-1037.221668916461
 30
0.0
 11
2760.146302877282
 21
-1039.74058497149
 31
0.0
  0
LINE
  5
DCE
330
1F
100
AcDbEntity
  8
SPOJOVACÍ
  6
Continuous
100
AcDbLine
 10
2760.146302877282
 20
-1032.588463277605
 30
0.0
 11
2760.146302877282
 21
-1036.626356407285
 31
0.0
  0
LINE
  5
DCF
330
1F
100
AcDbEntity
  8
SPOJOVACÍ
  6
Continuous
100
AcDbLine
 10
2762.845673040018
 20
-1032.588463277605
 30
0.0
 11
2762.845673040018
 21
-1037.531417456533
 31
0.0
  0
LINE
  5
DD0
330
1F
100
AcDbEntity
  8
SPOJOVACÍ
  6
Continuous
100
AcDbLine
 10
2756.395834067833
 20
-1027.188792783248
 30
0.0
 11
2757.745519151384
 21
-1027.932933419723
 31
0.0
  0
LINE
  5
DD1
330
1F
100
AcDbEntity
  8
SPOJOVACÍ
  6
Continuous
100
AcDbLine
 10
2757.745519151384
 20
-1027.932933419723
 30
0.0
 11
2758.856149051743
 21
-1029.001705409135
 31
0.0
  0
LINE
  5
DD2
330
1F
100
AcDbEntity
  8
SPOJOVACÍ
  6
Continuous
100
AcDbLine
 10
2758.856149051743
 20
-1029.001705409135
 30
0.0
 11
2759.652379531061
 21
-1030.320694687432
 31
0.0
  0
LINE
  5
DD3
330
1F
100
AcDbEntity
  8
SPOJOVACÍ
  6
Continuous
100
AcDbLine
 10
2759.652379531061
 20
-1030.320694687432
 30
0.0
 11
2760.08026039536
 21
-1031.801534554482
 31
0.0
  0
LINE
  5
DD4
330
1F
100
AcDbEntity
  8
SPOJOVACÍ
  6
Continuous
100
AcDbLine
 10
2760.08026039536
 20
-1031.801534554482
 30
0.0
 11
2760.146302877282
 21
-1032.588463277605
 31
0.0
  0
LINE
  5
DD5
330
1F
100
AcDbEntity
  8
SPOJOVACÍ
  6
Continuous
100
AcDbLine
 10
2764.643702850034
 20
-1028.443599931573
 30
0.0
 11
2765.880836658933
 21
-1027.525516421132
 31
0.0
  0
LINE
  5
DD6
330
1F
100
AcDbEntity
  8
SPOJOVACÍ
  6
Continuous
100
AcDbLine
 10
2765.880836658933
 20
-1027.525516421132
 30
0.0
 11
2766.596141845101
 21
-1027.188792783248
 31
0.0
  0
LINE
  5
DD7
330
1F
100
AcDbEntity
  8
SPOJOVACÍ
  6
Continuous
100
AcDbLine
 10
2756.395834067833
 20
-1027.188792783248
 30
0.0
 11
2766.596141845101
 21
-1027.188792783248
 31
0.0
  0
LINE
  5
DD8
330
1F
100
AcDbEntity
  8
SPOJOVACÍ
  6
Continuous
100
AcDbLine
 10
2756.395834067833
 20
-1025.988866006517
 30
0.0
 11
2756.395834067833
 21
-1027.188792783248
 31
0.0
  0
LINE
  5
DD9
330
1F
100
AcDbEntity
  8
SPOJOVACÍ
  6
Continuous
100
AcDbLine
 10
2756.395834067833
 20
-1025.988866006517
 30
0.0
 11
2766.596141845101
 21
-1025.988866006517
 31
0.0
  0
LINE
  5
DDA
330
1F
100
AcDbEntity
  8
SPOJOVACÍ
  6
Continuous
100
AcDbLine
 10
2766.596141845101
 20
-1025.988866006517
 30
0.0
 11
2766.596141845101
 21
-1027.188792783248
 31
0.0
  0
LINE
  5
DDB
330
1F
100
AcDbEntity
  8
SPOJOVACÍ
  6
Continuous
100
AcDbLine
 10
2762.845673040018
 20
-1032.588463277605
 30
0.0
 11
2763.072635930901
 21
-1031.064835324176
 31
0.0
  0
LINE
  5
DDC
330
1F
100
AcDbEntity
  8
SPOJOVACÍ
  6
Continuous
100
AcDbLine
 10
2763.072635930901
 20
-1031.064835324176
 30
0.0
 11
2763.685621780049
 21
-1029.650968114472
 31
0.0
  0
LINE
  5
DDD
330
1F
100
AcDbEntity
  8
SPOJOVACÍ
  6
Continuous
100
AcDbLine
 10
2763.685621780049
 20
-1029.650968114472
 30
0.0
 11
2764.643702850034
 21
-1028.443599931573
 31
0.0
  0
LINE
  5
DDE
330
1F
100
AcDbEntity
  8
NOSNÉ KONSTRUKCE
100
AcDbLine
 10
2756.622044963854
 20
-1069.079427361888
 30
0.0
 11
2755.122044963854
 21
-1069.079427361888
 31
0.0
  0
LINE
  5
DDF
102
{ACAD_REACTORS
330
9F5C
102
}
330
1F
100
AcDbEntity
  8
CETRIS
100
AcDbLine
 10
2664.673630299405
 20
-1126.221120291267
 30
0.0
 11
2433.983598843013
 21
-1126.221120291267
 31
0.0
  0
LINE
  5
DE0
102
{ACAD_REACTORS
330
9F5C
102
}
330
1F
100
AcDbEntity
  8
CETRIS
100
AcDbLine
 10
2664.673630299408
 20
-1114.221120291269
 30
0.0
 11
2434.660792262752
 21
-1114.221120291265
 31
0.0
  0
LINE
  5
DE1
330
1F
100
AcDbEntity
  8
CETRIS
100
AcDbLine
 10
2664.673630299408
 20
-1114.221120291265
 30
0.0
 11
2664.673630299405
 21
-1126.221120291267
 31
0.0
  0
LINE
  5
DE2
330
1F
100
AcDbEntity
  8
CETRIS
100
AcDbLine
 10
2664.673630299398
 20
-1025.988866006518
 30
0.0
 11
2439.639984096951
 21
-1025.988866006517
 31
0.0
  0
LINE
  5
DE3
330
1F
100
AcDbEntity
  8
CETRIS
100
AcDbLine
 10
2664.673630299398
 20
-1025.988866006516
 30
0.0
 11
2664.673630299401
 21
-1037.988866006516
 31
0.0
  0
LINE
  5
DE4
330
1F
100
AcDbEntity
  8
CETRIS
100
AcDbLine
 10
2664.673630299401
 20
-1037.988866006518
 30
0.0
 11
2438.962790677211
 21
-1037.988866006517
 31
0.0
  0
HATCH
  5
DE5
330
1F
100
AcDbEntity
  8
NOSNÉ KONSTRUKCE
100
AcDbHatch
 10
0.0
 20
0.0
 30
0.0
210
0.0
220
0.0
230
1.0
  2
SOLID
 70
     1
 71
     0
 91
        1
 92
        1
 93
       78
 72
     1
 10
2687.049644019529
 20
-1056.120705006651
 11
2685.549644019529
 21
-1056.120705006651
 72
     1
 10
2685.549644019529
 20
-1056.120705006651
 11
2685.549644019529
 21
-1052.159540620392
 72
     2
 10
2686.913698705082
 20
-1052.159433900659
 40
1.364054689724365
 50
179.9955173422458
 51
269.9956000565877
 73
     0
 72
     1
 10
2686.913593954546
 20
-1050.795379214956
 11
2694.070841956649
 21
-1050.795379214956
 72
     2
 10
2694.070855829095
 20
-1052.159355009735
 40
1.363975794848016
 50
269.9994172678322
 51
329.9993729338874
 73
     0
 72
     2
 10
2696.433435875804
 20
-1050.795300958791
 40
1.364105569629164
 50
210.0000213811482
 51
329.9999786188517
 73
     1
 72
     2
 10
2698.796015922513
 20
-1052.159355009739
 40
1.363975794852709
 50
210.0006270662067
 51
270.0005827322442
 73
     0
 72
     1
 10
2698.796029794959
 20
-1050.795379214956
 11
2706.838259286612
 21
-1050.795379214956
 72
     2
 10
2706.838273143179
 20
-1052.159354982232
 40
1.363975767345567
 50
269.999417934797
 51
329.9993736009129
 73
     0
 72
     2
 10
2709.200800311368
 20
-1050.795331479079
 40
1.36404452909372
 50
210.0000213811012
 51
329.9999786188988
 73
     1
 72
     2
 10
2711.563327495432
 20
-1052.159355009735
 40
1.363975794849071
 50
210.0006270661125
 51
270.0005827321678
 73
     0
 72
     1
 10
2711.563341367879
 20
-1050.795379214956
 11
2719.605570859536
 21
-1050.795379214956
 72
     2
 10
2719.605584731982
 20
-1052.159355009735
 40
1.363975794848016
 50
269.9994172678322
 51
329.9993729338874
 73
     0
 72
     2
 10
2721.968111900167
 20
-1050.795331488247
 40
1.364044510757576
 50
210.0000213811191
 51
329.9999786188807
 73
     1
 72
     2
 10
2724.330639068352
 20
-1052.159355009735
 40
1.363975794849071
 50
210.0006270661125
 51
270.0005827321678
 73
     0
 72
     1
 10
2724.330652940798
 20
-1050.795379214956
 11
2733.098630685248
 21
-1050.795379214956
 72
     2
 10
2733.098578797356
 20
-1052.159486763226
 40
1.364107549255989
 50
-89.99782058449961
 51
0.0022621297693665
 73
     0
 72
     1
 10
2734.46268634555
 20
-1052.159540620392
 11
2734.46268634555
 21
-1058.284415983664
 72
     2
 10
2733.098833587022
 20
-1058.28424851987
 40
1.363852768812942
 50
0.0070351938439996
 51
55.61870092099301
 73
     0
 72
     2
 10
2734.63961636946
 20
-1060.535529276505
 40
1.364200882607377
 50
124.3943922355888
 51
180.0060579627693
 73
     1
 72
     1
 10
2733.27541549448
 20
-1060.535673515369
 11
2733.27541549448
 21
-1064.35431041917
 72
     2
 10
2734.63921538849
 20
-1064.354243192578
 40
1.363799895663342
 50
180.0028243146427
 51
235.6144900418029
 73
     1
 72
     2
 10
2733.098432606044
 20
-1066.605523949212
 40
1.364253740215838
 50
-55.60981775010704
 51
0.0018479770308273
 73
     0
 72
     1
 10
2734.46268634555
 20
-1066.605567950875
 11
2734.46268634555
 21
-1084.989498504954
 72
     2
 10
2733.098432607921
 20
-1084.989542505627
 40
1.36425373834027
 50
-0.0018479354752011
 51
55.60981779166058
 73
     0
 72
     2
 10
2734.639215388483
 20
-1087.240823261272
 40
1.363799895660852
 50
124.3855099580709
 51
179.9971756852044
 73
     1
 72
     1
 10
2733.27541549448
 20
-1087.240756034676
 11
2733.27541549448
 21
-1091.059392940464
 72
     2
 10
2734.63961636946
 20
-1091.059537179328
 40
1.364200882606485
 50
179.9939420372306
 51
235.6056077644112
 73
     1
 72
     2
 10
2733.098833588903
 20
-1093.310817934969
 40
1.363852766929492
 50
-55.61870096270543
 51
-0.0070352355769481
 73
     0
 72
     1
 10
2734.46268634555
 20
-1093.310650470183
 11
2734.46268634555
 21
-1099.435525833454
 72
     2
 10
2733.098578796367
 20
-1099.435579691613
 40
1.364107550250173
 50
-0.0022621714831554
 51
89.99782054278576
 73
     0
 72
     1
 10
2733.098630685248
 20
-1100.799687240876
 11
2724.330652940798
 21
-1100.799687240876
 72
     2
 10
2724.330639070069
 20
-1099.435711445108
 40
1.363975795838488
 50
89.99941733996299
 51
149.9993730060832
 73
     0
 72
     2
 10
2721.968111900167
 20
-1100.799734965603
 40
1.364044510757576
 50
390.0000213811192
 51
509.9999786188807
 73
     1
 72
     2
 10
2719.605584730265
 20
-1099.435711445108
 40
1.363975795838583
 50
30.00062699391679
 51
90.00058266003701
 73
     0
 72
     1
 10
2719.605570859536
 20
-1100.799687240876
 11
2711.563341367879
 21
-1100.799687240876
 72
     2
 10
2711.563327497149
 20
-1099.435711445108
 40
1.363975795838488
 50
89.99941733996299
 51
149.9993730060832
 73
     0
 72
     2
 10
2709.200800311368
 20
-1100.799734974771
 40
1.36404452909372
 50
390.0000213811011
 51
509.9999786188988
 73
     1
 72
     2
 10
2706.838273141462
 20
-1099.435711472611
 40
1.363975768335302
 50
30.00062632689132
 51
90.00058199307209
 73
     0
 72
     1
 10
2706.838259286612
 20
-1100.799687240876
 11
2698.796029794959
 21
-1100.799687240876
 72
     2
 10
2698.79601592423
 20
-1099.435711445105
 40
1.363975795841882
 50
89.99941733988661
 51
149.999373005989
 73
     0
 72
     2
 10
2696.433435875804
 20
-1100.799765495059
 40
1.364105569629164
 50
390.0000213811482
 51
509.9999786188517
 73
     1
 72
     2
 10
2694.070855827378
 20
-1099.435711445108
 40
1.363975795838583
 50
30.00062699391679
 51
90.00058266003701
 73
     0
 72
     1
 10
2694.070841956649
 20
-1100.799687240876
 11
2686.913699646893
 21
-1100.799687240876
 72
     2
 10
2686.913751568716
 20
-1099.435579691617
 40
1.364107550249196
 50
90.00217945721423
 51
180.0022621714831
 73
     0
 72
     1
 10
2685.549644019529
 20
-1099.435525833458
 11
2685.549644019529
 21
-1095.474361447202
 72
     1
 10
2685.549644019529
 20
-1095.474361447202
 11
2687.049644019529
 21
-1095.474361447202
 72
     1
 10
2687.049644019529
 20
-1095.474361447202
 11
2687.049644019529
 21
-1098.29968724088
 72
     2
 10
2688.049644019529
 20
-1098.29968724088
 40
1.0
 50
180.0
 51
270.0
 73
     1
 72
     1
 10
2688.049644019529
 20
-1099.29968724088
 11
2693.993586301481
 21
-1099.299687240876
 72
     2
 10
2696.433435875804
 20
-1100.799765495052
 40
2.864105569627733
 50
211.5842014864361
 51
328.4157985135637
 73
     0
 72
     1
 10
2698.873285450126
 20
-1099.299687240876
 11
2706.76100362708
 21
-1099.299687240876
 72
     2
 10
2709.200800311371
 20
-1100.799734974771
 40
2.864044529094826
 50
211.5842355323783
 51
328.4157644675406
 73
     0
 72
     1
 10
2711.640596995659
 20
-1099.299687240873
 11
2719.528315231766
 21
-1099.299687240876
 72
     2
 10
2721.968111900167
 20
-1100.799734965607
 40
2.864044510759085
 50
211.5842355426949
 51
328.415764457305
 73
     0
 72
     1
 10
2724.407908568568
 20
-1099.299687240876
 11
2731.96268634555
 21
-1099.299687240876
 72
     2
 10
2731.96268634555
 20
-1098.299687240877
 40
1.0
 50
270.0
 51
360.0
 73
     1
 72
     1
 10
2732.96268634555
 20
-1098.299687240877
 11
2732.96268634555
 21
-1093.381508839542
 72
     2
 10
2734.639616369457
 20
-1091.059537179331
 40
2.864200882602513
 50
125.8368500797323
 51
180.0041807823925
 73
     0
 72
     1
 10
2731.775415494479
 20
-1091.059328183124
 11
2731.775415494479
 21
-1087.240756034676
 72
     2
 10
2733.275415512931
 20
-1087.240756039427
 40
1.500000018450919
 50
180.0000001814824
 51
180.0028244959367
 73
     0
 72
     2
 10
2734.639215388475
 20
-1087.240823261265
 40
2.863799895650613
 50
180.0028243144894
 51
234.1672517372337
 73
     0
 72
     1
 10
2732.96268634555
 20
-1084.919056647119
 11
2732.96268634555
 21
-1066.676009806728
 72
     2
 10
2734.639215388475
 20
-1064.354243192582
 40
2.863799895650137
 50
125.8327482627515
 51
179.9971756855105
 73
     0
 72
     2
 10
2733.27541544374
 20
-1064.354310414423
 40
1.499999949261109
 50
179.9971755040718
 51
179.9999998185175
 73
     0
 72
     1
 10
2731.775415494479
 20
-1064.354310419174
 11
2731.775415494479
 21
-1060.535738275819
 72
     2
 10
2734.63961636946
 20
-1060.535529276501
 40
2.864200882605558
 50
179.9958191553853
 51
234.1631499202233
 73
     0
 72
     1
 10
2732.96268634555
 20
-1058.213557616291
 11
2732.96268634555
 21
-1053.295379214956
 72
     2
 10
2731.96268634555
 20
-1053.295379214956
 40
1.0
 50
360.0
 51
450.0
 73
     1
 72
     1
 10
2731.96268634555
 20
-1052.295379214956
 11
2724.407908567349
 21
-1052.295379214956
 72
     2
 10
2721.968111900167
 20
-1050.795331488243
 40
2.864044510759331
 50
31.58423558925327
 51
148.4157644107467
 73
     0
 72
     1
 10
2719.528315232984
 20
-1052.295379214956
 11
2711.640596994437
 21
-1052.295379214956
 72
     2
 10
2709.200800311368
 20
-1050.795331479075
 40
2.864044529094653
 50
31.5842355790273
 51
148.4157644209726
 73
     0
 72
     1
 10
2706.761003628298
 20
-1052.295379214956
 11
2698.873285448904
 21
-1052.295379214956
 72
     2
 10
2696.433435875808
 20
-1050.795300958787
 40
2.864105569629046
 50
31.5842015332367
 51
148.4157984667633
 73
     0
 72
     1
 10
2693.993586302708
 20
-1052.295379214956
 11
2688.049644019529
 21
-1052.295379214956
 72
     2
 10
2688.049644019529
 20
-1053.295379214956
 40
1.0
 50
450.0
 51
540.0
 73
     1
 72
     1
 10
2687.049644019529
 20
-1053.295379214956
 11
2687.049644019529
 21
-1056.120705006651
 97
        0
 75
     0
 76
     1
 98
        1
 10
-1515.911390694795
 20
-30112.97878454018
  0
LINE
  5
DE6
330
1F
100
AcDbEntity
  8
CETRIS
100
AcDbLine
 10
2674.673630299386
 20
-1114.221120291265
 30
0.0
 11
2674.67363029939
 21
-1126.221120291267
 31
0.0
  0
LINE
  5
DE7
330
1F
100
AcDbEntity
  8
CETRIS
100
AcDbLine
 10
2674.673630299397
 20
-1025.988866006516
 30
0.0
 11
2674.673630299394
 21
-1037.988866006516
 31
0.0
  0
LINE
  5
DE9
102
{ACAD_REACTORS
330
9F5C
102
}
330
1F
100
AcDbEntity
  8
CETRIS
100
AcDbLine
 10
2603.914002579954
 20
-1051.261458591866
 30
0.0
 11
2735.433258018859
 21
-1051.261458591867
 31
0.0
  0
LINE
  5
DEA
102
{ACAD_REACTORS
330
9F5C
102
}
330
1F
100
AcDbEntity
  8
CETRIS
100
AcDbLine
 10
2603.914002579951
 20
-1039.261458591867
 30
0.0
 11
2735.433258018862
 21
-1039.261458591867
 31
0.0
  0
LINE
  5
E48
330
1F
100
AcDbEntity
  8
CETRIS
100
AcDbLine
 10
2674.673630299394
 20
-1037.988866006516
 30
0.0
 11
2912.802889292896
 21
-1037.988866006517
 31
0.0
  0
LINE
  5
E49
330
1F
100
AcDbEntity
  8
CETRIS
100
AcDbLine
 10
2674.448168364536
 20
-1025.829631809714
 30
0.0
 11
2913.47981734507
 21
-1025.99356837172
 31
0.0
  0
LINE
  5
EA5
102
{ACAD_REACTORS
330
9F5C
102
}
330
1F
100
AcDbEntity
  8
CETRIS
100
AcDbLine
 10
2674.673630299386
 20
-1114.221120291266
 30
0.0
 11
2908.500890878437
 21
-1114.221120291266
 31
0.0
  0
LINE
  5
EA6
102
{ACAD_REACTORS
330
9F5C
102
}
330
1F
100
AcDbEntity
  8
CETRIS
100
AcDbLine
 10
2674.448168364537
 20
-1126.09811102683
 30
0.0
 11
2907.823661572964
 21
-1126.221756193486
 31
0.0
  0
TEXT
  5
15B2
330
1F
100
AcDbEntity
  8
POPIS
100
AcDbText
 10
2416.818744250861
 20
-835.9241610982772
 30
0.0
 40
45.0
  1
Požárně dělící příčka (stěna) - jednovrstvé opláštění
 41
0.7
  7
SIMPLEX7
100
AcDbText
  0
MTEXT
  5
1694
330
1F
100
AcDbEntity
  8
POPIS
100
AcDbMText
 10
2693.420643852629
 20
-1194.219443697684
 30
0.0
 40
20.0
 41
0.0
 71
     5
 72
     1
  1
{\fArial|b0|i0|c238|p34;>5}
 73
     1
 44
1.0
  0
LINE
  5
16A8
102
{ACAD_REACTORS
330
9E7B
102
}
330
1F
100
AcDbEntity
  8
SPOJOVACÍ
  6
Continuous
100
AcDbLine
 10
2697.439175425716
 20
-1102.833825719043
 30
0.0
 11
2697.816826801027
 21
-1102.616164582994
 31
0.0
  0
LINE
  5
16A9
102
{ACAD_REACTORS
330
9E7B
102
}
330
1F
100
AcDbEntity
  8
SPOJOVACÍ
  6
Continuous
100
AcDbLine
 10
2701.188714062191
 20
-1104.608601137605
 30
0.0
 11
2701.188714062191
 21
-1102.089685082576
 31
0.0
  0
LINE
  5
16AA
102
{ACAD_REACTORS
330
9E7B
102
}
330
1F
100
AcDbEntity
  8
SPOJOVACÍ
  6
Continuous
100
AcDbLine
 10
2697.816826801027
 20
-1103.212407268149
 30
0.0
 11
2701.86123116062
 21
-1101.852490254607
 31
0.0
  0
LINE
  5
16AB
102
{ACAD_REACTORS
330
9E7B
102
}
330
1F
100
AcDbEntity
  8
SPOJOVACÍ
  6
Continuous
100
AcDbLine
 10
2697.439175425716
 20
-1102.833825719043
 30
0.0
 11
2702.238882531565
 21
-1101.63389894258
 31
0.0
  0
LINE
  5
16AC
102
{ACAD_REACTORS
330
9F5C
102
}
330
1F
100
AcDbEntity
  8
SPOJOVACÍ
  6
Continuous
100
AcDbLine
 10
2694.738875090006
 20
-1124.914338759374
 30
0.0
 11
2696.088560173557
 21
-1124.1701981229
 31
0.0
  0
LINE
  5
16AD
102
{ACAD_REACTORS
330
9E7B
102
}
330
1F
100
AcDbEntity
  8
SPOJOVACÍ
  6
Continuous
100
AcDbLine
 10
2697.439175425716
 20
-1102.833825719043
 30
0.0
 11
2697.816826801027
 21
-1103.212407268149
 31
0.0
  0
LINE
  5
16AE
102
{ACAD_REACTORS
330
9E7B
102
}
330
1F
100
AcDbEntity
  8
SPOJOVACÍ
  6
Continuous
100
AcDbLine
 10
2697.439175425716
 20
-1105.954565513983
 30
0.0
 11
2697.816826801027
 21
-1106.332216887111
 31
0.0
  0
LINE
  5
16AF
102
{ACAD_REACTORS
330
9E7B
102
}
330
1F
100
AcDbEntity
  8
SPOJOVACÍ
  6
Continuous
100
AcDbLine
 10
2697.439175425716
 20
-1105.954565513983
 30
0.0
 11
2697.816826801027
 21
-1105.735974201964
 31
0.0
  0
LINE
  5
16B0
102
{ACAD_REACTORS
330
9E7B
102
}
330
1F
100
AcDbEntity
  8
SPOJOVACÍ
  6
Continuous
100
AcDbLine
 10
2697.439175425716
 20
-1109.074375132952
 30
0.0
 11
2697.816826801027
 21
-1109.45202650608
 31
0.0
  0
LINE
  5
16B1
102
{ACAD_REACTORS
330
9E7B
102
}
330
1F
100
AcDbEntity
  8
SPOJOVACÍ
  6
Continuous
100
AcDbLine
 10
2697.439175425716
 20
-1109.074375132952
 30
0.0
 11
2697.816826801027
 21
-1108.855783820925
 31
0.0
  0
LINE
  5
16B2
102
{ACAD_REACTORS
330
9E7B
102
}
330
1F
100
AcDbEntity
  8
SPOJOVACÍ
  6
Continuous
100
AcDbLine
 10
2697.439175425716
 20
-1112.19418475219
 30
0.0
 11
2697.816826801027
 21
-1112.571836125318
 31
0.0
  0
LINE
  5
16B3
102
{ACAD_REACTORS
330
9E7B
102
}
330
1F
100
AcDbEntity
  8
SPOJOVACÍ
  6
Continuous
100
AcDbLine
 10
2697.439175425716
 20
-1112.19418475219
 30
0.0
 11
2697.816826801027
 21
-1111.975593440164
 31
0.0
  0
LINE
  5
16B4
102
{ACAD_REACTORS
330
9F5C
102
}
330
1F
100
AcDbEntity
  8
SPOJOVACÍ
  6
Continuous
100
AcDbLine
 10
2697.439175425716
 20
-1115.313994371152
 30
0.0
 11
2697.816826801027
 21
-1115.692575919982
 31
0.0
  0
LINE
  5
16B5
102
{ACAD_REACTORS
330
9F5C
102
}
330
1F
100
AcDbEntity
  8
SPOJOVACÍ
  6
Continuous
100
AcDbLine
 10
2697.439175425716
 20
-1115.313994371152
 30
0.0
 11
2697.816826801027
 21
-1115.096333235104
 31
0.0
  0
LINE
  5
16B6
102
{ACAD_REACTORS
330
9E7B
102
}
330
1F
100
AcDbEntity
  8
SPOJOVACÍ
  6
Continuous
100
AcDbLine
 10
2698.489343899455
 20
-1105.510871659479
 30
0.0
 11
2698.489343899455
 21
-1102.992885780152
 31
0.0
  0
LINE
  5
16B7
102
{ACAD_REACTORS
330
9E7B
102
}
330
1F
100
AcDbEntity
  8
SPOJOVACÍ
  6
Continuous
100
AcDbLine
 10
2701.188714062191
 20
-1107.730271108247
 30
0.0
 11
2701.188714062191
 21
-1105.209494701538
 31
0.0
  0
LINE
  5
16B8
102
{ACAD_REACTORS
330
9E7B
102
}
330
1F
100
AcDbEntity
  8
SPOJOVACÍ
  6
Continuous
100
AcDbLine
 10
2701.188714062191
 20
-1110.85287125459
 30
0.0
 11
2701.188714062191
 21
-1108.324653441721
 31
0.0
  0
LINE
  5
16B9
102
{ACAD_REACTORS
330
9E7B
102
}
330
1F
100
AcDbEntity
  8
SPOJOVACÍ
  6
Continuous
100
AcDbLine
 10
2701.188714062191
 20
-1113.968029994774
 30
0.0
 11
2701.188714062191
 21
-1111.449113939745
 31
0.0
  0
LINE
  5
16BA
102
{ACAD_REACTORS
330
9E7B
102
}
330
1F
100
AcDbEntity
  8
SPOJOVACÍ
  6
Continuous
100
AcDbLine
 10
2698.489343899455
 20
-1108.643703739634
 30
0.0
 11
2698.489343899455
 21
-1106.115485926765
 31
0.0
  0
LINE
  5
16BB
102
{ACAD_REACTORS
330
9E7B
102
}
330
1F
100
AcDbEntity
  8
SPOJOVACÍ
  6
Continuous
100
AcDbLine
 10
2698.489343899455
 20
-1111.758862479817
 30
0.0
 11
2698.489343899455
 21
-1109.238086073108
 31
0.0
  0
LINE
  5
16BC
102
{ACAD_REACTORS
330
9E7B
330
9F5C
102
}
330
1F
100
AcDbEntity
  8
SPOJOVACÍ
  6
Continuous
100
AcDbLine
 10
2698.489343899455
 20
-1114.881462626161
 30
0.0
 11
2698.489343899455
 21
-1112.362546571132
 31
0.0
  0
LINE
  5
16BD
102
{ACAD_REACTORS
330
9F5C
102
}
330
1F
100
AcDbEntity
  8
SPOJOVACÍ
  6
Continuous
100
AcDbLine
 10
2698.489343899455
 20
-1119.514668265017
 30
0.0
 11
2698.489343899455
 21
-1115.476775135338
 31
0.0
  0
LINE
  5
16BE
102
{ACAD_REACTORS
330
9F5C
102
}
330
1F
100
AcDbEntity
  8
SPOJOVACÍ
  6
Continuous
100
AcDbLine
 10
2701.188714062191
 20
-1119.514668265017
 30
0.0
 11
2701.188714062191
 21
-1114.571714086089
 31
0.0
  0
LINE
  5
16BF
102
{ACAD_REACTORS
330
9F5C
102
}
330
1F
100
AcDbEntity
  8
SPOJOVACÍ
  6
Continuous
100
AcDbLine
 10
2696.088560173557
 20
-1124.1701981229
 30
0.0
 11
2697.199190073916
 21
-1123.101426133488
 31
0.0
  0
LINE
  5
16C0
102
{ACAD_REACTORS
330
9F5C
102
}
330
1F
100
AcDbEntity
  8
SPOJOVACÍ
  6
Continuous
100
AcDbLine
 10
2697.199190073916
 20
-1123.101426133488
 30
0.0
 11
2697.995420553234
 21
-1121.78243685519
 31
0.0
  0
LINE
  5
16C1
102
{ACAD_REACTORS
330
9F5C
102
}
330
1F
100
AcDbEntity
  8
SPOJOVACÍ
  6
Continuous
100
AcDbLine
 10
2697.995420553234
 20
-1121.78243685519
 30
0.0
 11
2698.423301417534
 21
-1120.30159698814
 31
0.0
  0
LINE
  5
16C2
102
{ACAD_REACTORS
330
9F5C
102
}
330
1F
100
AcDbEntity
  8
SPOJOVACÍ
  6
Continuous
100
AcDbLine
 10
2698.423301417534
 20
-1120.30159698814
 30
0.0
 11
2698.489343899455
 21
-1119.514668265017
 31
0.0
  0
LINE
  5
16C3
102
{ACAD_REACTORS
330
9F5C
102
}
330
1F
100
AcDbEntity
  8
SPOJOVACÍ
  6
Continuous
100
AcDbLine
 10
2701.188714062191
 20
-1119.514668265017
 30
0.0
 11
2701.415676953075
 21
-1121.038296218447
 31
0.0
  0
LINE
  5
16C4
102
{ACAD_REACTORS
330
9E7B
102
}
330
1F
100
AcDbEntity
  8
SPOJOVACÍ
  6
Continuous
100
AcDbLine
 10
2702.238882531565
 20
-1104.754638737521
 30
0.0
 11
2701.86123116062
 21
-1104.972299873569
 31
0.0
  0
LINE
  5
16C5
102
{ACAD_REACTORS
330
9E7B
102
}
330
1F
100
AcDbEntity
  8
SPOJOVACÍ
  6
Continuous
100
AcDbLine
 10
2702.238882531565
 20
-1104.754638737521
 30
0.0
 11
2701.86123116062
 21
-1104.376057188691
 31
0.0
  0
LINE
  5
16C6
102
{ACAD_REACTORS
330
9E7B
102
}
330
1F
100
AcDbEntity
  8
SPOJOVACÍ
  6
Continuous
100
AcDbLine
 10
2702.238882531565
 20
-1107.87444835649
 30
0.0
 11
2701.86123116062
 21
-1108.092109492807
 31
0.0
  0
LINE
  5
16C7
102
{ACAD_REACTORS
330
9E7B
102
}
330
1F
100
AcDbEntity
  8
SPOJOVACÍ
  6
Continuous
100
AcDbLine
 10
2702.238882531565
 20
-1107.87444835649
 30
0.0
 11
2701.86123116062
 21
-1107.49586680766
 31
0.0
  0
LINE
  5
16C8
102
{ACAD_REACTORS
330
9E7B
102
}
330
1F
100
AcDbEntity
  8
SPOJOVACÍ
  6
Continuous
100
AcDbLine
 10
2702.238882531565
 20
-1110.994257975452
 30
0.0
 11
2701.86123116062
 21
-1111.212849287478
 31
0.0
  0
LINE
  5
16C9
102
{ACAD_REACTORS
330
9E7B
102
}
330
1F
100
AcDbEntity
  8
SPOJOVACÍ
  6
Continuous
100
AcDbLine
 10
2702.238882531565
 20
-1110.994257975452
 30
0.0
 11
2701.86123116062
 21
-1110.6166066026
 31
0.0
  0
LINE
  5
16CA
102
{ACAD_REACTORS
330
9F5C
102
}
330
1F
100
AcDbEntity
  8
SPOJOVACÍ
  6
Continuous
100
AcDbLine
 10
2702.238882531565
 20
-1114.11406759469
 30
0.0
 11
2701.86123116062
 21
-1114.332658906717
 31
0.0
  0
LINE
  5
16CB
330
1F
100
AcDbEntity
  8
SPOJOVACÍ
  6
Continuous
100
AcDbLine
 10
2702.238882531565
 20
-1114.11406759469
 30
0.0
 11
2701.86123116062
 21
-1113.736416221562
 31
0.0
  0
LINE
  5
16CC
102
{ACAD_REACTORS
330
9F5C
102
}
330
1F
100
AcDbEntity
  8
SPOJOVACÍ
  6
Continuous
100
AcDbLine
 10
2702.028662802222
 20
-1122.45216342815
 30
0.0
 11
2702.986743872207
 21
-1123.659531611049
 31
0.0
  0
LINE
  5
16CD
102
{ACAD_REACTORS
330
9E7B
102
}
330
1F
100
AcDbEntity
  8
SPOJOVACÍ
  6
Continuous
100
AcDbLine
 10
2697.816826801027
 20
-1106.332216887111
 30
0.0
 11
2701.86123116062
 21
-1104.972299873569
 31
0.0
  0
LINE
  5
16CE
102
{ACAD_REACTORS
330
9E7B
102
}
330
1F
100
AcDbEntity
  8
SPOJOVACÍ
  6
Continuous
100
AcDbLine
 10
2697.816826801027
 20
-1105.735974201964
 30
0.0
 11
2701.86123116062
 21
-1104.376057188691
 31
0.0
  0
LINE
  5
16CF
330
1F
100
AcDbEntity
  8
SPOJOVACÍ
  6
Continuous
100
AcDbLine
 10
2697.439175425716
 20
-1105.954565513983
 30
0.0
 11
2702.238882531565
 21
-1104.754638737521
 31
0.0
  0
LINE
  5
16D0
102
{ACAD_REACTORS
330
9E7B
102
}
330
1F
100
AcDbEntity
  8
SPOJOVACÍ
  6
Continuous
100
AcDbLine
 10
2697.816826801027
 20
-1109.45202650608
 30
0.0
 11
2701.86123116062
 21
-1108.092109492807
 31
0.0
  0
LINE
  5
16D1
102
{ACAD_REACTORS
330
9E7B
102
}
330
1F
100
AcDbEntity
  8
SPOJOVACÍ
  6
Continuous
100
AcDbLine
 10
2697.816826801027
 20
-1108.855783820925
 30
0.0
 11
2701.86123116062
 21
-1107.49586680766
 31
0.0
  0
LINE
  5
16D2
330
1F
100
AcDbEntity
  8
SPOJOVACÍ
  6
Continuous
100
AcDbLine
 10
2697.439175425716
 20
-1109.074375132952
 30
0.0
 11
2702.238882531565
 21
-1107.87444835649
 31
0.0
  0
LINE
  5
16D3
102
{ACAD_REACTORS
330
9E7B
102
}
330
1F
100
AcDbEntity
  8
SPOJOVACÍ
  6
Continuous
100
AcDbLine
 10
2697.816826801027
 20
-1112.571836125318
 30
0.0
 11
2701.86123116062
 21
-1111.212849287478
 31
0.0
  0
LINE
  5
16D4
102
{ACAD_REACTORS
330
9E7B
102
}
330
1F
100
AcDbEntity
  8
SPOJOVACÍ
  6
Continuous
100
AcDbLine
 10
2697.816826801027
 20
-1111.975593440164
 30
0.0
 11
2701.86123116062
 21
-1110.6166066026
 31
0.0
  0
LINE
  5
16D5
330
1F
100
AcDbEntity
  8
SPOJOVACÍ
  6
Continuous
100
AcDbLine
 10
2697.439175425716
 20
-1112.19418475219
 30
0.0
 11
2702.238882531565
 21
-1110.994257975452
 31
0.0
  0
LINE
  5
16D6
102
{ACAD_REACTORS
330
9F5C
102
}
330
1F
100
AcDbEntity
  8
SPOJOVACÍ
  6
Continuous
100
AcDbLine
 10
2697.816826801027
 20
-1115.692575919982
 30
0.0
 11
2701.86123116062
 21
-1114.332658906717
 31
0.0
  0
LINE
  5
16D7
102
{ACAD_REACTORS
330
9F5C
102
}
330
1F
100
AcDbEntity
  8
SPOJOVACÍ
  6
Continuous
100
AcDbLine
 10
2697.816826801027
 20
-1115.096333235104
 30
0.0
 11
2701.86123116062
 21
-1113.736416221562
 31
0.0
  0
LINE
  5
16D8
330
1F
100
AcDbEntity
  8
SPOJOVACÍ
  6
Continuous
100
AcDbLine
 10
2697.439175425716
 20
-1115.313994371152
 30
0.0
 11
2702.238882531565
 21
-1114.11406759469
 31
0.0
  0
LINE
  5
16D9
102
{ACAD_REACTORS
330
9F5C
102
}
330
1F
100
AcDbEntity
  8
SPOJOVACÍ
  6
Continuous
100
AcDbLine
 10
2701.415676953075
 20
-1121.038296218447
 30
0.0
 11
2702.028662802222
 21
-1122.45216342815
 31
0.0
  0
LINE
  5
16DA
102
{ACAD_REACTORS
330
9F5C
102
}
330
1F
100
AcDbEntity
  8
SPOJOVACÍ
  6
Continuous
100
AcDbLine
 10
2694.738875090006
 20
-1126.114265536106
 30
0.0
 11
2694.738875090006
 21
-1124.914338759374
 31
0.0
  0
LINE
  5
16DC
330
1F
100
AcDbEntity
  8
SPOJOVACÍ
  6
Continuous
100
AcDbLine
 10
2698.822346836714
 20
-1093.728334854111
 30
0.0
 11
2700.976633978171
 21
-1093.417656138337
 31
0.0
  0
LINE
  5
16DD
330
1F
100
AcDbEntity
  8
SPOJOVACÍ
  6
Continuous
100
AcDbLine
 10
2699.19999820766
 20
-1094.105986227239
 30
0.0
 11
2700.598982607226
 21
-1093.635317274655
 31
0.0
  0
LINE
  5
16DE
330
1F
100
AcDbEntity
  8
SPOJOVACÍ
  6
Continuous
100
AcDbLine
 10
2699.19999820766
 20
-1093.509743542092
 30
0.0
 11
2700.598982607226
 21
-1093.039074589507
 31
0.0
  0
LINE
  5
16DF
330
1F
100
AcDbEntity
  8
SPOJOVACÍ
  6
Continuous
100
AcDbLine
 10
2700.976633978171
 20
-1093.417656138337
 30
0.0
 11
2700.598982607226
 21
-1093.635317274655
 31
0.0
  0
LINE
  5
16E0
330
1F
100
AcDbEntity
  8
SPOJOVACÍ
  6
Continuous
100
AcDbLine
 10
2700.976633978171
 20
-1093.417656138337
 30
0.0
 11
2700.598982607226
 21
-1093.039074589507
 31
0.0
  0
LINE
  5
16E1
330
1F
100
AcDbEntity
  8
SPOJOVACÍ
  6
Continuous
100
AcDbLine
 10
2698.822346836714
 20
-1093.728334854111
 30
0.0
 11
2699.19999820766
 21
-1094.105986227239
 31
0.0
  0
LINE
  5
16E2
330
1F
100
AcDbEntity
  8
SPOJOVACÍ
  6
Continuous
100
AcDbLine
 10
2698.822346836714
 20
-1093.728334854111
 30
0.0
 11
2699.19999820766
 21
-1093.509743542092
 31
0.0
  0
LINE
  5
16E3
330
1F
100
AcDbEntity
  8
SPOJOVACÍ
  6
Continuous
100
AcDbLine
 10
2698.257730126243
 20
-1096.742104432431
 30
0.0
 11
2701.373819042674
 21
-1096.108654715661
 31
0.0
  0
LINE
  5
16E4
330
1F
100
AcDbEntity
  8
SPOJOVACÍ
  6
Continuous
100
AcDbLine
 10
2698.635381501554
 20
-1097.120685981538
 30
0.0
 11
2700.996167671728
 21
-1096.326315851709
 31
0.0
  0
LINE
  5
16E5
330
1F
100
AcDbEntity
  8
SPOJOVACÍ
  6
Continuous
100
AcDbLine
 10
2698.635381501554
 20
-1096.524443296383
 30
0.0
 11
2700.996167671728
 21
-1095.730073166831
 31
0.0
  0
LINE
  5
16E6
330
1F
100
AcDbEntity
  8
SPOJOVACÍ
  6
Continuous
100
AcDbLine
 10
2701.373819042674
 20
-1096.108654715661
 30
0.0
 11
2700.996167671728
 21
-1096.326315851709
 31
0.0
  0
LINE
  5
16E7
330
1F
100
AcDbEntity
  8
SPOJOVACÍ
  6
Continuous
100
AcDbLine
 10
2701.373819042674
 20
-1096.108654715661
 30
0.0
 11
2700.996167671728
 21
-1095.730073166831
 31
0.0
  0
LINE
  5
16E8
330
1F
100
AcDbEntity
  8
SPOJOVACÍ
  6
Continuous
100
AcDbLine
 10
2698.257730126243
 20
-1096.742104432431
 30
0.0
 11
2698.635381501554
 21
-1097.120685981538
 31
0.0
  0
LINE
  5
16E9
330
1F
100
AcDbEntity
  8
SPOJOVACÍ
  6
Continuous
100
AcDbLine
 10
2698.257730126243
 20
-1096.742104432431
 30
0.0
 11
2698.635381501554
 21
-1096.524443296383
 31
0.0
  0
LINE
  5
16EA
330
1F
100
AcDbEntity
  8
SPOJOVACÍ
  6
Continuous
100
AcDbLine
 10
2698.071694968421
 20
-1100.134455559857
 30
0.0
 11
2701.440791701934
 21
-1099.001501440473
 31
0.0
  0
LINE
  5
16EB
330
1F
100
AcDbEntity
  8
SPOJOVACÍ
  6
Continuous
100
AcDbLine
 10
2698.071694968421
 20
-1099.538212874702
 30
0.0
 11
2701.440791701934
 21
-1098.405258755318
 31
0.0
  0
LINE
  5
16EC
330
1F
100
AcDbEntity
  8
SPOJOVACÍ
  6
Continuous
100
AcDbLine
 10
2697.693113420137
 20
-1099.756804186729
 30
0.0
 11
2698.071694968421
 21
-1100.134455559857
 31
0.0
  0
LINE
  5
16ED
330
1F
100
AcDbEntity
  8
SPOJOVACÍ
  6
Continuous
100
AcDbLine
 10
2697.693113420137
 20
-1099.756804186729
 30
0.0
 11
2698.071694968421
 21
-1099.538212874702
 31
0.0
  0
LINE
  5
16EE
330
1F
100
AcDbEntity
  8
SPOJOVACÍ
  6
Continuous
100
AcDbLine
 10
2700.943147650724
 20
-1099.178234841822
 30
0.0
 11
2701.188714062191
 21
-1101.149277353108
 31
0.0
  0
LINE
  5
16EF
330
1F
100
AcDbEntity
  8
SPOJOVACÍ
  6
Continuous
100
AcDbLine
 10
2700.604563658162
 20
-1096.471423275923
 30
0.0
 11
2700.8715241135
 21
-1098.608037078777
 31
0.0
  0
LINE
  5
16F0
330
1F
100
AcDbEntity
  8
SPOJOVACÍ
  6
Continuous
100
AcDbLine
 10
2700.265049496993
 20
-1093.75437977649
 30
0.0
 11
2700.532940125304
 21
-1095.899365161475
 31
0.0
  0
LINE
  5
16F1
330
1F
100
AcDbEntity
  8
SPOJOVACÍ
  6
Continuous
100
AcDbLine
 10
2699.453006024742
 20
-1093.43812000596
 30
0.0
 11
2699.83902897864
 21
-1090.349006188155
 31
0.0
  0
LINE
  5
16F2
330
1F
100
AcDbEntity
  8
SPOJOVACÍ
  6
Continuous
100
AcDbLine
 10
2699.085586587062
 20
-1096.379335872169
 30
0.0
 11
2699.375801432216
 21
-1094.058547261813
 31
0.0
  0
LINE
  5
16F3
330
1F
100
AcDbEntity
  8
SPOJOVACÍ
  6
Continuous
100
AcDbLine
 10
2698.716306794704
 20
-1099.331713847898
 30
0.0
 11
2699.006521644224
 21
-1097.009995061833
 31
0.0
  0
LINE
  5
16F4
330
1F
100
AcDbEntity
  8
SPOJOVACÍ
  6
Continuous
100
AcDbLine
 10
2699.83902897864
 20
-1090.349006188155
 30
0.0
 11
2700.193425959769
 21
-1093.185112189423
 31
0.0
  0
LINE
  5
16F5
330
1F
100
AcDbEntity
  8
SPOJOVACÍ
  6
Continuous
100
AcDbLine
 10
2698.489343899455
 20
-1101.149277353108
 30
0.0
 11
2698.639102202178
 21
-1099.952141103751
 31
0.0
  0
LINE
  5
16F6
330
1F
100
AcDbEntity
  8
SPOJOVACÍ
  6
Continuous
100
AcDbLine
 10
2701.188714062191
 20
-1101.486000990992
 30
0.0
 11
2701.188714062191
 21
-1101.149277353108
 31
0.0
  0
LINE
  5
16F7
102
{ACAD_REACTORS
330
9E7B
102
}
330
1F
100
AcDbEntity
  8
SPOJOVACÍ
  6
Continuous
100
AcDbLine
 10
2698.489343899455
 20
-1102.396643094997
 30
0.0
 11
2698.489343899455
 21
-1101.149277353108
 31
0.0
  0
LINE
  5
16F8
102
{ACAD_REACTORS
330
9E7B
102
}
330
1F
100
AcDbEntity
  8
SPOJOVACÍ
  6
Continuous
100
AcDbLine
 10
2702.238882531565
 20
-1101.63389894258
 30
0.0
 11
2701.86123116062
 21
-1101.852490254607
 31
0.0
  0
LINE
  5
16F9
330
1F
100
AcDbEntity
  8
SPOJOVACÍ
  6
Continuous
100
AcDbLine
 10
2702.238882531565
 20
-1101.63389894258
 30
0.0
 11
2701.86123116062
 21
-1101.256247569452
 31
0.0
  0
LINE
  5
16FA
102
{ACAD_REACTORS
330
9E7B
102
}
330
1F
100
AcDbEntity
  8
SPOJOVACÍ
  6
Continuous
100
AcDbLine
 10
2697.816826801027
 20
-1102.616164582994
 30
0.0
 11
2701.86123116062
 21
-1101.256247569452
 31
0.0
  0
LINE
  5
16FB
330
1F
100
AcDbEntity
  8
SPOJOVACÍ
  6
Continuous
100
AcDbLine
 10
2697.693113420137
 20
-1099.756804186729
 30
0.0
 11
2701.81844307288
 21
-1098.783840304425
 31
0.0
  0
LINE
  5
16FC
330
1F
100
AcDbEntity
  8
SPOJOVACÍ
  6
Continuous
100
AcDbLine
 10
2701.81844307288
 20
-1098.783840304425
 30
0.0
 11
2701.440791701934
 21
-1099.001501440473
 31
0.0
  0
LINE
  5
16FD
330
1F
100
AcDbEntity
  8
SPOJOVACÍ
  6
Continuous
100
AcDbLine
 10
2701.81844307288
 20
-1098.783840304425
 30
0.0
 11
2701.440791701934
 21
-1098.405258755318
 31
0.0
  0
LINE
  5
16FE
330
1F
100
AcDbEntity
  8
SPOJOVACÍ
  6
Continuous
100
AcDbLine
 10
2694.738875090006
 20
-1124.914338759374
 30
0.0
 11
2704.939182867274
 21
-1124.914338759374
 31
0.0
  0
LINE
  5
16FF
330
1F
100
AcDbEntity
  8
SPOJOVACÍ
  6
Continuous
100
AcDbLine
 10
2694.738875090006
 20
-1126.114265536106
 30
0.0
 11
2704.939182867274
 21
-1126.114265536106
 31
0.0
  0
LINE
  5
1700
102
{ACAD_REACTORS
330
9F5C
102
}
330
1F
100
AcDbEntity
  8
SPOJOVACÍ
  6
Continuous
100
AcDbLine
 10
2702.986743872207
 20
-1123.659531611049
 30
0.0
 11
2704.223877681107
 21
-1124.577615121491
 31
0.0
  0
LINE
  5
1701
102
{ACAD_REACTORS
330
9F5C
102
}
330
1F
100
AcDbEntity
  8
SPOJOVACÍ
  6
Continuous
100
AcDbLine
 10
2704.223877681107
 20
-1124.577615121491
 30
0.0
 11
2704.939182867274
 21
-1124.914338759374
 31
0.0
  0
LINE
  5
1702
102
{ACAD_REACTORS
330
9F5C
102
}
330
1F
100
AcDbEntity
  8
SPOJOVACÍ
  6
Continuous
100
AcDbLine
 10
2704.939182867274
 20
-1126.114265536106
 30
0.0
 11
2704.939182867274
 21
-1124.914338759374
 31
0.0
  0
LINE
  5
1784
102
{ACAD_REACTORS
330
9F5C
102
}
330
1F
100
AcDbEntity
  8
SPOJOVACÍ
  6
Continuous
100
AcDbLine
 10
2711.505060180036
 20
-1039.015572508165
 30
0.0
 11
2711.505060180036
 21
-1039.872320226751
 31
0.0
  0
LINE
  5
17BB
102
{ACAD_REACTORS
330
9F5C
102
}
330
1F
100
AcDbEntity
  8
0
100
AcDbLine
 10
2905.338127454873
 20
-1170.265907462097
 30
0.0
 11
2915.729357687674
 21
-986.1312730150348
 31
0.0
  0
LWPOLYLINE
  5
1A2E
102
{ACAD_REACTORS
330
9F5C
102
}
330
1F
100
AcDbEntity
  8
izolace
100
AcDbPolyline
 90
        4
 70
     1
 43
0.0
 10
2674.673630299386
 20
-1114.221120291265
 10
2664.673630299408
 20
-1114.221120291265
 10
2664.673630299408
 20
-1126.221120291265
 10
2674.67363029939
 20
-1126.221120291267
  0
HATCH
  5
1A3E
330
1F
100
AcDbEntity
  8
izolace
100
AcDbHatch
 10
0.0
 20
0.0
 30
0.0
210
0.0
220
0.0
230
1.0
  2
AR-SAND
 70
     0
 71
     0
 91
        1
 92
        7
 72
     0
 73
     1
 93
        4
 10
2674.673630299386
 20
-1114.221120291265
 10
2664.673630299408
 20
-1114.221120291265
 10
2664.673630299408
 20
-1126.221120291265
 10
2674.67363029939
 20
-1126.221120291267
 97
        0
 75
     0
 76
     1
 52
90.0
 41
0.05
 77
     0
 78
     4
 53
127.5
 43
1743.839516289121
 44
-1596.881662209964
 45
-2.447066186646711
 46
-0.0800015647992021
 79
     6
 49
0.0
 49
-1.9304
 49
0.0
 49
-2.159
 49
0.0
 49
-2.06375
 53
97.49999999999992
 43
1743.839516289121
 44
-1596.881662209964
 45
-3.584125502841771
 46
2.247616415690013
 79
     6
 49
0.0
 49
-1.0414
 49
0.0
 49
-1.7399
 49
0.0
 49
-0.6667500000000001
 53
57.5
 43
1743.839516289121
 44
-1598.443762209964
 45
-0.0071859233927282
 46
3.95496185120729
 79
     6
 49
0.0
 49
-0.635
 49
0.0
 49
-2.286
 49
0.0
 49
-2.9845
 53
47.5
 43
1743.839516289121
 44
-1598.443762209964
 45
-1.11464661628608
 46
3.817782262361486
 79
     6
 49
0.0
 49
-0.3175
 49
0.0
 49
-1.498599999999999
 49
0.0
 49
-1.7145
 47
0.2172671999972962
 98
        1
 10
2669.771449184713
 20
-1120.489680344965
  0
LWPOLYLINE
  5
1A40
330
1F
100
AcDbEntity
  8
izolace
100
AcDbPolyline
 90
        4
 70
     1
 43
0.0
 10
2674.673630299394
 20
-1037.988866006518
 10
2664.673630299416
 20
-1037.988866006518
 10
2664.673630299416
 20
-1025.988866006518
 10
2674.673630299397
 20
-1025.988866006516
  0
HATCH
  5
1A41
330
1F
100
AcDbEntity
  8
izolace
100
AcDbHatch
 10
0.0
 20
0.0
 30
0.0
210
0.0
220
0.0
230
1.0
  2
AR-SAND
 70
     0
 71
     0
 91
        1
 92
        7
 72
     0
 73
     1
 93
        4
 10
2674.673630299386
 20
-1037.706622545279
 10
2664.673630299408
 20
-1037.706622545279
 10
2664.673630299408
 20
-1025.706622545279
 10
2674.67363029939
 20
-1025.706622545277
 97
        0
 75
     0
 76
     1
 52
90.0
 41
0.05
 77
     0
 78
     4
 53
232.5
 43
1743.839516289121
 44
-555.0460806265796
 45
-2.447066186646711
 46
0.0800015647992021
 79
     6
 49
0.0
 49
-1.9304
 49
0.0
 49
-2.159
 49
0.0
 49
-2.06375
 53
262.5
 43
1743.839516289121
 44
-555.0460806265796
 45
-3.584125502841771
 46
-2.247616415690013
 79
     6
 49
0.0
 49
-1.0414
 49
0.0
 49
-1.7399
 49
0.0
 49
-0.6667500000000001
 53
302.4999999999999
 43
1743.839516289121
 44
-553.4839806265796
 45
-0.0071859233927282
 46
-3.95496185120729
 79
     6
 49
0.0
 49
-0.635
 49
0.0
 49
-2.286
 49
0.0
 49
-2.9845
 53
312.5
 43
1743.839516289121
 44
-553.4839806265796
 45
-1.11464661628608
 46
-3.817782262361486
 79
     6
 49
0.0
 49
-0.3175
 49
0.0
 49
-1.498599999999999
 49
0.0
 49
-1.7145
 47
0.2172671999972962
 98
        1
 10
2669.771449184713
 20
-1031.438062491578
  0
LINE
  5
1B2C
330
1F
100
AcDbEntity
  8
NOSNÉ KONSTRUKCE
100
AcDbLine
 10
2740.43325801886
 20
-1050.48177421318
 30
0.0
 11
2912.097879690316
 21
-1050.48177421318
 31
0.0
  0
LINE
  5
1B2D
330
1F
100
AcDbEntity
  8
NOSNÉ KONSTRUKCE
100
AcDbLine
 10
2740.433258018859
 20
-1100.516057244679
 30
0.0
 11
2909.274305754459
 21
-1100.516057244679
 31
0.0
  0
LINE
  5
1B2E
330
1F
100
AcDbEntity
  8
NOSNÉ KONSTRUKCE
  6
DASHED
100
AcDbLine
 10
2740.43325801886
 20
-1058.749070448095
 30
0.0
 11
2911.63133313954
 21
-1058.749070448095
 31
0.0
  0
LINE
  5
1B2F
330
1F
100
AcDbEntity
  8
NOSNÉ KONSTRUKCE
  6
DASHED
100
AcDbLine
 10
2740.433258018859
 20
-1092.043434749867
 30
0.0
 11
2909.752439437911
 21
-1092.043434749867
 31
0.0
  0
LINE
  5
1B3E
102
{ACAD_REACTORS
330
9E7B
102
}
330
1F
100
AcDbEntity
  8
CETRIS
100
AcDbLine
 10
2735.433258018862
 20
-1113.612036007611
 30
0.0
 11
2735.433258018859
 21
-1101.612036007611
 31
0.0
  0
LINE
  5
1B3F
102
{ACAD_REACTORS
330
9F5C
102
}
330
1F
100
AcDbEntity
  8
CETRIS
100
AcDbLine
 10
2735.433258018862
 20
-1039.261458591867
 30
0.0
 11
2735.433258018859
 21
-1051.261458591866
 31
0.0
  0
HATCH
  5
1DBC
330
1F
100
AcDbEntity
  8
NOSNÉ KONSTRUKCE
100
AcDbHatch
 10
0.0
 20
0.0
 30
0.0
210
0.0
220
0.0
230
1.0
  2
SOLID
 70
     1
 71
     0
 91
        1
 92
        7
 72
     1
 73
     1
 93
       60
 10
2740.235766068997
 20
-1058.22263966726
 42
0.0
 10
2740.235766068998
 20
-1092.615633701715
 42
-0.3073346934841183
 10
2741.400408189018
 20
-1094.356943918027
 42
0.0
 10
2741.400408189018
 20
-1098.175455695208
 42
-0.307334693483106
 10
2740.235766068997
 20
-1099.916765911514
 42
0.0
 10
2740.235766068998
 20
-1110.415700011537
 42
0.4142135623730951
 10
2742.235766068997
 20
-1112.415700011537
 42
0.0
 10
2750.434619430503
 20
-1112.415700011537
 42
-0.7595816512230912
 10
2754.026061598259
 20
-1112.415700011537
 42
0.0
 10
2763.20193100282
 20
-1112.415700011533
 42
-0.7595816493590427
 10
2766.793373203537
 20
-1112.415700011537
 42
0.0
 10
2775.969240574315
 20
-1112.415700011537
 42
-0.7767342353201953
 10
2779.580699158544
 20
-1112.493657194364
 42
0.0
 10
2786.148808395019
 20
-1112.493657194364
 42
0.4142135623730868
 10
2788.148808395018
 20
-1110.493657194365
 42
0.0
 10
2788.148808395019
 20
-1107.668331402669
 42
0.0
 10
2787.148808395019
 20
-1107.668331402669
 42
0.0
 10
2787.148808395019
 20
-1110.493657194364
 42
-0.4142135623730951
 10
2786.148808395019
 20
-1111.493657194364
 42
0.0
 10
2780.25111234792
 20
-1111.493657194364
 42
0.5694936494219963
 10
2775.325166964421
 20
-1111.415700011537
 42
0.0
 10
2767.437448787469
 20
-1111.415700011537
 42
0.5590616644338513
 10
2762.557855418889
 20
-1111.415700011533
 42
0.0
 10
2754.670137182782
 20
-1111.415700011537
 42
0.5590616643157284
 10
2749.79054384598
 20
-1111.415700011537
 42
0.0
 10
2742.235766068998
 20
-1111.415700011537
 42
-0.4142135623731451
 10
2741.235766068998
 20
-1110.415700011537
 42
0.0
 10
2741.235766068998
 20
-1100.482695820713
 42
0.2364174637114482
 10
2742.391225155448
 20
-1098.200846163699
 42
0.0
 10
2742.391225155448
 20
-1094.331553449531
 42
0.2364174637115772
 10
2741.235766068998
 20
-1092.049703792516
 42
0.0
 10
2741.235766068998
 20
-1058.784929916631
 42
0.2353201211467568
 10
2742.380396641358
 20
-1056.509514400807
 42
0.0
 10
2742.378181071373
 20
-1052.640222320964
 42
0.2364174637122881
 10
2741.221415579579
 20
-1050.359034657769
 42
0.0
 10
2741.215727908066
 20
-1040.426032095335
 42
-0.4142135623730951
 10
2742.215155140775
 20
-1039.425459655919
 42
0.0
 10
2749.769931679248
 20
-1039.421133764827
 42
0.5590616643157161
 10
2754.649524216103
 20
-1039.418339693317
 42
0.0
 10
2762.537241159118
 20
-1039.413823159405
 42
0.5590616644338511
 10
2767.41683372775
 20
-1039.411029087874
 42
0.0
 10
2775.304550611612
 20
-1039.406512553992
 42
0.5694936494220229
 10
2780.230450549019
 20
-1039.325734771098
 42
0.0
 10
2786.128145629266
 20
-1039.322357730562
 42
-0.4142135623730951
 10
2787.128718068682
 20
-1040.321784963271
 42
0.0
 10
2787.130335859706
 20
-1043.147110291789
 42
0.0
 10
2788.13033569577
 20
-1043.146537688436
 42
0.0
 10
2788.128717904745
 20
-1040.321212359917
 42
0.4142135623730618
 10
2786.127573025913
 20
-1038.3223578945
 42
0.0
 10
2779.559464866195
 20
-1038.326118815876
 42
-0.7767342353201953
 10
2775.948051512564
 20
-1038.40614391922
 42
0.0
 10
2766.772185646053
 20
-1038.41139805165
 42
-0.759581649359043
 10
2763.180744034106
 20
-1038.413454523503
 42
0.0
 10
2754.004876133814
 20
-1038.418708657094
 42
-0.7595816512230912
 10
2750.413434554829
 20
-1038.420765128924
 42
0.0
 10
2742.214582537422
 20
-1038.425459819856
 42
0.4142135623731117
 10
2740.215728072004
 20
-1040.426604698689
 42
0.0
 10
2740.221739796881
 20
-1050.925537077545
 42
-0.3073346934834261
 10
2741.387378806042
 20
-1052.666180130403
 42
0.0
 10
2741.389565298693
 20
-1056.484691281589
 42
-0.3057747226774016
 97
        0
 75
     0
 76
     1
 47
0.1180065091547201
 98
        1
 10
2740.636429946578
 20
-1067.584018943688
  0
LINE
  5
1DCF
102
{ACAD_REACTORS
330
9F5C
102
}
330
1F
100
AcDbEntity
  8
SPOJOVACÍ
  6
Continuous
100
AcDbLine
 10
2697.808404944405
 20
-1039.392967286542
 30
0.0
 11
2701.852809303997
 21
-1040.751954124382
 31
0.0
  0
LINE
  5
1DD0
330
1F
100
AcDbEntity
  8
SPOJOVACÍ
  6
Continuous
100
AcDbLine
 10
2697.430753569094
 20
-1039.77061865967
 30
0.0
 11
2702.230460674943
 21
-1040.970545436408
 31
0.0
  0
LINE
  5
1DD1
102
{ACAD_REACTORS
330
9F5C
102
}
330
1F
100
AcDbEntity
  8
SPOJOVACÍ
  6
Continuous
100
AcDbLine
 10
2701.180292205569
 20
-1037.996773417086
 30
0.0
 11
2701.180292205569
 21
-1040.515689472115
 31
0.0
  0
LINE
  5
1DD2
102
{ACAD_REACTORS
330
9F5C
102
}
330
1F
100
AcDbEntity
  8
SPOJOVACÍ
  6
Continuous
100
AcDbLine
 10
2697.808404944405
 20
-1039.989209971696
 30
0.0
 11
2701.852809303997
 21
-1041.34819680926
 31
0.0
  0
LINE
  5
1DD3
102
{ACAD_REACTORS
330
9F5C
102
}
330
1F
100
AcDbEntity
  8
SPOJOVACÍ
  6
Continuous
100
AcDbLine
 10
2698.480922042833
 20
-1040.205940932043
 30
0.0
 11
2698.480922042833
 21
-1042.726717338752
 31
0.0
  0
LINE
  5
1DD4
330
1F
100
AcDbEntity
  8
SPOJOVACÍ
  6
Continuous
100
AcDbLine
 10
2702.0202409456
 20
-1029.51263998371
 30
0.0
 11
2702.978322015585
 21
-1028.305271800811
 31
0.0
  0
LINE
  5
1DD5
330
1F
100
AcDbEntity
  8
SPOJOVACÍ
  6
Continuous
100
AcDbLine
 10
2694.730453233384
 20
-1025.850537875754
 30
0.0
 11
2694.730453233384
 21
-1027.050464652486
 31
0.0
  0
LINE
  5
1DD6
330
1F
100
AcDbEntity
  8
SPOJOVACÍ
  6
Continuous
100
AcDbLine
 10
2694.730453233384
 20
-1027.050464652486
 30
0.0
 11
2696.080138316935
 21
-1027.79460528896
 31
0.0
  0
LINE
  5
1DD7
330
1F
100
AcDbEntity
  8
SPOJOVACÍ
  6
Continuous
100
AcDbLine
 10
2696.080138316935
 20
-1027.79460528896
 30
0.0
 11
2697.190768217294
 21
-1028.863377278372
 31
0.0
  0
LINE
  5
1DD8
330
1F
100
AcDbEntity
  8
SPOJOVACÍ
  6
Continuous
100
AcDbLine
 10
2697.190768217294
 20
-1028.863377278372
 30
0.0
 11
2697.986998696612
 21
-1030.18236655667
 31
0.0
  0
LINE
  5
1DD9
330
1F
100
AcDbEntity
  8
SPOJOVACÍ
  6
Continuous
100
AcDbLine
 10
2701.407255096452
 20
-1030.926507193413
 30
0.0
 11
2702.0202409456
 21
-1029.51263998371
 31
0.0
  0
LINE
  5
1DDA
330
1F
100
AcDbEntity
  8
SPOJOVACÍ
  6
Continuous
100
AcDbLine
 10
2697.808404944405
 20
-1036.272227491878
 30
0.0
 11
2701.852809303997
 21
-1037.632144505143
 31
0.0
  0
LINE
  5
1DDB
330
1F
100
AcDbEntity
  8
SPOJOVACÍ
  6
Continuous
100
AcDbLine
 10
2697.808404944405
 20
-1036.868470176756
 30
0.0
 11
2701.852809303997
 21
-1038.228387190298
 31
0.0
  0
LINE
  5
1DDC
330
1F
100
AcDbEntity
  8
SPOJOVACÍ
  6
Continuous
100
AcDbLine
 10
2697.430753569094
 20
-1036.650809040708
 30
0.0
 11
2702.230460674943
 21
-1037.85073581717
 31
0.0
  0
LINE
  5
1DDD
102
{ACAD_REACTORS
330
9F5C
102
}
330
1F
100
AcDbEntity
  8
SPOJOVACÍ
  6
Continuous
100
AcDbLine
 10
2697.430753569094
 20
-1039.77061865967
 30
0.0
 11
2697.808404944405
 21
-1039.392967286542
 31
0.0
  0
LINE
  5
1DDE
102
{ACAD_REACTORS
330
9F5C
102
}
330
1F
100
AcDbEntity
  8
SPOJOVACÍ
  6
Continuous
100
AcDbLine
 10
2697.430753569094
 20
-1039.77061865967
 30
0.0
 11
2697.808404944405
 21
-1039.989209971696
 31
0.0
  0
LINE
  5
1DDF
330
1F
100
AcDbEntity
  8
SPOJOVACÍ
  6
Continuous
100
AcDbLine
 10
2697.430753569094
 20
-1036.650809040708
 30
0.0
 11
2697.808404944405
 21
-1036.272227491878
 31
0.0
  0
LINE
  5
1DE0
330
1F
100
AcDbEntity
  8
SPOJOVACÍ
  6
Continuous
100
AcDbLine
 10
2697.430753569094
 20
-1036.650809040708
 30
0.0
 11
2697.808404944405
 21
-1036.868470176756
 31
0.0
  0
LINE
  5
1DE1
330
1F
100
AcDbEntity
  8
SPOJOVACÍ
  6
Continuous
100
AcDbLine
 10
2698.480922042833
 20
-1037.083340785699
 30
0.0
 11
2698.480922042833
 21
-1039.602256840728
 31
0.0
  0
LINE
  5
1DE2
330
1F
100
AcDbEntity
  8
SPOJOVACÍ
  6
Continuous
100
AcDbLine
 10
2698.480922042833
 20
-1032.450135146842
 30
0.0
 11
2698.480922042833
 21
-1036.488028276522
 31
0.0
  0
LINE
  5
1DE3
330
1F
100
AcDbEntity
  8
SPOJOVACÍ
  6
Continuous
100
AcDbLine
 10
2697.986998696612
 20
-1030.18236655667
 30
0.0
 11
2698.414879560911
 21
-1031.66320642372
 31
0.0
  0
LINE
  5
1DE4
330
1F
100
AcDbEntity
  8
SPOJOVACÍ
  6
Continuous
100
AcDbLine
 10
2698.414879560911
 20
-1031.66320642372
 30
0.0
 11
2698.480922042833
 21
-1032.450135146842
 31
0.0
  0
LINE
  5
1DE5
330
1F
100
AcDbEntity
  8
SPOJOVACÍ
  6
Continuous
100
AcDbLine
 10
2701.180292205569
 20
-1032.450135146842
 30
0.0
 11
2701.180292205569
 21
-1037.393089325771
 31
0.0
  0
LINE
  5
1DE6
330
1F
100
AcDbEntity
  8
SPOJOVACÍ
  6
Continuous
100
AcDbLine
 10
2701.180292205569
 20
-1032.450135146842
 30
0.0
 11
2701.407255096452
 21
-1030.926507193413
 31
0.0
  0
LINE
  5
1DE7
330
1F
100
AcDbEntity
  8
SPOJOVACÍ
  6
Continuous
100
AcDbLine
 10
2702.230460674943
 20
-1037.85073581717
 30
0.0
 11
2701.852809303997
 21
-1037.632144505143
 31
0.0
  0
LINE
  5
1DE8
330
1F
100
AcDbEntity
  8
SPOJOVACÍ
  6
Continuous
100
AcDbLine
 10
2702.230460674943
 20
-1037.85073581717
 30
0.0
 11
2701.852809303997
 21
-1038.228387190298
 31
0.0
  0
LINE
  5
1DE9
102
{ACAD_REACTORS
330
9F5C
102
}
330
1F
100
AcDbEntity
  8
SPOJOVACÍ
  6
Continuous
100
AcDbLine
 10
2700.934725794101
 20
-1052.786568570038
 30
0.0
 11
2701.180292205569
 21
-1050.815526058752
 31
0.0
  0
LINE
  5
1DEA
330
1F
100
AcDbEntity
  8
SPOJOVACÍ
  6
Continuous
100
AcDbLine
 10
2698.063273111799
 20
-1051.830347852003
 30
0.0
 11
2701.432369845312
 21
-1052.963301971387
 31
0.0
  0
LINE
  5
1DEB
330
1F
100
AcDbEntity
  8
SPOJOVACÍ
  6
Continuous
100
AcDbLine
 10
2698.063273111799
 20
-1052.426590537158
 30
0.0
 11
2701.432369845312
 21
-1053.559544656542
 31
0.0
  0
LINE
  5
1DEC
330
1F
100
AcDbEntity
  8
SPOJOVACÍ
  6
Continuous
100
AcDbLine
 10
2697.684691563515
 20
-1052.207999225131
 30
0.0
 11
2701.810021216258
 21
-1053.180963107436
 31
0.0
  0
LINE
  5
1DED
102
{ACAD_REACTORS
330
9F5C
102
}
330
1F
100
AcDbEntity
  8
SPOJOVACÍ
  6
Continuous
100
AcDbLine
 10
2697.808404944405
 20
-1049.348638828866
 30
0.0
 11
2701.852809303997
 21
-1050.708555842408
 31
0.0
  0
LINE
  5
1DEE
102
{ACAD_REACTORS
330
9F5C
102
}
330
1F
100
AcDbEntity
  8
SPOJOVACÍ
  6
Continuous
100
AcDbLine
 10
2697.808404944405
 20
-1045.632586524749
 30
0.0
 11
2701.852809303997
 21
-1046.992503538291
 31
0.0
  0
LINE
  5
1DEF
102
{ACAD_REACTORS
330
9F5C
102
}
330
1F
100
AcDbEntity
  8
SPOJOVACÍ
  6
Continuous
100
AcDbLine
 10
2697.808404944405
 20
-1046.228829209897
 30
0.0
 11
2701.852809303997
 21
-1047.588746223169
 31
0.0
  0
LINE
  5
1DF0
330
1F
100
AcDbEntity
  8
SPOJOVACÍ
  6
Continuous
100
AcDbLine
 10
2697.430753569094
 20
-1046.010237897877
 30
0.0
 11
2702.230460674943
 21
-1047.210164674339
 31
0.0
  0
LINE
  5
1DF1
102
{ACAD_REACTORS
330
9F5C
102
}
330
1F
100
AcDbEntity
  8
SPOJOVACÍ
  6
Continuous
100
AcDbLine
 10
2697.808404944405
 20
-1042.51277690578
 30
0.0
 11
2701.852809303997
 21
-1043.872693919053
 31
0.0
  0
LINE
  5
1DF2
102
{ACAD_REACTORS
330
9F5C
102
}
330
1F
100
AcDbEntity
  8
SPOJOVACÍ
  6
Continuous
100
AcDbLine
 10
2697.808404944405
 20
-1043.109019590935
 30
0.0
 11
2701.852809303997
 21
-1044.4689366042
 31
0.0
  0
LINE
  5
1DF3
330
1F
100
AcDbEntity
  8
SPOJOVACÍ
  6
Continuous
100
AcDbLine
 10
2697.430753569094
 20
-1042.890428278908
 30
0.0
 11
2702.230460674943
 21
-1044.09035505537
 31
0.0
  0
LINE
  5
1DF4
102
{ACAD_REACTORS
330
9F5C
102
}
330
1F
100
AcDbEntity
  8
SPOJOVACÍ
  6
Continuous
100
AcDbLine
 10
2697.808404944405
 20
-1048.752396143711
 30
0.0
 11
2701.852809303997
 21
-1050.112313157253
 31
0.0
  0
LINE
  5
1DF5
330
1F
100
AcDbEntity
  8
SPOJOVACÍ
  6
Continuous
100
AcDbLine
 10
2697.430753569094
 20
-1049.130977692817
 30
0.0
 11
2702.230460674943
 21
-1050.33090446928
 31
0.0
  0
LINE
  5
1DF6
330
1F
100
AcDbEntity
  8
SPOJOVACÍ
  6
Continuous
100
AcDbLine
 10
2697.684691563515
 20
-1052.207999225131
 30
0.0
 11
2698.063273111799
 21
-1051.830347852003
 31
0.0
  0
LINE
  5
1DF7
330
1F
100
AcDbEntity
  8
SPOJOVACÍ
  6
Continuous
100
AcDbLine
 10
2697.684691563515
 20
-1052.207999225131
 30
0.0
 11
2698.063273111799
 21
-1052.426590537158
 31
0.0
  0
LINE
  5
1DF8
102
{ACAD_REACTORS
330
9F5C
102
}
330
1F
100
AcDbEntity
  8
SPOJOVACÍ
  6
Continuous
100
AcDbLine
 10
2698.480922042833
 20
-1050.815526058752
 30
0.0
 11
2698.630680345556
 21
-1052.012662308109
 31
0.0
  0
LINE
  5
1DF9
102
{ACAD_REACTORS
330
9F5C
102
}
330
1F
100
AcDbEntity
  8
SPOJOVACÍ
  6
Continuous
100
AcDbLine
 10
2698.480922042833
 20
-1049.568160316863
 30
0.0
 11
2698.480922042833
 21
-1050.815526058752
 31
0.0
  0
LINE
  5
1DFA
102
{ACAD_REACTORS
330
9F5C
102
}
330
1F
100
AcDbEntity
  8
SPOJOVACÍ
  6
Continuous
100
AcDbLine
 10
2697.430753569094
 20
-1049.130977692817
 30
0.0
 11
2697.808404944405
 21
-1048.752396143711
 31
0.0
  0
LINE
  5
1DFB
102
{ACAD_REACTORS
330
9F5C
102
}
330
1F
100
AcDbEntity
  8
SPOJOVACÍ
  6
Continuous
100
AcDbLine
 10
2697.430753569094
 20
-1046.010237897877
 30
0.0
 11
2697.808404944405
 21
-1045.632586524749
 31
0.0
  0
LINE
  5
1DFC
102
{ACAD_REACTORS
330
9F5C
102
}
330
1F
100
AcDbEntity
  8
SPOJOVACÍ
  6
Continuous
100
AcDbLine
 10
2697.430753569094
 20
-1046.010237897877
 30
0.0
 11
2697.808404944405
 21
-1046.228829209897
 31
0.0
  0
LINE
  5
1DFD
102
{ACAD_REACTORS
330
9F5C
102
}
330
1F
100
AcDbEntity
  8
SPOJOVACÍ
  6
Continuous
100
AcDbLine
 10
2697.430753569094
 20
-1042.890428278908
 30
0.0
 11
2697.808404944405
 21
-1042.51277690578
 31
0.0
  0
LINE
  5
1DFE
102
{ACAD_REACTORS
330
9F5C
102
}
330
1F
100
AcDbEntity
  8
SPOJOVACÍ
  6
Continuous
100
AcDbLine
 10
2697.430753569094
 20
-1042.890428278908
 30
0.0
 11
2697.808404944405
 21
-1043.109019590935
 31
0.0
  0
LINE
  5
1DFF
102
{ACAD_REACTORS
330
9F5C
102
}
330
1F
100
AcDbEntity
  8
SPOJOVACÍ
  6
Continuous
100
AcDbLine
 10
2698.480922042833
 20
-1046.453931752381
 30
0.0
 11
2698.480922042833
 21
-1048.971917631708
 31
0.0
  0
LINE
  5
1E00
102
{ACAD_REACTORS
330
9F5C
102
}
330
1F
100
AcDbEntity
  8
SPOJOVACÍ
  6
Continuous
100
AcDbLine
 10
2698.480922042833
 20
-1043.321099672226
 30
0.0
 11
2698.480922042833
 21
-1045.849317485096
 31
0.0
  0
LINE
  5
1E01
102
{ACAD_REACTORS
330
9F5C
102
}
330
1F
100
AcDbEntity
  8
SPOJOVACÍ
  6
Continuous
100
AcDbLine
 10
2697.430753569094
 20
-1049.130977692817
 30
0.0
 11
2697.808404944405
 21
-1049.348638828866
 31
0.0
  0
LINE
  5
1E02
102
{ACAD_REACTORS
330
9F5C
102
}
330
1F
100
AcDbEntity
  8
SPOJOVACÍ
  6
Continuous
100
AcDbLine
 10
2701.180292205569
 20
-1050.478802420868
 30
0.0
 11
2701.180292205569
 21
-1050.815526058752
 31
0.0
  0
LINE
  5
1E03
102
{ACAD_REACTORS
330
9F5C
102
}
330
1F
100
AcDbEntity
  8
SPOJOVACÍ
  6
Continuous
100
AcDbLine
 10
2702.230460674943
 20
-1050.33090446928
 30
0.0
 11
2701.852809303997
 21
-1050.112313157253
 31
0.0
  0
LINE
  5
1E04
102
{ACAD_REACTORS
330
9F5C
102
}
330
1F
100
AcDbEntity
  8
SPOJOVACÍ
  6
Continuous
100
AcDbLine
 10
2702.230460674943
 20
-1050.33090446928
 30
0.0
 11
2701.852809303997
 21
-1050.708555842408
 31
0.0
  0
LINE
  5
1E05
102
{ACAD_REACTORS
330
9F5C
102
}
330
1F
100
AcDbEntity
  8
SPOJOVACÍ
  6
Continuous
100
AcDbLine
 10
2701.180292205569
 20
-1044.234532303613
 30
0.0
 11
2701.180292205569
 21
-1046.755308710322
 31
0.0
  0
LINE
  5
1E06
102
{ACAD_REACTORS
330
9F5C
102
}
330
1F
100
AcDbEntity
  8
SPOJOVACÍ
  6
Continuous
100
AcDbLine
 10
2702.230460674943
 20
-1047.210164674339
 30
0.0
 11
2701.852809303997
 21
-1046.992503538291
 31
0.0
  0
LINE
  5
1E07
102
{ACAD_REACTORS
330
9F5C
102
}
330
1F
100
AcDbEntity
  8
SPOJOVACÍ
  6
Continuous
100
AcDbLine
 10
2702.230460674943
 20
-1047.210164674339
 30
0.0
 11
2701.852809303997
 21
-1047.588746223169
 31
0.0
  0
LINE
  5
1E08
102
{ACAD_REACTORS
330
9F5C
102
}
330
1F
100
AcDbEntity
  8
SPOJOVACÍ
  6
Continuous
100
AcDbLine
 10
2702.230460674943
 20
-1044.09035505537
 30
0.0
 11
2701.852809303997
 21
-1043.872693919053
 31
0.0
  0
LINE
  5
1E09
102
{ACAD_REACTORS
330
9F5C
102
}
330
1F
100
AcDbEntity
  8
SPOJOVACÍ
  6
Continuous
100
AcDbLine
 10
2702.230460674943
 20
-1044.09035505537
 30
0.0
 11
2701.852809303997
 21
-1044.4689366042
 31
0.0
  0
LINE
  5
1E0A
102
{ACAD_REACTORS
330
9F5C
102
}
330
1F
100
AcDbEntity
  8
SPOJOVACÍ
  6
Continuous
100
AcDbLine
 10
2701.180292205569
 20
-1047.356202274255
 30
0.0
 11
2701.180292205569
 21
-1049.875118329284
 31
0.0
  0
LINE
  5
1E0B
330
1F
100
AcDbEntity
  8
SPOJOVACÍ
  6
Continuous
100
AcDbLine
 10
2698.813924980092
 20
-1058.236468557748
 30
0.0
 11
2700.968212121549
 21
-1058.547147273523
 31
0.0
  0
LINE
  5
1E0C
330
1F
100
AcDbEntity
  8
SPOJOVACÍ
  6
Continuous
100
AcDbLine
 10
2698.813924980092
 20
-1058.236468557748
 30
0.0
 11
2699.191576351037
 21
-1057.85881718462
 31
0.0
  0
LINE
  5
1E0D
330
1F
100
AcDbEntity
  8
SPOJOVACÍ
  6
Continuous
100
AcDbLine
 10
2698.813924980092
 20
-1058.236468557748
 30
0.0
 11
2699.191576351037
 21
-1058.455059869768
 31
0.0
  0
LINE
  5
1E0E
330
1F
100
AcDbEntity
  8
SPOJOVACÍ
  6
Continuous
100
AcDbLine
 10
2698.249308269621
 20
-1055.222698979429
 30
0.0
 11
2701.365397186052
 21
-1055.856148696199
 31
0.0
  0
LINE
  5
1E0F
330
1F
100
AcDbEntity
  8
SPOJOVACÍ
  6
Continuous
100
AcDbLine
 10
2698.626959644931
 20
-1054.844117430323
 30
0.0
 11
2700.987745815107
 21
-1055.638487560151
 31
0.0
  0
LINE
  5
1E10
330
1F
100
AcDbEntity
  8
SPOJOVACÍ
  6
Continuous
100
AcDbLine
 10
2698.626959644931
 20
-1055.440360115477
 30
0.0
 11
2700.987745815107
 21
-1056.234730245029
 31
0.0
  0
LINE
  5
1E11
330
1F
100
AcDbEntity
  8
SPOJOVACÍ
  6
Continuous
100
AcDbLine
 10
2699.077164730439
 20
-1055.585467539691
 30
0.0
 11
2699.367379575594
 21
-1057.906256150047
 31
0.0
  0
LINE
  5
1E12
330
1F
100
AcDbEntity
  8
SPOJOVACÍ
  6
Continuous
100
AcDbLine
 10
2698.249308269621
 20
-1055.222698979429
 30
0.0
 11
2698.626959644931
 21
-1054.844117430323
 31
0.0
  0
LINE
  5
1E13
330
1F
100
AcDbEntity
  8
SPOJOVACÍ
  6
Continuous
100
AcDbLine
 10
2698.249308269621
 20
-1055.222698979429
 30
0.0
 11
2698.626959644931
 21
-1055.440360115477
 31
0.0
  0
LINE
  5
1E14
330
1F
100
AcDbEntity
  8
SPOJOVACÍ
  6
Continuous
100
AcDbLine
 10
2698.707884938082
 20
-1052.633089563962
 30
0.0
 11
2698.998099787601
 21
-1054.954808350027
 31
0.0
  0
LINE
  5
1E15
330
1F
100
AcDbEntity
  8
SPOJOVACÍ
  6
Continuous
100
AcDbLine
 10
2699.191576351037
 20
-1057.85881718462
 30
0.0
 11
2700.590560750603
 21
-1058.329486137205
 31
0.0
  0
LINE
  5
1E16
330
1F
100
AcDbEntity
  8
SPOJOVACÍ
  6
Continuous
100
AcDbLine
 10
2699.191576351037
 20
-1058.455059869768
 30
0.0
 11
2700.590560750603
 21
-1058.925728822353
 31
0.0
  0
LINE
  5
1E17
330
1F
100
AcDbEntity
  8
SPOJOVACÍ
  6
Continuous
100
AcDbLine
 10
2700.968212121549
 20
-1058.547147273523
 30
0.0
 11
2700.590560750603
 21
-1058.329486137205
 31
0.0
  0
LINE
  5
1E18
330
1F
100
AcDbEntity
  8
SPOJOVACÍ
  6
Continuous
100
AcDbLine
 10
2700.968212121549
 20
-1058.547147273523
 30
0.0
 11
2700.590560750603
 21
-1058.925728822353
 31
0.0
  0
LINE
  5
1E19
330
1F
100
AcDbEntity
  8
SPOJOVACÍ
  6
Continuous
100
AcDbLine
 10
2701.365397186052
 20
-1055.856148696199
 30
0.0
 11
2700.987745815107
 21
-1055.638487560151
 31
0.0
  0
LINE
  5
1E1A
330
1F
100
AcDbEntity
  8
SPOJOVACÍ
  6
Continuous
100
AcDbLine
 10
2701.365397186052
 20
-1055.856148696199
 30
0.0
 11
2700.987745815107
 21
-1056.234730245029
 31
0.0
  0
LINE
  5
1E1B
330
1F
100
AcDbEntity
  8
SPOJOVACÍ
  6
Continuous
100
AcDbLine
 10
2700.59614180154
 20
-1055.493380135936
 30
0.0
 11
2700.863102256878
 21
-1053.356766333083
 31
0.0
  0
LINE
  5
1E1C
330
1F
100
AcDbEntity
  8
SPOJOVACÍ
  6
Continuous
100
AcDbLine
 10
2700.256627640371
 20
-1058.21042363537
 30
0.0
 11
2700.524518268682
 21
-1056.065438250385
 31
0.0
  0
LINE
  5
1E1D
330
1F
100
AcDbEntity
  8
SPOJOVACÍ
  6
Continuous
100
AcDbLine
 10
2699.444584168119
 20
-1058.5266834059
 30
0.0
 11
2699.830607122018
 21
-1061.615797223705
 31
0.0
  0
LINE
  5
1E1E
330
1F
100
AcDbEntity
  8
SPOJOVACÍ
  6
Continuous
100
AcDbLine
 10
2699.830607122018
 20
-1061.615797223705
 30
0.0
 11
2700.185004103147
 21
-1058.779691222437
 31
0.0
  0
LINE
  5
1E1F
330
1F
100
AcDbEntity
  8
SPOJOVACÍ
  6
Continuous
100
AcDbLine
 10
2701.810021216258
 20
-1053.180963107436
 30
0.0
 11
2701.432369845312
 21
-1052.963301971387
 31
0.0
  0
LINE
  5
1E20
330
1F
100
AcDbEntity
  8
SPOJOVACÍ
  6
Continuous
100
AcDbLine
 10
2701.810021216258
 20
-1053.180963107436
 30
0.0
 11
2701.432369845312
 21
-1053.559544656542
 31
0.0
  0
LINE
  5
1E21
102
{ACAD_REACTORS
330
9F5C
102
}
330
1F
100
AcDbEntity
  8
SPOJOVACÍ
  6
Continuous
100
AcDbLine
 10
2702.230460674943
 20
-1040.970545436408
 30
0.0
 11
2701.852809303997
 21
-1040.751954124382
 31
0.0
  0
LINE
  5
1E22
102
{ACAD_REACTORS
330
9F5C
102
}
330
1F
100
AcDbEntity
  8
SPOJOVACÍ
  6
Continuous
100
AcDbLine
 10
2702.230460674943
 20
-1040.970545436408
 30
0.0
 11
2701.852809303997
 21
-1041.34819680926
 31
0.0
  0
LINE
  5
1E23
102
{ACAD_REACTORS
330
9F5C
102
}
330
1F
100
AcDbEntity
  8
SPOJOVACÍ
  6
Continuous
100
AcDbLine
 10
2701.180292205569
 20
-1041.11193215727
 30
0.0
 11
2701.180292205569
 21
-1043.640149970139
 31
0.0
  0
LINE
  5
1E24
330
1F
100
AcDbEntity
  8
SPOJOVACÍ
  6
Continuous
100
AcDbLine
 10
2694.730453233384
 20
-1025.850537875754
 30
0.0
 11
2704.930761010652
 21
-1025.850537875754
 31
0.0
  0
LINE
  5
1E25
330
1F
100
AcDbEntity
  8
SPOJOVACÍ
  6
Continuous
100
AcDbLine
 10
2694.730453233384
 20
-1027.050464652486
 30
0.0
 11
2704.930761010652
 21
-1027.050464652486
 31
0.0
  0
LINE
  5
1E26
330
1F
100
AcDbEntity
  8
SPOJOVACÍ
  6
Continuous
100
AcDbLine
 10
2704.930761010652
 20
-1025.850537875754
 30
0.0
 11
2704.930761010652
 21
-1027.050464652486
 31
0.0
  0
LINE
  5
1E27
330
1F
100
AcDbEntity
  8
SPOJOVACÍ
  6
Continuous
100
AcDbLine
 10
2702.978322015585
 20
-1028.305271800811
 30
0.0
 11
2704.215455824484
 21
-1027.38718829037
 31
0.0
  0
LINE
  5
1E28
330
1F
100
AcDbEntity
  8
SPOJOVACÍ
  6
Continuous
100
AcDbLine
 10
2704.215455824484
 20
-1027.38718829037
 30
0.0
 11
2704.930761010652
 21
-1027.050464652486
 31
0.0
  0
HATCH
  5
1E2A
330
1F
100
AcDbEntity
  8
NOSNÉ KONSTRUKCE
100
AcDbHatch
 10
0.0
 20
0.0
 30
0.0
210
0.0
220
0.0
230
1.0
  2
SOLID
 70
     1
 71
     0
 91
        1
 92
        7
 72
     1
 73
     1
 93
       60
 10
2599.111494529816
 20
-1058.22263966726
 42
0.0
 10
2599.111494529815
 20
-1092.615633701715
 42
0.3073346934841183
 10
2597.946852409795
 20
-1094.356943918027
 42
0.0
 10
2597.946852409795
 20
-1098.175455695208
 42
0.307334693483106
 10
2599.111494529816
 20
-1099.916765911514
 42
0.0
 10
2599.111494529815
 20
-1110.415700011537
 42
-0.4142135623730951
 10
2597.111494529816
 20
-1112.415700011537
 42
0.0
 10
2588.91264116831
 20
-1112.415700011537
 42
0.7595816512230912
 10
2585.321199000554
 20
-1112.415700011537
 42
0.0
 10
2576.145329595993
 20
-1112.415700011533
 42
0.7595816493590427
 10
2572.553887395276
 20
-1112.415700011537
 42
0.0
 10
2563.378020024497
 20
-1112.415700011537
 42
0.7767342353201953
 10
2559.76656144027
 20
-1112.493657194364
 42
0.0
 10
2553.198452203794
 20
-1112.493657194364
 42
-0.4142135623730868
 10
2551.198452203795
 20
-1110.493657194365
 42
0.0
 10
2551.198452203794
 20
-1107.668331402669
 42
0.0
 10
2552.198452203794
 20
-1107.668331402669
 42
0.0
 10
2552.198452203794
 20
-1110.493657194364
 42
0.4142135623730951
 10
2553.198452203794
 20
-1111.493657194364
 42
0.0
 10
2559.096148250894
 20
-1111.493657194364
 42
-0.5694936494219963
 10
2564.022093634392
 20
-1111.415700011537
 42
0.0
 10
2571.909811811345
 20
-1111.415700011537
 42
-0.5590616644338513
 10
2576.789405179924
 20
-1111.415700011533
 42
0.0
 10
2584.677123416031
 20
-1111.415700011537
 42
-0.5590616643157284
 10
2589.556716752833
 20
-1111.415700011537
 42
0.0
 10
2597.111494529815
 20
-1111.415700011537
 42
0.4142135623731451
 10
2598.111494529815
 20
-1110.415700011537
 42
0.0
 10
2598.111494529816
 20
-1100.482695820713
 42
-0.2364174637114482
 10
2596.956035443365
 20
-1098.200846163699
 42
0.0
 10
2596.956035443365
 20
-1094.331553449531
 42
-0.2364174637115772
 10
2598.111494529815
 20
-1092.049703792516
 42
0.0
 10
2598.111494529815
 20
-1058.784929916631
 42
-0.2353201211467568
 10
2596.966863957455
 20
-1056.509514400807
 42
0.0
 10
2596.96907952744
 20
-1052.640222320964
 42
-0.2364174637122881
 10
2598.125845019234
 20
-1050.359034657769
 42
0.0
 10
2598.131532690747
 20
-1040.426032095335
 42
0.4142135623730951
 10
2597.132105458038
 20
-1039.425459655919
 42
0.0
 10
2589.577328919565
 20
-1039.421133764827
 42
-0.5590616643157161
 10
2584.697736382711
 20
-1039.418339693317
 42
0.0
 10
2576.810019439696
 20
-1039.413823159405
 42
-0.5590616644338511
 10
2571.930426871063
 20
-1039.411029087874
 42
0.0
 10
2564.042709987202
 20
-1039.406512553992
 42
-0.5694936494220229
 10
2559.116810049794
 20
-1039.325734771098
 42
0.0
 10
2553.219114969547
 20
-1039.322357730562
 42
0.4142135623730951
 10
2552.21854253013
 20
-1040.321784963271
 42
0.0
 10
2552.216924739107
 20
-1043.147110291789
 42
0.0
 10
2551.216924903044
 20
-1043.146537688436
 42
0.0
 10
2551.218542694068
 20
-1040.321212359917
 42
-0.4142135623730618
 10
2553.2196875729
 20
-1038.3223578945
 42
0.0
 10
2559.787795732618
 20
-1038.326118815876
 42
0.7767342353201953
 10
2563.399209086249
 20
-1038.40614391922
 42
0.0
 10
2572.57507495276
 20
-1038.41139805165
 42
0.759581649359043
 10
2576.166516564707
 20
-1038.413454523503
 42
0.0
 10
2585.342384464999
 20
-1038.418708657094
 42
0.7595816512230912
 10
2588.933826043984
 20
-1038.420765128924
 42
0.0
 10
2597.132678061392
 20
-1038.425459819856
 42
-0.4142135623731117
 10
2599.13153252681
 20
-1040.426604698689
 42
0.0
 10
2599.125520801933
 20
-1050.925537077545
 42
0.3073346934834261
 10
2597.959881792771
 20
-1052.666180130403
 42
0.0
 10
2597.957695300121
 20
-1056.484691281589
 42
0.3057747226774016
 97
        0
 75
     0
 76
     1
 47
0.1180065091547201
 98
        1
 10
2598.710830652235
 20
-1067.584018943688
  0
HATCH
  5
1E2B
330
1F
100
AcDbEntity
  8
NOSNÉ KONSTRUKCE
100
AcDbHatch
 10
0.0
 20
0.0
 30
0.0
210
0.0
220
0.0
230
1.0
  2
SOLID
 70
     1
 71
     0
 91
        1
 92
        1
 93
       78
 72
     1
 10
2652.297616579284
 20
-1056.120705006651
 11
2653.797616579284
 21
-1056.120705006651
 72
     1
 10
2653.797616579284
 20
-1056.120705006651
 11
2653.797616579284
 21
-1052.159540620392
 72
     2
 10
2652.433561893731
 20
-1052.159433900659
 40
1.364054689724365
 50
359.9955173422458
 51
449.9956000565878
 73
     1
 72
     1
 10
2652.433666644267
 20
-1050.795379214956
 11
2645.276418642164
 21
-1050.795379214956
 72
     2
 10
2645.276404769718
 20
-1052.159355009735
 40
1.363975794848016
 50
449.9994172678322
 51
509.9993729338875
 73
     1
 72
     2
 10
2642.913824723009
 20
-1050.795300958791
 40
1.364105569629164
 50
30.00002138114828
 51
149.9999786188517
 73
     0
 72
     2
 10
2640.5512446763
 20
-1052.159355009739
 40
1.363975794852709
 50
390.0006270662067
 51
450.0005827322442
 73
     1
 72
     1
 10
2640.551230803854
 20
-1050.795379214956
 11
2632.5090013122
 21
-1050.795379214956
 72
     2
 10
2632.508987455634
 20
-1052.159354982232
 40
1.363975767345567
 50
449.9994179347971
 51
509.9993736009129
 73
     1
 72
     2
 10
2630.146460287445
 20
-1050.795331479079
 40
1.36404452909372
 50
30.0000213811012
 51
149.9999786188987
 73
     0
 72
     2
 10
2627.783933103381
 20
-1052.159355009735
 40
1.363975794849071
 50
390.0006270661125
 51
450.0005827321678
 73
     1
 72
     1
 10
2627.783919230934
 20
-1050.795379214956
 11
2619.741689739278
 21
-1050.795379214956
 72
     2
 10
2619.741675866831
 20
-1052.159355009735
 40
1.363975794848016
 50
449.9994172678322
 51
509.9993729338875
 73
     1
 72
     2
 10
2617.379148698646
 20
-1050.795331488247
 40
1.364044510757576
 50
30.00002138111922
 51
149.9999786188807
 73
     0
 72
     2
 10
2615.016621530461
 20
-1052.159355009735
 40
1.363975794849071
 50
390.0006270661125
 51
450.0005827321678
 73
     1
 72
     1
 10
2615.016607658015
 20
-1050.795379214956
 11
2606.248629913565
 21
-1050.795379214956
 72
     2
 10
2606.248681801456
 20
-1052.159486763226
 40
1.364107549255989
 50
90.00217941550038
 51
180.0022621297693
 73
     1
 72
     1
 10
2604.884574253263
 20
-1052.159540620392
 11
2604.884574253263
 21
-1058.284415983664
 72
     2
 10
2606.248427011791
 20
-1058.28424851987
 40
1.363852768812942
 50
180.007035193844
 51
235.6187009209929
 73
     1
 72
     2
 10
2604.707644229353
 20
-1060.535529276505
 40
1.364200882607377
 50
-55.60560776441116
 51
0.0060579627693785
 73
     0
 72
     1
 10
2606.071845104334
 20
-1060.535673515369
 11
2606.071845104334
 21
-1064.35431041917
 72
     2
 10
2604.708045210323
 20
-1064.354243192578
 40
1.363799895663342
 50
0.002824314642729
 51
55.61449004180292
 73
     0
 72
     2
 10
2606.248827992769
 20
-1066.605523949212
 40
1.364253740215838
 50
124.3901822498929
 51
180.0018479770308
 73
     1
 72
     1
 10
2604.884574253263
 20
-1066.605567950875
 11
2604.884574253263
 21
-1084.989498504954
 72
     2
 10
2606.248827990892
 20
-1084.989542505627
 40
1.36425373834027
 50
179.9981520645247
 51
235.6098177916606
 73
     1
 72
     2
 10
2604.708045210331
 20
-1087.240823261272
 40
1.363799895660852
 50
-55.61449004192901
 51
-0.0028243147955483
 73
     0
 72
     1
 10
2606.071845104334
 20
-1087.240756034676
 11
2606.071845104334
 21
-1091.059392940464
 72
     2
 10
2604.707644229353
 20
-1091.059537179328
 40
1.364200882606485
 50
-0.0060579627693785
 51
55.60560776441121
 73
     0
 72
     2
 10
2606.24842700991
 20
-1093.310817934969
 40
1.363852766929492
 50
124.3812990372945
 51
179.992964764423
 73
     1
 72
     1
 10
2604.884574253263
 20
-1093.310650470183
 11
2604.884574253263
 21
-1099.435525833454
 72
     2
 10
2606.248681802446
 20
-1099.435579691613
 40
1.364107550250173
 50
179.9977378285168
 51
269.9978205427857
 73
     1
 72
     1
 10
2606.248629913565
 20
-1100.799687240876
 11
2615.016607658015
 21
-1100.799687240876
 72
     2
 10
2615.016621528744
 20
-1099.435711445108
 40
1.363975795838488
 50
269.9994173399629
 51
329.9993730060831
 73
     1
 72
     2
 10
2617.379148698646
 20
-1100.799734965603
 40
1.364044510757576
 50
210.0000213811191
 51
329.9999786188807
 73
     0
 72
     2
 10
2619.741675868548
 20
-1099.435711445108
 40
1.363975795838583
 50
210.0006269939167
 51
270.000582660037
 73
     1
 72
     1
 10
2619.741689739278
 20
-1100.799687240876
 11
2627.783919230934
 21
-1100.799687240876
 72
     2
 10
2627.783933101664
 20
-1099.435711445108
 40
1.363975795838488
 50
269.9994173399629
 51
329.9993730060831
 73
     1
 72
     2
 10
2630.146460287445
 20
-1100.799734974771
 40
1.36404452909372
 50
210.0000213811012
 51
329.9999786188988
 73
     0
 72
     2
 10
2632.508987457351
 20
-1099.435711472611
 40
1.363975768335302
 50
210.0006263268913
 51
270.0005819930721
 73
     1
 72
     1
 10
2632.5090013122
 20
-1100.799687240876
 11
2640.551230803854
 21
-1100.799687240876
 72
     2
 10
2640.551244674583
 20
-1099.435711445105
 40
1.363975795841882
 50
269.9994173398865
 51
329.999373005989
 73
     1
 72
     2
 10
2642.913824723009
 20
-1100.799765495059
 40
1.364105569629164
 50
210.0000213811482
 51
329.9999786188517
 73
     0
 72
     2
 10
2645.276404771435
 20
-1099.435711445108
 40
1.363975795838583
 50
210.0006269939167
 51
270.000582660037
 73
     1
 72
     1
 10
2645.276418642164
 20
-1100.799687240876
 11
2652.43356095192
 21
-1100.799687240876
 72
     2
 10
2652.433509030097
 20
-1099.435579691617
 40
1.364107550249196
 50
270.0021794572142
 51
360.0022621714831
 73
     1
 72
     1
 10
2653.797616579284
 20
-1099.435525833458
 11
2653.797616579284
 21
-1095.474361447202
 72
     1
 10
2653.797616579284
 20
-1095.474361447202
 11
2652.297616579284
 21
-1095.474361447202
 72
     1
 10
2652.297616579284
 20
-1095.474361447202
 11
2652.297616579284
 21
-1098.29968724088
 72
     2
 10
2651.297616579284
 20
-1098.29968724088
 40
1.0
 50
0.0
 51
90.0
 73
     0
 72
     1
 10
2651.297616579284
 20
-1099.29968724088
 11
2645.353674297332
 21
-1099.299687240876
 72
     2
 10
2642.913824723009
 20
-1100.799765495052
 40
2.864105569627733
 50
391.5842014864362
 51
508.4157985135637
 73
     1
 72
     1
 10
2640.473975148687
 20
-1099.299687240876
 11
2632.586256971733
 21
-1099.299687240876
 72
     2
 10
2630.146460287442
 20
-1100.799734974771
 40
2.864044529094826
 50
391.5842355323783
 51
508.4157644675406
 73
     1
 72
     1
 10
2627.706663603154
 20
-1099.299687240873
 11
2619.818945367047
 21
-1099.299687240876
 72
     2
 10
2617.379148698646
 20
-1100.799734965607
 40
2.864044510759085
 50
391.5842355426949
 51
508.415764457305
 73
     1
 72
     1
 10
2614.939352030245
 20
-1099.299687240876
 11
2607.384574253263
 21
-1099.299687240876
 72
     2
 10
2607.384574253263
 20
-1098.299687240877
 40
1.0
 50
90.0
 51
180.0
 73
     0
 72
     1
 10
2606.384574253263
 20
-1098.299687240877
 11
2606.384574253263
 21
-1093.381508839542
 72
     2
 10
2604.707644229356
 20
-1091.059537179331
 40
2.864200882602513
 50
305.8368500797323
 51
360.0041807823925
 73
     1
 72
     1
 10
2607.571845104334
 20
-1091.059328183124
 11
2607.571845104334
 21
-1087.240756034676
 72
     2
 10
2606.071845085882
 20
-1087.240756039427
 40
1.500000018450919
 50
360.0000001814824
 51
360.0028244959368
 73
     1
 72
     2
 10
2604.708045210338
 20
-1087.240823261265
 40
2.863799895650613
 50
360.0028243144894
 51
414.1672517372337
 73
     1
 72
     1
 10
2606.384574253263
 20
-1084.919056647119
 11
2606.384574253263
 21
-1066.676009806728
 72
     2
 10
2604.708045210338
 20
-1064.354243192582
 40
2.863799895650137
 50
305.8327482627515
 51
359.9971756855105
 73
     1
 72
     2
 10
2606.071845155073
 20
-1064.354310414423
 40
1.499999949261109
 50
359.9971755040718
 51
359.9999998185174
 73
     1
 72
     1
 10
2607.571845104334
 20
-1064.354310419174
 11
2607.571845104334
 21
-1060.535738275819
 72
     2
 10
2604.707644229353
 20
-1060.535529276501
 40
2.864200882605558
 50
359.9958191553852
 51
414.1631499202233
 73
     1
 72
     1
 10
2606.384574253263
 20
-1058.213557616291
 11
2606.384574253263
 21
-1053.295379214956
 72
     2
 10
2607.384574253263
 20
-1053.295379214956
 40
1.0
 50
180.0
 51
270.0
 73
     0
 72
     1
 10
2607.384574253263
 20
-1052.295379214956
 11
2614.939352031464
 21
-1052.295379214956
 72
     2
 10
2617.379148698646
 20
-1050.795331488243
 40
2.864044510759331
 50
211.5842355892532
 51
328.4157644107466
 73
     1
 72
     1
 10
2619.818945365828
 20
-1052.295379214956
 11
2627.706663604376
 21
-1052.295379214956
 72
     2
 10
2630.146460287445
 20
-1050.795331479075
 40
2.864044529094653
 50
211.5842355790273
 51
328.4157644209727
 73
     1
 72
     1
 10
2632.586256970515
 20
-1052.295379214956
 11
2640.473975149909
 21
-1052.295379214956
 72
     2
 10
2642.913824723005
 20
-1050.795300958787
 40
2.864105569629046
 50
211.5842015332367
 51
328.4157984667633
 73
     1
 72
     1
 10
2645.353674296106
 20
-1052.295379214956
 11
2651.297616579284
 21
-1052.295379214956
 72
     2
 10
2651.297616579284
 20
-1053.295379214956
 40
1.0
 50
270.0
 51
360.0
 73
     0
 72
     1
 10
2652.297616579284
 20
-1053.295379214956
 11
2652.297616579284
 21
-1056.120705006651
 97
        0
 75
     0
 76
     1
 98
        1
 10
6855.258651293609
 20
-30112.97878454018
  0
LINE
  5
1E31
102
{ACAD_REACTORS
330
9E7B
102
}
330
1F
100
AcDbEntity
  8
SPOJOVACÍ
  6
Continuous
100
AcDbLine
 10
2629.920311745222
 20
-1110.99729510253
 30
0.0
 11
2629.236241861256
 21
-1111.859355985119
 31
0.0
  0
LINE
  5
1E32
102
{ACAD_REACTORS
330
9E7B
102
}
330
1F
100
AcDbEntity
  8
SPOJOVACÍ
  6
Continuous
100
AcDbLine
 10
2633.368555273234
 20
-1111.460868674141
 30
0.0
 11
2632.800046711002
 21
-1110.519110329436
 31
0.0
  0
LINE
  5
1E4D
102
{ACAD_REACTORS
330
9E7B
102
}
330
1F
100
AcDbEntity
  8
SPOJOVACÍ
  6
Continuous
100
AcDbLine
 10
2634.161545022092
 20
-1112.223971874582
 30
0.0
 11
2633.368555273234
 21
-1111.460868674141
 31
0.0
  0
LINE
  5
1E4E
330
1F
100
AcDbEntity
  8
SPOJOVACÍ
  6
Continuous
100
AcDbLine
 10
2635.125220171746
 20
-1112.755288289025
 30
0.0
 11
2627.842200418777
 21
-1112.755288289025
 31
0.0
  0
LINE
  5
1E4F
102
{ACAD_REACTORS
330
9E7B
102
}
330
1F
100
AcDbEntity
  8
SPOJOVACÍ
  6
Continuous
100
AcDbLine
 10
2635.125220171746
 20
-1112.755288289025
 30
0.0
 11
2634.161545022092
 21
-1112.223971874582
 31
0.0
  0
LINE
  5
1E50
102
{ACAD_REACTORS
330
9E7B
102
}
330
1F
100
AcDbEntity
  8
SPOJOVACÍ
  6
Continuous
100
AcDbLine
 10
2635.125220171746
 20
-1113.612036007611
 30
0.0
 11
2635.125220171746
 21
-1112.755288289025
 31
0.0
  0
LINE
  5
1E51
102
{ACAD_REACTORS
330
9E7B
102
}
330
1F
100
AcDbEntity
  8
SPOJOVACÍ
  6
Continuous
100
AcDbLine
 10
2627.842200418777
 20
-1113.612036007611
 30
0.0
 11
2627.842200418777
 21
-1112.755288289025
 31
0.0
  0
LINE
  5
1E52
102
{ACAD_REACTORS
330
9E7B
102
}
330
1F
100
AcDbEntity
  8
SPOJOVACÍ
  6
Continuous
100
AcDbLine
 10
2627.842200418777
 20
-1112.755288289025
 30
0.0
 11
2628.805875568431
 21
-1112.223971874582
 31
0.0
  0
LINE
  5
1E53
102
{ACAD_REACTORS
330
9E7B
102
}
330
1F
100
AcDbEntity
  8
SPOJOVACÍ
  6
Continuous
100
AcDbLine
 10
2629.236241861256
 20
-1111.859355985119
 30
0.0
 11
2628.352928321702
 21
-1112.514867611575
 31
0.0
  0
LINE
  5
1E54
330
1F
100
AcDbEntity
  8
SPOJOVACÍ
  6
Continuous
100
AcDbLine
 10
2628.101174904025
 20
-1113.612036007611
 30
0.0
 11
2628.101174904025
 21
-1112.755288289025
 31
0.0
  0
LINE
  5
1E90
102
{ACAD_REACTORS
330
9E7B
102
}
330
1F
100
AcDbEntity
  8
SPOJOVACÍ
  6
Continuous
100
AcDbLine
 10
2632.927562650078
 20
-1101.715197340172
 30
0.0
 11
2630.039857937328
 21
-1100.744216592695
 31
0.0
  0
LINE
  5
1E91
330
1F
100
AcDbEntity
  8
SPOJOVACÍ
  6
Continuous
100
AcDbLine
 10
2632.927562650078
 20
-1101.289480062972
 30
0.0
 11
2630.039857937328
 21
-1100.318499315501
 31
0.0
  0
LINE
  5
1E92
330
1F
100
AcDbEntity
  8
SPOJOVACÍ
  6
Continuous
100
AcDbLine
 10
2633.197205732048
 20
-1101.445554259758
 30
0.0
 11
2629.770214858475
 21
-1100.588806541365
 31
0.0
  0
LINE
  5
1E93
102
{ACAD_REACTORS
330
9E7B
102
}
330
1F
100
AcDbEntity
  8
SPOJOVACÍ
  6
Continuous
100
AcDbLine
 10
2632.927562650078
 20
-1103.942741408309
 30
0.0
 11
2630.039857937328
 21
-1102.97242480609
 31
0.0
  0
LINE
  5
1E94
102
{ACAD_REACTORS
330
9E7B
102
}
330
1F
100
AcDbEntity
  8
SPOJOVACÍ
  6
Continuous
100
AcDbLine
 10
2632.927562650078
 20
-1106.170949621698
 30
0.0
 11
2630.039857937328
 21
-1105.199968874227
 31
0.0
  0
LINE
  5
1E95
102
{ACAD_REACTORS
330
9E7B
102
}
330
1F
100
AcDbEntity
  8
SPOJOVACÍ
  6
Continuous
100
AcDbLine
 10
2632.927562650078
 20
-1105.745232344695
 30
0.0
 11
2630.039857937328
 21
-1104.774251597025
 31
0.0
  0
LINE
  5
1E96
330
1F
100
AcDbEntity
  8
SPOJOVACÍ
  6
Continuous
100
AcDbLine
 10
2633.197205732048
 20
-1105.900642395834
 30
0.0
 11
2629.770214858475
 21
-1105.043894677439
 31
0.0
  0
LINE
  5
1E97
102
{ACAD_REACTORS
330
9E7B
102
}
330
1F
100
AcDbEntity
  8
SPOJOVACÍ
  6
Continuous
100
AcDbLine
 10
2632.800046711002
 20
-1110.519110329436
 30
0.0
 11
2632.494539773891
 21
-1109.461790664363
 31
0.0
  0
LINE
  5
1E98
102
{ACAD_REACTORS
330
9E7B
102
}
330
1F
100
AcDbEntity
  8
SPOJOVACÍ
  6
Continuous
100
AcDbLine
 10
2632.927562650078
 20
-1103.517024131108
 30
0.0
 11
2630.039857937328
 21
-1102.546707529087
 31
0.0
  0
LINE
  5
1E99
330
1F
100
AcDbEntity
  8
SPOJOVACÍ
  6
Continuous
100
AcDbLine
 10
2633.197205732048
 20
-1103.673098327895
 30
0.0
 11
2629.770214858475
 21
-1102.816350609304
 31
0.0
  0
LINE
  5
1E9A
330
1F
100
AcDbEntity
  8
SPOJOVACÍ
  6
Continuous
100
AcDbLine
 10
2632.927562650078
 20
-1097.260109204289
 30
0.0
 11
2630.039857937328
 21
-1096.289128456621
 31
0.0
  0
LINE
  5
1E9B
330
1F
100
AcDbEntity
  8
SPOJOVACÍ
  6
Continuous
100
AcDbLine
 10
2632.927562650078
 20
-1096.83439192709
 30
0.0
 11
2630.039857937328
 21
-1095.863411179419
 31
0.0
  0
LINE
  5
1E9C
330
1F
100
AcDbEntity
  8
SPOJOVACÍ
  6
Continuous
100
AcDbLine
 10
2633.197205732048
 20
-1096.989801978228
 30
0.0
 11
2629.770214858475
 21
-1096.133054259833
 31
0.0
  0
LINE
  5
1E9D
330
1F
100
AcDbEntity
  8
SPOJOVACÍ
  6
Continuous
100
AcDbLine
 10
2632.927562650078
 20
-1099.487653272228
 30
0.0
 11
2630.039857937328
 21
-1098.51667252456
 31
0.0
  0
LINE
  5
1E9E
330
1F
100
AcDbEntity
  8
SPOJOVACÍ
  6
Continuous
100
AcDbLine
 10
2632.927562650078
 20
-1099.061935995032
 30
0.0
 11
2630.039857937328
 21
-1098.090955247556
 31
0.0
  0
LINE
  5
1E9F
330
1F
100
AcDbEntity
  8
SPOJOVACÍ
  6
Continuous
100
AcDbLine
 10
2633.197205732048
 20
-1099.218010191814
 30
0.0
 11
2629.770214858475
 21
-1098.361262473421
 31
0.0
  0
LINE
  5
1EA0
330
1F
100
AcDbEntity
  8
SPOJOVACÍ
  6
Continuous
100
AcDbLine
 10
2633.015894004033
 20
-1094.792808604155
 30
0.0
 11
2630.070408631974
 21
-1094.09811239219
 31
0.0
  0
LINE
  5
1EA1
330
1F
100
AcDbEntity
  8
SPOJOVACÍ
  6
Continuous
100
AcDbLine
 10
2632.745586778556
 20
-1095.062451684569
 30
0.0
 11
2630.34005171083
 21
-1094.253522443328
 31
0.0
  0
LINE
  5
1EA2
330
1F
100
AcDbEntity
  8
SPOJOVACÍ
  6
Continuous
100
AcDbLine
 10
2632.745586778556
 20
-1094.636734407369
 30
0.0
 11
2630.34005171083
 21
-1093.827805166129
 31
0.0
  0
LINE
  5
1EA3
102
{ACAD_REACTORS
330
9E7B
102
}
330
1F
100
AcDbEntity
  8
SPOJOVACÍ
  6
Continuous
100
AcDbLine
 10
2633.197205732048
 20
-1101.445554259758
 30
0.0
 11
2632.927562650078
 21
-1101.715197340172
 31
0.0
  0
LINE
  5
1EA4
330
1F
100
AcDbEntity
  8
SPOJOVACÍ
  6
Continuous
100
AcDbLine
 10
2633.197205732048
 20
-1101.445554259758
 30
0.0
 11
2632.927562650078
 21
-1101.289480062972
 31
0.0
  0
LINE
  5
1EA5
102
{ACAD_REACTORS
330
9E7B
102
}
330
1F
100
AcDbEntity
  8
SPOJOVACÍ
  6
Continuous
100
AcDbLine
 10
2633.197205732048
 20
-1103.673098327895
 30
0.0
 11
2632.927562650078
 21
-1103.942741408309
 31
0.0
  0
LINE
  5
1EA6
102
{ACAD_REACTORS
330
9E7B
102
}
330
1F
100
AcDbEntity
  8
SPOJOVACÍ
  6
Continuous
100
AcDbLine
 10
2633.197205732048
 20
-1103.673098327895
 30
0.0
 11
2632.927562650078
 21
-1103.517024131108
 31
0.0
  0
LINE
  5
1EA7
102
{ACAD_REACTORS
330
9E7B
102
}
330
1F
100
AcDbEntity
  8
SPOJOVACÍ
  6
Continuous
100
AcDbLine
 10
2633.197205732048
 20
-1105.900642395834
 30
0.0
 11
2632.927562650078
 21
-1106.170949621698
 31
0.0
  0
LINE
  5
1EA8
102
{ACAD_REACTORS
330
9E7B
102
}
330
1F
100
AcDbEntity
  8
SPOJOVACÍ
  6
Continuous
100
AcDbLine
 10
2633.197205732048
 20
-1105.900642395834
 30
0.0
 11
2632.927562650078
 21
-1105.745232344695
 31
0.0
  0
LINE
  5
1EA9
330
1F
100
AcDbEntity
  8
SPOJOVACÍ
  6
Continuous
100
AcDbLine
 10
2633.197205732048
 20
-1096.989801978228
 30
0.0
 11
2632.927562650078
 21
-1097.260109204289
 31
0.0
  0
LINE
  5
1EAA
330
1F
100
AcDbEntity
  8
SPOJOVACÍ
  6
Continuous
100
AcDbLine
 10
2633.197205732048
 20
-1096.989801978228
 30
0.0
 11
2632.927562650078
 21
-1096.83439192709
 31
0.0
  0
LINE
  5
1EAB
330
1F
100
AcDbEntity
  8
SPOJOVACÍ
  6
Continuous
100
AcDbLine
 10
2633.197205732048
 20
-1099.218010191814
 30
0.0
 11
2632.927562650078
 21
-1099.487653272228
 31
0.0
  0
LINE
  5
1EAC
330
1F
100
AcDbEntity
  8
SPOJOVACÍ
  6
Continuous
100
AcDbLine
 10
2633.197205732048
 20
-1099.218010191814
 30
0.0
 11
2632.927562650078
 21
-1099.061935995032
 31
0.0
  0
LINE
  5
1EAD
330
1F
100
AcDbEntity
  8
SPOJOVACÍ
  6
Continuous
100
AcDbLine
 10
2633.015894004033
 20
-1094.792808604155
 30
0.0
 11
2632.745586778556
 21
-1095.062451684569
 31
0.0
  0
LINE
  5
1EAE
330
1F
100
AcDbEntity
  8
SPOJOVACÍ
  6
Continuous
100
AcDbLine
 10
2633.015894004033
 20
-1094.792808604155
 30
0.0
 11
2632.745586778556
 21
-1094.636734407369
 31
0.0
  0
LINE
  5
1EAF
330
1F
100
AcDbEntity
  8
SPOJOVACÍ
  6
Continuous
100
AcDbLine
 10
2630.520035145607
 20
-1100.485863986119
 30
0.0
 11
2630.520035145607
 21
-1098.68602963173
 31
0.0
  0
LINE
  5
1EB0
330
1F
100
AcDbEntity
  8
SPOJOVACÍ
  6
Continuous
100
AcDbLine
 10
2632.447385441798
 20
-1101.13805488493
 30
0.0
 11
2632.447385441798
 21
-1099.33290736654
 31
0.0
  0
LINE
  5
1EB1
330
1F
100
AcDbEntity
  8
SPOJOVACÍ
  6
Continuous
100
AcDbLine
 10
2629.770214858475
 20
-1100.588806541365
 30
0.0
 11
2630.039857937328
 21
-1100.744216592695
 31
0.0
  0
LINE
  5
1EB2
330
1F
100
AcDbEntity
  8
SPOJOVACÍ
  6
Continuous
100
AcDbLine
 10
2629.770214858475
 20
-1100.588806541365
 30
0.0
 11
2630.039857937328
 21
-1100.318499315501
 31
0.0
  0
LINE
  5
1EB3
102
{ACAD_REACTORS
330
9E7B
102
}
330
1F
100
AcDbEntity
  8
SPOJOVACÍ
  6
Continuous
100
AcDbLine
 10
2629.770214858475
 20
-1102.816350609304
 30
0.0
 11
2630.039857937328
 21
-1102.546707529087
 31
0.0
  0
LINE
  5
1EB4
102
{ACAD_REACTORS
330
9E7B
102
}
330
1F
100
AcDbEntity
  8
SPOJOVACÍ
  6
Continuous
100
AcDbLine
 10
2630.520035145607
 20
-1102.715400490609
 30
0.0
 11
2630.520035145607
 21
-1100.91025297222
 31
0.0
  0
LINE
  5
1EB5
102
{ACAD_REACTORS
330
9E7B
102
}
330
1F
100
AcDbEntity
  8
SPOJOVACÍ
  6
Continuous
100
AcDbLine
 10
2629.770214858475
 20
-1105.043894677439
 30
0.0
 11
2630.039857937328
 21
-1105.199968874227
 31
0.0
  0
LINE
  5
1EB6
102
{ACAD_REACTORS
330
9E7B
102
}
330
1F
100
AcDbEntity
  8
SPOJOVACÍ
  6
Continuous
100
AcDbLine
 10
2629.770214858475
 20
-1105.043894677439
 30
0.0
 11
2630.039857937328
 21
-1104.774251597025
 31
0.0
  0
LINE
  5
1EB7
102
{ACAD_REACTORS
330
9E7B
102
}
330
1F
100
AcDbEntity
  8
SPOJOVACÍ
  6
Continuous
100
AcDbLine
 10
2630.520035145607
 20
-1104.9396238311
 30
0.0
 11
2630.520035145607
 21
-1103.141117767809
 31
0.0
  0
LINE
  5
1EB8
102
{ACAD_REACTORS
330
9E7B
102
}
330
1F
100
AcDbEntity
  8
SPOJOVACÍ
  6
Continuous
100
AcDbLine
 10
2632.447385441798
 20
-1105.59181472991
 30
0.0
 11
2632.447385441798
 21
-1103.793308666619
 31
0.0
  0
LINE
  5
1EB9
102
{ACAD_REACTORS
330
9E7B
102
}
330
1F
100
AcDbEntity
  8
SPOJOVACÍ
  6
Continuous
100
AcDbLine
 10
2632.447385441798
 20
-1108.899923556053
 30
0.0
 11
2632.447385441798
 21
-1106.016867861462
 31
0.0
  0
LINE
  5
1EBA
102
{ACAD_REACTORS
330
9E7B
102
}
330
1F
100
AcDbEntity
  8
SPOJOVACÍ
  6
Continuous
100
AcDbLine
 10
2630.520035145607
 20
-1108.899923556053
 30
0.0
 11
2630.520035145607
 21
-1105.370654272299
 31
0.0
  0
LINE
  5
1EBB
102
{ACAD_REACTORS
330
9E7B
102
}
330
1F
100
AcDbEntity
  8
SPOJOVACÍ
  6
Continuous
100
AcDbLine
 10
2632.494539773891
 20
-1109.461790664363
 30
0.0
 11
2632.447385441798
 21
-1108.899923556053
 31
0.0
  0
LINE
  5
1EBC
102
{ACAD_REACTORS
330
9E7B
102
}
330
1F
100
AcDbEntity
  8
SPOJOVACÍ
  6
Continuous
100
AcDbLine
 10
2630.520035145607
 20
-1108.899923556053
 30
0.0
 11
2630.357983641514
 21
-1109.987793914802
 31
0.0
  0
LINE
  5
1EBD
102
{ACAD_REACTORS
330
9E7B
102
}
330
1F
100
AcDbEntity
  8
SPOJOVACÍ
  6
Continuous
100
AcDbLine
 10
2629.770214858475
 20
-1102.816350609304
 30
0.0
 11
2630.039857937328
 21
-1102.97242480609
 31
0.0
  0
LINE
  5
1EBE
102
{ACAD_REACTORS
330
9E7B
102
}
330
1F
100
AcDbEntity
  8
SPOJOVACÍ
  6
Continuous
100
AcDbLine
 10
2632.447385441798
 20
-1103.36227822542
 30
0.0
 11
2632.447385441798
 21
-1101.562443871031
 31
0.0
  0
LINE
  5
1EBF
330
1F
100
AcDbEntity
  8
SPOJOVACÍ
  6
Continuous
100
AcDbLine
 10
2629.770214858475
 20
-1096.133054259833
 30
0.0
 11
2630.039857937328
 21
-1096.289128456621
 31
0.0
  0
LINE
  5
1EC0
330
1F
100
AcDbEntity
  8
SPOJOVACÍ
  6
Continuous
100
AcDbLine
 10
2629.770214858475
 20
-1096.133054259833
 30
0.0
 11
2630.039857937328
 21
-1095.863411179419
 31
0.0
  0
LINE
  5
1EC1
330
1F
100
AcDbEntity
  8
SPOJOVACÍ
  6
Continuous
100
AcDbLine
 10
2629.770214858475
 20
-1098.361262473421
 30
0.0
 11
2630.039857937328
 21
-1098.51667252456
 31
0.0
  0
LINE
  5
1EC2
330
1F
100
AcDbEntity
  8
SPOJOVACÍ
  6
Continuous
100
AcDbLine
 10
2629.770214858475
 20
-1098.361262473421
 30
0.0
 11
2630.039857937328
 21
-1098.090955247556
 31
0.0
  0
LINE
  5
1EC3
330
1F
100
AcDbEntity
  8
SPOJOVACÍ
  6
Continuous
100
AcDbLine
 10
2632.209621344597
 20
-1090.488481500666
 30
0.0
 11
2630.671460325595
 21
-1090.266656897603
 31
0.0
  0
LINE
  5
1EC4
330
1F
100
AcDbEntity
  8
SPOJOVACÍ
  6
Continuous
100
AcDbLine
 10
2631.939978265741
 20
-1090.758124581079
 30
0.0
 11
2630.941103404452
 21
-1090.422066948935
 31
0.0
  0
LINE
  5
1EC5
330
1F
100
AcDbEntity
  8
SPOJOVACÍ
  6
Continuous
100
AcDbLine
 10
2631.939978265741
 20
-1090.332407303885
 30
0.0
 11
2630.941103404452
 21
-1089.996349671739
 31
0.0
  0
LINE
  5
1EC6
330
1F
100
AcDbEntity
  8
SPOJOVACÍ
  6
Continuous
100
AcDbLine
 10
2630.671460325595
 20
-1090.266656897603
 30
0.0
 11
2630.941103404452
 21
-1090.422066948935
 31
0.0
  0
LINE
  5
1EC7
330
1F
100
AcDbEntity
  8
SPOJOVACÍ
  6
Continuous
100
AcDbLine
 10
2630.671460325595
 20
-1090.266656897603
 30
0.0
 11
2630.941103404452
 21
-1089.996349671739
 31
0.0
  0
LINE
  5
1EC8
330
1F
100
AcDbEntity
  8
SPOJOVACÍ
  6
Continuous
100
AcDbLine
 10
2632.209621344597
 20
-1090.488481500666
 30
0.0
 11
2631.939978265741
 21
-1090.758124581079
 31
0.0
  0
LINE
  5
1EC9
330
1F
100
AcDbEntity
  8
SPOJOVACÍ
  6
Continuous
100
AcDbLine
 10
2632.209621344597
 20
-1090.488481500666
 30
0.0
 11
2631.939978265741
 21
-1090.332407303885
 31
0.0
  0
LINE
  5
1ECA
330
1F
100
AcDbEntity
  8
SPOJOVACÍ
  6
Continuous
100
AcDbLine
 10
2632.612757675872
 20
-1092.640312979587
 30
0.0
 11
2630.38787018954
 21
-1092.188029881814
 31
0.0
  0
LINE
  5
1ECB
330
1F
100
AcDbEntity
  8
SPOJOVACÍ
  6
Continuous
100
AcDbLine
 10
2632.343114593902
 20
-1092.910620205648
 30
0.0
 11
2630.657513268396
 21
-1092.343439932952
 31
0.0
  0
LINE
  5
1ECC
330
1F
100
AcDbEntity
  8
SPOJOVACÍ
  6
Continuous
100
AcDbLine
 10
2632.343114593902
 20
-1092.484902928448
 30
0.0
 11
2630.657513268396
 21
-1091.917722655949
 31
0.0
  0
LINE
  5
1ECD
330
1F
100
AcDbEntity
  8
SPOJOVACÍ
  6
Continuous
100
AcDbLine
 10
2630.38787018954
 20
-1092.188029881814
 30
0.0
 11
2630.657513268396
 21
-1092.343439932952
 31
0.0
  0
LINE
  5
1ECE
330
1F
100
AcDbEntity
  8
SPOJOVACÍ
  6
Continuous
100
AcDbLine
 10
2630.38787018954
 20
-1092.188029881814
 30
0.0
 11
2630.657513268396
 21
-1091.917722655949
 31
0.0
  0
LINE
  5
1ECF
330
1F
100
AcDbEntity
  8
SPOJOVACÍ
  6
Continuous
100
AcDbLine
 10
2632.612757675872
 20
-1092.640312979587
 30
0.0
 11
2632.343114593902
 21
-1092.910620205648
 31
0.0
  0
LINE
  5
1ED0
330
1F
100
AcDbEntity
  8
SPOJOVACÍ
  6
Continuous
100
AcDbLine
 10
2632.612757675872
 20
-1092.640312979587
 30
0.0
 11
2632.343114593902
 21
-1092.484902928448
 31
0.0
  0
LINE
  5
1ED1
330
1F
100
AcDbEntity
  8
SPOJOVACÍ
  6
Continuous
100
AcDbLine
 10
2630.070408631974
 20
-1094.09811239219
 30
0.0
 11
2630.34005171083
 21
-1094.253522443328
 31
0.0
  0
LINE
  5
1ED2
330
1F
100
AcDbEntity
  8
SPOJOVACÍ
  6
Continuous
100
AcDbLine
 10
2630.070408631974
 20
-1094.09811239219
 30
0.0
 11
2630.34005171083
 21
-1093.827805166129
 31
0.0
  0
LINE
  5
1ED3
330
1F
100
AcDbEntity
  8
SPOJOVACÍ
  6
Continuous
100
AcDbLine
 10
2630.695369563396
 20
-1094.379710091892
 30
0.0
 11
2630.520035145607
 21
-1095.787034444951
 31
0.0
  0
LINE
  5
1ED4
330
1F
100
AcDbEntity
  8
SPOJOVACÍ
  6
Continuous
100
AcDbLine
 10
2630.937118534081
 20
-1092.44704663384
 30
0.0
 11
2630.746508768973
 21
-1093.972588889077
 31
0.0
  0
LINE
  5
1ED5
330
1F
100
AcDbEntity
  8
SPOJOVACÍ
  6
Continuous
100
AcDbLine
 10
2631.179531645156
 20
-1090.507077575244
 30
0.0
 11
2630.988257736545
 21
-1092.038597140124
 31
0.0
  0
LINE
  5
1ED6
330
1F
100
AcDbEntity
  8
SPOJOVACÍ
  6
Continuous
100
AcDbLine
 10
2631.759330684344
 20
-1090.281268099086
 30
0.0
 11
2631.483710295261
 21
-1088.075640833174
 31
0.0
  0
LINE
  5
1ED7
330
1F
100
AcDbEntity
  8
SPOJOVACÍ
  6
Continuous
100
AcDbLine
 10
2632.021668162847
 20
-1092.38129622756
 30
0.0
 11
2631.81445476341
 21
-1090.724253159765
 31
0.0
  0
LINE
  5
1ED8
330
1F
100
AcDbEntity
  8
SPOJOVACÍ
  6
Continuous
100
AcDbLine
 10
2632.285333934592
 20
-1094.489294102229
 30
0.0
 11
2632.078120532034
 21
-1092.83158688898
 31
0.0
  0
LINE
  5
1ED9
330
1F
100
AcDbEntity
  8
SPOJOVACÍ
  6
Continuous
100
AcDbLine
 10
2631.483710295261
 20
-1088.075640833174
 30
0.0
 11
2631.230670850734
 21
-1090.10062051808
 31
0.0
  0
LINE
  5
1EDA
330
1F
100
AcDbEntity
  8
SPOJOVACÍ
  6
Continuous
100
AcDbLine
 10
2632.447385441798
 20
-1095.787034444951
 30
0.0
 11
2632.340458013655
 21
-1094.932279162909
 31
0.0
  0
LINE
  5
1EDB
330
1F
100
AcDbEntity
  8
SPOJOVACÍ
  6
Continuous
100
AcDbLine
 10
2630.520035145607
 20
-1096.027455122399
 30
0.0
 11
2630.520035145607
 21
-1095.787034444951
 31
0.0
  0
LINE
  5
1EDC
330
1F
100
AcDbEntity
  8
SPOJOVACÍ
  6
Continuous
100
AcDbLine
 10
2630.520035145607
 20
-1098.25699162708
 30
0.0
 11
2630.520035145607
 21
-1096.458485563789
 31
0.0
  0
LINE
  5
1EDD
330
1F
100
AcDbEntity
  8
SPOJOVACÍ
  6
Continuous
100
AcDbLine
 10
2632.447385441798
 20
-1096.677653584658
 30
0.0
 11
2632.447385441798
 21
-1095.787034444951
 31
0.0
  0
LINE
  5
1EDE
330
1F
100
AcDbEntity
  8
SPOJOVACÍ
  6
Continuous
100
AcDbLine
 10
2632.447385441798
 20
-1098.901212779699
 30
0.0
 11
2632.447385441798
 21
-1097.103370861859
 31
0.0
  0
LINE
  5
1EDF
102
{ACAD_REACTORS
330
9E7B
102
}
330
1F
100
AcDbEntity
  8
SPOJOVACÍ
  6
Continuous
100
AcDbLine
 10
2630.357983641514
 20
-1109.987793914802
 30
0.0
 11
2629.920311745222
 21
-1110.99729510253
 31
0.0
  0
LINE
  5
1EE0
102
{ACAD_REACTORS
330
9E7B
102
}
330
1F
100
AcDbEntity
  8
CETRIS
100
AcDbLine
 10
2603.91400257995
 20
-1113.612036007611
 30
0.0
 11
2603.914002579954
 21
-1101.612036007611
 31
0.0
  0
LINE
  5
1EE1
330
1F
100
AcDbEntity
  8
SPOJOVACÍ
  6
Continuous
100
AcDbLine
 10
2576.373906309442
 20
-1111.865717234977
 30
0.0
 11
2576.373906309442
 21
-1109.344940828268
 31
0.0
  0
LINE
  5
1EE2
330
1F
100
AcDbEntity
  8
SPOJOVACÍ
  6
Continuous
100
AcDbLine
 10
2575.701389211014
 20
-1112.678690880479
 30
0.0
 11
2579.745793570607
 21
-1111.319704042638
 31
0.0
  0
LINE
  5
1EE3
330
1F
100
AcDbEntity
  8
SPOJOVACÍ
  6
Continuous
100
AcDbLine
 10
2575.701389211014
 20
-1112.082448195324
 30
0.0
 11
2579.745793570607
 21
-1110.72346135776
 31
0.0
  0
LINE
  5
1EE4
330
1F
100
AcDbEntity
  8
SPOJOVACÍ
  6
Continuous
100
AcDbLine
 10
2575.323737835703
 20
-1112.30103950735
 30
0.0
 11
2580.123444941552
 21
-1111.101112730612
 31
0.0
  0
LINE
  5
1EE5
102
{ACAD_REACTORS
330
9F5C
102
}
330
1F
100
AcDbEntity
  8
SPOJOVACÍ
  6
Continuous
100
AcDbLine
 10
2575.701389211014
 20
-1115.799430675142
 30
0.0
 11
2579.745793570607
 21
-1114.439513661877
 31
0.0
  0
LINE
  5
1EE6
102
{ACAD_REACTORS
330
9F5C
102
}
330
1F
100
AcDbEntity
  8
SPOJOVACÍ
  6
Continuous
100
AcDbLine
 10
2575.701389211014
 20
-1115.203187990264
 30
0.0
 11
2579.745793570607
 21
-1113.843270976722
 31
0.0
  0
LINE
  5
1EE7
330
1F
100
AcDbEntity
  8
SPOJOVACÍ
  6
Continuous
100
AcDbLine
 10
2575.323737835703
 20
-1112.30103950735
 30
0.0
 11
2575.701389211014
 21
-1112.678690880479
 31
0.0
  0
LINE
  5
1EE8
330
1F
100
AcDbEntity
  8
SPOJOVACÍ
  6
Continuous
100
AcDbLine
 10
2575.323737835703
 20
-1112.30103950735
 30
0.0
 11
2575.701389211014
 21
-1112.082448195324
 31
0.0
  0
LINE
  5
1EE9
102
{ACAD_REACTORS
330
9F5C
102
}
330
1F
100
AcDbEntity
  8
SPOJOVACÍ
  6
Continuous
100
AcDbLine
 10
2575.323737835703
 20
-1115.420849126312
 30
0.0
 11
2575.701389211014
 21
-1115.799430675142
 31
0.0
  0
LINE
  5
1EEA
102
{ACAD_REACTORS
330
9F5C
102
}
330
1F
100
AcDbEntity
  8
SPOJOVACÍ
  6
Continuous
100
AcDbLine
 10
2575.323737835703
 20
-1115.420849126312
 30
0.0
 11
2575.701389211014
 21
-1115.203187990264
 31
0.0
  0
LINE
  5
1EEB
330
1F
100
AcDbEntity
  8
SPOJOVACÍ
  6
Continuous
100
AcDbLine
 10
2579.073276472179
 20
-1114.074884749934
 30
0.0
 11
2579.073276472179
 21
-1111.555968694905
 31
0.0
  0
LINE
  5
1EEC
102
{ACAD_REACTORS
330
9F5C
102
}
330
1F
100
AcDbEntity
  8
SPOJOVACÍ
  6
Continuous
100
AcDbLine
 10
2576.373906309442
 20
-1114.988317381321
 30
0.0
 11
2576.373906309442
 21
-1112.469401326292
 31
0.0
  0
LINE
  5
1EED
102
{ACAD_REACTORS
330
9F5C
102
}
330
1F
100
AcDbEntity
  8
SPOJOVACÍ
  6
Continuous
100
AcDbLine
 10
2576.373906309442
 20
-1119.621523020178
 30
0.0
 11
2576.373906309442
 21
-1115.583629890498
 31
0.0
  0
LINE
  5
1EEE
102
{ACAD_REACTORS
330
9F5C
102
}
330
1F
100
AcDbEntity
  8
SPOJOVACÍ
  6
Continuous
100
AcDbLine
 10
2579.073276472179
 20
-1119.621523020178
 30
0.0
 11
2579.073276472179
 21
-1114.678568841249
 31
0.0
  0
LINE
  5
1EEF
102
{ACAD_REACTORS
330
9F5C
102
}
330
1F
100
AcDbEntity
  8
SPOJOVACÍ
  6
Continuous
100
AcDbLine
 10
2572.623437499994
 20
-1125.021193514534
 30
0.0
 11
2573.973122583545
 21
-1124.27705287806
 31
0.0
  0
LINE
  5
1EF0
102
{ACAD_REACTORS
330
9F5C
102
}
330
1F
100
AcDbEntity
  8
SPOJOVACÍ
  6
Continuous
100
AcDbLine
 10
2573.973122583545
 20
-1124.27705287806
 30
0.0
 11
2575.083752483903
 21
-1123.208280888648
 31
0.0
  0
LINE
  5
1EF1
102
{ACAD_REACTORS
330
9F5C
102
}
330
1F
100
AcDbEntity
  8
SPOJOVACÍ
  6
Continuous
100
AcDbLine
 10
2575.083752483903
 20
-1123.208280888648
 30
0.0
 11
2575.879982963221
 21
-1121.88929161035
 31
0.0
  0
LINE
  5
1EF2
102
{ACAD_REACTORS
330
9F5C
102
}
330
1F
100
AcDbEntity
  8
SPOJOVACÍ
  6
Continuous
100
AcDbLine
 10
2575.879982963221
 20
-1121.88929161035
 30
0.0
 11
2576.307863827521
 21
-1120.4084517433
 31
0.0
  0
LINE
  5
1EF3
102
{ACAD_REACTORS
330
9F5C
102
}
330
1F
100
AcDbEntity
  8
SPOJOVACÍ
  6
Continuous
100
AcDbLine
 10
2576.307863827521
 20
-1120.4084517433
 30
0.0
 11
2576.373906309442
 21
-1119.621523020178
 31
0.0
  0
LINE
  5
1EF4
102
{ACAD_REACTORS
330
9F5C
102
}
330
1F
100
AcDbEntity
  8
SPOJOVACÍ
  6
Continuous
100
AcDbLine
 10
2579.073276472179
 20
-1119.621523020178
 30
0.0
 11
2579.300239363062
 21
-1121.145150973607
 31
0.0
  0
LINE
  5
1EF5
102
{ACAD_REACTORS
330
9F5C
102
}
330
1F
100
AcDbEntity
  8
SPOJOVACÍ
  6
Continuous
100
AcDbLine
 10
2579.91322521221
 20
-1122.55901818331
 30
0.0
 11
2580.871306282194
 21
-1123.766386366209
 31
0.0
  0
LINE
  5
1EF6
330
1F
100
AcDbEntity
  8
SPOJOVACÍ
  6
Continuous
100
AcDbLine
 10
2575.323737835703
 20
-1115.420849126312
 30
0.0
 11
2580.123444941552
 21
-1114.22092234985
 31
0.0
  0
LINE
  5
1EF7
102
{ACAD_REACTORS
330
9F5C
102
}
330
1F
100
AcDbEntity
  8
SPOJOVACÍ
  6
Continuous
100
AcDbLine
 10
2579.300239363062
 20
-1121.145150973607
 30
0.0
 11
2579.91322521221
 21
-1122.55901818331
 31
0.0
  0
LINE
  5
1EF8
102
{ACAD_REACTORS
330
9F5C
102
}
330
1F
100
AcDbEntity
  8
SPOJOVACÍ
  6
Continuous
100
AcDbLine
 10
2580.123444941552
 20
-1114.22092234985
 30
0.0
 11
2579.745793570607
 21
-1114.439513661877
 31
0.0
  0
LINE
  5
1EF9
330
1F
100
AcDbEntity
  8
SPOJOVACÍ
  6
Continuous
100
AcDbLine
 10
2580.123444941552
 20
-1114.22092234985
 30
0.0
 11
2579.745793570607
 21
-1113.843270976722
 31
0.0
  0
LINE
  5
1EFA
102
{ACAD_REACTORS
330
9F5C
102
}
330
1F
100
AcDbEntity
  8
SPOJOVACÍ
  6
Continuous
100
AcDbLine
 10
2572.623437499994
 20
-1126.221120291266
 30
0.0
 11
2572.623437499994
 21
-1125.021193514534
 31
0.0
  0
LINE
  5
1EFB
102
{ACAD_REACTORS
330
9F5C
102
}
330
1F
100
AcDbEntity
  8
SPOJOVACÍ
  6
Continuous
100
AcDbLine
 10
2582.108440091094
 20
-1124.684469876651
 30
0.0
 11
2582.823745277261
 21
-1125.021193514534
 31
0.0
  0
LINE
  5
1EFC
102
{ACAD_REACTORS
330
9F5C
102
}
330
1F
100
AcDbEntity
  8
SPOJOVACÍ
  6
Continuous
100
AcDbLine
 10
2582.823745277261
 20
-1126.221120291266
 30
0.0
 11
2582.823745277261
 21
-1125.021193514534
 31
0.0
  0
LINE
  5
1EFD
102
{ACAD_REACTORS
330
9F5C
102
}
330
1F
100
AcDbEntity
  8
SPOJOVACÍ
  6
Continuous
100
AcDbLine
 10
2580.871306282194
 20
-1123.766386366209
 30
0.0
 11
2582.108440091094
 21
-1124.684469876651
 31
0.0
  0
LINE
  5
1EFE
330
1F
100
AcDbEntity
  8
SPOJOVACÍ
  6
Continuous
100
AcDbLine
 10
2572.623437499994
 20
-1125.021193514534
 30
0.0
 11
2582.823745277261
 21
-1125.021193514534
 31
0.0
  0
LINE
  5
1EFF
330
1F
100
AcDbEntity
  8
SPOJOVACÍ
  6
Continuous
100
AcDbLine
 10
2572.623437499994
 20
-1126.221120291266
 30
0.0
 11
2582.823745277261
 21
-1126.221120291266
 31
0.0
  0
LINE
  5
1F00
330
1F
100
AcDbEntity
  8
SPOJOVACÍ
  6
Continuous
100
AcDbLine
 10
2579.073276472179
 20
-1110.959726009751
 30
0.0
 11
2579.073276472179
 21
-1108.431508196882
 31
0.0
  0
LINE
  5
1F01
330
1F
100
AcDbEntity
  8
SPOJOVACÍ
  6
Continuous
100
AcDbLine
 10
2580.123444941552
 20
-1111.101112730612
 30
0.0
 11
2579.745793570607
 21
-1111.319704042638
 31
0.0
  0
LINE
  5
1F02
330
1F
100
AcDbEntity
  8
SPOJOVACÍ
  6
Continuous
100
AcDbLine
 10
2580.123444941552
 20
-1111.101112730612
 30
0.0
 11
2579.745793570607
 21
-1110.72346135776
 31
0.0
  0
LINE
  5
1F03
330
1F
100
AcDbEntity
  8
SPOJOVACÍ
  6
Continuous
100
AcDbLine
 10
2579.703005482867
 20
-1098.890695059584
 30
0.0
 11
2579.325354111922
 21
-1099.108356195633
 31
0.0
  0
LINE
  5
1F04
330
1F
100
AcDbEntity
  8
SPOJOVACÍ
  6
Continuous
100
AcDbLine
 10
2579.703005482867
 20
-1098.890695059584
 30
0.0
 11
2579.325354111922
 21
-1098.512113510478
 31
0.0
  0
LINE
  5
1F05
330
1F
100
AcDbEntity
  8
SPOJOVACÍ
  6
Continuous
100
AcDbLine
 10
2576.706909246702
 20
-1093.835189609272
 30
0.0
 11
2578.861196388158
 21
-1093.524510893498
 31
0.0
  0
LINE
  5
1F06
330
1F
100
AcDbEntity
  8
SPOJOVACÍ
  6
Continuous
100
AcDbLine
 10
2577.084560617647
 20
-1094.2128409824
 30
0.0
 11
2578.483545017213
 21
-1093.742172029815
 31
0.0
  0
LINE
  5
1F07
330
1F
100
AcDbEntity
  8
SPOJOVACÍ
  6
Continuous
100
AcDbLine
 10
2577.084560617647
 20
-1093.616598297252
 30
0.0
 11
2578.483545017213
 21
-1093.145929344668
 31
0.0
  0
LINE
  5
1F08
330
1F
100
AcDbEntity
  8
SPOJOVACÍ
  6
Continuous
100
AcDbLine
 10
2578.861196388158
 20
-1093.524510893498
 30
0.0
 11
2578.483545017213
 21
-1093.742172029815
 31
0.0
  0
LINE
  5
1F09
330
1F
100
AcDbEntity
  8
SPOJOVACÍ
  6
Continuous
100
AcDbLine
 10
2578.861196388158
 20
-1093.524510893498
 30
0.0
 11
2578.483545017213
 21
-1093.145929344668
 31
0.0
  0
LINE
  5
1F0A
330
1F
100
AcDbEntity
  8
SPOJOVACÍ
  6
Continuous
100
AcDbLine
 10
2576.706909246702
 20
-1093.835189609272
 30
0.0
 11
2577.084560617647
 21
-1094.2128409824
 31
0.0
  0
LINE
  5
1F0B
330
1F
100
AcDbEntity
  8
SPOJOVACÍ
  6
Continuous
100
AcDbLine
 10
2576.706909246702
 20
-1093.835189609272
 30
0.0
 11
2577.084560617647
 21
-1093.616598297252
 31
0.0
  0
LINE
  5
1F0C
330
1F
100
AcDbEntity
  8
SPOJOVACÍ
  6
Continuous
100
AcDbLine
 10
2576.14229253623
 20
-1096.848959187591
 30
0.0
 11
2579.258381452661
 21
-1096.215509470821
 31
0.0
  0
LINE
  5
1F0D
330
1F
100
AcDbEntity
  8
SPOJOVACÍ
  6
Continuous
100
AcDbLine
 10
2576.519943911541
 20
-1097.227540736698
 30
0.0
 11
2578.880730081716
 21
-1096.433170606869
 31
0.0
  0
LINE
  5
1F0E
330
1F
100
AcDbEntity
  8
SPOJOVACÍ
  6
Continuous
100
AcDbLine
 10
2576.519943911541
 20
-1096.631298051543
 30
0.0
 11
2578.880730081716
 21
-1095.836927921991
 31
0.0
  0
LINE
  5
1F0F
330
1F
100
AcDbEntity
  8
SPOJOVACÍ
  6
Continuous
100
AcDbLine
 10
2579.258381452661
 20
-1096.215509470821
 30
0.0
 11
2578.880730081716
 21
-1096.433170606869
 31
0.0
  0
LINE
  5
1F10
330
1F
100
AcDbEntity
  8
SPOJOVACÍ
  6
Continuous
100
AcDbLine
 10
2579.258381452661
 20
-1096.215509470821
 30
0.0
 11
2578.880730081716
 21
-1095.836927921991
 31
0.0
  0
LINE
  5
1F11
330
1F
100
AcDbEntity
  8
SPOJOVACÍ
  6
Continuous
100
AcDbLine
 10
2576.14229253623
 20
-1096.848959187591
 30
0.0
 11
2576.519943911541
 21
-1097.227540736698
 31
0.0
  0
LINE
  5
1F12
330
1F
100
AcDbEntity
  8
SPOJOVACÍ
  6
Continuous
100
AcDbLine
 10
2576.14229253623
 20
-1096.848959187591
 30
0.0
 11
2576.519943911541
 21
-1096.631298051543
 31
0.0
  0
LINE
  5
1F13
330
1F
100
AcDbEntity
  8
SPOJOVACÍ
  6
Continuous
100
AcDbLine
 10
2578.489126068149
 20
-1096.578278031084
 30
0.0
 11
2578.756086523487
 21
-1098.714891833937
 31
0.0
  0
LINE
  5
1F14
330
1F
100
AcDbEntity
  8
SPOJOVACÍ
  6
Continuous
100
AcDbLine
 10
2578.14961190698
 20
-1093.86123453165
 30
0.0
 11
2578.417502535291
 21
-1096.006219916635
 31
0.0
  0
LINE
  5
1F15
330
1F
100
AcDbEntity
  8
SPOJOVACÍ
  6
Continuous
100
AcDbLine
 10
2577.337568434729
 20
-1093.54497476112
 30
0.0
 11
2577.723591388628
 21
-1090.455860943315
 31
0.0
  0
LINE
  5
1F16
330
1F
100
AcDbEntity
  8
SPOJOVACÍ
  6
Continuous
100
AcDbLine
 10
2576.970148997049
 20
-1096.486190627329
 30
0.0
 11
2577.260363842203
 21
-1094.165402016973
 31
0.0
  0
LINE
  5
1F17
330
1F
100
AcDbEntity
  8
SPOJOVACÍ
  6
Continuous
100
AcDbLine
 10
2576.600869204691
 20
-1099.438568603058
 30
0.0
 11
2576.891084054211
 21
-1097.116849816994
 31
0.0
  0
LINE
  5
1F18
330
1F
100
AcDbEntity
  8
SPOJOVACÍ
  6
Continuous
100
AcDbLine
 10
2577.723591388628
 20
-1090.455860943315
 30
0.0
 11
2578.077988369757
 21
-1093.291966944583
 31
0.0
  0
LINE
  5
1F19
330
1F
100
AcDbEntity
  8
SPOJOVACÍ
  6
Continuous
100
AcDbLine
 10
2575.701389211014
 20
-1103.319262023309
 30
0.0
 11
2579.745793570607
 21
-1101.959345009767
 31
0.0
  0
LINE
  5
1F1A
330
1F
100
AcDbEntity
  8
SPOJOVACÍ
  6
Continuous
100
AcDbLine
 10
2575.701389211014
 20
-1102.723019338154
 30
0.0
 11
2579.745793570607
 21
-1101.363102324612
 31
0.0
  0
LINE
  5
1F1B
330
1F
100
AcDbEntity
  8
SPOJOVACÍ
  6
Continuous
100
AcDbLine
 10
2575.701389211014
 20
-1106.439071642271
 30
0.0
 11
2579.745793570607
 21
-1105.079154628729
 31
0.0
  0
LINE
  5
1F1C
330
1F
100
AcDbEntity
  8
SPOJOVACÍ
  6
Continuous
100
AcDbLine
 10
2575.701389211014
 20
-1105.842828957124
 30
0.0
 11
2579.745793570607
 21
-1104.482911943851
 31
0.0
  0
LINE
  5
1F1D
330
1F
100
AcDbEntity
  8
SPOJOVACÍ
  6
Continuous
100
AcDbLine
 10
2575.701389211014
 20
-1109.55888126124
 30
0.0
 11
2579.745793570607
 21
-1108.198964247967
 31
0.0
  0
LINE
  5
1F1E
330
1F
100
AcDbEntity
  8
SPOJOVACÍ
  6
Continuous
100
AcDbLine
 10
2575.701389211014
 20
-1108.962638576086
 30
0.0
 11
2579.745793570607
 21
-1107.60272156282
 31
0.0
  0
LINE
  5
1F1F
330
1F
100
AcDbEntity
  8
SPOJOVACÍ
  6
Continuous
100
AcDbLine
 10
2575.577675830124
 20
-1099.863658941889
 30
0.0
 11
2575.956257378408
 21
-1100.241310315017
 31
0.0
  0
LINE
  5
1F20
330
1F
100
AcDbEntity
  8
SPOJOVACÍ
  6
Continuous
100
AcDbLine
 10
2575.577675830124
 20
-1099.863658941889
 30
0.0
 11
2575.956257378408
 21
-1099.645067629863
 31
0.0
  0
LINE
  5
1F21
330
1F
100
AcDbEntity
  8
SPOJOVACÍ
  6
Continuous
100
AcDbLine
 10
2576.373906309442
 20
-1101.256132108268
 30
0.0
 11
2576.523664612166
 21
-1100.058995858911
 31
0.0
  0
LINE
  5
1F22
330
1F
100
AcDbEntity
  8
SPOJOVACÍ
  6
Continuous
100
AcDbLine
 10
2579.073276472179
 20
-1101.592855746152
 30
0.0
 11
2579.073276472179
 21
-1101.256132108268
 31
0.0
  0
LINE
  5
1F23
330
1F
100
AcDbEntity
  8
SPOJOVACÍ
  6
Continuous
100
AcDbLine
 10
2576.373906309442
 20
-1102.503497850157
 30
0.0
 11
2576.373906309442
 21
-1101.256132108268
 31
0.0
  0
LINE
  5
1F24
330
1F
100
AcDbEntity
  8
SPOJOVACÍ
  6
Continuous
100
AcDbLine
 10
2575.323737835703
 20
-1102.940680474203
 30
0.0
 11
2575.701389211014
 21
-1103.319262023309
 31
0.0
  0
LINE
  5
1F25
330
1F
100
AcDbEntity
  8
SPOJOVACÍ
  6
Continuous
100
AcDbLine
 10
2575.323737835703
 20
-1106.061420269143
 30
0.0
 11
2575.701389211014
 21
-1106.439071642271
 31
0.0
  0
LINE
  5
1F26
330
1F
100
AcDbEntity
  8
SPOJOVACÍ
  6
Continuous
100
AcDbLine
 10
2575.323737835703
 20
-1106.061420269143
 30
0.0
 11
2575.701389211014
 21
-1105.842828957124
 31
0.0
  0
LINE
  5
1F27
330
1F
100
AcDbEntity
  8
SPOJOVACÍ
  6
Continuous
100
AcDbLine
 10
2575.323737835703
 20
-1109.181229888112
 30
0.0
 11
2575.701389211014
 21
-1109.55888126124
 31
0.0
  0
LINE
  5
1F28
330
1F
100
AcDbEntity
  8
SPOJOVACÍ
  6
Continuous
100
AcDbLine
 10
2575.323737835703
 20
-1109.181229888112
 30
0.0
 11
2575.701389211014
 21
-1108.962638576086
 31
0.0
  0
LINE
  5
1F29
330
1F
100
AcDbEntity
  8
SPOJOVACÍ
  6
Continuous
100
AcDbLine
 10
2576.373906309442
 20
-1105.617726414639
 30
0.0
 11
2576.373906309442
 21
-1103.099740535312
 31
0.0
  0
LINE
  5
1F2A
330
1F
100
AcDbEntity
  8
SPOJOVACÍ
  6
Continuous
100
AcDbLine
 10
2579.073276472179
 20
-1107.837125863407
 30
0.0
 11
2579.073276472179
 21
-1105.316349456698
 31
0.0
  0
LINE
  5
1F2B
330
1F
100
AcDbEntity
  8
SPOJOVACÍ
  6
Continuous
100
AcDbLine
 10
2576.373906309442
 20
-1108.750558494794
 30
0.0
 11
2576.373906309442
 21
-1106.222340681925
 31
0.0
  0
LINE
  5
1F2C
330
1F
100
AcDbEntity
  8
SPOJOVACÍ
  6
Continuous
100
AcDbLine
 10
2575.323737835703
 20
-1102.940680474203
 30
0.0
 11
2575.701389211014
 21
-1102.723019338154
 31
0.0
  0
LINE
  5
1F2D
330
1F
100
AcDbEntity
  8
SPOJOVACÍ
  6
Continuous
100
AcDbLine
 10
2579.073276472179
 20
-1104.715455892765
 30
0.0
 11
2579.073276472179
 21
-1102.196539837736
 31
0.0
  0
LINE
  5
1F2E
330
1F
100
AcDbEntity
  8
SPOJOVACÍ
  6
Continuous
100
AcDbLine
 10
2575.323737835703
 20
-1102.940680474203
 30
0.0
 11
2580.123444941552
 21
-1101.740753697741
 31
0.0
  0
LINE
  5
1F2F
330
1F
100
AcDbEntity
  8
SPOJOVACÍ
  6
Continuous
100
AcDbLine
 10
2575.323737835703
 20
-1106.061420269143
 30
0.0
 11
2580.123444941552
 21
-1104.861493492681
 31
0.0
  0
LINE
  5
1F30
330
1F
100
AcDbEntity
  8
SPOJOVACÍ
  6
Continuous
100
AcDbLine
 10
2575.323737835703
 20
-1109.181229888112
 30
0.0
 11
2580.123444941552
 21
-1107.98130311165
 31
0.0
  0
LINE
  5
1F31
330
1F
100
AcDbEntity
  8
SPOJOVACÍ
  6
Continuous
100
AcDbLine
 10
2580.123444941552
 20
-1101.740753697741
 30
0.0
 11
2579.745793570607
 21
-1101.959345009767
 31
0.0
  0
LINE
  5
1F32
330
1F
100
AcDbEntity
  8
SPOJOVACÍ
  6
Continuous
100
AcDbLine
 10
2580.123444941552
 20
-1101.740753697741
 30
0.0
 11
2579.745793570607
 21
-1101.363102324612
 31
0.0
  0
LINE
  5
1F33
330
1F
100
AcDbEntity
  8
SPOJOVACÍ
  6
Continuous
100
AcDbLine
 10
2580.123444941552
 20
-1104.861493492681
 30
0.0
 11
2579.745793570607
 21
-1105.079154628729
 31
0.0
  0
LINE
  5
1F34
330
1F
100
AcDbEntity
  8
SPOJOVACÍ
  6
Continuous
100
AcDbLine
 10
2580.123444941552
 20
-1104.861493492681
 30
0.0
 11
2579.745793570607
 21
-1104.482911943851
 31
0.0
  0
LINE
  5
1F35
330
1F
100
AcDbEntity
  8
SPOJOVACÍ
  6
Continuous
100
AcDbLine
 10
2580.123444941552
 20
-1107.98130311165
 30
0.0
 11
2579.745793570607
 21
-1108.198964247967
 31
0.0
  0
LINE
  5
1F36
330
1F
100
AcDbEntity
  8
SPOJOVACÍ
  6
Continuous
100
AcDbLine
 10
2580.123444941552
 20
-1107.98130311165
 30
0.0
 11
2579.745793570607
 21
-1107.60272156282
 31
0.0
  0
LINE
  5
1F37
330
1F
100
AcDbEntity
  8
SPOJOVACÍ
  6
Continuous
100
AcDbLine
 10
2575.956257378408
 20
-1100.241310315017
 30
0.0
 11
2579.325354111922
 21
-1099.108356195633
 31
0.0
  0
LINE
  5
1F38
330
1F
100
AcDbEntity
  8
SPOJOVACÍ
  6
Continuous
100
AcDbLine
 10
2575.956257378408
 20
-1099.645067629863
 30
0.0
 11
2579.325354111922
 21
-1098.512113510478
 31
0.0
  0
LINE
  5
1F39
330
1F
100
AcDbEntity
  8
SPOJOVACÍ
  6
Continuous
100
AcDbLine
 10
2578.827710060711
 20
-1099.285089596982
 30
0.0
 11
2579.073276472179
 21
-1101.256132108268
 31
0.0
  0
LINE
  5
1F3A
330
1F
100
AcDbEntity
  8
SPOJOVACÍ
  6
Continuous
100
AcDbLine
 10
2575.577675830124
 20
-1099.863658941889
 30
0.0
 11
2579.703005482867
 21
-1098.890695059584
 31
0.0
  0
LINE
  5
1F3D
330
1F
100
AcDbEntity
  8
SPOJOVACÍ
  6
Continuous
100
AcDbLine
 10
2576.501587558795
 20
-1032.588463277605
 30
0.0
 11
2576.501587558795
 21
-1037.531417456533
 31
0.0
  0
LINE
  5
1F3E
330
1F
100
AcDbEntity
  8
SPOJOVACÍ
  6
Continuous
100
AcDbLine
 10
2579.200957721531
 20
-1032.588463277605
 30
0.0
 11
2579.200957721531
 21
-1036.626356407285
 31
0.0
  0
LINE
  5
1F41
330
1F
100
AcDbEntity
  8
SPOJOVACÍ
  6
Continuous
100
AcDbLine
 10
2630.937118534081
 20
-1060.426447965636
 30
0.0
 11
2630.746508768973
 21
-1058.900905710398
 31
0.0
  0
LINE
  5
1F42
330
1F
100
AcDbEntity
  8
SPOJOVACÍ
  6
Continuous
100
AcDbLine
 10
2632.285333934592
 20
-1058.384200497245
 30
0.0
 11
2632.078120532034
 21
-1060.041907710497
 31
0.0
  0
LINE
  5
1F43
330
1F
100
AcDbEntity
  8
SPOJOVACÍ
  6
Continuous
100
AcDbLine
 10
2632.612757675872
 20
-1060.23318161989
 30
0.0
 11
2630.38787018954
 21
-1060.685464717663
 31
0.0
  0
LINE
  5
1F44
330
1F
100
AcDbEntity
  8
SPOJOVACÍ
  6
Continuous
100
AcDbLine
 10
2632.343114593902
 20
-1059.962874393827
 30
0.0
 11
2630.657513268396
 21
-1060.530054666524
 31
0.0
  0
LINE
  5
1F45
330
1F
100
AcDbEntity
  8
SPOJOVACÍ
  6
Continuous
100
AcDbLine
 10
2632.612757675872
 20
-1060.23318161989
 30
0.0
 11
2632.343114593902
 21
-1060.388591671028
 31
0.0
  0
LINE
  5
1F46
330
1F
100
AcDbEntity
  8
SPOJOVACÍ
  6
Continuous
100
AcDbLine
 10
2632.343114593902
 20
-1060.388591671028
 30
0.0
 11
2630.657513268396
 21
-1060.955771943528
 31
0.0
  0
LINE
  5
1F47
330
1F
100
AcDbEntity
  8
SPOJOVACÍ
  6
Continuous
100
AcDbLine
 10
2630.38787018954
 20
-1060.685464717663
 30
0.0
 11
2630.657513268396
 21
-1060.530054666524
 31
0.0
  0
LINE
  5
1F48
330
1F
100
AcDbEntity
  8
SPOJOVACÍ
  6
Continuous
100
AcDbLine
 10
2630.38787018954
 20
-1060.685464717663
 30
0.0
 11
2630.657513268396
 21
-1060.955771943528
 31
0.0
  0
LINE
  5
1F49
330
1F
100
AcDbEntity
  8
SPOJOVACÍ
  6
Continuous
100
AcDbLine
 10
2631.179531645156
 20
-1062.36641702423
 30
0.0
 11
2630.988257736545
 21
-1060.834897459352
 31
0.0
  0
LINE
  5
1F4A
330
1F
100
AcDbEntity
  8
SPOJOVACÍ
  6
Continuous
100
AcDbLine
 10
2632.021668162847
 20
-1060.492198371916
 30
0.0
 11
2631.81445476341
 21
-1062.149241439709
 31
0.0
  0
LINE
  5
1F4B
330
1F
100
AcDbEntity
  8
SPOJOVACÍ
  6
Continuous
100
AcDbLine
 10
2632.612757675872
 20
-1060.23318161989
 30
0.0
 11
2632.343114593902
 21
-1059.962874393827
 31
0.0
  0
LINE
  5
1F4C
330
1F
100
AcDbEntity
  8
SPOJOVACÍ
  6
Continuous
100
AcDbLine
 10
2632.209621344597
 20
-1062.402345628027
 30
0.0
 11
2630.671460325595
 21
-1062.624170231089
 31
0.0
  0
LINE
  5
1F4D
330
1F
100
AcDbEntity
  8
SPOJOVACÍ
  6
Continuous
100
AcDbLine
 10
2631.939978265741
 20
-1062.132702547613
 30
0.0
 11
2630.941103404452
 21
-1062.46876017976
 31
0.0
  0
LINE
  5
1F4E
330
1F
100
AcDbEntity
  8
SPOJOVACÍ
  6
Continuous
100
AcDbLine
 10
2631.939978265741
 20
-1062.558419824809
 30
0.0
 11
2630.941103404452
 21
-1062.894477456954
 31
0.0
  0
LINE
  5
1F4F
330
1F
100
AcDbEntity
  8
SPOJOVACÍ
  6
Continuous
100
AcDbLine
 10
2630.671460325595
 20
-1062.624170231089
 30
0.0
 11
2630.941103404452
 21
-1062.46876017976
 31
0.0
  0
LINE
  5
1F50
330
1F
100
AcDbEntity
  8
SPOJOVACÍ
  6
Continuous
100
AcDbLine
 10
2630.671460325595
 20
-1062.624170231089
 30
0.0
 11
2630.941103404452
 21
-1062.894477456954
 31
0.0
  0
LINE
  5
1F51
330
1F
100
AcDbEntity
  8
SPOJOVACÍ
  6
Continuous
100
AcDbLine
 10
2632.209621344597
 20
-1062.402345628027
 30
0.0
 11
2631.939978265741
 21
-1062.132702547613
 31
0.0
  0
LINE
  5
1F52
330
1F
100
AcDbEntity
  8
SPOJOVACÍ
  6
Continuous
100
AcDbLine
 10
2632.209621344597
 20
-1062.402345628027
 30
0.0
 11
2631.939978265741
 21
-1062.558419824809
 31
0.0
  0
LINE
  5
1F53
330
1F
100
AcDbEntity
  8
SPOJOVACÍ
  6
Continuous
100
AcDbLine
 10
2631.759330684344
 20
-1062.609559029607
 30
0.0
 11
2631.483710295261
 21
-1064.815186295521
 31
0.0
  0
LINE
  5
1F54
330
1F
100
AcDbEntity
  8
SPOJOVACÍ
  6
Continuous
100
AcDbLine
 10
2631.483710295261
 20
-1064.815186295521
 30
0.0
 11
2631.230670850734
 21
-1062.790206610615
 31
0.0
  0
LINE
  5
1F9D
330
1F
100
AcDbEntity
  8
SPOJOVACÍ
  6
Continuous
100
AcDbLine
 10
2627.842200418777
 20
-1039.015572508165
 30
0.0
 11
2627.842200418777
 21
-1039.872320226751
 31
0.0
  0
LINE
  5
1F9E
102
{ACAD_REACTORS
330
9F5C
102
}
330
1F
100
AcDbEntity
  8
SPOJOVACÍ
  6
Continuous
100
AcDbLine
 10
2629.770214858475
 20
-1047.829599922036
 30
0.0
 11
2630.039857937328
 21
-1047.67352572525
 31
0.0
  0
LINE
  5
1F9F
102
{ACAD_REACTORS
330
9F5C
102
}
330
1F
100
AcDbEntity
  8
SPOJOVACÍ
  6
Continuous
100
AcDbLine
 10
2629.770214858475
 20
-1047.829599922036
 30
0.0
 11
2630.039857937328
 21
-1048.099243002449
 31
0.0
  0
LINE
  5
1FA0
102
{ACAD_REACTORS
330
9F5C
102
}
330
1F
100
AcDbEntity
  8
SPOJOVACÍ
  6
Continuous
100
AcDbLine
 10
2632.447385441798
 20
-1047.281679869566
 30
0.0
 11
2632.447385441798
 21
-1049.080185932857
 31
0.0
  0
LINE
  5
1FA1
102
{ACAD_REACTORS
330
9F5C
102
}
330
1F
100
AcDbEntity
  8
SPOJOVACÍ
  6
Continuous
100
AcDbLine
 10
2632.447385441798
 20
-1043.973571043422
 30
0.0
 11
2632.447385441798
 21
-1046.856626738014
 31
0.0
  0
LINE
  5
1FA2
102
{ACAD_REACTORS
330
9F5C
102
}
330
1F
100
AcDbEntity
  8
SPOJOVACÍ
  6
Continuous
100
AcDbLine
 10
2630.520035145607
 20
-1043.973571043422
 30
0.0
 11
2630.520035145607
 21
-1047.502840327177
 31
0.0
  0
LINE
  5
1FA3
102
{ACAD_REACTORS
330
9F5C
102
}
330
1F
100
AcDbEntity
  8
SPOJOVACÍ
  6
Continuous
100
AcDbLine
 10
2632.494539773891
 20
-1043.411703935114
 30
0.0
 11
2632.447385441798
 21
-1043.973571043422
 31
0.0
  0
LINE
  5
1FA4
102
{ACAD_REACTORS
330
9F5C
102
}
330
1F
100
AcDbEntity
  8
SPOJOVACÍ
  6
Continuous
100
AcDbLine
 10
2629.236241861256
 20
-1041.014138614355
 30
0.0
 11
2628.352928321702
 21
-1040.3586269879
 31
0.0
  0
LINE
  5
1FA5
102
{ACAD_REACTORS
330
9F5C
102
}
330
1F
100
AcDbEntity
  8
SPOJOVACÍ
  6
Continuous
100
AcDbLine
 10
2628.352928321702
 20
-1040.3586269879
 30
0.0
 11
2627.842200418777
 21
-1040.118206310452
 31
0.0
  0
LINE
  5
1FA6
102
{ACAD_REACTORS
330
9F5C
102
}
330
1F
100
AcDbEntity
  8
SPOJOVACÍ
  6
Continuous
100
AcDbLine
 10
2627.842200418777
 20
-1039.261458591866
 30
0.0
 11
2627.842200418777
 21
-1040.118206310452
 31
0.0
  0
LINE
  5
1FA7
102
{ACAD_REACTORS
330
9F5C
102
}
330
1F
100
AcDbEntity
  8
SPOJOVACÍ
  6
Continuous
100
AcDbLine
 10
2630.520035145607
 20
-1043.973571043422
 30
0.0
 11
2630.357983641514
 21
-1042.885700684674
 31
0.0
  0
LINE
  5
1FA8
102
{ACAD_REACTORS
330
9F5C
102
}
330
1F
100
AcDbEntity
  8
SPOJOVACÍ
  6
Continuous
100
AcDbLine
 10
2630.357983641514
 20
-1042.885700684674
 30
0.0
 11
2629.920311745222
 21
-1041.876199496945
 31
0.0
  0
LINE
  5
1FA9
102
{ACAD_REACTORS
330
9F5C
102
}
330
1F
100
AcDbEntity
  8
SPOJOVACÍ
  6
Continuous
100
AcDbLine
 10
2629.920311745222
 20
-1041.876199496945
 30
0.0
 11
2629.236241861256
 21
-1041.014138614355
 31
0.0
  0
LINE
  5
1FAA
330
1F
100
AcDbEntity
  8
SPOJOVACÍ
  6
Continuous
100
AcDbLine
 10
2630.520035145607
 20
-1052.387630613358
 30
0.0
 11
2630.520035145607
 21
-1054.187464967747
 31
0.0
  0
LINE
  5
1FAB
330
1F
100
AcDbEntity
  8
SPOJOVACÍ
  6
Continuous
100
AcDbLine
 10
2632.447385441798
 20
-1051.735439714547
 30
0.0
 11
2632.447385441798
 21
-1053.540587232934
 31
0.0
  0
LINE
  5
1FAC
330
1F
100
AcDbEntity
  8
SPOJOVACÍ
  6
Continuous
100
AcDbLine
 10
2629.770214858475
 20
-1056.740440339642
 30
0.0
 11
2630.039857937328
 21
-1056.584366142856
 31
0.0
  0
LINE
  5
1FAD
330
1F
100
AcDbEntity
  8
SPOJOVACÍ
  6
Continuous
100
AcDbLine
 10
2629.770214858475
 20
-1056.740440339642
 30
0.0
 11
2630.039857937328
 21
-1057.010083420055
 31
0.0
  0
LINE
  5
1FAE
330
1F
100
AcDbEntity
  8
SPOJOVACÍ
  6
Continuous
100
AcDbLine
 10
2629.770214858475
 20
-1054.512232126056
 30
0.0
 11
2630.039857937328
 21
-1054.356822074917
 31
0.0
  0
LINE
  5
1FAF
330
1F
100
AcDbEntity
  8
SPOJOVACÍ
  6
Continuous
100
AcDbLine
 10
2629.770214858475
 20
-1054.512232126056
 30
0.0
 11
2630.039857937328
 21
-1054.78253935192
 31
0.0
  0
LINE
  5
1FB0
330
1F
100
AcDbEntity
  8
SPOJOVACÍ
  6
Continuous
100
AcDbLine
 10
2630.070408631974
 20
-1058.775382207285
 30
0.0
 11
2630.34005171083
 21
-1058.619972156147
 31
0.0
  0
LINE
  5
1FB1
330
1F
100
AcDbEntity
  8
SPOJOVACÍ
  6
Continuous
100
AcDbLine
 10
2630.070408631974
 20
-1058.775382207285
 30
0.0
 11
2630.34005171083
 21
-1059.045689433348
 31
0.0
  0
LINE
  5
1FB2
330
1F
100
AcDbEntity
  8
SPOJOVACÍ
  6
Continuous
100
AcDbLine
 10
2630.695369563396
 20
-1058.493784507584
 30
0.0
 11
2630.520035145607
 21
-1057.086460154526
 31
0.0
  0
LINE
  5
1FB3
330
1F
100
AcDbEntity
  8
SPOJOVACÍ
  6
Continuous
100
AcDbLine
 10
2632.447385441798
 20
-1057.086460154526
 30
0.0
 11
2632.340458013655
 21
-1057.941215436566
 31
0.0
  0
LINE
  5
1FB4
330
1F
100
AcDbEntity
  8
SPOJOVACÍ
  6
Continuous
100
AcDbLine
 10
2630.520035145607
 20
-1056.846039477076
 30
0.0
 11
2630.520035145607
 21
-1057.086460154526
 31
0.0
  0
LINE
  5
1FB5
330
1F
100
AcDbEntity
  8
SPOJOVACÍ
  6
Continuous
100
AcDbLine
 10
2630.520035145607
 20
-1054.616502972395
 30
0.0
 11
2630.520035145607
 21
-1056.415009035686
 31
0.0
  0
LINE
  5
1FB6
330
1F
100
AcDbEntity
  8
SPOJOVACÍ
  6
Continuous
100
AcDbLine
 10
2632.447385441798
 20
-1056.195841014817
 30
0.0
 11
2632.447385441798
 21
-1057.086460154526
 31
0.0
  0
LINE
  5
1FB7
330
1F
100
AcDbEntity
  8
SPOJOVACÍ
  6
Continuous
100
AcDbLine
 10
2632.447385441798
 20
-1053.972281819777
 30
0.0
 11
2632.447385441798
 21
-1055.770123737617
 31
0.0
  0
LINE
  5
1FB8
330
1F
100
AcDbEntity
  8
SPOJOVACÍ
  6
Continuous
100
AcDbLine
 10
2629.770214858475
 20
-1052.284688058111
 30
0.0
 11
2630.039857937328
 21
-1052.12927800678
 31
0.0
  0
LINE
  5
1FB9
330
1F
100
AcDbEntity
  8
SPOJOVACÍ
  6
Continuous
100
AcDbLine
 10
2629.770214858475
 20
-1052.284688058111
 30
0.0
 11
2630.039857937328
 21
-1052.554995283976
 31
0.0
  0
LINE
  5
1FBA
102
{ACAD_REACTORS
330
9F5C
102
}
330
1F
100
AcDbEntity
  8
SPOJOVACÍ
  6
Continuous
100
AcDbLine
 10
2629.770214858475
 20
-1050.057143990173
 30
0.0
 11
2630.039857937328
 21
-1049.901069793385
 31
0.0
  0
LINE
  5
1FBB
102
{ACAD_REACTORS
330
9F5C
102
}
330
1F
100
AcDbEntity
  8
SPOJOVACÍ
  6
Continuous
100
AcDbLine
 10
2629.770214858475
 20
-1050.057143990173
 30
0.0
 11
2630.039857937328
 21
-1050.326787070388
 31
0.0
  0
LINE
  5
1FBC
102
{ACAD_REACTORS
330
9F5C
102
}
330
1F
100
AcDbEntity
  8
SPOJOVACÍ
  6
Continuous
100
AcDbLine
 10
2630.520035145607
 20
-1050.158094108867
 30
0.0
 11
2630.520035145607
 21
-1051.963241627257
 31
0.0
  0
LINE
  5
1FBD
102
{ACAD_REACTORS
330
9F5C
102
}
330
1F
100
AcDbEntity
  8
SPOJOVACÍ
  6
Continuous
100
AcDbLine
 10
2630.520035145607
 20
-1047.933870768377
 30
0.0
 11
2630.520035145607
 21
-1049.732376831666
 31
0.0
  0
LINE
  5
1FBE
102
{ACAD_REACTORS
330
9F5C
102
}
330
1F
100
AcDbEntity
  8
SPOJOVACÍ
  6
Continuous
100
AcDbLine
 10
2632.447385441798
 20
-1049.511216374055
 30
0.0
 11
2632.447385441798
 21
-1051.311050728446
 31
0.0
  0
LINE
  5
1FBF
102
{ACAD_REACTORS
330
9F5C
102
}
330
1F
100
AcDbEntity
  8
SPOJOVACÍ
  6
Continuous
100
AcDbLine
 10
2633.197205732048
 20
-1049.200396271581
 30
0.0
 11
2632.927562650078
 21
-1048.930753191168
 31
0.0
  0
LINE
  5
1FC0
102
{ACAD_REACTORS
330
9F5C
102
}
330
1F
100
AcDbEntity
  8
SPOJOVACÍ
  6
Continuous
100
AcDbLine
 10
2633.197205732048
 20
-1049.200396271581
 30
0.0
 11
2632.927562650078
 21
-1049.356470468367
 31
0.0
  0
LINE
  5
1FC1
102
{ACAD_REACTORS
330
9F5C
102
}
330
1F
100
AcDbEntity
  8
SPOJOVACÍ
  6
Continuous
100
AcDbLine
 10
2633.197205732048
 20
-1046.972852203643
 30
0.0
 11
2632.927562650078
 21
-1046.702544977778
 31
0.0
  0
LINE
  5
1FC2
102
{ACAD_REACTORS
330
9F5C
102
}
330
1F
100
AcDbEntity
  8
SPOJOVACÍ
  6
Continuous
100
AcDbLine
 10
2633.197205732048
 20
-1046.972852203643
 30
0.0
 11
2632.927562650078
 21
-1047.128262254781
 31
0.0
  0
LINE
  5
1FC3
102
{ACAD_REACTORS
330
9F5C
102
}
330
1F
100
AcDbEntity
  8
SPOJOVACÍ
  6
Continuous
100
AcDbLine
 10
2635.125220171746
 20
-1040.118206310452
 30
0.0
 11
2634.161545022092
 21
-1040.649522724895
 31
0.0
  0
LINE
  5
1FC4
102
{ACAD_REACTORS
330
9F5C
102
}
330
1F
100
AcDbEntity
  8
SPOJOVACÍ
  6
Continuous
100
AcDbLine
 10
2634.161545022092
 20
-1040.649522724895
 30
0.0
 11
2633.368555273234
 21
-1041.412625925334
 31
0.0
  0
LINE
  5
1FC5
102
{ACAD_REACTORS
330
9F5C
102
}
330
1F
100
AcDbEntity
  8
SPOJOVACÍ
  6
Continuous
100
AcDbLine
 10
2633.368555273234
 20
-1041.412625925334
 30
0.0
 11
2632.800046711002
 21
-1042.354384270039
 31
0.0
  0
LINE
  5
1FC7
330
1F
100
AcDbEntity
  8
SPOJOVACÍ
  6
Continuous
100
AcDbLine
 10
2633.197205732048
 20
-1055.883692621248
 30
0.0
 11
2632.927562650078
 21
-1055.613385395186
 31
0.0
  0
LINE
  5
1FC8
330
1F
100
AcDbEntity
  8
SPOJOVACÍ
  6
Continuous
100
AcDbLine
 10
2633.197205732048
 20
-1055.883692621248
 30
0.0
 11
2632.927562650078
 21
-1056.039102672387
 31
0.0
  0
LINE
  5
1FC9
330
1F
100
AcDbEntity
  8
SPOJOVACÍ
  6
Continuous
100
AcDbLine
 10
2633.197205732048
 20
-1053.65548440766
 30
0.0
 11
2632.927562650078
 21
-1053.385841327247
 31
0.0
  0
LINE
  5
1FCA
330
1F
100
AcDbEntity
  8
SPOJOVACÍ
  6
Continuous
100
AcDbLine
 10
2633.197205732048
 20
-1053.65548440766
 30
0.0
 11
2632.927562650078
 21
-1053.811558604443
 31
0.0
  0
LINE
  5
1FCB
330
1F
100
AcDbEntity
  8
SPOJOVACÍ
  6
Continuous
100
AcDbLine
 10
2633.015894004033
 20
-1058.08068599532
 30
0.0
 11
2632.745586778556
 21
-1057.811042914906
 31
0.0
  0
LINE
  5
1FCC
330
1F
100
AcDbEntity
  8
SPOJOVACÍ
  6
Continuous
100
AcDbLine
 10
2633.015894004033
 20
-1058.08068599532
 30
0.0
 11
2632.745586778556
 21
-1058.236760192107
 31
0.0
  0
LINE
  5
1FCD
102
{ACAD_REACTORS
330
9F5C
102
}
330
1F
100
AcDbEntity
  8
SPOJOVACÍ
  6
Continuous
100
AcDbLine
 10
2633.197205732048
 20
-1051.427940339716
 30
0.0
 11
2632.927562650078
 21
-1051.158297259303
 31
0.0
  0
LINE
  5
1FCE
330
1F
100
AcDbEntity
  8
SPOJOVACÍ
  6
Continuous
100
AcDbLine
 10
2633.197205732048
 20
-1051.427940339716
 30
0.0
 11
2632.927562650078
 21
-1051.584014536504
 31
0.0
  0
LINE
  5
1FCF
102
{ACAD_REACTORS
330
9F5C
102
}
330
1F
100
AcDbEntity
  8
SPOJOVACÍ
  6
Continuous
100
AcDbLine
 10
2632.927562650078
 20
-1046.702544977778
 30
0.0
 11
2630.039857937328
 21
-1047.67352572525
 31
0.0
  0
LINE
  5
1FD0
102
{ACAD_REACTORS
330
9F5C
102
}
330
1F
100
AcDbEntity
  8
SPOJOVACÍ
  6
Continuous
100
AcDbLine
 10
2632.927562650078
 20
-1047.128262254781
 30
0.0
 11
2630.039857937328
 21
-1048.099243002449
 31
0.0
  0
LINE
  5
1FD1
330
1F
100
AcDbEntity
  8
SPOJOVACÍ
  6
Continuous
100
AcDbLine
 10
2633.197205732048
 20
-1046.972852203643
 30
0.0
 11
2629.770214858475
 21
-1047.829599922036
 31
0.0
  0
LINE
  5
1FD2
102
{ACAD_REACTORS
330
9F5C
102
}
330
1F
100
AcDbEntity
  8
SPOJOVACÍ
  6
Continuous
100
AcDbLine
 10
2632.800046711002
 20
-1042.354384270039
 30
0.0
 11
2632.494539773891
 21
-1043.411703935114
 31
0.0
  0
LINE
  5
1FD3
102
{ACAD_REACTORS
330
9F5C
102
}
330
1F
100
AcDbEntity
  8
SPOJOVACÍ
  6
Continuous
100
AcDbLine
 10
2635.125220171746
 20
-1040.118206310452
 30
0.0
 11
2627.842200418777
 21
-1040.118206310452
 31
0.0
  0
LINE
  5
1FD4
330
1F
100
AcDbEntity
  8
SPOJOVACÍ
  6
Continuous
100
AcDbLine
 10
2635.125220171746
 20
-1039.261458591866
 30
0.0
 11
2627.842200418777
 21
-1039.261458591866
 31
0.0
  0
LINE
  5
1FD5
330
1F
100
AcDbEntity
  8
SPOJOVACÍ
  6
Continuous
100
AcDbLine
 10
2632.927562650078
 20
-1055.613385395186
 30
0.0
 11
2630.039857937328
 21
-1056.584366142856
 31
0.0
  0
LINE
  5
1FD6
330
1F
100
AcDbEntity
  8
SPOJOVACÍ
  6
Continuous
100
AcDbLine
 10
2632.927562650078
 20
-1056.039102672387
 30
0.0
 11
2630.039857937328
 21
-1057.010083420055
 31
0.0
  0
LINE
  5
1FD7
330
1F
100
AcDbEntity
  8
SPOJOVACÍ
  6
Continuous
100
AcDbLine
 10
2633.197205732048
 20
-1055.883692621248
 30
0.0
 11
2629.770214858475
 21
-1056.740440339642
 31
0.0
  0
LINE
  5
1FD8
330
1F
100
AcDbEntity
  8
SPOJOVACÍ
  6
Continuous
100
AcDbLine
 10
2632.927562650078
 20
-1053.385841327247
 30
0.0
 11
2630.039857937328
 21
-1054.356822074917
 31
0.0
  0
LINE
  5
1FD9
330
1F
100
AcDbEntity
  8
SPOJOVACÍ
  6
Continuous
100
AcDbLine
 10
2632.927562650078
 20
-1053.811558604443
 30
0.0
 11
2630.039857937328
 21
-1054.78253935192
 31
0.0
  0
LINE
  5
1FDA
330
1F
100
AcDbEntity
  8
SPOJOVACÍ
  6
Continuous
100
AcDbLine
 10
2633.197205732048
 20
-1053.65548440766
 30
0.0
 11
2629.770214858475
 21
-1054.512232126056
 31
0.0
  0
LINE
  5
1FDB
330
1F
100
AcDbEntity
  8
SPOJOVACÍ
  6
Continuous
100
AcDbLine
 10
2633.015894004033
 20
-1058.08068599532
 30
0.0
 11
2630.070408631974
 21
-1058.775382207285
 31
0.0
  0
LINE
  5
1FDC
330
1F
100
AcDbEntity
  8
SPOJOVACÍ
  6
Continuous
100
AcDbLine
 10
2632.745586778556
 20
-1057.811042914906
 30
0.0
 11
2630.34005171083
 21
-1058.619972156147
 31
0.0
  0
LINE
  5
1FDD
330
1F
100
AcDbEntity
  8
SPOJOVACÍ
  6
Continuous
100
AcDbLine
 10
2632.745586778556
 20
-1058.236760192107
 30
0.0
 11
2630.34005171083
 21
-1059.045689433348
 31
0.0
  0
LINE
  5
1FDE
102
{ACAD_REACTORS
330
9F5C
102
}
330
1F
100
AcDbEntity
  8
SPOJOVACÍ
  6
Continuous
100
AcDbLine
 10
2632.927562650078
 20
-1051.158297259303
 30
0.0
 11
2630.039857937328
 21
-1052.12927800678
 31
0.0
  0
LINE
  5
1FDF
330
1F
100
AcDbEntity
  8
SPOJOVACÍ
  6
Continuous
100
AcDbLine
 10
2632.927562650078
 20
-1051.584014536504
 30
0.0
 11
2630.039857937328
 21
-1052.554995283976
 31
0.0
  0
LINE
  5
1FE0
330
1F
100
AcDbEntity
  8
SPOJOVACÍ
  6
Continuous
100
AcDbLine
 10
2633.197205732048
 20
-1051.427940339716
 30
0.0
 11
2629.770214858475
 21
-1052.284688058111
 31
0.0
  0
LINE
  5
1FE1
102
{ACAD_REACTORS
330
9F5C
102
}
330
1F
100
AcDbEntity
  8
SPOJOVACÍ
  6
Continuous
100
AcDbLine
 10
2632.927562650078
 20
-1048.930753191168
 30
0.0
 11
2630.039857937328
 21
-1049.901069793385
 31
0.0
  0
LINE
  5
1FE2
102
{ACAD_REACTORS
330
9F5C
102
}
330
1F
100
AcDbEntity
  8
SPOJOVACÍ
  6
Continuous
100
AcDbLine
 10
2632.927562650078
 20
-1049.356470468367
 30
0.0
 11
2630.039857937328
 21
-1050.326787070388
 31
0.0
  0
LINE
  5
1FE3
330
1F
100
AcDbEntity
  8
SPOJOVACÍ
  6
Continuous
100
AcDbLine
 10
2633.197205732048
 20
-1049.200396271581
 30
0.0
 11
2629.770214858475
 21
-1050.057143990173
 31
0.0
  0
LINE
  5
1FE4
330
1F
100
AcDbEntity
  8
SPOJOVACÍ
  6
Continuous
100
AcDbLine
 10
2577.851272642346
 20
-1061.754125354468
 30
0.0
 11
2577.496875661217
 21
-1058.918019353199
 31
0.0
  0
LINE
  5
1FE5
330
1F
100
AcDbEntity
  8
SPOJOVACÍ
  6
Continuous
100
AcDbLine
 10
2578.237295596244
 20
-1058.665011536663
 30
0.0
 11
2577.851272642346
 21
-1061.754125354468
 31
0.0
  0
LINE
  5
1FE6
330
1F
100
AcDbEntity
  8
NOSNÉ KONSTRUKCE
100
AcDbLine
 10
2582.72521563496
 20
-1069.079427361888
 30
0.0
 11
2584.225215634959
 21
-1069.079427361888
 31
0.0
  0
INSERT
  5
1FE7
102
{ACAD_REACTORS
330
9F5C
102
}
330
1F
100
AcDbEntity
  8
POPIS
100
AcDbBlockReference
  2
E_PUNKT
 10
2622.756832205953
 20
-1051.759313672133
 30
0.0
 41
-1.0
  0
LINE
  5
1FE8
102
{ACAD_REACTORS
330
9F5C
102
}
330
1F
100
AcDbEntity
  8
CETRIS
100
AcDbLine
 10
2603.914002579951
 20
-1039.261458591867
 30
0.0
 11
2603.914002579954
 21
-1051.261458591866
 31
0.0
  0
LINE
  5
1FE9
330
1F
100
AcDbEntity
  8
SPOJOVACÍ
  6
Continuous
100
AcDbLine
 10
2580.25112619527
 20
-1036.78913717147
 30
0.0
 11
2579.873474819959
 21
-1037.006798307519
 31
0.0
  0
LINE
  5
1FEA
330
1F
100
AcDbEntity
  8
SPOJOVACÍ
  6
Continuous
100
AcDbLine
 10
2580.25112619527
 20
-1036.78913717147
 30
0.0
 11
2579.873474819959
 21
-1036.41055562264
 31
0.0
  0
LINE
  5
1FEB
330
1F
100
AcDbEntity
  8
SPOJOVACÍ
  6
Continuous
100
AcDbLine
 10
2580.25112619527
 20
-1039.908946790432
 30
0.0
 11
2579.873474819959
 21
-1040.127538102459
 31
0.0
  0
LINE
  5
1FEC
330
1F
100
AcDbEntity
  8
SPOJOVACÍ
  6
Continuous
100
AcDbLine
 10
2580.25112619527
 20
-1039.908946790432
 30
0.0
 11
2579.873474819959
 21
-1039.531295417304
 31
0.0
  0
LINE
  5
1FED
330
1F
100
AcDbEntity
  8
SPOJOVACÍ
  6
Continuous
100
AcDbLine
 10
2580.25112619527
 20
-1043.02875640967
 30
0.0
 11
2579.873474819959
 21
-1043.247347721697
 31
0.0
  0
LINE
  5
1FEE
330
1F
100
AcDbEntity
  8
SPOJOVACÍ
  6
Continuous
100
AcDbLine
 10
2580.25112619527
 20
-1043.02875640967
 30
0.0
 11
2579.873474819959
 21
-1042.651105036542
 31
0.0
  0
LINE
  5
1FEF
330
1F
100
AcDbEntity
  8
SPOJOVACÍ
  6
Continuous
100
AcDbLine
 10
2580.25112619527
 20
-1036.78913717147
 30
0.0
 11
2575.451419089421
 21
-1037.989063947932
 31
0.0
  0
LINE
  5
1FF0
330
1F
100
AcDbEntity
  8
SPOJOVACÍ
  6
Continuous
100
AcDbLine
 10
2580.25112619527
 20
-1039.908946790432
 30
0.0
 11
2575.451419089421
 21
-1041.108873567171
 31
0.0
  0
LINE
  5
1FF1
330
1F
100
AcDbEntity
  8
SPOJOVACÍ
  6
Continuous
100
AcDbLine
 10
2580.25112619527
 20
-1043.02875640967
 30
0.0
 11
2575.451419089421
 21
-1044.228683186133
 31
0.0
  0
LINE
  5
1FF2
330
1F
100
AcDbEntity
  8
SPOJOVACÍ
  6
Continuous
100
AcDbLine
 10
2579.200957721531
 20
-1037.221668916461
 30
0.0
 11
2579.200957721531
 21
-1039.74058497149
 31
0.0
  0
LINE
  5
1FF3
330
1F
100
AcDbEntity
  8
SPOJOVACÍ
  6
Continuous
100
AcDbLine
 10
2579.200957721531
 20
-1040.344269062805
 30
0.0
 11
2579.200957721531
 21
-1042.865045469514
 31
0.0
  0
LINE
  5
1FF4
330
1F
100
AcDbEntity
  8
SPOJOVACÍ
  6
Continuous
100
AcDbLine
 10
2579.200957721531
 20
-1043.459427802989
 30
0.0
 11
2579.200957721531
 21
-1045.987645615858
 31
0.0
  0
LINE
  5
1FF5
330
1F
100
AcDbEntity
  8
SPOJOVACÍ
  6
Continuous
100
AcDbLine
 10
2576.501587558795
 20
-1038.135101547848
 30
0.0
 11
2576.501587558795
 21
-1040.654017602877
 31
0.0
  0
LINE
  5
1FF6
330
1F
100
AcDbEntity
  8
SPOJOVACÍ
  6
Continuous
100
AcDbLine
 10
2576.501587558795
 20
-1041.250260288032
 30
0.0
 11
2576.501587558795
 21
-1043.778478100901
 31
0.0
  0
LINE
  5
1FF7
330
1F
100
AcDbEntity
  8
SPOJOVACÍ
  6
Continuous
100
AcDbLine
 10
2575.451419089421
 20
-1037.989063947932
 30
0.0
 11
2575.829070460367
 21
-1038.366715321061
 31
0.0
  0
LINE
  5
1FF8
330
1F
100
AcDbEntity
  8
SPOJOVACÍ
  6
Continuous
100
AcDbLine
 10
2575.451419089421
 20
-1037.989063947932
 30
0.0
 11
2575.829070460367
 21
-1037.770472635906
 31
0.0
  0
LINE
  5
1FF9
330
1F
100
AcDbEntity
  8
SPOJOVACÍ
  6
Continuous
100
AcDbLine
 10
2575.451419089421
 20
-1041.108873567171
 30
0.0
 11
2575.829070460367
 21
-1041.486524940022
 31
0.0
  0
LINE
  5
1FFA
330
1F
100
AcDbEntity
  8
SPOJOVACÍ
  6
Continuous
100
AcDbLine
 10
2575.451419089421
 20
-1041.108873567171
 30
0.0
 11
2575.829070460367
 21
-1040.890282255144
 31
0.0
  0
LINE
  5
1FFB
330
1F
100
AcDbEntity
  8
SPOJOVACÍ
  6
Continuous
100
AcDbLine
 10
2579.873474819959
 20
-1037.006798307519
 30
0.0
 11
2575.829070460367
 21
-1038.366715321061
 31
0.0
  0
LINE
  5
1FFC
330
1F
100
AcDbEntity
  8
SPOJOVACÍ
  6
Continuous
100
AcDbLine
 10
2579.873474819959
 20
-1036.41055562264
 30
0.0
 11
2575.829070460367
 21
-1037.770472635906
 31
0.0
  0
LINE
  5
1FFD
330
1F
100
AcDbEntity
  8
SPOJOVACÍ
  6
Continuous
100
AcDbLine
 10
2579.873474819959
 20
-1040.127538102459
 30
0.0
 11
2575.829070460367
 21
-1041.486524940022
 31
0.0
  0
LINE
  5
1FFE
330
1F
100
AcDbEntity
  8
SPOJOVACÍ
  6
Continuous
100
AcDbLine
 10
2579.873474819959
 20
-1039.531295417304
 30
0.0
 11
2575.829070460367
 21
-1040.890282255144
 31
0.0
  0
LINE
  5
1FFF
330
1F
100
AcDbEntity
  8
SPOJOVACÍ
  6
Continuous
100
AcDbLine
 10
2579.873474819959
 20
-1043.247347721697
 30
0.0
 11
2575.829070460367
 21
-1044.607264734963
 31
0.0
  0
LINE
  5
2000
330
1F
100
AcDbEntity
  8
SPOJOVACÍ
  6
Continuous
100
AcDbLine
 10
2579.873474819959
 20
-1042.651105036542
 30
0.0
 11
2575.829070460367
 21
-1044.011022049815
 31
0.0
  0
LINE
  5
2001
330
1F
100
AcDbEntity
  8
SPOJOVACÍ
  6
Continuous
100
AcDbLine
 10
2580.25112619527
 20
-1049.26930582358
 30
0.0
 11
2579.873474819959
 21
-1048.890724274473
 31
0.0
  0
LINE
  5
2002
330
1F
100
AcDbEntity
  8
SPOJOVACÍ
  6
Continuous
100
AcDbLine
 10
2579.200957721531
 20
-1046.592259883144
 30
0.0
 11
2579.200957721531
 21
-1049.110245762471
 31
0.0
  0
LINE
  5
2003
330
1F
100
AcDbEntity
  8
SPOJOVACÍ
  6
Continuous
100
AcDbLine
 10
2576.501587558795
 20
-1047.494530405018
 30
0.0
 11
2576.501587558795
 21
-1050.013446460047
 31
0.0
  0
LINE
  5
2004
330
1F
100
AcDbEntity
  8
SPOJOVACÍ
  6
Continuous
100
AcDbLine
 10
2579.873474819959
 20
-1048.890724274473
 30
0.0
 11
2575.829070460367
 21
-1050.250641288015
 31
0.0
  0
LINE
  5
2005
330
1F
100
AcDbEntity
  8
SPOJOVACÍ
  6
Continuous
100
AcDbLine
 10
2580.25112619527
 20
-1049.26930582358
 30
0.0
 11
2579.873474819959
 21
-1049.486966959628
 31
0.0
  0
LINE
  5
2006
330
1F
100
AcDbEntity
  8
SPOJOVACÍ
  6
Continuous
100
AcDbLine
 10
2580.25112619527
 20
-1049.26930582358
 30
0.0
 11
2575.451419089421
 21
-1050.469232600042
 31
0.0
  0
LINE
  5
2007
330
1F
100
AcDbEntity
  8
SPOJOVACÍ
  6
Continuous
100
AcDbLine
 10
2579.997188200849
 20
-1052.346327355893
 30
0.0
 11
2579.618606652565
 21
-1052.56491866792
 31
0.0
  0
LINE
  5
2008
330
1F
100
AcDbEntity
  8
SPOJOVACÍ
  6
Continuous
100
AcDbLine
 10
2579.997188200849
 20
-1052.346327355893
 30
0.0
 11
2579.618606652565
 21
-1051.968675982765
 31
0.0
  0
LINE
  5
2009
330
1F
100
AcDbEntity
  8
SPOJOVACÍ
  6
Continuous
100
AcDbLine
 10
2579.997188200849
 20
-1052.346327355893
 30
0.0
 11
2575.871858548106
 21
-1053.319291238198
 31
0.0
  0
LINE
  5
200A
330
1F
100
AcDbEntity
  8
SPOJOVACÍ
  6
Continuous
100
AcDbLine
 10
2576.747153970263
 20
-1052.9248967008
 30
0.0
 11
2576.501587558795
 21
-1050.953854189514
 31
0.0
  0
LINE
  5
200B
330
1F
100
AcDbEntity
  8
SPOJOVACÍ
  6
Continuous
100
AcDbLine
 10
2579.618606652565
 20
-1051.968675982765
 30
0.0
 11
2576.249509919052
 21
-1053.10163010215
 31
0.0
  0
LINE
  5
200C
330
1F
100
AcDbEntity
  8
SPOJOVACÍ
  6
Continuous
100
AcDbLine
 10
2578.973994826282
 20
-1052.771417694724
 30
0.0
 11
2578.683779976763
 21
-1055.093136480789
 31
0.0
  0
LINE
  5
200D
330
1F
100
AcDbEntity
  8
SPOJOVACÍ
  6
Continuous
100
AcDbLine
 10
2578.604715033924
 20
-1055.723795670454
 30
0.0
 11
2578.314500188771
 21
-1058.044584280809
 31
0.0
  0
LINE
  5
200E
330
1F
100
AcDbEntity
  8
SPOJOVACÍ
  6
Continuous
100
AcDbLine
 10
2577.425252123993
 20
-1058.348751766132
 30
0.0
 11
2577.157361495682
 21
-1056.203766381148
 31
0.0
  0
LINE
  5
200F
330
1F
100
AcDbEntity
  8
SPOJOVACÍ
  6
Continuous
100
AcDbLine
 10
2577.085737962824
 20
-1055.631708266699
 30
0.0
 11
2576.818777507487
 21
-1053.495094463846
 31
0.0
  0
LINE
  5
2010
330
1F
100
AcDbEntity
  8
SPOJOVACÍ
  6
Continuous
100
AcDbLine
 10
2575.871858548106
 20
-1053.319291238198
 30
0.0
 11
2576.249509919052
 21
-1053.697872787304
 31
0.0
  0
LINE
  5
2011
330
1F
100
AcDbEntity
  8
SPOJOVACÍ
  6
Continuous
100
AcDbLine
 10
2575.871858548106
 20
-1053.319291238198
 30
0.0
 11
2576.249509919052
 21
-1053.10163010215
 31
0.0
  0
LINE
  5
2012
330
1F
100
AcDbEntity
  8
SPOJOVACÍ
  6
Continuous
100
AcDbLine
 10
2579.618606652565
 20
-1052.56491866792
 30
0.0
 11
2576.249509919052
 21
-1053.697872787304
 31
0.0
  0
LINE
  5
2013
330
1F
100
AcDbEntity
  8
SPOJOVACÍ
  6
Continuous
100
AcDbLine
 10
2579.432571494743
 20
-1055.361027110191
 30
0.0
 11
2579.054920119432
 21
-1055.57868824624
 31
0.0
  0
LINE
  5
2014
330
1F
100
AcDbEntity
  8
SPOJOVACÍ
  6
Continuous
100
AcDbLine
 10
2579.432571494743
 20
-1055.361027110191
 30
0.0
 11
2579.054920119432
 21
-1054.982445561085
 31
0.0
  0
LINE
  5
2015
330
1F
100
AcDbEntity
  8
SPOJOVACÍ
  6
Continuous
100
AcDbLine
 10
2576.316482578312
 20
-1055.994476826961
 30
0.0
 11
2576.694133949258
 21
-1056.373058375791
 31
0.0
  0
LINE
  5
2016
330
1F
100
AcDbEntity
  8
SPOJOVACÍ
  6
Continuous
100
AcDbLine
 10
2576.316482578312
 20
-1055.994476826961
 30
0.0
 11
2576.694133949258
 21
-1055.776815690913
 31
0.0
  0
LINE
  5
2017
330
1F
100
AcDbEntity
  8
SPOJOVACÍ
  6
Continuous
100
AcDbLine
 10
2579.054920119432
 20
-1055.57868824624
 30
0.0
 11
2576.694133949258
 21
-1056.373058375791
 31
0.0
  0
LINE
  5
2018
330
1F
100
AcDbEntity
  8
SPOJOVACÍ
  6
Continuous
100
AcDbLine
 10
2579.054920119432
 20
-1054.982445561085
 30
0.0
 11
2576.694133949258
 21
-1055.776815690913
 31
0.0
  0
LINE
  5
2019
330
1F
100
AcDbEntity
  8
SPOJOVACÍ
  6
Continuous
100
AcDbLine
 10
2579.432571494743
 20
-1055.361027110191
 30
0.0
 11
2576.316482578312
 21
-1055.994476826961
 31
0.0
  0
LINE
  5
201A
330
1F
100
AcDbEntity
  8
SPOJOVACÍ
  6
Continuous
100
AcDbLine
 10
2578.867954784272
 20
-1058.374796688511
 30
0.0
 11
2578.490303413326
 21
-1058.59338800053
 31
0.0
  0
LINE
  5
201B
330
1F
100
AcDbEntity
  8
SPOJOVACÍ
  6
Continuous
100
AcDbLine
 10
2578.867954784272
 20
-1058.374796688511
 30
0.0
 11
2578.490303413326
 21
-1057.997145315383
 31
0.0
  0
LINE
  5
201C
330
1F
100
AcDbEntity
  8
SPOJOVACÍ
  6
Continuous
100
AcDbLine
 10
2576.713667642815
 20
-1058.685475404285
 30
0.0
 11
2577.09131901376
 21
-1059.064056953115
 31
0.0
  0
LINE
  5
201D
330
1F
100
AcDbEntity
  8
SPOJOVACÍ
  6
Continuous
100
AcDbLine
 10
2576.713667642815
 20
-1058.685475404285
 30
0.0
 11
2577.09131901376
 21
-1058.467814267967
 31
0.0
  0
LINE
  5
201E
330
1F
100
AcDbEntity
  8
SPOJOVACÍ
  6
Continuous
100
AcDbLine
 10
2578.490303413326
 20
-1058.59338800053
 30
0.0
 11
2577.09131901376
 21
-1059.064056953115
 31
0.0
  0
LINE
  5
201F
330
1F
100
AcDbEntity
  8
SPOJOVACÍ
  6
Continuous
100
AcDbLine
 10
2578.490303413326
 20
-1057.997145315383
 30
0.0
 11
2577.09131901376
 21
-1058.467814267967
 31
0.0
  0
LINE
  5
2020
330
1F
100
AcDbEntity
  8
SPOJOVACÍ
  6
Continuous
100
AcDbLine
 10
2578.867954784272
 20
-1058.374796688511
 30
0.0
 11
2576.713667642815
 21
-1058.685475404285
 31
0.0
  0
LINE
  5
2021
330
1F
100
AcDbEntity
  8
SPOJOVACÍ
  6
Continuous
100
AcDbLine
 10
2579.200957721531
 20
-1049.706488447626
 30
0.0
 11
2579.200957721531
 21
-1050.953854189514
 31
0.0
  0
LINE
  5
2022
330
1F
100
AcDbEntity
  8
SPOJOVACÍ
  6
Continuous
100
AcDbLine
 10
2576.501587558795
 20
-1050.617130551631
 30
0.0
 11
2576.501587558795
 21
-1050.953854189514
 31
0.0
  0
LINE
  5
2023
330
1F
100
AcDbEntity
  8
SPOJOVACÍ
  6
Continuous
100
AcDbLine
 10
2579.200957721531
 20
-1050.953854189514
 30
0.0
 11
2579.051199418808
 21
-1052.150990438871
 31
0.0
  0
LINE
  5
2024
330
1F
100
AcDbEntity
  8
SPOJOVACÍ
  6
Continuous
100
AcDbLine
 10
2575.451419089421
 20
-1050.469232600042
 30
0.0
 11
2575.829070460367
 21
-1050.84688397317
 31
0.0
  0
LINE
  5
2025
330
1F
100
AcDbEntity
  8
SPOJOVACÍ
  6
Continuous
100
AcDbLine
 10
2575.451419089421
 20
-1050.469232600042
 30
0.0
 11
2575.829070460367
 21
-1050.250641288015
 31
0.0
  0
LINE
  5
2026
330
1F
100
AcDbEntity
  8
SPOJOVACÍ
  6
Continuous
100
AcDbLine
 10
2579.873474819959
 20
-1049.486966959628
 30
0.0
 11
2575.829070460367
 21
-1050.84688397317
 31
0.0
  0
LINE
  5
2027
330
1F
100
AcDbEntity
  8
SPOJOVACÍ
  6
Continuous
100
AcDbLine
 10
2580.25112619527
 20
-1046.14856602864
 30
0.0
 11
2579.873474819959
 21
-1046.367157340659
 31
0.0
  0
LINE
  5
2028
330
1F
100
AcDbEntity
  8
SPOJOVACÍ
  6
Continuous
100
AcDbLine
 10
2580.25112619527
 20
-1046.14856602864
 30
0.0
 11
2579.873474819959
 21
-1045.770914655512
 31
0.0
  0
LINE
  5
2029
330
1F
100
AcDbEntity
  8
SPOJOVACÍ
  6
Continuous
100
AcDbLine
 10
2580.25112619527
 20
-1046.14856602864
 30
0.0
 11
2575.451419089421
 21
-1047.348492805102
 31
0.0
  0
LINE
  5
202A
330
1F
100
AcDbEntity
  8
SPOJOVACÍ
  6
Continuous
100
AcDbLine
 10
2576.501587558795
 20
-1044.372860434376
 30
0.0
 11
2576.501587558795
 21
-1046.893636841085
 31
0.0
  0
LINE
  5
202B
330
1F
100
AcDbEntity
  8
SPOJOVACÍ
  6
Continuous
100
AcDbLine
 10
2575.451419089421
 20
-1044.228683186133
 30
0.0
 11
2575.829070460367
 21
-1044.607264734963
 31
0.0
  0
LINE
  5
202C
330
1F
100
AcDbEntity
  8
SPOJOVACÍ
  6
Continuous
100
AcDbLine
 10
2575.451419089421
 20
-1044.228683186133
 30
0.0
 11
2575.829070460367
 21
-1044.011022049815
 31
0.0
  0
LINE
  5
202D
330
1F
100
AcDbEntity
  8
SPOJOVACÍ
  6
Continuous
100
AcDbLine
 10
2575.451419089421
 20
-1047.348492805102
 30
0.0
 11
2575.829070460367
 21
-1047.727074353932
 31
0.0
  0
LINE
  5
202E
330
1F
100
AcDbEntity
  8
SPOJOVACÍ
  6
Continuous
100
AcDbLine
 10
2575.451419089421
 20
-1047.348492805102
 30
0.0
 11
2575.829070460367
 21
-1047.130831669054
 31
0.0
  0
LINE
  5
202F
330
1F
100
AcDbEntity
  8
SPOJOVACÍ
  6
Continuous
100
AcDbLine
 10
2579.873474819959
 20
-1046.367157340659
 30
0.0
 11
2575.829070460367
 21
-1047.727074353932
 31
0.0
  0
LINE
  5
2030
330
1F
100
AcDbEntity
  8
SPOJOVACÍ
  6
Continuous
100
AcDbLine
 10
2579.873474819959
 20
-1045.770914655512
 30
0.0
 11
2575.829070460367
 21
-1047.130831669054
 31
0.0
  0
LINE
  5
203F
330
1F
100
AcDbEntity
  8
SPOJOVACÍ
  6
Continuous
100
AcDbLine
 10
2580.49111154707
 20
-1029.001705409135
 30
0.0
 11
2579.694881067752
 21
-1030.320694687432
 31
0.0
  0
LINE
  5
2040
330
1F
100
AcDbEntity
  8
SPOJOVACÍ
  6
Continuous
100
AcDbLine
 10
2572.751118753712
 20
-1025.988866006517
 30
0.0
 11
2572.751118753712
 21
-1027.188792783248
 31
0.0
  0
LINE
  5
2041
330
1F
100
AcDbEntity
  8
SPOJOVACÍ
  6
Continuous
100
AcDbLine
 10
2575.661638818764
 20
-1029.650968114472
 30
0.0
 11
2574.70355774878
 21
-1028.443599931573
 31
0.0
  0
LINE
  5
2042
330
1F
100
AcDbEntity
  8
SPOJOVACÍ
  6
Continuous
100
AcDbLine
 10
2576.274624667911
 20
-1031.064835324176
 30
0.0
 11
2575.661638818764
 21
-1029.650968114472
 31
0.0
  0
LINE
  5
2043
330
1F
100
AcDbEntity
  8
SPOJOVACÍ
  6
Continuous
100
AcDbLine
 10
2576.501587558795
 20
-1032.588463277605
 30
0.0
 11
2576.274624667911
 21
-1031.064835324176
 31
0.0
  0
LINE
  5
2044
330
1F
100
AcDbEntity
  8
SPOJOVACÍ
  6
Continuous
100
AcDbLine
 10
2573.46642393988
 20
-1027.525516421132
 30
0.0
 11
2572.751118753712
 21
-1027.188792783248
 31
0.0
  0
LINE
  5
2045
330
1F
100
AcDbEntity
  8
SPOJOVACÍ
  6
Continuous
100
AcDbLine
 10
2574.70355774878
 20
-1028.443599931573
 30
0.0
 11
2573.46642393988
 21
-1027.525516421132
 31
0.0
  0
LINE
  5
2046
330
1F
100
AcDbEntity
  8
SPOJOVACÍ
  6
Continuous
100
AcDbLine
 10
2579.267000203453
 20
-1031.801534554482
 30
0.0
 11
2579.200957721531
 21
-1032.588463277605
 31
0.0
  0
LINE
  5
2047
330
1F
100
AcDbEntity
  8
SPOJOVACÍ
  6
Continuous
100
AcDbLine
 10
2579.694881067752
 20
-1030.320694687432
 30
0.0
 11
2579.267000203453
 21
-1031.801534554482
 31
0.0
  0
LINE
  5
2048
330
1F
100
AcDbEntity
  8
SPOJOVACÍ
  6
Continuous
100
AcDbLine
 10
2582.95142653098
 20
-1025.988866006517
 30
0.0
 11
2582.95142653098
 21
-1027.188792783248
 31
0.0
  0
LINE
  5
2049
330
1F
100
AcDbEntity
  8
SPOJOVACÍ
  6
Continuous
100
AcDbLine
 10
2582.95142653098
 20
-1027.188792783248
 30
0.0
 11
2581.601741447429
 21
-1027.932933419723
 31
0.0
  0
LINE
  5
204B
330
1F
100
AcDbEntity
  8
SPOJOVACÍ
  6
Continuous
100
AcDbLine
 10
2582.95142653098
 20
-1027.188792783248
 30
0.0
 11
2572.751118753712
 21
-1027.188792783248
 31
0.0
  0
LINE
  5
204C
330
1F
100
AcDbEntity
  8
SPOJOVACÍ
  6
Continuous
100
AcDbLine
 10
2582.95142653098
 20
-1025.988866006517
 30
0.0
 11
2572.751118753712
 21
-1025.988866006517
 31
0.0
  0
LINE
  5
204D
330
1F
100
AcDbEntity
  8
SPOJOVACÍ
  6
Continuous
100
AcDbLine
 10
2581.601741447429
 20
-1027.932933419723
 30
0.0
 11
2580.49111154707
 21
-1029.001705409135
 31
0.0
  0
LINE
  5
204E
330
1F
100
AcDbEntity
  8
NOSNÉ KONSTRUKCE
100
AcDbLine
 10
2598.914002579954
 20
-1112.396057727237
 30
0.0
 11
2434.763785626
 21
-1112.396057727237
 31
0.0
  0
LINE
  5
204F
330
1F
100
AcDbEntity
  8
izolace
  6
IZOLACE
 48
1.5
100
AcDbLine
 10
2598.914002579953
 20
-1075.389120125408
 30
0.0
 11
2432.723839989451
 21
-1075.389120125408
 31
0.0
  0
LINE
  5
2050
330
1F
100
AcDbEntity
  8
NOSNÉ KONSTRUKCE
  6
DASHED
100
AcDbLine
 10
2598.914002579954
 20
-1092.043434749867
 30
0.0
 11
2435.912340822226
 21
-1092.043434749867
 31
0.0
  0
LINE
  5
2051
330
1F
100
AcDbEntity
  8
NOSNÉ KONSTRUKCE
100
AcDbLine
 10
2598.914002579954
 20
-1100.516057244679
 30
0.0
 11
2435.434207138774
 21
-1100.516057244679
 31
0.0
  0
LINE
  5
2052
330
1F
100
AcDbEntity
  8
NOSNÉ KONSTRUKCE
  6
DASHED
100
AcDbLine
 10
2598.914002579952
 20
-1058.749070448095
 30
0.0
 11
2437.791234523855
 21
-1058.749070448095
 31
0.0
  0
LINE
  5
2053
330
1F
100
AcDbEntity
  8
NOSNÉ KONSTRUKCE
100
AcDbLine
 10
2598.914002579952
 20
-1050.48177421318
 30
0.0
 11
2438.257781074632
 21
-1050.48177421318
 31
0.0
  0
LINE
  5
2054
330
1F
100
AcDbEntity
  8
NOSNÉ KONSTRUKCE
100
AcDbLine
 10
2598.914002579952
 20
-1038.825406339682
 30
0.0
 11
2438.915582376464
 21
-1038.825406339682
 31
0.0
  0
INSERT
  5
205C
330
1F
100
AcDbEntity
  8
POPIS
100
AcDbBlockReference
  2
_ArchTick
 10
2742.717316606259
 20
-1174.686947808791
 30
0.0
 41
20.0
 42
20.0
 43
20.0
 50
180.0
  0
INSERT
  5
205D
330
1F
100
AcDbEntity
  8
POPIS
100
AcDbBlockReference
  2
_ArchTick
 10
2732.606513507468
 20
-1174.686947808791
 30
0.0
 41
20.0
 42
20.0
 43
20.0
 50
180.0
  0
LINE
  5
205E
330
1F
100
AcDbEntity
  8
POPIS
100
AcDbLine
 10
2721.847349643292
 20
-1174.686947808791
 30
0.0
 11
2787.682377247394
 21
-1174.686947808791
 31
0.0
  0
MTEXT
  5
205F
330
1F
100
AcDbEntity
  8
POPIS
100
AcDbMText
 10
2761.353527060693
 20
-1158.225488054358
 30
0.0
 40
20.0
 41
0.0
 71
     5
 72
     1
  1
{\fArial|b0|i0|c238|p34;>5}
 73
     1
 44
1.0
  0
LINE
  5
2060
330
1F
100
AcDbEntity
  8
POPIS
100
AcDbLine
 10
2732.606513507468
 20
-1139.359461938145
 30
0.0
 11
2732.606513507468
 21
-1187.186947808791
 31
0.0
  0
LINE
  5
2061
330
1F
100
AcDbEntity
  8
POPIS
100
AcDbLine
 10
2742.717316606259
 20
-1139.359461938145
 30
0.0
 11
2742.717316606259
 21
-1187.186947808791
 31
0.0
  0
LINE
  5
206F
102
{ACAD_REACTORS
330
9F5C
102
}
330
1F
100
AcDbEntity
  8
0
100
AcDbLine
 10
2431.498028839189
 20
-1170.265907462097
 30
0.0
 11
2441.88925907199
 21
-986.1312730150348
 31
0.0
  0
LINE
  5
2070
330
1F
100
AcDbEntity
  8
POPIS
100
AcDbLine
 10
2760.844853015104
 20
-1025.888885785121
 30
0.0
 11
2730.727450354363
 21
-966.3282026727813
 31
0.0
  0
LINE
  5
2071
330
1F
100
AcDbEntity
  8
POPIS
100
AcDbLine
 10
2699.500143653793
 20
-1025.846813361688
 30
0.0
 11
2730.727450354363
 21
-966.3282026727813
 31
0.0
  0
LINE
  5
2072
330
1F
100
AcDbEntity
  8
POPIS
100
AcDbLine
 10
2730.727450354363
 20
-966.3282026727813
 30
0.0
 11
2708.313133980252
 21
-1037.988866006516
 31
0.0
  0
INSERT
  5
2073
330
1F
100
AcDbEntity
  8
POPIS
100
AcDbBlockReference
  2
E_PUNKT
 10
2707.642283984313
 20
-1038.669977092813
 30
0.0
  0
INSERT
  5
2074
330
1F
100
AcDbEntity
  8
POPIS
100
AcDbBlockReference
  2
E_PUNKT
 10
2699.666040552427
 20
-1025.718181478119
 30
0.0
  0
TEXT
  5
2075
330
1F
100
AcDbEntity
  8
POPIS
100
AcDbText
 10
3073.348387249453
 20
-1169.62676919176
 30
0.0
 40
25.0
  1
CW profil 50
 41
0.7
  7
SIMPLEX7
100
AcDbText
  0
TEXT
  5
2076
330
1F
100
AcDbEntity
  8
POPIS
100
AcDbText
 10
3073.348387249453
 20
-1029.600046738253
 30
0.0
 40
25.0
  1
Vrut 4,2x35 (45,55) mm
 41
0.7
  7
SIMPLEX7
100
AcDbText
  0
TEXT
  5
2077
330
1F
100
AcDbEntity
  8
POPIS
100
AcDbText
 10
3073.348387249453
 20
-1100.337336434311
 30
0.0
 40
25.0
  1
Minerální plsť (vzduchová mezera)
 41
0.7
  7
SIMPLEX7
100
AcDbText
  0
TEXT
  5
2078
330
1F
100
AcDbEntity
  8
POPIS
100
AcDbText
 10
3073.348387249453
 20
-1135.741497652474
 30
0.0
 40
25.0
  1
CW profil 75
 41
0.7
  7
SIMPLEX7
100
AcDbText
  0
TEXT
  5
2079
330
1F
100
AcDbEntity
  8
POPIS
100
AcDbText
 10
3073.348387249453
 20
-1206.462309194652
 30
0.0
 40
25.0
  1
Tmel DEXAFLAMM - R
 41
0.7
  7
SIMPLEX7
100
AcDbText
  0
TEXT
  5
207B
330
1F
100
AcDbEntity
  8
POPIS
100
AcDbText
 10
3019.004684089711
 20
-1135.741497652474
 30
0.0
 40
25.0
  1
04
 41
0.85
  7
SIMPLEX7
100
AcDbText
  0
TEXT
  5
207C
330
1F
100
AcDbEntity
  8
POPIS
100
AcDbText
 10
3019.004684089711
 20
-1169.62676919176
 30
0.0
 40
25.0
  1
05
 41
0.85
  7
SIMPLEX7
100
AcDbText
  0
TEXT
  5
207D
330
1F
100
AcDbEntity
  8
POPIS
100
AcDbText
 10
3019.004684089711
 20
-1206.462309194652
 30
0.0
 40
25.0
  1
06
 41
0.85
  7
SIMPLEX7
100
AcDbText
  0
TEXT
  5
2081
330
1F
100
AcDbEntity
  8
POPIS
100
AcDbText
 10
3019.004684089711
 20
-993.0050351226256
 30
0.0
 40
25.0
  1
01
 41
0.85
  7
SIMPLEX7
100
AcDbText
  0
TEXT
  5
2082
330
1F
100
AcDbEntity
  8
POPIS
100
AcDbText
 10
3019.004684089711
 20
-1029.600046738253
 30
0.0
 40
25.0
  1
02
 41
0.85
  7
SIMPLEX7
100
AcDbText
  0
TEXT
  5
2083
330
1F
100
AcDbEntity
  8
POPIS
100
AcDbText
 10
3019.004684089711
 20
-1100.337336434311
 30
0.0
 40
25.0
  1
03
 41
0.85
  7
SIMPLEX7
100
AcDbText
  0
TEXT
  5
2084
330
1F
100
AcDbEntity
  8
POPIS
100
AcDbText
 10
3073.348387249453
 20
-993.0050351226256
 30
0.0
 40
25.0
  1
Deska CETRIS   
 41
0.7
  7
SIMPLEX7
100
AcDbText
  0
TEXT
  5
2085
330
1F
100
AcDbEntity
  8
POPIS
100
AcDbText
 10
3240.974572488498
 20
-968.0297250143452
 30
0.0
 40
12.0
  1
R
 41
0.85
  7
SIMPLEX7
100
AcDbText
  0
CIRCLE
  5
2086
330
1F
100
AcDbEntity
  8
POPIS
100
AcDbCircle
 10
3245.73360154368
 20
-962.4843792693575
 30
0.0
 40
11.13656048292026
  0
LINE
  5
2087
330
1F
100
AcDbEntity
  8
POPIS
100
AcDbLine
 10
2784.483403263927
 20
-1041.320874407242
 30
0.0
 11
2784.483403263927
 21
-966.3282026727813
 31
0.0
  0
TEXT
  5
2088
330
1F
100
AcDbEntity
  8
POPIS
100
AcDbText
 10
2764.98797032978
 20
-961.6271395362584
 30
0.0
 40
25.0
  1
04
 41
0.85
  7
SIMPLEX7
100
AcDbText
  0
INSERT
  5
208A
330
1F
100
AcDbEntity
  8
POPIS
100
AcDbBlockReference
  2
E_PUNKT
 10
2785.226682562738
 20
-1041.438644675795
 30
0.0
  0
INSERT
  5
208C
330
1F
100
AcDbEntity
  8
POPIS
100
AcDbBlockReference
  2
E_PUNKT
 10
2667.920548606178
 20
-1031.606939701482
 30
0.0
  0
TEXT
  5
79A9
330
1F
100
AcDbEntity
  8
POPIS
100
AcDbText
 10
2439.782183863935
 20
-925.7569138012041
 30
0.0
 40
25.0
  1
Vodorovný řez
 41
0.7
  7
SIMPLEX7
100
AcDbText
  0
TEXT
  5
79AA
330
1F
100
AcDbEntity
  8
POPIS
100
AcDbText
 10
2439.782183863935
 20
-886.3420258003152
 30
0.0
 40
35.0
  1
Detail spáry - EI>60 min
 41
0.85
  7
SIMPLEX7
100
AcDbText
  0
LINE
  5
9D5D
330
1F
100
AcDbEntity
  8
izolace
  6
IZOLACE
 48
1.5
100
AcDbLine
 10
2734.777902732366
 20
-1075.389120125408
 30
0.0
 11
2609.234613712928
 21
-1075.389120125408
 31
0.0
  0
HATCH
  5
9DF2
330
1F
100
AcDbEntity
  8
CETRIS
100
AcDbHatch
 10
0.0
 20
0.0
 30
0.0
210
0.0
220
0.0
230
1.0
  2
ANSI31
 70
     0
 71
     0
 91
        9
 92
        7
 72
     0
 73
     1
 93
       12
 10
2784.483403263928
 20
-1025.905097959012
 10
2766.596141845102
 20
-1025.892830227298
 10
2766.596141845101
 20
-1027.188792783248
 10
2765.880836658933
 20
-1027.525516421131
 10
2764.643702850034
 20
-1028.443599931573
 10
2763.685621780048
 20
-1029.650968114473
 10
2763.072635930902
 20
-1031.064835324174
 10
2762.845673040018
 20
-1032.588463277607
 10
2762.845673040018
 20
-1037.544341081652
 10
2763.518190138447
 20
-1037.770472635906
 10
2763.895499534011
 20
-1037.988866006516
 10
2784.483403263927
 20
-1037.988866006516
 97
        0
 92
        7
 72
     0
 73
     1
 93
        4
 10
2859.409847874445
 20
-1025.956485228376
 10
2784.483403263927
 20
-1025.905097959012
 10
2784.483403263927
 20
-1037.988866006517
 10
2859.409847874444
 20
-1037.988866006517
 97
        0
 92
        7
 72
     0
 73
     1
 93
        4
 10
2913.479817345071
 20
-1025.99356837172
 10
2859.409847874445
 20
-1025.956485228376
 10
2859.409847874444
 20
-1037.988866006517
 10
2912.802889292897
 20
-1037.988866006517
 97
        0
 92
        7
 72
     1
 73
     1
 93
       16
 10
2760.146302877283
 20
-1032.588463277608
 42
0.0
 10
2760.08026039536
 20
-1031.801534554481
 42
0.0
 10
2759.652379531061
 20
-1030.320694687433
 42
0.0
 10
2758.856149051743
 20
-1029.001705409134
 42
0.0
 10
2757.745519151384
 20
-1027.932933419723
 42
0.0
 10
2756.395834067833
 20
-1027.188792783248
 42
0.0
 10
2756.395834067834
 20
-1025.885834486795
 42
0.0
 10
2712.108270359161
 20
-1025.855460471617
 42
0.0
 10
2708.421574616342
 20
-1037.642171162701
 42
-0.0944918877747431
 10
2708.736355913442
 20
-1037.988866006516
 42
0.0
 10
2760.146302877283
 20
-1037.988866006517
 42
0.0
 10
2760.146302877282
 20
-1037.232929861818
 42
0.0
 10
2759.473785778854
 20
-1037.006798307519
 42
0.0
 10
2759.096134403543
 20
-1036.789137171471
 42
0.0
 10
2759.473785778855
 20
-1036.41055562264
 42
0.0
 10
2760.146302877282
 20
-1036.636687176893
 42
0.0
 97
        0
 92
        7
 72
     1
 73
     1
 93
       13
 10
2712.108270359161
 20
-1025.855460471617
 42
0.0
 10
2704.930761010652
 20
-1025.850537875754
 42
0.0
 10
2704.930761010652
 20
-1027.050464652486
 42
0.0
 10
2704.215455824485
 20
-1027.38718829037
 42
0.0
 10
2702.978322015584
 20
-1028.305271800811
 42
0.0
 10
2702.020240945601
 20
-1029.51263998371
 42
0.0
 10
2701.407255096453
 20
-1030.926507193412
 42
0.0
 10
2701.180292205569
 20
-1032.450135146839
 42
0.0
 10
2701.180292205569
 20
-1037.40601295089
 42
0.0
 10
2701.852809303997
 20
-1037.632144505144
 42
0.0
 10
2702.469102617717
 20
-1037.988866006516
 42
0.0
 10
2706.603432806438
 20
-1037.988866006516
 42
-0.4427438712533715
 10
2708.421574616342
 20
-1037.6421711627
 42
0.0
 97
        0
 92
        7
 72
     0
 73
     1
 93
       15
 10
2697.986998696612
 20
-1030.18236655667
 10
2697.190768217293
 20
-1028.863377278372
 10
2696.080138316935
 20
-1027.79460528896
 10
2694.730453233384
 20
-1027.050464652486
 10
2694.730453233384
 20
-1025.843542135251
 10
2674.673630299397
 20
-1025.829786439674
 10
2674.673630299394
 20
-1037.988866006516
 10
2698.480922042833
 20
-1037.988866006516
 10
2698.480922042833
 20
-1037.094601731056
 10
2697.808404944406
 20
-1036.868470176756
 10
2697.430753569094
 20
-1036.650809040708
 10
2697.808404944405
 20
-1036.272227491878
 10
2698.480922042833
 20
-1036.498359046131
 10
2698.480922042833
 20
-1032.450135146838
 10
2698.414879560911
 20
-1031.663206423717
 97
        0
 92
        7
 72
     0
 73
     1
 93
        4
 10
2664.673630299416
 20
-1025.988866006518
 10
2622.553498482343
 20
-1025.988866006518
 10
2622.553498482343
 20
-1037.988866006518
 10
2664.673630299416
 20
-1037.988866006518
 97
        0
 92
        7
 72
     0
 73
     1
 93
       15
 10
2622.553498482343
 20
-1025.988866006518
 10
2582.951426530979
 20
-1025.988866006517
 10
2582.95142653098
 20
-1027.188792783248
 10
2581.601741447429
 20
-1027.932933419723
 10
2580.491111547071
 20
-1029.001705409136
 10
2579.694881067753
 20
-1030.320694687432
 10
2579.267000203453
 20
-1031.801534554482
 10
2579.200957721531
 20
-1032.588463277608
 10
2579.200957721531
 20
-1036.636687176893
 10
2579.873474819959
 20
-1036.41055562264
 10
2580.25112619527
 20
-1036.78913717147
 10
2579.87347481996
 20
-1037.006798307519
 10
2579.200957721531
 20
-1037.232929861818
 10
2579.200957721532
 20
-1037.988866006518
 10
2622.553498482343
 20
-1037.988866006518
 97
        0
 92
        7
 72
     1
 73
     1
 93
       14
 10
2576.274624667912
 20
-1031.064835324177
 42
0.0
 10
2575.661638818764
 20
-1029.650968114473
 42
0.0
 10
2574.703557748779
 20
-1028.443599931573
 42
0.0
 10
2573.466423939879
 20
-1027.525516421132
 42
0.0
 10
2572.751118753712
 20
-1027.188792783248
 42
0.0
 10
2572.751118753712
 20
-1025.988866006517
 42
0.0
 10
2527.300302687362
 20
-1025.988866006517
 42
-1.0
 10
2524.800302687362
 20
-1025.988866006517
 42
0.0
 10
2439.639984096951
 20
-1025.988866006517
 42
0.0
 10
2438.962790677211
 20
-1037.988866006517
 42
0.0
 10
2575.451761064801
 20
-1037.988866006517
 42
0.0
 10
2575.829070460368
 20
-1037.770472635906
 42
0.0
 10
2576.501587558795
 20
-1037.544341081653
 42
0.0
 10
2576.501587558795
 20
-1032.588463277604
 42
0.0
 97
        0
 75
     0
 76
     1
 52
90.0
 41
2.5
 77
     0
 78
     1
 53
135.0
 43
0.0
 44
0.0
 45
-5.612660075668221
 46
-5.61266007566822
 79
     0
 47
0.5956873112137924
 98
       13
 10
2814.127351164771
 20
-1028.022199577575
 10
2884.983022500117
 20
-1028.022199577575
 10
2777.976514870792
 20
-1030.91225872088
 10
2738.933572203375
 20
-1030.91225872088
 10
2775.04719771197
 20
-1031.162097261891
 10
2810.218089401002
 20
-1030.566404145058
 10
2890.693852358294
 20
-1031.757790378727
 10
2745.241358617895
 20
-1032.94916192206
 10
2705.301539944587
 20
-1031.757790378727
 10
2693.37920950037
 20
-1031.162097261891
 10
2649.266563486409
 20
-1029.970725718558
 10
2609.92284445673
 20
-1030.566404145058
 10
2563.425747934157
 20
-1032.353468805224
  0
HATCH
  5
9E7B
330
1F
100
AcDbEntity
  8
CETRIS
100
AcDbHatch
 10
0.0
 20
0.0
 30
0.0
210
0.0
220
0.0
230
1.0
  2
ANSI31
 70
     0
 71
     1
 91
        4
 92
        7
 72
     0
 73
     1
 93
       20
 10
2630.520035145607
 20
-1103.133772299531
 10
2630.039857937327
 20
-1102.972424806089
 10
2629.770214858475
 20
-1102.816350609304
 10
2630.039857937328
 20
-1102.546707529087
 10
2630.520035145607
 20
-1102.708055022495
 10
2630.520035145607
 20
-1101.612036007611
 10
2603.914002579954
 20
-1101.612036007611
 10
2603.91400257995
 20
-1113.612036007611
 10
2627.842200418777
 20
-1113.612036007611
 10
2627.842200418776
 20
-1112.755288289025
 10
2628.568726925212
 20
-1112.354722332192
 10
2629.236241861256
 20
-1111.859355985119
 10
2629.920311745222
 20
-1110.99729510253
 10
2630.357983641514
 20
-1109.987793914804
 10
2630.520035145607
 20
-1108.899923556053
 10
2630.520035145606
 20
-1105.361426803964
 10
2630.039857937328
 20
-1105.199968874227
 10
2629.770214858475
 20
-1105.043894677439
 10
2630.039857937328
 20
-1104.774251597026
 10
2630.520035145607
 20
-1104.935709526796
 97
       20
330
1E93
330
1EBD
330
1EB3
330
1E98
330
1EB4
330
D26
330
1EE0
330
D27
330
1E51
330
1E52
330
1E53
330
1E31
330
1EDF
330
1EBC
330
1EBA
330
1E94
330
1EB5
330
1EB6
330
1E95
330
1EB7
 92
        7
 72
     0
 73
     1
 93
       43
 10
2698.489343899455
 20
-1102.98627571385
 10
2697.816826801028
 20
-1103.212407268149
 10
2697.439175425716
 20
-1102.833825719043
 10
2697.816826801025
 20
-1102.616164582994
 10
2698.489343899455
 20
-1102.390033028694
 10
2698.489343899455
 20
-1101.61203600761
 10
2633.030723983235
 20
-1101.612036007611
 10
2632.927562650078
 20
-1101.715197340172
 10
2632.620760000298
 20
-1101.61203600761
 10
2632.447385441798
 20
-1101.612036007611
 10
2632.447385441798
 20
-1103.3556766377
 10
2632.927562650076
 20
-1103.517024131107
 10
2633.197205732048
 20
-1103.673098327895
 10
2632.927562650077
 20
-1103.942741408309
 10
2632.447385441798
 20
-1103.781393914867
 10
2632.447385441798
 20
-1105.583774414925
 10
2632.927562650078
 20
-1105.745232344695
 10
2633.197205732048
 20
-1105.900642395834
 10
2632.927562650078
 20
-1106.170949621698
 10
2632.447385441798
 20
-1106.009491691961
 10
2632.447385441798
 20
-1108.899923556045
 10
2632.494539773891
 20
-1109.461790664364
 10
2632.800046711001
 20
-1110.519110329435
 10
2633.368555273234
 20
-1111.460868674141
 10
2634.161545022092
 20
-1112.223971874582
 10
2635.125220171746
 20
-1112.755288289025
 10
2635.125220171746
 20
-1113.612036007611
 10
2698.489343899455
 20
-1113.612036007611
 10
2698.489343899455
 20
-1112.345859243749
 10
2697.816826801028
 20
-1112.571836125319
 10
2697.439175425716
 20
-1112.19418475219
 10
2697.816826801028
 20
-1111.975593440163
 10
2698.489343899455
 20
-1111.74961655864
 10
2698.489343899455
 20
-1109.225894951825
 10
2697.816826801027
 20
-1109.45202650608
 10
2697.439175425716
 20
-1109.074375132952
 10
2697.816826801025
 20
-1108.855783820926
 10
2698.489343899455
 20
-1108.629652266672
 10
2698.489343899455
 20
-1106.106085332811
 10
2697.816826801028
 20
-1106.332216887111
 10
2697.439175425716
 20
-1105.954565513983
 10
2697.816826801028
 20
-1105.735974201964
 10
2698.489343899455
 20
-1105.509842647709
 97
       42
330
16AA
330
16AD
330
16A8
330
16FA
330
16F7
330
D26
330
1EA3
330
1E90
330
1EBE
330
1E98
330
1EA6
330
1EA5
330
1E93
330
1EB8
330
1E95
330
1EA8
330
1EA7
330
1E94
330
1EB9
330
1EBB
330
1E97
330
1E32
330
1E4D
330
1E4F
330
1E50
330
D27
330
16BC
330
16D3
330
16B2
330
16B3
330
16D4
330
16BB
330
16D0
330
16B0
330
16B1
330
16D1
330
16BA
330
16CD
330
16AE
330
16AF
330
16CE
330
16B6
 92
        7
 72
     0
 73
     1
 93
       40
 10
2706.899875157015
 20
-1106.07051545051
 10
2706.419697948735
 20
-1106.231973380247
 10
2706.150054866766
 20
-1105.961666154383
 10
2706.419697948735
 20
-1105.806256103245
 10
2706.899875157015
 20
-1105.644798173474
 10
2706.899875157015
 20
-1103.842417673416
 10
2706.419697948735
 20
-1104.003765166858
 10
2706.150054866765
 20
-1103.734122086444
 10
2706.419697948735
 20
-1103.578047889656
 10
2706.899875157015
 20
-1103.416700396248
 10
2706.899875157015
 20
-1101.614763168982
 10
2706.419697948736
 20
-1101.776221098721
 10
2706.255512856678
 20
-1101.612036007611
 10
2702.326334271445
 20
-1101.61203600761
 10
2702.238882531563
 20
-1101.63389894258
 10
2701.86123116062
 20
-1101.852490254606
 10
2701.188714062191
 20
-1102.078621808906
 10
2701.188714062191
 20
-1104.602188742946
 10
2701.86123116062
 20
-1104.376057188691
 10
2702.238882531565
 20
-1104.754638737521
 10
2701.861231160619
 20
-1104.97229987357
 10
2701.188714062191
 20
-1105.198431427869
 10
2701.188714062191
 20
-1107.721998361913
 10
2701.86123116062
 20
-1107.495866807659
 10
2702.238882531565
 20
-1107.87444835649
 10
2701.86123116062
 20
-1108.092109492807
 10
2701.188714062191
 20
-1108.318241047062
 10
2701.188714062191
 20
-1110.842583484124
 10
2701.86123116062
 20
-1110.6166066026
 10
2702.238882531565
 20
-1110.994257975451
 10
2701.861231160619
 20
-1111.212849287478
 10
2701.188714062191
 20
-1111.438826169048
 10
2701.188714062191
 20
-1113.612036007611
 10
2704.222040427067
 20
-1113.612036007611
 10
2704.222040427067
 20
-1112.816312047573
 10
2705.185715576722
 20
-1112.28499563313
 10
2705.978705325578
 20
-1111.521892432689
 10
2706.54721388781
 20
-1110.580134087985
 10
2706.852720824921
 20
-1109.522814422913
 10
2706.899875157015
 20
-1108.960947314601
 97
       40
330
C2B
330
C2F
330
C30
330
C2C
330
C43
330
C24
330
C28
330
C29
330
C25
330
C42
330
C08
330
C0C
330
D26
330
16AB
330
16F8
330
16AA
330
16A9
330
16CE
330
16C5
330
16C4
330
16CD
330
16B7
330
16D1
330
16C7
330
16C6
330
16D0
330
16B8
330
16D4
330
16C9
330
16C8
330
16D3
330
16B9
330
D27
330
C4C
330
C46
330
C47
330
C48
330
C49
330
C4A
330
C44
 92
        7
 72
     0
 73
     1
 93
       20
 10
2735.433258018859
 20
-1101.612036007611
 10
2708.827225453206
 20
-1101.612036007611
 10
2708.827225453206
 20
-1102.769078781044
 10
2709.307402661485
 20
-1102.607731287636
 10
2709.577045740338
 20
-1102.877374367852
 10
2709.307402661486
 20
-1103.033448564638
 10
2708.827225453207
 20
-1103.194796058079
 10
2708.827225453207
 20
-1104.996733285345
 10
2709.307402661485
 20
-1104.835275355574
 10
2709.577045740338
 20
-1105.104918435988
 10
2709.307402661488
 20
-1105.260992632775
 10
2708.827225453207
 20
-1105.422450562514
 10
2708.827225453207
 20
-1108.960947314604
 10
2708.989276957298
 20
-1110.048817673351
 10
2709.426948853591
 20
-1111.058318861079
 10
2710.111018737557
 20
-1111.920379743668
 10
2710.778533673598
 20
-1112.415746090739
 10
2711.505060180037
 20
-1112.816312047574
 10
2711.505060180036
 20
-1113.612036007611
 10
2735.433258018862
 20
-1113.61203600761
 97
       20
330
D26
330
C3F
330
C25
330
C27
330
C26
330
C24
330
C40
330
C2C
330
C2E
330
C2D
330
C2B
330
C45
330
C4D
330
C4E
330
C4F
330
C4B
330
B9F
330
B9E
330
D27
330
1B3E
 75
     0
 76
     1
 52
90.0
 41
2.5
 77
     0
 78
     1
 53
135.0
 43
0.0
 44
0.0
 45
-5.612660075668221
 46
-5.61266007566822
 79
     0
 47
0.5956873112137924
 98
        4
 10
2623.633551732986
 20
-1103.835952379584
 10
2662.977244795616
 20
-1105.027323922917
 10
2704.705414333908
 20
-1107.410081699918
 10
2723.781148238071
 20
-1107.410081699918
  0
HATCH
  5
9F5C
330
1F
100
AcDbEntity
  8
CETRIS
100
AcDbHatch
 10
0.0
 20
0.0
 30
0.0
210
0.0
220
0.0
230
1.0
  2
ANSI31
 70
     0
 71
     1
 91
       10
 92
        7
 72
     0
 73
     1
 93
       15
 10
2908.500890878437
 20
-1114.221120291266
 10
2762.973354289371
 20
-1114.221120291266
 10
2762.973354289371
 20
-1114.977056435964
 10
2763.645871387799
 20
-1115.203187990264
 10
2764.02352276311
 20
-1115.420849126312
 10
2763.645871387799
 20
-1115.799430675143
 10
2762.973354289371
 20
-1115.573299120889
 10
2762.97335428937
 20
-1119.621523020181
 10
2763.039396771292
 20
-1120.408451743301
 10
2763.467277635591
 20
-1121.889291610351
 10
2764.263508114909
 20
-1123.208280888647
 10
2765.374138015269
 20
-1124.277052878061
 10
2766.72382309882
 20
-1125.021193514534
 10
2766.72382309882
 20
-1126.146999787818
 10
2907.823661572965
 20
-1126.221756193486
 97
       15
330
EA5
330
D73
330
D5C
330
D60
330
D5F
330
D5B
330
D74
330
D7A
330
D79
330
D78
330
D77
330
D76
330
D7E
330
EA6
330
17BB
 92
        7
 72
     0
 73
     1
 93
       20
 10
2760.273984126635
 20
-1114.66564521613
 10
2759.601467028205
 20
-1114.439513661876
 10
2759.224157632641
 20
-1114.221120291266
 10
2702.053931916418
 20
-1114.221120291266
 10
2701.861231160619
 20
-1114.332658906716
 10
2701.188714062191
 20
-1114.558790460969
 10
2701.188714062191
 20
-1119.514668265015
 10
2701.415676953075
 20
-1121.038296218447
 10
2702.028662802223
 20
-1122.452163428151
 10
2702.986743872207
 20
-1123.659531611049
 10
2704.223877681107
 20
-1124.577615121491
 10
2704.939182867274
 20
-1124.914338759374
 10
2704.939182867274
 20
-1126.114265536106
 10
2756.523515321552
 20
-1126.141595541049
 10
2756.523515321552
 20
-1125.021193514534
 10
2757.23882050772
 20
-1124.684469876651
 10
2758.475954316617
 20
-1123.766386366209
 10
2759.434035386604
 20
-1122.559018183311
 10
2760.047021235751
 20
-1121.145150973605
 10
2760.273984126635
 20
-1119.62152302018
 97
       20
330
D5B
330
D5D
330
EA5
330
16CA
330
16D6
330
16BE
330
16C3
330
16D9
330
16CC
330
1700
330
1701
330
1702
330
EA6
330
D80
330
D7C
330
D7B
330
D83
330
D82
330
D81
330
D75
 92
        7
 72
     0
 73
     1
 93
       15
 10
2698.489343899455
 20
-1115.466444365729
 10
2697.816826801027
 20
-1115.692575919982
 10
2697.439175425717
 20
-1115.313994371152
 10
2697.816826801025
 20
-1115.096333235105
 10
2698.489343899455
 20
-1114.870201680804
 10
2698.489343899455
 20
-1114.221120291266
 10
2674.673630299386
 20
-1114.221120291266
 10
2674.673630299389
 20
-1126.098230479297
 10
2694.738875090006
 20
-1126.108861289337
 10
2694.738875090006
 20
-1124.914338759374
 10
2696.088560173557
 20
-1124.1701981229
 10
2697.199190073917
 20
-1123.101426133487
 10
2697.995420553234
 20
-1121.78243685519
 10
2698.423301417534
 20
-1120.30159698814
 10
2698.489343899456
 20
-1119.514668265009
 97
       15
330
16D6
330
16B4
330
16B5
330
16D7
330
16BC
330
EA5
330
1A2E
330
EA6
330
16DA
330
16AC
330
16BF
330
16C0
330
16C1
330
16C2
330
16BD
 92
        7
 72
     0
 73
     1
 93
       12
 10
2664.673630299408
 20
-1114.221120291269
 10
2580.123102966169
 20
-1114.221120291267
 10
2579.745793570607
 20
-1114.439513661877
 10
2579.073276472179
 20
-1114.66564521613
 10
2579.073276472179
 20
-1119.621523020175
 10
2579.300239363062
 20
-1121.145150973607
 10
2579.91322521221
 20
-1122.559018183311
 10
2580.871306282194
 20
-1123.766386366209
 10
2582.108440091095
 20
-1124.684469876651
 10
2582.823745277261
 20
-1125.021193514534
 10
2582.823745277261
 20
-1126.221120291267
 10
2664.673630299408
 20
-1126.221120291267
 97
       12
330
DE0
330
1EF8
330
1EE5
330
1EEE
330
1EF4
330
1EF7
330
1EF5
330
1EFD
330
1EFB
330
1EFC
330
DDF
330
1A2E
 92
        7
 72
     0
 73
     1
 93
       15
 10
2576.373906309442
 20
-1115.573299120889
 10
2575.701389211014
 20
-1115.799430675142
 10
2575.323737835704
 20
-1115.420849126312
 10
2575.701389211013
 20
-1115.203187990264
 10
2576.373906309442
 20
-1114.977056435964
 10
2576.373906309442
 20
-1114.221120291267
 10
2434.660792262752
 20
-1114.221120291266
 10
2433.983598843013
 20
-1126.221120291267
 10
2572.623437499993
 20
-1126.221120291267
 10
2572.623437499994
 20
-1125.021193514534
 10
2573.973122583546
 20
-1124.277052878059
 10
2575.083752483901
 20
-1123.20828088865
 10
2575.879982963222
 20
-1121.889291610349
 10
2576.307863827521
 20
-1120.408451743301
 10
2576.373906309442
 20
-1119.621523020183
 97
       15
330
1EE5
330
1EE9
330
1EEA
330
1EE6
330
1EEC
330
DE0
330
206F
330
DDF
330
1EFA
330
1EEF
330
1EF0
330
1EF1
330
1EF2
330
1EF3
330
1EED
 92
        7
 72
     1
 73
     1
 93
        5
 10
2622.553498482343
 20
-1039.261458591867
 42
0.0
 10
2603.91400257995
 20
-1039.261458591867
 42
0.0
 10
2603.914002579954
 20
-1051.261458591866
 42
0.0
 10
2621.570455683257
 20
-1051.261458591866
 42
-0.2674466937702258
 10
2622.553498482343
 20
-1050.492658453411
 42
0.0
 97
        5
330
DEA
330
1FE8
330
DE9
330
1FE7
330
D10
 92
        7
 72
     1
 73
     1
 93
       21
 10
2630.520035145606
 20
-1043.973571043424
 42
0.0
 10
2630.357983641514
 20
-1042.885700684673
 42
0.0
 10
2629.920311745222
 20
-1041.876199496944
 42
0.0
 10
2629.236241861256
 20
-1041.014138614356
 42
0.0
 10
2628.352928321701
 20
-1040.3586269879
 42
0.0
 10
2627.842200418777
 20
-1040.118206310452
 42
0.0
 10
2627.842200418777
 20
-1039.261458591867
 42
0.0
 10
2622.553498482343
 20
-1039.261458591867
 42
0.0
 10
2622.553498482343
 20
-1050.492658453412
 42
-0.3445970635016074
 10
2623.887987977395
 20
-1051.261458591866
 42
0.0
 10
2630.520035145607
 20
-1051.261458591866
 42
0.0
 10
2630.520035145607
 20
-1050.16543957698
 42
0.0
 10
2630.039857937327
 20
-1050.326787070388
 42
0.0
 10
2629.770214858475
 20
-1050.057143990173
 42
0.0
 10
2630.039857937326
 20
-1049.901069793386
 42
0.0
 10
2630.520035145607
 20
-1049.739722299944
 42
0.0
 10
2630.520035145607
 20
-1047.937785072679
 42
0.0
 10
2630.039857937327
 20
-1048.099243002449
 42
0.0
 10
2629.770214858474
 20
-1047.829599922036
 42
0.0
 10
2630.039857937326
 20
-1047.67352572525
 42
0.0
 10
2630.520035145607
 20
-1047.512067795512
 42
0.0
 97
       21
330
1FA7
330
1FA8
330
1FA9
330
1FA4
330
1FA5
330
1FA6
330
DEA
330
D10
330
1FE7
330
DE9
330
1FBC
330
1FE2
330
1FBB
330
1FBA
330
1FE1
330
1FBD
330
1FD0
330
1F9F
330
1F9E
330
1FCF
330
1FA2
 92
        7
 72
     0
 73
     1
 93
       43
 10
2698.480922042833
 20
-1043.335151145188
 10
2697.808404944406
 20
-1043.109019590935
 10
2697.430753569094
 20
-1042.890428278908
 10
2697.808404944405
 20
-1042.51277690578
 10
2698.480922042833
 20
-1042.738908460035
 10
2698.480922042833
 20
-1040.21518685322
 10
2697.808404944404
 20
-1039.989209971696
 10
2697.430753569094
 20
-1039.77061865967
 10
2697.93991363984
 20
-1039.261458591867
 10
2627.842200418777
 20
-1039.261458591867
 10
2627.842200418777
 20
-1040.118206310452
 10
2635.125220171746
 20
-1040.118206310452
 10
2634.161545022092
 20
-1040.649522724894
 10
2633.368555273232
 20
-1041.412625925334
 10
2632.800046711003
 20
-1042.354384270037
 10
2632.494539773891
 20
-1043.411703935113
 10
2632.447385441798
 20
-1043.973571043423
 10
2632.447385441798
 20
-1046.864002907516
 10
2632.927562650077
 20
-1046.702544977778
 10
2633.197205732047
 20
-1046.972852203642
 10
2632.927562650077
 20
-1047.128262254781
 10
2632.447385441798
 20
-1047.289720184551
 10
2632.447385441798
 20
-1049.092100684609
 10
2632.927562650078
 20
-1048.930753191168
 10
2633.197205732048
 20
-1049.200396271581
 10
2632.927562650078
 20
-1049.356470468367
 10
2632.447385441798
 20
-1049.517817961776
 10
2632.447385441798
 20
-1051.261458591866
 10
2632.620760000291
 20
-1051.261458591867
 10
2632.927562650078
 20
-1051.158297259303
 10
2633.030723983237
 20
-1051.261458591866
 10
2698.536706920556
 20
-1051.261458591867
 10
2698.480922042833
 20
-1050.815526058752
 10
2698.480922042833
 20
-1049.574770383165
 10
2697.808404944404
 20
-1049.348638828865
 10
2697.430753569094
 20
-1049.130977692818
 10
2697.808404944405
 20
-1048.752396143711
 10
2698.480922042833
 20
-1048.978527698011
 10
2698.480922042833
 20
-1046.454960764151
 10
2697.808404944404
 20
-1046.228829209896
 10
2697.430753569094
 20
-1046.010237897877
 10
2697.808404944405
 20
-1045.632586524749
 10
2698.480922042833
 20
-1045.858718079049
 97
       42
330
1DF2
330
1DFE
330
1DFD
330
1DF1
330
1DD3
330
1DD2
330
1DDE
330
1DDD
330
DEA
330
1FA6
330
1FD3
330
1FC3
330
1FC4
330
1FC5
330
1FD2
330
1FA3
330
1FA1
330
1FCF
330
1FC1
330
1FC2
330
1FD0
330
1FA0
330
1FE1
330
1FBF
330
1FC0
330
1FE2
330
1FBE
330
DE9
330
1FDE
330
1FCD
330
1DF8
330
1DF9
330
1DED
330
1E01
330
1DFA
330
1DF4
330
1DFF
330
1DEF
330
1DFC
330
1DFB
330
1DEE
330
1E00
 92
        7
 72
     0
 73
     1
 93
       44
 10
2706.899875157015
 20
-1043.973571043415
 10
2706.852720824922
 20
-1043.411703935115
 10
2706.54721388781
 20
-1042.354384270038
 10
2705.978705325578
 20
-1041.412625925333
 10
2705.185715576723
 20
-1040.649522724895
 10
2704.222040427068
 20
-1040.118206310452
 10
2704.222040427068
 20
-1039.261458591867
 10
2701.180292205569
 20
-1039.261458591867
 10
2701.180292205569
 20
-1040.525977242813
 10
2701.852809303997
 20
-1040.751954124382
 10
2702.230460674943
 20
-1040.970545436409
 10
2701.852809303997
 20
-1041.34819680926
 10
2701.18029220557
 20
-1041.122219927737
 10
2701.180292205569
 20
-1043.646562364798
 10
2701.852809303998
 20
-1043.872693919053
 10
2702.230460674942
 20
-1044.09035505537
 10
2701.852809303997
 20
-1044.4689366042
 10
2701.180292205569
 20
-1044.242805049947
 10
2701.180292205569
 20
-1046.766371983992
 10
2701.852809303998
 20
-1046.992503538292
 10
2702.230460674943
 20
-1047.210164674339
 10
2701.852809303997
 20
-1047.588746223169
 10
2701.180292205568
 20
-1047.362614668915
 10
2701.180292205569
 20
-1049.886181602953
 10
2701.852809303997
 20
-1050.112313157253
 10
2702.230460674944
 20
-1050.33090446928
 10
2701.852809303997
 20
-1050.708555842408
 10
2701.180292205569
 20
-1050.482424288109
 10
2701.180292205569
 20
-1050.815526058752
 10
2701.124734777819
 20
-1051.261458591867
 10
2706.316536615576
 20
-1051.261458591867
 10
2706.419697948736
 20
-1051.158297259303
 10
2706.726500598522
 20
-1051.261458591867
 10
2706.899875157015
 20
-1051.261458591867
 10
2706.899875157015
 20
-1049.517817961776
 10
2706.419697948735
 20
-1049.356470468367
 10
2706.150054866765
 20
-1049.200396271581
 10
2706.419697948736
 20
-1048.930753191168
 10
2706.899875157015
 20
-1049.092100684609
 10
2706.899875157015
 20
-1047.289720184551
 10
2706.419697948736
 20
-1047.128262254781
 10
2706.150054866765
 20
-1046.972852203643
 10
2706.419697948735
 20
-1046.702544977778
 10
2706.899875157015
 20
-1046.864002907516
 97
       43
330
C59
330
C5A
330
C5B
330
C5C
330
C5D
330
C55
330
DEA
330
1DD1
330
1DCF
330
1E21
330
1E22
330
1DD2
330
1E23
330
1DF1
330
1E08
330
1E09
330
1DF2
330
1E05
330
1DEE
330
1E06
330
1E07
330
1DEF
330
1E0A
330
1DF4
330
1E03
330
1E04
330
1DED
330
1E02
330
1DE9
330
DE9
330
C97
330
C9B
330
C61
330
C7E
330
C7A
330
C7B
330
C7F
330
C60
330
C77
330
C73
330
C74
330
C78
330
C5F
 92
        7
 72
     0
 73
     1
 93
       21
 10
2735.433258018862
 20
-1039.261458591867
 10
2711.505060180037
 20
-1039.261458591867
 10
2711.505060180036
 20
-1039.872320226751
 10
2711.505060180036
 20
-1040.118206310452
 10
2710.99433227711
 20
-1040.358626987902
 10
2710.111018737556
 20
-1041.014138614355
 10
2709.426948853592
 20
-1041.876199496944
 10
2708.989276957298
 20
-1042.885700684675
 10
2708.827225453206
 20
-1043.973571043423
 10
2708.827225453207
 20
-1047.512067795512
 10
2709.307402661485
 20
-1047.67352572525
 10
2709.577045740339
 20
-1047.829599922036
 10
2709.307402661485
 20
-1048.099243002449
 10
2708.827225453207
 20
-1047.937785072679
 10
2708.827225453206
 20
-1049.739722299944
 10
2709.307402661485
 20
-1049.901069793385
 10
2709.577045740338
 20
-1050.057143990173
 10
2709.307402661486
 20
-1050.326787070388
 10
2708.827225453207
 20
-1050.16543957698
 10
2708.827225453207
 20
-1051.261458591867
 10
2735.433258018859
 20
-1051.261458591867
 97
       21
330
DEA
330
1784
330
C53
330
C57
330
C58
330
C50
330
C51
330
C52
330
C5E
330
C78
330
C76
330
C75
330
C77
330
C63
330
C7F
330
C7D
330
C7C
330
C7E
330
C64
330
DE9
330
1B3F
 75
     0
 76
     1
 52
0.0
 41
2.5
 77
     0
 78
     1
 53
45.0
 43
0.0
 44
0.0
 45
-5.61266007566822
 46
5.612660075668221
 79
     0
 47
0.5956873112137924
 98
       10
 10
2872.810343708439
 20
-1118.132454970589
 10
2742.260782498604
 20
-1118.132454970589
 10
2691.590858635383
 20
-1119.323826513922
 10
2641.517034415788
 20
-1119.323826513922
 10
2529.447107466487
 20
-1119.323826513922
 10
2612.307320932396
 20
-1042.480163649397
 10
2624.229651376612
 20
-1044.862906736063
 10
2658.804417454965
 20
-1044.862906736063
 10
2704.705414333908
 20
-1046.649971396232
 10
2716.031645134502
 20
-1046.054278279396
  0
TEXT
  5
9F9C
330
1F
100
AcDbEntity
  8
POPIS
100
AcDbText
 10
3015.265853366361
 20
-1064.592444528204
 30
0.0
 40
25.0
  1
(v exteriéru vrut s viditelnou hlavou a těsnící podložkou)
 41
0.6
 51
10.0
  7
SIMPLEX7
100
AcDbText
  0
ENDSEC
  0
SECTION
  2
OBJECTS
  0
DICTIONARY
  5
C
330
0
100
AcDbDictionary
281
     1
  3
ACAD_GROUP
350
D
  3
ACAD_LAYOUT
350
1A
  3
ACAD_MLINESTYLE
350
17
  3
ACAD_PLOTSETTINGS
350
19
  3
ACAD_PLOTSTYLENAME
350
E
  3
AcDbVariableDictionary
350
17BD
  0
DICTIONARY
  5
D
102
{ACAD_REACTORS
330
C
102
}
330
C
100
AcDbDictionary
281
     1
  0
DICTIONARY
  5
1A
102
{ACAD_REACTORS
330
C
102
}
330
C
100
AcDbDictionary
281
     1
  3
Model
350
22
  3
Rozvržení1
350
1E
  3
Rozvržení2
350
26
  0
DICTIONARY
  5
17
102
{ACAD_REACTORS
330
C
102
}
330
C
100
AcDbDictionary
281
     1
  3
Standard
350
18
  0
DICTIONARY
  5
19
102
{ACAD_REACTORS
330
C
102
}
330
C
100
AcDbDictionary
281
     1
  0
ACDBDICTIONARYWDFLT
  5
E
102
{ACAD_REACTORS
330
C
102
}
330
C
100
AcDbDictionary
281
     1
  3
Normal
350
F
100
AcDbDictionaryWithDefault
340
F
  0
DICTIONARY
  5
17BD
102
{ACAD_REACTORS
330
C
102
}
330
C
100
AcDbDictionary
281
     1
  3
DIMASSOC
350
9F87
  3
SORTENTS
350
17BE
  0
LAYOUT
  5
22
102
{ACAD_REACTORS
330
1A
102
}
330
1A
100
AcDbPlotSettings
  1

  2
HP DeskJet 690C
  4

  6

 40
0.0
 41
0.0
 42
0.0
 43
0.0
 44
0.0
 45
0.0
 46
0.0
 47
0.0
 48
0.0
 49
0.0
140
0.0
141
0.0
142
1.0
143
1.0
 70
  1712
 72
     0
 73
     0
 74
     0
  7
monochrome.ctb
 75
     0
147
1.0
148
0.0
149
0.0
100
AcDbLayout
  1
Model
 70
     1
 71
     0
 10
0.0
 20
0.0
 11
12.0
 21
9.0
 12
0.0
 22
0.0
 32
0.0
 14
0.0
 24
0.0
 34
0.0
 15
0.0
 25
0.0
 35
0.0
146
0.0
 13
0.0
 23
0.0
 33
0.0
 16
1.0
 26
0.0
 36
0.0
 17
0.0
 27
1.0
 37
0.0
 76
     0
330
1F
  0
LAYOUT
  5
1E
102
{ACAD_REACTORS
330
1A
102
}
330
1A
100
AcDbPlotSettings
  1

  2
HP DeskJet 690C
  4

  6

 40
0.0
 41
0.0
 42
0.0
 43
0.0
 44
0.0
 45
0.0
 46
0.0
 47
0.0
 48
0.0
 49
0.0
140
0.0
141
0.0
142
1.0
143
1.0
 70
   688
 72
     0
 73
     0
 74
     5
  7
monochrome.ctb
 75
    16
147
1.0
148
0.0
149
0.0
100
AcDbLayout
  1
Rozvržení1
 70
     1
 71
     1
 10
0.0
 20
0.0
 11
420.0
 21
297.0
 12
0.0
 22
0.0
 32
0.0
 14
1.000000000000000E+20
 24
1.000000000000000E+20
 34
1.000000000000000E+20
 15
-1.000000000000000E+20
 25
-1.000000000000000E+20
 35
-1.000000000000000E+20
146
0.0
 13
0.0
 23
0.0
 33
0.0
 16
1.0
 26
0.0
 36
0.0
 17
0.0
 27
1.0
 37
0.0
 76
     0
330
1B
  0
LAYOUT
  5
26
102
{ACAD_REACTORS
330
1A
102
}
330
1A
100
AcDbPlotSettings
  1

  2
HP DeskJet 690C
  4

  6

 40
0.0
 41
0.0
 42
0.0
 43
0.0
 44
0.0
 45
0.0
 46
0.0
 47
0.0
 48
0.0
 49
0.0
140
0.0
141
0.0
142
1.0
143
1.0
 70
   688
 72
     0
 73
     0
 74
     5
  7
monochrome.ctb
 75
    16
147
1.0
148
0.0
149
0.0
100
AcDbLayout
  1
Rozvržení2
 70
     1
 71
     2
 10
0.0
 20
0.0
 11
12.0
 21
9.0
 12
0.0
 22
0.0
 32
0.0
 14
0.0
 24
0.0
 34
0.0
 15
0.0
 25
0.0
 35
0.0
146
0.0
 13
0.0
 23
0.0
 33
0.0
 16
1.0
 26
0.0
 36
0.0
 17
0.0
 27
1.0
 37
0.0
 76
     0
330
23
  0
MLINESTYLE
  5
18
102
{ACAD_REACTORS
330
17
102
}
330
17
100
AcDbMlineStyle
  2
STANDARD
 70
     0
  3

 62
   256
 51
90.0
 52
90.0
 71
     2
 49
0.5
 62
   256
  6
BYLAYER
 49
-0.5
 62
   256
  6
BYLAYER
  0
ACDBPLACEHOLDER
  5
F
102
{ACAD_REACTORS
330
E
102
}
330
E
  0
DICTIONARYVAR
  5
9F87
102
{ACAD_REACTORS
330
17BD
102
}
330
17BD
100
DictionaryVariables
280
     0
  1
1
  0
DICTIONARYVAR
  5
17BE
102
{ACAD_REACTORS
330
17BD
102
}
330
17BD
100
DictionaryVariables
280
     0
  1
96
  0
ENDSEC
  0
EOF
