  0
SECTION
  2
HEADER
  9
$ACADVER
  1
AC1015
  9
$ACADMAINTVER
 70
    14
  9
$DWGCODEPAGE
  3
ANSI_1250
  9
$INSBASE
 10
0.0
 20
0.0
 30
0.0
  9
$EXTMIN
 10
5507.244589868078
 20
57.45799691349748
 30
-0.0015258207003583
  9
$EXTMAX
 10
6630.256460137615
 20
686.9017606446941
 30
0.0000000349246037
  9
$LIMMIN
 10
0.0
 20
0.0
  9
$LIMMAX
 10
420.0
 20
297.0
  9
$ORTHOMODE
 70
     0
  9
$REGENMODE
 70
     1
  9
$FILLMODE
 70
     1
  9
$QTEXTMODE
 70
     0
  9
$MIRRTEXT
 70
     1
  9
$LTSCALE
 40
1.0
  9
$ATTMODE
 70
     1
  9
$TEXTSIZE
 40
2.5
  9
$TRACEWID
 40
1.0
  9
$TEXTSTYLE
  7
Standard
  9
$CLAYER
  8
CETRIS
  9
$CELTYPE
  6
ByLayer
  9
$CECOLOR
 62
   256
  9
$CELTSCALE
 40
1.0
  9
$DISPSILH
 70
     0
  9
$DIMSCALE
 40
1.0
  9
$DIMASZ
 40
2.5
  9
$DIMEXO
 40
0.625
  9
$DIMDLI
 40
3.75
  9
$DIMRND
 40
0.0
  9
$DIMDLE
 40
0.0
  9
$DIMEXE
 40
1.25
  9
$DIMTP
 40
0.0
  9
$DIMTM
 40
0.0
  9
$DIMTXT
 40
2.5
  9
$DIMCEN
 40
2.5
  9
$DIMTSZ
 40
0.0
  9
$DIMTOL
 70
     0
  9
$DIMLIM
 70
     0
  9
$DIMTIH
 70
     0
  9
$DIMTOH
 70
     0
  9
$DIMSE1
 70
     0
  9
$DIMSE2
 70
     0
  9
$DIMTAD
 70
     1
  9
$DIMZIN
 70
     8
  9
$DIMBLK
  1

  9
$DIMASO
 70
     1
  9
$DIMSHO
 70
     1
  9
$DIMPOST
  1

  9
$DIMAPOST
  1

  9
$DIMALT
 70
     0
  9
$DIMALTD
 70
     3
  9
$DIMALTF
 40
0.03937007874016
  9
$DIMLFAC
 40
1.0
  9
$DIMTOFL
 70
     1
  9
$DIMTVP
 40
0.0
  9
$DIMTIX
 70
     0
  9
$DIMSOXD
 70
     0
  9
$DIMSAH
 70
     0
  9
$DIMBLK1
  1

  9
$DIMBLK2
  1

  9
$DIMSTYLE
  2
ISO-25
  9
$DIMCLRD
 70
     0
  9
$DIMCLRE
 70
     0
  9
$DIMCLRT
 70
     0
  9
$DIMTFAC
 40
1.0
  9
$DIMGAP
 40
0.625
  9
$DIMJUST
 70
     0
  9
$DIMSD1
 70
     0
  9
$DIMSD2
 70
     0
  9
$DIMTOLJ
 70
     0
  9
$DIMTZIN
 70
     8
  9
$DIMALTZ
 70
     0
  9
$DIMALTTZ
 70
     0
  9
$DIMUPT
 70
     0
  9
$DIMDEC
 70
     2
  9
$DIMTDEC
 70
     2
  9
$DIMALTU
 70
     2
  9
$DIMALTTD
 70
     3
  9
$DIMTXSTY
  7
Standard
  9
$DIMAUNIT
 70
     0
  9
$DIMADEC
 70
     0
  9
$DIMALTRND
 40
0.0
  9
$DIMAZIN
 70
     0
  9
$DIMDSEP
 70
    44
  9
$DIMATFIT
 70
     3
  9
$DIMFRAC
 70
     0
  9
$DIMLDRBLK
  1

  9
$DIMLUNIT
 70
     2
  9
$DIMLWD
 70
    -2
  9
$DIMLWE
 70
    -2
  9
$DIMTMOVE
 70
     0
  9
$LUNITS
 70
     2
  9
$LUPREC
 70
     4
  9
$SKETCHINC
 40
1.0
  9
$FILLETRAD
 40
0.0
  9
$AUNITS
 70
     0
  9
$AUPREC
 70
     0
  9
$MENU
  1
.
  9
$ELEVATION
 40
0.0
  9
$PELEVATION
 40
0.0
  9
$THICKNESS
 40
0.0
  9
$LIMCHECK
 70
     0
  9
$CHAMFERA
 40
10.0
  9
$CHAMFERB
 40
10.0
  9
$CHAMFERC
 40
20.0
  9
$CHAMFERD
 40
0.0
  9
$SKPOLY
 70
     0
  9
$TDCREATE
 40
2452332.512107639
  9
$TDUCREATE
 40
2452332.470440972
  9
$TDUPDATE
 40
2455601.285408078
  9
$TDUUPDATE
 40
2455601.243741412
  9
$TDINDWG
 40
1.0582556944
  9
$TDUSRTIMER
 40
1.0582418056
  9
$USRTIMER
 70
     1
  9
$ANGBASE
 50
0.0
  9
$ANGDIR
 70
     0
  9
$PDMODE
 70
     0
  9
$PDSIZE
 40
0.0
  9
$PLINEWID
 40
0.0
  9
$SPLFRAME
 70
     0
  9
$SPLINETYPE
 70
     6
  9
$SPLINESEGS
 70
     8
  9
$HANDSEED
  5
9FAF
  9
$SURFTAB1
 70
     6
  9
$SURFTAB2
 70
     6
  9
$SURFTYPE
 70
     6
  9
$SURFU
 70
     6
  9
$SURFV
 70
     6
  9
$UCSBASE
  2

  9
$UCSNAME
  2

  9
$UCSORG
 10
0.0
 20
0.0
 30
0.0
  9
$UCSXDIR
 10
1.0
 20
0.0
 30
0.0
  9
$UCSYDIR
 10
0.0
 20
1.0
 30
0.0
  9
$UCSORTHOREF
  2

  9
$UCSORTHOVIEW
 70
     0
  9
$UCSORGTOP
 10
0.0
 20
0.0
 30
0.0
  9
$UCSORGBOTTOM
 10
0.0
 20
0.0
 30
0.0
  9
$UCSORGLEFT
 10
0.0
 20
0.0
 30
0.0
  9
$UCSORGRIGHT
 10
0.0
 20
0.0
 30
0.0
  9
$UCSORGFRONT
 10
0.0
 20
0.0
 30
0.0
  9
$UCSORGBACK
 10
0.0
 20
0.0
 30
0.0
  9
$PUCSBASE
  2

  9
$PUCSNAME
  2

  9
$PUCSORG
 10
0.0
 20
0.0
 30
0.0
  9
$PUCSXDIR
 10
1.0
 20
0.0
 30
0.0
  9
$PUCSYDIR
 10
0.0
 20
1.0
 30
0.0
  9
$PUCSORTHOREF
  2

  9
$PUCSORTHOVIEW
 70
     0
  9
$PUCSORGTOP
 10
0.0
 20
0.0
 30
0.0
  9
$PUCSORGBOTTOM
 10
0.0
 20
0.0
 30
0.0
  9
$PUCSORGLEFT
 10
0.0
 20
0.0
 30
0.0
  9
$PUCSORGRIGHT
 10
0.0
 20
0.0
 30
0.0
  9
$PUCSORGFRONT
 10
0.0
 20
0.0
 30
0.0
  9
$PUCSORGBACK
 10
0.0
 20
0.0
 30
0.0
  9
$USERI1
 70
     0
  9
$USERI2
 70
     0
  9
$USERI3
 70
     0
  9
$USERI4
 70
     0
  9
$USERI5
 70
     0
  9
$USERR1
 40
0.0
  9
$USERR2
 40
0.0
  9
$USERR3
 40
0.0
  9
$USERR4
 40
0.0
  9
$USERR5
 40
0.0
  9
$WORLDVIEW
 70
     1
  9
$SHADEDGE
 70
     3
  9
$SHADEDIF
 70
    70
  9
$TILEMODE
 70
     1
  9
$MAXACTVP
 70
    64
  9
$PINSBASE
 10
0.0
 20
0.0
 30
0.0
  9
$PLIMCHECK
 70
     0
  9
$PEXTMIN
 10
1.000000000000000E+20
 20
1.000000000000000E+20
 30
1.000000000000000E+20
  9
$PEXTMAX
 10
-1.000000000000000E+20
 20
-1.000000000000000E+20
 30
-1.000000000000000E+20
  9
$PLIMMIN
 10
0.0
 20
0.0
  9
$PLIMMAX
 10
420.0
 20
297.0
  9
$UNITMODE
 70
     0
  9
$VISRETAIN
 70
     1
  9
$PLINEGEN
 70
     0
  9
$PSLTSCALE
 70
     1
  9
$TREEDEPTH
 70
  3020
  9
$CMLSTYLE
  2
Standard
  9
$CMLJUST
 70
     0
  9
$CMLSCALE
 40
20.0
  9
$PROXYGRAPHICS
 70
     1
  9
$MEASUREMENT
 70
     1
  9
$CELWEIGHT
370
    -1
  9
$ENDCAPS
280
     0
  9
$JOINSTYLE
280
     0
  9
$LWDISPLAY
290
     0
  9
$INSUNITS
 70
     4
  9
$HYPERLINKBASE
  1

  9
$STYLESHEET
  1

  9
$XEDIT
290
     1
  9
$CEPSNTYPE
380
     0
  9
$PSTYLEMODE
290
     1
  9
$FINGERPRINTGUID
  2
{D99C744E-04C5-44F1-9703-862C59725F9B}
  9
$VERSIONGUID
  2
{77B84B1A-FC4E-44F2-9587-88384FC921DE}
  9
$EXTNAMES
290
     1
  9
$PSVPSCALE
 40
0.0
  9
$OLESTARTUP
290
     0
  0
ENDSEC
  0
SECTION
  2
CLASSES
  0
CLASS
  1
ACDBDICTIONARYWDFLT
  2
AcDbDictionaryWithDefault
  3
AutoCAD 2000
 90
        0
280
     0
281
     0
  0
CLASS
  1
ACDBPLACEHOLDER
  2
AcDbPlaceHolder
  3
AutoCAD 2000
 90
        0
280
     0
281
     0
  0
CLASS
  1
LAYOUT
  2
AcDbLayout
  3
AutoCAD 2000
 90
        0
280
     0
281
     0
  0
CLASS
  1
DICTIONARYVAR
  2
AcDbDictionaryVar
  3
AutoCAD 2000
 90
        0
280
     0
281
     0
  0
ENDSEC
  0
SECTION
  2
TABLES
  0
TABLE
  2
VPORT
  5
8
330
0
100
AcDbSymbolTable
 70
     2
  0
VPORT
  5
9FAE
330
8
100
AcDbSymbolTableRecord
100
AcDbViewportTableRecord
  2
*Active
 70
     0
 10
0.0
 20
0.0
 11
1.0
 21
1.0
 12
6077.448402552854
 22
365.963549707083
 13
0.0
 23
0.0
 14
10.0
 24
10.0
 15
10.0
 25
10.0
 16
0.0
 26
0.0
 36
1.0
 17
0.0
 27
0.0
 37
0.0
 40
887.3820629787187
 41
2.031862745098039
 42
50.0
 43
0.0
 44
0.0
 50
0.0
 51
0.0
 71
     0
 72
   100
 73
     1
 74
     3
 75
     0
 76
     1
 77
     0
 78
     0
281
     0
 65
     1
110
0.0
120
0.0
130
0.0
111
1.0
121
0.0
131
0.0
112
0.0
122
1.0
132
0.0
 79
     0
146
0.0
  0
ENDTAB
  0
TABLE
  2
LTYPE
  5
5
330
0
100
AcDbSymbolTable
 70
     5
  0
LTYPE
  5
14
330
5
100
AcDbSymbolTableRecord
100
AcDbLinetypeTableRecord
  2
ByBlock
 70
     0
  3

 72
    65
 73
     0
 40
0.0
  0
LTYPE
  5
15
330
5
100
AcDbSymbolTableRecord
100
AcDbLinetypeTableRecord
  2
ByLayer
 70
     0
  3

 72
    65
 73
     0
 40
0.0
  0
LTYPE
  5
16
330
5
100
AcDbSymbolTableRecord
100
AcDbLinetypeTableRecord
  2
Continuous
 70
     0
  3
Solid line
 72
    65
 73
     0
 40
0.0
  0
LTYPE
  5
33
330
5
100
AcDbSymbolTableRecord
100
AcDbLinetypeTableRecord
  2
DASHED
 70
     0
  3
Dashed __ __ __ __ __ __ __ __ __ __ __ __ __ _
 72
    65
 73
     2
 40
19.04999999999999
 49
12.7
 74
     0
 49
-6.349999999999999
 74
     0
  0
LTYPE
  5
34
330
5
100
AcDbSymbolTableRecord
100
AcDbLinetypeTableRecord
  2
DASHDOT2
 70
     0
  3
Dash dot (.5x) _._._._._._._._._._._._._._._.
 72
    65
 73
     4
 40
12.7
 49
6.349999999999999
 74
     0
 49
-3.174999999999999
 74
     0
 49
0.0
 74
     0
 49
-3.174999999999999
 74
     0
  0
LTYPE
  5
35
330
5
100
AcDbSymbolTableRecord
100
AcDbLinetypeTableRecord
  2
CIKCAK
 70
     0
  3
Cik-cak /\/\/\/\/\/\/\/\/\/\/\/\/\/\/\/\/\/\/\/
 72
    65
 73
     4
 40
20.32254
 49
0.00254
 74
     0
 49
-5.08
 74
     4
 75
   131
340
3E
 46
5.08
 50
0.0
 44
-5.08
 45
0.0
 49
-10.16
 74
     4
 75
   131
340
3E
 46
5.08
 50
180.0
 44
5.08
 45
0.0
 49
-5.08
 74
     0
  0
LTYPE
  5
36
330
5
100
AcDbSymbolTableRecord
100
AcDbLinetypeTableRecord
  2
IZOLACE
 70
     0
  3
Izolace SSSSSSSSSSSSSSSSSSSSSSSSSSSSSSSSSSSSSSS
 72
    65
 73
     4
 40
10.16253999999999
 49
0.00254
 74
     0
 49
-2.54
 74
     4
 75
   134
340
3E
 46
2.54
 50
0.0
 44
-2.54
 45
0.0
 49
-5.08
 74
     4
 75
   134
340
3E
 46
2.54
 50
180.0
 44
2.54
 45
0.0
 49
-2.54
 74
     0
  0
ENDTAB
  0
TABLE
  2
LAYER
  5
2
330
0
100
AcDbSymbolTable
 70
     8
  0
LAYER
  5
10
330
2
100
AcDbSymbolTableRecord
100
AcDbLayerTableRecord
  2
0
 70
     0
 62
     7
  6
Continuous
370
    -3
390
F
  0
LAYER
  5
37
330
2
100
AcDbSymbolTableRecord
100
AcDbLayerTableRecord
  2
POPIS
 70
     0
 62
    30
  6
Continuous
370
    -3
390
F
  0
LAYER
  5
38
330
2
100
AcDbSymbolTableRecord
100
AcDbLayerTableRecord
  2
SPOJOVACÍ
 70
     0
 62
   180
  6
Continuous
370
    -3
390
F
  0
LAYER
  5
39
330
2
100
AcDbSymbolTableRecord
100
AcDbLayerTableRecord
  2
CETRIS
 70
     0
 62
     1
  6
Continuous
370
    -3
390
F
  0
LAYER
  5
3A
330
2
100
AcDbSymbolTableRecord
100
AcDbLayerTableRecord
  2
NOSNÉ KONSTRUKCE
 70
     0
 62
    33
  6
Continuous
370
    -3
390
F
  0
LAYER
  5
3B
330
2
100
AcDbSymbolTableRecord
100
AcDbLayerTableRecord
  2
izolace
 70
     0
 62
    73
  6
Continuous
370
    -3
390
F
  0
LAYER
  5
3C
330
2
100
AcDbSymbolTableRecord
100
AcDbLayerTableRecord
  2
STAVBA OBRYS
 70
     0
 62
     6
  6
Continuous
370
    -3
390
F
  0
LAYER
  5
1B41
330
2
100
AcDbSymbolTableRecord
100
AcDbLayerTableRecord
  2
Defpoints
 70
     0
 62
     7
  6
Continuous
290
     0
370
    -3
390
F
  0
ENDTAB
  0
TABLE
  2
STYLE
  5
3
330
0
100
AcDbSymbolTable
 70
     3
  0
STYLE
  5
11
330
3
100
AcDbSymbolTableRecord
100
AcDbTextStyleTableRecord
  2
Standard
 70
     0
 40
0.0
 41
1.0
 50
0.0
 71
     0
 42
2.5
  3
txt
  4

  0
STYLE
  5
3D
330
3
100
AcDbSymbolTableRecord
100
AcDbTextStyleTableRecord
  2
SIMPLEX7
 70
     0
 40
0.0
 41
0.85
 50
0.0
 71
     0
 42
102.0
  3
ARIAL.TTF
  4

1001
ACAD
1000
Arial CE
1071
    60962
  0
STYLE
  5
3E
330
3
100
AcDbSymbolTableRecord
100
AcDbTextStyleTableRecord
  2

 70
     1
 40
0.0
 41
1.0
 50
0.0
 71
     0
 42
2.5
  3
ltypeshp.shx
  4

  0
ENDTAB
  0
TABLE
  2
VIEW
  5
6
330
0
100
AcDbSymbolTable
 70
     0
  0
ENDTAB
  0
TABLE
  2
UCS
  5
7
330
0
100
AcDbSymbolTable
 70
     0
  0
ENDTAB
  0
TABLE
  2
APPID
  5
9
330
0
100
AcDbSymbolTable
 70
     1
  0
APPID
  5
12
330
9
100
AcDbSymbolTableRecord
100
AcDbRegAppTableRecord
  2
ACAD
 70
     0
  0
ENDTAB
  0
TABLE
  2
DIMSTYLE
  5
A
330
0
100
AcDbSymbolTable
 70
     1
100
AcDbDimStyleTable
 71
     1
340
27
  0
DIMSTYLE
105
27
330
A
100
AcDbSymbolTableRecord
100
AcDbDimStyleTableRecord
  2
ISO-25
 70
     0
 41
2.5
 42
0.625
 43
3.75
 44
1.25
 73
     0
 74
     0
 77
     1
 78
     8
140
2.5
141
2.5
143
0.03937007874016
147
0.625
171
     3
172
     1
271
     2
272
     2
274
     3
278
    44
283
     0
284
     8
340
11
  0
ENDTAB
  0
TABLE
  2
BLOCK_RECORD
  5
1
330
0
100
AcDbSymbolTable
 70
     3
  0
BLOCK_RECORD
  5
1F
330
1
100
AcDbSymbolTableRecord
100
AcDbBlockTableRecord
  2
*Model_Space
340
22
  0
BLOCK_RECORD
  5
1B
330
1
100
AcDbSymbolTableRecord
100
AcDbBlockTableRecord
  2
*Paper_Space
340
1E
  0
BLOCK_RECORD
  5
23
330
1
100
AcDbSymbolTableRecord
100
AcDbBlockTableRecord
  2
*Paper_Space0
340
26
  0
BLOCK_RECORD
  5
2B
330
1
100
AcDbSymbolTableRecord
100
AcDbBlockTableRecord
  2
E_PUNKT
340
0
102
{BLKREFS
331
D05
331
D1A
331
D1D
331
1138
331
1350
331
1351
331
1352
331
1353
331
1414
331
1415
331
1416
331
EAD
331
EB1
331
EB4
331
EB9
331
EBF
331
EC1
331
15BB
331
15BC
331
15C2
331
15C3
331
15CA
331
1D1A
331
1FE7
331
2073
331
2074
331
208A
331
208C
331
2113
331
23A8
331
2669
331
25ED
331
2AB6
331
2B8E
331
2BEE
331
2F0B
331
2E50
331
2E2C
331
2DB0
331
2F0A
331
3527
331
365E
331
371B
331
3C9E
331
3C9F
331
3CA8
331
3CAB
331
3CAC
331
3CAE
331
449A
331
4533
331
45E9
331
45B0
331
4420
331
4498
331
4379
331
45F5
331
47D7
331
4CE5
331
4CE8
331
4CEB
331
5176
331
519A
331
5197
331
5199
331
5198
331
519B
331
519D
331
51A1
331
524F
331
5251
331
5413
331
5412
331
5414
331
5417
331
541A
331
541D
331
567D
331
5667
331
56B3
331
56D8
331
56DC
331
56D9
331
5D48
331
5D4C
331
5F2A
331
5F30
331
5F31
331
5F39
331
5F3B
331
60B5
331
60B6
331
611F
331
6123
331
6126
331
6131
331
612F
331
6130
331
6148
331
6C59
331
6C5A
331
6AD5
331
7412
331
6C86
331
74A2
331
6C7B
331
745F
331
6A75
331
74D0
331
7592
331
74DB
331
74DA
331
75EE
331
75F4
331
75F7
331
75FB
331
75FC
331
7601
331
79D9
331
79DA
331
79DC
331
8178
331
8177
331
8179
331
817D
331
8180
331
8182
331
8186
331
8189
331
818C
331
8B1A
331
8B1F
331
8B21
331
8A05
331
8B1D
331
88E8
331
8CB1
331
8CB9
102
}
  0
BLOCK_RECORD
  5
2F
330
1
100
AcDbSymbolTableRecord
100
AcDbBlockTableRecord
  2
_ArchTick
340
0
102
{BLKREFS
331
B3F
331
B47
331
B48
331
205C
331
205D
102
}
  0
ENDTAB
  0
ENDSEC
  0
SECTION
  2
BLOCKS
  0
BLOCK
  5
20
330
1F
100
AcDbEntity
  8
0
100
AcDbBlockBegin
  2
*Model_Space
 70
     0
 10
0.0
 20
0.0
 30
0.0
  3
*Model_Space
  1

  0
ENDBLK
  5
21
330
1F
100
AcDbEntity
  8
0
100
AcDbBlockEnd
  0
BLOCK
  5
1C
330
1B
100
AcDbEntity
 67
     1
  8
0
100
AcDbBlockBegin
  2
*Paper_Space
 70
     0
 10
0.0
 20
0.0
 30
0.0
  3
*Paper_Space
  1

  0
ENDBLK
  5
1D
330
1B
100
AcDbEntity
 67
     1
  8
0
100
AcDbBlockEnd
  0
BLOCK
  5
24
330
23
100
AcDbEntity
  8
0
100
AcDbBlockBegin
  2
*Paper_Space0
 70
     0
 10
0.0
 20
0.0
 30
0.0
  3
*Paper_Space0
  1

  0
ENDBLK
  5
25
330
23
100
AcDbEntity
  8
0
100
AcDbBlockEnd
  0
BLOCK
  5
2D
330
2B
100
AcDbEntity
  8
0
100
AcDbBlockBegin
  2
E_PUNKT
 70
     0
 10
0.0
 20
0.0
 30
0.0
  3
E_PUNKT
  1

  0
LWPOLYLINE
  5
2C
330
2B
100
AcDbEntity
  8
POPIS
100
AcDbPolyline
 90
        2
 70
     1
 43
2.5
 10
1.27761037562675
 20
0.0290683308725193
 42
-1.0
 10
-1.222389624373249
 20
0.0290683308725193
 42
-1.0
  0
ENDBLK
  5
2E
330
2B
100
AcDbEntity
  8
0
100
AcDbBlockEnd
  0
BLOCK
  5
31
330
2F
100
AcDbEntity
  8
0
100
AcDbBlockBegin
  2
_ArchTick
 70
     0
 10
0.0
 20
0.0
 30
0.0
  3
_ArchTick
  1

  0
LWPOLYLINE
  5
30
330
2F
100
AcDbEntity
  8
0
  6
ByBlock
 62
     0
100
AcDbPolyline
 90
        2
 70
     0
 43
0.15
 10
-0.5
 20
-0.5
 10
0.5
 20
0.5
  0
ENDBLK
  5
32
330
2F
100
AcDbEntity
  8
0
100
AcDbBlockEnd
  0
ENDSEC
  0
SECTION
  2
ENTITIES
  0
TEXT
  5
15B2
330
1F
100
AcDbEntity
  8
POPIS
100
AcDbText
 10
5521.61998504883
 20
629.4956571408929
 30
0.0
 40
45.0
  1
Požárně dělící příčka (stěna) - jednovrstvé opláštění
 41
0.7
  7
SIMPLEX7
100
AcDbText
  0
LINE
  5
1B19
330
1F
100
AcDbEntity
  8
POPIS
100
AcDbLine
 10
5507.305383722904
 20
288.9918909360403
 30
0.0
 11
5535.902547854838
 21
444.2592793173662
 31
0.0
  0
LINE
  5
1DAE
330
1F
100
AcDbEntity
  8
NOSNÉ KONSTRUKCE
100
AcDbLine
 10
5528.938572206524
 20
406.4485961784182
 30
0.0
 11
6076.69818054165
 21
406.4485961784182
 31
0.0
  0
LINE
  5
1DAF
330
1F
100
AcDbEntity
  8
CETRIS
100
AcDbLine
 10
5529.13038177062
 20
407.4900200743914
 30
0.0
 11
6076.889990105748
 21
407.4900200743919
 31
0.0
  0
LINE
  5
1DB0
330
1F
100
AcDbEntity
  8
CETRIS
100
AcDbLine
 10
5531.34054304892
 20
419.4900200743911
 30
0.0
 11
6079.100151384047
 21
419.4900200743914
 31
0.0
  0
LINE
  5
1DB3
330
1F
100
AcDbEntity
  8
izolace
  6
IZOLACE
 48
2.2
100
AcDbLine
 10
5522.136141228595
 20
369.5150146626345
 30
0.0
 11
6069.895749563722
 21
369.5150146626344
 31
0.0
  0
LINE
  5
1DB6
330
1F
100
AcDbEntity
  8
CETRIS
100
AcDbLine
 10
5515.089917055814
 20
331.2577657896416
 30
0.0
 11
6062.849525390938
 21
331.2577657896412
 31
0.0
  0
LINE
  5
1DB7
330
1F
100
AcDbEntity
  8
NOSNÉ KONSTRUKCE
100
AcDbLine
 10
5515.264755828273
 20
332.2070473149822
 30
0.0
 11
6063.0243641634
 21
332.2070473149822
 31
0.0
  0
LINE
  5
1DB8
330
1F
100
AcDbEntity
  8
CETRIS
100
AcDbLine
 10
5512.879755777512
 20
319.2577657896413
 30
0.0
 11
6060.639364112639
 21
319.2577657896413
 31
0.0
  0
LINE
  5
206A
330
1F
100
AcDbEntity
  8
NOSNÉ KONSTRUKCE
100
AcDbLine
 10
5526.65718907756
 20
394.0618994172689
 30
0.0
 11
6074.416797412688
 21
394.0618994172691
 31
0.0
  0
LINE
  5
206B
330
1F
100
AcDbEntity
  8
NOSNÉ KONSTRUKCE
  6
DASHED
100
AcDbLine
 10
5525.276181771241
 20
386.563764399453
 30
0.0
 11
6073.035790106366
 21
386.563764399453
 31
0.0
  0
LINE
  5
206C
330
1F
100
AcDbEntity
  8
NOSNÉ KONSTRUKCE
  6
DASHED
100
AcDbLine
 10
5519.013796559981
 20
352.5623441081177
 30
0.0
 11
6066.773404895107
 21
352.5623441081179
 31
0.0
  0
LINE
  5
206D
330
1F
100
AcDbEntity
  8
NOSNÉ KONSTRUKCE
100
AcDbLine
 10
5517.509745858183
 20
344.3961489083483
 30
0.0
 11
6065.26935419331
 21
344.3961489083483
 31
0.0
  0
HATCH
  5
209A
330
1F
100
AcDbEntity
  8
izolace
100
AcDbHatch
 10
0.0
 20
0.0
 30
0.0
210
0.0
220
0.0
230
1.0
  2
AR-SAND
 70
     0
 71
     0
 91
        2
 92
        1
 93
        4
 72
     1
 10
5727.899976890683
 20
314.0397208084519
 11
5727.899976890683
 21
319.2577657896414
 72
     1
 10
5727.899976890683
 20
319.2577657896414
 11
5739.899976890683
 21
319.2577657896414
 72
     1
 10
5739.899976890683
 20
319.2577657896414
 11
5739.899976890683
 21
314.0397208084519
 72
     1
 10
5739.899976890683
 20
314.0397208084519
 11
5727.899976890683
 21
314.0397208084519
 97
        0
 92
        1
 93
        4
 72
     1
 10
5828.132231175434
 20
314.0397208084519
 11
5828.132231175434
 21
319.2577657896414
 72
     1
 10
5828.132231175434
 20
319.2577657896414
 11
5816.132231175433
 21
319.2577657896414
 72
     1
 10
5816.132231175433
 20
319.2577657896414
 11
5816.132231175433
 21
314.0397208084519
 72
     1
 10
5816.132231175433
 20
314.0397208084519
 11
5828.132231175434
 21
314.0397208084519
 97
        0
 75
     0
 76
     1
 52
180.0
 41
0.05
 77
     0
 78
     4
 53
142.5
 43
6142.443853568261
 44
366.4330568614492
 45
0.080001564799202
 46
2.447066186646711
 79
     6
 49
0.0
 49
-1.9304
 49
0.0
 49
-2.159
 49
0.0
 49
-2.06375
 53
172.5
 43
6142.443853568261
 44
366.4330568614492
 45
-2.247616415690013
 46
3.584125502841771
 79
     6
 49
0.0
 49
-1.0414
 49
0.0
 49
-1.7399
 49
0.0
 49
-0.6667500000000001
 53
212.5
 43
6144.005953568261
 44
366.4330568614492
 45
-3.95496185120729
 46
0.007185923392728
 79
     6
 49
0.0
 49
-0.6349999999999991
 49
0.0
 49
-2.285999999999996
 49
0.0
 49
-2.984499999999996
 53
222.5
 43
6144.005953568261
 44
366.4330568614492
 45
-3.817782262361486
 46
1.11464661628608
 79
     6
 49
0.0
 49
-0.3175
 49
0.0
 49
-1.498599999999999
 49
0.0
 49
-1.7145
 98
        1
 10
6142.443853568261
 20
366.4330568614492
  0
LINE
  5
209B
330
1F
100
AcDbEntity
  8
SPOJOVACÍ
  6
Continuous
100
AcDbLine
 10
5823.800402494518
 20
297.9298973878626
 30
0.0
 11
5822.319562627468
 21
297.5020165235632
 31
0.0
  0
LINE
  5
209C
330
1F
100
AcDbEntity
  8
SPOJOVACÍ
  6
Continuous
100
AcDbLine
 10
5821.532633904346
 20
294.7366038789055
 30
0.0
 11
5823.056261857775
 21
294.509640988022
 31
0.0
  0
LWPOLYLINE
  5
209D
330
1F
100
AcDbEntity
  8
izolace
100
AcDbPolyline
 90
        4
 70
     1
 43
0.0
 10
5828.132231175434
 20
314.0397208084519
 10
5828.132231175434
 20
319.2577657896414
 10
5816.132231175433
 20
319.2577657896414
 10
5816.132231175433
 20
314.0397208084519
  0
LINE
  5
209E
330
1F
100
AcDbEntity
  8
SPOJOVACÍ
  6
Continuous
100
AcDbLine
 10
5826.932304398702
 20
301.1864428510903
 30
0.0
 11
5826.932304398702
 21
290.9861350738224
 31
0.0
  0
LINE
  5
209F
330
1F
100
AcDbEntity
  8
SPOJOVACÍ
  6
Continuous
100
AcDbLine
 10
5828.132231175434
 20
301.1864428510903
 30
0.0
 11
5828.132231175434
 21
290.9861350738224
 31
0.0
  0
LINE
  5
20A0
330
1F
100
AcDbEntity
  8
SPOJOVACÍ
  6
Continuous
100
AcDbLine
 10
5826.932304398702
 20
301.1864428510903
 30
0.0
 11
5826.188163762228
 21
299.8367577675394
 31
0.0
  0
LINE
  5
20A1
330
1F
100
AcDbEntity
  8
SPOJOVACÍ
  6
Continuous
100
AcDbLine
 10
5826.188163762228
 20
299.8367577675394
 30
0.0
 11
5825.119391772815
 21
298.7261278671808
 31
0.0
  0
LINE
  5
20A2
330
1F
100
AcDbEntity
  8
SPOJOVACÍ
  6
Continuous
100
AcDbLine
 10
5825.119391772815
 20
298.7261278671808
 30
0.0
 11
5823.800402494518
 21
297.9298973878626
 31
0.0
  0
LINE
  5
20A3
330
1F
100
AcDbEntity
  8
SPOJOVACÍ
  6
Continuous
100
AcDbLine
 10
5828.132231175434
 20
301.1864428510903
 30
0.0
 11
5826.932304398702
 21
301.1864428510903
 31
0.0
  0
LINE
  5
20A4
330
1F
100
AcDbEntity
  8
SPOJOVACÍ
  6
Continuous
100
AcDbLine
 10
5825.677497250377
 20
292.9385740688899
 30
0.0
 11
5826.595580760819
 21
291.7014402599902
 31
0.0
  0
LINE
  5
20A5
330
1F
100
AcDbEntity
  8
SPOJOVACÍ
  6
Continuous
100
AcDbLine
 10
5826.595580760819
 20
291.7014402599902
 30
0.0
 11
5826.932304398702
 21
290.9861350738224
 31
0.0
  0
LINE
  5
20A6
330
1F
100
AcDbEntity
  8
SPOJOVACÍ
  6
Continuous
100
AcDbLine
 10
5828.132231175434
 20
290.9861350738224
 30
0.0
 11
5826.932304398702
 21
290.9861350738224
 31
0.0
  0
LINE
  5
20A7
330
1F
100
AcDbEntity
  8
SPOJOVACÍ
  6
Continuous
100
AcDbLine
 10
5823.056261857775
 20
294.509640988022
 30
0.0
 11
5824.470129067478
 21
293.8966551388744
 31
0.0
  0
LINE
  5
20A8
330
1F
100
AcDbEntity
  8
SPOJOVACÍ
  6
Continuous
100
AcDbLine
 10
5824.470129067478
 20
293.8966551388744
 30
0.0
 11
5825.677497250377
 21
292.9385740688899
 31
0.0
  0
LINE
  5
20AA
330
1F
100
AcDbEntity
  8
SPOJOVACÍ
  6
Continuous
100
AcDbLine
 10
5775.261719275817
 20
324.6463039076347
 30
0.0
 11
5780.058130071022
 21
326.2590804908809
 31
0.0
  0
LINE
  5
20AB
330
1F
100
AcDbEntity
  8
SPOJOVACÍ
  6
Continuous
100
AcDbLine
 10
5775.261719275817
 20
325.3534104670593
 30
0.0
 11
5780.058130071022
 21
326.9661870503018
 31
0.0
  0
LINE
  5
20AC
330
1F
100
AcDbEntity
  8
SPOJOVACÍ
  6
Continuous
100
AcDbLine
 10
5774.813848347909
 20
325.095277963524
 30
0.0
 11
5780.506000993751
 21
326.518316124982
 31
0.0
  0
LINE
  5
20AD
330
1F
100
AcDbEntity
  8
SPOJOVACÍ
  6
DASHDOT2
100
AcDbLine
 10
5777.659924668242
 20
302.3779219970251
 30
0.0
 11
5777.659924668242
 21
359.7248492324806
 31
0.0
  0
LINE
  5
20AE
330
1F
100
AcDbEntity
  8
SPOJOVACÍ
100
AcDbLine
 10
5775.948987168241
 20
344.3740092455195
 30
0.0
 11
5775.948987168241
 21
316.8990196663376
 31
0.0
  0
LINE
  5
20AF
330
1F
100
AcDbEntity
  8
SPOJOVACÍ
100
AcDbLine
 10
5779.370862168242
 20
344.3740092455195
 30
0.0
 11
5779.370862168242
 21
316.8990196663412
 31
0.0
  0
LINE
  5
20B2
330
1F
100
AcDbEntity
  8
SPOJOVACÍ
  6
Continuous
100
AcDbLine
 10
5775.261719273228
 20
342.7450922713546
 30
0.0
 11
5780.058130068433
 21
344.3578688546008
 31
0.0
  0
LINE
  5
20B3
330
1F
100
AcDbEntity
  8
SPOJOVACÍ
  6
Continuous
100
AcDbLine
 10
5775.261719273228
 20
343.4521988307792
 30
0.0
 11
5780.058130068433
 21
345.0649754140217
 31
0.0
  0
LINE
  5
20B4
330
1F
100
AcDbEntity
  8
SPOJOVACÍ
  6
Continuous
100
AcDbLine
 10
5774.813848345321
 20
343.1940663272439
 30
0.0
 11
5780.506000991163
 21
344.6171044887019
 31
0.0
  0
LINE
  5
20B5
330
1F
100
AcDbEntity
  8
SPOJOVACÍ
  6
Continuous
100
AcDbLine
 10
5775.446949248535
 20
349.856041533309
 30
0.0
 11
5775.837361470203
 21
350.0814638238375
 31
0.0
  0
LINE
  5
20B6
330
1F
100
AcDbEntity
  8
SPOJOVACÍ
  6
Continuous
100
AcDbLine
 10
5775.446949248535
 20
349.856041533309
 30
0.0
 11
5775.837361470203
 21
349.4665885547697
 31
0.0
  0
LINE
  5
20B7
330
1F
100
AcDbEntity
  8
SPOJOVACÍ
  6
Continuous
100
AcDbLine
 10
5779.701195452926
 20
350.8594105369379
 30
0.0
 11
5779.311742476639
 21
351.2498227594519
 31
0.0
  0
LINE
  5
20B8
330
1F
100
AcDbEntity
  8
SPOJOVACÍ
  6
Continuous
100
AcDbLine
 10
5779.701195452926
 20
350.8594105369379
 30
0.0
 11
5779.311742476639
 21
350.6349474903877
 31
0.0
  0
LINE
  5
20B9
330
1F
100
AcDbEntity
  8
SPOJOVACÍ
  6
Continuous
100
AcDbLine
 10
5775.837361470203
 20
350.0814638238375
 30
0.0
 11
5779.311742476639
 21
351.2498227594519
 31
0.0
  0
LINE
  5
20BA
330
1F
100
AcDbEntity
  8
SPOJOVACÍ
  6
Continuous
100
AcDbLine
 10
5775.837361470203
 20
349.4665885547697
 30
0.0
 11
5779.311742476639
 21
350.6349474903877
 31
0.0
  0
LINE
  5
20BB
330
1F
100
AcDbEntity
  8
SPOJOVACÍ
  6
Continuous
100
AcDbLine
 10
5775.446949248535
 20
349.856041533309
 30
0.0
 11
5779.701195452926
 21
350.8594105369379
 31
0.0
  0
LINE
  5
20BC
330
1F
100
AcDbEntity
  8
SPOJOVACÍ
  6
Continuous
100
AcDbLine
 10
5776.029210226706
 20
352.964950654929
 30
0.0
 11
5776.418663207496
 21
353.1894137014792
 31
0.0
  0
LINE
  5
20BD
330
1F
100
AcDbEntity
  8
SPOJOVACÍ
  6
Continuous
100
AcDbLine
 10
5776.029210226706
 20
352.964950654929
 30
0.0
 11
5776.418663207496
 21
352.5745384324149
 31
0.0
  0
LINE
  5
20BE
330
1F
100
AcDbEntity
  8
SPOJOVACÍ
  6
Continuous
100
AcDbLine
 10
5779.242676921776
 20
353.6181956753466
 30
0.0
 11
5778.853223945489
 21
354.0086078975769
 31
0.0
  0
LINE
  5
20BF
330
1F
100
AcDbEntity
  8
SPOJOVACÍ
  6
Continuous
100
AcDbLine
 10
5779.242676921776
 20
353.6181956753466
 30
0.0
 11
5778.853223945489
 21
353.3937326288
 31
0.0
  0
LINE
  5
20C0
330
1F
100
AcDbEntity
  8
SPOJOVACÍ
  6
Continuous
100
AcDbLine
 10
5776.418663207496
 20
353.1894137014792
 30
0.0
 11
5778.853223945489
 21
354.0086078975769
 31
0.0
  0
LINE
  5
20C1
330
1F
100
AcDbEntity
  8
SPOJOVACÍ
  6
Continuous
100
AcDbLine
 10
5776.418663207496
 20
352.5745384324149
 30
0.0
 11
5778.853223945489
 21
353.3937326288
 31
0.0
  0
LINE
  5
20C2
330
1F
100
AcDbEntity
  8
SPOJOVACÍ
  6
Continuous
100
AcDbLine
 10
5776.029210226706
 20
352.964950654929
 30
0.0
 11
5779.242676921776
 21
353.6181956753466
 31
0.0
  0
LINE
  5
20C3
330
1F
100
AcDbEntity
  8
SPOJOVACÍ
  6
Continuous
100
AcDbLine
 10
5776.61147120938
 20
356.0729005325706
 30
0.0
 11
5777.000924185667
 21
356.2983228230919
 31
0.0
  0
LINE
  5
20C4
330
1F
100
AcDbEntity
  8
SPOJOVACÍ
  6
Continuous
100
AcDbLine
 10
5776.61147120938
 20
356.0729005325706
 30
0.0
 11
5777.000924185667
 21
355.6834475540349
 31
0.0
  0
LINE
  5
20C5
330
1F
100
AcDbEntity
  8
SPOJOVACÍ
  6
Continuous
100
AcDbLine
 10
5778.833079824007
 20
356.3932879582139
 30
0.0
 11
5778.44362684772
 21
356.7837001804477
 31
0.0
  0
LINE
  5
20C6
330
1F
100
AcDbEntity
  8
SPOJOVACÍ
  6
Continuous
100
AcDbLine
 10
5778.833079824007
 20
356.3932879582139
 30
0.0
 11
5778.44362684772
 21
356.1688249113835
 31
0.0
  0
LINE
  5
20C7
330
1F
100
AcDbEntity
  8
SPOJOVACÍ
  6
Continuous
100
AcDbLine
 10
5777.000924185667
 20
356.2983228230919
 30
0.0
 11
5778.44362684772
 21
356.7837001804477
 31
0.0
  0
LINE
  5
20C8
330
1F
100
AcDbEntity
  8
SPOJOVACÍ
  6
Continuous
100
AcDbLine
 10
5777.000924185667
 20
355.6834475540349
 30
0.0
 11
5778.44362684772
 21
356.1688249113835
 31
0.0
  0
LINE
  5
20C9
330
1F
100
AcDbEntity
  8
SPOJOVACÍ
  6
Continuous
100
AcDbLine
 10
5776.61147120938
 20
356.0729005325706
 30
0.0
 11
5778.833079824007
 21
356.3932879582139
 31
0.0
  0
LINE
  5
20CA
330
1F
100
AcDbEntity
  8
SPOJOVACÍ
  6
Continuous
100
AcDbLine
 10
5774.813848345321
 20
346.590056241494
 30
0.0
 11
5780.506000991163
 21
348.0130944029519
 31
0.0
  0
LINE
  5
20CB
330
1F
100
AcDbEntity
  8
SPOJOVACÍ
  6
Continuous
100
AcDbLine
 10
5774.813848345321
 20
346.590056241494
 30
0.0
 11
5775.261719273228
 21
346.8481887450293
 31
0.0
  0
LINE
  5
20CC
330
1F
100
AcDbEntity
  8
SPOJOVACÍ
  6
Continuous
100
AcDbLine
 10
5774.813848345321
 20
346.590056241494
 30
0.0
 11
5775.261719273228
 21
346.1410821856047
 31
0.0
  0
LINE
  5
20CD
330
1F
100
AcDbEntity
  8
SPOJOVACÍ
  6
Continuous
100
AcDbLine
 10
5780.506000991163
 20
348.0130944029519
 30
0.0
 11
5780.058130068433
 21
348.4609653282718
 31
0.0
  0
LINE
  5
20CE
330
1F
100
AcDbEntity
  8
SPOJOVACÍ
  6
Continuous
100
AcDbLine
 10
5780.506000991163
 20
348.0130944029519
 30
0.0
 11
5780.058130068433
 21
347.7538587688509
 31
0.0
  0
LINE
  5
20CF
330
1F
100
AcDbEntity
  8
SPOJOVACÍ
  6
Continuous
100
AcDbLine
 10
5775.261719273228
 20
346.8481887450293
 30
0.0
 11
5780.058130068433
 21
348.4609653282718
 31
0.0
  0
LINE
  5
20D0
330
1F
100
AcDbEntity
  8
SPOJOVACÍ
  6
Continuous
100
AcDbLine
 10
5775.261719273228
 20
346.1410821856047
 30
0.0
 11
5780.058130068433
 21
347.7538587688509
 31
0.0
  0
LINE
  5
20D1
330
1F
100
AcDbEntity
  8
SPOJOVACÍ
  6
DASHED
100
AcDbLine
 10
5777.659924668242
 20
357.0792693692142
 30
0.0
 11
5775.948987168241
 21
344.3740092455204
 31
0.0
  0
LINE
  5
20D2
330
1F
100
AcDbEntity
  8
SPOJOVACÍ
  6
DASHED
100
AcDbLine
 10
5777.659924668242
 20
357.0792693692142
 30
0.0
 11
5779.370862168242
 21
344.3740092455204
 31
0.0
  0
LINE
  5
20D3
330
1F
100
AcDbEntity
  8
SPOJOVACÍ
  6
Continuous
100
AcDbLine
 10
5780.506000991163
 20
344.6171044887019
 30
0.0
 11
5780.058130068433
 21
344.3578688546008
 31
0.0
  0
LINE
  5
20D4
330
1F
100
AcDbEntity
  8
SPOJOVACÍ
  6
Continuous
100
AcDbLine
 10
5780.506000991163
 20
344.6171044887019
 30
0.0
 11
5780.058130068433
 21
345.0649754140217
 31
0.0
  0
LINE
  5
20D7
330
1F
100
AcDbEntity
  8
SPOJOVACÍ
  6
Continuous
100
AcDbLine
 10
5780.506000993751
 20
326.518316124982
 30
0.0
 11
5780.058130071022
 21
326.2590804908809
 31
0.0
  0
LINE
  5
20D8
330
1F
100
AcDbEntity
  8
SPOJOVACÍ
  6
Continuous
100
AcDbLine
 10
5780.506000993751
 20
326.518316124982
 30
0.0
 11
5780.058130071022
 21
326.9661870503018
 31
0.0
  0
LINE
  5
20D9
330
1F
100
AcDbEntity
  8
SPOJOVACÍ
  6
Continuous
100
AcDbLine
 10
5774.813848345321
 20
343.1940663272439
 30
0.0
 11
5775.261719273228
 21
342.7450922713546
 31
0.0
  0
LINE
  5
20DA
330
1F
100
AcDbEntity
  8
SPOJOVACÍ
  6
Continuous
100
AcDbLine
 10
5774.813848345321
 20
343.1940663272439
 30
0.0
 11
5775.261719273228
 21
343.4521988307792
 31
0.0
  0
LINE
  5
20F7
330
1F
100
AcDbEntity
  8
SPOJOVACÍ
  6
Continuous
100
AcDbLine
 10
5774.813848345321
 20
338.6792376196549
 30
0.0
 11
5780.506000991163
 21
340.1022757811129
 31
0.0
  0
LINE
  5
20F8
330
1F
100
AcDbEntity
  8
SPOJOVACÍ
  6
Continuous
100
AcDbLine
 10
5774.813848345321
 20
338.6792376196549
 30
0.0
 11
5775.261719273228
 21
338.9373701231902
 31
0.0
  0
LINE
  5
20F9
330
1F
100
AcDbEntity
  8
SPOJOVACÍ
  6
Continuous
100
AcDbLine
 10
5774.813848345321
 20
338.6792376196549
 30
0.0
 11
5775.261719273228
 21
338.2302635637656
 31
0.0
  0
LINE
  5
20FA
330
1F
100
AcDbEntity
  8
SPOJOVACÍ
  6
Continuous
100
AcDbLine
 10
5780.506000991163
 20
340.1022757811129
 30
0.0
 11
5780.058130068433
 21
340.5501467064327
 31
0.0
  0
LINE
  5
20FB
330
1F
100
AcDbEntity
  8
SPOJOVACÍ
  6
Continuous
100
AcDbLine
 10
5780.506000991163
 20
340.1022757811129
 30
0.0
 11
5780.058130068433
 21
339.8430401470118
 31
0.0
  0
LINE
  5
20FC
330
1F
100
AcDbEntity
  8
SPOJOVACÍ
  6
Continuous
100
AcDbLine
 10
5775.261719273228
 20
338.9373701231902
 30
0.0
 11
5780.058130068433
 21
340.5501467064327
 31
0.0
  0
LINE
  5
20FD
330
1F
100
AcDbEntity
  8
SPOJOVACÍ
  6
Continuous
100
AcDbLine
 10
5775.261719273228
 20
338.2302635637656
 30
0.0
 11
5780.058130068433
 21
339.8430401470118
 31
0.0
  0
LINE
  5
20FE
330
1F
100
AcDbEntity
  8
SPOJOVACÍ
  6
Continuous
100
AcDbLine
 10
5774.813848345321
 20
335.2832477054048
 30
0.0
 11
5780.506000991163
 21
336.7062858668627
 31
0.0
  0
LINE
  5
20FF
330
1F
100
AcDbEntity
  8
SPOJOVACÍ
  6
Continuous
100
AcDbLine
 10
5774.813848345321
 20
335.2832477054048
 30
0.0
 11
5775.261719273228
 21
335.5413802089401
 31
0.0
  0
LINE
  5
2100
330
1F
100
AcDbEntity
  8
SPOJOVACÍ
  6
Continuous
100
AcDbLine
 10
5774.813848345321
 20
335.2832477054048
 30
0.0
 11
5775.261719273228
 21
334.8342736495155
 31
0.0
  0
LINE
  5
2101
330
1F
100
AcDbEntity
  8
SPOJOVACÍ
  6
Continuous
100
AcDbLine
 10
5780.506000991163
 20
336.7062858668627
 30
0.0
 11
5780.058130068433
 21
337.1541567921827
 31
0.0
  0
LINE
  5
2102
330
1F
100
AcDbEntity
  8
SPOJOVACÍ
  6
Continuous
100
AcDbLine
 10
5780.506000991163
 20
336.7062858668627
 30
0.0
 11
5780.058130068433
 21
336.4470502327617
 31
0.0
  0
LINE
  5
2103
330
1F
100
AcDbEntity
  8
SPOJOVACÍ
  6
Continuous
100
AcDbLine
 10
5775.261719273228
 20
335.5413802089401
 30
0.0
 11
5780.058130068433
 21
337.1541567921827
 31
0.0
  0
LINE
  5
2104
330
1F
100
AcDbEntity
  8
SPOJOVACÍ
  6
Continuous
100
AcDbLine
 10
5775.261719273228
 20
334.8342736495155
 30
0.0
 11
5780.058130068433
 21
336.4470502327617
 31
0.0
  0
LINE
  5
2105
330
1F
100
AcDbEntity
  8
SPOJOVACÍ
  6
Continuous
100
AcDbLine
 10
5775.261719273228
 20
328.0422938210154
 30
0.0
 11
5780.058130068433
 21
329.6550704042615
 31
0.0
  0
LINE
  5
2106
330
1F
100
AcDbEntity
  8
SPOJOVACÍ
  6
Continuous
100
AcDbLine
 10
5775.261719273228
 20
328.7494003804399
 30
0.0
 11
5780.058130068433
 21
330.3621769636825
 31
0.0
  0
LINE
  5
2107
330
1F
100
AcDbEntity
  8
SPOJOVACÍ
  6
Continuous
100
AcDbLine
 10
5780.506000991163
 20
329.9143060383626
 30
0.0
 11
5780.058130068433
 21
329.6550704042615
 31
0.0
  0
LINE
  5
2108
330
1F
100
AcDbEntity
  8
SPOJOVACÍ
  6
Continuous
100
AcDbLine
 10
5780.506000991163
 20
329.9143060383626
 30
0.0
 11
5780.058130068433
 21
330.3621769636825
 31
0.0
  0
LINE
  5
2109
330
1F
100
AcDbEntity
  8
SPOJOVACÍ
  6
Continuous
100
AcDbLine
 10
5774.813848345321
 20
328.4912678769046
 30
0.0
 11
5775.261719273228
 21
328.0422938210154
 31
0.0
  0
LINE
  5
210A
330
1F
100
AcDbEntity
  8
SPOJOVACÍ
  6
Continuous
100
AcDbLine
 10
5774.813848345321
 20
328.4912678769046
 30
0.0
 11
5775.261719273228
 21
328.7494003804399
 31
0.0
  0
LINE
  5
210B
330
1F
100
AcDbEntity
  8
SPOJOVACÍ
  6
Continuous
100
AcDbLine
 10
5774.813848345321
 20
328.4912678769046
 30
0.0
 11
5780.506000991163
 21
329.9143060383626
 31
0.0
  0
LINE
  5
210C
330
1F
100
AcDbEntity
  8
SPOJOVACÍ
  6
Continuous
100
AcDbLine
 10
5775.261719273228
 20
331.4382837352654
 30
0.0
 11
5780.058130068433
 21
333.0510603185116
 31
0.0
  0
LINE
  5
210D
330
1F
100
AcDbEntity
  8
SPOJOVACÍ
  6
Continuous
100
AcDbLine
 10
5775.261719273228
 20
332.14539029469
 30
0.0
 11
5780.058130068433
 21
333.7581668779325
 31
0.0
  0
LINE
  5
210E
330
1F
100
AcDbEntity
  8
SPOJOVACÍ
  6
Continuous
100
AcDbLine
 10
5780.506000991163
 20
333.3102959526127
 30
0.0
 11
5780.058130068433
 21
333.0510603185116
 31
0.0
  0
LINE
  5
210F
330
1F
100
AcDbEntity
  8
SPOJOVACÍ
  6
Continuous
100
AcDbLine
 10
5780.506000991163
 20
333.3102959526127
 30
0.0
 11
5780.058130068433
 21
333.7581668779325
 31
0.0
  0
LINE
  5
2110
330
1F
100
AcDbEntity
  8
SPOJOVACÍ
  6
Continuous
100
AcDbLine
 10
5774.813848345321
 20
331.8872577911547
 30
0.0
 11
5775.261719273228
 21
331.4382837352654
 31
0.0
  0
LINE
  5
2111
330
1F
100
AcDbEntity
  8
SPOJOVACÍ
  6
Continuous
100
AcDbLine
 10
5774.813848345321
 20
331.8872577911547
 30
0.0
 11
5775.261719273228
 21
332.14539029469
 31
0.0
  0
LINE
  5
2112
330
1F
100
AcDbEntity
  8
SPOJOVACÍ
  6
Continuous
100
AcDbLine
 10
5774.813848345321
 20
331.8872577911547
 30
0.0
 11
5780.506000991163
 21
333.3102959526127
 31
0.0
  0
INSERT
  5
2113
330
1F
100
AcDbEntity
  8
POPIS
100
AcDbBlockReference
  2
E_PUNKT
 10
5777.688992999114
 20
341.9808487404984
 30
0.0
 41
-1.0
 50
90.0
  0
HATCH
  5
2114
330
1F
100
AcDbEntity
  8
izolace
100
AcDbHatch
 10
0.0
 20
0.0
 30
0.0
210
0.0
220
0.0
230
1.0
  2
SOLID
 70
     1
 71
     0
 91
        4
 92
        7
 72
     0
 73
     1
 93
        4
 10
5741.311724074535
 20
315.7612296293196
 10
5753.812801081511
 20
315.7612296293196
 10
5753.812801081511
 20
317.7612296293233
 10
5741.311724074535
 20
317.7612296293233
 97
        0
 92
        7
 72
     0
 73
     1
 93
        4
 10
5761.469511996109
 20
315.7612296293196
 10
5773.970589003088
 20
315.7612296293192
 10
5773.970589003088
 20
317.7612296293233
 10
5761.469511996109
 20
317.7612296293228
 97
        0
 92
        7
 72
     0
 73
     1
 93
        4
 10
5782.203748017739
 20
315.7612296293196
 10
5794.704825024717
 20
315.7612296293192
 10
5794.704825024717
 20
317.7612296293233
 10
5782.203748017739
 20
317.7612296293228
 97
        0
 92
        7
 72
     1
 73
     1
 93
        7
 10
5803.347998930601
 20
316.2401552914403
 42
0.0
 10
5803.347998930601
 20
315.7612296293196
 42
0.0
 10
5815.849075937577
 20
315.7612296293196
 42
0.0
 10
5815.849075937577
 20
317.7612296293233
 42
0.0
 10
5803.584386924857
 20
317.7612296293233
 42
0.0
 10
5803.347998930601
 20
317.6026222572419
 42
0.0
 10
5803.347998930601
 20
317.5269497152531
 42
-0.2771233679601331
 97
        0
 75
     0
 76
     1
 47
0.1334780420591298
 98
        4
 10
5746.532499646013
 20
317.0632187378661
 10
5762.294585978321
 20
317.0632187378661
 10
5789.277143614527
 20
317.0632187378661
 10
5807.577194673438
 20
317.0632187378661
  0
LINE
  5
2115
330
1F
100
AcDbEntity
  8
izolace
100
AcDbLine
 10
5753.812801081511
 20
317.7612296293232
 30
0.0
 11
5815.849075937577
 21
317.7612296293232
 31
0.0
  0
LINE
  5
2116
330
1F
100
AcDbEntity
  8
izolace
100
AcDbLine
 10
5753.812801081511
 20
315.7612296293196
 30
0.0
 11
5815.849075937577
 21
315.7612296293196
 31
0.0
  0
HATCH
  5
2117
330
1F
100
AcDbEntity
  8
NOSNÉ KONSTRUKCE
100
AcDbHatch
 10
0.0
 20
0.0
 30
0.0
210
0.0
220
0.0
230
1.0
  2
SOLID
 70
     1
 71
     0
 91
        1
 92
        7
 72
     1
 73
     1
 93
       60
 10
5760.804201374369
 20
315.2619580435504
 42
0.0
 10
5795.197195408825
 20
315.2619580435504
 42
0.3073346934841183
 10
5796.938505625138
 20
314.0973159235301
 42
0.0
 10
5800.757017402318
 20
314.0973159235301
 42
0.307334693483106
 10
5802.498327618623
 20
315.2619580435508
 42
0.0
 10
5812.997261718646
 20
315.2619580435504
 42
-0.4142135623730951
 10
5814.997261718647
 20
313.2619580435508
 42
0.0
 10
5814.997261718647
 20
305.063104682045
 42
0.7595816512230912
 10
5814.997261718647
 20
301.4716625142888
 42
0.0
 10
5814.997261718644
 20
292.295793109729
 42
0.7595816493590427
 10
5814.997261718647
 20
288.7043509090113
 42
0.0
 10
5814.997261718647
 20
279.5284835382327
 42
0.7767342353201953
 10
5815.075218901474
 20
275.9170249540044
 42
0.0
 10
5815.075218901473
 20
269.3489157175291
 42
-0.4142135623730868
 10
5813.075218901474
 20
267.3489157175296
 42
0.0
 10
5810.249893109779
 20
267.3489157175291
 42
0.0
 10
5810.249893109778
 20
268.3489157175291
 42
0.0
 10
5813.075218901473
 20
268.3489157175291
 42
0.4142135623730951
 10
5814.075218901473
 20
269.3489157175291
 42
0.0
 10
5814.075218901473
 20
275.2466117646287
 42
-0.5694936494219963
 10
5813.997261718647
 20
280.1725571481266
 42
0.0
 10
5813.997261718647
 20
288.0602753250797
 42
-0.5590616644338513
 10
5813.997261718643
 20
292.9398686936593
 42
0.0
 10
5813.997261718647
 20
300.8275869297659
 42
-0.5590616643157284
 10
5813.997261718647
 20
305.7071802665678
 42
0.0
 10
5813.997261718647
 20
313.2619580435504
 42
0.4142135623731451
 10
5812.997261718646
 20
314.2619580435503
 42
0.0
 10
5803.064257527823
 20
314.2619580435508
 42
-0.2364174637114482
 10
5800.782407870809
 20
313.1064989571001
 42
0.0
 10
5796.913115156641
 20
313.1064989571001
 42
-0.2364174637115772
 10
5794.631265499625
 20
314.2619580435503
 42
0.0
 10
5761.36649162374
 20
314.2619580435503
 42
-0.2353201211467568
 10
5759.091076107917
 20
313.1173274711906
 42
0.0
 10
5755.221784028074
 20
313.1195430411754
 42
-0.2364174637122881
 10
5752.940596364879
 20
314.2763085329694
 42
0.0
 10
5743.007593802445
 20
314.2819962044819
 42
0.4142135623730951
 10
5742.007021363028
 20
313.282568971773
 42
0.0
 10
5742.002695471936
 20
305.7277924333003
 42
-0.5590616643157161
 10
5741.999901400426
 20
300.8481998964458
 42
0.0
 10
5741.995384866514
 20
292.9604829534306
 42
-0.5590616644338511
 10
5741.992590794984
 20
288.0808903847984
 42
0.0
 10
5741.988074261102
 20
280.1931735009367
 42
-0.5694936494220229
 10
5741.907296478208
 20
275.2672735635293
 42
0.0
 10
5741.903919437671
 20
269.3695784832822
 42
0.4142135623730951
 10
5742.903346670381
 20
268.3690060438658
 42
0.0
 10
5745.728671998898
 20
268.367388252842
 42
0.0
 10
5745.728099395545
 20
267.3673884167793
 42
0.0
 10
5742.902774067026
 20
267.3690062078031
 42
-0.4142135623730618
 10
5740.90391960161
 20
269.3701510866359
 42
0.0
 10
5740.907680522985
 20
275.9382592463531
 42
0.7767342353201953
 10
5740.987705626331
 20
279.5496725999838
 42
0.0
 10
5740.992959758759
 20
288.725538466496
 42
0.759581649359043
 10
5740.995016230613
 20
292.3169800784418
 42
0.0
 10
5741.000270364204
 20
301.4928479787346
 42
0.7595816512230912
 10
5741.002326836034
 20
305.084289557719
 42
0.0
 10
5741.007021526966
 20
313.2831415751267
 42
-0.4142135623731117
 10
5743.008166405798
 20
315.2819960405441
 42
0.0
 10
5753.507098784655
 20
315.2759843156678
 42
0.3073346934834261
 10
5755.247741837513
 20
314.1103453065058
 42
0.0
 10
5759.066252988699
 20
314.1081588138559
 42
0.3057747226774016
 97
        0
 75
     0
 76
     1
 47
0.1180065091547201
 98
        1
 10
5770.165580650798
 20
314.8612941659708
  0
LINE
  5
2118
330
1F
100
AcDbEntity
  8
SPOJOVACÍ
  6
Continuous
100
AcDbLine
 10
5796.123951866568
 20
296.7253197334371
 30
0.0
 11
5795.653282913983
 21
295.3263353338711
 31
0.0
  0
LINE
  5
2119
330
1F
100
AcDbEntity
  8
SPOJOVACÍ
  6
Continuous
100
AcDbLine
 10
5795.74630049344
 20
297.1029711043825
 30
0.0
 11
5796.123951866568
 21
296.7253197334371
 31
0.0
  0
LINE
  5
211A
330
1F
100
AcDbEntity
  8
SPOJOVACÍ
  6
Continuous
100
AcDbLine
 10
5795.772345415818
 20
295.6602684441036
 30
0.0
 11
5797.917330800803
 21
295.3923778157927
 31
0.0
  0
LINE
  5
211B
330
1F
100
AcDbEntity
  8
SPOJOVACÍ
  6
Continuous
100
AcDbLine
 10
5805.230372907477
 20
298.1084911400698
 30
0.0
 11
5803.870455893935
 21
294.0640867804773
 31
0.0
  0
LINE
  5
211C
330
1F
100
AcDbEntity
  8
SPOJOVACÍ
  6
Continuous
100
AcDbLine
 10
5804.634130222322
 20
298.1084911400698
 30
0.0
 11
5803.27421320878
 21
294.0640867804773
 31
0.0
  0
LINE
  5
211D
330
1F
100
AcDbEntity
  8
SPOJOVACÍ
  6
Continuous
100
AcDbLine
 10
5804.851791358371
 20
298.4861425153808
 30
0.0
 11
5803.651864581908
 21
293.6864354095319
 31
0.0
  0
LINE
  5
211E
330
1F
100
AcDbEntity
  8
SPOJOVACÍ
  6
Continuous
100
AcDbLine
 10
5808.350182526439
 20
298.1084911400698
 30
0.0
 11
5806.990265512897
 21
294.0640867804773
 31
0.0
  0
LINE
  5
211F
330
1F
100
AcDbEntity
  8
SPOJOVACÍ
  6
Continuous
100
AcDbLine
 10
5807.753939841291
 20
298.1084911400698
 30
0.0
 11
5806.394022828019
 21
294.0640867804773
 31
0.0
  0
LINE
  5
2120
330
1F
100
AcDbEntity
  8
SPOJOVACÍ
  6
Continuous
100
AcDbLine
 10
5807.972531153311
 20
298.4861425153808
 30
0.0
 11
5806.772604376849
 21
293.6864354095319
 31
0.0
  0
LINE
  5
2121
330
1F
100
AcDbEntity
  8
SPOJOVACÍ
  6
Continuous
100
AcDbLine
 10
5811.469992145408
 20
298.1084911400698
 30
0.0
 11
5810.110075132135
 21
294.0640867804773
 31
0.0
  0
LINE
  5
2122
330
1F
100
AcDbEntity
  8
SPOJOVACÍ
  6
Continuous
100
AcDbLine
 10
5810.873749460253
 20
298.1084911400698
 30
0.0
 11
5809.513832446988
 21
294.0640867804773
 31
0.0
  0
LINE
  5
2123
330
1F
100
AcDbEntity
  8
SPOJOVACÍ
  6
Continuous
100
AcDbLine
 10
5811.09234077228
 20
298.4861425153808
 30
0.0
 11
5809.892413995818
 21
293.6864354095319
 31
0.0
  0
LINE
  5
2124
330
1F
100
AcDbEntity
  8
SPOJOVACÍ
  6
Continuous
100
AcDbLine
 10
5798.760070071759
 20
297.6675878148539
 30
0.0
 11
5798.126620354989
 21
294.5514988984228
 31
0.0
  0
LINE
  5
2125
330
1F
100
AcDbEntity
  8
SPOJOVACÍ
  6
Continuous
100
AcDbLine
 10
5799.138651620865
 20
297.289936439543
 30
0.0
 11
5798.344281491037
 21
294.9291502693681
 31
0.0
  0
LINE
  5
2126
330
1F
100
AcDbEntity
  8
SPOJOVACÍ
  6
Continuous
100
AcDbLine
 10
5798.542408935711
 20
297.289936439543
 30
0.0
 11
5797.748038806159
 21
294.9291502693681
 31
0.0
  0
LINE
  5
2127
330
1F
100
AcDbEntity
  8
SPOJOVACÍ
  6
Continuous
100
AcDbLine
 10
5801.774769826057
 20
298.2322045209598
 30
0.0
 11
5800.801805943752
 21
294.1068748682169
 31
0.0
  0
LINE
  5
2128
330
1F
100
AcDbEntity
  8
SPOJOVACÍ
  6
Continuous
100
AcDbLine
 10
5802.152421199185
 20
297.8536229726755
 30
0.0
 11
5801.0194670798
 21
294.4845262391623
 31
0.0
  0
LINE
  5
2129
330
1F
100
AcDbEntity
  8
SPOJOVACÍ
  6
Continuous
100
AcDbLine
 10
5801.55617851403
 20
297.8536229726755
 30
0.0
 11
5800.423224394646
 21
294.4845262391623
 31
0.0
  0
LINE
  5
212A
330
1F
100
AcDbEntity
  8
SPOJOVACÍ
  6
Continuous
100
AcDbLine
 10
5814.589801764647
 20
298.1084911400698
 30
0.0
 11
5813.230814926806
 21
294.0640867804773
 31
0.0
  0
LINE
  5
212B
330
1F
100
AcDbEntity
  8
SPOJOVACÍ
  6
Continuous
100
AcDbLine
 10
5813.993559079492
 20
298.1084911400698
 30
0.0
 11
5812.634572241928
 21
294.0640867804773
 31
0.0
  0
LINE
  5
212C
330
1F
100
AcDbEntity
  8
SPOJOVACÍ
  6
Continuous
100
AcDbLine
 10
5814.212150391519
 20
298.4861425153808
 30
0.0
 11
5813.01222361478
 21
293.6864354095319
 31
0.0
  0
LINE
  5
212D
330
1F
100
AcDbEntity
  8
SPOJOVACÍ
  6
Continuous
100
AcDbLine
 10
5817.710541559311
 20
298.1084911400698
 30
0.0
 11
5816.350624546045
 21
294.0640867804773
 31
0.0
  0
LINE
  5
212E
330
1F
100
AcDbEntity
  8
SPOJOVACÍ
  6
Continuous
100
AcDbLine
 10
5817.114298874432
 20
298.1084911400698
 30
0.0
 11
5815.75438186089
 21
294.0640867804773
 31
0.0
  0
LINE
  5
212F
330
1F
100
AcDbEntity
  8
SPOJOVACÍ
  6
Continuous
100
AcDbLine
 10
5817.331960010481
 20
298.4861425153808
 30
0.0
 11
5816.132033234018
 21
293.6864354095319
 31
0.0
  0
LINE
  5
2130
330
1F
100
AcDbEntity
  8
SPOJOVACÍ
  6
Continuous
100
AcDbLine
 10
5798.489388915252
 20
295.3207542829345
 30
0.0
 11
5800.626002718105
 21
295.053793827597
 31
0.0
  0
LINE
  5
2131
330
1F
100
AcDbEntity
  8
SPOJOVACÍ
  6
Continuous
100
AcDbLine
 10
5804.851791358371
 20
298.4861425153808
 30
0.0
 11
5805.230372907477
 21
298.1084911400698
 31
0.0
  0
LINE
  5
2132
330
1F
100
AcDbEntity
  8
SPOJOVACÍ
  6
Continuous
100
AcDbLine
 10
5804.851791358371
 20
298.4861425153808
 30
0.0
 11
5804.634130222322
 21
298.1084911400698
 31
0.0
  0
LINE
  5
2133
330
1F
100
AcDbEntity
  8
SPOJOVACÍ
  6
Continuous
100
AcDbLine
 10
5807.972531153311
 20
298.4861425153808
 30
0.0
 11
5808.350182526439
 21
298.1084911400698
 31
0.0
  0
LINE
  5
2134
330
1F
100
AcDbEntity
  8
SPOJOVACÍ
  6
Continuous
100
AcDbLine
 10
5807.972531153311
 20
298.4861425153808
 30
0.0
 11
5807.753939841291
 21
298.1084911400698
 31
0.0
  0
LINE
  5
2135
330
1F
100
AcDbEntity
  8
SPOJOVACÍ
  6
Continuous
100
AcDbLine
 10
5811.09234077228
 20
298.4861425153808
 30
0.0
 11
5811.469992145408
 21
298.1084911400698
 31
0.0
  0
LINE
  5
2136
330
1F
100
AcDbEntity
  8
SPOJOVACÍ
  6
Continuous
100
AcDbLine
 10
5811.09234077228
 20
298.4861425153808
 30
0.0
 11
5810.873749460253
 21
298.1084911400698
 31
0.0
  0
LINE
  5
2137
330
1F
100
AcDbEntity
  8
SPOJOVACÍ
  6
Continuous
100
AcDbLine
 10
5798.760070071759
 20
297.6675878148539
 30
0.0
 11
5799.138651620865
 21
297.289936439543
 31
0.0
  0
LINE
  5
2138
330
1F
100
AcDbEntity
  8
SPOJOVACÍ
  6
Continuous
100
AcDbLine
 10
5798.760070071759
 20
297.6675878148539
 30
0.0
 11
5798.542408935711
 21
297.289936439543
 31
0.0
  0
LINE
  5
2139
330
1F
100
AcDbEntity
  8
SPOJOVACÍ
  6
Continuous
100
AcDbLine
 10
5801.774769826057
 20
298.2322045209598
 30
0.0
 11
5802.152421199185
 21
297.8536229726755
 31
0.0
  0
LINE
  5
213A
330
1F
100
AcDbEntity
  8
SPOJOVACÍ
  6
Continuous
100
AcDbLine
 10
5801.774769826057
 20
298.2322045209598
 30
0.0
 11
5801.55617851403
 21
297.8536229726755
 31
0.0
  0
LINE
  5
213B
330
1F
100
AcDbEntity
  8
SPOJOVACÍ
  6
Continuous
100
AcDbLine
 10
5814.212150391519
 20
298.4861425153808
 30
0.0
 11
5814.589801764647
 21
298.1084911400698
 31
0.0
  0
LINE
  5
213C
330
1F
100
AcDbEntity
  8
SPOJOVACÍ
  6
Continuous
100
AcDbLine
 10
5814.212150391519
 20
298.4861425153808
 30
0.0
 11
5813.993559079492
 21
298.1084911400698
 31
0.0
  0
LINE
  5
213D
330
1F
100
AcDbEntity
  8
SPOJOVACÍ
  6
Continuous
100
AcDbLine
 10
5817.331960010481
 20
298.4861425153808
 30
0.0
 11
5817.710541559311
 21
298.1084911400698
 31
0.0
  0
LINE
  5
213E
330
1F
100
AcDbEntity
  8
SPOJOVACÍ
  6
Continuous
100
AcDbLine
 10
5817.331960010481
 20
298.4861425153808
 30
0.0
 11
5817.114298874432
 21
298.1084911400698
 31
0.0
  0
LINE
  5
213F
330
1F
100
AcDbEntity
  8
SPOJOVACÍ
  6
Continuous
100
AcDbLine
 10
5798.397301511497
 20
296.8397313540349
 30
0.0
 11
5796.076512901141
 21
296.5495165088809
 31
0.0
  0
LINE
  5
2140
330
1F
100
AcDbEntity
  8
SPOJOVACÍ
  6
Continuous
100
AcDbLine
 10
5801.349679487226
 20
297.2090111463926
 30
0.0
 11
5799.027960701161
 21
296.9187962968731
 31
0.0
  0
LINE
  5
2141
330
1F
100
AcDbEntity
  8
SPOJOVACÍ
  6
Continuous
100
AcDbLine
 10
5803.167242992437
 20
297.4359740416416
 30
0.0
 11
5801.97010674308
 21
297.2862157389186
 31
0.0
  0
LINE
  5
2142
330
1F
100
AcDbEntity
  8
SPOJOVACÍ
  6
Continuous
100
AcDbLine
 10
5804.414608734325
 20
297.4359740416416
 30
0.0
 11
5803.167242992437
 21
297.4359740416416
 31
0.0
  0
LINE
  5
2143
330
1F
100
AcDbEntity
  8
SPOJOVACÍ
  6
Continuous
100
AcDbLine
 10
5807.528837298807
 20
297.4359740416416
 30
0.0
 11
5805.01085141948
 21
297.4359740416416
 31
0.0
  0
LINE
  5
2144
330
1F
100
AcDbEntity
  8
SPOJOVACÍ
  6
Continuous
100
AcDbLine
 10
5810.661669378962
 20
297.4359740416416
 30
0.0
 11
5808.133451566092
 21
297.4359740416416
 31
0.0
  0
LINE
  5
2145
330
1F
100
AcDbEntity
  8
SPOJOVACÍ
  6
Continuous
100
AcDbLine
 10
5813.776828119145
 20
297.4359740416416
 30
0.0
 11
5811.256051712437
 21
297.4359740416416
 31
0.0
  0
LINE
  5
2146
330
1F
100
AcDbEntity
  8
SPOJOVACÍ
  6
Continuous
100
AcDbLine
 10
5816.89942826549
 20
297.4359740416416
 30
0.0
 11
5814.38051221046
 21
297.4359740416416
 31
0.0
  0
LINE
  5
2147
330
1F
100
AcDbEntity
  8
SPOJOVACÍ
  6
Continuous
100
AcDbLine
 10
5821.532633904346
 20
297.4359740416416
 30
0.0
 11
5817.494740774666
 21
297.4359740416416
 31
0.0
  0
LINE
  5
2148
330
1F
100
AcDbEntity
  8
SPOJOVACÍ
  6
Continuous
100
AcDbLine
 10
5822.319562627468
 20
297.5020165235632
 30
0.0
 11
5821.532633904346
 21
297.4359740416416
 31
0.0
  0
LINE
  5
2149
330
1F
100
AcDbEntity
  8
SPOJOVACÍ
  6
Continuous
100
AcDbLine
 10
5803.651864581908
 20
293.6864354095319
 30
0.0
 11
5803.870455893935
 21
294.0640867804773
 31
0.0
  0
LINE
  5
214A
330
1F
100
AcDbEntity
  8
SPOJOVACÍ
  6
Continuous
100
AcDbLine
 10
5803.651864581908
 20
293.6864354095319
 30
0.0
 11
5803.27421320878
 21
294.0640867804773
 31
0.0
  0
LINE
  5
214B
330
1F
100
AcDbEntity
  8
SPOJOVACÍ
  6
Continuous
100
AcDbLine
 10
5806.772604376849
 20
293.6864354095319
 30
0.0
 11
5806.990265512897
 21
294.0640867804773
 31
0.0
  0
LINE
  5
214C
330
1F
100
AcDbEntity
  8
SPOJOVACÍ
  6
Continuous
100
AcDbLine
 10
5806.772604376849
 20
293.6864354095319
 30
0.0
 11
5806.394022828019
 21
294.0640867804773
 31
0.0
  0
LINE
  5
214D
330
1F
100
AcDbEntity
  8
SPOJOVACÍ
  6
Continuous
100
AcDbLine
 10
5809.892413995818
 20
293.6864354095319
 30
0.0
 11
5810.110075132135
 21
294.0640867804773
 31
0.0
  0
LINE
  5
214E
330
1F
100
AcDbEntity
  8
SPOJOVACÍ
  6
Continuous
100
AcDbLine
 10
5809.892413995818
 20
293.6864354095319
 30
0.0
 11
5809.513832446988
 21
294.0640867804773
 31
0.0
  0
LINE
  5
214F
330
1F
100
AcDbEntity
  8
SPOJOVACÍ
  6
Continuous
100
AcDbLine
 10
5798.126620354989
 20
294.5514988984228
 30
0.0
 11
5798.344281491037
 21
294.9291502693681
 31
0.0
  0
LINE
  5
2150
330
1F
100
AcDbEntity
  8
SPOJOVACÍ
  6
Continuous
100
AcDbLine
 10
5798.126620354989
 20
294.5514988984228
 30
0.0
 11
5797.748038806159
 21
294.9291502693681
 31
0.0
  0
LINE
  5
2151
330
1F
100
AcDbEntity
  8
SPOJOVACÍ
  6
Continuous
100
AcDbLine
 10
5800.801805943752
 20
294.1068748682169
 30
0.0
 11
5801.0194670798
 21
294.4845262391623
 31
0.0
  0
LINE
  5
2152
330
1F
100
AcDbEntity
  8
SPOJOVACÍ
  6
Continuous
100
AcDbLine
 10
5800.801805943752
 20
294.1068748682169
 30
0.0
 11
5800.423224394646
 21
294.4845262391623
 31
0.0
  0
LINE
  5
2153
330
1F
100
AcDbEntity
  8
SPOJOVACÍ
  6
Continuous
100
AcDbLine
 10
5813.01222361478
 20
293.6864354095319
 30
0.0
 11
5813.230814926806
 21
294.0640867804773
 31
0.0
  0
LINE
  5
2154
330
1F
100
AcDbEntity
  8
SPOJOVACÍ
  6
Continuous
100
AcDbLine
 10
5813.01222361478
 20
293.6864354095319
 30
0.0
 11
5812.634572241928
 21
294.0640867804773
 31
0.0
  0
LINE
  5
2155
330
1F
100
AcDbEntity
  8
SPOJOVACÍ
  6
Continuous
100
AcDbLine
 10
5816.132033234018
 20
293.6864354095319
 30
0.0
 11
5816.350624546045
 21
294.0640867804773
 31
0.0
  0
LINE
  5
2156
330
1F
100
AcDbEntity
  8
SPOJOVACÍ
  6
Continuous
100
AcDbLine
 10
5816.132033234018
 20
293.6864354095319
 30
0.0
 11
5815.75438186089
 21
294.0640867804773
 31
0.0
  0
LINE
  5
2157
330
1F
100
AcDbEntity
  8
SPOJOVACÍ
  6
Continuous
100
AcDbLine
 10
5801.19620048115
 20
294.9821702903732
 30
0.0
 11
5803.167242992437
 21
294.7366038789055
 31
0.0
  0
LINE
  5
2158
330
1F
100
AcDbEntity
  8
SPOJOVACÍ
  6
Continuous
100
AcDbLine
 10
5803.503966630319
 20
294.7366038789055
 30
0.0
 11
5803.167242992437
 21
294.7366038789055
 31
0.0
  0
LINE
  5
2159
330
1F
100
AcDbEntity
  8
SPOJOVACÍ
  6
Continuous
100
AcDbLine
 10
5806.626566776933
 20
294.7366038789055
 30
0.0
 11
5804.107650721904
 21
294.7366038789055
 31
0.0
  0
LINE
  5
215A
330
1F
100
AcDbEntity
  8
SPOJOVACÍ
  6
Continuous
100
AcDbLine
 10
5809.748236747575
 20
294.7366038789055
 30
0.0
 11
5807.227460340866
 21
294.7366038789055
 31
0.0
  0
LINE
  5
215B
330
1F
100
AcDbEntity
  8
SPOJOVACÍ
  6
Continuous
100
AcDbLine
 10
5812.870836893918
 20
294.7366038789055
 30
0.0
 11
5810.342619081049
 21
294.7366038789055
 31
0.0
  0
LINE
  5
215C
330
1F
100
AcDbEntity
  8
SPOJOVACÍ
  6
Continuous
100
AcDbLine
 10
5815.985995634102
 20
294.7366038789055
 30
0.0
 11
5813.467079579073
 21
294.7366038789055
 31
0.0
  0
LINE
  5
215D
330
1F
100
AcDbEntity
  8
SPOJOVACÍ
  6
Continuous
100
AcDbLine
 10
5821.532633904346
 20
294.7366038789055
 30
0.0
 11
5816.589679725417
 21
294.7366038789055
 31
0.0
  0
LINE
  5
215E
330
1F
100
AcDbEntity
  8
SPOJOVACÍ
  6
Continuous
100
AcDbLine
 10
5795.74630049344
 20
297.1029711043825
 30
0.0
 11
5795.435621777666
 21
294.9486839629257
 31
0.0
  0
LINE
  5
215F
330
1F
100
AcDbEntity
  8
SPOJOVACÍ
  6
Continuous
100
AcDbLine
 10
5795.435621777666
 20
294.9486839629257
 30
0.0
 11
5795.653282913983
 21
295.3263353338711
 31
0.0
  0
LINE
  5
2160
330
1F
100
AcDbEntity
  8
SPOJOVACÍ
  6
Continuous
100
AcDbLine
 10
5795.435621777666
 20
294.9486839629257
 30
0.0
 11
5795.057040228836
 21
295.3263353338711
 31
0.0
  0
LINE
  5
2161
330
1F
100
AcDbEntity
  8
SPOJOVACÍ
  6
Continuous
100
AcDbLine
 10
5774.813848347909
 20
321.6992880492739
 30
0.0
 11
5780.506000993751
 21
323.1223262107318
 31
0.0
  0
LINE
  5
2162
330
1F
100
AcDbEntity
  8
SPOJOVACÍ
  6
Continuous
100
AcDbLine
 10
5774.813848347909
 20
321.6992880492739
 30
0.0
 11
5775.261719275817
 21
321.9574205528092
 31
0.0
  0
LINE
  5
2163
330
1F
100
AcDbEntity
  8
SPOJOVACÍ
  6
Continuous
100
AcDbLine
 10
5774.813848347909
 20
321.6992880492739
 30
0.0
 11
5775.261719275817
 21
321.2503139933847
 31
0.0
  0
LINE
  5
2164
330
1F
100
AcDbEntity
  8
SPOJOVACÍ
  6
Continuous
100
AcDbLine
 10
5780.506000993751
 20
323.1223262107318
 30
0.0
 11
5780.058130071022
 21
323.5701971360517
 31
0.0
  0
LINE
  5
2165
330
1F
100
AcDbEntity
  8
SPOJOVACÍ
  6
Continuous
100
AcDbLine
 10
5780.506000993751
 20
323.1223262107318
 30
0.0
 11
5780.058130071022
 21
322.8630905766308
 31
0.0
  0
LINE
  5
2166
330
1F
100
AcDbEntity
  8
SPOJOVACÍ
  6
Continuous
100
AcDbLine
 10
5775.261719275817
 20
321.9574205528092
 30
0.0
 11
5780.058130071022
 21
323.5701971360517
 31
0.0
  0
LINE
  5
2167
330
1F
100
AcDbEntity
  8
SPOJOVACÍ
  6
Continuous
100
AcDbLine
 10
5775.261719275817
 20
321.2503139933847
 30
0.0
 11
5780.058130071022
 21
322.8630905766308
 31
0.0
  0
LINE
  5
2168
330
1F
100
AcDbEntity
  8
SPOJOVACÍ
  6
Continuous
100
AcDbLine
 10
5774.813848347909
 20
318.3032981350238
 30
0.0
 11
5780.506000993751
 21
319.7263362964818
 31
0.0
  0
LINE
  5
2169
330
1F
100
AcDbEntity
  8
SPOJOVACÍ
  6
Continuous
100
AcDbLine
 10
5774.813848347909
 20
318.3032981350238
 30
0.0
 11
5775.261719275817
 21
318.5614306385591
 31
0.0
  0
LINE
  5
216A
330
1F
100
AcDbEntity
  8
SPOJOVACÍ
  6
Continuous
100
AcDbLine
 10
5774.813848347909
 20
318.3032981350238
 30
0.0
 11
5775.261719275817
 21
317.8543240791345
 31
0.0
  0
LINE
  5
216B
330
1F
100
AcDbEntity
  8
SPOJOVACÍ
  6
Continuous
100
AcDbLine
 10
5780.506000993751
 20
319.7263362964818
 30
0.0
 11
5780.058130071022
 21
320.1742072218016
 31
0.0
  0
LINE
  5
216C
330
1F
100
AcDbEntity
  8
SPOJOVACÍ
  6
Continuous
100
AcDbLine
 10
5780.506000993751
 20
319.7263362964818
 30
0.0
 11
5780.058130071022
 21
319.4671006623807
 31
0.0
  0
LINE
  5
216D
330
1F
100
AcDbEntity
  8
SPOJOVACÍ
  6
Continuous
100
AcDbLine
 10
5775.261719275817
 20
318.5614306385591
 30
0.0
 11
5780.058130071022
 21
320.1742072218016
 31
0.0
  0
LINE
  5
216E
330
1F
100
AcDbEntity
  8
SPOJOVACÍ
  6
Continuous
100
AcDbLine
 10
5775.261719275817
 20
317.8543240791345
 30
0.0
 11
5780.058130071022
 21
319.4671006623807
 31
0.0
  0
LINE
  5
216F
330
1F
100
AcDbEntity
  8
SPOJOVACÍ
  6
Continuous
100
AcDbLine
 10
5774.813848347909
 20
325.095277963524
 30
0.0
 11
5775.261719275817
 21
324.6463039076347
 31
0.0
  0
LINE
  5
2170
330
1F
100
AcDbEntity
  8
SPOJOVACÍ
  6
Continuous
100
AcDbLine
 10
5774.813848347909
 20
325.095277963524
 30
0.0
 11
5775.261719275817
 21
325.3534104670593
 31
0.0
  0
LINE
  5
2171
330
1F
100
AcDbEntity
  8
SPOJOVACÍ
100
AcDbLine
 10
5770.909924668242
 20
312.8394747416291
 30
0.0
 11
5770.909924668242
 21
313.7163853637626
 31
0.0
  0
LINE
  5
2172
330
1F
100
AcDbEntity
  8
SPOJOVACÍ
100
AcDbLine
 10
5770.909924668242
 20
313.7163853637626
 30
0.0
 11
5770.909924668242
 21
312.8394747416291
 31
0.0
  0
LINE
  5
2173
330
1F
100
AcDbEntity
  8
SPOJOVACÍ
  6
DASHED
100
AcDbLine
 10
5770.909924668242
 20
313.7163853637626
 30
0.0
 11
5775.948987168241
 21
316.8990196663376
 31
0.0
  0
LINE
  5
2174
330
1F
100
AcDbEntity
  8
SPOJOVACÍ
100
AcDbLine
 10
5784.409924668242
 20
313.7163853637626
 30
0.0
 11
5779.370862168242
 21
316.8990196663412
 31
0.0
  0
LINE
  5
2175
330
1F
100
AcDbEntity
  8
SPOJOVACÍ
100
AcDbLine
 10
5784.409924668242
 20
313.7163853637626
 30
0.0
 11
5784.409924668242
 21
312.8394747416291
 31
0.0
  0
LINE
  5
2176
330
1F
100
AcDbEntity
  8
SPOJOVACÍ
100
AcDbLine
 10
5770.909924668242
 20
312.2747969972929
 30
0.0
 11
5770.909924668242
 21
313.7163853637626
 31
0.0
  0
LINE
  5
2177
330
1F
100
AcDbEntity
  8
SPOJOVACÍ
100
AcDbLine
 10
5784.409924668242
 20
312.2747969972929
 30
0.0
 11
5784.409924668242
 21
313.7163853637626
 31
0.0
  0
LINE
  5
2178
330
1F
100
AcDbEntity
  8
SPOJOVACÍ
100
AcDbLine
 10
5770.909924668242
 20
312.2747969972929
 30
0.0
 11
5784.409924668242
 21
312.2747969972929
 31
0.0
  0
LINE
  5
2179
330
1F
100
AcDbEntity
  8
SPOJOVACÍ
100
AcDbLine
 10
5770.909924668242
 20
313.7163853637626
 30
0.0
 11
5784.409924668242
 21
313.7163853637626
 31
0.0
  0
LINE
  5
217A
330
1F
100
AcDbEntity
  8
SPOJOVACÍ
  6
Continuous
100
AcDbLine
 10
5795.527709181421
 20
296.7253197334371
 30
0.0
 11
5795.057040228836
 21
295.3263353338711
 31
0.0
  0
LINE
  5
217B
330
1F
100
AcDbEntity
  8
SPOJOVACÍ
  6
Continuous
100
AcDbLine
 10
5795.74630049344
 20
297.1029711043825
 30
0.0
 11
5795.527709181421
 21
296.7253197334371
 31
0.0
  0
LINE
  5
217C
330
1F
100
AcDbEntity
  8
SPOJOVACÍ
  6
Continuous
100
AcDbLine
 10
5795.456085645287
 20
296.472311916355
 30
0.0
 11
5792.366971827483
 21
296.0862889624563
 31
0.0
  0
LINE
  5
217D
330
1F
100
AcDbEntity
  8
SPOJOVACÍ
  6
Continuous
100
AcDbLine
 10
5792.366971827483
 20
296.0862889624563
 30
0.0
 11
5795.203077828752
 21
295.7318919813274
 31
0.0
  0
LINE
  5
217E
330
1F
100
AcDbEntity
  8
SPOJOVACÍ
  6
Continuous
100
AcDbLine
 10
5742.255379946971
 20
297.4359740416416
 30
0.0
 11
5744.77615635368
 21
297.4359740416416
 31
0.0
  0
LINE
  5
217F
330
1F
100
AcDbEntity
  8
SPOJOVACÍ
  6
Continuous
100
AcDbLine
 10
5740.046212432015
 20
294.7366038789055
 30
0.0
 11
5742.565128487044
 21
294.7366038789055
 31
0.0
  0
LINE
  5
2180
330
1F
100
AcDbEntity
  8
SPOJOVACÍ
  6
Continuous
100
AcDbLine
 10
5741.820057674599
 20
298.4861425153808
 30
0.0
 11
5743.019984451337
 21
293.6864354095319
 31
0.0
  0
LINE
  5
2181
330
1F
100
AcDbEntity
  8
SPOJOVACÍ
  6
Continuous
100
AcDbLine
 10
5742.038648986625
 20
298.1084911400698
 30
0.0
 11
5743.397635824189
 21
294.0640867804773
 31
0.0
  0
LINE
  5
2182
330
1F
100
AcDbEntity
  8
SPOJOVACÍ
  6
Continuous
100
AcDbLine
 10
5741.44240630147
 20
298.1084911400698
 30
0.0
 11
5742.801393139311
 21
294.0640867804773
 31
0.0
  0
LINE
  5
2184
330
1F
100
AcDbEntity
  8
SPOJOVACÍ
  6
Continuous
100
AcDbLine
 10
5757.542819150866
 20
295.3207542829345
 30
0.0
 11
5755.406205348013
 21
295.053793827597
 31
0.0
  0
LINE
  5
2185
330
1F
100
AcDbEntity
  8
SPOJOVACÍ
  6
Continuous
100
AcDbLine
 10
5754.476029552087
 20
297.8536229726755
 30
0.0
 11
5755.608983671471
 21
294.4845262391623
 31
0.0
  0
LINE
  5
2186
330
1F
100
AcDbEntity
  8
SPOJOVACÍ
  6
Continuous
100
AcDbLine
 10
5753.879786866932
 20
297.8536229726755
 30
0.0
 11
5755.012740986316
 21
294.4845262391623
 31
0.0
  0
LINE
  5
2187
330
1F
100
AcDbEntity
  8
SPOJOVACÍ
  6
Continuous
100
AcDbLine
 10
5754.25743824006
 20
298.2322045209598
 30
0.0
 11
5755.230402122364
 21
294.1068748682169
 31
0.0
  0
LINE
  5
2188
330
1F
100
AcDbEntity
  8
SPOJOVACÍ
  6
Continuous
100
AcDbLine
 10
5757.489799130406
 20
297.289936439543
 30
0.0
 11
5758.284169259958
 21
294.9291502693681
 31
0.0
  0
LINE
  5
2189
330
1F
100
AcDbEntity
  8
SPOJOVACÍ
  6
Continuous
100
AcDbLine
 10
5756.893556445252
 20
297.289936439543
 30
0.0
 11
5757.68792657508
 21
294.9291502693681
 31
0.0
  0
LINE
  5
218A
330
1F
100
AcDbEntity
  8
SPOJOVACÍ
  6
Continuous
100
AcDbLine
 10
5757.272137994358
 20
297.6675878148539
 30
0.0
 11
5757.905587711128
 21
294.5514988984228
 31
0.0
  0
LINE
  5
218B
330
1F
100
AcDbEntity
  8
SPOJOVACÍ
  6
Continuous
100
AcDbLine
 10
5760.596586288452
 20
294.9486839629257
 30
0.0
 11
5760.975167837282
 21
295.3263353338711
 31
0.0
  0
LINE
  5
218C
330
1F
100
AcDbEntity
  8
SPOJOVACÍ
  6
Continuous
100
AcDbLine
 10
5760.596586288452
 20
294.9486839629257
 30
0.0
 11
5760.378925152134
 21
295.3263353338711
 31
0.0
  0
LINE
  5
218D
330
1F
100
AcDbEntity
  8
SPOJOVACÍ
  6
Continuous
100
AcDbLine
 10
5760.285907572677
 20
297.1029711043825
 30
0.0
 11
5760.596586288452
 21
294.9486839629257
 31
0.0
  0
LINE
  5
218E
330
1F
100
AcDbEntity
  8
SPOJOVACÍ
  6
Continuous
100
AcDbLine
 10
5744.939867293837
 20
298.4861425153808
 30
0.0
 11
5746.139794070299
 21
293.6864354095319
 31
0.0
  0
LINE
  5
218F
330
1F
100
AcDbEntity
  8
SPOJOVACÍ
  6
Continuous
100
AcDbLine
 10
5745.158458605864
 20
298.1084911400698
 30
0.0
 11
5746.518375619129
 21
294.0640867804773
 31
0.0
  0
LINE
  5
2190
330
1F
100
AcDbEntity
  8
SPOJOVACÍ
  6
Continuous
100
AcDbLine
 10
5744.562215920709
 20
298.1084911400698
 30
0.0
 11
5745.922132933982
 21
294.0640867804773
 31
0.0
  0
LINE
  5
2191
330
1F
100
AcDbEntity
  8
SPOJOVACÍ
  6
Continuous
100
AcDbLine
 10
5748.059676912806
 20
298.4861425153808
 30
0.0
 11
5749.259603689268
 21
293.6864354095319
 31
0.0
  0
LINE
  5
2192
330
1F
100
AcDbEntity
  8
SPOJOVACÍ
  6
Continuous
100
AcDbLine
 10
5748.278268224826
 20
298.1084911400698
 30
0.0
 11
5749.638185238098
 21
294.0640867804773
 31
0.0
  0
LINE
  5
2193
330
1F
100
AcDbEntity
  8
SPOJOVACÍ
  6
Continuous
100
AcDbLine
 10
5747.682025539678
 20
298.1084911400698
 30
0.0
 11
5749.04194255322
 21
294.0640867804773
 31
0.0
  0
LINE
  5
2194
330
1F
100
AcDbEntity
  8
SPOJOVACÍ
  6
Continuous
100
AcDbLine
 10
5751.180416707747
 20
298.4861425153808
 30
0.0
 11
5752.380343484208
 21
293.6864354095319
 31
0.0
  0
LINE
  5
2195
330
1F
100
AcDbEntity
  8
SPOJOVACÍ
  6
Continuous
100
AcDbLine
 10
5751.398077843795
 20
298.1084911400698
 30
0.0
 11
5752.757994857336
 21
294.0640867804773
 31
0.0
  0
LINE
  5
2196
330
1F
100
AcDbEntity
  8
SPOJOVACÍ
  6
Continuous
100
AcDbLine
 10
5750.80183515864
 20
298.1084911400698
 30
0.0
 11
5752.161752172182
 21
294.0640867804773
 31
0.0
  0
LINE
  5
2197
330
1F
100
AcDbEntity
  8
SPOJOVACÍ
  6
Continuous
100
AcDbLine
 10
5745.370538687155
 20
297.4359740416416
 30
0.0
 11
5747.898756500024
 21
297.4359740416416
 31
0.0
  0
LINE
  5
2198
330
1F
100
AcDbEntity
  8
SPOJOVACÍ
  6
Continuous
100
AcDbLine
 10
5748.50337076731
 20
297.4359740416416
 30
0.0
 11
5751.021356646638
 21
297.4359740416416
 31
0.0
  0
LINE
  5
2199
330
1F
100
AcDbEntity
  8
SPOJOVACÍ
  6
Continuous
100
AcDbLine
 10
5751.617599331792
 20
297.4359740416416
 30
0.0
 11
5752.864965073681
 21
297.4359740416416
 31
0.0
  0
LINE
  5
219A
330
1F
100
AcDbEntity
  8
SPOJOVACÍ
  6
Continuous
100
AcDbLine
 10
5752.864965073681
 20
297.4359740416416
 30
0.0
 11
5754.062101323038
 21
297.2862157389186
 31
0.0
  0
LINE
  5
219B
330
1F
100
AcDbEntity
  8
SPOJOVACÍ
  6
Continuous
100
AcDbLine
 10
5763.665236238634
 20
296.0862889624563
 30
0.0
 11
5760.829130237365
 21
295.7318919813274
 31
0.0
  0
LINE
  5
219C
330
1F
100
AcDbEntity
  8
SPOJOVACÍ
  6
Continuous
100
AcDbLine
 10
5754.682528578891
 20
297.2090111463926
 30
0.0
 11
5757.004247364956
 21
296.9187962968731
 31
0.0
  0
LINE
  5
219D
330
1F
100
AcDbEntity
  8
SPOJOVACÍ
  6
Continuous
100
AcDbLine
 10
5757.634906554621
 20
296.8397313540349
 30
0.0
 11
5759.955695164975
 21
296.5495165088809
 31
0.0
  0
LINE
  5
219E
330
1F
100
AcDbEntity
  8
SPOJOVACÍ
  6
Continuous
100
AcDbLine
 10
5760.576122420829
 20
296.472311916355
 30
0.0
 11
5763.665236238634
 21
296.0862889624563
 31
0.0
  0
LINE
  5
219F
330
1F
100
AcDbEntity
  8
SPOJOVACÍ
  6
Continuous
100
AcDbLine
 10
5760.259862650299
 20
295.6602684441036
 30
0.0
 11
5758.114877265314
 21
295.3923778157927
 31
0.0
  0
LINE
  5
21A0
330
1F
100
AcDbEntity
  8
SPOJOVACÍ
  6
Continuous
100
AcDbLine
 10
5754.25743824006
 20
298.2322045209598
 30
0.0
 11
5754.476029552087
 21
297.8536229726755
 31
0.0
  0
LINE
  5
21A1
330
1F
100
AcDbEntity
  8
SPOJOVACÍ
  6
Continuous
100
AcDbLine
 10
5754.25743824006
 20
298.2322045209598
 30
0.0
 11
5753.879786866932
 21
297.8536229726755
 31
0.0
  0
LINE
  5
21A2
330
1F
100
AcDbEntity
  8
SPOJOVACÍ
  6
Continuous
100
AcDbLine
 10
5757.272137994358
 20
297.6675878148539
 30
0.0
 11
5757.489799130406
 21
297.289936439543
 31
0.0
  0
LINE
  5
21A3
330
1F
100
AcDbEntity
  8
SPOJOVACÍ
  6
Continuous
100
AcDbLine
 10
5757.272137994358
 20
297.6675878148539
 30
0.0
 11
5756.893556445252
 21
297.289936439543
 31
0.0
  0
LINE
  5
21A4
330
1F
100
AcDbEntity
  8
SPOJOVACÍ
  6
Continuous
100
AcDbLine
 10
5760.285907572677
 20
297.1029711043825
 30
0.0
 11
5760.504498884697
 21
296.7253197334371
 31
0.0
  0
LINE
  5
21A5
330
1F
100
AcDbEntity
  8
SPOJOVACÍ
  6
Continuous
100
AcDbLine
 10
5760.285907572677
 20
297.1029711043825
 30
0.0
 11
5759.908256199549
 21
296.7253197334371
 31
0.0
  0
LINE
  5
21A6
330
1F
100
AcDbEntity
  8
SPOJOVACÍ
  6
Continuous
100
AcDbLine
 10
5760.504498884697
 20
296.7253197334371
 30
0.0
 11
5760.975167837282
 21
295.3263353338711
 31
0.0
  0
LINE
  5
21A7
330
1F
100
AcDbEntity
  8
SPOJOVACÍ
  6
Continuous
100
AcDbLine
 10
5759.908256199549
 20
296.7253197334371
 30
0.0
 11
5760.378925152134
 21
295.3263353338711
 31
0.0
  0
LINE
  5
21A8
330
1F
100
AcDbEntity
  8
SPOJOVACÍ
  6
Continuous
100
AcDbLine
 10
5744.939867293837
 20
298.4861425153808
 30
0.0
 11
5745.158458605864
 21
298.1084911400698
 31
0.0
  0
LINE
  5
21A9
330
1F
100
AcDbEntity
  8
SPOJOVACÍ
  6
Continuous
100
AcDbLine
 10
5744.939867293837
 20
298.4861425153808
 30
0.0
 11
5744.562215920709
 21
298.1084911400698
 31
0.0
  0
LINE
  5
21AA
330
1F
100
AcDbEntity
  8
SPOJOVACÍ
  6
Continuous
100
AcDbLine
 10
5748.059676912806
 20
298.4861425153808
 30
0.0
 11
5748.278268224826
 21
298.1084911400698
 31
0.0
  0
LINE
  5
21AB
330
1F
100
AcDbEntity
  8
SPOJOVACÍ
  6
Continuous
100
AcDbLine
 10
5748.059676912806
 20
298.4861425153808
 30
0.0
 11
5747.682025539678
 21
298.1084911400698
 31
0.0
  0
LINE
  5
21AC
330
1F
100
AcDbEntity
  8
SPOJOVACÍ
  6
Continuous
100
AcDbLine
 10
5751.180416707747
 20
298.4861425153808
 30
0.0
 11
5751.398077843795
 21
298.1084911400698
 31
0.0
  0
LINE
  5
21AD
330
1F
100
AcDbEntity
  8
SPOJOVACÍ
  6
Continuous
100
AcDbLine
 10
5751.180416707747
 20
298.4861425153808
 30
0.0
 11
5750.80183515864
 21
298.1084911400698
 31
0.0
  0
LINE
  5
21AE
330
1F
100
AcDbEntity
  8
SPOJOVACÍ
  6
Continuous
100
AcDbLine
 10
5743.161371172199
 20
294.7366038789055
 30
0.0
 11
5745.689588985068
 21
294.7366038789055
 31
0.0
  0
LINE
  5
21AF
330
1F
100
AcDbEntity
  8
SPOJOVACÍ
  6
Continuous
100
AcDbLine
 10
5746.283971318542
 20
294.7366038789055
 30
0.0
 11
5748.804747725252
 21
294.7366038789055
 31
0.0
  0
LINE
  5
21B0
330
1F
100
AcDbEntity
  8
SPOJOVACÍ
  6
Continuous
100
AcDbLine
 10
5749.405641289184
 20
294.7366038789055
 30
0.0
 11
5751.924557344214
 21
294.7366038789055
 31
0.0
  0
LINE
  5
21B1
330
1F
100
AcDbEntity
  8
SPOJOVACÍ
  6
Continuous
100
AcDbLine
 10
5752.528241435797
 20
294.7366038789055
 30
0.0
 11
5752.864965073681
 21
294.7366038789055
 31
0.0
  0
LINE
  5
21B2
330
1F
100
AcDbEntity
  8
SPOJOVACÍ
  6
Continuous
100
AcDbLine
 10
5754.836007584967
 20
294.9821702903732
 30
0.0
 11
5752.864965073681
 21
294.7366038789055
 31
0.0
  0
LINE
  5
21B3
330
1F
100
AcDbEntity
  8
SPOJOVACÍ
  6
Continuous
100
AcDbLine
 10
5743.019984451337
 20
293.6864354095319
 30
0.0
 11
5743.397635824189
 21
294.0640867804773
 31
0.0
  0
LINE
  5
21B4
330
1F
100
AcDbEntity
  8
SPOJOVACÍ
  6
Continuous
100
AcDbLine
 10
5743.019984451337
 20
293.6864354095319
 30
0.0
 11
5742.801393139311
 21
294.0640867804773
 31
0.0
  0
LINE
  5
21B5
330
1F
100
AcDbEntity
  8
SPOJOVACÍ
  6
Continuous
100
AcDbLine
 10
5755.230402122364
 20
294.1068748682169
 30
0.0
 11
5755.608983671471
 21
294.4845262391623
 31
0.0
  0
LINE
  5
21B6
330
1F
100
AcDbEntity
  8
SPOJOVACÍ
  6
Continuous
100
AcDbLine
 10
5755.230402122364
 20
294.1068748682169
 30
0.0
 11
5755.012740986316
 21
294.4845262391623
 31
0.0
  0
LINE
  5
21B7
330
1F
100
AcDbEntity
  8
SPOJOVACÍ
  6
Continuous
100
AcDbLine
 10
5757.905587711128
 20
294.5514988984228
 30
0.0
 11
5758.284169259958
 21
294.9291502693681
 31
0.0
  0
LINE
  5
21B8
330
1F
100
AcDbEntity
  8
SPOJOVACÍ
  6
Continuous
100
AcDbLine
 10
5757.905587711128
 20
294.5514988984228
 30
0.0
 11
5757.68792657508
 21
294.9291502693681
 31
0.0
  0
LINE
  5
21B9
330
1F
100
AcDbEntity
  8
SPOJOVACÍ
  6
Continuous
100
AcDbLine
 10
5746.139794070299
 20
293.6864354095319
 30
0.0
 11
5746.518375619129
 21
294.0640867804773
 31
0.0
  0
LINE
  5
21BA
330
1F
100
AcDbEntity
  8
SPOJOVACÍ
  6
Continuous
100
AcDbLine
 10
5746.139794070299
 20
293.6864354095319
 30
0.0
 11
5745.922132933982
 21
294.0640867804773
 31
0.0
  0
LINE
  5
21BB
330
1F
100
AcDbEntity
  8
SPOJOVACÍ
  6
Continuous
100
AcDbLine
 10
5749.259603689268
 20
293.6864354095319
 30
0.0
 11
5749.638185238098
 21
294.0640867804773
 31
0.0
  0
LINE
  5
21BC
330
1F
100
AcDbEntity
  8
SPOJOVACÍ
  6
Continuous
100
AcDbLine
 10
5749.259603689268
 20
293.6864354095319
 30
0.0
 11
5749.04194255322
 21
294.0640867804773
 31
0.0
  0
LINE
  5
21BD
330
1F
100
AcDbEntity
  8
SPOJOVACÍ
  6
Continuous
100
AcDbLine
 10
5752.380343484208
 20
293.6864354095319
 30
0.0
 11
5752.757994857336
 21
294.0640867804773
 31
0.0
  0
LINE
  5
21BE
330
1F
100
AcDbEntity
  8
SPOJOVACÍ
  6
Continuous
100
AcDbLine
 10
5752.380343484208
 20
293.6864354095319
 30
0.0
 11
5752.161752172182
 21
294.0640867804773
 31
0.0
  0
LINE
  5
21BF
330
1F
100
AcDbEntity
  8
SPOJOVACÍ
  6
Continuous
100
AcDbLine
 10
5727.899976890683
 20
301.1864428510903
 30
0.0
 11
5727.899976890683
 21
290.9861350738224
 31
0.0
  0
LINE
  5
21C0
330
1F
100
AcDbEntity
  8
SPOJOVACÍ
  6
Continuous
100
AcDbLine
 10
5729.099903667415
 20
301.1864428510903
 30
0.0
 11
5729.099903667415
 21
290.9861350738224
 31
0.0
  0
LINE
  5
21C1
330
1F
100
AcDbEntity
  8
SPOJOVACÍ
  6
Continuous
100
AcDbLine
 10
5738.700248055637
 20
298.4861425153808
 30
0.0
 11
5739.900174832099
 21
293.6864354095319
 31
0.0
  0
LINE
  5
21C2
330
1F
100
AcDbEntity
  8
SPOJOVACÍ
  6
Continuous
100
AcDbLine
 10
5738.917909191685
 20
298.1084911400698
 30
0.0
 11
5740.277826205227
 21
294.0640867804773
 31
0.0
  0
LINE
  5
21C3
330
1F
100
AcDbEntity
  8
SPOJOVACÍ
  6
Continuous
100
AcDbLine
 10
5738.321666506807
 20
298.1084911400698
 30
0.0
 11
5739.681583520073
 21
294.0640867804773
 31
0.0
  0
LINE
  5
21C4
330
1F
100
AcDbEntity
  8
CETRIS
100
AcDbLine
 10
5739.899976890683
 20
314.0397208084555
 30
0.0
 11
5727.899976890683
 21
314.0397208084518
 31
0.0
  0
LINE
  5
21C5
330
1F
100
AcDbEntity
  8
SPOJOVACÍ
  6
Continuous
100
AcDbLine
 10
5727.899976890683
 20
301.1864428510903
 30
0.0
 11
5729.099903667415
 21
301.1864428510903
 31
0.0
  0
LINE
  5
21C6
330
1F
100
AcDbEntity
  8
SPOJOVACÍ
  6
Continuous
100
AcDbLine
 10
5733.712645438649
 20
297.5020165235632
 30
0.0
 11
5734.499574161771
 21
297.4359740416416
 31
0.0
  0
LINE
  5
21C7
330
1F
100
AcDbEntity
  8
SPOJOVACÍ
  6
Continuous
100
AcDbLine
 10
5732.231805571599
 20
297.9298973878626
 30
0.0
 11
5733.712645438649
 21
297.5020165235632
 31
0.0
  0
LINE
  5
21C8
330
1F
100
AcDbEntity
  8
SPOJOVACÍ
  6
Continuous
100
AcDbLine
 10
5730.912816293301
 20
298.7261278671808
 30
0.0
 11
5732.231805571599
 21
297.9298973878626
 31
0.0
  0
LINE
  5
21C9
330
1F
100
AcDbEntity
  8
SPOJOVACÍ
  6
Continuous
100
AcDbLine
 10
5729.844044303889
 20
299.8367577675394
 30
0.0
 11
5730.912816293301
 21
298.7261278671808
 31
0.0
  0
LINE
  5
21CA
330
1F
100
AcDbEntity
  8
SPOJOVACÍ
  6
Continuous
100
AcDbLine
 10
5729.099903667415
 20
301.1864428510903
 30
0.0
 11
5729.844044303889
 21
299.8367577675394
 31
0.0
  0
LINE
  5
21CB
330
1F
100
AcDbEntity
  8
SPOJOVACÍ
  6
Continuous
100
AcDbLine
 10
5734.499574161771
 20
297.4359740416416
 30
0.0
 11
5738.537467291451
 21
297.4359740416416
 31
0.0
  0
LINE
  5
21CC
330
1F
100
AcDbEntity
  8
SPOJOVACÍ
  6
Continuous
100
AcDbLine
 10
5739.132779800628
 20
297.4359740416416
 30
0.0
 11
5741.651695855657
 21
297.4359740416416
 31
0.0
  0
LINE
  5
21CD
330
1F
100
AcDbEntity
  8
SPOJOVACÍ
  6
Continuous
100
AcDbLine
 10
5738.700248055637
 20
298.4861425153808
 30
0.0
 11
5738.917909191685
 21
298.1084911400698
 31
0.0
  0
LINE
  5
21CE
330
1F
100
AcDbEntity
  8
SPOJOVACÍ
  6
Continuous
100
AcDbLine
 10
5738.700248055637
 20
298.4861425153808
 30
0.0
 11
5738.321666506807
 21
298.1084911400698
 31
0.0
  0
LINE
  5
21CF
330
1F
100
AcDbEntity
  8
SPOJOVACÍ
  6
Continuous
100
AcDbLine
 10
5741.820057674599
 20
298.4861425153808
 30
0.0
 11
5742.038648986625
 21
298.1084911400698
 31
0.0
  0
LINE
  5
21D0
330
1F
100
AcDbEntity
  8
SPOJOVACÍ
  6
Continuous
100
AcDbLine
 10
5741.820057674599
 20
298.4861425153808
 30
0.0
 11
5741.44240630147
 21
298.1084911400698
 31
0.0
  0
LWPOLYLINE
  5
21D1
330
1F
100
AcDbEntity
  8
izolace
100
AcDbPolyline
 90
        4
 70
     1
 43
0.0
 10
5727.899976890683
 20
314.0397208084519
 10
5727.899976890683
 20
319.2577657896414
 10
5739.899976890683
 20
319.2577657896414
 10
5739.899976890683
 20
314.0397208084519
  0
LINE
  5
21D3
330
1F
100
AcDbEntity
  8
SPOJOVACÍ
  6
Continuous
100
AcDbLine
 10
5731.562078998639
 20
293.8966551388744
 30
0.0
 11
5730.35471081574
 21
292.9385740688899
 31
0.0
  0
LINE
  5
21D4
330
1F
100
AcDbEntity
  8
SPOJOVACÍ
  6
Continuous
100
AcDbLine
 10
5732.975946208342
 20
294.509640988022
 30
0.0
 11
5731.562078998639
 21
293.8966551388744
 31
0.0
  0
LINE
  5
21D5
330
1F
100
AcDbEntity
  8
SPOJOVACÍ
  6
Continuous
100
AcDbLine
 10
5734.499574161771
 20
294.7366038789055
 30
0.0
 11
5732.975946208342
 21
294.509640988022
 31
0.0
  0
LINE
  5
21D6
330
1F
100
AcDbEntity
  8
SPOJOVACÍ
  6
Continuous
100
AcDbLine
 10
5727.899976890683
 20
290.9861350738224
 30
0.0
 11
5729.099903667415
 21
290.9861350738224
 31
0.0
  0
LINE
  5
21D7
330
1F
100
AcDbEntity
  8
SPOJOVACÍ
  6
Continuous
100
AcDbLine
 10
5729.436627305299
 20
291.7014402599902
 30
0.0
 11
5729.099903667415
 21
290.9861350738224
 31
0.0
  0
LINE
  5
21D8
330
1F
100
AcDbEntity
  8
SPOJOVACÍ
  6
Continuous
100
AcDbLine
 10
5730.35471081574
 20
292.9385740688899
 30
0.0
 11
5729.436627305299
 21
291.7014402599902
 31
0.0
  0
LINE
  5
21D9
330
1F
100
AcDbEntity
  8
SPOJOVACÍ
  6
Continuous
100
AcDbLine
 10
5734.499574161771
 20
294.7366038789055
 30
0.0
 11
5739.4425283407
 21
294.7366038789055
 31
0.0
  0
LINE
  5
21DA
330
1F
100
AcDbEntity
  8
SPOJOVACÍ
  6
Continuous
100
AcDbLine
 10
5739.900174832099
 20
293.6864354095319
 30
0.0
 11
5740.277826205227
 21
294.0640867804773
 31
0.0
  0
LINE
  5
21DB
330
1F
100
AcDbEntity
  8
SPOJOVACÍ
  6
Continuous
100
AcDbLine
 10
5739.900174832099
 20
293.6864354095319
 30
0.0
 11
5739.681583520073
 21
294.0640867804773
 31
0.0
  0
LINE
  5
21DC
330
1F
100
AcDbEntity
  8
NOSNÉ KONSTRUKCE
100
AcDbLine
 10
5802.993848056727
 20
313.9639760998556
 30
0.0
 11
5802.993848056727
 21
75.94278690551118
 31
0.0
  0
LINE
  5
21DD
330
1F
100
AcDbEntity
  8
NOSNÉ KONSTRUKCE
  6
DASHED
100
AcDbLine
 10
5794.827652856957
 20
313.9639760998556
 30
0.0
 11
5794.827652856957
 21
78.4296882651845
 31
0.0
  0
LINE
  5
21DE
330
1F
100
AcDbEntity
  8
NOSNÉ KONSTRUKCE
  6
DASHED
100
AcDbLine
 10
5760.826232565621
 20
313.9639760998556
 30
0.0
 11
5760.826232565621
 21
88.78434870187561
 31
0.0
  0
LINE
  5
21DF
330
1F
100
AcDbEntity
  8
NOSNÉ KONSTRUKCE
100
AcDbLine
 10
5753.328097547806
 20
313.9639760998556
 30
0.0
 11
5753.328097547806
 21
91.06780160921562
 31
0.0
  0
LINE
  5
21E0
330
1F
100
AcDbEntity
  8
CETRIS
100
AcDbLine
 10
5816.132231175433
 20
314.0397208084555
 30
0.0
 11
5816.132231175433
 21
71.94167475443942
 31
0.0
  0
LINE
  5
21E1
330
1F
100
AcDbEntity
  8
CETRIS
100
AcDbLine
 10
5828.132231175434
 20
314.0397208084555
 30
0.0
 11
5828.132231175434
 21
68.28724137560903
 31
0.0
  0
LINE
  5
21E2
330
1F
100
AcDbEntity
  8
CETRIS
100
AcDbLine
 10
5727.899976890683
 20
314.0397208084518
 30
0.0
 11
5727.899976890683
 21
98.81158268340824
 31
0.0
  0
LINE
  5
21E3
330
1F
100
AcDbEntity
  8
CETRIS
100
AcDbLine
 10
5739.899976890683
 20
314.0397208084518
 30
0.0
 11
5739.899976890683
 21
95.15714930457807
 31
0.0
  0
LINE
  5
21E4
330
1F
100
AcDbEntity
  8
NOSNÉ KONSTRUKCE
100
AcDbLine
 10
5740.941400786656
 20
313.9639760998556
 30
0.0
 11
5740.941400786656
 21
94.83999811733179
 31
0.0
  0
LINE
  5
21E5
330
1F
100
AcDbEntity
  8
NOSNÉ KONSTRUKCE
100
AcDbLine
 10
5815.182949650092
 20
313.9639760998556
 30
0.0
 11
5815.182949650092
 21
72.23076526211525
 31
0.0
  0
LINE
  5
21E6
330
1F
100
AcDbEntity
  8
izolace
  6
IZOLACE
 48
2.2
100
AcDbLine
 10
5777.874982302441
 20
312.2747969972929
 30
0.0
 11
5777.874982302441
 21
83.59238869307956
 31
0.0
  0
LINE
  5
21E7
330
1F
100
AcDbEntity
  8
SPOJOVACÍ
  6
Continuous
100
AcDbLine
 10
5798.110422639216
 20
325.8573630607295
 30
0.0
 11
5798.3373855301
 21
324.3337351073003
 31
0.0
  0
LINE
  5
21E8
330
1F
100
AcDbEntity
  8
SPOJOVACÍ
  6
Continuous
100
AcDbLine
 10
5794.917129130259
 20
323.5895944705569
 30
0.0
 11
5795.345009994559
 21
325.0704343376071
 31
0.0
  0
LINE
  5
21E9
330
1F
100
AcDbEntity
  8
SPOJOVACÍ
  6
Continuous
100
AcDbLine
 10
5798.950371379247
 20
322.9198678975969
 30
0.0
 11
5799.908452449232
 21
321.7124997146981
 31
0.0
  0
LINE
  5
21EA
330
1F
100
AcDbEntity
  8
SPOJOVACÍ
  6
Continuous
100
AcDbLine
 10
5798.3373855301
 20
324.3337351073003
 30
0.0
 11
5798.950371379247
 21
322.9198678975969
 31
0.0
  0
LINE
  5
21EB
330
1F
100
AcDbEntity
  8
SPOJOVACÍ
  6
Continuous
100
AcDbLine
 10
5801.860891444299
 20
319.2577657896415
 30
0.0
 11
5801.860891444299
 21
320.4576925663729
 31
0.0
  0
LINE
  5
21EC
330
1F
100
AcDbEntity
  8
SPOJOVACÍ
  6
Continuous
100
AcDbLine
 10
5791.660583667031
 20
319.2577657896415
 30
0.0
 11
5801.860891444299
 21
319.2577657896415
 31
0.0
  0
LINE
  5
21ED
330
1F
100
AcDbEntity
  8
SPOJOVACÍ
  6
Continuous
100
AcDbLine
 10
5791.660583667031
 20
319.2577657896415
 30
0.0
 11
5791.660583667031
 21
320.4576925663729
 31
0.0
  0
LINE
  5
21EE
330
1F
100
AcDbEntity
  8
SPOJOVACÍ
  6
Continuous
100
AcDbLine
 10
5791.660583667031
 20
320.4576925663729
 30
0.0
 11
5801.860891444299
 21
320.4576925663729
 31
0.0
  0
LINE
  5
21EF
330
1F
100
AcDbEntity
  8
SPOJOVACÍ
  6
Continuous
100
AcDbLine
 10
5801.145586258131
 20
320.7944162042565
 30
0.0
 11
5801.860891444299
 21
320.4576925663729
 31
0.0
  0
LINE
  5
21F0
330
1F
100
AcDbEntity
  8
SPOJOVACÍ
  6
Continuous
100
AcDbLine
 10
5799.908452449232
 20
321.7124997146981
 30
0.0
 11
5801.145586258131
 21
320.7944162042565
 31
0.0
  0
LINE
  5
21F1
330
1F
100
AcDbEntity
  8
SPOJOVACÍ
  6
Continuous
100
AcDbLine
 10
5794.120898650941
 20
322.2706051922593
 30
0.0
 11
5794.917129130259
 21
323.5895944705569
 31
0.0
  0
LINE
  5
21F2
330
1F
100
AcDbEntity
  8
SPOJOVACÍ
  6
Continuous
100
AcDbLine
 10
5793.010268750582
 20
321.2018332028471
 30
0.0
 11
5794.120898650941
 21
322.2706051922593
 31
0.0
  0
LINE
  5
21F3
330
1F
100
AcDbEntity
  8
SPOJOVACÍ
  6
Continuous
100
AcDbLine
 10
5791.660583667031
 20
320.4576925663729
 30
0.0
 11
5793.010268750582
 21
321.2018332028471
 31
0.0
  0
HATCH
  5
21F4
330
1F
100
AcDbEntity
  8
NOSNÉ KONSTRUKCE
100
AcDbHatch
 10
0.0
 20
0.0
 30
0.0
210
0.0
220
0.0
230
1.0
  2
SOLID
 70
     1
 71
     0
 91
        1
 92
        7
 72
     1
 73
     1
 93
       60
 10
5758.765217865373
 20
386.5857955907053
 42
0.0
 10
5758.765217865374
 20
352.1928015562504
 42
-0.3073346934841183
 10
5759.929859985394
 20
350.4514913399379
 42
0.0
 10
5759.929859985394
 20
346.632979562757
 42
-0.307334693483106
 10
5758.765217865373
 20
344.8916693464515
 42
0.0
 10
5758.765217865374
 20
334.3927352464281
 42
0.4142135623730951
 10
5760.765217865372
 20
332.3927352464284
 42
0.0
 10
5768.964071226879
 20
332.3927352464284
 42
-0.7595816512230912
 10
5772.555513394634
 20
332.392735246428
 42
0.0
 10
5781.731382799194
 20
332.3927352464323
 42
-0.7595816493590427
 10
5785.322824999912
 20
332.3927352464284
 42
0.0
 10
5794.498692370691
 20
332.3927352464284
 42
-0.7767342353201953
 10
5798.110150954919
 20
332.3147780636011
 42
0.0
 10
5804.678260191394
 20
332.3147780636013
 42
0.4142135623730868
 10
5806.678260191393
 20
334.314778063601
 42
0.0
 10
5806.678260191395
 20
337.1401038552961
 42
0.0
 10
5805.678260191394
 20
337.1401038552962
 42
0.0
 10
5805.678260191394
 20
334.3147780636013
 42
-0.4142135623730951
 10
5804.678260191394
 20
333.3147780636013
 42
0.0
 10
5798.780564144294
 20
333.3147780636013
 42
0.5694936494219963
 10
5793.854618760796
 20
333.3927352464284
 42
0.0
 10
5785.966900583844
 20
333.3927352464284
 42
0.5590616644338513
 10
5781.087307215265
 20
333.392735246432
 42
0.0
 10
5773.199588979157
 20
333.3927352464284
 42
0.5590616643157284
 10
5768.319995642356
 20
333.3927352464284
 42
0.0
 10
5760.765217865373
 20
333.3927352464284
 42
-0.4142135623731451
 10
5759.765217865373
 20
334.3927352464281
 42
0.0
 10
5759.765217865372
 20
344.3257394372523
 42
0.2364174637114482
 10
5760.920676951823
 20
346.6075890942661
 42
0.0
 10
5760.920676951823
 20
350.4768818084341
 42
0.2364174637115772
 10
5759.765217865373
 20
352.7587314654494
 42
0.0
 10
5759.765217865373
 20
386.0235053413343
 42
0.2353201211467568
 10
5760.909848437733
 20
388.2989208571583
 42
0.0
 10
5760.907632867747
 20
392.1682129370016
 42
0.2364174637122881
 10
5759.750867375954
 20
394.4494006001962
 42
0.0
 10
5759.745179704442
 20
404.3824031626303
 42
-0.4142135623730951
 10
5760.744606937151
 20
405.3829756020466
 42
0.0
 10
5768.299383475624
 20
405.3873014931386
 42
0.5590616643157161
 10
5773.178976012477
 20
405.3900955646482
 42
0.0
 10
5781.066692955493
 20
405.3946120985601
 42
0.5590616644338511
 10
5785.946285524126
 20
405.3974061700915
 42
0.0
 10
5793.834002407987
 20
405.4019227039732
 42
0.5694936494220229
 10
5798.759902345394
 20
405.4827004868672
 42
0.0
 10
5804.657597425642
 20
405.4860775274033
 42
-0.4142135623730951
 10
5805.658169865058
 20
404.4866502946944
 42
0.0
 10
5805.659787656081
 20
401.661324966176
 42
0.0
 10
5806.659787492145
 20
401.6618975695297
 42
0.0
 10
5806.658169701121
 20
404.4872228980485
 42
0.4142135623730618
 10
5804.657024822287
 20
406.4860773634659
 42
0.0
 10
5798.08891666257
 20
406.4823164420895
 42
-0.7767342353201953
 10
5794.477503308939
 20
406.402291338745
 42
0.0
 10
5785.301637442428
 20
406.3970372063148
 42
-0.759581649359043
 10
5781.710195830481
 20
406.3949807344618
 42
0.0
 10
5772.534327930189
 20
406.3897266008715
 42
-0.7595816512230912
 10
5768.942886351204
 20
406.387670129041
 42
0.0
 10
5760.744034333797
 20
406.3829754381092
 42
0.4142135623731117
 10
5758.745179868379
 20
404.3818305592765
 42
0.0
 10
5758.751191593256
 20
393.8828981804201
 42
-0.3073346934834261
 10
5759.916830602417
 20
392.1422551275621
 42
0.0
 10
5759.919017095068
 20
388.3237439763761
 42
-0.3057747226774016
 97
        0
 75
     0
 76
     1
 47
0.1180065091547201
 98
        1
 10
5759.165881742952
 20
377.224416314277
  0
LINE
  5
21F5
330
1F
100
AcDbEntity
  8
SPOJOVACÍ
  6
Continuous
100
AcDbLine
 10
5797.186758074018
 20
351.6176515492568
 30
0.0
 11
5797.454648702329
 21
349.4726661642723
 31
0.0
  0
LINE
  5
21F6
330
1F
100
AcDbEntity
  8
SPOJOVACÍ
  6
Continuous
100
AcDbLine
 10
5795.744055413739
 20
351.6436964716356
 30
0.0
 11
5796.121706784685
 21
351.2660450985074
 31
0.0
  0
LINE
  5
21F7
330
1F
100
AcDbEntity
  8
SPOJOVACÍ
  6
Continuous
100
AcDbLine
 10
5796.121706784685
 20
351.2660450985074
 30
0.0
 11
5797.52069118425
 21
351.7367140510921
 31
0.0
  0
LINE
  5
21F8
330
1F
100
AcDbEntity
  8
SPOJOVACÍ
  6
Continuous
100
AcDbLine
 10
5795.345009994559
 20
325.0704343376071
 30
0.0
 11
5795.41105247648
 21
325.8573630607295
 31
0.0
  0
LINE
  5
21F9
330
1F
100
AcDbEntity
  8
SPOJOVACÍ
  6
Continuous
100
AcDbLine
 10
5798.110422639216
 20
325.8573630607295
 30
0.0
 11
5798.110422639216
 21
330.8003172396581
 31
0.0
  0
LINE
  5
21FA
330
1F
100
AcDbEntity
  8
SPOJOVACÍ
  6
Continuous
100
AcDbLine
 10
5795.41105247648
 20
325.8573630607295
 30
0.0
 11
5795.41105247648
 21
329.8952561904095
 31
0.0
  0
LINE
  5
21FB
330
1F
100
AcDbEntity
  8
SPOJOVACÍ
  6
Continuous
100
AcDbLine
 10
5795.41105247648
 20
330.4905686995859
 30
0.0
 11
5795.41105247648
 21
333.0094847546149
 31
0.0
  0
LINE
  5
21FC
330
1F
100
AcDbEntity
  8
SPOJOVACÍ
  6
Continuous
100
AcDbLine
 10
5795.41105247648
 20
333.6131688459297
 30
0.0
 11
5795.41105247648
 21
336.1339452526387
 31
0.0
  0
LINE
  5
21FD
330
1F
100
AcDbEntity
  8
SPOJOVACÍ
  6
Continuous
100
AcDbLine
 10
5795.41105247648
 20
336.7283275861134
 30
0.0
 11
5795.41105247648
 21
339.2565453989825
 31
0.0
  0
LINE
  5
21FE
330
1F
100
AcDbEntity
  8
SPOJOVACÍ
  6
Continuous
100
AcDbLine
 10
5798.110422639216
 20
331.4040013309729
 30
0.0
 11
5798.110422639216
 21
333.9229173860019
 31
0.0
  0
LINE
  5
21FF
330
1F
100
AcDbEntity
  8
SPOJOVACÍ
  6
Continuous
100
AcDbLine
 10
5798.110422639216
 20
334.5191600711566
 30
0.0
 11
5798.110422639216
 21
337.0473778840257
 31
0.0
  0
LINE
  5
2200
330
1F
100
AcDbEntity
  8
SPOJOVACÍ
  6
Continuous
100
AcDbLine
 10
5798.110422639216
 20
337.6417602175004
 30
0.0
 11
5798.110422639216
 21
340.1625366242094
 31
0.0
  0
LINE
  5
2201
330
1F
100
AcDbEntity
  8
SPOJOVACÍ
  6
Continuous
100
AcDbLine
 10
5795.41105247648
 20
339.8611596662683
 30
0.0
 11
5795.41105247648
 21
342.3791455455955
 31
0.0
  0
LINE
  5
2202
330
1F
100
AcDbEntity
  8
SPOJOVACÍ
  6
Continuous
100
AcDbLine
 10
5795.41105247648
 20
342.9753882307502
 30
0.0
 11
5795.41105247648
 21
344.2227539726388
 31
0.0
  0
LINE
  5
2203
330
1F
100
AcDbEntity
  8
SPOJOVACÍ
  6
Continuous
100
AcDbLine
 10
5798.110422639216
 20
340.7634301881423
 30
0.0
 11
5798.110422639216
 21
343.2823462431713
 31
0.0
  0
LINE
  5
2204
330
1F
100
AcDbEntity
  8
SPOJOVACÍ
  6
Continuous
100
AcDbLine
 10
5798.110422639216
 20
343.8860303347553
 30
0.0
 11
5798.110422639216
 21
344.2227539726388
 31
0.0
  0
LINE
  5
2205
330
1F
100
AcDbEntity
  8
SPOJOVACÍ
  6
Continuous
100
AcDbLine
 10
5795.41105247648
 20
344.2227539726388
 30
0.0
 11
5795.560810779203
 21
345.4198902219957
 31
0.0
  0
LINE
  5
2206
330
1F
100
AcDbEntity
  8
SPOJOVACÍ
  6
Continuous
100
AcDbLine
 10
5795.638015371729
 20
346.0403174778491
 30
0.0
 11
5795.928230221249
 21
348.3620362639137
 31
0.0
  0
LINE
  5
2207
330
1F
100
AcDbEntity
  8
SPOJOVACÍ
  6
Continuous
100
AcDbLine
 10
5796.007295164087
 20
348.9926954535783
 30
0.0
 11
5796.297510009241
 21
351.3134840639338
 31
0.0
  0
LINE
  5
2208
330
1F
100
AcDbEntity
  8
SPOJOVACÍ
  6
Continuous
100
AcDbLine
 10
5797.526272235187
 20
348.9006080498236
 30
0.0
 11
5797.793232690525
 21
346.7639942469702
 31
0.0
  0
LINE
  5
2209
330
1F
100
AcDbEntity
  8
SPOJOVACÍ
  6
Continuous
100
AcDbLine
 10
5797.864856227748
 20
346.193796483925
 30
0.0
 11
5798.110422639216
 21
344.2227539726388
 31
0.0
  0
LINE
  5
220A
330
1F
100
AcDbEntity
  8
SPOJOVACÍ
  6
Continuous
100
AcDbLine
 10
5794.360884002741
 20
330.0580369545948
 30
0.0
 11
5799.16059110859
 21
331.257963731057
 31
0.0
  0
LINE
  5
220B
330
1F
100
AcDbEntity
  8
SPOJOVACÍ
  6
Continuous
100
AcDbLine
 10
5794.360884002741
 20
330.0580369545948
 30
0.0
 11
5794.738535378051
 21
330.2756980906431
 31
0.0
  0
LINE
  5
220C
330
1F
100
AcDbEntity
  8
SPOJOVACÍ
  6
Continuous
100
AcDbLine
 10
5794.360884002741
 20
330.0580369545948
 30
0.0
 11
5794.738535378051
 21
329.6794554057648
 31
0.0
  0
LINE
  5
220D
330
1F
100
AcDbEntity
  8
SPOJOVACÍ
  6
Continuous
100
AcDbLine
 10
5799.16059110859
 20
331.257963731057
 30
0.0
 11
5798.782939737645
 21
331.6356151041852
 31
0.0
  0
LINE
  5
220E
330
1F
100
AcDbEntity
  8
SPOJOVACÍ
  6
Continuous
100
AcDbLine
 10
5799.16059110859
 20
331.257963731057
 30
0.0
 11
5798.782939737645
 21
331.0393724190305
 31
0.0
  0
LINE
  5
220F
330
1F
100
AcDbEntity
  8
SPOJOVACÍ
  6
Continuous
100
AcDbLine
 10
5794.738535378051
 20
330.2756980906431
 30
0.0
 11
5798.782939737645
 21
331.6356151041852
 31
0.0
  0
LINE
  5
2210
330
1F
100
AcDbEntity
  8
SPOJOVACÍ
  6
Continuous
100
AcDbLine
 10
5794.738535378051
 20
329.6794554057648
 30
0.0
 11
5798.782939737645
 21
331.0393724190305
 31
0.0
  0
LINE
  5
2211
330
1F
100
AcDbEntity
  8
SPOJOVACÍ
  6
Continuous
100
AcDbLine
 10
5794.360884002741
 20
333.1778465735567
 30
0.0
 11
5799.16059110859
 21
334.3777733502954
 31
0.0
  0
LINE
  5
2212
330
1F
100
AcDbEntity
  8
SPOJOVACÍ
  6
Continuous
100
AcDbLine
 10
5794.360884002741
 20
333.1778465735567
 30
0.0
 11
5794.738535378051
 21
333.3964378855832
 31
0.0
  0
LINE
  5
2213
330
1F
100
AcDbEntity
  8
SPOJOVACÍ
  6
Continuous
100
AcDbLine
 10
5794.360884002741
 20
333.1778465735567
 30
0.0
 11
5794.738535378051
 21
332.8001952004285
 31
0.0
  0
LINE
  5
2214
330
1F
100
AcDbEntity
  8
SPOJOVACÍ
  6
Continuous
100
AcDbLine
 10
5799.16059110859
 20
334.3777733502954
 30
0.0
 11
5798.782939737645
 21
334.7554247231471
 31
0.0
  0
LINE
  5
2215
330
1F
100
AcDbEntity
  8
SPOJOVACÍ
  6
Continuous
100
AcDbLine
 10
5799.16059110859
 20
334.3777733502954
 30
0.0
 11
5798.782939737645
 21
334.1591820382689
 31
0.0
  0
LINE
  5
2216
330
1F
100
AcDbEntity
  8
SPOJOVACÍ
  6
Continuous
100
AcDbLine
 10
5794.738535378051
 20
333.3964378855832
 30
0.0
 11
5798.782939737645
 21
334.7554247231471
 31
0.0
  0
LINE
  5
2217
330
1F
100
AcDbEntity
  8
SPOJOVACÍ
  6
Continuous
100
AcDbLine
 10
5794.738535378051
 20
332.8001952004285
 30
0.0
 11
5798.782939737645
 21
334.1591820382689
 31
0.0
  0
LINE
  5
2218
330
1F
100
AcDbEntity
  8
SPOJOVACÍ
  6
Continuous
100
AcDbLine
 10
5794.614821997162
 20
345.615227139018
 30
0.0
 11
5794.993403545446
 21
345.8338184510446
 31
0.0
  0
LINE
  5
2219
330
1F
100
AcDbEntity
  8
SPOJOVACÍ
  6
Continuous
100
AcDbLine
 10
5794.614821997162
 20
345.615227139018
 30
0.0
 11
5794.993403545446
 21
345.2375757658899
 31
0.0
  0
LINE
  5
221A
330
1F
100
AcDbEntity
  8
SPOJOVACÍ
  6
Continuous
100
AcDbLine
 10
5798.740151649905
 20
346.5881910213227
 30
0.0
 11
5798.362500278959
 21
346.9667725704291
 31
0.0
  0
LINE
  5
221B
330
1F
100
AcDbEntity
  8
SPOJOVACÍ
  6
Continuous
100
AcDbLine
 10
5798.740151649905
 20
346.5881910213227
 30
0.0
 11
5798.362500278959
 21
346.3705298852744
 31
0.0
  0
LINE
  5
221C
330
1F
100
AcDbEntity
  8
SPOJOVACÍ
  6
Continuous
100
AcDbLine
 10
5794.993403545446
 20
345.8338184510446
 30
0.0
 11
5798.362500278959
 21
346.9667725704291
 31
0.0
  0
LINE
  5
221D
330
1F
100
AcDbEntity
  8
SPOJOVACÍ
  6
Continuous
100
AcDbLine
 10
5794.993403545446
 20
345.2375757658899
 30
0.0
 11
5798.362500278959
 21
346.3705298852744
 31
0.0
  0
LINE
  5
221E
330
1F
100
AcDbEntity
  8
SPOJOVACÍ
  6
Continuous
100
AcDbLine
 10
5794.614821997162
 20
345.615227139018
 30
0.0
 11
5798.740151649905
 21
346.5881910213227
 31
0.0
  0
LINE
  5
221F
330
1F
100
AcDbEntity
  8
SPOJOVACÍ
  6
Continuous
100
AcDbLine
 10
5795.179438703268
 20
348.629926893316
 30
0.0
 11
5795.557090078578
 21
348.8475880293642
 31
0.0
  0
LINE
  5
2220
330
1F
100
AcDbEntity
  8
SPOJOVACÍ
  6
Continuous
100
AcDbLine
 10
5795.179438703268
 20
348.629926893316
 30
0.0
 11
5795.557090078578
 21
348.2513453442095
 31
0.0
  0
LINE
  5
2221
330
1F
100
AcDbEntity
  8
SPOJOVACÍ
  6
Continuous
100
AcDbLine
 10
5798.295527619699
 20
349.2633766100859
 30
0.0
 11
5797.917876248753
 21
349.6419581589159
 31
0.0
  0
LINE
  5
2222
330
1F
100
AcDbEntity
  8
SPOJOVACÍ
  6
Continuous
100
AcDbLine
 10
5798.295527619699
 20
349.2633766100859
 30
0.0
 11
5797.917876248753
 21
349.0457154740377
 31
0.0
  0
LINE
  5
2223
330
1F
100
AcDbEntity
  8
SPOJOVACÍ
  6
Continuous
100
AcDbLine
 10
5795.557090078578
 20
348.8475880293642
 30
0.0
 11
5797.917876248753
 21
349.6419581589159
 31
0.0
  0
LINE
  5
2224
330
1F
100
AcDbEntity
  8
SPOJOVACÍ
  6
Continuous
100
AcDbLine
 10
5795.557090078578
 20
348.2513453442095
 30
0.0
 11
5797.917876248753
 21
349.0457154740377
 31
0.0
  0
LINE
  5
2225
330
1F
100
AcDbEntity
  8
SPOJOVACÍ
  6
Continuous
100
AcDbLine
 10
5795.179438703268
 20
348.629926893316
 30
0.0
 11
5798.295527619699
 21
349.2633766100859
 31
0.0
  0
LINE
  5
2226
330
1F
100
AcDbEntity
  8
SPOJOVACÍ
  6
Continuous
100
AcDbLine
 10
5794.360884002741
 20
336.2976561927951
 30
0.0
 11
5799.16059110859
 21
337.4975829692573
 31
0.0
  0
LINE
  5
2227
330
1F
100
AcDbEntity
  8
SPOJOVACÍ
  6
Continuous
100
AcDbLine
 10
5794.360884002741
 20
336.2976561927951
 30
0.0
 11
5794.738535378051
 21
336.5162475048216
 31
0.0
  0
LINE
  5
2228
330
1F
100
AcDbEntity
  8
SPOJOVACÍ
  6
Continuous
100
AcDbLine
 10
5794.360884002741
 20
336.2976561927951
 30
0.0
 11
5794.738535378051
 21
335.9200048196669
 31
0.0
  0
LINE
  5
2229
330
1F
100
AcDbEntity
  8
SPOJOVACÍ
  6
Continuous
100
AcDbLine
 10
5799.16059110859
 20
337.4975829692573
 30
0.0
 11
5798.782939737645
 21
337.8761645180873
 31
0.0
  0
LINE
  5
222A
330
1F
100
AcDbEntity
  8
SPOJOVACÍ
  6
Continuous
100
AcDbLine
 10
5799.16059110859
 20
337.4975829692573
 30
0.0
 11
5798.782939737645
 21
337.2799218329398
 31
0.0
  0
LINE
  5
222B
330
1F
100
AcDbEntity
  8
SPOJOVACÍ
  6
Continuous
100
AcDbLine
 10
5794.738535378051
 20
336.5162475048216
 30
0.0
 11
5798.782939737645
 21
337.8761645180873
 31
0.0
  0
LINE
  5
222C
330
1F
100
AcDbEntity
  8
SPOJOVACÍ
  6
Continuous
100
AcDbLine
 10
5794.738535378051
 20
335.9200048196669
 30
0.0
 11
5798.782939737645
 21
337.2799218329398
 31
0.0
  0
LINE
  5
222D
330
1F
100
AcDbEntity
  8
SPOJOVACÍ
  6
Continuous
100
AcDbLine
 10
5794.360884002741
 20
339.4174658117642
 30
0.0
 11
5799.16059110859
 21
340.6173925882264
 31
0.0
  0
LINE
  5
222E
330
1F
100
AcDbEntity
  8
SPOJOVACÍ
  6
Continuous
100
AcDbLine
 10
5794.360884002741
 20
339.4174658117642
 30
0.0
 11
5794.738535378051
 21
339.6360571237835
 31
0.0
  0
LINE
  5
222F
330
1F
100
AcDbEntity
  8
SPOJOVACÍ
  6
Continuous
100
AcDbLine
 10
5794.360884002741
 20
339.4174658117642
 30
0.0
 11
5794.738535378051
 21
339.039814438636
 31
0.0
  0
LINE
  5
2230
330
1F
100
AcDbEntity
  8
SPOJOVACÍ
  6
Continuous
100
AcDbLine
 10
5799.16059110859
 20
340.6173925882264
 30
0.0
 11
5798.782939737645
 21
340.9959741370564
 31
0.0
  0
LINE
  5
2231
330
1F
100
AcDbEntity
  8
SPOJOVACÍ
  6
Continuous
100
AcDbLine
 10
5799.16059110859
 20
340.6173925882264
 30
0.0
 11
5798.782939737645
 21
340.3997314521782
 31
0.0
  0
LINE
  5
2232
330
1F
100
AcDbEntity
  8
SPOJOVACÍ
  6
Continuous
100
AcDbLine
 10
5794.738535378051
 20
339.6360571237835
 30
0.0
 11
5798.782939737645
 21
340.9959741370564
 31
0.0
  0
LINE
  5
2233
330
1F
100
AcDbEntity
  8
SPOJOVACÍ
  6
Continuous
100
AcDbLine
 10
5794.738535378051
 20
339.039814438636
 30
0.0
 11
5798.782939737645
 21
340.3997314521782
 31
0.0
  0
LINE
  5
2234
330
1F
100
AcDbEntity
  8
SPOJOVACÍ
  6
Continuous
100
AcDbLine
 10
5794.360884002741
 20
342.5382056067044
 30
0.0
 11
5799.16059110859
 21
343.7381323831666
 31
0.0
  0
LINE
  5
2235
330
1F
100
AcDbEntity
  8
SPOJOVACÍ
  6
Continuous
100
AcDbLine
 10
5794.360884002741
 20
342.5382056067044
 30
0.0
 11
5794.738535378051
 21
342.7558667427526
 31
0.0
  0
LINE
  5
2236
330
1F
100
AcDbEntity
  8
SPOJOVACÍ
  6
Continuous
100
AcDbLine
 10
5794.360884002741
 20
342.5382056067044
 30
0.0
 11
5794.738535378051
 21
342.1596240575979
 31
0.0
  0
LINE
  5
2237
330
1F
100
AcDbEntity
  8
SPOJOVACÍ
  6
Continuous
100
AcDbLine
 10
5799.16059110859
 20
343.7381323831666
 30
0.0
 11
5798.782939737645
 21
344.1157837562948
 31
0.0
  0
LINE
  5
2238
330
1F
100
AcDbEntity
  8
SPOJOVACÍ
  6
Continuous
100
AcDbLine
 10
5799.16059110859
 20
343.7381323831666
 30
0.0
 11
5798.782939737645
 21
343.5195410711401
 31
0.0
  0
LINE
  5
2239
330
1F
100
AcDbEntity
  8
SPOJOVACÍ
  6
Continuous
100
AcDbLine
 10
5794.738535378051
 20
342.7558667427526
 30
0.0
 11
5798.782939737645
 21
344.1157837562948
 31
0.0
  0
LINE
  5
223A
330
1F
100
AcDbEntity
  8
SPOJOVACÍ
  6
Continuous
100
AcDbLine
 10
5794.738535378051
 20
342.1596240575979
 30
0.0
 11
5798.782939737645
 21
343.5195410711401
 31
0.0
  0
LINE
  5
223B
330
1F
100
AcDbEntity
  8
SPOJOVACÍ
  6
Continuous
100
AcDbLine
 10
5796.760737555665
 20
355.0230251375921
 30
0.0
 11
5797.115134536794
 21
352.1869191363236
 31
0.0
  0
LINE
  5
223C
330
1F
100
AcDbEntity
  8
SPOJOVACÍ
  6
Continuous
100
AcDbLine
 10
5796.374714601767
 20
351.9339113197872
 30
0.0
 11
5796.760737555665
 21
355.0230251375921
 31
0.0
  0
LINE
  5
223D
330
1F
100
AcDbEntity
  8
SPOJOVACÍ
  6
Continuous
100
AcDbLine
 10
5795.744055413739
 20
351.6436964716356
 30
0.0
 11
5796.121706784685
 21
351.8622877836548
 31
0.0
  0
LINE
  5
223E
330
1F
100
AcDbEntity
  8
SPOJOVACÍ
  6
Continuous
100
AcDbLine
 10
5797.898342555196
 20
351.9543751874095
 30
0.0
 11
5797.52069118425
 21
352.3329567362395
 31
0.0
  0
LINE
  5
223F
330
1F
100
AcDbEntity
  8
SPOJOVACÍ
  6
Continuous
100
AcDbLine
 10
5797.898342555196
 20
351.9543751874095
 30
0.0
 11
5797.52069118425
 21
351.7367140510921
 31
0.0
  0
LINE
  5
2240
330
1F
100
AcDbEntity
  8
SPOJOVACÍ
  6
Continuous
100
AcDbLine
 10
5796.121706784685
 20
351.8622877836548
 30
0.0
 11
5797.52069118425
 21
352.3329567362395
 31
0.0
  0
LINE
  5
2241
330
1F
100
AcDbEntity
  8
SPOJOVACÍ
  6
Continuous
100
AcDbLine
 10
5795.744055413739
 20
351.6436964716356
 30
0.0
 11
5797.898342555196
 21
351.9543751874095
 31
0.0
  0
LINE
  5
2242
330
1F
100
AcDbEntity
  8
SPOJOVACÍ
  6
Continuous
100
AcDbLine
 10
5764.222147449559
 20
405.9475906636041
 30
0.0
 11
5768.266551809151
 21
404.5886038257638
 31
0.0
  0
LINE
  5
2243
330
1F
100
AcDbEntity
  8
SPOJOVACÍ
  6
Continuous
100
AcDbLine
 10
5764.222147449559
 20
405.3513479784494
 30
0.0
 11
5768.266551809151
 21
403.9923611408855
 31
0.0
  0
LINE
  5
2244
330
1F
100
AcDbEntity
  8
SPOJOVACÍ
  6
Continuous
100
AcDbLine
 10
5763.844496074248
 20
405.569939290476
 30
0.0
 11
5768.644203180097
 21
404.3700125137372
 31
0.0
  0
LINE
  5
2245
330
1F
100
AcDbEntity
  8
SPOJOVACÍ
  6
Continuous
100
AcDbLine
 10
5767.594034710723
 20
407.3437845330597
 30
0.0
 11
5767.594034710723
 21
404.8248684780308
 31
0.0
  0
LINE
  5
2246
330
1F
100
AcDbEntity
  8
SPOJOVACÍ
  6
Continuous
100
AcDbLine
 10
5764.894664547988
 20
405.1346170181029
 30
0.0
 11
5764.894664547988
 21
402.6138406113939
 31
0.0
  0
LINE
  5
2247
330
1F
100
AcDbEntity
  8
SPOJOVACÍ
  6
Continuous
100
AcDbLine
 10
5764.222147449559
 20
396.5881618064347
 30
0.0
 11
5768.266551809151
 21
395.2282447928926
 31
0.0
  0
LINE
  5
2248
330
1F
100
AcDbEntity
  8
SPOJOVACÍ
  6
Continuous
100
AcDbLine
 10
5764.222147449559
 20
395.99191912128
 30
0.0
 11
5768.266551809151
 21
394.6320021077379
 31
0.0
  0
LINE
  5
2249
330
1F
100
AcDbEntity
  8
SPOJOVACÍ
  6
Continuous
100
AcDbLine
 10
5768.644203180097
 20
395.009653480866
 30
0.0
 11
5768.266551809151
 21
395.2282447928926
 31
0.0
  0
LINE
  5
224A
330
1F
100
AcDbEntity
  8
SPOJOVACÍ
  6
Continuous
100
AcDbLine
 10
5768.644203180097
 20
395.009653480866
 30
0.0
 11
5768.266551809151
 21
394.6320021077379
 31
0.0
  0
LINE
  5
224B
330
1F
100
AcDbEntity
  8
SPOJOVACÍ
  6
Continuous
100
AcDbLine
 10
5763.844496074248
 20
396.2095802573283
 30
0.0
 11
5764.222147449559
 21
396.5881618064347
 31
0.0
  0
LINE
  5
224C
330
1F
100
AcDbEntity
  8
SPOJOVACÍ
  6
Continuous
100
AcDbLine
 10
5763.844496074248
 20
396.2095802573283
 30
0.0
 11
5764.222147449559
 21
395.99191912128
 31
0.0
  0
LINE
  5
224D
330
1F
100
AcDbEntity
  8
SPOJOVACÍ
  6
Continuous
100
AcDbLine
 10
5763.844496074248
 20
396.2095802573283
 30
0.0
 11
5768.644203180097
 21
395.009653480866
 31
0.0
  0
LINE
  5
224E
330
1F
100
AcDbEntity
  8
SPOJOVACÍ
  6
Continuous
100
AcDbLine
 10
5764.222147449559
 20
399.7079714253966
 30
0.0
 11
5768.266551809151
 21
398.3480544118545
 31
0.0
  0
LINE
  5
224F
330
1F
100
AcDbEntity
  8
SPOJOVACÍ
  6
Continuous
100
AcDbLine
 10
5764.222147449559
 20
399.1117287402492
 30
0.0
 11
5768.266551809151
 21
397.7518117269762
 31
0.0
  0
LINE
  5
2250
330
1F
100
AcDbEntity
  8
SPOJOVACÍ
  6
Continuous
100
AcDbLine
 10
5768.644203180097
 20
398.1303932758062
 30
0.0
 11
5768.266551809151
 21
398.3480544118545
 31
0.0
  0
LINE
  5
2251
330
1F
100
AcDbEntity
  8
SPOJOVACÍ
  6
Continuous
100
AcDbLine
 10
5768.644203180097
 20
398.1303932758062
 30
0.0
 11
5768.266551809151
 21
397.7518117269762
 31
0.0
  0
LINE
  5
2252
330
1F
100
AcDbEntity
  8
SPOJOVACÍ
  6
Continuous
100
AcDbLine
 10
5763.844496074248
 20
399.3303200522684
 30
0.0
 11
5764.222147449559
 21
399.7079714253966
 31
0.0
  0
LINE
  5
2253
330
1F
100
AcDbEntity
  8
SPOJOVACÍ
  6
Continuous
100
AcDbLine
 10
5763.844496074248
 20
399.3303200522684
 30
0.0
 11
5764.222147449559
 21
399.1117287402492
 31
0.0
  0
LINE
  5
2254
330
1F
100
AcDbEntity
  8
SPOJOVACÍ
  6
Continuous
100
AcDbLine
 10
5763.844496074248
 20
399.3303200522684
 30
0.0
 11
5768.644203180097
 21
398.1303932758062
 31
0.0
  0
LINE
  5
2255
330
1F
100
AcDbEntity
  8
SPOJOVACÍ
  6
Continuous
100
AcDbLine
 10
5764.222147449559
 20
402.8277810443658
 30
0.0
 11
5768.266551809151
 21
401.4678640310928
 31
0.0
  0
LINE
  5
2256
330
1F
100
AcDbEntity
  8
SPOJOVACÍ
  6
Continuous
100
AcDbLine
 10
5764.222147449559
 20
402.231538359211
 30
0.0
 11
5768.266551809151
 21
400.8716213459454
 31
0.0
  0
LINE
  5
2257
330
1F
100
AcDbEntity
  8
SPOJOVACÍ
  6
Continuous
100
AcDbLine
 10
5768.644203180097
 20
401.2502028947753
 30
0.0
 11
5768.266551809151
 21
401.4678640310928
 31
0.0
  0
LINE
  5
2258
330
1F
100
AcDbEntity
  8
SPOJOVACÍ
  6
Continuous
100
AcDbLine
 10
5768.644203180097
 20
401.2502028947753
 30
0.0
 11
5768.266551809151
 21
400.8716213459454
 31
0.0
  0
LINE
  5
2259
330
1F
100
AcDbEntity
  8
SPOJOVACÍ
  6
Continuous
100
AcDbLine
 10
5763.844496074248
 20
402.4501296712376
 30
0.0
 11
5764.222147449559
 21
402.8277810443658
 31
0.0
  0
LINE
  5
225A
330
1F
100
AcDbEntity
  8
SPOJOVACÍ
  6
Continuous
100
AcDbLine
 10
5763.844496074248
 20
402.4501296712376
 30
0.0
 11
5764.222147449559
 21
402.231538359211
 31
0.0
  0
LINE
  5
225B
330
1F
100
AcDbEntity
  8
SPOJOVACÍ
  6
Continuous
100
AcDbLine
 10
5763.844496074248
 20
402.4501296712376
 30
0.0
 11
5768.644203180097
 21
401.2502028947753
 31
0.0
  0
LINE
  5
225C
330
1F
100
AcDbEntity
  8
SPOJOVACÍ
  6
Continuous
100
AcDbLine
 10
5765.227667485246
 20
387.1040893923971
 30
0.0
 11
5767.381954626703
 21
386.7934106766231
 31
0.0
  0
LINE
  5
225D
330
1F
100
AcDbEntity
  8
SPOJOVACÍ
  6
Continuous
100
AcDbLine
 10
5765.605318856191
 20
387.4817407655252
 30
0.0
 11
5767.004303255758
 21
387.0110718129406
 31
0.0
  0
LINE
  5
225E
330
1F
100
AcDbEntity
  8
SPOJOVACÍ
  6
Continuous
100
AcDbLine
 10
5765.605318856191
 20
386.8854980803778
 30
0.0
 11
5767.004303255758
 21
386.4148291277931
 31
0.0
  0
LINE
  5
225F
330
1F
100
AcDbEntity
  8
SPOJOVACÍ
  6
Continuous
100
AcDbLine
 10
5767.381954626703
 20
386.7934106766231
 30
0.0
 11
5767.004303255758
 21
387.0110718129406
 31
0.0
  0
LINE
  5
2260
330
1F
100
AcDbEntity
  8
SPOJOVACÍ
  6
Continuous
100
AcDbLine
 10
5767.381954626703
 20
386.7934106766231
 30
0.0
 11
5767.004303255758
 21
386.4148291277931
 31
0.0
  0
LINE
  5
2261
330
1F
100
AcDbEntity
  8
SPOJOVACÍ
  6
Continuous
100
AcDbLine
 10
5765.227667485246
 20
387.1040893923971
 30
0.0
 11
5765.605318856191
 21
387.4817407655252
 31
0.0
  0
LINE
  5
2262
330
1F
100
AcDbEntity
  8
SPOJOVACÍ
  6
Continuous
100
AcDbLine
 10
5765.227667485246
 20
387.1040893923971
 30
0.0
 11
5765.605318856191
 21
386.8854980803778
 31
0.0
  0
LINE
  5
2263
330
1F
100
AcDbEntity
  8
SPOJOVACÍ
  6
Continuous
100
AcDbLine
 10
5764.663050774775
 20
390.1178589707167
 30
0.0
 11
5767.779139691207
 21
389.4844092539467
 31
0.0
  0
LINE
  5
2264
330
1F
100
AcDbEntity
  8
SPOJOVACÍ
  6
Continuous
100
AcDbLine
 10
5765.040702150086
 20
390.4964405198231
 30
0.0
 11
5767.401488320261
 21
389.702070389995
 31
0.0
  0
LINE
  5
2265
330
1F
100
AcDbEntity
  8
SPOJOVACÍ
  6
Continuous
100
AcDbLine
 10
5765.040702150086
 20
389.9001978346684
 30
0.0
 11
5767.401488320261
 21
389.1058277051167
 31
0.0
  0
LINE
  5
2266
330
1F
100
AcDbEntity
  8
SPOJOVACÍ
  6
Continuous
100
AcDbLine
 10
5767.779139691207
 20
389.4844092539467
 30
0.0
 11
5767.401488320261
 21
389.702070389995
 31
0.0
  0
LINE
  5
2267
330
1F
100
AcDbEntity
  8
SPOJOVACÍ
  6
Continuous
100
AcDbLine
 10
5767.779139691207
 20
389.4844092539467
 30
0.0
 11
5767.401488320261
 21
389.1058277051167
 31
0.0
  0
LINE
  5
2268
330
1F
100
AcDbEntity
  8
SPOJOVACÍ
  6
Continuous
100
AcDbLine
 10
5764.663050774775
 20
390.1178589707167
 30
0.0
 11
5765.040702150086
 21
390.4964405198231
 31
0.0
  0
LINE
  5
2269
330
1F
100
AcDbEntity
  8
SPOJOVACÍ
  6
Continuous
100
AcDbLine
 10
5764.663050774775
 20
390.1178589707167
 30
0.0
 11
5765.040702150086
 21
389.9001978346684
 31
0.0
  0
LINE
  5
226A
330
1F
100
AcDbEntity
  8
SPOJOVACÍ
  6
Continuous
100
AcDbLine
 10
5764.098434068669
 20
393.1325587250146
 30
0.0
 11
5768.223763721412
 21
392.15959484271
 31
0.0
  0
LINE
  5
226B
330
1F
100
AcDbEntity
  8
SPOJOVACÍ
  6
Continuous
100
AcDbLine
 10
5764.477015616954
 20
393.5102100981428
 30
0.0
 11
5767.846112350467
 21
392.3772559787582
 31
0.0
  0
LINE
  5
226C
330
1F
100
AcDbEntity
  8
SPOJOVACÍ
  6
Continuous
100
AcDbLine
 10
5764.477015616954
 20
392.913967412988
 30
0.0
 11
5767.846112350467
 21
391.7810132936035
 31
0.0
  0
LINE
  5
226D
330
1F
100
AcDbEntity
  8
SPOJOVACÍ
  6
Continuous
100
AcDbLine
 10
5768.223763721412
 20
392.15959484271
 30
0.0
 11
5767.846112350467
 21
392.3772559787582
 31
0.0
  0
LINE
  5
226E
330
1F
100
AcDbEntity
  8
SPOJOVACÍ
  6
Continuous
100
AcDbLine
 10
5768.223763721412
 20
392.15959484271
 30
0.0
 11
5767.846112350467
 21
391.7810132936035
 31
0.0
  0
LINE
  5
226F
330
1F
100
AcDbEntity
  8
SPOJOVACÍ
  6
Continuous
100
AcDbLine
 10
5764.098434068669
 20
393.1325587250146
 30
0.0
 11
5764.477015616954
 21
393.5102100981428
 31
0.0
  0
LINE
  5
2270
330
1F
100
AcDbEntity
  8
SPOJOVACÍ
  6
Continuous
100
AcDbLine
 10
5764.098434068669
 20
393.1325587250146
 30
0.0
 11
5764.477015616954
 21
392.913967412988
 31
0.0
  0
LINE
  5
2271
330
1F
100
AcDbEntity
  8
SPOJOVACÍ
  6
Continuous
100
AcDbLine
 10
5768.644203180097
 20
404.3700125137372
 30
0.0
 11
5768.266551809151
 21
404.5886038257638
 31
0.0
  0
LINE
  5
2272
330
1F
100
AcDbEntity
  8
SPOJOVACÍ
  6
Continuous
100
AcDbLine
 10
5768.644203180097
 20
404.3700125137372
 30
0.0
 11
5768.266551809151
 21
403.9923611408855
 31
0.0
  0
LINE
  5
2273
330
1F
100
AcDbEntity
  8
SPOJOVACÍ
  6
Continuous
100
AcDbLine
 10
5767.348468299256
 20
392.5539893801076
 30
0.0
 11
5767.594034710723
 21
394.5250318913938
 31
0.0
  0
LINE
  5
2274
330
1F
100
AcDbEntity
  8
SPOJOVACÍ
  6
Continuous
100
AcDbLine
 10
5767.009884306695
 20
389.8471778142091
 30
0.0
 11
5767.276844762032
 21
391.9837916170624
 31
0.0
  0
LINE
  5
2275
330
1F
100
AcDbEntity
  8
SPOJOVACÍ
  6
Continuous
100
AcDbLine
 10
5766.670370145526
 20
387.1301343147758
 30
0.0
 11
5766.938260773836
 21
389.2751196997603
 31
0.0
  0
LINE
  5
2276
330
1F
100
AcDbEntity
  8
SPOJOVACÍ
  6
Continuous
100
AcDbLine
 10
5765.858326673274
 20
386.8138745442454
 30
0.0
 11
5766.244349627172
 21
383.7247607264405
 31
0.0
  0
LINE
  5
2277
330
1F
100
AcDbEntity
  8
SPOJOVACÍ
  6
Continuous
100
AcDbLine
 10
5765.490907235594
 20
389.7550904104543
 30
0.0
 11
5765.781122080748
 21
387.4343018000988
 31
0.0
  0
LINE
  5
2278
330
1F
100
AcDbEntity
  8
SPOJOVACÍ
  6
Continuous
100
AcDbLine
 10
5765.121627443236
 20
392.7074683861835
 30
0.0
 11
5765.411842292756
 21
390.3857496001189
 31
0.0
  0
LINE
  5
2279
330
1F
100
AcDbEntity
  8
SPOJOVACÍ
  6
Continuous
100
AcDbLine
 10
5766.244349627172
 20
383.7247607264405
 30
0.0
 11
5766.598746608302
 21
386.560866727709
 31
0.0
  0
LINE
  5
227A
330
1F
100
AcDbEntity
  8
SPOJOVACÍ
  6
Continuous
100
AcDbLine
 10
5764.894664547988
 20
394.5250318913938
 30
0.0
 11
5765.04442285071
 21
393.327895642037
 31
0.0
  0
LINE
  5
227B
330
1F
100
AcDbEntity
  8
SPOJOVACÍ
  6
Continuous
100
AcDbLine
 10
5767.594034710723
 20
394.8617555292774
 30
0.0
 11
5767.594034710723
 21
394.5250318913938
 31
0.0
  0
LINE
  5
227C
330
1F
100
AcDbEntity
  8
SPOJOVACÍ
  6
Continuous
100
AcDbLine
 10
5767.594034710723
 20
397.9843556758903
 30
0.0
 11
5767.594034710723
 21
395.4654396208614
 31
0.0
  0
LINE
  5
227D
330
1F
100
AcDbEntity
  8
SPOJOVACÍ
  6
Continuous
100
AcDbLine
 10
5764.894664547988
 20
395.7723976332824
 30
0.0
 11
5764.894664547988
 21
394.5250318913938
 31
0.0
  0
LINE
  5
227E
330
1F
100
AcDbEntity
  8
SPOJOVACÍ
  6
Continuous
100
AcDbLine
 10
5764.894664547988
 20
398.8866261977643
 30
0.0
 11
5764.894664547988
 21
396.3686403184372
 31
0.0
  0
LINE
  5
227F
330
1F
100
AcDbEntity
  8
SPOJOVACÍ
  6
Continuous
100
AcDbLine
 10
5767.594034710723
 20
401.1060256465323
 30
0.0
 11
5767.594034710723
 21
398.5852492398232
 31
0.0
  0
LINE
  5
2280
330
1F
100
AcDbEntity
  8
SPOJOVACÍ
  6
Continuous
100
AcDbLine
 10
5767.594034710723
 20
404.228625792876
 30
0.0
 11
5767.594034710723
 21
401.7004079800069
 31
0.0
  0
LINE
  5
2281
330
1F
100
AcDbEntity
  8
SPOJOVACÍ
  6
Continuous
100
AcDbLine
 10
5764.894664547988
 20
402.0194582779192
 30
0.0
 11
5764.894664547988
 21
399.4912404650501
 31
0.0
  0
LINE
  5
2282
330
1F
100
AcDbEntity
  8
SPOJOVACÍ
  6
Continuous
100
AcDbLine
 10
5763.844496074248
 20
405.569939290476
 30
0.0
 11
5764.222147449559
 21
405.9475906636041
 31
0.0
  0
LINE
  5
2283
330
1F
100
AcDbEntity
  8
SPOJOVACÍ
  6
Continuous
100
AcDbLine
 10
5763.844496074248
 20
405.569939290476
 30
0.0
 11
5764.222147449559
 21
405.3513479784494
 31
0.0
  0
LINE
  5
2284
330
1F
100
AcDbEntity
  8
SPOJOVACÍ
  6
Continuous
100
AcDbLine
 10
5764.222147449559
 20
409.0683304582678
 30
0.0
 11
5768.266551809151
 21
407.7084134450021
 31
0.0
  0
LINE
  5
2285
330
1F
100
AcDbEntity
  8
SPOJOVACÍ
  6
Continuous
100
AcDbLine
 10
5764.222147449559
 20
408.4720877733896
 30
0.0
 11
5768.266551809151
 21
407.1121707598474
 31
0.0
  0
LINE
  5
2286
330
1F
100
AcDbEntity
  8
SPOJOVACÍ
  6
Continuous
100
AcDbLine
 10
5768.644203180097
 20
407.4898221329756
 30
0.0
 11
5768.266551809151
 21
407.7084134450021
 31
0.0
  0
LINE
  5
2287
330
1F
100
AcDbEntity
  8
SPOJOVACÍ
  6
Continuous
100
AcDbLine
 10
5768.644203180097
 20
407.4898221329756
 30
0.0
 11
5768.266551809151
 21
407.1121707598474
 31
0.0
  0
LINE
  5
2288
330
1F
100
AcDbEntity
  8
SPOJOVACÍ
  6
Continuous
100
AcDbLine
 10
5763.844496074248
 20
408.6897489094378
 30
0.0
 11
5764.222147449559
 21
409.0683304582678
 31
0.0
  0
LINE
  5
2289
330
1F
100
AcDbEntity
  8
SPOJOVACÍ
  6
Continuous
100
AcDbLine
 10
5763.844496074248
 20
408.6897489094378
 30
0.0
 11
5764.222147449559
 21
408.4720877733896
 31
0.0
  0
LINE
  5
228A
330
1F
100
AcDbEntity
  8
SPOJOVACÍ
  6
Continuous
100
AcDbLine
 10
5763.844496074248
 20
408.6897489094378
 30
0.0
 11
5768.644203180097
 21
407.4898221329756
 31
0.0
  0
LINE
  5
228B
330
1F
100
AcDbEntity
  8
SPOJOVACÍ
  6
Continuous
100
AcDbLine
 10
5764.894664547988
 20
408.2572171644467
 30
0.0
 11
5764.894664547988
 21
405.7383011094177
 31
0.0
  0
LINE
  5
228C
330
1F
100
AcDbEntity
  8
SPOJOVACÍ
  6
Continuous
100
AcDbLine
 10
5764.894664547988
 20
412.8904228033031
 30
0.0
 11
5764.894664547988
 21
408.8525296736231
 31
0.0
  0
LINE
  5
228D
330
1F
100
AcDbEntity
  8
SPOJOVACÍ
  6
Continuous
100
AcDbLine
 10
5767.594034710723
 20
412.8904228033031
 30
0.0
 11
5767.594034710723
 21
407.9474686243745
 31
0.0
  0
LINE
  5
228E
330
1F
100
AcDbEntity
  8
SPOJOVACÍ
  6
Continuous
100
AcDbLine
 10
5761.144195738538
 20
418.2900932976597
 30
0.0
 11
5762.49388082209
 21
417.5459526611855
 31
0.0
  0
LINE
  5
228F
330
1F
100
AcDbEntity
  8
SPOJOVACÍ
  6
Continuous
100
AcDbLine
 10
5762.49388082209
 20
417.5459526611855
 30
0.0
 11
5763.604510722448
 21
416.4771806717733
 31
0.0
  0
LINE
  5
2290
330
1F
100
AcDbEntity
  8
SPOJOVACÍ
  6
Continuous
100
AcDbLine
 10
5763.604510722448
 20
416.4771806717733
 30
0.0
 11
5764.400741201766
 21
415.1581913934758
 31
0.0
  0
LINE
  5
2291
330
1F
100
AcDbEntity
  8
SPOJOVACÍ
  6
Continuous
100
AcDbLine
 10
5764.400741201766
 20
415.1581913934758
 30
0.0
 11
5764.828622066065
 21
413.6773515264255
 31
0.0
  0
LINE
  5
2292
330
1F
100
AcDbEntity
  8
SPOJOVACÍ
  6
Continuous
100
AcDbLine
 10
5764.828622066065
 20
413.6773515264255
 30
0.0
 11
5764.894664547988
 21
412.8904228033031
 31
0.0
  0
LINE
  5
2293
330
1F
100
AcDbEntity
  8
SPOJOVACÍ
  6
Continuous
100
AcDbLine
 10
5769.392064520739
 20
417.0352861493345
 30
0.0
 11
5770.629198329639
 21
417.9533696597761
 31
0.0
  0
LINE
  5
2294
330
1F
100
AcDbEntity
  8
SPOJOVACÍ
  6
Continuous
100
AcDbLine
 10
5770.629198329639
 20
417.9533696597761
 30
0.0
 11
5771.344503515806
 21
418.2900932976597
 31
0.0
  0
LINE
  5
2295
330
1F
100
AcDbEntity
  8
SPOJOVACÍ
  6
Continuous
100
AcDbLine
 10
5761.144195738538
 20
418.2900932976597
 30
0.0
 11
5771.344503515806
 21
418.2900932976597
 31
0.0
  0
LINE
  5
2296
330
1F
100
AcDbEntity
  8
SPOJOVACÍ
  6
Continuous
100
AcDbLine
 10
5761.144195738538
 20
419.4900200743911
 30
0.0
 11
5761.144195738538
 21
418.2900932976597
 31
0.0
  0
LINE
  5
2297
330
1F
100
AcDbEntity
  8
SPOJOVACÍ
  6
Continuous
100
AcDbLine
 10
5761.144195738538
 20
419.4900200743911
 30
0.0
 11
5771.344503515806
 21
419.4900200743911
 31
0.0
  0
LINE
  5
2298
330
1F
100
AcDbEntity
  8
SPOJOVACÍ
  6
Continuous
100
AcDbLine
 10
5771.344503515806
 20
419.4900200743911
 30
0.0
 11
5771.344503515806
 21
418.2900932976597
 31
0.0
  0
LINE
  5
2299
330
1F
100
AcDbEntity
  8
SPOJOVACÍ
  6
Continuous
100
AcDbLine
 10
5767.594034710723
 20
412.8904228033031
 30
0.0
 11
5767.820997601607
 21
414.4140507567324
 31
0.0
  0
LINE
  5
229A
330
1F
100
AcDbEntity
  8
SPOJOVACÍ
  6
Continuous
100
AcDbLine
 10
5767.820997601607
 20
414.4140507567324
 30
0.0
 11
5768.433983450755
 21
415.8279179664357
 31
0.0
  0
LINE
  5
229B
330
1F
100
AcDbEntity
  8
SPOJOVACÍ
  6
Continuous
100
AcDbLine
 10
5768.433983450755
 20
415.8279179664357
 30
0.0
 11
5769.392064520739
 21
417.0352861493345
 31
0.0
  0
LINE
  5
229C
330
1F
100
AcDbEntity
  8
CETRIS
100
AcDbLine
 10
5781.450190737413
 20
407.4900200743911
 30
0.0
 11
5781.450190737413
 21
419.4900200743911
 31
0.0
  0
LINE
  5
229D
330
1F
100
AcDbEntity
  8
CETRIS
100
AcDbLine
 10
5786.450190737413
 20
407.4900200743911
 30
0.0
 11
5786.450190737413
 21
419.4900200743911
 31
0.0
  0
LWPOLYLINE
  5
229E
330
1F
100
AcDbEntity
  8
izolace
100
AcDbPolyline
 90
        4
 70
     1
 43
0.0
 10
5786.450190737413
 20
419.4900200743911
 10
5781.450190737413
 20
419.4900200743911
 10
5781.450190737413
 20
407.4900200743911
 10
5786.450190737413
 20
407.4900200743911
  0
HATCH
  5
229F
330
1F
100
AcDbEntity
  8
izolace
100
AcDbHatch
 10
0.0
 20
0.0
 30
0.0
210
0.0
220
0.0
230
1.0
  2
AR-SAND
 70
     0
 71
     0
 91
        1
 92
        7
 72
     0
 73
     1
 93
        4
 10
5786.450190737413
 20
419.4900200743911
 10
5781.450190737413
 20
419.4900200743902
 10
5781.450190737413
 20
407.4900200743911
 10
5786.450190737413
 20
407.4900200743911
 97
        0
 75
     0
 76
     1
 52
90.0
 41
0.05
 77
     0
 78
     4
 53
127.5
 43
-18173.68025511142
 44
-1069.007257183235
 45
-2.447066186646711
 46
-0.0800015647992021
 79
     6
 49
0.0
 49
-1.9304
 49
0.0
 49
-2.159
 49
0.0
 49
-2.06375
 53
97.49999999999985
 43
-18173.68025511142
 44
-1069.007257183235
 45
-3.584125502841771
 46
2.247616415690013
 79
     6
 49
0.0
 49
-1.041399999999999
 49
0.0
 49
-1.7399
 49
0.0
 49
-0.66675
 53
57.5
 43
-18173.68025511142
 44
-1070.569357183235
 45
-0.0071859233927282
 46
3.95496185120729
 79
     6
 49
0.0
 49
-0.635
 49
0.0
 49
-2.286
 49
0.0
 49
-2.9845
 53
47.5
 43
-18173.68025511142
 44
-1070.569357183235
 45
-1.11464661628608
 46
3.817782262361486
 79
     6
 49
0.0
 49
-0.3175
 49
0.0
 49
-1.498599999999999
 49
0.0
 49
-1.7145
 47
0.2359071171925059
 98
        1
 10
5783.474342834607
 20
413.3234859736064
  0
LINE
  5
22A2
330
1F
100
AcDbEntity
  8
SPOJOVACÍ
  6
Continuous
100
AcDbLine
 10
5803.00571692684
 20
405.1346170181029
 30
0.0
 11
5803.00571692684
 21
402.6138406113939
 31
0.0
  0
LINE
  5
22A3
330
1F
100
AcDbEntity
  8
SPOJOVACÍ
  6
Continuous
100
AcDbLine
 10
5800.306346764103
 20
407.3437845330597
 30
0.0
 11
5800.306346764103
 21
404.8248684780308
 31
0.0
  0
LINE
  5
22A4
330
1F
100
AcDbEntity
  8
SPOJOVACÍ
  6
Continuous
100
AcDbLine
 10
5804.055885400579
 20
405.569939290476
 30
0.0
 11
5799.256178294729
 21
404.3700125137372
 31
0.0
  0
LINE
  5
22A5
330
1F
100
AcDbEntity
  8
SPOJOVACÍ
  6
Continuous
100
AcDbLine
 10
5803.678234025268
 20
405.3513479784494
 30
0.0
 11
5799.633829665675
 21
403.9923611408855
 31
0.0
  0
LINE
  5
22A6
330
1F
100
AcDbEntity
  8
SPOJOVACÍ
  6
Continuous
100
AcDbLine
 10
5803.678234025268
 20
405.9475906636041
 30
0.0
 11
5799.633829665675
 21
404.5886038257638
 31
0.0
  0
LINE
  5
22A7
330
1F
100
AcDbEntity
  8
NOSNÉ KONSTRUKCE
100
AcDbLine
 10
5806.529974840268
 20
401.3994587190188
 30
0.0
 11
5808.029974840268
 21
401.3994587190188
 31
0.0
  0
LINE
  5
22A8
330
1F
100
AcDbEntity
  8
SPOJOVACÍ
  6
Continuous
100
AcDbLine
 10
5803.00571692684
 20
402.0194582779192
 30
0.0
 11
5803.00571692684
 21
399.4912404650501
 31
0.0
  0
LINE
  5
22A9
330
1F
100
AcDbEntity
  8
SPOJOVACÍ
  6
Continuous
100
AcDbLine
 10
5800.306346764103
 20
404.228625792876
 30
0.0
 11
5800.306346764103
 21
401.7004079800069
 31
0.0
  0
LINE
  5
22AA
330
1F
100
AcDbEntity
  8
SPOJOVACÍ
  6
Continuous
100
AcDbLine
 10
5800.306346764103
 20
401.1060256465323
 30
0.0
 11
5800.306346764103
 21
398.5852492398232
 31
0.0
  0
LINE
  5
22AB
330
1F
100
AcDbEntity
  8
SPOJOVACÍ
  6
Continuous
100
AcDbLine
 10
5803.00571692684
 20
398.8866261977643
 30
0.0
 11
5803.00571692684
 21
396.3686403184372
 31
0.0
  0
LINE
  5
22AC
330
1F
100
AcDbEntity
  8
SPOJOVACÍ
  6
Continuous
100
AcDbLine
 10
5803.00571692684
 20
395.7723976332824
 30
0.0
 11
5803.00571692684
 21
394.5250318913938
 31
0.0
  0
LINE
  5
22AD
330
1F
100
AcDbEntity
  8
SPOJOVACÍ
  6
Continuous
100
AcDbLine
 10
5800.306346764103
 20
397.9843556758903
 30
0.0
 11
5800.306346764103
 21
395.4654396208614
 31
0.0
  0
LINE
  5
22AE
330
1F
100
AcDbEntity
  8
SPOJOVACÍ
  6
Continuous
100
AcDbLine
 10
5800.306346764103
 20
394.8617555292774
 30
0.0
 11
5800.306346764103
 21
394.5250318913938
 31
0.0
  0
LINE
  5
22AF
330
1F
100
AcDbEntity
  8
SPOJOVACÍ
  6
Continuous
100
AcDbLine
 10
5803.00571692684
 20
394.5250318913938
 30
0.0
 11
5802.855958624117
 21
393.327895642037
 31
0.0
  0
LINE
  5
22B0
330
1F
100
AcDbEntity
  8
SPOJOVACÍ
  6
Continuous
100
AcDbLine
 10
5801.656031847654
 20
383.7247607264405
 30
0.0
 11
5801.301634866526
 21
386.560866727709
 31
0.0
  0
LINE
  5
22B1
330
1F
100
AcDbEntity
  8
SPOJOVACÍ
  6
Continuous
100
AcDbLine
 10
5802.77875403159
 20
392.7074683861835
 30
0.0
 11
5802.488539182071
 21
390.3857496001189
 31
0.0
  0
LINE
  5
22B2
330
1F
100
AcDbEntity
  8
SPOJOVACÍ
  6
Continuous
100
AcDbLine
 10
5802.409474239233
 20
389.7550904104543
 30
0.0
 11
5802.119259394078
 21
387.4343018000988
 31
0.0
  0
LINE
  5
22B3
330
1F
100
AcDbEntity
  8
SPOJOVACÍ
  6
Continuous
100
AcDbLine
 10
5802.042054801553
 20
386.8138745442454
 30
0.0
 11
5801.656031847654
 21
383.7247607264405
 31
0.0
  0
LINE
  5
22B4
330
1F
100
AcDbEntity
  8
SPOJOVACÍ
  6
Continuous
100
AcDbLine
 10
5801.230011329302
 20
387.1301343147758
 30
0.0
 11
5800.96212070099
 21
389.2751196997603
 31
0.0
  0
LINE
  5
22B5
330
1F
100
AcDbEntity
  8
SPOJOVACÍ
  6
Continuous
100
AcDbLine
 10
5800.890497168133
 20
389.8471778142091
 30
0.0
 11
5800.623536712794
 21
391.9837916170624
 31
0.0
  0
LINE
  5
22B6
330
1F
100
AcDbEntity
  8
SPOJOVACÍ
  6
Continuous
100
AcDbLine
 10
5800.551913175571
 20
392.5539893801076
 30
0.0
 11
5800.306346764103
 21
394.5250318913938
 31
0.0
  0
LINE
  5
22B7
330
1F
100
AcDbEntity
  8
SPOJOVACÍ
  6
Continuous
100
AcDbLine
 10
5799.256178294729
 20
404.3700125137372
 30
0.0
 11
5799.633829665675
 21
403.9923611408855
 31
0.0
  0
LINE
  5
22B8
330
1F
100
AcDbEntity
  8
SPOJOVACÍ
  6
Continuous
100
AcDbLine
 10
5799.256178294729
 20
404.3700125137372
 30
0.0
 11
5799.633829665675
 21
404.5886038257638
 31
0.0
  0
LINE
  5
22B9
330
1F
100
AcDbEntity
  8
SPOJOVACÍ
  6
Continuous
100
AcDbLine
 10
5803.801947406157
 20
393.1325587250146
 30
0.0
 11
5803.423365857874
 21
392.913967412988
 31
0.0
  0
LINE
  5
22BA
330
1F
100
AcDbEntity
  8
SPOJOVACÍ
  6
Continuous
100
AcDbLine
 10
5803.801947406157
 20
393.1325587250146
 30
0.0
 11
5803.423365857874
 21
393.5102100981428
 31
0.0
  0
LINE
  5
22BB
330
1F
100
AcDbEntity
  8
SPOJOVACÍ
  6
Continuous
100
AcDbLine
 10
5799.676617753415
 20
392.15959484271
 30
0.0
 11
5800.05426912436
 21
391.7810132936035
 31
0.0
  0
LINE
  5
22BC
330
1F
100
AcDbEntity
  8
SPOJOVACÍ
  6
Continuous
100
AcDbLine
 10
5799.676617753415
 20
392.15959484271
 30
0.0
 11
5800.05426912436
 21
392.3772559787582
 31
0.0
  0
LINE
  5
22BD
330
1F
100
AcDbEntity
  8
SPOJOVACÍ
  6
Continuous
100
AcDbLine
 10
5803.423365857874
 20
392.913967412988
 30
0.0
 11
5800.05426912436
 21
391.7810132936035
 31
0.0
  0
LINE
  5
22BE
330
1F
100
AcDbEntity
  8
SPOJOVACÍ
  6
Continuous
100
AcDbLine
 10
5803.423365857874
 20
393.5102100981428
 30
0.0
 11
5800.05426912436
 21
392.3772559787582
 31
0.0
  0
LINE
  5
22BF
330
1F
100
AcDbEntity
  8
SPOJOVACÍ
  6
Continuous
100
AcDbLine
 10
5803.801947406157
 20
393.1325587250146
 30
0.0
 11
5799.676617753415
 21
392.15959484271
 31
0.0
  0
LINE
  5
22C0
330
1F
100
AcDbEntity
  8
SPOJOVACÍ
  6
Continuous
100
AcDbLine
 10
5803.237330700052
 20
390.1178589707167
 30
0.0
 11
5802.859679324741
 21
389.9001978346684
 31
0.0
  0
LINE
  5
22C1
330
1F
100
AcDbEntity
  8
SPOJOVACÍ
  6
Continuous
100
AcDbLine
 10
5803.237330700052
 20
390.1178589707167
 30
0.0
 11
5802.859679324741
 21
390.4964405198231
 31
0.0
  0
LINE
  5
22C2
330
1F
100
AcDbEntity
  8
SPOJOVACÍ
  6
Continuous
100
AcDbLine
 10
5800.121241783621
 20
389.4844092539467
 30
0.0
 11
5800.498893154566
 21
389.1058277051167
 31
0.0
  0
LINE
  5
22C3
330
1F
100
AcDbEntity
  8
SPOJOVACÍ
  6
Continuous
100
AcDbLine
 10
5800.121241783621
 20
389.4844092539467
 30
0.0
 11
5800.498893154566
 21
389.702070389995
 31
0.0
  0
LINE
  5
22C4
330
1F
100
AcDbEntity
  8
SPOJOVACÍ
  6
Continuous
100
AcDbLine
 10
5802.859679324741
 20
389.9001978346684
 30
0.0
 11
5800.498893154566
 21
389.1058277051167
 31
0.0
  0
LINE
  5
22C5
330
1F
100
AcDbEntity
  8
SPOJOVACÍ
  6
Continuous
100
AcDbLine
 10
5802.859679324741
 20
390.4964405198231
 30
0.0
 11
5800.498893154566
 21
389.702070389995
 31
0.0
  0
LINE
  5
22C6
330
1F
100
AcDbEntity
  8
SPOJOVACÍ
  6
Continuous
100
AcDbLine
 10
5803.237330700052
 20
390.1178589707167
 30
0.0
 11
5800.121241783621
 21
389.4844092539467
 31
0.0
  0
LINE
  5
22C7
330
1F
100
AcDbEntity
  8
SPOJOVACÍ
  6
Continuous
100
AcDbLine
 10
5802.67271398958
 20
387.1040893923971
 30
0.0
 11
5802.295062618635
 21
386.8854980803778
 31
0.0
  0
LINE
  5
22C8
330
1F
100
AcDbEntity
  8
SPOJOVACÍ
  6
Continuous
100
AcDbLine
 10
5802.67271398958
 20
387.1040893923971
 30
0.0
 11
5802.295062618635
 21
387.4817407655252
 31
0.0
  0
LINE
  5
22C9
330
1F
100
AcDbEntity
  8
SPOJOVACÍ
  6
Continuous
100
AcDbLine
 10
5800.518426848124
 20
386.7934106766231
 30
0.0
 11
5800.896078219069
 21
386.4148291277931
 31
0.0
  0
LINE
  5
22CA
330
1F
100
AcDbEntity
  8
SPOJOVACÍ
  6
Continuous
100
AcDbLine
 10
5800.518426848124
 20
386.7934106766231
 30
0.0
 11
5800.896078219069
 21
387.0110718129406
 31
0.0
  0
LINE
  5
22CB
330
1F
100
AcDbEntity
  8
SPOJOVACÍ
  6
Continuous
100
AcDbLine
 10
5802.295062618635
 20
386.8854980803778
 30
0.0
 11
5800.896078219069
 21
386.4148291277931
 31
0.0
  0
LINE
  5
22CC
330
1F
100
AcDbEntity
  8
SPOJOVACÍ
  6
Continuous
100
AcDbLine
 10
5802.295062618635
 20
387.4817407655252
 30
0.0
 11
5800.896078219069
 21
387.0110718129406
 31
0.0
  0
LINE
  5
22CD
330
1F
100
AcDbEntity
  8
SPOJOVACÍ
  6
Continuous
100
AcDbLine
 10
5802.67271398958
 20
387.1040893923971
 30
0.0
 11
5800.518426848124
 21
386.7934106766231
 31
0.0
  0
LINE
  5
22CE
330
1F
100
AcDbEntity
  8
SPOJOVACÍ
  6
Continuous
100
AcDbLine
 10
5804.055885400579
 20
402.4501296712376
 30
0.0
 11
5799.256178294729
 21
401.2502028947753
 31
0.0
  0
LINE
  5
22CF
330
1F
100
AcDbEntity
  8
SPOJOVACÍ
  6
Continuous
100
AcDbLine
 10
5804.055885400579
 20
402.4501296712376
 30
0.0
 11
5803.678234025268
 21
402.231538359211
 31
0.0
  0
LINE
  5
22D0
330
1F
100
AcDbEntity
  8
SPOJOVACÍ
  6
Continuous
100
AcDbLine
 10
5804.055885400579
 20
402.4501296712376
 30
0.0
 11
5803.678234025268
 21
402.8277810443658
 31
0.0
  0
LINE
  5
22D1
330
1F
100
AcDbEntity
  8
SPOJOVACÍ
  6
Continuous
100
AcDbLine
 10
5799.256178294729
 20
401.2502028947753
 30
0.0
 11
5799.633829665675
 21
400.8716213459454
 31
0.0
  0
LINE
  5
22D2
330
1F
100
AcDbEntity
  8
SPOJOVACÍ
  6
Continuous
100
AcDbLine
 10
5799.256178294729
 20
401.2502028947753
 30
0.0
 11
5799.633829665675
 21
401.4678640310928
 31
0.0
  0
LINE
  5
22D3
330
1F
100
AcDbEntity
  8
SPOJOVACÍ
  6
Continuous
100
AcDbLine
 10
5803.678234025268
 20
402.231538359211
 30
0.0
 11
5799.633829665675
 21
400.8716213459454
 31
0.0
  0
LINE
  5
22D4
330
1F
100
AcDbEntity
  8
SPOJOVACÍ
  6
Continuous
100
AcDbLine
 10
5803.678234025268
 20
402.8277810443658
 30
0.0
 11
5799.633829665675
 21
401.4678640310928
 31
0.0
  0
LINE
  5
22D5
330
1F
100
AcDbEntity
  8
SPOJOVACÍ
  6
Continuous
100
AcDbLine
 10
5804.055885400579
 20
399.3303200522684
 30
0.0
 11
5799.256178294729
 21
398.1303932758062
 31
0.0
  0
LINE
  5
22D6
330
1F
100
AcDbEntity
  8
SPOJOVACÍ
  6
Continuous
100
AcDbLine
 10
5804.055885400579
 20
399.3303200522684
 30
0.0
 11
5803.678234025268
 21
399.1117287402492
 31
0.0
  0
LINE
  5
22D7
330
1F
100
AcDbEntity
  8
SPOJOVACÍ
  6
Continuous
100
AcDbLine
 10
5804.055885400579
 20
399.3303200522684
 30
0.0
 11
5803.678234025268
 21
399.7079714253966
 31
0.0
  0
LINE
  5
22D8
330
1F
100
AcDbEntity
  8
SPOJOVACÍ
  6
Continuous
100
AcDbLine
 10
5799.256178294729
 20
398.1303932758062
 30
0.0
 11
5799.633829665675
 21
397.7518117269762
 31
0.0
  0
LINE
  5
22D9
330
1F
100
AcDbEntity
  8
SPOJOVACÍ
  6
Continuous
100
AcDbLine
 10
5799.256178294729
 20
398.1303932758062
 30
0.0
 11
5799.633829665675
 21
398.3480544118545
 31
0.0
  0
LINE
  5
22DA
330
1F
100
AcDbEntity
  8
SPOJOVACÍ
  6
Continuous
100
AcDbLine
 10
5803.678234025268
 20
399.1117287402492
 30
0.0
 11
5799.633829665675
 21
397.7518117269762
 31
0.0
  0
LINE
  5
22DB
330
1F
100
AcDbEntity
  8
SPOJOVACÍ
  6
Continuous
100
AcDbLine
 10
5803.678234025268
 20
399.7079714253966
 30
0.0
 11
5799.633829665675
 21
398.3480544118545
 31
0.0
  0
LINE
  5
22DC
330
1F
100
AcDbEntity
  8
SPOJOVACÍ
  6
Continuous
100
AcDbLine
 10
5804.055885400579
 20
396.2095802573283
 30
0.0
 11
5799.256178294729
 21
395.009653480866
 31
0.0
  0
LINE
  5
22DD
330
1F
100
AcDbEntity
  8
SPOJOVACÍ
  6
Continuous
100
AcDbLine
 10
5804.055885400579
 20
396.2095802573283
 30
0.0
 11
5803.678234025268
 21
395.99191912128
 31
0.0
  0
LINE
  5
22DE
330
1F
100
AcDbEntity
  8
SPOJOVACÍ
  6
Continuous
100
AcDbLine
 10
5804.055885400579
 20
396.2095802573283
 30
0.0
 11
5803.678234025268
 21
396.5881618064347
 31
0.0
  0
LINE
  5
22DF
330
1F
100
AcDbEntity
  8
SPOJOVACÍ
  6
Continuous
100
AcDbLine
 10
5799.256178294729
 20
395.009653480866
 30
0.0
 11
5799.633829665675
 21
394.6320021077379
 31
0.0
  0
LINE
  5
22E0
330
1F
100
AcDbEntity
  8
SPOJOVACÍ
  6
Continuous
100
AcDbLine
 10
5799.256178294729
 20
395.009653480866
 30
0.0
 11
5799.633829665675
 21
395.2282447928926
 31
0.0
  0
LINE
  5
22E1
330
1F
100
AcDbEntity
  8
SPOJOVACÍ
  6
Continuous
100
AcDbLine
 10
5803.678234025268
 20
395.99191912128
 30
0.0
 11
5799.633829665675
 21
394.6320021077379
 31
0.0
  0
LINE
  5
22E2
330
1F
100
AcDbEntity
  8
SPOJOVACÍ
  6
Continuous
100
AcDbLine
 10
5803.678234025268
 20
396.5881618064347
 30
0.0
 11
5799.633829665675
 21
395.2282447928926
 31
0.0
  0
LINE
  5
22E3
330
1F
100
AcDbEntity
  8
SPOJOVACÍ
  6
Continuous
100
AcDbLine
 10
5799.466398024073
 20
415.8279179664357
 30
0.0
 11
5798.508316954087
 21
417.0352861493345
 31
0.0
  0
LINE
  5
22E4
330
1F
100
AcDbEntity
  8
SPOJOVACÍ
  6
Continuous
100
AcDbLine
 10
5800.07938387322
 20
414.4140507567324
 30
0.0
 11
5799.466398024073
 21
415.8279179664357
 31
0.0
  0
LINE
  5
22E5
330
1F
100
AcDbEntity
  8
SPOJOVACÍ
  6
Continuous
100
AcDbLine
 10
5800.306346764103
 20
412.8904228033031
 30
0.0
 11
5800.07938387322
 21
414.4140507567324
 31
0.0
  0
LINE
  5
22E6
330
1F
100
AcDbEntity
  8
SPOJOVACÍ
  6
Continuous
100
AcDbLine
 10
5796.55587795902
 20
419.4900200743911
 30
0.0
 11
5796.55587795902
 21
418.2900932976597
 31
0.0
  0
LINE
  5
22E7
330
1F
100
AcDbEntity
  8
SPOJOVACÍ
  6
Continuous
100
AcDbLine
 10
5806.756185736288
 20
419.4900200743911
 30
0.0
 11
5796.55587795902
 21
419.4900200743911
 31
0.0
  0
LINE
  5
22E8
330
1F
100
AcDbEntity
  8
SPOJOVACÍ
  6
Continuous
100
AcDbLine
 10
5806.756185736288
 20
419.4900200743911
 30
0.0
 11
5806.756185736288
 21
418.2900932976597
 31
0.0
  0
LINE
  5
22E9
330
1F
100
AcDbEntity
  8
SPOJOVACÍ
  6
Continuous
100
AcDbLine
 10
5806.756185736288
 20
418.2900932976597
 30
0.0
 11
5796.55587795902
 21
418.2900932976597
 31
0.0
  0
LINE
  5
22EA
330
1F
100
AcDbEntity
  8
SPOJOVACÍ
  6
Continuous
100
AcDbLine
 10
5797.271183145188
 20
417.9533696597761
 30
0.0
 11
5796.55587795902
 21
418.2900932976597
 31
0.0
  0
LINE
  5
22EB
330
1F
100
AcDbEntity
  8
SPOJOVACÍ
  6
Continuous
100
AcDbLine
 10
5798.508316954087
 20
417.0352861493345
 30
0.0
 11
5797.271183145188
 21
417.9533696597761
 31
0.0
  0
LINE
  5
22EC
330
1F
100
AcDbEntity
  8
SPOJOVACÍ
  6
Continuous
100
AcDbLine
 10
5803.071759408761
 20
413.6773515264255
 30
0.0
 11
5803.00571692684
 21
412.8904228033031
 31
0.0
  0
LINE
  5
22ED
330
1F
100
AcDbEntity
  8
SPOJOVACÍ
  6
Continuous
100
AcDbLine
 10
5803.49964027306
 20
415.1581913934758
 30
0.0
 11
5803.071759408761
 21
413.6773515264255
 31
0.0
  0
LINE
  5
22EE
330
1F
100
AcDbEntity
  8
SPOJOVACÍ
  6
Continuous
100
AcDbLine
 10
5804.295870752379
 20
416.4771806717733
 30
0.0
 11
5803.49964027306
 21
415.1581913934758
 31
0.0
  0
LINE
  5
22EF
330
1F
100
AcDbEntity
  8
SPOJOVACÍ
  6
Continuous
100
AcDbLine
 10
5805.406500652737
 20
417.5459526611855
 30
0.0
 11
5804.295870752379
 21
416.4771806717733
 31
0.0
  0
LINE
  5
22F0
330
1F
100
AcDbEntity
  8
SPOJOVACÍ
  6
Continuous
100
AcDbLine
 10
5806.756185736288
 20
418.2900932976597
 30
0.0
 11
5805.406500652737
 21
417.5459526611855
 31
0.0
  0
LINE
  5
22F1
330
1F
100
AcDbEntity
  8
SPOJOVACÍ
  6
Continuous
100
AcDbLine
 10
5800.306346764103
 20
412.8904228033031
 30
0.0
 11
5800.306346764103
 21
407.9474686243745
 31
0.0
  0
LINE
  5
22F2
330
1F
100
AcDbEntity
  8
SPOJOVACÍ
  6
Continuous
100
AcDbLine
 10
5803.00571692684
 20
412.8904228033031
 30
0.0
 11
5803.00571692684
 21
408.8525296736231
 31
0.0
  0
LINE
  5
22F3
330
1F
100
AcDbEntity
  8
SPOJOVACÍ
  6
Continuous
100
AcDbLine
 10
5803.00571692684
 20
408.2572171644467
 30
0.0
 11
5803.00571692684
 21
405.7383011094177
 31
0.0
  0
LINE
  5
22F4
330
1F
100
AcDbEntity
  8
SPOJOVACÍ
  6
Continuous
100
AcDbLine
 10
5804.055885400579
 20
408.6897489094378
 30
0.0
 11
5799.256178294729
 21
407.4898221329756
 31
0.0
  0
LINE
  5
22F5
330
1F
100
AcDbEntity
  8
SPOJOVACÍ
  6
Continuous
100
AcDbLine
 10
5804.055885400579
 20
408.6897489094378
 30
0.0
 11
5803.678234025268
 21
408.4720877733896
 31
0.0
  0
LINE
  5
22F6
330
1F
100
AcDbEntity
  8
SPOJOVACÍ
  6
Continuous
100
AcDbLine
 10
5804.055885400579
 20
408.6897489094378
 30
0.0
 11
5803.678234025268
 21
409.0683304582678
 31
0.0
  0
LINE
  5
22F7
330
1F
100
AcDbEntity
  8
SPOJOVACÍ
  6
Continuous
100
AcDbLine
 10
5799.256178294729
 20
407.4898221329756
 30
0.0
 11
5799.633829665675
 21
407.1121707598474
 31
0.0
  0
LINE
  5
22F8
330
1F
100
AcDbEntity
  8
SPOJOVACÍ
  6
Continuous
100
AcDbLine
 10
5799.256178294729
 20
407.4898221329756
 30
0.0
 11
5799.633829665675
 21
407.7084134450021
 31
0.0
  0
LINE
  5
22F9
330
1F
100
AcDbEntity
  8
SPOJOVACÍ
  6
Continuous
100
AcDbLine
 10
5803.678234025268
 20
408.4720877733896
 30
0.0
 11
5799.633829665675
 21
407.1121707598474
 31
0.0
  0
LINE
  5
22FA
330
1F
100
AcDbEntity
  8
SPOJOVACÍ
  6
Continuous
100
AcDbLine
 10
5803.678234025268
 20
409.0683304582678
 30
0.0
 11
5799.633829665675
 21
407.7084134450021
 31
0.0
  0
LINE
  5
22FB
330
1F
100
AcDbEntity
  8
SPOJOVACÍ
  6
Continuous
100
AcDbLine
 10
5804.055885400579
 20
405.569939290476
 30
0.0
 11
5803.678234025268
 21
405.3513479784494
 31
0.0
  0
LINE
  5
22FC
330
1F
100
AcDbEntity
  8
SPOJOVACÍ
  6
Continuous
100
AcDbLine
 10
5804.055885400579
 20
405.569939290476
 30
0.0
 11
5803.678234025268
 21
405.9475906636041
 31
0.0
  0
LINE
  5
22FE
330
1F
100
AcDbEntity
  8
POPIS
100
AcDbLine
 10
5689.299295107503
 20
110.5668843462463
 30
0.0
 11
5862.860670899758
 21
57.71117726533702
 31
0.0
  0
LINE
  5
2300
330
1F
100
AcDbEntity
  8
POPIS
100
AcDbLine
 10
6055.064992058031
 20
288.9918909360403
 30
0.0
 11
6083.662156189965
 21
444.2592793173662
 31
0.0
  0
TEXT
  5
518B
330
1F
100
AcDbEntity
  8
POPIS
100
AcDbText
 10
5819.467224741547
 20
483.85174654465
 30
0.0
 40
25.0
  1
04
 41
0.85
  7
SIMPLEX7
100
AcDbText
  0
LINE
  5
518C
330
1F
100
AcDbEntity
  8
POPIS
100
AcDbLine
 10
5834.018307493693
 20
479.1506834081262
 30
0.0
 11
5794.36850248056
 21
449.3203517412601
 31
0.0
  0
LINE
  5
518D
330
1F
100
AcDbEntity
  8
POPIS
100
AcDbLine
 10
5631.792754017283
 20
382.0150146626344
 30
0.0
 11
5631.792754017283
 21
479.1506834081262
 31
0.0
  0
LINE
  5
518E
330
1F
100
AcDbEntity
  8
POPIS
100
AcDbLine
 10
5553.590755176425
 20
419.4900200743939
 30
0.0
 11
5553.590755176425
 21
479.1506834081299
 31
0.0
  0
TEXT
  5
518F
330
1F
100
AcDbEntity
  8
POPIS
100
AcDbText
 10
5535.934307687973
 20
483.8517465446536
 30
0.0
 40
25.0
  1
01
 41
0.85
  7
SIMPLEX7
100
AcDbText
  0
TEXT
  5
5190
330
1F
100
AcDbEntity
  8
POPIS
100
AcDbText
 10
5710.609700365207
 20
483.85174654465
 30
0.0
 40
25.0
  1
02
 41
0.85
  7
SIMPLEX7
100
AcDbText
  0
TEXT
  5
5191
330
1F
100
AcDbEntity
  8
POPIS
100
AcDbText
 10
5614.136306528831
 20
483.85174654465
 30
0.0
 40
25.0
  1
03
 41
0.85
  7
SIMPLEX7
100
AcDbText
  0
LINE
  5
5192
330
1F
100
AcDbEntity
  8
POPIS
100
AcDbLine
 10
5784.330624290851
 20
419.4900200743911
 30
0.0
 11
5784.330624290851
 21
479.1506834081262
 31
0.0
  0
LINE
  5
5193
330
1F
100
AcDbEntity
  8
POPIS
100
AcDbLine
 10
5727.070819053551
 20
479.1506834081262
 30
0.0
 11
5766.720624066685
 21
449.3203517412601
 31
0.0
  0
LINE
  5
5194
330
1F
100
AcDbEntity
  8
POPIS
100
AcDbLine
 10
5766.720624066689
 20
419.4900200743911
 30
0.0
 11
5766.720624066685
 21
449.3203517412601
 31
0.0
  0
LINE
  5
5195
330
1F
100
AcDbEntity
  8
POPIS
100
AcDbLine
 10
5794.368502480557
 20
406.4485961784182
 30
0.0
 11
5794.36850248056
 21
449.3203517412601
 31
0.0
  0
TEXT
  5
5196
330
1F
100
AcDbEntity
  8
POPIS
100
AcDbText
 10
5766.6741768024
 20
483.85174654465
 30
0.0
 40
25.0
  1
06
 41
0.85
  7
SIMPLEX7
100
AcDbText
  0
INSERT
  5
5197
330
1F
100
AcDbEntity
  8
POPIS
100
AcDbBlockReference
  2
E_PUNKT
 10
5631.765143641656
 20
381.9859463317614
 30
0.0
  0
INSERT
  5
5198
330
1F
100
AcDbEntity
  8
POPIS
100
AcDbBlockReference
  2
E_PUNKT
 10
5553.468022677684
 20
419.460951743518
 30
0.0
  0
INSERT
  5
5199
330
1F
100
AcDbEntity
  8
POPIS
100
AcDbBlockReference
  2
E_PUNKT
 10
5766.693013691064
 20
419.460951743518
 30
0.0
  0
INSERT
  5
519A
330
1F
100
AcDbEntity
  8
POPIS
100
AcDbBlockReference
  2
E_PUNKT
 10
5784.303013915225
 20
419.460951743518
 30
0.0
  0
INSERT
  5
519B
330
1F
100
AcDbEntity
  8
POPIS
100
AcDbBlockReference
  2
E_PUNKT
 10
5794.11098806388
 20
404.2701622404836
 30
0.0
  0
LINE
  5
519F
330
1F
100
AcDbEntity
  8
POPIS
100
AcDbLine
 10
5923.25984787045
 20
394.0618994172689
 30
0.0
 11
5923.25984787045
 21
479.1506834081262
 31
0.0
  0
TEXT
  5
51A0
330
1F
100
AcDbEntity
  8
POPIS
100
AcDbText
 10
5906.829868417337
 20
483.85174654465
 30
0.0
 40
25.0
  1
05
 41
0.85
  7
SIMPLEX7
100
AcDbText
  0
INSERT
  5
51A1
330
1F
100
AcDbEntity
  8
POPIS
100
AcDbBlockReference
  2
E_PUNKT
 10
5923.232237494824
 20
394.5511594096103
 30
0.0
  0
LINE
  5
51A2
330
1F
100
AcDbEntity
  8
POPIS
100
AcDbLine
 10
5757.039952206617
 20
316.8935338316249
 30
0.0
 11
5669.760663477937
 21
244.4347508685603
 31
0.0
  0
TEXT
  5
51A4
330
1F
100
AcDbEntity
  8
POPIS
100
AcDbText
 10
5629.288224601685
 20
232.4373647907139
 30
0.0
 40
25.0
  1
07
 41
0.85
  7
SIMPLEX7
100
AcDbText
  0
INSERT
  5
5251
330
1F
100
AcDbEntity
  8
POPIS
100
AcDbBlockReference
  2
E_PUNKT
 10
5757.069020537489
 20
316.9211442072517
 30
0.0
 41
-1.0
 50
90.0
  0
TEXT
  5
5253
330
1F
100
AcDbEntity
  8
POPIS
100
AcDbText
 10
5630.047287233276
 20
274.1478266210322
 30
0.0
 40
25.0
  1
08
 41
0.85
  7
SIMPLEX7
100
AcDbText
  0
LINE
  5
5254
330
1F
100
AcDbEntity
  8
POPIS
100
AcDbLine
 10
5778.482694895141
 20
342.065651894165
 30
0.0
 11
5667.323000045417
 21
289.9523978134737
 31
0.0
  0
HATCH
  5
52C3
330
1F
100
AcDbEntity
  8
CETRIS
100
AcDbHatch
 10
0.0
 20
0.0
 30
0.0
210
0.0
220
0.0
230
1.0
  2
ANSI31
 70
     0
 71
     0
 91
        6
 92
        7
 72
     0
 73
     1
 93
       12
 10
6062.849525390938
 20
331.2577657896412
 10
5799.160249133209
 20
331.2577657896414
 10
5798.782939737645
 20
331.0393724190298
 10
5798.110422639216
 20
330.8132408647764
 10
5798.110422639216
 20
325.8573630607311
 10
5798.337385530099
 20
324.3337351072997
 10
5798.950371379247
 20
322.9198678975959
 10
5799.908452449232
 20
321.7124997146984
 10
5801.145586258133
 20
320.7944162042573
 10
5801.860891444299
 20
320.4576925663729
 10
5801.860891444299
 20
319.2577657896413
 10
6060.639364112639
 20
319.2577657896413
 97
        0
 92
        7
 72
     0
 73
     1
 93
       34
 10
5795.41105247648
 20
329.9055869600183
 10
5794.738535378051
 20
329.6794554057649
 10
5794.360884002741
 20
330.058036954595
 10
5794.738535378051
 20
330.2756980906433
 10
5795.411052476479
 20
330.5018296449429
 10
5795.41105247648
 20
331.2577657896414
 10
5779.370862168242
 20
331.2577657896414
 10
5779.370862168241
 20
330.131085503178
 10
5780.058130068433
 20
330.3621769636824
 10
5780.506000991163
 20
329.9143060383622
 10
5780.058130068433
 20
329.6550704042619
 10
5779.370862168242
 20
329.4239789437567
 10
5779.370862168242
 20
326.7350955889269
 10
5780.058130071022
 20
326.9661870503018
 10
5780.506000993751
 20
326.5183161249819
 10
5780.058130071023
 20
326.2590804908814
 10
5779.370862168242
 20
326.0279890295053
 10
5779.370862168242
 20
323.339105674677
 10
5780.058130071022
 20
323.5701971360518
 10
5780.506000993751
 20
323.1223262107318
 10
5780.058130071023
 20
322.8630905766313
 10
5779.370862168242
 20
322.6319991152553
 10
5779.370862168242
 20
319.9431157604269
 10
5780.058130071022
 20
320.1742072218017
 10
5780.506000993753
 20
319.7263362964816
 10
5780.058130071023
 20
319.4671006623812
 10
5779.43556644141
 20
319.2577657896413
 10
5791.660583667031
 20
319.2577657896413
 10
5791.660583667031
 20
320.4576925663727
 10
5793.010268750585
 20
321.2018332028479
 10
5794.120898650942
 20
322.2706051922601
 10
5794.917129130259
 20
323.5895944705562
 10
5795.34500999456
 20
325.0704343376086
 10
5795.41105247648
 20
325.8573630607227
 97
        0
 92
        7
 72
     0
 73
     1
 93
       20
 10
5774.813848347909
 20
325.0952779635241
 10
5775.261719275817
 20
325.3534104670596
 10
5775.948987168241
 20
325.5845019249524
 10
5775.948987168241
 20
328.273385279779
 10
5775.261719273228
 20
328.0422938210153
 10
5774.813848345321
 20
328.4912678769043
 10
5775.261719273228
 20
328.7494003804398
 10
5775.948987168241
 20
328.9804918392027
 10
5775.948987168241
 20
331.2577657896415
 10
5755.429033354659
 20
331.2577657896414
 10
5729.832544290068
 20
319.2577657896414
 10
5739.899976890683
 20
319.2577657896414
 10
5775.948987168241
 20
319.2577657896414
 10
5775.948987168241
 20
321.4814054512782
 10
5775.261719275817
 20
321.2503139933845
 10
5774.813848347909
 20
321.6992880492741
 10
5775.261719275817
 20
321.9574205528096
 10
5775.948987168241
 20
322.1885120107022
 10
5775.948987168241
 20
324.8773953655283
 10
5775.261719275817
 20
324.6463039076348
 97
        0
 92
        7
 72
     0
 73
     1
 93
        4
 10
5755.429033354658
 20
331.2577657896414
 10
5515.089917055813
 20
331.2577657896415
 10
5512.879755777512
 20
319.2577657896413
 10
5729.832544290068
 20
319.2577657896412
 97
        0
 92
        7
 72
     0
 73
     1
 93
       15
 10
5828.132231175434
 20
314.0397208084519
 10
5816.132231175433
 20
314.0397208084519
 10
5816.132231175433
 20
297.4359740416417
 10
5816.888167320133
 20
297.4359740416417
 10
5817.114298874433
 20
298.1084911400694
 10
5817.331960010481
 20
298.4861425153809
 10
5817.710541559311
 20
298.1084911400698
 10
5817.484410005057
 20
297.4359740416416
 10
5821.532633904346
 20
297.4359740416416
 10
5822.31956262747
 20
297.5020165235633
 10
5823.800402494518
 20
297.9298973878623
 10
5825.119391772817
 20
298.7261278671816
 10
5826.188163762228
 20
299.8367577675375
 10
5826.932304398702
 20
301.1864428510903
 10
5828.132231175435
 20
301.1864428510903
 97
        0
 92
        7
 72
     0
 73
     1
 93
       12
 10
5828.132231175434
 20
290.9861350738224
 10
5826.932304398703
 20
290.9861350738224
 10
5826.595580760819
 20
291.7014402599915
 10
5825.677497250376
 20
292.9385740688896
 10
5824.47012906748
 20
293.8966551388737
 10
5823.056261857777
 20
294.5096409880221
 10
5821.532633904347
 20
294.7366038789055
 10
5816.576756100299
 20
294.7366038789054
 10
5816.350624546044
 20
294.0640867804727
 10
5816.132231175434
 20
293.6867773849125
 10
5816.132231175433
 20
71.94167475443892
 10
5828.132231175434
 20
68.28724137560874
 97
        0
 75
     0
 76
     1
 52
0.0
 41
2.5
 77
     0
 78
     1
 53
45.0
 43
1676.71953095503
 44
4.946143396813567
 45
-5.61266007566822
 46
5.612660075668221
 79
     0
 47
0.7735003077863243
 98
        6
 10
5931.453865395917
 20
322.885110764073
 10
5785.927995918035
 20
326.7526095438988
 10
5765.02800102848
 20
324.4321085762767
 10
5723.228011249368
 20
322.885110764073
 10
5824.631680823965
 20
302.7741052108867
 10
5824.631680823965
 20
274.1545904439972
  0
HATCH
  5
5369
330
1F
100
AcDbEntity
  8
CETRIS
100
AcDbHatch
 10
0.0
 20
0.0
 30
0.0
210
0.0
220
0.0
230
1.0
  2
ANSI31
 70
     0
 71
     0
 91
        5
 92
        7
 72
     0
 73
     1
 93
       12
 10
5739.899976890683
 20
293.6867773849113
 10
5739.681583520074
 20
294.0640867804768
 10
5739.455451965819
 20
294.7366038789055
 10
5734.499574161771
 20
294.7366038789055
 10
5732.975946208344
 20
294.5096409880221
 10
5731.562078998639
 20
293.896655138874
 10
5730.354710815742
 20
292.9385740688895
 10
5729.436627305299
 20
291.701440259991
 10
5729.099903667415
 20
290.9861350738224
 10
5727.899976890683
 20
290.9861350738224
 10
5727.899976890684
 20
98.81158268340804
 10
5739.899976890683
 20
95.15714930457802
 97
        0
 92
        7
 72
     0
 73
     1
 93
        9
 10
5739.899976890683
 20
314.0397208084519
 10
5727.899976890683
 20
314.0397208084519
 10
5727.899976890683
 20
301.1864428510903
 10
5729.099903667416
 20
301.1864428510903
 10
5729.844044303891
 20
299.8367577675375
 10
5730.912816293303
 20
298.7261278671809
 10
5732.231805571599
 20
297.9298973878627
 10
5733.69002430384
 20
297.5085527810809
 10
5739.899976890683
 20
302.6640210858211
 97
        0
 92
        7
 72
     0
 73
     1
 93
       12
 10
5781.450190737413
 20
419.4900200743912
 10
5771.344503515806
 20
419.4900200743912
 10
5771.344503515806
 20
418.2900932976596
 10
5770.629198329641
 20
417.9533696597771
 10
5769.392064520738
 20
417.0352861493332
 10
5768.433983450755
 20
415.827917966436
 10
5767.820997601607
 20
414.4140507567329
 10
5767.594034710723
 20
412.8904228033055
 10
5767.594034710723
 20
407.9345449992559
 10
5768.266551809152
 20
407.7084134450021
 10
5768.643861204715
 20
407.4900200743917
 10
5781.450190737413
 20
407.4900200743917
 97
        0
 92
        7
 72
     0
 73
     1
 93
       15
 10
5764.894664547987
 20
412.8904228033083
 10
5764.828622066066
 20
413.6773515264254
 10
5764.400741201765
 20
415.1581913934783
 10
5763.604510722449
 20
416.4771806717723
 10
5762.493880822089
 20
417.5459526611862
 10
5761.144195738538
 20
418.2900932976599
 10
5761.144195738539
 20
419.4900200743912
 10
5631.792754017283
 20
419.4900200743911
 10
5631.79275401728
 20
407.4900200743915
 10
5764.894664547988
 20
407.4900200743916
 10
5764.894664547988
 20
408.24595621909
 10
5764.222147449559
 20
408.4720877733893
 10
5763.844496074248
 20
408.6897489094378
 10
5764.22214744956
 20
409.0683304582681
 10
5764.894664547988
 20
408.8421989040147
 97
        0
 92
        7
 72
     1
 73
     1
 93
        6
 10
5631.792754017283
 20
419.4900200743912
 42
0.0
 10
5554.745633053311
 20
419.4900200743911
 42
-1.0
 10
5552.24563305331
 20
419.4900200743911
 42
0.0
 10
5531.34054304892
 20
419.4900200743911
 42
0.0
 10
5529.130381770619
 20
407.4900200743914
 42
0.0
 10
5631.792754017283
 20
407.4900200743915
 42
0.0
 97
        0
 75
     0
 76
     1
 52
90.0
 41
2.5
 77
     0
 78
     1
 53
135.0
 43
1676.71953095503
 44
4.946143396813567
 45
-5.612660075668221
 46
-5.61266007566822
 79
     0
 47
0.754162802673717
 98
        5
 10
5732.2749888311
 20
251.7520812617185
 10
5735.29387978201
 20
309.0684568617252
 10
5776.803589589457
 20
413.1429218601497
 10
5750.388319711991
 20
412.3887615952626
 10
5597.934497173585
 20
411.6346013303755
  0
HATCH
  5
5397
330
1F
100
AcDbEntity
  8
CETRIS
100
AcDbHatch
 10
0.0
 20
0.0
 30
0.0
210
0.0
220
0.0
230
1.0
  2
ANSI31
 70
     0
 71
     0
 91
        4
 92
        7
 72
     0
 73
     1
 93
        4
 10
5794.368502480557
 20
419.4900200743912
 10
5786.450190737412
 20
419.4900200743912
 10
5786.450190737413
 20
407.4900200743917
 10
5794.368502480557
 20
407.4900200743917
 97
        0
 92
        7
 72
     0
 73
     1
 93
       12
 10
5800.07938387322
 20
414.4140507567328
 10
5799.466398024073
 20
415.8279179664356
 10
5798.508316954089
 20
417.0352861493328
 10
5797.271183145189
 20
417.9533696597756
 10
5796.55587795902
 20
418.2900932976596
 10
5796.55587795902
 20
419.4900200743912
 10
5794.368502480558
 20
419.4900200743912
 10
5794.368502480557
 20
407.4900200743917
 10
5799.25652027011
 20
407.4900200743917
 10
5799.633829665675
 20
407.7084134450021
 10
5800.306346764104
 20
407.9345449992558
 10
5800.306346764103
 20
412.8904228032996
 97
        0
 92
        7
 72
     0
 73
     1
 93
       15
 10
5923.25984787045
 20
419.4900200743913
 10
5806.756185736288
 20
419.4900200743912
 10
5806.756185736288
 20
418.2900932976596
 10
5805.406500652736
 20
417.5459526611848
 10
5804.295870752376
 20
416.4771806717722
 10
5803.499640273059
 20
415.1581913934769
 10
5803.071759408762
 20
413.6773515264314
 10
5803.005716926839
 20
412.8904228032988
 10
5803.00571692684
 20
408.8421989040142
 10
5803.678234025268
 20
409.0683304582679
 10
5804.055885400579
 20
408.6897489094379
 10
5803.678234025268
 20
408.4720877733895
 10
5803.00571692684
 20
408.24595621909
 10
5803.00571692684
 20
407.4900200743917
 10
5923.25984787045
 20
407.4900200743918
 97
        0
 92
        7
 72
     0
 73
     1
 93
        4
 10
6079.100151384047
 20
419.4900200743914
 10
5923.25984787045
 20
419.4900200743913
 10
5923.25984787045
 20
407.4900200743918
 10
6076.889990105748
 20
407.490020074392
 97
        0
 75
     0
 76
     1
 52
0.0
 41
2.5
 77
     0
 78
     1
 53
45.0
 43
1676.71953095503
 44
4.946143396813567
 45
-5.61266007566822
 46
5.612660075668221
 79
     0
 47
0.754162802673717
 98
        4
 10
5789.633857600111
 20
412.3887615952626
 10
5797.181077565102
 20
413.1429218601497
 10
5819.822737460075
 20
411.6346013303755
 10
5941.332975931505
 20
413.1429218601497
  0
TEXT
  5
56DF
330
1F
100
AcDbEntity
  8
POPIS
100
AcDbText
 10
6164.643321795682
 20
210.2270817836185
 30
0.0
 40
25.0
  1
Podtmelení profilu (papír SIBRAL)
 41
0.7
  7
SIMPLEX7
100
AcDbText
  0
TEXT
  5
56E0
330
1F
100
AcDbEntity
  8
POPIS
100
AcDbText
 10
6164.643321795682
 20
315.2012858649948
 30
0.0
 40
25.0
  1
CW profil (ocelový nosník I, U) - stojina
 41
0.7
  7
SIMPLEX7
100
AcDbText
  0
TEXT
  5
56E1
330
1F
100
AcDbEntity
  8
POPIS
100
AcDbText
 10
6164.643321795682
 20
281.3160143257089
 30
0.0
 40
25.0
  1
UW profil (ocelový nosník I, U)
 41
0.7
  7
SIMPLEX7
100
AcDbText
  0
TEXT
  5
56E2
330
1F
100
AcDbEntity
  8
POPIS
100
AcDbText
 10
6164.643321795682
 20
244.4804743228166
 30
0.0
 40
25.0
  1
Tmel DEXAFLAMM - R
 41
0.7
  7
SIMPLEX7
100
AcDbText
  0
TEXT
  5
56E3
330
1F
100
AcDbEntity
  8
POPIS
100
AcDbText
 10
6110.29961863594
 20
244.4804743228166
 30
0.0
 40
25.0
  1
06
 41
0.85
  7
SIMPLEX7
100
AcDbText
  0
TEXT
  5
56E4
330
1F
100
AcDbEntity
  8
POPIS
100
AcDbText
 10
6164.643321795682
 20
177.0618834198183
 30
0.0
 40
25.0
  1
Hmoždinka
 41
0.7
  7
SIMPLEX7
100
AcDbText
  0
TEXT
  5
56E5
330
1F
100
AcDbEntity
  8
POPIS
100
AcDbText
 10
6110.29961863594
 20
210.2270817836185
 30
0.0
 40
25.0
  1
07
 41
0.85
  7
SIMPLEX7
100
AcDbText
  0
TEXT
  5
56E6
330
1F
100
AcDbEntity
  8
POPIS
100
AcDbText
 10
6110.29961863594
 20
177.0618834198183
 30
0.0
 40
25.0
  1
08
 41
0.85
  7
SIMPLEX7
100
AcDbText
  0
TEXT
  5
56E7
330
1F
100
AcDbEntity
  8
POPIS
100
AcDbText
 10
6164.643321795682
 20
350.6054470831575
 30
0.0
 40
25.0
  1
Minerální plsť (vzduchová mezera)
 41
0.7
  7
SIMPLEX7
100
AcDbText
  0
TEXT
  5
56E8
330
1F
100
AcDbEntity
  8
POPIS
100
AcDbText
 10
6164.643321795682
 20
457.9377483948435
 30
0.0
 40
25.0
  1
Deska CETRIS   
 41
0.7
  7
SIMPLEX7
100
AcDbText
  0
TEXT
  5
56E9
330
1F
100
AcDbEntity
  8
POPIS
100
AcDbText
 10
6164.643321795682
 20
421.3427367792162
 30
0.0
 40
25.0
  1
Vrut 4,2x35 (45,55) mm
 41
0.7
  7
SIMPLEX7
100
AcDbText
  0
TEXT
  5
56EA
330
1F
100
AcDbEntity
  8
POPIS
100
AcDbText
 10
6110.29961863594
 20
421.3427367792162
 30
0.0
 40
25.0
  1
02
 41
0.85
  7
SIMPLEX7
100
AcDbText
  0
TEXT
  5
56EB
330
1F
100
AcDbEntity
  8
POPIS
100
AcDbText
 10
6110.29961863594
 20
350.6054470831575
 30
0.0
 40
25.0
  1
03
 41
0.85
  7
SIMPLEX7
100
AcDbText
  0
TEXT
  5
56EC
330
1F
100
AcDbEntity
  8
POPIS
100
AcDbText
 10
6110.29961863594
 20
281.3160143257089
 30
0.0
 40
25.0
  1
05
 41
0.85
  7
SIMPLEX7
100
AcDbText
  0
TEXT
  5
56ED
330
1F
100
AcDbEntity
  8
POPIS
100
AcDbText
 10
6110.29961863594
 20
315.2012858649948
 30
0.0
 40
25.0
  1
04
 41
0.85
  7
SIMPLEX7
100
AcDbText
  0
TEXT
  5
56EE
330
1F
100
AcDbEntity
  8
POPIS
100
AcDbText
 10
6110.29961863594
 20
457.9377483948435
 30
0.0
 40
25.0
  1
01
 41
0.85
  7
SIMPLEX7
100
AcDbText
  0
TEXT
  5
56EF
330
1F
100
AcDbEntity
  8
POPIS
100
AcDbText
 10
6332.269507034727
 20
482.9130585031241
 30
0.0
 40
12.0
  1
R
 41
0.85
  7
SIMPLEX7
100
AcDbText
  0
CIRCLE
  5
56F0
330
1F
100
AcDbEntity
  8
POPIS
100
AcDbCircle
 10
6337.028536089909
 20
488.4584042481117
 30
0.0
 40
11.13656048292026
  0
TEXT
  5
79A3
330
1F
100
AcDbEntity
  8
POPIS
100
AcDbText
 10
5523.437931365293
 20
541.2525142965223
 30
0.0
 40
25.0
  1
Vodorovný řez
 41
0.7
  7
SIMPLEX7
100
AcDbText
  0
TEXT
  5
79A4
330
1F
100
AcDbEntity
  8
POPIS
100
AcDbText
 10
5523.437931365293
 20
580.6674022974111
 30
0.0
 40
35.0
  1
T spoj
 41
0.85
  7
SIMPLEX7
100
AcDbText
  0
TEXT
  5
9F99
330
1F
100
AcDbEntity
  8
POPIS
100
AcDbText
 10
6106.966410428087
 20
388.4976154789794
 30
0.0
 40
25.0
  1
(v exteriéru vrut s viditelnou hlavou a těsnící podložkou)
 41
0.6
 51
10.0
  7
SIMPLEX7
100
AcDbText
  0
ENDSEC
  0
SECTION
  2
OBJECTS
  0
DICTIONARY
  5
C
330
0
100
AcDbDictionary
281
     1
  3
ACAD_GROUP
350
D
  3
ACAD_LAYOUT
350
1A
  3
ACAD_MLINESTYLE
350
17
  3
ACAD_PLOTSETTINGS
350
19
  3
ACAD_PLOTSTYLENAME
350
E
  3
AcDbVariableDictionary
350
17BD
  0
DICTIONARY
  5
D
102
{ACAD_REACTORS
330
C
102
}
330
C
100
AcDbDictionary
281
     1
  0
DICTIONARY
  5
1A
102
{ACAD_REACTORS
330
C
102
}
330
C
100
AcDbDictionary
281
     1
  3
Model
350
22
  3
Rozvržení1
350
1E
  3
Rozvržení2
350
26
  0
DICTIONARY
  5
17
102
{ACAD_REACTORS
330
C
102
}
330
C
100
AcDbDictionary
281
     1
  3
Standard
350
18
  0
DICTIONARY
  5
19
102
{ACAD_REACTORS
330
C
102
}
330
C
100
AcDbDictionary
281
     1
  0
ACDBDICTIONARYWDFLT
  5
E
102
{ACAD_REACTORS
330
C
102
}
330
C
100
AcDbDictionary
281
     1
  3
Normal
350
F
100
AcDbDictionaryWithDefault
340
F
  0
DICTIONARY
  5
17BD
102
{ACAD_REACTORS
330
C
102
}
330
C
100
AcDbDictionary
281
     1
  3
DIMASSOC
350
9F87
  3
SORTENTS
350
17BE
  0
LAYOUT
  5
22
102
{ACAD_REACTORS
330
1A
102
}
330
1A
100
AcDbPlotSettings
  1

  2
HP DeskJet 690C
  4

  6

 40
0.0
 41
0.0
 42
0.0
 43
0.0
 44
0.0
 45
0.0
 46
0.0
 47
0.0
 48
0.0
 49
0.0
140
0.0
141
0.0
142
1.0
143
1.0
 70
  1712
 72
     0
 73
     0
 74
     0
  7
monochrome.ctb
 75
     0
147
1.0
148
0.0
149
0.0
100
AcDbLayout
  1
Model
 70
     1
 71
     0
 10
0.0
 20
0.0
 11
12.0
 21
9.0
 12
0.0
 22
0.0
 32
0.0
 14
0.0
 24
0.0
 34
0.0
 15
0.0
 25
0.0
 35
0.0
146
0.0
 13
0.0
 23
0.0
 33
0.0
 16
1.0
 26
0.0
 36
0.0
 17
0.0
 27
1.0
 37
0.0
 76
     0
330
1F
  0
LAYOUT
  5
1E
102
{ACAD_REACTORS
330
1A
102
}
330
1A
100
AcDbPlotSettings
  1

  2
HP DeskJet 690C
  4

  6

 40
0.0
 41
0.0
 42
0.0
 43
0.0
 44
0.0
 45
0.0
 46
0.0
 47
0.0
 48
0.0
 49
0.0
140
0.0
141
0.0
142
1.0
143
1.0
 70
   688
 72
     0
 73
     0
 74
     5
  7
monochrome.ctb
 75
    16
147
1.0
148
0.0
149
0.0
100
AcDbLayout
  1
Rozvržení1
 70
     1
 71
     1
 10
0.0
 20
0.0
 11
420.0
 21
297.0
 12
0.0
 22
0.0
 32
0.0
 14
1.000000000000000E+20
 24
1.000000000000000E+20
 34
1.000000000000000E+20
 15
-1.000000000000000E+20
 25
-1.000000000000000E+20
 35
-1.000000000000000E+20
146
0.0
 13
0.0
 23
0.0
 33
0.0
 16
1.0
 26
0.0
 36
0.0
 17
0.0
 27
1.0
 37
0.0
 76
     0
330
1B
  0
LAYOUT
  5
26
102
{ACAD_REACTORS
330
1A
102
}
330
1A
100
AcDbPlotSettings
  1

  2
HP DeskJet 690C
  4

  6

 40
0.0
 41
0.0
 42
0.0
 43
0.0
 44
0.0
 45
0.0
 46
0.0
 47
0.0
 48
0.0
 49
0.0
140
0.0
141
0.0
142
1.0
143
1.0
 70
   688
 72
     0
 73
     0
 74
     5
  7
monochrome.ctb
 75
    16
147
1.0
148
0.0
149
0.0
100
AcDbLayout
  1
Rozvržení2
 70
     1
 71
     2
 10
0.0
 20
0.0
 11
12.0
 21
9.0
 12
0.0
 22
0.0
 32
0.0
 14
0.0
 24
0.0
 34
0.0
 15
0.0
 25
0.0
 35
0.0
146
0.0
 13
0.0
 23
0.0
 33
0.0
 16
1.0
 26
0.0
 36
0.0
 17
0.0
 27
1.0
 37
0.0
 76
     0
330
23
  0
MLINESTYLE
  5
18
102
{ACAD_REACTORS
330
17
102
}
330
17
100
AcDbMlineStyle
  2
STANDARD
 70
     0
  3

 62
   256
 51
90.0
 52
90.0
 71
     2
 49
0.5
 62
   256
  6
BYLAYER
 49
-0.5
 62
   256
  6
BYLAYER
  0
ACDBPLACEHOLDER
  5
F
102
{ACAD_REACTORS
330
E
102
}
330
E
  0
DICTIONARYVAR
  5
9F87
102
{ACAD_REACTORS
330
17BD
102
}
330
17BD
100
DictionaryVariables
280
     0
  1
1
  0
DICTIONARYVAR
  5
17BE
102
{ACAD_REACTORS
330
17BD
102
}
330
17BD
100
DictionaryVariables
280
     0
  1
96
  0
ENDSEC
  0
EOF
