  0
SECTION
  2
HEADER
  9
$ACADVER
  1
AC1015
  9
$ACADMAINTVER
 70
    14
  9
$DWGCODEPAGE
  3
ANSI_1250
  9
$INSBASE
 10
0.0
 20
0.0
 30
0.0
  9
$EXTMIN
 10
2810.421583927356
 20
-2227.259836804144
 30
-0.0762881293658211
  9
$EXTMAX
 10
3527.999810263398
 20
-1230.906052616048
 30
2500.076454800198
  9
$LIMMIN
 10
0.0
 20
0.0
  9
$LIMMAX
 10
420.0
 20
297.0
  9
$ORTHOMODE
 70
     0
  9
$REGENMODE
 70
     1
  9
$FILLMODE
 70
     1
  9
$QTEXTMODE
 70
     0
  9
$MIRRTEXT
 70
     1
  9
$LTSCALE
 40
1.0
  9
$ATTMODE
 70
     1
  9
$TEXTSIZE
 40
2.5
  9
$TRACEWID
 40
1.0
  9
$TEXTSTYLE
  7
Standard
  9
$CLAYER
  8
SPOJOVACÍ
  9
$CELTYPE
  6
ByLayer
  9
$CECOLOR
 62
   256
  9
$CELTSCALE
 40
1.0
  9
$DISPSILH
 70
     0
  9
$DIMSCALE
 40
1.0
  9
$DIMASZ
 40
2.5
  9
$DIMEXO
 40
0.625
  9
$DIMDLI
 40
3.75
  9
$DIMRND
 40
0.0
  9
$DIMDLE
 40
0.0
  9
$DIMEXE
 40
1.25
  9
$DIMTP
 40
0.0
  9
$DIMTM
 40
0.0
  9
$DIMTXT
 40
2.5
  9
$DIMCEN
 40
2.5
  9
$DIMTSZ
 40
0.0
  9
$DIMTOL
 70
     0
  9
$DIMLIM
 70
     0
  9
$DIMTIH
 70
     0
  9
$DIMTOH
 70
     0
  9
$DIMSE1
 70
     0
  9
$DIMSE2
 70
     0
  9
$DIMTAD
 70
     1
  9
$DIMZIN
 70
     8
  9
$DIMBLK
  1

  9
$DIMASO
 70
     1
  9
$DIMSHO
 70
     1
  9
$DIMPOST
  1

  9
$DIMAPOST
  1

  9
$DIMALT
 70
     0
  9
$DIMALTD
 70
     3
  9
$DIMALTF
 40
0.03937007874016
  9
$DIMLFAC
 40
1.0
  9
$DIMTOFL
 70
     1
  9
$DIMTVP
 40
0.0
  9
$DIMTIX
 70
     0
  9
$DIMSOXD
 70
     0
  9
$DIMSAH
 70
     0
  9
$DIMBLK1
  1

  9
$DIMBLK2
  1

  9
$DIMSTYLE
  2
ISO-25
  9
$DIMCLRD
 70
     0
  9
$DIMCLRE
 70
     0
  9
$DIMCLRT
 70
     0
  9
$DIMTFAC
 40
1.0
  9
$DIMGAP
 40
0.625
  9
$DIMJUST
 70
     0
  9
$DIMSD1
 70
     0
  9
$DIMSD2
 70
     0
  9
$DIMTOLJ
 70
     0
  9
$DIMTZIN
 70
     8
  9
$DIMALTZ
 70
     0
  9
$DIMALTTZ
 70
     0
  9
$DIMUPT
 70
     0
  9
$DIMDEC
 70
     2
  9
$DIMTDEC
 70
     2
  9
$DIMALTU
 70
     2
  9
$DIMALTTD
 70
     3
  9
$DIMTXSTY
  7
Standard
  9
$DIMAUNIT
 70
     0
  9
$DIMADEC
 70
     0
  9
$DIMALTRND
 40
0.0
  9
$DIMAZIN
 70
     0
  9
$DIMDSEP
 70
    44
  9
$DIMATFIT
 70
     3
  9
$DIMFRAC
 70
     0
  9
$DIMLDRBLK
  1

  9
$DIMLUNIT
 70
     2
  9
$DIMLWD
 70
    -2
  9
$DIMLWE
 70
    -2
  9
$DIMTMOVE
 70
     0
  9
$LUNITS
 70
     2
  9
$LUPREC
 70
     4
  9
$SKETCHINC
 40
1.0
  9
$FILLETRAD
 40
0.0
  9
$AUNITS
 70
     0
  9
$AUPREC
 70
     0
  9
$MENU
  1
.
  9
$ELEVATION
 40
0.0
  9
$PELEVATION
 40
0.0
  9
$THICKNESS
 40
0.0
  9
$LIMCHECK
 70
     0
  9
$CHAMFERA
 40
3.0
  9
$CHAMFERB
 40
3.0
  9
$CHAMFERC
 40
20.0
  9
$CHAMFERD
 40
0.0
  9
$SKPOLY
 70
     0
  9
$TDCREATE
 40
2452332.512107639
  9
$TDUCREATE
 40
2452332.470440972
  9
$TDUPDATE
 40
2455601.270492106
  9
$TDUUPDATE
 40
2455601.228825440
  9
$TDINDWG
 40
0.3258671412
  9
$TDUSRTIMER
 40
0.3258532523
  9
$USRTIMER
 70
     1
  9
$ANGBASE
 50
0.0
  9
$ANGDIR
 70
     0
  9
$PDMODE
 70
     0
  9
$PDSIZE
 40
0.0
  9
$PLINEWID
 40
0.0
  9
$SPLFRAME
 70
     0
  9
$SPLINETYPE
 70
     6
  9
$SPLINESEGS
 70
     8
  9
$HANDSEED
  5
9B28
  9
$SURFTAB1
 70
     6
  9
$SURFTAB2
 70
     6
  9
$SURFTYPE
 70
     6
  9
$SURFU
 70
     6
  9
$SURFV
 70
     6
  9
$UCSBASE
  2

  9
$UCSNAME
  2

  9
$UCSORG
 10
0.0
 20
0.0
 30
0.0
  9
$UCSXDIR
 10
1.0
 20
0.0
 30
0.0
  9
$UCSYDIR
 10
0.0
 20
1.0
 30
0.0
  9
$UCSORTHOREF
  2

  9
$UCSORTHOVIEW
 70
     0
  9
$UCSORGTOP
 10
0.0
 20
0.0
 30
0.0
  9
$UCSORGBOTTOM
 10
0.0
 20
0.0
 30
0.0
  9
$UCSORGLEFT
 10
0.0
 20
0.0
 30
0.0
  9
$UCSORGRIGHT
 10
0.0
 20
0.0
 30
0.0
  9
$UCSORGFRONT
 10
0.0
 20
0.0
 30
0.0
  9
$UCSORGBACK
 10
0.0
 20
0.0
 30
0.0
  9
$PUCSBASE
  2

  9
$PUCSNAME
  2

  9
$PUCSORG
 10
0.0
 20
0.0
 30
0.0
  9
$PUCSXDIR
 10
1.0
 20
0.0
 30
0.0
  9
$PUCSYDIR
 10
0.0
 20
1.0
 30
0.0
  9
$PUCSORTHOREF
  2

  9
$PUCSORTHOVIEW
 70
     0
  9
$PUCSORGTOP
 10
0.0
 20
0.0
 30
0.0
  9
$PUCSORGBOTTOM
 10
0.0
 20
0.0
 30
0.0
  9
$PUCSORGLEFT
 10
0.0
 20
0.0
 30
0.0
  9
$PUCSORGRIGHT
 10
0.0
 20
0.0
 30
0.0
  9
$PUCSORGFRONT
 10
0.0
 20
0.0
 30
0.0
  9
$PUCSORGBACK
 10
0.0
 20
0.0
 30
0.0
  9
$USERI1
 70
     0
  9
$USERI2
 70
     0
  9
$USERI3
 70
     0
  9
$USERI4
 70
     0
  9
$USERI5
 70
     0
  9
$USERR1
 40
0.0
  9
$USERR2
 40
0.0
  9
$USERR3
 40
0.0
  9
$USERR4
 40
0.0
  9
$USERR5
 40
0.0
  9
$WORLDVIEW
 70
     1
  9
$SHADEDGE
 70
     3
  9
$SHADEDIF
 70
    70
  9
$TILEMODE
 70
     1
  9
$MAXACTVP
 70
    64
  9
$PINSBASE
 10
0.0
 20
0.0
 30
0.0
  9
$PLIMCHECK
 70
     0
  9
$PEXTMIN
 10
1.000000000000000E+20
 20
1.000000000000000E+20
 30
1.000000000000000E+20
  9
$PEXTMAX
 10
-1.000000000000000E+20
 20
-1.000000000000000E+20
 30
-1.000000000000000E+20
  9
$PLIMMIN
 10
0.0
 20
0.0
  9
$PLIMMAX
 10
420.0
 20
297.0
  9
$UNITMODE
 70
     0
  9
$VISRETAIN
 70
     1
  9
$PLINEGEN
 70
     0
  9
$PSLTSCALE
 70
     1
  9
$TREEDEPTH
 70
  3020
  9
$CMLSTYLE
  2
Standard
  9
$CMLJUST
 70
     0
  9
$CMLSCALE
 40
20.0
  9
$PROXYGRAPHICS
 70
     1
  9
$MEASUREMENT
 70
     1
  9
$CELWEIGHT
370
    -1
  9
$ENDCAPS
280
     0
  9
$JOINSTYLE
280
     0
  9
$LWDISPLAY
290
     0
  9
$INSUNITS
 70
     4
  9
$HYPERLINKBASE
  1

  9
$STYLESHEET
  1
monochrome.ctb
  9
$XEDIT
290
     1
  9
$CEPSNTYPE
380
     0
  9
$PSTYLEMODE
290
     1
  9
$FINGERPRINTGUID
  2
{D99C744E-04C5-44F1-9703-862C59725F9B}
  9
$VERSIONGUID
  2
{D581FA04-C456-4F42-B8A0-C9C6905CA8C5}
  9
$EXTNAMES
290
     1
  9
$PSVPSCALE
 40
0.0
  9
$OLESTARTUP
290
     0
  0
ENDSEC
  0
SECTION
  2
CLASSES
  0
CLASS
  1
ACDBDICTIONARYWDFLT
  2
AcDbDictionaryWithDefault
  3
AutoCAD 2000
 90
        0
280
     0
281
     0
  0
CLASS
  1
ACDBPLACEHOLDER
  2
AcDbPlaceHolder
  3
AutoCAD 2000
 90
        0
280
     0
281
     0
  0
CLASS
  1
LAYOUT
  2
AcDbLayout
  3
AutoCAD 2000
 90
        0
280
     0
281
     0
  0
CLASS
  1
DICTIONARYVAR
  2
AcDbDictionaryVar
  3
AutoCAD 2000
 90
        0
280
     0
281
     0
  0
ENDSEC
  0
SECTION
  2
TABLES
  0
TABLE
  2
VPORT
  5
8
330
0
100
AcDbSymbolTable
 70
     2
  0
VPORT
  5
9B27
330
8
100
AcDbSymbolTableRecord
100
AcDbViewportTableRecord
  2
*Active
 70
     0
 10
0.0
 20
0.0
 11
1.0
 21
1.0
 12
3240.828370521696
 22
-1740.900486128761
 13
0.0
 23
0.0
 14
10.0
 24
10.0
 15
10.0
 25
10.0
 16
0.0
 26
0.0
 36
1.0
 17
0.0
 27
0.0
 37
0.0
 40
1125.783490930887
 41
2.031862745098039
 42
50.0
 43
0.0
 44
0.0
 50
0.0
 51
0.0
 71
     0
 72
   100
 73
     1
 74
     3
 75
     0
 76
     0
 77
     0
 78
     0
281
     0
 65
     1
110
0.0
120
0.0
130
0.0
111
1.0
121
0.0
131
0.0
112
0.0
122
1.0
132
0.0
 79
     0
146
0.0
  0
ENDTAB
  0
TABLE
  2
LTYPE
  5
5
330
0
100
AcDbSymbolTable
 70
     5
  0
LTYPE
  5
14
330
5
100
AcDbSymbolTableRecord
100
AcDbLinetypeTableRecord
  2
ByBlock
 70
     0
  3

 72
    65
 73
     0
 40
0.0
  0
LTYPE
  5
15
330
5
100
AcDbSymbolTableRecord
100
AcDbLinetypeTableRecord
  2
ByLayer
 70
     0
  3

 72
    65
 73
     0
 40
0.0
  0
LTYPE
  5
16
330
5
100
AcDbSymbolTableRecord
100
AcDbLinetypeTableRecord
  2
Continuous
 70
     0
  3
Solid line
 72
    65
 73
     0
 40
0.0
  0
LTYPE
  5
3402
330
5
100
AcDbSymbolTableRecord
100
AcDbLinetypeTableRecord
  2
DASHED
 70
     0
  3
Dashed __ __ __ __ __ __ __ __ __ __ __ __ __ _
 72
    65
 73
     2
 40
19.04999999999999
 49
12.7
 74
     0
 49
-6.349999999999999
 74
     0
  0
LTYPE
  5
3403
330
5
100
AcDbSymbolTableRecord
100
AcDbLinetypeTableRecord
  2
DASHDOT2
 70
     0
  3
Dash dot (.5x) _._._._._._._._._._._._._._._.
 72
    65
 73
     4
 40
12.7
 49
6.349999999999999
 74
     0
 49
-3.174999999999999
 74
     0
 49
0.0
 74
     0
 49
-3.174999999999999
 74
     0
  0
LTYPE
  5
3404
330
5
100
AcDbSymbolTableRecord
100
AcDbLinetypeTableRecord
  2
CIKCAK
 70
     0
  3
Cik-cak /\/\/\/\/\/\/\/\/\/\/\/\/\/\/\/\/\/\/\/
 72
    65
 73
     4
 40
20.32254
 49
0.00254
 74
     0
 49
-5.08
 74
     4
 75
   131
340
340B
 46
5.08
 50
0.0
 44
-5.08
 45
0.0
 49
-10.16
 74
     4
 75
   131
340
340B
 46
5.08
 50
180.0
 44
5.08
 45
0.0
 49
-5.08
 74
     0
  0
LTYPE
  5
3757
330
5
100
AcDbSymbolTableRecord
100
AcDbLinetypeTableRecord
  2
IZOLACE
 70
     0
  3
Izolace SSSSSSSSSSSSSSSSSSSSSSSSSSSSSSSSSSSSSSS
 72
    65
 73
     4
 40
10.16253999999999
 49
0.00254
 74
     0
 49
-2.54
 74
     4
 75
   134
340
340B
 46
2.54
 50
0.0
 44
-2.54
 45
0.0
 49
-5.08
 74
     4
 75
   134
340
340B
 46
2.54
 50
180.0
 44
2.54
 45
0.0
 49
-2.54
 74
     0
  0
ENDTAB
  0
TABLE
  2
LAYER
  5
2
330
0
100
AcDbSymbolTable
 70
     8
  0
LAYER
  5
10
330
2
100
AcDbSymbolTableRecord
100
AcDbLayerTableRecord
  2
0
 70
     0
 62
     7
  6
Continuous
370
    -3
390
F
  0
LAYER
  5
3405
330
2
100
AcDbSymbolTableRecord
100
AcDbLayerTableRecord
  2
POPIS
 70
     0
 62
    30
  6
Continuous
370
    -3
390
F
  0
LAYER
  5
3406
330
2
100
AcDbSymbolTableRecord
100
AcDbLayerTableRecord
  2
SPOJOVACÍ
 70
     0
 62
   180
  6
Continuous
370
    -3
390
F
  0
LAYER
  5
3407
330
2
100
AcDbSymbolTableRecord
100
AcDbLayerTableRecord
  2
CETRIS
 70
     0
 62
     1
  6
Continuous
370
    -3
390
F
  0
LAYER
  5
3408
330
2
100
AcDbSymbolTableRecord
100
AcDbLayerTableRecord
  2
izolace
 70
     0
 62
    73
  6
Continuous
370
    -3
390
F
  0
LAYER
  5
3409
330
2
100
AcDbSymbolTableRecord
100
AcDbLayerTableRecord
  2
STAVBA OBRYS
 70
     0
 62
     6
  6
Continuous
370
    -3
390
F
  0
LAYER
  5
3758
330
2
100
AcDbSymbolTableRecord
100
AcDbLayerTableRecord
  2
NOSNÉ KONSTRUKCE
 70
     0
 62
    33
  6
Continuous
370
    -3
390
F
  0
LAYER
  5
56AA
330
2
100
AcDbSymbolTableRecord
100
AcDbLayerTableRecord
  2
Defpoints
 70
     0
 62
     7
  6
Continuous
290
     0
370
    -3
390
F
  0
ENDTAB
  0
TABLE
  2
STYLE
  5
3
330
0
100
AcDbSymbolTable
 70
     3
  0
STYLE
  5
11
330
3
100
AcDbSymbolTableRecord
100
AcDbTextStyleTableRecord
  2
Standard
 70
     0
 40
0.0
 41
1.0
 50
0.0
 71
     0
 42
2.5
  3
txt
  4

  0
STYLE
  5
340A
330
3
100
AcDbSymbolTableRecord
100
AcDbTextStyleTableRecord
  2
SIMPLEX7
 70
     0
 40
0.0
 41
0.85
 50
0.0
 71
     0
 42
102.0
  3
ARIAL.TTF
  4

1001
ACAD
1000
Arial CE
1071
    60962
  0
STYLE
  5
340B
330
3
100
AcDbSymbolTableRecord
100
AcDbTextStyleTableRecord
  2

 70
     1
 40
0.0
 41
1.0
 50
0.0
 71
     0
 42
2.5
  3
ltypeshp.shx
  4

  0
ENDTAB
  0
TABLE
  2
VIEW
  5
6
330
0
100
AcDbSymbolTable
 70
     0
  0
ENDTAB
  0
TABLE
  2
UCS
  5
7
330
0
100
AcDbSymbolTable
 70
     0
  0
ENDTAB
  0
TABLE
  2
APPID
  5
9
330
0
100
AcDbSymbolTable
 70
     1
  0
APPID
  5
12
330
9
100
AcDbSymbolTableRecord
100
AcDbRegAppTableRecord
  2
ACAD
 70
     0
  0
ENDTAB
  0
TABLE
  2
DIMSTYLE
  5
A
330
0
100
AcDbSymbolTable
 70
     1
100
AcDbDimStyleTable
 71
     1
340
27
  0
DIMSTYLE
105
27
330
A
100
AcDbSymbolTableRecord
100
AcDbDimStyleTableRecord
  2
ISO-25
 70
     0
 41
2.5
 42
0.625
 43
3.75
 44
1.25
 73
     0
 74
     0
 77
     1
 78
     8
140
2.5
141
2.5
143
0.03937007874016
147
0.625
171
     3
172
     1
271
     2
272
     2
274
     3
278
    44
283
     0
284
     8
340
11
  0
ENDTAB
  0
TABLE
  2
BLOCK_RECORD
  5
1
330
0
100
AcDbSymbolTable
 70
     3
  0
BLOCK_RECORD
  5
1F
330
1
100
AcDbSymbolTableRecord
100
AcDbBlockTableRecord
  2
*Model_Space
340
22
  0
BLOCK_RECORD
  5
1B
330
1
100
AcDbSymbolTableRecord
100
AcDbBlockTableRecord
  2
*Paper_Space
340
1E
  0
BLOCK_RECORD
  5
23
330
1
100
AcDbSymbolTableRecord
100
AcDbBlockTableRecord
  2
*Paper_Space0
340
26
  0
BLOCK_RECORD
  5
33FA
330
1
100
AcDbSymbolTableRecord
100
AcDbBlockTableRecord
  2
E_PUNKT
340
0
102
{BLKREFS
331
43B3
331
4478
331
4479
331
4D8B
331
4DA1
331
4DA7
331
4DF9
331
4DFC
331
4E0B
331
4E13
331
4E17
331
4B02
331
475B
331
4763
331
4769
331
476A
331
476B
331
476C
331
4FB8
331
59FB
331
594B
331
5864
331
5855
331
5910
331
57E8
331
5AED
331
5B49
331
5B4D
331
6E80
331
6E6D
331
6DAA
331
6D50
331
6FA1
331
707A
331
70B1
331
70B2
331
70BB
331
70BC
331
7646
331
7677
331
76B6
331
7779
331
7A28
331
7A2B
331
78FB
331
792A
331
794D
331
97D6
331
97D9
331
98CA
331
9958
331
9969
331
9AB5
331
9AB9
331
9ABC
331
9B15
102
}
  0
BLOCK_RECORD
  5
3730
330
1
100
AcDbSymbolTableRecord
100
AcDbBlockTableRecord
  2
SYM_KOMPON-2_K___-SPO
340
0
102
{BLKREFS
331
4DB5
331
6B31
102
}
  0
ENDTAB
  0
ENDSEC
  0
SECTION
  2
BLOCKS
  0
BLOCK
  5
20
330
1F
100
AcDbEntity
  8
0
100
AcDbBlockBegin
  2
*Model_Space
 70
     0
 10
0.0
 20
0.0
 30
0.0
  3
*Model_Space
  1

  0
ENDBLK
  5
21
330
1F
100
AcDbEntity
  8
0
100
AcDbBlockEnd
  0
BLOCK
  5
1C
330
1B
100
AcDbEntity
 67
     1
  8
0
100
AcDbBlockBegin
  2
*Paper_Space
 70
     0
 10
0.0
 20
0.0
 30
0.0
  3
*Paper_Space
  1

  0
ENDBLK
  5
1D
330
1B
100
AcDbEntity
 67
     1
  8
0
100
AcDbBlockEnd
  0
BLOCK
  5
24
330
23
100
AcDbEntity
  8
0
100
AcDbBlockBegin
  2
*Paper_Space0
 70
     0
 10
0.0
 20
0.0
 30
0.0
  3
*Paper_Space0
  1

  0
ENDBLK
  5
25
330
23
100
AcDbEntity
  8
0
100
AcDbBlockEnd
  0
BLOCK
  5
33FC
330
33FA
100
AcDbEntity
  8
0
100
AcDbBlockBegin
  2
E_PUNKT
 70
     0
 10
0.0
 20
0.0
 30
0.0
  3
E_PUNKT
  1

  0
LWPOLYLINE
  5
33FB
330
33FA
100
AcDbEntity
  8
POPIS
100
AcDbPolyline
 90
        2
 70
     1
 43
2.5
 10
1.27761037562675
 20
0.0290683308725193
 42
-1.0
 10
-1.222389624373249
 20
0.0290683308725193
 42
-1.0
  0
ENDBLK
  5
33FD
330
33FA
100
AcDbEntity
  8
0
100
AcDbBlockEnd
  0
BLOCK
  5
3755
330
3730
100
AcDbEntity
  8
0
  6
Continuous
 62
     7
100
AcDbBlockBegin
  2
SYM_KOMPON-2_K___-SPO
 70
     0
 10
0.0
 20
0.0
 30
0.0
  3
SYM_KOMPON-2_K___-SPO
  1

  0
ARC
  5
3731
330
3730
100
AcDbEntity
  8
0
  6
Continuous
 62
     5
100
AcDbCircle
 39
2.500000155029299
 10
-0.0508188465429459
 20
0.0106048761117461
 30
0.0
 40
0.011751466147934
100
AcDbArc
 50
244.4784797551157
 51
325.5219527481187
  0
LINE
  5
3732
330
3730
100
AcDbEntity
  8
0
  6
Continuous
 62
     5
100
AcDbLine
 39
2.500000155029299
 10
-0.0558819096713726
 20
0.0000000968933121
 30
0.0
 11
-0.0473700259934526
 21
-0.0147428987899281
 31
0.0
  0
LINE
  5
3733
330
3730
100
AcDbEntity
  8
0
  6
Continuous
 62
     5
100
AcDbLine
 39
2.500000155029299
 10
-0.0279409548356863
 20
-0.0234403331604447
 30
0.0
 11
-0.0356294633710414
 21
-0.0234403331604447
 31
0.0
  0
ARC
  5
3734
330
3730
100
AcDbEntity
  8
0
  6
Continuous
 62
     5
100
AcDbCircle
 39
2.500000155029299
 10
-0.0337367494132451
 20
-0.0086124589358392
 30
0.0
 40
0.014948212690269
100
AcDbArc
 50
204.2119054656276
 51
262.7260677832351
  0
LINE
  5
3735
330
3730
100
AcDbEntity
  8
0
  6
Continuous
 62
     5
100
AcDbLine
 39
2.500000155029299
 10
-0.0411315500964158
 20
0.0039524719855855
 30
0.0
 11
-0.0360044404887169
 21
0.0290662495386328
 31
0.0
  0
LINE
  5
3736
330
3730
100
AcDbEntity
  8
0
  6
Continuous
 62
     5
100
AcDbLine
 39
2.500000155029299
 10
-0.0360044404887169
 20
0.0290662495386328
 30
0.0
 11
-0.0330041390807532
 21
0.0290662495386328
 31
0.0
  0
LINE
  5
3737
330
3730
100
AcDbEntity
  8
0
  6
Continuous
 62
     5
100
AcDbLine
 39
2.500000155029299
 10
-0.0330041390807532
 20
0.0290662495386328
 30
0.0
 11
-0.0330041390807532
 21
0.0266284138071823
 31
0.0
  0
LINE
  5
3738
330
3730
100
AcDbEntity
  8
0
  6
Continuous
 62
     5
100
AcDbLine
 39
2.500000155029299
 10
-0.0330041390807532
 20
0.0266284138071823
 30
0.0
 11
-0.031691428488953
 21
0.0266284138071823
 31
0.0
  0
LINE
  5
3739
330
3730
100
AcDbEntity
  8
0
  6
Continuous
 62
     5
100
AcDbLine
 39
2.500000155029299
 10
-0.031691428488953
 20
0.0266284138071823
 30
0.0
 11
-0.031691428488953
 21
0.0290662495386328
 31
0.0
  0
LINE
  5
373A
330
3730
100
AcDbEntity
  8
0
  6
Continuous
 62
     5
100
AcDbLine
 39
2.500000155029299
 10
-0.031691428488953
 20
0.0290662495386328
 30
0.0
 11
-0.0279409548356863
 21
0.0290662495386328
 31
0.0
  0
CIRCLE
  5
373B
330
3730
100
AcDbEntity
  8
0
  6
Continuous
 62
     5
100
AcDbCircle
 39
2.500000155029299
 10
-0.0328383546238171
 20
0.0189341158964315
 30
0.0
 40
0.0013649867099716
  0
CIRCLE
  5
373C
330
3730
100
AcDbEntity
  8
0
  6
Continuous
 62
     5
100
AcDbCircle
 39
2.500000155029299
 10
-0.0329103463546783
 20
0.0132205110708283
 30
0.0
 40
0.0014585928407229
  0
CIRCLE
  5
373D
330
3730
100
AcDbEntity
  8
0
  6
Continuous
 62
     5
100
AcDbCircle
 39
2.500000155029299
 10
-0.0330509385504785
 20
0.0073604035573891
 30
0.0
 40
0.0015249057151225
  0
CIRCLE
  5
373E
330
3730
100
AcDbEntity
  8
0
  6
Continuous
 62
     5
100
AcDbCircle
 39
2.500000155029299
 10
-0.033113725416694
 20
0.0012600006300391
 30
0.0
 40
0.0016056164247336
  0
CIRCLE
  5
373F
330
3730
100
AcDbEntity
  8
0
  6
Continuous
 62
     5
100
AcDbCircle
 39
2.500000155029299
 10
-0.033426012561466
 20
-0.0052037522175391
 30
0.0
 40
0.0017900717687164
  0
CIRCLE
  5
3740
330
3730
100
AcDbEntity
  8
0
  6
Continuous
 62
     5
100
AcDbCircle
 39
2.500000155029299
 10
-0.0335356957907189
 20
-0.0113853517403961
 30
0.0
 40
0.0017680026136918
  0
CIRCLE
  5
3741
330
3730
100
AcDbEntity
  8
0
  6
Continuous
 62
     5
100
AcDbCircle
 39
2.500000155029299
 10
-0.0403631861317734
 20
-0.0080739259074051
 30
0.0
 40
0.0018960946260124
  0
ARC
  5
3742
330
3730
100
AcDbEntity
  8
0
  6
Continuous
 62
     5
100
AcDbCircle
 39
2.500000155029299
 10
-0.0050630631284268
 20
0.0106048761117461
 30
0.0
 40
0.011751466147934
100
AcDbArc
 50
214.4780759391286
 51
295.5215216113749
  0
LINE
  5
3743
330
3730
100
AcDbEntity
  8
0
  6
Continuous
 62
     5
100
AcDbLine
 39
2.500000155029299
 10
0.0
 20
0.0000000968933121
 30
0.0
 11
-0.0085118836779201
 21
-0.0147428987899281
 31
0.0
  0
LINE
  5
3744
330
3730
100
AcDbEntity
  8
0
  6
Continuous
 62
     5
100
AcDbLine
 39
2.500000155029299
 10
-0.0279409548356863
 20
-0.0234403331604447
 30
0.0
 11
-0.0202524463003312
 21
-0.0234403331604447
 31
0.0
  0
ARC
  5
3745
330
3730
100
AcDbEntity
  8
0
  6
Continuous
 62
     5
100
AcDbCircle
 39
2.500000155029299
 10
-0.0221451602581275
 20
-0.0086124589358392
 30
0.0
 40
0.014948212690269
100
AcDbArc
 50
277.2739609040121
 51
335.7881642027547
  0
LINE
  5
3746
330
3730
100
AcDbEntity
  8
0
  6
Continuous
 62
     5
100
AcDbLine
 39
2.500000155029299
 10
-0.0147503595749568
 20
0.0039524719855855
 30
0.0
 11
-0.0198774691826558
 21
0.0290662495386328
 31
0.0
  0
LINE
  5
3747
330
3730
100
AcDbEntity
  8
0
  6
Continuous
 62
     5
100
AcDbLine
 39
2.500000155029299
 10
-0.0198774691826558
 20
0.0290662495386328
 30
0.0
 11
-0.0228777705906195
 21
0.0290662495386328
 31
0.0
  0
LINE
  5
3748
330
3730
100
AcDbEntity
  8
0
  6
Continuous
 62
     5
100
AcDbLine
 39
2.500000155029299
 10
-0.0228777705906195
 20
0.0290662495386328
 30
0.0
 11
-0.0228777705906195
 21
0.0266284138071823
 31
0.0
  0
LINE
  5
3749
330
3730
100
AcDbEntity
  8
0
  6
Continuous
 62
     5
100
AcDbLine
 39
2.500000155029299
 10
-0.0228777705906195
 20
0.0266284138071823
 30
0.0
 11
-0.0241904811824196
 21
0.0266284138071823
 31
0.0
  0
LINE
  5
374A
330
3730
100
AcDbEntity
  8
0
  6
Continuous
 62
     5
100
AcDbLine
 39
2.500000155029299
 10
-0.0241904811824196
 20
0.0266284138071823
 30
0.0
 11
-0.0241904811824196
 21
0.0290662495386328
 31
0.0
  0
LINE
  5
374B
330
3730
100
AcDbEntity
  8
0
  6
Continuous
 62
     5
100
AcDbLine
 39
2.500000155029299
 10
-0.0241904811824196
 20
0.0290662495386328
 30
0.0
 11
-0.0279409548356863
 21
0.0290662495386328
 31
0.0
  0
CIRCLE
  5
374C
330
3730
100
AcDbEntity
  8
0
  6
Continuous
 62
     5
100
AcDbCircle
 39
2.500000155029299
 10
-0.0230435550475556
 20
0.0189341158964315
 30
0.0
 40
0.0013649867099716
  0
CIRCLE
  5
374D
330
3730
100
AcDbEntity
  8
0
  6
Continuous
 62
     5
100
AcDbCircle
 39
2.500000155029299
 10
-0.0229715633166944
 20
0.0132205110708283
 30
0.0
 40
0.0014585928407229
  0
CIRCLE
  5
374E
330
3730
100
AcDbEntity
  8
0
  6
Continuous
 62
     5
100
AcDbCircle
 39
2.500000155029299
 10
-0.0228309711208941
 20
0.0073604035573891
 30
0.0
 40
0.0015249057151225
  0
CIRCLE
  5
374F
330
3730
100
AcDbEntity
  8
0
  6
Continuous
 62
     5
100
AcDbCircle
 39
2.500000155029299
 10
-0.0227681842546787
 20
0.0012600006300391
 30
0.0
 40
0.0016056164247336
  0
CIRCLE
  5
3750
330
3730
100
AcDbEntity
  8
0
  6
Continuous
 62
     5
100
AcDbCircle
 39
2.500000155029299
 10
-0.0224558971099066
 20
-0.0052037522175391
 30
0.0
 40
0.0017900717687164
  0
CIRCLE
  5
3751
330
3730
100
AcDbEntity
  8
0
  6
Continuous
 62
     5
100
AcDbCircle
 39
2.500000155029299
 10
-0.0223462138806537
 20
-0.0113853517403961
 30
0.0
 40
0.0017680026136918
  0
CIRCLE
  5
3752
330
3730
100
AcDbEntity
  8
0
  6
Continuous
 62
     5
100
AcDbCircle
 39
2.500000155029299
 10
-0.0155187235395992
 20
-0.0080739259074051
 30
0.0
 40
0.0018960946260124
  0
CIRCLE
  5
3753
330
3730
100
AcDbEntity
  8
0
  6
Continuous
 62
     5
100
AcDbCircle
 39
2.500000155029299
 10
-0.0280347717850892
 20
-0.0082510468818523
 30
0.0
 40
0.0018752247149693
  0
CIRCLE
  5
3754
330
3730
100
AcDbEntity
  8
0
  6
Continuous
 62
     5
100
AcDbCircle
 39
2.500000155029299
 10
-0.0278472347795955
 20
0.0103139054956274
 30
0.0
 40
0.0016877361561316
  0
ENDBLK
  5
3756
330
3730
100
AcDbEntity
  8
0
100
AcDbBlockEnd
  0
ENDSEC
  0
SECTION
  2
ENTITIES
  0
TEXT
  5
43AE
330
1F
100
AcDbEntity
  8
POPIS
100
AcDbText
 10
2815.620119560694
 20
-1294.168972057719
 30
0.0
 40
50.0
  1
Protipožární podhled 
 41
0.85
  7
SIMPLEX7
100
AcDbText
  0
LINE
  5
9787
330
1F
100
AcDbEntity
  8
POPIS
100
AcDbLine
 10
3487.186663971842
 20
-1652.259994183205
 30
0.0
 11
3487.186663971842
 21
-1771.188783642837
 31
0.0
  0
LINE
  5
9788
330
1F
100
AcDbEntity
  8
POPIS
100
AcDbLine
 10
3448.37760603781
 20
-1661.183725398075
 30
0.0
 11
3448.37760603781
 21
-1771.188783642837
 31
0.0
  0
LINE
  5
9789
330
1F
100
AcDbEntity
  8
POPIS
100
AcDbLine
 10
3231.898345577497
 20
-1625.723234776089
 30
0.0
 11
3231.898345577497
 21
-1771.188783642837
 31
0.0
  0
LINE
  5
978A
330
1F
100
AcDbEntity
  8
POPIS
100
AcDbLine
 10
3339.844924686326
 20
-1570.425125750598
 30
0.0
 11
3339.844924686326
 21
-1771.165398357147
 31
0.0
  0
LINE
  5
978B
330
1F
100
AcDbEntity
  8
POPIS
100
AcDbLine
 10
2967.726269960927
 20
-1659.77153419072
 30
0.0
 11
2998.728952072414
 21
-1722.714329854928
 31
0.0
  0
LINE
  5
978C
330
1F
100
AcDbEntity
  8
POPIS
100
AcDbLine
 10
3099.996762488466
 20
-1616.394899445886
 30
0.0
 11
3099.996762488466
 21
-1773.493015164838
 31
0.0
  0
LINE
  5
978D
330
1F
100
AcDbEntity
  8
POPIS
100
AcDbLine
 10
3049.353069765547
 20
-1614.666723417243
 30
0.0
 11
3049.353069765547
 21
-1771.764839136196
 31
0.0
  0
LINE
  5
978E
330
1F
100
AcDbEntity
  8
POPIS
100
AcDbLine
 10
3150.974180329153
 20
-1574.768049740201
 30
0.0
 11
3150.974180329153
 21
-1771.914273363083
 31
0.0
  0
LINE
  5
978F
330
1F
100
AcDbEntity
  8
POPIS
100
AcDbLine
 10
2969.638153038145
 20
-1646.795999945983
 30
0.0
 11
2932.244328633544
 21
-1722.714329854928
 31
0.0
  0
HATCH
  5
9790
330
1F
100
AcDbEntity
  8
STAVBA OBRYS
100
AcDbHatch
 10
0.0
 20
0.0
 30
0.0
210
0.0
220
0.0
230
1.0
  2
BRICK
 70
     0
 71
     0
 91
        2
 92
        7
 72
     0
 73
     1
 93
        9
 10
2963.189193104185
 20
-1418.061293370971
 10
2810.901619356794
 20
-1419.937399972733
 10
2810.901619356794
 20
-1812.052507947496
 10
2963.189193104185
 20
-1812.790206161662
 10
2963.189193104185
 20
-1636.194369505019
 10
2927.128529596952
 20
-1636.194369505019
 10
2922.891449341406
 20
-1633.550269687413
 10
2927.128529596953
 20
-1630.906169869807
 10
2963.189193104185
 20
-1630.906169869802
 97
        0
 92
       24
 93
        4
 72
     1
 10
2910.267482508871
 20
-1809.604153356299
 11
2951.098911567534
 21
-1809.604153356299
 72
     1
 10
2951.098911567534
 20
-1809.604153356299
 11
2951.098911567534
 21
-1771.311179277172
 72
     1
 10
2951.098911567534
 20
-1771.311179277172
 11
2910.267482508871
 21
-1771.311179277172
 72
     1
 10
2910.267482508871
 20
-1771.311179277172
 11
2910.267482508871
 21
-1809.604153356299
 97
        0
 75
     0
 76
     1
 52
0.0
 41
10.0
 77
     0
 78
     3
 53
0.0
 43
2409.784066206936
 44
61.04013764077717
 45
0.0
 46
63.5
 79
     0
 53
90.0
 43
2409.784066206936
 44
61.04013764077717
 45
-127.0
 46
0.0000000000000078
 79
     2
 49
63.5
 49
-63.5
 53
90.0
 43
2473.284066206935
 44
61.04013764077717
 45
-127.0
 46
0.0000000000000078
 79
     2
 49
-63.5
 49
63.5
 47
1.098743268595766
 98
        1
 10
2912.482732397562
 20
-1547.715103892472
  0
LINE
  5
9791
330
1F
100
AcDbEntity
  8
STAVBA OBRYS
100
AcDbLine
 10
2963.189193104185
 20
-1418.061462646359
 30
0.0
 11
2963.189193104185
 21
-1812.790206161662
 31
0.0
  0
TEXT
  5
9792
330
1F
100
AcDbEntity
  8
POPIS
100
AcDbText
 10
2857.33454816691
 20
-2083.598455091065
 30
0.0
 40
25.0
  1
05
 41
0.85
  7
SIMPLEX7
100
AcDbText
  0
TEXT
  5
9793
330
1F
100
AcDbEntity
  8
POPIS
100
AcDbText
 10
2911.678251326652
 20
-2083.598455091065
 30
0.0
 40
25.0
  1
CD profil nosný
 41
0.7
  7
SIMPLEX7
100
AcDbText
  0
TEXT
  5
9794
330
1F
100
AcDbEntity
  8
POPIS
100
AcDbText
 10
2912.497994102391
 20
-2119.686996182001
 30
0.0
 40
25.0
  1
Křížová spojka
 41
0.7
  7
SIMPLEX7
100
AcDbText
  0
TEXT
  5
9795
330
1F
100
AcDbEntity
  8
POPIS
100
AcDbText
 10
2912.497994102391
 20
-2186.363732251267
 30
0.0
 40
25.0
  1
Minerální plsť
 41
0.7
  7
SIMPLEX7
100
AcDbText
  0
TEXT
  5
9796
330
1F
100
AcDbEntity
  8
POPIS
100
AcDbText
 10
2913.317736878132
 20
-2219.05259666605
 30
0.0
 40
25.0
  1
Pásek CETRIS   
 41
0.7
  7
SIMPLEX7
100
AcDbText
  0
TEXT
  5
9797
330
1F
100
AcDbEntity
  8
POPIS
100
AcDbText
 10
2912.497994102391
 20
-2151.363732251267
 30
0.0
 40
25.0
  1
Závěs
 41
0.7
  7
SIMPLEX7
100
AcDbText
  0
TEXT
  5
9798
330
1F
100
AcDbEntity
  8
POPIS
100
AcDbText
 10
2858.154290942648
 20
-2119.686996182001
 30
0.0
 40
25.0
  1
06
 41
0.85
  7
SIMPLEX7
100
AcDbText
  0
TEXT
  5
9799
330
1F
100
AcDbEntity
  8
POPIS
100
AcDbText
 10
2858.974033718389
 20
-2219.802684259293
 30
0.0
 40
25.0
  1
10
 41
0.85
  7
SIMPLEX7
100
AcDbText
  0
TEXT
  5
979A
330
1F
100
AcDbEntity
  8
POPIS
100
AcDbText
 10
2858.154290942648
 20
-2186.363732251267
 30
0.0
 40
25.0
  1
08
 41
0.85
  7
SIMPLEX7
100
AcDbText
  0
TEXT
  5
979B
330
1F
100
AcDbEntity
  8
POPIS
100
AcDbText
 10
2858.154290942648
 20
-2151.363732251267
 30
0.0
 40
25.0
  1
07
 41
0.85
  7
SIMPLEX7
100
AcDbText
  0
CIRCLE
  5
979C
330
1F
100
AcDbEntity
  8
POPIS
100
AcDbCircle
 10
3084.883208396618
 20
-2184.436283554899
 30
0.0
 40
11.13656048292026
  0
TEXT
  5
979D
330
1F
100
AcDbEntity
  8
POPIS
100
AcDbText
 10
3080.124179341436
 20
-2189.981629299886
 30
0.0
 40
12.0
  1
R
 41
0.85
  7
SIMPLEX7
100
AcDbText
  0
LINE
  5
979E
330
1F
100
AcDbEntity
  8
POPIS
100
AcDbLine
 10
2941.151577426754
 20
-1844.011724256889
 30
0.0
 11
3080.834783598367
 21
-1844.011724256889
 31
0.0
  0
TEXT
  5
979F
330
1F
100
AcDbEntity
  8
POPIS
100
AcDbText
 10
2912.497994102391
 20
-2047.779321729775
 30
0.0
 40
25.0
  1
CD profil montážní
 41
0.7
  7
SIMPLEX7
100
AcDbText
  0
TEXT
  5
97A0
330
1F
100
AcDbEntity
  8
POPIS
100
AcDbText
 10
2913.317736878132
 20
-1912.659766593211
 30
0.0
 40
25.0
  1
Deska CETRIS   
 41
0.7
  7
SIMPLEX7
100
AcDbText
  0
TEXT
  5
97A1
330
1F
100
AcDbEntity
  8
POPIS
100
AcDbText
 10
2912.497994102391
 20
-2013.536629006466
 30
0.0
 40
25.0
  1
Tmel DEXAFLAMM - R
 41
0.7
  7
SIMPLEX7
100
AcDbText
  0
TEXT
  5
97A2
330
1F
100
AcDbEntity
  8
POPIS
100
AcDbText
 10
2912.497994102391
 20
-1945.159120950955
 30
0.0
 40
25.0
  1
Vrut 4,2x25 (35,45) mm
 41
0.7
  7
SIMPLEX7
100
AcDbText
  0
LINE
  5
97A3
330
1F
100
AcDbEntity
  8
POPIS
100
AcDbLine
 10
2965.172888720914
 20
-1822.534897168776
 30
0.0
 11
2965.172888720914
 21
-1859.171839015356
 31
0.0
  0
TEXT
  5
97A4
330
1F
100
AcDbEntity
  8
POPIS
100
AcDbText
 10
2859.793776494128
 20
-1911.840633231921
 30
0.0
 40
25.0
  1
01
 41
0.85
  7
SIMPLEX7
100
AcDbText
  0
TEXT
  5
97A5
330
1F
100
AcDbEntity
  8
POPIS
100
AcDbText
 10
2858.154290942648
 20
-2047.779321729775
 30
0.0
 40
25.0
  1
04
 41
0.85
  7
SIMPLEX7
100
AcDbText
  0
TEXT
  5
97A6
330
1F
100
AcDbEntity
  8
POPIS
100
AcDbText
 10
2858.154290942648
 20
-2013.536629006466
 30
0.0
 40
25.0
  1
03
 41
0.85
  7
SIMPLEX7
100
AcDbText
  0
TEXT
  5
97A7
330
1F
100
AcDbEntity
  8
POPIS
100
AcDbText
 10
2858.154290942648
 20
-1945.159120950955
 30
0.0
 40
25.0
  1
02
 41
0.85
  7
SIMPLEX7
100
AcDbText
  0
LINE
  5
97A8
330
1F
100
AcDbEntity
  8
POPIS
100
AcDbLine
 10
2932.244328633544
 20
-1722.714329854928
 30
0.0
 11
2932.244328633544
 21
-1771.183726872668
 31
0.0
  0
TEXT
  5
97A9
330
1F
100
AcDbEntity
  8
POPIS
100
AcDbText
 10
2916.649644855392
 20
-1802.795660859709
 30
0.0
 40
25.0
  1
10
 41
0.85
  7
SIMPLEX7
100
AcDbText
  0
LINE
  5
97AA
330
1F
100
AcDbEntity
  8
POPIS
100
AcDbLine
 10
2972.441247623212
 20
-1834.707784469123
 30
0.0
 11
2958.841418706237
 21
-1851.317470169299
 31
0.0
  0
LINE
  5
97AB
330
1F
100
AcDbEntity
  8
POPIS
100
AcDbLine
 10
3067.579512114156
 20
-1822.534897168776
 30
0.0
 11
3067.579512114156
 21
-1859.171839015356
 31
0.0
  0
CIRCLE
  5
97AC
330
1F
100
AcDbEntity
  8
POPIS
100
AcDbCircle
 10
3084.883208396618
 20
-1878.043453482059
 30
0.0
 40
11.13656048292026
  0
TEXT
  5
97AD
330
1F
100
AcDbEntity
  8
POPIS
100
AcDbText
 10
3080.124179341436
 20
-1883.588799227047
 30
0.0
 40
12.0
  1
R
 41
0.85
  7
SIMPLEX7
100
AcDbText
  0
TEXT
  5
97AE
330
1F
100
AcDbEntity
  8
POPIS
100
AcDbText
 10
3084.265684107077
 20
-1805.09989238171
 30
0.0
 40
25.0
  1
06
 41
0.85
  7
SIMPLEX7
100
AcDbText
  0
LINE
  5
97AF
330
1F
100
AcDbEntity
  8
POPIS
100
AcDbLine
 10
2998.728952072414
 20
-1722.714329854928
 30
0.0
 11
2998.728952072414
 21
-1771.183726872668
 31
0.0
  0
TEXT
  5
97B0
330
1F
100
AcDbEntity
  8
POPIS
100
AcDbText
 10
2994.971441511546
 20
-1833.115890376645
 30
0.0
 40
25.0
  1
70
 41
0.85
 51
15.0
  7
SIMPLEX7
100
AcDbText
  0
TEXT
  5
97B1
330
1F
100
AcDbEntity
  8
POPIS
100
AcDbText
 10
2982.361570521082
 20
-1802.795660859709
 30
0.0
 40
25.0
  1
03
 41
0.85
  7
SIMPLEX7
100
AcDbText
  0
TEXT
  5
97B2
330
1F
100
AcDbEntity
  8
POPIS
100
AcDbText
 10
3033.621991384158
 20
-1803.371716353068
 30
0.0
 40
25.0
  1
05
 41
0.85
  7
SIMPLEX7
100
AcDbText
  0
LINE
  5
97B3
330
1F
100
AcDbEntity
  8
POPIS
100
AcDbLine
 10
3074.847871016454
 20
-1834.707784469123
 30
0.0
 11
3061.24804209948
 21
-1851.317470169299
 31
0.0
  0
TEXT
  5
97B4
330
1F
100
AcDbEntity
  8
POPIS
100
AcDbText
 10
3136.690079045539
 20
-1803.544535865646
 30
0.0
 40
25.0
  1
07
 41
0.85
  7
SIMPLEX7
100
AcDbText
  0
TEXT
  5
97B5
330
1F
100
AcDbEntity
  8
POPIS
100
AcDbText
 10
3216.167267196108
 20
-1802.795660859709
 30
0.0
 40
25.0
  1
04
 41
0.85
  7
SIMPLEX7
100
AcDbText
  0
TEXT
  5
97B6
330
1F
100
AcDbEntity
  8
POPIS
100
AcDbText
 10
3325.560823402712
 20
-1802.795660859709
 30
0.0
 40
25.0
  1
08
 41
0.85
  7
SIMPLEX7
100
AcDbText
  0
TEXT
  5
97B7
330
1F
100
AcDbEntity
  8
POPIS
100
AcDbText
 10
3432.646527656422
 20
-1802.795660859709
 30
0.0
 40
25.0
  1
02
 41
0.85
  7
SIMPLEX7
100
AcDbText
  0
TEXT
  5
97B8
330
1F
100
AcDbEntity
  8
POPIS
100
AcDbText
 10
3471.455585590453
 20
-1802.795660859709
 30
0.0
 40
25.0
  1
01
 41
0.85
  7
SIMPLEX7
100
AcDbText
  0
LINE
  5
97B9
330
1F
100
AcDbEntity
  8
0
100
AcDbLine
 39
2500.000155029299
 10
3034.632196299707
 20
-1613.689211092108
 30
0.0
 11
3034.632215436196
 21
-1617.68923218278
 31
0.0
  0
LINE
  5
97BA
330
1F
100
AcDbEntity
  8
0
100
AcDbLine
 39
2500.000155029299
 10
3034.632215436196
 20
-1617.68923218278
 30
0.0
 11
3045.632152319686
 21
-1617.689179558017
 31
0.0
  0
LINE
  5
97BB
330
1F
100
AcDbEntity
  8
0
100
AcDbLine
 39
2500.000155029299
 10
3036.632197277028
 20
-1611.689239424872
 30
0.0
 11
3034.632177163676
 21
-1609.689286894126
 31
0.0
  0
LINE
  5
97BC
330
1F
100
AcDbEntity
  8
0
100
AcDbLine
 39
2500.000155029299
 10
3034.632196299707
 20
-1613.689211092108
 30
0.0
 11
3036.632197277028
 21
-1611.689239424872
 31
0.0
  0
LINE
  5
97BD
330
1F
100
AcDbEntity
  8
0
100
AcDbLine
 39
2500.000155029299
 10
3035.217966585875
 20
-1611.689246190686
 30
0.0
 11
3033.632179145364
 21
-1610.103512335464
 31
0.0
  0
LINE
  5
97BE
330
1F
100
AcDbEntity
  8
0
100
AcDbLine
 39
2500.000155029299
 10
3033.632194318049
 20
-1613.274995218965
 30
0.0
 11
3035.217966585875
 21
-1611.689246190686
 31
0.0
  0
LINE
  5
97BF
330
1F
100
AcDbEntity
  8
0
100
AcDbLine
 39
2500.000155029299
 10
3033.632194318049
 20
-1613.274995218965
 30
0.0
 11
3033.632220220312
 21
-1618.689236966864
 31
0.0
  0
LINE
  5
97C0
330
1F
100
AcDbEntity
  8
0
100
AcDbLine
 39
2500.000155029299
 10
3033.632220220312
 20
-1618.689236966864
 30
0.0
 11
3046.046363571313
 21
-1618.689177576402
 31
0.0
  0
TEXT
  5
97C1
330
1F
100
AcDbEntity
  8
POPIS
100
AcDbText
 10
2832.716822844068
 20
-1372.762714262456
 30
0.0
 40
25.0
  1
Napojení s vytmelenou spárou (podloženou páskem)
 41
0.85
  7
SIMPLEX7
100
AcDbText
  0
LINE
  5
97C2
330
1F
100
AcDbEntity
  8
CETRIS
100
AcDbLine
 10
2970.189193104186
 20
-1649.183725398075
 30
0.0
 11
3502.094648930411
 21
-1649.183725398075
 31
0.0
  0
LINE
  5
97C3
330
1F
100
AcDbEntity
  8
CETRIS
100
AcDbLine
 10
2970.189193104186
 20
-1661.183725398075
 30
0.0
 11
3502.354769216233
 21
-1661.183725398075
 31
0.0
  0
LINE
  5
97C4
330
1F
100
AcDbEntity
  8
NOSNÉ KONSTRUKCE
100
AcDbLine
 10
2989.453078653553
 20
-1648.099747710633
 30
0.0
 11
3502.071151881587
 21
-1648.099747710633
 31
0.0
  0
LINE
  5
97C5
330
1F
100
AcDbEntity
  8
NOSNÉ KONSTRUKCE
100
AcDbLine
 10
3501.885041786161
 20
-1639.514023079233
 30
0.0
 11
2989.453078653548
 21
-1639.514023079232
 31
0.0
  0
LINE
  5
97C6
330
1F
100
AcDbEntity
  8
NOSNÉ KONSTRUKCE
100
AcDbLine
 10
3501.778517236314
 20
-1634.599778909018
 30
0.0
 11
2989.453078653546
 21
-1634.599778909018
 31
0.0
  0
LINE
  5
97C7
330
1F
100
AcDbEntity
  8
NOSNÉ KONSTRUKCE
100
AcDbLine
 10
3501.735164142555
 20
-1632.5997921588
 30
0.0
 11
2989.453078653545
 21
-1632.5997921588
 31
0.0
  0
LINE
  5
97C8
330
1F
100
AcDbEntity
  8
NOSNÉ KONSTRUKCE
100
AcDbLine
 10
3501.628639592709
 20
-1627.68554798857
 30
0.0
 11
2989.453078653543
 21
-1627.68554798857
 31
0.0
  0
LINE
  5
97C9
330
1F
100
AcDbEntity
  8
NOSNÉ KONSTRUKCE
100
AcDbLine
 10
3501.559892339864
 20
-1624.514065105084
 30
0.0
 11
2989.453078653541
 21
-1624.514065105084
 31
0.0
  0
LINE
  5
97CA
330
1F
100
AcDbEntity
  8
izolace
100
AcDbLine
 10
3097.512789539735
 20
-1616.842977608309
 30
0.0
 11
3501.393608550512
 21
-1616.842977608309
 31
0.0
  0
LINE
  5
97CB
330
1F
100
AcDbEntity
  8
NOSNÉ KONSTRUKCE
100
AcDbLine
 10
3009.641929948741
 20
-1619.099804220825
 30
0.0
 11
3501.442529082471
 21
-1619.099804220825
 31
0.0
  0
LINE
  5
97CC
330
1F
100
AcDbEntity
  8
izolace
  6
IZOLACE
 48
1.45
100
AcDbLine
 10
3097.512789539735
 20
-1601.842977608309
 30
0.0
 11
3501.068458193234
 21
-1601.842977608309
 31
0.0
  0
LINE
  5
97CD
330
1F
100
AcDbEntity
  8
izolace
100
AcDbLine
 10
2975.189193104185
 20
-1586.842977608309
 30
0.0
 11
3500.743307835957
 21
-1586.842977608309
 31
0.0
  0
LINE
  5
97CE
330
1F
100
AcDbEntity
  8
izolace
  6
IZOLACE
 48
1.45
100
AcDbLine
 10
2975.189193104185
 20
-1571.842977608309
 30
0.0
 11
3500.418157478679
 21
-1571.842977608309
 31
0.0
  0
LINE
  5
97CF
330
1F
100
AcDbEntity
  8
izolace
100
AcDbLine
 10
2975.189193104185
 20
-1556.842977608309
 30
0.0
 11
3500.093007121401
 21
-1556.842977608309
 31
0.0
  0
HATCH
  5
97D0
330
1F
100
AcDbEntity
  8
CETRIS
100
AcDbHatch
 10
0.0
 20
0.0
 30
0.0
210
0.0
220
0.0
230
1.0
  2
ANSI31
 70
     0
 71
     0
 91
       10
 92
        7
 72
     1
 73
     1
 93
       18
 10
3502.094648930411
 20
-1649.183725398075
 42
0.0
 10
3451.142128796034
 20
-1649.183725398075
 42
0.0
 10
3450.764819400469
 20
-1649.402118768686
 42
0.0
 10
3450.092302302041
 20
-1649.62825032294
 42
0.0
 10
3450.092302302041
 20
-1654.584128126987
 42
0.0
 10
3450.319265192924
 20
-1656.107756080416
 42
0.0
 10
3450.932251042072
 20
-1657.52162329012
 42
0.0
 10
3451.890332112057
 20
-1658.728991473019
 42
0.0
 10
3453.127465920958
 20
-1659.647074983461
 42
0.0
 10
3453.842771107124
 20
-1659.983798621344
 42
0.0
 10
3453.842771107124
 20
-1661.183725398075
 42
0.0
 10
3487.186663971842
 20
-1661.183725398075
 42
0.0
 10
3487.186663971842
 20
-1654.754817580031
 42
-0.3954850216876489
 10
3486.017063316758
 20
-1653.507405881618
 42
-1.0
 10
3488.517063316758
 20
-1653.507405881618
 42
-0.433193455262839
 10
3487.186663971842
 20
-1654.754817580031
 42
0.0
 10
3487.186663971842
 20
-1661.183725398076
 42
0.0
 10
3502.354769216233
 20
-1661.183725398076
 42
0.0
 97
        0
 92
        7
 72
     0
 73
     1
 93
       15
 10
3446.899008793085
 20
-1656.851896717159
 10
3447.326889657383
 20
-1655.371056850112
 10
3447.392932139305
 20
-1654.584128126987
 10
3447.392932139305
 20
-1650.535904227698
 10
3446.720415040876
 20
-1650.762035781952
 10
3446.342763665565
 20
-1650.383454233121
 10
3446.720415040877
 20
-1650.165793097073
 10
3447.392932139305
 20
-1649.939661542774
 10
3447.392932139305
 20
-1649.183725398075
 10
3339.844924686326
 20
-1649.183725398075
 10
3339.844924686326
 20
-1661.183725398075
 10
3443.642463329856
 20
-1661.183725398075
 10
3443.642463329856
 20
-1659.983798621344
 10
3444.992148413406
 20
-1659.23965798487
 10
3446.102778313766
 20
-1658.170885995458
 97
        0
 92
        7
 72
     0
 73
     1
 93
        4
 10
3339.844924686325
 20
-1649.183725398075
 10
3285.871635131911
 20
-1649.183725398075
 10
3285.871635131911
 20
-1661.183725398075
 10
3339.844924686326
 20
-1661.183725398075
 97
        0
 92
        7
 72
     0
 73
     1
 93
       12
 10
3285.871635131911
 20
-1649.183725398075
 10
3251.935064333964
 20
-1649.183725398075
 10
3251.557754938399
 20
-1649.402118768687
 10
3250.885237839971
 20
-1649.62825032294
 10
3250.885237839971
 20
-1654.584128126987
 10
3251.112200730854
 20
-1656.107756080416
 10
3251.725186580002
 20
-1657.52162329012
 10
3252.683267649986
 20
-1658.728991473019
 10
3253.920401458886
 20
-1659.647074983461
 10
3254.635706645053
 20
-1659.983798621344
 10
3254.635706645053
 20
-1661.183725398075
 10
3285.871635131911
 20
-1661.183725398076
 97
        0
 92
        7
 72
     0
 73
     1
 93
        4
 10
3231.898345577497
 20
-1649.183725398075
 10
3177.332695696353
 20
-1649.183725398075
 10
3177.332695696353
 20
-1661.183725398075
 10
3231.898345577497
 20
-1661.183725398075
 97
        0
 92
        7
 72
     0
 73
     1
 93
       15
 10
3247.691944331012
 20
-1656.851896717161
 10
3248.119825195313
 20
-1655.371056850109
 10
3248.185867677234
 20
-1654.584128126987
 10
3248.185867677234
 20
-1650.535904227699
 10
3247.513350578806
 20
-1650.762035781952
 10
3247.135699203495
 20
-1650.383454233122
 10
3247.513350578807
 20
-1650.165793097074
 10
3248.185867677234
 20
-1649.939661542775
 10
3248.185867677234
 20
-1649.183725398075
 10
3231.898345577497
 20
-1649.183725398075
 10
3231.898345577497
 20
-1661.183725398075
 10
3244.435398867786
 20
-1661.183725398075
 10
3244.435398867786
 20
-1659.983798621344
 10
3245.785083951338
 20
-1659.23965798487
 10
3246.895713851694
 20
-1658.170885995459
 97
        0
 92
        7
 72
     0
 73
     1
 93
        4
 10
3177.332695696353
 20
-1649.183725398075
 10
3127.668044664223
 20
-1649.183725398075
 10
3127.668044664223
 20
-1661.183725398075
 10
3177.332695696353
 20
-1661.183725398075
 97
        0
 92
        7
 72
     0
 73
     1
 93
        4
 10
3127.668044664223
 20
-1649.183725398075
 10
3113.13473746361
 20
-1649.183725398075
 10
3113.13473746361
 20
-1661.183725398075
 10
3127.668044664223
 20
-1661.183725398075
 97
        0
 92
        7
 72
     0
 73
     1
 93
       12
 10
3113.13473746361
 20
-1649.183725398075
 10
3001.935064333963
 20
-1649.183725398075
 10
3001.557754938398
 20
-1649.402118768686
 10
3000.88523783997
 20
-1649.62825032294
 10
3000.88523783997
 20
-1654.584128126987
 10
3001.112200730854
 20
-1656.107756080417
 10
3001.725186580001
 20
-1657.52162329012
 10
3002.683267649986
 20
-1658.728991473019
 10
3003.920401458886
 20
-1659.64707498346
 10
3004.635706645053
 20
-1659.983798621344
 10
3004.635706645053
 20
-1661.183725398075
 10
3113.13473746361
 20
-1661.183725398075
 97
        0
 92
        7
 72
     0
 73
     1
 93
       15
 10
2998.119825195312
 20
-1655.371056850112
 10
2998.185867677234
 20
-1654.584128126986
 10
2998.185867677234
 20
-1650.535904227699
 10
2997.513350578806
 20
-1650.762035781952
 10
2997.135699203495
 20
-1650.383454233122
 10
2997.513350578805
 20
-1650.165793097074
 10
2998.185867677234
 20
-1649.939661542774
 10
2998.185867677234
 20
-1649.183725398075
 10
2970.189193104186
 20
-1649.183725398075
 10
2970.189193104186
 20
-1661.183725398075
 10
2994.435398867786
 20
-1661.183725398076
 10
2994.435398867786
 20
-1659.983798621344
 10
2995.785083951336
 20
-1659.23965798487
 10
2996.895713851694
 20
-1658.170885995457
 10
2997.691944331013
 20
-1656.851896717161
 97
        0
 75
     0
 76
     1
 52
0.0
 41
1.0
 77
     0
 78
     1
 53
45.0
 43
1616.429004865525
 44
61.04013764077717
 45
-2.245064030267287
 46
2.245064030267288
 79
     0
 47
0.5760577313040671
 98
       10
 10
3495.933564017649
 20
-1657.357404509703
 10
3407.731383312462
 20
-1657.357404509703
 10
3299.352230878792
 20
-1657.93346955163
 10
3271.680965359058
 20
-1657.93346955163
 10
3217.491397470234
 20
-1657.93346955163
 10
3239.974295500013
 20
-1657.93346955163
 10
3154.654539327466
 20
-1657.93346955163
 10
3117.759518634486
 20
-1657.93346955163
 10
3091.817697840722
 20
-1659.085580538347
 10
2985.744488364371
 20
-1656.781349016344
  0
LINE
  5
97D1
330
1F
100
AcDbEntity
  8
NOSNÉ KONSTRUKCE
100
AcDbLine
 10
2975.189193104185
 20
-1616.842977608309
 30
0.0
 11
3031.840349349401
 21
-1616.842977608309
 31
0.0
  0
LINE
  5
97D2
330
1F
100
AcDbEntity
  8
izolace
  6
IZOLACE
 48
1.45
100
AcDbLine
 10
2975.189193104185
 20
-1601.842977608309
 30
0.0
 11
3031.840349349401
 21
-1601.842977608309
 31
0.0
  0
LINE
  5
97D3
330
1F
100
AcDbEntity
  8
SPOJOVACÍ
  6
DASHDOT2
100
AcDbLine
 10
2980.118152791236
 20
-1597.683702420216
 30
0.0
 11
2941.840578503
 21
-1597.683702420216
 31
0.0
  0
LINE
  5
97D4
330
1F
100
AcDbEntity
  8
CETRIS
100
AcDbLine
 10
2975.189193104185
 20
-1649.183725398074
 30
0.0
 11
2975.189193104185
 21
-1549.183725398074
 31
0.0
  0
HATCH
  5
97D5
330
1F
100
AcDbEntity
  8
CETRIS
100
AcDbHatch
 10
0.0
 20
0.0
 30
0.0
210
0.0
220
0.0
230
1.0
  2
ANSI31
 70
     0
 71
     0
 91
        2
 92
        7
 72
     0
 73
     1
 93
        4
 10
2975.189193104185
 20
-1549.183725398074
 10
2963.189193104185
 20
-1549.183725398073
 10
2963.189193104185
 20
-1649.183725398074
 10
2975.189193104185
 20
-1649.183725398074
 97
        0
 92
       22
 72
     1
 73
     1
 93
        2
 10
2969.219976962023
 20
-1617.392961275927
 42
-1.0
 10
2971.719976962024
 20
-1617.392961275927
 42
-1.0
 97
        0
 75
     0
 76
     1
 52
90.0
 41
1.0
 77
     0
 78
     1
 53
135.0
 43
1616.429004865525
 44
61.04013764077717
 45
-2.245064030267288
 46
-2.245064030267287
 79
     0
 47
0.5760577313040671
 98
        2
 10
2972.485345507836
 20
-1630.858756329535
 10
2972.485345507836
 20
-1630.858756329535
  0
INSERT
  5
97D6
330
1F
100
AcDbEntity
  8
0
100
AcDbBlockReference
  2
E_PUNKT
 10
2970.442366586397
 20
-1617.422029606799
 30
0.0
  0
LINE
  5
97D7
330
1F
100
AcDbEntity
  8
izolace
100
AcDbLine
 10
2970.189193104186
 20
-1661.183725398075
 30
0.0
 11
2970.189193104186
 21
-1649.183725398075
 31
0.0
  0
LWPOLYLINE
  5
97D8
330
1F
100
AcDbEntity
  8
izolace
100
AcDbPolyline
 90
        4
 70
     1
 43
0.0
 10
2970.189193104186
 20
-1649.183725398074
 10
2963.189193104185
 20
-1649.183725398074
 10
2963.189193104185
 20
-1661.183725398073
 10
2970.189193104186
 20
-1661.183725398073
  0
INSERT
  5
97D9
330
1F
100
AcDbEntity
  8
0
100
AcDbBlockReference
  2
E_PUNKT
 10
2966.994067587381
 20
-1660.960366407487
 30
0.0
  0
HATCH
  5
97DA
330
1F
100
AcDbEntity
  8
izolace
100
AcDbHatch
 10
0.0
 20
0.0
 30
0.0
210
0.0
220
0.0
230
1.0
  2
AR-SAND
 70
     0
 71
     0
 91
        1
 92
        7
 72
     1
 73
     1
 93
        6
 10
2970.163162820415
 20
-1649.183725398076
 42
0.0
 10
2963.163162820415
 20
-1649.183725398075
 42
0.0
 10
2963.163162820415
 20
-1661.183725398075
 42
0.0
 10
2964.620045721424
 20
-1661.183725398075
 42
-1.0
 10
2967.120045721424
 20
-1661.183725398075
 42
0.0
 10
2970.163162820407
 20
-1661.183725398075
 42
0.0
 97
        0
 75
     0
 76
     1
 52
90.0
 41
0.05
 77
     0
 78
     4
 53
127.5
 43
-29558.68639058569
 44
-6003.008750685138
 45
-2.447066186646711
 46
-0.0800015647992021
 79
     6
 49
0.0
 49
-1.9304
 49
0.0
 49
-2.159
 49
0.0
 49
-2.06375
 53
97.49999999999985
 43
-29558.68639058569
 44
-6003.008750685138
 45
-3.584125502841771
 46
2.247616415690013
 79
     6
 49
0.0
 49
-1.041399999999999
 49
0.0
 49
-1.7399
 49
0.0
 49
-0.66675
 53
57.5
 43
-29558.68639058569
 44
-6004.570850685138
 45
-0.0071859233927282
 46
3.95496185120729
 79
     6
 49
0.0
 49
-0.635
 49
0.0
 49
-2.286
 49
0.0
 49
-2.9845
 53
47.5
 43
-29558.68639058569
 44
-6004.570850685138
 45
-1.11464661628608
 46
3.817782262361486
 79
     6
 49
0.0
 49
-0.3175
 49
0.0
 49
-1.498599999999999
 49
0.0
 49
-1.7145
 47
0.2169446325764043
 98
        1
 10
2968.454466131889
 20
-1655.301695290476
  0
LINE
  5
97DB
330
1F
100
AcDbEntity
  8
CETRIS
100
AcDbLine
 10
2963.189193104185
 20
-1649.183725398074
 30
0.0
 11
2975.189193104185
 21
-1649.183725398074
 31
0.0
  0
LINE
  5
97DC
330
1F
100
AcDbEntity
  8
SPOJOVACÍ
  6
CIKCAK
 48
0.25
100
AcDbLine
 10
2972.580558306285
 20
-1595.039602602604
 30
0.0
 11
2934.757902475637
 21
-1595.03960260261
 31
0.0
  0
LINE
  5
97DD
330
1F
100
AcDbEntity
  8
SPOJOVACÍ
  6
CIKCAK
 48
0.25
100
AcDbLine
 10
2972.580558306285
 20
-1600.327802237822
 30
0.0
 11
2934.757902475637
 21
-1600.327802237822
 31
0.0
  0
LINE
  5
97DE
330
1F
100
AcDbEntity
  8
SPOJOVACÍ
 48
0.25
100
AcDbLine
 10
2934.757902475637
 20
-1600.327802237822
 30
0.0
 11
2930.520822220092
 21
-1597.683702420216
 31
0.0
  0
LINE
  5
97DF
330
1F
100
AcDbEntity
  8
SPOJOVACÍ
 48
0.25
100
AcDbLine
 10
2934.757902475637
 20
-1595.03960260261
 30
0.0
 11
2930.520822220092
 21
-1597.683702420216
 31
0.0
  0
LINE
  5
97E0
330
1F
100
AcDbEntity
  8
SPOJOVACÍ
  6
Continuous
100
AcDbLine
 10
2947.607684838319
 20
-1595.885048373953
 30
0.0
 11
2946.398102400893
 21
-1599.482356470358
 31
0.0
  0
LINE
  5
97E1
330
1F
100
AcDbEntity
  8
SPOJOVACÍ
  6
Continuous
100
AcDbLine
 10
2947.077354918753
 20
-1595.885048373953
 30
0.0
 11
2945.867772481327
 21
-1599.482356470358
 31
0.0
  0
LINE
  5
97E2
330
1F
100
AcDbEntity
  8
SPOJOVACÍ
  6
Continuous
100
AcDbLine
 10
2946.20367567531
 20
-1599.818259662408
 30
0.0
 11
2946.398102400893
 21
-1599.482356470358
 31
0.0
  0
LINE
  5
97E3
330
1F
100
AcDbEntity
  8
SPOJOVACÍ
  6
Continuous
100
AcDbLine
 10
2946.20367567531
 20
-1599.818259662408
 30
0.0
 11
2945.867772481327
 21
-1599.482356470358
 31
0.0
  0
LINE
  5
97E4
330
1F
100
AcDbEntity
  8
SPOJOVACÍ
  6
Continuous
100
AcDbLine
 10
2947.27095429641
 20
-1595.549145178023
 30
0.0
 11
2947.607684838319
 21
-1595.885048373953
 31
0.0
  0
LINE
  5
97E5
330
1F
100
AcDbEntity
  8
SPOJOVACÍ
  6
Continuous
100
AcDbLine
 10
2947.27095429641
 20
-1595.549145178023
 30
0.0
 11
2947.077354918753
 21
-1595.885048373953
 31
0.0
  0
LINE
  5
97E6
330
1F
100
AcDbEntity
  8
SPOJOVACÍ
  6
Continuous
100
AcDbLine
 10
2947.27095429641
 20
-1595.549145178023
 30
0.0
 11
2946.20367567531
 21
-1599.818259662408
 31
0.0
  0
LINE
  5
97E7
330
1F
100
AcDbEntity
  8
SPOJOVACÍ
  6
Continuous
100
AcDbLine
 10
2945.060692402631
 20
-1595.885048373953
 30
0.0
 11
2943.851109965205
 21
-1599.482356470358
 31
0.0
  0
LINE
  5
97E8
330
1F
100
AcDbEntity
  8
SPOJOVACÍ
  6
Continuous
100
AcDbLine
 10
2944.530362483066
 20
-1595.885048373953
 30
0.0
 11
2943.320780045639
 21
-1599.482356470358
 31
0.0
  0
LINE
  5
97E9
330
1F
100
AcDbEntity
  8
SPOJOVACÍ
  6
Continuous
100
AcDbLine
 10
2943.656683239623
 20
-1599.818259662408
 30
0.0
 11
2943.851109965205
 21
-1599.482356470358
 31
0.0
  0
LINE
  5
97EA
330
1F
100
AcDbEntity
  8
SPOJOVACÍ
  6
Continuous
100
AcDbLine
 10
2943.656683239623
 20
-1599.818259662408
 30
0.0
 11
2943.320780045639
 21
-1599.482356470358
 31
0.0
  0
LINE
  5
97EB
330
1F
100
AcDbEntity
  8
SPOJOVACÍ
  6
Continuous
100
AcDbLine
 10
2944.723961860722
 20
-1595.549145178023
 30
0.0
 11
2945.060692402631
 21
-1595.885048373953
 31
0.0
  0
LINE
  5
97EC
330
1F
100
AcDbEntity
  8
SPOJOVACÍ
  6
Continuous
100
AcDbLine
 10
2944.723961860722
 20
-1595.549145178023
 30
0.0
 11
2944.530362483066
 21
-1595.885048373953
 31
0.0
  0
LINE
  5
97ED
330
1F
100
AcDbEntity
  8
SPOJOVACÍ
  6
Continuous
100
AcDbLine
 10
2944.723961860722
 20
-1595.549145178023
 30
0.0
 11
2943.656683239623
 21
-1599.818259662408
 31
0.0
  0
LINE
  5
97EE
330
1F
100
AcDbEntity
  8
SPOJOVACÍ
  6
Continuous
100
AcDbLine
 10
2942.176969425035
 20
-1595.549145178023
 30
0.0
 11
2941.109690803935
 21
-1599.818259662408
 31
0.0
  0
LINE
  5
97EF
330
1F
100
AcDbEntity
  8
SPOJOVACÍ
  6
Continuous
100
AcDbLine
 10
2942.176969425035
 20
-1595.549145178023
 30
0.0
 11
2941.983370047378
 21
-1595.885048373953
 31
0.0
  0
LINE
  5
97F0
330
1F
100
AcDbEntity
  8
SPOJOVACÍ
  6
Continuous
100
AcDbLine
 10
2942.176969425035
 20
-1595.549145178023
 30
0.0
 11
2942.513699966944
 21
-1595.885048373953
 31
0.0
  0
LINE
  5
97F1
330
1F
100
AcDbEntity
  8
SPOJOVACÍ
  6
Continuous
100
AcDbLine
 10
2941.109690803935
 20
-1599.818259662408
 30
0.0
 11
2940.773787609952
 21
-1599.482356470358
 31
0.0
  0
LINE
  5
97F2
330
1F
100
AcDbEntity
  8
SPOJOVACÍ
  6
Continuous
100
AcDbLine
 10
2941.109690803935
 20
-1599.818259662408
 30
0.0
 11
2941.304117529517
 21
-1599.482356470358
 31
0.0
  0
LINE
  5
97F3
330
1F
100
AcDbEntity
  8
SPOJOVACÍ
  6
Continuous
100
AcDbLine
 10
2941.983370047378
 20
-1595.885048373953
 30
0.0
 11
2940.773787609952
 21
-1599.482356470358
 31
0.0
  0
LINE
  5
97F4
330
1F
100
AcDbEntity
  8
SPOJOVACÍ
  6
Continuous
100
AcDbLine
 10
2942.513699966944
 20
-1595.885048373953
 30
0.0
 11
2941.304117529517
 21
-1599.482356470358
 31
0.0
  0
LINE
  5
97F5
330
1F
100
AcDbEntity
  8
SPOJOVACÍ
  6
DASHED
100
AcDbLine
 10
2931.127010946506
 20
-1597.683702420216
 30
0.0
 11
2940.655956039273
 21
-1598.966905545216
 31
0.0
  0
LINE
  5
97F6
330
1F
100
AcDbEntity
  8
SPOJOVACÍ
  6
DASHED
100
AcDbLine
 10
2931.127010946506
 20
-1597.683702420216
 30
0.0
 11
2940.655956039273
 21
-1596.400499295215
 31
0.0
  0
LINE
  5
97F7
330
1F
100
AcDbEntity
  8
SPOJOVACÍ
  6
Continuous
100
AcDbLine
 10
2939.966707531256
 20
-1595.885048373953
 30
0.0
 11
2938.75712509383
 21
-1599.482356470358
 31
0.0
  0
LINE
  5
97F8
330
1F
100
AcDbEntity
  8
SPOJOVACÍ
  6
Continuous
100
AcDbLine
 10
2939.43637761169
 20
-1595.885048373953
 30
0.0
 11
2938.226795174264
 21
-1599.482356470358
 31
0.0
  0
LINE
  5
97F9
330
1F
100
AcDbEntity
  8
SPOJOVACÍ
  6
Continuous
100
AcDbLine
 10
2938.562698368247
 20
-1599.818259662408
 30
0.0
 11
2938.75712509383
 21
-1599.482356470358
 31
0.0
  0
LINE
  5
97FA
330
1F
100
AcDbEntity
  8
SPOJOVACÍ
  6
Continuous
100
AcDbLine
 10
2938.562698368247
 20
-1599.818259662408
 30
0.0
 11
2938.226795174264
 21
-1599.482356470358
 31
0.0
  0
LINE
  5
97FB
330
1F
100
AcDbEntity
  8
SPOJOVACÍ
  6
Continuous
100
AcDbLine
 10
2939.629976989348
 20
-1595.549145178023
 30
0.0
 11
2939.966707531256
 21
-1595.885048373953
 31
0.0
  0
LINE
  5
97FC
330
1F
100
AcDbEntity
  8
SPOJOVACÍ
  6
Continuous
100
AcDbLine
 10
2939.629976989348
 20
-1595.549145178023
 30
0.0
 11
2939.43637761169
 21
-1595.885048373953
 31
0.0
  0
LINE
  5
97FD
330
1F
100
AcDbEntity
  8
SPOJOVACÍ
  6
Continuous
100
AcDbLine
 10
2939.629976989348
 20
-1595.549145178023
 30
0.0
 11
2938.562698368247
 21
-1599.818259662408
 31
0.0
  0
LINE
  5
97FE
330
1F
100
AcDbEntity
  8
SPOJOVACÍ
  6
Continuous
100
AcDbLine
 10
2932.517843771037
 20
-1596.89736232607
 30
0.0
 11
2932.277553201801
 21
-1598.563568787041
 31
0.0
  0
LINE
  5
97FF
330
1F
100
AcDbEntity
  8
SPOJOVACÍ
  6
Continuous
100
AcDbLine
 10
2932.809933504936
 20
-1597.189452058288
 30
0.0
 11
2932.445900486923
 21
-1598.271479054829
 31
0.0
  0
LINE
  5
9800
330
1F
100
AcDbEntity
  8
SPOJOVACÍ
  6
Continuous
100
AcDbLine
 10
2932.348777053146
 20
-1597.189452058288
 30
0.0
 11
2931.984744035124
 21
-1598.271479054829
 31
0.0
  0
LINE
  5
9801
330
1F
100
AcDbEntity
  8
SPOJOVACÍ
  6
Continuous
100
AcDbLine
 10
2932.277553201801
 20
-1598.563568787041
 30
0.0
 11
2932.445900486923
 21
-1598.271479054829
 31
0.0
  0
LINE
  5
9802
330
1F
100
AcDbEntity
  8
SPOJOVACÍ
  6
Continuous
100
AcDbLine
 10
2932.277553201801
 20
-1598.563568787041
 30
0.0
 11
2931.984744035124
 21
-1598.271479054829
 31
0.0
  0
LINE
  5
9803
330
1F
100
AcDbEntity
  8
SPOJOVACÍ
  6
Continuous
100
AcDbLine
 10
2932.517843771037
 20
-1596.89736232607
 30
0.0
 11
2932.809933504936
 21
-1597.189452058288
 31
0.0
  0
LINE
  5
9804
330
1F
100
AcDbEntity
  8
SPOJOVACÍ
  6
Continuous
100
AcDbLine
 10
2932.517843771037
 20
-1596.89736232607
 30
0.0
 11
2932.348777053146
 21
-1597.189452058288
 31
0.0
  0
LINE
  5
9805
330
1F
100
AcDbEntity
  8
SPOJOVACÍ
  6
Continuous
100
AcDbLine
 10
2934.848806179269
 20
-1596.460666589066
 30
0.0
 11
2934.35887241395
 21
-1598.870766610371
 31
0.0
  0
LINE
  5
9806
330
1F
100
AcDbEntity
  8
SPOJOVACÍ
  6
Continuous
100
AcDbLine
 10
2935.141615346157
 20
-1596.752756324656
 30
0.0
 11
2934.527219698861
 21
-1598.578676878152
 31
0.0
  0
LINE
  5
9807
330
1F
100
AcDbEntity
  8
SPOJOVACÍ
  6
Continuous
100
AcDbLine
 10
2934.680458894359
 20
-1596.752756324656
 30
0.0
 11
2934.066063247282
 21
-1598.578676878152
 31
0.0
  0
LINE
  5
9808
330
1F
100
AcDbEntity
  8
SPOJOVACÍ
  6
Continuous
100
AcDbLine
 10
2934.35887241395
 20
-1598.870766610371
 30
0.0
 11
2934.527219698861
 21
-1598.578676878152
 31
0.0
  0
LINE
  5
9809
330
1F
100
AcDbEntity
  8
SPOJOVACÍ
  6
Continuous
100
AcDbLine
 10
2934.35887241395
 20
-1598.870766610371
 30
0.0
 11
2934.066063247282
 21
-1598.578676878152
 31
0.0
  0
LINE
  5
980A
330
1F
100
AcDbEntity
  8
SPOJOVACÍ
  6
Continuous
100
AcDbLine
 10
2934.848806179269
 20
-1596.460666589066
 30
0.0
 11
2935.141615346157
 21
-1596.752756324656
 31
0.0
  0
LINE
  5
980B
330
1F
100
AcDbEntity
  8
SPOJOVACÍ
  6
Continuous
100
AcDbLine
 10
2934.848806179269
 20
-1596.460666589066
 30
0.0
 11
2934.680458894359
 21
-1596.752756324656
 31
0.0
  0
LINE
  5
980C
330
1F
100
AcDbEntity
  8
SPOJOVACÍ
  6
Continuous
100
AcDbLine
 10
2937.180488020482
 20
-1596.023970855434
 30
0.0
 11
2936.427961267759
 21
-1599.214655508729
 31
0.0
  0
LINE
  5
980D
330
1F
100
AcDbEntity
  8
SPOJOVACÍ
  6
Continuous
100
AcDbLine
 10
2937.472577754389
 20
-1596.316780021687
 30
0.0
 11
2936.59630855267
 21
-1598.92256577651
 31
0.0
  0
LINE
  5
980E
330
1F
100
AcDbEntity
  8
SPOJOVACÍ
  6
Continuous
100
AcDbLine
 10
2937.011421302583
 20
-1596.316780021687
 30
0.0
 11
2936.135152100872
 21
-1598.92256577651
 31
0.0
  0
LINE
  5
980F
330
1F
100
AcDbEntity
  8
SPOJOVACÍ
  6
Continuous
100
AcDbLine
 10
2936.427961267759
 20
-1599.214655508729
 30
0.0
 11
2936.59630855267
 21
-1598.92256577651
 31
0.0
  0
LINE
  5
9810
330
1F
100
AcDbEntity
  8
SPOJOVACÍ
  6
Continuous
100
AcDbLine
 10
2936.427961267759
 20
-1599.214655508729
 30
0.0
 11
2936.135152100872
 21
-1598.92256577651
 31
0.0
  0
LINE
  5
9811
330
1F
100
AcDbEntity
  8
SPOJOVACÍ
  6
Continuous
100
AcDbLine
 10
2937.180488020482
 20
-1596.023970855434
 30
0.0
 11
2937.472577754389
 21
-1596.316780021687
 31
0.0
  0
LINE
  5
9812
330
1F
100
AcDbEntity
  8
SPOJOVACÍ
  6
Continuous
100
AcDbLine
 10
2937.180488020482
 20
-1596.023970855434
 30
0.0
 11
2937.011421302583
 21
-1596.316780021687
 31
0.0
  0
LINE
  5
9813
330
1F
100
AcDbEntity
  8
SPOJOVACÍ
  6
Continuous
100
AcDbLine
 10
2950.154677274007
 20
-1595.885048373953
 30
0.0
 11
2948.94509483658
 21
-1599.482356470358
 31
0.0
  0
LINE
  5
9814
330
1F
100
AcDbEntity
  8
SPOJOVACÍ
  6
Continuous
100
AcDbLine
 10
2949.624347354441
 20
-1595.885048373953
 30
0.0
 11
2948.414764917014
 21
-1599.482356470358
 31
0.0
  0
LINE
  5
9815
330
1F
100
AcDbEntity
  8
SPOJOVACÍ
  6
Continuous
100
AcDbLine
 10
2948.750668110998
 20
-1599.818259662408
 30
0.0
 11
2948.94509483658
 21
-1599.482356470358
 31
0.0
  0
LINE
  5
9816
330
1F
100
AcDbEntity
  8
SPOJOVACÍ
  6
Continuous
100
AcDbLine
 10
2948.750668110998
 20
-1599.818259662408
 30
0.0
 11
2948.414764917014
 21
-1599.482356470358
 31
0.0
  0
LINE
  5
9817
330
1F
100
AcDbEntity
  8
SPOJOVACÍ
  6
Continuous
100
AcDbLine
 10
2949.817946732098
 20
-1595.549145178023
 30
0.0
 11
2950.154677274007
 21
-1595.885048373953
 31
0.0
  0
LINE
  5
9818
330
1F
100
AcDbEntity
  8
SPOJOVACÍ
  6
Continuous
100
AcDbLine
 10
2949.817946732098
 20
-1595.549145178023
 30
0.0
 11
2949.624347354441
 21
-1595.885048373953
 31
0.0
  0
LINE
  5
9819
330
1F
100
AcDbEntity
  8
SPOJOVACÍ
  6
Continuous
100
AcDbLine
 10
2949.817946732098
 20
-1595.549145178023
 30
0.0
 11
2948.750668110998
 21
-1599.818259662408
 31
0.0
  0
LINE
  5
981A
330
1F
100
AcDbEntity
  8
SPOJOVACÍ
  6
DASHED
100
AcDbLine
 10
2974.108001829331
 20
-1592.621202420215
 30
0.0
 11
2971.721026102396
 21
-1596.400499295215
 31
0.0
  0
LINE
  5
981B
330
1F
100
AcDbEntity
  8
SPOJOVACÍ
100
AcDbLine
 10
2974.108001829331
 20
-1602.746202420215
 30
0.0
 11
2971.721026102404
 21
-1598.966905545216
 31
0.0
  0
LINE
  5
981C
330
1F
100
AcDbEntity
  8
SPOJOVACÍ
100
AcDbLine
 10
2975.189193104185
 20
-1592.621202420215
 30
0.0
 11
2974.108001829331
 21
-1592.621202420215
 31
0.0
  0
LINE
  5
981D
330
1F
100
AcDbEntity
  8
SPOJOVACÍ
100
AcDbLine
 10
2974.108001829331
 20
-1592.621202420215
 30
0.0
 11
2974.765684795932
 21
-1592.621202420215
 31
0.0
  0
LINE
  5
981E
330
1F
100
AcDbEntity
  8
SPOJOVACÍ
100
AcDbLine
 10
2974.765684795932
 20
-1592.621202420215
 30
0.0
 11
2974.108001829331
 21
-1592.621202420215
 31
0.0
  0
LINE
  5
981F
330
1F
100
AcDbEntity
  8
SPOJOVACÍ
100
AcDbLine
 10
2975.189193104185
 20
-1602.746202420215
 30
0.0
 11
2974.108001829331
 21
-1602.746202420215
 31
0.0
  0
LINE
  5
9820
330
1F
100
AcDbEntity
  8
SPOJOVACÍ
100
AcDbLine
 10
2974.108001829331
 20
-1602.746202420215
 30
0.0
 11
2974.765684795932
 21
-1602.746202420215
 31
0.0
  0
LINE
  5
9821
330
1F
100
AcDbEntity
  8
SPOJOVACÍ
100
AcDbLine
 10
2974.108001829331
 20
-1592.621202420215
 30
0.0
 11
2974.108001829331
 21
-1602.746202420215
 31
0.0
  0
LINE
  5
9822
330
1F
100
AcDbEntity
  8
SPOJOVACÍ
100
AcDbLine
 10
2975.189193104185
 20
-1592.621202420215
 30
0.0
 11
2975.189193104185
 21
-1602.746202420215
 31
0.0
  0
LINE
  5
9823
330
1F
100
AcDbEntity
  8
SPOJOVACÍ
  6
Continuous
100
AcDbLine
 10
2955.248662145382
 20
-1595.885048373953
 30
0.0
 11
2954.039079707955
 21
-1599.482356470358
 31
0.0
  0
LINE
  5
9824
330
1F
100
AcDbEntity
  8
SPOJOVACÍ
  6
Continuous
100
AcDbLine
 10
2954.718332225816
 20
-1595.885048373953
 30
0.0
 11
2953.508749788389
 21
-1599.482356470358
 31
0.0
  0
LINE
  5
9825
330
1F
100
AcDbEntity
  8
SPOJOVACÍ
  6
Continuous
100
AcDbLine
 10
2953.844652982373
 20
-1599.818259662408
 30
0.0
 11
2954.039079707955
 21
-1599.482356470358
 31
0.0
  0
LINE
  5
9826
330
1F
100
AcDbEntity
  8
SPOJOVACÍ
  6
Continuous
100
AcDbLine
 10
2953.844652982373
 20
-1599.818259662408
 30
0.0
 11
2953.508749788389
 21
-1599.482356470358
 31
0.0
  0
LINE
  5
9827
330
1F
100
AcDbEntity
  8
SPOJOVACÍ
  6
Continuous
100
AcDbLine
 10
2954.911931603473
 20
-1595.549145178023
 30
0.0
 11
2955.248662145382
 21
-1595.885048373953
 31
0.0
  0
LINE
  5
9828
330
1F
100
AcDbEntity
  8
SPOJOVACÍ
  6
Continuous
100
AcDbLine
 10
2954.911931603473
 20
-1595.549145178023
 30
0.0
 11
2954.718332225816
 21
-1595.885048373953
 31
0.0
  0
LINE
  5
9829
330
1F
100
AcDbEntity
  8
SPOJOVACÍ
  6
Continuous
100
AcDbLine
 10
2954.911931603473
 20
-1595.549145178023
 30
0.0
 11
2953.844652982373
 21
-1599.818259662408
 31
0.0
  0
LINE
  5
982A
330
1F
100
AcDbEntity
  8
SPOJOVACÍ
  6
Continuous
100
AcDbLine
 10
2952.701669709694
 20
-1595.885048373953
 30
0.0
 11
2951.492087272267
 21
-1599.482356470358
 31
0.0
  0
LINE
  5
982B
330
1F
100
AcDbEntity
  8
SPOJOVACÍ
  6
Continuous
100
AcDbLine
 10
2952.171339790128
 20
-1595.885048373953
 30
0.0
 11
2950.961757352702
 21
-1599.482356470358
 31
0.0
  0
LINE
  5
982C
330
1F
100
AcDbEntity
  8
SPOJOVACÍ
  6
Continuous
100
AcDbLine
 10
2951.297660546686
 20
-1599.818259662408
 30
0.0
 11
2951.492087272267
 21
-1599.482356470358
 31
0.0
  0
LINE
  5
982D
330
1F
100
AcDbEntity
  8
SPOJOVACÍ
  6
Continuous
100
AcDbLine
 10
2951.297660546686
 20
-1599.818259662408
 30
0.0
 11
2950.961757352702
 21
-1599.482356470358
 31
0.0
  0
LINE
  5
982E
330
1F
100
AcDbEntity
  8
SPOJOVACÍ
  6
Continuous
100
AcDbLine
 10
2952.364939167785
 20
-1595.549145178023
 30
0.0
 11
2952.701669709694
 21
-1595.885048373953
 31
0.0
  0
LINE
  5
982F
330
1F
100
AcDbEntity
  8
SPOJOVACÍ
  6
Continuous
100
AcDbLine
 10
2952.364939167785
 20
-1595.549145178023
 30
0.0
 11
2952.171339790128
 21
-1595.885048373953
 31
0.0
  0
LINE
  5
9830
330
1F
100
AcDbEntity
  8
SPOJOVACÍ
  6
Continuous
100
AcDbLine
 10
2952.364939167785
 20
-1595.549145178023
 30
0.0
 11
2951.297660546686
 21
-1599.818259662408
 31
0.0
  0
LINE
  5
9831
330
1F
100
AcDbEntity
  8
SPOJOVACÍ
  6
Continuous
100
AcDbLine
 10
2957.45892403916
 20
-1595.549145178023
 30
0.0
 11
2956.39164541806
 21
-1599.818259662408
 31
0.0
  0
LINE
  5
9832
330
1F
100
AcDbEntity
  8
SPOJOVACÍ
  6
Continuous
100
AcDbLine
 10
2957.45892403916
 20
-1595.549145178023
 30
0.0
 11
2957.265324661504
 21
-1595.885048373953
 31
0.0
  0
LINE
  5
9833
330
1F
100
AcDbEntity
  8
SPOJOVACÍ
  6
Continuous
100
AcDbLine
 10
2957.45892403916
 20
-1595.549145178023
 30
0.0
 11
2957.795654581069
 21
-1595.885048373953
 31
0.0
  0
LINE
  5
9834
330
1F
100
AcDbEntity
  8
SPOJOVACÍ
  6
Continuous
100
AcDbLine
 10
2956.39164541806
 20
-1599.818259662408
 30
0.0
 11
2956.055742224077
 21
-1599.482356470358
 31
0.0
  0
LINE
  5
9835
330
1F
100
AcDbEntity
  8
SPOJOVACÍ
  6
Continuous
100
AcDbLine
 10
2956.39164541806
 20
-1599.818259662408
 30
0.0
 11
2956.586072143643
 21
-1599.482356470358
 31
0.0
  0
LINE
  5
9836
330
1F
100
AcDbEntity
  8
SPOJOVACÍ
  6
Continuous
100
AcDbLine
 10
2957.265324661504
 20
-1595.885048373953
 30
0.0
 11
2956.055742224077
 21
-1599.482356470358
 31
0.0
  0
LINE
  5
9837
330
1F
100
AcDbEntity
  8
SPOJOVACÍ
  6
Continuous
100
AcDbLine
 10
2957.795654581069
 20
-1595.885048373953
 30
0.0
 11
2956.586072143643
 21
-1599.482356470358
 31
0.0
  0
LINE
  5
9838
330
1F
100
AcDbEntity
  8
SPOJOVACÍ
  6
Continuous
100
AcDbLine
 10
2960.005916474848
 20
-1595.549145178023
 30
0.0
 11
2958.938637853748
 21
-1599.818259662408
 31
0.0
  0
LINE
  5
9839
330
1F
100
AcDbEntity
  8
SPOJOVACÍ
  6
Continuous
100
AcDbLine
 10
2960.005916474848
 20
-1595.549145178023
 30
0.0
 11
2959.812317097191
 21
-1595.885048373953
 31
0.0
  0
LINE
  5
983A
330
1F
100
AcDbEntity
  8
SPOJOVACÍ
  6
Continuous
100
AcDbLine
 10
2960.005916474848
 20
-1595.549145178023
 30
0.0
 11
2960.342647016757
 21
-1595.885048373953
 31
0.0
  0
LINE
  5
983B
330
1F
100
AcDbEntity
  8
SPOJOVACÍ
  6
Continuous
100
AcDbLine
 10
2958.938637853748
 20
-1599.818259662408
 30
0.0
 11
2958.602734659764
 21
-1599.482356470358
 31
0.0
  0
LINE
  5
983C
330
1F
100
AcDbEntity
  8
SPOJOVACÍ
  6
Continuous
100
AcDbLine
 10
2958.938637853748
 20
-1599.818259662408
 30
0.0
 11
2959.13306457933
 21
-1599.482356470358
 31
0.0
  0
LINE
  5
983D
330
1F
100
AcDbEntity
  8
SPOJOVACÍ
  6
Continuous
100
AcDbLine
 10
2959.812317097191
 20
-1595.885048373953
 30
0.0
 11
2958.602734659764
 21
-1599.482356470358
 31
0.0
  0
LINE
  5
983E
330
1F
100
AcDbEntity
  8
SPOJOVACÍ
  6
Continuous
100
AcDbLine
 10
2960.342647016757
 20
-1595.885048373953
 30
0.0
 11
2959.13306457933
 21
-1599.482356470358
 31
0.0
  0
LINE
  5
983F
330
1F
100
AcDbEntity
  8
SPOJOVACÍ
  6
Continuous
100
AcDbLine
 10
2962.552908910535
 20
-1595.549145178023
 30
0.0
 11
2961.485630289436
 21
-1599.818259662408
 31
0.0
  0
LINE
  5
9840
330
1F
100
AcDbEntity
  8
SPOJOVACÍ
  6
Continuous
100
AcDbLine
 10
2962.552908910535
 20
-1595.549145178023
 30
0.0
 11
2962.359309532878
 21
-1595.885048373953
 31
0.0
  0
LINE
  5
9841
330
1F
100
AcDbEntity
  8
SPOJOVACÍ
  6
Continuous
100
AcDbLine
 10
2962.552908910535
 20
-1595.549145178023
 30
0.0
 11
2962.889639452444
 21
-1595.885048373953
 31
0.0
  0
LINE
  5
9842
330
1F
100
AcDbEntity
  8
SPOJOVACÍ
  6
Continuous
100
AcDbLine
 10
2961.485630289436
 20
-1599.818259662408
 30
0.0
 11
2961.149727095452
 21
-1599.482356470358
 31
0.0
  0
LINE
  5
9843
330
1F
100
AcDbEntity
  8
SPOJOVACÍ
  6
Continuous
100
AcDbLine
 10
2961.485630289436
 20
-1599.818259662408
 30
0.0
 11
2961.680057015018
 21
-1599.482356470358
 31
0.0
  0
LINE
  5
9844
330
1F
100
AcDbEntity
  8
SPOJOVACÍ
  6
Continuous
100
AcDbLine
 10
2962.359309532878
 20
-1595.885048373953
 30
0.0
 11
2961.149727095452
 21
-1599.482356470358
 31
0.0
  0
LINE
  5
9845
330
1F
100
AcDbEntity
  8
SPOJOVACÍ
  6
Continuous
100
AcDbLine
 10
2962.889639452444
 20
-1595.885048373953
 30
0.0
 11
2961.680057015018
 21
-1599.482356470358
 31
0.0
  0
LINE
  5
9846
330
1F
100
AcDbEntity
  8
SPOJOVACÍ
  6
DASHED
100
AcDbLine
 10
2955.655956039273
 20
-1598.966905545216
 30
0.0
 11
2971.721026102404
 21
-1598.966905545216
 31
0.0
  0
LINE
  5
9847
330
1F
100
AcDbEntity
  8
SPOJOVACÍ
  6
DASHED
100
AcDbLine
 10
2955.655956039273
 20
-1596.400499295215
 30
0.0
 11
2971.721026102396
 21
-1596.400499295215
 31
0.0
  0
LINE
  5
9848
330
1F
100
AcDbEntity
  8
CETRIS
100
AcDbLine
 10
2975.189193104185
 20
-1549.183725398074
 30
0.0
 11
2963.189193104185
 21
-1549.183725398074
 31
0.0
  0
TEXT
  5
9849
330
1F
100
AcDbEntity
  8
POPIS
100
AcDbText
 10
2832.716822844068
 20
-1404.045320471444
 30
0.0
 40
20.0
  1
Svislý řez
 41
0.85
  7
SIMPLEX7
100
AcDbText
  0
LWPOLYLINE
  5
984A
330
1F
100
AcDbEntity
  8
STAVBA OBRYS
100
AcDbPolyline
 90
        2
 70
     0
 43
0.0
 10
3182.149795200229
 20
-1477.81347759532
 42
-0.2237289391062531
 10
3142.715426764368
 20
-1500.164540687606
  0
LWPOLYLINE
  5
984B
330
1F
100
AcDbEntity
  8
STAVBA OBRYS
100
AcDbPolyline
 90
        4
 70
     0
 43
0.0
 10
3182.149795200229
 20
-1417.064529561397
 10
3182.149795200229
 20
-1526.04935456203
 10
3082.149795200229
 20
-1526.04935456203
 10
3082.149795200229
 20
-1415.832690823533
  0
LWPOLYLINE
  5
984C
330
1F
100
AcDbEntity
  8
STAVBA OBRYS
100
AcDbPolyline
 90
        8
 70
     0
 43
0.0
 10
3103.239587131426
 20
-1445.781599747879
 42
0.0120721047703132
 10
3103.322366359473
 20
-1447.862265514372
 42
0.044358077361292
 10
3103.797119641084
 20
-1451.097225536472
 42
0.0188067511131767
 10
3106.220907779138
 20
-1459.78790054684
 42
0.0457786284636091
 10
3107.670535246679
 20
-1463.206233006296
 42
0.0295006114745606
 10
3110.56980779184
 20
-1467.918512062379
 42
0.0258674098621065
 10
3114.449018168595
 20
-1472.893448156883
 42
0.2409478365688615
 10
3142.730798829992
 20
-1490.202905090851
 42
0.0884720560394402
  0
LWPOLYLINE
  5
984D
330
1F
100
AcDbEntity
  8
STAVBA OBRYS
100
AcDbPolyline
 90
        6
 70
     0
 43
0.0
 10
3092.890528675377
 20
-1445.781599747879
 42
0.0128837512779302
 10
3093.232279027642
 20
-1449.781397533975
 42
0.0351641677647434
 10
3093.985590693472
 20
-1454.105848879181
 42
0.0187319685742942
 10
3098.046409750667
 20
-1468.215733689752
 42
0.0582629403736403
 10
3100.037809592356
 20
-1472.511534728472
 42
0.2538762603868234
 10
3142.715426764368
 20
-1500.164540687606
  0
LWPOLYLINE
  5
984E
330
1F
100
AcDbEntity
  8
STAVBA OBRYS
100
AcDbPolyline
 90
        8
 70
     0
 43
0.0
 10
3182.221226721802
 20
-1445.532789897959
 42
-0.0120721047703132
 10
3182.151558132752
 20
-1447.613935909212
 42
-0.044358077361292
 10
3181.697195768462
 20
-1450.85182285364
 42
-0.0188067511131767
 10
3179.328210337979
 20
-1459.557596173925
 42
-0.0457786284636091
 10
3177.900148453705
 20
-1462.984993999198
 42
-0.0295006114745606
 10
3175.030622625939
 20
-1467.715446061878
 42
-0.0258674098621065
 10
3171.182833256568
 20
-1472.714723935778
 42
-0.2409478365688615
 10
3143.010670169465
 20
-1490.202023433463
 42
-0.0884720560394402
  0
LWPOLYLINE
  5
984F
330
1F
100
AcDbEntity
  8
STAVBA OBRYS
100
AcDbPolyline
 90
        5
 70
     0
 43
0.0
 10
3182.149795200229
 20
-1495.12490539288
 42
-0.1515799785300641
 10
3142.968842117513
 20
-1511.307533637302
 42
-0.2517236249987814
 10
3086.213145781618
 20
-1474.39776747384
 42
-0.0219777111230329
 10
3085.125810779242
 20
-1470.176031566838
 42
-0.0067884601454819
 10
3082.730798829992
 20
-1458.021395952954
  0
LWPOLYLINE
  5
9850
330
1F
100
AcDbEntity
  8
STAVBA OBRYS
100
AcDbPolyline
 90
        2
 70
     0
 43
0.0
 10
3094.764385258907
 20
-1526.049354562032
 42
-0.0508155708990308
 10
3082.149795200229
 20
-1515.57481284055
  0
LINE
  5
9851
330
1F
100
AcDbEntity
  8
0
  6
DASHDOT2
100
AcDbLine
 10
3074.176638611465
 20
-1491.939981093743
 30
0.0
 11
3112.454212899702
 21
-1491.939981093743
 31
0.0
  0
LINE
  5
9852
330
1F
100
AcDbEntity
  8
SPOJOVACÍ
  6
DASHED
100
AcDbLine
 10
3098.638835363429
 20
-1490.656777968743
 30
0.0
 11
3082.573765300306
 21
-1490.656777968743
 31
0.0
  0
LINE
  5
9853
330
1F
100
AcDbEntity
  8
SPOJOVACÍ
  6
DASHED
100
AcDbLine
 10
3098.638835363429
 20
-1493.223184218743
 30
0.0
 11
3082.573765300299
 21
-1493.223184218743
 31
0.0
  0
LINE
  5
9854
330
1F
100
AcDbEntity
  8
SPOJOVACÍ
  6
CIKCAK
 48
0.25
100
AcDbLine
 10
3081.714233096417
 20
-1489.295881276131
 30
0.0
 11
3119.536888927065
 21
-1489.295881276137
 31
0.0
  0
LINE
  5
9855
330
1F
100
AcDbEntity
  8
SPOJOVACÍ
  6
CIKCAK
 48
0.25
100
AcDbLine
 10
3081.714233096417
 20
-1494.584080911348
 30
0.0
 11
3119.536888927065
 21
-1494.584080911348
 31
0.0
  0
LINE
  5
9856
330
1F
100
AcDbEntity
  8
SPOJOVACÍ
  6
Continuous
100
AcDbLine
 10
3088.206612400431
 20
-1604.391514122588
 30
0.0
 11
3086.572468679257
 21
-1604.391514122588
 31
0.0
  0
LINE
  5
9857
330
1F
100
AcDbEntity
  8
SPOJOVACÍ
  6
Continuous
100
AcDbLine
 10
3087.710942238384
 20
-1601.960800713549
 30
0.0
 11
3087.466122182913
 21
-1602.205620767792
 31
0.0
  0
LINE
  5
9858
330
1F
100
AcDbEntity
  8
SPOJOVACÍ
  6
Continuous
100
AcDbLine
 10
3088.347112580098
 20
-1604.827486781985
 30
0.0
 11
3087.466122182913
 21
-1602.205620767792
 31
0.0
  0
LINE
  5
9859
330
1F
100
AcDbEntity
  8
0
100
AcDbLine
 10
3079.803135983255
 20
-1531.147091529042
 30
0.0
 11
3145.644806581531
 21
-1565.925807354324
 31
0.0
  0
HATCH
  5
985A
330
1F
100
AcDbEntity
  8
NOSNÉ KONSTRUKCE
100
AcDbHatch
 10
0.0
 20
0.0
 30
0.0
210
0.0
220
0.0
230
1.0
  2
SOLID
 70
     1
 71
     0
 91
        1
 92
        7
 72
     0
 73
     1
 93
       68
 10
3033.632122556807
 20
-1598.275037244801
 10
3035.217894824619
 20
-1596.689288216527
 10
3033.632107384107
 20
-1595.103554361323
 10
3033.632081481865
 20
-1589.689312613403
 10
3037.632073076686
 20
-1589.689293477055
 10
3037.632077860774
 20
-1590.689293477045
 10
3034.632086265946
 20
-1590.689307829295
 10
3034.632105402427
 20
-1594.689328919973
 10
3036.632125515786
 20
-1596.689281450714
 10
3034.632124538457
 20
-1598.689253117947
 10
3034.632143674946
 20
-1602.689274208619
 10
3036.6321613964
 20
-1604.1892604378
 10
3034.632158027195
 20
-1605.689265803462
 10
3034.632177163684
 20
-1609.689286894131
 10
3036.632197277036
 20
-1611.689239424869
 10
3034.632196299707
 20
-1613.689211092108
 10
3034.632215436196
 20
-1617.68923218278
 10
3045.632152319679
 20
-1617.689179558016
 10
3047.632153297015
 20
-1615.689207890785
 10
3051.632125941349
 20
-1615.689188754527
 10
3053.632146054694
 20
-1617.689141285271
 10
3064.632082938185
 20
-1617.689088660511
 10
3075.632019821682
 20
-1617.689036035746
 10
3077.632020799004
 20
-1615.689064368515
 10
3081.631993443331
 20
-1615.689045232254
 10
3083.632013556683
 20
-1617.688997763002
 10
3094.631950440181
 20
-1617.688945138239
 10
3094.631931303684
 20
-1613.688924047566
 10
3092.631911190347
 20
-1611.688971516819
 10
3094.631912167669
 20
-1609.688999849585
 10
3094.631893031187
 20
-1605.688978758911
 10
3092.631875309712
 20
-1604.188992529743
 10
3094.631878678931
 20
-1602.688987164073
 10
3094.631859542443
 20
-1598.688966073403
 10
3092.631839429091
 20
-1596.689013542666
 10
3094.631840406412
 20
-1594.689041875418
 10
3094.631821269938
 20
-1590.689020784755
 10
3091.632088016825
 20
-1590.689035135768
 10
3091.632092799683
 20
-1589.689293477056
 10
3095.632084394511
 20
-1589.689312613403
 10
3095.632058492269
 20
-1595.103554361312
 10
3094.04627105175
 20
-1596.689288216533
 10
3095.632043319569
 20
-1598.275037244802
 10
3095.632019809342
 20
-1603.189281415033
 10
3094.298679759323
 20
-1604.189268411331
 10
3095.632010241232
 20
-1605.189268165249
 10
3095.631986731005
 20
-1610.103512335467
 10
3094.046199290493
 20
-1611.689246190686
 10
3095.63197155832
 20
-1613.274995218965
 10
3095.631969578066
 20
-1613.688919263651
 10
3095.63193130367
 20
-1613.688919263469
 10
3095.631950440166
 20
-1617.688940354139
 10
3095.631945656057
 20
-1618.689236966864
 10
3083.217802305063
 20
-1618.689177576401
 10
3081.217801327727
 20
-1616.689205909168
 10
3078.046241618457
 20
-1616.68919073612
 10
3076.046330722017
 20
-1618.689034053656
 10
3053.217944371256
 20
-1618.689143266865
 10
3051.21792425789
 20
-1616.689190736119
 10
3048.046364548635
 20
-1616.689205909168
 10
3046.046363571313
 20
-1618.689177576402
 10
3033.632220220312
 20
-1618.689236966865
 10
3033.632194318049
 20
-1613.274995218972
 10
3035.217966585875
 20
-1611.689246190683
 10
3033.632179145357
 20
-1610.10351233546
 10
3033.632155635137
 20
-1605.189268165247
 10
3034.965486117046
 20
-1604.189268411336
 10
3033.632146067027
 20
-1603.189281415037
 97
        0
 75
     0
 76
     1
 47
0.131671459398827
 98
        1
 10
3034.312498239084
 20
-1600.406118997399
  0
LINE
  5
985B
330
1F
100
AcDbEntity
  8
izolace
  6
IZOLACE
 48
1.3
100
AcDbLine
 10
3036.118670272332
 20
-1602.331295187688
 30
0.0
 11
3093.234468616804
 21
-1602.331295187688
 31
0.0
  0
LINE
  5
985C
330
1F
100
AcDbEntity
  8
NOSNÉ KONSTRUKCE
100
AcDbLine
 10
3097.512789539735
 20
-1587.933303331783
 30
0.0
 11
3031.840349349401
 21
-1587.933303331783
 31
0.0
  0
LINE
  5
985D
330
1F
100
AcDbEntity
  8
NOSNÉ KONSTRUKCE
100
AcDbLine
 10
3096.012789539735
 20
-1589.433303331783
 30
0.0
 11
3033.340349349401
 21
-1589.433303331783
 31
0.0
  0
LWPOLYLINE
  5
985E
330
1F
100
AcDbEntity
  8
STAVBA OBRYS
100
AcDbPolyline
 90
        3
 70
     0
 43
0.0
 10
3182.149795200229
 20
-1513.753794207899
 42
-0.1594823739701661
 10
3142.588719087788
 20
-1524.729800814715
 42
-0.2797225762992413
 10
3082.730798829992
 20
-1491.716917472327
  0
LINE
  5
985F
330
1F
100
AcDbEntity
  8
0
100
AcDbLine
 10
3079.105598298517
 20
-1479.238410008927
 30
0.0
 11
3079.105598298517
 21
-1585.493332606015
 31
0.0
  0
LINE
  5
9860
330
1F
100
AcDbEntity
  8
0
100
AcDbLine
 10
3081.105598298517
 20
-1479.238410008927
 30
0.0
 11
3081.105598298517
 21
-1587.493332606014
 31
0.0
  0
LINE
  5
9861
330
1F
100
AcDbEntity
  8
SPOJOVACÍ
  6
Continuous
100
AcDbLine
 10
3032.618225880954
 20
-1606.822830537688
 30
0.0
 11
3033.100629931356
 21
-1605.947870188575
 31
0.0
  0
LINE
  5
9862
330
1F
100
AcDbEntity
  8
SPOJOVACÍ
  6
Continuous
100
AcDbLine
 10
3033.431679710997
 20
-1601.475984642252
 30
0.0
 11
3032.836513713683
 21
-1600.673987907956
 31
0.0
  0
LINE
  5
9863
330
1F
100
AcDbEntity
  8
NOSNÉ KONSTRUKCE
100
AcDbLine
 10
2989.453078653538
 20
-1619.099804220825
 30
0.0
 11
2989.453078653553
 21
-1648.099747710633
 31
0.0
  0
LINE
  5
9864
330
1F
100
AcDbEntity
  8
NOSNÉ KONSTRUKCE
  6
DASHED
 48
0.5
100
AcDbLine
 10
3031.840349349401
 20
-1619.099804220825
 30
0.0
 11
3031.840349349401
 21
-1648.099747710633
 31
0.0
  0
LINE
  5
9865
330
1F
100
AcDbEntity
  8
SPOJOVACÍ
  6
Continuous
100
AcDbLine
 10
2999.961573274772
 20
-1628.82383963846
 30
0.0
 11
3000.229463903083
 21
-1630.968825023444
 31
0.0
  0
LINE
  5
9866
330
1F
100
AcDbEntity
  8
SPOJOVACÍ
  6
Continuous
100
AcDbLine
 10
2998.782110364841
 20
-1631.448795734138
 30
0.0
 11
2999.072325209995
 21
-1629.128007123783
 31
0.0
  0
LINE
  5
9867
330
1F
100
AcDbEntity
  8
SPOJOVACÍ
  6
Continuous
100
AcDbLine
 10
2998.119825195312
 20
-1655.37105685011
 30
0.0
 11
2998.185867677234
 21
-1654.584128126987
 31
0.0
  0
LINE
  5
9868
330
1F
100
AcDbEntity
  8
SPOJOVACÍ
  6
Continuous
100
AcDbLine
 10
2998.185867677234
 20
-1654.584128126987
 30
0.0
 11
2998.185867677234
 21
-1650.546234997307
 31
0.0
  0
LINE
  5
9869
330
1F
100
AcDbEntity
  8
SPOJOVACÍ
  6
Continuous
100
AcDbLine
 10
2997.513350578806
 20
-1650.762035781952
 30
0.0
 11
3001.557754938398
 21
-1649.402118768686
 31
0.0
  0
LINE
  5
986A
330
1F
100
AcDbEntity
  8
SPOJOVACÍ
  6
Continuous
100
AcDbLine
 10
2997.135699203495
 20
-1650.383454233122
 30
0.0
 11
2997.513350578806
 21
-1650.762035781952
 31
0.0
  0
LINE
  5
986B
330
1F
100
AcDbEntity
  8
SPOJOVACÍ
  6
Continuous
100
AcDbLine
 10
2997.135699203495
 20
-1650.383454233122
 30
0.0
 11
2997.513350578806
 21
-1650.165793097074
 31
0.0
  0
LINE
  5
986C
330
1F
100
AcDbEntity
  8
SPOJOVACÍ
  6
Continuous
100
AcDbLine
 10
2997.513350578806
 20
-1650.165793097074
 30
0.0
 11
3001.557754938398
 21
-1648.805876083532
 31
0.0
  0
LINE
  5
986D
330
1F
100
AcDbEntity
  8
SPOJOVACÍ
  6
Continuous
100
AcDbLine
 10
2998.185867677234
 20
-1649.950922488131
 30
0.0
 11
2998.185867677234
 21
-1647.432006433102
 31
0.0
  0
LINE
  5
986E
330
1F
100
AcDbEntity
  8
SPOJOVACÍ
  6
Continuous
100
AcDbLine
 10
2994.435398867786
 20
-1661.183725398075
 30
0.0
 11
2994.435398867786
 21
-1659.983798621344
 31
0.0
  0
LINE
  5
986F
330
1F
100
AcDbEntity
  8
SPOJOVACÍ
  6
Continuous
100
AcDbLine
 10
2994.435398867786
 20
-1659.983798621344
 30
0.0
 11
2995.785083951336
 21
-1659.23965798487
 31
0.0
  0
LINE
  5
9870
330
1F
100
AcDbEntity
  8
SPOJOVACÍ
  6
Continuous
100
AcDbLine
 10
2995.785083951336
 20
-1659.23965798487
 30
0.0
 11
2996.895713851695
 21
-1658.170885995457
 31
0.0
  0
LINE
  5
9871
330
1F
100
AcDbEntity
  8
SPOJOVACÍ
  6
Continuous
100
AcDbLine
 10
2996.895713851695
 20
-1658.170885995457
 30
0.0
 11
2997.691944331013
 21
-1656.85189671716
 31
0.0
  0
LINE
  5
9872
330
1F
100
AcDbEntity
  8
SPOJOVACÍ
  6
Continuous
100
AcDbLine
 10
2997.691944331013
 20
-1656.85189671716
 30
0.0
 11
2998.119825195312
 21
-1655.37105685011
 31
0.0
  0
LINE
  5
9873
330
1F
100
AcDbEntity
  8
SPOJOVACÍ
  6
Continuous
100
AcDbLine
 10
3001.935406309344
 20
-1649.18352745666
 30
0.0
 11
3001.557754938398
 21
-1649.402118768686
 31
0.0
  0
LINE
  5
9874
330
1F
100
AcDbEntity
  8
SPOJOVACÍ
  6
Continuous
100
AcDbLine
 10
3000.88523783997
 20
-1654.584128126987
 30
0.0
 11
3000.88523783997
 21
-1649.641173948059
 31
0.0
  0
LINE
  5
9875
330
1F
100
AcDbEntity
  8
SPOJOVACÍ
  6
Continuous
100
AcDbLine
 10
3000.88523783997
 20
-1654.584128126987
 30
0.0
 11
3001.112200730854
 21
-1656.107756080416
 31
0.0
  0
LINE
  5
9876
330
1F
100
AcDbEntity
  8
SPOJOVACÍ
  6
Continuous
100
AcDbLine
 10
3001.112200730854
 20
-1656.107756080416
 30
0.0
 11
3001.725186580001
 21
-1657.52162329012
 31
0.0
  0
LINE
  5
9877
330
1F
100
AcDbEntity
  8
SPOJOVACÍ
  6
Continuous
100
AcDbLine
 10
3001.725186580001
 20
-1657.52162329012
 30
0.0
 11
3002.683267649986
 21
-1658.728991473019
 31
0.0
  0
LINE
  5
9878
330
1F
100
AcDbEntity
  8
SPOJOVACÍ
  6
Continuous
100
AcDbLine
 10
3002.683267649986
 20
-1658.728991473019
 30
0.0
 11
3003.920401458886
 21
-1659.64707498346
 31
0.0
  0
LINE
  5
9879
330
1F
100
AcDbEntity
  8
SPOJOVACÍ
  6
Continuous
100
AcDbLine
 10
3003.920401458886
 20
-1659.64707498346
 30
0.0
 11
3004.635706645053
 21
-1659.983798621344
 31
0.0
  0
LINE
  5
987A
330
1F
100
AcDbEntity
  8
SPOJOVACÍ
  6
Continuous
100
AcDbLine
 10
3004.635706645053
 20
-1661.183725398075
 30
0.0
 11
3004.635706645053
 21
-1659.983798621344
 31
0.0
  0
LINE
  5
987B
330
1F
100
AcDbEntity
  8
SPOJOVACÍ
  6
Continuous
100
AcDbLine
 10
2997.513350578806
 20
-1638.281867130119
 30
0.0
 11
3001.557754938398
 21
-1636.921950116577
 31
0.0
  0
LINE
  5
987C
330
1F
100
AcDbEntity
  8
SPOJOVACÍ
  6
Continuous
100
AcDbLine
 10
2997.513350578806
 20
-1637.685624444964
 30
0.0
 11
3001.557754938398
 21
-1636.325707431422
 31
0.0
  0
LINE
  5
987D
330
1F
100
AcDbEntity
  8
SPOJOVACÍ
  6
Continuous
100
AcDbLine
 10
3001.935406309344
 20
-1636.70335880455
 30
0.0
 11
3001.557754938398
 21
-1636.921950116577
 31
0.0
  0
LINE
  5
987E
330
1F
100
AcDbEntity
  8
SPOJOVACÍ
  6
Continuous
100
AcDbLine
 10
3001.935406309344
 20
-1636.70335880455
 30
0.0
 11
3001.557754938398
 21
-1636.325707431422
 31
0.0
  0
LINE
  5
987F
330
1F
100
AcDbEntity
  8
SPOJOVACÍ
  6
Continuous
100
AcDbLine
 10
2997.135699203495
 20
-1637.903285581012
 30
0.0
 11
2997.513350578806
 21
-1638.281867130119
 31
0.0
  0
LINE
  5
9880
330
1F
100
AcDbEntity
  8
SPOJOVACÍ
  6
Continuous
100
AcDbLine
 10
2997.135699203495
 20
-1637.903285581012
 30
0.0
 11
2997.513350578806
 21
-1637.685624444964
 31
0.0
  0
LINE
  5
9881
330
1F
100
AcDbEntity
  8
SPOJOVACÍ
  6
Continuous
100
AcDbLine
 10
2997.135699203495
 20
-1637.903285581012
 30
0.0
 11
3001.935406309344
 21
-1636.70335880455
 31
0.0
  0
LINE
  5
9882
330
1F
100
AcDbEntity
  8
SPOJOVACÍ
  6
Continuous
100
AcDbLine
 10
2997.513350578806
 20
-1641.401676749081
 30
0.0
 11
3001.557754938398
 21
-1640.041759735539
 31
0.0
  0
LINE
  5
9883
330
1F
100
AcDbEntity
  8
SPOJOVACÍ
  6
Continuous
100
AcDbLine
 10
2997.513350578806
 20
-1640.805434063933
 30
0.0
 11
3001.557754938398
 21
-1639.44551705066
 31
0.0
  0
LINE
  5
9884
330
1F
100
AcDbEntity
  8
SPOJOVACÍ
  6
Continuous
100
AcDbLine
 10
3001.935406309344
 20
-1639.82409859949
 30
0.0
 11
3001.557754938398
 21
-1640.041759735539
 31
0.0
  0
LINE
  5
9885
330
1F
100
AcDbEntity
  8
SPOJOVACÍ
  6
Continuous
100
AcDbLine
 10
3001.935406309344
 20
-1639.82409859949
 30
0.0
 11
3001.557754938398
 21
-1639.44551705066
 31
0.0
  0
LINE
  5
9886
330
1F
100
AcDbEntity
  8
SPOJOVACÍ
  6
Continuous
100
AcDbLine
 10
2997.135699203495
 20
-1641.024025375952
 30
0.0
 11
2997.513350578806
 21
-1641.401676749081
 31
0.0
  0
LINE
  5
9887
330
1F
100
AcDbEntity
  8
SPOJOVACÍ
  6
Continuous
100
AcDbLine
 10
2997.135699203495
 20
-1641.024025375952
 30
0.0
 11
2997.513350578806
 21
-1640.805434063933
 31
0.0
  0
LINE
  5
9888
330
1F
100
AcDbEntity
  8
SPOJOVACÍ
  6
Continuous
100
AcDbLine
 10
2997.135699203495
 20
-1641.024025375952
 30
0.0
 11
3001.935406309344
 21
-1639.82409859949
 31
0.0
  0
LINE
  5
9889
330
1F
100
AcDbEntity
  8
SPOJOVACÍ
  6
Continuous
100
AcDbLine
 10
2997.513350578806
 20
-1644.52148636805
 30
0.0
 11
3001.557754938398
 21
-1643.161569354777
 31
0.0
  0
LINE
  5
988A
330
1F
100
AcDbEntity
  8
SPOJOVACÍ
  6
Continuous
100
AcDbLine
 10
2997.513350578806
 20
-1643.925243682895
 30
0.0
 11
3001.557754938398
 21
-1642.56532666963
 31
0.0
  0
LINE
  5
988B
330
1F
100
AcDbEntity
  8
SPOJOVACÍ
  6
Continuous
100
AcDbLine
 10
3001.935406309344
 20
-1642.94390821846
 30
0.0
 11
3001.557754938398
 21
-1643.161569354777
 31
0.0
  0
LINE
  5
988C
330
1F
100
AcDbEntity
  8
SPOJOVACÍ
  6
Continuous
100
AcDbLine
 10
3001.935406309344
 20
-1642.94390821846
 30
0.0
 11
3001.557754938398
 21
-1642.56532666963
 31
0.0
  0
LINE
  5
988D
330
1F
100
AcDbEntity
  8
SPOJOVACÍ
  6
Continuous
100
AcDbLine
 10
2997.135699203495
 20
-1644.143834994922
 30
0.0
 11
2997.513350578806
 21
-1644.52148636805
 31
0.0
  0
LINE
  5
988E
330
1F
100
AcDbEntity
  8
SPOJOVACÍ
  6
Continuous
100
AcDbLine
 10
2997.135699203495
 20
-1644.143834994922
 30
0.0
 11
2997.513350578806
 21
-1643.925243682895
 31
0.0
  0
LINE
  5
988F
330
1F
100
AcDbEntity
  8
SPOJOVACÍ
  6
Continuous
100
AcDbLine
 10
2997.135699203495
 20
-1644.143834994922
 30
0.0
 11
3001.935406309344
 21
-1642.94390821846
 31
0.0
  0
LINE
  5
9890
330
1F
100
AcDbEntity
  8
SPOJOVACÍ
  6
Continuous
100
AcDbLine
 10
2997.954253904022
 20
-1631.811564294401
 30
0.0
 11
3001.070342820453
 21
-1631.178114577631
 31
0.0
  0
LINE
  5
9891
330
1F
100
AcDbEntity
  8
SPOJOVACÍ
  6
Continuous
100
AcDbLine
 10
2998.331905279333
 20
-1632.190145843507
 30
0.0
 11
3000.692691449508
 21
-1631.395775713679
 31
0.0
  0
LINE
  5
9892
330
1F
100
AcDbEntity
  8
SPOJOVACÍ
  6
Continuous
100
AcDbLine
 10
2998.331905279333
 20
-1631.593903158353
 30
0.0
 11
3000.692691449508
 21
-1630.799533028801
 31
0.0
  0
LINE
  5
9893
330
1F
100
AcDbEntity
  8
SPOJOVACÍ
  6
Continuous
100
AcDbLine
 10
3001.070342820453
 20
-1631.178114577631
 30
0.0
 11
3000.692691449508
 21
-1631.395775713679
 31
0.0
  0
LINE
  5
9894
330
1F
100
AcDbEntity
  8
SPOJOVACÍ
  6
Continuous
100
AcDbLine
 10
3001.070342820453
 20
-1631.178114577631
 30
0.0
 11
3000.692691449508
 21
-1630.799533028801
 31
0.0
  0
LINE
  5
9895
330
1F
100
AcDbEntity
  8
SPOJOVACÍ
  6
Continuous
100
AcDbLine
 10
2997.954253904022
 20
-1631.811564294401
 30
0.0
 11
2998.331905279333
 21
-1632.190145843507
 31
0.0
  0
LINE
  5
9896
330
1F
100
AcDbEntity
  8
SPOJOVACÍ
  6
Continuous
100
AcDbLine
 10
2997.954253904022
 20
-1631.811564294401
 30
0.0
 11
2998.331905279333
 21
-1631.593903158353
 31
0.0
  0
LINE
  5
9897
330
1F
100
AcDbEntity
  8
SPOJOVACÍ
  6
Continuous
100
AcDbLine
 10
2997.389637197916
 20
-1634.826264048699
 30
0.0
 11
3001.514966850659
 21
-1633.853300166394
 31
0.0
  0
LINE
  5
9898
330
1F
100
AcDbEntity
  8
SPOJOVACÍ
  6
Continuous
100
AcDbLine
 10
2997.7682187462
 20
-1635.203915421827
 30
0.0
 11
3001.137315479713
 21
-1634.070961302443
 31
0.0
  0
LINE
  5
9899
330
1F
100
AcDbEntity
  8
SPOJOVACÍ
  6
Continuous
100
AcDbLine
 10
2997.7682187462
 20
-1634.607672736672
 30
0.0
 11
3001.137315479713
 21
-1633.474718617287
 31
0.0
  0
LINE
  5
989A
330
1F
100
AcDbEntity
  8
SPOJOVACÍ
  6
Continuous
100
AcDbLine
 10
3001.514966850659
 20
-1633.853300166394
 30
0.0
 11
3001.137315479713
 21
-1634.070961302443
 31
0.0
  0
LINE
  5
989B
330
1F
100
AcDbEntity
  8
SPOJOVACÍ
  6
Continuous
100
AcDbLine
 10
3001.514966850659
 20
-1633.853300166394
 30
0.0
 11
3001.137315479713
 21
-1633.474718617287
 31
0.0
  0
LINE
  5
989C
330
1F
100
AcDbEntity
  8
SPOJOVACÍ
  6
Continuous
100
AcDbLine
 10
2997.389637197916
 20
-1634.826264048699
 30
0.0
 11
2997.7682187462
 21
-1635.203915421827
 31
0.0
  0
LINE
  5
989D
330
1F
100
AcDbEntity
  8
SPOJOVACÍ
  6
Continuous
100
AcDbLine
 10
2997.389637197916
 20
-1634.826264048699
 30
0.0
 11
2997.7682187462
 21
-1634.607672736672
 31
0.0
  0
LINE
  5
989E
330
1F
100
AcDbEntity
  8
SPOJOVACÍ
  6
Continuous
100
AcDbLine
 10
2997.513350578806
 20
-1647.641295987289
 30
0.0
 11
3001.557754938398
 21
-1646.282309149448
 31
0.0
  0
LINE
  5
989F
330
1F
100
AcDbEntity
  8
SPOJOVACÍ
  6
Continuous
100
AcDbLine
 10
2997.513350578806
 20
-1647.045053302133
 30
0.0
 11
3001.557754938398
 21
-1645.68606646457
 31
0.0
  0
LINE
  5
98A0
330
1F
100
AcDbEntity
  8
SPOJOVACÍ
  6
Continuous
100
AcDbLine
 10
3001.935406309344
 20
-1646.063717837421
 30
0.0
 11
3001.557754938398
 21
-1646.282309149448
 31
0.0
  0
LINE
  5
98A1
330
1F
100
AcDbEntity
  8
SPOJOVACÍ
  6
Continuous
100
AcDbLine
 10
3001.935406309344
 20
-1646.063717837421
 30
0.0
 11
3001.557754938398
 21
-1645.68606646457
 31
0.0
  0
LINE
  5
98A2
330
1F
100
AcDbEntity
  8
SPOJOVACÍ
  6
Continuous
100
AcDbLine
 10
2997.135699203495
 20
-1647.26364461416
 30
0.0
 11
2997.513350578806
 21
-1647.641295987289
 31
0.0
  0
LINE
  5
98A3
330
1F
100
AcDbEntity
  8
SPOJOVACÍ
  6
Continuous
100
AcDbLine
 10
2997.135699203495
 20
-1647.26364461416
 30
0.0
 11
2997.513350578806
 21
-1647.045053302133
 31
0.0
  0
LINE
  5
98A4
330
1F
100
AcDbEntity
  8
SPOJOVACÍ
  6
Continuous
100
AcDbLine
 10
2997.135699203495
 20
-1647.26364461416
 30
0.0
 11
3001.935406309344
 21
-1646.063717837421
 31
0.0
  0
LINE
  5
98A5
330
1F
100
AcDbEntity
  8
SPOJOVACÍ
  6
Continuous
100
AcDbLine
 10
3001.935406309344
 20
-1649.18352745666
 30
0.0
 11
3001.557754938398
 21
-1648.805876083532
 31
0.0
  0
LINE
  5
98A6
330
1F
100
AcDbEntity
  8
SPOJOVACÍ
  6
Continuous
100
AcDbLine
 10
2997.135699203495
 20
-1650.383454233122
 30
0.0
 11
3001.935406309344
 21
-1649.18352745666
 31
0.0
  0
LINE
  5
98A7
330
1F
100
AcDbEntity
  8
SPOJOVACÍ
  6
Continuous
100
AcDbLine
 10
3000.639671428503
 20
-1634.247694703792
 30
0.0
 11
3000.88523783997
 21
-1636.218737215078
 31
0.0
  0
LINE
  5
98A8
330
1F
100
AcDbEntity
  8
SPOJOVACÍ
  6
Continuous
100
AcDbLine
 10
3000.301087435941
 20
-1631.540883137893
 30
0.0
 11
3000.568047891279
 21
-1633.677496940747
 31
0.0
  0
LINE
  5
98A9
330
1F
100
AcDbEntity
  8
SPOJOVACÍ
  6
Continuous
100
AcDbLine
 10
2998.412830572483
 20
-1634.401173709868
 30
0.0
 11
2998.703045422002
 21
-1632.079454923803
 31
0.0
  0
LINE
  5
98AA
330
1F
100
AcDbEntity
  8
SPOJOVACÍ
  6
Continuous
100
AcDbLine
 10
2998.185867677234
 20
-1636.218737215078
 30
0.0
 11
2998.335625979957
 21
-1635.021600965721
 31
0.0
  0
LINE
  5
98AB
330
1F
100
AcDbEntity
  8
SPOJOVACÍ
  6
Continuous
100
AcDbLine
 10
3000.88523783997
 20
-1636.555460852962
 30
0.0
 11
3000.88523783997
 21
-1636.218737215078
 31
0.0
  0
LINE
  5
98AC
330
1F
100
AcDbEntity
  8
SPOJOVACÍ
  6
Continuous
100
AcDbLine
 10
3000.88523783997
 20
-1639.678060999574
 30
0.0
 11
3000.88523783997
 21
-1637.159144944546
 31
0.0
  0
LINE
  5
98AD
330
1F
100
AcDbEntity
  8
SPOJOVACÍ
  6
Continuous
100
AcDbLine
 10
2998.185867677234
 20
-1637.466102956967
 30
0.0
 11
2998.185867677234
 21
-1636.218737215078
 31
0.0
  0
LINE
  5
98AE
330
1F
100
AcDbEntity
  8
SPOJOVACÍ
  6
Continuous
100
AcDbLine
 10
2998.185867677234
 20
-1640.580331521448
 30
0.0
 11
2998.185867677234
 21
-1638.062345642121
 31
0.0
  0
LINE
  5
98AF
330
1F
100
AcDbEntity
  8
SPOJOVACÍ
  6
Continuous
100
AcDbLine
 10
3000.88523783997
 20
-1642.799730970216
 30
0.0
 11
3000.88523783997
 21
-1640.278954563507
 31
0.0
  0
LINE
  5
98B0
330
1F
100
AcDbEntity
  8
SPOJOVACÍ
  6
Continuous
100
AcDbLine
 10
3000.88523783997
 20
-1645.92233111656
 30
0.0
 11
3000.88523783997
 21
-1643.394113303691
 31
0.0
  0
LINE
  5
98B1
330
1F
100
AcDbEntity
  8
SPOJOVACÍ
  6
Continuous
100
AcDbLine
 10
3000.88523783997
 20
-1649.037489856744
 30
0.0
 11
3000.88523783997
 21
-1646.518573801715
 31
0.0
  0
LINE
  5
98B2
330
1F
100
AcDbEntity
  8
SPOJOVACÍ
  6
Continuous
100
AcDbLine
 10
2998.185867677234
 20
-1643.713163601603
 30
0.0
 11
2998.185867677234
 21
-1641.184945788734
 31
0.0
  0
LINE
  5
98B3
330
1F
100
AcDbEntity
  8
SPOJOVACÍ
  6
Continuous
100
AcDbLine
 10
2998.185867677234
 20
-1646.828322341787
 30
0.0
 11
2998.185867677234
 21
-1644.307545935078
 31
0.0
  0
LINE
  5
98B4
330
1F
100
AcDbEntity
  8
SPOJOVACÍ
  6
Continuous
100
AcDbLine
 10
2994.435398867786
 20
-1659.983798621344
 30
0.0
 11
3004.635706645053
 21
-1659.983798621344
 31
0.0
  0
LINE
  5
98B5
330
1F
100
AcDbEntity
  8
SPOJOVACÍ
  6
Continuous
100
AcDbLine
 10
2994.435398867786
 20
-1661.183725398075
 30
0.0
 11
3004.635706645053
 21
-1661.183725398075
 31
0.0
  0
LINE
  5
98B6
330
1F
100
AcDbEntity
  8
SPOJOVACÍ
  6
Continuous
100
AcDbLine
 10
2998.518870614493
 20
-1628.797794716081
 30
0.0
 11
3000.67315775595
 21
-1628.487116000307
 31
0.0
  0
LINE
  5
98B7
330
1F
100
AcDbEntity
  8
SPOJOVACÍ
  6
Continuous
100
AcDbLine
 10
2998.896521985439
 20
-1629.175446089209
 30
0.0
 11
3000.295506385004
 21
-1628.704777136625
 31
0.0
  0
LINE
  5
98B8
330
1F
100
AcDbEntity
  8
SPOJOVACÍ
  6
Continuous
100
AcDbLine
 10
2998.896521985439
 20
-1628.579203404062
 30
0.0
 11
3000.295506385004
 21
-1628.108534451477
 31
0.0
  0
LINE
  5
98B9
330
1F
100
AcDbEntity
  8
SPOJOVACÍ
  6
Continuous
100
AcDbLine
 10
3000.67315775595
 20
-1628.487116000307
 30
0.0
 11
3000.295506385004
 21
-1628.704777136625
 31
0.0
  0
LINE
  5
98BA
330
1F
100
AcDbEntity
  8
SPOJOVACÍ
  6
Continuous
100
AcDbLine
 10
3000.67315775595
 20
-1628.487116000307
 30
0.0
 11
3000.295506385004
 21
-1628.108534451477
 31
0.0
  0
LINE
  5
98BB
330
1F
100
AcDbEntity
  8
SPOJOVACÍ
  6
Continuous
100
AcDbLine
 10
2998.518870614493
 20
-1628.797794716081
 30
0.0
 11
2998.896521985439
 21
-1629.175446089209
 31
0.0
  0
LINE
  5
98BC
330
1F
100
AcDbEntity
  8
SPOJOVACÍ
  6
Continuous
100
AcDbLine
 10
2998.518870614493
 20
-1628.797794716081
 30
0.0
 11
2998.896521985439
 21
-1628.579203404062
 31
0.0
  0
LINE
  5
98BD
330
1F
100
AcDbEntity
  8
SPOJOVACÍ
  6
Continuous
100
AcDbLine
 10
2999.149529802521
 20
-1628.50757986793
 30
0.0
 11
2999.53555275642
 21
-1625.418466050125
 31
0.0
  0
LINE
  5
98BE
330
1F
100
AcDbEntity
  8
SPOJOVACÍ
  6
Continuous
100
AcDbLine
 10
2999.53555275642
 20
-1625.418466050125
 30
0.0
 11
2999.889949737548
 21
-1628.254572051393
 31
0.0
  0
LINE
  5
98BF
330
1F
100
AcDbEntity
  8
NOSNÉ KONSTRUKCE
100
AcDbLine
 10
3009.641929948741
 20
-1619.099804220825
 30
0.0
 11
2989.453078653538
 21
-1619.099804220825
 31
0.0
  0
LINE
  5
98C0
330
1F
100
AcDbEntity
  8
NOSNÉ KONSTRUKCE
100
AcDbLine
 10
3031.840349349401
 20
-1587.933303331783
 30
0.0
 11
3031.840349349401
 21
-1619.099804220825
 31
0.0
  0
LINE
  5
98C1
330
1F
100
AcDbEntity
  8
SPOJOVACÍ
  6
Continuous
100
AcDbLine
 10
3032.836513713683
 20
-1600.673987907956
 30
0.0
 11
3032.618225880954
 21
-1600.210277014919
 31
0.0
  0
LINE
  5
98C2
330
1F
100
AcDbEntity
  8
SPOJOVACÍ
  6
Continuous
100
AcDbLine
 10
3032.618225880954
 20
-1606.822830537688
 30
0.0
 11
3032.618225880954
 21
-1600.210277014919
 31
0.0
  0
LINE
  5
98C3
330
1F
100
AcDbEntity
  8
SPOJOVACÍ
  6
Continuous
100
AcDbLine
 10
3031.840349349401
 20
-1606.822830537688
 30
0.0
 11
3032.618225880954
 21
-1606.822830537688
 31
0.0
  0
LINE
  5
98C4
330
1F
100
AcDbEntity
  8
SPOJOVACÍ
  6
Continuous
100
AcDbLine
 10
3031.840349349401
 20
-1606.822830537688
 30
0.0
 11
3031.840349349401
 21
-1600.210277014919
 31
0.0
  0
LINE
  5
98C5
330
1F
100
AcDbEntity
  8
SPOJOVACÍ
  6
Continuous
100
AcDbLine
 10
3031.840349349401
 20
-1600.210277014919
 30
0.0
 11
3032.618225880954
 21
-1600.210277014919
 31
0.0
  0
LINE
  5
98C6
330
1F
100
AcDbEntity
  8
NOSNÉ KONSTRUKCE
  6
DASHED
 48
0.5
100
AcDbLine
 10
3033.340349349401
 20
-1619.099804220825
 30
0.0
 11
3033.340349349401
 21
-1648.099747710633
 31
0.0
  0
LINE
  5
98C7
330
1F
100
AcDbEntity
  8
0
100
AcDbLine
 10
3079.105598298517
 20
-1585.493332606015
 30
0.0
 11
3050.553048734819
 21
-1585.493332606014
 31
0.0
  0
LINE
  5
98C8
330
1F
100
AcDbEntity
  8
0
100
AcDbLine
 10
3081.105598298517
 20
-1587.493332606014
 30
0.0
 11
3050.553048734819
 21
-1587.493332606014
 31
0.0
  0
LINE
  5
98C9
330
1F
100
AcDbEntity
  8
NOSNÉ KONSTRUKCE
100
AcDbLine
 10
3033.340349349401
 20
-1589.433303331783
 30
0.0
 11
3033.340349349401
 21
-1619.099804220825
 31
0.0
  0
INSERT
  5
98CA
330
1F
100
AcDbEntity
  8
0
100
AcDbBlockReference
  2
E_PUNKT
 10
3049.431336422557
 20
-1615.126205973969
 30
0.0
 41
-1.0
  0
LINE
  5
98CB
330
1F
100
AcDbEntity
  8
SPOJOVACÍ
  6
Continuous
100
AcDbLine
 10
3046.686937008763
 20
-1604.827486781985
 30
0.0
 11
3047.568530411129
 21
-1602.205620767792
 31
0.0
  0
LINE
  5
98CC
330
1F
100
AcDbEntity
  8
SPOJOVACÍ
  6
Continuous
100
AcDbLine
 10
3047.073463254271
 20
-1604.827486781985
 30
0.0
 11
3047.955056656651
 21
-1602.205620767792
 31
0.0
  0
LINE
  5
98CD
330
1F
100
AcDbEntity
  8
SPOJOVACÍ
  6
Continuous
100
AcDbLine
 10
3047.71023660099
 20
-1601.960800713549
 30
0.0
 11
3047.568530411129
 21
-1602.205620767792
 31
0.0
  0
LINE
  5
98CE
330
1F
100
AcDbEntity
  8
SPOJOVACÍ
  6
Continuous
100
AcDbLine
 10
3047.71023660099
 20
-1601.960800713549
 30
0.0
 11
3047.955056656651
 21
-1602.205620767792
 31
0.0
  0
LINE
  5
98CF
330
1F
100
AcDbEntity
  8
SPOJOVACÍ
  6
Continuous
100
AcDbLine
 10
3046.932360069612
 20
-1605.072306839058
 30
0.0
 11
3046.686937008763
 21
-1604.827486781985
 31
0.0
  0
LINE
  5
98D0
330
1F
100
AcDbEntity
  8
SPOJOVACÍ
  6
Continuous
100
AcDbLine
 10
3046.932360069612
 20
-1605.072306839058
 30
0.0
 11
3047.073463254271
 21
-1604.827486781985
 31
0.0
  0
LINE
  5
98D1
330
1F
100
AcDbEntity
  8
SPOJOVACÍ
  6
Continuous
100
AcDbLine
 10
3046.932360069612
 20
-1605.072306839058
 30
0.0
 11
3047.71023660099
 21
-1601.960800713549
 31
0.0
  0
LINE
  5
98D2
330
1F
100
AcDbEntity
  8
SPOJOVACÍ
  6
Continuous
100
AcDbLine
 10
3044.664458027085
 20
-1604.827486781985
 30
0.0
 11
3045.546051429451
 21
-1602.205620767792
 31
0.0
  0
LINE
  5
98D3
330
1F
100
AcDbEntity
  8
SPOJOVACÍ
  6
Continuous
100
AcDbLine
 10
3045.050984272585
 20
-1604.827486781985
 30
0.0
 11
3045.932577674784
 21
-1602.205620767792
 31
0.0
  0
LINE
  5
98D4
330
1F
100
AcDbEntity
  8
SPOJOVACÍ
  6
Continuous
100
AcDbLine
 10
3045.687154614116
 20
-1601.960800713549
 30
0.0
 11
3045.546051429451
 21
-1602.205620767792
 31
0.0
  0
LINE
  5
98D5
330
1F
100
AcDbEntity
  8
SPOJOVACÍ
  6
Continuous
100
AcDbLine
 10
3045.687154614116
 20
-1601.960800713549
 30
0.0
 11
3045.932577674784
 21
-1602.205620767792
 31
0.0
  0
LINE
  5
98D6
330
1F
100
AcDbEntity
  8
SPOJOVACÍ
  6
Continuous
100
AcDbLine
 10
3044.909278082746
 20
-1605.072306839058
 30
0.0
 11
3044.664458027085
 21
-1604.827486781985
 31
0.0
  0
LINE
  5
98D7
330
1F
100
AcDbEntity
  8
SPOJOVACÍ
  6
Continuous
100
AcDbLine
 10
3044.909278082746
 20
-1605.072306839058
 30
0.0
 11
3045.050984272585
 21
-1604.827486781985
 31
0.0
  0
LINE
  5
98D8
330
1F
100
AcDbEntity
  8
SPOJOVACÍ
  6
Continuous
100
AcDbLine
 10
3044.909278082746
 20
-1605.072306839058
 30
0.0
 11
3045.687154614116
 21
-1601.960800713549
 31
0.0
  0
LINE
  5
98D9
330
1F
100
AcDbEntity
  8
SPOJOVACÍ
  6
Continuous
100
AcDbLine
 10
3042.641979045399
 20
-1604.827486781985
 30
0.0
 11
3043.523572447583
 21
-1602.205620767792
 31
0.0
  0
LINE
  5
98DA
330
1F
100
AcDbEntity
  8
SPOJOVACÍ
  6
Continuous
100
AcDbLine
 10
3043.028505290906
 20
-1604.827486781985
 30
0.0
 11
3043.910098693098
 21
-1602.205620767792
 31
0.0
  0
LINE
  5
98DB
330
1F
100
AcDbEntity
  8
SPOJOVACÍ
  6
Continuous
100
AcDbLine
 10
3043.664675632431
 20
-1601.960800713549
 30
0.0
 11
3043.523572447583
 21
-1602.205620767792
 31
0.0
  0
LINE
  5
98DC
330
1F
100
AcDbEntity
  8
SPOJOVACÍ
  6
Continuous
100
AcDbLine
 10
3043.664675632431
 20
-1601.960800713549
 30
0.0
 11
3043.910098693098
 21
-1602.205620767792
 31
0.0
  0
LINE
  5
98DD
330
1F
100
AcDbEntity
  8
SPOJOVACÍ
  6
Continuous
100
AcDbLine
 10
3042.886799101053
 20
-1605.072306839058
 30
0.0
 11
3042.641979045399
 21
-1604.827486781985
 31
0.0
  0
LINE
  5
98DE
330
1F
100
AcDbEntity
  8
SPOJOVACÍ
  6
Continuous
100
AcDbLine
 10
3042.886799101053
 20
-1605.072306839058
 30
0.0
 11
3043.028505290906
 21
-1604.827486781985
 31
0.0
  0
LINE
  5
98DF
330
1F
100
AcDbEntity
  8
SPOJOVACÍ
  6
Continuous
100
AcDbLine
 10
3042.886799101053
 20
-1605.072306839058
 30
0.0
 11
3043.664675632431
 21
-1601.960800713549
 31
0.0
  0
LINE
  5
98E0
330
1F
100
AcDbEntity
  8
SPOJOVACÍ
  6
Continuous
100
AcDbLine
 10
3052.83517663262
 20
-1604.17563830845
 30
0.0
 11
3053.03658032369
 21
-1602.779078583258
 31
0.0
  0
LINE
  5
98E1
330
1F
100
AcDbEntity
  8
SPOJOVACÍ
  6
Continuous
100
AcDbLine
 10
3052.590356576959
 20
-1603.930818254208
 30
0.0
 11
3052.895477138857
 21
-1603.023898637501
 31
0.0
  0
LINE
  5
98E2
330
1F
100
AcDbEntity
  8
SPOJOVACÍ
  6
Continuous
100
AcDbLine
 10
3052.976882822459
 20
-1603.930818254208
 30
0.0
 11
3053.282003384349
 21
-1603.023898637501
 31
0.0
  0
LINE
  5
98E3
330
1F
100
AcDbEntity
  8
SPOJOVACÍ
  6
Continuous
100
AcDbLine
 10
3053.03658032369
 20
-1602.779078583258
 30
0.0
 11
3052.895477138857
 21
-1603.023898637501
 31
0.0
  0
LINE
  5
98E4
330
1F
100
AcDbEntity
  8
SPOJOVACÍ
  6
Continuous
100
AcDbLine
 10
3053.03658032369
 20
-1602.779078583258
 30
0.0
 11
3053.282003384349
 21
-1603.023898637501
 31
0.0
  0
LINE
  5
98E5
330
1F
100
AcDbEntity
  8
SPOJOVACÍ
  6
Continuous
100
AcDbLine
 10
3052.83517663262
 20
-1604.17563830845
 30
0.0
 11
3052.590356576959
 21
-1603.930818254208
 31
0.0
  0
LINE
  5
98E6
330
1F
100
AcDbEntity
  8
SPOJOVACÍ
  6
Continuous
100
AcDbLine
 10
3052.83517663262
 20
-1604.17563830845
 30
0.0
 11
3052.976882822459
 21
-1603.930818254208
 31
0.0
  0
LINE
  5
98E7
330
1F
100
AcDbEntity
  8
SPOJOVACÍ
  6
Continuous
100
AcDbLine
 10
3050.881440228081
 20
-1604.541662383348
 30
0.0
 11
3051.292086675971
 21
-1602.521595421493
 31
0.0
  0
LINE
  5
98E8
330
1F
100
AcDbEntity
  8
SPOJOVACÍ
  6
Continuous
100
AcDbLine
 10
3050.636017167239
 20
-1604.296842326275
 30
0.0
 11
3051.150983491305
 21
-1602.766415475735
 31
0.0
  0
LINE
  5
98E9
330
1F
100
AcDbEntity
  8
SPOJOVACÍ
  6
Continuous
100
AcDbLine
 10
3051.022543412747
 20
-1604.296842326275
 30
0.0
 11
3051.537509736638
 21
-1602.766415475735
 31
0.0
  0
LINE
  5
98EA
330
1F
100
AcDbEntity
  8
SPOJOVACÍ
  6
Continuous
100
AcDbLine
 10
3051.292086675971
 20
-1602.521595421493
 30
0.0
 11
3051.150983491305
 21
-1602.766415475735
 31
0.0
  0
LINE
  5
98EB
330
1F
100
AcDbEntity
  8
SPOJOVACÍ
  6
Continuous
100
AcDbLine
 10
3051.292086675971
 20
-1602.521595421493
 30
0.0
 11
3051.537509736638
 21
-1602.766415475735
 31
0.0
  0
LINE
  5
98EC
330
1F
100
AcDbEntity
  8
SPOJOVACÍ
  6
Continuous
100
AcDbLine
 10
3050.881440228081
 20
-1604.541662383348
 30
0.0
 11
3050.636017167239
 21
-1604.296842326275
 31
0.0
  0
LINE
  5
98ED
330
1F
100
AcDbEntity
  8
SPOJOVACÍ
  6
Continuous
100
AcDbLine
 10
3050.881440228081
 20
-1604.541662383348
 30
0.0
 11
3051.022543412747
 21
-1604.296842326275
 31
0.0
  0
LINE
  5
98EE
330
1F
100
AcDbEntity
  8
SPOJOVACÍ
  6
Continuous
100
AcDbLine
 10
3048.927100818361
 20
-1604.907686455415
 30
0.0
 11
3049.557844114341
 21
-1602.233359001431
 31
0.0
  0
LINE
  5
98EF
330
1F
100
AcDbEntity
  8
SPOJOVACÍ
  6
Continuous
100
AcDbLine
 10
3048.682280762708
 20
-1604.662263395108
 30
0.0
 11
3049.416740929676
 21
-1602.478179055674
 31
0.0
  0
LINE
  5
98F0
330
1F
100
AcDbEntity
  8
SPOJOVACÍ
  6
Continuous
100
AcDbLine
 10
3049.068807008215
 20
-1604.662263395108
 30
0.0
 11
3049.803267175191
 21
-1602.478179055674
 31
0.0
  0
LINE
  5
98F1
330
1F
100
AcDbEntity
  8
SPOJOVACÍ
  6
Continuous
100
AcDbLine
 10
3049.557844114341
 20
-1602.233359001431
 30
0.0
 11
3049.416740929676
 21
-1602.478179055674
 31
0.0
  0
LINE
  5
98F2
330
1F
100
AcDbEntity
  8
SPOJOVACÍ
  6
Continuous
100
AcDbLine
 10
3049.557844114341
 20
-1602.233359001431
 30
0.0
 11
3049.803267175191
 21
-1602.478179055674
 31
0.0
  0
LINE
  5
98F3
330
1F
100
AcDbEntity
  8
SPOJOVACÍ
  6
Continuous
100
AcDbLine
 10
3048.927100818361
 20
-1604.907686455415
 30
0.0
 11
3048.682280762708
 21
-1604.662263395108
 31
0.0
  0
LINE
  5
98F4
330
1F
100
AcDbEntity
  8
SPOJOVACÍ
  6
Continuous
100
AcDbLine
 10
3048.927100818361
 20
-1604.907686455415
 30
0.0
 11
3049.068807008215
 21
-1604.662263395108
 31
0.0
  0
LINE
  5
98F5
330
1F
100
AcDbEntity
  8
SPOJOVACÍ
  6
Continuous
100
AcDbLine
 10
3040.619500063531
 20
-1604.827486781985
 30
0.0
 11
3041.500490460891
 21
-1602.205620767792
 31
0.0
  0
LINE
  5
98F6
330
1F
100
AcDbEntity
  8
SPOJOVACÍ
  6
Continuous
100
AcDbLine
 10
3041.006026309039
 20
-1604.827486781985
 30
0.0
 11
3041.887016706224
 21
-1602.205620767792
 31
0.0
  0
LINE
  5
98F7
330
1F
100
AcDbEntity
  8
SPOJOVACÍ
  6
Continuous
100
AcDbLine
 10
3041.642196650752
 20
-1601.960800713549
 30
0.0
 11
3041.500490460891
 21
-1602.205620767792
 31
0.0
  0
LINE
  5
98F8
330
1F
100
AcDbEntity
  8
SPOJOVACÍ
  6
Continuous
100
AcDbLine
 10
3041.642196650752
 20
-1601.960800713549
 30
0.0
 11
3041.887016706224
 21
-1602.205620767792
 31
0.0
  0
LINE
  5
98F9
330
1F
100
AcDbEntity
  8
SPOJOVACÍ
  6
Continuous
100
AcDbLine
 10
3040.864320119192
 20
-1605.072306839058
 30
0.0
 11
3040.619500063531
 21
-1604.827486781985
 31
0.0
  0
LINE
  5
98FA
330
1F
100
AcDbEntity
  8
SPOJOVACÍ
  6
Continuous
100
AcDbLine
 10
3040.864320119192
 20
-1605.072306839058
 30
0.0
 11
3041.006026309039
 21
-1604.827486781985
 31
0.0
  0
LINE
  5
98FB
330
1F
100
AcDbEntity
  8
SPOJOVACÍ
  6
Continuous
100
AcDbLine
 10
3040.864320119192
 20
-1605.072306839058
 30
0.0
 11
3041.642196650752
 21
-1601.960800713549
 31
0.0
  0
LINE
  5
98FC
330
1F
100
AcDbEntity
  8
SPOJOVACÍ
  6
Continuous
100
AcDbLine
 10
3038.596418076854
 20
-1604.827486781985
 30
0.0
 11
3039.478011479038
 21
-1602.205620767792
 31
0.0
  0
LINE
  5
98FD
330
1F
100
AcDbEntity
  8
SPOJOVACÍ
  6
Continuous
100
AcDbLine
 10
3038.982944322172
 20
-1604.827486781985
 30
0.0
 11
3039.864537724545
 21
-1602.205620767792
 31
0.0
  0
LINE
  5
98FE
330
1F
100
AcDbEntity
  8
SPOJOVACÍ
  6
Continuous
100
AcDbLine
 10
3039.619717668884
 20
-1601.960800713549
 30
0.0
 11
3039.478011479038
 21
-1602.205620767792
 31
0.0
  0
LINE
  5
98FF
330
1F
100
AcDbEntity
  8
SPOJOVACÍ
  6
Continuous
100
AcDbLine
 10
3039.619717668884
 20
-1601.960800713549
 30
0.0
 11
3039.864537724545
 21
-1602.205620767792
 31
0.0
  0
LINE
  5
9900
330
1F
100
AcDbEntity
  8
SPOJOVACÍ
  6
Continuous
100
AcDbLine
 10
3038.841841137507
 20
-1605.072306839058
 30
0.0
 11
3038.596418076854
 21
-1604.827486781985
 31
0.0
  0
LINE
  5
9901
330
1F
100
AcDbEntity
  8
SPOJOVACÍ
  6
Continuous
100
AcDbLine
 10
3038.841841137507
 20
-1605.072306839058
 30
0.0
 11
3038.982944322172
 21
-1604.827486781985
 31
0.0
  0
LINE
  5
9902
330
1F
100
AcDbEntity
  8
SPOJOVACÍ
  6
Continuous
100
AcDbLine
 10
3038.841841137507
 20
-1605.072306839058
 30
0.0
 11
3039.619717668884
 21
-1601.960800713549
 31
0.0
  0
LINE
  5
9903
330
1F
100
AcDbEntity
  8
SPOJOVACÍ
  6
Continuous
100
AcDbLine
 10
3049.302169967578
 20
-1602.800786764752
 30
0.0
 11
3048.024402238789
 21
-1602.641593427191
 31
0.0
  0
LINE
  5
9904
330
1F
100
AcDbEntity
  8
SPOJOVACÍ
  6
Continuous
100
AcDbLine
 10
3051.056914701407
 20
-1603.020280609611
 30
0.0
 11
3049.67181207144
 21
-1602.847218155228
 31
0.0
  0
LINE
  5
9905
330
1F
100
AcDbEntity
  8
SPOJOVACÍ
  6
Continuous
100
AcDbLine
 10
3052.818292490786
 20
-1603.240377454872
 30
0.0
 11
3051.42776281526
 21
-1603.066711997256
 31
0.0
  0
LINE
  5
9906
330
1F
100
AcDbEntity
  8
SPOJOVACÍ
  6
Continuous
100
AcDbLine
 10
3053.023314212235
 20
-1603.766800876627
 30
0.0
 11
3055.025894026895
 21
-1603.516553776304
 31
0.0
  0
LINE
  5
9907
330
1F
100
AcDbEntity
  8
SPOJOVACÍ
  6
Continuous
100
AcDbLine
 10
3051.116612202638
 20
-1604.004987875492
 30
0.0
 11
3052.62110983508
 21
-1603.816850297825
 31
0.0
  0
LINE
  5
9908
330
1F
100
AcDbEntity
  8
SPOJOVACÍ
  6
Continuous
100
AcDbLine
 10
3049.202674132318
 20
-1604.244380886484
 30
0.0
 11
3050.707774769752
 21
-1604.056243305985
 31
0.0
  0
LINE
  5
9909
330
1F
100
AcDbEntity
  8
SPOJOVACÍ
  6
Continuous
100
AcDbLine
 10
3055.025894026895
 20
-1603.516553776304
 30
0.0
 11
3053.187331589453
 21
-1603.286808845347
 31
0.0
  0
LINE
  5
990A
330
1F
100
AcDbEntity
  8
SPOJOVACÍ
  6
Continuous
100
AcDbLine
 10
3048.024402238789
 20
-1604.391514122588
 30
0.0
 11
3048.800469755163
 21
-1604.294430307681
 31
0.0
  0
LINE
  5
990B
330
1F
100
AcDbEntity
  8
SPOJOVACÍ
  6
Continuous
100
AcDbLine
 10
3047.80611440606
 20
-1602.641593427191
 30
0.0
 11
3048.024402238789
 21
-1602.641593427191
 31
0.0
  0
LINE
  5
990C
330
1F
100
AcDbEntity
  8
SPOJOVACÍ
  6
Continuous
100
AcDbLine
 10
3045.781826409021
 20
-1602.641593427191
 30
0.0
 11
3047.414764120008
 21
-1602.641593427191
 31
0.0
  0
LINE
  5
990D
330
1F
100
AcDbEntity
  8
SPOJOVACÍ
  6
Continuous
100
AcDbLine
 10
3047.215772449298
 20
-1604.391514122588
 30
0.0
 11
3048.024402238789
 21
-1604.391514122588
 31
0.0
  0
LINE
  5
990E
330
1F
100
AcDbEntity
  8
SPOJOVACÍ
  6
Continuous
100
AcDbLine
 10
3045.196911497795
 20
-1604.391514122588
 30
0.0
 11
3046.829246203798
 21
-1604.391514122588
 31
0.0
  0
LINE
  5
990F
330
1F
100
AcDbEntity
  8
SPOJOVACÍ
  6
Continuous
100
AcDbLine
 10
3043.758141417148
 20
-1602.641593427191
 30
0.0
 11
3045.392285138329
 21
-1602.641593427191
 31
0.0
  0
LINE
  5
9910
330
1F
100
AcDbEntity
  8
SPOJOVACÍ
  6
Continuous
100
AcDbLine
 10
3041.733853420276
 20
-1602.641593427191
 30
0.0
 11
3043.372821181828
 21
-1602.641593427191
 31
0.0
  0
LINE
  5
9911
330
1F
100
AcDbEntity
  8
SPOJOVACÍ
  6
Continuous
100
AcDbLine
 10
3039.714389463782
 20
-1602.641593427191
 30
0.0
 11
3041.347327174776
 21
-1602.641593427191
 31
0.0
  0
LINE
  5
9912
330
1F
100
AcDbEntity
  8
SPOJOVACÍ
  6
Continuous
100
AcDbLine
 10
3043.1659904452
 20
-1604.391514122588
 30
0.0
 11
3044.804958206751
 21
-1604.391514122588
 31
0.0
  0
LINE
  5
9913
330
1F
100
AcDbEntity
  8
SPOJOVACÍ
  6
Continuous
100
AcDbLine
 10
3041.146526488705
 20
-1604.391514122588
 30
0.0
 11
3042.780670209879
 21
-1604.391514122588
 31
0.0
  0
LINE
  5
9914
330
1F
100
AcDbEntity
  8
SPOJOVACÍ
  6
Continuous
100
AcDbLine
 10
3039.122238491833
 20
-1604.391514122588
 30
0.0
 11
3040.75517620282
 21
-1604.391514122588
 31
0.0
  0
LINE
  5
9915
330
1F
100
AcDbEntity
  8
SPOJOVACÍ
  6
Continuous
100
AcDbLine
 10
3036.118670272332
 20
-1604.391514122588
 30
0.0
 11
3038.736315251507
 21
-1604.391514122588
 31
0.0
  0
LINE
  5
9916
330
1F
100
AcDbEntity
  8
SPOJOVACÍ
  6
Continuous
100
AcDbLine
 10
3036.118670272332
 20
-1602.641593427191
 30
0.0
 11
3039.323039177904
 21
-1602.641593427191
 31
0.0
  0
LINE
  5
9917
330
1F
100
AcDbEntity
  8
SPOJOVACÍ
  6
Continuous
100
AcDbLine
 10
3033.100629931356
 20
-1605.947870188575
 30
0.0
 11
3033.793482748934
 21
-1605.22788214307
 31
0.0
  0
LINE
  5
9918
330
1F
100
AcDbEntity
  8
SPOJOVACÍ
  6
Continuous
100
AcDbLine
 10
3033.793482748934
 20
-1605.22788214307
 30
0.0
 11
3034.648543928376
 21
-1604.711709810241
 31
0.0
  0
LINE
  5
9919
330
1F
100
AcDbEntity
  8
SPOJOVACÍ
  6
Continuous
100
AcDbLine
 10
3034.648543928376
 20
-1604.711709810241
 30
0.0
 11
3035.608527988985
 21
-1604.434327482343
 31
0.0
  0
LINE
  5
991A
330
1F
100
AcDbEntity
  8
SPOJOVACÍ
  6
Continuous
100
AcDbLine
 10
3035.608527988985
 20
-1604.434327482343
 30
0.0
 11
3036.118670272332
 21
-1604.391514122588
 31
0.0
  0
LINE
  5
991B
330
1F
100
AcDbEntity
  8
SPOJOVACÍ
  6
Continuous
100
AcDbLine
 10
3036.118670272332
 20
-1602.641593427191
 30
0.0
 11
3035.13094797896
 21
-1602.494460193917
 31
0.0
  0
LINE
  5
991C
330
1F
100
AcDbEntity
  8
SPOJOVACÍ
  6
Continuous
100
AcDbLine
 10
3035.13094797896
 20
-1602.494460193917
 30
0.0
 11
3034.214380282927
 21
-1602.09707985749
 31
0.0
  0
LINE
  5
991D
330
1F
100
AcDbEntity
  8
SPOJOVACÍ
  6
Continuous
100
AcDbLine
 10
3034.214380282927
 20
-1602.09707985749
 30
0.0
 11
3033.431679710997
 21
-1601.475984642252
 31
0.0
  0
LINE
  5
991E
330
1F
100
AcDbEntity
  8
0
100
AcDbLine
 10
3050.553048734819
 20
-1587.493332606014
 30
0.0
 11
3050.553048734819
 21
-1585.493332606014
 31
0.0
  0
LINE
  5
991F
330
1F
100
AcDbEntity
  8
SPOJOVACÍ
  6
Continuous
100
AcDbLine
 10
3086.187148443937
 20
-1604.391514122588
 30
0.0
 11
3084.548180682385
 21
-1604.391514122588
 31
0.0
  0
LINE
  5
9920
330
1F
100
AcDbEntity
  8
SPOJOVACÍ
  6
Continuous
100
AcDbLine
 10
3087.619285468861
 20
-1602.641593427191
 30
0.0
 11
3085.980317707309
 21
-1602.641593427191
 31
0.0
  0
LINE
  5
9921
330
1F
100
AcDbEntity
  8
SPOJOVACÍ
  6
Continuous
100
AcDbLine
 10
3085.594997471988
 20
-1602.641593427191
 30
0.0
 11
3083.960853750807
 21
-1602.641593427191
 31
0.0
  0
LINE
  5
9922
330
1F
100
AcDbEntity
  8
SPOJOVACÍ
  6
Continuous
100
AcDbLine
 10
3084.156227391341
 20
-1604.391514122588
 30
0.0
 11
3082.523892685339
 21
-1604.391514122588
 31
0.0
  0
LINE
  5
9923
330
1F
100
AcDbEntity
  8
SPOJOVACÍ
  6
Continuous
100
AcDbLine
 10
3082.137366439839
 20
-1604.391514122588
 30
0.0
 11
3081.328736650347
 21
-1604.391514122588
 31
0.0
  0
LINE
  5
9924
330
1F
100
AcDbEntity
  8
SPOJOVACÍ
  6
Continuous
100
AcDbLine
 10
3083.571312480116
 20
-1602.641593427191
 30
0.0
 11
3081.938374769129
 21
-1602.641593427191
 31
0.0
  0
LINE
  5
9925
330
1F
100
AcDbEntity
  8
SPOJOVACÍ
  6
Continuous
100
AcDbLine
 10
3081.547024483076
 20
-1602.641593427191
 30
0.0
 11
3081.328736650347
 21
-1602.641593427191
 31
0.0
  0
LINE
  5
9926
330
1F
100
AcDbEntity
  8
SPOJOVACÍ
  6
Continuous
100
AcDbLine
 10
3081.328736650347
 20
-1604.391514122588
 30
0.0
 11
3080.552669133973
 21
-1604.294430307681
 31
0.0
  0
LINE
  5
9927
330
1F
100
AcDbEntity
  8
SPOJOVACÍ
  6
Continuous
100
AcDbLine
 10
3074.327244862242
 20
-1603.516553776304
 30
0.0
 11
3076.165807299684
 21
-1603.286808845347
 31
0.0
  0
LINE
  5
9928
330
1F
100
AcDbEntity
  8
SPOJOVACÍ
  6
Continuous
100
AcDbLine
 10
3080.150464756819
 20
-1604.244380886484
 30
0.0
 11
3078.645364119385
 21
-1604.056243305985
 31
0.0
  0
LINE
  5
9929
330
1F
100
AcDbEntity
  8
SPOJOVACÍ
  6
Continuous
100
AcDbLine
 10
3078.236526686499
 20
-1604.004987875492
 30
0.0
 11
3076.732029054056
 21
-1603.816850297825
 31
0.0
  0
LINE
  5
992A
330
1F
100
AcDbEntity
  8
SPOJOVACÍ
  6
Continuous
100
AcDbLine
 10
3076.329824676902
 20
-1603.766800876627
 30
0.0
 11
3074.327244862242
 21
-1603.516553776304
 31
0.0
  0
LINE
  5
992B
330
1F
100
AcDbEntity
  8
SPOJOVACÍ
  6
Continuous
100
AcDbLine
 10
3076.534846398351
 20
-1603.240377454872
 30
0.0
 11
3077.925376073876
 21
-1603.066711997256
 31
0.0
  0
LINE
  5
992C
330
1F
100
AcDbEntity
  8
SPOJOVACÍ
  6
Continuous
100
AcDbLine
 10
3078.296224187729
 20
-1603.020280609611
 30
0.0
 11
3079.681326817696
 21
-1602.847218155228
 31
0.0
  0
LINE
  5
992D
330
1F
100
AcDbEntity
  8
SPOJOVACÍ
  6
Continuous
100
AcDbLine
 10
3080.050968921558
 20
-1602.800786764752
 30
0.0
 11
3081.328736650347
 21
-1602.641593427191
 31
0.0
  0
LINE
  5
992E
330
1F
100
AcDbEntity
  8
SPOJOVACÍ
  6
Continuous
100
AcDbLine
 10
3080.426038070775
 20
-1604.907686455415
 30
0.0
 11
3080.284331880922
 21
-1604.662263395108
 31
0.0
  0
LINE
  5
992F
330
1F
100
AcDbEntity
  8
SPOJOVACÍ
  6
Continuous
100
AcDbLine
 10
3080.426038070775
 20
-1604.907686455415
 30
0.0
 11
3080.670858126429
 21
-1604.662263395108
 31
0.0
  0
LINE
  5
9930
330
1F
100
AcDbEntity
  8
SPOJOVACÍ
  6
Continuous
100
AcDbLine
 10
3079.795294774795
 20
-1602.233359001431
 30
0.0
 11
3079.549871713946
 21
-1602.478179055674
 31
0.0
  0
LINE
  5
9931
330
1F
100
AcDbEntity
  8
SPOJOVACÍ
  6
Continuous
100
AcDbLine
 10
3079.795294774795
 20
-1602.233359001431
 30
0.0
 11
3079.93639795946
 21
-1602.478179055674
 31
0.0
  0
LINE
  5
9932
330
1F
100
AcDbEntity
  8
SPOJOVACÍ
  6
Continuous
100
AcDbLine
 10
3080.284331880922
 20
-1604.662263395108
 30
0.0
 11
3079.549871713946
 21
-1602.478179055674
 31
0.0
  0
LINE
  5
9933
330
1F
100
AcDbEntity
  8
SPOJOVACÍ
  6
Continuous
100
AcDbLine
 10
3080.670858126429
 20
-1604.662263395108
 30
0.0
 11
3079.93639795946
 21
-1602.478179055674
 31
0.0
  0
LINE
  5
9934
330
1F
100
AcDbEntity
  8
SPOJOVACÍ
  6
Continuous
100
AcDbLine
 10
3080.426038070775
 20
-1604.907686455415
 30
0.0
 11
3079.795294774795
 21
-1602.233359001431
 31
0.0
  0
LINE
  5
9935
330
1F
100
AcDbEntity
  8
SPOJOVACÍ
  6
Continuous
100
AcDbLine
 10
3078.471698661056
 20
-1604.541662383348
 30
0.0
 11
3078.33059547639
 21
-1604.296842326275
 31
0.0
  0
LINE
  5
9936
330
1F
100
AcDbEntity
  8
SPOJOVACÍ
  6
Continuous
100
AcDbLine
 10
3078.471698661056
 20
-1604.541662383348
 30
0.0
 11
3078.717121721897
 21
-1604.296842326275
 31
0.0
  0
LINE
  5
9937
330
1F
100
AcDbEntity
  8
SPOJOVACÍ
  6
Continuous
100
AcDbLine
 10
3078.061052213165
 20
-1602.521595421493
 30
0.0
 11
3077.815629152498
 21
-1602.766415475735
 31
0.0
  0
LINE
  5
9938
330
1F
100
AcDbEntity
  8
SPOJOVACÍ
  6
Continuous
100
AcDbLine
 10
3078.061052213165
 20
-1602.521595421493
 30
0.0
 11
3078.202155397831
 21
-1602.766415475735
 31
0.0
  0
LINE
  5
9939
330
1F
100
AcDbEntity
  8
SPOJOVACÍ
  6
Continuous
100
AcDbLine
 10
3078.33059547639
 20
-1604.296842326275
 30
0.0
 11
3077.815629152498
 21
-1602.766415475735
 31
0.0
  0
LINE
  5
993A
330
1F
100
AcDbEntity
  8
SPOJOVACÍ
  6
Continuous
100
AcDbLine
 10
3078.717121721897
 20
-1604.296842326275
 30
0.0
 11
3078.202155397831
 21
-1602.766415475735
 31
0.0
  0
LINE
  5
993B
330
1F
100
AcDbEntity
  8
SPOJOVACÍ
  6
Continuous
100
AcDbLine
 10
3078.471698661056
 20
-1604.541662383348
 30
0.0
 11
3078.061052213165
 21
-1602.521595421493
 31
0.0
  0
LINE
  5
993C
330
1F
100
AcDbEntity
  8
SPOJOVACÍ
  6
Continuous
100
AcDbLine
 10
3076.517962256517
 20
-1604.17563830845
 30
0.0
 11
3076.376256066677
 21
-1603.930818254208
 31
0.0
  0
LINE
  5
993D
330
1F
100
AcDbEntity
  8
SPOJOVACÍ
  6
Continuous
100
AcDbLine
 10
3076.517962256517
 20
-1604.17563830845
 30
0.0
 11
3076.762782312177
 21
-1603.930818254208
 31
0.0
  0
LINE
  5
993E
330
1F
100
AcDbEntity
  8
SPOJOVACÍ
  6
Continuous
100
AcDbLine
 10
3076.316558565447
 20
-1602.779078583258
 30
0.0
 11
3076.071135504787
 21
-1603.023898637501
 31
0.0
  0
LINE
  5
993F
330
1F
100
AcDbEntity
  8
SPOJOVACÍ
  6
Continuous
100
AcDbLine
 10
3076.316558565447
 20
-1602.779078583258
 30
0.0
 11
3076.45766175028
 21
-1603.023898637501
 31
0.0
  0
LINE
  5
9940
330
1F
100
AcDbEntity
  8
SPOJOVACÍ
  6
Continuous
100
AcDbLine
 10
3076.376256066677
 20
-1603.930818254208
 30
0.0
 11
3076.071135504787
 21
-1603.023898637501
 31
0.0
  0
LINE
  5
9941
330
1F
100
AcDbEntity
  8
SPOJOVACÍ
  6
Continuous
100
AcDbLine
 10
3076.762782312177
 20
-1603.930818254208
 30
0.0
 11
3076.45766175028
 21
-1603.023898637501
 31
0.0
  0
LINE
  5
9942
330
1F
100
AcDbEntity
  8
SPOJOVACÍ
  6
Continuous
100
AcDbLine
 10
3076.517962256517
 20
-1604.17563830845
 30
0.0
 11
3076.316558565447
 21
-1602.779078583258
 31
0.0
  0
LINE
  5
9943
330
1F
100
AcDbEntity
  8
SPOJOVACÍ
  6
Continuous
100
AcDbLine
 10
3086.466339788084
 20
-1605.072306839058
 30
0.0
 11
3085.688463256706
 21
-1601.960800713549
 31
0.0
  0
LINE
  5
9944
330
1F
100
AcDbEntity
  8
SPOJOVACÍ
  6
Continuous
100
AcDbLine
 10
3086.466339788084
 20
-1605.072306839058
 30
0.0
 11
3086.32463359823
 21
-1604.827486781985
 31
0.0
  0
LINE
  5
9945
330
1F
100
AcDbEntity
  8
SPOJOVACÍ
  6
Continuous
100
AcDbLine
 10
3086.466339788084
 20
-1605.072306839058
 30
0.0
 11
3086.711159843738
 21
-1604.827486781985
 31
0.0
  0
LINE
  5
9946
330
1F
100
AcDbEntity
  8
SPOJOVACÍ
  6
Continuous
100
AcDbLine
 10
3085.688463256706
 20
-1601.960800713549
 30
0.0
 11
3085.443040196039
 21
-1602.205620767792
 31
0.0
  0
LINE
  5
9947
330
1F
100
AcDbEntity
  8
SPOJOVACÍ
  6
Continuous
100
AcDbLine
 10
3085.688463256706
 20
-1601.960800713549
 30
0.0
 11
3085.829566441553
 21
-1602.205620767792
 31
0.0
  0
LINE
  5
9948
330
1F
100
AcDbEntity
  8
SPOJOVACÍ
  6
Continuous
100
AcDbLine
 10
3086.32463359823
 20
-1604.827486781985
 30
0.0
 11
3085.443040196039
 21
-1602.205620767792
 31
0.0
  0
LINE
  5
9949
330
1F
100
AcDbEntity
  8
SPOJOVACÍ
  6
Continuous
100
AcDbLine
 10
3086.711159843738
 20
-1604.827486781985
 30
0.0
 11
3085.829566441553
 21
-1602.205620767792
 31
0.0
  0
LINE
  5
994A
330
1F
100
AcDbEntity
  8
SPOJOVACÍ
  6
Continuous
100
AcDbLine
 10
3084.443860806391
 20
-1605.072306839058
 30
0.0
 11
3083.66598427502
 21
-1601.960800713549
 31
0.0
  0
LINE
  5
994B
330
1F
100
AcDbEntity
  8
SPOJOVACÍ
  6
Continuous
100
AcDbLine
 10
3084.443860806391
 20
-1605.072306839058
 30
0.0
 11
3084.302154616552
 21
-1604.827486781985
 31
0.0
  0
LINE
  5
994C
330
1F
100
AcDbEntity
  8
SPOJOVACÍ
  6
Continuous
100
AcDbLine
 10
3084.443860806391
 20
-1605.072306839058
 30
0.0
 11
3084.688680862052
 21
-1604.827486781985
 31
0.0
  0
LINE
  5
994D
330
1F
100
AcDbEntity
  8
SPOJOVACÍ
  6
Continuous
100
AcDbLine
 10
3083.66598427502
 20
-1601.960800713549
 30
0.0
 11
3083.420561214353
 21
-1602.205620767792
 31
0.0
  0
LINE
  5
994E
330
1F
100
AcDbEntity
  8
SPOJOVACÍ
  6
Continuous
100
AcDbLine
 10
3083.66598427502
 20
-1601.960800713549
 30
0.0
 11
3083.807087459686
 21
-1602.205620767792
 31
0.0
  0
LINE
  5
994F
330
1F
100
AcDbEntity
  8
SPOJOVACÍ
  6
Continuous
100
AcDbLine
 10
3084.302154616552
 20
-1604.827486781985
 30
0.0
 11
3083.420561214353
 21
-1602.205620767792
 31
0.0
  0
LINE
  5
9950
330
1F
100
AcDbEntity
  8
SPOJOVACÍ
  6
Continuous
100
AcDbLine
 10
3084.688680862052
 20
-1604.827486781985
 30
0.0
 11
3083.807087459686
 21
-1602.205620767792
 31
0.0
  0
LINE
  5
9951
330
1F
100
AcDbEntity
  8
SPOJOVACÍ
  6
Continuous
100
AcDbLine
 10
3082.420778819524
 20
-1605.072306839058
 30
0.0
 11
3081.642902288146
 21
-1601.960800713549
 31
0.0
  0
LINE
  5
9952
330
1F
100
AcDbEntity
  8
SPOJOVACÍ
  6
Continuous
100
AcDbLine
 10
3082.420778819524
 20
-1605.072306839058
 30
0.0
 11
3082.279675634866
 21
-1604.827486781985
 31
0.0
  0
LINE
  5
9953
330
1F
100
AcDbEntity
  8
SPOJOVACÍ
  6
Continuous
100
AcDbLine
 10
3082.420778819524
 20
-1605.072306839058
 30
0.0
 11
3082.666201880373
 21
-1604.827486781985
 31
0.0
  0
LINE
  5
9954
330
1F
100
AcDbEntity
  8
SPOJOVACÍ
  6
Continuous
100
AcDbLine
 10
3081.642902288146
 20
-1601.960800713549
 30
0.0
 11
3081.398082232485
 21
-1602.205620767792
 31
0.0
  0
LINE
  5
9955
330
1F
100
AcDbEntity
  8
SPOJOVACÍ
  6
Continuous
100
AcDbLine
 10
3081.642902288146
 20
-1601.960800713549
 30
0.0
 11
3081.784608478007
 21
-1602.205620767792
 31
0.0
  0
LINE
  5
9956
330
1F
100
AcDbEntity
  8
SPOJOVACÍ
  6
Continuous
100
AcDbLine
 10
3082.279675634866
 20
-1604.827486781985
 30
0.0
 11
3081.398082232485
 21
-1602.205620767792
 31
0.0
  0
LINE
  5
9957
330
1F
100
AcDbEntity
  8
SPOJOVACÍ
  6
Continuous
100
AcDbLine
 10
3082.666201880373
 20
-1604.827486781985
 30
0.0
 11
3081.784608478007
 21
-1602.205620767792
 31
0.0
  0
INSERT
  5
9958
330
1F
100
AcDbEntity
  8
0
100
AcDbBlockReference
  2
E_PUNKT
 10
3079.992693105644
 20
-1531.619971541544
 30
0.0
 41
-1.0
  0
LINE
  5
9959
330
1F
100
AcDbEntity
  8
SPOJOVACÍ
100
AcDbLine
 10
3079.52910660677
 20
-1486.877481093743
 30
0.0
 11
3080.186789573371
 21
-1486.877481093743
 31
0.0
  0
LINE
  5
995A
330
1F
100
AcDbEntity
  8
SPOJOVACÍ
100
AcDbLine
 10
3080.186789573371
 20
-1486.877481093743
 30
0.0
 11
3079.52910660677
 21
-1486.877481093743
 31
0.0
  0
LINE
  5
995B
330
1F
100
AcDbEntity
  8
SPOJOVACÍ
  6
DASHED
100
AcDbLine
 10
3080.186789573371
 20
-1486.877481093743
 30
0.0
 11
3082.573765300306
 21
-1490.656777968743
 31
0.0
  0
LINE
  5
995C
330
1F
100
AcDbEntity
  8
SPOJOVACÍ
100
AcDbLine
 10
3079.105598298517
 20
-1486.877481093743
 30
0.0
 11
3080.186789573371
 21
-1486.877481093743
 31
0.0
  0
LINE
  5
995D
330
1F
100
AcDbEntity
  8
SPOJOVACÍ
100
AcDbLine
 10
3080.186789573371
 20
-1497.002481093742
 30
0.0
 11
3082.573765300299
 21
-1493.223184218743
 31
0.0
  0
LINE
  5
995E
330
1F
100
AcDbEntity
  8
SPOJOVACÍ
100
AcDbLine
 10
3080.186789573371
 20
-1497.002481093742
 30
0.0
 11
3079.52910660677
 21
-1497.002481093742
 31
0.0
  0
LINE
  5
995F
330
1F
100
AcDbEntity
  8
SPOJOVACÍ
100
AcDbLine
 10
3079.105598298517
 20
-1497.002481093742
 30
0.0
 11
3080.186789573371
 21
-1497.002481093742
 31
0.0
  0
LINE
  5
9960
330
1F
100
AcDbEntity
  8
SPOJOVACÍ
100
AcDbLine
 10
3079.105598298517
 20
-1486.877481093743
 30
0.0
 11
3079.105598298517
 21
-1497.002481093742
 31
0.0
  0
LINE
  5
9961
330
1F
100
AcDbEntity
  8
SPOJOVACÍ
100
AcDbLine
 10
3080.186789573371
 20
-1486.877481093743
 30
0.0
 11
3080.186789573371
 21
-1497.002481093742
 31
0.0
  0
LINE
  5
9962
330
1F
100
AcDbEntity
  8
0
100
AcDbLine
 10
3079.105598298517
 20
-1479.238410008927
 30
0.0
 11
3081.105598298517
 21
-1479.238410008927
 31
0.0
  0
LWPOLYLINE
  5
9963
330
1F
100
AcDbEntity
  8
STAVBA OBRYS
100
AcDbPolyline
 90
        2
 70
     0
 43
0.0
 10
3086.07382243974
 20
-1482.985163806827
 10
3082.730798829992
 20
-1484.657899088202
  0
ARC
  5
9964
330
1F
100
AcDbEntity
  8
0
100
AcDbCircle
 10
3140.974180329153
 20
-1574.768049740201
 30
0.0
 40
10.0
100
AcDbArc
 50
0.0
 51
62.15620650652052
  0
LINE
  5
9965
330
1F
100
AcDbEntity
  8
NOSNÉ KONSTRUKCE
  6
DASHED
 48
0.5
100
AcDbLine
 10
3097.512789539735
 20
-1619.099804220825
 30
0.0
 11
3097.512789539735
 21
-1648.099747710633
 31
0.0
  0
LINE
  5
9966
330
1F
100
AcDbEntity
  8
NOSNÉ KONSTRUKCE
  6
DASHED
 48
0.5
100
AcDbLine
 10
3096.012789539735
 20
-1619.099804220825
 30
0.0
 11
3096.012789539735
 21
-1648.099747710633
 31
0.0
  0
LINE
  5
9967
330
1F
100
AcDbEntity
  8
NOSNÉ KONSTRUKCE
100
AcDbLine
 10
3097.512789539735
 20
-1587.933303331783
 30
0.0
 11
3097.512789539735
 21
-1619.099804220825
 31
0.0
  0
LINE
  5
9968
330
1F
100
AcDbEntity
  8
NOSNÉ KONSTRUKCE
100
AcDbLine
 10
3096.012789539735
 20
-1589.433303331783
 30
0.0
 11
3096.012789539735
 21
-1619.099804220825
 31
0.0
  0
INSERT
  5
9969
330
1F
100
AcDbEntity
  8
0
100
AcDbBlockReference
  2
E_PUNKT
 10
3098.491884302047
 20
-1614.27022387882
 30
0.0
 41
-1.0
  0
LINE
  5
996A
330
1F
100
AcDbEntity
  8
SPOJOVACÍ
  6
Continuous
100
AcDbLine
 10
3095.138758606209
 20
-1602.09707985749
 30
0.0
 11
3095.921459178139
 21
-1601.475984642252
 31
0.0
  0
LINE
  5
996B
330
1F
100
AcDbEntity
  8
SPOJOVACÍ
  6
Continuous
100
AcDbLine
 10
3094.222190910176
 20
-1602.494460193917
 30
0.0
 11
3095.138758606209
 21
-1602.09707985749
 31
0.0
  0
LINE
  5
996C
330
1F
100
AcDbEntity
  8
SPOJOVACÍ
  6
Continuous
100
AcDbLine
 10
3093.234468616804
 20
-1602.641593427191
 30
0.0
 11
3094.222190910176
 21
-1602.494460193917
 31
0.0
  0
LINE
  5
996D
330
1F
100
AcDbEntity
  8
SPOJOVACÍ
  6
Continuous
100
AcDbLine
 10
3097.512789539735
 20
-1600.210277014919
 30
0.0
 11
3096.734913008183
 21
-1600.210277014919
 31
0.0
  0
LINE
  5
996E
330
1F
100
AcDbEntity
  8
SPOJOVACÍ
  6
Continuous
100
AcDbLine
 10
3097.512789539735
 20
-1606.822830537688
 30
0.0
 11
3097.512789539735
 21
-1600.210277014919
 31
0.0
  0
LINE
  5
996F
330
1F
100
AcDbEntity
  8
SPOJOVACÍ
  6
Continuous
100
AcDbLine
 10
3097.512789539735
 20
-1606.822830537688
 30
0.0
 11
3096.734913008183
 21
-1606.822830537688
 31
0.0
  0
LINE
  5
9970
330
1F
100
AcDbEntity
  8
SPOJOVACÍ
  6
Continuous
100
AcDbLine
 10
3096.734913008183
 20
-1606.822830537688
 30
0.0
 11
3096.734913008183
 21
-1600.210277014919
 31
0.0
  0
LINE
  5
9971
330
1F
100
AcDbEntity
  8
SPOJOVACÍ
  6
Continuous
100
AcDbLine
 10
3096.516625175453
 20
-1600.673987907956
 30
0.0
 11
3096.734913008183
 21
-1600.210277014919
 31
0.0
  0
LINE
  5
9972
330
1F
100
AcDbEntity
  8
SPOJOVACÍ
  6
Continuous
100
AcDbLine
 10
3095.921459178139
 20
-1601.475984642252
 30
0.0
 11
3096.516625175453
 21
-1600.673987907956
 31
0.0
  0
LINE
  5
9973
330
1F
100
AcDbEntity
  8
SPOJOVACÍ
  6
Continuous
100
AcDbLine
 10
3093.744610900151
 20
-1604.434327482343
 30
0.0
 11
3093.234468616804
 21
-1604.391514122588
 31
0.0
  0
LINE
  5
9974
330
1F
100
AcDbEntity
  8
SPOJOVACÍ
  6
Continuous
100
AcDbLine
 10
3094.704594960761
 20
-1604.711709810241
 30
0.0
 11
3093.744610900151
 21
-1604.434327482343
 31
0.0
  0
LINE
  5
9975
330
1F
100
AcDbEntity
  8
SPOJOVACÍ
  6
Continuous
100
AcDbLine
 10
3095.559656140202
 20
-1605.22788214307
 30
0.0
 11
3094.704594960761
 21
-1604.711709810241
 31
0.0
  0
LINE
  5
9976
330
1F
100
AcDbEntity
  8
SPOJOVACÍ
  6
Continuous
100
AcDbLine
 10
3096.25250895778
 20
-1605.947870188575
 30
0.0
 11
3095.559656140202
 21
-1605.22788214307
 31
0.0
  0
LINE
  5
9977
330
1F
100
AcDbEntity
  8
SPOJOVACÍ
  6
Continuous
100
AcDbLine
 10
3096.734913008183
 20
-1606.822830537688
 30
0.0
 11
3096.25250895778
 21
-1605.947870188575
 31
0.0
  0
LINE
  5
9978
330
1F
100
AcDbEntity
  8
SPOJOVACÍ
  6
Continuous
100
AcDbLine
 10
3093.234468616804
 20
-1602.641593427191
 30
0.0
 11
3090.030099711233
 21
-1602.641593427191
 31
0.0
  0
LINE
  5
9979
330
1F
100
AcDbEntity
  8
SPOJOVACÍ
  6
Continuous
100
AcDbLine
 10
3093.234468616804
 20
-1604.391514122588
 30
0.0
 11
3090.616823637629
 21
-1604.391514122588
 31
0.0
  0
LINE
  5
997A
330
1F
100
AcDbEntity
  8
SPOJOVACÍ
  6
Continuous
100
AcDbLine
 10
3090.230900397303
 20
-1604.391514122588
 30
0.0
 11
3088.597962686316
 21
-1604.391514122588
 31
0.0
  0
LINE
  5
997B
330
1F
100
AcDbEntity
  8
SPOJOVACÍ
  6
Continuous
100
AcDbLine
 10
3089.638749425354
 20
-1602.641593427191
 30
0.0
 11
3088.00581171436
 21
-1602.641593427191
 31
0.0
  0
LINE
  5
997C
330
1F
100
AcDbEntity
  8
SPOJOVACÍ
  6
Continuous
100
AcDbLine
 10
3090.51129775163
 20
-1605.072306839058
 30
0.0
 11
3089.733421220252
 21
-1601.960800713549
 31
0.0
  0
LINE
  5
997D
330
1F
100
AcDbEntity
  8
SPOJOVACÍ
  6
Continuous
100
AcDbLine
 10
3090.51129775163
 20
-1605.072306839058
 30
0.0
 11
3090.370194566964
 21
-1604.827486781985
 31
0.0
  0
LINE
  5
997E
330
1F
100
AcDbEntity
  8
SPOJOVACÍ
  6
Continuous
100
AcDbLine
 10
3090.51129775163
 20
-1605.072306839058
 30
0.0
 11
3090.756720812283
 21
-1604.827486781985
 31
0.0
  0
LINE
  5
997F
330
1F
100
AcDbEntity
  8
SPOJOVACÍ
  6
Continuous
100
AcDbLine
 10
3089.733421220252
 20
-1601.960800713549
 30
0.0
 11
3089.488601164591
 21
-1602.205620767792
 31
0.0
  0
LINE
  5
9980
330
1F
100
AcDbEntity
  8
SPOJOVACÍ
  6
Continuous
100
AcDbLine
 10
3089.733421220252
 20
-1601.960800713549
 30
0.0
 11
3089.875127410099
 21
-1602.205620767792
 31
0.0
  0
LINE
  5
9981
330
1F
100
AcDbEntity
  8
SPOJOVACÍ
  6
Continuous
100
AcDbLine
 10
3090.370194566964
 20
-1604.827486781985
 30
0.0
 11
3089.488601164591
 21
-1602.205620767792
 31
0.0
  0
LINE
  5
9982
330
1F
100
AcDbEntity
  8
SPOJOVACÍ
  6
Continuous
100
AcDbLine
 10
3090.756720812283
 20
-1604.827486781985
 30
0.0
 11
3089.875127410099
 21
-1602.205620767792
 31
0.0
  0
LINE
  5
9983
330
1F
100
AcDbEntity
  8
SPOJOVACÍ
  6
Continuous
100
AcDbLine
 10
3088.488818769944
 20
-1605.072306839058
 30
0.0
 11
3087.710942238384
 21
-1601.960800713549
 31
0.0
  0
LINE
  5
9984
330
1F
100
AcDbEntity
  8
SPOJOVACÍ
  6
Continuous
100
AcDbLine
 10
3088.488818769944
 20
-1605.072306839058
 30
0.0
 11
3088.347112580098
 21
-1604.827486781985
 31
0.0
  0
LINE
  5
9985
330
1F
100
AcDbEntity
  8
SPOJOVACÍ
  6
Continuous
100
AcDbLine
 10
3088.488818769944
 20
-1605.072306839058
 30
0.0
 11
3088.733638825605
 21
-1604.827486781985
 31
0.0
  0
LINE
  5
9986
330
1F
100
AcDbEntity
  8
SPOJOVACÍ
  6
Continuous
100
AcDbLine
 10
3087.710942238384
 20
-1601.960800713549
 30
0.0
 11
3087.852648428246
 21
-1602.205620767792
 31
0.0
  0
LINE
  5
9987
330
1F
100
AcDbEntity
  8
SPOJOVACÍ
  6
Continuous
100
AcDbLine
 10
3088.733638825605
 20
-1604.827486781985
 30
0.0
 11
3087.852648428246
 21
-1602.205620767792
 31
0.0
  0
LWPOLYLINE
  5
9988
330
1F
100
AcDbEntity
  8
STAVBA OBRYS
100
AcDbPolyline
 90
        3
 70
     0
 43
0.0
 10
3136.42700471779
 20
-1490.58709899894
 10
3112.431501799398
 20
-1501.646333859563
 10
3107.631576638942
 20
-1502.420810829973
  0
LINE
  5
9989
330
1F
100
AcDbEntity
  8
SPOJOVACÍ
  6
DASHED
100
AcDbLine
 10
3123.167780456196
 20
-1491.939981093743
 30
0.0
 11
3113.638835363429
 21
-1490.656777968743
 31
0.0
  0
LINE
  5
998A
330
1F
100
AcDbEntity
  8
SPOJOVACÍ
  6
DASHED
100
AcDbLine
 10
3123.167780456196
 20
-1491.939981093743
 30
0.0
 11
3113.638835363429
 21
-1493.223184218743
 31
0.0
  0
LINE
  5
998B
330
1F
100
AcDbEntity
  8
SPOJOVACÍ
  6
Continuous
100
AcDbLine
 10
3114.664814413355
 20
-1489.80542385155
 30
0.0
 11
3115.732093034455
 21
-1494.074538335935
 31
0.0
  0
LINE
  5
998C
330
1F
100
AcDbEntity
  8
SPOJOVACÍ
  6
Continuous
100
AcDbLine
 10
3114.858413791012
 20
-1490.14132704748
 30
0.0
 11
3116.067996228438
 21
-1493.738635143885
 31
0.0
  0
LINE
  5
998D
330
1F
100
AcDbEntity
  8
SPOJOVACÍ
  6
Continuous
100
AcDbLine
 10
3114.328083871446
 20
-1490.14132704748
 30
0.0
 11
3115.537666308872
 21
-1493.738635143885
 31
0.0
  0
LINE
  5
998E
330
1F
100
AcDbEntity
  8
SPOJOVACÍ
  6
Continuous
100
AcDbLine
 10
3091.405151950258
 20
-1490.14132704748
 30
0.0
 11
3092.614734387684
 21
-1493.738635143885
 31
0.0
  0
LINE
  5
998F
330
1F
100
AcDbEntity
  8
SPOJOVACÍ
  6
Continuous
100
AcDbLine
 10
3091.935481869823
 20
-1490.14132704748
 30
0.0
 11
3093.14506430725
 21
-1493.738635143885
 31
0.0
  0
LINE
  5
9990
330
1F
100
AcDbEntity
  8
SPOJOVACÍ
  6
Continuous
100
AcDbLine
 10
3092.809161113267
 20
-1494.074538335935
 30
0.0
 11
3092.614734387684
 21
-1493.738635143885
 31
0.0
  0
LINE
  5
9991
330
1F
100
AcDbEntity
  8
SPOJOVACÍ
  6
Continuous
100
AcDbLine
 10
3092.809161113267
 20
-1494.074538335935
 30
0.0
 11
3093.14506430725
 21
-1493.738635143885
 31
0.0
  0
LINE
  5
9992
330
1F
100
AcDbEntity
  8
SPOJOVACÍ
  6
Continuous
100
AcDbLine
 10
3091.741882492167
 20
-1489.80542385155
 30
0.0
 11
3091.405151950258
 21
-1490.14132704748
 31
0.0
  0
LINE
  5
9993
330
1F
100
AcDbEntity
  8
SPOJOVACÍ
  6
Continuous
100
AcDbLine
 10
3091.741882492167
 20
-1489.80542385155
 30
0.0
 11
3091.935481869823
 21
-1490.14132704748
 31
0.0
  0
LINE
  5
9994
330
1F
100
AcDbEntity
  8
SPOJOVACÍ
  6
Continuous
100
AcDbLine
 10
3091.741882492167
 20
-1489.80542385155
 30
0.0
 11
3092.809161113267
 21
-1494.074538335935
 31
0.0
  0
LINE
  5
9995
330
1F
100
AcDbEntity
  8
SPOJOVACÍ
  6
Continuous
100
AcDbLine
 10
3093.952144385946
 20
-1490.14132704748
 30
0.0
 11
3095.161726823372
 21
-1493.738635143885
 31
0.0
  0
LINE
  5
9996
330
1F
100
AcDbEntity
  8
SPOJOVACÍ
  6
Continuous
100
AcDbLine
 10
3094.482474305511
 20
-1490.14132704748
 30
0.0
 11
3095.692056742938
 21
-1493.738635143885
 31
0.0
  0
LINE
  5
9997
330
1F
100
AcDbEntity
  8
SPOJOVACÍ
  6
Continuous
100
AcDbLine
 10
3095.356153548954
 20
-1494.074538335935
 30
0.0
 11
3095.161726823372
 21
-1493.738635143885
 31
0.0
  0
LINE
  5
9998
330
1F
100
AcDbEntity
  8
SPOJOVACÍ
  6
Continuous
100
AcDbLine
 10
3095.356153548954
 20
-1494.074538335935
 30
0.0
 11
3095.692056742938
 21
-1493.738635143885
 31
0.0
  0
LINE
  5
9999
330
1F
100
AcDbEntity
  8
SPOJOVACÍ
  6
Continuous
100
AcDbLine
 10
3094.288874927854
 20
-1489.80542385155
 30
0.0
 11
3093.952144385946
 21
-1490.14132704748
 31
0.0
  0
LINE
  5
999A
330
1F
100
AcDbEntity
  8
SPOJOVACÍ
  6
Continuous
100
AcDbLine
 10
3094.288874927854
 20
-1489.80542385155
 30
0.0
 11
3094.482474305511
 21
-1490.14132704748
 31
0.0
  0
LINE
  5
999B
330
1F
100
AcDbEntity
  8
SPOJOVACÍ
  6
Continuous
100
AcDbLine
 10
3094.288874927854
 20
-1489.80542385155
 30
0.0
 11
3095.356153548954
 21
-1494.074538335935
 31
0.0
  0
LINE
  5
999C
330
1F
100
AcDbEntity
  8
SPOJOVACÍ
  6
Continuous
100
AcDbLine
 10
3096.499136821633
 20
-1490.14132704748
 30
0.0
 11
3097.70871925906
 21
-1493.738635143885
 31
0.0
  0
LINE
  5
999D
330
1F
100
AcDbEntity
  8
SPOJOVACÍ
  6
Continuous
100
AcDbLine
 10
3097.029466741199
 20
-1490.14132704748
 30
0.0
 11
3098.239049178625
 21
-1493.738635143885
 31
0.0
  0
LINE
  5
999E
330
1F
100
AcDbEntity
  8
SPOJOVACÍ
  6
Continuous
100
AcDbLine
 10
3097.903145984642
 20
-1494.074538335935
 30
0.0
 11
3097.70871925906
 21
-1493.738635143885
 31
0.0
  0
LINE
  5
999F
330
1F
100
AcDbEntity
  8
SPOJOVACÍ
  6
Continuous
100
AcDbLine
 10
3097.903145984642
 20
-1494.074538335935
 30
0.0
 11
3098.239049178625
 21
-1493.738635143885
 31
0.0
  0
LINE
  5
99A0
330
1F
100
AcDbEntity
  8
SPOJOVACÍ
  6
Continuous
100
AcDbLine
 10
3096.835867363542
 20
-1489.80542385155
 30
0.0
 11
3096.499136821633
 21
-1490.14132704748
 31
0.0
  0
LINE
  5
99A1
330
1F
100
AcDbEntity
  8
SPOJOVACÍ
  6
Continuous
100
AcDbLine
 10
3096.835867363542
 20
-1489.80542385155
 30
0.0
 11
3097.029466741199
 21
-1490.14132704748
 31
0.0
  0
LINE
  5
99A2
330
1F
100
AcDbEntity
  8
SPOJOVACÍ
  6
Continuous
100
AcDbLine
 10
3096.835867363542
 20
-1489.80542385155
 30
0.0
 11
3097.903145984642
 21
-1494.074538335935
 31
0.0
  0
LINE
  5
99A3
330
1F
100
AcDbEntity
  8
SPOJOVACÍ
  6
Continuous
100
AcDbLine
 10
3114.664814413355
 20
-1489.80542385155
 30
0.0
 11
3114.858413791012
 21
-1490.14132704748
 31
0.0
  0
LINE
  5
99A4
330
1F
100
AcDbEntity
  8
SPOJOVACÍ
  6
Continuous
100
AcDbLine
 10
3114.664814413355
 20
-1489.80542385155
 30
0.0
 11
3114.328083871446
 21
-1490.14132704748
 31
0.0
  0
LINE
  5
99A5
330
1F
100
AcDbEntity
  8
SPOJOVACÍ
  6
Continuous
100
AcDbLine
 10
3111.781091435759
 20
-1490.14132704748
 30
0.0
 11
3112.990673873185
 21
-1493.738635143885
 31
0.0
  0
LINE
  5
99A6
330
1F
100
AcDbEntity
  8
SPOJOVACÍ
  6
Continuous
100
AcDbLine
 10
3112.311421355324
 20
-1490.14132704748
 30
0.0
 11
3113.521003792751
 21
-1493.738635143885
 31
0.0
  0
LINE
  5
99A7
330
1F
100
AcDbEntity
  8
SPOJOVACÍ
  6
Continuous
100
AcDbLine
 10
3113.185100598767
 20
-1494.074538335935
 30
0.0
 11
3112.990673873185
 21
-1493.738635143885
 31
0.0
  0
LINE
  5
99A8
330
1F
100
AcDbEntity
  8
SPOJOVACÍ
  6
Continuous
100
AcDbLine
 10
3113.185100598767
 20
-1494.074538335935
 30
0.0
 11
3113.521003792751
 21
-1493.738635143885
 31
0.0
  0
LINE
  5
99A9
330
1F
100
AcDbEntity
  8
SPOJOVACÍ
  6
Continuous
100
AcDbLine
 10
3112.117821977667
 20
-1489.80542385155
 30
0.0
 11
3111.781091435759
 21
-1490.14132704748
 31
0.0
  0
LINE
  5
99AA
330
1F
100
AcDbEntity
  8
SPOJOVACÍ
  6
Continuous
100
AcDbLine
 10
3112.117821977667
 20
-1489.80542385155
 30
0.0
 11
3112.311421355324
 21
-1490.14132704748
 31
0.0
  0
LINE
  5
99AB
330
1F
100
AcDbEntity
  8
SPOJOVACÍ
  6
Continuous
100
AcDbLine
 10
3112.117821977667
 20
-1489.80542385155
 30
0.0
 11
3113.185100598767
 21
-1494.074538335935
 31
0.0
  0
LINE
  5
99AC
330
1F
100
AcDbEntity
  8
SPOJOVACÍ
  6
Continuous
100
AcDbLine
 10
3109.57082954198
 20
-1489.80542385155
 30
0.0
 11
3110.63810816308
 21
-1494.074538335935
 31
0.0
  0
LINE
  5
99AD
330
1F
100
AcDbEntity
  8
SPOJOVACÍ
  6
Continuous
100
AcDbLine
 10
3109.57082954198
 20
-1489.80542385155
 30
0.0
 11
3109.764428919637
 21
-1490.14132704748
 31
0.0
  0
LINE
  5
99AE
330
1F
100
AcDbEntity
  8
SPOJOVACÍ
  6
Continuous
100
AcDbLine
 10
3109.57082954198
 20
-1489.80542385155
 30
0.0
 11
3109.234099000071
 21
-1490.14132704748
 31
0.0
  0
LINE
  5
99AF
330
1F
100
AcDbEntity
  8
SPOJOVACÍ
  6
Continuous
100
AcDbLine
 10
3110.63810816308
 20
-1494.074538335935
 30
0.0
 11
3110.974011357063
 21
-1493.738635143885
 31
0.0
  0
LINE
  5
99B0
330
1F
100
AcDbEntity
  8
SPOJOVACÍ
  6
Continuous
100
AcDbLine
 10
3110.63810816308
 20
-1494.074538335935
 30
0.0
 11
3110.443681437498
 21
-1493.738635143885
 31
0.0
  0
LINE
  5
99B1
330
1F
100
AcDbEntity
  8
SPOJOVACÍ
  6
Continuous
100
AcDbLine
 10
3109.764428919637
 20
-1490.14132704748
 30
0.0
 11
3110.974011357063
 21
-1493.738635143885
 31
0.0
  0
LINE
  5
99B2
330
1F
100
AcDbEntity
  8
SPOJOVACÍ
  6
Continuous
100
AcDbLine
 10
3109.234099000071
 20
-1490.14132704748
 30
0.0
 11
3110.443681437498
 21
-1493.738635143885
 31
0.0
  0
LINE
  5
99B3
330
1F
100
AcDbEntity
  8
SPOJOVACÍ
  6
Continuous
100
AcDbLine
 10
3107.023837106292
 20
-1489.80542385155
 30
0.0
 11
3108.091115727392
 21
-1494.074538335935
 31
0.0
  0
LINE
  5
99B4
330
1F
100
AcDbEntity
  8
SPOJOVACÍ
  6
Continuous
100
AcDbLine
 10
3107.023837106292
 20
-1489.80542385155
 30
0.0
 11
3107.217436483949
 21
-1490.14132704748
 31
0.0
  0
LINE
  5
99B5
330
1F
100
AcDbEntity
  8
SPOJOVACÍ
  6
Continuous
100
AcDbLine
 10
3107.023837106292
 20
-1489.80542385155
 30
0.0
 11
3106.687106564383
 21
-1490.14132704748
 31
0.0
  0
LINE
  5
99B6
330
1F
100
AcDbEntity
  8
SPOJOVACÍ
  6
Continuous
100
AcDbLine
 10
3108.091115727392
 20
-1494.074538335935
 30
0.0
 11
3108.427018921375
 21
-1493.738635143885
 31
0.0
  0
LINE
  5
99B7
330
1F
100
AcDbEntity
  8
SPOJOVACÍ
  6
Continuous
100
AcDbLine
 10
3108.091115727392
 20
-1494.074538335935
 30
0.0
 11
3107.89668900181
 21
-1493.738635143885
 31
0.0
  0
LINE
  5
99B8
330
1F
100
AcDbEntity
  8
SPOJOVACÍ
  6
Continuous
100
AcDbLine
 10
3107.217436483949
 20
-1490.14132704748
 30
0.0
 11
3108.427018921375
 21
-1493.738635143885
 31
0.0
  0
LINE
  5
99B9
330
1F
100
AcDbEntity
  8
SPOJOVACÍ
  6
Continuous
100
AcDbLine
 10
3106.687106564383
 20
-1490.14132704748
 30
0.0
 11
3107.89668900181
 21
-1493.738635143885
 31
0.0
  0
LINE
  5
99BA
330
1F
100
AcDbEntity
  8
SPOJOVACÍ
  6
Continuous
100
AcDbLine
 10
3104.476844670605
 20
-1489.80542385155
 30
0.0
 11
3105.544123291704
 21
-1494.074538335935
 31
0.0
  0
LINE
  5
99BB
330
1F
100
AcDbEntity
  8
SPOJOVACÍ
  6
Continuous
100
AcDbLine
 10
3104.476844670605
 20
-1489.80542385155
 30
0.0
 11
3104.670444048261
 21
-1490.14132704748
 31
0.0
  0
LINE
  5
99BC
330
1F
100
AcDbEntity
  8
SPOJOVACÍ
  6
Continuous
100
AcDbLine
 10
3104.476844670605
 20
-1489.80542385155
 30
0.0
 11
3104.140114128696
 21
-1490.14132704748
 31
0.0
  0
LINE
  5
99BD
330
1F
100
AcDbEntity
  8
SPOJOVACÍ
  6
Continuous
100
AcDbLine
 10
3105.544123291704
 20
-1494.074538335935
 30
0.0
 11
3105.880026485688
 21
-1493.738635143885
 31
0.0
  0
LINE
  5
99BE
330
1F
100
AcDbEntity
  8
SPOJOVACÍ
  6
Continuous
100
AcDbLine
 10
3105.544123291704
 20
-1494.074538335935
 30
0.0
 11
3105.349696566122
 21
-1493.738635143885
 31
0.0
  0
LINE
  5
99BF
330
1F
100
AcDbEntity
  8
SPOJOVACÍ
  6
Continuous
100
AcDbLine
 10
3104.670444048261
 20
-1490.14132704748
 30
0.0
 11
3105.880026485688
 21
-1493.738635143885
 31
0.0
  0
LINE
  5
99C0
330
1F
100
AcDbEntity
  8
SPOJOVACÍ
  6
Continuous
100
AcDbLine
 10
3104.140114128696
 20
-1490.14132704748
 30
0.0
 11
3105.349696566122
 21
-1493.738635143885
 31
0.0
  0
LINE
  5
99C1
330
1F
100
AcDbEntity
  8
SPOJOVACÍ
  6
Continuous
100
AcDbLine
 10
3101.929852234917
 20
-1489.80542385155
 30
0.0
 11
3102.997130856017
 21
-1494.074538335935
 31
0.0
  0
LINE
  5
99C2
330
1F
100
AcDbEntity
  8
SPOJOVACÍ
  6
Continuous
100
AcDbLine
 10
3101.929852234917
 20
-1489.80542385155
 30
0.0
 11
3102.123451612574
 21
-1490.14132704748
 31
0.0
  0
LINE
  5
99C3
330
1F
100
AcDbEntity
  8
SPOJOVACÍ
  6
Continuous
100
AcDbLine
 10
3101.929852234917
 20
-1489.80542385155
 30
0.0
 11
3101.593121693008
 21
-1490.14132704748
 31
0.0
  0
LINE
  5
99C4
330
1F
100
AcDbEntity
  8
SPOJOVACÍ
  6
Continuous
100
AcDbLine
 10
3102.997130856017
 20
-1494.074538335935
 30
0.0
 11
3103.333034050001
 21
-1493.738635143885
 31
0.0
  0
LINE
  5
99C5
330
1F
100
AcDbEntity
  8
SPOJOVACÍ
  6
Continuous
100
AcDbLine
 10
3102.997130856017
 20
-1494.074538335935
 30
0.0
 11
3102.802704130434
 21
-1493.738635143885
 31
0.0
  0
LINE
  5
99C6
330
1F
100
AcDbEntity
  8
SPOJOVACÍ
  6
Continuous
100
AcDbLine
 10
3102.123451612574
 20
-1490.14132704748
 30
0.0
 11
3103.333034050001
 21
-1493.738635143885
 31
0.0
  0
LINE
  5
99C7
330
1F
100
AcDbEntity
  8
SPOJOVACÍ
  6
Continuous
100
AcDbLine
 10
3101.593121693008
 20
-1490.14132704748
 30
0.0
 11
3102.802704130434
 21
-1493.738635143885
 31
0.0
  0
LINE
  5
99C8
330
1F
100
AcDbEntity
  8
SPOJOVACÍ
  6
Continuous
100
AcDbLine
 10
3099.382859799229
 20
-1489.80542385155
 30
0.0
 11
3100.450138420329
 21
-1494.074538335935
 31
0.0
  0
LINE
  5
99C9
330
1F
100
AcDbEntity
  8
SPOJOVACÍ
  6
Continuous
100
AcDbLine
 10
3099.382859799229
 20
-1489.80542385155
 30
0.0
 11
3099.576459176887
 21
-1490.14132704748
 31
0.0
  0
LINE
  5
99CA
330
1F
100
AcDbEntity
  8
SPOJOVACÍ
  6
Continuous
100
AcDbLine
 10
3099.382859799229
 20
-1489.80542385155
 30
0.0
 11
3099.04612925732
 21
-1490.14132704748
 31
0.0
  0
LINE
  5
99CB
330
1F
100
AcDbEntity
  8
SPOJOVACÍ
  6
Continuous
100
AcDbLine
 10
3100.450138420329
 20
-1494.074538335935
 30
0.0
 11
3100.786041614313
 21
-1493.738635143885
 31
0.0
  0
LINE
  5
99CC
330
1F
100
AcDbEntity
  8
SPOJOVACÍ
  6
Continuous
100
AcDbLine
 10
3100.450138420329
 20
-1494.074538335935
 30
0.0
 11
3100.255711694747
 21
-1493.738635143885
 31
0.0
  0
LINE
  5
99CD
330
1F
100
AcDbEntity
  8
SPOJOVACÍ
  6
Continuous
100
AcDbLine
 10
3099.576459176887
 20
-1490.14132704748
 30
0.0
 11
3100.786041614313
 21
-1493.738635143885
 31
0.0
  0
LINE
  5
99CE
330
1F
100
AcDbEntity
  8
SPOJOVACÍ
  6
Continuous
100
AcDbLine
 10
3099.04612925732
 20
-1490.14132704748
 30
0.0
 11
3100.255711694747
 21
-1493.738635143885
 31
0.0
  0
LINE
  5
99CF
330
1F
100
AcDbEntity
  8
SPOJOVACÍ
 48
0.25
100
AcDbLine
 10
3119.536888927065
 20
-1489.295881276137
 30
0.0
 11
3123.773969182611
 21
-1491.939981093743
 31
0.0
  0
LINE
  5
99D0
330
1F
100
AcDbEntity
  8
SPOJOVACÍ
 48
0.25
100
AcDbLine
 10
3119.536888927065
 20
-1494.584080911348
 30
0.0
 11
3123.773969182611
 21
-1491.939981093743
 31
0.0
  0
LINE
  5
99D1
330
1F
100
AcDbEntity
  8
SPOJOVACÍ
  6
Continuous
100
AcDbLine
 10
3121.776947631665
 20
-1491.153640999597
 30
0.0
 11
3121.946014349557
 21
-1491.445730731815
 31
0.0
  0
LINE
  5
99D2
330
1F
100
AcDbEntity
  8
SPOJOVACÍ
  6
Continuous
100
AcDbLine
 10
3121.776947631665
 20
-1491.153640999597
 30
0.0
 11
3121.484857897766
 21
-1491.445730731815
 31
0.0
  0
LINE
  5
99D3
330
1F
100
AcDbEntity
  8
SPOJOVACÍ
  6
Continuous
100
AcDbLine
 10
3122.017238200901
 20
-1492.819847460568
 30
0.0
 11
3122.310047367578
 21
-1492.527757728355
 31
0.0
  0
LINE
  5
99D4
330
1F
100
AcDbEntity
  8
SPOJOVACÍ
  6
Continuous
100
AcDbLine
 10
3122.017238200901
 20
-1492.819847460568
 30
0.0
 11
3121.848890915779
 21
-1492.527757728355
 31
0.0
  0
LINE
  5
99D5
330
1F
100
AcDbEntity
  8
SPOJOVACÍ
  6
Continuous
100
AcDbLine
 10
3121.946014349557
 20
-1491.445730731815
 30
0.0
 11
3122.310047367578
 21
-1492.527757728355
 31
0.0
  0
LINE
  5
99D6
330
1F
100
AcDbEntity
  8
SPOJOVACÍ
  6
Continuous
100
AcDbLine
 10
3121.484857897766
 20
-1491.445730731815
 30
0.0
 11
3121.848890915779
 21
-1492.527757728355
 31
0.0
  0
LINE
  5
99D7
330
1F
100
AcDbEntity
  8
SPOJOVACÍ
  6
Continuous
100
AcDbLine
 10
3121.776947631665
 20
-1491.153640999597
 30
0.0
 11
3122.017238200901
 21
-1492.819847460568
 31
0.0
  0
LINE
  5
99D8
330
1F
100
AcDbEntity
  8
SPOJOVACÍ
  6
Continuous
100
AcDbLine
 10
3117.11430338222
 20
-1490.280249528961
 30
0.0
 11
3117.283370100119
 21
-1490.573058695214
 31
0.0
  0
LINE
  5
99D9
330
1F
100
AcDbEntity
  8
SPOJOVACÍ
  6
Continuous
100
AcDbLine
 10
3117.11430338222
 20
-1490.280249528961
 30
0.0
 11
3116.822213648314
 21
-1490.573058695214
 31
0.0
  0
LINE
  5
99DA
330
1F
100
AcDbEntity
  8
SPOJOVACÍ
  6
Continuous
100
AcDbLine
 10
3117.866830134943
 20
-1493.470934182256
 30
0.0
 11
3118.159639301831
 21
-1493.178844450038
 31
0.0
  0
LINE
  5
99DB
330
1F
100
AcDbEntity
  8
SPOJOVACÍ
  6
Continuous
100
AcDbLine
 10
3117.866830134943
 20
-1493.470934182256
 30
0.0
 11
3117.698482850032
 21
-1493.178844450038
 31
0.0
  0
LINE
  5
99DC
330
1F
100
AcDbEntity
  8
SPOJOVACÍ
  6
Continuous
100
AcDbLine
 10
3117.283370100119
 20
-1490.573058695214
 30
0.0
 11
3118.159639301831
 21
-1493.178844450038
 31
0.0
  0
LINE
  5
99DD
330
1F
100
AcDbEntity
  8
SPOJOVACÍ
  6
Continuous
100
AcDbLine
 10
3116.822213648314
 20
-1490.573058695214
 30
0.0
 11
3117.698482850032
 21
-1493.178844450038
 31
0.0
  0
LINE
  5
99DE
330
1F
100
AcDbEntity
  8
SPOJOVACÍ
  6
Continuous
100
AcDbLine
 10
3117.11430338222
 20
-1490.280249528961
 30
0.0
 11
3117.866830134943
 21
-1493.470934182256
 31
0.0
  0
LINE
  5
99DF
330
1F
100
AcDbEntity
  8
SPOJOVACÍ
  6
Continuous
100
AcDbLine
 10
3119.445985223433
 20
-1490.716945262593
 30
0.0
 11
3119.614332508344
 21
-1491.009034998183
 31
0.0
  0
LINE
  5
99E0
330
1F
100
AcDbEntity
  8
SPOJOVACÍ
  6
Continuous
100
AcDbLine
 10
3119.445985223433
 20
-1490.716945262593
 30
0.0
 11
3119.153176056546
 21
-1491.009034998183
 31
0.0
  0
LINE
  5
99E1
330
1F
100
AcDbEntity
  8
SPOJOVACÍ
  6
Continuous
100
AcDbLine
 10
3119.935918988752
 20
-1493.127045283898
 30
0.0
 11
3120.228728155421
 21
-1492.834955551679
 31
0.0
  0
LINE
  5
99E2
330
1F
100
AcDbEntity
  8
SPOJOVACÍ
  6
Continuous
100
AcDbLine
 10
3119.935918988752
 20
-1493.127045283898
 30
0.0
 11
3119.767571703841
 21
-1492.834955551679
 31
0.0
  0
LINE
  5
99E3
330
1F
100
AcDbEntity
  8
SPOJOVACÍ
  6
Continuous
100
AcDbLine
 10
3119.614332508344
 20
-1491.009034998183
 30
0.0
 11
3120.228728155421
 21
-1492.834955551679
 31
0.0
  0
LINE
  5
99E4
330
1F
100
AcDbEntity
  8
SPOJOVACÍ
  6
Continuous
100
AcDbLine
 10
3119.153176056546
 20
-1491.009034998183
 30
0.0
 11
3119.767571703841
 21
-1492.834955551679
 31
0.0
  0
LINE
  5
99E5
330
1F
100
AcDbEntity
  8
SPOJOVACÍ
  6
Continuous
100
AcDbLine
 10
3119.445985223433
 20
-1490.716945262593
 30
0.0
 11
3119.935918988752
 21
-1493.127045283898
 31
0.0
  0
LINE
  5
99E6
330
1F
100
AcDbEntity
  8
SPOJOVACÍ
  6
Continuous
100
AcDbLine
 10
3115.732093034455
 20
-1494.074538335935
 30
0.0
 11
3116.067996228438
 21
-1493.738635143885
 31
0.0
  0
LINE
  5
99E7
330
1F
100
AcDbEntity
  8
SPOJOVACÍ
  6
Continuous
100
AcDbLine
 10
3115.732093034455
 20
-1494.074538335935
 30
0.0
 11
3115.537666308872
 21
-1493.738635143885
 31
0.0
  0
LWPOLYLINE
  5
99E8
330
1F
100
AcDbEntity
  8
STAVBA OBRYS
100
AcDbPolyline
 90
        3
 70
     0
 43
0.0
 10
3149.316759735976
 20
-1490.546493384416
 10
3173.381463841452
 20
-1501.454327831493
 10
3178.186173238112
 20
-1502.198548052422
  0
LWPOLYLINE
  5
99E9
330
1F
100
AcDbEntity
  8
STAVBA OBRYS
100
AcDbPolyline
 90
        2
 70
     0
 43
0.0
 10
3149.842068088027
 20
-1505.565386949672
 10
3150.217633194527
 20
-1505.735619751531
  0
LWPOLYLINE
  5
99EA
330
1F
100
AcDbEntity
  8
STAVBA OBRYS
100
AcDbPolyline
 90
        3
 70
     0
 43
0.0
 10
3111.529628730449
 20
-1453.580603230985
 10
3087.534125812058
 20
-1464.639838091609
 10
3082.734200651602
 20
-1465.41431506202
  0
LWPOLYLINE
  5
99EB
330
1F
100
AcDbEntity
  8
STAVBA OBRYS
100
AcDbPolyline
 90
        3
 70
     0
 43
0.0
 10
3111.529628730449
 20
-1437.982596264772
 10
3087.534125812058
 20
-1426.923361404149
 10
3082.734200651602
 20
-1426.148884433738
  0
LWPOLYLINE
  5
99EC
330
1F
100
AcDbEntity
  8
STAVBA OBRYS
100
AcDbPolyline
 90
        4
 70
     0
 43
0.0
 10
3082.730798829992
 20
-1433.541803542803
 42
-0.0067884601454819
 10
3085.125810779242
 20
-1421.38716792892
 42
-0.0219777111230329
 10
3086.213145781618
 20
-1417.165432021917
 42
-0.0044723068875599
 10
3086.986416568853
 20
-1415.892270199156
 42
-0.0044723068875599
  0
POLYLINE
  5
99ED
330
1F
100
AcDbEntity
  8
STAVBA OBRYS
100
AcDb2dPolyline
 66
     1
 10
0.0
 20
0.0
 30
0.0
  0
VERTEX
  5
99EE
330
99ED
100
AcDbEntity
  8
STAVBA OBRYS
100
AcDbVertex
100
AcDb2dVertex
 10
3130.893453052948
 20
-1445.781599747881
 30
0.0
 42
0.0064239028828688
  0
VERTEX
  5
99EF
330
99ED
100
AcDbEntity
  8
STAVBA OBRYS
100
AcDbVertex
100
AcDb2dVertex
 10
3130.940095181166
 20
-1446.044536139101
 30
0.0
 42
0.0832048017309575
  0
VERTEX
  5
99F0
330
99ED
100
AcDbEntity
  8
STAVBA OBRYS
100
AcDbVertex
100
AcDb2dVertex
 10
3131.881114304383
 20
-1448.840792434686
 30
0.0
 42
0.0336767237692336
  0
VERTEX
  5
99F1
330
99ED
100
AcDbEntity
  8
STAVBA OBRYS
100
AcDbVertex
100
AcDb2dVertex
 10
3133.924494175085
 20
-1452.114721858039
 30
0.0
 42
0.0844635135812105
  0
VERTEX
  5
99F2
330
99ED
100
AcDbEntity
  8
STAVBA OBRYS
100
AcDbVertex
100
AcDb2dVertex
 10
3135.028265886959
 20
-1453.200027784034
 30
0.0
 42
0.0495829410719565
  0
VERTEX
  5
99F3
330
99ED
100
AcDbEntity
  8
STAVBA OBRYS
100
AcDbVertex
100
AcDb2dVertex
 10
3137.126680011785
 20
-1454.372007192809
 30
0.0
 42
0.0322692699774654
  0
VERTEX
  5
99F4
330
99ED
100
AcDbEntity
  8
STAVBA OBRYS
100
AcDbVertex
100
AcDb2dVertex
 10
3140.596305029093
 20
-1455.621835394489
 30
0.0
 42
0.0276160659512937
  0
VERTEX
  5
99F5
330
99ED
100
AcDbEntity
  8
STAVBA OBRYS
100
AcDbVertex
100
AcDb2dVertex
 10
3141.622996755036
 20
-1455.857917909223
 30
0.0
 42
0.0126891984598699
  0
VERTEX
  5
99F6
330
99ED
100
AcDbEntity
  8
STAVBA OBRYS
100
AcDbVertex
100
AcDb2dVertex
 10
3142.730798829992
 20
-1456.020160776673
 30
0.0
  0
SEQEND
  5
99F7
330
99ED
100
AcDbEntity
  8
STAVBA OBRYS
  0
POLYLINE
  5
99F8
330
1F
100
AcDbEntity
  8
STAVBA OBRYS
100
AcDb2dPolyline
 66
     1
 10
0.0
 20
0.0
 30
0.0
  0
VERTEX
  5
99F9
330
99F8
100
AcDbEntity
  8
STAVBA OBRYS
100
AcDbVertex
100
AcDb2dVertex
 10
3122.219791828062
 20
-1445.781599747881
 30
0.0
 42
0.0072417954699014
  0
VERTEX
  5
99FA
330
99F8
100
AcDbEntity
  8
STAVBA OBRYS
100
AcDbVertex
100
AcDb2dVertex
 10
3122.28647626947
 20
-1446.275286001409
 30
0.0
 42
0.0707158694326265
  0
VERTEX
  5
99FB
330
99F8
100
AcDbEntity
  8
STAVBA OBRYS
100
AcDbVertex
100
AcDb2dVertex
 10
3122.923828089177
 20
-1448.598610144523
 30
0.0
 42
0.033952657250207
  0
VERTEX
  5
99FC
330
99F8
100
AcDbEntity
  8
STAVBA OBRYS
100
AcDbVertex
100
AcDb2dVertex
 10
3125.622215096464
 20
-1453.82225541473
 30
0.0
 42
0.0571374688189033
  0
VERTEX
  5
99FD
330
99F8
100
AcDbEntity
  8
STAVBA OBRYS
100
AcDbVertex
100
AcDb2dVertex
 10
3127.765603208293
 20
-1456.590564555154
 30
0.0
 42
0.0274923553235744
  0
VERTEX
  5
99FE
330
99F8
100
AcDbEntity
  8
STAVBA OBRYS
100
AcDbVertex
100
AcDb2dVertex
 10
3130.88237008495
 20
-1459.452654942915
 30
0.0
 42
0.0255412025538677
  0
VERTEX
  5
99FF
330
99F8
100
AcDbEntity
  8
STAVBA OBRYS
100
AcDbVertex
100
AcDb2dVertex
 10
3134.544086130209
 20
-1462.16071135534
 30
0.0
 42
0.0272796991712396
  0
VERTEX
  5
9A00
330
99F8
100
AcDbEntity
  8
STAVBA OBRYS
100
AcDbVertex
100
AcDb2dVertex
 10
3139.479685114031
 20
-1465.060314413334
 30
0.0
 42
0.056967459841729
  0
VERTEX
  5
9A01
330
99F8
100
AcDbEntity
  8
STAVBA OBRYS
100
AcDbVertex
100
AcDb2dVertex
 10
3142.048821850909
 20
-1466.035597415573
 30
0.0
 42
0.0373408083348504
  0
VERTEX
  5
9A02
330
99F8
100
AcDbEntity
  8
STAVBA OBRYS
100
AcDbVertex
100
AcDb2dVertex
 10
3142.315647101478
 20
-1466.082596064714
 30
0.0
 42
0.0052305969362967
  0
VERTEX
  5
9A03
330
99F8
100
AcDbEntity
  8
STAVBA OBRYS
100
AcDbVertex
100
AcDb2dVertex
 10
3142.730798829992
 20
-1466.119744425
 30
0.0
  0
SEQEND
  5
9A04
330
99F8
100
AcDbEntity
  8
STAVBA OBRYS
  0
LWPOLYLINE
  5
9A05
330
1F
100
AcDbEntity
  8
STAVBA OBRYS
100
AcDbPolyline
 90
        7
 70
     0
 43
0.0
 10
3137.313076654366
 20
-1445.781599747879
 42
0.0203924744732807
 10
3138.395577435662
 20
-1446.997355782864
 42
0.0273961979096945
 10
3139.415414655891
 20
-1447.943167431695
 42
0.0243529190212958
 10
3140.811159246795
 20
-1448.991678645296
 42
0.0398020282482987
 10
3141.741109491869
 20
-1449.519233137432
 42
0.104168275620852
 10
3142.204802855475
 20
-1449.627252889645
 42
0.007272956268647
 10
3142.730798829992
 20
-1449.649396911198
 42
0.007272956268647
  0
POLYLINE
  5
9A06
330
1F
100
AcDbEntity
  8
STAVBA OBRYS
100
AcDb2dPolyline
 66
     1
 10
0.0
 20
0.0
 30
0.0
  0
VERTEX
  5
9A07
330
9A06
100
AcDbEntity
  8
STAVBA OBRYS
100
AcDbVertex
100
AcDb2dVertex
 10
3122.219791828062
 20
-1445.781599747877
 30
0.0
 42
-0.0072417954699014
  0
VERTEX
  5
9A08
330
9A06
100
AcDbEntity
  8
STAVBA OBRYS
100
AcDbVertex
100
AcDb2dVertex
 10
3122.28647626947
 20
-1445.287913494348
 30
0.0
 42
-0.0707158694326265
  0
VERTEX
  5
9A09
330
9A06
100
AcDbEntity
  8
STAVBA OBRYS
100
AcDbVertex
100
AcDb2dVertex
 10
3122.923828089177
 20
-1442.964589351235
 30
0.0
 42
-0.033952657250207
  0
VERTEX
  5
9A0A
330
9A06
100
AcDbEntity
  8
STAVBA OBRYS
100
AcDbVertex
100
AcDb2dVertex
 10
3125.622215096464
 20
-1437.740944081028
 30
0.0
 42
-0.0571374688189033
  0
VERTEX
  5
9A0B
330
9A06
100
AcDbEntity
  8
STAVBA OBRYS
100
AcDbVertex
100
AcDb2dVertex
 10
3127.765603208293
 20
-1434.972634940603
 30
0.0
 42
-0.0274923553235744
  0
VERTEX
  5
9A0C
330
9A06
100
AcDbEntity
  8
STAVBA OBRYS
100
AcDbVertex
100
AcDb2dVertex
 10
3130.88237008495
 20
-1432.110544552843
 30
0.0
 42
-0.0255412025538677
  0
VERTEX
  5
9A0D
330
9A06
100
AcDbEntity
  8
STAVBA OBRYS
100
AcDbVertex
100
AcDb2dVertex
 10
3134.544086130209
 20
-1429.402488140418
 30
0.0
 42
-0.0272796991712396
  0
VERTEX
  5
9A0E
330
9A06
100
AcDbEntity
  8
STAVBA OBRYS
100
AcDbVertex
100
AcDb2dVertex
 10
3139.479685114031
 20
-1426.502885082423
 30
0.0
 42
-0.056967459841729
  0
VERTEX
  5
9A0F
330
9A06
100
AcDbEntity
  8
STAVBA OBRYS
100
AcDbVertex
100
AcDb2dVertex
 10
3142.048821850909
 20
-1425.527602080184
 30
0.0
 42
-0.0373408083348504
  0
VERTEX
  5
9A10
330
9A06
100
AcDbEntity
  8
STAVBA OBRYS
100
AcDbVertex
100
AcDb2dVertex
 10
3142.315647101478
 20
-1425.480603431044
 30
0.0
 42
-0.0052305969362967
  0
VERTEX
  5
9A11
330
9A06
100
AcDbEntity
  8
STAVBA OBRYS
100
AcDbVertex
100
AcDb2dVertex
 10
3142.730798829992
 20
-1425.443455070758
 30
0.0
  0
SEQEND
  5
9A12
330
9A06
100
AcDbEntity
  8
STAVBA OBRYS
  0
POLYLINE
  5
9A13
330
1F
100
AcDbEntity
  8
STAVBA OBRYS
100
AcDb2dPolyline
 66
     1
 10
0.0
 20
0.0
 30
0.0
  0
VERTEX
  5
9A14
330
9A13
100
AcDbEntity
  8
STAVBA OBRYS
100
AcDbVertex
100
AcDb2dVertex
 10
3130.893453052948
 20
-1445.781599747877
 30
0.0
 42
-0.0064239028828688
  0
VERTEX
  5
9A15
330
9A13
100
AcDbEntity
  8
STAVBA OBRYS
100
AcDbVertex
100
AcDb2dVertex
 10
3130.940095181166
 20
-1445.518663356657
 30
0.0
 42
-0.0832048017309575
  0
VERTEX
  5
9A16
330
9A13
100
AcDbEntity
  8
STAVBA OBRYS
100
AcDbVertex
100
AcDb2dVertex
 10
3131.881114304383
 20
-1442.722407061071
 30
0.0
 42
-0.0336767237692336
  0
VERTEX
  5
9A17
330
9A13
100
AcDbEntity
  8
STAVBA OBRYS
100
AcDbVertex
100
AcDb2dVertex
 10
3133.924494175085
 20
-1439.448477637719
 30
0.0
 42
-0.0844635135812105
  0
VERTEX
  5
9A18
330
9A13
100
AcDbEntity
  8
STAVBA OBRYS
100
AcDbVertex
100
AcDb2dVertex
 10
3135.028265886959
 20
-1438.363171711724
 30
0.0
 42
-0.0495829410719565
  0
VERTEX
  5
9A19
330
9A13
100
AcDbEntity
  8
STAVBA OBRYS
100
AcDbVertex
100
AcDb2dVertex
 10
3137.126680011785
 20
-1437.191192302949
 30
0.0
 42
-0.0322692699774654
  0
VERTEX
  5
9A1A
330
9A13
100
AcDbEntity
  8
STAVBA OBRYS
100
AcDbVertex
100
AcDb2dVertex
 10
3140.596305029093
 20
-1435.941364101268
 30
0.0
 42
-0.0276160659512937
  0
VERTEX
  5
9A1B
330
9A13
100
AcDbEntity
  8
STAVBA OBRYS
100
AcDbVertex
100
AcDb2dVertex
 10
3141.622996755036
 20
-1435.705281586535
 30
0.0
 42
-0.0126891984598699
  0
VERTEX
  5
9A1C
330
9A13
100
AcDbEntity
  8
STAVBA OBRYS
100
AcDbVertex
100
AcDb2dVertex
 10
3142.730798829992
 20
-1435.543038719085
 30
0.0
  0
SEQEND
  5
9A1D
330
9A13
100
AcDbEntity
  8
STAVBA OBRYS
  0
LWPOLYLINE
  5
9A1E
330
1F
100
AcDbEntity
  8
STAVBA OBRYS
100
AcDbPolyline
 90
        7
 70
     0
 43
0.0
 10
3137.313076654366
 20
-1445.781599747879
 42
-0.0203924744732807
 10
3138.395577435662
 20
-1444.565843712894
 42
-0.0273961979096945
 10
3139.415414655891
 20
-1443.620032064062
 42
-0.0243529190212958
 10
3140.811159246795
 20
-1442.571520850461
 42
-0.0398020282482987
 10
3141.741109491869
 20
-1442.043966358325
 42
-0.104168275620852
 10
3142.204802855475
 20
-1441.935946606113
 42
-0.007272956268647
 10
3142.730798829992
 20
-1441.913802584559
 42
-0.007272956268647
  0
LWPOLYLINE
  5
9A1F
330
1F
100
AcDbEntity
  8
STAVBA OBRYS
100
AcDbPolyline
 90
       10
 70
     0
 43
0.0
 10
3113.880058199637
 20
-1445.781599747879
 42
-0.0168162630274194
 10
3114.042088894513
 20
-1443.752353965335
 42
-0.0575155827655532
 10
3114.858127630931
 20
-1440.032804372474
 42
-0.0310289133982999
 10
3118.461489244717
 20
-1431.338771342901
 42
-0.0882970623535771
 10
3120.426155548838
 20
-1428.650328481942
 42
-0.0171636441953577
 10
3123.802192423061
 20
-1425.633627655647
 42
-0.0157521173632038
 10
3127.688818227504
 20
-1422.595832392639
 42
-0.0073640874174249
 10
3133.249197455091
 20
-1418.649750681756
 42
-0.0194185739168057
 10
3135.435649438707
 20
-1417.267867882618
 42
-0.0567960585128809
 10
3142.730798829992
 20
-1414.085630836168
 42
-0.0229547400386702
  0
LWPOLYLINE
  5
9A20
330
1F
100
AcDbEntity
  8
STAVBA OBRYS
100
AcDbPolyline
 90
       10
 70
     0
 43
0.0
 10
3113.880058199637
 20
-1445.781599747879
 42
0.0168162630274194
 10
3114.042088894513
 20
-1447.810845530422
 42
0.0575155827655532
 10
3114.858127630931
 20
-1451.530395123283
 42
0.0310289133982999
 10
3118.461489244717
 20
-1460.224428152856
 42
0.0882970623535771
 10
3120.426155548838
 20
-1462.912871013816
 42
0.0171636441953577
 10
3123.802192423061
 20
-1465.929571840111
 42
0.0157521173632038
 10
3127.688818227504
 20
-1468.967367103118
 42
0.0073640874174249
 10
3133.249197455091
 20
-1472.913448814002
 42
0.0194185739168057
 10
3135.435649438707
 20
-1474.29533161314
 42
0.0567960585128809
 10
3142.730798829992
 20
-1477.47756865959
 42
0.0229547400386702
  0
LWPOLYLINE
  5
9A21
330
1F
100
AcDbEntity
  8
STAVBA OBRYS
100
AcDbPolyline
 90
        6
 70
     0
 43
0.0
 10
3092.890528675377
 20
-1445.781599747879
 42
-0.0128837512779302
 10
3093.232279027642
 20
-1441.781801961783
 42
-0.0351641677647434
 10
3093.985590693472
 20
-1437.457350616577
 42
-0.0187319685742942
 10
3098.046409750667
 20
-1423.347465806005
 42
-0.0582629403736403
 10
3100.037809592356
 20
-1419.051664767286
 42
-0.0132943096135683
 10
3101.974314977482
 20
-1416.076896937745
 42
-0.0132943096135683
  0
LWPOLYLINE
  5
9A22
330
1F
100
AcDbEntity
  8
STAVBA OBRYS
100
AcDbPolyline
 90
        3
 70
     0
 43
0.0
 10
3134.680721880741
 20
-1439.160802913256
 10
3114.57446073707
 20
-1429.100313871695
 10
3104.773935158116
 20
-1419.282751830378
  0
LWPOLYLINE
  5
9A23
330
1F
100
AcDbEntity
  8
STAVBA OBRYS
100
AcDbPolyline
 90
        8
 70
     0
 43
0.0
 10
3103.239587131426
 20
-1445.781599747879
 42
-0.0120721047703132
 10
3103.322366359473
 20
-1443.700933981386
 42
-0.044358077361292
 10
3103.797119641084
 20
-1440.465973959286
 42
-0.0188067511131767
 10
3106.220907779138
 20
-1431.775298948918
 42
-0.0457786284636091
 10
3107.670535246679
 20
-1428.356966489462
 42
-0.0295006114745606
 10
3110.56980779184
 20
-1423.644687433379
 42
-0.0258674098621065
 10
3114.449018168595
 20
-1418.669751338875
 42
-0.0199858822254975
 10
3116.064171354546
 20
-1416.250461246707
 42
-0.0199858822254975
  0
LWPOLYLINE
  5
9A24
330
1F
100
AcDbEntity
  8
STAVBA OBRYS
100
AcDbPolyline
 90
        3
 70
     0
 43
0.0
 10
3134.680721880741
 20
-1452.402396582501
 10
3114.57446073707
 20
-1462.462885624063
 10
3104.773935158116
 20
-1472.28044766538
  0
LWPOLYLINE
  5
9A25
330
1F
100
AcDbEntity
  8
STAVBA OBRYS
100
AcDbPolyline
 90
        8
 70
     0
 43
0.0
 10
3182.221226721802
 20
-1446.030409597799
 42
0.0120721047703132
 10
3182.151558132752
 20
-1443.949263586546
 42
0.044358077361292
 10
3181.697195768462
 20
-1440.711376642117
 42
0.0188067511131767
 10
3179.328210337979
 20
-1432.005603321833
 42
0.0457786284636091
 10
3177.900148453705
 20
-1428.57820549656
 42
0.0295006114745606
 10
3175.030622625939
 20
-1423.84775343388
 42
0.0258674098621065
 10
3171.182833256568
 20
-1418.84847555998
 42
0.0158254702278021
 10
3169.931856283232
 20
-1416.914024256849
 42
0.0158254702278021
  0
POLYLINE
  5
9A26
330
1F
100
AcDbEntity
  8
STAVBA OBRYS
100
AcDb2dPolyline
 66
     1
 10
0.0
 20
0.0
 30
0.0
  0
VERTEX
  5
9A27
330
9A26
100
AcDbEntity
  8
STAVBA OBRYS
100
AcDbVertex
100
AcDb2dVertex
 10
3163.241398737144
 20
-1445.910826995013
 30
0.0
 42
0.0072417954699014
  0
VERTEX
  5
9A28
330
9A26
100
AcDbEntity
  8
STAVBA OBRYS
100
AcDbVertex
100
AcDb2dVertex
 10
3163.177826032876
 20
-1445.416730402308
 30
0.0
 42
0.0707158694326265
  0
VERTEX
  5
9A29
330
9A26
100
AcDbEntity
  8
STAVBA OBRYS
100
AcDbVertex
100
AcDb2dVertex
 10
3162.555124700394
 20
-1443.08943680962
 30
0.0
 42
0.033952657250207
  0
VERTEX
  5
9A2A
330
9A26
100
AcDbEntity
  8
STAVBA OBRYS
100
AcDbVertex
100
AcDb2dVertex
 10
3159.889702227582
 20
-1437.84889433851
 30
0.0
 42
0.0571374688189033
  0
VERTEX
  5
9A2B
330
9A26
100
AcDbEntity
  8
STAVBA OBRYS
100
AcDbVertex
100
AcDb2dVertex
 10
3157.763798071149
 20
-1435.067135971481
 30
0.0
 42
0.0274923553235744
  0
VERTEX
  5
9A2C
330
9A26
100
AcDbEntity
  8
STAVBA OBRYS
100
AcDbVertex
100
AcDb2dVertex
 10
3154.665125327131
 20
-1432.185465557181
 30
0.0
 42
0.0255412025538677
  0
VERTEX
  5
9A2D
330
9A26
100
AcDbEntity
  8
STAVBA OBRYS
100
AcDbVertex
100
AcDb2dVertex
 10
3151.020543757073
 20
-1429.454392671276
 30
0.0
 42
0.0272796991712396
  0
VERTEX
  5
9A2E
330
9A26
100
AcDbEntity
  8
STAVBA OBRYS
100
AcDbVertex
100
AcDb2dVertex
 10
3146.103311349671
 20
-1426.523750988199
 30
0.0
 42
0.056967459841729
  0
VERTEX
  5
9A2F
330
9A26
100
AcDbEntity
  8
STAVBA OBRYS
100
AcDbVertex
100
AcDb2dVertex
 10
3143.540370262742
 20
-1425.532300791663
 30
0.0
 42
0.0373408083348504
  0
VERTEX
  5
9A30
330
9A26
100
AcDbEntity
  8
STAVBA OBRYS
100
AcDbVertex
100
AcDb2dVertex
 10
3143.273846417626
 20
-1425.483621973445
 30
0.0
 42
0.0052305969362967
  0
VERTEX
  5
9A31
330
9A26
100
AcDbEntity
  8
STAVBA OBRYS
100
AcDbVertex
100
AcDb2dVertex
 10
3142.858936977868
 20
-1425.443858734616
 30
0.0
  0
SEQEND
  5
9A32
330
9A26
100
AcDbEntity
  8
STAVBA OBRYS
  0
LWPOLYLINE
  5
9A33
330
1F
100
AcDbEntity
  8
STAVBA OBRYS
100
AcDbPolyline
 90
        3
 70
     0
 43
0.0
 10
3149.827570555474
 20
-1436.864594078209
 10
3170.991676614901
 20
-1429.278040734396
 10
3181.894826215027
 20
-1420.701552242246
  0
LWPOLYLINE
  5
9A34
330
1F
100
AcDbEntity
  8
STAVBA OBRYS
100
AcDbPolyline
 90
       10
 70
     0
 43
0.0
 10
3171.580966841666
 20
-1445.963370530225
 42
0.0168162630274194
 10
3171.431724393024
 20
-1443.933144167582
 42
0.0575155827655532
 10
3170.639136448652
 20
-1440.20852704048
 42
0.0310289133982999
 10
3167.090622110973
 20
-1431.491964000244
 42
0.0882970623535771
 10
3165.142933026717
 20
-1428.791196343774
 42
0.0171636441953577
 10
3161.785969536363
 20
-1425.753285058708
 42
0.0157521173632038
 10
3157.918560152848
 20
-1422.691062848611
 42
0.0073640874174249
 10
3152.38315312081
 20
-1418.710026926491
 42
0.0194185739168057
 10
3150.205450927159
 20
-1417.314396064494
 42
0.0567960585128809
 10
3142.930495646786
 20
-1414.086259925856
 42
0.0229547400386702
  0
LWPOLYLINE
  5
9A35
330
1F
100
AcDbEntity
  8
STAVBA OBRYS
100
AcDbPolyline
 90
        3
 70
     0
 43
0.0
 10
3155.405711202035
 20
-1447.657095721997
 10
3171.620653886301
 20
-1463.231138571522
 10
3178.066208638117
 20
-1475.51485340052
  0
LWPOLYLINE
  5
9A36
330
1F
100
AcDbEntity
  8
STAVBA OBRYS
100
AcDbPolyline
 90
       10
 70
     0
 43
0.0
 10
3171.580966841666
 20
-1445.599828965532
 42
-0.0168162630274194
 10
3171.431724393024
 20
-1447.630055328176
 42
-0.0575155827655532
 10
3170.639136448652
 20
-1451.354672455278
 42
-0.0310289133982999
 10
3167.090622110973
 20
-1460.071235495514
 42
-0.0882970623535771
 10
3165.142933026717
 20
-1462.772003151983
 42
-0.0171636441953577
 10
3161.785969536363
 20
-1465.809914437049
 42
-0.0157521173632038
 10
3157.918560152848
 20
-1468.872136647147
 42
-0.0073640874174249
 10
3152.38315312081
 20
-1472.853172569267
 42
-0.0194185739168057
 10
3150.205450927159
 20
-1474.248803431263
 42
-0.0567960585128809
 10
3142.930495646786
 20
-1477.476939569902
 42
-0.0229547400386702
  0
POLYLINE
  5
9A37
330
1F
100
AcDbEntity
  8
STAVBA OBRYS
100
AcDb2dPolyline
 66
     1
 10
0.0
 20
0.0
 30
0.0
  0
VERTEX
  5
9A38
330
9A37
100
AcDbEntity
  8
STAVBA OBRYS
100
AcDbVertex
100
AcDb2dVertex
 10
3163.241398737144
 20
-1445.652372500745
 30
0.0
 42
-0.0072417954699014
  0
VERTEX
  5
9A39
330
9A37
100
AcDbEntity
  8
STAVBA OBRYS
100
AcDbVertex
100
AcDb2dVertex
 10
3163.177826032876
 20
-1446.14646909345
 30
0.0
 42
-0.0707158694326265
  0
VERTEX
  5
9A3A
330
9A37
100
AcDbEntity
  8
STAVBA OBRYS
100
AcDbVertex
100
AcDb2dVertex
 10
3162.555124700394
 20
-1448.473762686138
 30
0.0
 42
-0.033952657250207
  0
VERTEX
  5
9A3B
330
9A37
100
AcDbEntity
  8
STAVBA OBRYS
100
AcDbVertex
100
AcDb2dVertex
 10
3159.889702227582
 20
-1453.714305157248
 30
0.0
 42
-0.0571374688189033
  0
VERTEX
  5
9A3C
330
9A37
100
AcDbEntity
  8
STAVBA OBRYS
100
AcDbVertex
100
AcDb2dVertex
 10
3157.763798071149
 20
-1456.496063524276
 30
0.0
 42
-0.0274923553235744
  0
VERTEX
  5
9A3D
330
9A37
100
AcDbEntity
  8
STAVBA OBRYS
100
AcDbVertex
100
AcDb2dVertex
 10
3154.665125327131
 20
-1459.377733938577
 30
0.0
 42
-0.0255412025538677
  0
VERTEX
  5
9A3E
330
9A37
100
AcDbEntity
  8
STAVBA OBRYS
100
AcDbVertex
100
AcDb2dVertex
 10
3151.020543757073
 20
-1462.108806824481
 30
0.0
 42
-0.0272796991712396
  0
VERTEX
  5
9A3F
330
9A37
100
AcDbEntity
  8
STAVBA OBRYS
100
AcDbVertex
100
AcDb2dVertex
 10
3146.103311349671
 20
-1465.039448507559
 30
0.0
 42
-0.056967459841729
  0
VERTEX
  5
9A40
330
9A37
100
AcDbEntity
  8
STAVBA OBRYS
100
AcDbVertex
100
AcDb2dVertex
 10
3143.540370262742
 20
-1466.030898704095
 30
0.0
 42
-0.0373408083348504
  0
VERTEX
  5
9A41
330
9A37
100
AcDbEntity
  8
STAVBA OBRYS
100
AcDbVertex
100
AcDb2dVertex
 10
3143.273846417626
 20
-1466.079577522313
 30
0.0
 42
-0.0052305969362967
  0
VERTEX
  5
9A42
330
9A37
100
AcDbEntity
  8
STAVBA OBRYS
100
AcDbVertex
100
AcDb2dVertex
 10
3142.858936977868
 20
-1466.119340761141
 30
0.0
  0
SEQEND
  5
9A43
330
9A37
100
AcDbEntity
  8
STAVBA OBRYS
  0
POLYLINE
  5
9A44
330
1F
100
AcDbEntity
  8
STAVBA OBRYS
100
AcDb2dPolyline
 66
     1
 10
0.0
 20
0.0
 30
0.0
  0
VERTEX
  5
9A45
330
9A44
100
AcDbEntity
  8
STAVBA OBRYS
100
AcDbVertex
100
AcDb2dVertex
 10
3154.567909663831
 20
-1445.70701990848
 30
0.0
 42
-0.0064239028828688
  0
VERTEX
  5
9A46
330
9A44
100
AcDbEntity
  8
STAVBA OBRYS
100
AcDbVertex
100
AcDb2dVertex
 10
3154.52292506192
 20
-1445.970244944416
 30
0.0
 42
-0.0832048017309575
  0
VERTEX
  5
9A47
330
9A44
100
AcDbEntity
  8
STAVBA OBRYS
100
AcDbVertex
100
AcDb2dVertex
 10
3153.599542107787
 20
-1448.772374524014
 30
0.0
 42
-0.0336767237692336
  0
VERTEX
  5
9A48
330
9A44
100
AcDbEntity
  8
STAVBA OBRYS
100
AcDbVertex
100
AcDb2dVertex
 10
3151.576829810144
 20
-1452.059113048159
 30
0.0
 42
-0.0844635135812105
  0
VERTEX
  5
9A49
330
9A44
100
AcDbEntity
  8
STAVBA OBRYS
100
AcDbVertex
100
AcDb2dVertex
 10
3150.479917851026
 20
-1453.151351620483
 30
0.0
 42
-0.0495829410719565
  0
VERTEX
  5
9A4A
330
9A44
100
AcDbEntity
  8
STAVBA OBRYS
100
AcDbVertex
100
AcDb2dVertex
 10
3148.388929296587
 20
-1454.33652858577
 30
0.0
 42
-0.0322692699774654
  0
VERTEX
  5
9A4B
330
9A44
100
AcDbEntity
  8
STAVBA OBRYS
100
AcDbVertex
100
AcDb2dVertex
 10
3144.927247542325
 20
-1455.608191955808
 30
0.0
 42
-0.0276160659512937
  0
VERTEX
  5
9A4C
330
9A44
100
AcDbEntity
  8
STAVBA OBRYS
100
AcDbVertex
100
AcDb2dVertex
 10
3143.90206360458
 20
-1455.850738338329
 30
0.0
 42
-0.0126891984598699
  0
VERTEX
  5
9A4D
330
9A44
100
AcDbEntity
  8
STAVBA OBRYS
100
AcDbVertex
100
AcDb2dVertex
 10
3142.795305709446
 20
-1456.019957565558
 30
0.0
  0
SEQEND
  5
9A4E
330
9A44
100
AcDbEntity
  8
STAVBA OBRYS
  0
LWPOLYLINE
  5
9A4F
330
1F
100
AcDbEntity
  8
STAVBA OBRYS
100
AcDbPolyline
 90
        7
 70
     0
 43
0.0
 10
3148.148413476691
 20
-1445.747466010689
 42
-0.0203924744732807
 10
3147.073593911923
 20
-1446.970018087822
 42
-0.0273961979096945
 10
3146.059735910855
 20
-1447.922236331976
 42
-0.0243529190212958
 10
3144.670625046802
 20
-1448.979520463832
 42
-0.0398020282482987
 10
3143.744017055611
 20
-1449.512923530124
 42
-0.104168275620852
 10
3143.281013461271
 20
-1449.623862585256
 42
-0.007272956268647
 10
3142.755167442393
 20
-1449.649320144613
 42
-0.007272956268647
  0
LWPOLYLINE
  5
9A50
330
1F
100
AcDbEntity
  8
STAVBA OBRYS
100
AcDbPolyline
 90
        7
 70
     0
 43
0.0
 10
3148.148413476691
 20
-1445.815733485069
 42
0.0203924744732807
 10
3147.073593911923
 20
-1444.593181407936
 42
0.0273961979096945
 10
3146.059735910855
 20
-1443.640963163782
 42
0.0243529190212958
 10
3144.670625046802
 20
-1442.583679031926
 42
0.0398020282482987
 10
3143.744017055611
 20
-1442.050275965633
 42
0.104168275620852
 10
3143.281013461271
 20
-1441.939336910501
 42
0.007272956268647
 10
3142.755167442393
 20
-1441.913879351145
 42
0.007272956268647
  0
POLYLINE
  5
9A51
330
1F
100
AcDbEntity
  8
STAVBA OBRYS
100
AcDb2dPolyline
 66
     1
 10
0.0
 20
0.0
 30
0.0
  0
VERTEX
  5
9A52
330
9A51
100
AcDbEntity
  8
STAVBA OBRYS
100
AcDbVertex
100
AcDb2dVertex
 10
3154.567909663831
 20
-1445.856179587278
 30
0.0
 42
0.0064239028828688
  0
VERTEX
  5
9A53
330
9A51
100
AcDbEntity
  8
STAVBA OBRYS
100
AcDbVertex
100
AcDb2dVertex
 10
3154.52292506192
 20
-1445.592954551341
 30
0.0
 42
0.0832048017309575
  0
VERTEX
  5
9A54
330
9A51
100
AcDbEntity
  8
STAVBA OBRYS
100
AcDbVertex
100
AcDb2dVertex
 10
3153.599542107787
 20
-1442.790824971743
 30
0.0
 42
0.0336767237692336
  0
VERTEX
  5
9A55
330
9A51
100
AcDbEntity
  8
STAVBA OBRYS
100
AcDbVertex
100
AcDb2dVertex
 10
3151.576829810144
 20
-1439.504086447599
 30
0.0
 42
0.0844635135812105
  0
VERTEX
  5
9A56
330
9A51
100
AcDbEntity
  8
STAVBA OBRYS
100
AcDbVertex
100
AcDb2dVertex
 10
3150.479917851026
 20
-1438.411847875275
 30
0.0
 42
0.0495829410719565
  0
VERTEX
  5
9A57
330
9A51
100
AcDbEntity
  8
STAVBA OBRYS
100
AcDbVertex
100
AcDb2dVertex
 10
3148.388929296587
 20
-1437.226670909988
 30
0.0
 42
0.0322692699774654
  0
VERTEX
  5
9A58
330
9A51
100
AcDbEntity
  8
STAVBA OBRYS
100
AcDbVertex
100
AcDb2dVertex
 10
3144.927247542325
 20
-1435.95500753995
 30
0.0
 42
0.0276160659512937
  0
VERTEX
  5
9A59
330
9A51
100
AcDbEntity
  8
STAVBA OBRYS
100
AcDbVertex
100
AcDb2dVertex
 10
3143.90206360458
 20
-1435.712461157429
 30
0.0
 42
0.0126891984598699
  0
VERTEX
  5
9A5A
330
9A51
100
AcDbEntity
  8
STAVBA OBRYS
100
AcDbVertex
100
AcDb2dVertex
 10
3142.795305709446
 20
-1435.543241930199
 30
0.0
  0
SEQEND
  5
9A5B
330
9A51
100
AcDbEntity
  8
STAVBA OBRYS
  0
LWPOLYLINE
  5
9A5C
330
1F
100
AcDbEntity
  8
STAVBA OBRYS
100
AcDbPolyline
 90
        2
 70
     0
 43
0.0
 10
3173.980486387362
 20
-1453.383869045654
 10
3182.149795200229
 20
-1457.086780483385
  0
LWPOLYLINE
  5
9A5D
330
1F
100
AcDbEntity
  8
STAVBA OBRYS
100
AcDbPolyline
 90
        2
 70
     0
 43
0.0
 10
3173.980486387362
 20
-1438.179330450104
 10
3182.149795200229
 20
-1434.476419012373
  0
LINE
  5
9A5E
330
1F
100
AcDbEntity
  8
SPOJOVACÍ
  6
Continuous
100
AcDbLine
 10
3251.725186580002
 20
-1657.52162329012
 30
0.0
 11
3252.683267649986
 21
-1658.728991473019
 31
0.0
  0
LINE
  5
9A5F
330
1F
100
AcDbEntity
  8
SPOJOVACÍ
  6
Continuous
100
AcDbLine
 10
3244.435398867786
 20
-1661.183725398075
 30
0.0
 11
3254.635706645053
 21
-1661.183725398075
 31
0.0
  0
LINE
  5
9A60
330
1F
100
AcDbEntity
  8
SPOJOVACÍ
  6
Continuous
100
AcDbLine
 10
3244.435398867786
 20
-1659.983798621344
 30
0.0
 11
3254.635706645053
 21
-1659.983798621344
 31
0.0
  0
LINE
  5
9A61
330
1F
100
AcDbEntity
  8
SPOJOVACÍ
  6
Continuous
100
AcDbLine
 10
3251.935406309344
 20
-1649.18352745666
 30
0.0
 11
3251.557754938399
 21
-1649.402118768686
 31
0.0
  0
LINE
  5
9A62
330
1F
100
AcDbEntity
  8
SPOJOVACÍ
  6
Continuous
100
AcDbLine
 10
3247.135699203495
 20
-1650.383454233122
 30
0.0
 11
3251.935406309344
 21
-1649.18352745666
 31
0.0
  0
LINE
  5
9A63
330
1F
100
AcDbEntity
  8
SPOJOVACÍ
  6
Continuous
100
AcDbLine
 10
3251.935406309344
 20
-1649.18352745666
 30
0.0
 11
3251.557754938399
 21
-1648.805876083532
 31
0.0
  0
LINE
  5
9A64
330
1F
100
AcDbEntity
  8
SPOJOVACÍ
  6
Continuous
100
AcDbLine
 10
3247.135699203495
 20
-1647.26364461416
 30
0.0
 11
3251.935406309344
 21
-1646.063717837421
 31
0.0
  0
LINE
  5
9A65
330
1F
100
AcDbEntity
  8
SPOJOVACÍ
  6
Continuous
100
AcDbLine
 10
3251.935406309344
 20
-1646.063717837421
 30
0.0
 11
3251.557754938399
 21
-1645.68606646457
 31
0.0
  0
LINE
  5
9A66
330
1F
100
AcDbEntity
  8
SPOJOVACÍ
  6
Continuous
100
AcDbLine
 10
3251.935406309344
 20
-1646.063717837421
 30
0.0
 11
3251.557754938399
 21
-1646.282309149448
 31
0.0
  0
LINE
  5
9A67
330
1F
100
AcDbEntity
  8
SPOJOVACÍ
  6
Continuous
100
AcDbLine
 10
3247.135699203495
 20
-1644.143834994922
 30
0.0
 11
3251.935406309344
 21
-1642.94390821846
 31
0.0
  0
LINE
  5
9A68
330
1F
100
AcDbEntity
  8
SPOJOVACÍ
  6
Continuous
100
AcDbLine
 10
3251.935406309344
 20
-1642.94390821846
 30
0.0
 11
3251.557754938399
 21
-1642.56532666963
 31
0.0
  0
LINE
  5
9A69
330
1F
100
AcDbEntity
  8
SPOJOVACÍ
  6
Continuous
100
AcDbLine
 10
3251.935406309344
 20
-1642.94390821846
 30
0.0
 11
3251.557754938399
 21
-1643.161569354777
 31
0.0
  0
LINE
  5
9A6A
330
1F
100
AcDbEntity
  8
SPOJOVACÍ
  6
Continuous
100
AcDbLine
 10
3247.135699203495
 20
-1641.024025375952
 30
0.0
 11
3251.935406309344
 21
-1639.82409859949
 31
0.0
  0
LINE
  5
9A6B
330
1F
100
AcDbEntity
  8
SPOJOVACÍ
  6
Continuous
100
AcDbLine
 10
3251.935406309344
 20
-1639.82409859949
 30
0.0
 11
3251.557754938399
 21
-1639.44551705066
 31
0.0
  0
LINE
  5
9A6C
330
1F
100
AcDbEntity
  8
SPOJOVACÍ
  6
Continuous
100
AcDbLine
 10
3251.935406309344
 20
-1639.82409859949
 30
0.0
 11
3251.557754938399
 21
-1640.041759735539
 31
0.0
  0
LINE
  5
9A6D
330
1F
100
AcDbEntity
  8
SPOJOVACÍ
  6
Continuous
100
AcDbLine
 10
3247.135699203495
 20
-1637.903285581012
 30
0.0
 11
3251.935406309344
 21
-1636.70335880455
 31
0.0
  0
LINE
  5
9A6E
330
1F
100
AcDbEntity
  8
SPOJOVACÍ
  6
Continuous
100
AcDbLine
 10
3251.935406309344
 20
-1636.70335880455
 30
0.0
 11
3251.557754938399
 21
-1636.325707431422
 31
0.0
  0
LINE
  5
9A6F
330
1F
100
AcDbEntity
  8
SPOJOVACÍ
  6
Continuous
100
AcDbLine
 10
3251.935406309344
 20
-1636.70335880455
 30
0.0
 11
3251.557754938399
 21
-1636.921950116577
 31
0.0
  0
LINE
  5
9A70
330
1F
100
AcDbEntity
  8
SPOJOVACÍ
  6
Continuous
100
AcDbLine
 10
3248.782110364841
 20
-1631.448795734138
 30
0.0
 11
3249.072325209995
 21
-1629.128007123783
 31
0.0
  0
LINE
  5
9A71
330
1F
100
AcDbEntity
  8
SPOJOVACÍ
  6
Continuous
100
AcDbLine
 10
3249.961573274772
 20
-1628.82383963846
 30
0.0
 11
3250.229463903083
 21
-1630.968825023444
 31
0.0
  0
LINE
  5
9A72
330
1F
100
AcDbEntity
  8
SPOJOVACÍ
  6
Continuous
100
AcDbLine
 10
3248.119825195313
 20
-1655.37105685011
 30
0.0
 11
3248.185867677234
 21
-1654.584128126987
 31
0.0
  0
LINE
  5
9A73
330
1F
100
AcDbEntity
  8
SPOJOVACÍ
  6
Continuous
100
AcDbLine
 10
3248.185867677234
 20
-1654.584128126987
 30
0.0
 11
3248.185867677234
 21
-1650.546234997307
 31
0.0
  0
LINE
  5
9A74
330
1F
100
AcDbEntity
  8
SPOJOVACÍ
  6
Continuous
100
AcDbLine
 10
3247.513350578806
 20
-1650.762035781952
 30
0.0
 11
3251.557754938399
 21
-1649.402118768686
 31
0.0
  0
LINE
  5
9A75
330
1F
100
AcDbEntity
  8
SPOJOVACÍ
  6
Continuous
100
AcDbLine
 10
3247.135699203495
 20
-1650.383454233122
 30
0.0
 11
3247.513350578806
 21
-1650.762035781952
 31
0.0
  0
LINE
  5
9A76
330
1F
100
AcDbEntity
  8
SPOJOVACÍ
  6
Continuous
100
AcDbLine
 10
3247.135699203495
 20
-1650.383454233122
 30
0.0
 11
3247.513350578806
 21
-1650.165793097074
 31
0.0
  0
LINE
  5
9A77
330
1F
100
AcDbEntity
  8
SPOJOVACÍ
  6
Continuous
100
AcDbLine
 10
3247.513350578806
 20
-1650.165793097074
 30
0.0
 11
3251.557754938399
 21
-1648.805876083532
 31
0.0
  0
LINE
  5
9A78
330
1F
100
AcDbEntity
  8
SPOJOVACÍ
  6
Continuous
100
AcDbLine
 10
3248.185867677234
 20
-1649.950922488131
 30
0.0
 11
3248.185867677234
 21
-1647.432006433102
 31
0.0
  0
LINE
  5
9A79
330
1F
100
AcDbEntity
  8
SPOJOVACÍ
  6
Continuous
100
AcDbLine
 10
3244.435398867786
 20
-1661.183725398075
 30
0.0
 11
3244.435398867786
 21
-1659.983798621344
 31
0.0
  0
LINE
  5
9A7A
330
1F
100
AcDbEntity
  8
SPOJOVACÍ
  6
Continuous
100
AcDbLine
 10
3244.435398867786
 20
-1659.983798621344
 30
0.0
 11
3245.785083951337
 21
-1659.23965798487
 31
0.0
  0
LINE
  5
9A7B
330
1F
100
AcDbEntity
  8
SPOJOVACÍ
  6
Continuous
100
AcDbLine
 10
3245.785083951337
 20
-1659.23965798487
 30
0.0
 11
3246.895713851695
 21
-1658.170885995457
 31
0.0
  0
LINE
  5
9A7C
330
1F
100
AcDbEntity
  8
SPOJOVACÍ
  6
Continuous
100
AcDbLine
 10
3246.895713851695
 20
-1658.170885995457
 30
0.0
 11
3247.691944331013
 21
-1656.85189671716
 31
0.0
  0
LINE
  5
9A7D
330
1F
100
AcDbEntity
  8
SPOJOVACÍ
  6
Continuous
100
AcDbLine
 10
3247.691944331013
 20
-1656.85189671716
 30
0.0
 11
3248.119825195313
 21
-1655.37105685011
 31
0.0
  0
LINE
  5
9A7E
330
1F
100
AcDbEntity
  8
SPOJOVACÍ
  6
Continuous
100
AcDbLine
 10
3250.885237839971
 20
-1654.584128126987
 30
0.0
 11
3250.885237839971
 21
-1649.641173948059
 31
0.0
  0
LINE
  5
9A7F
330
1F
100
AcDbEntity
  8
SPOJOVACÍ
  6
Continuous
100
AcDbLine
 10
3250.885237839971
 20
-1654.584128126987
 30
0.0
 11
3251.112200730854
 21
-1656.107756080416
 31
0.0
  0
LINE
  5
9A80
330
1F
100
AcDbEntity
  8
SPOJOVACÍ
  6
Continuous
100
AcDbLine
 10
3251.112200730854
 20
-1656.107756080416
 30
0.0
 11
3251.725186580002
 21
-1657.52162329012
 31
0.0
  0
LINE
  5
9A81
330
1F
100
AcDbEntity
  8
SPOJOVACÍ
  6
Continuous
100
AcDbLine
 10
3248.185867677234
 20
-1646.828322341787
 30
0.0
 11
3248.185867677234
 21
-1644.307545935078
 31
0.0
  0
LINE
  5
9A82
330
1F
100
AcDbEntity
  8
SPOJOVACÍ
  6
Continuous
100
AcDbLine
 10
3248.185867677234
 20
-1643.713163601603
 30
0.0
 11
3248.185867677234
 21
-1641.184945788734
 31
0.0
  0
LINE
  5
9A83
330
1F
100
AcDbEntity
  8
SPOJOVACÍ
  6
Continuous
100
AcDbLine
 10
3250.885237839971
 20
-1649.037489856744
 30
0.0
 11
3250.885237839971
 21
-1646.518573801715
 31
0.0
  0
LINE
  5
9A84
330
1F
100
AcDbEntity
  8
SPOJOVACÍ
  6
Continuous
100
AcDbLine
 10
3250.885237839971
 20
-1645.92233111656
 30
0.0
 11
3250.885237839971
 21
-1643.394113303691
 31
0.0
  0
LINE
  5
9A85
330
1F
100
AcDbEntity
  8
SPOJOVACÍ
  6
Continuous
100
AcDbLine
 10
3250.885237839971
 20
-1642.799730970216
 30
0.0
 11
3250.885237839971
 21
-1640.278954563507
 31
0.0
  0
LINE
  5
9A86
330
1F
100
AcDbEntity
  8
SPOJOVACÍ
  6
Continuous
100
AcDbLine
 10
3248.185867677234
 20
-1640.580331521448
 30
0.0
 11
3248.185867677234
 21
-1638.062345642121
 31
0.0
  0
LINE
  5
9A87
330
1F
100
AcDbEntity
  8
SPOJOVACÍ
  6
Continuous
100
AcDbLine
 10
3248.185867677234
 20
-1637.466102956967
 30
0.0
 11
3248.185867677234
 21
-1636.218737215078
 31
0.0
  0
LINE
  5
9A88
330
1F
100
AcDbEntity
  8
SPOJOVACÍ
  6
Continuous
100
AcDbLine
 10
3250.885237839971
 20
-1639.678060999574
 30
0.0
 11
3250.885237839971
 21
-1637.159144944546
 31
0.0
  0
LINE
  5
9A89
330
1F
100
AcDbEntity
  8
SPOJOVACÍ
  6
Continuous
100
AcDbLine
 10
3250.885237839971
 20
-1636.555460852962
 30
0.0
 11
3250.885237839971
 21
-1636.218737215078
 31
0.0
  0
LINE
  5
9A8A
330
1F
100
AcDbEntity
  8
SPOJOVACÍ
  6
Continuous
100
AcDbLine
 10
3248.185867677234
 20
-1636.218737215078
 30
0.0
 11
3248.335625979958
 21
-1635.021600965721
 31
0.0
  0
LINE
  5
9A8B
330
1F
100
AcDbEntity
  8
SPOJOVACÍ
  6
Continuous
100
AcDbLine
 10
3248.412830572483
 20
-1634.401173709868
 30
0.0
 11
3248.703045422003
 21
-1632.079454923803
 31
0.0
  0
LINE
  5
9A8C
330
1F
100
AcDbEntity
  8
SPOJOVACÍ
  6
Continuous
100
AcDbLine
 10
3250.301087435941
 20
-1631.540883137893
 30
0.0
 11
3250.568047891279
 21
-1633.677496940747
 31
0.0
  0
LINE
  5
9A8D
330
1F
100
AcDbEntity
  8
SPOJOVACÍ
  6
Continuous
100
AcDbLine
 10
3250.639671428503
 20
-1634.247694703792
 30
0.0
 11
3250.885237839971
 21
-1636.218737215078
 31
0.0
  0
LINE
  5
9A8E
330
1F
100
AcDbEntity
  8
SPOJOVACÍ
  6
Continuous
100
AcDbLine
 10
3247.135699203495
 20
-1647.26364461416
 30
0.0
 11
3247.513350578806
 21
-1647.045053302133
 31
0.0
  0
LINE
  5
9A8F
330
1F
100
AcDbEntity
  8
SPOJOVACÍ
  6
Continuous
100
AcDbLine
 10
3247.135699203495
 20
-1647.26364461416
 30
0.0
 11
3247.513350578806
 21
-1647.641295987289
 31
0.0
  0
LINE
  5
9A90
330
1F
100
AcDbEntity
  8
SPOJOVACÍ
  6
Continuous
100
AcDbLine
 10
3247.513350578806
 20
-1647.045053302133
 30
0.0
 11
3251.557754938399
 21
-1645.68606646457
 31
0.0
  0
LINE
  5
9A91
330
1F
100
AcDbEntity
  8
SPOJOVACÍ
  6
Continuous
100
AcDbLine
 10
3247.513350578806
 20
-1647.641295987289
 30
0.0
 11
3251.557754938399
 21
-1646.282309149448
 31
0.0
  0
LINE
  5
9A92
330
1F
100
AcDbEntity
  8
SPOJOVACÍ
  6
Continuous
100
AcDbLine
 10
3247.389637197916
 20
-1634.826264048699
 30
0.0
 11
3247.7682187462
 21
-1634.607672736672
 31
0.0
  0
LINE
  5
9A93
330
1F
100
AcDbEntity
  8
SPOJOVACÍ
  6
Continuous
100
AcDbLine
 10
3247.389637197916
 20
-1634.826264048699
 30
0.0
 11
3247.7682187462
 21
-1635.203915421827
 31
0.0
  0
LINE
  5
9A94
330
1F
100
AcDbEntity
  8
SPOJOVACÍ
  6
Continuous
100
AcDbLine
 10
3251.514966850659
 20
-1633.853300166394
 30
0.0
 11
3251.137315479714
 21
-1633.474718617287
 31
0.0
  0
LINE
  5
9A95
330
1F
100
AcDbEntity
  8
SPOJOVACÍ
  6
Continuous
100
AcDbLine
 10
3251.514966850659
 20
-1633.853300166394
 30
0.0
 11
3251.137315479714
 21
-1634.070961302443
 31
0.0
  0
LINE
  5
9A96
330
1F
100
AcDbEntity
  8
SPOJOVACÍ
  6
Continuous
100
AcDbLine
 10
3247.7682187462
 20
-1634.607672736672
 30
0.0
 11
3251.137315479714
 21
-1633.474718617287
 31
0.0
  0
LINE
  5
9A97
330
1F
100
AcDbEntity
  8
SPOJOVACÍ
  6
Continuous
100
AcDbLine
 10
3247.7682187462
 20
-1635.203915421827
 30
0.0
 11
3251.137315479714
 21
-1634.070961302443
 31
0.0
  0
LINE
  5
9A98
330
1F
100
AcDbEntity
  8
SPOJOVACÍ
  6
Continuous
100
AcDbLine
 10
3247.389637197916
 20
-1634.826264048699
 30
0.0
 11
3251.514966850659
 21
-1633.853300166394
 31
0.0
  0
LINE
  5
9A99
330
1F
100
AcDbEntity
  8
SPOJOVACÍ
  6
Continuous
100
AcDbLine
 10
3247.954253904022
 20
-1631.811564294401
 30
0.0
 11
3248.331905279333
 21
-1631.593903158353
 31
0.0
  0
LINE
  5
9A9A
330
1F
100
AcDbEntity
  8
SPOJOVACÍ
  6
Continuous
100
AcDbLine
 10
3247.954253904022
 20
-1631.811564294401
 30
0.0
 11
3248.331905279333
 21
-1632.190145843507
 31
0.0
  0
LINE
  5
9A9B
330
1F
100
AcDbEntity
  8
SPOJOVACÍ
  6
Continuous
100
AcDbLine
 10
3251.070342820453
 20
-1631.178114577631
 30
0.0
 11
3250.692691449508
 21
-1630.799533028801
 31
0.0
  0
LINE
  5
9A9C
330
1F
100
AcDbEntity
  8
SPOJOVACÍ
  6
Continuous
100
AcDbLine
 10
3251.070342820453
 20
-1631.178114577631
 30
0.0
 11
3250.692691449508
 21
-1631.395775713679
 31
0.0
  0
LINE
  5
9A9D
330
1F
100
AcDbEntity
  8
SPOJOVACÍ
  6
Continuous
100
AcDbLine
 10
3248.331905279333
 20
-1631.593903158353
 30
0.0
 11
3250.692691449508
 21
-1630.799533028801
 31
0.0
  0
LINE
  5
9A9E
330
1F
100
AcDbEntity
  8
SPOJOVACÍ
  6
Continuous
100
AcDbLine
 10
3248.331905279333
 20
-1632.190145843507
 30
0.0
 11
3250.692691449508
 21
-1631.395775713679
 31
0.0
  0
LINE
  5
9A9F
330
1F
100
AcDbEntity
  8
SPOJOVACÍ
  6
Continuous
100
AcDbLine
 10
3247.954253904022
 20
-1631.811564294401
 30
0.0
 11
3251.070342820453
 21
-1631.178114577631
 31
0.0
  0
LINE
  5
9AA0
330
1F
100
AcDbEntity
  8
SPOJOVACÍ
  6
Continuous
100
AcDbLine
 10
3247.135699203495
 20
-1644.143834994922
 30
0.0
 11
3247.513350578806
 21
-1643.925243682895
 31
0.0
  0
LINE
  5
9AA1
330
1F
100
AcDbEntity
  8
SPOJOVACÍ
  6
Continuous
100
AcDbLine
 10
3247.135699203495
 20
-1644.143834994922
 30
0.0
 11
3247.513350578806
 21
-1644.52148636805
 31
0.0
  0
LINE
  5
9AA2
330
1F
100
AcDbEntity
  8
SPOJOVACÍ
  6
Continuous
100
AcDbLine
 10
3247.513350578806
 20
-1643.925243682895
 30
0.0
 11
3251.557754938399
 21
-1642.56532666963
 31
0.0
  0
LINE
  5
9AA3
330
1F
100
AcDbEntity
  8
SPOJOVACÍ
  6
Continuous
100
AcDbLine
 10
3247.513350578806
 20
-1644.52148636805
 30
0.0
 11
3251.557754938399
 21
-1643.161569354777
 31
0.0
  0
LINE
  5
9AA4
330
1F
100
AcDbEntity
  8
SPOJOVACÍ
  6
Continuous
100
AcDbLine
 10
3247.135699203495
 20
-1641.024025375952
 30
0.0
 11
3247.513350578806
 21
-1640.805434063933
 31
0.0
  0
LINE
  5
9AA5
330
1F
100
AcDbEntity
  8
SPOJOVACÍ
  6
Continuous
100
AcDbLine
 10
3247.135699203495
 20
-1641.024025375952
 30
0.0
 11
3247.513350578806
 21
-1641.401676749081
 31
0.0
  0
LINE
  5
9AA6
330
1F
100
AcDbEntity
  8
SPOJOVACÍ
  6
Continuous
100
AcDbLine
 10
3247.513350578806
 20
-1640.805434063933
 30
0.0
 11
3251.557754938399
 21
-1639.44551705066
 31
0.0
  0
LINE
  5
9AA7
330
1F
100
AcDbEntity
  8
SPOJOVACÍ
  6
Continuous
100
AcDbLine
 10
3247.513350578806
 20
-1641.401676749081
 30
0.0
 11
3251.557754938399
 21
-1640.041759735539
 31
0.0
  0
LINE
  5
9AA8
330
1F
100
AcDbEntity
  8
SPOJOVACÍ
  6
Continuous
100
AcDbLine
 10
3247.135699203495
 20
-1637.903285581012
 30
0.0
 11
3247.513350578806
 21
-1637.685624444964
 31
0.0
  0
LINE
  5
9AA9
330
1F
100
AcDbEntity
  8
SPOJOVACÍ
  6
Continuous
100
AcDbLine
 10
3247.135699203495
 20
-1637.903285581012
 30
0.0
 11
3247.513350578806
 21
-1638.281867130119
 31
0.0
  0
LINE
  5
9AAA
330
1F
100
AcDbEntity
  8
SPOJOVACÍ
  6
Continuous
100
AcDbLine
 10
3247.513350578806
 20
-1637.685624444964
 30
0.0
 11
3251.557754938399
 21
-1636.325707431422
 31
0.0
  0
LINE
  5
9AAB
330
1F
100
AcDbEntity
  8
SPOJOVACÍ
  6
Continuous
100
AcDbLine
 10
3247.513350578806
 20
-1638.281867130119
 30
0.0
 11
3251.557754938399
 21
-1636.921950116577
 31
0.0
  0
LINE
  5
9AAC
330
1F
100
AcDbEntity
  8
SPOJOVACÍ
  6
Continuous
100
AcDbLine
 10
3249.53555275642
 20
-1625.418466050125
 30
0.0
 11
3249.889949737549
 21
-1628.254572051393
 31
0.0
  0
LINE
  5
9AAD
330
1F
100
AcDbEntity
  8
SPOJOVACÍ
  6
Continuous
100
AcDbLine
 10
3249.149529802521
 20
-1628.50757986793
 30
0.0
 11
3249.53555275642
 21
-1625.418466050125
 31
0.0
  0
LINE
  5
9AAE
330
1F
100
AcDbEntity
  8
SPOJOVACÍ
  6
Continuous
100
AcDbLine
 10
3248.518870614494
 20
-1628.797794716081
 30
0.0
 11
3248.896521985439
 21
-1628.579203404062
 31
0.0
  0
LINE
  5
9AAF
330
1F
100
AcDbEntity
  8
SPOJOVACÍ
  6
Continuous
100
AcDbLine
 10
3248.518870614494
 20
-1628.797794716081
 30
0.0
 11
3248.896521985439
 21
-1629.175446089209
 31
0.0
  0
LINE
  5
9AB0
330
1F
100
AcDbEntity
  8
SPOJOVACÍ
  6
Continuous
100
AcDbLine
 10
3250.67315775595
 20
-1628.487116000307
 30
0.0
 11
3250.295506385005
 21
-1628.108534451477
 31
0.0
  0
LINE
  5
9AB1
330
1F
100
AcDbEntity
  8
SPOJOVACÍ
  6
Continuous
100
AcDbLine
 10
3250.67315775595
 20
-1628.487116000307
 30
0.0
 11
3250.295506385005
 21
-1628.704777136625
 31
0.0
  0
LINE
  5
9AB2
330
1F
100
AcDbEntity
  8
SPOJOVACÍ
  6
Continuous
100
AcDbLine
 10
3248.896521985439
 20
-1628.579203404062
 30
0.0
 11
3250.295506385005
 21
-1628.108534451477
 31
0.0
  0
LINE
  5
9AB3
330
1F
100
AcDbEntity
  8
SPOJOVACÍ
  6
Continuous
100
AcDbLine
 10
3248.896521985439
 20
-1629.175446089209
 30
0.0
 11
3250.295506385005
 21
-1628.704777136625
 31
0.0
  0
LINE
  5
9AB4
330
1F
100
AcDbEntity
  8
SPOJOVACÍ
  6
Continuous
100
AcDbLine
 10
3248.518870614494
 20
-1628.797794716081
 30
0.0
 11
3250.67315775595
 21
-1628.487116000307
 31
0.0
  0
INSERT
  5
9AB5
330
1F
100
AcDbEntity
  8
0
100
AcDbBlockReference
  2
E_PUNKT
 10
3231.951134546786
 20
-1626.067898911891
 30
0.0
  0
LINE
  5
9AB6
330
1F
100
AcDbEntity
  8
SPOJOVACÍ
  6
Continuous
100
AcDbLine
 10
3252.683267649986
 20
-1658.728991473019
 30
0.0
 11
3253.920401458886
 21
-1659.64707498346
 31
0.0
  0
LINE
  5
9AB7
330
1F
100
AcDbEntity
  8
SPOJOVACÍ
  6
Continuous
100
AcDbLine
 10
3253.920401458886
 20
-1659.64707498346
 30
0.0
 11
3254.635706645053
 21
-1659.983798621344
 31
0.0
  0
LINE
  5
9AB8
330
1F
100
AcDbEntity
  8
SPOJOVACÍ
  6
Continuous
100
AcDbLine
 10
3254.635706645053
 20
-1661.183725398075
 30
0.0
 11
3254.635706645053
 21
-1659.983798621344
 31
0.0
  0
INSERT
  5
9AB9
330
1F
100
AcDbEntity
  8
0
100
AcDbBlockReference
  2
E_PUNKT
 10
3339.599078894137
 20
-1570.494112764417
 30
0.0
  0
LINE
  5
9ABA
330
1F
100
AcDbEntity
  8
SPOJOVACÍ
  6
Continuous
100
AcDbLine
 10
3446.720415040877
 20
-1650.762035781952
 30
0.0
 11
3450.764819400469
 21
-1649.402118768686
 31
0.0
  0
LINE
  5
9ABB
330
1F
100
AcDbEntity
  8
SPOJOVACÍ
  6
Continuous
100
AcDbLine
 10
3446.720415040877
 20
-1650.165793097074
 30
0.0
 11
3450.764819400469
 21
-1648.805876083532
 31
0.0
  0
INSERT
  5
9ABC
330
1F
100
AcDbEntity
  8
0
100
AcDbBlockReference
  2
E_PUNKT
 10
3448.83892152694
 20
-1660.884325167405
 30
0.0
  0
LINE
  5
9ABD
330
1F
100
AcDbEntity
  8
SPOJOVACÍ
  6
Continuous
100
AcDbLine
 10
3443.642463329856
 20
-1661.183725398075
 30
0.0
 11
3453.842771107124
 21
-1661.183725398075
 31
0.0
  0
LINE
  5
9ABE
330
1F
100
AcDbEntity
  8
SPOJOVACÍ
  6
Continuous
100
AcDbLine
 10
3447.725935076564
 20
-1628.797794716081
 30
0.0
 11
3448.103586447509
 21
-1628.579203404062
 31
0.0
  0
LINE
  5
9ABF
330
1F
100
AcDbEntity
  8
SPOJOVACÍ
  6
Continuous
100
AcDbLine
 10
3447.725935076564
 20
-1628.797794716081
 30
0.0
 11
3448.103586447509
 21
-1629.175446089209
 31
0.0
  0
LINE
  5
9AC0
330
1F
100
AcDbEntity
  8
SPOJOVACÍ
  6
Continuous
100
AcDbLine
 10
3447.725935076564
 20
-1628.797794716081
 30
0.0
 11
3449.880222218021
 21
-1628.487116000307
 31
0.0
  0
LINE
  5
9AC1
330
1F
100
AcDbEntity
  8
SPOJOVACÍ
  6
Continuous
100
AcDbLine
 10
3443.642463329856
 20
-1659.983798621344
 30
0.0
 11
3453.842771107124
 21
-1659.983798621344
 31
0.0
  0
LINE
  5
9AC2
330
1F
100
AcDbEntity
  8
SPOJOVACÍ
  6
Continuous
100
AcDbLine
 10
3447.619895034554
 20
-1634.401173709868
 30
0.0
 11
3447.910109884073
 21
-1632.079454923803
 31
0.0
  0
LINE
  5
9AC3
330
1F
100
AcDbEntity
  8
SPOJOVACÍ
  6
Continuous
100
AcDbLine
 10
3446.342763665565
 20
-1650.383454233122
 30
0.0
 11
3451.142470771415
 21
-1649.18352745666
 31
0.0
  0
LINE
  5
9AC4
330
1F
100
AcDbEntity
  8
SPOJOVACÍ
  6
Continuous
100
AcDbLine
 10
3446.342763665565
 20
-1647.26364461416
 30
0.0
 11
3451.142470771415
 21
-1646.063717837421
 31
0.0
  0
LINE
  5
9AC5
330
1F
100
AcDbEntity
  8
SPOJOVACÍ
  6
Continuous
100
AcDbLine
 10
3446.720415040877
 20
-1647.045053302133
 30
0.0
 11
3450.764819400469
 21
-1645.68606646457
 31
0.0
  0
LINE
  5
9AC6
330
1F
100
AcDbEntity
  8
SPOJOVACÍ
  6
Continuous
100
AcDbLine
 10
3446.720415040877
 20
-1647.641295987289
 30
0.0
 11
3450.764819400469
 21
-1646.282309149448
 31
0.0
  0
LINE
  5
9AC7
330
1F
100
AcDbEntity
  8
SPOJOVACÍ
  6
Continuous
100
AcDbLine
 10
3446.975283208271
 20
-1634.607672736672
 30
0.0
 11
3450.344379941784
 21
-1633.474718617287
 31
0.0
  0
LINE
  5
9AC8
330
1F
100
AcDbEntity
  8
SPOJOVACÍ
  6
Continuous
100
AcDbLine
 10
3446.975283208271
 20
-1635.203915421827
 30
0.0
 11
3450.344379941784
 21
-1634.070961302443
 31
0.0
  0
LINE
  5
9AC9
330
1F
100
AcDbEntity
  8
SPOJOVACÍ
  6
Continuous
100
AcDbLine
 10
3446.596701659986
 20
-1634.826264048699
 30
0.0
 11
3450.72203131273
 21
-1633.853300166394
 31
0.0
  0
LINE
  5
9ACA
330
1F
100
AcDbEntity
  8
SPOJOVACÍ
  6
Continuous
100
AcDbLine
 10
3447.538969741403
 20
-1631.593903158353
 30
0.0
 11
3449.899755911578
 21
-1630.799533028801
 31
0.0
  0
LINE
  5
9ACB
330
1F
100
AcDbEntity
  8
SPOJOVACÍ
  6
Continuous
100
AcDbLine
 10
3447.538969741403
 20
-1632.190145843507
 30
0.0
 11
3449.899755911578
 21
-1631.395775713679
 31
0.0
  0
LINE
  5
9ACC
330
1F
100
AcDbEntity
  8
SPOJOVACÍ
  6
Continuous
100
AcDbLine
 10
3447.161318366092
 20
-1631.811564294401
 30
0.0
 11
3450.277407282523
 21
-1631.178114577631
 31
0.0
  0
LINE
  5
9ACD
330
1F
100
AcDbEntity
  8
SPOJOVACÍ
  6
Continuous
100
AcDbLine
 10
3446.342763665565
 20
-1644.143834994922
 30
0.0
 11
3451.142470771415
 21
-1642.94390821846
 31
0.0
  0
LINE
  5
9ACE
330
1F
100
AcDbEntity
  8
SPOJOVACÍ
  6
Continuous
100
AcDbLine
 10
3446.720415040877
 20
-1643.925243682895
 30
0.0
 11
3450.764819400469
 21
-1642.56532666963
 31
0.0
  0
LINE
  5
9ACF
330
1F
100
AcDbEntity
  8
SPOJOVACÍ
  6
Continuous
100
AcDbLine
 10
3446.720415040877
 20
-1644.52148636805
 30
0.0
 11
3450.764819400469
 21
-1643.161569354777
 31
0.0
  0
LINE
  5
9AD0
330
1F
100
AcDbEntity
  8
SPOJOVACÍ
  6
Continuous
100
AcDbLine
 10
3446.342763665565
 20
-1641.024025375952
 30
0.0
 11
3451.142470771415
 21
-1639.82409859949
 31
0.0
  0
LINE
  5
9AD1
330
1F
100
AcDbEntity
  8
SPOJOVACÍ
  6
Continuous
100
AcDbLine
 10
3446.720415040877
 20
-1640.805434063933
 30
0.0
 11
3450.764819400469
 21
-1639.44551705066
 31
0.0
  0
LINE
  5
9AD2
330
1F
100
AcDbEntity
  8
SPOJOVACÍ
  6
Continuous
100
AcDbLine
 10
3446.720415040877
 20
-1641.401676749081
 30
0.0
 11
3450.764819400469
 21
-1640.041759735539
 31
0.0
  0
LINE
  5
9AD3
330
1F
100
AcDbEntity
  8
SPOJOVACÍ
  6
Continuous
100
AcDbLine
 10
3446.342763665565
 20
-1637.903285581012
 30
0.0
 11
3451.142470771415
 21
-1636.70335880455
 31
0.0
  0
LINE
  5
9AD4
330
1F
100
AcDbEntity
  8
SPOJOVACÍ
  6
Continuous
100
AcDbLine
 10
3446.720415040877
 20
-1637.685624444964
 30
0.0
 11
3450.764819400469
 21
-1636.325707431422
 31
0.0
  0
LINE
  5
9AD5
330
1F
100
AcDbEntity
  8
SPOJOVACÍ
  6
Continuous
100
AcDbLine
 10
3446.720415040877
 20
-1638.281867130119
 30
0.0
 11
3450.764819400469
 21
-1636.921950116577
 31
0.0
  0
LINE
  5
9AD6
330
1F
100
AcDbEntity
  8
SPOJOVACÍ
  6
Continuous
100
AcDbLine
 10
3446.899008793084
 20
-1656.85189671716
 30
0.0
 11
3447.326889657383
 21
-1655.37105685011
 31
0.0
  0
LINE
  5
9AD7
330
1F
100
AcDbEntity
  8
SPOJOVACÍ
  6
Continuous
100
AcDbLine
 10
3447.326889657383
 20
-1655.37105685011
 30
0.0
 11
3447.392932139305
 21
-1654.584128126987
 31
0.0
  0
LINE
  5
9AD8
330
1F
100
AcDbEntity
  8
SPOJOVACÍ
  6
Continuous
100
AcDbLine
 10
3447.392932139305
 20
-1654.584128126987
 30
0.0
 11
3447.392932139305
 21
-1650.546234997307
 31
0.0
  0
LINE
  5
9AD9
330
1F
100
AcDbEntity
  8
SPOJOVACÍ
  6
Continuous
100
AcDbLine
 10
3446.342763665565
 20
-1650.383454233122
 30
0.0
 11
3446.720415040877
 21
-1650.762035781952
 31
0.0
  0
LINE
  5
9ADA
330
1F
100
AcDbEntity
  8
SPOJOVACÍ
  6
Continuous
100
AcDbLine
 10
3446.342763665565
 20
-1650.383454233122
 30
0.0
 11
3446.720415040877
 21
-1650.165793097074
 31
0.0
  0
LINE
  5
9ADB
330
1F
100
AcDbEntity
  8
SPOJOVACÍ
  6
Continuous
100
AcDbLine
 10
3447.392932139305
 20
-1649.950922488131
 30
0.0
 11
3447.392932139305
 21
-1647.432006433102
 31
0.0
  0
LINE
  5
9ADC
330
1F
100
AcDbEntity
  8
SPOJOVACÍ
  6
Continuous
100
AcDbLine
 10
3443.642463329856
 20
-1661.183725398075
 30
0.0
 11
3443.642463329856
 21
-1659.983798621344
 31
0.0
  0
LINE
  5
9ADD
330
1F
100
AcDbEntity
  8
SPOJOVACÍ
  6
Continuous
100
AcDbLine
 10
3443.642463329856
 20
-1659.983798621344
 30
0.0
 11
3444.992148413407
 21
-1659.23965798487
 31
0.0
  0
LINE
  5
9ADE
330
1F
100
AcDbEntity
  8
SPOJOVACÍ
  6
Continuous
100
AcDbLine
 10
3444.992148413407
 20
-1659.23965798487
 30
0.0
 11
3446.102778313766
 21
-1658.170885995457
 31
0.0
  0
LINE
  5
9ADF
330
1F
100
AcDbEntity
  8
SPOJOVACÍ
  6
Continuous
100
AcDbLine
 10
3446.102778313766
 20
-1658.170885995457
 30
0.0
 11
3446.899008793084
 21
-1656.85189671716
 31
0.0
  0
LINE
  5
9AE0
330
1F
100
AcDbEntity
  8
SPOJOVACÍ
  6
Continuous
100
AcDbLine
 10
3447.392932139305
 20
-1646.828322341787
 30
0.0
 11
3447.392932139305
 21
-1644.307545935078
 31
0.0
  0
LINE
  5
9AE1
330
1F
100
AcDbEntity
  8
SPOJOVACÍ
  6
Continuous
100
AcDbLine
 10
3447.392932139305
 20
-1643.713163601603
 30
0.0
 11
3447.392932139305
 21
-1641.184945788734
 31
0.0
  0
LINE
  5
9AE2
330
1F
100
AcDbEntity
  8
SPOJOVACÍ
  6
Continuous
100
AcDbLine
 10
3447.392932139305
 20
-1640.580331521448
 30
0.0
 11
3447.392932139305
 21
-1638.062345642121
 31
0.0
  0
LINE
  5
9AE3
330
1F
100
AcDbEntity
  8
SPOJOVACÍ
  6
Continuous
100
AcDbLine
 10
3447.392932139305
 20
-1637.466102956967
 30
0.0
 11
3447.392932139305
 21
-1636.218737215078
 31
0.0
  0
LINE
  5
9AE4
330
1F
100
AcDbEntity
  8
SPOJOVACÍ
  6
Continuous
100
AcDbLine
 10
3447.392932139305
 20
-1636.218737215078
 30
0.0
 11
3447.542690442028
 21
-1635.021600965721
 31
0.0
  0
LINE
  5
9AE5
330
1F
100
AcDbEntity
  8
SPOJOVACÍ
  6
Continuous
100
AcDbLine
 10
3446.342763665565
 20
-1647.26364461416
 30
0.0
 11
3446.720415040877
 21
-1647.045053302133
 31
0.0
  0
LINE
  5
9AE6
330
1F
100
AcDbEntity
  8
SPOJOVACÍ
  6
Continuous
100
AcDbLine
 10
3446.342763665565
 20
-1647.26364461416
 30
0.0
 11
3446.720415040877
 21
-1647.641295987289
 31
0.0
  0
LINE
  5
9AE7
330
1F
100
AcDbEntity
  8
SPOJOVACÍ
  6
Continuous
100
AcDbLine
 10
3446.596701659986
 20
-1634.826264048699
 30
0.0
 11
3446.975283208271
 21
-1634.607672736672
 31
0.0
  0
LINE
  5
9AE8
330
1F
100
AcDbEntity
  8
SPOJOVACÍ
  6
Continuous
100
AcDbLine
 10
3446.596701659986
 20
-1634.826264048699
 30
0.0
 11
3446.975283208271
 21
-1635.203915421827
 31
0.0
  0
LINE
  5
9AE9
330
1F
100
AcDbEntity
  8
SPOJOVACÍ
  6
Continuous
100
AcDbLine
 10
3447.161318366092
 20
-1631.811564294401
 30
0.0
 11
3447.538969741403
 21
-1631.593903158353
 31
0.0
  0
LINE
  5
9AEA
330
1F
100
AcDbEntity
  8
SPOJOVACÍ
  6
Continuous
100
AcDbLine
 10
3447.161318366092
 20
-1631.811564294401
 30
0.0
 11
3447.538969741403
 21
-1632.190145843507
 31
0.0
  0
LINE
  5
9AEB
330
1F
100
AcDbEntity
  8
SPOJOVACÍ
  6
Continuous
100
AcDbLine
 10
3446.342763665565
 20
-1644.143834994922
 30
0.0
 11
3446.720415040877
 21
-1643.925243682895
 31
0.0
  0
LINE
  5
9AEC
330
1F
100
AcDbEntity
  8
SPOJOVACÍ
  6
Continuous
100
AcDbLine
 10
3446.342763665565
 20
-1644.143834994922
 30
0.0
 11
3446.720415040877
 21
-1644.52148636805
 31
0.0
  0
LINE
  5
9AED
330
1F
100
AcDbEntity
  8
SPOJOVACÍ
  6
Continuous
100
AcDbLine
 10
3446.342763665565
 20
-1641.024025375952
 30
0.0
 11
3446.720415040877
 21
-1640.805434063933
 31
0.0
  0
LINE
  5
9AEE
330
1F
100
AcDbEntity
  8
SPOJOVACÍ
  6
Continuous
100
AcDbLine
 10
3446.342763665565
 20
-1641.024025375952
 30
0.0
 11
3446.720415040877
 21
-1641.401676749081
 31
0.0
  0
LINE
  5
9AEF
330
1F
100
AcDbEntity
  8
SPOJOVACÍ
  6
Continuous
100
AcDbLine
 10
3446.342763665565
 20
-1637.903285581012
 30
0.0
 11
3446.720415040877
 21
-1637.685624444964
 31
0.0
  0
LINE
  5
9AF0
330
1F
100
AcDbEntity
  8
SPOJOVACÍ
  6
Continuous
100
AcDbLine
 10
3446.342763665565
 20
-1637.903285581012
 30
0.0
 11
3446.720415040877
 21
-1638.281867130119
 31
0.0
  0
LINE
  5
9AF1
330
1F
100
AcDbEntity
  8
SPOJOVACÍ
  6
Continuous
100
AcDbLine
 10
3447.989174826911
 20
-1631.448795734138
 30
0.0
 11
3448.279389672066
 21
-1629.128007123783
 31
0.0
  0
LINE
  5
9AF2
330
1F
100
AcDbEntity
  8
SPOJOVACÍ
  6
Continuous
100
AcDbLine
 10
3449.168637736843
 20
-1628.82383963846
 30
0.0
 11
3449.436528365154
 21
-1630.968825023444
 31
0.0
  0
LINE
  5
9AF3
330
1F
100
AcDbEntity
  8
SPOJOVACÍ
  6
Continuous
100
AcDbLine
 10
3451.142470771415
 20
-1649.18352745666
 30
0.0
 11
3450.764819400469
 21
-1649.402118768686
 31
0.0
  0
LINE
  5
9AF4
330
1F
100
AcDbEntity
  8
SPOJOVACÍ
  6
Continuous
100
AcDbLine
 10
3450.092302302041
 20
-1654.584128126987
 30
0.0
 11
3450.092302302041
 21
-1649.641173948059
 31
0.0
  0
LINE
  5
9AF5
330
1F
100
AcDbEntity
  8
0
  6
Continuous
100
AcDbLine
 10
3450.092302302041
 20
-1654.584128126987
 30
0.0
 11
3450.319265192924
 21
-1656.107756080416
 31
0.0
  0
LINE
  5
9AF6
330
1F
100
AcDbEntity
  8
SPOJOVACÍ
  6
Continuous
100
AcDbLine
 10
3450.319265192924
 20
-1656.107756080416
 30
0.0
 11
3450.932251042072
 21
-1657.52162329012
 31
0.0
  0
LINE
  5
9AF7
330
1F
100
AcDbEntity
  8
SPOJOVACÍ
  6
Continuous
100
AcDbLine
 10
3450.932251042072
 20
-1657.52162329012
 30
0.0
 11
3451.890332112057
 21
-1658.728991473019
 31
0.0
  0
LINE
  5
9AF8
330
1F
100
AcDbEntity
  8
SPOJOVACÍ
  6
Continuous
100
AcDbLine
 10
3451.890332112057
 20
-1658.728991473019
 30
0.0
 11
3453.127465920956
 21
-1659.64707498346
 31
0.0
  0
LINE
  5
9AF9
330
1F
100
AcDbEntity
  8
SPOJOVACÍ
  6
Continuous
100
AcDbLine
 10
3453.127465920956
 20
-1659.64707498346
 30
0.0
 11
3453.842771107124
 21
-1659.983798621344
 31
0.0
  0
LINE
  5
9AFA
330
1F
100
AcDbEntity
  8
SPOJOVACÍ
  6
Continuous
100
AcDbLine
 10
3453.842771107124
 20
-1661.183725398075
 30
0.0
 11
3453.842771107124
 21
-1659.983798621344
 31
0.0
  0
LINE
  5
9AFB
330
1F
100
AcDbEntity
  8
SPOJOVACÍ
  6
Continuous
100
AcDbLine
 10
3450.092302302041
 20
-1649.037489856744
 30
0.0
 11
3450.092302302041
 21
-1646.518573801715
 31
0.0
  0
LINE
  5
9AFC
330
1F
100
AcDbEntity
  8
SPOJOVACÍ
  6
Continuous
100
AcDbLine
 10
3450.092302302041
 20
-1645.92233111656
 30
0.0
 11
3450.092302302041
 21
-1643.394113303691
 31
0.0
  0
LINE
  5
9AFD
330
1F
100
AcDbEntity
  8
SPOJOVACÍ
  6
Continuous
100
AcDbLine
 10
3450.092302302041
 20
-1642.799730970216
 30
0.0
 11
3450.092302302041
 21
-1640.278954563507
 31
0.0
  0
LINE
  5
9AFE
330
1F
100
AcDbEntity
  8
SPOJOVACÍ
  6
Continuous
100
AcDbLine
 10
3450.092302302041
 20
-1639.678060999574
 30
0.0
 11
3450.092302302041
 21
-1637.159144944546
 31
0.0
  0
LINE
  5
9AFF
330
1F
100
AcDbEntity
  8
SPOJOVACÍ
  6
Continuous
100
AcDbLine
 10
3450.092302302041
 20
-1636.555460852962
 30
0.0
 11
3450.092302302041
 21
-1636.218737215078
 31
0.0
  0
LINE
  5
9B00
330
1F
100
AcDbEntity
  8
SPOJOVACÍ
  6
Continuous
100
AcDbLine
 10
3449.508151898012
 20
-1631.540883137893
 30
0.0
 11
3449.775112353349
 21
-1633.677496940747
 31
0.0
  0
LINE
  5
9B01
330
1F
100
AcDbEntity
  8
SPOJOVACÍ
  6
Continuous
100
AcDbLine
 10
3449.846735890573
 20
-1634.247694703792
 30
0.0
 11
3450.092302302041
 21
-1636.218737215078
 31
0.0
  0
LINE
  5
9B02
330
1F
100
AcDbEntity
  8
SPOJOVACÍ
  6
Continuous
100
AcDbLine
 10
3451.142470771415
 20
-1649.18352745666
 30
0.0
 11
3450.764819400469
 21
-1648.805876083532
 31
0.0
  0
LINE
  5
9B03
330
1F
100
AcDbEntity
  8
SPOJOVACÍ
  6
Continuous
100
AcDbLine
 10
3451.142470771415
 20
-1646.063717837421
 30
0.0
 11
3450.764819400469
 21
-1645.68606646457
 31
0.0
  0
LINE
  5
9B04
330
1F
100
AcDbEntity
  8
SPOJOVACÍ
  6
Continuous
100
AcDbLine
 10
3451.142470771415
 20
-1646.063717837421
 30
0.0
 11
3450.764819400469
 21
-1646.282309149448
 31
0.0
  0
LINE
  5
9B05
330
1F
100
AcDbEntity
  8
SPOJOVACÍ
  6
Continuous
100
AcDbLine
 10
3450.72203131273
 20
-1633.853300166394
 30
0.0
 11
3450.344379941784
 21
-1633.474718617287
 31
0.0
  0
LINE
  5
9B06
330
1F
100
AcDbEntity
  8
SPOJOVACÍ
  6
Continuous
100
AcDbLine
 10
3450.72203131273
 20
-1633.853300166394
 30
0.0
 11
3450.344379941784
 21
-1634.070961302443
 31
0.0
  0
LINE
  5
9B07
330
1F
100
AcDbEntity
  8
SPOJOVACÍ
  6
Continuous
100
AcDbLine
 10
3450.277407282523
 20
-1631.178114577631
 30
0.0
 11
3449.899755911578
 21
-1630.799533028801
 31
0.0
  0
LINE
  5
9B08
330
1F
100
AcDbEntity
  8
SPOJOVACÍ
  6
Continuous
100
AcDbLine
 10
3450.277407282523
 20
-1631.178114577631
 30
0.0
 11
3449.899755911578
 21
-1631.395775713679
 31
0.0
  0
LINE
  5
9B09
330
1F
100
AcDbEntity
  8
SPOJOVACÍ
  6
Continuous
100
AcDbLine
 10
3451.142470771415
 20
-1642.94390821846
 30
0.0
 11
3450.764819400469
 21
-1642.56532666963
 31
0.0
  0
LINE
  5
9B0A
330
1F
100
AcDbEntity
  8
SPOJOVACÍ
  6
Continuous
100
AcDbLine
 10
3451.142470771415
 20
-1642.94390821846
 30
0.0
 11
3450.764819400469
 21
-1643.161569354777
 31
0.0
  0
LINE
  5
9B0B
330
1F
100
AcDbEntity
  8
SPOJOVACÍ
  6
Continuous
100
AcDbLine
 10
3451.142470771415
 20
-1639.82409859949
 30
0.0
 11
3450.764819400469
 21
-1639.44551705066
 31
0.0
  0
LINE
  5
9B0C
330
1F
100
AcDbEntity
  8
SPOJOVACÍ
  6
Continuous
100
AcDbLine
 10
3451.142470771415
 20
-1639.82409859949
 30
0.0
 11
3450.764819400469
 21
-1640.041759735539
 31
0.0
  0
LINE
  5
9B0D
330
1F
100
AcDbEntity
  8
SPOJOVACÍ
  6
Continuous
100
AcDbLine
 10
3451.142470771415
 20
-1636.70335880455
 30
0.0
 11
3450.764819400469
 21
-1636.325707431422
 31
0.0
  0
LINE
  5
9B0E
330
1F
100
AcDbEntity
  8
SPOJOVACÍ
  6
Continuous
100
AcDbLine
 10
3451.142470771415
 20
-1636.70335880455
 30
0.0
 11
3450.764819400469
 21
-1636.921950116577
 31
0.0
  0
LINE
  5
9B0F
330
1F
100
AcDbEntity
  8
SPOJOVACÍ
  6
Continuous
100
AcDbLine
 10
3448.74261721849
 20
-1625.418466050125
 30
0.0
 11
3449.097014199619
 21
-1628.254572051393
 31
0.0
  0
LINE
  5
9B10
330
1F
100
AcDbEntity
  8
SPOJOVACÍ
  6
Continuous
100
AcDbLine
 10
3448.356594264591
 20
-1628.50757986793
 30
0.0
 11
3448.74261721849
 21
-1625.418466050125
 31
0.0
  0
LINE
  5
9B11
330
1F
100
AcDbEntity
  8
SPOJOVACÍ
  6
Continuous
100
AcDbLine
 10
3449.880222218021
 20
-1628.487116000307
 30
0.0
 11
3449.502570847075
 21
-1628.108534451477
 31
0.0
  0
LINE
  5
9B12
330
1F
100
AcDbEntity
  8
SPOJOVACÍ
  6
Continuous
100
AcDbLine
 10
3449.880222218021
 20
-1628.487116000307
 30
0.0
 11
3449.502570847075
 21
-1628.704777136625
 31
0.0
  0
LINE
  5
9B13
330
1F
100
AcDbEntity
  8
SPOJOVACÍ
  6
Continuous
100
AcDbLine
 10
3448.103586447509
 20
-1628.579203404062
 30
0.0
 11
3449.502570847075
 21
-1628.108534451477
 31
0.0
  0
LINE
  5
9B14
330
1F
100
AcDbEntity
  8
SPOJOVACÍ
  6
Continuous
100
AcDbLine
 10
3448.103586447509
 20
-1629.175446089209
 30
0.0
 11
3449.502570847075
 21
-1628.704777136625
 31
0.0
  0
INSERT
  5
9B15
330
1F
100
AcDbEntity
  8
0
100
AcDbBlockReference
  2
E_PUNKT
 10
3487.239452941131
 20
-1653.536474212491
 30
0.0
  0
TEXT
  5
9B1C
330
1F
100
AcDbEntity
  8
POPIS
100
AcDbText
 10
2857.295067256537
 20
-1977.588757577637
 30
0.0
 40
25.0
  1
v exteriéru vrut s viditelnou hlavou a těsnící podložkou
 41
0.6
 51
10.0
  7
SIMPLEX7
100
AcDbText
  0
ENDSEC
  0
SECTION
  2
OBJECTS
  0
DICTIONARY
  5
C
330
0
100
AcDbDictionary
281
     1
  3
ACAD_GROUP
350
D
  3
ACAD_LAYOUT
350
1A
  3
ACAD_MLINESTYLE
350
17
  3
ACAD_PLOTSETTINGS
350
19
  3
ACAD_PLOTSTYLENAME
350
E
  3
AcDbVariableDictionary
350
5B50
  0
DICTIONARY
  5
D
102
{ACAD_REACTORS
330
C
102
}
330
C
100
AcDbDictionary
281
     1
  0
DICTIONARY
  5
1A
102
{ACAD_REACTORS
330
C
102
}
330
C
100
AcDbDictionary
281
     1
  3
Model
350
22
  3
Rozvržení1
350
1E
  3
Rozvržení2
350
26
  0
DICTIONARY
  5
17
102
{ACAD_REACTORS
330
C
102
}
330
C
100
AcDbDictionary
281
     1
  3
Standard
350
18
  0
DICTIONARY
  5
19
102
{ACAD_REACTORS
330
C
102
}
330
C
100
AcDbDictionary
281
     1
  0
ACDBDICTIONARYWDFLT
  5
E
102
{ACAD_REACTORS
330
C
102
}
330
C
100
AcDbDictionary
281
     1
  3
Normal
350
F
100
AcDbDictionaryWithDefault
340
F
  0
DICTIONARY
  5
5B50
102
{ACAD_REACTORS
330
C
102
}
330
C
100
AcDbDictionary
281
     1
  3
DIMASSOC
350
8518
  3
SORTENTS
350
5B51
  0
LAYOUT
  5
22
102
{ACAD_REACTORS
330
1A
102
}
330
1A
100
AcDbPlotSettings
  1

  2
HP DeskJet 690C
  4
A4
  6

 40
3.757083177566528
 41
5.450418472290039
 42
16.28775024414062
 43
7.56707763671875
 44
296.9259948730469
 45
210.0579986572265
 46
0.0
 47
0.0
 48
0.0
 49
0.0
140
0.0
141
0.0
142
1.0
143
1.0
 70
 11952
 72
     1
 73
     0
 74
     0
  7
monochrome.ctb
 75
     0
147
1.0
148
-323.9392076651195
149
-131.8860906043446
100
AcDbLayout
  1
Model
 70
     1
 71
     0
 10
0.0
 20
0.0
 11
12.0
 21
9.0
 12
0.0
 22
0.0
 32
0.0
 14
0.0
 24
0.0
 34
0.0
 15
0.0
 25
0.0
 35
0.0
146
0.0
 13
0.0
 23
0.0
 33
0.0
 16
1.0
 26
0.0
 36
0.0
 17
0.0
 27
1.0
 37
0.0
 76
     0
330
1F
  0
LAYOUT
  5
1E
102
{ACAD_REACTORS
330
1A
102
}
330
1A
100
AcDbPlotSettings
  1

  2
HP DeskJet 690C
  4

  6

 40
0.0
 41
0.0
 42
0.0
 43
0.0
 44
0.0
 45
0.0
 46
0.0
 47
0.0
 48
0.0
 49
0.0
140
0.0
141
0.0
142
1.0
143
1.0
 70
   688
 72
     0
 73
     0
 74
     5
  7
monochrome.ctb
 75
    16
147
1.0
148
0.0
149
0.0
100
AcDbLayout
  1
Rozvržení1
 70
     1
 71
     1
 10
0.0
 20
0.0
 11
420.0
 21
297.0
 12
0.0
 22
0.0
 32
0.0
 14
1.000000000000000E+20
 24
1.000000000000000E+20
 34
1.000000000000000E+20
 15
-1.000000000000000E+20
 25
-1.000000000000000E+20
 35
-1.000000000000000E+20
146
0.0
 13
0.0
 23
0.0
 33
0.0
 16
1.0
 26
0.0
 36
0.0
 17
0.0
 27
1.0
 37
0.0
 76
     0
330
1B
  0
LAYOUT
  5
26
102
{ACAD_REACTORS
330
1A
102
}
330
1A
100
AcDbPlotSettings
  1

  2
HP DeskJet 690C
  4

  6

 40
0.0
 41
0.0
 42
0.0
 43
0.0
 44
0.0
 45
0.0
 46
0.0
 47
0.0
 48
0.0
 49
0.0
140
0.0
141
0.0
142
1.0
143
1.0
 70
   688
 72
     0
 73
     0
 74
     5
  7
monochrome.ctb
 75
    16
147
1.0
148
0.0
149
0.0
100
AcDbLayout
  1
Rozvržení2
 70
     1
 71
     2
 10
0.0
 20
0.0
 11
12.0
 21
9.0
 12
0.0
 22
0.0
 32
0.0
 14
0.0
 24
0.0
 34
0.0
 15
0.0
 25
0.0
 35
0.0
146
0.0
 13
0.0
 23
0.0
 33
0.0
 16
1.0
 26
0.0
 36
0.0
 17
0.0
 27
1.0
 37
0.0
 76
     0
330
23
  0
MLINESTYLE
  5
18
102
{ACAD_REACTORS
330
17
102
}
330
17
100
AcDbMlineStyle
  2
STANDARD
 70
     0
  3

 62
   256
 51
90.0
 52
90.0
 71
     2
 49
0.5
 62
   256
  6
BYLAYER
 49
-0.5
 62
   256
  6
BYLAYER
  0
ACDBPLACEHOLDER
  5
F
102
{ACAD_REACTORS
330
E
102
}
330
E
  0
DICTIONARYVAR
  5
8518
102
{ACAD_REACTORS
330
5B50
102
}
330
5B50
100
DictionaryVariables
280
     0
  1
1
  0
DICTIONARYVAR
  5
5B51
102
{ACAD_REACTORS
330
5B50
102
}
330
5B50
100
DictionaryVariables
280
     0
  1
96
  0
ENDSEC
  0
EOF
