  0
SECTION
  2
HEADER
  9
$ACADVER
  1
AC1015
  9
$ACADMAINTVER
 70
    14
  9
$DWGCODEPAGE
  3
ANSI_1250
  9
$INSBASE
 10
0.0
 20
0.0
 30
0.0
  9
$EXTMIN
 10
401.0982951875084
 20
-2288.103512071799
 30
-0.0762881293658211
  9
$EXTMAX
 10
1119.919081239248
 20
-1311.825052210593
 30
2500.076454800198
  9
$LIMMIN
 10
0.0
 20
0.0
  9
$LIMMAX
 10
420.0
 20
297.0
  9
$ORTHOMODE
 70
     0
  9
$REGENMODE
 70
     1
  9
$FILLMODE
 70
     1
  9
$QTEXTMODE
 70
     0
  9
$MIRRTEXT
 70
     1
  9
$LTSCALE
 40
1.0
  9
$ATTMODE
 70
     1
  9
$TEXTSIZE
 40
2.5
  9
$TRACEWID
 40
1.0
  9
$TEXTSTYLE
  7
Standard
  9
$CLAYER
  8
SPOJOVACÍ
  9
$CELTYPE
  6
ByLayer
  9
$CECOLOR
 62
   256
  9
$CELTSCALE
 40
1.0
  9
$DISPSILH
 70
     0
  9
$DIMSCALE
 40
1.0
  9
$DIMASZ
 40
2.5
  9
$DIMEXO
 40
0.625
  9
$DIMDLI
 40
3.75
  9
$DIMRND
 40
0.0
  9
$DIMDLE
 40
0.0
  9
$DIMEXE
 40
1.25
  9
$DIMTP
 40
0.0
  9
$DIMTM
 40
0.0
  9
$DIMTXT
 40
2.5
  9
$DIMCEN
 40
2.5
  9
$DIMTSZ
 40
0.0
  9
$DIMTOL
 70
     0
  9
$DIMLIM
 70
     0
  9
$DIMTIH
 70
     0
  9
$DIMTOH
 70
     0
  9
$DIMSE1
 70
     0
  9
$DIMSE2
 70
     0
  9
$DIMTAD
 70
     1
  9
$DIMZIN
 70
     8
  9
$DIMBLK
  1

  9
$DIMASO
 70
     1
  9
$DIMSHO
 70
     1
  9
$DIMPOST
  1

  9
$DIMAPOST
  1

  9
$DIMALT
 70
     0
  9
$DIMALTD
 70
     3
  9
$DIMALTF
 40
0.03937007874016
  9
$DIMLFAC
 40
1.0
  9
$DIMTOFL
 70
     1
  9
$DIMTVP
 40
0.0
  9
$DIMTIX
 70
     0
  9
$DIMSOXD
 70
     0
  9
$DIMSAH
 70
     0
  9
$DIMBLK1
  1

  9
$DIMBLK2
  1

  9
$DIMSTYLE
  2
ISO-25
  9
$DIMCLRD
 70
     0
  9
$DIMCLRE
 70
     0
  9
$DIMCLRT
 70
     0
  9
$DIMTFAC
 40
1.0
  9
$DIMGAP
 40
0.625
  9
$DIMJUST
 70
     0
  9
$DIMSD1
 70
     0
  9
$DIMSD2
 70
     0
  9
$DIMTOLJ
 70
     0
  9
$DIMTZIN
 70
     8
  9
$DIMALTZ
 70
     0
  9
$DIMALTTZ
 70
     0
  9
$DIMUPT
 70
     0
  9
$DIMDEC
 70
     2
  9
$DIMTDEC
 70
     2
  9
$DIMALTU
 70
     2
  9
$DIMALTTD
 70
     3
  9
$DIMTXSTY
  7
Standard
  9
$DIMAUNIT
 70
     0
  9
$DIMADEC
 70
     0
  9
$DIMALTRND
 40
0.0
  9
$DIMAZIN
 70
     0
  9
$DIMDSEP
 70
    44
  9
$DIMATFIT
 70
     3
  9
$DIMFRAC
 70
     0
  9
$DIMLDRBLK
  1

  9
$DIMLUNIT
 70
     2
  9
$DIMLWD
 70
    -2
  9
$DIMLWE
 70
    -2
  9
$DIMTMOVE
 70
     0
  9
$LUNITS
 70
     2
  9
$LUPREC
 70
     4
  9
$SKETCHINC
 40
1.0
  9
$FILLETRAD
 40
0.0
  9
$AUNITS
 70
     0
  9
$AUPREC
 70
     0
  9
$MENU
  1
.
  9
$ELEVATION
 40
0.0
  9
$PELEVATION
 40
0.0
  9
$THICKNESS
 40
0.0
  9
$LIMCHECK
 70
     0
  9
$CHAMFERA
 40
3.0
  9
$CHAMFERB
 40
3.0
  9
$CHAMFERC
 40
20.0
  9
$CHAMFERD
 40
0.0
  9
$SKPOLY
 70
     0
  9
$TDCREATE
 40
2452332.512107639
  9
$TDUCREATE
 40
2452332.470440972
  9
$TDUPDATE
 40
2455601.269462430
  9
$TDUUPDATE
 40
2455601.227795764
  9
$TDINDWG
 40
0.3258184954
  9
$TDUSRTIMER
 40
0.3258046065
  9
$USRTIMER
 70
     1
  9
$ANGBASE
 50
0.0
  9
$ANGDIR
 70
     0
  9
$PDMODE
 70
     0
  9
$PDSIZE
 40
0.0
  9
$PLINEWID
 40
0.0
  9
$SPLFRAME
 70
     0
  9
$SPLINETYPE
 70
     6
  9
$SPLINESEGS
 70
     8
  9
$HANDSEED
  5
9B28
  9
$SURFTAB1
 70
     6
  9
$SURFTAB2
 70
     6
  9
$SURFTYPE
 70
     6
  9
$SURFU
 70
     6
  9
$SURFV
 70
     6
  9
$UCSBASE
  2

  9
$UCSNAME
  2

  9
$UCSORG
 10
0.0
 20
0.0
 30
0.0
  9
$UCSXDIR
 10
1.0
 20
0.0
 30
0.0
  9
$UCSYDIR
 10
0.0
 20
1.0
 30
0.0
  9
$UCSORTHOREF
  2

  9
$UCSORTHOVIEW
 70
     0
  9
$UCSORGTOP
 10
0.0
 20
0.0
 30
0.0
  9
$UCSORGBOTTOM
 10
0.0
 20
0.0
 30
0.0
  9
$UCSORGLEFT
 10
0.0
 20
0.0
 30
0.0
  9
$UCSORGRIGHT
 10
0.0
 20
0.0
 30
0.0
  9
$UCSORGFRONT
 10
0.0
 20
0.0
 30
0.0
  9
$UCSORGBACK
 10
0.0
 20
0.0
 30
0.0
  9
$PUCSBASE
  2

  9
$PUCSNAME
  2

  9
$PUCSORG
 10
0.0
 20
0.0
 30
0.0
  9
$PUCSXDIR
 10
1.0
 20
0.0
 30
0.0
  9
$PUCSYDIR
 10
0.0
 20
1.0
 30
0.0
  9
$PUCSORTHOREF
  2

  9
$PUCSORTHOVIEW
 70
     0
  9
$PUCSORGTOP
 10
0.0
 20
0.0
 30
0.0
  9
$PUCSORGBOTTOM
 10
0.0
 20
0.0
 30
0.0
  9
$PUCSORGLEFT
 10
0.0
 20
0.0
 30
0.0
  9
$PUCSORGRIGHT
 10
0.0
 20
0.0
 30
0.0
  9
$PUCSORGFRONT
 10
0.0
 20
0.0
 30
0.0
  9
$PUCSORGBACK
 10
0.0
 20
0.0
 30
0.0
  9
$USERI1
 70
     0
  9
$USERI2
 70
     0
  9
$USERI3
 70
     0
  9
$USERI4
 70
     0
  9
$USERI5
 70
     0
  9
$USERR1
 40
0.0
  9
$USERR2
 40
0.0
  9
$USERR3
 40
0.0
  9
$USERR4
 40
0.0
  9
$USERR5
 40
0.0
  9
$WORLDVIEW
 70
     1
  9
$SHADEDGE
 70
     3
  9
$SHADEDIF
 70
    70
  9
$TILEMODE
 70
     1
  9
$MAXACTVP
 70
    64
  9
$PINSBASE
 10
0.0
 20
0.0
 30
0.0
  9
$PLIMCHECK
 70
     0
  9
$PEXTMIN
 10
1.000000000000000E+20
 20
1.000000000000000E+20
 30
1.000000000000000E+20
  9
$PEXTMAX
 10
-1.000000000000000E+20
 20
-1.000000000000000E+20
 30
-1.000000000000000E+20
  9
$PLIMMIN
 10
0.0
 20
0.0
  9
$PLIMMAX
 10
420.0
 20
297.0
  9
$UNITMODE
 70
     0
  9
$VISRETAIN
 70
     1
  9
$PLINEGEN
 70
     0
  9
$PSLTSCALE
 70
     1
  9
$TREEDEPTH
 70
  3020
  9
$CMLSTYLE
  2
Standard
  9
$CMLJUST
 70
     0
  9
$CMLSCALE
 40
20.0
  9
$PROXYGRAPHICS
 70
     1
  9
$MEASUREMENT
 70
     1
  9
$CELWEIGHT
370
    -1
  9
$ENDCAPS
280
     0
  9
$JOINSTYLE
280
     0
  9
$LWDISPLAY
290
     0
  9
$INSUNITS
 70
     4
  9
$HYPERLINKBASE
  1

  9
$STYLESHEET
  1
monochrome.ctb
  9
$XEDIT
290
     1
  9
$CEPSNTYPE
380
     0
  9
$PSTYLEMODE
290
     1
  9
$FINGERPRINTGUID
  2
{D99C744E-04C5-44F1-9703-862C59725F9B}
  9
$VERSIONGUID
  2
{28E1CE05-D4A9-4CFE-BC8F-E82A1922F75A}
  9
$EXTNAMES
290
     1
  9
$PSVPSCALE
 40
0.0
  9
$OLESTARTUP
290
     0
  0
ENDSEC
  0
SECTION
  2
CLASSES
  0
CLASS
  1
ACDBDICTIONARYWDFLT
  2
AcDbDictionaryWithDefault
  3
AutoCAD 2000
 90
        0
280
     0
281
     0
  0
CLASS
  1
ACDBPLACEHOLDER
  2
AcDbPlaceHolder
  3
AutoCAD 2000
 90
        0
280
     0
281
     0
  0
CLASS
  1
LAYOUT
  2
AcDbLayout
  3
AutoCAD 2000
 90
        0
280
     0
281
     0
  0
CLASS
  1
DICTIONARYVAR
  2
AcDbDictionaryVar
  3
AutoCAD 2000
 90
        0
280
     0
281
     0
  0
ENDSEC
  0
SECTION
  2
TABLES
  0
TABLE
  2
VPORT
  5
8
330
0
100
AcDbSymbolTable
 70
     2
  0
VPORT
  5
9B27
330
8
100
AcDbSymbolTableRecord
100
AcDbViewportTableRecord
  2
*Active
 70
     0
 10
0.0
 20
0.0
 11
1.0
 21
1.0
 12
664.103251000648
 22
-1815.025680512375
 13
0.0
 23
0.0
 14
10.0
 24
10.0
 15
10.0
 25
10.0
 16
0.0
 26
0.0
 36
1.0
 17
0.0
 27
0.0
 37
0.0
 40
1103.100354707574
 41
2.031862745098039
 42
50.0
 43
0.0
 44
0.0
 50
0.0
 51
0.0
 71
     0
 72
   100
 73
     1
 74
     3
 75
     0
 76
     0
 77
     0
 78
     0
281
     0
 65
     1
110
0.0
120
0.0
130
0.0
111
1.0
121
0.0
131
0.0
112
0.0
122
1.0
132
0.0
 79
     0
146
0.0
  0
ENDTAB
  0
TABLE
  2
LTYPE
  5
5
330
0
100
AcDbSymbolTable
 70
     5
  0
LTYPE
  5
14
330
5
100
AcDbSymbolTableRecord
100
AcDbLinetypeTableRecord
  2
ByBlock
 70
     0
  3

 72
    65
 73
     0
 40
0.0
  0
LTYPE
  5
15
330
5
100
AcDbSymbolTableRecord
100
AcDbLinetypeTableRecord
  2
ByLayer
 70
     0
  3

 72
    65
 73
     0
 40
0.0
  0
LTYPE
  5
16
330
5
100
AcDbSymbolTableRecord
100
AcDbLinetypeTableRecord
  2
Continuous
 70
     0
  3
Solid line
 72
    65
 73
     0
 40
0.0
  0
LTYPE
  5
3402
330
5
100
AcDbSymbolTableRecord
100
AcDbLinetypeTableRecord
  2
DASHED
 70
     0
  3
Dashed __ __ __ __ __ __ __ __ __ __ __ __ __ _
 72
    65
 73
     2
 40
19.04999999999999
 49
12.7
 74
     0
 49
-6.349999999999999
 74
     0
  0
LTYPE
  5
3403
330
5
100
AcDbSymbolTableRecord
100
AcDbLinetypeTableRecord
  2
DASHDOT2
 70
     0
  3
Dash dot (.5x) _._._._._._._._._._._._._._._.
 72
    65
 73
     4
 40
12.7
 49
6.349999999999999
 74
     0
 49
-3.174999999999999
 74
     0
 49
0.0
 74
     0
 49
-3.174999999999999
 74
     0
  0
LTYPE
  5
3404
330
5
100
AcDbSymbolTableRecord
100
AcDbLinetypeTableRecord
  2
CIKCAK
 70
     0
  3
Cik-cak /\/\/\/\/\/\/\/\/\/\/\/\/\/\/\/\/\/\/\/
 72
    65
 73
     4
 40
20.32254
 49
0.00254
 74
     0
 49
-5.08
 74
     4
 75
   131
340
340B
 46
5.08
 50
0.0
 44
-5.08
 45
0.0
 49
-10.16
 74
     4
 75
   131
340
340B
 46
5.08
 50
180.0
 44
5.08
 45
0.0
 49
-5.08
 74
     0
  0
LTYPE
  5
3757
330
5
100
AcDbSymbolTableRecord
100
AcDbLinetypeTableRecord
  2
IZOLACE
 70
     0
  3
Izolace SSSSSSSSSSSSSSSSSSSSSSSSSSSSSSSSSSSSSSS
 72
    65
 73
     4
 40
10.16253999999999
 49
0.00254
 74
     0
 49
-2.54
 74
     4
 75
   134
340
340B
 46
2.54
 50
0.0
 44
-2.54
 45
0.0
 49
-5.08
 74
     4
 75
   134
340
340B
 46
2.54
 50
180.0
 44
2.54
 45
0.0
 49
-2.54
 74
     0
  0
ENDTAB
  0
TABLE
  2
LAYER
  5
2
330
0
100
AcDbSymbolTable
 70
     8
  0
LAYER
  5
10
330
2
100
AcDbSymbolTableRecord
100
AcDbLayerTableRecord
  2
0
 70
     0
 62
     7
  6
Continuous
370
    -3
390
F
  0
LAYER
  5
3405
330
2
100
AcDbSymbolTableRecord
100
AcDbLayerTableRecord
  2
POPIS
 70
     0
 62
    30
  6
Continuous
370
    -3
390
F
  0
LAYER
  5
3406
330
2
100
AcDbSymbolTableRecord
100
AcDbLayerTableRecord
  2
SPOJOVACÍ
 70
     0
 62
   180
  6
Continuous
370
    -3
390
F
  0
LAYER
  5
3407
330
2
100
AcDbSymbolTableRecord
100
AcDbLayerTableRecord
  2
CETRIS
 70
     0
 62
     1
  6
Continuous
370
    -3
390
F
  0
LAYER
  5
3408
330
2
100
AcDbSymbolTableRecord
100
AcDbLayerTableRecord
  2
izolace
 70
     0
 62
    73
  6
Continuous
370
    -3
390
F
  0
LAYER
  5
3409
330
2
100
AcDbSymbolTableRecord
100
AcDbLayerTableRecord
  2
STAVBA OBRYS
 70
     0
 62
     6
  6
Continuous
370
    -3
390
F
  0
LAYER
  5
3758
330
2
100
AcDbSymbolTableRecord
100
AcDbLayerTableRecord
  2
NOSNÉ KONSTRUKCE
 70
     0
 62
    33
  6
Continuous
370
    -3
390
F
  0
LAYER
  5
56AA
330
2
100
AcDbSymbolTableRecord
100
AcDbLayerTableRecord
  2
Defpoints
 70
     0
 62
     7
  6
Continuous
290
     0
370
    -3
390
F
  0
ENDTAB
  0
TABLE
  2
STYLE
  5
3
330
0
100
AcDbSymbolTable
 70
     3
  0
STYLE
  5
11
330
3
100
AcDbSymbolTableRecord
100
AcDbTextStyleTableRecord
  2
Standard
 70
     0
 40
0.0
 41
1.0
 50
0.0
 71
     0
 42
2.5
  3
txt
  4

  0
STYLE
  5
340A
330
3
100
AcDbSymbolTableRecord
100
AcDbTextStyleTableRecord
  2
SIMPLEX7
 70
     0
 40
0.0
 41
0.85
 50
0.0
 71
     0
 42
102.0
  3
ARIAL.TTF
  4

1001
ACAD
1000
Arial CE
1071
    60962
  0
STYLE
  5
340B
330
3
100
AcDbSymbolTableRecord
100
AcDbTextStyleTableRecord
  2

 70
     1
 40
0.0
 41
1.0
 50
0.0
 71
     0
 42
2.5
  3
ltypeshp.shx
  4

  0
ENDTAB
  0
TABLE
  2
VIEW
  5
6
330
0
100
AcDbSymbolTable
 70
     0
  0
ENDTAB
  0
TABLE
  2
UCS
  5
7
330
0
100
AcDbSymbolTable
 70
     0
  0
ENDTAB
  0
TABLE
  2
APPID
  5
9
330
0
100
AcDbSymbolTable
 70
     1
  0
APPID
  5
12
330
9
100
AcDbSymbolTableRecord
100
AcDbRegAppTableRecord
  2
ACAD
 70
     0
  0
ENDTAB
  0
TABLE
  2
DIMSTYLE
  5
A
330
0
100
AcDbSymbolTable
 70
     1
100
AcDbDimStyleTable
 71
     1
340
27
  0
DIMSTYLE
105
27
330
A
100
AcDbSymbolTableRecord
100
AcDbDimStyleTableRecord
  2
ISO-25
 70
     0
 41
2.5
 42
0.625
 43
3.75
 44
1.25
 73
     0
 74
     0
 77
     1
 78
     8
140
2.5
141
2.5
143
0.03937007874016
147
0.625
171
     3
172
     1
271
     2
272
     2
274
     3
278
    44
283
     0
284
     8
340
11
  0
ENDTAB
  0
TABLE
  2
BLOCK_RECORD
  5
1
330
0
100
AcDbSymbolTable
 70
     3
  0
BLOCK_RECORD
  5
1F
330
1
100
AcDbSymbolTableRecord
100
AcDbBlockTableRecord
  2
*Model_Space
340
22
  0
BLOCK_RECORD
  5
1B
330
1
100
AcDbSymbolTableRecord
100
AcDbBlockTableRecord
  2
*Paper_Space
340
1E
  0
BLOCK_RECORD
  5
23
330
1
100
AcDbSymbolTableRecord
100
AcDbBlockTableRecord
  2
*Paper_Space0
340
26
  0
BLOCK_RECORD
  5
33FA
330
1
100
AcDbSymbolTableRecord
100
AcDbBlockTableRecord
  2
E_PUNKT
340
0
102
{BLKREFS
331
43B3
331
4478
331
4479
331
4D8B
331
4DA1
331
4DA7
331
4DF9
331
4DFC
331
4E0B
331
4E13
331
4E17
331
4B02
331
475B
331
4763
331
4769
331
476A
331
476B
331
476C
331
4FB8
331
59FB
331
594B
331
5864
331
5855
331
5910
331
57E8
331
5AED
331
5B49
331
5B4D
331
6E80
331
6E6D
331
6DAA
331
6D50
331
6FA1
331
707A
331
70B1
331
70B2
331
70BB
331
70BC
331
7646
331
7677
331
76B6
331
7779
331
7A28
331
7A2B
331
78FB
331
792A
331
794D
331
97D6
331
97D9
331
98CA
331
9958
331
9969
331
9AB5
331
9AB9
331
9ABC
331
9B15
102
}
  0
BLOCK_RECORD
  5
3730
330
1
100
AcDbSymbolTableRecord
100
AcDbBlockTableRecord
  2
SYM_KOMPON-2_K___-SPO
340
0
102
{BLKREFS
331
4DB5
331
6B31
102
}
  0
ENDTAB
  0
ENDSEC
  0
SECTION
  2
BLOCKS
  0
BLOCK
  5
20
330
1F
100
AcDbEntity
  8
0
100
AcDbBlockBegin
  2
*Model_Space
 70
     0
 10
0.0
 20
0.0
 30
0.0
  3
*Model_Space
  1

  0
ENDBLK
  5
21
330
1F
100
AcDbEntity
  8
0
100
AcDbBlockEnd
  0
BLOCK
  5
1C
330
1B
100
AcDbEntity
 67
     1
  8
0
100
AcDbBlockBegin
  2
*Paper_Space
 70
     0
 10
0.0
 20
0.0
 30
0.0
  3
*Paper_Space
  1

  0
ENDBLK
  5
1D
330
1B
100
AcDbEntity
 67
     1
  8
0
100
AcDbBlockEnd
  0
BLOCK
  5
24
330
23
100
AcDbEntity
  8
0
100
AcDbBlockBegin
  2
*Paper_Space0
 70
     0
 10
0.0
 20
0.0
 30
0.0
  3
*Paper_Space0
  1

  0
ENDBLK
  5
25
330
23
100
AcDbEntity
  8
0
100
AcDbBlockEnd
  0
BLOCK
  5
33FC
330
33FA
100
AcDbEntity
  8
0
100
AcDbBlockBegin
  2
E_PUNKT
 70
     0
 10
0.0
 20
0.0
 30
0.0
  3
E_PUNKT
  1

  0
LWPOLYLINE
  5
33FB
330
33FA
100
AcDbEntity
  8
POPIS
100
AcDbPolyline
 90
        2
 70
     1
 43
2.5
 10
1.27761037562675
 20
0.0290683308725193
 42
-1.0
 10
-1.222389624373249
 20
0.0290683308725193
 42
-1.0
  0
ENDBLK
  5
33FD
330
33FA
100
AcDbEntity
  8
0
100
AcDbBlockEnd
  0
BLOCK
  5
3755
330
3730
100
AcDbEntity
  8
0
  6
Continuous
 62
     7
100
AcDbBlockBegin
  2
SYM_KOMPON-2_K___-SPO
 70
     0
 10
0.0
 20
0.0
 30
0.0
  3
SYM_KOMPON-2_K___-SPO
  1

  0
ARC
  5
3731
330
3730
100
AcDbEntity
  8
0
  6
Continuous
 62
     5
100
AcDbCircle
 39
2.500000155029299
 10
-0.0508188465429459
 20
0.0106048761117461
 30
0.0
 40
0.011751466147934
100
AcDbArc
 50
244.4784797551157
 51
325.5219527481187
  0
LINE
  5
3732
330
3730
100
AcDbEntity
  8
0
  6
Continuous
 62
     5
100
AcDbLine
 39
2.500000155029299
 10
-0.0558819096713726
 20
0.0000000968933121
 30
0.0
 11
-0.0473700259934526
 21
-0.0147428987899281
 31
0.0
  0
LINE
  5
3733
330
3730
100
AcDbEntity
  8
0
  6
Continuous
 62
     5
100
AcDbLine
 39
2.500000155029299
 10
-0.0279409548356863
 20
-0.0234403331604447
 30
0.0
 11
-0.0356294633710414
 21
-0.0234403331604447
 31
0.0
  0
ARC
  5
3734
330
3730
100
AcDbEntity
  8
0
  6
Continuous
 62
     5
100
AcDbCircle
 39
2.500000155029299
 10
-0.0337367494132451
 20
-0.0086124589358392
 30
0.0
 40
0.014948212690269
100
AcDbArc
 50
204.2119054656276
 51
262.7260677832351
  0
LINE
  5
3735
330
3730
100
AcDbEntity
  8
0
  6
Continuous
 62
     5
100
AcDbLine
 39
2.500000155029299
 10
-0.0411315500964158
 20
0.0039524719855855
 30
0.0
 11
-0.0360044404887169
 21
0.0290662495386328
 31
0.0
  0
LINE
  5
3736
330
3730
100
AcDbEntity
  8
0
  6
Continuous
 62
     5
100
AcDbLine
 39
2.500000155029299
 10
-0.0360044404887169
 20
0.0290662495386328
 30
0.0
 11
-0.0330041390807532
 21
0.0290662495386328
 31
0.0
  0
LINE
  5
3737
330
3730
100
AcDbEntity
  8
0
  6
Continuous
 62
     5
100
AcDbLine
 39
2.500000155029299
 10
-0.0330041390807532
 20
0.0290662495386328
 30
0.0
 11
-0.0330041390807532
 21
0.0266284138071823
 31
0.0
  0
LINE
  5
3738
330
3730
100
AcDbEntity
  8
0
  6
Continuous
 62
     5
100
AcDbLine
 39
2.500000155029299
 10
-0.0330041390807532
 20
0.0266284138071823
 30
0.0
 11
-0.031691428488953
 21
0.0266284138071823
 31
0.0
  0
LINE
  5
3739
330
3730
100
AcDbEntity
  8
0
  6
Continuous
 62
     5
100
AcDbLine
 39
2.500000155029299
 10
-0.031691428488953
 20
0.0266284138071823
 30
0.0
 11
-0.031691428488953
 21
0.0290662495386328
 31
0.0
  0
LINE
  5
373A
330
3730
100
AcDbEntity
  8
0
  6
Continuous
 62
     5
100
AcDbLine
 39
2.500000155029299
 10
-0.031691428488953
 20
0.0290662495386328
 30
0.0
 11
-0.0279409548356863
 21
0.0290662495386328
 31
0.0
  0
CIRCLE
  5
373B
330
3730
100
AcDbEntity
  8
0
  6
Continuous
 62
     5
100
AcDbCircle
 39
2.500000155029299
 10
-0.0328383546238171
 20
0.0189341158964315
 30
0.0
 40
0.0013649867099716
  0
CIRCLE
  5
373C
330
3730
100
AcDbEntity
  8
0
  6
Continuous
 62
     5
100
AcDbCircle
 39
2.500000155029299
 10
-0.0329103463546783
 20
0.0132205110708283
 30
0.0
 40
0.0014585928407229
  0
CIRCLE
  5
373D
330
3730
100
AcDbEntity
  8
0
  6
Continuous
 62
     5
100
AcDbCircle
 39
2.500000155029299
 10
-0.0330509385504785
 20
0.0073604035573891
 30
0.0
 40
0.0015249057151225
  0
CIRCLE
  5
373E
330
3730
100
AcDbEntity
  8
0
  6
Continuous
 62
     5
100
AcDbCircle
 39
2.500000155029299
 10
-0.033113725416694
 20
0.0012600006300391
 30
0.0
 40
0.0016056164247336
  0
CIRCLE
  5
373F
330
3730
100
AcDbEntity
  8
0
  6
Continuous
 62
     5
100
AcDbCircle
 39
2.500000155029299
 10
-0.033426012561466
 20
-0.0052037522175391
 30
0.0
 40
0.0017900717687164
  0
CIRCLE
  5
3740
330
3730
100
AcDbEntity
  8
0
  6
Continuous
 62
     5
100
AcDbCircle
 39
2.500000155029299
 10
-0.0335356957907189
 20
-0.0113853517403961
 30
0.0
 40
0.0017680026136918
  0
CIRCLE
  5
3741
330
3730
100
AcDbEntity
  8
0
  6
Continuous
 62
     5
100
AcDbCircle
 39
2.500000155029299
 10
-0.0403631861317734
 20
-0.0080739259074051
 30
0.0
 40
0.0018960946260124
  0
ARC
  5
3742
330
3730
100
AcDbEntity
  8
0
  6
Continuous
 62
     5
100
AcDbCircle
 39
2.500000155029299
 10
-0.0050630631284268
 20
0.0106048761117461
 30
0.0
 40
0.011751466147934
100
AcDbArc
 50
214.4780759391286
 51
295.5215216113749
  0
LINE
  5
3743
330
3730
100
AcDbEntity
  8
0
  6
Continuous
 62
     5
100
AcDbLine
 39
2.500000155029299
 10
0.0
 20
0.0000000968933121
 30
0.0
 11
-0.0085118836779201
 21
-0.0147428987899281
 31
0.0
  0
LINE
  5
3744
330
3730
100
AcDbEntity
  8
0
  6
Continuous
 62
     5
100
AcDbLine
 39
2.500000155029299
 10
-0.0279409548356863
 20
-0.0234403331604447
 30
0.0
 11
-0.0202524463003312
 21
-0.0234403331604447
 31
0.0
  0
ARC
  5
3745
330
3730
100
AcDbEntity
  8
0
  6
Continuous
 62
     5
100
AcDbCircle
 39
2.500000155029299
 10
-0.0221451602581275
 20
-0.0086124589358392
 30
0.0
 40
0.014948212690269
100
AcDbArc
 50
277.2739609040121
 51
335.7881642027547
  0
LINE
  5
3746
330
3730
100
AcDbEntity
  8
0
  6
Continuous
 62
     5
100
AcDbLine
 39
2.500000155029299
 10
-0.0147503595749568
 20
0.0039524719855855
 30
0.0
 11
-0.0198774691826558
 21
0.0290662495386328
 31
0.0
  0
LINE
  5
3747
330
3730
100
AcDbEntity
  8
0
  6
Continuous
 62
     5
100
AcDbLine
 39
2.500000155029299
 10
-0.0198774691826558
 20
0.0290662495386328
 30
0.0
 11
-0.0228777705906195
 21
0.0290662495386328
 31
0.0
  0
LINE
  5
3748
330
3730
100
AcDbEntity
  8
0
  6
Continuous
 62
     5
100
AcDbLine
 39
2.500000155029299
 10
-0.0228777705906195
 20
0.0290662495386328
 30
0.0
 11
-0.0228777705906195
 21
0.0266284138071823
 31
0.0
  0
LINE
  5
3749
330
3730
100
AcDbEntity
  8
0
  6
Continuous
 62
     5
100
AcDbLine
 39
2.500000155029299
 10
-0.0228777705906195
 20
0.0266284138071823
 30
0.0
 11
-0.0241904811824196
 21
0.0266284138071823
 31
0.0
  0
LINE
  5
374A
330
3730
100
AcDbEntity
  8
0
  6
Continuous
 62
     5
100
AcDbLine
 39
2.500000155029299
 10
-0.0241904811824196
 20
0.0266284138071823
 30
0.0
 11
-0.0241904811824196
 21
0.0290662495386328
 31
0.0
  0
LINE
  5
374B
330
3730
100
AcDbEntity
  8
0
  6
Continuous
 62
     5
100
AcDbLine
 39
2.500000155029299
 10
-0.0241904811824196
 20
0.0290662495386328
 30
0.0
 11
-0.0279409548356863
 21
0.0290662495386328
 31
0.0
  0
CIRCLE
  5
374C
330
3730
100
AcDbEntity
  8
0
  6
Continuous
 62
     5
100
AcDbCircle
 39
2.500000155029299
 10
-0.0230435550475556
 20
0.0189341158964315
 30
0.0
 40
0.0013649867099716
  0
CIRCLE
  5
374D
330
3730
100
AcDbEntity
  8
0
  6
Continuous
 62
     5
100
AcDbCircle
 39
2.500000155029299
 10
-0.0229715633166944
 20
0.0132205110708283
 30
0.0
 40
0.0014585928407229
  0
CIRCLE
  5
374E
330
3730
100
AcDbEntity
  8
0
  6
Continuous
 62
     5
100
AcDbCircle
 39
2.500000155029299
 10
-0.0228309711208941
 20
0.0073604035573891
 30
0.0
 40
0.0015249057151225
  0
CIRCLE
  5
374F
330
3730
100
AcDbEntity
  8
0
  6
Continuous
 62
     5
100
AcDbCircle
 39
2.500000155029299
 10
-0.0227681842546787
 20
0.0012600006300391
 30
0.0
 40
0.0016056164247336
  0
CIRCLE
  5
3750
330
3730
100
AcDbEntity
  8
0
  6
Continuous
 62
     5
100
AcDbCircle
 39
2.500000155029299
 10
-0.0224558971099066
 20
-0.0052037522175391
 30
0.0
 40
0.0017900717687164
  0
CIRCLE
  5
3751
330
3730
100
AcDbEntity
  8
0
  6
Continuous
 62
     5
100
AcDbCircle
 39
2.500000155029299
 10
-0.0223462138806537
 20
-0.0113853517403961
 30
0.0
 40
0.0017680026136918
  0
CIRCLE
  5
3752
330
3730
100
AcDbEntity
  8
0
  6
Continuous
 62
     5
100
AcDbCircle
 39
2.500000155029299
 10
-0.0155187235395992
 20
-0.0080739259074051
 30
0.0
 40
0.0018960946260124
  0
CIRCLE
  5
3753
330
3730
100
AcDbEntity
  8
0
  6
Continuous
 62
     5
100
AcDbCircle
 39
2.500000155029299
 10
-0.0280347717850892
 20
-0.0082510468818523
 30
0.0
 40
0.0018752247149693
  0
CIRCLE
  5
3754
330
3730
100
AcDbEntity
  8
0
  6
Continuous
 62
     5
100
AcDbCircle
 39
2.500000155029299
 10
-0.0278472347795955
 20
0.0103139054956274
 30
0.0
 40
0.0016877361561316
  0
ENDBLK
  5
3756
330
3730
100
AcDbEntity
  8
0
100
AcDbBlockEnd
  0
ENDSEC
  0
SECTION
  2
ENTITIES
  0
TEXT
  5
43AE
330
1F
100
AcDbEntity
  8
POPIS
100
AcDbText
 10
414.2678078718772
 20
-1375.32365613243
 30
0.0
 40
50.0
  1
Protipožární podhled 
 41
0.85
  7
SIMPLEX7
100
AcDbText
  0
LINE
  5
56E5
330
1F
100
AcDbEntity
  8
NOSNÉ KONSTRUKCE
100
AcDbLine
 39
2500.000155029299
 10
782.8531884999711
 20
-1679.729374607642
 30
0.0
 11
770.4390451489699
 21
-1679.729315217179
 31
0.0
  0
LINE
  5
56E6
330
1F
100
AcDbEntity
  8
NOSNÉ KONSTRUKCE
100
AcDbLine
 39
2500.000155029299
 10
782.8532144022346
 20
-1674.315132859742
 30
0.0
 11
782.8531884999711
 21
-1679.729374607642
 31
0.0
  0
LINE
  5
56E7
330
1F
100
AcDbEntity
  8
NOSNÉ KONSTRUKCE
100
AcDbLine
 39
2500.000155029299
 10
782.8532144022346
 20
-1674.315132859742
 30
0.0
 11
781.2674421344081
 21
-1672.729383831463
 31
0.0
  0
LINE
  5
56E8
330
1F
100
AcDbEntity
  8
NOSNÉ KONSTRUKCE
100
AcDbLine
 39
2500.000155029299
 10
781.2674421344081
 20
-1672.729383831463
 30
0.0
 11
782.8532295749201
 21
-1671.143649976241
 31
0.0
  0
LINE
  5
56E9
330
1F
100
AcDbEntity
  8
NOSNÉ KONSTRUKCE
100
AcDbLine
 39
2500.000155029299
 10
781.8532124205767
 20
-1674.729348732885
 30
0.0
 11
779.8532114432555
 21
-1672.729377065649
 31
0.0
  0
LINE
  5
56EA
330
1F
100
AcDbEntity
  8
NOSNÉ KONSTRUKCE
100
AcDbLine
 39
2500.000155029299
 10
779.8532114432555
 20
-1672.729377065649
 30
0.0
 11
781.8532315566072
 21
-1670.729424534902
 31
0.0
  0
LINE
  5
56EB
330
1F
100
AcDbEntity
  8
NOSNÉ KONSTRUKCE
100
AcDbLine
 39
2500.000155029299
 10
781.8531932840878
 20
-1678.729369823558
 30
0.0
 11
770.8532564005972
 21
-1678.729317198794
 31
0.0
  0
LINE
  5
56EC
330
1F
100
AcDbEntity
  8
NOSNÉ KONSTRUKCE
100
AcDbLine
 39
2500.000155029299
 10
781.8532124205767
 20
-1674.729348732885
 30
0.0
 11
781.8531932840878
 21
-1678.729369823558
 31
0.0
  0
LINE
  5
56ED
330
1F
100
AcDbEntity
  8
izolace
  6
IZOLACE
 48
1.45
100
AcDbLine
 10
784.6450593708822
 20
-1662.883115249086
 30
0.0
 11
1091.284391986299
 21
-1662.883115249086
 31
0.0
  0
LINE
  5
56EE
330
1F
100
AcDbEntity
  8
izolace
100
AcDbLine
 10
784.6450593708822
 20
-1677.883115249086
 30
0.0
 11
1091.609542343576
 21
-1677.883115249086
 31
0.0
  0
LINE
  5
56EF
330
1F
100
AcDbEntity
  8
izolace
  6
IZOLACE
 48
1.45
100
AcDbLine
 10
553.4051268972498
 20
-1632.883115249086
 30
0.0
 11
1090.634091271743
 21
-1632.883115249086
 31
0.0
  0
LINE
  5
56F0
330
1F
100
AcDbEntity
  8
izolace
100
AcDbLine
 10
553.4051268972498
 20
-1647.883115249086
 30
0.0
 11
1090.959241629021
 21
-1647.883115249086
 31
0.0
  0
LINE
  5
56F1
330
1F
100
AcDbEntity
  8
izolace
100
AcDbLine
 10
553.4051268972498
 20
-1617.883115249086
 30
0.0
 11
1090.308940914465
 21
-1617.883115249086
 31
0.0
  0
LINE
  5
56F3
330
1F
100
AcDbEntity
  8
NOSNÉ KONSTRUKCE
100
AcDbLine
 10
554.4953840406915
 20
-1709.13988535141
 30
0.0
 11
1092.287085674651
 21
-1709.13988535141
 31
0.0
  0
LINE
  5
56F4
330
1F
100
AcDbEntity
  8
NOSNÉ KONSTRUKCE
100
AcDbLine
 10
1092.100975579225
 20
-1700.55416072001
 30
0.0
 11
555.9953122794277
 21
-1700.55416072001
 31
0.0
  0
LINE
  5
56F5
330
1F
100
AcDbEntity
  8
NOSNÉ KONSTRUKCE
100
AcDbLine
 10
1091.95109793562
 20
-1693.639929799577
 30
0.0
 11
555.9953453577645
 21
-1693.639929799577
 31
0.0
  0
LINE
  5
56F6
330
1F
100
AcDbEntity
  8
NOSNÉ KONSTRUKCE
100
AcDbLine
 10
1091.994451029379
 20
-1695.639916549795
 30
0.0
 11
555.995297106735
 21
-1695.639916549795
 31
0.0
  0
LINE
  5
56F7
330
1F
100
AcDbEntity
  8
NOSNÉ KONSTRUKCE
100
AcDbLine
 10
1091.844573385773
 20
-1688.725685629346
 30
0.0
 11
555.9953840406842
 21
-1688.725685629346
 31
0.0
  0
LINE
  5
56F8
330
1F
100
AcDbEntity
  8
NOSNÉ KONSTRUKCE
100
AcDbLine
 10
1091.775826132929
 20
-1685.554202745861
 30
0.0
 11
555.9953840406842
 21
-1685.554202745861
 31
0.0
  0
LINE
  5
56F9
330
1F
100
AcDbEntity
  8
NOSNÉ KONSTRUKCE
100
AcDbLine
 10
599.8578637418058
 20
-1680.139941861602
 30
0.0
 11
1091.658462875535
 21
-1680.139941861602
 31
0.0
  0
LINE
  5
56FD
330
1F
100
AcDbEntity
  8
CETRIS
100
AcDbLine
 10
560.4051268972498
 20
-1722.223863038851
 30
0.0
 11
1092.570703009297
 21
-1722.223863038852
 31
0.0
  0
LINE
  5
56FE
330
1F
100
AcDbEntity
  8
CETRIS
100
AcDbLine
 10
560.4051268972498
 20
-1710.223863038853
 30
0.0
 11
1092.310582723474
 21
-1710.223863038853
 31
0.0
  0
TEXT
  5
5703
330
1F
100
AcDbEntity
  8
POPIS
100
AcDbText
 10
915.7767571957766
 20
-1863.835798500486
 30
0.0
 40
25.0
  1
08
 41
0.85
  7
SIMPLEX7
100
AcDbText
  0
LINE
  5
5709
330
1F
100
AcDbEntity
  8
STAVBA OBRYS
100
AcDbLine
 10
553.4051268972498
 20
-1479.101600287136
 30
0.0
 11
553.4051268972498
 21
-1873.830343802439
 31
0.0
  0
LINE
  5
570B
330
1F
100
AcDbEntity
  8
NOSNÉ KONSTRUKCE
100
AcDbLine
 10
735.3798104217666
 20
-1540.278547649704
 30
0.0
 11
735.3798104217666
 21
-1648.533470246791
 31
0.0
  0
LINE
  5
570C
330
1F
100
AcDbEntity
  8
NOSNÉ KONSTRUKCE
100
AcDbLine
 10
737.3798104217667
 20
-1540.278547649704
 30
0.0
 11
737.3798104217667
 21
-1646.533470246792
 31
0.0
  0
LINE
  5
570D
330
1F
100
AcDbEntity
  8
POPIS
100
AcDbLine
 10
736.3583792435047
 20
-1592.18722916982
 30
0.0
 11
876.0875689249759
 21
-1665.994617959801
 31
0.0
  0
LINE
  5
570E
330
1F
100
AcDbEntity
  8
POPIS
100
AcDbLine
 10
930.0608584793907
 20
-1631.465263391375
 30
0.0
 11
930.0608584793907
 21
-1832.205535997924
 31
0.0
  0
LINE
  5
570F
330
1F
100
AcDbEntity
  8
SPOJOVACÍ
  6
DASHDOT2
100
AcDbLine
 10
562.704713705617
 20
-1694.59040732819
 30
0.0
 11
524.4271394173802
 21
-1694.59040732819
 31
0.0
  0
LINE
  5
5710
330
1F
100
AcDbEntity
  8
SPOJOVACÍ
  6
DASHED
100
AcDbLine
 10
538.2425169536536
 20
-1693.307204203191
 30
0.0
 11
554.3075870167768
 21
-1693.307204203191
 31
0.0
  0
LINE
  5
5711
330
1F
100
AcDbEntity
  8
SPOJOVACÍ
  6
DASHED
100
AcDbLine
 10
538.2425169536536
 20
-1695.87361045319
 30
0.0
 11
554.307587016784
 21
-1695.87361045319
 31
0.0
  0
LINE
  5
5712
330
1F
100
AcDbEntity
  8
SPOJOVACÍ
  6
CIKCAK
 48
0.25
100
AcDbLine
 10
555.1671192206659
 20
-1691.946307510579
 30
0.0
 11
517.3444633900171
 21
-1691.946307510584
 31
0.0
  0
LINE
  5
5713
330
1F
100
AcDbEntity
  8
SPOJOVACÍ
  6
CIKCAK
 48
0.25
100
AcDbLine
 10
555.1671192206659
 20
-1697.234507145796
 30
0.0
 11
517.3444633900171
 21
-1697.234507145796
 31
0.0
  0
LINE
  5
5714
330
1F
100
AcDbEntity
  8
SPOJOVACÍ
  6
Continuous
100
AcDbLine
 10
545.4762003668247
 20
-1692.791753281928
 30
0.0
 11
544.2666179293983
 21
-1696.389061378333
 31
0.0
  0
LINE
  5
5715
330
1F
100
AcDbEntity
  8
SPOJOVACÍ
  6
Continuous
100
AcDbLine
 10
544.945870447259
 20
-1692.791753281928
 30
0.0
 11
543.7362880098326
 21
-1696.389061378333
 31
0.0
  0
LINE
  5
5716
330
1F
100
AcDbEntity
  8
SPOJOVACÍ
  6
Continuous
100
AcDbLine
 10
544.0721912038161
 20
-1696.724964570383
 30
0.0
 11
544.2666179293983
 21
-1696.389061378333
 31
0.0
  0
LINE
  5
5717
330
1F
100
AcDbEntity
  8
SPOJOVACÍ
  6
Continuous
100
AcDbLine
 10
544.0721912038161
 20
-1696.724964570383
 30
0.0
 11
543.7362880098326
 21
-1696.389061378333
 31
0.0
  0
LINE
  5
5718
330
1F
100
AcDbEntity
  8
SPOJOVACÍ
  6
Continuous
100
AcDbLine
 10
545.1394698249159
 20
-1692.455850085998
 30
0.0
 11
545.4762003668247
 21
-1692.791753281928
 31
0.0
  0
LINE
  5
5719
330
1F
100
AcDbEntity
  8
SPOJOVACÍ
  6
Continuous
100
AcDbLine
 10
545.1394698249159
 20
-1692.455850085998
 30
0.0
 11
544.945870447259
 21
-1692.791753281928
 31
0.0
  0
LINE
  5
571A
330
1F
100
AcDbEntity
  8
SPOJOVACÍ
  6
Continuous
100
AcDbLine
 10
545.1394698249159
 20
-1692.455850085998
 30
0.0
 11
544.0721912038161
 21
-1696.724964570383
 31
0.0
  0
LINE
  5
571B
330
1F
100
AcDbEntity
  8
SPOJOVACÍ
  6
Continuous
100
AcDbLine
 10
542.9292079311371
 20
-1692.791753281928
 30
0.0
 11
541.7196254937107
 21
-1696.389061378333
 31
0.0
  0
LINE
  5
571C
330
1F
100
AcDbEntity
  8
SPOJOVACÍ
  6
Continuous
100
AcDbLine
 10
542.3988780115714
 20
-1692.791753281928
 30
0.0
 11
541.189295574145
 21
-1696.389061378333
 31
0.0
  0
LINE
  5
571D
330
1F
100
AcDbEntity
  8
SPOJOVACÍ
  6
Continuous
100
AcDbLine
 10
541.5251987681285
 20
-1696.724964570383
 30
0.0
 11
541.7196254937107
 21
-1696.389061378333
 31
0.0
  0
LINE
  5
571E
330
1F
100
AcDbEntity
  8
SPOJOVACÍ
  6
Continuous
100
AcDbLine
 10
541.5251987681285
 20
-1696.724964570383
 30
0.0
 11
541.189295574145
 21
-1696.389061378333
 31
0.0
  0
LINE
  5
571F
330
1F
100
AcDbEntity
  8
SPOJOVACÍ
  6
Continuous
100
AcDbLine
 10
542.5924773892283
 20
-1692.455850085998
 30
0.0
 11
542.9292079311371
 21
-1692.791753281928
 31
0.0
  0
LINE
  5
5720
330
1F
100
AcDbEntity
  8
SPOJOVACÍ
  6
Continuous
100
AcDbLine
 10
542.5924773892283
 20
-1692.455850085998
 30
0.0
 11
542.3988780115714
 21
-1692.791753281928
 31
0.0
  0
LINE
  5
5721
330
1F
100
AcDbEntity
  8
SPOJOVACÍ
  6
Continuous
100
AcDbLine
 10
542.5924773892283
 20
-1692.455850085998
 30
0.0
 11
541.5251987681285
 21
-1696.724964570383
 31
0.0
  0
LINE
  5
5722
330
1F
100
AcDbEntity
  8
SPOJOVACÍ
  6
Continuous
100
AcDbLine
 10
540.3822154954496
 20
-1692.791753281928
 30
0.0
 11
539.1726330580231
 21
-1696.389061378333
 31
0.0
  0
LINE
  5
5723
330
1F
100
AcDbEntity
  8
SPOJOVACÍ
  6
Continuous
100
AcDbLine
 10
539.8518855758839
 20
-1692.791753281928
 30
0.0
 11
538.6423031384574
 21
-1696.389061378333
 31
0.0
  0
LINE
  5
5724
330
1F
100
AcDbEntity
  8
SPOJOVACÍ
  6
Continuous
100
AcDbLine
 10
538.978206332441
 20
-1696.724964570383
 30
0.0
 11
539.1726330580231
 21
-1696.389061378333
 31
0.0
  0
LINE
  5
5725
330
1F
100
AcDbEntity
  8
SPOJOVACÍ
  6
Continuous
100
AcDbLine
 10
538.978206332441
 20
-1696.724964570383
 30
0.0
 11
538.6423031384574
 21
-1696.389061378333
 31
0.0
  0
LINE
  5
5726
330
1F
100
AcDbEntity
  8
SPOJOVACÍ
  6
Continuous
100
AcDbLine
 10
540.0454849535408
 20
-1692.455850085998
 30
0.0
 11
540.3822154954496
 21
-1692.791753281928
 31
0.0
  0
LINE
  5
5727
330
1F
100
AcDbEntity
  8
SPOJOVACÍ
  6
Continuous
100
AcDbLine
 10
540.0454849535408
 20
-1692.455850085998
 30
0.0
 11
539.8518855758839
 21
-1692.791753281928
 31
0.0
  0
LINE
  5
5728
330
1F
100
AcDbEntity
  8
SPOJOVACÍ
  6
Continuous
100
AcDbLine
 10
540.0454849535408
 20
-1692.455850085998
 30
0.0
 11
538.978206332441
 21
-1696.724964570383
 31
0.0
  0
LINE
  5
5729
330
1F
100
AcDbEntity
  8
SPOJOVACÍ
  6
Continuous
100
AcDbLine
 10
519.7670489348629
 20
-1692.930675763409
 30
0.0
 11
519.5979822169638
 21
-1693.223484929662
 31
0.0
  0
LINE
  5
572A
330
1F
100
AcDbEntity
  8
SPOJOVACÍ
  6
Continuous
100
AcDbLine
 10
519.7670489348629
 20
-1692.930675763409
 30
0.0
 11
520.0591386687692
 21
-1693.223484929662
 31
0.0
  0
LINE
  5
572B
330
1F
100
AcDbEntity
  8
SPOJOVACÍ
  6
Continuous
100
AcDbLine
 10
519.0145221821394
 20
-1696.121360416704
 30
0.0
 11
518.7217130152521
 21
-1695.829270684486
 31
0.0
  0
LINE
  5
572C
330
1F
100
AcDbEntity
  8
SPOJOVACÍ
  6
Continuous
100
AcDbLine
 10
519.0145221821394
 20
-1696.121360416704
 30
0.0
 11
519.1828694670503
 21
-1695.829270684486
 31
0.0
  0
LINE
  5
572D
330
1F
100
AcDbEntity
  8
SPOJOVACÍ
  6
Continuous
100
AcDbLine
 10
519.5979822169638
 20
-1693.223484929662
 30
0.0
 11
518.7217130152521
 21
-1695.829270684486
 31
0.0
  0
LINE
  5
572E
330
1F
100
AcDbEntity
  8
SPOJOVACÍ
  6
Continuous
100
AcDbLine
 10
520.0591386687692
 20
-1693.223484929662
 30
0.0
 11
519.1828694670503
 21
-1695.829270684486
 31
0.0
  0
LINE
  5
572F
330
1F
100
AcDbEntity
  8
SPOJOVACÍ
  6
Continuous
100
AcDbLine
 10
519.7670489348629
 20
-1692.930675763409
 30
0.0
 11
519.0145221821394
 21
-1696.121360416704
 31
0.0
  0
LINE
  5
5730
330
1F
100
AcDbEntity
  8
SPOJOVACÍ
  6
Continuous
100
AcDbLine
 10
517.4353670936498
 20
-1693.367371497041
 30
0.0
 11
517.2670198087389
 21
-1693.659461232631
 31
0.0
  0
LINE
  5
5731
330
1F
100
AcDbEntity
  8
SPOJOVACÍ
  6
Continuous
100
AcDbLine
 10
517.4353670936498
 20
-1693.367371497041
 30
0.0
 11
517.7281762605371
 21
-1693.659461232631
 31
0.0
  0
LINE
  5
5732
330
1F
100
AcDbEntity
  8
SPOJOVACÍ
  6
Continuous
100
AcDbLine
 10
516.9454333283311
 20
-1695.777471518345
 30
0.0
 11
516.6526241616621
 21
-1695.485381786127
 31
0.0
  0
LINE
  5
5733
330
1F
100
AcDbEntity
  8
SPOJOVACÍ
  6
Continuous
100
AcDbLine
 10
516.9454333283311
 20
-1695.777471518345
 30
0.0
 11
517.1137806132419
 21
-1695.485381786127
 31
0.0
  0
LINE
  5
5734
330
1F
100
AcDbEntity
  8
SPOJOVACÍ
  6
Continuous
100
AcDbLine
 10
517.2670198087389
 20
-1693.659461232631
 30
0.0
 11
516.6526241616621
 21
-1695.485381786127
 31
0.0
  0
LINE
  5
5735
330
1F
100
AcDbEntity
  8
SPOJOVACÍ
  6
Continuous
100
AcDbLine
 10
517.7281762605371
 20
-1693.659461232631
 30
0.0
 11
517.1137806132419
 21
-1695.485381786127
 31
0.0
  0
LINE
  5
5736
330
1F
100
AcDbEntity
  8
SPOJOVACÍ
  6
Continuous
100
AcDbLine
 10
517.4353670936498
 20
-1693.367371497041
 30
0.0
 11
516.9454333283311
 21
-1695.777471518345
 31
0.0
  0
LINE
  5
5737
330
1F
100
AcDbEntity
  8
SPOJOVACÍ
  6
Continuous
100
AcDbLine
 10
515.1044046854176
 20
-1693.804067234045
 30
0.0
 11
514.9353379675257
 21
-1694.096156966263
 31
0.0
  0
LINE
  5
5738
330
1F
100
AcDbEntity
  8
SPOJOVACÍ
  6
Continuous
100
AcDbLine
 10
515.1044046854176
 20
-1693.804067234045
 30
0.0
 11
515.3964944193167
 21
-1694.096156966263
 31
0.0
  0
LINE
  5
5739
330
1F
100
AcDbEntity
  8
SPOJOVACÍ
  6
Continuous
100
AcDbLine
 10
514.8641141161816
 20
-1695.470273695016
 30
0.0
 11
514.5713049495052
 21
-1695.178183962803
 31
0.0
  0
LINE
  5
573A
330
1F
100
AcDbEntity
  8
SPOJOVACÍ
  6
Continuous
100
AcDbLine
 10
514.8641141161816
 20
-1695.470273695016
 30
0.0
 11
515.0324614013034
 21
-1695.178183962803
 31
0.0
  0
LINE
  5
573B
330
1F
100
AcDbEntity
  8
SPOJOVACÍ
  6
Continuous
100
AcDbLine
 10
514.9353379675257
 20
-1694.096156966263
 30
0.0
 11
514.5713049495052
 21
-1695.178183962803
 31
0.0
  0
LINE
  5
573C
330
1F
100
AcDbEntity
  8
SPOJOVACÍ
  6
Continuous
100
AcDbLine
 10
515.3964944193167
 20
-1694.096156966263
 30
0.0
 11
515.0324614013034
 21
-1695.178183962803
 31
0.0
  0
LINE
  5
573D
330
1F
100
AcDbEntity
  8
SPOJOVACÍ
  6
Continuous
100
AcDbLine
 10
515.1044046854176
 20
-1693.804067234045
 30
0.0
 11
514.8641141161816
 21
-1695.470273695016
 31
0.0
  0
LINE
  5
573E
330
1F
100
AcDbEntity
  8
SPOJOVACÍ
  6
Continuous
100
AcDbLine
 10
522.2165379037278
 20
-1692.455850085998
 30
0.0
 11
521.149259282628
 21
-1696.724964570383
 31
0.0
  0
LINE
  5
573F
330
1F
100
AcDbEntity
  8
SPOJOVACÍ
  6
Continuous
100
AcDbLine
 10
522.2165379037278
 20
-1692.455850085998
 30
0.0
 11
522.0229385260709
 21
-1692.791753281928
 31
0.0
  0
LINE
  5
5740
330
1F
100
AcDbEntity
  8
SPOJOVACÍ
  6
Continuous
100
AcDbLine
 10
522.2165379037278
 20
-1692.455850085998
 30
0.0
 11
522.5532684456366
 21
-1692.791753281928
 31
0.0
  0
LINE
  5
5741
330
1F
100
AcDbEntity
  8
SPOJOVACÍ
  6
Continuous
100
AcDbLine
 10
521.149259282628
 20
-1696.724964570383
 30
0.0
 11
520.8133560886444
 21
-1696.389061378333
 31
0.0
  0
LINE
  5
5742
330
1F
100
AcDbEntity
  8
SPOJOVACÍ
  6
Continuous
100
AcDbLine
 10
521.149259282628
 20
-1696.724964570383
 30
0.0
 11
521.3436860082102
 21
-1696.389061378333
 31
0.0
  0
LINE
  5
5743
330
1F
100
AcDbEntity
  8
SPOJOVACÍ
  6
Continuous
100
AcDbLine
 10
522.0229385260709
 20
-1692.791753281928
 30
0.0
 11
520.8133560886444
 21
-1696.389061378333
 31
0.0
  0
LINE
  5
5744
330
1F
100
AcDbEntity
  8
SPOJOVACÍ
  6
Continuous
100
AcDbLine
 10
522.5532684456366
 20
-1692.791753281928
 30
0.0
 11
521.3436860082102
 21
-1696.389061378333
 31
0.0
  0
LINE
  5
5745
330
1F
100
AcDbEntity
  8
SPOJOVACÍ
  6
DASHED
100
AcDbLine
 10
513.7135718608869
 20
-1694.59040732819
 30
0.0
 11
523.2425169536536
 21
-1693.307204203191
 31
0.0
  0
LINE
  5
5746
330
1F
100
AcDbEntity
  8
SPOJOVACÍ
  6
DASHED
100
AcDbLine
 10
513.7135718608869
 20
-1694.59040732819
 30
0.0
 11
523.2425169536536
 21
-1695.87361045319
 31
0.0
  0
LINE
  5
5747
330
1F
100
AcDbEntity
  8
SPOJOVACÍ
  6
Continuous
100
AcDbLine
 10
525.1002608813242
 20
-1692.791753281928
 30
0.0
 11
523.8906784438977
 21
-1696.389061378333
 31
0.0
  0
LINE
  5
5748
330
1F
100
AcDbEntity
  8
SPOJOVACÍ
  6
Continuous
100
AcDbLine
 10
524.5699309617585
 20
-1692.791753281928
 30
0.0
 11
523.360348524332
 21
-1696.389061378333
 31
0.0
  0
LINE
  5
5749
330
1F
100
AcDbEntity
  8
SPOJOVACÍ
  6
Continuous
100
AcDbLine
 10
523.6962517183155
 20
-1696.724964570383
 30
0.0
 11
523.8906784438977
 21
-1696.389061378333
 31
0.0
  0
LINE
  5
574A
330
1F
100
AcDbEntity
  8
SPOJOVACÍ
  6
Continuous
100
AcDbLine
 10
523.6962517183155
 20
-1696.724964570383
 30
0.0
 11
523.360348524332
 21
-1696.389061378333
 31
0.0
  0
LINE
  5
574B
330
1F
100
AcDbEntity
  8
SPOJOVACÍ
  6
Continuous
100
AcDbLine
 10
524.7635303394154
 20
-1692.455850085998
 30
0.0
 11
525.1002608813242
 21
-1692.791753281928
 31
0.0
  0
LINE
  5
574C
330
1F
100
AcDbEntity
  8
SPOJOVACÍ
  6
Continuous
100
AcDbLine
 10
524.7635303394154
 20
-1692.455850085998
 30
0.0
 11
524.5699309617585
 21
-1692.791753281928
 31
0.0
  0
LINE
  5
574D
330
1F
100
AcDbEntity
  8
SPOJOVACÍ
  6
Continuous
100
AcDbLine
 10
524.7635303394154
 20
-1692.455850085998
 30
0.0
 11
523.6962517183155
 21
-1696.724964570383
 31
0.0
  0
LINE
  5
574E
330
1F
100
AcDbEntity
  8
SPOJOVACÍ
  6
Continuous
100
AcDbLine
 10
527.3105227751029
 20
-1692.455850085998
 30
0.0
 11
526.2432441540031
 21
-1696.724964570383
 31
0.0
  0
LINE
  5
574F
330
1F
100
AcDbEntity
  8
SPOJOVACÍ
  6
Continuous
100
AcDbLine
 10
527.3105227751029
 20
-1692.455850085998
 30
0.0
 11
527.116923397446
 21
-1692.791753281928
 31
0.0
  0
LINE
  5
5750
330
1F
100
AcDbEntity
  8
SPOJOVACÍ
  6
Continuous
100
AcDbLine
 10
527.3105227751029
 20
-1692.455850085998
 30
0.0
 11
527.6472533170117
 21
-1692.791753281928
 31
0.0
  0
LINE
  5
5751
330
1F
100
AcDbEntity
  8
SPOJOVACÍ
  6
Continuous
100
AcDbLine
 10
526.2432441540031
 20
-1696.724964570383
 30
0.0
 11
525.9073409600196
 21
-1696.389061378333
 31
0.0
  0
LINE
  5
5752
330
1F
100
AcDbEntity
  8
SPOJOVACÍ
  6
Continuous
100
AcDbLine
 10
526.2432441540031
 20
-1696.724964570383
 30
0.0
 11
526.4376708795853
 21
-1696.389061378333
 31
0.0
  0
LINE
  5
5753
330
1F
100
AcDbEntity
  8
SPOJOVACÍ
  6
Continuous
100
AcDbLine
 10
527.116923397446
 20
-1692.791753281928
 30
0.0
 11
525.9073409600196
 21
-1696.389061378333
 31
0.0
  0
LINE
  5
5754
330
1F
100
AcDbEntity
  8
SPOJOVACÍ
  6
Continuous
100
AcDbLine
 10
527.6472533170117
 20
-1692.791753281928
 30
0.0
 11
526.4376708795853
 21
-1696.389061378333
 31
0.0
  0
LINE
  5
5755
330
1F
100
AcDbEntity
  8
SPOJOVACÍ
  6
Continuous
100
AcDbLine
 10
529.8575152107905
 20
-1692.455850085998
 30
0.0
 11
528.7902365896907
 21
-1696.724964570383
 31
0.0
  0
LINE
  5
5756
330
1F
100
AcDbEntity
  8
SPOJOVACÍ
  6
Continuous
100
AcDbLine
 10
529.8575152107905
 20
-1692.455850085998
 30
0.0
 11
529.6639158331336
 21
-1692.791753281928
 31
0.0
  0
LINE
  5
5757
330
1F
100
AcDbEntity
  8
SPOJOVACÍ
  6
Continuous
100
AcDbLine
 10
529.8575152107905
 20
-1692.455850085998
 30
0.0
 11
530.1942457526993
 21
-1692.791753281928
 31
0.0
  0
LINE
  5
5758
330
1F
100
AcDbEntity
  8
SPOJOVACÍ
  6
Continuous
100
AcDbLine
 10
528.7902365896907
 20
-1696.724964570383
 30
0.0
 11
528.4543333957071
 21
-1696.389061378333
 31
0.0
  0
LINE
  5
5759
330
1F
100
AcDbEntity
  8
SPOJOVACÍ
  6
Continuous
100
AcDbLine
 10
528.7902365896907
 20
-1696.724964570383
 30
0.0
 11
528.9846633152729
 21
-1696.389061378333
 31
0.0
  0
LINE
  5
575A
330
1F
100
AcDbEntity
  8
SPOJOVACÍ
  6
Continuous
100
AcDbLine
 10
529.6639158331336
 20
-1692.791753281928
 30
0.0
 11
528.4543333957071
 21
-1696.389061378333
 31
0.0
  0
LINE
  5
575B
330
1F
100
AcDbEntity
  8
SPOJOVACÍ
  6
Continuous
100
AcDbLine
 10
530.1942457526993
 20
-1692.791753281928
 30
0.0
 11
528.9846633152729
 21
-1696.389061378333
 31
0.0
  0
LINE
  5
575C
330
1F
100
AcDbEntity
  8
SPOJOVACÍ
  6
Continuous
100
AcDbLine
 10
532.4045076464781
 20
-1692.455850085998
 30
0.0
 11
531.3372290253782
 21
-1696.724964570383
 31
0.0
  0
LINE
  5
575D
330
1F
100
AcDbEntity
  8
SPOJOVACÍ
  6
Continuous
100
AcDbLine
 10
532.4045076464781
 20
-1692.455850085998
 30
0.0
 11
532.2109082688212
 21
-1692.791753281928
 31
0.0
  0
LINE
  5
575E
330
1F
100
AcDbEntity
  8
SPOJOVACÍ
  6
Continuous
100
AcDbLine
 10
532.4045076464781
 20
-1692.455850085998
 30
0.0
 11
532.7412381883869
 21
-1692.791753281928
 31
0.0
  0
LINE
  5
575F
330
1F
100
AcDbEntity
  8
SPOJOVACÍ
  6
Continuous
100
AcDbLine
 10
531.3372290253782
 20
-1696.724964570383
 30
0.0
 11
531.0013258313947
 21
-1696.389061378333
 31
0.0
  0
LINE
  5
5760
330
1F
100
AcDbEntity
  8
SPOJOVACÍ
  6
Continuous
100
AcDbLine
 10
531.3372290253782
 20
-1696.724964570383
 30
0.0
 11
531.5316557509604
 21
-1696.389061378333
 31
0.0
  0
LINE
  5
5761
330
1F
100
AcDbEntity
  8
SPOJOVACÍ
  6
Continuous
100
AcDbLine
 10
532.2109082688212
 20
-1692.791753281928
 30
0.0
 11
531.0013258313947
 21
-1696.389061378333
 31
0.0
  0
LINE
  5
5762
330
1F
100
AcDbEntity
  8
SPOJOVACÍ
  6
Continuous
100
AcDbLine
 10
532.7412381883869
 20
-1692.791753281928
 30
0.0
 11
531.5316557509604
 21
-1696.389061378333
 31
0.0
  0
LINE
  5
5763
330
1F
100
AcDbEntity
  8
SPOJOVACÍ
  6
Continuous
100
AcDbLine
 10
534.9515000821656
 20
-1692.455850085998
 30
0.0
 11
533.8842214610658
 21
-1696.724964570383
 31
0.0
  0
LINE
  5
5764
330
1F
100
AcDbEntity
  8
SPOJOVACÍ
  6
Continuous
100
AcDbLine
 10
534.9515000821656
 20
-1692.455850085998
 30
0.0
 11
534.7579007045087
 21
-1692.791753281928
 31
0.0
  0
LINE
  5
5765
330
1F
100
AcDbEntity
  8
SPOJOVACÍ
  6
Continuous
100
AcDbLine
 10
534.9515000821656
 20
-1692.455850085998
 30
0.0
 11
535.2882306240744
 21
-1692.791753281928
 31
0.0
  0
LINE
  5
5766
330
1F
100
AcDbEntity
  8
SPOJOVACÍ
  6
Continuous
100
AcDbLine
 10
533.8842214610658
 20
-1696.724964570383
 30
0.0
 11
533.5483182670823
 21
-1696.389061378333
 31
0.0
  0
LINE
  5
5767
330
1F
100
AcDbEntity
  8
SPOJOVACÍ
  6
Continuous
100
AcDbLine
 10
533.8842214610658
 20
-1696.724964570383
 30
0.0
 11
534.078648186648
 21
-1696.389061378333
 31
0.0
  0
LINE
  5
5768
330
1F
100
AcDbEntity
  8
SPOJOVACÍ
  6
Continuous
100
AcDbLine
 10
534.7579007045087
 20
-1692.791753281928
 30
0.0
 11
533.5483182670823
 21
-1696.389061378333
 31
0.0
  0
LINE
  5
5769
330
1F
100
AcDbEntity
  8
SPOJOVACÍ
  6
Continuous
100
AcDbLine
 10
535.2882306240744
 20
-1692.791753281928
 30
0.0
 11
534.078648186648
 21
-1696.389061378333
 31
0.0
  0
LINE
  5
576A
330
1F
100
AcDbEntity
  8
SPOJOVACÍ
  6
Continuous
100
AcDbLine
 10
537.4984925178532
 20
-1692.455850085998
 30
0.0
 11
536.4312138967534
 21
-1696.724964570383
 31
0.0
  0
LINE
  5
576B
330
1F
100
AcDbEntity
  8
SPOJOVACÍ
  6
Continuous
100
AcDbLine
 10
537.4984925178532
 20
-1692.455850085998
 30
0.0
 11
537.3048931401963
 21
-1692.791753281928
 31
0.0
  0
LINE
  5
576C
330
1F
100
AcDbEntity
  8
SPOJOVACÍ
  6
Continuous
100
AcDbLine
 10
537.4984925178532
 20
-1692.455850085998
 30
0.0
 11
537.835223059762
 21
-1692.791753281928
 31
0.0
  0
LINE
  5
576D
330
1F
100
AcDbEntity
  8
SPOJOVACÍ
  6
Continuous
100
AcDbLine
 10
536.4312138967534
 20
-1696.724964570383
 30
0.0
 11
536.0953107027699
 21
-1696.389061378333
 31
0.0
  0
LINE
  5
576E
330
1F
100
AcDbEntity
  8
SPOJOVACÍ
  6
Continuous
100
AcDbLine
 10
536.4312138967534
 20
-1696.724964570383
 30
0.0
 11
536.6256406223356
 21
-1696.389061378333
 31
0.0
  0
LINE
  5
576F
330
1F
100
AcDbEntity
  8
SPOJOVACÍ
  6
Continuous
100
AcDbLine
 10
537.3048931401963
 20
-1692.791753281928
 30
0.0
 11
536.0953107027699
 21
-1696.389061378333
 31
0.0
  0
LINE
  5
5770
330
1F
100
AcDbEntity
  8
SPOJOVACÍ
  6
Continuous
100
AcDbLine
 10
537.835223059762
 20
-1692.791753281928
 30
0.0
 11
536.6256406223356
 21
-1696.389061378333
 31
0.0
  0
LINE
  5
5771
330
1F
100
AcDbEntity
  8
SPOJOVACÍ
 48
0.25
100
AcDbLine
 10
517.3444633900171
 20
-1691.946307510584
 30
0.0
 11
513.1073831344719
 21
-1694.59040732819
 31
0.0
  0
LINE
  5
5772
330
1F
100
AcDbEntity
  8
SPOJOVACÍ
 48
0.25
100
AcDbLine
 10
517.3444633900171
 20
-1697.234507145796
 30
0.0
 11
513.1073831344719
 21
-1694.59040732819
 31
0.0
  0
LINE
  5
5773
330
1F
100
AcDbEntity
  8
POPIS
100
AcDbLine
 10
589.1460073303906
 20
-1783.754467495705
 30
0.0
 11
589.1460073303906
 21
-1832.223864513445
 31
0.0
  0
LINE
  5
5774
330
1F
100
AcDbEntity
  8
POPIS
100
AcDbLine
 10
717.8839784572874
 20
-1675.130805564662
 30
0.0
 11
717.8839784572874
 21
-1832.228921283615
 31
0.0
  0
LINE
  5
5775
330
1F
100
AcDbEntity
  8
POPIS
100
AcDbLine
 10
767.5486294894171
 20
-1675.130805564662
 30
0.0
 11
767.5486294894171
 21
-1832.228921283615
 31
0.0
  0
LINE
  5
5776
330
1F
100
AcDbEntity
  8
POPIS
100
AcDbLine
 10
822.1142793705611
 20
-1686.763372416866
 30
0.0
 11
822.1142793705611
 21
-1832.228921283615
 31
0.0
  0
LINE
  5
5777
330
1F
100
AcDbEntity
  8
POPIS
100
AcDbLine
 10
876.0875689249759
 20
-1665.994617959801
 30
0.0
 11
876.0875689249759
 21
-1832.205535997924
 31
0.0
  0
TEXT
  5
5779
330
1F
100
AcDbEntity
  8
POPIS
100
AcDbText
 10
702.1529000758992
 20
-1863.835798500486
 30
0.0
 40
25.0
  1
06
 41
0.85
  7
SIMPLEX7
100
AcDbText
  0
TEXT
  5
577A
330
1F
100
AcDbEntity
  8
POPIS
100
AcDbText
 10
572.7786257790585
 20
-1863.835798500486
 30
0.0
 40
25.0
  1
03
 41
0.85
  7
SIMPLEX7
100
AcDbText
  0
TEXT
  5
577B
330
1F
100
AcDbEntity
  8
POPIS
100
AcDbText
 10
751.8175511080289
 20
-1863.835798500486
 30
0.0
 40
25.0
  1
05
 41
0.85
  7
SIMPLEX7
100
AcDbText
  0
TEXT
  5
577C
330
1F
100
AcDbEntity
  8
POPIS
100
AcDbText
 10
806.3832009891729
 20
-1863.835798500486
 30
0.0
 40
25.0
  1
04
 41
0.85
  7
SIMPLEX7
100
AcDbText
  0
TEXT
  5
577D
330
1F
100
AcDbEntity
  8
POPIS
100
AcDbText
 10
861.8034676413618
 20
-1863.835798500486
 30
0.0
 40
25.0
  1
07
 41
0.85
  7
SIMPLEX7
100
AcDbText
  0
LINE
  5
577E
330
1F
100
AcDbEntity
  8
izolace
  6
IZOLACE
 48
1.3
100
AcDbLine
 10
780.3667384479513
 20
-1665.431651763365
 30
0.0
 11
723.2509401034795
 21
-1665.431651763365
 31
0.0
  0
HATCH
  5
577F
330
1F
100
AcDbEntity
  8
NOSNÉ KONSTRUKCE
100
AcDbHatch
 10
0.0
 20
0.0
 30
0.0
210
0.0
220
0.0
230
1.0
  2
SOLID
 70
     1
 71
     0
 91
        1
 92
        7
 72
     0
 73
     1
 93
       68
 10
782.8532861634767
 20
-1659.315174885578
 10
781.2675138956647
 20
-1657.729425857304
 10
782.8533013361766
 20
-1656.1436920021
 10
782.8533272384183
 20
-1650.72945025418
 10
778.8533356435973
 20
-1650.729431117833
 10
778.8533308595097
 20
-1651.729431117822
 10
781.853322454338
 20
-1651.729445470072
 10
781.8533033178564
 20
-1655.72946656075
 10
779.8532832044975
 20
-1657.729419091491
 10
781.8532841818259
 20
-1659.729390758724
 10
781.8532650453371
 20
-1663.729411849396
 10
779.8532473238838
 20
-1665.229398078577
 10
781.8532506930887
 20
-1666.729403444239
 10
781.8532315565999
 20
-1670.729424534908
 10
779.8532114432482
 20
-1672.729377065647
 10
781.8532124205767
 20
-1674.729348732885
 10
781.8531932840878
 20
-1678.729369823558
 10
770.8532564006045
 20
-1678.729317198794
 10
768.8532554232688
 20
-1676.729345531562
 10
764.853282778934
 20
-1676.729326395304
 10
762.8532626655896
 20
-1678.729278926048
 10
751.853325782099
 20
-1678.729226301288
 10
740.8533888986012
 20
-1678.729173676523
 10
738.8533879212801
 20
-1676.729202009292
 10
734.8534152769525
 20
-1676.729182873032
 10
732.8533951636009
 20
-1678.729135403779
 10
721.853458280103
 20
-1678.729082779016
 10
721.8534774165991
 20
-1674.729061688344
 10
723.8534975299362
 20
-1672.729109157596
 10
721.853496552615
 20
-1670.729137490362
 10
721.8535156890966
 20
-1666.729116399689
 10
723.8535334105717
 20
-1665.22913017052
 10
721.8535300413523
 20
-1663.72912480485
 10
721.8535491778411
 20
-1659.72910371418
 10
723.8535692911928
 20
-1657.729151183444
 10
721.8535683138716
 20
-1655.729179516195
 10
721.8535874503459
 20
-1651.729158425532
 10
724.8533207034588
 20
-1651.729172776545
 10
724.8533159206008
 20
-1650.729431117833
 10
720.8533243257725
 20
-1650.72945025418
 10
720.8533502280142
 20
-1656.143692002089
 10
722.4391376685335
 20
-1657.729425857311
 10
720.8533654007141
 20
-1659.315174885579
 10
720.8533889109412
 20
-1664.22941905581
 10
722.1867289609608
 20
-1665.229406052109
 10
720.853398479051
 20
-1666.229405806026
 10
720.8534219892781
 20
-1671.143649976245
 10
722.43920942979
 20
-1672.729383831463
 10
720.8534371619634
 20
-1674.315132859742
 10
720.8534391422172
 20
-1674.729056904428
 10
720.8534774166137
 20
-1674.729056904246
 10
720.8534582801176
 20
-1678.729077994917
 10
720.8534630642271
 20
-1679.729374607642
 10
733.267606415221
 20
-1679.729315217178
 10
735.2676073925567
 20
-1677.729343549946
 10
738.4391671018265
 20
-1677.729328376897
 10
740.4390779982668
 20
-1679.729171694433
 10
763.2674643490272
 20
-1679.729280907642
 10
765.2674844623934
 20
-1677.729328376897
 10
768.4390441716486
 20
-1677.729343549946
 10
770.4390451489699
 20
-1679.729315217179
 10
782.8531884999711
 20
-1679.729374607643
 10
782.8532144022346
 20
-1674.315132859749
 10
781.2674421344081
 20
-1672.729383831461
 10
782.8532295749274
 20
-1671.143649976237
 10
782.8532530851471
 20
-1666.229405806025
 10
781.5199226032373
 20
-1665.229406052113
 10
782.8532626532569
 20
-1664.229419055813
 97
        0
 75
     0
 76
     1
 47
0.131671459398827
 98
        1
 10
782.1729104811993
 20
-1661.446256638176
  0
LINE
  5
5780
330
1F
100
AcDbEntity
  8
SPOJOVACÍ
100
AcDbLine
 10
720.4726191805484
 20
-1650.47344097256
 30
0.0
 11
783.1450593708823
 21
-1650.47344097256
 31
0.0
  0
LINE
  5
5781
330
1F
100
AcDbEntity
  8
SPOJOVACÍ
100
AcDbLine
 10
718.9726191805484
 20
-1648.97344097256
 30
0.0
 11
784.6450593708823
 21
-1648.97344097256
 31
0.0
  0
LINE
  5
5782
330
1F
100
AcDbEntity
  8
NOSNÉ KONSTRUKCE
100
AcDbLine
 10
735.3798104217666
 20
-1648.533470246791
 30
0.0
 11
765.9323599854642
 21
-1648.533470246791
 31
0.0
  0
LINE
  5
5783
330
1F
100
AcDbEntity
  8
NOSNÉ KONSTRUKCE
100
AcDbLine
 10
737.3798104217667
 20
-1646.533470246792
 30
0.0
 11
765.9323599854642
 21
-1646.533470246791
 31
0.0
  0
LINE
  5
5784
330
1F
100
AcDbEntity
  8
POPIS
100
AcDbLine
 10
558.1433252189031
 20
-1720.811671831497
 30
0.0
 11
589.1460073303906
 21
-1783.754467495705
 31
0.0
  0
HATCH
  5
5785
330
1F
100
AcDbEntity
  8
izolace
100
AcDbHatch
 10
0.0
 20
0.0
 30
0.0
210
0.0
220
0.0
230
1.0
  2
AR-SAND
 70
     0
 71
     0
 91
        1
 92
        7
 72
     1
 73
     1
 93
        6
 10
560.3790966134793
 20
-1710.223863038853
 42
0.0
 10
553.3790966134793
 20
-1710.223863038853
 42
0.0
 10
553.3790966134793
 20
-1722.223863038852
 42
0.0
 10
554.8359795144888
 20
-1722.223863038852
 42
-1.0
 10
557.3359795144888
 20
-1722.223863038852
 42
0.0
 10
560.379096613472
 20
-1722.223863038852
 42
0.0
 97
        0
 75
     0
 76
     1
 52
90.0
 41
0.05
 77
     0
 78
     4
 53
127.5
 43
-31968.47045679263
 44
-6064.048888325915
 45
-2.447066186646711
 46
-0.0800015647992021
 79
     6
 49
0.0
 49
-1.9304
 49
0.0
 49
-2.159
 49
0.0
 49
-2.06375
 53
97.49999999999987
 43
-31968.47045679263
 44
-6064.048888325915
 45
-3.584125502841771
 46
2.247616415690013
 79
     6
 49
0.0
 49
-1.041399999999999
 49
0.0
 49
-1.7399
 49
0.0
 49
-0.66675
 53
57.5
 43
-31968.47045679263
 44
-6065.610988325914
 45
-0.0071859233927282
 46
3.95496185120729
 79
     6
 49
0.0
 49
-0.635
 49
0.0
 49
-2.286
 49
0.0
 49
-2.9845
 53
47.5
 43
-31968.47045679263
 44
-6065.610988325914
 45
-1.11464661628608
 46
3.817782262361486
 79
     6
 49
0.0
 49
-0.3175
 49
0.0
 49
-1.498599999999999
 49
0.0
 49
-1.7145
 47
0.2169446325764043
 98
        1
 10
558.6703999249539
 20
-1716.341832931253
  0
LWPOLYLINE
  5
5786
330
1F
100
AcDbEntity
  8
izolace
100
AcDbPolyline
 90
        4
 70
     1
 43
0.0
 10
560.4051268972498
 20
-1710.223863038851
 10
553.4051268972498
 20
-1710.223863038851
 10
553.4051268972498
 20
-1722.223863038851
 10
560.4051268972498
 20
-1722.223863038851
  0
LINE
  5
5787
330
1F
100
AcDbEntity
  8
CETRIS
100
AcDbLine
 10
560.4051268972498
 20
-1722.223863038851
 30
0.0
 11
560.4051268972498
 21
-1710.223863038853
 31
0.0
  0
LINE
  5
5788
330
1F
100
AcDbEntity
  8
SPOJOVACÍ
  6
Continuous
100
AcDbLine
 10
591.3281345239183
 20
-1717.147893721194
 30
0.0
 11
591.941120373066
 21
-1718.561760930897
 31
0.0
  0
LINE
  5
5789
330
1F
100
AcDbEntity
  8
SPOJOVACÍ
  6
Continuous
100
AcDbLine
 10
587.9078781240777
 20
-1717.892034357937
 30
0.0
 11
588.3357589883771
 21
-1716.411194490887
 31
0.0
  0
LINE
  5
578A
330
1F
100
AcDbEntity
  8
SPOJOVACÍ
  6
Continuous
100
AcDbLine
 10
591.941120373066
 20
-1718.561760930897
 30
0.0
 11
592.8992014430504
 21
-1719.769129113796
 31
0.0
  0
LINE
  5
578B
330
1F
100
AcDbEntity
  8
SPOJOVACÍ
  6
Continuous
100
AcDbLine
 10
594.8516404381179
 20
-1722.223863038852
 30
0.0
 11
594.8516404381179
 21
-1721.023936262121
 31
0.0
  0
LINE
  5
578C
330
1F
100
AcDbEntity
  8
SPOJOVACÍ
  6
Continuous
100
AcDbLine
 10
584.65133266085
 20
-1722.223863038852
 30
0.0
 11
594.8516404381179
 21
-1722.223863038852
 31
0.0
  0
LINE
  5
578D
330
1F
100
AcDbEntity
  8
SPOJOVACÍ
  6
Continuous
100
AcDbLine
 10
584.65133266085
 20
-1722.223863038852
 30
0.0
 11
584.65133266085
 21
-1721.023936262121
 31
0.0
  0
LINE
  5
578E
330
1F
100
AcDbEntity
  8
SPOJOVACÍ
  6
Continuous
100
AcDbLine
 10
584.65133266085
 20
-1721.023936262121
 30
0.0
 11
594.8516404381179
 21
-1721.023936262121
 31
0.0
  0
LINE
  5
578F
330
1F
100
AcDbEntity
  8
SPOJOVACÍ
  6
Continuous
100
AcDbLine
 10
594.1363352519501
 20
-1720.687212624238
 30
0.0
 11
594.8516404381179
 21
-1721.023936262121
 31
0.0
  0
LINE
  5
5790
330
1F
100
AcDbEntity
  8
SPOJOVACÍ
  6
Continuous
100
AcDbLine
 10
592.8992014430504
 20
-1719.769129113796
 30
0.0
 11
594.1363352519501
 21
-1720.687212624238
 31
0.0
  0
LINE
  5
5791
330
1F
100
AcDbEntity
  8
SPOJOVACÍ
  6
Continuous
100
AcDbLine
 10
587.1116476447595
 20
-1719.211023636234
 30
0.0
 11
587.9078781240777
 21
-1717.892034357937
 31
0.0
  0
LINE
  5
5792
330
1F
100
AcDbEntity
  8
SPOJOVACÍ
  6
Continuous
100
AcDbLine
 10
586.0010177444009
 20
-1720.279795625647
 30
0.0
 11
587.1116476447595
 21
-1719.211023636234
 31
0.0
  0
LINE
  5
5793
330
1F
100
AcDbEntity
  8
SPOJOVACÍ
  6
Continuous
100
AcDbLine
 10
584.65133266085
 20
-1721.023936262121
 30
0.0
 11
586.0010177444009
 21
-1720.279795625647
 31
0.0
  0
LINE
  5
5794
330
1F
100
AcDbEntity
  8
izolace
  6
IZOLACE
 48
1.45
100
AcDbLine
 10
553.4051268972498
 20
-1662.883115249086
 30
0.0
 11
718.9726191805485
 21
-1662.883115249086
 31
0.0
  0
LINE
  5
5795
330
1F
100
AcDbEntity
  8
izolace
100
AcDbLine
 10
553.4051268972498
 20
-1677.883115249086
 30
0.0
 11
718.9726191805485
 21
-1677.883115249086
 31
0.0
  0
LINE
  5
5796
330
1F
100
AcDbEntity
  8
NOSNÉ KONSTRUKCE
100
AcDbLine
 10
555.9953840406842
 20
-1681.639941861603
 30
0.0
 11
555.9953840406842
 21
-1707.639885351412
 31
0.0
  0
LINE
  5
5797
330
1F
100
AcDbEntity
  8
NOSNÉ KONSTRUKCE
100
AcDbLine
 10
554.4953840406769
 20
-1680.139941861602
 30
0.0
 11
554.4953840406915
 21
-1709.13988535141
 31
0.0
  0
HATCH
  5
5798
330
1F
100
AcDbEntity
  8
NOSNÉ KONSTRUKCE
100
AcDbHatch
 10
0.0
 20
0.0
 30
0.0
210
0.0
220
0.0
230
1.0
  2
SOLID
 70
     1
 71
     0
 91
        6
 92
        7
 72
     0
 73
     1
 93
        7
 10
599.8578637418058
 20
-1680.139941861604
 10
554.4953840406842
 20
-1680.139941861602
 10
554.4953840406842
 20
-1691.946307510579
 10
555.1671192206586
 20
-1691.946307510579
 10
555.995384040677
 20
-1690.634916443366
 10
555.995384040677
 20
-1681.639941861603
 10
599.8578637418058
 20
-1681.639941861603
 97
        0
 92
        7
 72
     1
 73
     1
 93
        8
 10
555.995384040677
 20
-1698.545898213002
 42
0.0
 10
555.1671192206659
 20
-1697.234507145796
 42
0.0
 10
554.4953840406842
 20
-1697.234507145796
 42
0.0
 10
554.4953840406915
 20
-1709.139885351411
 42
0.0
 10
559.8375125669726
 20
-1709.139885351411
 42
-0.2091677883832402
 10
559.4359107550872
 20
-1708.221887249887
 42
-0.1216737053844258
 10
559.5796676578565
 20
-1707.639885351409
 42
0.0
 10
555.995384040677
 20
-1707.639885351409
 42
0.0
 97
        0
 92
        7
 72
     0
 73
     1
 93
        4
 10
599.8578637418058
 20
-1707.63988535141
 10
591.1011716330349
 20
-1707.63988535141
 10
591.1011716330349
 20
-1709.139885351411
 10
599.8578637418058
 20
-1709.139885351411
 97
        0
 92
        7
 72
     1
 73
     1
 93
       11
 10
587.3516329965668
 20
-1708.303782254938
 42
0.0
 10
587.7292843718633
 20
-1708.085190942912
 42
0.0
 10
588.4018014702987
 20
-1707.859214061387
 42
0.0
 10
588.4018014702915
 20
-1707.639885351409
 42
0.0
 10
561.7921538523177
 20
-1707.639885351409
 42
-0.1216737053844258
 10
561.9359107550872
 20
-1708.221887249887
 42
-0.0726061394579674
 10
561.8837456820719
 20
-1708.579226707125
 42
0.0
 10
562.1598999510052
 20
-1709.139885351411
 42
0.0
 10
588.401801470306
 20
-1709.139885351411
 42
0.0
 10
588.4018014702987
 20
-1708.455456746496
 42
0.0
 10
587.7292843718633
 20
-1708.681433628065
 42
0.0
 97
        0
 92
        7
 72
     1
 73
     1
 93
        6
 10
561.9359107550872
 20
-1708.221887249887
 42
0.1216737053844258
 10
561.7921538523177
 20
-1707.639885351409
 42
0.0
 10
559.5796676578565
 20
-1707.639885351409
 42
0.1216737053844258
 10
559.4359107550872
 20
-1708.221887249887
 42
0.2091677883830504
 10
559.8375125669726
 20
-1709.13988535141
 42
0.0
 10
561.5343089432017
 20
-1709.13988535141
 42
0.2091677883830504
 97
        0
 92
        7
 72
     1
 73
     1
 93
        3
 10
561.8837456820719
 20
-1708.57922670713
 42
-0.1345187310313164
 10
561.5343089432236
 20
-1709.13988535141
 42
0.0
 10
562.1598999510052
 20
-1709.139885351411
 42
0.0
 97
        0
 75
     0
 76
     1
 47
0.2774828087621183
 98
        6
 10
572.3585182163397
 20
-1680.864389248683
 10
555.6975298897041
 20
-1704.822701260182
 10
594.5926705801566
 20
-1708.888743908977
 10
575.9764043386121
 20
-1708.450939811893
 10
560.5681207674815
 20
-1708.366183995309
 10
561.872016334807
 20
-1709.054900721475
  0
LINE
  5
5799
330
1F
100
AcDbEntity
  8
NOSNÉ KONSTRUKCE
100
AcDbLine
 10
599.8578637418058
 20
-1707.63988535141
 30
0.0
 11
555.9953840406842
 21
-1707.639885351409
 31
0.0
  0
LINE
  5
579A
330
1F
100
AcDbEntity
  8
SPOJOVACÍ
  6
Continuous
100
AcDbLine
 10
591.1011716330349
 20
-1715.624265767764
 30
0.0
 11
591.3281345239183
 21
-1717.147893721194
 31
0.0
  0
LINE
  5
579B
330
1F
100
AcDbEntity
  8
SPOJOVACÍ
  6
Continuous
100
AcDbLine
 10
588.3357589883771
 20
-1716.411194490887
 30
0.0
 11
588.4018014702987
 21
-1715.624265767764
 31
0.0
  0
LINE
  5
579C
330
1F
100
AcDbEntity
  8
SPOJOVACÍ
  6
Continuous
100
AcDbLine
 10
591.1011716330349
 20
-1715.624265767764
 30
0.0
 11
591.1011716330349
 21
-1710.681311588836
 31
0.0
  0
LINE
  5
579D
330
1F
100
AcDbEntity
  8
SPOJOVACÍ
  6
Continuous
100
AcDbLine
 10
588.4018014702987
 20
-1715.624265767764
 30
0.0
 11
588.4018014702987
 21
-1711.586372638084
 31
0.0
  0
LINE
  5
579E
330
1F
100
AcDbEntity
  8
SPOJOVACÍ
  6
Continuous
100
AcDbLine
 10
588.4018014702987
 20
-1710.991060128908
 30
0.0
 11
588.4018014702987
 21
-1708.472144073879
 31
0.0
  0
LINE
  5
579F
330
1F
100
AcDbEntity
  8
SPOJOVACÍ
  6
Continuous
100
AcDbLine
 10
588.4018014702987
 20
-1707.868459982564
 30
0.0
 11
588.4018014702987
 21
-1705.347683575855
 31
0.0
  0
LINE
  5
57A0
330
1F
100
AcDbEntity
  8
SPOJOVACÍ
  6
Continuous
100
AcDbLine
 10
588.4018014702987
 20
-1704.753301242381
 30
0.0
 11
588.4018014702987
 21
-1702.225083429511
 31
0.0
  0
LINE
  5
57A1
330
1F
100
AcDbEntity
  8
SPOJOVACÍ
  6
Continuous
100
AcDbLine
 10
591.1011716330349
 20
-1710.077627497521
 30
0.0
 11
591.1011716330349
 21
-1707.558711442492
 31
0.0
  0
LINE
  5
57A2
330
1F
100
AcDbEntity
  8
SPOJOVACÍ
  6
Continuous
100
AcDbLine
 10
591.1011716330349
 20
-1706.962468757337
 30
0.0
 11
591.1011716330349
 21
-1704.434250944468
 31
0.0
  0
LINE
  5
57A3
330
1F
100
AcDbEntity
  8
SPOJOVACÍ
  6
Continuous
100
AcDbLine
 10
591.1011716330349
 20
-1703.839868610994
 30
0.0
 11
591.1011716330349
 21
-1701.319092204284
 31
0.0
  0
LINE
  5
57A4
330
1F
100
AcDbEntity
  8
SPOJOVACÍ
  6
Continuous
100
AcDbLine
 10
588.4018014702987
 20
-1701.620469162226
 30
0.0
 11
588.4018014702987
 21
-1699.102483282899
 31
0.0
  0
LINE
  5
57A5
330
1F
100
AcDbEntity
  8
SPOJOVACÍ
  6
Continuous
100
AcDbLine
 10
588.4018014702987
 20
-1698.506240597744
 30
0.0
 11
588.4018014702987
 21
-1697.258874855855
 31
0.0
  0
LINE
  5
57A6
330
1F
100
AcDbEntity
  8
SPOJOVACÍ
  6
Continuous
100
AcDbLine
 10
591.1011716330349
 20
-1700.718198640352
 30
0.0
 11
591.1011716330349
 21
-1698.199282585323
 31
0.0
  0
LINE
  5
57A7
330
1F
100
AcDbEntity
  8
SPOJOVACÍ
  6
Continuous
100
AcDbLine
 10
591.1011716330349
 20
-1697.595598493739
 30
0.0
 11
591.1011716330349
 21
-1697.258874855855
 31
0.0
  0
LINE
  5
57A8
330
1F
100
AcDbEntity
  8
SPOJOVACÍ
  6
Continuous
100
AcDbLine
 10
588.4018014702987
 20
-1697.258874855855
 30
0.0
 11
588.5515597730218
 21
-1696.061738606498
 31
0.0
  0
LINE
  5
57A9
330
1F
100
AcDbEntity
  8
SPOJOVACÍ
  6
Continuous
100
AcDbLine
 10
589.751486549484
 20
-1686.458603690902
 30
0.0
 11
590.1058835306129
 21
-1689.294709692171
 31
0.0
  0
LINE
  5
57AA
330
1F
100
AcDbEntity
  8
SPOJOVACÍ
  6
Continuous
100
AcDbLine
 10
588.6287643655477
 20
-1695.441311350645
 30
0.0
 11
588.9189792150673
 21
-1693.11959256458
 31
0.0
  0
LINE
  5
57AB
330
1F
100
AcDbEntity
  8
SPOJOVACÍ
  6
Continuous
100
AcDbLine
 10
588.9980441579054
 20
-1692.488933374916
 30
0.0
 11
589.2882590030594
 21
-1690.16814476456
 31
0.0
  0
LINE
  5
57AC
330
1F
100
AcDbEntity
  8
SPOJOVACÍ
  6
Continuous
100
AcDbLine
 10
589.3654635955853
 20
-1689.547717508707
 30
0.0
 11
589.751486549484
 21
-1686.458603690902
 31
0.0
  0
LINE
  5
57AD
330
1F
100
AcDbEntity
  8
SPOJOVACÍ
  6
Continuous
100
AcDbLine
 10
590.1775070678367
 20
-1689.863977279237
 30
0.0
 11
590.4453976961476
 21
-1692.008962664222
 31
0.0
  0
LINE
  5
57AE
330
1F
100
AcDbEntity
  8
SPOJOVACÍ
  6
Continuous
100
AcDbLine
 10
590.5170212290058
 20
-1692.58102077867
 30
0.0
 11
590.7839816843433
 21
-1694.717634581524
 31
0.0
  0
LINE
  5
57AF
330
1F
100
AcDbEntity
  8
SPOJOVACÍ
  6
Continuous
100
AcDbLine
 10
590.8556052215671
 20
-1695.287832344569
 30
0.0
 11
591.1011716330349
 21
-1697.258874855855
 31
0.0
  0
LINE
  5
57B0
330
1F
100
AcDbEntity
  8
SPOJOVACÍ
  6
Continuous
100
AcDbLine
 10
587.3516329965595
 20
-1711.423591873899
 30
0.0
 11
592.1513401024085
 21
-1710.223665097437
 31
0.0
  0
LINE
  5
57B1
330
1F
100
AcDbEntity
  8
SPOJOVACÍ
  6
Continuous
100
AcDbLine
 10
587.3516329965595
 20
-1711.423591873899
 30
0.0
 11
587.7292843718705
 21
-1711.205930737851
 31
0.0
  0
LINE
  5
57B2
330
1F
100
AcDbEntity
  8
SPOJOVACÍ
  6
Continuous
100
AcDbLine
 10
587.3516329965595
 20
-1711.423591873899
 30
0.0
 11
587.7292843718705
 21
-1711.802173422729
 31
0.0
  0
LINE
  5
57B3
330
1F
100
AcDbEntity
  8
SPOJOVACÍ
  6
Continuous
100
AcDbLine
 10
592.1513401024085
 20
-1710.223665097437
 30
0.0
 11
591.7736887314631
 21
-1709.846013724309
 31
0.0
  0
LINE
  5
57B4
330
1F
100
AcDbEntity
  8
SPOJOVACÍ
  6
Continuous
100
AcDbLine
 10
592.1513401024085
 20
-1710.223665097437
 30
0.0
 11
591.7736887314631
 21
-1710.442256409464
 31
0.0
  0
LINE
  5
57B5
330
1F
100
AcDbEntity
  8
SPOJOVACÍ
  6
Continuous
100
AcDbLine
 10
587.7292843718705
 20
-1711.205930737851
 30
0.0
 11
591.7736887314631
 21
-1709.846013724309
 31
0.0
  0
LINE
  5
57B6
330
1F
100
AcDbEntity
  8
SPOJOVACÍ
  6
Continuous
100
AcDbLine
 10
587.7292843718705
 20
-1711.802173422729
 30
0.0
 11
591.7736887314631
 21
-1710.442256409464
 31
0.0
  0
LINE
  5
57B7
330
1F
100
AcDbEntity
  8
SPOJOVACÍ
  6
Continuous
100
AcDbLine
 10
587.3516329965595
 20
-1708.303782254938
 30
0.0
 11
592.1513401024085
 21
-1707.103855478198
 31
0.0
  0
LINE
  5
57B8
330
1F
100
AcDbEntity
  8
SPOJOVACÍ
  6
Continuous
100
AcDbLine
 10
587.3516329965595
 20
-1708.303782254938
 30
0.0
 11
587.7292843718705
 21
-1708.085190942911
 31
0.0
  0
LINE
  5
57B9
330
1F
100
AcDbEntity
  8
SPOJOVACÍ
  6
Continuous
100
AcDbLine
 10
587.3516329965595
 20
-1708.303782254938
 30
0.0
 11
587.7292843718705
 21
-1708.681433628066
 31
0.0
  0
LINE
  5
57BA
330
1F
100
AcDbEntity
  8
SPOJOVACÍ
  6
Continuous
100
AcDbLine
 10
592.1513401024085
 20
-1707.103855478198
 30
0.0
 11
591.7736887314631
 21
-1706.726204105347
 31
0.0
  0
LINE
  5
57BB
330
1F
100
AcDbEntity
  8
SPOJOVACÍ
  6
Continuous
100
AcDbLine
 10
592.1513401024085
 20
-1707.103855478198
 30
0.0
 11
591.7736887314631
 21
-1707.322446790225
 31
0.0
  0
LINE
  5
57BC
330
1F
100
AcDbEntity
  8
SPOJOVACÍ
  6
Continuous
100
AcDbLine
 10
587.7292843718705
 20
-1708.085190942911
 30
0.0
 11
591.7736887314631
 21
-1706.726204105347
 31
0.0
  0
LINE
  5
57BD
330
1F
100
AcDbEntity
  8
SPOJOVACÍ
  6
Continuous
100
AcDbLine
 10
587.7292843718705
 20
-1708.681433628066
 30
0.0
 11
591.7736887314631
 21
-1707.322446790225
 31
0.0
  0
LINE
  5
57BE
330
1F
100
AcDbEntity
  8
SPOJOVACÍ
  6
Continuous
100
AcDbLine
 10
587.6055709909805
 20
-1695.866401689476
 30
0.0
 11
587.9841525392648
 21
-1695.647810377449
 31
0.0
  0
LINE
  5
57BF
330
1F
100
AcDbEntity
  8
SPOJOVACÍ
  6
Continuous
100
AcDbLine
 10
587.6055709909805
 20
-1695.866401689476
 30
0.0
 11
587.9841525392648
 21
-1696.244053062604
 31
0.0
  0
LINE
  5
57C0
330
1F
100
AcDbEntity
  8
SPOJOVACÍ
  6
Continuous
100
AcDbLine
 10
591.7309006437235
 20
-1694.893437807172
 30
0.0
 11
591.3532492727781
 21
-1694.514856258065
 31
0.0
  0
LINE
  5
57C1
330
1F
100
AcDbEntity
  8
SPOJOVACÍ
  6
Continuous
100
AcDbLine
 10
591.7309006437235
 20
-1694.893437807172
 30
0.0
 11
591.3532492727781
 21
-1695.11109894322
 31
0.0
  0
LINE
  5
57C2
330
1F
100
AcDbEntity
  8
SPOJOVACÍ
  6
Continuous
100
AcDbLine
 10
587.9841525392648
 20
-1695.647810377449
 30
0.0
 11
591.3532492727781
 21
-1694.514856258065
 31
0.0
  0
LINE
  5
57C3
330
1F
100
AcDbEntity
  8
SPOJOVACÍ
  6
Continuous
100
AcDbLine
 10
587.9841525392648
 20
-1696.244053062604
 30
0.0
 11
591.3532492727781
 21
-1695.11109894322
 31
0.0
  0
LINE
  5
57C4
330
1F
100
AcDbEntity
  8
SPOJOVACÍ
  6
Continuous
100
AcDbLine
 10
587.6055709909805
 20
-1695.866401689476
 30
0.0
 11
591.7309006437235
 21
-1694.893437807172
 31
0.0
  0
LINE
  5
57C5
330
1F
100
AcDbEntity
  8
SPOJOVACÍ
  6
Continuous
100
AcDbLine
 10
588.1701876970864
 20
-1692.851701935178
 30
0.0
 11
588.5478390723974
 21
-1692.63404079913
 31
0.0
  0
LINE
  5
57C6
330
1F
100
AcDbEntity
  8
SPOJOVACÍ
  6
Continuous
100
AcDbLine
 10
588.1701876970864
 20
-1692.851701935178
 30
0.0
 11
588.5478390723974
 21
-1693.230283484285
 31
0.0
  0
LINE
  5
57C7
330
1F
100
AcDbEntity
  8
SPOJOVACÍ
  6
Continuous
100
AcDbLine
 10
591.2862766135176
 20
-1692.218252218408
 30
0.0
 11
590.9086252425722
 21
-1691.839670669578
 31
0.0
  0
LINE
  5
57C8
330
1F
100
AcDbEntity
  8
SPOJOVACÍ
  6
Continuous
100
AcDbLine
 10
591.2862766135176
 20
-1692.218252218408
 30
0.0
 11
590.9086252425722
 21
-1692.435913354456
 31
0.0
  0
LINE
  5
57C9
330
1F
100
AcDbEntity
  8
SPOJOVACÍ
  6
Continuous
100
AcDbLine
 10
588.5478390723974
 20
-1692.63404079913
 30
0.0
 11
590.9086252425722
 21
-1691.839670669578
 31
0.0
  0
LINE
  5
57CA
330
1F
100
AcDbEntity
  8
SPOJOVACÍ
  6
Continuous
100
AcDbLine
 10
588.5478390723974
 20
-1693.230283484285
 30
0.0
 11
590.9086252425722
 21
-1692.435913354456
 31
0.0
  0
LINE
  5
57CB
330
1F
100
AcDbEntity
  8
SPOJOVACÍ
  6
Continuous
100
AcDbLine
 10
588.1701876970864
 20
-1692.851701935178
 30
0.0
 11
591.2862766135176
 21
-1692.218252218408
 31
0.0
  0
LINE
  5
57CC
330
1F
100
AcDbEntity
  8
SPOJOVACÍ
  6
Continuous
100
AcDbLine
 10
588.7348044075578
 20
-1689.837932356858
 30
0.0
 11
589.1124557785032
 21
-1689.619341044839
 31
0.0
  0
LINE
  5
57CD
330
1F
100
AcDbEntity
  8
SPOJOVACÍ
  6
Continuous
100
AcDbLine
 10
588.7348044075578
 20
-1689.837932356858
 30
0.0
 11
589.1124557785032
 21
-1690.215583729987
 31
0.0
  0
LINE
  5
57CE
330
1F
100
AcDbEntity
  8
SPOJOVACÍ
  6
Continuous
100
AcDbLine
 10
590.8890915490146
 20
-1689.527253641085
 30
0.0
 11
590.5114401780692
 21
-1689.148672092255
 31
0.0
  0
LINE
  5
57CF
330
1F
100
AcDbEntity
  8
SPOJOVACÍ
  6
Continuous
100
AcDbLine
 10
590.8890915490146
 20
-1689.527253641085
 30
0.0
 11
590.5114401780692
 21
-1689.744914777402
 31
0.0
  0
LINE
  5
57D0
330
1F
100
AcDbEntity
  8
SPOJOVACÍ
  6
Continuous
100
AcDbLine
 10
589.1124557785032
 20
-1689.619341044839
 30
0.0
 11
590.5114401780692
 21
-1689.148672092255
 31
0.0
  0
LINE
  5
57D1
330
1F
100
AcDbEntity
  8
SPOJOVACÍ
  6
Continuous
100
AcDbLine
 10
589.1124557785032
 20
-1690.215583729987
 30
0.0
 11
590.5114401780692
 21
-1689.744914777402
 31
0.0
  0
LINE
  5
57D2
330
1F
100
AcDbEntity
  8
SPOJOVACÍ
  6
Continuous
100
AcDbLine
 10
588.7348044075578
 20
-1689.837932356858
 30
0.0
 11
590.8890915490146
 21
-1689.527253641085
 31
0.0
  0
LINE
  5
57D3
330
1F
100
AcDbEntity
  8
SPOJOVACÍ
  6
Continuous
100
AcDbLine
 10
587.3516329965595
 20
-1705.183972635699
 30
0.0
 11
592.1513401024085
 21
-1703.984045859237
 31
0.0
  0
LINE
  5
57D4
330
1F
100
AcDbEntity
  8
SPOJOVACÍ
  6
Continuous
100
AcDbLine
 10
587.3516329965595
 20
-1705.183972635699
 30
0.0
 11
587.7292843718705
 21
-1704.965381323672
 31
0.0
  0
LINE
  5
57D5
330
1F
100
AcDbEntity
  8
SPOJOVACÍ
  6
Continuous
100
AcDbLine
 10
587.3516329965595
 20
-1705.183972635699
 30
0.0
 11
587.7292843718705
 21
-1705.561624008827
 31
0.0
  0
LINE
  5
57D6
330
1F
100
AcDbEntity
  8
SPOJOVACÍ
  6
Continuous
100
AcDbLine
 10
592.1513401024085
 20
-1703.984045859237
 30
0.0
 11
591.7736887314631
 21
-1703.605464310407
 31
0.0
  0
LINE
  5
57D7
330
1F
100
AcDbEntity
  8
SPOJOVACÍ
  6
Continuous
100
AcDbLine
 10
592.1513401024085
 20
-1703.984045859237
 30
0.0
 11
591.7736887314631
 21
-1704.201706995554
 31
0.0
  0
LINE
  5
57D8
330
1F
100
AcDbEntity
  8
SPOJOVACÍ
  6
Continuous
100
AcDbLine
 10
587.7292843718705
 20
-1704.965381323672
 30
0.0
 11
591.7736887314631
 21
-1703.605464310407
 31
0.0
  0
LINE
  5
57D9
330
1F
100
AcDbEntity
  8
SPOJOVACÍ
  6
Continuous
100
AcDbLine
 10
587.7292843718705
 20
-1705.561624008827
 30
0.0
 11
591.7736887314631
 21
-1704.201706995554
 31
0.0
  0
LINE
  5
57DA
330
1F
100
AcDbEntity
  8
SPOJOVACÍ
  6
Continuous
100
AcDbLine
 10
587.3516329965595
 20
-1702.06416301673
 30
0.0
 11
592.1513401024085
 21
-1700.864236240267
 31
0.0
  0
LINE
  5
57DB
330
1F
100
AcDbEntity
  8
SPOJOVACÍ
  6
Continuous
100
AcDbLine
 10
587.3516329965595
 20
-1702.06416301673
 30
0.0
 11
587.7292843718705
 21
-1701.845571704711
 31
0.0
  0
LINE
  5
57DC
330
1F
100
AcDbEntity
  8
SPOJOVACÍ
  6
Continuous
100
AcDbLine
 10
587.3516329965595
 20
-1702.06416301673
 30
0.0
 11
587.7292843718705
 21
-1702.441814389858
 31
0.0
  0
LINE
  5
57DD
330
1F
100
AcDbEntity
  8
SPOJOVACÍ
  6
Continuous
100
AcDbLine
 10
592.1513401024085
 20
-1700.864236240267
 30
0.0
 11
591.7736887314631
 21
-1700.485654691437
 31
0.0
  0
LINE
  5
57DE
330
1F
100
AcDbEntity
  8
SPOJOVACÍ
  6
Continuous
100
AcDbLine
 10
592.1513401024085
 20
-1700.864236240267
 30
0.0
 11
591.7736887314631
 21
-1701.081897376316
 31
0.0
  0
LINE
  5
57DF
330
1F
100
AcDbEntity
  8
SPOJOVACÍ
  6
Continuous
100
AcDbLine
 10
587.7292843718705
 20
-1701.845571704711
 30
0.0
 11
591.7736887314631
 21
-1700.485654691437
 31
0.0
  0
LINE
  5
57E0
330
1F
100
AcDbEntity
  8
SPOJOVACÍ
  6
Continuous
100
AcDbLine
 10
587.7292843718705
 20
-1702.441814389858
 30
0.0
 11
591.7736887314631
 21
-1701.081897376316
 31
0.0
  0
LINE
  5
57E1
330
1F
100
AcDbEntity
  8
SPOJOVACÍ
  6
Continuous
100
AcDbLine
 10
587.3516329965595
 20
-1698.943423221789
 30
0.0
 11
592.1513401024085
 21
-1697.743496445327
 31
0.0
  0
LINE
  5
57E2
330
1F
100
AcDbEntity
  8
SPOJOVACÍ
  6
Continuous
100
AcDbLine
 10
587.3516329965595
 20
-1698.943423221789
 30
0.0
 11
587.7292843718705
 21
-1698.725762085741
 31
0.0
  0
LINE
  5
57E3
330
1F
100
AcDbEntity
  8
SPOJOVACÍ
  6
Continuous
100
AcDbLine
 10
587.3516329965595
 20
-1698.943423221789
 30
0.0
 11
587.7292843718705
 21
-1699.322004770896
 31
0.0
  0
LINE
  5
57E4
330
1F
100
AcDbEntity
  8
SPOJOVACÍ
  6
Continuous
100
AcDbLine
 10
592.1513401024085
 20
-1697.743496445327
 30
0.0
 11
591.7736887314631
 21
-1697.365845072199
 31
0.0
  0
LINE
  5
57E5
330
1F
100
AcDbEntity
  8
SPOJOVACÍ
  6
Continuous
100
AcDbLine
 10
592.1513401024085
 20
-1697.743496445327
 30
0.0
 11
591.7736887314631
 21
-1697.962087757354
 31
0.0
  0
LINE
  5
57E6
330
1F
100
AcDbEntity
  8
SPOJOVACÍ
  6
Continuous
100
AcDbLine
 10
587.7292843718705
 20
-1698.725762085741
 30
0.0
 11
591.7736887314631
 21
-1697.365845072199
 31
0.0
  0
LINE
  5
57E7
330
1F
100
AcDbEntity
  8
SPOJOVACÍ
  6
Continuous
100
AcDbLine
 10
587.7292843718705
 20
-1699.322004770896
 30
0.0
 11
591.7736887314631
 21
-1697.962087757354
 31
0.0
  0
INSERT
  5
57E8
330
1F
100
AcDbEntity
  8
POPIS
100
AcDbBlockReference
  2
E_PUNKT
 10
553.9613137023979
 20
-1704.068435009657
 30
0.0
  0
LINE
  5
57E9
330
1F
100
AcDbEntity
  8
SPOJOVACÍ
100
AcDbLine
 10
556.6945627437116
 20
-1699.65290732819
 30
0.0
 11
554.307587016784
 21
-1695.87361045319
 31
0.0
  0
LINE
  5
57EA
330
1F
100
AcDbEntity
  8
SPOJOVACÍ
100
AcDbLine
 10
556.6945627437116
 20
-1699.65290732819
 30
0.0
 11
557.3522457103126
 21
-1699.65290732819
 31
0.0
  0
LINE
  5
57EB
330
1F
100
AcDbEntity
  8
SPOJOVACÍ
100
AcDbLine
 10
557.7757540185657
 20
-1699.65290732819
 30
0.0
 11
556.6945627437116
 21
-1699.65290732819
 31
0.0
  0
LINE
  5
57EC
330
1F
100
AcDbEntity
  8
SPOJOVACÍ
100
AcDbLine
 10
557.3522457103126
 20
-1689.527907328191
 30
0.0
 11
556.6945627437116
 21
-1689.527907328191
 31
0.0
  0
LINE
  5
57ED
330
1F
100
AcDbEntity
  8
SPOJOVACÍ
100
AcDbLine
 10
556.6945627437116
 20
-1689.527907328191
 30
0.0
 11
557.3522457103126
 21
-1689.527907328191
 31
0.0
  0
LINE
  5
57EE
330
1F
100
AcDbEntity
  8
SPOJOVACÍ
  6
DASHED
100
AcDbLine
 10
556.6945627437116
 20
-1689.527907328191
 30
0.0
 11
554.3075870167768
 21
-1693.307204203191
 31
0.0
  0
LINE
  5
57EF
330
1F
100
AcDbEntity
  8
SPOJOVACÍ
100
AcDbLine
 10
557.7757540185657
 20
-1689.527907328191
 30
0.0
 11
556.6945627437116
 21
-1689.527907328191
 31
0.0
  0
LINE
  5
57F0
330
1F
100
AcDbEntity
  8
SPOJOVACÍ
100
AcDbLine
 10
557.7757540185657
 20
-1689.527907328191
 30
0.0
 11
557.7757540185657
 21
-1699.65290732819
 31
0.0
  0
LINE
  5
57F1
330
1F
100
AcDbEntity
  8
SPOJOVACÍ
100
AcDbLine
 10
556.6945627437116
 20
-1689.527907328191
 30
0.0
 11
556.6945627437116
 21
-1699.65290732819
 31
0.0
  0
LINE
  5
57F2
330
1F
100
AcDbEntity
  8
STAVBA OBRYS
100
AcDbLine
 10
568.5896924543949
 20
-1710.223863038851
 30
0.0
 11
553.4051268972498
 21
-1710.223863038851
 31
0.0
  0
LINE
  5
57F3
330
1F
100
AcDbEntity
  8
NOSNÉ KONSTRUKCE
100
AcDbLine
 10
599.8578637418058
 20
-1709.13988535141
 30
0.0
 11
599.8578637418058
 21
-1707.63988535141
 31
0.0
  0
LINE
  5
57F4
330
1F
100
AcDbEntity
  8
NOSNÉ KONSTRUKCE
100
AcDbLine
 10
599.8578637418058
 20
-1681.639941861603
 30
0.0
 11
555.9953840406842
 21
-1681.639941861603
 31
0.0
  0
LINE
  5
57F5
330
1F
100
AcDbEntity
  8
NOSNÉ KONSTRUKCE
100
AcDbLine
 10
599.8578637418058
 20
-1680.139941861602
 30
0.0
 11
554.4953840406769
 21
-1680.139941861602
 31
0.0
  0
LINE
  5
57F6
330
1F
100
AcDbEntity
  8
NOSNÉ KONSTRUKCE
100
AcDbLine
 10
599.8578637418058
 20
-1680.139941861602
 30
0.0
 11
599.8578637418058
 21
-1681.639941861603
 31
0.0
  0
LINE
  5
57F7
330
1F
100
AcDbEntity
  8
SPOJOVACÍ
  6
DASHED
 48
0.5
100
AcDbLine
 10
720.4726191805484
 20
-1680.139941861602
 30
0.0
 11
720.4726191805484
 21
-1709.13988535141
 31
0.0
  0
LINE
  5
57F8
330
1F
100
AcDbEntity
  8
SPOJOVACÍ
  6
DASHED
 48
0.5
100
AcDbLine
 10
718.9726191805484
 20
-1680.139941861602
 30
0.0
 11
718.9726191805484
 21
-1709.13988535141
 31
0.0
  0
LINE
  5
57F9
330
1F
100
AcDbEntity
  8
SPOJOVACÍ
100
AcDbLine
 10
720.4726191805484
 20
-1650.47344097256
 30
0.0
 11
720.4726191805484
 21
-1680.139941861602
 31
0.0
  0
LINE
  5
57FA
330
1F
100
AcDbEntity
  8
SPOJOVACÍ
100
AcDbLine
 10
718.9726191805484
 20
-1648.97344097256
 30
0.0
 11
718.9726191805484
 21
-1680.139941861602
 31
0.0
  0
LINE
  5
57FB
330
1F
100
AcDbEntity
  8
SPOJOVACÍ
  6
Continuous
100
AcDbLine
 10
733.8192068399102
 20
-1665.867624422762
 30
0.0
 11
734.7008002422763
 21
-1663.245758408569
 31
0.0
  0
LINE
  5
57FC
330
1F
100
AcDbEntity
  8
SPOJOVACÍ
  6
Continuous
100
AcDbLine
 10
734.2057330854177
 20
-1665.867624422762
 30
0.0
 11
735.0873264877982
 21
-1663.245758408569
 31
0.0
  0
LINE
  5
57FD
330
1F
100
AcDbEntity
  8
SPOJOVACÍ
  6
Continuous
100
AcDbLine
 10
734.8425064321372
 20
-1663.000938354326
 30
0.0
 11
734.7008002422763
 21
-1663.245758408569
 31
0.0
  0
LINE
  5
57FE
330
1F
100
AcDbEntity
  8
SPOJOVACÍ
  6
Continuous
100
AcDbLine
 10
734.8425064321372
 20
-1663.000938354326
 30
0.0
 11
735.0873264877982
 21
-1663.245758408569
 31
0.0
  0
LINE
  5
57FF
330
1F
100
AcDbEntity
  8
SPOJOVACÍ
  6
Continuous
100
AcDbLine
 10
734.0646299007594
 20
-1666.112444479836
 30
0.0
 11
733.8192068399102
 21
-1665.867624422762
 31
0.0
  0
LINE
  5
5800
330
1F
100
AcDbEntity
  8
SPOJOVACÍ
  6
Continuous
100
AcDbLine
 10
734.0646299007594
 20
-1666.112444479836
 30
0.0
 11
734.2057330854177
 21
-1665.867624422762
 31
0.0
  0
LINE
  5
5801
330
1F
100
AcDbEntity
  8
SPOJOVACÍ
  6
Continuous
100
AcDbLine
 10
734.0646299007594
 20
-1666.112444479836
 30
0.0
 11
734.8425064321372
 21
-1663.000938354326
 31
0.0
  0
LINE
  5
5802
330
1F
100
AcDbEntity
  8
SPOJOVACÍ
  6
Continuous
100
AcDbLine
 10
731.7967278582318
 20
-1665.867624422762
 30
0.0
 11
732.6783212605978
 21
-1663.245758408569
 31
0.0
  0
LINE
  5
5803
330
1F
100
AcDbEntity
  8
SPOJOVACÍ
  6
Continuous
100
AcDbLine
 10
732.183254103732
 20
-1665.867624422762
 30
0.0
 11
733.0648475059306
 21
-1663.245758408569
 31
0.0
  0
LINE
  5
5804
330
1F
100
AcDbEntity
  8
SPOJOVACÍ
  6
Continuous
100
AcDbLine
 10
732.8194244452634
 20
-1663.000938354326
 30
0.0
 11
732.6783212605978
 21
-1663.245758408569
 31
0.0
  0
LINE
  5
5805
330
1F
100
AcDbEntity
  8
SPOJOVACÍ
  6
Continuous
100
AcDbLine
 10
732.8194244452634
 20
-1663.000938354326
 30
0.0
 11
733.0648475059306
 21
-1663.245758408569
 31
0.0
  0
LINE
  5
5806
330
1F
100
AcDbEntity
  8
SPOJOVACÍ
  6
Continuous
100
AcDbLine
 10
732.0415479138928
 20
-1666.112444479836
 30
0.0
 11
731.7967278582318
 21
-1665.867624422762
 31
0.0
  0
LINE
  5
5807
330
1F
100
AcDbEntity
  8
SPOJOVACÍ
  6
Continuous
100
AcDbLine
 10
732.0415479138928
 20
-1666.112444479836
 30
0.0
 11
732.183254103732
 21
-1665.867624422762
 31
0.0
  0
LINE
  5
5808
330
1F
100
AcDbEntity
  8
SPOJOVACÍ
  6
Continuous
100
AcDbLine
 10
732.0415479138928
 20
-1666.112444479836
 30
0.0
 11
732.8194244452634
 21
-1663.000938354326
 31
0.0
  0
LINE
  5
5809
330
1F
100
AcDbEntity
  8
SPOJOVACÍ
  6
Continuous
100
AcDbLine
 10
729.7742488765461
 20
-1665.867624422762
 30
0.0
 11
730.6558422787302
 21
-1663.245758408569
 31
0.0
  0
LINE
  5
580A
330
1F
100
AcDbEntity
  8
SPOJOVACÍ
  6
Continuous
100
AcDbLine
 10
730.1607751220536
 20
-1665.867624422762
 30
0.0
 11
731.0423685242449
 21
-1663.245758408569
 31
0.0
  0
LINE
  5
580B
330
1F
100
AcDbEntity
  8
SPOJOVACÍ
  6
Continuous
100
AcDbLine
 10
730.7969454635776
 20
-1663.000938354326
 30
0.0
 11
730.6558422787302
 21
-1663.245758408569
 31
0.0
  0
LINE
  5
580C
330
1F
100
AcDbEntity
  8
SPOJOVACÍ
  6
Continuous
100
AcDbLine
 10
730.7969454635776
 20
-1663.000938354326
 30
0.0
 11
731.0423685242449
 21
-1663.245758408569
 31
0.0
  0
LINE
  5
580D
330
1F
100
AcDbEntity
  8
SPOJOVACÍ
  6
Continuous
100
AcDbLine
 10
730.0190689321998
 20
-1666.112444479836
 30
0.0
 11
729.7742488765461
 21
-1665.867624422762
 31
0.0
  0
LINE
  5
580E
330
1F
100
AcDbEntity
  8
SPOJOVACÍ
  6
Continuous
100
AcDbLine
 10
730.0190689321998
 20
-1666.112444479836
 30
0.0
 11
730.1607751220536
 21
-1665.867624422762
 31
0.0
  0
LINE
  5
580F
330
1F
100
AcDbEntity
  8
SPOJOVACÍ
  6
Continuous
100
AcDbLine
 10
730.0190689321998
 20
-1666.112444479836
 30
0.0
 11
730.7969454635776
 21
-1663.000938354326
 31
0.0
  0
LINE
  5
5810
330
1F
100
AcDbEntity
  8
SPOJOVACÍ
  6
Continuous
100
AcDbLine
 10
739.9674464637674
 20
-1665.215775949227
 30
0.0
 11
740.1688501548369
 21
-1663.819216224035
 31
0.0
  0
LINE
  5
5811
330
1F
100
AcDbEntity
  8
SPOJOVACÍ
  6
Continuous
100
AcDbLine
 10
739.7226264081064
 20
-1664.970955894985
 30
0.0
 11
740.027746970004
 21
-1664.064036278278
 31
0.0
  0
LINE
  5
5812
330
1F
100
AcDbEntity
  8
SPOJOVACÍ
  6
Continuous
100
AcDbLine
 10
740.1091526536065
 20
-1664.970955894985
 30
0.0
 11
740.4142732154968
 21
-1664.064036278278
 31
0.0
  0
LINE
  5
5813
330
1F
100
AcDbEntity
  8
SPOJOVACÍ
  6
Continuous
100
AcDbLine
 10
740.1688501548369
 20
-1663.819216224035
 30
0.0
 11
740.027746970004
 21
-1664.064036278278
 31
0.0
  0
LINE
  5
5814
330
1F
100
AcDbEntity
  8
SPOJOVACÍ
  6
Continuous
100
AcDbLine
 10
740.1688501548369
 20
-1663.819216224035
 30
0.0
 11
740.4142732154968
 21
-1664.064036278278
 31
0.0
  0
LINE
  5
5815
330
1F
100
AcDbEntity
  8
SPOJOVACÍ
  6
Continuous
100
AcDbLine
 10
739.9674464637674
 20
-1665.215775949227
 30
0.0
 11
739.7226264081064
 21
-1664.970955894985
 31
0.0
  0
LINE
  5
5816
330
1F
100
AcDbEntity
  8
SPOJOVACÍ
  6
Continuous
100
AcDbLine
 10
739.9674464637674
 20
-1665.215775949227
 30
0.0
 11
740.1091526536065
 21
-1664.970955894985
 31
0.0
  0
LINE
  5
5817
330
1F
100
AcDbEntity
  8
SPOJOVACÍ
  6
Continuous
100
AcDbLine
 10
738.0137100592283
 20
-1665.581800024125
 30
0.0
 11
738.4243565071183
 21
-1663.56173306227
 31
0.0
  0
LINE
  5
5818
330
1F
100
AcDbEntity
  8
SPOJOVACÍ
  6
Continuous
100
AcDbLine
 10
737.7682869983864
 20
-1665.336979967053
 30
0.0
 11
738.2832533224528
 21
-1663.806553116512
 31
0.0
  0
LINE
  5
5819
330
1F
100
AcDbEntity
  8
SPOJOVACÍ
  6
Continuous
100
AcDbLine
 10
738.1548132438938
 20
-1665.336979967053
 30
0.0
 11
738.6697795677855
 21
-1663.806553116512
 31
0.0
  0
LINE
  5
581A
330
1F
100
AcDbEntity
  8
SPOJOVACÍ
  6
Continuous
100
AcDbLine
 10
738.4243565071183
 20
-1663.56173306227
 30
0.0
 11
738.2832533224528
 21
-1663.806553116512
 31
0.0
  0
LINE
  5
581B
330
1F
100
AcDbEntity
  8
SPOJOVACÍ
  6
Continuous
100
AcDbLine
 10
738.4243565071183
 20
-1663.56173306227
 30
0.0
 11
738.6697795677855
 21
-1663.806553116512
 31
0.0
  0
LINE
  5
581C
330
1F
100
AcDbEntity
  8
SPOJOVACÍ
  6
Continuous
100
AcDbLine
 10
738.0137100592283
 20
-1665.581800024125
 30
0.0
 11
737.7682869983864
 21
-1665.336979967053
 31
0.0
  0
LINE
  5
581D
330
1F
100
AcDbEntity
  8
SPOJOVACÍ
  6
Continuous
100
AcDbLine
 10
738.0137100592283
 20
-1665.581800024125
 30
0.0
 11
738.1548132438938
 21
-1665.336979967053
 31
0.0
  0
LINE
  5
581E
330
1F
100
AcDbEntity
  8
SPOJOVACÍ
  6
Continuous
100
AcDbLine
 10
736.0593706495083
 20
-1665.947824096192
 30
0.0
 11
736.6901139454885
 21
-1663.273496642208
 31
0.0
  0
LINE
  5
581F
330
1F
100
AcDbEntity
  8
SPOJOVACÍ
  6
Continuous
100
AcDbLine
 10
735.8145505938546
 20
-1665.702401035885
 30
0.0
 11
736.549010760823
 21
-1663.518316696451
 31
0.0
  0
LINE
  5
5820
330
1F
100
AcDbEntity
  8
SPOJOVACÍ
  6
Continuous
100
AcDbLine
 10
736.201076839362
 20
-1665.702401035885
 30
0.0
 11
736.9355370063376
 21
-1663.518316696451
 31
0.0
  0
LINE
  5
5821
330
1F
100
AcDbEntity
  8
SPOJOVACÍ
  6
Continuous
100
AcDbLine
 10
736.6901139454885
 20
-1663.273496642208
 30
0.0
 11
736.549010760823
 21
-1663.518316696451
 31
0.0
  0
LINE
  5
5822
330
1F
100
AcDbEntity
  8
SPOJOVACÍ
  6
Continuous
100
AcDbLine
 10
736.6901139454885
 20
-1663.273496642208
 30
0.0
 11
736.9355370063376
 21
-1663.518316696451
 31
0.0
  0
LINE
  5
5823
330
1F
100
AcDbEntity
  8
SPOJOVACÍ
  6
Continuous
100
AcDbLine
 10
736.0593706495083
 20
-1665.947824096192
 30
0.0
 11
735.8145505938546
 21
-1665.702401035885
 31
0.0
  0
LINE
  5
5824
330
1F
100
AcDbEntity
  8
SPOJOVACÍ
  6
Continuous
100
AcDbLine
 10
736.0593706495083
 20
-1665.947824096192
 30
0.0
 11
736.201076839362
 21
-1665.702401035885
 31
0.0
  0
LINE
  5
5825
330
1F
100
AcDbEntity
  8
SPOJOVACÍ
  6
Continuous
100
AcDbLine
 10
727.7517698946785
 20
-1665.867624422762
 30
0.0
 11
728.6327602920382
 21
-1663.245758408569
 31
0.0
  0
LINE
  5
5826
330
1F
100
AcDbEntity
  8
SPOJOVACÍ
  6
Continuous
100
AcDbLine
 10
728.138296140186
 20
-1665.867624422762
 30
0.0
 11
729.019286537371
 21
-1663.245758408569
 31
0.0
  0
LINE
  5
5827
330
1F
100
AcDbEntity
  8
SPOJOVACÍ
  6
Continuous
100
AcDbLine
 10
728.7744664818992
 20
-1663.000938354326
 30
0.0
 11
728.6327602920382
 21
-1663.245758408569
 31
0.0
  0
LINE
  5
5828
330
1F
100
AcDbEntity
  8
SPOJOVACÍ
  6
Continuous
100
AcDbLine
 10
728.7744664818992
 20
-1663.000938354326
 30
0.0
 11
729.019286537371
 21
-1663.245758408569
 31
0.0
  0
LINE
  5
5829
330
1F
100
AcDbEntity
  8
SPOJOVACÍ
  6
Continuous
100
AcDbLine
 10
727.9965899503395
 20
-1666.112444479836
 30
0.0
 11
727.7517698946785
 21
-1665.867624422762
 31
0.0
  0
LINE
  5
582A
330
1F
100
AcDbEntity
  8
SPOJOVACÍ
  6
Continuous
100
AcDbLine
 10
727.9965899503395
 20
-1666.112444479836
 30
0.0
 11
728.138296140186
 21
-1665.867624422762
 31
0.0
  0
LINE
  5
582B
330
1F
100
AcDbEntity
  8
SPOJOVACÍ
  6
Continuous
100
AcDbLine
 10
727.9965899503395
 20
-1666.112444479836
 30
0.0
 11
728.7744664818992
 21
-1663.000938354326
 31
0.0
  0
LINE
  5
582C
330
1F
100
AcDbEntity
  8
SPOJOVACÍ
  6
Continuous
100
AcDbLine
 10
725.7286879080011
 20
-1665.867624422762
 30
0.0
 11
726.6102813101852
 21
-1663.245758408569
 31
0.0
  0
LINE
  5
582D
330
1F
100
AcDbEntity
  8
SPOJOVACÍ
  6
Continuous
100
AcDbLine
 10
726.1152141533194
 20
-1665.867624422762
 30
0.0
 11
726.9968075556926
 21
-1663.245758408569
 31
0.0
  0
LINE
  5
582E
330
1F
100
AcDbEntity
  8
SPOJOVACÍ
  6
Continuous
100
AcDbLine
 10
726.7519875000316
 20
-1663.000938354326
 30
0.0
 11
726.6102813101852
 21
-1663.245758408569
 31
0.0
  0
LINE
  5
582F
330
1F
100
AcDbEntity
  8
SPOJOVACÍ
  6
Continuous
100
AcDbLine
 10
726.7519875000316
 20
-1663.000938354326
 30
0.0
 11
726.9968075556926
 21
-1663.245758408569
 31
0.0
  0
LINE
  5
5830
330
1F
100
AcDbEntity
  8
SPOJOVACÍ
  6
Continuous
100
AcDbLine
 10
725.9741109686538
 20
-1666.112444479836
 30
0.0
 11
725.7286879080011
 21
-1665.867624422762
 31
0.0
  0
LINE
  5
5831
330
1F
100
AcDbEntity
  8
SPOJOVACÍ
  6
Continuous
100
AcDbLine
 10
725.9741109686538
 20
-1666.112444479836
 30
0.0
 11
726.1152141533194
 21
-1665.867624422762
 31
0.0
  0
LINE
  5
5832
330
1F
100
AcDbEntity
  8
SPOJOVACÍ
  6
Continuous
100
AcDbLine
 10
725.9741109686538
 20
-1666.112444479836
 30
0.0
 11
726.7519875000316
 21
-1663.000938354326
 31
0.0
  0
LINE
  5
5833
330
1F
100
AcDbEntity
  8
SPOJOVACÍ
  6
Continuous
100
AcDbLine
 10
736.4344397987252
 20
-1663.840924405529
 30
0.0
 11
735.1566720699366
 21
-1663.681731067968
 31
0.0
  0
LINE
  5
5834
330
1F
100
AcDbEntity
  8
SPOJOVACÍ
  6
Continuous
100
AcDbLine
 10
738.1891845325545
 20
-1664.060418250388
 30
0.0
 11
736.8040819025873
 21
-1663.887355796006
 31
0.0
  0
LINE
  5
5835
330
1F
100
AcDbEntity
  8
SPOJOVACÍ
  6
Continuous
100
AcDbLine
 10
739.9505623219329
 20
-1664.280515095649
 30
0.0
 11
738.5600326464072
 21
-1664.106849638034
 31
0.0
  0
LINE
  5
5836
330
1F
100
AcDbEntity
  8
SPOJOVACÍ
  6
Continuous
100
AcDbLine
 10
740.1555840433821
 20
-1664.806938517405
 30
0.0
 11
742.1581638580419
 21
-1664.556691417081
 31
0.0
  0
LINE
  5
5837
330
1F
100
AcDbEntity
  8
SPOJOVACÍ
  6
Continuous
100
AcDbLine
 10
738.2488820337848
 20
-1665.045125516269
 30
0.0
 11
739.7533796662274
 21
-1664.856987938602
 31
0.0
  0
LINE
  5
5838
330
1F
100
AcDbEntity
  8
SPOJOVACÍ
  6
Continuous
100
AcDbLine
 10
736.3349439634649
 20
-1665.284518527261
 30
0.0
 11
737.840044600899
 21
-1665.096380946763
 31
0.0
  0
LINE
  5
5839
330
1F
100
AcDbEntity
  8
SPOJOVACÍ
  6
Continuous
100
AcDbLine
 10
742.1581638580419
 20
-1664.556691417081
 30
0.0
 11
740.3196014205995
 21
-1664.326946486125
 31
0.0
  0
LINE
  5
583A
330
1F
100
AcDbEntity
  8
SPOJOVACÍ
  6
Continuous
100
AcDbLine
 10
735.1566720699366
 20
-1665.431651763365
 30
0.0
 11
735.9327395863101
 21
-1665.334567948458
 31
0.0
  0
LINE
  5
583B
330
1F
100
AcDbEntity
  8
SPOJOVACÍ
  6
Continuous
100
AcDbLine
 10
734.9383842372072
 20
-1663.681731067968
 30
0.0
 11
735.1566720699366
 21
-1663.681731067968
 31
0.0
  0
LINE
  5
583C
330
1F
100
AcDbEntity
  8
SPOJOVACÍ
  6
Continuous
100
AcDbLine
 10
732.9140962401679
 20
-1663.681731067968
 30
0.0
 11
734.5470339511548
 21
-1663.681731067968
 31
0.0
  0
LINE
  5
583D
330
1F
100
AcDbEntity
  8
SPOJOVACÍ
  6
Continuous
100
AcDbLine
 10
734.348042280445
 20
-1665.431651763365
 30
0.0
 11
735.1566720699366
 21
-1665.431651763365
 31
0.0
  0
LINE
  5
583E
330
1F
100
AcDbEntity
  8
SPOJOVACÍ
  6
Continuous
100
AcDbLine
 10
732.3291813289424
 20
-1665.431651763365
 30
0.0
 11
733.9615160349449
 21
-1665.431651763365
 31
0.0
  0
LINE
  5
583F
330
1F
100
AcDbEntity
  8
SPOJOVACÍ
  6
Continuous
100
AcDbLine
 10
730.8904112482951
 20
-1663.681731067968
 30
0.0
 11
732.5245549694764
 21
-1663.681731067968
 31
0.0
  0
LINE
  5
5840
330
1F
100
AcDbEntity
  8
SPOJOVACÍ
  6
Continuous
100
AcDbLine
 10
728.8661232514232
 20
-1663.681731067968
 30
0.0
 11
730.5050910129748
 21
-1663.681731067968
 31
0.0
  0
LINE
  5
5841
330
1F
100
AcDbEntity
  8
SPOJOVACÍ
  6
Continuous
100
AcDbLine
 10
726.8466592949289
 20
-1663.681731067968
 30
0.0
 11
728.4795970059231
 21
-1663.681731067968
 31
0.0
  0
LINE
  5
5842
330
1F
100
AcDbEntity
  8
SPOJOVACÍ
  6
Continuous
100
AcDbLine
 10
730.2982602763468
 20
-1665.431651763365
 30
0.0
 11
731.9372280378984
 21
-1665.431651763365
 31
0.0
  0
LINE
  5
5843
330
1F
100
AcDbEntity
  8
SPOJOVACÍ
  6
Continuous
100
AcDbLine
 10
728.2787963198525
 20
-1665.431651763365
 30
0.0
 11
729.9129400410265
 21
-1665.431651763365
 31
0.0
  0
LINE
  5
5844
330
1F
100
AcDbEntity
  8
SPOJOVACÍ
  6
Continuous
100
AcDbLine
 10
726.2545083229806
 20
-1665.431651763365
 30
0.0
 11
727.8874460339675
 21
-1665.431651763365
 31
0.0
  0
LINE
  5
5845
330
1F
100
AcDbEntity
  8
SPOJOVACÍ
  6
Continuous
100
AcDbLine
 10
723.2509401034795
 20
-1665.431651763365
 30
0.0
 11
725.8685850826541
 21
-1665.431651763365
 31
0.0
  0
LINE
  5
5846
330
1F
100
AcDbEntity
  8
SPOJOVACÍ
  6
Continuous
100
AcDbLine
 10
723.2509401034795
 20
-1663.681731067968
 30
0.0
 11
726.4553090090512
 21
-1663.681731067968
 31
0.0
  0
LINE
  5
5847
330
1F
100
AcDbEntity
  8
SPOJOVACÍ
  6
Continuous
100
AcDbLine
 10
719.7504957121009
 20
-1667.862968178465
 30
0.0
 11
720.2328997625036
 21
-1666.988007829352
 31
0.0
  0
LINE
  5
5848
330
1F
100
AcDbEntity
  8
SPOJOVACÍ
  6
Continuous
100
AcDbLine
 10
720.2328997625036
 20
-1666.988007829352
 30
0.0
 11
720.9257525800812
 21
-1666.268019783847
 31
0.0
  0
LINE
  5
5849
330
1F
100
AcDbEntity
  8
SPOJOVACÍ
  6
Continuous
100
AcDbLine
 10
720.9257525800812
 20
-1666.268019783847
 30
0.0
 11
721.780813759523
 21
-1665.751847451019
 31
0.0
  0
LINE
  5
584A
330
1F
100
AcDbEntity
  8
SPOJOVACÍ
  6
Continuous
100
AcDbLine
 10
721.780813759523
 20
-1665.751847451019
 30
0.0
 11
722.7407978201327
 21
-1665.47446512312
 31
0.0
  0
LINE
  5
584B
330
1F
100
AcDbEntity
  8
SPOJOVACÍ
  6
Continuous
100
AcDbLine
 10
722.7407978201327
 20
-1665.47446512312
 30
0.0
 11
723.2509401034795
 21
-1665.431651763365
 31
0.0
  0
LINE
  5
584C
330
1F
100
AcDbEntity
  8
SPOJOVACÍ
  6
Continuous
100
AcDbLine
 10
720.5639495421446
 20
-1662.516122283029
 30
0.0
 11
719.9687835448303
 21
-1661.714125548733
 31
0.0
  0
LINE
  5
584D
330
1F
100
AcDbEntity
  8
SPOJOVACÍ
  6
Continuous
100
AcDbLine
 10
719.9687835448303
 20
-1661.714125548733
 30
0.0
 11
719.7504957121009
 21
-1661.250414655696
 31
0.0
  0
LINE
  5
584E
330
1F
100
AcDbEntity
  8
SPOJOVACÍ
  6
Continuous
100
AcDbLine
 10
719.7504957121009
 20
-1667.862968178465
 30
0.0
 11
719.7504957121009
 21
-1661.250414655696
 31
0.0
  0
LINE
  5
584F
330
1F
100
AcDbEntity
  8
SPOJOVACÍ
  6
Continuous
100
AcDbLine
 10
718.9726191805484
 20
-1667.862968178465
 30
0.0
 11
719.7504957121009
 21
-1667.862968178465
 31
0.0
  0
LINE
  5
5850
330
1F
100
AcDbEntity
  8
SPOJOVACÍ
  6
Continuous
100
AcDbLine
 10
718.9726191805484
 20
-1667.862968178465
 30
0.0
 11
718.9726191805484
 21
-1661.250414655696
 31
0.0
  0
LINE
  5
5851
330
1F
100
AcDbEntity
  8
SPOJOVACÍ
  6
Continuous
100
AcDbLine
 10
718.9726191805484
 20
-1661.250414655696
 30
0.0
 11
719.7504957121009
 21
-1661.250414655696
 31
0.0
  0
LINE
  5
5852
330
1F
100
AcDbEntity
  8
SPOJOVACÍ
  6
Continuous
100
AcDbLine
 10
723.2509401034795
 20
-1663.681731067968
 30
0.0
 11
722.2632178101076
 21
-1663.534597834695
 31
0.0
  0
LINE
  5
5853
330
1F
100
AcDbEntity
  8
SPOJOVACÍ
  6
Continuous
100
AcDbLine
 10
722.2632178101076
 20
-1663.534597834695
 30
0.0
 11
721.3466501140747
 21
-1663.137217498268
 31
0.0
  0
LINE
  5
5854
330
1F
100
AcDbEntity
  8
SPOJOVACÍ
  6
Continuous
100
AcDbLine
 10
721.3466501140747
 20
-1663.137217498268
 30
0.0
 11
720.5639495421446
 21
-1662.516122283029
 31
0.0
  0
INSERT
  5
5855
330
1F
100
AcDbEntity
  8
POPIS
100
AcDbBlockReference
  2
E_PUNKT
 10
717.993524418237
 20
-1675.310361519597
 30
0.0
  0
LINE
  5
5856
330
1F
100
AcDbEntity
  8
SPOJOVACÍ
  6
Continuous
100
AcDbLine
 10
837.9078781240778
 20
-1717.892034357937
 30
0.0
 11
838.3357589883772
 21
-1716.411194490887
 31
0.0
  0
LINE
  5
5857
330
1F
100
AcDbEntity
  8
SPOJOVACÍ
  6
Continuous
100
AcDbLine
 10
841.3281345239184
 20
-1717.147893721194
 30
0.0
 11
841.941120373066
 21
-1718.561760930897
 31
0.0
  0
LINE
  5
5858
330
1F
100
AcDbEntity
  8
SPOJOVACÍ
  6
Continuous
100
AcDbLine
 10
834.6513326608501
 20
-1721.023936262121
 30
0.0
 11
844.851640438118
 21
-1721.023936262121
 31
0.0
  0
LINE
  5
5859
330
1F
100
AcDbEntity
  8
SPOJOVACÍ
  6
Continuous
100
AcDbLine
 10
834.6513326608501
 20
-1722.223863038852
 30
0.0
 11
844.851640438118
 21
-1722.223863038852
 31
0.0
  0
LINE
  5
585A
330
1F
100
AcDbEntity
  8
SPOJOVACÍ
  6
Continuous
100
AcDbLine
 10
841.941120373066
 20
-1718.561760930897
 30
0.0
 11
842.8992014430505
 21
-1719.769129113796
 31
0.0
  0
LINE
  5
585B
330
1F
100
AcDbEntity
  8
SPOJOVACÍ
  6
Continuous
100
AcDbLine
 10
834.6513326608501
 20
-1721.023936262121
 30
0.0
 11
836.001017744401
 21
-1720.279795625647
 31
0.0
  0
LINE
  5
585C
330
1F
100
AcDbEntity
  8
SPOJOVACÍ
  6
Continuous
100
AcDbLine
 10
836.001017744401
 20
-1720.279795625647
 30
0.0
 11
837.1116476447596
 21
-1719.211023636234
 31
0.0
  0
LINE
  5
585D
330
1F
100
AcDbEntity
  8
SPOJOVACÍ
  6
Continuous
100
AcDbLine
 10
837.1116476447596
 20
-1719.211023636234
 30
0.0
 11
837.9078781240778
 21
-1717.892034357937
 31
0.0
  0
LINE
  5
585E
330
1F
100
AcDbEntity
  8
SPOJOVACÍ
  6
Continuous
100
AcDbLine
 10
834.6513326608501
 20
-1722.223863038852
 30
0.0
 11
834.6513326608501
 21
-1721.023936262121
 31
0.0
  0
LINE
  5
585F
330
1F
100
AcDbEntity
  8
SPOJOVACÍ
  6
Continuous
100
AcDbLine
 10
842.8992014430505
 20
-1719.769129113796
 30
0.0
 11
844.1363352519502
 21
-1720.687212624238
 31
0.0
  0
LINE
  5
5860
330
1F
100
AcDbEntity
  8
SPOJOVACÍ
  6
Continuous
100
AcDbLine
 10
844.1363352519502
 20
-1720.687212624238
 30
0.0
 11
844.851640438118
 21
-1721.023936262121
 31
0.0
  0
LINE
  5
5861
330
1F
100
AcDbEntity
  8
SPOJOVACÍ
  6
Continuous
100
AcDbLine
 10
844.851640438118
 20
-1722.223863038852
 30
0.0
 11
844.851640438118
 21
-1721.023936262121
 31
0.0
  0
LINE
  5
5862
330
1F
100
AcDbEntity
  8
SPOJOVACÍ
  6
DASHED
 48
0.5
100
AcDbLine
 10
783.1450593708823
 20
-1680.139941861602
 30
0.0
 11
783.1450593708823
 21
-1709.13988535141
 31
0.0
  0
LINE
  5
5863
330
1F
100
AcDbEntity
  8
SPOJOVACÍ
  6
DASHED
 48
0.5
100
AcDbLine
 10
784.6450593708823
 20
-1680.139941861602
 30
0.0
 11
784.6450593708823
 21
-1709.13988535141
 31
0.0
  0
INSERT
  5
5864
330
1F
100
AcDbEntity
  8
POPIS
100
AcDbBlockReference
  2
E_PUNKT
 10
822.1670683398507
 20
-1687.108036552668
 30
0.0
  0
LINE
  5
5865
330
1F
100
AcDbEntity
  8
SPOJOVACÍ
  6
Continuous
100
AcDbLine
 10
837.7292843718706
 20
-1699.322004770896
 30
0.0
 11
841.7736887314632
 21
-1697.962087757354
 31
0.0
  0
LINE
  5
5866
330
1F
100
AcDbEntity
  8
SPOJOVACÍ
  6
Continuous
100
AcDbLine
 10
837.7292843718706
 20
-1698.725762085741
 30
0.0
 11
841.7736887314632
 21
-1697.365845072199
 31
0.0
  0
LINE
  5
5867
330
1F
100
AcDbEntity
  8
SPOJOVACÍ
  6
Continuous
100
AcDbLine
 10
842.1513401024085
 20
-1697.743496445327
 30
0.0
 11
841.7736887314632
 21
-1697.962087757354
 31
0.0
  0
LINE
  5
5868
330
1F
100
AcDbEntity
  8
SPOJOVACÍ
  6
Continuous
100
AcDbLine
 10
842.1513401024085
 20
-1697.743496445327
 30
0.0
 11
841.7736887314632
 21
-1697.365845072199
 31
0.0
  0
LINE
  5
5869
330
1F
100
AcDbEntity
  8
SPOJOVACÍ
  6
Continuous
100
AcDbLine
 10
837.3516329965596
 20
-1698.943423221789
 30
0.0
 11
837.7292843718706
 21
-1699.322004770896
 31
0.0
  0
LINE
  5
586A
330
1F
100
AcDbEntity
  8
SPOJOVACÍ
  6
Continuous
100
AcDbLine
 10
837.3516329965596
 20
-1698.943423221789
 30
0.0
 11
837.7292843718706
 21
-1698.725762085741
 31
0.0
  0
LINE
  5
586B
330
1F
100
AcDbEntity
  8
SPOJOVACÍ
  6
Continuous
100
AcDbLine
 10
837.3516329965596
 20
-1698.943423221789
 30
0.0
 11
842.1513401024085
 21
-1697.743496445327
 31
0.0
  0
LINE
  5
586C
330
1F
100
AcDbEntity
  8
SPOJOVACÍ
  6
Continuous
100
AcDbLine
 10
837.7292843718706
 20
-1702.441814389858
 30
0.0
 11
841.7736887314632
 21
-1701.081897376316
 31
0.0
  0
LINE
  5
586D
330
1F
100
AcDbEntity
  8
SPOJOVACÍ
  6
Continuous
100
AcDbLine
 10
837.7292843718706
 20
-1701.845571704711
 30
0.0
 11
841.7736887314632
 21
-1700.485654691437
 31
0.0
  0
LINE
  5
586E
330
1F
100
AcDbEntity
  8
SPOJOVACÍ
  6
Continuous
100
AcDbLine
 10
842.1513401024085
 20
-1700.864236240267
 30
0.0
 11
841.7736887314632
 21
-1701.081897376316
 31
0.0
  0
LINE
  5
586F
330
1F
100
AcDbEntity
  8
SPOJOVACÍ
  6
Continuous
100
AcDbLine
 10
842.1513401024085
 20
-1700.864236240267
 30
0.0
 11
841.7736887314632
 21
-1700.485654691437
 31
0.0
  0
LINE
  5
5870
330
1F
100
AcDbEntity
  8
SPOJOVACÍ
  6
Continuous
100
AcDbLine
 10
837.3516329965596
 20
-1702.06416301673
 30
0.0
 11
837.7292843718706
 21
-1702.441814389858
 31
0.0
  0
LINE
  5
5871
330
1F
100
AcDbEntity
  8
SPOJOVACÍ
  6
Continuous
100
AcDbLine
 10
837.3516329965596
 20
-1702.06416301673
 30
0.0
 11
837.7292843718706
 21
-1701.845571704711
 31
0.0
  0
LINE
  5
5872
330
1F
100
AcDbEntity
  8
SPOJOVACÍ
  6
Continuous
100
AcDbLine
 10
837.3516329965596
 20
-1702.06416301673
 30
0.0
 11
842.1513401024085
 21
-1700.864236240267
 31
0.0
  0
LINE
  5
5873
330
1F
100
AcDbEntity
  8
SPOJOVACÍ
  6
Continuous
100
AcDbLine
 10
837.7292843718706
 20
-1705.561624008827
 30
0.0
 11
841.7736887314632
 21
-1704.201706995554
 31
0.0
  0
LINE
  5
5874
330
1F
100
AcDbEntity
  8
SPOJOVACÍ
  6
Continuous
100
AcDbLine
 10
837.7292843718706
 20
-1704.965381323672
 30
0.0
 11
841.7736887314632
 21
-1703.605464310407
 31
0.0
  0
LINE
  5
5875
330
1F
100
AcDbEntity
  8
SPOJOVACÍ
  6
Continuous
100
AcDbLine
 10
842.1513401024085
 20
-1703.984045859237
 30
0.0
 11
841.7736887314632
 21
-1704.201706995554
 31
0.0
  0
LINE
  5
5876
330
1F
100
AcDbEntity
  8
SPOJOVACÍ
  6
Continuous
100
AcDbLine
 10
842.1513401024085
 20
-1703.984045859237
 30
0.0
 11
841.7736887314632
 21
-1703.605464310407
 31
0.0
  0
LINE
  5
5877
330
1F
100
AcDbEntity
  8
SPOJOVACÍ
  6
Continuous
100
AcDbLine
 10
837.3516329965596
 20
-1705.183972635699
 30
0.0
 11
837.7292843718706
 21
-1705.561624008827
 31
0.0
  0
LINE
  5
5878
330
1F
100
AcDbEntity
  8
SPOJOVACÍ
  6
Continuous
100
AcDbLine
 10
837.3516329965596
 20
-1705.183972635699
 30
0.0
 11
837.7292843718706
 21
-1704.965381323672
 31
0.0
  0
LINE
  5
5879
330
1F
100
AcDbEntity
  8
SPOJOVACÍ
  6
Continuous
100
AcDbLine
 10
837.3516329965596
 20
-1705.183972635699
 30
0.0
 11
842.1513401024085
 21
-1703.984045859237
 31
0.0
  0
LINE
  5
587A
330
1F
100
AcDbEntity
  8
SPOJOVACÍ
  6
Continuous
100
AcDbLine
 10
838.7348044075579
 20
-1689.837932356858
 30
0.0
 11
840.8890915490147
 21
-1689.527253641085
 31
0.0
  0
LINE
  5
587B
330
1F
100
AcDbEntity
  8
SPOJOVACÍ
  6
Continuous
100
AcDbLine
 10
839.1124557785033
 20
-1690.215583729987
 30
0.0
 11
840.5114401780693
 21
-1689.744914777402
 31
0.0
  0
LINE
  5
587C
330
1F
100
AcDbEntity
  8
SPOJOVACÍ
  6
Continuous
100
AcDbLine
 10
839.1124557785033
 20
-1689.619341044839
 30
0.0
 11
840.5114401780693
 21
-1689.148672092255
 31
0.0
  0
LINE
  5
587D
330
1F
100
AcDbEntity
  8
SPOJOVACÍ
  6
Continuous
100
AcDbLine
 10
840.8890915490147
 20
-1689.527253641085
 30
0.0
 11
840.5114401780693
 21
-1689.744914777402
 31
0.0
  0
LINE
  5
587E
330
1F
100
AcDbEntity
  8
SPOJOVACÍ
  6
Continuous
100
AcDbLine
 10
840.8890915490147
 20
-1689.527253641085
 30
0.0
 11
840.5114401780693
 21
-1689.148672092255
 31
0.0
  0
LINE
  5
587F
330
1F
100
AcDbEntity
  8
SPOJOVACÍ
  6
Continuous
100
AcDbLine
 10
838.7348044075579
 20
-1689.837932356858
 30
0.0
 11
839.1124557785033
 21
-1690.215583729987
 31
0.0
  0
LINE
  5
5880
330
1F
100
AcDbEntity
  8
SPOJOVACÍ
  6
Continuous
100
AcDbLine
 10
838.7348044075579
 20
-1689.837932356858
 30
0.0
 11
839.1124557785033
 21
-1689.619341044839
 31
0.0
  0
LINE
  5
5881
330
1F
100
AcDbEntity
  8
SPOJOVACÍ
  6
Continuous
100
AcDbLine
 10
838.1701876970865
 20
-1692.851701935178
 30
0.0
 11
841.2862766135177
 21
-1692.218252218408
 31
0.0
  0
LINE
  5
5882
330
1F
100
AcDbEntity
  8
SPOJOVACÍ
  6
Continuous
100
AcDbLine
 10
838.5478390723974
 20
-1693.230283484285
 30
0.0
 11
840.9086252425723
 21
-1692.435913354456
 31
0.0
  0
LINE
  5
5883
330
1F
100
AcDbEntity
  8
SPOJOVACÍ
  6
Continuous
100
AcDbLine
 10
838.5478390723974
 20
-1692.63404079913
 30
0.0
 11
840.9086252425723
 21
-1691.839670669578
 31
0.0
  0
LINE
  5
5884
330
1F
100
AcDbEntity
  8
SPOJOVACÍ
  6
Continuous
100
AcDbLine
 10
841.2862766135177
 20
-1692.218252218408
 30
0.0
 11
840.9086252425723
 21
-1692.435913354456
 31
0.0
  0
LINE
  5
5885
330
1F
100
AcDbEntity
  8
SPOJOVACÍ
  6
Continuous
100
AcDbLine
 10
841.2862766135177
 20
-1692.218252218408
 30
0.0
 11
840.9086252425723
 21
-1691.839670669578
 31
0.0
  0
LINE
  5
5886
330
1F
100
AcDbEntity
  8
SPOJOVACÍ
  6
Continuous
100
AcDbLine
 10
838.1701876970865
 20
-1692.851701935178
 30
0.0
 11
838.5478390723974
 21
-1693.230283484285
 31
0.0
  0
LINE
  5
5887
330
1F
100
AcDbEntity
  8
SPOJOVACÍ
  6
Continuous
100
AcDbLine
 10
838.1701876970865
 20
-1692.851701935178
 30
0.0
 11
838.5478390723974
 21
-1692.63404079913
 31
0.0
  0
LINE
  5
5888
330
1F
100
AcDbEntity
  8
SPOJOVACÍ
  6
Continuous
100
AcDbLine
 10
837.6055709909806
 20
-1695.866401689476
 30
0.0
 11
841.7309006437236
 21
-1694.893437807172
 31
0.0
  0
LINE
  5
5889
330
1F
100
AcDbEntity
  8
SPOJOVACÍ
  6
Continuous
100
AcDbLine
 10
837.9841525392649
 20
-1696.244053062604
 30
0.0
 11
841.3532492727782
 21
-1695.11109894322
 31
0.0
  0
LINE
  5
588A
330
1F
100
AcDbEntity
  8
SPOJOVACÍ
  6
Continuous
100
AcDbLine
 10
837.9841525392649
 20
-1695.647810377449
 30
0.0
 11
841.3532492727782
 21
-1694.514856258065
 31
0.0
  0
LINE
  5
588B
330
1F
100
AcDbEntity
  8
SPOJOVACÍ
  6
Continuous
100
AcDbLine
 10
841.7309006437236
 20
-1694.893437807172
 30
0.0
 11
841.3532492727782
 21
-1695.11109894322
 31
0.0
  0
LINE
  5
588C
330
1F
100
AcDbEntity
  8
SPOJOVACÍ
  6
Continuous
100
AcDbLine
 10
841.7309006437236
 20
-1694.893437807172
 30
0.0
 11
841.3532492727782
 21
-1694.514856258065
 31
0.0
  0
LINE
  5
588D
330
1F
100
AcDbEntity
  8
SPOJOVACÍ
  6
Continuous
100
AcDbLine
 10
837.6055709909806
 20
-1695.866401689476
 30
0.0
 11
837.9841525392649
 21
-1696.244053062604
 31
0.0
  0
LINE
  5
588E
330
1F
100
AcDbEntity
  8
SPOJOVACÍ
  6
Continuous
100
AcDbLine
 10
837.6055709909806
 20
-1695.866401689476
 30
0.0
 11
837.9841525392649
 21
-1695.647810377449
 31
0.0
  0
LINE
  5
588F
330
1F
100
AcDbEntity
  8
SPOJOVACÍ
  6
Continuous
100
AcDbLine
 10
837.7292843718706
 20
-1708.681433628066
 30
0.0
 11
841.7736887314632
 21
-1707.322446790225
 31
0.0
  0
LINE
  5
5890
330
1F
100
AcDbEntity
  8
SPOJOVACÍ
  6
Continuous
100
AcDbLine
 10
837.7292843718706
 20
-1708.085190942911
 30
0.0
 11
841.7736887314632
 21
-1706.726204105347
 31
0.0
  0
LINE
  5
5891
330
1F
100
AcDbEntity
  8
SPOJOVACÍ
  6
Continuous
100
AcDbLine
 10
842.1513401024085
 20
-1707.103855478198
 30
0.0
 11
841.7736887314632
 21
-1707.322446790225
 31
0.0
  0
LINE
  5
5892
330
1F
100
AcDbEntity
  8
SPOJOVACÍ
  6
Continuous
100
AcDbLine
 10
842.1513401024085
 20
-1707.103855478198
 30
0.0
 11
841.7736887314632
 21
-1706.726204105347
 31
0.0
  0
LINE
  5
5893
330
1F
100
AcDbEntity
  8
SPOJOVACÍ
  6
Continuous
100
AcDbLine
 10
837.3516329965596
 20
-1708.303782254938
 30
0.0
 11
837.7292843718706
 21
-1708.681433628066
 31
0.0
  0
LINE
  5
5894
330
1F
100
AcDbEntity
  8
SPOJOVACÍ
  6
Continuous
100
AcDbLine
 10
837.3516329965596
 20
-1708.303782254938
 30
0.0
 11
837.7292843718706
 21
-1708.085190942911
 31
0.0
  0
LINE
  5
5895
330
1F
100
AcDbEntity
  8
SPOJOVACÍ
  6
Continuous
100
AcDbLine
 10
837.3516329965596
 20
-1708.303782254938
 30
0.0
 11
842.1513401024085
 21
-1707.103855478198
 31
0.0
  0
LINE
  5
5896
330
1F
100
AcDbEntity
  8
SPOJOVACÍ
  6
Continuous
100
AcDbLine
 10
837.7292843718706
 20
-1711.802173422729
 30
0.0
 11
841.7736887314632
 21
-1710.442256409464
 31
0.0
  0
LINE
  5
5897
330
1F
100
AcDbEntity
  8
SPOJOVACÍ
  6
Continuous
100
AcDbLine
 10
837.7292843718706
 20
-1711.205930737851
 30
0.0
 11
841.7736887314632
 21
-1709.846013724309
 31
0.0
  0
LINE
  5
5898
330
1F
100
AcDbEntity
  8
SPOJOVACÍ
  6
Continuous
100
AcDbLine
 10
842.1513401024085
 20
-1710.223665097437
 30
0.0
 11
841.7736887314632
 21
-1710.442256409464
 31
0.0
  0
LINE
  5
5899
330
1F
100
AcDbEntity
  8
SPOJOVACÍ
  6
Continuous
100
AcDbLine
 10
842.1513401024085
 20
-1710.223665097437
 30
0.0
 11
841.7736887314632
 21
-1709.846013724309
 31
0.0
  0
LINE
  5
589A
330
1F
100
AcDbEntity
  8
SPOJOVACÍ
  6
Continuous
100
AcDbLine
 10
837.3516329965596
 20
-1711.423591873899
 30
0.0
 11
837.7292843718706
 21
-1711.802173422729
 31
0.0
  0
LINE
  5
589B
330
1F
100
AcDbEntity
  8
SPOJOVACÍ
  6
Continuous
100
AcDbLine
 10
837.3516329965596
 20
-1711.423591873899
 30
0.0
 11
837.7292843718706
 21
-1711.205930737851
 31
0.0
  0
LINE
  5
589C
330
1F
100
AcDbEntity
  8
SPOJOVACÍ
  6
Continuous
100
AcDbLine
 10
837.3516329965596
 20
-1711.423591873899
 30
0.0
 11
842.1513401024085
 21
-1710.223665097437
 31
0.0
  0
LINE
  5
589D
330
1F
100
AcDbEntity
  8
SPOJOVACÍ
  6
Continuous
100
AcDbLine
 10
840.8556052215672
 20
-1695.287832344569
 30
0.0
 11
841.1011716330349
 21
-1697.258874855855
 31
0.0
  0
LINE
  5
589E
330
1F
100
AcDbEntity
  8
SPOJOVACÍ
  6
Continuous
100
AcDbLine
 10
840.5170212290059
 20
-1692.58102077867
 30
0.0
 11
840.7839816843434
 21
-1694.717634581524
 31
0.0
  0
LINE
  5
589F
330
1F
100
AcDbEntity
  8
SPOJOVACÍ
  6
Continuous
100
AcDbLine
 10
840.1775070678368
 20
-1689.863977279237
 30
0.0
 11
840.4453976961477
 21
-1692.008962664222
 31
0.0
  0
LINE
  5
58A0
330
1F
100
AcDbEntity
  8
SPOJOVACÍ
  6
Continuous
100
AcDbLine
 10
839.3654635955854
 20
-1689.547717508707
 30
0.0
 11
839.7514865494841
 21
-1686.458603690902
 31
0.0
  0
LINE
  5
58A1
330
1F
100
AcDbEntity
  8
SPOJOVACÍ
  6
Continuous
100
AcDbLine
 10
838.9980441579055
 20
-1692.488933374916
 30
0.0
 11
839.2882590030595
 21
-1690.16814476456
 31
0.0
  0
LINE
  5
58A2
330
1F
100
AcDbEntity
  8
SPOJOVACÍ
  6
Continuous
100
AcDbLine
 10
838.6287643655478
 20
-1695.441311350645
 30
0.0
 11
838.9189792150673
 21
-1693.11959256458
 31
0.0
  0
LINE
  5
58A3
330
1F
100
AcDbEntity
  8
SPOJOVACÍ
  6
Continuous
100
AcDbLine
 10
839.7514865494841
 20
-1686.458603690902
 30
0.0
 11
840.105883530613
 21
-1689.294709692171
 31
0.0
  0
LINE
  5
58A4
330
1F
100
AcDbEntity
  8
SPOJOVACÍ
  6
Continuous
100
AcDbLine
 10
838.4018014702988
 20
-1697.258874855855
 30
0.0
 11
838.5515597730218
 21
-1696.061738606498
 31
0.0
  0
LINE
  5
58A5
330
1F
100
AcDbEntity
  8
SPOJOVACÍ
  6
Continuous
100
AcDbLine
 10
841.1011716330349
 20
-1697.595598493739
 30
0.0
 11
841.1011716330349
 21
-1697.258874855855
 31
0.0
  0
LINE
  5
58A6
330
1F
100
AcDbEntity
  8
SPOJOVACÍ
  6
Continuous
100
AcDbLine
 10
841.1011716330349
 20
-1700.718198640352
 30
0.0
 11
841.1011716330349
 21
-1698.199282585323
 31
0.0
  0
LINE
  5
58A7
330
1F
100
AcDbEntity
  8
SPOJOVACÍ
  6
Continuous
100
AcDbLine
 10
838.4018014702988
 20
-1698.506240597744
 30
0.0
 11
838.4018014702988
 21
-1697.258874855855
 31
0.0
  0
LINE
  5
58A8
330
1F
100
AcDbEntity
  8
SPOJOVACÍ
  6
Continuous
100
AcDbLine
 10
838.4018014702988
 20
-1701.620469162226
 30
0.0
 11
838.4018014702988
 21
-1699.102483282899
 31
0.0
  0
LINE
  5
58A9
330
1F
100
AcDbEntity
  8
SPOJOVACÍ
  6
Continuous
100
AcDbLine
 10
841.1011716330349
 20
-1703.839868610994
 30
0.0
 11
841.1011716330349
 21
-1701.319092204284
 31
0.0
  0
LINE
  5
58AA
330
1F
100
AcDbEntity
  8
SPOJOVACÍ
  6
Continuous
100
AcDbLine
 10
841.1011716330349
 20
-1706.962468757337
 30
0.0
 11
841.1011716330349
 21
-1704.434250944468
 31
0.0
  0
LINE
  5
58AB
330
1F
100
AcDbEntity
  8
SPOJOVACÍ
  6
Continuous
100
AcDbLine
 10
841.1011716330349
 20
-1710.077627497521
 30
0.0
 11
841.1011716330349
 21
-1707.558711442492
 31
0.0
  0
LINE
  5
58AC
330
1F
100
AcDbEntity
  8
SPOJOVACÍ
  6
Continuous
100
AcDbLine
 10
838.4018014702988
 20
-1704.753301242381
 30
0.0
 11
838.4018014702988
 21
-1702.225083429511
 31
0.0
  0
LINE
  5
58AD
330
1F
100
AcDbEntity
  8
SPOJOVACÍ
  6
Continuous
100
AcDbLine
 10
838.4018014702988
 20
-1707.868459982564
 30
0.0
 11
838.4018014702988
 21
-1705.347683575855
 31
0.0
  0
LINE
  5
58AE
330
1F
100
AcDbEntity
  8
SPOJOVACÍ
  6
Continuous
100
AcDbLine
 10
838.4018014702988
 20
-1710.991060128908
 30
0.0
 11
838.4018014702988
 21
-1708.472144073879
 31
0.0
  0
LINE
  5
58AF
330
1F
100
AcDbEntity
  8
SPOJOVACÍ
  6
Continuous
100
AcDbLine
 10
838.4018014702988
 20
-1715.624265767764
 30
0.0
 11
838.4018014702988
 21
-1711.586372638084
 31
0.0
  0
LINE
  5
58B0
330
1F
100
AcDbEntity
  8
SPOJOVACÍ
  6
Continuous
100
AcDbLine
 10
841.1011716330349
 20
-1715.624265767764
 30
0.0
 11
841.1011716330349
 21
-1710.681311588836
 31
0.0
  0
LINE
  5
58B1
330
1F
100
AcDbEntity
  8
SPOJOVACÍ
  6
Continuous
100
AcDbLine
 10
838.3357589883772
 20
-1716.411194490887
 30
0.0
 11
838.4018014702988
 21
-1715.624265767764
 31
0.0
  0
LINE
  5
58B2
330
1F
100
AcDbEntity
  8
SPOJOVACÍ
  6
Continuous
100
AcDbLine
 10
841.1011716330349
 20
-1715.624265767764
 30
0.0
 11
841.3281345239184
 21
-1717.147893721194
 31
0.0
  0
LINE
  5
58B3
330
1F
100
AcDbEntity
  8
SPOJOVACÍ
100
AcDbLine
 10
783.1450593708823
 20
-1650.47344097256
 30
0.0
 11
783.1450593708823
 21
-1680.139941861602
 31
0.0
  0
LINE
  5
58B4
330
1F
100
AcDbEntity
  8
SPOJOVACÍ
100
AcDbLine
 10
784.6450593708823
 20
-1648.97344097256
 30
0.0
 11
784.6450593708823
 21
-1680.139941861602
 31
0.0
  0
LINE
  5
58B5
330
1F
100
AcDbEntity
  8
SPOJOVACÍ
  6
Continuous
100
AcDbLine
 10
782.271028437356
 20
-1663.137217498268
 30
0.0
 11
783.0537290092861
 21
-1662.516122283029
 31
0.0
  0
LINE
  5
58B6
330
1F
100
AcDbEntity
  8
SPOJOVACÍ
  6
Continuous
100
AcDbLine
 10
781.3544607413232
 20
-1663.534597834695
 30
0.0
 11
782.271028437356
 21
-1663.137217498268
 31
0.0
  0
LINE
  5
58B7
330
1F
100
AcDbEntity
  8
SPOJOVACÍ
  6
Continuous
100
AcDbLine
 10
780.3667384479513
 20
-1663.681731067968
 30
0.0
 11
781.3544607413232
 21
-1663.534597834695
 31
0.0
  0
LINE
  5
58B8
330
1F
100
AcDbEntity
  8
SPOJOVACÍ
  6
Continuous
100
AcDbLine
 10
784.6450593708823
 20
-1661.250414655696
 30
0.0
 11
783.8671828393298
 21
-1661.250414655696
 31
0.0
  0
LINE
  5
58B9
330
1F
100
AcDbEntity
  8
SPOJOVACÍ
  6
Continuous
100
AcDbLine
 10
784.6450593708823
 20
-1667.862968178465
 30
0.0
 11
784.6450593708823
 21
-1661.250414655696
 31
0.0
  0
LINE
  5
58BA
330
1F
100
AcDbEntity
  8
SPOJOVACÍ
  6
Continuous
100
AcDbLine
 10
784.6450593708823
 20
-1667.862968178465
 30
0.0
 11
783.8671828393298
 21
-1667.862968178465
 31
0.0
  0
LINE
  5
58BB
330
1F
100
AcDbEntity
  8
SPOJOVACÍ
  6
Continuous
100
AcDbLine
 10
783.8671828393298
 20
-1667.862968178465
 30
0.0
 11
783.8671828393298
 21
-1661.250414655696
 31
0.0
  0
LINE
  5
58BC
330
1F
100
AcDbEntity
  8
SPOJOVACÍ
  6
Continuous
100
AcDbLine
 10
783.6488950066004
 20
-1661.714125548733
 30
0.0
 11
783.8671828393298
 21
-1661.250414655696
 31
0.0
  0
LINE
  5
58BD
330
1F
100
AcDbEntity
  8
SPOJOVACÍ
  6
Continuous
100
AcDbLine
 10
783.0537290092861
 20
-1662.516122283029
 30
0.0
 11
783.6488950066004
 21
-1661.714125548733
 31
0.0
  0
LINE
  5
58BE
330
1F
100
AcDbEntity
  8
SPOJOVACÍ
  6
Continuous
100
AcDbLine
 10
780.8768807312981
 20
-1665.47446512312
 30
0.0
 11
780.3667384479513
 21
-1665.431651763365
 31
0.0
  0
LINE
  5
58BF
330
1F
100
AcDbEntity
  8
SPOJOVACÍ
  6
Continuous
100
AcDbLine
 10
781.8368647919078
 20
-1665.751847451019
 30
0.0
 11
780.8768807312981
 21
-1665.47446512312
 31
0.0
  0
LINE
  5
58C0
330
1F
100
AcDbEntity
  8
SPOJOVACÍ
  6
Continuous
100
AcDbLine
 10
782.6919259713495
 20
-1666.268019783847
 30
0.0
 11
781.8368647919078
 21
-1665.751847451019
 31
0.0
  0
LINE
  5
58C1
330
1F
100
AcDbEntity
  8
SPOJOVACÍ
  6
Continuous
100
AcDbLine
 10
783.3847787889271
 20
-1666.988007829352
 30
0.0
 11
782.6919259713495
 21
-1666.268019783847
 31
0.0
  0
LINE
  5
58C2
330
1F
100
AcDbEntity
  8
SPOJOVACÍ
  6
Continuous
100
AcDbLine
 10
783.8671828393298
 20
-1667.862968178465
 30
0.0
 11
783.3847787889271
 21
-1666.988007829352
 31
0.0
  0
LINE
  5
58C3
330
1F
100
AcDbEntity
  8
SPOJOVACÍ
  6
Continuous
100
AcDbLine
 10
780.3667384479513
 20
-1663.681731067968
 30
0.0
 11
777.1623695423795
 21
-1663.681731067968
 31
0.0
  0
LINE
  5
58C4
330
1F
100
AcDbEntity
  8
SPOJOVACÍ
  6
Continuous
100
AcDbLine
 10
780.3667384479513
 20
-1665.431651763365
 30
0.0
 11
777.7490934687766
 21
-1665.431651763365
 31
0.0
  0
LINE
  5
58C5
330
1F
100
AcDbEntity
  8
SPOJOVACÍ
  6
Continuous
100
AcDbLine
 10
777.3631702284501
 20
-1665.431651763365
 30
0.0
 11
775.7302325174633
 21
-1665.431651763365
 31
0.0
  0
LINE
  5
58C6
330
1F
100
AcDbEntity
  8
SPOJOVACÍ
  6
Continuous
100
AcDbLine
 10
775.3388822315782
 20
-1665.431651763365
 30
0.0
 11
773.7047385104042
 21
-1665.431651763365
 31
0.0
  0
LINE
  5
58C7
330
1F
100
AcDbEntity
  8
SPOJOVACÍ
  6
Continuous
100
AcDbLine
 10
773.319418275084
 20
-1665.431651763365
 30
0.0
 11
771.6804505135323
 21
-1665.431651763365
 31
0.0
  0
LINE
  5
58C8
330
1F
100
AcDbEntity
  8
SPOJOVACÍ
  6
Continuous
100
AcDbLine
 10
776.7710192565019
 20
-1663.681731067968
 30
0.0
 11
775.1380815455076
 21
-1663.681731067968
 31
0.0
  0
LINE
  5
58C9
330
1F
100
AcDbEntity
  8
SPOJOVACÍ
  6
Continuous
100
AcDbLine
 10
774.7515553000075
 20
-1663.681731067968
 30
0.0
 11
773.1125875384559
 21
-1663.681731067968
 31
0.0
  0
LINE
  5
58CA
330
1F
100
AcDbEntity
  8
SPOJOVACÍ
  6
Continuous
100
AcDbLine
 10
772.7272673031357
 20
-1663.681731067968
 30
0.0
 11
771.0931235819543
 21
-1663.681731067968
 31
0.0
  0
LINE
  5
58CB
330
1F
100
AcDbEntity
  8
SPOJOVACÍ
  6
Continuous
100
AcDbLine
 10
771.2884972224883
 20
-1665.431651763365
 30
0.0
 11
769.6561625164859
 21
-1665.431651763365
 31
0.0
  0
LINE
  5
58CC
330
1F
100
AcDbEntity
  8
SPOJOVACÍ
  6
Continuous
100
AcDbLine
 10
769.2696362709857
 20
-1665.431651763365
 30
0.0
 11
768.4610064814942
 21
-1665.431651763365
 31
0.0
  0
LINE
  5
58CD
330
1F
100
AcDbEntity
  8
SPOJOVACÍ
  6
Continuous
100
AcDbLine
 10
770.7035823112628
 20
-1663.681731067968
 30
0.0
 11
769.0706446002759
 21
-1663.681731067968
 31
0.0
  0
LINE
  5
58CE
330
1F
100
AcDbEntity
  8
SPOJOVACÍ
  6
Continuous
100
AcDbLine
 10
768.6792943142236
 20
-1663.681731067968
 30
0.0
 11
768.4610064814942
 21
-1663.681731067968
 31
0.0
  0
LINE
  5
58CF
330
1F
100
AcDbEntity
  8
SPOJOVACÍ
  6
Continuous
100
AcDbLine
 10
768.4610064814942
 20
-1665.431651763365
 30
0.0
 11
767.6849389651206
 21
-1665.334567948458
 31
0.0
  0
LINE
  5
58D0
330
1F
100
AcDbEntity
  8
SPOJOVACÍ
  6
Continuous
100
AcDbLine
 10
761.4595146933888
 20
-1664.556691417081
 30
0.0
 11
763.2980771308312
 21
-1664.326946486125
 31
0.0
  0
LINE
  5
58D1
330
1F
100
AcDbEntity
  8
SPOJOVACÍ
  6
Continuous
100
AcDbLine
 10
767.2827345879659
 20
-1665.284518527261
 30
0.0
 11
765.7776339505317
 21
-1665.096380946763
 31
0.0
  0
LINE
  5
58D2
330
1F
100
AcDbEntity
  8
SPOJOVACÍ
  6
Continuous
100
AcDbLine
 10
765.3687965176459
 20
-1665.045125516269
 30
0.0
 11
763.8642988852033
 21
-1664.856987938602
 31
0.0
  0
LINE
  5
58D3
330
1F
100
AcDbEntity
  8
SPOJOVACÍ
  6
Continuous
100
AcDbLine
 10
763.4620945080487
 20
-1664.806938517405
 30
0.0
 11
761.4595146933888
 21
-1664.556691417081
 31
0.0
  0
LINE
  5
58D4
330
1F
100
AcDbEntity
  8
SPOJOVACÍ
  6
Continuous
100
AcDbLine
 10
763.6671162294978
 20
-1664.280515095649
 30
0.0
 11
765.0576459050235
 21
-1664.106849638034
 31
0.0
  0
LINE
  5
58D5
330
1F
100
AcDbEntity
  8
SPOJOVACÍ
  6
Continuous
100
AcDbLine
 10
765.4284940188763
 20
-1664.060418250388
 30
0.0
 11
766.8135966488435
 21
-1663.887355796006
 31
0.0
  0
LINE
  5
58D6
330
1F
100
AcDbEntity
  8
SPOJOVACÍ
  6
Continuous
100
AcDbLine
 10
767.1832387527055
 20
-1663.840924405529
 30
0.0
 11
768.4610064814942
 21
-1663.681731067968
 31
0.0
  0
LINE
  5
58D7
330
1F
100
AcDbEntity
  8
SPOJOVACÍ
  6
Continuous
100
AcDbLine
 10
777.6435675827769
 20
-1666.112444479836
 30
0.0
 11
776.8656910513991
 21
-1663.000938354326
 31
0.0
  0
LINE
  5
58D8
330
1F
100
AcDbEntity
  8
SPOJOVACÍ
  6
Continuous
100
AcDbLine
 10
777.6435675827769
 20
-1666.112444479836
 30
0.0
 11
777.5024643981114
 21
-1665.867624422762
 31
0.0
  0
LINE
  5
58D9
330
1F
100
AcDbEntity
  8
SPOJOVACÍ
  6
Continuous
100
AcDbLine
 10
777.6435675827769
 20
-1666.112444479836
 30
0.0
 11
777.8889906434296
 21
-1665.867624422762
 31
0.0
  0
LINE
  5
58DA
330
1F
100
AcDbEntity
  8
SPOJOVACÍ
  6
Continuous
100
AcDbLine
 10
776.8656910513991
 20
-1663.000938354326
 30
0.0
 11
776.6208709957382
 21
-1663.245758408569
 31
0.0
  0
LINE
  5
58DB
330
1F
100
AcDbEntity
  8
SPOJOVACÍ
  6
Continuous
100
AcDbLine
 10
776.8656910513991
 20
-1663.000938354326
 30
0.0
 11
777.0073972412456
 21
-1663.245758408569
 31
0.0
  0
LINE
  5
58DC
330
1F
100
AcDbEntity
  8
SPOJOVACÍ
  6
Continuous
100
AcDbLine
 10
777.5024643981114
 20
-1665.867624422762
 30
0.0
 11
776.6208709957382
 21
-1663.245758408569
 31
0.0
  0
LINE
  5
58DD
330
1F
100
AcDbEntity
  8
SPOJOVACÍ
  6
Continuous
100
AcDbLine
 10
777.8889906434296
 20
-1665.867624422762
 30
0.0
 11
777.0073972412456
 21
-1663.245758408569
 31
0.0
  0
LINE
  5
58DE
330
1F
100
AcDbEntity
  8
SPOJOVACÍ
  6
Continuous
100
AcDbLine
 10
775.6210886010912
 20
-1666.112444479836
 30
0.0
 11
774.8432120695315
 21
-1663.000938354326
 31
0.0
  0
LINE
  5
58DF
330
1F
100
AcDbEntity
  8
SPOJOVACÍ
  6
Continuous
100
AcDbLine
 10
775.6210886010912
 20
-1666.112444479836
 30
0.0
 11
775.4793824112448
 21
-1665.867624422762
 31
0.0
  0
LINE
  5
58E0
330
1F
100
AcDbEntity
  8
SPOJOVACÍ
  6
Continuous
100
AcDbLine
 10
775.6210886010912
 20
-1666.112444479836
 30
0.0
 11
775.8659086567522
 21
-1665.867624422762
 31
0.0
  0
LINE
  5
58E1
330
1F
100
AcDbEntity
  8
SPOJOVACÍ
  6
Continuous
100
AcDbLine
 10
774.8432120695315
 20
-1663.000938354326
 30
0.0
 11
774.5983920140597
 21
-1663.245758408569
 31
0.0
  0
LINE
  5
58E2
330
1F
100
AcDbEntity
  8
SPOJOVACÍ
  6
Continuous
100
AcDbLine
 10
774.8432120695315
 20
-1663.000938354326
 30
0.0
 11
774.9849182593925
 21
-1663.245758408569
 31
0.0
  0
LINE
  5
58E3
330
1F
100
AcDbEntity
  8
SPOJOVACÍ
  6
Continuous
100
AcDbLine
 10
775.4793824112448
 20
-1665.867624422762
 30
0.0
 11
774.5983920140597
 21
-1663.245758408569
 31
0.0
  0
LINE
  5
58E4
330
1F
100
AcDbEntity
  8
SPOJOVACÍ
  6
Continuous
100
AcDbLine
 10
775.8659086567522
 20
-1665.867624422762
 30
0.0
 11
774.9849182593925
 21
-1663.245758408569
 31
0.0
  0
LINE
  5
58E5
330
1F
100
AcDbEntity
  8
SPOJOVACÍ
  6
Continuous
100
AcDbLine
 10
767.5583079019225
 20
-1665.947824096192
 30
0.0
 11
767.4166017120687
 21
-1665.702401035885
 31
0.0
  0
LINE
  5
58E6
330
1F
100
AcDbEntity
  8
SPOJOVACÍ
  6
Continuous
100
AcDbLine
 10
767.5583079019225
 20
-1665.947824096192
 30
0.0
 11
767.8031279575762
 21
-1665.702401035885
 31
0.0
  0
LINE
  5
58E7
330
1F
100
AcDbEntity
  8
SPOJOVACÍ
  6
Continuous
100
AcDbLine
 10
766.9275646059422
 20
-1663.273496642208
 30
0.0
 11
766.6821415450931
 21
-1663.518316696451
 31
0.0
  0
LINE
  5
58E8
330
1F
100
AcDbEntity
  8
SPOJOVACÍ
  6
Continuous
100
AcDbLine
 10
766.9275646059422
 20
-1663.273496642208
 30
0.0
 11
767.0686677906078
 21
-1663.518316696451
 31
0.0
  0
LINE
  5
58E9
330
1F
100
AcDbEntity
  8
SPOJOVACÍ
  6
Continuous
100
AcDbLine
 10
767.4166017120687
 20
-1665.702401035885
 30
0.0
 11
766.6821415450931
 21
-1663.518316696451
 31
0.0
  0
LINE
  5
58EA
330
1F
100
AcDbEntity
  8
SPOJOVACÍ
  6
Continuous
100
AcDbLine
 10
767.8031279575762
 20
-1665.702401035885
 30
0.0
 11
767.0686677906078
 21
-1663.518316696451
 31
0.0
  0
LINE
  5
58EB
330
1F
100
AcDbEntity
  8
SPOJOVACÍ
  6
Continuous
100
AcDbLine
 10
767.5583079019225
 20
-1665.947824096192
 30
0.0
 11
766.9275646059422
 21
-1663.273496642208
 31
0.0
  0
LINE
  5
58EC
330
1F
100
AcDbEntity
  8
SPOJOVACÍ
  6
Continuous
100
AcDbLine
 10
765.6039684922025
 20
-1665.581800024125
 30
0.0
 11
765.4628653075369
 21
-1665.336979967053
 31
0.0
  0
LINE
  5
58ED
330
1F
100
AcDbEntity
  8
SPOJOVACÍ
  6
Continuous
100
AcDbLine
 10
765.6039684922025
 20
-1665.581800024125
 30
0.0
 11
765.8493915530443
 21
-1665.336979967053
 31
0.0
  0
LINE
  5
58EE
330
1F
100
AcDbEntity
  8
SPOJOVACÍ
  6
Continuous
100
AcDbLine
 10
765.1933220443124
 20
-1663.56173306227
 30
0.0
 11
764.9478989836453
 21
-1663.806553116512
 31
0.0
  0
LINE
  5
58EF
330
1F
100
AcDbEntity
  8
SPOJOVACÍ
  6
Continuous
100
AcDbLine
 10
765.1933220443124
 20
-1663.56173306227
 30
0.0
 11
765.334425228978
 21
-1663.806553116512
 31
0.0
  0
LINE
  5
58F0
330
1F
100
AcDbEntity
  8
SPOJOVACÍ
  6
Continuous
100
AcDbLine
 10
765.4628653075369
 20
-1665.336979967053
 30
0.0
 11
764.9478989836453
 21
-1663.806553116512
 31
0.0
  0
LINE
  5
58F1
330
1F
100
AcDbEntity
  8
SPOJOVACÍ
  6
Continuous
100
AcDbLine
 10
765.8493915530443
 20
-1665.336979967053
 30
0.0
 11
765.334425228978
 21
-1663.806553116512
 31
0.0
  0
LINE
  5
58F2
330
1F
100
AcDbEntity
  8
SPOJOVACÍ
  6
Continuous
100
AcDbLine
 10
765.6039684922025
 20
-1665.581800024125
 30
0.0
 11
765.1933220443124
 21
-1663.56173306227
 31
0.0
  0
LINE
  5
58F3
330
1F
100
AcDbEntity
  8
SPOJOVACÍ
  6
Continuous
100
AcDbLine
 10
763.6502320876634
 20
-1665.215775949227
 30
0.0
 11
763.5085258978242
 21
-1664.970955894985
 31
0.0
  0
LINE
  5
58F4
330
1F
100
AcDbEntity
  8
SPOJOVACÍ
  6
Continuous
100
AcDbLine
 10
763.6502320876634
 20
-1665.215775949227
 30
0.0
 11
763.8950521433244
 21
-1664.970955894985
 31
0.0
  0
LINE
  5
58F5
330
1F
100
AcDbEntity
  8
SPOJOVACÍ
  6
Continuous
100
AcDbLine
 10
763.4488283965938
 20
-1663.819216224035
 30
0.0
 11
763.2034053359339
 21
-1664.064036278278
 31
0.0
  0
LINE
  5
58F6
330
1F
100
AcDbEntity
  8
SPOJOVACÍ
  6
Continuous
100
AcDbLine
 10
763.4488283965938
 20
-1663.819216224035
 30
0.0
 11
763.5899315814267
 21
-1664.064036278278
 31
0.0
  0
LINE
  5
58F7
330
1F
100
AcDbEntity
  8
SPOJOVACÍ
  6
Continuous
100
AcDbLine
 10
763.5085258978242
 20
-1664.970955894985
 30
0.0
 11
763.2034053359339
 21
-1664.064036278278
 31
0.0
  0
LINE
  5
58F8
330
1F
100
AcDbEntity
  8
SPOJOVACÍ
  6
Continuous
100
AcDbLine
 10
763.8950521433244
 20
-1664.970955894985
 30
0.0
 11
763.5899315814267
 21
-1664.064036278278
 31
0.0
  0
LINE
  5
58F9
330
1F
100
AcDbEntity
  8
SPOJOVACÍ
  6
Continuous
100
AcDbLine
 10
763.6502320876634
 20
-1665.215775949227
 30
0.0
 11
763.4488283965938
 21
-1663.819216224035
 31
0.0
  0
LINE
  5
58FA
330
1F
100
AcDbEntity
  8
SPOJOVACÍ
  6
Continuous
100
AcDbLine
 10
773.5986096192309
 20
-1666.112444479836
 30
0.0
 11
772.8207330878531
 21
-1663.000938354326
 31
0.0
  0
LINE
  5
58FB
330
1F
100
AcDbEntity
  8
SPOJOVACÍ
  6
Continuous
100
AcDbLine
 10
773.5986096192309
 20
-1666.112444479836
 30
0.0
 11
773.4569034293772
 21
-1665.867624422762
 31
0.0
  0
LINE
  5
58FC
330
1F
100
AcDbEntity
  8
SPOJOVACÍ
  6
Continuous
100
AcDbLine
 10
773.5986096192309
 20
-1666.112444479836
 30
0.0
 11
773.8434296748846
 21
-1665.867624422762
 31
0.0
  0
LINE
  5
58FD
330
1F
100
AcDbEntity
  8
SPOJOVACÍ
  6
Continuous
100
AcDbLine
 10
772.8207330878531
 20
-1663.000938354326
 30
0.0
 11
772.5753100271859
 21
-1663.245758408569
 31
0.0
  0
LINE
  5
58FE
330
1F
100
AcDbEntity
  8
SPOJOVACÍ
  6
Continuous
100
AcDbLine
 10
772.8207330878531
 20
-1663.000938354326
 30
0.0
 11
772.9618362727006
 21
-1663.245758408569
 31
0.0
  0
LINE
  5
58FF
330
1F
100
AcDbEntity
  8
SPOJOVACÍ
  6
Continuous
100
AcDbLine
 10
773.4569034293772
 20
-1665.867624422762
 30
0.0
 11
772.5753100271859
 21
-1663.245758408569
 31
0.0
  0
LINE
  5
5900
330
1F
100
AcDbEntity
  8
SPOJOVACÍ
  6
Continuous
100
AcDbLine
 10
773.8434296748846
 20
-1665.867624422762
 30
0.0
 11
772.9618362727006
 21
-1663.245758408569
 31
0.0
  0
LINE
  5
5901
330
1F
100
AcDbEntity
  8
SPOJOVACÍ
  6
Continuous
100
AcDbLine
 10
771.5761306375379
 20
-1666.112444479836
 30
0.0
 11
770.7982541061674
 21
-1663.000938354326
 31
0.0
  0
LINE
  5
5902
330
1F
100
AcDbEntity
  8
SPOJOVACÍ
  6
Continuous
100
AcDbLine
 10
771.5761306375379
 20
-1666.112444479836
 30
0.0
 11
771.4344244476988
 21
-1665.867624422762
 31
0.0
  0
LINE
  5
5903
330
1F
100
AcDbEntity
  8
SPOJOVACÍ
  6
Continuous
100
AcDbLine
 10
771.5761306375379
 20
-1666.112444479836
 30
0.0
 11
771.8209506931989
 21
-1665.867624422762
 31
0.0
  0
LINE
  5
5904
330
1F
100
AcDbEntity
  8
SPOJOVACÍ
  6
Continuous
100
AcDbLine
 10
770.7982541061674
 20
-1663.000938354326
 30
0.0
 11
770.5528310455002
 21
-1663.245758408569
 31
0.0
  0
LINE
  5
5905
330
1F
100
AcDbEntity
  8
SPOJOVACÍ
  6
Continuous
100
AcDbLine
 10
770.7982541061674
 20
-1663.000938354326
 30
0.0
 11
770.939357290833
 21
-1663.245758408569
 31
0.0
  0
LINE
  5
5906
330
1F
100
AcDbEntity
  8
SPOJOVACÍ
  6
Continuous
100
AcDbLine
 10
771.4344244476988
 20
-1665.867624422762
 30
0.0
 11
770.5528310455002
 21
-1663.245758408569
 31
0.0
  0
LINE
  5
5907
330
1F
100
AcDbEntity
  8
SPOJOVACÍ
  6
Continuous
100
AcDbLine
 10
771.8209506931989
 20
-1665.867624422762
 30
0.0
 11
770.939357290833
 21
-1663.245758408569
 31
0.0
  0
LINE
  5
5908
330
1F
100
AcDbEntity
  8
SPOJOVACÍ
  6
Continuous
100
AcDbLine
 10
769.5530486506713
 20
-1666.112444479836
 30
0.0
 11
768.7751721192935
 21
-1663.000938354326
 31
0.0
  0
LINE
  5
5909
330
1F
100
AcDbEntity
  8
SPOJOVACÍ
  6
Continuous
100
AcDbLine
 10
769.5530486506713
 20
-1666.112444479836
 30
0.0
 11
769.4119454660131
 21
-1665.867624422762
 31
0.0
  0
LINE
  5
590A
330
1F
100
AcDbEntity
  8
SPOJOVACÍ
  6
Continuous
100
AcDbLine
 10
769.5530486506713
 20
-1666.112444479836
 30
0.0
 11
769.7984717115205
 21
-1665.867624422762
 31
0.0
  0
LINE
  5
590B
330
1F
100
AcDbEntity
  8
SPOJOVACÍ
  6
Continuous
100
AcDbLine
 10
768.7751721192935
 20
-1663.000938354326
 30
0.0
 11
768.5303520636325
 21
-1663.245758408569
 31
0.0
  0
LINE
  5
590C
330
1F
100
AcDbEntity
  8
SPOJOVACÍ
  6
Continuous
100
AcDbLine
 10
768.7751721192935
 20
-1663.000938354326
 30
0.0
 11
768.9168783091545
 21
-1663.245758408569
 31
0.0
  0
LINE
  5
590D
330
1F
100
AcDbEntity
  8
SPOJOVACÍ
  6
Continuous
100
AcDbLine
 10
769.4119454660131
 20
-1665.867624422762
 30
0.0
 11
768.5303520636325
 21
-1663.245758408569
 31
0.0
  0
LINE
  5
590E
330
1F
100
AcDbEntity
  8
SPOJOVACÍ
  6
Continuous
100
AcDbLine
 10
769.7984717115205
 20
-1665.867624422762
 30
0.0
 11
768.9168783091545
 21
-1663.245758408569
 31
0.0
  0
LINE
  5
590F
330
1F
100
AcDbEntity
  8
NOSNÉ KONSTRUKCE
100
AcDbLine
 10
765.9323599854642
 20
-1648.533470246791
 30
0.0
 11
765.9323599854642
 21
-1646.533470246791
 31
0.0
  0
INSERT
  5
5910
330
1F
100
AcDbEntity
  8
POPIS
100
AcDbBlockReference
  2
E_PUNKT
 10
767.0540722977266
 20
-1676.166343614746
 30
0.0
  0
LWPOLYLINE
  5
5911
330
1F
100
AcDbEntity
  8
STAVBA OBRYS
100
AcDbPolyline
 90
       10
 70
     0
 43
0.0
 10
702.6053505206464
 20
-1506.821737388656
 42
0.0168162630274194
 10
702.4433198257711
 20
-1504.792491606113
 42
0.0575155827655532
 10
701.6272810893524
 20
-1501.072942013252
 42
0.0310289133982999
 10
698.0239194755658
 20
-1492.378908983679
 42
0.0882970623535771
 10
696.0592531714455
 20
-1489.690466122719
 42
0.0171636441953577
 10
692.6832162972232
 20
-1486.673765296425
 42
0.0157521173632038
 10
688.7965904927796
 20
-1483.635970033416
 42
0.0073640874174249
 10
683.2362112651926
 20
-1479.689888322533
 42
0.0194185739168057
 10
681.0497592815764
 20
-1478.308005523396
 42
0.0567960585128809
 10
673.7546098902921
 20
-1475.125768476945
 42
0.0229547400386702
  0
LWPOLYLINE
  5
5912
330
1F
100
AcDbEntity
  8
STAVBA OBRYS
100
AcDbPolyline
 90
        8
 70
     0
 43
0.0
 10
713.2458215888573
 20
-1506.821737388656
 42
0.0120721047703132
 10
713.1630423608103
 20
-1504.741071622164
 42
0.044358077361292
 10
712.6882890791994
 20
-1501.506111600063
 42
0.0188067511131767
 10
710.2645009411453
 20
-1492.815436589695
 42
0.0457786284636091
 10
708.8148734736051
 20
-1489.397104130239
 42
0.0295006114745606
 10
705.9156009284443
 20
-1484.684825074157
 42
0.0258674098621065
 10
702.0363905516887
 20
-1479.709888979652
 42
0.0199858822254975
 10
700.4212373657379
 20
-1477.290598887484
 42
0.0199858822254975
  0
LWPOLYLINE
  5
5913
330
1F
100
AcDbEntity
  8
STAVBA OBRYS
100
AcDbPolyline
 90
        6
 70
     0
 43
0.0
 10
723.5948800449068
 20
-1506.821737388656
 42
0.0128837512779302
 10
723.2531296926417
 20
-1502.82193960256
 42
0.0351641677647434
 10
722.4998180268112
 20
-1498.497488257354
 42
0.0187319685742942
 10
718.4389989696164
 20
-1484.387603446783
 42
0.0582629403736403
 10
716.4475991279277
 20
-1480.091802408064
 42
0.0132943096135683
 10
714.5110937428019
 20
-1477.117034578522
 42
0.0132943096135683
  0
LWPOLYLINE
  5
5914
330
1F
100
AcDbEntity
  8
STAVBA OBRYS
100
AcDbPolyline
 90
        7
 70
     0
 43
0.0
 10
679.1723320659175
 20
-1506.821737388656
 42
0.0203924744732807
 10
678.0898312846211
 20
-1505.605981353671
 42
0.0273961979096945
 10
677.0699940643926
 20
-1504.66016970484
 42
0.0243529190212958
 10
675.674249473489
 20
-1503.611658491238
 42
0.0398020282482987
 10
674.744299228415
 20
-1503.084103999102
 42
0.104168275620852
 10
674.2806058648084
 20
-1502.97608424689
 42
0.007272956268647
 10
673.7546098902921
 20
-1502.953940225336
 42
0.007272956268647
  0
POLYLINE
  5
5915
330
1F
100
AcDbEntity
  8
STAVBA OBRYS
100
AcDb2dPolyline
 66
     1
 10
0.0
 20
0.0
 30
0.0
  0
VERTEX
  5
5916
330
5915
100
AcDbEntity
  8
STAVBA OBRYS
100
AcDbVertex
100
AcDb2dVertex
 10
685.5919556673352
 20
-1506.821737388654
 30
0.0
 42
0.0064239028828688
  0
VERTEX
  5
5917
330
5915
100
AcDbEntity
  8
STAVBA OBRYS
100
AcDbVertex
100
AcDb2dVertex
 10
685.5453135391171
 20
-1506.558800997434
 30
0.0
 42
0.0832048017309575
  0
VERTEX
  5
5918
330
5915
100
AcDbEntity
  8
STAVBA OBRYS
100
AcDbVertex
100
AcDb2dVertex
 10
684.6042944159007
 20
-1503.762544701849
 30
0.0
 42
0.0336767237692336
  0
VERTEX
  5
5919
330
5915
100
AcDbEntity
  8
STAVBA OBRYS
100
AcDbVertex
100
AcDb2dVertex
 10
682.560914545199
 20
-1500.488615278496
 30
0.0
 42
0.0844635135812105
  0
VERTEX
  5
591A
330
5915
100
AcDbEntity
  8
STAVBA OBRYS
100
AcDbVertex
100
AcDb2dVertex
 10
681.4571428333247
 20
-1499.403309352501
 30
0.0
 42
0.0495829410719565
  0
VERTEX
  5
591B
330
5915
100
AcDbEntity
  8
STAVBA OBRYS
100
AcDbVertex
100
AcDb2dVertex
 10
679.3587287084983
 20
-1498.231329943726
 30
0.0
 42
0.0322692699774654
  0
VERTEX
  5
591C
330
5915
100
AcDbEntity
  8
STAVBA OBRYS
100
AcDbVertex
100
AcDb2dVertex
 10
675.8891036911909
 20
-1496.981501742046
 30
0.0
 42
0.0276160659512937
  0
VERTEX
  5
591D
330
5915
100
AcDbEntity
  8
STAVBA OBRYS
100
AcDbVertex
100
AcDb2dVertex
 10
674.8624119652476
 20
-1496.745419227312
 30
0.0
 42
0.0126891984598699
  0
VERTEX
  5
591E
330
5915
100
AcDbEntity
  8
STAVBA OBRYS
100
AcDbVertex
100
AcDb2dVertex
 10
673.7546098902921
 20
-1496.583176359862
 30
0.0
  0
SEQEND
  5
591F
330
5915
100
AcDbEntity
  8
STAVBA OBRYS
  0
POLYLINE
  5
5920
330
1F
100
AcDbEntity
  8
STAVBA OBRYS
100
AcDb2dPolyline
 66
     1
 10
0.0
 20
0.0
 30
0.0
  0
VERTEX
  5
5921
330
5920
100
AcDbEntity
  8
STAVBA OBRYS
100
AcDbVertex
100
AcDb2dVertex
 10
694.2656168922212
 20
-1506.821737388654
 30
0.0
 42
0.0072417954699014
  0
VERTEX
  5
5922
330
5920
100
AcDbEntity
  8
STAVBA OBRYS
100
AcDbVertex
100
AcDb2dVertex
 10
694.198932450813
 20
-1506.328051135126
 30
0.0
 42
0.0707158694326265
  0
VERTEX
  5
5923
330
5920
100
AcDbEntity
  8
STAVBA OBRYS
100
AcDbVertex
100
AcDb2dVertex
 10
693.5615806311061
 20
-1504.004726992012
 30
0.0
 42
0.033952657250207
  0
VERTEX
  5
5924
330
5920
100
AcDbEntity
  8
STAVBA OBRYS
100
AcDbVertex
100
AcDb2dVertex
 10
690.8631936238188
 20
-1498.781081721805
 30
0.0
 42
0.0571374688189033
  0
VERTEX
  5
5925
330
5920
100
AcDbEntity
  8
STAVBA OBRYS
100
AcDbVertex
100
AcDb2dVertex
 10
688.7198055119906
 20
-1496.01277258138
 30
0.0
 42
0.0274923553235744
  0
VERTEX
  5
5926
330
5920
100
AcDbEntity
  8
STAVBA OBRYS
100
AcDbVertex
100
AcDb2dVertex
 10
685.6030386353332
 20
-1493.150682193619
 30
0.0
 42
0.0255412025538677
  0
VERTEX
  5
5927
330
5920
100
AcDbEntity
  8
STAVBA OBRYS
100
AcDbVertex
100
AcDb2dVertex
 10
681.9413225900744
 20
-1490.442625781195
 30
0.0
 42
0.0272796991712396
  0
VERTEX
  5
5928
330
5920
100
AcDbEntity
  8
STAVBA OBRYS
100
AcDbVertex
100
AcDb2dVertex
 10
677.0057236062521
 20
-1487.5430227232
 30
0.0
 42
0.056967459841729
  0
VERTEX
  5
5929
330
5920
100
AcDbEntity
  8
STAVBA OBRYS
100
AcDbVertex
100
AcDb2dVertex
 10
674.436586869374
 20
-1486.567739720961
 30
0.0
 42
0.0373408083348504
  0
VERTEX
  5
592A
330
5920
100
AcDbEntity
  8
STAVBA OBRYS
100
AcDbVertex
100
AcDb2dVertex
 10
674.1697616188057
 20
-1486.520741071821
 30
0.0
 42
0.0052305969362967
  0
VERTEX
  5
592B
330
5920
100
AcDbEntity
  8
STAVBA OBRYS
100
AcDbVertex
100
AcDb2dVertex
 10
673.7546098902921
 20
-1486.483592711535
 30
0.0
  0
SEQEND
  5
592C
330
5920
100
AcDbEntity
  8
STAVBA OBRYS
  0
POLYLINE
  5
592D
330
1F
100
AcDbEntity
  8
STAVBA OBRYS
100
AcDb2dPolyline
 66
     1
 10
0.0
 20
0.0
 30
0.0
  0
VERTEX
  5
592E
330
592D
100
AcDbEntity
  8
STAVBA OBRYS
100
AcDbVertex
100
AcDb2dVertex
 10
653.2440099831392
 20
-1506.95096463579
 30
0.0
 42
-0.0072417954699014
  0
VERTEX
  5
592F
330
592D
100
AcDbEntity
  8
STAVBA OBRYS
100
AcDbVertex
100
AcDb2dVertex
 10
653.3075826874074
 20
-1506.456868043085
 30
0.0
 42
-0.0707158694326265
  0
VERTEX
  5
5930
330
592D
100
AcDbEntity
  8
STAVBA OBRYS
100
AcDbVertex
100
AcDb2dVertex
 10
653.9302840198898
 20
-1504.129574450398
 30
0.0
 42
-0.033952657250207
  0
VERTEX
  5
5931
330
592D
100
AcDbEntity
  8
STAVBA OBRYS
100
AcDbVertex
100
AcDb2dVertex
 10
656.5957064927015
 20
-1498.889031979287
 30
0.0
 42
-0.0571374688189033
  0
VERTEX
  5
5932
330
592D
100
AcDbEntity
  8
STAVBA OBRYS
100
AcDbVertex
100
AcDb2dVertex
 10
658.721610649135
 20
-1496.107273612258
 30
0.0
 42
-0.0274923553235744
  0
VERTEX
  5
5933
330
592D
100
AcDbEntity
  8
STAVBA OBRYS
100
AcDbVertex
100
AcDb2dVertex
 10
661.8202833931527
 20
-1493.225603197958
 30
0.0
 42
-0.0255412025538677
  0
VERTEX
  5
5934
330
592D
100
AcDbEntity
  8
STAVBA OBRYS
100
AcDbVertex
100
AcDb2dVertex
 10
665.46486496321
 20
-1490.494530312053
 30
0.0
 42
-0.0272796991712396
  0
VERTEX
  5
5935
330
592D
100
AcDbEntity
  8
STAVBA OBRYS
100
AcDbVertex
100
AcDb2dVertex
 10
670.3820973706124
 20
-1487.563888628976
 30
0.0
 42
-0.056967459841729
  0
VERTEX
  5
5936
330
592D
100
AcDbEntity
  8
STAVBA OBRYS
100
AcDbVertex
100
AcDb2dVertex
 10
672.9450384575421
 20
-1486.57243843244
 30
0.0
 42
-0.0373408083348504
  0
VERTEX
  5
5937
330
592D
100
AcDbEntity
  8
STAVBA OBRYS
100
AcDbVertex
100
AcDb2dVertex
 10
673.2115623026575
 20
-1486.523759614222
 30
0.0
 42
-0.0052305969362967
  0
VERTEX
  5
5938
330
592D
100
AcDbEntity
  8
STAVBA OBRYS
100
AcDbVertex
100
AcDb2dVertex
 10
673.6264717424155
 20
-1486.483996375393
 30
0.0
  0
SEQEND
  5
5939
330
592D
100
AcDbEntity
  8
STAVBA OBRYS
  0
POLYLINE
  5
593A
330
1F
100
AcDbEntity
  8
STAVBA OBRYS
100
AcDb2dPolyline
 66
     1
 10
0.0
 20
0.0
 30
0.0
  0
VERTEX
  5
593B
330
593A
100
AcDbEntity
  8
STAVBA OBRYS
100
AcDbVertex
100
AcDb2dVertex
 10
661.9174990564524
 20
-1506.896317228055
 30
0.0
 42
-0.0064239028828688
  0
VERTEX
  5
593C
330
593A
100
AcDbEntity
  8
STAVBA OBRYS
100
AcDbVertex
100
AcDb2dVertex
 10
661.9624836583634
 20
-1506.633092192119
 30
0.0
 42
-0.0832048017309575
  0
VERTEX
  5
593D
330
593A
100
AcDbEntity
  8
STAVBA OBRYS
100
AcDbVertex
100
AcDb2dVertex
 10
662.885866612497
 20
-1503.830962612521
 30
0.0
 42
-0.0336767237692336
  0
VERTEX
  5
593E
330
593A
100
AcDbEntity
  8
STAVBA OBRYS
100
AcDbVertex
100
AcDb2dVertex
 10
664.90857891014
 20
-1500.544224088376
 30
0.0
 42
-0.0844635135812105
  0
VERTEX
  5
593F
330
593A
100
AcDbEntity
  8
STAVBA OBRYS
100
AcDbVertex
100
AcDb2dVertex
 10
666.0054908692573
 20
-1499.451985516052
 30
0.0
 42
-0.0495829410719565
  0
VERTEX
  5
5940
330
593A
100
AcDbEntity
  8
STAVBA OBRYS
100
AcDbVertex
100
AcDb2dVertex
 10
668.096479423696
 20
-1498.266808550765
 30
0.0
 42
-0.0322692699774654
  0
VERTEX
  5
5941
330
593A
100
AcDbEntity
  8
STAVBA OBRYS
100
AcDbVertex
100
AcDb2dVertex
 10
671.5581611779589
 20
-1496.995145180727
 30
0.0
 42
-0.0276160659512937
  0
VERTEX
  5
5942
330
593A
100
AcDbEntity
  8
STAVBA OBRYS
100
AcDbVertex
100
AcDb2dVertex
 10
672.5833451157041
 20
-1496.752598798206
 30
0.0
 42
-0.0126891984598699
  0
VERTEX
  5
5943
330
593A
100
AcDbEntity
  8
STAVBA OBRYS
100
AcDbVertex
100
AcDb2dVertex
 10
673.6901030108374
 20
-1496.583379570976
 30
0.0
  0
SEQEND
  5
5944
330
593A
100
AcDbEntity
  8
STAVBA OBRYS
  0
LWPOLYLINE
  5
5945
330
1F
100
AcDbEntity
  8
STAVBA OBRYS
100
AcDbPolyline
 90
        7
 70
     0
 43
0.0
 10
668.3369952435923
 20
-1506.855871125846
 42
-0.0203924744732807
 10
669.4118148083608
 20
-1505.633319048713
 42
-0.0273961979096945
 10
670.4256728094287
 20
-1504.681100804559
 42
-0.0243529190212958
 10
671.8147836734815
 20
-1503.623816672703
 42
-0.0398020282482987
 10
672.7413916646719
 20
-1503.09041360641
 42
-0.104168275620852
 10
673.2043952590129
 20
-1502.979474551279
 42
-0.007272956268647
 10
673.7302412778908
 20
-1502.954016991922
 42
-0.007272956268647
  0
LWPOLYLINE
  5
5946
330
1F
100
AcDbEntity
  8
STAVBA OBRYS
100
AcDbPolyline
 90
        8
 70
     0
 43
0.0
 10
634.264181998481
 20
-1507.070547238576
 42
-0.0120721047703132
 10
634.3338505875317
 20
-1504.989401227323
 42
-0.044358077361292
 10
634.7882129518211
 20
-1501.751514282895
 42
-0.0188067511131767
 10
637.1571983823042
 20
-1493.04574096261
 42
-0.0457786284636091
 10
638.585260266579
 20
-1489.618343137337
 42
-0.0295006114745606
 10
641.4547860943448
 20
-1484.887891074657
 42
-0.0258674098621065
 10
645.3025754637155
 20
-1479.888613200757
 42
-0.0158254702278021
 10
646.5535524370517
 20
-1477.954161897626
 42
-0.0158254702278021
  0
LWPOLYLINE
  5
5947
330
1F
100
AcDbEntity
  8
STAVBA OBRYS
100
AcDbPolyline
 90
       10
 70
     0
 43
0.0
 10
644.904441878617
 20
-1507.003508171003
 42
-0.0168162630274194
 10
645.0536843272593
 20
-1504.973281808359
 42
-0.0575155827655532
 10
645.8462722716312
 20
-1501.248664681257
 42
-0.0310289133982999
 10
649.3947866093103
 20
-1492.532101641021
 42
-0.0882970623535771
 10
651.3424756935664
 20
-1489.831333984551
 42
-0.0171636441953577
 10
654.6994391839207
 20
-1486.793422699485
 42
-0.0157521173632038
 10
658.566848567435
 20
-1483.731200489388
 42
-0.0073640874174249
 10
664.1022555994741
 20
-1479.750164567268
 42
-0.0194185739168057
 10
666.2799577931245
 20
-1478.354533705272
 42
-0.0567960585128809
 10
673.5549130734971
 20
-1475.126397566633
 42
-0.0229547400386702
  0
LWPOLYLINE
  5
5948
330
1F
100
AcDbEntity
  8
STAVBA OBRYS
100
AcDbPolyline
 90
        4
 70
     0
 43
0.0
 10
634.3356135200547
 20
-1478.104667202174
 10
634.3356135200547
 20
-1587.089492202807
 10
734.3356135200547
 20
-1587.089492202807
 10
734.3356135200547
 20
-1476.87282846431
  0
LWPOLYLINE
  5
5949
330
1F
100
AcDbEntity
  8
STAVBA OBRYS
100
AcDbPolyline
 90
        3
 70
     0
 43
0.0
 10
634.3356135200547
 20
-1574.793931848676
 42
0.1594823739701661
 10
673.8966896324955
 20
-1585.769938455492
 42
0.2797225762992413
 10
733.7546098902921
 20
-1552.757055113104
  0
LWPOLYLINE
  5
594A
330
1F
100
AcDbEntity
  8
STAVBA OBRYS
100
AcDbPolyline
 90
        5
 70
     0
 43
0.0
 10
634.3356135200547
 20
-1556.165043033657
 42
0.1515799785300641
 10
673.5165666027706
 20
-1572.347671278079
 42
0.2517236249987814
 10
730.2722629386653
 20
-1535.437905114618
 42
0.0219777111230329
 10
731.359597941041
 20
-1531.216169207615
 42
0.0067884601454819
 10
733.7546098902921
 20
-1519.061533593731
  0
INSERT
  5
594B
330
1F
100
AcDbEntity
  8
POPIS
100
AcDbBlockReference
  2
E_PUNKT
 10
736.4927156146396
 20
-1592.660109182321
 30
0.0
  0
LWPOLYLINE
  5
594C
330
1F
100
AcDbEntity
  8
STAVBA OBRYS
100
AcDbPolyline
 90
        2
 70
     0
 43
0.0
 10
721.7210234613767
 20
-1587.089492202809
 42
0.0508155708990308
 10
734.3356135200547
 20
-1576.614950481327
  0
LWPOLYLINE
  5
594D
330
1F
100
AcDbEntity
  8
STAVBA OBRYS
100
AcDbPolyline
 90
        3
 70
     0
 43
0.0
 10
667.1686489843077
 20
-1551.586631025193
 10
643.1039448788315
 20
-1562.49446547227
 10
638.2992354821717
 20
-1563.238685693199
  0
LWPOLYLINE
  5
594E
330
1F
100
AcDbEntity
  8
STAVBA OBRYS
100
AcDbPolyline
 90
       10
 70
     0
 43
0.0
 10
644.904441878617
 20
-1506.639966606309
 42
0.0168162630274194
 10
645.0536843272593
 20
-1508.670192968953
 42
0.0575155827655532
 10
645.8462722716312
 20
-1512.394810096055
 42
0.0310289133982999
 10
649.3947866093103
 20
-1521.111373136291
 42
0.0882970623535771
 10
651.3424756935664
 20
-1523.812140792761
 42
0.0171636441953577
 10
654.6994391839207
 20
-1526.850052077827
 42
0.0157521173632038
 10
658.566848567435
 20
-1529.912274287924
 42
0.0073640874174249
 10
664.1022555994741
 20
-1533.893310210044
 42
0.0194185739168057
 10
666.2799577931245
 20
-1535.28894107204
 42
0.0567960585128809
 10
673.5549130734971
 20
-1538.517077210679
 42
0.0229547400386702
  0
LWPOLYLINE
  5
594F
330
1F
100
AcDbEntity
  8
STAVBA OBRYS
100
AcDbPolyline
 90
        3
 70
     0
 43
0.0
 10
661.0796975182483
 20
-1508.697233362774
 10
644.8647548339822
 20
-1524.271276212299
 10
638.4192000821667
 20
-1536.554991041297
  0
LWPOLYLINE
  5
5950
330
1F
100
AcDbEntity
  8
STAVBA OBRYS
100
AcDbPolyline
 90
        8
 70
     0
 43
0.0
 10
634.264181998481
 20
-1506.572927538736
 42
0.0120721047703132
 10
634.3338505875317
 20
-1508.654073549989
 42
0.044358077361292
 10
634.7882129518211
 20
-1511.891960494417
 42
0.0188067511131767
 10
637.1571983823042
 20
-1520.597733814702
 42
0.0457786284636091
 10
638.585260266579
 20
-1524.025131639975
 42
0.0295006114745606
 10
641.4547860943448
 20
-1528.755583702655
 42
0.0258674098621065
 10
645.3025754637155
 20
-1533.754861576555
 42
0.2409478365688615
 10
673.474738550819
 20
-1551.24216107424
 42
0.0884720560394402
  0
LWPOLYLINE
  5
5951
330
1F
100
AcDbEntity
  8
STAVBA OBRYS
100
AcDbPolyline
 90
        2
 70
     0
 43
0.0
 10
634.3356135200547
 20
-1538.853615236097
 42
0.2237289391062531
 10
673.7699819559156
 20
-1561.204678328384
  0
LWPOLYLINE
  5
5952
330
1F
100
AcDbEntity
  8
STAVBA OBRYS
100
AcDbPolyline
 90
        2
 70
     0
 43
0.0
 10
642.5049223329215
 20
-1514.424006686431
 10
634.3356135200547
 20
-1518.126918124162
  0
LWPOLYLINE
  5
5953
330
1F
100
AcDbEntity
  8
STAVBA OBRYS
100
AcDbPolyline
 90
        6
 70
     0
 43
0.0
 10
723.5948800449068
 20
-1506.821737388656
 42
-0.0128837512779302
 10
723.2531296926417
 20
-1510.821535174752
 42
-0.0351641677647434
 10
722.4998180268112
 20
-1515.145986519958
 42
-0.0187319685742942
 10
718.4389989696164
 20
-1529.255871330529
 42
-0.0582629403736403
 10
716.4475991279277
 20
-1533.551672369249
 42
-0.2538762603868234
 10
673.7699819559156
 20
-1561.204678328384
  0
LWPOLYLINE
  5
5954
330
1F
100
AcDbEntity
  8
STAVBA OBRYS
100
AcDbPolyline
 90
        8
 70
     0
 43
0.0
 10
713.2458215888573
 20
-1506.821737388656
 42
-0.0120721047703132
 10
713.1630423608103
 20
-1508.902403155149
 42
-0.044358077361292
 10
712.6882890791994
 20
-1512.137363177249
 42
-0.0188067511131767
 10
710.2645009411453
 20
-1520.828038187617
 42
-0.0457786284636091
 10
708.8148734736051
 20
-1524.246370647073
 42
-0.0295006114745606
 10
705.9156009284443
 20
-1528.958649703156
 42
-0.0258674098621065
 10
702.0363905516887
 20
-1533.93358579766
 42
-0.2409478365688615
 10
673.7546098902921
 20
-1551.243042731628
 42
-0.0884720560394402
  0
LINE
  5
5955
330
1F
100
AcDbEntity
  8
SPOJOVACÍ
 48
0.25
100
AcDbLine
 10
696.9485197932181
 20
-1555.624218552126
 30
0.0
 11
692.711439537673
 21
-1552.98011873452
 31
0.0
  0
LINE
  5
5956
330
1F
100
AcDbEntity
  8
SPOJOVACÍ
 48
0.25
100
AcDbLine
 10
696.9485197932181
 20
-1550.336018916914
 30
0.0
 11
692.711439537673
 21
-1552.98011873452
 31
0.0
  0
LINE
  5
5957
330
1F
100
AcDbEntity
  8
SPOJOVACÍ
  6
DASHED
100
AcDbLine
 10
693.3176282640879
 20
-1552.98011873452
 30
0.0
 11
702.8465733568546
 21
-1554.26332185952
 31
0.0
  0
LINE
  5
5958
330
1F
100
AcDbEntity
  8
SPOJOVACÍ
  6
DASHED
100
AcDbLine
 10
693.3176282640879
 20
-1552.98011873452
 30
0.0
 11
702.8465733568546
 21
-1551.69691560952
 31
0.0
  0
LWPOLYLINE
  5
5959
330
1F
100
AcDbEntity
  8
STAVBA OBRYS
100
AcDbPolyline
 90
        3
 70
     0
 43
0.0
 10
680.0584040024942
 20
-1551.627236639717
 10
704.0539069208853
 20
-1562.68647150034
 10
708.8538320813413
 20
-1563.46094847075
  0
LINE
  5
595A
330
1F
100
AcDbEntity
  8
SPOJOVACÍ
  6
Continuous
100
AcDbLine
 10
694.7084610886186
 20
-1552.193778640374
 30
0.0
 11
694.4681705193825
 21
-1553.859985101346
 31
0.0
  0
LINE
  5
595B
330
1F
100
AcDbEntity
  8
SPOJOVACÍ
  6
Continuous
100
AcDbLine
 10
695.0005508225176
 20
-1552.485868372592
 30
0.0
 11
694.6365178045043
 21
-1553.567895369133
 31
0.0
  0
LINE
  5
595C
330
1F
100
AcDbEntity
  8
SPOJOVACÍ
  6
Continuous
100
AcDbLine
 10
694.5393943707268
 20
-1552.485868372592
 30
0.0
 11
694.1753613527062
 21
-1553.567895369133
 31
0.0
  0
LINE
  5
595D
330
1F
100
AcDbEntity
  8
SPOJOVACÍ
  6
Continuous
100
AcDbLine
 10
694.4681705193825
 20
-1553.859985101346
 30
0.0
 11
694.6365178045043
 21
-1553.567895369133
 31
0.0
  0
LINE
  5
595E
330
1F
100
AcDbEntity
  8
SPOJOVACÍ
  6
Continuous
100
AcDbLine
 10
694.4681705193825
 20
-1553.859985101346
 30
0.0
 11
694.1753613527062
 21
-1553.567895369133
 31
0.0
  0
LINE
  5
595F
330
1F
100
AcDbEntity
  8
SPOJOVACÍ
  6
Continuous
100
AcDbLine
 10
694.7084610886186
 20
-1552.193778640374
 30
0.0
 11
695.0005508225176
 21
-1552.485868372592
 31
0.0
  0
LINE
  5
5960
330
1F
100
AcDbEntity
  8
SPOJOVACÍ
  6
Continuous
100
AcDbLine
 10
694.7084610886186
 20
-1552.193778640374
 30
0.0
 11
694.5393943707268
 21
-1552.485868372592
 31
0.0
  0
LWPOLYLINE
  5
5961
330
1F
100
AcDbEntity
  8
STAVBA OBRYS
100
AcDbPolyline
 90
        2
 70
     0
 43
0.0
 10
666.6433406322567
 20
-1566.605524590449
 10
666.2677755257564
 20
-1566.775757392308
  0
LINE
  5
5962
330
1F
100
AcDbEntity
  8
SPOJOVACÍ
100
AcDbLine
 10
736.2986191469126
 20
-1547.91761873452
 30
0.0
 11
736.2986191469126
 21
-1558.04261873452
 31
0.0
  0
LINE
  5
5963
330
1F
100
AcDbEntity
  8
SPOJOVACÍ
100
AcDbLine
 10
737.3798104217667
 20
-1547.91761873452
 30
0.0
 11
737.3798104217667
 21
-1558.04261873452
 31
0.0
  0
LINE
  5
5964
330
1F
100
AcDbEntity
  8
SPOJOVACÍ
100
AcDbLine
 10
737.3798104217667
 20
-1558.04261873452
 30
0.0
 11
736.2986191469126
 21
-1558.04261873452
 31
0.0
  0
LINE
  5
5965
330
1F
100
AcDbEntity
  8
SPOJOVACÍ
100
AcDbLine
 10
736.2986191469126
 20
-1558.04261873452
 30
0.0
 11
736.9563021135136
 21
-1558.04261873452
 31
0.0
  0
LINE
  5
5966
330
1F
100
AcDbEntity
  8
SPOJOVACÍ
100
AcDbLine
 10
736.2986191469126
 20
-1558.04261873452
 30
0.0
 11
733.911643419985
 21
-1554.26332185952
 31
0.0
  0
LINE
  5
5967
330
1F
100
AcDbEntity
  8
SPOJOVACÍ
  6
CIKCAK
 48
0.25
100
AcDbLine
 10
734.7711756238668
 20
-1555.624218552126
 30
0.0
 11
696.9485197932181
 21
-1555.624218552126
 31
0.0
  0
LINE
  5
5968
330
1F
100
AcDbEntity
  8
SPOJOVACÍ
  6
CIKCAK
 48
0.25
100
AcDbLine
 10
734.7711756238668
 20
-1550.336018916908
 30
0.0
 11
696.9485197932181
 21
-1550.336018916914
 31
0.0
  0
LINE
  5
5969
330
1F
100
AcDbEntity
  8
SPOJOVACÍ
  6
Continuous
100
AcDbLine
 10
717.4392794629629
 20
-1551.181464688257
 30
0.0
 11
716.2296970255365
 21
-1554.778772784662
 31
0.0
  0
LINE
  5
596A
330
1F
100
AcDbEntity
  8
SPOJOVACÍ
  6
Continuous
100
AcDbLine
 10
716.9089495433972
 20
-1551.181464688257
 30
0.0
 11
715.6993671059709
 21
-1554.778772784662
 31
0.0
  0
LINE
  5
596B
330
1F
100
AcDbEntity
  8
SPOJOVACÍ
  6
Continuous
100
AcDbLine
 10
716.0352702999544
 20
-1555.114675976712
 30
0.0
 11
716.2296970255365
 21
-1554.778772784662
 31
0.0
  0
LINE
  5
596C
330
1F
100
AcDbEntity
  8
SPOJOVACÍ
  6
Continuous
100
AcDbLine
 10
716.0352702999544
 20
-1555.114675976712
 30
0.0
 11
715.6993671059709
 21
-1554.778772784662
 31
0.0
  0
LINE
  5
596D
330
1F
100
AcDbEntity
  8
SPOJOVACÍ
  6
Continuous
100
AcDbLine
 10
717.1025489210542
 20
-1550.845561492327
 30
0.0
 11
717.4392794629629
 21
-1551.181464688257
 31
0.0
  0
LINE
  5
596E
330
1F
100
AcDbEntity
  8
SPOJOVACÍ
  6
Continuous
100
AcDbLine
 10
717.1025489210542
 20
-1550.845561492327
 30
0.0
 11
716.9089495433972
 21
-1551.181464688257
 31
0.0
  0
LINE
  5
596F
330
1F
100
AcDbEntity
  8
SPOJOVACÍ
  6
Continuous
100
AcDbLine
 10
717.1025489210542
 20
-1550.845561492327
 30
0.0
 11
716.0352702999544
 21
-1555.114675976712
 31
0.0
  0
LINE
  5
5970
330
1F
100
AcDbEntity
  8
SPOJOVACÍ
  6
Continuous
100
AcDbLine
 10
714.8922870272754
 20
-1551.181464688257
 30
0.0
 11
713.6827045898489
 21
-1554.778772784662
 31
0.0
  0
LINE
  5
5971
330
1F
100
AcDbEntity
  8
SPOJOVACÍ
  6
Continuous
100
AcDbLine
 10
714.3619571077096
 20
-1551.181464688257
 30
0.0
 11
713.1523746702832
 21
-1554.778772784662
 31
0.0
  0
LINE
  5
5972
330
1F
100
AcDbEntity
  8
SPOJOVACÍ
  6
Continuous
100
AcDbLine
 10
713.4882778642668
 20
-1555.114675976712
 30
0.0
 11
713.6827045898489
 21
-1554.778772784662
 31
0.0
  0
LINE
  5
5973
330
1F
100
AcDbEntity
  8
SPOJOVACÍ
  6
Continuous
100
AcDbLine
 10
713.4882778642668
 20
-1555.114675976712
 30
0.0
 11
713.1523746702832
 21
-1554.778772784662
 31
0.0
  0
LINE
  5
5974
330
1F
100
AcDbEntity
  8
SPOJOVACÍ
  6
Continuous
100
AcDbLine
 10
714.5555564853666
 20
-1550.845561492327
 30
0.0
 11
714.8922870272754
 21
-1551.181464688257
 31
0.0
  0
LINE
  5
5975
330
1F
100
AcDbEntity
  8
SPOJOVACÍ
  6
Continuous
100
AcDbLine
 10
714.5555564853666
 20
-1550.845561492327
 30
0.0
 11
714.3619571077096
 21
-1551.181464688257
 31
0.0
  0
LINE
  5
5976
330
1F
100
AcDbEntity
  8
SPOJOVACÍ
  6
Continuous
100
AcDbLine
 10
714.5555564853666
 20
-1550.845561492327
 30
0.0
 11
713.4882778642668
 21
-1555.114675976712
 31
0.0
  0
LINE
  5
5977
330
1F
100
AcDbEntity
  8
SPOJOVACÍ
  6
Continuous
100
AcDbLine
 10
712.3452945915878
 20
-1551.181464688257
 30
0.0
 11
711.1357121541614
 21
-1554.778772784662
 31
0.0
  0
LINE
  5
5978
330
1F
100
AcDbEntity
  8
SPOJOVACÍ
  6
Continuous
100
AcDbLine
 10
711.8149646720221
 20
-1551.181464688257
 30
0.0
 11
710.6053822345956
 21
-1554.778772784662
 31
0.0
  0
LINE
  5
5979
330
1F
100
AcDbEntity
  8
SPOJOVACÍ
  6
Continuous
100
AcDbLine
 10
710.9412854285793
 20
-1555.114675976712
 30
0.0
 11
711.1357121541614
 21
-1554.778772784662
 31
0.0
  0
LINE
  5
597A
330
1F
100
AcDbEntity
  8
SPOJOVACÍ
  6
Continuous
100
AcDbLine
 10
710.9412854285793
 20
-1555.114675976712
 30
0.0
 11
710.6053822345956
 21
-1554.778772784662
 31
0.0
  0
LINE
  5
597B
330
1F
100
AcDbEntity
  8
SPOJOVACÍ
  6
Continuous
100
AcDbLine
 10
712.0085640496791
 20
-1550.845561492327
 30
0.0
 11
712.3452945915878
 21
-1551.181464688257
 31
0.0
  0
LINE
  5
597C
330
1F
100
AcDbEntity
  8
SPOJOVACÍ
  6
Continuous
100
AcDbLine
 10
712.0085640496791
 20
-1550.845561492327
 30
0.0
 11
711.8149646720221
 21
-1551.181464688257
 31
0.0
  0
LINE
  5
597D
330
1F
100
AcDbEntity
  8
SPOJOVACÍ
  6
Continuous
100
AcDbLine
 10
712.0085640496791
 20
-1550.845561492327
 30
0.0
 11
710.9412854285793
 21
-1555.114675976712
 31
0.0
  0
LINE
  5
597E
330
1F
100
AcDbEntity
  8
SPOJOVACÍ
  6
Continuous
100
AcDbLine
 10
709.7983021559002
 20
-1551.181464688257
 30
0.0
 11
708.5887197184738
 21
-1554.778772784662
 31
0.0
  0
LINE
  5
597F
330
1F
100
AcDbEntity
  8
SPOJOVACÍ
  6
Continuous
100
AcDbLine
 10
709.2679722363345
 20
-1551.181464688257
 30
0.0
 11
708.0583897989081
 21
-1554.778772784662
 31
0.0
  0
LINE
  5
5980
330
1F
100
AcDbEntity
  8
SPOJOVACÍ
  6
Continuous
100
AcDbLine
 10
708.3942929928916
 20
-1555.114675976712
 30
0.0
 11
708.5887197184738
 21
-1554.778772784662
 31
0.0
  0
LINE
  5
5981
330
1F
100
AcDbEntity
  8
SPOJOVACÍ
  6
Continuous
100
AcDbLine
 10
708.3942929928916
 20
-1555.114675976712
 30
0.0
 11
708.0583897989081
 21
-1554.778772784662
 31
0.0
  0
LINE
  5
5982
330
1F
100
AcDbEntity
  8
SPOJOVACÍ
  6
Continuous
100
AcDbLine
 10
709.4615716139915
 20
-1550.845561492327
 30
0.0
 11
709.7983021559002
 21
-1551.181464688257
 31
0.0
  0
LINE
  5
5983
330
1F
100
AcDbEntity
  8
SPOJOVACÍ
  6
Continuous
100
AcDbLine
 10
709.4615716139915
 20
-1550.845561492327
 30
0.0
 11
709.2679722363345
 21
-1551.181464688257
 31
0.0
  0
LINE
  5
5984
330
1F
100
AcDbEntity
  8
SPOJOVACÍ
  6
Continuous
100
AcDbLine
 10
709.4615716139915
 20
-1550.845561492327
 30
0.0
 11
708.3942929928916
 21
-1555.114675976712
 31
0.0
  0
LINE
  5
5985
330
1F
100
AcDbEntity
  8
SPOJOVACÍ
  6
Continuous
100
AcDbLine
 10
707.2513097202127
 20
-1551.181464688257
 30
0.0
 11
706.0417272827862
 21
-1554.778772784662
 31
0.0
  0
LINE
  5
5986
330
1F
100
AcDbEntity
  8
SPOJOVACÍ
  6
Continuous
100
AcDbLine
 10
706.7209798006469
 20
-1551.181464688257
 30
0.0
 11
705.5113973632205
 21
-1554.778772784662
 31
0.0
  0
LINE
  5
5987
330
1F
100
AcDbEntity
  8
SPOJOVACÍ
  6
Continuous
100
AcDbLine
 10
705.847300557204
 20
-1555.114675976712
 30
0.0
 11
706.0417272827862
 21
-1554.778772784662
 31
0.0
  0
LINE
  5
5988
330
1F
100
AcDbEntity
  8
SPOJOVACÍ
  6
Continuous
100
AcDbLine
 10
705.847300557204
 20
-1555.114675976712
 30
0.0
 11
705.5113973632205
 21
-1554.778772784662
 31
0.0
  0
LINE
  5
5989
330
1F
100
AcDbEntity
  8
SPOJOVACÍ
  6
Continuous
100
AcDbLine
 10
706.9145791783039
 20
-1550.845561492327
 30
0.0
 11
707.2513097202127
 21
-1551.181464688257
 31
0.0
  0
LINE
  5
598A
330
1F
100
AcDbEntity
  8
SPOJOVACÍ
  6
Continuous
100
AcDbLine
 10
706.9145791783039
 20
-1550.845561492327
 30
0.0
 11
706.7209798006469
 21
-1551.181464688257
 31
0.0
  0
LINE
  5
598B
330
1F
100
AcDbEntity
  8
SPOJOVACÍ
  6
Continuous
100
AcDbLine
 10
706.9145791783039
 20
-1550.845561492327
 30
0.0
 11
705.847300557204
 21
-1555.114675976712
 31
0.0
  0
LINE
  5
598C
330
1F
100
AcDbEntity
  8
SPOJOVACÍ
  6
Continuous
100
AcDbLine
 10
704.3675867426164
 20
-1550.845561492327
 30
0.0
 11
703.3003081215165
 21
-1555.114675976712
 31
0.0
  0
LINE
  5
598D
330
1F
100
AcDbEntity
  8
SPOJOVACÍ
  6
Continuous
100
AcDbLine
 10
704.3675867426164
 20
-1550.845561492327
 30
0.0
 11
704.1739873649594
 21
-1551.181464688257
 31
0.0
  0
LINE
  5
598E
330
1F
100
AcDbEntity
  8
SPOJOVACÍ
  6
Continuous
100
AcDbLine
 10
704.3675867426164
 20
-1550.845561492327
 30
0.0
 11
704.7043172845251
 21
-1551.181464688257
 31
0.0
  0
LINE
  5
598F
330
1F
100
AcDbEntity
  8
SPOJOVACÍ
  6
Continuous
100
AcDbLine
 10
703.3003081215165
 20
-1555.114675976712
 30
0.0
 11
702.9644049275329
 21
-1554.778772784662
 31
0.0
  0
LINE
  5
5990
330
1F
100
AcDbEntity
  8
SPOJOVACÍ
  6
Continuous
100
AcDbLine
 10
703.3003081215165
 20
-1555.114675976712
 30
0.0
 11
703.4947348470987
 21
-1554.778772784662
 31
0.0
  0
LINE
  5
5991
330
1F
100
AcDbEntity
  8
SPOJOVACÍ
  6
Continuous
100
AcDbLine
 10
704.1739873649594
 20
-1551.181464688257
 30
0.0
 11
702.9644049275329
 21
-1554.778772784662
 31
0.0
  0
LINE
  5
5992
330
1F
100
AcDbEntity
  8
SPOJOVACÍ
  6
Continuous
100
AcDbLine
 10
704.7043172845251
 20
-1551.181464688257
 30
0.0
 11
703.4947348470987
 21
-1554.778772784662
 31
0.0
  0
LINE
  5
5993
330
1F
100
AcDbEntity
  8
SPOJOVACÍ
  6
DASHED
100
AcDbLine
 10
717.8465733568546
 20
-1554.26332185952
 30
0.0
 11
733.911643419985
 21
-1554.26332185952
 31
0.0
  0
LINE
  5
5994
330
1F
100
AcDbEntity
  8
SPOJOVACÍ
  6
DASHED
100
AcDbLine
 10
717.8465733568546
 20
-1551.69691560952
 30
0.0
 11
733.9116434199777
 21
-1551.69691560952
 31
0.0
  0
LINE
  5
5995
330
1F
100
AcDbEntity
  8
SPOJOVACÍ
  6
Continuous
100
AcDbLine
 10
702.1573248488375
 20
-1551.181464688257
 30
0.0
 11
700.9477424114111
 21
-1554.778772784662
 31
0.0
  0
LINE
  5
5996
330
1F
100
AcDbEntity
  8
SPOJOVACÍ
  6
Continuous
100
AcDbLine
 10
701.6269949292718
 20
-1551.181464688257
 30
0.0
 11
700.4174124918454
 21
-1554.778772784662
 31
0.0
  0
LINE
  5
5997
330
1F
100
AcDbEntity
  8
SPOJOVACÍ
  6
Continuous
100
AcDbLine
 10
700.7533156858289
 20
-1555.114675976712
 30
0.0
 11
700.9477424114111
 21
-1554.778772784662
 31
0.0
  0
LINE
  5
5998
330
1F
100
AcDbEntity
  8
SPOJOVACÍ
  6
Continuous
100
AcDbLine
 10
700.7533156858289
 20
-1555.114675976712
 30
0.0
 11
700.4174124918454
 21
-1554.778772784662
 31
0.0
  0
LINE
  5
5999
330
1F
100
AcDbEntity
  8
SPOJOVACÍ
  6
Continuous
100
AcDbLine
 10
701.8205943069288
 20
-1550.845561492327
 30
0.0
 11
702.1573248488375
 21
-1551.181464688257
 31
0.0
  0
LINE
  5
599A
330
1F
100
AcDbEntity
  8
SPOJOVACÍ
  6
Continuous
100
AcDbLine
 10
701.8205943069288
 20
-1550.845561492327
 30
0.0
 11
701.6269949292718
 21
-1551.181464688257
 31
0.0
  0
LINE
  5
599B
330
1F
100
AcDbEntity
  8
SPOJOVACÍ
  6
Continuous
100
AcDbLine
 10
701.8205943069288
 20
-1550.845561492327
 30
0.0
 11
700.7533156858289
 21
-1555.114675976712
 31
0.0
  0
LINE
  5
599C
330
1F
100
AcDbEntity
  8
SPOJOVACÍ
  6
Continuous
100
AcDbLine
 10
697.0394234968507
 20
-1551.75708290337
 30
0.0
 11
696.549489731532
 21
-1554.167182924675
 31
0.0
  0
LINE
  5
599D
330
1F
100
AcDbEntity
  8
SPOJOVACÍ
  6
Continuous
100
AcDbLine
 10
697.332232663738
 20
-1552.049172638961
 30
0.0
 11
696.7178370164429
 21
-1553.875093192456
 31
0.0
  0
LINE
  5
599E
330
1F
100
AcDbEntity
  8
SPOJOVACÍ
  6
Continuous
100
AcDbLine
 10
696.8710762119399
 20
-1552.049172638961
 30
0.0
 11
696.256680564863
 21
-1553.875093192456
 31
0.0
  0
LINE
  5
599F
330
1F
100
AcDbEntity
  8
SPOJOVACÍ
  6
Continuous
100
AcDbLine
 10
696.549489731532
 20
-1554.167182924675
 30
0.0
 11
696.7178370164429
 21
-1553.875093192456
 31
0.0
  0
LINE
  5
59A0
330
1F
100
AcDbEntity
  8
SPOJOVACÍ
  6
Continuous
100
AcDbLine
 10
696.549489731532
 20
-1554.167182924675
 30
0.0
 11
696.256680564863
 21
-1553.875093192456
 31
0.0
  0
LINE
  5
59A1
330
1F
100
AcDbEntity
  8
SPOJOVACÍ
  6
Continuous
100
AcDbLine
 10
697.0394234968507
 20
-1551.75708290337
 30
0.0
 11
697.332232663738
 21
-1552.049172638961
 31
0.0
  0
LINE
  5
59A2
330
1F
100
AcDbEntity
  8
SPOJOVACÍ
  6
Continuous
100
AcDbLine
 10
697.0394234968507
 20
-1551.75708290337
 30
0.0
 11
696.8710762119399
 21
-1552.049172638961
 31
0.0
  0
LINE
  5
59A3
330
1F
100
AcDbEntity
  8
SPOJOVACÍ
  6
Continuous
100
AcDbLine
 10
699.3711053380638
 20
-1551.320387169738
 30
0.0
 11
698.6185785853404
 21
-1554.511071823033
 31
0.0
  0
LINE
  5
59A4
330
1F
100
AcDbEntity
  8
SPOJOVACÍ
  6
Continuous
100
AcDbLine
 10
699.6631950719702
 20
-1551.613196335991
 30
0.0
 11
698.7869258702512
 21
-1554.218982090815
 31
0.0
  0
LINE
  5
59A5
330
1F
100
AcDbEntity
  8
SPOJOVACÍ
  6
Continuous
100
AcDbLine
 10
699.2020386201647
 20
-1551.613196335991
 30
0.0
 11
698.3257694184531
 21
-1554.218982090815
 31
0.0
  0
LINE
  5
59A6
330
1F
100
AcDbEntity
  8
SPOJOVACÍ
  6
Continuous
100
AcDbLine
 10
698.6185785853404
 20
-1554.511071823033
 30
0.0
 11
698.7869258702512
 21
-1554.218982090815
 31
0.0
  0
LINE
  5
59A7
330
1F
100
AcDbEntity
  8
SPOJOVACÍ
  6
Continuous
100
AcDbLine
 10
698.6185785853404
 20
-1554.511071823033
 30
0.0
 11
698.3257694184531
 21
-1554.218982090815
 31
0.0
  0
LINE
  5
59A8
330
1F
100
AcDbEntity
  8
SPOJOVACÍ
  6
Continuous
100
AcDbLine
 10
699.3711053380638
 20
-1551.320387169738
 30
0.0
 11
699.6631950719702
 21
-1551.613196335991
 31
0.0
  0
LINE
  5
59A9
330
1F
100
AcDbEntity
  8
SPOJOVACÍ
  6
Continuous
100
AcDbLine
 10
699.3711053380638
 20
-1551.320387169738
 30
0.0
 11
699.2020386201647
 21
-1551.613196335991
 31
0.0
  0
LINE
  5
59AA
330
1F
100
AcDbEntity
  8
SPOJOVACÍ
  6
DASHDOT2
100
AcDbLine
 10
742.3087701088179
 20
-1552.98011873452
 30
0.0
 11
704.0311958205811
 21
-1552.98011873452
 31
0.0
  0
LINE
  5
59AB
330
1F
100
AcDbEntity
  8
SPOJOVACÍ
100
AcDbLine
 10
737.3798104217667
 20
-1547.91761873452
 30
0.0
 11
736.2986191469126
 21
-1547.91761873452
 31
0.0
  0
LINE
  5
59AC
330
1F
100
AcDbEntity
  8
SPOJOVACÍ
  6
DASHED
100
AcDbLine
 10
736.2986191469126
 20
-1547.91761873452
 30
0.0
 11
733.9116434199777
 21
-1551.69691560952
 31
0.0
  0
LINE
  5
59AD
330
1F
100
AcDbEntity
  8
SPOJOVACÍ
100
AcDbLine
 10
736.2986191469126
 20
-1547.91761873452
 30
0.0
 11
736.9563021135136
 21
-1547.91761873452
 31
0.0
  0
LINE
  5
59AE
330
1F
100
AcDbEntity
  8
SPOJOVACÍ
100
AcDbLine
 10
736.9563021135136
 20
-1547.91761873452
 30
0.0
 11
736.2986191469126
 21
-1547.91761873452
 31
0.0
  0
LINE
  5
59AF
330
1F
100
AcDbEntity
  8
SPOJOVACÍ
  6
Continuous
100
AcDbLine
 10
719.6495413567418
 20
-1550.845561492327
 30
0.0
 11
718.582262735642
 21
-1555.114675976712
 31
0.0
  0
LINE
  5
59B0
330
1F
100
AcDbEntity
  8
SPOJOVACÍ
  6
Continuous
100
AcDbLine
 10
719.6495413567418
 20
-1550.845561492327
 30
0.0
 11
719.4559419790849
 21
-1551.181464688257
 31
0.0
  0
LINE
  5
59B1
330
1F
100
AcDbEntity
  8
SPOJOVACÍ
  6
Continuous
100
AcDbLine
 10
719.6495413567418
 20
-1550.845561492327
 30
0.0
 11
719.9862718986505
 21
-1551.181464688257
 31
0.0
  0
LINE
  5
59B2
330
1F
100
AcDbEntity
  8
SPOJOVACÍ
  6
Continuous
100
AcDbLine
 10
718.582262735642
 20
-1555.114675976712
 30
0.0
 11
718.2463595416584
 21
-1554.778772784662
 31
0.0
  0
LINE
  5
59B3
330
1F
100
AcDbEntity
  8
SPOJOVACÍ
  6
Continuous
100
AcDbLine
 10
718.582262735642
 20
-1555.114675976712
 30
0.0
 11
718.7766894612241
 21
-1554.778772784662
 31
0.0
  0
LINE
  5
59B4
330
1F
100
AcDbEntity
  8
SPOJOVACÍ
  6
Continuous
100
AcDbLine
 10
719.4559419790849
 20
-1551.181464688257
 30
0.0
 11
718.2463595416584
 21
-1554.778772784662
 31
0.0
  0
LINE
  5
59B5
330
1F
100
AcDbEntity
  8
SPOJOVACÍ
  6
Continuous
100
AcDbLine
 10
719.9862718986505
 20
-1551.181464688257
 30
0.0
 11
718.7766894612241
 21
-1554.778772784662
 31
0.0
  0
LINE
  5
59B6
330
1F
100
AcDbEntity
  8
SPOJOVACÍ
  6
Continuous
100
AcDbLine
 10
722.1965337924293
 20
-1550.845561492327
 30
0.0
 11
721.1292551713295
 21
-1555.114675976712
 31
0.0
  0
LINE
  5
59B7
330
1F
100
AcDbEntity
  8
SPOJOVACÍ
  6
Continuous
100
AcDbLine
 10
722.1965337924293
 20
-1550.845561492327
 30
0.0
 11
722.0029344147724
 21
-1551.181464688257
 31
0.0
  0
LINE
  5
59B8
330
1F
100
AcDbEntity
  8
SPOJOVACÍ
  6
Continuous
100
AcDbLine
 10
722.1965337924293
 20
-1550.845561492327
 30
0.0
 11
722.5332643343381
 21
-1551.181464688257
 31
0.0
  0
LINE
  5
59B9
330
1F
100
AcDbEntity
  8
SPOJOVACÍ
  6
Continuous
100
AcDbLine
 10
721.1292551713295
 20
-1555.114675976712
 30
0.0
 11
720.793351977346
 21
-1554.778772784662
 31
0.0
  0
LINE
  5
59BA
330
1F
100
AcDbEntity
  8
SPOJOVACÍ
  6
Continuous
100
AcDbLine
 10
721.1292551713295
 20
-1555.114675976712
 30
0.0
 11
721.3236818969116
 21
-1554.778772784662
 31
0.0
  0
LINE
  5
59BB
330
1F
100
AcDbEntity
  8
SPOJOVACÍ
  6
Continuous
100
AcDbLine
 10
722.0029344147724
 20
-1551.181464688257
 30
0.0
 11
720.793351977346
 21
-1554.778772784662
 31
0.0
  0
LINE
  5
59BC
330
1F
100
AcDbEntity
  8
SPOJOVACÍ
  6
Continuous
100
AcDbLine
 10
722.5332643343381
 20
-1551.181464688257
 30
0.0
 11
721.3236818969116
 21
-1554.778772784662
 31
0.0
  0
LINE
  5
59BD
330
1F
100
AcDbEntity
  8
SPOJOVACÍ
  6
Continuous
100
AcDbLine
 10
724.7435262281169
 20
-1550.845561492327
 30
0.0
 11
723.6762476070171
 21
-1555.114675976712
 31
0.0
  0
LINE
  5
59BE
330
1F
100
AcDbEntity
  8
SPOJOVACÍ
  6
Continuous
100
AcDbLine
 10
724.7435262281169
 20
-1550.845561492327
 30
0.0
 11
724.54992685046
 21
-1551.181464688257
 31
0.0
  0
LINE
  5
59BF
330
1F
100
AcDbEntity
  8
SPOJOVACÍ
  6
Continuous
100
AcDbLine
 10
724.7435262281169
 20
-1550.845561492327
 30
0.0
 11
725.0802567700256
 21
-1551.181464688257
 31
0.0
  0
LINE
  5
59C0
330
1F
100
AcDbEntity
  8
SPOJOVACÍ
  6
Continuous
100
AcDbLine
 10
723.6762476070171
 20
-1555.114675976712
 30
0.0
 11
723.3403444130336
 21
-1554.778772784662
 31
0.0
  0
LINE
  5
59C1
330
1F
100
AcDbEntity
  8
SPOJOVACÍ
  6
Continuous
100
AcDbLine
 10
723.6762476070171
 20
-1555.114675976712
 30
0.0
 11
723.8706743325992
 21
-1554.778772784662
 31
0.0
  0
LINE
  5
59C2
330
1F
100
AcDbEntity
  8
SPOJOVACÍ
  6
Continuous
100
AcDbLine
 10
724.54992685046
 20
-1551.181464688257
 30
0.0
 11
723.3403444130336
 21
-1554.778772784662
 31
0.0
  0
LINE
  5
59C3
330
1F
100
AcDbEntity
  8
SPOJOVACÍ
  6
Continuous
100
AcDbLine
 10
725.0802567700256
 20
-1551.181464688257
 30
0.0
 11
723.8706743325992
 21
-1554.778772784662
 31
0.0
  0
LWPOLYLINE
  5
59C4
330
1F
100
AcDbEntity
  8
STAVBA OBRYS
100
AcDbPolyline
 90
        2
 70
     0
 43
0.0
 10
730.4115862805438
 20
-1544.025301447604
 10
733.7546098902921
 20
-1545.698036728979
  0
LINE
  5
59C5
330
1F
100
AcDbEntity
  8
NOSNÉ KONSTRUKCE
100
AcDbLine
 10
737.3798104217667
 20
-1540.278547649704
 30
0.0
 11
735.3798104217666
 21
-1540.278547649704
 31
0.0
  0
LWPOLYLINE
  5
59C6
330
1F
100
AcDbEntity
  8
STAVBA OBRYS
100
AcDbPolyline
 90
        3
 70
     0
 43
0.0
 10
681.8046868395422
 20
-1513.442534223279
 10
701.9109479832141
 20
-1523.50302326484
 10
711.711473562168
 20
-1533.320585306157
  0
LWPOLYLINE
  5
59C7
330
1F
100
AcDbEntity
  8
STAVBA OBRYS
100
AcDbPolyline
 90
       10
 70
     0
 43
0.0
 10
702.6053505206464
 20
-1506.821737388656
 42
-0.0168162630274194
 10
702.4433198257711
 20
-1508.8509831712
 42
-0.0575155827655532
 10
701.6272810893524
 20
-1512.57053276406
 42
-0.0310289133982999
 10
698.0239194755658
 20
-1521.264565793633
 42
-0.0882970623535771
 10
696.0592531714455
 20
-1523.953008654594
 42
-0.0171636441953577
 10
692.6832162972232
 20
-1526.969709480888
 42
-0.0157521173632038
 10
688.7965904927796
 20
-1530.007504743895
 42
-0.0073640874174249
 10
683.2362112651926
 20
-1533.95358645478
 42
-0.0194185739168057
 10
681.0497592815764
 20
-1535.335469253917
 42
-0.0567960585128809
 10
673.7546098902921
 20
-1538.517706300367
 42
-0.0229547400386702
  0
LWPOLYLINE
  5
59C8
330
1F
100
AcDbEntity
  8
STAVBA OBRYS
100
AcDbPolyline
 90
        7
 70
     0
 43
0.0
 10
668.3369952435923
 20
-1506.787603651466
 42
0.0203924744732807
 10
669.4118148083608
 20
-1508.010155728599
 42
0.0273961979096945
 10
670.4256728094287
 20
-1508.962373972753
 42
0.0243529190212958
 10
671.8147836734815
 20
-1510.019658104609
 42
0.0398020282482987
 10
672.7413916646719
 20
-1510.553061170901
 42
0.104168275620852
 10
673.2043952590129
 20
-1510.664000226033
 42
0.007272956268647
 10
673.7302412778908
 20
-1510.68945778539
 42
0.007272956268647
  0
POLYLINE
  5
59C9
330
1F
100
AcDbEntity
  8
STAVBA OBRYS
100
AcDb2dPolyline
 66
     1
 10
0.0
 20
0.0
 30
0.0
  0
VERTEX
  5
59CA
330
59C9
100
AcDbEntity
  8
STAVBA OBRYS
100
AcDbVertex
100
AcDb2dVertex
 10
661.9174990564524
 20
-1506.747157549257
 30
0.0
 42
0.0064239028828688
  0
VERTEX
  5
59CB
330
59C9
100
AcDbEntity
  8
STAVBA OBRYS
100
AcDbVertex
100
AcDb2dVertex
 10
661.9624836583634
 20
-1507.010382585193
 30
0.0
 42
0.0832048017309575
  0
VERTEX
  5
59CC
330
59C9
100
AcDbEntity
  8
STAVBA OBRYS
100
AcDbVertex
100
AcDb2dVertex
 10
662.885866612497
 20
-1509.812512164791
 30
0.0
 42
0.0336767237692336
  0
VERTEX
  5
59CD
330
59C9
100
AcDbEntity
  8
STAVBA OBRYS
100
AcDbVertex
100
AcDb2dVertex
 10
664.90857891014
 20
-1513.099250688936
 30
0.0
 42
0.0844635135812105
  0
VERTEX
  5
59CE
330
59C9
100
AcDbEntity
  8
STAVBA OBRYS
100
AcDbVertex
100
AcDb2dVertex
 10
666.0054908692573
 20
-1514.19148926126
 30
0.0
 42
0.0495829410719565
  0
VERTEX
  5
59CF
330
59C9
100
AcDbEntity
  8
STAVBA OBRYS
100
AcDbVertex
100
AcDb2dVertex
 10
668.096479423696
 20
-1515.376666226547
 30
0.0
 42
0.0322692699774654
  0
VERTEX
  5
59D0
330
59C9
100
AcDbEntity
  8
STAVBA OBRYS
100
AcDbVertex
100
AcDb2dVertex
 10
671.5581611779589
 20
-1516.648329596585
 30
0.0
 42
0.0276160659512937
  0
VERTEX
  5
59D1
330
59C9
100
AcDbEntity
  8
STAVBA OBRYS
100
AcDbVertex
100
AcDb2dVertex
 10
672.5833451157041
 20
-1516.890875979106
 30
0.0
 42
0.0126891984598699
  0
VERTEX
  5
59D2
330
59C9
100
AcDbEntity
  8
STAVBA OBRYS
100
AcDbVertex
100
AcDb2dVertex
 10
673.6901030108374
 20
-1517.060095206336
 30
0.0
  0
SEQEND
  5
59D3
330
59C9
100
AcDbEntity
  8
STAVBA OBRYS
  0
POLYLINE
  5
59D4
330
1F
100
AcDbEntity
  8
STAVBA OBRYS
100
AcDb2dPolyline
 66
     1
 10
0.0
 20
0.0
 30
0.0
  0
VERTEX
  5
59D5
330
59D4
100
AcDbEntity
  8
STAVBA OBRYS
100
AcDbVertex
100
AcDb2dVertex
 10
653.2440099831392
 20
-1506.692510141522
 30
0.0
 42
0.0072417954699014
  0
VERTEX
  5
59D6
330
59D4
100
AcDbEntity
  8
STAVBA OBRYS
100
AcDbVertex
100
AcDb2dVertex
 10
653.3075826874074
 20
-1507.186606734227
 30
0.0
 42
0.0707158694326265
  0
VERTEX
  5
59D7
330
59D4
100
AcDbEntity
  8
STAVBA OBRYS
100
AcDbVertex
100
AcDb2dVertex
 10
653.9302840198898
 20
-1509.513900326915
 30
0.0
 42
0.033952657250207
  0
VERTEX
  5
59D8
330
59D4
100
AcDbEntity
  8
STAVBA OBRYS
100
AcDbVertex
100
AcDb2dVertex
 10
656.5957064927015
 20
-1514.754442798025
 30
0.0
 42
0.0571374688189033
  0
VERTEX
  5
59D9
330
59D4
100
AcDbEntity
  8
STAVBA OBRYS
100
AcDbVertex
100
AcDb2dVertex
 10
658.721610649135
 20
-1517.536201165054
 30
0.0
 42
0.0274923553235744
  0
VERTEX
  5
59DA
330
59D4
100
AcDbEntity
  8
STAVBA OBRYS
100
AcDbVertex
100
AcDb2dVertex
 10
661.8202833931527
 20
-1520.417871579354
 30
0.0
 42
0.0255412025538677
  0
VERTEX
  5
59DB
330
59D4
100
AcDbEntity
  8
STAVBA OBRYS
100
AcDbVertex
100
AcDb2dVertex
 10
665.46486496321
 20
-1523.148944465258
 30
0.0
 42
0.0272796991712396
  0
VERTEX
  5
59DC
330
59D4
100
AcDbEntity
  8
STAVBA OBRYS
100
AcDbVertex
100
AcDb2dVertex
 10
670.3820973706124
 20
-1526.079586148336
 30
0.0
 42
0.056967459841729
  0
VERTEX
  5
59DD
330
59D4
100
AcDbEntity
  8
STAVBA OBRYS
100
AcDbVertex
100
AcDb2dVertex
 10
672.9450384575421
 20
-1527.071036344872
 30
0.0
 42
0.0373408083348504
  0
VERTEX
  5
59DE
330
59D4
100
AcDbEntity
  8
STAVBA OBRYS
100
AcDbVertex
100
AcDb2dVertex
 10
673.2115623026575
 20
-1527.11971516309
 30
0.0
 42
0.0052305969362967
  0
VERTEX
  5
59DF
330
59D4
100
AcDbEntity
  8
STAVBA OBRYS
100
AcDbVertex
100
AcDb2dVertex
 10
673.6264717424155
 20
-1527.159478401919
 30
0.0
  0
SEQEND
  5
59E0
330
59D4
100
AcDbEntity
  8
STAVBA OBRYS
  0
POLYLINE
  5
59E1
330
1F
100
AcDbEntity
  8
STAVBA OBRYS
100
AcDb2dPolyline
 66
     1
 10
0.0
 20
0.0
 30
0.0
  0
VERTEX
  5
59E2
330
59E1
100
AcDbEntity
  8
STAVBA OBRYS
100
AcDbVertex
100
AcDb2dVertex
 10
694.2656168922212
 20
-1506.821737388658
 30
0.0
 42
-0.0072417954699014
  0
VERTEX
  5
59E3
330
59E1
100
AcDbEntity
  8
STAVBA OBRYS
100
AcDbVertex
100
AcDb2dVertex
 10
694.198932450813
 20
-1507.315423642187
 30
0.0
 42
-0.0707158694326265
  0
VERTEX
  5
59E4
330
59E1
100
AcDbEntity
  8
STAVBA OBRYS
100
AcDbVertex
100
AcDb2dVertex
 10
693.5615806311061
 20
-1509.6387477853
 30
0.0
 42
-0.033952657250207
  0
VERTEX
  5
59E5
330
59E1
100
AcDbEntity
  8
STAVBA OBRYS
100
AcDbVertex
100
AcDb2dVertex
 10
690.8631936238188
 20
-1514.862393055507
 30
0.0
 42
-0.0571374688189033
  0
VERTEX
  5
59E6
330
59E1
100
AcDbEntity
  8
STAVBA OBRYS
100
AcDbVertex
100
AcDb2dVertex
 10
688.7198055119906
 20
-1517.630702195932
 30
0.0
 42
-0.0274923553235744
  0
VERTEX
  5
59E7
330
59E1
100
AcDbEntity
  8
STAVBA OBRYS
100
AcDbVertex
100
AcDb2dVertex
 10
685.6030386353332
 20
-1520.492792583692
 30
0.0
 42
-0.0255412025538677
  0
VERTEX
  5
59E8
330
59E1
100
AcDbEntity
  8
STAVBA OBRYS
100
AcDbVertex
100
AcDb2dVertex
 10
681.9413225900744
 20
-1523.200848996117
 30
0.0
 42
-0.0272796991712396
  0
VERTEX
  5
59E9
330
59E1
100
AcDbEntity
  8
STAVBA OBRYS
100
AcDbVertex
100
AcDb2dVertex
 10
677.0057236062521
 20
-1526.100452054111
 30
0.0
 42
-0.056967459841729
  0
VERTEX
  5
59EA
330
59E1
100
AcDbEntity
  8
STAVBA OBRYS
100
AcDbVertex
100
AcDb2dVertex
 10
674.436586869374
 20
-1527.07573505635
 30
0.0
 42
-0.0373408083348504
  0
VERTEX
  5
59EB
330
59E1
100
AcDbEntity
  8
STAVBA OBRYS
100
AcDbVertex
100
AcDb2dVertex
 10
674.1697616188057
 20
-1527.122733705491
 30
0.0
 42
-0.0052305969362967
  0
VERTEX
  5
59EC
330
59E1
100
AcDbEntity
  8
STAVBA OBRYS
100
AcDbVertex
100
AcDb2dVertex
 10
673.7546098902921
 20
-1527.159882065777
 30
0.0
  0
SEQEND
  5
59ED
330
59E1
100
AcDbEntity
  8
STAVBA OBRYS
  0
POLYLINE
  5
59EE
330
1F
100
AcDbEntity
  8
STAVBA OBRYS
100
AcDb2dPolyline
 66
     1
 10
0.0
 20
0.0
 30
0.0
  0
VERTEX
  5
59EF
330
59EE
100
AcDbEntity
  8
STAVBA OBRYS
100
AcDbVertex
100
AcDb2dVertex
 10
685.5919556673352
 20
-1506.821737388658
 30
0.0
 42
-0.0064239028828688
  0
VERTEX
  5
59F0
330
59EE
100
AcDbEntity
  8
STAVBA OBRYS
100
AcDbVertex
100
AcDb2dVertex
 10
685.5453135391171
 20
-1507.084673779878
 30
0.0
 42
-0.0832048017309575
  0
VERTEX
  5
59F1
330
59EE
100
AcDbEntity
  8
STAVBA OBRYS
100
AcDbVertex
100
AcDb2dVertex
 10
684.6042944159007
 20
-1509.880930075463
 30
0.0
 42
-0.0336767237692336
  0
VERTEX
  5
59F2
330
59EE
100
AcDbEntity
  8
STAVBA OBRYS
100
AcDbVertex
100
AcDb2dVertex
 10
682.560914545199
 20
-1513.154859498816
 30
0.0
 42
-0.0844635135812105
  0
VERTEX
  5
59F3
330
59EE
100
AcDbEntity
  8
STAVBA OBRYS
100
AcDbVertex
100
AcDb2dVertex
 10
681.4571428333247
 20
-1514.240165424811
 30
0.0
 42
-0.0495829410719565
  0
VERTEX
  5
59F4
330
59EE
100
AcDbEntity
  8
STAVBA OBRYS
100
AcDbVertex
100
AcDb2dVertex
 10
679.3587287084983
 20
-1515.412144833586
 30
0.0
 42
-0.0322692699774654
  0
VERTEX
  5
59F5
330
59EE
100
AcDbEntity
  8
STAVBA OBRYS
100
AcDbVertex
100
AcDb2dVertex
 10
675.8891036911909
 20
-1516.661973035266
 30
0.0
 42
-0.0276160659512937
  0
VERTEX
  5
59F6
330
59EE
100
AcDbEntity
  8
STAVBA OBRYS
100
AcDbVertex
100
AcDb2dVertex
 10
674.8624119652476
 20
-1516.89805555
 30
0.0
 42
-0.0126891984598699
  0
VERTEX
  5
59F7
330
59EE
100
AcDbEntity
  8
STAVBA OBRYS
100
AcDbVertex
100
AcDb2dVertex
 10
673.7546098902921
 20
-1517.06029841745
 30
0.0
  0
SEQEND
  5
59F8
330
59EE
100
AcDbEntity
  8
STAVBA OBRYS
  0
LWPOLYLINE
  5
59F9
330
1F
100
AcDbEntity
  8
STAVBA OBRYS
100
AcDbPolyline
 90
        7
 70
     0
 43
0.0
 10
679.1723320659175
 20
-1506.821737388656
 42
-0.0203924744732807
 10
678.0898312846211
 20
-1508.037493423641
 42
-0.0273961979096945
 10
677.0699940643926
 20
-1508.983305072472
 42
-0.0243529190212958
 10
675.674249473489
 20
-1510.031816286073
 42
-0.0398020282482987
 10
674.744299228415
 20
-1510.55937077821
 42
-0.104168275620852
 10
674.2806058648084
 20
-1510.667390530422
 42
-0.007272956268647
 10
673.7546098902921
 20
-1510.689534551976
 42
-0.007272956268647
  0
LWPOLYLINE
  5
59FA
330
1F
100
AcDbEntity
  8
STAVBA OBRYS
100
AcDbPolyline
 90
        3
 70
     0
 43
0.0
 10
704.9557799898348
 20
-1514.620740871762
 10
728.9512829082259
 20
-1525.679975732386
 10
733.751208068682
 20
-1526.454452702797
  0
INSERT
  5
59FB
330
1F
100
AcDbEntity
  8
POPIS
100
AcDbBlockReference
  2
E_PUNKT
 10
929.8150126872014
 20
-1631.534250405194
 30
0.0
  0
LWPOLYLINE
  5
5A04
330
1F
100
AcDbEntity
  8
STAVBA OBRYS
100
AcDbPolyline
 90
        3
 70
     0
 43
0.0
 10
666.6578381648096
 20
-1497.904731718987
 10
645.493732105383
 20
-1490.318178375173
 10
634.5905825052568
 20
-1481.741689883023
  0
LWPOLYLINE
  5
5A06
330
1F
100
AcDbEntity
  8
STAVBA OBRYS
100
AcDbPolyline
 90
        2
 70
     0
 43
0.0
 10
642.5049223329215
 20
-1499.219468090881
 10
634.3356135200547
 20
-1495.51655665315
  0
LWPOLYLINE
  5
5A15
330
1F
100
AcDbEntity
  8
STAVBA OBRYS
100
AcDbPolyline
 90
        4
 70
     0
 43
0.0
 10
733.7546098902921
 20
-1494.581941183581
 42
0.0067884601454819
 10
731.359597941041
 20
-1482.427305569697
 42
0.0219777111230329
 10
730.2722629386653
 20
-1478.205569662694
 42
0.0044723068875599
 10
729.4989921514309
 20
-1476.932407839933
 42
0.0044723068875599
  0
LWPOLYLINE
  5
5A16
330
1F
100
AcDbEntity
  8
STAVBA OBRYS
100
AcDbPolyline
 90
        3
 70
     0
 43
0.0
 10
681.8046868395422
 20
-1500.200940554034
 10
701.9109479832141
 20
-1490.140451512472
 10
711.711473562168
 20
-1480.322889471155
  0
LWPOLYLINE
  5
5A17
330
1F
100
AcDbEntity
  8
STAVBA OBRYS
100
AcDbPolyline
 90
        3
 70
     0
 43
0.0
 10
704.9557799898348
 20
-1499.02273390555
 10
728.9512829082259
 20
-1487.963499044926
 10
733.751208068682
 20
-1487.189022074515
  0
TEXT
  5
5AA0
330
1F
100
AcDbEntity
  8
POPIS
100
AcDbText
 10
422.9327566371329
 20
-1433.802851903233
 30
0.0
 40
25.0
  1
Napojení s vytmelenou spárou (podloženou profilem)
 41
0.85
  7
SIMPLEX7
100
AcDbText
  0
CIRCLE
  5
5ABA
330
1F
100
AcDbEntity
  8
POPIS
100
AcDbCircle
 10
647.0083162359615
 20
-1939.083591122837
 30
0.0
 40
11.13656048292026
  0
TEXT
  5
5ABB
330
1F
100
AcDbEntity
  8
POPIS
100
AcDbText
 10
642.2492871807799
 20
-1944.628936867824
 30
0.0
 40
12.0
  1
R
 41
0.85
  7
SIMPLEX7
100
AcDbText
  0
TEXT
  5
5ABC
330
1F
100
AcDbEntity
  8
POPIS
100
AcDbText
 10
475.442844717475
 20
-1973.699904233988
 30
0.0
 40
25.0
  1
Deska CETRIS   
 41
0.7
  7
SIMPLEX7
100
AcDbText
  0
TEXT
  5
5ABD
330
1F
100
AcDbEntity
  8
POPIS
100
AcDbText
 10
421.9188843334714
 20
-1972.880770872698
 30
0.0
 40
25.0
  1
01
 41
0.85
  7
SIMPLEX7
100
AcDbText
  0
TEXT
  5
5ABE
330
1F
100
AcDbEntity
  8
POPIS
100
AcDbText
 10
474.6231019417345
 20
-2212.139937626583
 30
0.0
 40
25.0
  1
Závěs
 41
0.7
  7
SIMPLEX7
100
AcDbText
  0
TEXT
  5
5ABF
330
1F
100
AcDbEntity
  8
POPIS
100
AcDbText
 10
420.2793987819923
 20
-2212.139937626583
 30
0.0
 40
25.0
  1
07
 41
0.85
  7
SIMPLEX7
100
AcDbText
  0
TEXT
  5
5AC0
330
1F
100
AcDbEntity
  8
POPIS
100
AcDbText
 10
474.6231019417345
 20
-2247.139937626583
 30
0.0
 40
25.0
  1
Minerální plsť
 41
0.7
  7
SIMPLEX7
100
AcDbText
  0
TEXT
  5
5AC1
330
1F
100
AcDbEntity
  8
POPIS
100
AcDbText
 10
420.2793987819923
 20
-2247.139937626583
 30
0.0
 40
25.0
  1
08
 41
0.85
  7
SIMPLEX7
100
AcDbText
  0
TEXT
  5
5AC9
330
1F
100
AcDbEntity
  8
POPIS
100
AcDbText
 10
475.442844717475
 20
-2280.578889634609
 30
0.0
 40
25.0
  1
UD profil
 41
0.7
  7
SIMPLEX7
100
AcDbText
  0
TEXT
  5
5ACA
330
1F
100
AcDbEntity
  8
POPIS
100
AcDbText
 10
421.0991415577328
 20
-2280.578889634609
 30
0.0
 40
25.0
  1
09
 41
0.85
  7
SIMPLEX7
100
AcDbText
  0
TEXT
  5
5ACB
330
1F
100
AcDbEntity
  8
POPIS
100
AcDbText
 10
420.2793987819923
 20
-2180.463201557317
 30
0.0
 40
25.0
  1
06
 41
0.85
  7
SIMPLEX7
100
AcDbText
  0
TEXT
  5
5ACC
330
1F
100
AcDbEntity
  8
POPIS
100
AcDbText
 10
474.6231019417345
 20
-2180.463201557317
 30
0.0
 40
25.0
  1
Křížová spojka
 41
0.7
  7
SIMPLEX7
100
AcDbText
  0
TEXT
  5
5ACD
330
1F
100
AcDbEntity
  8
POPIS
100
AcDbText
 10
473.8033591659959
 20
-2144.374660466381
 30
0.0
 40
25.0
  1
CD profil nosný
 41
0.7
  7
SIMPLEX7
100
AcDbText
  0
TEXT
  5
5ACE
330
1F
100
AcDbEntity
  8
POPIS
100
AcDbText
 10
474.6231019417345
 20
-2108.55552710509
 30
0.0
 40
25.0
  1
CD profil montážní
 41
0.7
  7
SIMPLEX7
100
AcDbText
  0
TEXT
  5
5ACF
330
1F
100
AcDbEntity
  8
POPIS
100
AcDbText
 10
420.2793987819923
 20
-2108.55552710509
 30
0.0
 40
25.0
  1
04
 41
0.85
  7
SIMPLEX7
100
AcDbText
  0
TEXT
  5
5AD0
330
1F
100
AcDbEntity
  8
POPIS
100
AcDbText
 10
419.4596560062536
 20
-2144.374660466381
 30
0.0
 40
25.0
  1
05
 41
0.85
  7
SIMPLEX7
100
AcDbText
  0
TEXT
  5
5AE6
330
1F
100
AcDbEntity
  8
POPIS
100
AcDbText
 10
474.6231019417345
 20
-2074.312834381782
 30
0.0
 40
25.0
  1
Tmel DEXAFLAMM - R
 41
0.7
  7
SIMPLEX7
100
AcDbText
  0
TEXT
  5
5AE7
330
1F
100
AcDbEntity
  8
POPIS
100
AcDbText
 10
474.6231019417345
 20
-2006.199258591732
 30
0.0
 40
25.0
  1
Vrut 4,2x25 (35,45) mm
 41
0.7
  7
SIMPLEX7
100
AcDbText
  0
TEXT
  5
5AE8
330
1F
100
AcDbEntity
  8
POPIS
100
AcDbText
 10
420.2793987819923
 20
-2074.312834381782
 30
0.0
 40
25.0
  1
03
 41
0.85
  7
SIMPLEX7
100
AcDbText
  0
TEXT
  5
5AE9
330
1F
100
AcDbEntity
  8
POPIS
100
AcDbText
 10
420.2793987819923
 20
-2006.199258591732
 30
0.0
 40
25.0
  1
02
 41
0.85
  7
SIMPLEX7
100
AcDbText
  0
TEXT
  5
5AEB
330
1F
100
AcDbEntity
  8
POPIS
100
AcDbText
 10
1061.671519383518
 20
-1863.835798500486
 30
0.0
 40
25.0
  1
01
 41
0.85
  7
SIMPLEX7
100
AcDbText
  0
LINE
  5
5AEC
330
1F
100
AcDbEntity
  8
POPIS
100
AcDbLine
 10
1077.402597764906
 20
-1713.300131823982
 30
0.0
 11
1077.402597764906
 21
-1832.228921283615
 31
0.0
  0
INSERT
  5
5AED
330
1F
100
AcDbEntity
  8
POPIS
100
AcDbBlockReference
  2
E_PUNKT
 10
1077.455386734195
 20
-1714.576611853268
 30
0.0
  0
LINE
  5
5AEE
330
1F
100
AcDbEntity
  8
SPOJOVACÍ
  6
Continuous
100
AcDbLine
 10
1041.148184835136
 20
-1718.561760930897
 30
0.0
 11
1042.106265905121
 21
-1719.769129113796
 31
0.0
  0
LINE
  5
5AEF
330
1F
100
AcDbEntity
  8
SPOJOVACÍ
  6
Continuous
100
AcDbLine
 10
1033.85839712292
 20
-1722.223863038852
 30
0.0
 11
1044.058704900188
 21
-1722.223863038852
 31
0.0
  0
LINE
  5
5AF0
330
1F
100
AcDbEntity
  8
SPOJOVACÍ
  6
Continuous
100
AcDbLine
 10
1033.85839712292
 20
-1721.023936262121
 30
0.0
 11
1044.058704900188
 21
-1721.023936262121
 31
0.0
  0
LINE
  5
5AF1
330
1F
100
AcDbEntity
  8
SPOJOVACÍ
  6
Continuous
100
AcDbLine
 10
1038.205108619976
 20
-1692.488933374916
 30
0.0
 11
1038.49532346513
 21
-1690.16814476456
 31
0.0
  0
LINE
  5
5AF2
330
1F
100
AcDbEntity
  8
SPOJOVACÍ
  6
Continuous
100
AcDbLine
 10
1039.384571529907
 20
-1689.863977279237
 30
0.0
 11
1039.652462158218
 21
-1692.008962664222
 31
0.0
  0
LINE
  5
5AF3
330
1F
100
AcDbEntity
  8
SPOJOVACÍ
  6
Continuous
100
AcDbLine
 10
1040.535198985989
 20
-1717.147893721194
 30
0.0
 11
1041.148184835136
 21
-1718.561760930897
 31
0.0
  0
LINE
  5
5AF4
330
1F
100
AcDbEntity
  8
SPOJOVACÍ
  6
Continuous
100
AcDbLine
 10
1037.114942586148
 20
-1717.892034357937
 30
0.0
 11
1037.542823450448
 21
-1716.411194490887
 31
0.0
  0
LINE
  5
5AF5
330
1F
100
AcDbEntity
  8
SPOJOVACÍ
  6
Continuous
100
AcDbLine
 10
1040.308236095105
 20
-1715.624265767764
 30
0.0
 11
1040.535198985989
 21
-1717.147893721194
 31
0.0
  0
LINE
  5
5AF6
330
1F
100
AcDbEntity
  8
SPOJOVACÍ
  6
Continuous
100
AcDbLine
 10
1037.542823450448
 20
-1716.411194490887
 30
0.0
 11
1037.608865932369
 21
-1715.624265767764
 31
0.0
  0
LINE
  5
5AF7
330
1F
100
AcDbEntity
  8
SPOJOVACÍ
  6
Continuous
100
AcDbLine
 10
1040.308236095105
 20
-1715.624265767764
 30
0.0
 11
1040.308236095105
 21
-1710.681311588836
 31
0.0
  0
LINE
  5
5AF8
330
1F
100
AcDbEntity
  8
SPOJOVACÍ
  6
Continuous
100
AcDbLine
 10
1037.608865932369
 20
-1715.624265767764
 30
0.0
 11
1037.608865932369
 21
-1711.586372638084
 31
0.0
  0
LINE
  5
5AF9
330
1F
100
AcDbEntity
  8
SPOJOVACÍ
  6
Continuous
100
AcDbLine
 10
1037.608865932369
 20
-1710.991060128908
 30
0.0
 11
1037.608865932369
 21
-1708.472144073879
 31
0.0
  0
LINE
  5
5AFA
330
1F
100
AcDbEntity
  8
SPOJOVACÍ
  6
Continuous
100
AcDbLine
 10
1037.608865932369
 20
-1707.868459982564
 30
0.0
 11
1037.608865932369
 21
-1705.347683575855
 31
0.0
  0
LINE
  5
5AFB
330
1F
100
AcDbEntity
  8
SPOJOVACÍ
  6
Continuous
100
AcDbLine
 10
1037.608865932369
 20
-1704.753301242381
 30
0.0
 11
1037.608865932369
 21
-1702.225083429511
 31
0.0
  0
LINE
  5
5AFC
330
1F
100
AcDbEntity
  8
SPOJOVACÍ
  6
Continuous
100
AcDbLine
 10
1040.308236095105
 20
-1710.077627497521
 30
0.0
 11
1040.308236095105
 21
-1707.558711442492
 31
0.0
  0
LINE
  5
5AFD
330
1F
100
AcDbEntity
  8
SPOJOVACÍ
  6
Continuous
100
AcDbLine
 10
1040.308236095105
 20
-1706.962468757337
 30
0.0
 11
1040.308236095105
 21
-1704.434250944468
 31
0.0
  0
LINE
  5
5AFE
330
1F
100
AcDbEntity
  8
SPOJOVACÍ
  6
Continuous
100
AcDbLine
 10
1040.308236095105
 20
-1703.839868610994
 30
0.0
 11
1040.308236095105
 21
-1701.319092204284
 31
0.0
  0
LINE
  5
5AFF
330
1F
100
AcDbEntity
  8
SPOJOVACÍ
  6
Continuous
100
AcDbLine
 10
1037.608865932369
 20
-1701.620469162226
 30
0.0
 11
1037.608865932369
 21
-1699.102483282899
 31
0.0
  0
LINE
  5
5B00
330
1F
100
AcDbEntity
  8
SPOJOVACÍ
  6
Continuous
100
AcDbLine
 10
1037.608865932369
 20
-1698.506240597744
 30
0.0
 11
1037.608865932369
 21
-1697.258874855855
 31
0.0
  0
LINE
  5
5B01
330
1F
100
AcDbEntity
  8
SPOJOVACÍ
  6
Continuous
100
AcDbLine
 10
1040.308236095105
 20
-1700.718198640352
 30
0.0
 11
1040.308236095105
 21
-1698.199282585323
 31
0.0
  0
LINE
  5
5B02
330
1F
100
AcDbEntity
  8
SPOJOVACÍ
  6
Continuous
100
AcDbLine
 10
1040.308236095105
 20
-1697.595598493739
 30
0.0
 11
1040.308236095105
 21
-1697.258874855855
 31
0.0
  0
LINE
  5
5B03
330
1F
100
AcDbEntity
  8
SPOJOVACÍ
  6
Continuous
100
AcDbLine
 10
1037.608865932369
 20
-1697.258874855855
 30
0.0
 11
1037.758624235092
 21
-1696.061738606498
 31
0.0
  0
LINE
  5
5B04
330
1F
100
AcDbEntity
  8
SPOJOVACÍ
  6
Continuous
100
AcDbLine
 10
1037.835828827618
 20
-1695.441311350645
 30
0.0
 11
1038.126043677138
 21
-1693.11959256458
 31
0.0
  0
LINE
  5
5B05
330
1F
100
AcDbEntity
  8
SPOJOVACÍ
  6
Continuous
100
AcDbLine
 10
1039.724085691076
 20
-1692.58102077867
 30
0.0
 11
1039.991046146414
 21
-1694.717634581524
 31
0.0
  0
LINE
  5
5B06
330
1F
100
AcDbEntity
  8
SPOJOVACÍ
  6
Continuous
100
AcDbLine
 10
1040.062669683637
 20
-1695.287832344569
 30
0.0
 11
1040.308236095105
 21
-1697.258874855855
 31
0.0
  0
LINE
  5
5B07
330
1F
100
AcDbEntity
  8
SPOJOVACÍ
  6
Continuous
100
AcDbLine
 10
1036.55869745863
 20
-1711.423591873899
 30
0.0
 11
1041.358404564479
 21
-1710.223665097437
 31
0.0
  0
LINE
  5
5B08
330
1F
100
AcDbEntity
  8
SPOJOVACÍ
  6
Continuous
100
AcDbLine
 10
1036.55869745863
 20
-1711.423591873899
 30
0.0
 11
1036.936348833941
 21
-1711.205930737851
 31
0.0
  0
LINE
  5
5B09
330
1F
100
AcDbEntity
  8
SPOJOVACÍ
  6
Continuous
100
AcDbLine
 10
1036.55869745863
 20
-1711.423591873899
 30
0.0
 11
1036.936348833941
 21
-1711.802173422729
 31
0.0
  0
LINE
  5
5B0A
330
1F
100
AcDbEntity
  8
SPOJOVACÍ
  6
Continuous
100
AcDbLine
 10
1041.358404564479
 20
-1710.223665097437
 30
0.0
 11
1040.980753193534
 21
-1709.846013724309
 31
0.0
  0
LINE
  5
5B0B
330
1F
100
AcDbEntity
  8
SPOJOVACÍ
  6
Continuous
100
AcDbLine
 10
1041.358404564479
 20
-1710.223665097437
 30
0.0
 11
1040.980753193534
 21
-1710.442256409464
 31
0.0
  0
LINE
  5
5B0C
330
1F
100
AcDbEntity
  8
SPOJOVACÍ
  6
Continuous
100
AcDbLine
 10
1036.936348833941
 20
-1711.205930737851
 30
0.0
 11
1040.980753193534
 21
-1709.846013724309
 31
0.0
  0
LINE
  5
5B0D
330
1F
100
AcDbEntity
  8
SPOJOVACÍ
  6
Continuous
100
AcDbLine
 10
1036.936348833941
 20
-1711.802173422729
 30
0.0
 11
1040.980753193534
 21
-1710.442256409464
 31
0.0
  0
LINE
  5
5B0E
330
1F
100
AcDbEntity
  8
SPOJOVACÍ
  6
Continuous
100
AcDbLine
 10
1036.55869745863
 20
-1708.303782254938
 30
0.0
 11
1041.358404564479
 21
-1707.103855478198
 31
0.0
  0
LINE
  5
5B0F
330
1F
100
AcDbEntity
  8
SPOJOVACÍ
  6
Continuous
100
AcDbLine
 10
1036.55869745863
 20
-1708.303782254938
 30
0.0
 11
1036.936348833941
 21
-1708.085190942911
 31
0.0
  0
LINE
  5
5B10
330
1F
100
AcDbEntity
  8
SPOJOVACÍ
  6
Continuous
100
AcDbLine
 10
1036.55869745863
 20
-1708.303782254938
 30
0.0
 11
1036.936348833941
 21
-1708.681433628066
 31
0.0
  0
LINE
  5
5B11
330
1F
100
AcDbEntity
  8
SPOJOVACÍ
  6
Continuous
100
AcDbLine
 10
1041.358404564479
 20
-1707.103855478198
 30
0.0
 11
1040.980753193534
 21
-1706.726204105347
 31
0.0
  0
LINE
  5
5B12
330
1F
100
AcDbEntity
  8
SPOJOVACÍ
  6
Continuous
100
AcDbLine
 10
1041.358404564479
 20
-1707.103855478198
 30
0.0
 11
1040.980753193534
 21
-1707.322446790225
 31
0.0
  0
LINE
  5
5B13
330
1F
100
AcDbEntity
  8
SPOJOVACÍ
  6
Continuous
100
AcDbLine
 10
1036.936348833941
 20
-1708.085190942911
 30
0.0
 11
1040.980753193534
 21
-1706.726204105347
 31
0.0
  0
LINE
  5
5B14
330
1F
100
AcDbEntity
  8
SPOJOVACÍ
  6
Continuous
100
AcDbLine
 10
1036.936348833941
 20
-1708.681433628066
 30
0.0
 11
1040.980753193534
 21
-1707.322446790225
 31
0.0
  0
LINE
  5
5B15
330
1F
100
AcDbEntity
  8
SPOJOVACÍ
  6
Continuous
100
AcDbLine
 10
1036.812635453051
 20
-1695.866401689476
 30
0.0
 11
1037.191217001335
 21
-1695.647810377449
 31
0.0
  0
LINE
  5
5B16
330
1F
100
AcDbEntity
  8
SPOJOVACÍ
  6
Continuous
100
AcDbLine
 10
1036.812635453051
 20
-1695.866401689476
 30
0.0
 11
1037.191217001335
 21
-1696.244053062604
 31
0.0
  0
LINE
  5
5B17
330
1F
100
AcDbEntity
  8
SPOJOVACÍ
  6
Continuous
100
AcDbLine
 10
1040.937965105794
 20
-1694.893437807172
 30
0.0
 11
1040.560313734848
 21
-1694.514856258065
 31
0.0
  0
LINE
  5
5B18
330
1F
100
AcDbEntity
  8
SPOJOVACÍ
  6
Continuous
100
AcDbLine
 10
1040.937965105794
 20
-1694.893437807172
 30
0.0
 11
1040.560313734848
 21
-1695.11109894322
 31
0.0
  0
LINE
  5
5B19
330
1F
100
AcDbEntity
  8
SPOJOVACÍ
  6
Continuous
100
AcDbLine
 10
1037.191217001335
 20
-1695.647810377449
 30
0.0
 11
1040.560313734848
 21
-1694.514856258065
 31
0.0
  0
LINE
  5
5B1A
330
1F
100
AcDbEntity
  8
SPOJOVACÍ
  6
Continuous
100
AcDbLine
 10
1037.191217001335
 20
-1696.244053062604
 30
0.0
 11
1040.560313734848
 21
-1695.11109894322
 31
0.0
  0
LINE
  5
5B1B
330
1F
100
AcDbEntity
  8
SPOJOVACÍ
  6
Continuous
100
AcDbLine
 10
1036.812635453051
 20
-1695.866401689476
 30
0.0
 11
1040.937965105794
 21
-1694.893437807172
 31
0.0
  0
LINE
  5
5B1C
330
1F
100
AcDbEntity
  8
SPOJOVACÍ
  6
Continuous
100
AcDbLine
 10
1037.377252159157
 20
-1692.851701935178
 30
0.0
 11
1037.754903534468
 21
-1692.63404079913
 31
0.0
  0
LINE
  5
5B1D
330
1F
100
AcDbEntity
  8
SPOJOVACÍ
  6
Continuous
100
AcDbLine
 10
1037.377252159157
 20
-1692.851701935178
 30
0.0
 11
1037.754903534468
 21
-1693.230283484285
 31
0.0
  0
LINE
  5
5B1E
330
1F
100
AcDbEntity
  8
SPOJOVACÍ
  6
Continuous
100
AcDbLine
 10
1040.493341075588
 20
-1692.218252218408
 30
0.0
 11
1040.115689704643
 21
-1691.839670669578
 31
0.0
  0
LINE
  5
5B1F
330
1F
100
AcDbEntity
  8
SPOJOVACÍ
  6
Continuous
100
AcDbLine
 10
1040.493341075588
 20
-1692.218252218408
 30
0.0
 11
1040.115689704643
 21
-1692.435913354456
 31
0.0
  0
LINE
  5
5B20
330
1F
100
AcDbEntity
  8
SPOJOVACÍ
  6
Continuous
100
AcDbLine
 10
1037.754903534468
 20
-1692.63404079913
 30
0.0
 11
1040.115689704643
 21
-1691.839670669578
 31
0.0
  0
LINE
  5
5B21
330
1F
100
AcDbEntity
  8
SPOJOVACÍ
  6
Continuous
100
AcDbLine
 10
1037.754903534468
 20
-1693.230283484285
 30
0.0
 11
1040.115689704643
 21
-1692.435913354456
 31
0.0
  0
LINE
  5
5B22
330
1F
100
AcDbEntity
  8
SPOJOVACÍ
  6
Continuous
100
AcDbLine
 10
1037.377252159157
 20
-1692.851701935178
 30
0.0
 11
1040.493341075588
 21
-1692.218252218408
 31
0.0
  0
LINE
  5
5B23
330
1F
100
AcDbEntity
  8
SPOJOVACÍ
  6
Continuous
100
AcDbLine
 10
1036.55869745863
 20
-1705.183972635699
 30
0.0
 11
1041.358404564479
 21
-1703.984045859237
 31
0.0
  0
LINE
  5
5B24
330
1F
100
AcDbEntity
  8
SPOJOVACÍ
  6
Continuous
100
AcDbLine
 10
1036.55869745863
 20
-1705.183972635699
 30
0.0
 11
1036.936348833941
 21
-1704.965381323672
 31
0.0
  0
LINE
  5
5B25
330
1F
100
AcDbEntity
  8
SPOJOVACÍ
  6
Continuous
100
AcDbLine
 10
1036.55869745863
 20
-1705.183972635699
 30
0.0
 11
1036.936348833941
 21
-1705.561624008827
 31
0.0
  0
LINE
  5
5B26
330
1F
100
AcDbEntity
  8
SPOJOVACÍ
  6
Continuous
100
AcDbLine
 10
1041.358404564479
 20
-1703.984045859237
 30
0.0
 11
1040.980753193534
 21
-1703.605464310407
 31
0.0
  0
LINE
  5
5B27
330
1F
100
AcDbEntity
  8
SPOJOVACÍ
  6
Continuous
100
AcDbLine
 10
1041.358404564479
 20
-1703.984045859237
 30
0.0
 11
1040.980753193534
 21
-1704.201706995554
 31
0.0
  0
LINE
  5
5B28
330
1F
100
AcDbEntity
  8
SPOJOVACÍ
  6
Continuous
100
AcDbLine
 10
1036.936348833941
 20
-1704.965381323672
 30
0.0
 11
1040.980753193534
 21
-1703.605464310407
 31
0.0
  0
LINE
  5
5B29
330
1F
100
AcDbEntity
  8
SPOJOVACÍ
  6
Continuous
100
AcDbLine
 10
1036.936348833941
 20
-1705.561624008827
 30
0.0
 11
1040.980753193534
 21
-1704.201706995554
 31
0.0
  0
LINE
  5
5B2A
330
1F
100
AcDbEntity
  8
SPOJOVACÍ
  6
Continuous
100
AcDbLine
 10
1036.55869745863
 20
-1702.06416301673
 30
0.0
 11
1041.358404564479
 21
-1700.864236240267
 31
0.0
  0
LINE
  5
5B2B
330
1F
100
AcDbEntity
  8
SPOJOVACÍ
  6
Continuous
100
AcDbLine
 10
1036.55869745863
 20
-1702.06416301673
 30
0.0
 11
1036.936348833941
 21
-1701.845571704711
 31
0.0
  0
LINE
  5
5B2C
330
1F
100
AcDbEntity
  8
SPOJOVACÍ
  6
Continuous
100
AcDbLine
 10
1036.55869745863
 20
-1702.06416301673
 30
0.0
 11
1036.936348833941
 21
-1702.441814389858
 31
0.0
  0
LINE
  5
5B2D
330
1F
100
AcDbEntity
  8
SPOJOVACÍ
  6
Continuous
100
AcDbLine
 10
1041.358404564479
 20
-1700.864236240267
 30
0.0
 11
1040.980753193534
 21
-1700.485654691437
 31
0.0
  0
LINE
  5
5B2E
330
1F
100
AcDbEntity
  8
SPOJOVACÍ
  6
Continuous
100
AcDbLine
 10
1041.358404564479
 20
-1700.864236240267
 30
0.0
 11
1040.980753193534
 21
-1701.081897376316
 31
0.0
  0
LINE
  5
5B2F
330
1F
100
AcDbEntity
  8
SPOJOVACÍ
  6
Continuous
100
AcDbLine
 10
1036.936348833941
 20
-1701.845571704711
 30
0.0
 11
1040.980753193534
 21
-1700.485654691437
 31
0.0
  0
LINE
  5
5B30
330
1F
100
AcDbEntity
  8
SPOJOVACÍ
  6
Continuous
100
AcDbLine
 10
1036.936348833941
 20
-1702.441814389858
 30
0.0
 11
1040.980753193534
 21
-1701.081897376316
 31
0.0
  0
LINE
  5
5B31
330
1F
100
AcDbEntity
  8
SPOJOVACÍ
  6
Continuous
100
AcDbLine
 10
1036.55869745863
 20
-1698.943423221789
 30
0.0
 11
1041.358404564479
 21
-1697.743496445327
 31
0.0
  0
LINE
  5
5B32
330
1F
100
AcDbEntity
  8
SPOJOVACÍ
  6
Continuous
100
AcDbLine
 10
1036.55869745863
 20
-1698.943423221789
 30
0.0
 11
1036.936348833941
 21
-1698.725762085741
 31
0.0
  0
LINE
  5
5B33
330
1F
100
AcDbEntity
  8
SPOJOVACÍ
  6
Continuous
100
AcDbLine
 10
1036.55869745863
 20
-1698.943423221789
 30
0.0
 11
1036.936348833941
 21
-1699.322004770896
 31
0.0
  0
LINE
  5
5B34
330
1F
100
AcDbEntity
  8
SPOJOVACÍ
  6
Continuous
100
AcDbLine
 10
1041.358404564479
 20
-1697.743496445327
 30
0.0
 11
1040.980753193534
 21
-1697.365845072199
 31
0.0
  0
LINE
  5
5B35
330
1F
100
AcDbEntity
  8
SPOJOVACÍ
  6
Continuous
100
AcDbLine
 10
1041.358404564479
 20
-1697.743496445327
 30
0.0
 11
1040.980753193534
 21
-1697.962087757354
 31
0.0
  0
LINE
  5
5B36
330
1F
100
AcDbEntity
  8
SPOJOVACÍ
  6
Continuous
100
AcDbLine
 10
1036.936348833941
 20
-1698.725762085741
 30
0.0
 11
1040.980753193534
 21
-1697.365845072199
 31
0.0
  0
LINE
  5
5B37
330
1F
100
AcDbEntity
  8
SPOJOVACÍ
  6
Continuous
100
AcDbLine
 10
1036.936348833941
 20
-1699.322004770896
 30
0.0
 11
1040.980753193534
 21
-1697.962087757354
 31
0.0
  0
LINE
  5
5B38
330
1F
100
AcDbEntity
  8
SPOJOVACÍ
  6
Continuous
100
AcDbLine
 10
1033.85839712292
 20
-1722.223863038852
 30
0.0
 11
1033.85839712292
 21
-1721.023936262121
 31
0.0
  0
LINE
  5
5B39
330
1F
100
AcDbEntity
  8
SPOJOVACÍ
  6
Continuous
100
AcDbLine
 10
1036.31871210683
 20
-1719.211023636234
 30
0.0
 11
1037.114942586148
 21
-1717.892034357937
 31
0.0
  0
LINE
  5
5B3A
330
1F
100
AcDbEntity
  8
SPOJOVACÍ
  6
Continuous
100
AcDbLine
 10
1035.208082206471
 20
-1720.279795625647
 30
0.0
 11
1036.31871210683
 21
-1719.211023636234
 31
0.0
  0
LINE
  5
5B3B
330
1F
100
AcDbEntity
  8
SPOJOVACÍ
  6
Continuous
100
AcDbLine
 10
1033.85839712292
 20
-1721.023936262121
 30
0.0
 11
1035.208082206471
 21
-1720.279795625647
 31
0.0
  0
LINE
  5
5B3C
330
1F
100
AcDbEntity
  8
SPOJOVACÍ
  6
Continuous
100
AcDbLine
 10
1038.958551011554
 20
-1686.458603690902
 30
0.0
 11
1039.312947992683
 21
-1689.294709692171
 31
0.0
  0
LINE
  5
5B3D
330
1F
100
AcDbEntity
  8
SPOJOVACÍ
  6
Continuous
100
AcDbLine
 10
1038.572528057656
 20
-1689.547717508707
 30
0.0
 11
1038.958551011554
 21
-1686.458603690902
 31
0.0
  0
LINE
  5
5B3E
330
1F
100
AcDbEntity
  8
SPOJOVACÍ
  6
Continuous
100
AcDbLine
 10
1037.941868869628
 20
-1689.837932356858
 30
0.0
 11
1038.319520240574
 21
-1689.619341044839
 31
0.0
  0
LINE
  5
5B3F
330
1F
100
AcDbEntity
  8
SPOJOVACÍ
  6
Continuous
100
AcDbLine
 10
1037.941868869628
 20
-1689.837932356858
 30
0.0
 11
1038.319520240574
 21
-1690.215583729987
 31
0.0
  0
LINE
  5
5B40
330
1F
100
AcDbEntity
  8
SPOJOVACÍ
  6
Continuous
100
AcDbLine
 10
1040.096156011085
 20
-1689.527253641085
 30
0.0
 11
1039.71850464014
 21
-1689.148672092255
 31
0.0
  0
LINE
  5
5B41
330
1F
100
AcDbEntity
  8
SPOJOVACÍ
  6
Continuous
100
AcDbLine
 10
1040.096156011085
 20
-1689.527253641085
 30
0.0
 11
1039.71850464014
 21
-1689.744914777402
 31
0.0
  0
LINE
  5
5B42
330
1F
100
AcDbEntity
  8
SPOJOVACÍ
  6
Continuous
100
AcDbLine
 10
1038.319520240574
 20
-1689.619341044839
 30
0.0
 11
1039.71850464014
 21
-1689.148672092255
 31
0.0
  0
LINE
  5
5B43
330
1F
100
AcDbEntity
  8
SPOJOVACÍ
  6
Continuous
100
AcDbLine
 10
1038.319520240574
 20
-1690.215583729987
 30
0.0
 11
1039.71850464014
 21
-1689.744914777402
 31
0.0
  0
LINE
  5
5B44
330
1F
100
AcDbEntity
  8
SPOJOVACÍ
  6
Continuous
100
AcDbLine
 10
1037.941868869628
 20
-1689.837932356858
 30
0.0
 11
1040.096156011085
 21
-1689.527253641085
 31
0.0
  0
LINE
  5
5B45
330
1F
100
AcDbEntity
  8
SPOJOVACÍ
  6
Continuous
100
AcDbLine
 10
1044.058704900188
 20
-1722.223863038852
 30
0.0
 11
1044.058704900188
 21
-1721.023936262121
 31
0.0
  0
LINE
  5
5B46
330
1F
100
AcDbEntity
  8
SPOJOVACÍ
  6
Continuous
100
AcDbLine
 10
1043.34339971402
 20
-1720.687212624238
 30
0.0
 11
1044.058704900188
 21
-1721.023936262121
 31
0.0
  0
LINE
  5
5B47
330
1F
100
AcDbEntity
  8
SPOJOVACÍ
  6
Continuous
100
AcDbLine
 10
1042.106265905121
 20
-1719.769129113796
 30
0.0
 11
1043.34339971402
 21
-1720.687212624238
 31
0.0
  0
LINE
  5
5B48
330
1F
100
AcDbEntity
  8
POPIS
100
AcDbLine
 10
1038.593539830874
 20
-1722.223863038852
 30
0.0
 11
1038.593539830874
 21
-1832.228921283615
 31
0.0
  0
INSERT
  5
5B49
330
1F
100
AcDbEntity
  8
POPIS
100
AcDbBlockReference
  2
E_PUNKT
 10
1039.054855320005
 20
-1721.924462808182
 30
0.0
  0
TEXT
  5
5B4A
330
1F
100
AcDbEntity
  8
POPIS
100
AcDbText
 10
1022.862461449486
 20
-1863.835798500486
 30
0.0
 40
25.0
  1
02
 41
0.85
  7
SIMPLEX7
100
AcDbText
  0
LINE
  5
5B4B
330
1F
100
AcDbEntity
  8
POPIS
100
AcDbLine
 10
553.4051268972498
 20
-1702.934069953141
 30
0.0
 11
522.4602624266087
 21
-1783.754467495705
 31
0.0
  0
LINE
  5
5B4C
330
1F
100
AcDbEntity
  8
POPIS
100
AcDbLine
 10
522.4602624266087
 20
-1783.754467495705
 30
0.0
 11
522.4602624266087
 21
-1832.223864513445
 31
0.0
  0
INSERT
  5
5B4D
330
1F
100
AcDbEntity
  8
POPIS
100
AcDbBlockReference
  2
E_PUNKT
 10
557.2100013804456
 20
-1722.000504048264
 30
0.0
  0
TEXT
  5
5B4E
330
1F
100
AcDbEntity
  8
POPIS
100
AcDbText
 10
506.8655786484568
 20
-1863.835798500486
 30
0.0
 40
25.0
  1
09
 41
0.85
  7
SIMPLEX7
100
AcDbText
  0
HATCH
  5
5B86
330
1F
100
AcDbEntity
  8
STAVBA OBRYS
100
AcDbHatch
 10
0.0
 20
0.0
 30
0.0
210
0.0
220
0.0
230
1.0
  2
BRICK
 70
     0
 71
     0
 91
        2
 92
        7
 72
     0
 73
     1
 93
        9
 10
553.4051268972498
 20
-1479.101431011749
 10
401.1175531498593
 20
-1480.97753761351
 10
401.1175531498593
 20
-1873.092645588273
 10
553.4051268972498
 20
-1873.830343802439
 10
553.4051268972498
 20
-1697.234507145796
 10
517.3444633900167
 20
-1697.234507145796
 10
513.1073831344716
 20
-1694.59040732819
 10
517.3444633900173
 20
-1691.946307510584
 10
553.4051268972498
 20
-1691.946307510579
 97
        0
 92
       24
 93
        4
 72
     1
 10
500.4834163019357
 20
-1870.644290997076
 11
541.3148453605988
 21
-1870.644290997076
 72
     1
 10
541.3148453605988
 20
-1870.644290997076
 11
541.3148453605988
 21
-1832.351316917949
 72
     1
 10
541.3148453605988
 20
-1832.351316917949
 11
500.4834163019357
 21
-1832.351316917949
 72
     1
 10
500.4834163019357
 20
-1832.351316917949
 11
500.4834163019357
 21
-1870.644290997076
 97
        0
 75
     0
 76
     1
 52
0.0
 41
10.0
 77
     0
 78
     3
 53
0.0
 43
0.0
 44
0.0
 45
0.0
 46
63.5
 79
     0
 53
90.0
 43
0.0
 44
0.0
 45
-127.0
 46
0.0000000000000078
 79
     2
 49
63.5
 49
-63.5
 53
90.0
 43
63.5
 44
0.0
 45
-127.0
 46
0.0000000000000078
 79
     2
 49
-63.5
 49
63.5
 47
1.098743268595766
 98
        1
 10
502.6986661906266
 20
-1608.755241533249
  0
LINE
  5
61B8
330
1F
100
AcDbEntity
  8
POPIS
100
AcDbLine
 10
531.3675112198179
 20
-1905.051861897666
 30
0.0
 11
779.1662919242043
 21
-1905.051861897666
 31
0.0
  0
LINE
  5
61B9
330
1F
100
AcDbEntity
  8
POPIS
100
AcDbLine
 10
746.2950198841244
 20
-1883.575034809553
 30
0.0
 11
746.2950198841244
 21
-1920.211976656133
 31
0.0
  0
LINE
  5
61BA
330
1F
100
AcDbEntity
  8
POPIS
100
AcDbLine
 10
555.3888225139781
 20
-1883.575034809553
 30
0.0
 11
555.3888225139781
 21
-1920.211976656133
 31
0.0
  0
TEXT
  5
61BB
330
1F
100
AcDbEntity
  8
POPIS
100
AcDbText
 10
622.5032984306353
 20
-1894.156028017422
 30
0.0
 40
25.0
  1
150
 41
0.85
 51
15.0
  7
SIMPLEX7
100
AcDbText
  0
LINE
  5
61BC
330
1F
100
AcDbEntity
  8
POPIS
100
AcDbLine
 10
753.5633787864226
 20
-1895.7479221099
 30
0.0
 11
739.9635498694479
 21
-1912.357607810077
 31
0.0
  0
LINE
  5
61BD
330
1F
100
AcDbEntity
  8
POPIS
100
AcDbLine
 10
562.6571814162762
 20
-1895.7479221099
 30
0.0
 11
549.0573524993014
 21
-1912.357607810077
 31
0.0
  0
HATCH
  5
6237
330
1F
100
AcDbEntity
  8
CETRIS
100
AcDbHatch
 10
0.0
 20
0.0
 30
0.0
210
0.0
220
0.0
230
1.0
  2
ANSI31
 70
     0
 71
     0
 91
        9
 92
        7
 72
     0
 73
     1
 93
       15
 10
588.4018014702989
 20
-1711.576041868476
 10
587.7292843718707
 20
-1711.802173422729
 10
587.3516329965597
 20
-1711.4235918739
 10
587.7292843718712
 20
-1711.205930737851
 10
588.4018014702989
 20
-1710.979799183552
 10
588.4018014702989
 20
-1710.223863038853
 10
560.4051268972498
 20
-1710.223863038853
 10
560.4051268972496
 20
-1722.223863038851
 10
584.65133266085
 20
-1722.22386303885
 10
584.65133266085
 20
-1721.02393626212
 10
586.0010177444004
 20
-1720.279795625647
 10
587.1116476447594
 20
-1719.211023636235
 10
587.9078781240781
 20
-1717.892034357937
 10
588.335758988377
 20
-1716.411194490887
 10
588.4018014702987
 20
-1715.624265767765
 97
        0
 92
        7
 72
     0
 73
     1
 93
       12
 10
717.8839784572874
 20
-1710.223863038853
 10
592.1509981270289
 20
-1710.223863038853
 10
591.773688731465
 20
-1710.442256409463
 10
591.1011716330349
 20
-1710.668387963717
 10
591.1011716330349
 20
-1715.624265767764
 10
591.3281345239185
 20
-1717.147893721194
 10
591.9411203730659
 20
-1718.561760930897
 10
592.8992014430504
 20
-1719.769129113796
 10
594.1363352519508
 20
-1720.687212624238
 10
594.8516404381179
 20
-1721.023936262121
 10
594.8516404381179
 20
-1722.223863038851
 10
717.8839784572874
 20
-1722.223863038851
 97
        0
 92
        7
 72
     0
 73
     1
 93
        4
 10
767.5486294894169
 20
-1710.223863038853
 10
717.8839784572874
 20
-1710.223863038853
 10
717.8839784572874
 20
-1722.223863038851
 10
767.5486294894171
 20
-1722.223863038851
 97
        0
 92
        7
 72
     0
 73
     1
 93
        4
 10
822.1142793705611
 20
-1710.223863038853
 10
767.5486294894171
 20
-1710.223863038853
 10
767.5486294894171
 20
-1722.223863038851
 10
822.1142793705611
 20
-1722.223863038852
 97
        0
 92
        7
 72
     0
 73
     1
 93
       15
 10
838.4018014702988
 20
-1715.624265767765
 10
838.4018014702986
 20
-1711.576041868475
 10
837.7292843718706
 20
-1711.802173422729
 10
837.3516329965593
 20
-1711.423591873899
 10
837.7292843718706
 20
-1711.205930737851
 10
838.4018014702986
 20
-1710.979799183552
 10
838.4018014702986
 20
-1710.223863038852
 10
822.1142793705611
 20
-1710.223863038852
 10
822.1142793705611
 20
-1722.223863038851
 10
834.65133266085
 20
-1722.223863038852
 10
834.6513326608501
 20
-1721.023936262121
 10
836.0010177444006
 20
-1720.279795625648
 10
837.1116476447586
 20
-1719.211023636236
 10
837.9078781240778
 20
-1717.892034357938
 10
838.3357589883772
 20
-1716.411194490886
 97
        0
 92
        7
 72
     0
 73
     1
 93
       12
 10
876.0875689249759
 20
-1710.223863038852
 10
842.1509981270288
 20
-1710.223863038853
 10
841.7736887314623
 20
-1710.442256409464
 10
841.1011716330349
 20
-1710.668387963717
 10
841.1011716330349
 20
-1715.624265767765
 10
841.3281345239184
 20
-1717.147893721194
 10
841.9411203730659
 20
-1718.561760930897
 10
842.8992014430505
 20
-1719.769129113796
 10
844.1363352519509
 20
-1720.687212624238
 10
844.8516404381178
 20
-1721.023936262121
 10
844.851640438118
 20
-1722.223863038852
 10
876.0875689249759
 20
-1722.223863038852
 97
        0
 92
        7
 72
     0
 73
     1
 93
        4
 10
930.0608584793907
 20
-1710.223863038853
 10
876.0875689249759
 20
-1710.223863038853
 10
876.0875689249759
 20
-1722.223863038852
 10
930.0608584793909
 20
-1722.223863038852
 97
        0
 92
        7
 72
     0
 73
     1
 93
       15
 10
1037.608865932369
 20
-1711.576041868476
 10
1036.936348833941
 20
-1711.802173422729
 10
1036.55869745863
 20
-1711.423591873899
 10
1036.936348833941
 20
-1711.205930737851
 10
1037.608865932369
 20
-1710.979799183552
 10
1037.608865932369
 20
-1710.223863038853
 10
930.0608584793907
 20
-1710.223863038853
 10
930.0608584793907
 20
-1722.223863038852
 10
1033.85839712292
 20
-1722.223863038852
 10
1033.85839712292
 20
-1721.023936262121
 10
1035.208082206471
 20
-1720.279795625647
 10
1036.31871210683
 20
-1719.211023636235
 10
1037.114942586149
 20
-1717.892034357936
 10
1037.542823450448
 20
-1716.411194490886
 10
1037.608865932369
 20
-1715.624265767765
 97
        0
 92
        7
 72
     1
 73
     1
 93
       18
 10
1076.232997109822
 20
-1714.547543522395
 42
-1.0
 10
1078.732997109822
 20
-1714.547543522395
 42
-0.433193455262839
 10
1077.402597764906
 20
-1715.794955220808
 42
0.0
 10
1077.402597764906
 20
-1722.223863038852
 42
0.0
 10
1092.570703009297
 20
-1722.223863038853
 42
0.0
 10
1092.570703009297
 20
-1710.223863038853
 42
0.0
 10
1041.358062589099
 20
-1710.223863038853
 42
0.0
 10
1040.980753193534
 20
-1710.442256409464
 42
0.0
 10
1040.308236095105
 20
-1710.668387963717
 42
0.0
 10
1040.308236095105
 20
-1715.624265767766
 42
0.0
 10
1040.535198985989
 20
-1717.147893721193
 42
0.0
 10
1041.148184835136
 20
-1718.561760930897
 42
0.0
 10
1042.106265905121
 20
-1719.769129113796
 42
0.0
 10
1043.343399714022
 20
-1720.687212624238
 42
0.0
 10
1044.058704900188
 20
-1721.023936262121
 42
0.0
 10
1044.058704900189
 20
-1722.223863038852
 42
0.0
 10
1077.402597764906
 20
-1722.223863038852
 42
0.0
 10
1077.402597764906
 20
-1715.794955220808
 42
-0.3954850216876489
 97
        0
 75
     0
 76
     1
 52
0.0
 41
1.0
 77
     0
 78
     1
 53
45.0
 43
0.0
 44
0.0
 45
-2.245064030267287
 46
2.245064030267288
 79
     0
 47
0.7654011052360375
 98
        9
 10
575.3353097567033
 20
-1714.918703218112
 10
658.0599078069881
 20
-1715.684106793376
 10
741.550482994191
 20
-1717.980307970603
 10
787.5085948727956
 20
-1717.980307970603
 10
826.5729957992171
 20
-1715.684106793376
 10
865.6373967256385
 20
-1714.918703218112
 10
885.5525857573102
 20
-1714.918703218112
 10
976.7028323775976
 20
-1714.918703218112
 10
1061.725345182621
 20
-1714.918703218112
  0
TEXT
  5
7241
330
1F
100
AcDbEntity
  8
POPIS
100
AcDbText
 10
422.9327566371329
 20
-1465.085458112221
 30
0.0
 40
20.0
  1
Svislý řez
 41
0.85
  7
SIMPLEX7
100
AcDbText
  0
TEXT
  5
9B1D
330
1F
100
AcDbEntity
  8
POPIS
100
AcDbText
 10
418.5722145882636
 20
-2037.34078922652
 30
0.0
 40
25.0
  1
v exteriéru vrut s viditelnou hlavou a těsnící podložkou
 41
0.6
 51
10.0
  7
SIMPLEX7
100
AcDbText
  0
ENDSEC
  0
SECTION
  2
OBJECTS
  0
DICTIONARY
  5
C
330
0
100
AcDbDictionary
281
     1
  3
ACAD_GROUP
350
D
  3
ACAD_LAYOUT
350
1A
  3
ACAD_MLINESTYLE
350
17
  3
ACAD_PLOTSETTINGS
350
19
  3
ACAD_PLOTSTYLENAME
350
E
  3
AcDbVariableDictionary
350
5B50
  0
DICTIONARY
  5
D
102
{ACAD_REACTORS
330
C
102
}
330
C
100
AcDbDictionary
281
     1
  0
DICTIONARY
  5
1A
102
{ACAD_REACTORS
330
C
102
}
330
C
100
AcDbDictionary
281
     1
  3
Model
350
22
  3
Rozvržení1
350
1E
  3
Rozvržení2
350
26
  0
DICTIONARY
  5
17
102
{ACAD_REACTORS
330
C
102
}
330
C
100
AcDbDictionary
281
     1
  3
Standard
350
18
  0
DICTIONARY
  5
19
102
{ACAD_REACTORS
330
C
102
}
330
C
100
AcDbDictionary
281
     1
  0
ACDBDICTIONARYWDFLT
  5
E
102
{ACAD_REACTORS
330
C
102
}
330
C
100
AcDbDictionary
281
     1
  3
Normal
350
F
100
AcDbDictionaryWithDefault
340
F
  0
DICTIONARY
  5
5B50
102
{ACAD_REACTORS
330
C
102
}
330
C
100
AcDbDictionary
281
     1
  3
DIMASSOC
350
8518
  3
SORTENTS
350
5B51
  0
LAYOUT
  5
22
102
{ACAD_REACTORS
330
1A
102
}
330
1A
100
AcDbPlotSettings
  1

  2
HP DeskJet 690C
  4
A4
  6

 40
3.757083177566528
 41
5.450418472290039
 42
16.28775024414062
 43
7.56707763671875
 44
296.9259948730469
 45
210.0579986572265
 46
0.0
 47
0.0
 48
0.0
 49
0.0
140
0.0
141
0.0
142
1.0
143
1.0
 70
 11952
 72
     1
 73
     0
 74
     0
  7
monochrome.ctb
 75
     0
147
1.0
148
-323.9392076651195
149
-131.8860906043446
100
AcDbLayout
  1
Model
 70
     1
 71
     0
 10
0.0
 20
0.0
 11
12.0
 21
9.0
 12
0.0
 22
0.0
 32
0.0
 14
0.0
 24
0.0
 34
0.0
 15
0.0
 25
0.0
 35
0.0
146
0.0
 13
0.0
 23
0.0
 33
0.0
 16
1.0
 26
0.0
 36
0.0
 17
0.0
 27
1.0
 37
0.0
 76
     0
330
1F
  0
LAYOUT
  5
1E
102
{ACAD_REACTORS
330
1A
102
}
330
1A
100
AcDbPlotSettings
  1

  2
HP DeskJet 690C
  4

  6

 40
0.0
 41
0.0
 42
0.0
 43
0.0
 44
0.0
 45
0.0
 46
0.0
 47
0.0
 48
0.0
 49
0.0
140
0.0
141
0.0
142
1.0
143
1.0
 70
   688
 72
     0
 73
     0
 74
     5
  7
monochrome.ctb
 75
    16
147
1.0
148
0.0
149
0.0
100
AcDbLayout
  1
Rozvržení1
 70
     1
 71
     1
 10
0.0
 20
0.0
 11
420.0
 21
297.0
 12
0.0
 22
0.0
 32
0.0
 14
1.000000000000000E+20
 24
1.000000000000000E+20
 34
1.000000000000000E+20
 15
-1.000000000000000E+20
 25
-1.000000000000000E+20
 35
-1.000000000000000E+20
146
0.0
 13
0.0
 23
0.0
 33
0.0
 16
1.0
 26
0.0
 36
0.0
 17
0.0
 27
1.0
 37
0.0
 76
     0
330
1B
  0
LAYOUT
  5
26
102
{ACAD_REACTORS
330
1A
102
}
330
1A
100
AcDbPlotSettings
  1

  2
HP DeskJet 690C
  4

  6

 40
0.0
 41
0.0
 42
0.0
 43
0.0
 44
0.0
 45
0.0
 46
0.0
 47
0.0
 48
0.0
 49
0.0
140
0.0
141
0.0
142
1.0
143
1.0
 70
   688
 72
     0
 73
     0
 74
     5
  7
monochrome.ctb
 75
    16
147
1.0
148
0.0
149
0.0
100
AcDbLayout
  1
Rozvržení2
 70
     1
 71
     2
 10
0.0
 20
0.0
 11
12.0
 21
9.0
 12
0.0
 22
0.0
 32
0.0
 14
0.0
 24
0.0
 34
0.0
 15
0.0
 25
0.0
 35
0.0
146
0.0
 13
0.0
 23
0.0
 33
0.0
 16
1.0
 26
0.0
 36
0.0
 17
0.0
 27
1.0
 37
0.0
 76
     0
330
23
  0
MLINESTYLE
  5
18
102
{ACAD_REACTORS
330
17
102
}
330
17
100
AcDbMlineStyle
  2
STANDARD
 70
     0
  3

 62
   256
 51
90.0
 52
90.0
 71
     2
 49
0.5
 62
   256
  6
BYLAYER
 49
-0.5
 62
   256
  6
BYLAYER
  0
ACDBPLACEHOLDER
  5
F
102
{ACAD_REACTORS
330
E
102
}
330
E
  0
DICTIONARYVAR
  5
8518
102
{ACAD_REACTORS
330
5B50
102
}
330
5B50
100
DictionaryVariables
280
     0
  1
1
  0
DICTIONARYVAR
  5
5B51
102
{ACAD_REACTORS
330
5B50
102
}
330
5B50
100
DictionaryVariables
280
     0
  1
96
  0
ENDSEC
  0
EOF
