  0
SECTION
  2
HEADER
  9
$ACADVER
  1
AC1015
  9
$ACADMAINTVER
 70
    14
  9
$DWGCODEPAGE
  3
ANSI_1250
  9
$INSBASE
 10
0.0
 20
0.0
 30
0.0
  9
$EXTMIN
 10
3104.28695669011
 20
134.8337086122392
 30
-0.0762881293658211
  9
$EXTMAX
 10
5050.756741852201
 20
1001.470012534269
 30
2500.076454800198
  9
$LIMMIN
 10
0.0
 20
0.0
  9
$LIMMAX
 10
420.0
 20
297.0
  9
$ORTHOMODE
 70
     1
  9
$REGENMODE
 70
     1
  9
$FILLMODE
 70
     1
  9
$QTEXTMODE
 70
     0
  9
$MIRRTEXT
 70
     1
  9
$LTSCALE
 40
1.0
  9
$ATTMODE
 70
     1
  9
$TEXTSIZE
 40
2.5
  9
$TRACEWID
 40
1.0
  9
$TEXTSTYLE
  7
Standard
  9
$CLAYER
  8
SPOJOVACÍ
  9
$CELTYPE
  6
ByLayer
  9
$CECOLOR
 62
   256
  9
$CELTSCALE
 40
1.0
  9
$DISPSILH
 70
     0
  9
$DIMSCALE
 40
1.0
  9
$DIMASZ
 40
2.5
  9
$DIMEXO
 40
0.625
  9
$DIMDLI
 40
3.75
  9
$DIMRND
 40
0.0
  9
$DIMDLE
 40
0.0
  9
$DIMEXE
 40
1.25
  9
$DIMTP
 40
0.0
  9
$DIMTM
 40
0.0
  9
$DIMTXT
 40
2.5
  9
$DIMCEN
 40
2.5
  9
$DIMTSZ
 40
0.0
  9
$DIMTOL
 70
     0
  9
$DIMLIM
 70
     0
  9
$DIMTIH
 70
     0
  9
$DIMTOH
 70
     0
  9
$DIMSE1
 70
     0
  9
$DIMSE2
 70
     0
  9
$DIMTAD
 70
     1
  9
$DIMZIN
 70
     8
  9
$DIMBLK
  1

  9
$DIMASO
 70
     1
  9
$DIMSHO
 70
     1
  9
$DIMPOST
  1

  9
$DIMAPOST
  1

  9
$DIMALT
 70
     0
  9
$DIMALTD
 70
     3
  9
$DIMALTF
 40
0.03937007874016
  9
$DIMLFAC
 40
1.0
  9
$DIMTOFL
 70
     1
  9
$DIMTVP
 40
0.0
  9
$DIMTIX
 70
     0
  9
$DIMSOXD
 70
     0
  9
$DIMSAH
 70
     0
  9
$DIMBLK1
  1

  9
$DIMBLK2
  1

  9
$DIMSTYLE
  2
ISO-25
  9
$DIMCLRD
 70
     0
  9
$DIMCLRE
 70
     0
  9
$DIMCLRT
 70
     0
  9
$DIMTFAC
 40
1.0
  9
$DIMGAP
 40
0.625
  9
$DIMJUST
 70
     0
  9
$DIMSD1
 70
     0
  9
$DIMSD2
 70
     0
  9
$DIMTOLJ
 70
     0
  9
$DIMTZIN
 70
     8
  9
$DIMALTZ
 70
     0
  9
$DIMALTTZ
 70
     0
  9
$DIMUPT
 70
     0
  9
$DIMDEC
 70
     2
  9
$DIMTDEC
 70
     2
  9
$DIMALTU
 70
     2
  9
$DIMALTTD
 70
     3
  9
$DIMTXSTY
  7
Standard
  9
$DIMAUNIT
 70
     0
  9
$DIMADEC
 70
     0
  9
$DIMALTRND
 40
0.0
  9
$DIMAZIN
 70
     0
  9
$DIMDSEP
 70
    44
  9
$DIMATFIT
 70
     3
  9
$DIMFRAC
 70
     0
  9
$DIMLDRBLK
  1

  9
$DIMLUNIT
 70
     2
  9
$DIMLWD
 70
    -2
  9
$DIMLWE
 70
    -2
  9
$DIMTMOVE
 70
     0
  9
$LUNITS
 70
     2
  9
$LUPREC
 70
     4
  9
$SKETCHINC
 40
1.0
  9
$FILLETRAD
 40
0.0
  9
$AUNITS
 70
     0
  9
$AUPREC
 70
     0
  9
$MENU
  1
.
  9
$ELEVATION
 40
0.0
  9
$PELEVATION
 40
0.0
  9
$THICKNESS
 40
0.0
  9
$LIMCHECK
 70
     0
  9
$CHAMFERA
 40
3.0
  9
$CHAMFERB
 40
3.0
  9
$CHAMFERC
 40
20.0
  9
$CHAMFERD
 40
0.0
  9
$SKPOLY
 70
     0
  9
$TDCREATE
 40
2452332.512107639
  9
$TDUCREATE
 40
2452332.470440972
  9
$TDUPDATE
 40
2455601.269085382
  9
$TDUUPDATE
 40
2455601.227418715
  9
$TDINDWG
 40
0.3262465394
  9
$TDUSRTIMER
 40
0.3262326505
  9
$USRTIMER
 70
     1
  9
$ANGBASE
 50
0.0
  9
$ANGDIR
 70
     0
  9
$PDMODE
 70
     0
  9
$PDSIZE
 40
0.0
  9
$PLINEWID
 40
0.0
  9
$SPLFRAME
 70
     0
  9
$SPLINETYPE
 70
     6
  9
$SPLINESEGS
 70
     8
  9
$HANDSEED
  5
9B28
  9
$SURFTAB1
 70
     6
  9
$SURFTAB2
 70
     6
  9
$SURFTYPE
 70
     6
  9
$SURFU
 70
     6
  9
$SURFV
 70
     6
  9
$UCSBASE
  2

  9
$UCSNAME
  2

  9
$UCSORG
 10
0.0
 20
0.0
 30
0.0
  9
$UCSXDIR
 10
1.0
 20
0.0
 30
0.0
  9
$UCSYDIR
 10
0.0
 20
1.0
 30
0.0
  9
$UCSORTHOREF
  2

  9
$UCSORTHOVIEW
 70
     0
  9
$UCSORGTOP
 10
0.0
 20
0.0
 30
0.0
  9
$UCSORGBOTTOM
 10
0.0
 20
0.0
 30
0.0
  9
$UCSORGLEFT
 10
0.0
 20
0.0
 30
0.0
  9
$UCSORGRIGHT
 10
0.0
 20
0.0
 30
0.0
  9
$UCSORGFRONT
 10
0.0
 20
0.0
 30
0.0
  9
$UCSORGBACK
 10
0.0
 20
0.0
 30
0.0
  9
$PUCSBASE
  2

  9
$PUCSNAME
  2

  9
$PUCSORG
 10
0.0
 20
0.0
 30
0.0
  9
$PUCSXDIR
 10
1.0
 20
0.0
 30
0.0
  9
$PUCSYDIR
 10
0.0
 20
1.0
 30
0.0
  9
$PUCSORTHOREF
  2

  9
$PUCSORTHOVIEW
 70
     0
  9
$PUCSORGTOP
 10
0.0
 20
0.0
 30
0.0
  9
$PUCSORGBOTTOM
 10
0.0
 20
0.0
 30
0.0
  9
$PUCSORGLEFT
 10
0.0
 20
0.0
 30
0.0
  9
$PUCSORGRIGHT
 10
0.0
 20
0.0
 30
0.0
  9
$PUCSORGFRONT
 10
0.0
 20
0.0
 30
0.0
  9
$PUCSORGBACK
 10
0.0
 20
0.0
 30
0.0
  9
$USERI1
 70
     0
  9
$USERI2
 70
     0
  9
$USERI3
 70
     0
  9
$USERI4
 70
     0
  9
$USERI5
 70
     0
  9
$USERR1
 40
0.0
  9
$USERR2
 40
0.0
  9
$USERR3
 40
0.0
  9
$USERR4
 40
0.0
  9
$USERR5
 40
0.0
  9
$WORLDVIEW
 70
     1
  9
$SHADEDGE
 70
     3
  9
$SHADEDIF
 70
    70
  9
$TILEMODE
 70
     1
  9
$MAXACTVP
 70
    64
  9
$PINSBASE
 10
0.0
 20
0.0
 30
0.0
  9
$PLIMCHECK
 70
     0
  9
$PEXTMIN
 10
1.000000000000000E+20
 20
1.000000000000000E+20
 30
1.000000000000000E+20
  9
$PEXTMAX
 10
-1.000000000000000E+20
 20
-1.000000000000000E+20
 30
-1.000000000000000E+20
  9
$PLIMMIN
 10
0.0
 20
0.0
  9
$PLIMMAX
 10
420.0
 20
297.0
  9
$UNITMODE
 70
     0
  9
$VISRETAIN
 70
     1
  9
$PLINEGEN
 70
     0
  9
$PSLTSCALE
 70
     1
  9
$TREEDEPTH
 70
  3020
  9
$CMLSTYLE
  2
Standard
  9
$CMLJUST
 70
     0
  9
$CMLSCALE
 40
20.0
  9
$PROXYGRAPHICS
 70
     1
  9
$MEASUREMENT
 70
     1
  9
$CELWEIGHT
370
    -1
  9
$ENDCAPS
280
     0
  9
$JOINSTYLE
280
     0
  9
$LWDISPLAY
290
     0
  9
$INSUNITS
 70
     4
  9
$HYPERLINKBASE
  1

  9
$STYLESHEET
  1
monochrome.ctb
  9
$XEDIT
290
     1
  9
$CEPSNTYPE
380
     0
  9
$PSTYLEMODE
290
     1
  9
$FINGERPRINTGUID
  2
{D99C744E-04C5-44F1-9703-862C59725F9B}
  9
$VERSIONGUID
  2
{2EEF3D16-CDAF-4863-B1F9-C0F79F6AC9DA}
  9
$EXTNAMES
290
     1
  9
$PSVPSCALE
 40
0.0
  9
$OLESTARTUP
290
     0
  0
ENDSEC
  0
SECTION
  2
CLASSES
  0
CLASS
  1
ACDBDICTIONARYWDFLT
  2
AcDbDictionaryWithDefault
  3
AutoCAD 2000
 90
        0
280
     0
281
     0
  0
CLASS
  1
ACDBPLACEHOLDER
  2
AcDbPlaceHolder
  3
AutoCAD 2000
 90
        0
280
     0
281
     0
  0
CLASS
  1
LAYOUT
  2
AcDbLayout
  3
AutoCAD 2000
 90
        0
280
     0
281
     0
  0
CLASS
  1
DICTIONARYVAR
  2
AcDbDictionaryVar
  3
AutoCAD 2000
 90
        0
280
     0
281
     0
  0
ENDSEC
  0
SECTION
  2
TABLES
  0
TABLE
  2
VPORT
  5
8
330
0
100
AcDbSymbolTable
 70
     2
  0
VPORT
  5
9B27
330
8
100
AcDbSymbolTableRecord
100
AcDbViewportTableRecord
  2
*Active
 70
     0
 10
0.0
 20
0.0
 11
1.0
 21
1.0
 12
4015.459264368574
 22
535.8634405719575
 13
0.0
 23
0.0
 14
10.0
 24
10.0
 15
10.0
 25
10.0
 16
0.0
 26
0.0
 36
1.0
 17
0.0
 27
0.0
 37
0.0
 40
1078.409510670341
 41
2.031862745098039
 42
50.0
 43
0.0
 44
0.0
 50
0.0
 51
0.0
 71
     0
 72
   100
 73
     1
 74
     3
 75
     0
 76
     0
 77
     0
 78
     0
281
     0
 65
     1
110
0.0
120
0.0
130
0.0
111
1.0
121
0.0
131
0.0
112
0.0
122
1.0
132
0.0
 79
     0
146
0.0
  0
ENDTAB
  0
TABLE
  2
LTYPE
  5
5
330
0
100
AcDbSymbolTable
 70
     5
  0
LTYPE
  5
14
330
5
100
AcDbSymbolTableRecord
100
AcDbLinetypeTableRecord
  2
ByBlock
 70
     0
  3

 72
    65
 73
     0
 40
0.0
  0
LTYPE
  5
15
330
5
100
AcDbSymbolTableRecord
100
AcDbLinetypeTableRecord
  2
ByLayer
 70
     0
  3

 72
    65
 73
     0
 40
0.0
  0
LTYPE
  5
16
330
5
100
AcDbSymbolTableRecord
100
AcDbLinetypeTableRecord
  2
Continuous
 70
     0
  3
Solid line
 72
    65
 73
     0
 40
0.0
  0
LTYPE
  5
3402
330
5
100
AcDbSymbolTableRecord
100
AcDbLinetypeTableRecord
  2
DASHED
 70
     0
  3
Dashed __ __ __ __ __ __ __ __ __ __ __ __ __ _
 72
    65
 73
     2
 40
19.04999999999999
 49
12.7
 74
     0
 49
-6.349999999999999
 74
     0
  0
LTYPE
  5
3403
330
5
100
AcDbSymbolTableRecord
100
AcDbLinetypeTableRecord
  2
DASHDOT2
 70
     0
  3
Dash dot (.5x) _._._._._._._._._._._._._._._.
 72
    65
 73
     4
 40
12.7
 49
6.349999999999999
 74
     0
 49
-3.174999999999999
 74
     0
 49
0.0
 74
     0
 49
-3.174999999999999
 74
     0
  0
LTYPE
  5
3404
330
5
100
AcDbSymbolTableRecord
100
AcDbLinetypeTableRecord
  2
CIKCAK
 70
     0
  3
Cik-cak /\/\/\/\/\/\/\/\/\/\/\/\/\/\/\/\/\/\/\/
 72
    65
 73
     4
 40
20.32254
 49
0.00254
 74
     0
 49
-5.08
 74
     4
 75
   131
340
340B
 46
5.08
 50
0.0
 44
-5.08
 45
0.0
 49
-10.16
 74
     4
 75
   131
340
340B
 46
5.08
 50
180.0
 44
5.08
 45
0.0
 49
-5.08
 74
     0
  0
LTYPE
  5
3757
330
5
100
AcDbSymbolTableRecord
100
AcDbLinetypeTableRecord
  2
IZOLACE
 70
     0
  3
Izolace SSSSSSSSSSSSSSSSSSSSSSSSSSSSSSSSSSSSSSS
 72
    65
 73
     4
 40
10.16253999999999
 49
0.00254
 74
     0
 49
-2.54
 74
     4
 75
   134
340
340B
 46
2.54
 50
0.0
 44
-2.54
 45
0.0
 49
-5.08
 74
     4
 75
   134
340
340B
 46
2.54
 50
180.0
 44
2.54
 45
0.0
 49
-2.54
 74
     0
  0
ENDTAB
  0
TABLE
  2
LAYER
  5
2
330
0
100
AcDbSymbolTable
 70
     8
  0
LAYER
  5
10
330
2
100
AcDbSymbolTableRecord
100
AcDbLayerTableRecord
  2
0
 70
     0
 62
     7
  6
Continuous
370
    -3
390
F
  0
LAYER
  5
3405
330
2
100
AcDbSymbolTableRecord
100
AcDbLayerTableRecord
  2
POPIS
 70
     0
 62
    30
  6
Continuous
370
    -3
390
F
  0
LAYER
  5
3406
330
2
100
AcDbSymbolTableRecord
100
AcDbLayerTableRecord
  2
SPOJOVACÍ
 70
     0
 62
   180
  6
Continuous
370
    -3
390
F
  0
LAYER
  5
3407
330
2
100
AcDbSymbolTableRecord
100
AcDbLayerTableRecord
  2
CETRIS
 70
     0
 62
     1
  6
Continuous
370
    -3
390
F
  0
LAYER
  5
3408
330
2
100
AcDbSymbolTableRecord
100
AcDbLayerTableRecord
  2
izolace
 70
     0
 62
    73
  6
Continuous
370
    -3
390
F
  0
LAYER
  5
3409
330
2
100
AcDbSymbolTableRecord
100
AcDbLayerTableRecord
  2
STAVBA OBRYS
 70
     0
 62
     6
  6
Continuous
370
    -3
390
F
  0
LAYER
  5
3758
330
2
100
AcDbSymbolTableRecord
100
AcDbLayerTableRecord
  2
NOSNÉ KONSTRUKCE
 70
     0
 62
    33
  6
Continuous
370
    -3
390
F
  0
LAYER
  5
56AA
330
2
100
AcDbSymbolTableRecord
100
AcDbLayerTableRecord
  2
Defpoints
 70
     0
 62
     7
  6
Continuous
290
     0
370
    -3
390
F
  0
ENDTAB
  0
TABLE
  2
STYLE
  5
3
330
0
100
AcDbSymbolTable
 70
     3
  0
STYLE
  5
11
330
3
100
AcDbSymbolTableRecord
100
AcDbTextStyleTableRecord
  2
Standard
 70
     0
 40
0.0
 41
1.0
 50
0.0
 71
     0
 42
2.5
  3
txt
  4

  0
STYLE
  5
340A
330
3
100
AcDbSymbolTableRecord
100
AcDbTextStyleTableRecord
  2
SIMPLEX7
 70
     0
 40
0.0
 41
0.85
 50
0.0
 71
     0
 42
102.0
  3
ARIAL.TTF
  4

1001
ACAD
1000
Arial CE
1071
    60962
  0
STYLE
  5
340B
330
3
100
AcDbSymbolTableRecord
100
AcDbTextStyleTableRecord
  2

 70
     1
 40
0.0
 41
1.0
 50
0.0
 71
     0
 42
2.5
  3
ltypeshp.shx
  4

  0
ENDTAB
  0
TABLE
  2
VIEW
  5
6
330
0
100
AcDbSymbolTable
 70
     0
  0
ENDTAB
  0
TABLE
  2
UCS
  5
7
330
0
100
AcDbSymbolTable
 70
     0
  0
ENDTAB
  0
TABLE
  2
APPID
  5
9
330
0
100
AcDbSymbolTable
 70
     1
  0
APPID
  5
12
330
9
100
AcDbSymbolTableRecord
100
AcDbRegAppTableRecord
  2
ACAD
 70
     0
  0
ENDTAB
  0
TABLE
  2
DIMSTYLE
  5
A
330
0
100
AcDbSymbolTable
 70
     1
100
AcDbDimStyleTable
 71
     1
340
27
  0
DIMSTYLE
105
27
330
A
100
AcDbSymbolTableRecord
100
AcDbDimStyleTableRecord
  2
ISO-25
 70
     0
 41
2.5
 42
0.625
 43
3.75
 44
1.25
 73
     0
 74
     0
 77
     1
 78
     8
140
2.5
141
2.5
143
0.03937007874016
147
0.625
171
     3
172
     1
271
     2
272
     2
274
     3
278
    44
283
     0
284
     8
340
11
  0
ENDTAB
  0
TABLE
  2
BLOCK_RECORD
  5
1
330
0
100
AcDbSymbolTable
 70
     3
  0
BLOCK_RECORD
  5
1F
330
1
100
AcDbSymbolTableRecord
100
AcDbBlockTableRecord
  2
*Model_Space
340
22
  0
BLOCK_RECORD
  5
1B
330
1
100
AcDbSymbolTableRecord
100
AcDbBlockTableRecord
  2
*Paper_Space
340
1E
  0
BLOCK_RECORD
  5
23
330
1
100
AcDbSymbolTableRecord
100
AcDbBlockTableRecord
  2
*Paper_Space0
340
26
  0
BLOCK_RECORD
  5
33FA
330
1
100
AcDbSymbolTableRecord
100
AcDbBlockTableRecord
  2
E_PUNKT
340
0
102
{BLKREFS
331
43B3
331
4478
331
4479
331
4D8B
331
4DA1
331
4DA7
331
4DF9
331
4DFC
331
4E0B
331
4E13
331
4E17
331
4B02
331
475B
331
4763
331
4769
331
476A
331
476B
331
476C
331
4FB8
331
59FB
331
594B
331
5864
331
5855
331
5910
331
57E8
331
5AED
331
5B49
331
5B4D
331
6E80
331
6E6D
331
6DAA
331
6D50
331
6FA1
331
707A
331
70B1
331
70B2
331
70BB
331
70BC
331
7646
331
7677
331
76B6
331
7779
331
7A28
331
7A2B
331
78FB
331
792A
331
794D
331
97D6
331
97D9
331
98CA
331
9958
331
9969
331
9AB5
331
9AB9
331
9ABC
331
9B15
102
}
  0
BLOCK_RECORD
  5
3730
330
1
100
AcDbSymbolTableRecord
100
AcDbBlockTableRecord
  2
SYM_KOMPON-2_K___-SPO
340
0
102
{BLKREFS
331
4DB5
331
6B31
102
}
  0
ENDTAB
  0
ENDSEC
  0
SECTION
  2
BLOCKS
  0
BLOCK
  5
20
330
1F
100
AcDbEntity
  8
0
100
AcDbBlockBegin
  2
*Model_Space
 70
     0
 10
0.0
 20
0.0
 30
0.0
  3
*Model_Space
  1

  0
ENDBLK
  5
21
330
1F
100
AcDbEntity
  8
0
100
AcDbBlockEnd
  0
BLOCK
  5
1C
330
1B
100
AcDbEntity
 67
     1
  8
0
100
AcDbBlockBegin
  2
*Paper_Space
 70
     0
 10
0.0
 20
0.0
 30
0.0
  3
*Paper_Space
  1

  0
ENDBLK
  5
1D
330
1B
100
AcDbEntity
 67
     1
  8
0
100
AcDbBlockEnd
  0
BLOCK
  5
24
330
23
100
AcDbEntity
  8
0
100
AcDbBlockBegin
  2
*Paper_Space0
 70
     0
 10
0.0
 20
0.0
 30
0.0
  3
*Paper_Space0
  1

  0
ENDBLK
  5
25
330
23
100
AcDbEntity
  8
0
100
AcDbBlockEnd
  0
BLOCK
  5
33FC
330
33FA
100
AcDbEntity
  8
0
100
AcDbBlockBegin
  2
E_PUNKT
 70
     0
 10
0.0
 20
0.0
 30
0.0
  3
E_PUNKT
  1

  0
LWPOLYLINE
  5
33FB
330
33FA
100
AcDbEntity
  8
POPIS
100
AcDbPolyline
 90
        2
 70
     1
 43
2.5
 10
1.27761037562675
 20
0.0290683308725193
 42
-1.0
 10
-1.222389624373249
 20
0.0290683308725193
 42
-1.0
  0
ENDBLK
  5
33FD
330
33FA
100
AcDbEntity
  8
0
100
AcDbBlockEnd
  0
BLOCK
  5
3755
330
3730
100
AcDbEntity
  8
0
  6
Continuous
 62
     7
100
AcDbBlockBegin
  2
SYM_KOMPON-2_K___-SPO
 70
     0
 10
0.0
 20
0.0
 30
0.0
  3
SYM_KOMPON-2_K___-SPO
  1

  0
ARC
  5
3731
330
3730
100
AcDbEntity
  8
0
  6
Continuous
 62
     5
100
AcDbCircle
 39
2.500000155029299
 10
-0.0508188465429459
 20
0.0106048761117461
 30
0.0
 40
0.011751466147934
100
AcDbArc
 50
244.4784797551157
 51
325.5219527481187
  0
LINE
  5
3732
330
3730
100
AcDbEntity
  8
0
  6
Continuous
 62
     5
100
AcDbLine
 39
2.500000155029299
 10
-0.0558819096713726
 20
0.0000000968933121
 30
0.0
 11
-0.0473700259934526
 21
-0.0147428987899281
 31
0.0
  0
LINE
  5
3733
330
3730
100
AcDbEntity
  8
0
  6
Continuous
 62
     5
100
AcDbLine
 39
2.500000155029299
 10
-0.0279409548356863
 20
-0.0234403331604447
 30
0.0
 11
-0.0356294633710414
 21
-0.0234403331604447
 31
0.0
  0
ARC
  5
3734
330
3730
100
AcDbEntity
  8
0
  6
Continuous
 62
     5
100
AcDbCircle
 39
2.500000155029299
 10
-0.0337367494132451
 20
-0.0086124589358392
 30
0.0
 40
0.014948212690269
100
AcDbArc
 50
204.2119054656276
 51
262.7260677832351
  0
LINE
  5
3735
330
3730
100
AcDbEntity
  8
0
  6
Continuous
 62
     5
100
AcDbLine
 39
2.500000155029299
 10
-0.0411315500964158
 20
0.0039524719855855
 30
0.0
 11
-0.0360044404887169
 21
0.0290662495386328
 31
0.0
  0
LINE
  5
3736
330
3730
100
AcDbEntity
  8
0
  6
Continuous
 62
     5
100
AcDbLine
 39
2.500000155029299
 10
-0.0360044404887169
 20
0.0290662495386328
 30
0.0
 11
-0.0330041390807532
 21
0.0290662495386328
 31
0.0
  0
LINE
  5
3737
330
3730
100
AcDbEntity
  8
0
  6
Continuous
 62
     5
100
AcDbLine
 39
2.500000155029299
 10
-0.0330041390807532
 20
0.0290662495386328
 30
0.0
 11
-0.0330041390807532
 21
0.0266284138071823
 31
0.0
  0
LINE
  5
3738
330
3730
100
AcDbEntity
  8
0
  6
Continuous
 62
     5
100
AcDbLine
 39
2.500000155029299
 10
-0.0330041390807532
 20
0.0266284138071823
 30
0.0
 11
-0.031691428488953
 21
0.0266284138071823
 31
0.0
  0
LINE
  5
3739
330
3730
100
AcDbEntity
  8
0
  6
Continuous
 62
     5
100
AcDbLine
 39
2.500000155029299
 10
-0.031691428488953
 20
0.0266284138071823
 30
0.0
 11
-0.031691428488953
 21
0.0290662495386328
 31
0.0
  0
LINE
  5
373A
330
3730
100
AcDbEntity
  8
0
  6
Continuous
 62
     5
100
AcDbLine
 39
2.500000155029299
 10
-0.031691428488953
 20
0.0290662495386328
 30
0.0
 11
-0.0279409548356863
 21
0.0290662495386328
 31
0.0
  0
CIRCLE
  5
373B
330
3730
100
AcDbEntity
  8
0
  6
Continuous
 62
     5
100
AcDbCircle
 39
2.500000155029299
 10
-0.0328383546238171
 20
0.0189341158964315
 30
0.0
 40
0.0013649867099716
  0
CIRCLE
  5
373C
330
3730
100
AcDbEntity
  8
0
  6
Continuous
 62
     5
100
AcDbCircle
 39
2.500000155029299
 10
-0.0329103463546783
 20
0.0132205110708283
 30
0.0
 40
0.0014585928407229
  0
CIRCLE
  5
373D
330
3730
100
AcDbEntity
  8
0
  6
Continuous
 62
     5
100
AcDbCircle
 39
2.500000155029299
 10
-0.0330509385504785
 20
0.0073604035573891
 30
0.0
 40
0.0015249057151225
  0
CIRCLE
  5
373E
330
3730
100
AcDbEntity
  8
0
  6
Continuous
 62
     5
100
AcDbCircle
 39
2.500000155029299
 10
-0.033113725416694
 20
0.0012600006300391
 30
0.0
 40
0.0016056164247336
  0
CIRCLE
  5
373F
330
3730
100
AcDbEntity
  8
0
  6
Continuous
 62
     5
100
AcDbCircle
 39
2.500000155029299
 10
-0.033426012561466
 20
-0.0052037522175391
 30
0.0
 40
0.0017900717687164
  0
CIRCLE
  5
3740
330
3730
100
AcDbEntity
  8
0
  6
Continuous
 62
     5
100
AcDbCircle
 39
2.500000155029299
 10
-0.0335356957907189
 20
-0.0113853517403961
 30
0.0
 40
0.0017680026136918
  0
CIRCLE
  5
3741
330
3730
100
AcDbEntity
  8
0
  6
Continuous
 62
     5
100
AcDbCircle
 39
2.500000155029299
 10
-0.0403631861317734
 20
-0.0080739259074051
 30
0.0
 40
0.0018960946260124
  0
ARC
  5
3742
330
3730
100
AcDbEntity
  8
0
  6
Continuous
 62
     5
100
AcDbCircle
 39
2.500000155029299
 10
-0.0050630631284268
 20
0.0106048761117461
 30
0.0
 40
0.011751466147934
100
AcDbArc
 50
214.4780759391286
 51
295.5215216113749
  0
LINE
  5
3743
330
3730
100
AcDbEntity
  8
0
  6
Continuous
 62
     5
100
AcDbLine
 39
2.500000155029299
 10
0.0
 20
0.0000000968933121
 30
0.0
 11
-0.0085118836779201
 21
-0.0147428987899281
 31
0.0
  0
LINE
  5
3744
330
3730
100
AcDbEntity
  8
0
  6
Continuous
 62
     5
100
AcDbLine
 39
2.500000155029299
 10
-0.0279409548356863
 20
-0.0234403331604447
 30
0.0
 11
-0.0202524463003312
 21
-0.0234403331604447
 31
0.0
  0
ARC
  5
3745
330
3730
100
AcDbEntity
  8
0
  6
Continuous
 62
     5
100
AcDbCircle
 39
2.500000155029299
 10
-0.0221451602581275
 20
-0.0086124589358392
 30
0.0
 40
0.014948212690269
100
AcDbArc
 50
277.2739609040121
 51
335.7881642027547
  0
LINE
  5
3746
330
3730
100
AcDbEntity
  8
0
  6
Continuous
 62
     5
100
AcDbLine
 39
2.500000155029299
 10
-0.0147503595749568
 20
0.0039524719855855
 30
0.0
 11
-0.0198774691826558
 21
0.0290662495386328
 31
0.0
  0
LINE
  5
3747
330
3730
100
AcDbEntity
  8
0
  6
Continuous
 62
     5
100
AcDbLine
 39
2.500000155029299
 10
-0.0198774691826558
 20
0.0290662495386328
 30
0.0
 11
-0.0228777705906195
 21
0.0290662495386328
 31
0.0
  0
LINE
  5
3748
330
3730
100
AcDbEntity
  8
0
  6
Continuous
 62
     5
100
AcDbLine
 39
2.500000155029299
 10
-0.0228777705906195
 20
0.0290662495386328
 30
0.0
 11
-0.0228777705906195
 21
0.0266284138071823
 31
0.0
  0
LINE
  5
3749
330
3730
100
AcDbEntity
  8
0
  6
Continuous
 62
     5
100
AcDbLine
 39
2.500000155029299
 10
-0.0228777705906195
 20
0.0266284138071823
 30
0.0
 11
-0.0241904811824196
 21
0.0266284138071823
 31
0.0
  0
LINE
  5
374A
330
3730
100
AcDbEntity
  8
0
  6
Continuous
 62
     5
100
AcDbLine
 39
2.500000155029299
 10
-0.0241904811824196
 20
0.0266284138071823
 30
0.0
 11
-0.0241904811824196
 21
0.0290662495386328
 31
0.0
  0
LINE
  5
374B
330
3730
100
AcDbEntity
  8
0
  6
Continuous
 62
     5
100
AcDbLine
 39
2.500000155029299
 10
-0.0241904811824196
 20
0.0290662495386328
 30
0.0
 11
-0.0279409548356863
 21
0.0290662495386328
 31
0.0
  0
CIRCLE
  5
374C
330
3730
100
AcDbEntity
  8
0
  6
Continuous
 62
     5
100
AcDbCircle
 39
2.500000155029299
 10
-0.0230435550475556
 20
0.0189341158964315
 30
0.0
 40
0.0013649867099716
  0
CIRCLE
  5
374D
330
3730
100
AcDbEntity
  8
0
  6
Continuous
 62
     5
100
AcDbCircle
 39
2.500000155029299
 10
-0.0229715633166944
 20
0.0132205110708283
 30
0.0
 40
0.0014585928407229
  0
CIRCLE
  5
374E
330
3730
100
AcDbEntity
  8
0
  6
Continuous
 62
     5
100
AcDbCircle
 39
2.500000155029299
 10
-0.0228309711208941
 20
0.0073604035573891
 30
0.0
 40
0.0015249057151225
  0
CIRCLE
  5
374F
330
3730
100
AcDbEntity
  8
0
  6
Continuous
 62
     5
100
AcDbCircle
 39
2.500000155029299
 10
-0.0227681842546787
 20
0.0012600006300391
 30
0.0
 40
0.0016056164247336
  0
CIRCLE
  5
3750
330
3730
100
AcDbEntity
  8
0
  6
Continuous
 62
     5
100
AcDbCircle
 39
2.500000155029299
 10
-0.0224558971099066
 20
-0.0052037522175391
 30
0.0
 40
0.0017900717687164
  0
CIRCLE
  5
3751
330
3730
100
AcDbEntity
  8
0
  6
Continuous
 62
     5
100
AcDbCircle
 39
2.500000155029299
 10
-0.0223462138806537
 20
-0.0113853517403961
 30
0.0
 40
0.0017680026136918
  0
CIRCLE
  5
3752
330
3730
100
AcDbEntity
  8
0
  6
Continuous
 62
     5
100
AcDbCircle
 39
2.500000155029299
 10
-0.0155187235395992
 20
-0.0080739259074051
 30
0.0
 40
0.0018960946260124
  0
CIRCLE
  5
3753
330
3730
100
AcDbEntity
  8
0
  6
Continuous
 62
     5
100
AcDbCircle
 39
2.500000155029299
 10
-0.0280347717850892
 20
-0.0082510468818523
 30
0.0
 40
0.0018752247149693
  0
CIRCLE
  5
3754
330
3730
100
AcDbEntity
  8
0
  6
Continuous
 62
     5
100
AcDbCircle
 39
2.500000155029299
 10
-0.0278472347795955
 20
0.0103139054956274
 30
0.0
 40
0.0016877361561316
  0
ENDBLK
  5
3756
330
3730
100
AcDbEntity
  8
0
100
AcDbBlockEnd
  0
ENDSEC
  0
SECTION
  2
ENTITIES
  0
TEXT
  5
43AE
330
1F
100
AcDbEntity
  8
POPIS
100
AcDbText
 10
3105.638506249782
 20
938.028611722566
 30
0.0
 40
50.0
  1
Protipožární podhled 
 41
0.85
  7
SIMPLEX7
100
AcDbText
  0
LINE
  5
43B0
330
1F
100
AcDbEntity
  8
POPIS
100
AcDbLine
 10
4023.241020241049
 20
300.0086083439805
 30
0.0
 11
3963.121689984337
 21
478.3510970342145
 31
0.0
  0
LINE
  5
43B1
330
1F
100
AcDbEntity
  8
POPIS
100
AcDbLine
 10
4107.093511512789
 20
451.5838401707696
 30
0.0
 11
4107.093511512789
 21
251.5392113262278
 31
0.0
  0
TEXT
  5
43B2
330
1F
100
AcDbEntity
  8
POPIS
100
AcDbText
 10
4090.726129961457
 20
219.9272773391867
 30
0.0
 40
25.0
  1
08
 41
0.85
  7
SIMPLEX7
100
AcDbText
  0
INSERT
  5
43B3
330
1F
100
AcDbEntity
  8
POPIS
100
AcDbBlockReference
  2
E_PUNKT
 10
4107.12430304877
 20
454.366008742314
 30
0.0
  0
HATCH
  5
43CF
330
1F
100
AcDbEntity
  8
STAVBA OBRYS
100
AcDbHatch
 10
0.0
 20
0.0
 30
0.0
210
0.0
220
0.0
230
1.0
  2
ANSI31
 70
     0
 71
     1
 91
        1
 92
        7
 72
     0
 73
     1
 93
        5
 10
3393.564325614355
 20
704.8600551674881
 10
3393.564325614355
 20
714.8600551674888
 10
3383.564325614354
 20
724.8600551674881
 10
3373.564325614355
 20
724.8600551674882
 10
3373.564325614355
 20
704.8600551674881
 97
        5
330
4E00
330
4E03
330
4E04
330
4E02
330
4E01
 75
     0
 76
     1
 52
0.0
 41
1.0
 77
     0
 78
     1
 53
45.0
 43
-33973.05035594336
 44
-3040.142935655743
 45
-2.245064030267287
 46
2.245064030267288
 79
     0
 47
0.560990753361288
 98
        1
 10
3383.791499132387
 20
713.2407799252087
  0
HATCH
  5
43D0
330
1F
100
AcDbEntity
  8
STAVBA OBRYS
100
AcDbHatch
 10
0.0
 20
0.0
 30
0.0
210
0.0
220
0.0
230
1.0
  2
AR-CONC
 70
     0
 71
     0
 91
        2
 92
        7
 72
     0
 73
     1
 93
        4
 10
3372.590396536065
 20
799.1677760033908
 10
3357.590396536073
 20
799.1677760033908
 10
3357.59039653608
 20
699.8931392315303
 10
3372.590396536073
 20
700.6627893331305
 97
        0
 92
        7
 72
     0
 73
     1
 93
        5
 10
3372.590396536073
 20
696.0070196180772
 10
3362.235739744788
 20
695.688849179915
 10
3357.59039653608
 20
695.398356283204
 10
3357.590396536073
 20
649.7958492821157
 10
3372.590396536065
 20
649.7958492821157
 97
        0
 75
     0
 76
     1
 52
0.0
 41
0.25
 77
     0
 78
    13
 53
50.0
 43
-33973.05035594336
 44
-3036.186104754628
 45
45.546167249001
 46
-3.984771384725771
 79
     2
 49
4.7625
 49
-52.3875
 53
355.0
 43
-33973.05035594336
 44
-3036.186104754628
 45
-8.810706493916747
 46
47.76416072054499
 79
     2
 49
3.81
 49
-41.90999999999999
 53
100.451
 43
-33969.25485594336
 44
-3036.518167254628
 45
36.73562541648981
 46
43.77917195507296
 79
     2
 49
4.0475
 49
-44.5225
 53
46.1842
 43
-33973.05035594336
 44
-3023.486104754628
 45
67.76976022303248
 46
-10.51058198318178
 79
     2
 49
7.143749999999999
 49
-78.58125
 53
96.63559999999998
 43
-33967.40288094336
 44
-3024.361979754628
 45
59.35105861655928
 46
61.8563889725123
 79
     2
 49
6.071249999999998
 49
-66.78374999999997
 53
351.184
 43
-33973.05035594336
 44
-3023.486104754628
 45
59.35115145348348
 46
61.85627946514942
 79
     2
 49
5.714999999999999
 49
-62.865
 53
21.0
 43
-33966.70035594336
 44
-3026.661104754628
 45
37.90371995884582
 46
-25.56637962919062
 79
     2
 49
4.7625
 49
-52.3875
 53
326.0
 43
-33966.70035594336
 44
-3026.661104754628
 45
15.45050708691176
 46
46.04699153057981
 79
     2
 49
3.81
 49
-41.90999999999999
 53
71.45140000000001
 43
-33963.54173094336
 44
-3028.791629754628
 45
53.35412269253112
 46
20.48071442901436
 79
     2
 49
4.0475
 49
-44.5225
 53
37.5
 43
-33973.05035594336
 44
-3036.186104754628
 45
0.7721508126479542
 46
21.13875971828827
 79
     6
 49
0.0
 49
-41.402
 49
0.0
 49
-42.545
 49
0.0
 49
-42.06875
 53
7.499999999999999
 43
-33973.05035594336
 44
-3036.186104754628
 45
16.70491562757643
 46
25.04514370452987
 79
     6
 49
0.0
 49
-24.25699999999999
 49
0.0
 49
-40.4495
 49
0.0
 49
-16.03375
 53
327.4999999999999
 43
-33987.21085594336
 44
-3036.186104754628
 45
33.89764879171784
 46
-1.432185998168366
 79
     6
 49
0.0
 49
-15.875
 49
0.0
 49
-49.53
 49
0.0
 49
-65.7225
 53
317.5
 43
-33993.56085594336
 44
-3036.186104754628
 45
37.03229534650451
 46
6.356622758333253
 79
     6
 49
0.0
 49
-20.6375
 49
0.0
 49
-32.893
 49
0.0
 49
-46.6725
 47
0.7655734770532269
 98
        2
 10
3365.023301728371
 20
741.944187692452
 10
3364.257328964794
 20
676.1048663069141
  0
HATCH
  5
43D1
330
1F
100
AcDbEntity
  8
STAVBA OBRYS
100
AcDbHatch
 10
0.0
 20
0.0
 30
0.0
210
0.0
220
0.0
230
1.0
  2
AR-CONC
 70
     0
 71
     0
 91
        1
 92
        7
 72
     0
 73
     1
 93
        4
 10
3372.590396536065
 20
373.5392128008206
 10
3357.590396536073
 20
373.5392128008211
 10
3357.590396536073
 20
288.9453304398321
 10
3372.590396536073
 20
288.9453304398321
 97
        0
 75
     0
 76
     1
 52
0.0
 41
0.25
 77
     0
 78
    13
 53
50.0
 43
-33973.05035594336
 44
-3036.186104754628
 45
45.546167249001
 46
-3.984771384725771
 79
     2
 49
4.7625
 49
-52.3875
 53
355.0
 43
-33973.05035594336
 44
-3036.186104754628
 45
-8.810706493916747
 46
47.76416072054499
 79
     2
 49
3.81
 49
-41.90999999999999
 53
100.451
 43
-33969.25485594336
 44
-3036.518167254628
 45
36.73562541648981
 46
43.77917195507296
 79
     2
 49
4.0475
 49
-44.5225
 53
46.1842
 43
-33973.05035594336
 44
-3023.486104754628
 45
67.76976022303248
 46
-10.51058198318178
 79
     2
 49
7.143749999999999
 49
-78.58125
 53
96.63559999999998
 43
-33967.40288094336
 44
-3024.361979754628
 45
59.35105861655928
 46
61.8563889725123
 79
     2
 49
6.071249999999998
 49
-66.78374999999997
 53
351.184
 43
-33973.05035594336
 44
-3023.486104754628
 45
59.35115145348348
 46
61.85627946514942
 79
     2
 49
5.714999999999999
 49
-62.865
 53
21.0
 43
-33966.70035594336
 44
-3026.661104754628
 45
37.90371995884582
 46
-25.56637962919062
 79
     2
 49
4.7625
 49
-52.3875
 53
326.0
 43
-33966.70035594336
 44
-3026.661104754628
 45
15.45050708691176
 46
46.04699153057981
 79
     2
 49
3.81
 49
-41.90999999999999
 53
71.45140000000001
 43
-33963.54173094336
 44
-3028.791629754628
 45
53.35412269253112
 46
20.48071442901436
 79
     2
 49
4.0475
 49
-44.5225
 53
37.5
 43
-33973.05035594336
 44
-3036.186104754628
 45
0.7721508126479542
 46
21.13875971828827
 79
     6
 49
0.0
 49
-41.402
 49
0.0
 49
-42.545
 49
0.0
 49
-42.06875
 53
7.499999999999999
 43
-33973.05035594336
 44
-3036.186104754628
 45
16.70491562757643
 46
25.04514370452987
 79
     6
 49
0.0
 49
-24.25699999999999
 49
0.0
 49
-40.4495
 49
0.0
 49
-16.03375
 53
327.4999999999999
 43
-33987.21085594336
 44
-3036.186104754628
 45
33.89764879171784
 46
-1.432185998168366
 79
     6
 49
0.0
 49
-15.875
 49
0.0
 49
-49.53
 49
0.0
 49
-65.7225
 53
317.5
 43
-33993.56085594336
 44
-3036.186104754628
 45
37.03229534650451
 46
6.356622758333253
 79
     6
 49
0.0
 49
-20.6375
 49
0.0
 49
-32.893
 49
0.0
 49
-46.6725
 47
0.9538963613029981
 98
        1
 10
3366.851149530873
 20
327.6311147921569
  0
LWPOLYLINE
  5
43D2
330
1F
100
AcDbEntity
  8
STAVBA OBRYS
100
AcDbPolyline
 90
        3
 70
     0
 43
0.0
 10
3403.093139607811
 20
636.5392128008206
 42
0.056287719857687
 10
3401.152487845243
 20
640.6827051490108
 42
0.0424769481457602
 10
3394.432605803343
 20
649.7958492821162
  0
LWPOLYLINE
  5
43D3
330
1F
100
AcDbEntity
  8
STAVBA OBRYS
100
AcDbPolyline
 90
        3
 70
     0
 43
0.0
 10
3390.302907522436
 20
636.539212800822
 42
0.0236107134268877
 10
3386.741279269011
 20
641.0646185774221
 42
0.079372571536355
 10
3379.280376804639
 20
649.7958492821162
  0
LWPOLYLINE
  5
43D4
330
1F
100
AcDbEntity
  8
STAVBA OBRYS
100
AcDbPolyline
 90
        2
 70
     0
 43
0.0
 10
3392.510746209994
 20
636.5392128008216
 10
3396.416362279483
 20
640.451618085919
  0
LWPOLYLINE
  5
43D5
330
1F
100
AcDbEntity
  8
STAVBA OBRYS
100
AcDbPolyline
 90
        3
 70
     0
 43
0.0
 10
3374.309227162793
 20
636.5392128008206
 42
0.0032110188331562
 10
3373.501479210094
 20
637.1385375236577
 42
0.0206961458558035
 10
3357.590396536073
 20
647.8041946349849
  0
LINE
  5
43D6
330
1F
100
AcDbEntity
  8
STAVBA OBRYS
100
AcDbLine
 10
4213.97445606768
 20
650.050740615512
 30
0.0
 11
4213.978761032073
 21
636.5392128008206
 31
0.0
  0
LWPOLYLINE
  5
43D7
330
1F
100
AcDbEntity
  8
STAVBA OBRYS
100
AcDbPolyline
 90
        2
 70
     0
 43
0.0
 10
4192.256256584793
 20
636.539212800822
 10
4196.416321673527
 20
640.7065094193149
  0
LWPOLYLINE
  5
43D8
330
1F
100
AcDbEntity
  8
STAVBA OBRYS
100
AcDbPolyline
 90
        3
 70
     0
 43
0.0
 10
4190.483687330892
 20
636.5392128008193
 42
0.0248920319751796
 10
4186.741238663056
 20
641.3195099108179
 42
0.079372571536355
 10
4179.280336198683
 20
650.050740615512
  0
LWPOLYLINE
  5
43D9
330
1F
100
AcDbEntity
  8
STAVBA OBRYS
100
AcDbPolyline
 90
        4
 70
     0
 43
0.0
 10
4203.177547342423
 20
636.5392128008206
 42
0.0001377071988202
 10
4203.14384708099
 20
636.6417954436874
 42
0.0582629403736403
 10
4201.152447239287
 20
640.9375964824066
 42
0.0424769481457602
 10
4194.432565197387
 20
650.050740615512
  0
LWPOLYLINE
  5
43DA
330
1F
100
AcDbEntity
  8
STAVBA OBRYS
100
AcDbPolyline
 90
        3
 70
     0
 43
0.0
 10
4389.428028976482
 20
638.0215276740091
 42
0.0175375526296756
 10
4386.741238663056
 20
641.3513713274924
 42
0.079372571536355
 10
4379.28033619869
 20
650.0826020321856
  0
LWPOLYLINE
  5
43DB
330
1F
100
AcDbEntity
  8
STAVBA OBRYS
100
AcDbPolyline
 90
        5
 70
     0
 43
0.0
 10
4374.688120256537
 20
636.5392128008216
 42
0.004728106459029
 10
4373.501438604146
 20
637.425290273728
 42
0.0073640874174249
 10
4367.941059376559
 20
641.3713719846109
 42
0.0194185739168057
 10
4365.75460739295
 20
642.7532547837491
 42
0.0567960585128809
 10
4358.459458001666
 20
645.9354918301997
  0
LWPOLYLINE
  5
43DC
330
1F
100
AcDbEntity
  8
STAVBA OBRYS
100
AcDbPolyline
 90
        2
 70
     0
 43
0.0
 10
4213.976299321347
 20
644.2655189760707
 42
0.0342853251667245
 10
4218.868602322446
 20
636.5392128008225
 42
0.0342853251667245
  0
LINE
  5
43DD
330
1F
100
AcDbEntity
  8
STAVBA OBRYS
100
AcDbLine
 10
4313.974450991935
 20
650.0826020321865
 30
0.0
 11
4313.978766107825
 21
636.5392128008206
 31
0.0
  0
LWPOLYLINE
  5
43DE
330
1F
100
AcDbEntity
  8
STAVBA OBRYS
100
AcDbPolyline
 90
        5
 70
     0
 43
0.0
 10
4342.224017434421
 20
636.5392128008193
 42
-0.0041906664068479
 10
4343.271696678809
 20
637.3300598177575
 42
-0.0073640874174249
 10
4348.807103710841
 20
641.3110957398767
 42
-0.0194185739168057
 10
4350.984805904499
 20
642.706726601873
 42
-0.0567960585128809
 10
4358.259761184871
 20
645.9348627405115
  0
LWPOLYLINE
  5
43DF
330
1F
100
AcDbEntity
  8
STAVBA OBRYS
100
AcDbPolyline
 90
        2
 70
     0
 43
0.0
 10
4322.830053806118
 20
636.5392128008188
 10
4319.295430616631
 20
639.3195704241224
  0
LWPOLYLINE
  5
43E0
330
1F
100
AcDbEntity
  8
STAVBA OBRYS
100
AcDbPolyline
 90
        3
 70
     0
 43
0.0
 10
4326.414187369557
 20
636.5392128008193
 42
-0.0240400087033554
 10
4330.007423575089
 20
641.1726471063875
 42
-0.0807730785506472
 10
4337.566987950481
 20
650.0826020321865
  0
LWPOLYLINE
  5
43E1
330
1F
100
AcDbEntity
  8
STAVBA OBRYS
100
AcDbPolyline
 90
        2
 70
     0
 43
0.0
 10
4313.978342793557
 20
637.8678236716277
 42
-0.0558582670487531
 10
4322.459137556866
 20
650.0826020321873
  0
LWPOLYLINE
  5
43E2
330
1F
100
AcDbEntity
  8
STAVBA OBRYS
100
AcDbPolyline
 90
        6
 70
     0
 43
0.0
 10
4280.002969886819
 20
650.0928158617425
 42
-0.0132290984651571
 10
4277.383790298382
 20
647.7862533995485
 42
-0.0157521173632038
 10
4273.499101052158
 20
644.7459820853455
 42
-0.0073640874174249
 10
4267.941237508446
 20
640.7963579446259
 42
-0.0194185739168057
 10
4265.755666543564
 20
639.4130821569688
 42
-0.0567960585128809
 10
4258.46254644493
 20
636.2261970809541
  0
LWPOLYLINE
  5
43E3
330
1F
100
AcDbEntity
  8
STAVBA OBRYS
100
AcDbPolyline
 90
        2
 70
     0
 43
0.0
 10
4287.769828304512
 20
650.0977651247403
 10
4296.416090657827
 20
641.4475042077465
  0
LWPOLYLINE
  5
43E4
330
1F
100
AcDbEntity
  8
STAVBA OBRYS
100
AcDbPolyline
 90
        4
 70
     0
 43
0.0
 10
4293.286650676756
 20
650.1012806008039
 42
-0.0269616495147103
 10
4290.617439652032
 20
645.8057456310726
 42
-0.0258674098621065
 10
4286.741400232956
 20
640.8283386039911
 42
-0.0362548808582182
 10
4283.67590299286
 20
636.5392128008193
 42
-0.0362548808582182
  0
LWPOLYLINE
  5
43E5
330
1F
100
AcDbEntity
  8
STAVBA OBRYS
100
AcDbPolyline
 90
        4
 70
     0
 43
0.0
 10
4304.585524487646
 20
650.1084805644277
 42
-0.006139508424204
 10
4303.141024548614
 20
645.5165043277011
 42
-0.0582629403736403
 10
4301.152362517236
 20
641.2194351848211
 42
-0.0211308104062842
 10
4298.004487651563
 20
636.5392128008211
 42
-0.0211308104062842
  0
LWPOLYLINE
  5
43E6
330
1F
100
AcDbEntity
  8
STAVBA OBRYS
100
AcDbPolyline
 90
        4
 70
     0
 43
0.0
 10
4223.628887617708
 20
650.0568926937758
 42
0.0256269988680257
 10
4226.156508506009
 20
645.9677353348179
 42
0.0258674098621065
 10
4230.007482775511
 20
640.9709103962041
 42
0.0373895237311419
 10
4233.156436468425
 20
636.5392128008211
 42
0.0373895237311419
  0
LWPOLYLINE
  5
43E7
330
1F
100
AcDbEntity
  8
STAVBA OBRYS
100
AcDbPolyline
 90
        2
 70
     0
 43
0.0
 10
4228.489937286994
 20
650.0599902928261
 10
4219.294311159002
 20
642.8171607171653
  0
LWPOLYLINE
  5
43E8
330
1F
100
AcDbEntity
  8
STAVBA OBRYS
100
AcDbPolyline
 90
        6
 70
     0
 43
0.0
 10
4236.937827595781
 20
650.0653735287105
 42
0.0124742646996712
 10
4239.399944647844
 20
647.8817064405538
 42
0.0157521173632038
 10
4243.269304580822
 20
644.8219492748903
 42
0.0073640874174249
 10
4248.807247317755
 20
640.8444414790592
 42
0.0194185739168057
 10
4250.98583840475
 20
639.4501985938878
 42
0.0567960585128809
 10
4258.2628492678
 20
636.2266989180516
  0
POLYLINE
  5
43E9
330
1F
100
AcDbEntity
  8
STAVBA OBRYS
100
AcDb2dPolyline
 66
     1
 10
0.0
 20
0.0
 30
0.0
  0
VERTEX
  5
43EA
330
43E9
100
AcDbEntity
  8
STAVBA OBRYS
100
AcDbVertex
100
AcDb2dVertex
 10
4264.302453073333
 20
650.0828110460552
 30
0.0
 42
-0.0141362754529377
  0
VERTEX
  5
43EB
330
43E9
100
AcDbEntity
  8
STAVBA OBRYS
100
AcDbVertex
100
AcDb2dVertex
 10
4261.705746874979
 20
648.6455205078055
 30
0.0
 42
-0.056967459841729
  0
VERTEX
  5
43EC
330
43E9
100
AcDbEntity
  8
STAVBA OBRYS
100
AcDbVertex
100
AcDb2dVertex
 10
4259.13723213765
 20
647.6686005769397
 30
0.0
 42
-0.0373408083348504
  0
VERTEX
  5
43ED
330
43E9
100
AcDbEntity
  8
STAVBA OBRYS
100
AcDbVertex
100
AcDb2dVertex
 10
4258.870436890119
 20
647.6214319087394
 30
0.0
 42
-0.0052305969362967
  0
VERTEX
  5
43EE
330
43E9
100
AcDbEntity
  8
STAVBA OBRYS
100
AcDbVertex
100
AcDb2dVertex
 10
4258.455308917883
 20
647.5840190095659
 30
0.0
  0
SEQEND
  5
43EF
330
43E9
100
AcDbEntity
  8
STAVBA OBRYS
  0
POLYLINE
  5
43F0
330
1F
100
AcDbEntity
  8
STAVBA OBRYS
100
AcDb2dPolyline
 66
     1
 10
0.0
 20
0.0
 30
0.0
  0
VERTEX
  5
43F1
330
43F0
100
AcDbEntity
  8
STAVBA OBRYS
100
AcDbVertex
100
AcDb2dVertex
 10
4252.554920393481
 20
650.0753251842425
 30
0.0
 42
0.0137909154721682
  0
VERTEX
  5
43F2
330
43F0
100
AcDbEntity
  8
STAVBA OBRYS
100
AcDbVertex
100
AcDb2dVertex
 10
4255.082108687793
 20
648.6621656472498
 30
0.0
 42
0.056967459841729
  0
VERTEX
  5
43F3
330
43F0
100
AcDbEntity
  8
STAVBA OBRYS
100
AcDbVertex
100
AcDb2dVertex
 10
4257.645681034492
 20
647.6723488306033
 30
0.0
 42
0.0373408083348504
  0
VERTEX
  5
43F4
330
43F0
100
AcDbEntity
  8
STAVBA OBRYS
100
AcDbVertex
100
AcDb2dVertex
 10
4257.912235845021
 20
647.6238398588057
 30
0.0
 42
0.0052305969362967
  0
VERTEX
  5
43F5
330
43F0
100
AcDbEntity
  8
STAVBA OBRYS
100
AcDbVertex
100
AcDb2dVertex
 10
4258.327170538798
 20
647.5843410200877
 30
0.0
  0
SEQEND
  5
43F6
330
43F0
100
AcDbEntity
  8
STAVBA OBRYS
  0
POLYLINE
  5
43F7
330
1F
100
AcDbEntity
  8
STAVBA OBRYS
100
AcDb2dPolyline
 66
     1
 10
0.0
 20
0.0
 30
0.0
  0
VERTEX
  5
43F8
330
43F7
100
AcDbEntity
  8
STAVBA OBRYS
100
AcDbVertex
100
AcDb2dVertex
 10
3452.554960999437
 20
649.8204338508466
 30
0.0
 42
0.0137909154721682
  0
VERTEX
  5
43F9
330
43F7
100
AcDbEntity
  8
STAVBA OBRYS
100
AcDbVertex
100
AcDb2dVertex
 10
3455.082149293749
 20
648.407274313854
 30
0.0
 42
0.056967459841729
  0
VERTEX
  5
43FA
330
43F7
100
AcDbEntity
  8
STAVBA OBRYS
100
AcDbVertex
100
AcDb2dVertex
 10
3457.645721640448
 20
647.4174574972075
 30
0.0
 42
0.0373408083348504
  0
VERTEX
  5
43FB
330
43F7
100
AcDbEntity
  8
STAVBA OBRYS
100
AcDbVertex
100
AcDb2dVertex
 10
3457.912276450977
 20
647.3689485254099
 30
0.0
 42
0.0052305969362967
  0
VERTEX
  5
43FC
330
43F7
100
AcDbEntity
  8
STAVBA OBRYS
100
AcDbVertex
100
AcDb2dVertex
 10
3458.327211144754
 20
647.329449686692
 30
0.0
  0
SEQEND
  5
43FD
330
43F7
100
AcDbEntity
  8
STAVBA OBRYS
  0
POLYLINE
  5
43FE
330
1F
100
AcDbEntity
  8
STAVBA OBRYS
100
AcDb2dPolyline
 66
     1
 10
0.0
 20
0.0
 30
0.0
  0
VERTEX
  5
43FF
330
43FE
100
AcDbEntity
  8
STAVBA OBRYS
100
AcDbVertex
100
AcDb2dVertex
 10
3464.302493679289
 20
649.8279197126594
 30
0.0
 42
-0.0141362754529377
  0
VERTEX
  5
4400
330
43FE
100
AcDbEntity
  8
STAVBA OBRYS
100
AcDbVertex
100
AcDb2dVertex
 10
3461.705787480935
 20
648.3906291744097
 30
0.0
 42
-0.056967459841729
  0
VERTEX
  5
4401
330
43FE
100
AcDbEntity
  8
STAVBA OBRYS
100
AcDbVertex
100
AcDb2dVertex
 10
3459.137272743606
 20
647.4137092435439
 30
0.0
 42
-0.0373408083348504
  0
VERTEX
  5
4402
330
43FE
100
AcDbEntity
  8
STAVBA OBRYS
100
AcDbVertex
100
AcDb2dVertex
 10
3458.870477496074
 20
647.3665405753436
 30
0.0
 42
-0.0052305969362967
  0
VERTEX
  5
4403
330
43FE
100
AcDbEntity
  8
STAVBA OBRYS
100
AcDbVertex
100
AcDb2dVertex
 10
3458.455349523839
 20
647.3291276761702
 30
0.0
  0
SEQEND
  5
4404
330
43FE
100
AcDbEntity
  8
STAVBA OBRYS
  0
LWPOLYLINE
  5
4405
330
1F
100
AcDbEntity
  8
STAVBA OBRYS
100
AcDbPolyline
 90
        6
 70
     0
 43
0.0
 10
3436.937868201737
 20
649.8104821953147
 42
0.0124742646996712
 10
3439.399985253799
 20
647.6268151071581
 42
0.0157521173632038
 10
3443.269345186777
 20
644.5670579414946
 42
0.0073640874174249
 10
3448.807287923711
 20
640.5895501456634
 42
0.0194185739168057
 10
3450.985879010705
 20
639.195307260492
 42
0.0567960585128809
 10
3458.262889873756
 20
635.9718075846558
  0
LWPOLYLINE
  5
4406
330
1F
100
AcDbEntity
  8
STAVBA OBRYS
100
AcDbPolyline
 90
        2
 70
     0
 43
0.0
 10
3428.489977892949
 20
649.8050989594303
 10
3419.294351764957
 20
642.5622693837695
  0
LWPOLYLINE
  5
4407
330
1F
100
AcDbEntity
  8
STAVBA OBRYS
100
AcDbPolyline
 90
        4
 70
     0
 43
0.0
 10
3423.628928223664
 20
649.80200136038
 42
0.0256269988680257
 10
3426.156549111964
 20
645.7128440014221
 42
0.0258674098621065
 10
3430.007523381466
 20
640.7160190628083
 42
0.0351205206444228
 10
3432.946967961167
 20
636.5392128008197
 42
0.0351205206444228
  0
LWPOLYLINE
  5
4408
330
1F
100
AcDbEntity
  8
STAVBA OBRYS
100
AcDbPolyline
 90
        4
 70
     0
 43
0.0
 10
3504.585565093602
 20
649.8535892310319
 42
-0.006139508424204
 10
3503.141065154569
 20
645.2616129943053
 42
-0.0582629403736403
 10
3501.152403123192
 20
640.9645438514253
 42
-0.0199473400174078
 10
3498.191148227432
 20
636.5392128008197
 42
-0.0199473400174078
  0
LWPOLYLINE
  5
4409
330
1F
100
AcDbEntity
  8
STAVBA OBRYS
100
AcDbPolyline
 90
        4
 70
     0
 43
0.0
 10
3493.286691282711
 20
649.8463892674081
 42
-0.0269616495147103
 10
3490.617480257987
 20
645.5508542976767
 42
-0.0258674098621065
 10
3486.741440838911
 20
640.5734472705953
 42
-0.0339851437158929
 10
3483.885662806208
 20
636.5392128008216
 42
-0.0339851437158929
  0
LWPOLYLINE
  5
440A
330
1F
100
AcDbEntity
  8
STAVBA OBRYS
100
AcDbPolyline
 90
        2
 70
     0
 43
0.0
 10
3487.769868910468
 20
649.8428737913445
 10
3496.416131263783
 20
641.1926128743507
  0
LWPOLYLINE
  5
440B
330
1F
100
AcDbEntity
  8
STAVBA OBRYS
100
AcDbPolyline
 90
        6
 70
     0
 43
0.0
 10
3480.003010492775
 20
649.8379245283468
 42
-0.0132290984651571
 10
3477.383830904337
 20
647.5313620661527
 42
-0.0157521173632038
 10
3473.499141658113
 20
644.4910907519497
 42
-0.0073640874174249
 10
3467.941278114401
 20
640.5414666112301
 42
-0.0194185739168057
 10
3465.75570714952
 20
639.158190823573
 42
-0.0567960585128809
 10
3458.462587050885
 20
635.9713057475582
  0
LWPOLYLINE
  5
440C
330
1F
100
AcDbEntity
  8
STAVBA OBRYS
100
AcDbPolyline
 90
        2
 70
     0
 43
0.0
 10
3413.976339927302
 20
644.010627642675
 42
0.0331021595201976
 10
3418.682542101308
 20
636.5392128008216
 42
0.0331021595201976
  0
LINE
  5
440D
330
1F
100
AcDbEntity
  8
STAVBA OBRYS
100
AcDbLine
 10
3413.974496673635
 20
649.7958492821162
 30
0.0
 11
3413.978720426039
 21
636.5392128008206
 31
0.0
  0
POLYLINE
  5
440E
330
1F
100
AcDbEntity
  8
STAVBA OBRYS
100
AcDb2dPolyline
 66
     1
 10
0.0
 20
0.0
 30
0.0
  0
VERTEX
  5
440F
330
440E
100
AcDbEntity
  8
STAVBA OBRYS
100
AcDbVertex
100
AcDb2dVertex
 10
3652.554950847948
 20
649.8841566841957
 30
0.0
 42
0.0137909154721682
  0
VERTEX
  5
4410
330
440E
100
AcDbEntity
  8
STAVBA OBRYS
100
AcDbVertex
100
AcDb2dVertex
 10
3655.08213914226
 20
648.4709971472029
 30
0.0
 42
0.056967459841729
  0
VERTEX
  5
4411
330
440E
100
AcDbEntity
  8
STAVBA OBRYS
100
AcDbVertex
100
AcDb2dVertex
 10
3657.645711488959
 20
647.4811803305565
 30
0.0
 42
0.0373408083348504
  0
VERTEX
  5
4412
330
440E
100
AcDbEntity
  8
STAVBA OBRYS
100
AcDbVertex
100
AcDb2dVertex
 10
3657.912266299487
 20
647.4326713587588
 30
0.0
 42
0.0052305969362967
  0
VERTEX
  5
4413
330
440E
100
AcDbEntity
  8
STAVBA OBRYS
100
AcDbVertex
100
AcDb2dVertex
 10
3658.327200993265
 20
647.3931725200409
 30
0.0
  0
SEQEND
  5
4414
330
440E
100
AcDbEntity
  8
STAVBA OBRYS
  0
POLYLINE
  5
4415
330
1F
100
AcDbEntity
  8
STAVBA OBRYS
100
AcDb2dPolyline
 66
     1
 10
0.0
 20
0.0
 30
0.0
  0
VERTEX
  5
4416
330
4415
100
AcDbEntity
  8
STAVBA OBRYS
100
AcDbVertex
100
AcDb2dVertex
 10
3664.3024835278
 20
649.8916425460083
 30
0.0
 42
-0.0141362754529377
  0
VERTEX
  5
4417
330
4415
100
AcDbEntity
  8
STAVBA OBRYS
100
AcDbVertex
100
AcDb2dVertex
 10
3661.705777329446
 20
648.4543520077586
 30
0.0
 42
-0.056967459841729
  0
VERTEX
  5
4418
330
4415
100
AcDbEntity
  8
STAVBA OBRYS
100
AcDbVertex
100
AcDb2dVertex
 10
3659.137262592116
 20
647.4774320768929
 30
0.0
 42
-0.0373408083348504
  0
VERTEX
  5
4419
330
4415
100
AcDbEntity
  8
STAVBA OBRYS
100
AcDbVertex
100
AcDb2dVertex
 10
3658.870467344585
 20
647.4302634086925
 30
0.0
 42
-0.0052305969362967
  0
VERTEX
  5
441A
330
4415
100
AcDbEntity
  8
STAVBA OBRYS
100
AcDbVertex
100
AcDb2dVertex
 10
3658.45533937235
 20
647.3928505095191
 30
0.0
  0
SEQEND
  5
441B
330
4415
100
AcDbEntity
  8
STAVBA OBRYS
  0
LWPOLYLINE
  5
441C
330
1F
100
AcDbEntity
  8
STAVBA OBRYS
100
AcDbPolyline
 90
        6
 70
     0
 43
0.0
 10
3636.937858050247
 20
649.8742050286637
 42
0.0124742646996712
 10
3639.39997510231
 20
647.690537940507
 42
0.0157521173632038
 10
3643.269335035288
 20
644.6307807748435
 42
0.0073640874174249
 10
3648.807277772221
 20
640.6532729790123
 42
0.0194185739168057
 10
3650.985868859216
 20
639.2590300938409
 42
0.0567960585128809
 10
3658.262879722267
 20
636.0355304180047
  0
LWPOLYLINE
  5
441D
330
1F
100
AcDbEntity
  8
STAVBA OBRYS
100
AcDbPolyline
 90
        2
 70
     0
 43
0.0
 10
3628.48996774146
 20
649.8688217927792
 10
3619.294341613469
 20
642.6259922171184
  0
LWPOLYLINE
  5
441E
330
1F
100
AcDbEntity
  8
STAVBA OBRYS
100
AcDbPolyline
 90
        4
 70
     0
 43
0.0
 10
3623.628918072175
 20
649.8657241937289
 42
0.0256269988680257
 10
3626.156538960475
 20
645.776566834771
 42
0.0258674098621065
 10
3630.007513229978
 20
640.7797418961572
 42
0.0356861563004932
 10
3632.99897283198
 20
636.539212800822
 42
0.0356861563004932
  0
LWPOLYLINE
  5
441F
330
1F
100
AcDbEntity
  8
STAVBA OBRYS
100
AcDbPolyline
 90
        4
 70
     0
 43
0.0
 10
3704.585554942113
 20
649.9173120643809
 42
-0.006139508424204
 10
3703.14105500308
 20
645.3253358276542
 42
-0.0582629403736403
 10
3701.152392971703
 20
641.0282666847742
 42
-0.0202428184088005
 10
3698.144656619736
 20
636.5392128008193
 42
-0.0202428184088005
  0
LWPOLYLINE
  5
4420
330
1F
100
AcDbEntity
  8
STAVBA OBRYS
100
AcDbPolyline
 90
        4
 70
     0
 43
0.0
 10
3693.286681131222
 20
649.910112100757
 42
-0.0269616495147103
 10
3690.617470106498
 20
645.6145771310257
 42
-0.0258674098621065
 10
3686.741430687422
 20
640.6371701039443
 42
-0.0345509612203483
 10
3683.833585547635
 20
636.5392128008193
 42
-0.0345509612203483
  0
LWPOLYLINE
  5
4421
330
1F
100
AcDbEntity
  8
STAVBA OBRYS
100
AcDbPolyline
 90
        2
 70
     0
 43
0.0
 10
3687.769858758979
 20
649.9065966246935
 10
3696.416121112295
 20
641.2563357076996
  0
LWPOLYLINE
  5
4422
330
1F
100
AcDbEntity
  8
STAVBA OBRYS
100
AcDbPolyline
 90
        6
 70
     0
 43
0.0
 10
3680.003000341285
 20
649.9016473616957
 42
-0.0132290984651571
 10
3677.383820752849
 20
647.5950848995016
 42
-0.0157521173632038
 10
3673.499131506624
 20
644.5548135852987
 42
-0.0073640874174249
 10
3667.941267962912
 20
640.605189444579
 42
-0.0194185739168057
 10
3665.755696998031
 20
639.2219136569219
 42
-0.0567960585128809
 10
3658.462576899396
 20
636.0350285809072
  0
LWPOLYLINE
  5
4423
330
1F
100
AcDbEntity
  8
STAVBA OBRYS
100
AcDbPolyline
 90
        2
 70
     0
 43
0.0
 10
3613.976329775813
 20
644.0743504760239
 42
0.0333975598233394
 10
3618.728884124221
 20
636.5392128008197
 42
0.0333975598233394
  0
LWPOLYLINE
  5
4424
330
1F
100
AcDbEntity
  8
STAVBA OBRYS
100
AcDbPolyline
 90
        5
 70
     0
 43
0.0
 10
3542.51582845719
 20
636.5392128008197
 42
-0.0030181985555495
 10
3543.271727133275
 20
637.1070299010352
 42
-0.0073640874174249
 10
3548.807134165307
 20
641.0880658231554
 42
-0.0194185739168057
 10
3550.984836358958
 20
642.4836966851517
 42
-0.0567960585128809
 10
3558.25979163933
 20
645.7118328237902
  0
LWPOLYLINE
  5
4425
330
1F
100
AcDbEntity
  8
STAVBA OBRYS
100
AcDbPolyline
 90
        2
 70
     0
 43
0.0
 10
3522.546549973837
 20
636.5392128008211
 10
3519.29546107109
 20
639.0965405074003
  0
LWPOLYLINE
  5
4426
330
1F
100
AcDbEntity
  8
STAVBA OBRYS
100
AcDbPolyline
 90
        3
 70
     0
 43
0.0
 10
3526.571358704156
 20
636.5392128008206
 42
-0.0229214455122389
 10
3530.007454029556
 20
640.9496171896662
 42
-0.0807730785506472
 10
3537.56701840494
 20
649.8595721154652
  0
LWPOLYLINE
  5
4427
330
1F
100
AcDbEntity
  8
STAVBA OBRYS
100
AcDbPolyline
 90
        2
 70
     0
 43
0.0
 10
3513.978373248024
 20
637.6447937549073
 42
-0.0558582670487531
 10
3522.459168011325
 20
649.8595721154652
  0
LWPOLYLINE
  5
4428
330
1F
100
AcDbEntity
  8
STAVBA OBRYS
100
AcDbPolyline
 90
        3
 70
     0
 43
0.0
 10
3603.114523582723
 20
636.5392128008216
 42
0.0571146885896346
 10
3601.152477693754
 20
640.7464279823598
 42
0.0424769481457602
 10
3594.432595651854
 20
649.8595721154652
  0
LWPOLYLINE
  5
4429
330
1F
100
AcDbEntity
  8
STAVBA OBRYS
100
AcDbPolyline
 90
        3
 70
     0
 43
0.0
 10
3590.348286642666
 20
636.5392128008206
 42
0.0239314727868541
 10
3586.741269117522
 20
641.128341410771
 42
0.079372571536355
 10
3579.280366653149
 20
649.8595721154652
  0
LWPOLYLINE
  5
442A
330
1F
100
AcDbEntity
  8
STAVBA OBRYS
100
AcDbPolyline
 90
        2
 70
     0
 43
0.0
 10
3592.447123803689
 20
636.5392128008193
 10
3596.416352127994
 20
640.515340919268
  0
LWPOLYLINE
  5
442B
330
1F
100
AcDbEntity
  8
STAVBA OBRYS
100
AcDbPolyline
 90
        5
 70
     0
 43
0.0
 10
3574.393838400097
 20
636.539212800822
 42
0.0035492020222286
 10
3573.501469058606
 20
637.2022603570067
 42
0.0073640874174249
 10
3567.941089831025
 20
641.1483420678905
 42
0.0194185739168057
 10
3565.754637847417
 20
642.5302248670277
 42
0.0567960585128809
 10
3558.459488456133
 20
645.7124619134783
  0
LINE
  5
442C
330
1F
100
AcDbEntity
  8
STAVBA OBRYS
100
AcDbLine
 10
3513.97449159789
 20
649.8277106987907
 30
0.0
 11
3513.97872550179
 21
636.5392128008206
 31
0.0
  0
LINE
  5
442D
330
1F
100
AcDbEntity
  8
STAVBA OBRYS
100
AcDbLine
 10
3613.974486522146
 20
649.8595721154652
 30
0.0
 11
3613.978730577549
 21
636.5392128008206
 31
0.0
  0
POLYLINE
  5
442E
330
1F
100
AcDbEntity
  8
STAVBA OBRYS
100
AcDb2dPolyline
 66
     1
 10
0.0
 20
0.0
 30
0.0
  0
VERTEX
  5
442F
330
442E
100
AcDbEntity
  8
STAVBA OBRYS
100
AcDbVertex
100
AcDb2dVertex
 10
3852.554940696459
 20
649.9478795175446
 30
0.0
 42
0.0137909154721682
  0
VERTEX
  5
4430
330
442E
100
AcDbEntity
  8
STAVBA OBRYS
100
AcDbVertex
100
AcDb2dVertex
 10
3855.082128990771
 20
648.5347199805519
 30
0.0
 42
0.056967459841729
  0
VERTEX
  5
4431
330
442E
100
AcDbEntity
  8
STAVBA OBRYS
100
AcDbVertex
100
AcDb2dVertex
 10
3857.64570133747
 20
647.5449031639055
 30
0.0
 42
0.0373408083348504
  0
VERTEX
  5
4432
330
442E
100
AcDbEntity
  8
STAVBA OBRYS
100
AcDbVertex
100
AcDb2dVertex
 10
3857.912256147999
 20
647.4963941921077
 30
0.0
 42
0.0052305969362967
  0
VERTEX
  5
4433
330
442E
100
AcDbEntity
  8
STAVBA OBRYS
100
AcDbVertex
100
AcDb2dVertex
 10
3858.327190841776
 20
647.4568953533898
 30
0.0
  0
SEQEND
  5
4434
330
442E
100
AcDbEntity
  8
STAVBA OBRYS
  0
POLYLINE
  5
4435
330
1F
100
AcDbEntity
  8
STAVBA OBRYS
100
AcDb2dPolyline
 66
     1
 10
0.0
 20
0.0
 30
0.0
  0
VERTEX
  5
4436
330
4435
100
AcDbEntity
  8
STAVBA OBRYS
100
AcDbVertex
100
AcDb2dVertex
 10
3864.302473376311
 20
649.9553653793573
 30
0.0
 42
-0.0141362754529377
  0
VERTEX
  5
4437
330
4435
100
AcDbEntity
  8
STAVBA OBRYS
100
AcDbVertex
100
AcDb2dVertex
 10
3861.705767177957
 20
648.5180748411075
 30
0.0
 42
-0.056967459841729
  0
VERTEX
  5
4438
330
4435
100
AcDbEntity
  8
STAVBA OBRYS
100
AcDbVertex
100
AcDb2dVertex
 10
3859.137252440628
 20
647.5411549102418
 30
0.0
 42
-0.0373408083348504
  0
VERTEX
  5
4439
330
4435
100
AcDbEntity
  8
STAVBA OBRYS
100
AcDbVertex
100
AcDb2dVertex
 10
3858.870457193097
 20
647.4939862420415
 30
0.0
 42
-0.0052305969362967
  0
VERTEX
  5
443A
330
4435
100
AcDbEntity
  8
STAVBA OBRYS
100
AcDbVertex
100
AcDb2dVertex
 10
3858.455329220861
 20
647.456573342868
 30
0.0
  0
SEQEND
  5
443B
330
4435
100
AcDbEntity
  8
STAVBA OBRYS
  0
LWPOLYLINE
  5
443C
330
1F
100
AcDbEntity
  8
STAVBA OBRYS
100
AcDbPolyline
 90
        6
 70
     0
 43
0.0
 10
3836.937847898759
 20
649.9379278620126
 42
0.0124742646996712
 10
3839.399964950821
 20
647.754260773856
 42
0.0157521173632038
 10
3843.2693248838
 20
644.6945036081924
 42
0.0073640874174249
 10
3848.807267620733
 20
640.7169958123613
 42
0.0194185739168057
 10
3850.985858707728
 20
639.3227529271898
 42
0.0567960585128809
 10
3858.262869570778
 20
636.0992532513537
  0
LWPOLYLINE
  5
443D
330
1F
100
AcDbEntity
  8
STAVBA OBRYS
100
AcDbPolyline
 90
        2
 70
     0
 43
0.0
 10
3828.489957589971
 20
649.9325446261281
 10
3819.294331461979
 20
642.6897150504673
  0
LWPOLYLINE
  5
443E
330
1F
100
AcDbEntity
  8
STAVBA OBRYS
100
AcDbPolyline
 90
        4
 70
     0
 43
0.0
 10
3823.628907920686
 20
649.9294470270779
 42
0.0256269988680257
 10
3826.156528808986
 20
645.8402896681199
 42
0.0258674098621065
 10
3830.007503078489
 20
640.8434647295061
 42
0.0362528625105586
 10
3833.051218308213
 20
636.5392128008197
 42
0.0362528625105586
  0
LWPOLYLINE
  5
443F
330
1F
100
AcDbEntity
  8
STAVBA OBRYS
100
AcDbPolyline
 90
        4
 70
     0
 43
0.0
 10
3904.585544790624
 20
649.9810348977298
 42
-0.006139508424204
 10
3903.141044851592
 20
645.3890586610032
 42
-0.0582629403736403
 10
3901.152382820214
 20
641.0919895181232
 42
-0.0205385555111239
 10
3898.09804952147
 20
636.5392128008188
 42
-0.0205385555111239
  0
LWPOLYLINE
  5
4440
330
1F
100
AcDbEntity
  8
STAVBA OBRYS
100
AcDbPolyline
 90
        4
 70
     0
 43
0.0
 10
3893.286670979733
 20
649.9738349341059
 42
-0.0269616495147103
 10
3890.617459955009
 20
645.6782999643746
 42
-0.0258674098621065
 10
3886.741420535933
 20
640.7008929372932
 42
-0.0351178503768898
 10
3883.7812673935
 20
636.5392128008193
 42
-0.0351178503768898
  0
LWPOLYLINE
  5
4441
330
1F
100
AcDbEntity
  8
STAVBA OBRYS
100
AcDbPolyline
 90
        2
 70
     0
 43
0.0
 10
3887.76984860749
 20
649.9703194580424
 10
3896.416110960805
 20
641.3200585410486
  0
LWPOLYLINE
  5
4442
330
1F
100
AcDbEntity
  8
STAVBA OBRYS
100
AcDbPolyline
 90
        6
 70
     0
 43
0.0
 10
3880.002990189797
 20
649.9653701950446
 42
-0.0132290984651571
 10
3877.38381060136
 20
647.6588077328506
 42
-0.0157521173632038
 10
3873.499121355136
 20
644.6185364186476
 42
-0.0073640874174249
 10
3867.941257811423
 20
640.668912277928
 42
-0.0194185739168057
 10
3865.755686846542
 20
639.2856364902709
 42
-0.0567960585128809
 10
3858.462566747908
 20
636.0987514142562
  0
LWPOLYLINE
  5
4443
330
1F
100
AcDbEntity
  8
STAVBA OBRYS
100
AcDbPolyline
 90
        2
 70
     0
 43
0.0
 10
3813.976319624325
 20
644.1380733093729
 42
0.0336932201059456
 10
3818.775341303097
 20
636.5392128008206
 42
0.0336932201059456
  0
LWPOLYLINE
  5
4444
330
1F
100
AcDbEntity
  8
STAVBA OBRYS
100
AcDbPolyline
 90
        5
 70
     0
 43
0.0
 10
3742.432162642125
 20
636.5392128008211
 42
-0.0033539235803673
 10
3743.271716981787
 20
637.1707527343842
 42
-0.0073640874174249
 10
3748.807124013818
 20
641.1517886565043
 42
-0.0194185739168057
 10
3750.984826207469
 20
642.5474195185006
 42
-0.0567960585128809
 10
3758.259781487842
 20
645.7755556571392
  0
LWPOLYLINE
  5
4445
330
1F
100
AcDbEntity
  8
STAVBA OBRYS
100
AcDbPolyline
 90
        2
 70
     0
 43
0.0
 10
3722.627549618557
 20
636.5392128008211
 10
3719.295450919601
 20
639.1602633407492
  0
LWPOLYLINE
  5
4446
330
1F
100
AcDbEntity
  8
STAVBA OBRYS
100
AcDbPolyline
 90
        3
 70
     0
 43
0.0
 10
3726.526298765016
 20
636.5392128008211
 42
-0.0232413890434606
 10
3730.007443878067
 20
641.0133400230152
 42
-0.0807730785506472
 10
3737.567008253452
 20
649.9232949488141
  0
LWPOLYLINE
  5
4447
330
1F
100
AcDbEntity
  8
STAVBA OBRYS
100
AcDbPolyline
 90
        2
 70
     0
 43
0.0
 10
3713.978363096535
 20
637.7085165882562
 42
-0.0558582670487531
 10
3722.459157859836
 20
649.9232949488141
  0
LWPOLYLINE
  5
4448
330
1F
100
AcDbEntity
  8
STAVBA OBRYS
100
AcDbPolyline
 90
        3
 70
     0
 43
0.0
 10
3803.135674148292
 20
636.5392128008211
 42
0.0579408255920985
 10
3801.152467542265
 20
640.8101508157088
 42
0.0424769481457602
 10
3794.432585500365
 20
649.9232949488141
  0
LWPOLYLINE
  5
4449
330
1F
100
AcDbEntity
  8
STAVBA OBRYS
100
AcDbPolyline
 90
        3
 70
     0
 43
0.0
 10
3790.393542760927
 20
636.5392128008202
 42
0.0242519447498123
 10
3786.741258966033
 20
641.19206424412
 42
0.079372571536355
 10
3779.280356501661
 20
649.9232949488141
  0
LWPOLYLINE
  5
444A
330
1F
100
AcDbEntity
  8
STAVBA OBRYS
100
AcDbPolyline
 90
        2
 70
     0
 43
0.0
 10
3792.38350139739
 20
636.5392128008202
 10
3796.416341976506
 20
640.579063752617
  0
LWPOLYLINE
  5
444B
330
1F
100
AcDbEntity
  8
STAVBA OBRYS
100
AcDbPolyline
 90
        5
 70
     0
 43
0.0
 10
3774.478212067896
 20
636.5392128008206
 42
0.0038867804630514
 10
3773.501458907117
 20
637.2659831903556
 42
0.0073640874174249
 10
3767.941079679537
 20
641.2120649012394
 42
0.0194185739168057
 10
3765.754627695928
 20
642.5939477003766
 42
0.0567960585128809
 10
3758.459478304644
 20
645.7761847468272
  0
LINE
  5
444C
330
1F
100
AcDbEntity
  8
STAVBA OBRYS
100
AcDbLine
 10
3713.974481446402
 20
649.8914335321396
 30
0.0
 11
3713.978735653308
 21
636.5392128008206
 31
0.0
  0
LINE
  5
444D
330
1F
100
AcDbEntity
  8
STAVBA OBRYS
100
AcDbLine
 10
3813.974476370657
 20
649.9232949488141
 30
0.0
 11
3813.978740729044
 21
636.5392128008206
 31
0.0
  0
POLYLINE
  5
444E
330
1F
100
AcDbEntity
  8
STAVBA OBRYS
100
AcDb2dPolyline
 66
     1
 10
0.0
 20
0.0
 30
0.0
  0
VERTEX
  5
444F
330
444E
100
AcDbEntity
  8
STAVBA OBRYS
100
AcDbVertex
100
AcDb2dVertex
 10
4052.55493054497
 20
650.0116023508935
 30
0.0
 42
0.0137909154721682
  0
VERTEX
  5
4450
330
444E
100
AcDbEntity
  8
STAVBA OBRYS
100
AcDbVertex
100
AcDb2dVertex
 10
4055.082118839282
 20
648.5984428139008
 30
0.0
 42
0.056967459841729
  0
VERTEX
  5
4451
330
444E
100
AcDbEntity
  8
STAVBA OBRYS
100
AcDbVertex
100
AcDb2dVertex
 10
4057.645691185981
 20
647.6086259972544
 30
0.0
 42
0.0373408083348504
  0
VERTEX
  5
4452
330
444E
100
AcDbEntity
  8
STAVBA OBRYS
100
AcDbVertex
100
AcDb2dVertex
 10
4057.91224599651
 20
647.5601170254567
 30
0.0
 42
0.0052305969362967
  0
VERTEX
  5
4453
330
444E
100
AcDbEntity
  8
STAVBA OBRYS
100
AcDbVertex
100
AcDb2dVertex
 10
4058.327180690287
 20
647.5206181867388
 30
0.0
  0
SEQEND
  5
4454
330
444E
100
AcDbEntity
  8
STAVBA OBRYS
  0
POLYLINE
  5
4455
330
1F
100
AcDbEntity
  8
STAVBA OBRYS
100
AcDb2dPolyline
 66
     1
 10
0.0
 20
0.0
 30
0.0
  0
VERTEX
  5
4456
330
4455
100
AcDbEntity
  8
STAVBA OBRYS
100
AcDbVertex
100
AcDb2dVertex
 10
4064.302463224822
 20
650.0190882127062
 30
0.0
 42
-0.0141362754529377
  0
VERTEX
  5
4457
330
4455
100
AcDbEntity
  8
STAVBA OBRYS
100
AcDbVertex
100
AcDb2dVertex
 10
4061.705757026468
 20
648.5817976744565
 30
0.0
 42
-0.056967459841729
  0
VERTEX
  5
4458
330
4455
100
AcDbEntity
  8
STAVBA OBRYS
100
AcDbVertex
100
AcDb2dVertex
 10
4059.137242289138
 20
647.6048777435908
 30
0.0
 42
-0.0373408083348504
  0
VERTEX
  5
4459
330
4455
100
AcDbEntity
  8
STAVBA OBRYS
100
AcDbVertex
100
AcDb2dVertex
 10
4058.870447041607
 20
647.5577090753904
 30
0.0
 42
-0.0052305969362967
  0
VERTEX
  5
445A
330
4455
100
AcDbEntity
  8
STAVBA OBRYS
100
AcDbVertex
100
AcDb2dVertex
 10
4058.455319069373
 20
647.520296176217
 30
0.0
  0
SEQEND
  5
445B
330
4455
100
AcDbEntity
  8
STAVBA OBRYS
  0
LWPOLYLINE
  5
445C
330
1F
100
AcDbEntity
  8
STAVBA OBRYS
100
AcDbPolyline
 90
        6
 70
     0
 43
0.0
 10
4036.93783774727
 20
650.0016506953616
 42
0.0124742646996712
 10
4039.399954799332
 20
647.8179836072049
 42
0.0157521173632038
 10
4043.26931473231
 20
644.7582264415414
 42
0.0073640874174249
 10
4048.807257469245
 20
640.7807186457103
 42
0.0194185739168057
 10
4050.985848556239
 20
639.3864757605387
 42
0.0567960585128809
 10
4058.262859419289
 20
636.1629760847026
  0
LWPOLYLINE
  5
445D
330
1F
100
AcDbEntity
  8
STAVBA OBRYS
100
AcDbPolyline
 90
        2
 70
     0
 43
0.0
 10
4028.489947438482
 20
649.9962674594772
 10
4019.294321310491
 20
642.7534378838163
  0
LWPOLYLINE
  5
445E
330
1F
100
AcDbEntity
  8
STAVBA OBRYS
100
AcDbPolyline
 90
        4
 70
     0
 43
0.0
 10
4023.628897769198
 20
649.9931698604268
 42
0.0256269988680257
 10
4026.156518657498
 20
645.904012501469
 42
0.0258674098621065
 10
4030.007492927
 20
640.9071875628551
 42
0.0368206485318006
 10
4033.103705733654
 20
636.5392128008193
 42
0.0368206485318006
  0
LWPOLYLINE
  5
445F
330
1F
100
AcDbEntity
  8
STAVBA OBRYS
100
AcDbPolyline
 90
        4
 70
     0
 43
0.0
 10
4104.585534639135
 20
650.0447577310787
 42
-0.006139508424204
 10
4103.141034700103
 20
645.4527814943522
 42
-0.0582629403736403
 10
4101.152372668726
 20
641.1557123514722
 42
-0.0208345524621834
 10
4098.05132663267
 20
636.5392128008211
 42
-0.0208345524621834
  0
LWPOLYLINE
  5
4460
330
1F
100
AcDbEntity
  8
STAVBA OBRYS
100
AcDbPolyline
 90
        4
 70
     0
 43
0.0
 10
4093.286660828244
 20
650.0375577674549
 42
-0.0269616495147103
 10
4090.61744980352
 20
645.7420227977236
 42
-0.0258674098621065
 10
4086.741410384444
 20
640.7646157706421
 42
-0.0356858204610163
 10
4083.728706996476
 20
636.5392128008202
 42
-0.0356858204610163
  0
LWPOLYLINE
  5
4461
330
1F
100
AcDbEntity
  8
STAVBA OBRYS
100
AcDbPolyline
 90
        2
 70
     0
 43
0.0
 10
4087.769838456002
 20
650.0340422913914
 10
4096.416100809316
 20
641.3837813743976
  0
LWPOLYLINE
  5
4462
330
1F
100
AcDbEntity
  8
STAVBA OBRYS
100
AcDbPolyline
 90
        6
 70
     0
 43
0.0
 10
4080.002980038307
 20
650.0290930283936
 42
-0.0132290984651571
 10
4077.383800449871
 20
647.7225305661995
 42
-0.0157521173632038
 10
4073.499111203647
 20
644.6822592519965
 42
-0.0073640874174249
 10
4067.941247659934
 20
640.732635111277
 42
-0.0194185739168057
 10
4065.755676695053
 20
639.3493593236199
 42
-0.0567960585128809
 10
4058.462556596419
 20
636.1624742476051
  0
LWPOLYLINE
  5
4463
330
1F
100
AcDbEntity
  8
STAVBA OBRYS
100
AcDbPolyline
 90
        2
 70
     0
 43
0.0
 10
4013.976309472836
 20
644.2017961427218
 42
0.0339891415057148
 10
4018.821913935923
 20
636.5392128008202
 42
0.0339891415057148
  0
LWPOLYLINE
  5
4464
330
1F
100
AcDbEntity
  8
STAVBA OBRYS
100
AcDbPolyline
 90
        5
 70
     0
 43
0.0
 10
3942.348729266125
 20
636.5392128008193
 42
-0.0036890593544174
 10
3943.271706830298
 20
637.2344755677332
 42
-0.0073640874174249
 10
3948.807113862329
 20
641.2155114898532
 42
-0.0194185739168057
 10
3950.98481605598
 20
642.6111423518496
 42
-0.0567960585128809
 10
3958.259771336353
 20
645.8392784904881
  0
LWPOLYLINE
  5
4465
330
1F
100
AcDbEntity
  8
STAVBA OBRYS
100
AcDbPolyline
 90
        2
 70
     0
 43
0.0
 10
3922.708549263278
 20
636.5392128008216
 10
3919.295440768113
 20
639.2239861740981
  0
LWPOLYLINE
  5
4466
330
1F
100
AcDbEntity
  8
STAVBA OBRYS
100
AcDbPolyline
 90
        3
 70
     0
 43
0.0
 10
3926.48136090518
 20
636.539212800822
 42
-0.0235610486602274
 10
3930.007433726579
 20
641.0770628563641
 42
-0.0807730785506472
 10
3937.566998101962
 20
649.987017782163
  0
LWPOLYLINE
  5
4467
330
1F
100
AcDbEntity
  8
STAVBA OBRYS
100
AcDbPolyline
 90
        2
 70
     0
 43
0.0
 10
3913.978352945046
 20
637.7722394216053
 42
-0.0558582670487531
 10
3922.459147708348
 20
649.987017782163
  0
LWPOLYLINE
  5
4468
330
1F
100
AcDbEntity
  8
STAVBA OBRYS
100
AcDbPolyline
 90
        4
 70
     0
 43
0.0
 10
4003.156630751672
 20
636.5392128008202
 42
0.0000521684383149
 10
4003.143857232479
 20
636.5780726103385
 42
0.0582629403736403
 10
4001.152457390776
 20
640.8738736490577
 42
0.0424769481457602
 10
3994.432575348877
 20
649.987017782163
  0
LWPOLYLINE
  5
4469
330
1F
100
AcDbEntity
  8
STAVBA OBRYS
100
AcDbPolyline
 90
        3
 70
     0
 43
0.0
 10
3990.438676212589
 20
636.5392128008188
 42
0.0245721306904305
 10
3986.741248814544
 20
641.255787077469
 42
0.079372571536355
 10
3979.280346350172
 20
649.987017782163
  0
LWPOLYLINE
  5
446A
330
1F
100
AcDbEntity
  8
STAVBA OBRYS
100
AcDbPolyline
 90
        2
 70
     0
 43
0.0
 10
3992.319878991091
 20
636.5392128008211
 10
3996.416331825016
 20
640.6427865859659
  0
LWPOLYLINE
  5
446B
330
1F
100
AcDbEntity
  8
STAVBA OBRYS
100
AcDbPolyline
 90
        5
 70
     0
 43
0.0
 10
3974.562349437178
 20
636.5392128008202
 42
0.0042237580815928
 10
3973.501448755628
 20
637.3297060237046
 42
0.0073640874174249
 10
3967.941069528048
 20
641.2757877345884
 42
0.0194185739168057
 10
3965.754617544439
 20
642.6576705337256
 42
0.0567960585128809
 10
3958.459468153155
 20
645.8399075801763
  0
LINE
  5
446C
330
1F
100
AcDbEntity
  8
STAVBA OBRYS
100
AcDbLine
 10
3913.974471294913
 20
649.9551563654886
 30
0.0
 11
3913.978745804818
 21
636.5392128008206
 31
0.0
  0
LINE
  5
446D
330
1F
100
AcDbEntity
  8
STAVBA OBRYS
100
AcDbLine
 10
4013.974466219169
 20
649.987017782163
 30
0.0
 11
4013.978750880563
 21
636.5392128008206
 31
0.0
  0
LINE
  5
446E
330
1F
100
AcDbEntity
  8
STAVBA OBRYS
100
AcDbLine
 10
4113.974461143424
 20
650.0188791988375
 30
0.0
 11
4113.978755956314
 21
636.5392128008206
 31
0.0
  0
LWPOLYLINE
  5
446F
330
1F
100
AcDbEntity
  8
STAVBA OBRYS
100
AcDbPolyline
 90
        5
 70
     0
 43
0.0
 10
4174.646251766363
 20
636.539212800822
 42
0.0045601387644855
 10
4173.501438604139
 20
637.3934288570535
 42
0.0073640874174249
 10
4167.941059376559
 20
641.3395105679374
 42
0.0194185739168057
 10
4165.75460739295
 20
642.7213933670746
 42
0.0567960585128809
 10
4158.459458001666
 20
645.9036304135252
  0
LWPOLYLINE
  5
4470
330
1F
100
AcDbEntity
  8
STAVBA OBRYS
100
AcDbPolyline
 90
        2
 70
     0
 43
0.0
 10
4113.978342793557
 20
637.8359622549542
 42
-0.0558582670487531
 10
4122.459137556858
 20
650.050740615512
  0
LWPOLYLINE
  5
4471
330
1F
100
AcDbEntity
  8
STAVBA OBRYS
100
AcDbPolyline
 90
        3
 70
     0
 43
0.0
 10
4126.436544795101
 20
636.5392128008193
 42
-0.0238804257155909
 10
4130.007423575089
 20
641.140785689713
 42
-0.0807730785506472
 10
4137.566987950473
 20
650.050740615512
  0
LWPOLYLINE
  5
4472
330
1F
100
AcDbEntity
  8
STAVBA OBRYS
100
AcDbPolyline
 90
        2
 70
     0
 43
0.0
 10
4122.789548907999
 20
636.539212800822
 10
4119.295430616624
 20
639.287709007447
  0
LWPOLYLINE
  5
4473
330
1F
100
AcDbEntity
  8
STAVBA OBRYS
100
AcDbPolyline
 90
        5
 70
     0
 43
0.0
 10
4142.265527108651
 20
636.539212800822
 42
-0.0040236096476029
 10
4143.271696678809
 20
637.2981984010821
 42
-0.0073640874174249
 10
4148.807103710841
 20
641.2792343232021
 42
-0.0194185739168057
 10
4150.984805904491
 20
642.6748651851985
 42
-0.0567960585128809
 10
4158.259761184864
 20
645.903001323837
  0
HATCH
  5
4474
330
1F
100
AcDbEntity
  8
CETRIS
100
AcDbHatch
 10
0.0
 20
0.0
 30
0.0
210
0.0
220
0.0
230
1.0
  2
ANSI31
 70
     0
 71
     0
 91
        1
 92
        7
 72
     0
 73
     1
 93
       12
 10
4389.428028976489
 20
373.539212800822
 10
3972.681634091731
 20
373.5392128008224
 10
3972.304324696155
 20
373.3208194302115
 10
3971.631807597727
 20
373.0946878759582
 10
3971.631807597727
 20
368.1388100718872
 10
3971.858770488611
 20
366.6151821184821
 10
3972.471756337766
 20
365.201314908792
 10
3973.429837407751
 20
363.9939467258782
 10
3974.666971216651
 20
363.0758632154424
 10
3975.382276402811
 20
362.7391395775525
 10
3975.382276402811
 20
361.5392128008206
 10
4389.428028976475
 20
361.5392128008202
 97
        0
 75
     0
 76
     1
 52
0.0
 41
1.0
 77
     0
 78
     1
 53
45.0
 43
-33973.05035594336
 44
-3036.186104754628
 45
-2.245064030267287
 46
2.245064030267288
 79
     0
 47
0.9206214211477032
 98
        1
 10
4146.619827899917
 20
368.4973595623723
  0
HATCH
  5
4475
330
1F
100
AcDbEntity
  8
CETRIS
100
AcDbHatch
 10
0.0
 20
0.0
 30
0.0
210
0.0
220
0.0
230
1.0
  2
ANSI31
 70
     0
 71
     0
 91
        8
 92
        7
 72
     0
 73
     1
 93
       15
 10
3424.927252747681
 20
368.1388100719359
 10
3424.927252747681
 20
372.1870339711972
 10
3424.254735649252
 20
371.9609024169431
 10
3423.877084273942
 20
372.3394839657748
 10
3424.254735649245
 20
372.5571451018227
 10
3424.927252747689
 20
372.783276656125
 10
3424.927252747689
 20
373.5392128008211
 10
3379.590396536073
 20
373.5392128008206
 10
3379.590396536073
 20
361.5392128008206
 10
3421.176783938232
 20
361.5392128008206
 10
3421.176783938232
 20
362.7391395775493
 10
3422.526469021791
 20
363.4832802140335
 10
3423.637098922135
 20
364.5520522034316
 10
3424.43332940146
 20
365.8710414817319
 10
3424.861210265767
 20
367.3518813487844
 97
        0
 92
        7
 72
     0
 73
     1
 93
       12
 10
3435.892775566123
 20
373.5392128008202
 10
3428.676449404406
 20
373.5392128008202
 10
3428.299140008845
 20
373.3208194302115
 10
3427.626622910425
 20
373.0946878759568
 10
3427.626622910425
 20
368.1388100719264
 10
3427.853585801293
 20
366.6151821184744
 10
3428.466571650456
 20
365.201314908782
 10
3429.424652720433
 20
363.9939467258768
 10
3430.661786529325
 20
363.0758632154343
 10
3431.3770917155
 20
362.7391395775534
 10
3431.3770917155
 20
361.5392128008206
 10
3435.892775566123
 20
361.5392128008211
 97
        0
 92
        7
 72
     0
 73
     1
 93
        4
 10
3476.221504867982
 20
373.5392128008206
 10
3435.892775566123
 20
373.5392128008206
 10
3435.892775566123
 20
361.5392128008206
 10
3476.221469935898
 20
361.5392128008206
 97
        0
 92
        7
 72
     0
 73
     1
 93
        6
 10
3552.665414313345
 20
373.5392128008206
 10
3489.961984855977
 20
373.5392128008206
 10
3476.221504867982
 20
373.5392128008206
 10
3476.221469935898
 20
361.5392128008206
 10
3489.961984855977
 20
361.5392128008206
 10
3552.665414313345
 20
361.5392128008202
 97
        0
 92
        7
 72
     0
 73
     1
 93
        4
 10
3646.398341573886
 20
373.5392128008202
 10
3552.665414313338
 20
373.5392128008206
 10
3552.665414313345
 20
361.5392128008211
 10
3646.398341573886
 20
361.5392128008211
 97
        0
 92
        7
 72
     1
 73
     1
 93
       17
 10
3932.976441459114
 20
372.1870339711967
 42
0.0
 10
3932.303924360686
 20
371.9609024169417
 42
0.0
 10
3931.926272985368
 20
372.339483965773
 42
0.0
 10
3932.303924360693
 20
372.557145101824
 42
0.0
 10
3932.976441459114
 20
372.7832766561204
 42
0.0
 10
3932.976441459114
 20
373.5392128008206
 42
0.0
 10
3646.398341573886
 20
373.5392128008206
 42
0.0
 10
3646.398341573894
 20
361.5392128008211
 42
0.0
 10
3852.462319968816
 20
361.5392128008206
 42
-0.7629533813748547
 10
3854.873527896048
 20
361.5392128008206
 42
0.0
 10
3929.225972649666
 20
361.5392128008206
 42
0.0
 10
3929.225972649666
 20
362.7391395775562
 42
0.0
 10
3930.575657733231
 20
363.4832802140358
 42
0.0
 10
3931.686287633575
 20
364.5520522034362
 42
0.0
 10
3932.482518112893
 20
365.8710414817328
 42
0.0
 10
3932.910398977207
 20
367.3518813488121
 42
0.0
 10
3932.976441459114
 20
368.1388100719855
 42
0.0
 97
        0
 92
        7
 72
     0
 73
     1
 93
       12
 10
3948.799010713027
 20
373.5392128008211
 10
3936.725638115847
 20
373.5392128008211
 10
3936.348328720272
 20
373.3208194302087
 10
3935.67581162185
 20
373.0946878759582
 10
3935.67581162185
 20
368.1388100719391
 10
3935.902774512741
 20
366.6151821184839
 10
3936.515760361881
 20
365.2013149087747
 10
3937.473841431866
 20
363.9939467258786
 10
3938.710975240773
 20
363.0758632154392
 10
3939.426280426934
 20
362.7391395775548
 10
3939.426280426934
 20
361.5392128008206
 10
3948.799010713027
 20
361.5392128008206
 97
        0
 92
        7
 72
     0
 73
     1
 93
       15
 10
3968.866394953078
 20
367.3518813488117
 10
3968.932437434991
 20
368.1388100719232
 10
3968.932437434991
 20
372.1870339711959
 10
3968.259920336563
 20
371.9609024169444
 10
3967.882268961252
 20
372.3394839657739
 10
3968.259920336571
 20
372.5571451018227
 10
3968.932437434991
 20
372.7832766561191
 10
3968.932437434991
 20
373.539212800822
 10
3955.799010713027
 20
373.5392128008216
 10
3955.799010713027
 20
361.5392128008206
 10
3965.18196862555
 20
361.5392128008211
 10
3965.18196862555
 20
362.7391395775512
 10
3966.531653709101
 20
363.4832802140276
 10
3967.642283609438
 20
364.5520522034321
 10
3968.43851408877
 20
365.8710414817456
 97
        0
 75
     0
 76
     1
 52
0.0
 41
1.0
 77
     0
 78
     1
 53
45.0
 43
-33973.05035594336
 44
-3036.186104754628
 45
-2.245064030267287
 46
2.245064030267288
 79
     0
 47
0.9206214211477137
 98
        8
 10
3393.625796781557
 20
367.5741253932919
 10
3432.313015431394
 20
368.4947450452218
 10
3459.02559890535
 20
368.4947450452218
 10
3494.949448770388
 20
366.6535057413693
 10
3569.560461622673
 20
367.5741253932919
 10
3775.892294421788
 20
368.4947450452218
 10
3943.536852908491
 20
368.4947450452218
 10
3962.880490064689
 20
366.6535057413693
  0
LINE
  5
4477
330
1F
100
AcDbEntity
  8
POPIS
100
AcDbLine
 10
3853.667923932432
 20
361.2090324214609
 30
0.0
 11
3853.667923932432
 21
251.5392113262278
 31
0.0
  0
INSERT
  5
4478
330
1F
100
AcDbEntity
  8
POPIS
100
AcDbBlockReference
  2
E_PUNKT
 10
3552.59426897357
 20
425.8769913816668
 30
0.0
  0
INSERT
  5
4479
330
1F
100
AcDbEntity
  8
POPIS
100
AcDbBlockReference
  2
E_PUNKT
 10
3436.046592737987
 20
381.6546143207033
 30
0.0
  0
TEXT
  5
447A
330
1F
100
AcDbEntity
  8
POPIS
100
AcDbText
 10
3459.853768173775
 20
219.9272773391867
 30
0.0
 40
25.0
  1
05
 41
0.85
  7
SIMPLEX7
100
AcDbText
  0
LINE
  5
447B
330
1F
100
AcDbEntity
  8
POPIS
100
AcDbLine
 10
3476.221510098158
 20
375.3359012509936
 30
0.0
 11
3476.221149725107
 21
251.5392113262278
 31
0.0
  0
LINE
  5
447C
330
1F
100
AcDbEntity
  8
POPIS
100
AcDbLine
 10
3435.892775566123
 20
380.1544325757863
 30
0.0
 11
3435.892775566123
 21
251.5392113262278
 31
0.0
  0
TEXT
  5
447D
330
1F
100
AcDbEntity
  8
POPIS
100
AcDbText
 10
3419.525394014791
 20
219.9272773391867
 30
0.0
 40
25.0
  1
04
 41
0.85
  7
SIMPLEX7
100
AcDbText
  0
LINE
  5
447E
330
1F
100
AcDbEntity
  8
STAVBA OBRYS
100
AcDbLine
 10
3372.590396536065
 20
373.5392128008202
 30
0.0
 11
3357.590396536073
 21
373.5392128008206
 31
0.0
  0
LINE
  5
4480
330
1F
100
AcDbEntity
  8
CETRIS
100
AcDbLine
 10
3955.799010713027
 20
373.5392128008224
 30
0.0
 11
3955.799010713027
 21
361.5392128008206
 31
0.0
  0
LINE
  5
4481
330
1F
100
AcDbEntity
  8
CETRIS
100
AcDbLine
 10
3948.799010713027
 20
373.5392128008206
 30
0.0
 11
3948.799010713027
 21
361.5392128008206
 31
0.0
  0
ELLIPSE
  5
4592
330
1F
100
AcDbEntity
  8
0
  6
Continuous
 62
     5
100
AcDbEllipse
 10
3955.693846275894
 20
422.0162332063386
 30
0.0
 11
-2.384729066000502
 21
2.374065722822092
 31
0.0
210
0.0
220
0.0
230
1.0
 40
1.0
 41
3.922429033933493
 42
10.20561434111308
  0
ELLIPSE
  5
4593
330
1F
100
AcDbEntity
  8
0
  6
Continuous
 62
     5
100
AcDbEllipse
 10
3945.899088845547
 20
422.038967087848
 30
0.0
 11
2.3740657228247
 21
2.384729066003123
 31
0.0
210
0.0
220
0.0
230
1.0
 40
1.0
 41
5.493225360726194
 42
11.77641066790578
  0
ELLIPSE
  5
4594
330
1F
100
AcDbEntity
  8
0
  6
Continuous
 62
     5
100
AcDbEllipse
 10
3450.869819325012
 20
422.0162332063386
 30
0.0
 11
-2.384729066000502
 21
2.374065722822092
 31
0.0
210
0.0
220
0.0
230
1.0
 40
1.0
 41
3.922429033933493
 42
10.20561434111308
  0
ELLIPSE
  5
4595
330
1F
100
AcDbEntity
  8
0
  6
Continuous
 62
     5
100
AcDbEllipse
 10
3441.075061894665
 20
422.038967087848
 30
0.0
 11
2.3740657228247
 21
2.384729066003123
 31
0.0
210
0.0
220
0.0
230
1.0
 40
1.0
 41
5.493225360726194
 42
11.77641066790578
  0
ARC
  5
4596
330
1F
100
AcDbEntity
  8
SPOJOVACÍ
  6
Continuous
100
AcDbCircle
 39
2500.000155029299
 10
3950.871415924844
 20
560.3384648757037
 30
0.0
 40
1.856153575276108
100
AcDbArc
 50
88.5600961746983
 51
172.7547042619347
  0
LINE
  5
4597
330
1F
100
AcDbEntity
  8
SPOJOVACÍ
  6
Continuous
100
AcDbLine
 39
2500.000155029299
 10
3949.030079647123
 20
535.819418471865
 30
0.0
 11
3949.030079647123
 21
560.572559117636
 31
0.0
  0
LINE
  5
4598
330
1F
100
AcDbEntity
  8
SPOJOVACÍ
  6
Continuous
100
AcDbLine
 39
2500.000155029299
 10
3952.806036243778
 20
535.819418471865
 30
0.0
 11
3952.80603308893
 21
560.5725583618827
 31
0.0
  0
LINE
  5
4599
330
1F
100
AcDbEntity
  8
SPOJOVACÍ
  6
Continuous
100
AcDbLine
 39
2500.000155029299
 10
3962.384497274975
 20
466.0971227658501
 30
0.0
 11
3962.384473053312
 21
528.2866417128298
 31
0.0
  0
LINE
  5
459A
330
1F
100
AcDbEntity
  8
SPOJOVACÍ
  6
Continuous
100
AcDbLine
 39
2500.000155029299
 10
3939.451630723119
 20
466.0971227658501
 30
0.0
 11
3939.451618615926
 21
528.2866417128298
 31
0.0
  0
LINE
  5
459B
330
1F
100
AcDbEntity
  8
SPOJOVACÍ
  6
Continuous
100
AcDbLine
 39
2500.000155029299
 10
3949.030067532653
 20
517.5977590988532
 30
0.0
 11
3942.46675681024
 21
517.5977590988532
 31
0.0
  0
LINE
  5
459C
330
1F
100
AcDbEntity
  8
SPOJOVACÍ
  6
Continuous
100
AcDbLine
 39
2500.000155029299
 10
3942.46675681024
 20
517.5977590988532
 30
0.0
 11
3942.46675681024
 21
497.1577273472485
 31
0.0
  0
LINE
  5
459D
330
1F
100
AcDbEntity
  8
SPOJOVACÍ
  6
Continuous
100
AcDbLine
 39
2500.000155029299
 10
3942.46675681024
 20
497.1577273472485
 30
0.0
 11
3949.030067532653
 21
497.1577273472485
 31
0.0
  0
LINE
  5
459E
330
1F
100
AcDbEntity
  8
SPOJOVACÍ
  6
Continuous
100
AcDbLine
 39
2500.000155029299
 10
3942.46675681024
 20
497.1577273472485
 30
0.0
 11
3942.46675681024
 21
486.6564301855669
 31
0.0
  0
LINE
  5
459F
330
1F
100
AcDbEntity
  8
SPOJOVACÍ
  6
Continuous
100
AcDbLine
 39
2500.000155029299
 10
3942.46675681024
 20
517.5977590988532
 30
0.0
 11
3942.46675681024
 21
527.7240791428903
 31
0.0
  0
ARC
  5
45A0
330
1F
100
AcDbEntity
  8
SPOJOVACÍ
  6
Continuous
100
AcDbCircle
 39
2500.000155029299
 10
3951.347137867919
 20
527.2822456399717
 30
0.0
 40
8.891364063669307
100
AcDbArc
 50
92.84852606754681
 51
177.1516658609006
  0
ARC
  5
45A1
330
1F
100
AcDbEntity
  8
SPOJOVACÍ
  6
Continuous
100
AcDbCircle
 39
2500.000155029299
 10
3949.050633143265
 20
520.5018454480432
 30
0.0
 40
12.35896601914339
100
AcDbArc
 50
116.37436881397
 51
140.9579470340037
  0
ARC
  5
45A2
330
1F
100
AcDbEntity
  8
SPOJOVACÍ
  6
Continuous
100
AcDbCircle
 39
2500.000155029299
 10
3950.364179437379
 20
486.1152810381009
 30
0.0
 40
7.915946660942908
100
AcDbArc
 50
176.0801048027694
 51
273.9197916062925
  0
LINE
  5
45A3
330
1F
100
AcDbEntity
  8
SPOJOVACÍ
  6
Continuous
100
AcDbLine
 39
2500.000155029299
 10
3949.030079647123
 20
524.3486068302354
 30
0.0
 11
3949.030079647123
 21
488.3441178953853
 31
0.0
  0
LINE
  5
45A4
330
1F
100
AcDbEntity
  8
SPOJOVACÍ
  6
Continuous
100
AcDbLine
 39
2500.000155029299
 10
3949.030079647123
 20
478.2177978513482
 30
0.0
 11
3949.030079647123
 21
465.8413244223902
 31
0.0
  0
LINE
  5
45A5
330
1F
100
AcDbEntity
  8
SPOJOVACÍ
  6
Continuous
100
AcDbLine
 39
2500.000155029299
 10
3949.030079647123
 20
465.8413244223902
 30
0.0
 11
3950.918057941812
 21
465.8413244223902
 31
0.0
  0
ARC
  5
45A6
330
1F
100
AcDbEntity
  8
SPOJOVACÍ
  6
Continuous
100
AcDbCircle
 39
2500.000155029299
 10
3950.840313170552
 20
524.0593802936837
 30
0.0
 40
1.833202918205448
100
AcDbArc
 50
87.45568190668869
 51
170.9224377151385
  0
ARC
  5
45A7
330
1F
100
AcDbEntity
  8
SPOJOVACÍ
  6
Continuous
100
AcDbCircle
 39
2500.000155029299
 10
3950.813231488787
 20
488.5213357629163
 30
0.0
 40
1.791938668176291
100
AcDbArc
 50
185.6756873035466
 51
273.8921703213237
  0
LINE
  5
45A8
330
1F
100
AcDbEntity
  8
SPOJOVACÍ
  6
Continuous
100
AcDbLine
 39
2500.000155029299
 10
3952.806036243778
 20
517.5977590988532
 30
0.0
 11
3959.369346966191
 21
517.5977590988532
 31
0.0
  0
LINE
  5
45A9
330
1F
100
AcDbEntity
  8
SPOJOVACÍ
  6
Continuous
100
AcDbLine
 39
2500.000155029299
 10
3959.369346966191
 20
517.5977590988532
 30
0.0
 11
3959.369346966191
 21
497.1577273472485
 31
0.0
  0
LINE
  5
45AA
330
1F
100
AcDbEntity
  8
SPOJOVACÍ
  6
Continuous
100
AcDbLine
 39
2500.000155029299
 10
3959.369346966191
 20
497.1577273472485
 30
0.0
 11
3952.806036243778
 21
497.1577273472485
 31
0.0
  0
LINE
  5
45AB
330
1F
100
AcDbEntity
  8
SPOJOVACÍ
  6
Continuous
100
AcDbLine
 39
2500.000155029299
 10
3959.369346966191
 20
497.1577273472485
 30
0.0
 11
3959.369346966191
 21
486.6564301855669
 31
0.0
  0
LINE
  5
45AC
330
1F
100
AcDbEntity
  8
SPOJOVACÍ
  6
Continuous
100
AcDbLine
 39
2500.000155029299
 10
3959.369346966191
 20
517.5977590988532
 30
0.0
 11
3959.369346966191
 21
527.7240791428903
 31
0.0
  0
ARC
  5
45AD
330
1F
100
AcDbEntity
  8
SPOJOVACÍ
  6
Continuous
100
AcDbCircle
 39
2500.000155029299
 10
3950.488978022981
 20
527.2822456399717
 30
0.0
 40
8.891364063669307
100
AcDbArc
 50
2.848339148043316
 51
87.15146528105737
  0
ARC
  5
45AE
330
1F
100
AcDbEntity
  8
SPOJOVACÍ
  6
Continuous
100
AcDbCircle
 39
2500.000155029299
 10
3951.471912224583
 20
486.1152810381009
 30
0.0
 40
7.915946660942908
100
AcDbArc
 50
266.0802097601067
 51
3.91991022407127
  0
LINE
  5
45AF
330
1F
100
AcDbEntity
  8
SPOJOVACÍ
  6
Continuous
100
AcDbLine
 39
2500.000155029299
 10
3952.806036243778
 20
524.3486068302354
 30
0.0
 11
3952.806036243778
 21
488.3441178953853
 31
0.0
  0
LINE
  5
45B0
330
1F
100
AcDbEntity
  8
SPOJOVACÍ
  6
Continuous
100
AcDbLine
 39
2500.000155029299
 10
3952.806036243778
 20
478.2177978513482
 30
0.0
 11
3952.806036243778
 21
465.8413244223902
 31
0.0
  0
LINE
  5
45B1
330
1F
100
AcDbEntity
  8
SPOJOVACÍ
  6
Continuous
100
AcDbLine
 39
2500.000155029299
 10
3952.806036243778
 20
465.8413244223902
 30
0.0
 11
3950.918057941812
 21
465.8413244223902
 31
0.0
  0
ARC
  5
45B2
330
1F
100
AcDbEntity
  8
SPOJOVACÍ
  6
Continuous
100
AcDbCircle
 39
2500.000155029299
 10
3950.99579060588
 20
524.0593802936837
 30
0.0
 40
1.833202918205448
100
AcDbArc
 50
9.07753826540085
 51
92.54429578148736
  0
ARC
  5
45B3
330
1F
100
AcDbEntity
  8
SPOJOVACÍ
  6
Continuous
100
AcDbCircle
 39
2500.000155029299
 10
3951.022884394838
 20
488.5213357629163
 30
0.0
 40
1.791938668176291
100
AcDbArc
 50
266.1076944413313
 51
354.3243413836902
  0
ARC
  5
45B4
330
1F
100
AcDbEntity
  8
SPOJOVACÍ
  6
Continuous
100
AcDbCircle
 39
2500.000155029299
 10
3950.964700328473
 20
560.3384648757037
 30
0.0
 40
1.856153575276108
100
AcDbArc
 50
7.24529573806531
 51
91.43990382530169
  0
ARC
  5
45B5
330
1F
100
AcDbEntity
  8
SPOJOVACÍ
  6
Continuous
100
AcDbCircle
 39
2500.000155029299
 10
3952.778189913132
 20
520.5018454480432
 30
0.0
 40
12.35896601914339
100
AcDbArc
 50
39.04205296599621
 51
63.57368118090316
  0
ARC
  5
45B6
330
1F
100
AcDbEntity
  8
SPOJOVACÍ
100
AcDbCircle
 10
3950.918058126658
 20
560.3769085128228
 30
0.0
 40
3.772098134126344
100
AcDbArc
 50
300.0337920944151
 51
239.9661539344486
  0
LINE
  5
45B7
330
1F
100
AcDbEntity
  8
SPOJOVACÍ
  6
Continuous
100
AcDbLine
 39
2500.000155029299
 10
3949.530388266062
 20
438.2116151282298
 30
0.0
 11
3950.449227545682
 21
437.2927758495189
 31
0.0
  0
LINE
  5
45B8
330
1F
100
AcDbEntity
  8
SPOJOVACÍ
  6
Continuous
100
AcDbLine
 39
2500.000155029299
 10
3950.449227545682
 20
437.2927758495189
 30
0.0
 11
3951.405625092952
 21
437.2927758495189
 31
0.0
  0
LINE
  5
45B9
330
1F
100
AcDbEntity
  8
SPOJOVACÍ
  6
Continuous
100
AcDbLine
 39
2500.000155029299
 10
3947.717405391081
 20
435.2488114318385
 30
0.0
 11
3939.451630723119
 21
466.0971227658501
 31
0.0
  0
LINE
  5
45BA
330
1F
100
AcDbEntity
  8
SPOJOVACÍ
  6
Continuous
100
AcDbLine
 39
2500.000155029299
 10
3950.155216896014
 20
435.2488114318385
 30
0.0
 11
3947.717405391081
 21
435.2488114318385
 31
0.0
  0
LINE
  5
45BB
330
1F
100
AcDbEntity
  8
SPOJOVACÍ
  6
Continuous
100
AcDbLine
 39
2500.000155029299
 10
3954.11869838535
 20
435.2488114318385
 30
0.0
 11
3962.384497274975
 21
466.0971227658501
 31
0.0
  0
LINE
  5
45BC
330
1F
100
AcDbEntity
  8
SPOJOVACÍ
  6
Continuous
100
AcDbLine
 39
2500.000155029299
 10
3950.155216896014
 20
436.3739365717174
 30
0.0
 11
3948.580022327583
 21
436.3739365717174
 31
0.0
  0
LINE
  5
45BD
330
1F
100
AcDbEntity
  8
SPOJOVACÍ
  6
Continuous
100
AcDbLine
 39
2500.000155029299
 10
3948.580022327583
 20
436.3739365717174
 30
0.0
 11
3948.580022327583
 21
441.3245065643332
 31
0.0
  0
LINE
  5
45BE
330
1F
100
AcDbEntity
  8
SPOJOVACÍ
  6
Continuous
100
AcDbLine
 39
2500.000155029299
 10
3950.155216896014
 20
436.3739365717174
 30
0.0
 11
3950.155216896014
 21
435.2488114318385
 31
0.0
  0
LINE
  5
45BF
330
1F
100
AcDbEntity
  8
SPOJOVACÍ
  6
Continuous
100
AcDbLine
 39
2500.000155029299
 10
3951.680898987611
 20
436.3739365717174
 30
0.0
 11
3953.256105677787
 21
436.3739365717174
 31
0.0
  0
LINE
  5
45C0
330
1F
100
AcDbEntity
  8
SPOJOVACÍ
  6
Continuous
100
AcDbLine
 39
2500.000155029299
 10
3953.256105677787
 20
436.3739365717174
 30
0.0
 11
3953.256105677787
 21
441.3245065643332
 31
0.0
  0
LINE
  5
45C1
330
1F
100
AcDbEntity
  8
SPOJOVACÍ
  6
Continuous
100
AcDbLine
 39
2500.000155029299
 10
3951.680898987611
 20
436.3739365717174
 30
0.0
 11
3951.680898987611
 21
435.2488114318385
 31
0.0
  0
LINE
  5
45C2
330
1F
100
AcDbEntity
  8
SPOJOVACÍ
  6
Continuous
100
AcDbLine
 39
2500.000155029299
 10
3950.417240638849
 20
436.584195058449
 30
0.0
 11
3948.917247385175
 21
438.0842004229544
 31
0.0
  0
LINE
  5
45C3
330
1F
100
AcDbEntity
  8
SPOJOVACÍ
  6
Continuous
100
AcDbLine
 39
2500.000155029299
 10
3951.417240177029
 20
436.584195058449
 30
0.0
 11
3952.917245537896
 21
438.0842004229544
 31
0.0
  0
LINE
  5
45C4
330
1F
100
AcDbEntity
  8
SPOJOVACÍ
  6
Continuous
100
AcDbLine
 39
2500.000155029299
 10
3951.680898987611
 20
435.2488114318385
 30
0.0
 11
3954.11869838535
 21
435.2488114318385
 31
0.0
  0
LINE
  5
45C5
330
1F
100
AcDbEntity
  8
SPOJOVACÍ
  6
Continuous
100
AcDbLine
 39
2500.000155029299
 10
3948.580022327583
 20
441.3245065643332
 30
0.0
 11
3950.00600120074
 21
441.7065568941234
 31
0.0
  0
LINE
  5
45C6
330
1F
100
AcDbEntity
  8
SPOJOVACÍ
  6
Continuous
100
AcDbLine
 39
2500.000155029299
 10
3950.00600120074
 20
441.7065568941234
 30
0.0
 11
3950.918057941812
 21
441.7065568941234
 31
0.0
  0
LINE
  5
45C7
330
1F
100
AcDbEntity
  8
SPOJOVACÍ
  6
Continuous
100
AcDbLine
 39
2500.000155029299
 10
3953.256105677787
 20
441.3245065643332
 30
0.0
 11
3951.83011469016
 21
441.7065568941234
 31
0.0
  0
LINE
  5
45C8
330
1F
100
AcDbEntity
  8
SPOJOVACÍ
  6
Continuous
100
AcDbLine
 39
2500.000155029299
 10
3951.83011469016
 20
441.7065568941234
 30
0.0
 11
3950.918057941812
 21
441.7065568941234
 31
0.0
  0
LINE
  5
45C9
330
1F
100
AcDbEntity
  8
SPOJOVACÍ
  6
Continuous
100
AcDbLine
 39
2500.000155029299
 10
3948.917247385175
 20
438.0842004229544
 30
0.0
 11
3948.917247385175
 21
439.5842057865502
 31
0.0
  0
LINE
  5
45CA
330
1F
100
AcDbEntity
  8
SPOJOVACÍ
  6
Continuous
100
AcDbLine
 39
2500.000155029299
 10
3948.917247385175
 20
439.5842057865502
 30
0.0
 11
3948.917247385175
 21
441.0842111510556
 31
0.0
  0
LINE
  5
45CB
330
1F
100
AcDbEntity
  8
SPOJOVACÍ
  6
Continuous
100
AcDbLine
 39
2500.000155029299
 10
3952.917245537896
 20
438.0842004229544
 30
0.0
 11
3952.917245537896
 21
441.0842111510556
 31
0.0
  0
LINE
  5
45CC
330
1F
100
AcDbEntity
  8
SPOJOVACÍ
  6
Continuous
100
AcDbLine
 39
2500.000155029299
 10
3952.917245537896
 20
441.0842111510556
 30
0.0
 11
3948.917247385175
 21
441.0842111510556
 31
0.0
  0
LINE
  5
45CD
330
1F
100
AcDbEntity
  8
SPOJOVACÍ
  6
Continuous
100
AcDbLine
 39
2500.000155029299
 10
3949.530388266062
 20
440.4994600126793
 30
0.0
 11
3949.530388266062
 21
438.2116151282298
 31
0.0
  0
LINE
  5
45CE
330
1F
100
AcDbEntity
  8
SPOJOVACÍ
  6
Continuous
100
AcDbLine
 39
2500.000155029299
 10
3952.296353193737
 20
438.1835160675018
 30
0.0
 11
3952.296353193737
 21
440.4994600126793
 31
0.0
  0
LINE
  5
45CF
330
1F
100
AcDbEntity
  8
SPOJOVACÍ
  6
Continuous
100
AcDbLine
 39
2500.000155029299
 10
3952.296353193737
 20
440.4994600126793
 30
0.0
 11
3949.530388266062
 21
440.4994600126793
 31
0.0
  0
LINE
  5
45D0
330
1F
100
AcDbEntity
  8
SPOJOVACÍ
  6
Continuous
100
AcDbLine
 39
2500.000155029299
 10
3951.405625092952
 20
437.2927758495189
 30
0.0
 11
3952.296353193737
 21
438.1835160675018
 31
0.0
  0
ARC
  5
45D1
330
1F
100
AcDbEntity
  8
SPOJOVACÍ
100
AcDbCircle
 10
3445.317588458102
 20
560.3769085128228
 30
0.0
 40
3.772098134126344
100
AcDbArc
 50
300.0337920944151
 51
239.9661539344486
  0
ARC
  5
45D2
330
1F
100
AcDbEntity
  8
SPOJOVACÍ
  6
Continuous
100
AcDbCircle
 39
2500.000155029299
 10
3447.177720244576
 20
520.5018454480432
 30
0.0
 40
12.35896601914339
100
AcDbArc
 50
39.04205296599621
 51
63.57368118090316
  0
ARC
  5
45D3
330
1F
100
AcDbEntity
  8
SPOJOVACÍ
  6
Continuous
100
AcDbCircle
 39
2500.000155029299
 10
3445.364230659917
 20
560.3384648757037
 30
0.0
 40
1.856153575276108
100
AcDbArc
 50
7.24529573806531
 51
91.43990382530169
  0
LINE
  5
45D4
330
1F
100
AcDbEntity
  8
STAVBA OBRYS
100
AcDbLine
 10
4388.201113025522
 20
496.5392128008207
 30
0.0
 11
3357.590396536066
 21
496.5392128008207
 31
0.0
  0
LINE
  5
45D5
330
1F
100
AcDbEntity
  8
izolace
100
AcDbLine
 10
3357.590396536073
 20
467.5665765243938
 30
0.0
 11
4389.439499087067
 21
467.5665765243938
 31
0.0
  0
LINE
  5
45D6
330
1F
100
AcDbEntity
  8
izolace
  6
IZOLACE
 48
1.5
100
AcDbLine
 10
3357.590396536073
 20
451.5838401707696
 30
0.0
 11
4389.439499087067
 21
451.5838401707696
 31
0.0
  0
LINE
  5
45D7
330
1F
100
AcDbEntity
  8
izolace
100
AcDbLine
 10
3360.192512547416
 20
435.4572030561066
 30
0.0
 11
4389.439499087067
 21
435.4572030561066
 31
0.0
  0
LINE
  5
45D8
330
1F
100
AcDbEntity
  8
SPOJOVACÍ
  6
Continuous
100
AcDbLine
 39
2500.000155029299
 10
3446.695883525181
 20
440.4994600126793
 30
0.0
 11
3443.929918597506
 21
440.4994600126793
 31
0.0
  0
LINE
  5
45D9
330
1F
100
AcDbEntity
  8
SPOJOVACÍ
  6
Continuous
100
AcDbLine
 39
2500.000155029299
 10
3446.695883525181
 20
438.1835160675018
 30
0.0
 11
3446.695883525181
 21
440.4994600126793
 31
0.0
  0
LINE
  5
45DA
330
1F
100
AcDbEntity
  8
SPOJOVACÍ
  6
Continuous
100
AcDbLine
 39
2500.000155029299
 10
3445.805155424396
 20
437.2927758495189
 30
0.0
 11
3446.695883525181
 21
438.1835160675018
 31
0.0
  0
LINE
  5
45DB
330
1F
100
AcDbEntity
  8
SPOJOVACÍ
  6
Continuous
100
AcDbLine
 39
2500.000155029299
 10
3444.848757877126
 20
437.2927758495189
 30
0.0
 11
3445.805155424396
 21
437.2927758495189
 31
0.0
  0
LINE
  5
45DC
330
1F
100
AcDbEntity
  8
SPOJOVACÍ
  6
Continuous
100
AcDbLine
 39
2500.000155029299
 10
3443.929918597506
 20
438.2116151282298
 30
0.0
 11
3444.848757877126
 21
437.2927758495189
 31
0.0
  0
LINE
  5
45DD
330
1F
100
AcDbEntity
  8
SPOJOVACÍ
  6
Continuous
100
AcDbLine
 39
2500.000155029299
 10
3443.929918597506
 20
440.4994600126793
 30
0.0
 11
3443.929918597506
 21
438.2116151282298
 31
0.0
  0
LINE
  5
45DE
330
1F
100
AcDbEntity
  8
SPOJOVACÍ
  6
Continuous
100
AcDbLine
 39
2500.000155029299
 10
3447.316775869341
 20
441.0842111510556
 30
0.0
 11
3443.316777716619
 21
441.0842111510556
 31
0.0
  0
LINE
  5
45DF
330
1F
100
AcDbEntity
  8
SPOJOVACÍ
  6
Continuous
100
AcDbLine
 39
2500.000155029299
 10
3447.316775869341
 20
438.0842004229544
 30
0.0
 11
3447.316775869341
 21
441.0842111510556
 31
0.0
  0
LINE
  5
45E0
330
1F
100
AcDbEntity
  8
SPOJOVACÍ
  6
Continuous
100
AcDbLine
 39
2500.000155029299
 10
3445.816770508473
 20
436.584195058449
 30
0.0
 11
3447.316775869341
 21
438.0842004229544
 31
0.0
  0
LINE
  5
45E1
330
1F
100
AcDbEntity
  8
SPOJOVACÍ
  6
Continuous
100
AcDbLine
 39
2500.000155029299
 10
3443.316777716619
 20
439.5842057865502
 30
0.0
 11
3443.316777716619
 21
441.0842111510556
 31
0.0
  0
LINE
  5
45E2
330
1F
100
AcDbEntity
  8
SPOJOVACÍ
  6
Continuous
100
AcDbLine
 39
2500.000155029299
 10
3443.316777716619
 20
438.0842004229544
 30
0.0
 11
3443.316777716619
 21
439.5842057865502
 31
0.0
  0
LINE
  5
45E3
330
1F
100
AcDbEntity
  8
SPOJOVACÍ
  6
Continuous
100
AcDbLine
 39
2500.000155029299
 10
3444.816770970293
 20
436.584195058449
 30
0.0
 11
3443.316777716619
 21
438.0842004229544
 31
0.0
  0
ARC
  5
45E4
330
1F
100
AcDbEntity
  8
SPOJOVACÍ
  6
Continuous
100
AcDbCircle
 39
2500.000155029299
 10
3445.422414726282
 20
488.5213357629163
 30
0.0
 40
1.791938668176291
100
AcDbArc
 50
266.1076944413313
 51
354.3243413836902
  0
ARC
  5
45E5
330
1F
100
AcDbEntity
  8
SPOJOVACÍ
  6
Continuous
100
AcDbCircle
 39
2500.000155029299
 10
3445.395320937324
 20
524.0593802936837
 30
0.0
 40
1.833202918205448
100
AcDbArc
 50
9.07753826540085
 51
92.54429578148736
  0
LINE
  5
45E6
330
1F
100
AcDbEntity
  8
SPOJOVACÍ
  6
Continuous
100
AcDbLine
 39
2500.000155029299
 10
3447.205566575222
 20
465.8413244223902
 30
0.0
 11
3445.317588273256
 21
465.8413244223902
 31
0.0
  0
LINE
  5
45E7
330
1F
100
AcDbEntity
  8
SPOJOVACÍ
  6
Continuous
100
AcDbLine
 39
2500.000155029299
 10
3447.205566575222
 20
478.2177978513482
 30
0.0
 11
3447.205566575222
 21
465.8413244223902
 31
0.0
  0
LINE
  5
45E8
330
1F
100
AcDbEntity
  8
SPOJOVACÍ
  6
Continuous
100
AcDbLine
 39
2500.000155029299
 10
3447.205566575222
 20
524.3486068302354
 30
0.0
 11
3447.205566575222
 21
488.3441178953853
 31
0.0
  0
ARC
  5
45E9
330
1F
100
AcDbEntity
  8
SPOJOVACÍ
  6
Continuous
100
AcDbCircle
 39
2500.000155029299
 10
3445.871442556027
 20
486.1152810381009
 30
0.0
 40
7.915946660942908
100
AcDbArc
 50
266.0802097601067
 51
3.91991022407127
  0
ARC
  5
45EA
330
1F
100
AcDbEntity
  8
SPOJOVACÍ
  6
Continuous
100
AcDbCircle
 39
2500.000155029299
 10
3444.888508354425
 20
527.2822456399717
 30
0.0
 40
8.891364063669307
100
AcDbArc
 50
2.848339148043316
 51
87.15146528105737
  0
LINE
  5
45EB
330
1F
100
AcDbEntity
  8
SPOJOVACÍ
  6
Continuous
100
AcDbLine
 39
2500.000155029299
 10
3453.768877297635
 20
517.5977590988532
 30
0.0
 11
3453.768877297635
 21
527.7240791428903
 31
0.0
  0
LINE
  5
45EC
330
1F
100
AcDbEntity
  8
SPOJOVACÍ
  6
Continuous
100
AcDbLine
 39
2500.000155029299
 10
3453.768877297635
 20
497.1577273472485
 30
0.0
 11
3453.768877297635
 21
486.6564301855669
 31
0.0
  0
LINE
  5
45ED
330
1F
100
AcDbEntity
  8
SPOJOVACÍ
  6
Continuous
100
AcDbLine
 39
2500.000155029299
 10
3453.768877297635
 20
497.1577273472485
 30
0.0
 11
3447.205566575222
 21
497.1577273472485
 31
0.0
  0
LINE
  5
45EE
330
1F
100
AcDbEntity
  8
SPOJOVACÍ
  6
Continuous
100
AcDbLine
 39
2500.000155029299
 10
3453.768877297635
 20
517.5977590988532
 30
0.0
 11
3453.768877297635
 21
497.1577273472485
 31
0.0
  0
LINE
  5
45EF
330
1F
100
AcDbEntity
  8
SPOJOVACÍ
  6
Continuous
100
AcDbLine
 39
2500.000155029299
 10
3447.205566575222
 20
517.5977590988532
 30
0.0
 11
3453.768877297635
 21
517.5977590988532
 31
0.0
  0
LINE
  5
45F0
330
1F
100
AcDbEntity
  8
SPOJOVACÍ
  6
Continuous
100
AcDbLine
 39
2500.000155029299
 10
3446.080429319055
 20
435.2488114318385
 30
0.0
 11
3448.518228716794
 21
435.2488114318385
 31
0.0
  0
LINE
  5
45F1
330
1F
100
AcDbEntity
  8
SPOJOVACÍ
  6
Continuous
100
AcDbLine
 39
2500.000155029299
 10
3446.080429319055
 20
436.3739365717174
 30
0.0
 11
3446.080429319055
 21
435.2488114318385
 31
0.0
  0
LINE
  5
45F2
330
1F
100
AcDbEntity
  8
SPOJOVACÍ
  6
Continuous
100
AcDbLine
 39
2500.000155029299
 10
3446.229645021604
 20
441.7065568941234
 30
0.0
 11
3445.317588273256
 21
441.7065568941234
 31
0.0
  0
LINE
  5
45F3
330
1F
100
AcDbEntity
  8
SPOJOVACÍ
  6
Continuous
100
AcDbLine
 39
2500.000155029299
 10
3447.655636009232
 20
441.3245065643332
 30
0.0
 11
3446.229645021604
 21
441.7065568941234
 31
0.0
  0
LINE
  5
45F4
330
1F
100
AcDbEntity
  8
SPOJOVACÍ
  6
Continuous
100
AcDbLine
 39
2500.000155029299
 10
3447.655636009232
 20
436.3739365717174
 30
0.0
 11
3447.655636009232
 21
441.3245065643332
 31
0.0
  0
LINE
  5
45F5
330
1F
100
AcDbEntity
  8
SPOJOVACÍ
  6
Continuous
100
AcDbLine
 39
2500.000155029299
 10
3446.080429319055
 20
436.3739365717174
 30
0.0
 11
3447.655636009232
 21
436.3739365717174
 31
0.0
  0
ARC
  5
45F6
330
1F
100
AcDbEntity
  8
SPOJOVACÍ
  6
Continuous
100
AcDbCircle
 39
2500.000155029299
 10
3445.212761820231
 20
488.5213357629163
 30
0.0
 40
1.791938668176291
100
AcDbArc
 50
185.6756873035466
 51
273.8921703213237
  0
ARC
  5
45F7
330
1F
100
AcDbEntity
  8
SPOJOVACÍ
  6
Continuous
100
AcDbCircle
 39
2500.000155029299
 10
3445.239843501996
 20
524.0593802936837
 30
0.0
 40
1.833202918205448
100
AcDbArc
 50
87.45568190668869
 51
170.9224377151385
  0
LINE
  5
45F8
330
1F
100
AcDbEntity
  8
SPOJOVACÍ
  6
Continuous
100
AcDbLine
 39
2500.000155029299
 10
3443.429609978567
 20
465.8413244223902
 30
0.0
 11
3445.317588273256
 21
465.8413244223902
 31
0.0
  0
LINE
  5
45F9
330
1F
100
AcDbEntity
  8
SPOJOVACÍ
  6
Continuous
100
AcDbLine
 39
2500.000155029299
 10
3443.429609978567
 20
478.2177978513482
 30
0.0
 11
3443.429609978567
 21
465.8413244223902
 31
0.0
  0
LINE
  5
45FA
330
1F
100
AcDbEntity
  8
SPOJOVACÍ
  6
Continuous
100
AcDbLine
 39
2500.000155029299
 10
3443.429609978567
 20
524.3486068302354
 30
0.0
 11
3443.429609978567
 21
488.3441178953853
 31
0.0
  0
ARC
  5
45FB
330
1F
100
AcDbEntity
  8
SPOJOVACÍ
  6
Continuous
100
AcDbCircle
 39
2500.000155029299
 10
3444.763709768823
 20
486.1152810381009
 30
0.0
 40
7.915946660942908
100
AcDbArc
 50
176.0801048027694
 51
273.9197916062925
  0
ARC
  5
45FC
330
1F
100
AcDbEntity
  8
SPOJOVACÍ
  6
Continuous
100
AcDbCircle
 39
2500.000155029299
 10
3443.450163474709
 20
520.5018454480432
 30
0.0
 40
12.35896601914339
100
AcDbArc
 50
116.37436881397
 51
140.9579470340037
  0
ARC
  5
45FD
330
1F
100
AcDbEntity
  8
SPOJOVACÍ
  6
Continuous
100
AcDbCircle
 39
2500.000155029299
 10
3445.746668199364
 20
527.2822456399717
 30
0.0
 40
8.891364063669307
100
AcDbArc
 50
92.84852606754681
 51
177.1516658609006
  0
LINE
  5
45FE
330
1F
100
AcDbEntity
  8
SPOJOVACÍ
  6
Continuous
100
AcDbLine
 39
2500.000155029299
 10
3436.866287141684
 20
517.5977590988532
 30
0.0
 11
3436.866287141684
 21
527.7240791428903
 31
0.0
  0
LINE
  5
45FF
330
1F
100
AcDbEntity
  8
SPOJOVACÍ
  6
Continuous
100
AcDbLine
 39
2500.000155029299
 10
3436.866287141684
 20
497.1577273472485
 30
0.0
 11
3436.866287141684
 21
486.6564301855669
 31
0.0
  0
LINE
  5
4600
330
1F
100
AcDbEntity
  8
SPOJOVACÍ
  6
Continuous
100
AcDbLine
 39
2500.000155029299
 10
3436.866287141684
 20
497.1577273472485
 30
0.0
 11
3443.429597864097
 21
497.1577273472485
 31
0.0
  0
LINE
  5
4601
330
1F
100
AcDbEntity
  8
SPOJOVACÍ
  6
Continuous
100
AcDbLine
 39
2500.000155029299
 10
3436.866287141684
 20
517.5977590988532
 30
0.0
 11
3436.866287141684
 21
497.1577273472485
 31
0.0
  0
LINE
  5
4602
330
1F
100
AcDbEntity
  8
SPOJOVACÍ
  6
Continuous
100
AcDbLine
 39
2500.000155029299
 10
3443.429597864097
 20
517.5977590988532
 30
0.0
 11
3436.866287141684
 21
517.5977590988532
 31
0.0
  0
LINE
  5
4603
330
1F
100
AcDbEntity
  8
SPOJOVACÍ
  6
Continuous
100
AcDbLine
 39
2500.000155029299
 10
3433.851161054564
 20
466.0971227658501
 30
0.0
 11
3433.85114894737
 21
528.2866417128298
 31
0.0
  0
LINE
  5
4604
330
1F
100
AcDbEntity
  8
SPOJOVACÍ
  6
Continuous
100
AcDbLine
 39
2500.000155029299
 10
3442.116935722525
 20
435.2488114318385
 30
0.0
 11
3433.851161054564
 21
466.0971227658501
 31
0.0
  0
LINE
  5
4605
330
1F
100
AcDbEntity
  8
SPOJOVACÍ
  6
Continuous
100
AcDbLine
 39
2500.000155029299
 10
3444.554747227458
 20
435.2488114318385
 30
0.0
 11
3442.116935722525
 21
435.2488114318385
 31
0.0
  0
LINE
  5
4606
330
1F
100
AcDbEntity
  8
SPOJOVACÍ
  6
Continuous
100
AcDbLine
 39
2500.000155029299
 10
3444.554747227458
 20
436.3739365717174
 30
0.0
 11
3444.554747227458
 21
435.2488114318385
 31
0.0
  0
LINE
  5
4607
330
1F
100
AcDbEntity
  8
SPOJOVACÍ
  6
Continuous
100
AcDbLine
 39
2500.000155029299
 10
3444.405531532185
 20
441.7065568941234
 30
0.0
 11
3445.317588273256
 21
441.7065568941234
 31
0.0
  0
LINE
  5
4608
330
1F
100
AcDbEntity
  8
SPOJOVACÍ
  6
Continuous
100
AcDbLine
 39
2500.000155029299
 10
3442.979552659027
 20
441.3245065643332
 30
0.0
 11
3444.405531532185
 21
441.7065568941234
 31
0.0
  0
LINE
  5
4609
330
1F
100
AcDbEntity
  8
SPOJOVACÍ
  6
Continuous
100
AcDbLine
 39
2500.000155029299
 10
3442.979552659027
 20
436.3739365717174
 30
0.0
 11
3442.979552659027
 21
441.3245065643332
 31
0.0
  0
LINE
  5
460A
330
1F
100
AcDbEntity
  8
SPOJOVACÍ
  6
Continuous
100
AcDbLine
 39
2500.000155029299
 10
3444.554747227458
 20
436.3739365717174
 30
0.0
 11
3442.979552659027
 21
436.3739365717174
 31
0.0
  0
LINE
  5
460B
330
1F
100
AcDbEntity
  8
SPOJOVACÍ
  6
Continuous
100
AcDbLine
 39
2500.000155029299
 10
3456.784027606419
 20
466.0971227658501
 30
0.0
 11
3456.784003384756
 21
528.2866417128298
 31
0.0
  0
LINE
  5
460C
330
1F
100
AcDbEntity
  8
SPOJOVACÍ
  6
Continuous
100
AcDbLine
 39
2500.000155029299
 10
3448.518228716794
 20
435.2488114318385
 30
0.0
 11
3456.784027606419
 21
466.0971227658501
 31
0.0
  0
LINE
  5
460D
330
1F
100
AcDbEntity
  8
SPOJOVACÍ
  6
Continuous
100
AcDbLine
 39
2500.000155029299
 10
3447.205566575222
 20
535.819418471865
 30
0.0
 11
3447.205563420374
 21
560.5725583618827
 31
0.0
  0
LINE
  5
460E
330
1F
100
AcDbEntity
  8
SPOJOVACÍ
  6
Continuous
100
AcDbLine
 39
2500.000155029299
 10
3443.429609978567
 20
535.819418471865
 30
0.0
 11
3443.429609978567
 21
560.572559117636
 31
0.0
  0
ARC
  5
460F
330
1F
100
AcDbEntity
  8
SPOJOVACÍ
  6
Continuous
100
AcDbCircle
 39
2500.000155029299
 10
3445.270946256288
 20
560.3384648757037
 30
0.0
 40
1.856153575276108
100
AcDbArc
 50
88.5600961746983
 51
172.7547042619347
  0
HATCH
  5
4610
330
1F
100
AcDbEntity
  8
SPOJOVACÍ
100
AcDbHatch
 10
0.0
 20
0.0
 30
0.0
210
0.0
220
0.0
230
1.0
  2
SOLID
 70
     1
 71
     0
 91
        1
 92
        7
 72
     0
 73
     1
 93
        5
 10
3453.958320530753
 20
434.1014020032376
 10
3453.958320530753
 20
435.1014020032367
 10
3438.035464923773
 20
435.1014020032371
 10
3438.035464923773
 20
434.1014020032376
 10
3440.939151732806
 20
434.101402003238
 97
        0
 75
     0
 76
     1
 47
0.0708201311593959
 98
        1
 10
3449.948071342233
 20
434.576579835586
  0
HATCH
  5
4611
330
1F
100
AcDbEntity
  8
SPOJOVACÍ
100
AcDbHatch
 10
0.0
 20
0.0
 30
0.0
210
0.0
220
0.0
230
1.0
  2
SOLID
 70
     1
 71
     0
 91
        1
 92
        7
 72
     0
 73
     1
 93
        5
 10
3958.782347481635
 20
434.1014020032371
 10
3958.782347481635
 20
435.1014020032371
 10
3942.859491874656
 20
435.1014020032371
 10
3942.859491874656
 20
434.1014020032371
 10
3945.763178683689
 20
434.101402003238
 97
        0
 75
     0
 76
     1
 47
0.1352714281630532
 98
        1
 10
3951.839369899413
 20
434.4464873452671
  0
LINE
  5
4612
330
1F
100
AcDbEntity
  8
SPOJOVACÍ
100
AcDbLine
 10
3955.878660672608
 20
434.1014020032376
 30
0.0
 11
3955.878660672624
 21
431.7152243061991
 31
0.0
  0
LINE
  5
4613
330
1F
100
AcDbEntity
  8
SPOJOVACÍ
100
AcDbLine
 10
3954.565955729263
 20
434.1014020032376
 30
0.0
 11
3954.56595572927
 21
431.7152243061987
 31
0.0
  0
LINE
  5
4614
330
1F
100
AcDbEntity
  8
SPOJOVACÍ
100
AcDbLine
 10
3954.56595572927
 20
431.7152243061987
 30
0.0
 11
3955.878660672624
 21
431.7152243061991
 31
0.0
  0
LINE
  5
4615
330
1F
100
AcDbEntity
  8
SPOJOVACÍ
100
AcDbLine
 10
3958.782347481635
 20
434.1014020032371
 30
0.0
 11
3955.878660672601
 21
434.1014020032367
 31
0.0
  0
LINE
  5
4616
330
1F
100
AcDbEntity
  8
SPOJOVACÍ
100
AcDbLine
 10
3942.859491874656
 20
434.1014020032371
 30
0.0
 11
3942.859491874656
 21
435.1014020032371
 31
0.0
  0
LINE
  5
4617
330
1F
100
AcDbEntity
  8
SPOJOVACÍ
100
AcDbLine
 10
3942.859491874656
 20
435.1014020032371
 30
0.0
 11
3958.782347481635
 21
435.1014020032371
 31
0.0
  0
LINE
  5
4618
330
1F
100
AcDbEntity
  8
SPOJOVACÍ
100
AcDbLine
 10
3958.782347481635
 20
434.1014020032371
 30
0.0
 11
3958.782347481635
 21
435.1014020032371
 31
0.0
  0
LINE
  5
4619
330
1F
100
AcDbEntity
  8
SPOJOVACÍ
100
AcDbLine
 10
3954.565955729256
 20
434.1014020032367
 30
0.0
 11
3947.075883627035
 21
434.1014020032376
 31
0.0
  0
LINE
  5
461A
330
1F
100
AcDbEntity
  8
SPOJOVACÍ
100
AcDbLine
 10
3947.075883627027
 20
431.7152243061987
 30
0.0
 11
3945.763178683675
 21
431.7152243061991
 31
0.0
  0
LINE
  5
461B
330
1F
100
AcDbEntity
  8
SPOJOVACÍ
100
AcDbLine
 10
3947.075883627035
 20
434.1014020032376
 30
0.0
 11
3947.075883627027
 21
431.7152243061987
 31
0.0
  0
LINE
  5
461C
330
1F
100
AcDbEntity
  8
SPOJOVACÍ
100
AcDbLine
 10
3945.763178683689
 20
434.1014020032376
 30
0.0
 11
3945.763178683675
 21
431.7152243061991
 31
0.0
  0
LINE
  5
461D
330
1F
100
AcDbEntity
  8
SPOJOVACÍ
100
AcDbLine
 10
3945.763178683689
 20
434.101402003238
 30
0.0
 11
3942.859491874656
 21
434.1014020032371
 31
0.0
  0
ELLIPSE
  5
461E
330
1F
100
AcDbEntity
  8
0
  6
Continuous
 62
     5
100
AcDbEllipse
 10
3955.693846275894
 20
422.0162332063386
 30
0.0
 11
-0.9673501410155818
 21
0.9630246238428355
 31
0.0
210
0.0
220
0.0
230
0.9999999999999998
 40
0.9999999999983106
 41
3.922429033933493
 42
10.20561434111308
  0
ELLIPSE
  5
461F
330
1F
100
AcDbEntity
  8
0
  6
Continuous
 62
     5
100
AcDbEllipse
 10
3945.899088845547
 20
422.038967087848
 30
0.0
 11
0.9630246238454439
 21
0.9673501410182019
 31
0.0
210
0.0
220
0.0
230
1.0
 40
0.9999999999979166
 41
5.493225360726194
 42
11.77641066790578
  0
ELLIPSE
  5
4620
330
1F
100
AcDbEntity
  8
0
  6
Continuous
 62
     5
100
AcDbEllipse
 10
3955.752576331691
 20
416.3024858718249
 30
0.0
 11
1.029065566365614
 21
1.033687712745874
 31
0.0
210
0.0
220
0.0
230
0.9999999999999998
 40
0.9999999999988942
 41
5.493225360726983
 42
11.77641066790656
  0
ELLIPSE
  5
4621
330
1F
100
AcDbEntity
  8
0
  6
Continuous
 62
     5
100
AcDbEllipse
 10
3945.813836059179
 20
416.3255539411789
 30
0.0
 11
-1.033687712746777
 21
1.029065566366512
 31
0.0
210
0.0
220
0.0
230
1.0
 40
0.9999999999968133
 41
3.922429033934233
 42
10.20561434111382
  0
ELLIPSE
  5
4622
330
1F
100
AcDbEntity
  8
0
  6
Continuous
 62
     5
100
AcDbEllipse
 10
3950.870179571708
 20
413.4072093124027
 30
0.0
 11
-1.196078904435772
 21
1.19073062399239
 31
0.0
210
0.0
220
0.0
230
1.0
 40
0.9999999999976683
 41
3.922429033933691
 42
10.20561434111327
  0
ELLIPSE
  5
4623
330
1F
100
AcDbEntity
  8
0
  6
Continuous
 62
     5
100
AcDbEllipse
 10
3955.879566522245
 20
410.4420772571192
 30
0.0
 11
1.075850586657832
 21
1.08068287242985
 31
0.0
210
0.0
220
0.0
230
0.9999999999999998
 40
0.9999999999991741
 41
5.493225360727149
 42
11.77641066790673
  0
LINE
  5
4624
330
1F
100
AcDbEntity
  8
0
  6
Continuous
 62
     5
100
AcDbLine
 39
2500.000155029299
 10
3963.952233436258
 20
407.0154051247268
 30
0.0
 11
3958.774351415117
 21
434.1432948872721
 31
0.0
  0
ELLIPSE
  5
4625
330
1F
100
AcDbEntity
  8
0
  6
Continuous
 62
     5
100
AcDbEllipse
 10
3945.659643068024
 20
410.4657979598
 30
0.0
 11
1.075850586658019
 21
1.080682872430037
 31
0.0
210
0.0
220
0.0
230
1.0
 40
0.9999999999991253
 41
5.493225360727124
 42
11.7764106679067
  0
LINE
  5
4626
330
1F
100
AcDbEntity
  8
0
  6
Continuous
 62
     5
100
AcDbLine
 39
2500.000155029299
 10
3937.571156430097
 20
407.0766362764934
 30
0.0
 11
3942.859491874656
 21
434.1014020032253
 31
0.0
  0
ELLIPSE
  5
4627
330
1F
100
AcDbEntity
  8
0
  6
Continuous
 62
     5
100
AcDbEllipse
 10
3950.639553831173
 20
394.8427720941622
 30
0.0
 11
1.323007442173111
 21
1.328949856592335
 31
0.0
210
0.0
220
0.0
230
1.0
 40
0.9999999999993949
 41
5.493225360727258
 42
11.77641066790684
  0
ELLIPSE
  5
4628
330
1F
100
AcDbEntity
  8
0
  6
Continuous
 62
     5
100
AcDbEllipse
 10
3963.155959322047
 20
394.9908423646625
 30
0.0
 11
-1.343740118828259
 21
1.337731569583
 31
0.0
210
0.0
220
0.0
230
1.0
 40
0.9999999999972772
 41
3.922429033933861
 42
10.20561434111344
  0
ELLIPSE
  5
4629
330
1F
100
AcDbEntity
  8
0
  6
Continuous
 62
     5
100
AcDbEllipse
 10
3956.320812488268
 20
391.6952774911915
 30
0.0
 11
1.247360168101651
 21
1.25296280555675
 31
0.0
210
0.0
220
0.0
230
1.0
 40
0.9999999999987551
 41
5.493225360726738
 42
11.77641066790632
  0
ELLIPSE
  5
462A
330
1F
100
AcDbEntity
  8
0
  6
Continuous
 62
     5
100
AcDbEllipse
 10
3956.225477319199
 20
397.8771049917804
 30
0.0
 11
-1.26860295799743
 21
1.262930385422567
 31
0.0
210
0.0
220
0.0
230
1.0
 40
0.9999999999988279
 41
3.922429033933234
 42
10.20561434111282
  0
ELLIPSE
  5
462B
330
1F
100
AcDbEntity
  8
0
  6
Continuous
 62
     5
100
AcDbEllipse
 10
3955.928193988623
 20
404.3415548498419
 30
0.0
 11
1.132793559214581
 21
1.137881609792152
 31
0.0
210
0.0
220
0.0
230
0.9999999999999998
 40
0.9999999999972118
 41
5.493225360726132
 42
11.77641066790571
  0
ELLIPSE
  5
462C
330
1F
100
AcDbEntity
  8
0
  6
Continuous
 62
     5
100
AcDbEllipse
 10
3938.311603632794
 20
395.0485067471063
 30
0.0
 11
1.337731569581761
 21
1.343740118827014
 31
0.0
210
0.0
220
0.0
230
0.9999999999999998
 40
0.9999999999993672
 41
5.493225360727321
 42
11.7764106679069
  0
ELLIPSE
  5
462D
330
1F
100
AcDbEntity
  8
0
  6
Continuous
 62
     5
100
AcDbEllipse
 10
3945.131378725283
 20
391.7212484519968
 30
0.0
 11
-1.252962805555153
 21
1.247360168100062
 31
0.0
210
0.0
220
0.0
230
0.9999999999999998
 40
0.9999999999974434
 41
3.92242903393398
 42
10.20561434111356
  0
ELLIPSE
  5
462E
330
1F
100
AcDbEntity
  8
0
  6
Continuous
 62
     5
100
AcDbEllipse
 10
3945.255409070817
 20
397.9025667996388
 30
0.0
 11
-1.268602957997952
 21
1.262930385423086
 31
0.0
210
0.0
220
0.0
230
0.9999999999999998
 40
0.9999999999980069
 41
3.922429033933645
 42
10.20561434111323
  0
ELLIPSE
  5
462F
330
1F
100
AcDbEntity
  8
0
  6
Continuous
 62
     5
100
AcDbEllipse
 10
3945.582697342306
 20
404.3655670111011
 30
0.0
 11
1.132793559214039
 21
1.137881609791608
 31
0.0
210
0.0
220
0.0
230
1.0
 40
0.9999999999981909
 41
5.493225360726338
 42
11.77641066790592
  0
ELLIPSE
  5
4630
330
1F
100
AcDbEntity
  8
0
  6
Continuous
 62
     5
100
AcDbEllipse
 10
3956.528301172827
 20
394.4676917157248
 30
0.0
 11
10.54625425876375
 21
10.59362376809405
 31
0.0
210
0.0
220
0.0
230
0.9999999999999998
 40
0.9999999999991391
 41
4.049383601369564
 42
5.070649108113864
  0
ELLIPSE
  5
4631
330
1F
100
AcDbEntity
  8
0
  6
Continuous
 62
     5
100
AcDbEllipse
 10
3944.936761895015
 20
394.4945959736733
 30
0.0
 11
-10.59362376809057
 21
10.54625425876028
 31
0.0
210
0.0
220
0.0
230
1.0
 40
0.9999999999996093
 41
1.20341384889878
 42
2.224678640387655
  0
LINE
  5
4632
330
1F
100
AcDbEntity
  8
0
  6
Continuous
 62
     5
100
AcDbLine
 39
2500.000155029299
 10
3950.698115808193
 20
379.6533334228024
 30
0.0
 11
3958.386591260767
 21
379.6354882754194
 31
0.0
  0
LINE
  5
4633
330
1F
100
AcDbEntity
  8
0
  6
Continuous
 62
     5
100
AcDbLine
 39
2500.000155029299
 10
3950.698115808193
 20
379.6533334228024
 30
0.0
 11
3943.009640355633
 21
379.6711785701854
 31
0.0
  0
LINE
  5
4634
330
1F
100
AcDbEntity
  8
0
  6
Continuous
 62
     5
100
AcDbLine
 39
2500.000155029299
 10
3978.693356018283
 20
403.028811226075
 30
0.0
 11
3970.147290244737
 21
388.3056351941609
 31
0.0
  0
ELLIPSE
  5
4635
330
1F
100
AcDbEntity
  8
0
  6
Continuous
 62
     5
100
AcDbEllipse
 10
3973.654928532453
 20
413.6452962612452
 30
0.0
 11
8.290887511251945
 21
8.328126825200246
 31
0.0
210
0.0
220
0.0
230
1.0
 40
0.9999999999998006
 41
2.953388652026887
 42
4.367863616170676
  0
LINE
  5
4636
330
1F
100
AcDbEntity
  8
NOSNÉ KONSTRUKCE
100
AcDbLine
 39
2500.000155029299
 10
3978.728961480543
 20
382.3358955235271
 30
0.0
 11
3980.728981593895
 21
384.3358480542738
 31
0.0
  0
LINE
  5
4637
330
1F
100
AcDbEntity
  8
NOSNÉ KONSTRUKCE
100
AcDbLine
 39
2500.000155029299
 10
3980.728962457865
 20
380.3359238562916
 30
0.0
 11
3978.728961480543
 21
382.3358955235271
 31
0.0
  0
LINE
  5
4638
330
1F
100
AcDbEntity
  8
NOSNÉ KONSTRUKCE
100
AcDbLine
 39
2500.000155029299
 10
3980.143192171697
 20
382.3358887577132
 30
0.0
 11
3981.728979612208
 21
383.9216226129356
 31
0.0
  0
LINE
  5
4639
330
1F
100
AcDbEntity
  8
NOSNÉ KONSTRUKCE
100
AcDbLine
 39
2500.000155029299
 10
3981.728964439523
 20
380.7501397294345
 30
0.0
 11
3980.143192171697
 21
382.3358887577132
 31
0.0
  0
LINE
  5
463A
330
1F
100
AcDbEntity
  8
NOSNÉ KONSTRUKCE
100
AcDbLine
 39
2500.000155029299
 10
3980.728962457865
 20
380.3359238562916
 30
0.0
 11
3980.728943321377
 21
376.3359027656188
 31
0.0
  0
LINE
  5
463B
330
1F
100
AcDbEntity
  8
NOSNÉ KONSTRUKCE
100
AcDbLine
 39
2500.000155029299
 10
3980.728943321377
 20
376.3359027656188
 30
0.0
 11
3969.729006437886
 21
376.3359553903819
 31
0.0
  0
LINE
  5
463C
330
1F
100
AcDbEntity
  8
NOSNÉ KONSTRUKCE
100
AcDbLine
 39
2500.000155029299
 10
3981.728964439523
 20
380.7501397294345
 30
0.0
 11
3981.728938537259
 21
375.3358979815347
 31
0.0
  0
LINE
  5
463D
330
1F
100
AcDbEntity
  8
NOSNÉ KONSTRUKCE
100
AcDbLine
 39
2500.000155029299
 10
3981.728938537259
 20
375.3358979815347
 30
0.0
 11
3969.314795186258
 21
375.3359573719972
 31
0.0
  0
LINE
  5
463E
330
1F
100
AcDbEntity
  8
SPOJOVACÍ
  6
Continuous
100
AcDbLine
 10
3929.078762600135
 20
375.0816422116077
 30
0.0
 11
3933.123166959727
 21
376.440629049448
 31
0.0
  0
LINE
  5
463F
330
1F
100
AcDbEntity
  8
SPOJOVACÍ
  6
Continuous
100
AcDbLine
 10
3928.701111224824
 20
375.4592935847358
 30
0.0
 11
3933.500818330673
 21
376.6592203614745
 31
0.0
  0
HATCH
  5
4640
330
1F
100
AcDbEntity
  8
NOSNÉ KONSTRUKCE
100
AcDbHatch
 10
0.0
 20
0.0
 30
0.0
210
0.0
220
0.0
230
1.0
  2
SOLID
 70
     1
 71
     0
 91
        1
 92
        7
 72
     0
 73
     1
 93
       68
 10
3981.729036200765
 20
395.7500977035988
 10
3980.143263932953
 20
397.3358467318721
 10
3981.729051373465
 20
398.9215805870762
 10
3981.729077275707
 20
404.335822334996
 10
3977.729085680886
 20
404.3358414713439
 10
3977.729080896798
 20
403.3358414713538
 10
3980.729072491626
 20
403.3358271191046
 10
3980.729053355145
 20
399.3358060284263
 10
3978.729033241786
 20
397.3358534976851
 10
3980.729034219114
 20
395.3358818304522
 10
3980.729015082625
 20
391.3358607397804
 10
3978.728997361173
 20
389.8358745105997
 10
3980.729000730377
 20
388.3358691449375
 10
3980.728981593888
 20
384.3358480542683
 10
3978.728961480536
 20
382.3358955235298
 10
3980.728962457865
 20
380.3359238562916
 10
3980.728943321377
 20
376.3359027656188
 10
3969.729006437893
 20
376.3359553903828
 10
3967.729005460557
 20
378.3359270576147
 10
3963.729032816223
 20
378.3359461938725
 10
3961.729012702878
 20
376.3359936631286
 10
3950.729075819387
 20
376.3360462878881
 10
3939.72913893589
 20
376.3360989126531
 10
3937.729137958568
 20
378.3360705798841
 10
3933.72916531424
 20
378.3360897161446
 10
3931.729145200889
 20
376.336137185397
 10
3920.729208317391
 20
376.3361898101602
 10
3920.729227453888
 20
380.336210900833
 10
3922.729247567225
 20
382.3361634315806
 10
3920.729246589903
 20
384.3361350988143
 10
3920.729265726384
 20
388.336156189488
 10
3922.72928344786
 20
389.8361424186568
 10
3920.729280078641
 20
391.3361477843264
 10
3920.729299215129
 20
395.3361688749964
 10
3922.729319328481
 20
397.3361214057331
 10
3920.72931835116
 20
399.3360930729814
 10
3920.729337487634
 20
403.3361141636442
 10
3923.729070740747
 20
403.3360998126317
 10
3923.729065957889
 20
404.3358414713429
 10
3919.729074363061
 20
404.335822334996
 10
3919.729100265303
 20
398.9215805870871
 10
3921.314887705822
 20
397.3358467318658
 10
3919.729115438002
 20
395.7500977035979
 10
3919.729138948229
 20
390.8358535333663
 10
3921.06247899825
 20
389.8358665370679
 10
3919.729148516339
 20
388.8358667831507
 10
3919.729172026567
 20
383.9216226129319
 10
3921.314959467078
 20
382.3358887577132
 10
3919.729187199251
 20
380.7501397294345
 10
3919.729189179506
 20
380.3362156847479
 10
3919.729227453902
 20
380.3362156849307
 10
3919.729208317406
 20
376.3361945942597
 10
3919.729213101515
 20
375.3358979815347
 10
3932.143356452509
 20
375.3359573719981
 10
3934.143357429845
 20
377.3359290392308
 10
3937.314917139115
 20
377.3359442122791
 10
3939.314828035555
 20
375.3361008947431
 10
3962.143214386316
 20
375.3359916815343
 10
3964.143234499682
 20
377.33594421228
 10
3967.314794208937
 20
377.3359290392308
 10
3969.314795186258
 20
375.3359573719972
 10
3981.728938537259
 20
375.3358979815339
 10
3981.728964439523
 20
380.7501397294272
 10
3980.143192171697
 20
382.335888757716
 10
3981.728979612216
 20
383.9216226129392
 10
3981.729003122436
 20
388.8358667831516
 10
3980.395672640526
 20
389.8358665370633
 10
3981.729012690545
 20
390.8358535333627
 97
        0
 75
     0
 76
     1
 47
0.131671459398827
 98
        1
 10
3981.048660518487
 20
393.6190159510006
  0
LINE
  5
4641
330
1F
100
AcDbEntity
  8
0
  6
Continuous
 62
     5
100
AcDbLine
 39
2500.000155029299
 10
3922.811686800482
 20
403.1585140038678
 30
0.0
 11
3931.289315131415
 21
388.3958255442735
 31
0.0
  0
ELLIPSE
  5
4642
330
1F
100
AcDbEntity
  8
0
  6
Continuous
 62
     5
100
AcDbEllipse
 10
3927.899341999919
 20
413.7514961431724
 30
0.0
 11
-8.328126825200973
 21
8.290887511252666
 31
0.0
210
0.0
220
0.0
230
0.9999999999999998
 40
0.9999999999998793
 41
1.906198148749068
 42
3.32067358973028
  0
LINE
  5
4644
330
1F
100
AcDbEntity
  8
SPOJOVACÍ
100
AcDbLine
 10
3440.939151732806
 20
434.101402003238
 30
0.0
 11
3438.035464923773
 21
434.1014020032371
 31
0.0
  0
LINE
  5
4645
330
1F
100
AcDbEntity
  8
SPOJOVACÍ
100
AcDbLine
 10
3440.939151732806
 20
434.1014020032376
 30
0.0
 11
3440.939151732792
 21
431.7152243061991
 31
0.0
  0
LINE
  5
4646
330
1F
100
AcDbEntity
  8
SPOJOVACÍ
100
AcDbLine
 10
3442.251856676153
 20
434.1014020032376
 30
0.0
 11
3442.251856676145
 21
431.7152243061987
 31
0.0
  0
LINE
  5
4647
330
1F
100
AcDbEntity
  8
SPOJOVACÍ
100
AcDbLine
 10
3442.251856676145
 20
431.7152243061987
 30
0.0
 11
3440.939151732792
 21
431.7152243061991
 31
0.0
  0
LINE
  5
4648
330
1F
100
AcDbEntity
  8
SPOJOVACÍ
100
AcDbLine
 10
3449.741928778373
 20
434.1014020032367
 30
0.0
 11
3442.251856676153
 21
434.1014020032376
 31
0.0
  0
LINE
  5
4649
330
1F
100
AcDbEntity
  8
SPOJOVACÍ
100
AcDbLine
 10
3453.958320530753
 20
434.1014020032371
 30
0.0
 11
3453.958320530753
 21
435.1014020032371
 31
0.0
  0
LINE
  5
464A
330
1F
100
AcDbEntity
  8
SPOJOVACÍ
100
AcDbLine
 10
3438.035464923773
 20
435.1014020032371
 30
0.0
 11
3453.958320530753
 21
435.1014020032371
 31
0.0
  0
LINE
  5
464B
330
1F
100
AcDbEntity
  8
SPOJOVACÍ
100
AcDbLine
 10
3438.035464923773
 20
434.1014020032371
 30
0.0
 11
3438.035464923773
 21
435.1014020032371
 31
0.0
  0
LINE
  5
464C
330
1F
100
AcDbEntity
  8
SPOJOVACÍ
100
AcDbLine
 10
3453.958320530753
 20
434.1014020032371
 30
0.0
 11
3451.054633721719
 21
434.1014020032367
 31
0.0
  0
LINE
  5
464D
330
1F
100
AcDbEntity
  8
SPOJOVACÍ
100
AcDbLine
 10
3449.741928778387
 20
431.7152243061987
 30
0.0
 11
3451.054633721741
 21
431.7152243061991
 31
0.0
  0
LINE
  5
464E
330
1F
100
AcDbEntity
  8
SPOJOVACÍ
100
AcDbLine
 10
3449.74192877838
 20
434.1014020032376
 30
0.0
 11
3449.741928778387
 21
431.7152243061987
 31
0.0
  0
LINE
  5
464F
330
1F
100
AcDbEntity
  8
SPOJOVACÍ
100
AcDbLine
 10
3451.054633721726
 20
434.1014020032376
 30
0.0
 11
3451.054633721741
 21
431.7152243061991
 31
0.0
  0
LINE
  5
4650
330
1F
100
AcDbEntity
  8
0
  6
Continuous
 62
     5
100
AcDbLine
 39
2500.000155029299
 10
3445.874088857311
 20
379.6533334228024
 30
0.0
 11
3438.185613404751
 21
379.6711785701854
 31
0.0
  0
LINE
  5
4651
330
1F
100
AcDbEntity
  8
0
  6
Continuous
 62
     5
100
AcDbLine
 39
2500.000155029299
 10
3445.874088857311
 20
379.6533334228024
 30
0.0
 11
3453.562564309885
 21
379.6354882754194
 31
0.0
  0
ELLIPSE
  5
4652
330
1F
100
AcDbEntity
  8
0
  6
Continuous
 62
     5
100
AcDbEllipse
 10
3423.075315049037
 20
413.7514961431724
 30
0.0
 11
-8.328126825200973
 21
8.290887511252666
 31
0.0
210
0.0
220
0.0
230
0.9999999999999998
 40
0.9999999999998793
 41
1.906198148749068
 42
3.32067358973028
  0
LINE
  5
4653
330
1F
100
AcDbEntity
  8
0
  6
Continuous
 62
     5
100
AcDbLine
 39
2500.000155029299
 10
3417.9876598496
 20
403.1585140038678
 30
0.0
 11
3426.465288180533
 21
388.3958255442735
 31
0.0
  0
ELLIPSE
  5
4654
330
1F
100
AcDbEntity
  8
0
  6
Continuous
 62
     5
100
AcDbEllipse
 10
3440.112734944133
 20
394.4945959736733
 30
0.0
 11
-10.59362376809057
 21
10.54625425876028
 31
0.0
210
0.0
220
0.0
230
1.0
 40
0.9999999999996093
 41
1.20341384889878
 42
2.224678640387655
  0
LINE
  5
4655
330
1F
100
AcDbEntity
  8
0
  6
Continuous
 62
     5
100
AcDbLine
 39
2500.000155029299
 10
3432.747129479214
 20
407.0766362764934
 30
0.0
 11
3438.035464923773
 21
434.1014020032253
 31
0.0
  0
ELLIPSE
  5
4656
330
1F
100
AcDbEntity
  8
0
  6
Continuous
 62
     5
100
AcDbEllipse
 10
3441.075061894665
 20
422.038967087848
 30
0.0
 11
0.9630246238454439
 21
0.9673501410182019
 31
0.0
210
0.0
220
0.0
230
1.0
 40
0.9999999999979166
 41
5.493225360726194
 42
11.77641066790578
  0
ELLIPSE
  5
4657
330
1F
100
AcDbEntity
  8
0
  6
Continuous
 62
     5
100
AcDbEllipse
 10
3440.989809108297
 20
416.3255539411789
 30
0.0
 11
-1.033687712746777
 21
1.029065566366512
 31
0.0
210
0.0
220
0.0
230
1.0
 40
0.9999999999968133
 41
3.922429033934233
 42
10.20561434111382
  0
ELLIPSE
  5
4658
330
1F
100
AcDbEntity
  8
0
  6
Continuous
 62
     5
100
AcDbEllipse
 10
3440.835616117142
 20
410.4657979598
 30
0.0
 11
1.075850586658019
 21
1.080682872430037
 31
0.0
210
0.0
220
0.0
230
1.0
 40
0.9999999999991253
 41
5.493225360727124
 42
11.7764106679067
  0
ELLIPSE
  5
4659
330
1F
100
AcDbEntity
  8
0
  6
Continuous
 62
     5
100
AcDbEllipse
 10
3440.758670391423
 20
404.3655670111011
 30
0.0
 11
1.132793559214039
 21
1.137881609791608
 31
0.0
210
0.0
220
0.0
230
1.0
 40
0.9999999999981909
 41
5.493225360726338
 42
11.77641066790592
  0
ELLIPSE
  5
465A
330
1F
100
AcDbEntity
  8
0
  6
Continuous
 62
     5
100
AcDbEllipse
 10
3440.431382119935
 20
397.9025667996388
 30
0.0
 11
-1.268602957997952
 21
1.262930385423086
 31
0.0
210
0.0
220
0.0
230
0.9999999999999998
 40
0.9999999999980069
 41
3.922429033933645
 42
10.20561434111323
  0
ELLIPSE
  5
465B
330
1F
100
AcDbEntity
  8
0
  6
Continuous
 62
     5
100
AcDbEllipse
 10
3440.3073517744
 20
391.7212484519968
 30
0.0
 11
-1.252962805555153
 21
1.247360168100062
 31
0.0
210
0.0
220
0.0
230
0.9999999999999998
 40
0.9999999999974434
 41
3.92242903393398
 42
10.20561434111356
  0
ELLIPSE
  5
465C
330
1F
100
AcDbEntity
  8
0
  6
Continuous
 62
     5
100
AcDbEllipse
 10
3433.487576681912
 20
395.0485067471063
 30
0.0
 11
1.337731569581761
 21
1.343740118827014
 31
0.0
210
0.0
220
0.0
230
0.9999999999999998
 40
0.9999999999993672
 41
5.493225360727321
 42
11.7764106679069
  0
ELLIPSE
  5
465D
330
1F
100
AcDbEntity
  8
0
  6
Continuous
 62
     5
100
AcDbEllipse
 10
3468.830901581571
 20
413.6452962612452
 30
0.0
 11
8.290887511251945
 21
8.328126825200246
 31
0.0
210
0.0
220
0.0
230
1.0
 40
0.9999999999998006
 41
2.953388652026887
 42
4.367863616170676
  0
LINE
  5
465E
330
1F
100
AcDbEntity
  8
0
  6
Continuous
 62
     5
100
AcDbLine
 39
2500.000155029299
 10
3473.8693290674
 20
403.028811226075
 30
0.0
 11
3465.323263293855
 21
388.3056351941609
 31
0.0
  0
ELLIPSE
  5
465F
330
1F
100
AcDbEntity
  8
0
  6
Continuous
 62
     5
100
AcDbEllipse
 10
3451.704274221944
 20
394.4676917157248
 30
0.0
 11
10.54625425876375
 21
10.59362376809405
 31
0.0
210
0.0
220
0.0
230
0.9999999999999998
 40
0.9999999999991391
 41
4.049383601369564
 42
5.070649108113864
  0
LINE
  5
4660
330
1F
100
AcDbEntity
  8
0
  6
Continuous
 62
     5
100
AcDbLine
 39
2500.000155029299
 10
3459.128206485376
 20
407.0154051247268
 30
0.0
 11
3453.950324464235
 21
434.1432948872721
 31
0.0
  0
ELLIPSE
  5
4661
330
1F
100
AcDbEntity
  8
0
  6
Continuous
 62
     5
100
AcDbEllipse
 10
3450.869819325012
 20
422.0162332063386
 30
0.0
 11
-0.9673501410155818
 21
0.9630246238428355
 31
0.0
210
0.0
220
0.0
230
0.9999999999999998
 40
0.9999999999983106
 41
3.922429033933493
 42
10.20561434111308
  0
ELLIPSE
  5
4662
330
1F
100
AcDbEntity
  8
0
  6
Continuous
 62
     5
100
AcDbEllipse
 10
3450.928549380808
 20
416.3024858718249
 30
0.0
 11
1.029065566365614
 21
1.033687712745874
 31
0.0
210
0.0
220
0.0
230
0.9999999999999998
 40
0.9999999999988942
 41
5.493225360726983
 42
11.77641066790656
  0
ELLIPSE
  5
4663
330
1F
100
AcDbEntity
  8
0
  6
Continuous
 62
     5
100
AcDbEllipse
 10
3451.055539571363
 20
410.4420772571192
 30
0.0
 11
1.075850586657832
 21
1.08068287242985
 31
0.0
210
0.0
220
0.0
230
0.9999999999999998
 40
0.9999999999991741
 41
5.493225360727149
 42
11.77641066790673
  0
ELLIPSE
  5
4664
330
1F
100
AcDbEntity
  8
0
  6
Continuous
 62
     5
100
AcDbEllipse
 10
3451.10416703774
 20
404.3415548498419
 30
0.0
 11
1.132793559214581
 21
1.137881609792152
 31
0.0
210
0.0
220
0.0
230
0.9999999999999998
 40
0.9999999999972118
 41
5.493225360726132
 42
11.77641066790571
  0
ELLIPSE
  5
4665
330
1F
100
AcDbEntity
  8
0
  6
Continuous
 62
     5
100
AcDbEllipse
 10
3451.401450368316
 20
397.8771049917804
 30
0.0
 11
-1.268602957997431
 21
1.262930385422567
 31
0.0
210
0.0
220
0.0
230
1.0
 40
0.9999999999988279
 41
3.922429033933234
 42
10.20561434111282
  0
ELLIPSE
  5
4666
330
1F
100
AcDbEntity
  8
0
  6
Continuous
 62
     5
100
AcDbEllipse
 10
3451.496785537386
 20
391.6952774911915
 30
0.0
 11
1.247360168101651
 21
1.25296280555675
 31
0.0
210
0.0
220
0.0
230
1.0
 40
0.9999999999987551
 41
5.493225360726738
 42
11.77641066790632
  0
ELLIPSE
  5
4667
330
1F
100
AcDbEntity
  8
0
  6
Continuous
 62
     5
100
AcDbEllipse
 10
3458.331932371164
 20
394.9908423646625
 30
0.0
 11
-1.343740118828259
 21
1.337731569583
 31
0.0
210
0.0
220
0.0
230
1.0
 40
0.9999999999972772
 41
3.922429033933861
 42
10.20561434111344
  0
ELLIPSE
  5
4668
330
1F
100
AcDbEntity
  8
0
  6
Continuous
 62
     5
100
AcDbEllipse
 10
3445.81552688029
 20
394.8427720941622
 30
0.0
 11
1.323007442173111
 21
1.328949856592335
 31
0.0
210
0.0
220
0.0
230
1.0
 40
0.9999999999993949
 41
5.493225360727258
 42
11.77641066790684
  0
ELLIPSE
  5
4669
330
1F
100
AcDbEntity
  8
0
  6
Continuous
 62
     5
100
AcDbEllipse
 10
3446.046152620826
 20
413.4072093124027
 30
0.0
 11
-1.196078904435772
 21
1.19073062399239
 31
0.0
210
0.0
220
0.0
230
1.0
 40
0.9999999999976683
 41
3.922429033933691
 42
10.20561434111327
  0
LINE
  5
4746
330
1F
100
AcDbEntity
  8
NOSNÉ KONSTRUKCE
100
AcDbLine
 10
3360.192512547416
 20
405.1014585134298
 30
0.0
 11
4389.428028976482
 21
405.1014585134289
 31
0.0
  0
LINE
  5
4747
330
1F
100
AcDbEntity
  8
NOSNÉ KONSTRUKCE
  6
DASHED
100
AcDbLine
 10
4389.428028976482
 20
413.6871831448288
 30
0.0
 11
3360.180581918251
 21
413.6871831448297
 31
0.0
  0
LINE
  5
4748
330
1F
100
AcDbEntity
  8
NOSNÉ KONSTRUKCE
  6
DASHED
100
AcDbLine
 10
4389.428028976482
 20
420.6014140652623
 30
0.0
 11
3360.180614996588
 21
420.6014140652623
 31
0.0
  0
LINE
  5
4749
330
1F
100
AcDbEntity
  8
NOSNÉ KONSTRUKCE
  6
DASHED
100
AcDbLine
 10
4389.428028976482
 20
418.6014273150449
 30
0.0
 11
3360.180566745558
 21
418.6014273150449
 31
0.0
  0
LINE
  5
474A
330
1F
100
AcDbEntity
  8
NOSNÉ KONSTRUKCE
  6
DASHED
100
AcDbLine
 10
4389.428028976482
 20
425.5156582354929
 30
0.0
 11
3360.180653679507
 21
425.5156582354929
 31
0.0
  0
LINE
  5
474B
330
1F
100
AcDbEntity
  8
NOSNÉ KONSTRUKCE
  6
DASHED
100
AcDbLine
 10
4389.428028976482
 20
428.6871411189785
 30
0.0
 11
3360.180653679507
 21
428.6871411189785
 31
0.0
  0
LINE
  5
474F
330
1F
100
AcDbEntity
  8
NOSNÉ KONSTRUKCE
  6
DASHED
100
AcDbLine
 10
3404.043133380628
 20
434.1014020032371
 30
0.0
 11
4389.428028976482
 21
434.1014020032371
 31
0.0
  0
HATCH
  5
4752
330
1F
100
AcDbEntity
  8
NOSNÉ KONSTRUKCE
100
AcDbHatch
 10
0.0
 20
0.0
 30
0.0
210
0.0
220
0.0
230
1.0
  2
SOLID
 70
     1
 71
     0
 91
        1
 92
        7
 72
     0
 73
     1
 93
       68
 10
3476.905009249882
 20
395.7500977035988
 10
3475.319236982071
 20
397.3358467318721
 10
3476.905024422583
 20
398.9215805870762
 10
3476.905050324824
 20
404.335822334996
 10
3472.905058730003
 20
404.3358414713439
 10
3472.905053945916
 20
403.3358414713538
 10
3475.905045540744
 20
403.3358271191046
 10
3475.905026404262
 20
399.3358060284263
 10
3473.905006290904
 20
397.3358534976851
 10
3475.905007268232
 20
395.3358818304522
 10
3475.904988131743
 20
391.3358607397804
 10
3473.90497041029
 20
389.8358745105997
 10
3475.904973779494
 20
388.3358691449375
 10
3475.904954643006
 20
384.3358480542683
 10
3473.904934529654
 20
382.3358955235298
 10
3475.904935506982
 20
380.3359238562916
 10
3475.904916370494
 20
376.3359027656188
 10
3464.904979487011
 20
376.3359553903828
 10
3462.904978509675
 20
378.3359270576147
 10
3458.90500586534
 20
378.3359461938725
 10
3456.904985751995
 20
376.3359936631286
 10
3445.905048868505
 20
376.3360462878881
 10
3434.905111985007
 20
376.3360989126531
 10
3432.905111007686
 20
378.3360705798841
 10
3428.905138363358
 20
378.3360897161446
 10
3426.905118250007
 20
376.336137185397
 10
3415.905181366509
 20
376.3361898101602
 10
3415.905200503005
 20
380.336210900833
 10
3417.905220616342
 20
382.3361634315806
 10
3415.905219639021
 20
384.3361350988143
 10
3415.905238775502
 20
388.336156189488
 10
3417.905256496978
 20
389.8361424186568
 10
3415.905253127759
 20
391.3361477843264
 10
3415.905272264247
 20
395.3361688749964
 10
3417.905292377599
 20
397.3361214057331
 10
3415.905291400278
 20
399.3360930729814
 10
3415.905310536752
 20
403.3361141636442
 10
3418.905043789865
 20
403.3360998126317
 10
3418.905039007007
 20
404.3358414713429
 10
3414.905047412178
 20
404.335822334996
 10
3414.90507331442
 20
398.9215805870871
 10
3416.49086075494
 20
397.3358467318658
 10
3414.90508848712
 20
395.7500977035979
 10
3414.905111997347
 20
390.8358535333663
 10
3416.238452047367
 20
389.8358665370679
 10
3414.905121565457
 20
388.8358667831507
 10
3414.905145075684
 20
383.9216226129319
 10
3416.490932516196
 20
382.3358887577132
 10
3414.905160248369
 20
380.7501397294345
 10
3414.905162228623
 20
380.3362156847479
 10
3414.90520050302
 20
380.3362156849307
 10
3414.905181366524
 20
376.3361945942597
 10
3414.905186150633
 20
375.3358979815347
 10
3427.319329501627
 20
375.3359573719981
 10
3429.319330478963
 20
377.3359290392308
 10
3432.490890188233
 20
377.3359442122791
 10
3434.490801084673
 20
375.3361008947431
 10
3457.319187435433
 20
375.3359916815343
 10
3459.3192075488
 20
377.33594421228
 10
3462.490767258055
 20
377.3359290392308
 10
3464.490768235376
 20
375.3359573719972
 10
3476.904911586377
 20
375.3358979815339
 10
3476.90493748864
 20
380.7501397294272
 10
3475.319165220814
 20
382.335888757716
 10
3476.904952661334
 20
383.9216226129392
 10
3476.904976171553
 20
388.8358667831516
 10
3475.571645689643
 20
389.8358665370633
 10
3476.904985739663
 20
390.8358535333627
 97
        0
 75
     0
 76
     1
 47
0.131671459398827
 98
        1
 10
3476.224633567605
 20
393.6190159510006
  0
LINE
  5
4753
330
1F
100
AcDbEntity
  8
NOSNÉ KONSTRUKCE
100
AcDbLine
 39
2500.000155029299
 10
3476.904911586377
 20
375.3358979815347
 30
0.0
 11
3464.490768235376
 21
375.3359573719972
 31
0.0
  0
LINE
  5
4754
330
1F
100
AcDbEntity
  8
NOSNÉ KONSTRUKCE
100
AcDbLine
 39
2500.000155029299
 10
3476.90493748864
 20
380.7501397294345
 30
0.0
 11
3476.904911586377
 21
375.3358979815347
 31
0.0
  0
LINE
  5
4755
330
1F
100
AcDbEntity
  8
NOSNÉ KONSTRUKCE
100
AcDbLine
 39
2500.000155029299
 10
3476.90493748864
 20
380.7501397294345
 30
0.0
 11
3475.319165220814
 21
382.3358887577132
 31
0.0
  0
LINE
  5
4756
330
1F
100
AcDbEntity
  8
NOSNÉ KONSTRUKCE
100
AcDbLine
 39
2500.000155029299
 10
3475.319165220814
 20
382.3358887577132
 30
0.0
 11
3476.904952661326
 21
383.9216226129356
 31
0.0
  0
LINE
  5
4757
330
1F
100
AcDbEntity
  8
NOSNÉ KONSTRUKCE
100
AcDbLine
 39
2500.000155029299
 10
3475.904935506982
 20
380.3359238562916
 30
0.0
 11
3473.904934529661
 21
382.3358955235271
 31
0.0
  0
LINE
  5
4758
330
1F
100
AcDbEntity
  8
NOSNÉ KONSTRUKCE
100
AcDbLine
 39
2500.000155029299
 10
3473.904934529661
 20
382.3358955235271
 30
0.0
 11
3475.904954643013
 21
384.3358480542738
 31
0.0
  0
LINE
  5
4759
330
1F
100
AcDbEntity
  8
NOSNÉ KONSTRUKCE
100
AcDbLine
 39
2500.000155029299
 10
3475.904916370494
 20
376.3359027656188
 30
0.0
 11
3464.904979487004
 21
376.3359553903819
 31
0.0
  0
LINE
  5
475A
330
1F
100
AcDbEntity
  8
NOSNÉ KONSTRUKCE
100
AcDbLine
 39
2500.000155029299
 10
3475.904935506982
 20
380.3359238562916
 30
0.0
 11
3475.904916370494
 21
376.3359027656188
 31
0.0
  0
HATCH
  5
4DF8
330
1F
100
AcDbEntity
  8
STAVBA OBRYS
100
AcDbHatch
 10
0.0
 20
0.0
 30
0.0
210
0.0
220
0.0
230
1.0
  2
AR-CONC
 70
     0
 71
     0
 91
        1
 92
        1
 93
        4
 72
     1
 10
3372.590396536073
 20
649.7958492821162
 11
4389.439499087067
 21
649.7958492821162
 72
     1
 10
4389.439499087067
 20
649.7958492821162
 11
4389.439499087067
 21
689.7958492821162
 72
     1
 10
4389.439499087067
 20
689.7958492821162
 11
3372.590396536073
 21
689.7958492821162
 72
     1
 10
3372.590396536073
 20
689.7958492821162
 11
3372.590396536073
 21
649.7958492821162
 97
        0
 75
     0
 76
     1
 52
0.0
 41
0.25
 77
     0
 78
    13
 53
50.0
 43
-31116.08288051244
 44
-3797.226230960501
 45
45.546167249001
 46
-3.984771384725771
 79
     2
 49
4.7625
 49
-52.3875
 53
355.0
 43
-31116.08288051244
 44
-3797.226230960501
 45
-8.810706493916747
 46
47.76416072054499
 79
     2
 49
3.81
 49
-41.90999999999999
 53
100.451
 43
-31112.28738051244
 44
-3797.558293460501
 45
36.73562541648981
 46
43.77917195507296
 79
     2
 49
4.0475
 49
-44.5225
 53
46.1842
 43
-31116.08288051244
 44
-3784.526230960501
 45
67.76976022303248
 46
-10.51058198318178
 79
     2
 49
7.143749999999999
 49
-78.58125
 53
96.63559999999998
 43
-31110.43540551244
 44
-3785.402105960501
 45
59.35105861655928
 46
61.8563889725123
 79
     2
 49
6.071249999999996
 49
-66.78374999999994
 53
351.184
 43
-31116.08288051244
 44
-3784.526230960501
 45
59.35115145348348
 46
61.85627946514942
 79
     2
 49
5.714999999999999
 49
-62.865
 53
21.0
 43
-31109.73288051244
 44
-3787.701230960501
 45
37.90371995884582
 46
-25.56637962919062
 79
     2
 49
4.7625
 49
-52.3875
 53
326.0
 43
-31109.73288051244
 44
-3787.701230960501
 45
15.45050708691176
 46
46.04699153057981
 79
     2
 49
3.81
 49
-41.90999999999999
 53
71.45140000000001
 43
-31106.57425551243
 44
-3789.831755960501
 45
53.35412269253112
 46
20.48071442901436
 79
     2
 49
4.0475
 49
-44.5225
 53
37.5
 43
-31116.08288051244
 44
-3797.226230960501
 45
0.7721508126479542
 46
21.13875971828827
 79
     6
 49
0.0
 49
-41.402
 49
0.0
 49
-42.545
 49
0.0
 49
-42.06875
 53
7.499999999999999
 43
-31116.08288051244
 44
-3797.226230960501
 45
16.70491562757643
 46
25.04514370452987
 79
     6
 49
0.0
 49
-24.25699999999999
 49
0.0
 49
-40.4495
 49
0.0
 49
-16.03375
 53
327.4999999999999
 43
-31130.24338051244
 44
-3797.226230960501
 45
33.89764879171784
 46
-1.432185998168366
 79
     6
 49
0.0
 49
-15.875
 49
0.0
 49
-49.53
 49
0.0
 49
-65.7225
 53
317.5
 43
-31136.59338051243
 44
-3797.226230960501
 45
37.03229534650451
 46
6.356622758333253
 79
     6
 49
0.0
 49
-20.6375
 49
0.0
 49
-32.893
 49
0.0
 49
-46.6725
 98
        1
 10
-31116.08288051244
 20
-3797.226230960501
  0
INSERT
  5
4DF9
330
1F
100
AcDbEntity
  8
POPIS
100
AcDbBlockReference
  2
E_PUNKT
 10
3963.094079608712
 20
478.3220287033418
 30
0.0
  0
TEXT
  5
4DFA
330
1F
100
AcDbEntity
  8
POPIS
100
AcDbText
 10
4006.873638689717
 20
219.9272773391867
 30
0.0
 40
25.0
  1
07
 41
0.85
  7
SIMPLEX7
100
AcDbText
  0
LINE
  5
4DFB
330
1F
100
AcDbEntity
  8
POPIS
100
AcDbLine
 10
4023.241020241049
 20
300.0086083439805
 30
0.0
 11
4023.241020241049
 21
251.5392113262278
 31
0.0
  0
INSERT
  5
4DFC
330
1F
100
AcDbEntity
  8
POPIS
100
AcDbBlockReference
  2
E_PUNKT
 10
3476.189053879719
 20
376.5638054073151
 30
0.0
  0
LINE
  5
4DFD
330
1F
100
AcDbEntity
  8
POPIS
100
AcDbLine
 10
3552.665414313345
 20
425.5156582354929
 30
0.0
 11
3552.665414313345
 21
251.5392113262278
 31
0.0
  0
TEXT
  5
4DFE
330
1F
100
AcDbEntity
  8
POPIS
100
AcDbText
 10
3536.298032762013
 20
219.9272773391867
 30
0.0
 40
25.0
  1
06
 41
0.85
  7
SIMPLEX7
100
AcDbText
  0
HATCH
  5
4DFF
330
1F
100
AcDbEntity
  8
STAVBA OBRYS
100
AcDbHatch
 10
0.0
 20
0.0
 30
0.0
210
0.0
220
0.0
230
1.0
  2
BRICK
 70
     0
 71
     0
 91
        1
 92
        7
 72
     0
 73
     1
 93
        4
 10
3357.590396536073
 20
799.1677760033899
 10
3107.590396536073
 20
799.1677760033908
 10
3107.590396536073
 20
288.9453304398316
 10
3357.590396536073
 20
288.9453304398325
 97
        0
 75
     0
 76
     1
 52
0.0
 41
12.0
 77
     0
 78
     3
 53
0.0
 43
-31116.08288051244
 44
-3797.226230960501
 45
0.0
 46
76.19999999999999
 79
     0
 53
90.0
 43
-31116.08288051244
 44
-3797.226230960501
 45
-152.3999999999999
 46
0.0000000000000093
 79
     2
 49
76.19999999999999
 49
-76.19999999999999
 53
90.0
 43
-31039.88288051244
 44
-3797.226230960501
 45
-152.3999999999999
 46
0.0000000000000093
 79
     2
 49
-76.19999999999999
 49
76.19999999999999
 47
2.485350034153255
 98
        1
 10
3277.860485299958
 20
553.0082859543672
  0
LINE
  5
4E00
102
{ACAD_REACTORS
330
43CF
102
}
330
1F
100
AcDbEntity
  8
STAVBA OBRYS
100
AcDbLine
 10
3393.564325614355
 20
714.860055167488
 30
0.0
 11
3383.564325614354
 21
724.8600551674881
 31
0.0
  0
LINE
  5
4E01
102
{ACAD_REACTORS
330
43CF
102
}
330
1F
100
AcDbEntity
  8
STAVBA OBRYS
100
AcDbLine
 10
3393.564325614355
 20
704.8600551674881
 30
0.0
 11
3393.564325614355
 21
714.860055167488
 31
0.0
  0
LINE
  5
4E02
102
{ACAD_REACTORS
330
43CF
102
}
330
1F
100
AcDbEntity
  8
STAVBA OBRYS
100
AcDbLine
 10
3373.564325614355
 20
704.8600551674881
 30
0.0
 11
3393.564325614355
 21
704.8600551674881
 31
0.0
  0
LINE
  5
4E03
102
{ACAD_REACTORS
330
43CF
102
}
330
1F
100
AcDbEntity
  8
STAVBA OBRYS
100
AcDbLine
 10
3373.564325614355
 20
724.8600551674881
 30
0.0
 11
3383.564325614354
 21
724.8600551674881
 31
0.0
  0
LINE
  5
4E04
102
{ACAD_REACTORS
330
43CF
102
}
330
1F
100
AcDbEntity
  8
STAVBA OBRYS
100
AcDbLine
 10
3373.564325614355
 20
704.8600551674881
 30
0.0
 11
3373.564325614355
 21
724.8600551674881
 31
0.0
  0
LINE
  5
4E05
330
1F
100
AcDbEntity
  8
STAVBA OBRYS
100
AcDbLine
 10
3372.590396536073
 20
799.1677760033908
 30
0.0
 11
3372.590396536073
 21
649.7958492821162
 31
0.0
  0
LINE
  5
4E06
330
1F
100
AcDbEntity
  8
STAVBA OBRYS
100
AcDbLine
 10
3372.590396536065
 20
373.5392128008202
 30
0.0
 11
3372.590396536073
 21
288.9453304398321
 31
0.0
  0
LINE
  5
4E07
330
1F
100
AcDbEntity
  8
STAVBA OBRYS
100
AcDbLine
 10
3107.590396536073
 20
799.1677760033908
 30
0.0
 11
3107.590396536073
 21
288.9453304398321
 31
0.0
  0
INSERT
  5
4E0B
330
1F
100
AcDbEntity
  8
POPIS
100
AcDbBlockReference
  2
E_PUNKT
 10
3933.207504987676
 20
361.5101444699484
 30
0.0
  0
LINE
  5
4E0C
330
1F
100
AcDbEntity
  8
CETRIS
100
AcDbLine
 10
3489.961984855977
 20
361.5392128008206
 30
0.0
 11
3379.590396536073
 21
361.5392128008206
 31
0.0
  0
LINE
  5
4E0D
330
1F
100
AcDbEntity
  8
CETRIS
100
AcDbLine
 10
3489.961984855977
 20
373.5392128008206
 30
0.0
 11
3379.590396536073
 21
373.5392128008206
 31
0.0
  0
TEXT
  5
4E0E
330
1F
100
AcDbEntity
  8
POPIS
100
AcDbText
 10
3935.406174884391
 20
219.9272773391867
 30
0.0
 40
25.0
  1
03
 41
0.85
  7
SIMPLEX7
100
AcDbText
  0
LINE
  5
4E0F
330
1F
100
AcDbEntity
  8
POPIS
100
AcDbLine
 10
3951.773556435723
 20
360.2987117050251
 30
0.0
 11
3951.773556435723
 21
251.5392113262278
 31
0.0
  0
LINE
  5
4E10
330
1F
100
AcDbEntity
  8
POPIS
100
AcDbLine
 10
3911.732279464845
 20
300.0086083439682
 30
0.0
 11
3911.732279464845
 21
251.5392113262278
 31
0.0
  0
LINE
  5
4E11
330
1F
100
AcDbEntity
  8
POPIS
100
AcDbLine
 10
3931.985115363302
 20
361.5392128008206
 30
0.0
 11
3911.732279464845
 21
300.0086083439682
 31
0.0
  0
TEXT
  5
4E12
330
1F
100
AcDbEntity
  8
POPIS
100
AcDbText
 10
3895.364897913513
 20
219.9272773391867
 30
0.0
 40
25.0
  1
02
 41
0.85
  7
SIMPLEX7
100
AcDbText
  0
INSERT
  5
4E13
330
1F
100
AcDbEntity
  8
POPIS
100
AcDbBlockReference
  2
E_PUNKT
 10
3853.640313556806
 20
361.1799640905883
 30
0.0
  0
TEXT
  5
4E14
330
1F
100
AcDbEntity
  8
POPIS
100
AcDbText
 10
3837.348103442661
 20
219.9272773391867
 30
0.0
 40
25.0
  1
01
 41
0.85
  7
SIMPLEX7
100
AcDbText
  0
TEXT
  5
4E15
330
1F
100
AcDbEntity
  8
POPIS
100
AcDbText
 10
3104.781880769074
 20
868.9848033716407
 30
0.0
 40
35.0
  1
Řez příčný
 41
0.85
  7
SIMPLEX7
100
AcDbText
  0
HATCH
  5
4E16
330
1F
100
AcDbEntity
  8
izolace
100
AcDbHatch
 10
0.0
 20
0.0
 30
0.0
210
0.0
220
0.0
230
1.0
  2
AR-SAND
 70
     0
 71
     0
 91
        1
 92
        7
 72
     1
 73
     1
 93
        6
 10
3379.590396536073
 20
373.5392128008197
 42
0.0
 10
3372.590396536073
 20
373.5392128008206
 42
0.0
 10
3372.590396536073
 20
361.5392128008206
 42
0.0
 10
3374.047279437082
 20
361.5392128008206
 42
-1.0
 10
3376.547279437083
 20
361.5392128008206
 42
0.0
 10
3379.590396536066
 20
361.5392128008206
 42
0.0
 97
        0
 75
     0
 76
     1
 52
90.0
 41
0.05
 77
     0
 78
     4
 53
127.5
 43
-29149.25915687003
 44
-3980.285812486242
 45
-2.447066186646711
 46
-0.0800015647992021
 79
     6
 49
0.0
 49
-1.9304
 49
0.0
 49
-2.159
 49
0.0
 49
-2.06375
 53
97.49999999999987
 43
-29149.25915687003
 44
-3980.285812486242
 45
-3.584125502841771
 46
2.247616415690013
 79
     6
 49
0.0
 49
-1.041399999999999
 49
0.0
 49
-1.7399
 49
0.0
 49
-0.66675
 53
57.5
 43
-29149.25915687003
 44
-3981.847912486241
 45
-0.0071859233927282
 46
3.95496185120729
 79
     6
 49
0.0
 49
-0.635
 49
0.0
 49
-2.286
 49
0.0
 49
-2.9845
 53
47.5
 43
-29149.25915687003
 44
-3981.847912486241
 45
-1.11464661628608
 46
3.817782262361486
 79
     6
 49
0.0
 49
-0.3175
 49
0.0
 49
-1.498599999999999
 49
0.0
 49
-1.7145
 47
0.2169446325764043
 98
        1
 10
3377.881699847547
 20
367.42124290842
  0
INSERT
  5
4E17
330
1F
100
AcDbEntity
  8
POPIS
100
AcDbBlockReference
  2
E_PUNKT
 10
3951.592137635979
 20
361.5101444699484
 30
0.0
  0
LWPOLYLINE
  5
4E18
330
1F
100
AcDbEntity
  8
izolace
100
AcDbPolyline
 90
        4
 70
     1
 43
0.0
 10
3379.590396536073
 20
373.5392128008206
 10
3372.590396536073
 20
373.5392128008206
 10
3372.590396536073
 20
361.5392128008206
 10
3379.590396536073
 20
361.5392128008206
  0
LINE
  5
4E19
330
1F
100
AcDbEntity
  8
SPOJOVACÍ
  6
Continuous
100
AcDbLine
 10
3428.466571650448
 20
365.201314908776
 30
0.0
 11
3429.424652720433
 21
363.9939467258773
 31
0.0
  0
LINE
  5
4E1A
330
1F
100
AcDbEntity
  8
SPOJOVACÍ
  6
Continuous
100
AcDbLine
 10
3427.853585801301
 20
366.6151821184794
 30
0.0
 11
3428.466571650448
 21
365.201314908776
 31
0.0
  0
LINE
  5
4E1B
330
1F
100
AcDbEntity
  8
SPOJOVACÍ
  6
Continuous
100
AcDbLine
 10
3427.626622910417
 20
368.1388100719086
 30
0.0
 11
3427.853585801301
 21
366.6151821184794
 31
0.0
  0
LINE
  5
4E1C
330
1F
100
AcDbEntity
  8
SPOJOVACÍ
  6
Continuous
100
AcDbLine
 10
3431.3770917155
 20
361.5392128008206
 30
0.0
 11
3431.3770917155
 21
362.7391395775521
 31
0.0
  0
LINE
  5
4E1D
330
1F
100
AcDbEntity
  8
SPOJOVACÍ
  6
Continuous
100
AcDbLine
 10
3421.176783938232
 20
361.5392128008206
 30
0.0
 11
3431.3770917155
 21
361.5392128008206
 31
0.0
  0
LINE
  5
4E1E
330
1F
100
AcDbEntity
  8
SPOJOVACÍ
  6
Continuous
100
AcDbLine
 10
3421.176783938232
 20
361.5392128008206
 30
0.0
 11
3421.176783938232
 21
362.7391395775521
 31
0.0
  0
LINE
  5
4E1F
330
1F
100
AcDbEntity
  8
SPOJOVACÍ
  6
Continuous
100
AcDbLine
 10
3421.176783938232
 20
362.7391395775521
 30
0.0
 11
3431.3770917155
 21
362.7391395775521
 31
0.0
  0
LINE
  5
4E20
330
1F
100
AcDbEntity
  8
SPOJOVACÍ
  6
Continuous
100
AcDbLine
 10
3430.661786529332
 20
363.0758632154357
 30
0.0
 11
3431.3770917155
 21
362.7391395775521
 31
0.0
  0
LINE
  5
4E21
330
1F
100
AcDbEntity
  8
SPOJOVACÍ
  6
Continuous
100
AcDbLine
 10
3429.424652720433
 20
363.9939467258773
 30
0.0
 11
3430.661786529332
 21
363.0758632154357
 31
0.0
  0
LINE
  5
4E22
330
1F
100
AcDbEntity
  8
SPOJOVACÍ
  6
Continuous
100
AcDbLine
 10
3424.861210265759
 20
367.3518813487862
 30
0.0
 11
3424.927252747681
 21
368.1388100719086
 31
0.0
  0
LINE
  5
4E23
330
1F
100
AcDbEntity
  8
SPOJOVACÍ
  6
Continuous
100
AcDbLine
 10
3424.43332940146
 20
365.871041481736
 30
0.0
 11
3424.861210265759
 21
367.3518813487862
 31
0.0
  0
LINE
  5
4E24
330
1F
100
AcDbEntity
  8
SPOJOVACÍ
  6
Continuous
100
AcDbLine
 10
3423.637098922142
 20
364.5520522034384
 30
0.0
 11
3424.43332940146
 21
365.871041481736
 31
0.0
  0
LINE
  5
4E25
330
1F
100
AcDbEntity
  8
SPOJOVACÍ
  6
Continuous
100
AcDbLine
 10
3422.526469021783
 20
363.4832802140262
 30
0.0
 11
3423.637098922142
 21
364.5520522034384
 31
0.0
  0
LINE
  5
4E26
330
1F
100
AcDbEntity
  8
SPOJOVACÍ
  6
Continuous
100
AcDbLine
 10
3421.176783938232
 20
362.7391395775521
 30
0.0
 11
3422.526469021783
 21
363.4832802140262
 31
0.0
  0
LINE
  5
4E27
330
1F
100
AcDbEntity
  8
SPOJOVACÍ
  6
Continuous
100
AcDbLine
 10
3427.626622910417
 20
368.1388100719086
 30
0.0
 11
3427.626622910417
 21
373.0817642508373
 31
0.0
  0
LINE
  5
4E28
330
1F
100
AcDbEntity
  8
SPOJOVACÍ
  6
Continuous
100
AcDbLine
 10
3424.927252747681
 20
368.1388100719086
 30
0.0
 11
3424.927252747681
 21
372.1767032015886
 31
0.0
  0
LINE
  5
4E29
330
1F
100
AcDbEntity
  8
SPOJOVACÍ
  6
Continuous
100
AcDbLine
 10
3424.927252747681
 20
372.7720157107651
 30
0.0
 11
3424.927252747681
 21
375.2909317657941
 31
0.0
  0
LINE
  5
4E2A
330
1F
100
AcDbEntity
  8
SPOJOVACÍ
  6
Continuous
100
AcDbLine
 10
3424.927252747681
 20
375.8946158571088
 30
0.0
 11
3424.927252747681
 21
378.4153922638179
 31
0.0
  0
LINE
  5
4E2B
330
1F
100
AcDbEntity
  8
SPOJOVACÍ
  6
Continuous
100
AcDbLine
 10
3424.927252747681
 20
379.0097745972925
 30
0.0
 11
3424.927252747681
 21
381.5379924101616
 31
0.0
  0
LINE
  5
4E2C
330
1F
100
AcDbEntity
  8
SPOJOVACÍ
  6
Continuous
100
AcDbLine
 10
3427.626622910417
 20
373.685448342152
 30
0.0
 11
3427.626622910417
 21
376.204364397181
 31
0.0
  0
LINE
  5
4E2D
330
1F
100
AcDbEntity
  8
SPOJOVACÍ
  6
Continuous
100
AcDbLine
 10
3427.626622910417
 20
376.8006070823357
 30
0.0
 11
3427.626622910417
 21
379.3288248952048
 31
0.0
  0
LINE
  5
4E2E
330
1F
100
AcDbEntity
  8
SPOJOVACÍ
  6
Continuous
100
AcDbLine
 10
3427.626622910417
 20
379.9232072286795
 30
0.0
 11
3427.626622910417
 21
382.4439836353885
 31
0.0
  0
LINE
  5
4E2F
330
1F
100
AcDbEntity
  8
SPOJOVACÍ
  6
Continuous
100
AcDbLine
 10
3424.927252747681
 20
382.1426066774474
 30
0.0
 11
3424.927252747681
 21
384.6605925567746
 31
0.0
  0
LINE
  5
4E30
330
1F
100
AcDbEntity
  8
SPOJOVACÍ
  6
Continuous
100
AcDbLine
 10
3424.927252747681
 20
385.2568352419293
 30
0.0
 11
3424.927252747681
 21
386.504200983818
 31
0.0
  0
LINE
  5
4E31
330
1F
100
AcDbEntity
  8
SPOJOVACÍ
  6
Continuous
100
AcDbLine
 10
3427.626622910417
 20
383.0448771993214
 30
0.0
 11
3427.626622910417
 21
385.5637932543504
 31
0.0
  0
LINE
  5
4E32
330
1F
100
AcDbEntity
  8
SPOJOVACÍ
  6
Continuous
100
AcDbLine
 10
3427.626622910417
 20
386.1674773459344
 30
0.0
 11
3427.626622910417
 21
386.504200983818
 31
0.0
  0
LINE
  5
4E33
330
1F
100
AcDbEntity
  8
SPOJOVACÍ
  6
Continuous
100
AcDbLine
 10
3424.927252747681
 20
386.504200983818
 30
0.0
 11
3425.077011050404
 21
387.7013372331748
 31
0.0
  0
LINE
  5
4E34
330
1F
100
AcDbEntity
  8
SPOJOVACÍ
  6
Continuous
100
AcDbLine
 10
3426.276937826866
 20
397.3044721487713
 30
0.0
 11
3426.631334807995
 21
394.4683661475028
 31
0.0
  0
LINE
  5
4E35
330
1F
100
AcDbEntity
  8
SPOJOVACÍ
  6
Continuous
100
AcDbLine
 10
3425.15421564293
 20
388.3217644890283
 30
0.0
 11
3425.444430492449
 21
390.6434832750928
 31
0.0
  0
LINE
  5
4E36
330
1F
100
AcDbEntity
  8
SPOJOVACÍ
  6
Continuous
100
AcDbLine
 10
3425.523495435288
 20
391.2741424647574
 30
0.0
 11
3425.813710280442
 21
393.594931075113
 31
0.0
  0
LINE
  5
4E37
330
1F
100
AcDbEntity
  8
SPOJOVACÍ
  6
Continuous
100
AcDbLine
 10
3425.890914872967
 20
394.2153583309664
 30
0.0
 11
3426.276937826866
 21
397.3044721487713
 31
0.0
  0
LINE
  5
4E38
330
1F
100
AcDbEntity
  8
SPOJOVACÍ
  6
Continuous
100
AcDbLine
 10
3426.702958345219
 20
393.8990985604359
 30
0.0
 11
3426.97084897353
 21
391.7541131754515
 31
0.0
  0
LINE
  5
4E39
330
1F
100
AcDbEntity
  8
SPOJOVACÍ
  6
Continuous
100
AcDbLine
 10
3427.042472506388
 20
391.1820550610027
 30
0.0
 11
3427.309432961726
 21
389.0454412581494
 31
0.0
  0
LINE
  5
4E3A
330
1F
100
AcDbEntity
  8
SPOJOVACÍ
  6
Continuous
100
AcDbLine
 10
3427.381056498949
 20
388.4752434951042
 30
0.0
 11
3427.626622910417
 21
386.504200983818
 31
0.0
  0
LINE
  5
4E3B
330
1F
100
AcDbEntity
  8
SPOJOVACÍ
  6
Continuous
100
AcDbLine
 10
3423.877084273942
 20
372.3394839657739
 30
0.0
 11
3428.676791379791
 21
373.5394107422361
 31
0.0
  0
LINE
  5
4E3C
330
1F
100
AcDbEntity
  8
SPOJOVACÍ
  6
Continuous
100
AcDbLine
 10
3423.877084273942
 20
372.3394839657739
 30
0.0
 11
3424.254735649252
 21
372.5571451018222
 31
0.0
  0
LINE
  5
4E3D
330
1F
100
AcDbEntity
  8
SPOJOVACÍ
  6
Continuous
100
AcDbLine
 10
3423.877084273942
 20
372.3394839657739
 30
0.0
 11
3424.254735649252
 21
371.9609024169439
 31
0.0
  0
LINE
  5
4E3E
330
1F
100
AcDbEntity
  8
SPOJOVACÍ
  6
Continuous
100
AcDbLine
 10
3428.676791379791
 20
373.5394107422361
 30
0.0
 11
3428.299140008845
 21
373.9170621153643
 31
0.0
  0
LINE
  5
4E3F
330
1F
100
AcDbEntity
  8
SPOJOVACÍ
  6
Continuous
100
AcDbLine
 10
3428.676791379791
 20
373.5394107422361
 30
0.0
 11
3428.299140008845
 21
373.3208194302096
 31
0.0
  0
LINE
  5
4E40
330
1F
100
AcDbEntity
  8
SPOJOVACÍ
  6
Continuous
100
AcDbLine
 10
3424.254735649252
 20
372.5571451018222
 30
0.0
 11
3428.299140008845
 21
373.9170621153643
 31
0.0
  0
LINE
  5
4E41
330
1F
100
AcDbEntity
  8
SPOJOVACÍ
  6
Continuous
100
AcDbLine
 10
3424.254735649252
 20
371.9609024169439
 30
0.0
 11
3428.299140008845
 21
373.3208194302096
 31
0.0
  0
LINE
  5
4E42
330
1F
100
AcDbEntity
  8
SPOJOVACÍ
  6
Continuous
100
AcDbLine
 10
3423.877084273942
 20
375.4592935847358
 30
0.0
 11
3428.676791379791
 21
376.6592203614745
 31
0.0
  0
LINE
  5
4E43
330
1F
100
AcDbEntity
  8
SPOJOVACÍ
  6
Continuous
100
AcDbLine
 10
3423.877084273942
 20
375.4592935847358
 30
0.0
 11
3424.254735649252
 21
375.6778848967623
 31
0.0
  0
LINE
  5
4E44
330
1F
100
AcDbEntity
  8
SPOJOVACÍ
  6
Continuous
100
AcDbLine
 10
3423.877084273942
 20
375.4592935847358
 30
0.0
 11
3424.254735649252
 21
375.0816422116077
 31
0.0
  0
LINE
  5
4E45
330
1F
100
AcDbEntity
  8
SPOJOVACÍ
  6
Continuous
100
AcDbLine
 10
3428.676791379791
 20
376.6592203614745
 30
0.0
 11
3428.299140008845
 21
377.0368717343262
 31
0.0
  0
LINE
  5
4E46
330
1F
100
AcDbEntity
  8
SPOJOVACÍ
  6
Continuous
100
AcDbLine
 10
3428.676791379791
 20
376.6592203614745
 30
0.0
 11
3428.299140008845
 21
376.440629049448
 31
0.0
  0
LINE
  5
4E47
330
1F
100
AcDbEntity
  8
SPOJOVACÍ
  6
Continuous
100
AcDbLine
 10
3424.254735649252
 20
375.6778848967623
 30
0.0
 11
3428.299140008845
 21
377.0368717343262
 31
0.0
  0
LINE
  5
4E48
330
1F
100
AcDbEntity
  8
SPOJOVACÍ
  6
Continuous
100
AcDbLine
 10
3424.254735649252
 20
375.0816422116077
 30
0.0
 11
3428.299140008845
 21
376.440629049448
 31
0.0
  0
LINE
  5
4E49
330
1F
100
AcDbEntity
  8
SPOJOVACÍ
  6
Continuous
100
AcDbLine
 10
3424.131022268363
 20
387.8966741501972
 30
0.0
 11
3424.509603816647
 21
388.1152654622237
 31
0.0
  0
LINE
  5
4E4A
330
1F
100
AcDbEntity
  8
SPOJOVACÍ
  6
Continuous
100
AcDbLine
 10
3424.131022268363
 20
387.8966741501972
 30
0.0
 11
3424.509603816647
 21
387.519022777069
 31
0.0
  0
LINE
  5
4E4B
330
1F
100
AcDbEntity
  8
SPOJOVACÍ
  6
Continuous
100
AcDbLine
 10
3428.256351921106
 20
388.8696380325018
 30
0.0
 11
3427.87870055016
 21
389.2482195816083
 31
0.0
  0
LINE
  5
4E4C
330
1F
100
AcDbEntity
  8
SPOJOVACÍ
  6
Continuous
100
AcDbLine
 10
3428.256351921106
 20
388.8696380325018
 30
0.0
 11
3427.87870055016
 21
388.6519768964535
 31
0.0
  0
LINE
  5
4E4D
330
1F
100
AcDbEntity
  8
SPOJOVACÍ
  6
Continuous
100
AcDbLine
 10
3424.509603816647
 20
388.1152654622237
 30
0.0
 11
3427.87870055016
 21
389.2482195816083
 31
0.0
  0
LINE
  5
4E4E
330
1F
100
AcDbEntity
  8
SPOJOVACÍ
  6
Continuous
100
AcDbLine
 10
3424.509603816647
 20
387.519022777069
 30
0.0
 11
3427.87870055016
 21
388.6519768964535
 31
0.0
  0
LINE
  5
4E4F
330
1F
100
AcDbEntity
  8
SPOJOVACÍ
  6
Continuous
100
AcDbLine
 10
3424.131022268363
 20
387.8966741501972
 30
0.0
 11
3428.256351921106
 21
388.8696380325018
 31
0.0
  0
LINE
  5
4E50
330
1F
100
AcDbEntity
  8
SPOJOVACÍ
  6
Continuous
100
AcDbLine
 10
3424.695638974469
 20
390.9113739044951
 30
0.0
 11
3425.07329034978
 21
391.1290350405434
 31
0.0
  0
LINE
  5
4E51
330
1F
100
AcDbEntity
  8
SPOJOVACÍ
  6
Continuous
100
AcDbLine
 10
3424.695638974469
 20
390.9113739044951
 30
0.0
 11
3425.07329034978
 21
390.5327923553887
 31
0.0
  0
LINE
  5
4E52
330
1F
100
AcDbEntity
  8
SPOJOVACÍ
  6
Continuous
100
AcDbLine
 10
3427.8117278909
 20
391.5448236212651
 30
0.0
 11
3427.434076519954
 21
391.923405170095
 31
0.0
  0
LINE
  5
4E53
330
1F
100
AcDbEntity
  8
SPOJOVACÍ
  6
Continuous
100
AcDbLine
 10
3427.8117278909
 20
391.5448236212651
 30
0.0
 11
3427.434076519954
 21
391.3271624852168
 31
0.0
  0
LINE
  5
4E54
330
1F
100
AcDbEntity
  8
SPOJOVACÍ
  6
Continuous
100
AcDbLine
 10
3425.07329034978
 20
391.1290350405434
 30
0.0
 11
3427.434076519954
 21
391.923405170095
 31
0.0
  0
LINE
  5
4E55
330
1F
100
AcDbEntity
  8
SPOJOVACÍ
  6
Continuous
100
AcDbLine
 10
3425.07329034978
 20
390.5327923553887
 30
0.0
 11
3427.434076519954
 21
391.3271624852168
 31
0.0
  0
LINE
  5
4E56
330
1F
100
AcDbEntity
  8
SPOJOVACÍ
  6
Continuous
100
AcDbLine
 10
3424.695638974469
 20
390.9113739044951
 30
0.0
 11
3427.8117278909
 21
391.5448236212651
 31
0.0
  0
LINE
  5
4E57
330
1F
100
AcDbEntity
  8
SPOJOVACÍ
  6
Continuous
100
AcDbLine
 10
3425.26025568494
 20
393.9251434828147
 30
0.0
 11
3425.637907055886
 21
394.143734794834
 31
0.0
  0
LINE
  5
4E58
330
1F
100
AcDbEntity
  8
SPOJOVACÍ
  6
Continuous
100
AcDbLine
 10
3425.26025568494
 20
393.9251434828147
 30
0.0
 11
3425.637907055886
 21
393.5474921096865
 31
0.0
  0
LINE
  5
4E59
330
1F
100
AcDbEntity
  8
SPOJOVACÍ
  6
Continuous
100
AcDbLine
 10
3427.414542826397
 20
394.2358221985887
 30
0.0
 11
3427.036891455451
 21
394.6144037474187
 31
0.0
  0
LINE
  5
4E5A
330
1F
100
AcDbEntity
  8
SPOJOVACÍ
  6
Continuous
100
AcDbLine
 10
3427.414542826397
 20
394.2358221985887
 30
0.0
 11
3427.036891455451
 21
394.0181610622712
 31
0.0
  0
LINE
  5
4E5B
330
1F
100
AcDbEntity
  8
SPOJOVACÍ
  6
Continuous
100
AcDbLine
 10
3425.637907055886
 20
394.143734794834
 30
0.0
 11
3427.036891455451
 21
394.6144037474187
 31
0.0
  0
LINE
  5
4E5C
330
1F
100
AcDbEntity
  8
SPOJOVACÍ
  6
Continuous
100
AcDbLine
 10
3425.637907055886
 20
393.5474921096865
 30
0.0
 11
3427.036891455451
 21
394.0181610622712
 31
0.0
  0
LINE
  5
4E5D
330
1F
100
AcDbEntity
  8
SPOJOVACÍ
  6
Continuous
100
AcDbLine
 10
3425.26025568494
 20
393.9251434828147
 30
0.0
 11
3427.414542826397
 21
394.2358221985887
 31
0.0
  0
LINE
  5
4E5E
330
1F
100
AcDbEntity
  8
SPOJOVACÍ
  6
Continuous
100
AcDbLine
 10
3423.877084273942
 20
378.5791032039742
 30
0.0
 11
3428.676791379791
 21
379.7790299804364
 31
0.0
  0
LINE
  5
4E5F
330
1F
100
AcDbEntity
  8
SPOJOVACÍ
  6
Continuous
100
AcDbLine
 10
3423.877084273942
 20
378.5791032039742
 30
0.0
 11
3424.254735649252
 21
378.7976945160007
 31
0.0
  0
LINE
  5
4E60
330
1F
100
AcDbEntity
  8
SPOJOVACÍ
  6
Continuous
100
AcDbLine
 10
3423.877084273942
 20
378.5791032039742
 30
0.0
 11
3424.254735649252
 21
378.201451830846
 31
0.0
  0
LINE
  5
4E61
330
1F
100
AcDbEntity
  8
SPOJOVACÍ
  6
Continuous
100
AcDbLine
 10
3428.676791379791
 20
379.7790299804364
 30
0.0
 11
3428.299140008845
 21
380.1576115292664
 31
0.0
  0
LINE
  5
4E62
330
1F
100
AcDbEntity
  8
SPOJOVACÍ
  6
Continuous
100
AcDbLine
 10
3428.676791379791
 20
379.7790299804364
 30
0.0
 11
3428.299140008845
 21
379.5613688441189
 31
0.0
  0
LINE
  5
4E63
330
1F
100
AcDbEntity
  8
SPOJOVACÍ
  6
Continuous
100
AcDbLine
 10
3424.254735649252
 20
378.7976945160007
 30
0.0
 11
3428.299140008845
 21
380.1576115292664
 31
0.0
  0
LINE
  5
4E64
330
1F
100
AcDbEntity
  8
SPOJOVACÍ
  6
Continuous
100
AcDbLine
 10
3424.254735649252
 20
378.201451830846
 30
0.0
 11
3428.299140008845
 21
379.5613688441189
 31
0.0
  0
LINE
  5
4E65
330
1F
100
AcDbEntity
  8
SPOJOVACÍ
  6
Continuous
100
AcDbLine
 10
3423.877084273942
 20
381.6989128229433
 30
0.0
 11
3428.676791379791
 21
382.8988395994056
 31
0.0
  0
LINE
  5
4E66
330
1F
100
AcDbEntity
  8
SPOJOVACÍ
  6
Continuous
100
AcDbLine
 10
3423.877084273942
 20
381.6989128229433
 30
0.0
 11
3424.254735649252
 21
381.9175041349626
 31
0.0
  0
LINE
  5
4E67
330
1F
100
AcDbEntity
  8
SPOJOVACÍ
  6
Continuous
100
AcDbLine
 10
3423.877084273942
 20
381.6989128229433
 30
0.0
 11
3424.254735649252
 21
381.3212614498151
 31
0.0
  0
LINE
  5
4E68
330
1F
100
AcDbEntity
  8
SPOJOVACÍ
  6
Continuous
100
AcDbLine
 10
3428.676791379791
 20
382.8988395994056
 30
0.0
 11
3428.299140008845
 21
383.2774211482355
 31
0.0
  0
LINE
  5
4E69
330
1F
100
AcDbEntity
  8
SPOJOVACÍ
  6
Continuous
100
AcDbLine
 10
3428.676791379791
 20
382.8988395994056
 30
0.0
 11
3428.299140008845
 21
382.6811784633573
 31
0.0
  0
LINE
  5
4E6A
330
1F
100
AcDbEntity
  8
SPOJOVACÍ
  6
Continuous
100
AcDbLine
 10
3424.254735649252
 20
381.9175041349626
 30
0.0
 11
3428.299140008845
 21
383.2774211482355
 31
0.0
  0
LINE
  5
4E6B
330
1F
100
AcDbEntity
  8
SPOJOVACÍ
  6
Continuous
100
AcDbLine
 10
3424.254735649252
 20
381.3212614498151
 30
0.0
 11
3428.299140008845
 21
382.6811784633573
 31
0.0
  0
LINE
  5
4E6C
330
1F
100
AcDbEntity
  8
SPOJOVACÍ
  6
Continuous
100
AcDbLine
 10
3423.877084273942
 20
384.8196526178835
 30
0.0
 11
3428.676791379791
 21
386.0195793943458
 31
0.0
  0
LINE
  5
4E6D
330
1F
100
AcDbEntity
  8
SPOJOVACÍ
  6
Continuous
100
AcDbLine
 10
3423.877084273942
 20
384.8196526178835
 30
0.0
 11
3424.254735649252
 21
385.0373137539318
 31
0.0
  0
LINE
  5
4E6E
330
1F
100
AcDbEntity
  8
SPOJOVACÍ
  6
Continuous
100
AcDbLine
 10
3423.877084273942
 20
384.8196526178835
 30
0.0
 11
3424.254735649252
 21
384.4410710687771
 31
0.0
  0
LINE
  5
4E6F
330
1F
100
AcDbEntity
  8
SPOJOVACÍ
  6
Continuous
100
AcDbLine
 10
3428.676791379791
 20
386.0195793943458
 30
0.0
 11
3428.299140008845
 21
386.3972307674739
 31
0.0
  0
LINE
  5
4E70
330
1F
100
AcDbEntity
  8
SPOJOVACÍ
  6
Continuous
100
AcDbLine
 10
3428.676791379791
 20
386.0195793943458
 30
0.0
 11
3428.299140008845
 21
385.8009880823192
 31
0.0
  0
LINE
  5
4E71
330
1F
100
AcDbEntity
  8
SPOJOVACÍ
  6
Continuous
100
AcDbLine
 10
3424.254735649252
 20
385.0373137539318
 30
0.0
 11
3428.299140008845
 21
386.3972307674739
 31
0.0
  0
LINE
  5
4E72
330
1F
100
AcDbEntity
  8
SPOJOVACÍ
  6
Continuous
100
AcDbLine
 10
3424.254735649252
 20
384.4410710687771
 30
0.0
 11
3428.299140008845
 21
385.8009880823192
 31
0.0
  0
LINE
  5
4E73
330
1F
100
AcDbEntity
  8
STAVBA OBRYS
100
AcDbLine
 10
3512.127176055374
 20
702.1981946272535
 30
0.0
 11
3532.368412665232
 21
702.5121747850826
 31
0.0
  0
LINE
  5
4E74
330
1F
100
AcDbEntity
  8
STAVBA OBRYS
100
AcDbLine
 10
3532.393794306578
 20
691.4516202544364
 30
0.0
 11
3518.910514412967
 21
692.6139627146949
 31
0.0
  0
LINE
  5
4E75
330
1F
100
AcDbEntity
  8
STAVBA OBRYS
100
AcDbLine
 10
3555.777628082384
 20
695.2698489785944
 30
0.0
 11
3520.044444201015
 21
695.2698489785944
 31
0.0
  0
LINE
  5
4E76
330
1F
100
AcDbEntity
  8
STAVBA OBRYS
100
AcDbLine
 10
3602.055359601766
 20
699.2852748716869
 30
0.0
 11
3596.013681102525
 21
700.1582138491103
 31
0.0
  0
LINE
  5
4E77
330
1F
100
AcDbEntity
  8
STAVBA OBRYS
100
AcDbLine
 10
3532.368412665232
 20
702.5121747850826
 30
0.0
 11
3569.02536562271
 21
701.7281438266909
 31
0.0
  0
LINE
  5
4E78
330
1F
100
AcDbEntity
  8
STAVBA OBRYS
100
AcDbLine
 10
3534.855145127945
 20
690.7885826222955
 30
0.0
 11
3532.393794306578
 21
691.4516202544364
 31
0.0
  0
LINE
  5
4E79
330
1F
100
AcDbEntity
  8
STAVBA OBRYS
100
AcDbLine
 10
3580.655100195242
 20
693.999421687582
 30
0.0
 11
3555.777628082384
 21
695.2698489785944
 31
0.0
  0
LINE
  5
4E7A
330
1F
100
AcDbEntity
  8
STAVBA OBRYS
100
AcDbLine
 10
3569.02536562271
 20
701.7281438266909
 30
0.0
 11
3596.013681102525
 21
700.1582138491103
 31
0.0
  0
LINE
  5
4E7B
330
1F
100
AcDbEntity
  8
STAVBA OBRYS
100
AcDbLine
 10
3635.03983980603
 20
700.9777087743823
 30
0.0
 11
3652.696506025905
 21
702.870710977917
 31
0.0
  0
LINE
  5
4E7C
330
1F
100
AcDbEntity
  8
STAVBA OBRYS
100
AcDbLine
 10
3646.159867003825
 20
696.5372990476935
 30
0.0
 11
3618.547599703898
 21
695.6888491799145
 31
0.0
  0
LINE
  5
4E7D
330
1F
100
AcDbEntity
  8
STAVBA OBRYS
100
AcDbLine
 10
3675.549877452164
 20
696.3257411612976
 30
0.0
 11
3646.159867003825
 21
696.5372990476935
 31
0.0
  0
LINE
  5
4E7E
330
1F
100
AcDbEntity
  8
STAVBA OBRYS
100
AcDbLine
 10
3650.710450742003
 20
690.5707712070397
 30
0.0
 11
3642.711228938478
 21
690.8618092430806
 31
0.0
  0
LINE
  5
4E7F
330
1F
100
AcDbEntity
  8
STAVBA OBRYS
100
AcDbLine
 10
3659.291447906888
 20
691.5894189274077
 30
0.0
 11
3650.710450742003
 21
690.5707712070397
 31
0.0
  0
LINE
  5
4E80
330
1F
100
AcDbEntity
  8
STAVBA OBRYS
100
AcDbLine
 10
3602.055359601766
 20
699.2852748716869
 30
0.0
 11
3635.03983980603
 21
700.9777087743823
 31
0.0
  0
LINE
  5
4E81
330
1F
100
AcDbEntity
  8
STAVBA OBRYS
100
AcDbLine
 10
3588.100399696569
 20
693.7848573908304
 30
0.0
 11
3580.655100195242
 21
693.999421687582
 31
0.0
  0
LINE
  5
4E82
330
1F
100
AcDbEntity
  8
STAVBA OBRYS
100
AcDbLine
 10
3618.547599703898
 20
695.6888491799145
 30
0.0
 11
3588.100399696569
 21
693.7848573908304
 31
0.0
  0
LINE
  5
4E83
330
1F
100
AcDbEntity
  8
STAVBA OBRYS
100
AcDbLine
 10
3635.002876776091
 20
691.007342855326
 30
0.0
 11
3630.848752457615
 21
690.7885826222955
 31
0.0
  0
LINE
  5
4E84
330
1F
100
AcDbEntity
  8
STAVBA OBRYS
100
AcDbLine
 10
3642.711228938478
 20
690.8618092430806
 30
0.0
 11
3635.002876776091
 21
691.007342855326
 31
0.0
  0
LINE
  5
4E85
330
1F
100
AcDbEntity
  8
STAVBA OBRYS
100
AcDbLine
 10
3497.209048705403
 20
694.8467332058099
 30
0.0
 11
3478.390987965579
 21
695.6927896206798
 31
0.0
  0
LINE
  5
4E86
330
1F
100
AcDbEntity
  8
STAVBA OBRYS
100
AcDbLine
 10
3518.910514412967
 20
692.6139627146949
 30
0.0
 11
3494.18560274137
 21
690.2856584263681
 31
0.0
  0
LINE
  5
4E87
330
1F
100
AcDbEntity
  8
STAVBA OBRYS
100
AcDbLine
 10
3520.044444201015
 20
695.2698489785944
 30
0.0
 11
3497.209048705403
 21
694.8467332058099
 31
0.0
  0
LINE
  5
4E88
330
1F
100
AcDbEntity
  8
STAVBA OBRYS
100
AcDbLine
 10
3485.311048042984
 20
701.1642813474791
 30
0.0
 11
3512.127176055374
 21
702.1981946272535
 31
0.0
  0
LINE
  5
4E89
330
1F
100
AcDbEntity
  8
STAVBA OBRYS
100
AcDbLine
 10
3673.021129960531
 20
692.4662691571393
 30
0.0
 11
3659.291447906888
 21
691.5894189274077
 31
0.0
  0
LINE
  5
4E8A
330
1F
100
AcDbEntity
  8
STAVBA OBRYS
100
AcDbLine
 10
3684.44306362999
 20
702.870710977917
 30
0.0
 11
3694.916863539921
 21
701.5006782349919
 31
0.0
  0
LINE
  5
4E8B
330
1F
100
AcDbEntity
  8
STAVBA OBRYS
100
AcDbLine
 10
3694.778702011618
 20
696.2188542489111
 30
0.0
 11
3675.549877452164
 21
696.3257411612976
 31
0.0
  0
LINE
  5
4E8C
330
1F
100
AcDbEntity
  8
STAVBA OBRYS
100
AcDbLine
 10
3694.778702011618
 20
690.9306839637647
 30
0.0
 11
3693.091928938938
 21
691.0110497884852
 31
0.0
  0
LINE
  5
4E8D
330
1F
100
AcDbEntity
  8
STAVBA OBRYS
100
AcDbLine
 10
3693.091928938938
 20
691.0110497884852
 30
0.0
 11
3673.021129960531
 21
692.4662691571393
 31
0.0
  0
LINE
  5
4E8E
330
1F
100
AcDbEntity
  8
STAVBA OBRYS
100
AcDbLine
 10
3478.024153795867
 20
699.8182851591373
 30
0.0
 11
3485.311048042984
 21
701.1642813474791
 31
0.0
  0
LINE
  5
4E8F
330
1F
100
AcDbEntity
  8
STAVBA OBRYS
100
AcDbLine
 10
3478.390987965579
 20
695.6927896206798
 30
0.0
 11
3457.297022012108
 21
696.114183274909
 31
0.0
  0
LINE
  5
4E90
330
1F
100
AcDbEntity
  8
STAVBA OBRYS
100
AcDbLine
 10
3458.405588198361
 20
699.7061139453689
 30
0.0
 11
3478.024153795867
 21
699.8182851591373
 31
0.0
  0
LINE
  5
4E91
330
1F
100
AcDbEntity
  8
STAVBA OBRYS
100
AcDbLine
 10
3436.780068979827
 20
691.0110497884852
 30
0.0
 11
3416.709270001421
 21
692.4662691571393
 31
0.0
  0
LINE
  5
4E92
330
1F
100
AcDbEntity
  8
STAVBA OBRYS
100
AcDbLine
 10
3441.449362510847
 20
690.7885826222955
 30
0.0
 11
3436.780068979827
 21
691.0110497884852
 31
0.0
  0
LINE
  5
4E93
330
1F
100
AcDbEntity
  8
STAVBA OBRYS
100
AcDbLine
 10
3471.205981074776
 20
689.5580487420411
 30
0.0
 11
3464.850107801309
 21
689.9924312565745
 31
0.0
  0
LINE
  5
4E94
330
1F
100
AcDbEntity
  8
STAVBA OBRYS
100
AcDbLine
 10
3464.850107801309
 20
689.9924312565745
 30
0.0
 11
3448.99708097528
 21
690.4289737164035
 31
0.0
  0
LINE
  5
4E95
330
1F
100
AcDbEntity
  8
STAVBA OBRYS
100
AcDbLine
 10
3457.297022012108
 20
696.114183274909
 30
0.0
 11
3419.238017493054
 21
696.3257411612976
 31
0.0
  0
LINE
  5
4E96
330
1F
100
AcDbEntity
  8
STAVBA OBRYS
100
AcDbLine
 10
3438.60500358081
 20
701.5006782349919
 30
0.0
 11
3458.405588198361
 21
699.7061139453689
 31
0.0
  0
LINE
  5
4E97
330
1F
100
AcDbEntity
  8
STAVBA OBRYS
100
AcDbLine
 10
3428.131203670879
 20
702.870710977917
 30
0.0
 11
3438.60500358081
 21
701.5006782349919
 31
0.0
  0
LINE
  5
4E98
330
1F
100
AcDbEntity
  8
STAVBA OBRYS
100
AcDbLine
 10
3402.979587947778
 20
691.5894189274077
 30
0.0
 11
3396.233414637517
 21
690.7885826222955
 31
0.0
  0
LINE
  5
4E99
330
1F
100
AcDbEntity
  8
STAVBA OBRYS
100
AcDbLine
 10
3386.399368979367
 20
690.8618092430806
 30
0.0
 11
3378.69101681698
 21
691.007342855326
 31
0.0
  0
LINE
  5
4E9A
330
1F
100
AcDbEntity
  8
STAVBA OBRYS
100
AcDbLine
 10
3378.69101681698
 20
691.007342855326
 30
0.0
 11
3374.536892498504
 21
690.7885826222955
 31
0.0
  0
LINE
  5
4E9B
330
1F
100
AcDbEntity
  8
STAVBA OBRYS
100
AcDbLine
 10
3372.590396536073
 20
700.6627893331305
 30
0.0
 11
3378.72797984692
 21
700.9777087743823
 31
0.0
  0
LINE
  5
4E9C
330
1F
100
AcDbEntity
  8
STAVBA OBRYS
100
AcDbLine
 10
3388.412013063799
 20
690.7885826222955
 30
0.0
 11
3386.399368979367
 21
690.8618092430806
 31
0.0
  0
LINE
  5
4E9D
330
1F
100
AcDbEntity
  8
STAVBA OBRYS
100
AcDbLine
 10
3419.238017493054
 20
696.3257411612976
 30
0.0
 11
3389.848007044714
 21
696.5372990476935
 31
0.0
  0
LINE
  5
4E9E
330
1F
100
AcDbEntity
  8
STAVBA OBRYS
100
AcDbLine
 10
3389.848007044714
 20
696.5372990476935
 30
0.0
 11
3372.590396536065
 21
696.0070196180764
 31
0.0
  0
LINE
  5
4E9F
330
1F
100
AcDbEntity
  8
STAVBA OBRYS
100
AcDbLine
 10
3378.72797984692
 20
700.9777087743823
 30
0.0
 11
3396.384646066794
 21
702.870710977917
 31
0.0
  0
LINE
  5
4EA0
330
1F
100
AcDbEntity
  8
STAVBA OBRYS
100
AcDbLine
 10
3416.709270001421
 20
692.4662691571393
 30
0.0
 11
3402.979587947778
 21
691.5894189274077
 31
0.0
  0
LINE
  5
4EA1
330
1F
100
AcDbEntity
  8
STAVBA OBRYS
100
AcDbLine
 10
3859.256501110586
 20
702.1981946272535
 30
0.0
 11
3879.497737720443
 21
702.5121747850826
 31
0.0
  0
LINE
  5
4EA2
330
1F
100
AcDbEntity
  8
STAVBA OBRYS
100
AcDbLine
 10
3879.52311936179
 20
691.4516202544364
 30
0.0
 11
3866.039839468179
 21
692.6139627146949
 31
0.0
  0
LINE
  5
4EA3
330
1F
100
AcDbEntity
  8
STAVBA OBRYS
100
AcDbLine
 10
3902.906953137596
 20
695.2698489785944
 30
0.0
 11
3867.173769256226
 21
695.2698489785944
 31
0.0
  0
LINE
  5
4EA4
330
1F
100
AcDbEntity
  8
STAVBA OBRYS
100
AcDbLine
 10
3949.184684656978
 20
699.2852748716869
 30
0.0
 11
3943.143006157736
 21
700.1582138491103
 31
0.0
  0
LINE
  5
4EA5
330
1F
100
AcDbEntity
  8
STAVBA OBRYS
100
AcDbLine
 10
3879.497737720443
 20
702.5121747850826
 30
0.0
 11
3916.154690677921
 21
701.7281438266909
 31
0.0
  0
LINE
  5
4EA6
330
1F
100
AcDbEntity
  8
STAVBA OBRYS
100
AcDbLine
 10
3881.984470183156
 20
690.7885826222955
 30
0.0
 11
3879.52311936179
 21
691.4516202544364
 31
0.0
  0
LINE
  5
4EA7
330
1F
100
AcDbEntity
  8
STAVBA OBRYS
100
AcDbLine
 10
3927.784425250453
 20
693.999421687582
 30
0.0
 11
3902.906953137596
 21
695.2698489785944
 31
0.0
  0
LINE
  5
4EA8
330
1F
100
AcDbEntity
  8
STAVBA OBRYS
100
AcDbLine
 10
3916.154690677921
 20
701.7281438266909
 30
0.0
 11
3943.143006157736
 21
700.1582138491103
 31
0.0
  0
LINE
  5
4EA9
330
1F
100
AcDbEntity
  8
STAVBA OBRYS
100
AcDbLine
 10
3982.169164861242
 20
700.9777087743823
 30
0.0
 11
3999.825831081117
 21
702.870710977917
 31
0.0
  0
LINE
  5
4EAA
330
1F
100
AcDbEntity
  8
STAVBA OBRYS
100
AcDbLine
 10
3993.289192059036
 20
696.5372990476935
 30
0.0
 11
3965.67692475911
 21
695.6888491799145
 31
0.0
  0
LINE
  5
4EAB
330
1F
100
AcDbEntity
  8
STAVBA OBRYS
100
AcDbLine
 10
4022.679202507376
 20
696.3257411612976
 30
0.0
 11
3993.289192059036
 21
696.5372990476935
 31
0.0
  0
LINE
  5
4EAC
330
1F
100
AcDbEntity
  8
STAVBA OBRYS
100
AcDbLine
 10
3997.839775797215
 20
690.5707712070397
 30
0.0
 11
3989.840553993689
 21
690.8618092430806
 31
0.0
  0
LINE
  5
4EAD
330
1F
100
AcDbEntity
  8
STAVBA OBRYS
100
AcDbLine
 10
4006.4207729621
 20
691.5894189274077
 30
0.0
 11
3997.839775797215
 21
690.5707712070397
 31
0.0
  0
LINE
  5
4EAE
330
1F
100
AcDbEntity
  8
STAVBA OBRYS
100
AcDbLine
 10
3949.184684656978
 20
699.2852748716869
 30
0.0
 11
3982.169164861242
 21
700.9777087743823
 31
0.0
  0
LINE
  5
4EAF
330
1F
100
AcDbEntity
  8
STAVBA OBRYS
100
AcDbLine
 10
3935.229724751781
 20
693.7848573908304
 30
0.0
 11
3927.784425250453
 21
693.999421687582
 31
0.0
  0
LINE
  5
4EB0
330
1F
100
AcDbEntity
  8
STAVBA OBRYS
100
AcDbLine
 10
3965.67692475911
 20
695.6888491799145
 30
0.0
 11
3935.229724751781
 21
693.7848573908304
 31
0.0
  0
LINE
  5
4EB1
330
1F
100
AcDbEntity
  8
STAVBA OBRYS
100
AcDbLine
 10
3982.132201831303
 20
691.007342855326
 30
0.0
 11
3977.978077512826
 21
690.7885826222955
 31
0.0
  0
LINE
  5
4EB2
330
1F
100
AcDbEntity
  8
STAVBA OBRYS
100
AcDbLine
 10
3989.840553993689
 20
690.8618092430806
 30
0.0
 11
3982.132201831303
 21
691.007342855326
 31
0.0
  0
LWPOLYLINE
  5
4EB3
330
1F
100
AcDbEntity
  8
STAVBA OBRYS
100
AcDbPolyline
 90
        2
 70
     0
 43
0.0
 10
3937.154344841259
 20
689.8910084682456
 10
3937.528829961443
 20
690.0636040962672
  0
LWPOLYLINE
  5
4EB4
330
1F
100
AcDbEntity
  8
STAVBA OBRYS
100
AcDbPolyline
 90
        2
 70
     0
 43
0.0
 10
3923.308608361428
 20
689.8473912980598
 10
3922.933043254927
 20
690.0176240999189
  0
LINE
  5
4EB5
330
1F
100
AcDbEntity
  8
STAVBA OBRYS
100
AcDbLine
 10
3844.338373760615
 20
694.8467332058099
 30
0.0
 11
3825.520313020791
 21
695.6927896206798
 31
0.0
  0
LINE
  5
4EB6
330
1F
100
AcDbEntity
  8
STAVBA OBRYS
100
AcDbLine
 10
3866.039839468179
 20
692.6139627146949
 30
0.0
 11
3841.314927796581
 21
690.2856584263681
 31
0.0
  0
LINE
  5
4EB7
330
1F
100
AcDbEntity
  8
STAVBA OBRYS
100
AcDbLine
 10
3867.173769256226
 20
695.2698489785944
 30
0.0
 11
3844.338373760615
 21
694.8467332058099
 31
0.0
  0
LINE
  5
4EB8
330
1F
100
AcDbEntity
  8
STAVBA OBRYS
100
AcDbLine
 10
3832.440373098197
 20
701.1642813474791
 30
0.0
 11
3859.256501110586
 21
702.1981946272535
 31
0.0
  0
LINE
  5
4EB9
330
1F
100
AcDbEntity
  8
STAVBA OBRYS
100
AcDbLine
 10
4020.150455015743
 20
692.4662691571393
 30
0.0
 11
4006.4207729621
 21
691.5894189274077
 31
0.0
  0
LINE
  5
4EBA
330
1F
100
AcDbEntity
  8
STAVBA OBRYS
100
AcDbLine
 10
4031.572388685201
 20
702.870710977917
 30
0.0
 11
4042.046188595132
 21
701.5006782349919
 31
0.0
  0
LINE
  5
4EBB
330
1F
100
AcDbEntity
  8
STAVBA OBRYS
100
AcDbLine
 10
4041.90802706683
 20
696.2188542489111
 30
0.0
 11
4022.679202507376
 21
696.3257411612976
 31
0.0
  0
LINE
  5
4EBC
330
1F
100
AcDbEntity
  8
STAVBA OBRYS
100
AcDbLine
 10
4041.90802706683
 20
690.9306839637647
 30
0.0
 11
4040.221253994149
 21
691.0110497884852
 31
0.0
  0
LINE
  5
4EBD
330
1F
100
AcDbEntity
  8
STAVBA OBRYS
100
AcDbLine
 10
4040.221253994149
 20
691.0110497884852
 30
0.0
 11
4020.150455015743
 21
692.4662691571393
 31
0.0
  0
LINE
  5
4EBE
330
1F
100
AcDbEntity
  8
STAVBA OBRYS
100
AcDbLine
 10
3825.153478851079
 20
699.8182851591373
 30
0.0
 11
3832.440373098197
 21
701.1642813474791
 31
0.0
  0
LINE
  5
4EBF
330
1F
100
AcDbEntity
  8
STAVBA OBRYS
100
AcDbLine
 10
3825.520313020791
 20
695.6927896206798
 30
0.0
 11
3804.42634706732
 21
696.114183274909
 31
0.0
  0
LINE
  5
4EC0
330
1F
100
AcDbEntity
  8
STAVBA OBRYS
100
AcDbLine
 10
3805.534913253573
 20
699.7061139453689
 30
0.0
 11
3825.153478851079
 21
699.8182851591373
 31
0.0
  0
LINE
  5
4EC1
330
1F
100
AcDbEntity
  8
STAVBA OBRYS
100
AcDbLine
 10
3783.909394035038
 20
691.0110497884852
 30
0.0
 11
3763.838595056632
 21
692.4662691571393
 31
0.0
  0
LINE
  5
4EC2
330
1F
100
AcDbEntity
  8
STAVBA OBRYS
100
AcDbLine
 10
3788.578687566058
 20
690.7885826222955
 30
0.0
 11
3783.909394035038
 21
691.0110497884852
 31
0.0
  0
LINE
  5
4EC3
330
1F
100
AcDbEntity
  8
STAVBA OBRYS
100
AcDbLine
 10
3818.335306129989
 20
689.5580487420411
 30
0.0
 11
3811.979432856521
 21
689.9924312565745
 31
0.0
  0
LINE
  5
4EC4
330
1F
100
AcDbEntity
  8
STAVBA OBRYS
100
AcDbLine
 10
3811.979432856521
 20
689.9924312565745
 30
0.0
 11
3796.126406030492
 21
690.4289737164035
 31
0.0
  0
LINE
  5
4EC5
330
1F
100
AcDbEntity
  8
STAVBA OBRYS
100
AcDbLine
 10
3804.42634706732
 20
696.114183274909
 30
0.0
 11
3766.367342548265
 21
696.3257411612976
 31
0.0
  0
LINE
  5
4EC6
330
1F
100
AcDbEntity
  8
STAVBA OBRYS
100
AcDbLine
 10
3785.734328636022
 20
701.5006782349919
 30
0.0
 11
3805.534913253573
 21
699.7061139453689
 31
0.0
  0
LINE
  5
4EC7
330
1F
100
AcDbEntity
  8
STAVBA OBRYS
100
AcDbLine
 10
3775.260528726091
 20
702.870710977917
 30
0.0
 11
3785.734328636022
 21
701.5006782349919
 31
0.0
  0
LINE
  5
4EC8
330
1F
100
AcDbEntity
  8
STAVBA OBRYS
100
AcDbLine
 10
3750.108913002989
 20
691.5894189274077
 30
0.0
 11
3743.362739692728
 21
690.7885826222955
 31
0.0
  0
LINE
  5
4EC9
330
1F
100
AcDbEntity
  8
STAVBA OBRYS
100
AcDbLine
 10
3733.528694034578
 20
690.8618092430806
 30
0.0
 11
3725.820341872192
 21
691.007342855326
 31
0.0
  0
LINE
  5
4ECA
330
1F
100
AcDbEntity
  8
STAVBA OBRYS
100
AcDbLine
 10
3725.820341872192
 20
691.007342855326
 30
0.0
 11
3721.666217553716
 21
690.7885826222955
 31
0.0
  0
LINE
  5
4ECB
330
1F
100
AcDbEntity
  8
STAVBA OBRYS
100
AcDbLine
 10
3709.365064799999
 20
695.6888491799145
 30
0.0
 11
3691.401191723587
 21
694.5654924564914
 31
0.0
  0
LINE
  5
4ECC
330
1F
100
AcDbEntity
  8
STAVBA OBRYS
100
AcDbLine
 10
3692.872824697867
 20
699.2852748716869
 30
0.0
 11
3725.857304902131
 21
700.9777087743823
 31
0.0
  0
LINE
  5
4ECD
330
1F
100
AcDbEntity
  8
STAVBA OBRYS
100
AcDbLine
 10
3735.541338119011
 20
690.7885826222955
 30
0.0
 11
3733.528694034578
 21
690.8618092430806
 31
0.0
  0
LINE
  5
4ECE
330
1F
100
AcDbEntity
  8
STAVBA OBRYS
100
AcDbLine
 10
3766.367342548265
 20
696.3257411612976
 30
0.0
 11
3736.977332099925
 21
696.5372990476935
 31
0.0
  0
LINE
  5
4ECF
330
1F
100
AcDbEntity
  8
STAVBA OBRYS
100
AcDbLine
 10
3736.977332099925
 20
696.5372990476935
 30
0.0
 11
3709.365064799999
 21
695.6888491799145
 31
0.0
  0
LINE
  5
4ED0
330
1F
100
AcDbEntity
  8
STAVBA OBRYS
100
AcDbLine
 10
3725.857304902131
 20
700.9777087743823
 30
0.0
 11
3743.513971122006
 21
702.870710977917
 31
0.0
  0
LINE
  5
4ED1
330
1F
100
AcDbEntity
  8
STAVBA OBRYS
100
AcDbLine
 10
3763.838595056632
 20
692.4662691571393
 30
0.0
 11
3750.108913002989
 21
691.5894189274077
 31
0.0
  0
LWPOLYLINE
  5
4ED2
330
1F
100
AcDbEntity
  8
STAVBA OBRYS
100
AcDbPolyline
 90
        4
 70
     0
 43
0.0
 10
3380.008753878089
 20
689.5409579487204
 42
0.0132290984651571
 10
3377.388105014538
 20
691.845850927254
 42
0.0157521173632038
 10
3373.501479210094
 20
694.883646190262
 42
0.0012172729442855
 10
3372.590396536073
 20
695.547212296271
 42
0.0012172729442855
  0
POLYLINE
  5
4ED3
330
1F
100
AcDbEntity
  8
STAVBA OBRYS
100
AcDb2dPolyline
 66
     1
 10
0.0
 20
0.0
 30
0.0
  0
VERTEX
  5
4ED4
330
4ED3
100
AcDbEntity
  8
STAVBA OBRYS
100
AcDbVertex
100
AcDb2dVertex
 10
3552.560688660483
 20
689.6046807820694
 30
0.0
 42
-0.0137909154721682
  0
VERTEX
  5
4ED5
330
4ED3
100
AcDbEntity
  8
STAVBA OBRYS
100
AcDbVertex
100
AcDb2dVertex
 10
3555.086975936453
 20
691.0194504280516
 30
0.0
 42
-0.056967459841729
  0
VERTEX
  5
4ED6
330
4ED3
100
AcDbEntity
  8
STAVBA OBRYS
100
AcDbVertex
100
AcDb2dVertex
 10
3557.649917023368
 20
692.0109006245874
 30
0.0
 42
-0.0373408083348504
  0
VERTEX
  5
4ED7
330
4ED3
100
AcDbEntity
  8
STAVBA OBRYS
100
AcDbVertex
100
AcDb2dVertex
 10
3557.916440868498
 20
692.0595794428054
 30
0.0
 42
-0.0052305969362967
  0
VERTEX
  5
4ED8
330
4ED3
100
AcDbEntity
  8
STAVBA OBRYS
100
AcDbVertex
100
AcDb2dVertex
 10
3558.331350308249
 20
692.0993426816339
 30
0.0
  0
SEQEND
  5
4ED9
330
4ED3
100
AcDbEntity
  8
STAVBA OBRYS
  0
POLYLINE
  5
4EDA
330
1F
100
AcDbEntity
  8
STAVBA OBRYS
100
AcDb2dPolyline
 66
     1
 10
0.0
 20
0.0
 30
0.0
  0
VERTEX
  5
4EDB
330
4EDA
100
AcDbEntity
  8
STAVBA OBRYS
100
AcDbVertex
100
AcDb2dVertex
 10
3564.308223725437
 20
689.6046807820694
 30
0.0
 42
0.0141362754529377
  0
VERTEX
  5
4EDC
330
4EDA
100
AcDbEntity
  8
STAVBA OBRYS
100
AcDbVertex
100
AcDb2dVertex
 10
3561.710602172086
 20
691.0403163338269
 30
0.0
 42
0.056967459841729
  0
VERTEX
  5
4EDD
330
4EDA
100
AcDbEntity
  8
STAVBA OBRYS
100
AcDbVertex
100
AcDb2dVertex
 10
3559.141465435208
 20
692.0155993360658
 30
0.0
 42
0.0373408083348504
  0
VERTEX
  5
4EDE
330
4EDA
100
AcDbEntity
  8
STAVBA OBRYS
100
AcDbVertex
100
AcDb2dVertex
 10
3558.874640184639
 20
692.0625979852066
 30
0.0
 42
0.0052305969362967
  0
VERTEX
  5
4EDF
330
4EDA
100
AcDbEntity
  8
STAVBA OBRYS
100
AcDbVertex
100
AcDb2dVertex
 10
3558.459488456133
 20
692.0997463454924
 30
0.0
  0
SEQEND
  5
4EE0
330
4EDA
100
AcDbEntity
  8
STAVBA OBRYS
  0
POLYLINE
  5
4EE1
330
1F
100
AcDbEntity
  8
STAVBA OBRYS
100
AcDb2dPolyline
 66
     1
 10
0.0
 20
0.0
 30
0.0
  0
VERTEX
  5
4EE2
330
4EE1
100
AcDbEntity
  8
STAVBA OBRYS
100
AcDbVertex
100
AcDb2dVertex
 10
3752.560678508994
 20
689.6684036154184
 30
0.0
 42
-0.0137909154721682
  0
VERTEX
  5
4EE3
330
4EE1
100
AcDbEntity
  8
STAVBA OBRYS
100
AcDbVertex
100
AcDb2dVertex
 10
3755.086965784964
 20
691.0831732614005
 30
0.0
 42
-0.056967459841729
  0
VERTEX
  5
4EE4
330
4EE1
100
AcDbEntity
  8
STAVBA OBRYS
100
AcDbVertex
100
AcDb2dVertex
 10
3757.649906871879
 20
692.0746234579365
 30
0.0
 42
-0.0373408083348504
  0
VERTEX
  5
4EE5
330
4EE1
100
AcDbEntity
  8
STAVBA OBRYS
100
AcDbVertex
100
AcDb2dVertex
 10
3757.916430717009
 20
692.1233022761543
 30
0.0
 42
-0.0052305969362967
  0
VERTEX
  5
4EE6
330
4EE1
100
AcDbEntity
  8
STAVBA OBRYS
100
AcDbVertex
100
AcDb2dVertex
 10
3758.33134015676
 20
692.1630655149829
 30
0.0
  0
SEQEND
  5
4EE7
330
4EE1
100
AcDbEntity
  8
STAVBA OBRYS
  0
POLYLINE
  5
4EE8
330
1F
100
AcDbEntity
  8
STAVBA OBRYS
100
AcDb2dPolyline
 66
     1
 10
0.0
 20
0.0
 30
0.0
  0
VERTEX
  5
4EE9
330
4EE8
100
AcDbEntity
  8
STAVBA OBRYS
100
AcDbVertex
100
AcDb2dVertex
 10
3764.308213573949
 20
689.6684036154184
 30
0.0
 42
0.0141362754529377
  0
VERTEX
  5
4EEA
330
4EE8
100
AcDbEntity
  8
STAVBA OBRYS
100
AcDbVertex
100
AcDb2dVertex
 10
3761.710592020596
 20
691.1040391671758
 30
0.0
 42
0.056967459841729
  0
VERTEX
  5
4EEB
330
4EE8
100
AcDbEntity
  8
STAVBA OBRYS
100
AcDbVertex
100
AcDb2dVertex
 10
3759.141455283718
 20
692.0793221694148
 30
0.0
 42
0.0373408083348504
  0
VERTEX
  5
4EEC
330
4EE8
100
AcDbEntity
  8
STAVBA OBRYS
100
AcDbVertex
100
AcDb2dVertex
 10
3758.874630033151
 20
692.1263208185555
 30
0.0
 42
0.0052305969362967
  0
VERTEX
  5
4EED
330
4EE8
100
AcDbEntity
  8
STAVBA OBRYS
100
AcDbVertex
100
AcDb2dVertex
 10
3758.459478304644
 20
692.1634691788413
 30
0.0
  0
SEQEND
  5
4EEE
330
4EE8
100
AcDbEntity
  8
STAVBA OBRYS
  0
POLYLINE
  5
4EEF
330
1F
100
AcDbEntity
  8
STAVBA OBRYS
100
AcDb2dPolyline
 66
     1
 10
0.0
 20
0.0
 30
0.0
  0
VERTEX
  5
4EF0
330
4EEF
100
AcDbEntity
  8
STAVBA OBRYS
100
AcDbVertex
100
AcDb2dVertex
 10
3952.560668357505
 20
689.7321264487673
 30
0.0
 42
-0.0137909154721682
  0
VERTEX
  5
4EF1
330
4EEF
100
AcDbEntity
  8
STAVBA OBRYS
100
AcDbVertex
100
AcDb2dVertex
 10
3955.086955633475
 20
691.1468960947495
 30
0.0
 42
-0.056967459841729
  0
VERTEX
  5
4EF2
330
4EEF
100
AcDbEntity
  8
STAVBA OBRYS
100
AcDbVertex
100
AcDb2dVertex
 10
3957.649896720391
 20
692.1383462912854
 30
0.0
 42
-0.0373408083348504
  0
VERTEX
  5
4EF3
330
4EEF
100
AcDbEntity
  8
STAVBA OBRYS
100
AcDbVertex
100
AcDb2dVertex
 10
3957.916420565521
 20
692.1870251095033
 30
0.0
 42
-0.0052305969362967
  0
VERTEX
  5
4EF4
330
4EEF
100
AcDbEntity
  8
STAVBA OBRYS
100
AcDbVertex
100
AcDb2dVertex
 10
3958.331330005271
 20
692.2267883483319
 30
0.0
  0
SEQEND
  5
4EF5
330
4EEF
100
AcDbEntity
  8
STAVBA OBRYS
  0
POLYLINE
  5
4EF6
330
1F
100
AcDbEntity
  8
STAVBA OBRYS
100
AcDb2dPolyline
 66
     1
 10
0.0
 20
0.0
 30
0.0
  0
VERTEX
  5
4EF7
330
4EF6
100
AcDbEntity
  8
STAVBA OBRYS
100
AcDbVertex
100
AcDb2dVertex
 10
3964.30820342246
 20
689.7321264487673
 30
0.0
 42
0.0141362754529377
  0
VERTEX
  5
4EF8
330
4EF6
100
AcDbEntity
  8
STAVBA OBRYS
100
AcDbVertex
100
AcDb2dVertex
 10
3961.710581869107
 20
691.1677620005248
 30
0.0
 42
0.056967459841729
  0
VERTEX
  5
4EF9
330
4EF6
100
AcDbEntity
  8
STAVBA OBRYS
100
AcDbVertex
100
AcDb2dVertex
 10
3959.14144513223
 20
692.1430450027637
 30
0.0
 42
0.0373408083348504
  0
VERTEX
  5
4EFA
330
4EF6
100
AcDbEntity
  8
STAVBA OBRYS
100
AcDbVertex
100
AcDb2dVertex
 10
3958.874619881661
 20
692.1900436519044
 30
0.0
 42
0.0052305969362967
  0
VERTEX
  5
4EFB
330
4EF6
100
AcDbEntity
  8
STAVBA OBRYS
100
AcDbVertex
100
AcDb2dVertex
 10
3958.459468153155
 20
692.2271920121902
 30
0.0
  0
SEQEND
  5
4EFC
330
4EF6
100
AcDbEntity
  8
STAVBA OBRYS
  0
LINE
  5
4EFD
330
1F
100
AcDbEntity
  8
CETRIS
100
AcDbLine
 10
3955.799010713027
 20
373.5392128008224
 30
0.0
 11
4389.428028976482
 21
373.5392128008216
 31
0.0
  0
LINE
  5
4EFE
330
1F
100
AcDbEntity
  8
CETRIS
100
AcDbLine
 10
3955.799010713027
 20
361.5392128008206
 30
0.0
 11
4389.428028976482
 21
361.5392128008206
 31
0.0
  0
LINE
  5
4EFF
330
1F
100
AcDbEntity
  8
CETRIS
100
AcDbLine
 10
3489.961984855977
 20
361.5392128008206
 30
0.0
 11
3948.799010713027
 21
361.5392128008206
 31
0.0
  0
LINE
  5
4F00
330
1F
100
AcDbEntity
  8
CETRIS
100
AcDbLine
 10
3489.961984855977
 20
373.5392128008206
 30
0.0
 11
3948.799010713027
 21
373.5392128008206
 31
0.0
  0
LINE
  5
4F01
330
1F
100
AcDbEntity
  8
CETRIS
100
AcDbLine
 10
3948.799010713027
 20
361.5392128008206
 30
0.0
 11
3948.799010713027
 21
373.5392128008206
 31
0.0
  0
LINE
  5
4F02
330
1F
100
AcDbEntity
  8
SPOJOVACÍ
  6
Continuous
100
AcDbLine
 10
3932.303924360686
 20
384.4410710687771
 30
0.0
 11
3936.348328720279
 21
385.8009880823192
 31
0.0
  0
LINE
  5
4F03
330
1F
100
AcDbEntity
  8
SPOJOVACÍ
  6
Continuous
100
AcDbLine
 10
3932.303924360686
 20
385.0373137539318
 30
0.0
 11
3936.348328720279
 21
386.3972307674739
 31
0.0
  0
LINE
  5
4F04
330
1F
100
AcDbEntity
  8
SPOJOVACÍ
  6
Continuous
100
AcDbLine
 10
3936.725980091224
 20
386.0195793943458
 30
0.0
 11
3936.348328720279
 21
385.8009880823192
 31
0.0
  0
LINE
  5
4F05
330
1F
100
AcDbEntity
  8
SPOJOVACÍ
  6
Continuous
100
AcDbLine
 10
3936.725980091224
 20
386.0195793943458
 30
0.0
 11
3936.348328720279
 21
386.3972307674739
 31
0.0
  0
LINE
  5
4F06
330
1F
100
AcDbEntity
  8
SPOJOVACÍ
  6
Continuous
100
AcDbLine
 10
3931.926272985375
 20
384.8196526178835
 30
0.0
 11
3932.303924360686
 21
384.4410710687771
 31
0.0
  0
LINE
  5
4F07
330
1F
100
AcDbEntity
  8
SPOJOVACÍ
  6
Continuous
100
AcDbLine
 10
3931.926272985375
 20
384.8196526178835
 30
0.0
 11
3932.303924360686
 21
385.0373137539318
 31
0.0
  0
LINE
  5
4F08
330
1F
100
AcDbEntity
  8
SPOJOVACÍ
  6
Continuous
100
AcDbLine
 10
3931.926272985375
 20
384.8196526178835
 30
0.0
 11
3936.725980091224
 21
386.0195793943458
 31
0.0
  0
LINE
  5
4F09
330
1F
100
AcDbEntity
  8
SPOJOVACÍ
  6
Continuous
100
AcDbLine
 10
3932.303924360686
 20
381.3212614498151
 30
0.0
 11
3936.348328720279
 21
382.6811784633573
 31
0.0
  0
LINE
  5
4F0A
330
1F
100
AcDbEntity
  8
SPOJOVACÍ
  6
Continuous
100
AcDbLine
 10
3932.303924360686
 20
381.9175041349626
 30
0.0
 11
3936.348328720279
 21
383.2774211482355
 31
0.0
  0
LINE
  5
4F0B
330
1F
100
AcDbEntity
  8
SPOJOVACÍ
  6
Continuous
100
AcDbLine
 10
3936.725980091224
 20
382.8988395994056
 30
0.0
 11
3936.348328720279
 21
382.6811784633573
 31
0.0
  0
LINE
  5
4F0C
330
1F
100
AcDbEntity
  8
SPOJOVACÍ
  6
Continuous
100
AcDbLine
 10
3936.725980091224
 20
382.8988395994056
 30
0.0
 11
3936.348328720279
 21
383.2774211482355
 31
0.0
  0
LINE
  5
4F0D
330
1F
100
AcDbEntity
  8
SPOJOVACÍ
  6
Continuous
100
AcDbLine
 10
3931.926272985375
 20
381.6989128229433
 30
0.0
 11
3932.303924360686
 21
381.3212614498151
 31
0.0
  0
LINE
  5
4F0E
330
1F
100
AcDbEntity
  8
SPOJOVACÍ
  6
Continuous
100
AcDbLine
 10
3931.926272985375
 20
381.6989128229433
 30
0.0
 11
3932.303924360686
 21
381.9175041349626
 31
0.0
  0
LINE
  5
4F0F
330
1F
100
AcDbEntity
  8
SPOJOVACÍ
  6
Continuous
100
AcDbLine
 10
3931.926272985375
 20
381.6989128229433
 30
0.0
 11
3936.725980091224
 21
382.8988395994056
 31
0.0
  0
LINE
  5
4F10
330
1F
100
AcDbEntity
  8
SPOJOVACÍ
  6
Continuous
100
AcDbLine
 10
3932.303924360686
 20
378.201451830846
 30
0.0
 11
3936.348328720279
 21
379.5613688441189
 31
0.0
  0
LINE
  5
4F11
330
1F
100
AcDbEntity
  8
SPOJOVACÍ
  6
Continuous
100
AcDbLine
 10
3932.303924360686
 20
378.7976945160007
 30
0.0
 11
3936.348328720279
 21
380.1576115292664
 31
0.0
  0
LINE
  5
4F12
330
1F
100
AcDbEntity
  8
SPOJOVACÍ
  6
Continuous
100
AcDbLine
 10
3936.725980091224
 20
379.7790299804364
 30
0.0
 11
3936.348328720279
 21
379.5613688441189
 31
0.0
  0
LINE
  5
4F13
330
1F
100
AcDbEntity
  8
SPOJOVACÍ
  6
Continuous
100
AcDbLine
 10
3936.725980091224
 20
379.7790299804364
 30
0.0
 11
3936.348328720279
 21
380.1576115292664
 31
0.0
  0
LINE
  5
4F14
330
1F
100
AcDbEntity
  8
SPOJOVACÍ
  6
Continuous
100
AcDbLine
 10
3931.926272985375
 20
378.5791032039742
 30
0.0
 11
3932.303924360686
 21
378.201451830846
 31
0.0
  0
LINE
  5
4F15
330
1F
100
AcDbEntity
  8
SPOJOVACÍ
  6
Continuous
100
AcDbLine
 10
3931.926272985375
 20
378.5791032039742
 30
0.0
 11
3932.303924360686
 21
378.7976945160007
 31
0.0
  0
LINE
  5
4F16
330
1F
100
AcDbEntity
  8
SPOJOVACÍ
  6
Continuous
100
AcDbLine
 10
3931.926272985375
 20
378.5791032039742
 30
0.0
 11
3936.725980091224
 21
379.7790299804364
 31
0.0
  0
LINE
  5
4F17
330
1F
100
AcDbEntity
  8
SPOJOVACÍ
  6
Continuous
100
AcDbLine
 10
3933.309444396373
 20
393.9251434828147
 30
0.0
 11
3935.46373153783
 21
394.2358221985887
 31
0.0
  0
LINE
  5
4F18
330
1F
100
AcDbEntity
  8
SPOJOVACÍ
  6
Continuous
100
AcDbLine
 10
3933.687095767319
 20
393.5474921096865
 30
0.0
 11
3935.086080166885
 21
394.0181610622712
 31
0.0
  0
LINE
  5
4F19
330
1F
100
AcDbEntity
  8
SPOJOVACÍ
  6
Continuous
100
AcDbLine
 10
3933.687095767319
 20
394.143734794834
 30
0.0
 11
3935.086080166885
 21
394.6144037474187
 31
0.0
  0
LINE
  5
4F1A
330
1F
100
AcDbEntity
  8
SPOJOVACÍ
  6
Continuous
100
AcDbLine
 10
3935.46373153783
 20
394.2358221985887
 30
0.0
 11
3935.086080166885
 21
394.0181610622712
 31
0.0
  0
LINE
  5
4F1B
330
1F
100
AcDbEntity
  8
SPOJOVACÍ
  6
Continuous
100
AcDbLine
 10
3935.46373153783
 20
394.2358221985887
 30
0.0
 11
3935.086080166885
 21
394.6144037474187
 31
0.0
  0
LINE
  5
4F1C
330
1F
100
AcDbEntity
  8
SPOJOVACÍ
  6
Continuous
100
AcDbLine
 10
3933.309444396373
 20
393.9251434828147
 30
0.0
 11
3933.687095767319
 21
393.5474921096865
 31
0.0
  0
LINE
  5
4F1D
330
1F
100
AcDbEntity
  8
SPOJOVACÍ
  6
Continuous
100
AcDbLine
 10
3933.309444396373
 20
393.9251434828147
 30
0.0
 11
3933.687095767319
 21
394.143734794834
 31
0.0
  0
LINE
  5
4F1E
330
1F
100
AcDbEntity
  8
SPOJOVACÍ
  6
Continuous
100
AcDbLine
 10
3932.744827685902
 20
390.9113739044951
 30
0.0
 11
3935.860916602333
 21
391.5448236212651
 31
0.0
  0
LINE
  5
4F1F
330
1F
100
AcDbEntity
  8
SPOJOVACÍ
  6
Continuous
100
AcDbLine
 10
3933.122479061213
 20
390.5327923553887
 30
0.0
 11
3935.483265231388
 21
391.3271624852168
 31
0.0
  0
LINE
  5
4F20
330
1F
100
AcDbEntity
  8
SPOJOVACÍ
  6
Continuous
100
AcDbLine
 10
3933.122479061213
 20
391.1290350405434
 30
0.0
 11
3935.483265231388
 21
391.923405170095
 31
0.0
  0
LINE
  5
4F21
330
1F
100
AcDbEntity
  8
SPOJOVACÍ
  6
Continuous
100
AcDbLine
 10
3935.860916602333
 20
391.5448236212651
 30
0.0
 11
3935.483265231388
 21
391.3271624852168
 31
0.0
  0
LINE
  5
4F22
330
1F
100
AcDbEntity
  8
SPOJOVACÍ
  6
Continuous
100
AcDbLine
 10
3935.860916602333
 20
391.5448236212651
 30
0.0
 11
3935.483265231388
 21
391.923405170095
 31
0.0
  0
LINE
  5
4F23
330
1F
100
AcDbEntity
  8
SPOJOVACÍ
  6
Continuous
100
AcDbLine
 10
3932.744827685902
 20
390.9113739044951
 30
0.0
 11
3933.122479061213
 21
390.5327923553887
 31
0.0
  0
LINE
  5
4F24
330
1F
100
AcDbEntity
  8
SPOJOVACÍ
  6
Continuous
100
AcDbLine
 10
3932.744827685902
 20
390.9113739044951
 30
0.0
 11
3933.122479061213
 21
391.1290350405434
 31
0.0
  0
LINE
  5
4F25
330
1F
100
AcDbEntity
  8
SPOJOVACÍ
  6
Continuous
100
AcDbLine
 10
3932.180210979796
 20
387.8966741501972
 30
0.0
 11
3936.305540632539
 21
388.8696380325018
 31
0.0
  0
LINE
  5
4F26
330
1F
100
AcDbEntity
  8
SPOJOVACÍ
  6
Continuous
100
AcDbLine
 10
3932.55879252808
 20
387.519022777069
 30
0.0
 11
3935.927889261594
 21
388.6519768964535
 31
0.0
  0
LINE
  5
4F27
330
1F
100
AcDbEntity
  8
SPOJOVACÍ
  6
Continuous
100
AcDbLine
 10
3932.55879252808
 20
388.1152654622237
 30
0.0
 11
3935.927889261594
 21
389.2482195816083
 31
0.0
  0
LINE
  5
4F28
330
1F
100
AcDbEntity
  8
SPOJOVACÍ
  6
Continuous
100
AcDbLine
 10
3936.305540632539
 20
388.8696380325018
 30
0.0
 11
3935.927889261594
 21
388.6519768964535
 31
0.0
  0
LINE
  5
4F29
330
1F
100
AcDbEntity
  8
SPOJOVACÍ
  6
Continuous
100
AcDbLine
 10
3936.305540632539
 20
388.8696380325018
 30
0.0
 11
3935.927889261594
 21
389.2482195816083
 31
0.0
  0
LINE
  5
4F2A
330
1F
100
AcDbEntity
  8
SPOJOVACÍ
  6
Continuous
100
AcDbLine
 10
3932.180210979796
 20
387.8966741501972
 30
0.0
 11
3932.55879252808
 21
387.519022777069
 31
0.0
  0
LINE
  5
4F2B
330
1F
100
AcDbEntity
  8
SPOJOVACÍ
  6
Continuous
100
AcDbLine
 10
3932.180210979796
 20
387.8966741501972
 30
0.0
 11
3932.55879252808
 21
388.1152654622237
 31
0.0
  0
LINE
  5
4F2C
330
1F
100
AcDbEntity
  8
SPOJOVACÍ
  6
Continuous
100
AcDbLine
 10
3932.303924360686
 20
375.0816422116077
 30
0.0
 11
3936.348328720279
 21
376.440629049448
 31
0.0
  0
LINE
  5
4F2D
330
1F
100
AcDbEntity
  8
SPOJOVACÍ
  6
Continuous
100
AcDbLine
 10
3932.303924360686
 20
375.6778848967623
 30
0.0
 11
3936.348328720279
 21
377.0368717343262
 31
0.0
  0
LINE
  5
4F2E
330
1F
100
AcDbEntity
  8
SPOJOVACÍ
  6
Continuous
100
AcDbLine
 10
3936.725980091224
 20
376.6592203614745
 30
0.0
 11
3936.348328720279
 21
376.440629049448
 31
0.0
  0
LINE
  5
4F2F
330
1F
100
AcDbEntity
  8
SPOJOVACÍ
  6
Continuous
100
AcDbLine
 10
3936.725980091224
 20
376.6592203614745
 30
0.0
 11
3936.348328720279
 21
377.0368717343262
 31
0.0
  0
LINE
  5
4F30
330
1F
100
AcDbEntity
  8
SPOJOVACÍ
  6
Continuous
100
AcDbLine
 10
3931.926272985375
 20
375.4592935847358
 30
0.0
 11
3932.303924360686
 21
375.0816422116077
 31
0.0
  0
LINE
  5
4F31
330
1F
100
AcDbEntity
  8
SPOJOVACÍ
  6
Continuous
100
AcDbLine
 10
3931.926272985375
 20
375.4592935847358
 30
0.0
 11
3932.303924360686
 21
375.6778848967623
 31
0.0
  0
LINE
  5
4F32
330
1F
100
AcDbEntity
  8
SPOJOVACÍ
  6
Continuous
100
AcDbLine
 10
3931.926272985375
 20
375.4592935847358
 30
0.0
 11
3936.725980091224
 21
376.6592203614745
 31
0.0
  0
LINE
  5
4F33
330
1F
100
AcDbEntity
  8
SPOJOVACÍ
  6
Continuous
100
AcDbLine
 10
3932.303924360686
 20
371.9609024169439
 30
0.0
 11
3936.348328720279
 21
373.3208194302096
 31
0.0
  0
LINE
  5
4F34
330
1F
100
AcDbEntity
  8
SPOJOVACÍ
  6
Continuous
100
AcDbLine
 10
3932.303924360686
 20
372.5571451018222
 30
0.0
 11
3936.348328720279
 21
373.9170621153643
 31
0.0
  0
LINE
  5
4F35
330
1F
100
AcDbEntity
  8
SPOJOVACÍ
  6
Continuous
100
AcDbLine
 10
3936.725980091224
 20
373.5394107422361
 30
0.0
 11
3936.348328720279
 21
373.3208194302096
 31
0.0
  0
LINE
  5
4F36
330
1F
100
AcDbEntity
  8
SPOJOVACÍ
  6
Continuous
100
AcDbLine
 10
3936.725980091224
 20
373.5394107422361
 30
0.0
 11
3936.348328720279
 21
373.9170621153643
 31
0.0
  0
LINE
  5
4F37
330
1F
100
AcDbEntity
  8
SPOJOVACÍ
  6
Continuous
100
AcDbLine
 10
3931.926272985375
 20
372.3394839657739
 30
0.0
 11
3932.303924360686
 21
371.9609024169439
 31
0.0
  0
LINE
  5
4F38
330
1F
100
AcDbEntity
  8
SPOJOVACÍ
  6
Continuous
100
AcDbLine
 10
3931.926272985375
 20
372.3394839657739
 30
0.0
 11
3932.303924360686
 21
372.5571451018222
 31
0.0
  0
LINE
  5
4F39
330
1F
100
AcDbEntity
  8
SPOJOVACÍ
  6
Continuous
100
AcDbLine
 10
3931.926272985375
 20
372.3394839657739
 30
0.0
 11
3936.725980091224
 21
373.5394107422361
 31
0.0
  0
LINE
  5
4F3A
330
1F
100
AcDbEntity
  8
SPOJOVACÍ
  6
Continuous
100
AcDbLine
 10
3935.430245210383
 20
388.4752434951042
 30
0.0
 11
3935.67581162185
 21
386.504200983818
 31
0.0
  0
LINE
  5
4F3B
330
1F
100
AcDbEntity
  8
SPOJOVACÍ
  6
Continuous
100
AcDbLine
 10
3935.091661217821
 20
391.1820550610027
 30
0.0
 11
3935.358621673159
 21
389.0454412581494
 31
0.0
  0
LINE
  5
4F3C
330
1F
100
AcDbEntity
  8
SPOJOVACÍ
  6
Continuous
100
AcDbLine
 10
3934.752147056652
 20
393.8990985604359
 30
0.0
 11
3935.020037684963
 21
391.7541131754515
 31
0.0
  0
LINE
  5
4F3D
330
1F
100
AcDbEntity
  8
SPOJOVACÍ
  6
Continuous
100
AcDbLine
 10
3933.940103584401
 20
394.2153583309664
 30
0.0
 11
3934.3261265383
 21
397.3044721487713
 31
0.0
  0
LINE
  5
4F3E
330
1F
100
AcDbEntity
  8
SPOJOVACÍ
  6
Continuous
100
AcDbLine
 10
3933.572684146721
 20
391.2741424647574
 30
0.0
 11
3933.862898991875
 21
393.594931075113
 31
0.0
  0
LINE
  5
4F3F
330
1F
100
AcDbEntity
  8
SPOJOVACÍ
  6
Continuous
100
AcDbLine
 10
3933.203404354363
 20
388.3217644890283
 30
0.0
 11
3933.493619203883
 21
390.6434832750928
 31
0.0
  0
LINE
  5
4F40
330
1F
100
AcDbEntity
  8
SPOJOVACÍ
  6
Continuous
100
AcDbLine
 10
3934.3261265383
 20
397.3044721487713
 30
0.0
 11
3934.680523519428
 21
394.4683661475028
 31
0.0
  0
LINE
  5
4F41
330
1F
100
AcDbEntity
  8
SPOJOVACÍ
  6
Continuous
100
AcDbLine
 10
3932.976441459114
 20
386.504200983818
 30
0.0
 11
3933.126199761837
 21
387.7013372331748
 31
0.0
  0
LINE
  5
4F42
330
1F
100
AcDbEntity
  8
SPOJOVACÍ
  6
Continuous
100
AcDbLine
 10
3935.67581162185
 20
386.1674773459344
 30
0.0
 11
3935.67581162185
 21
386.504200983818
 31
0.0
  0
LINE
  5
4F43
330
1F
100
AcDbEntity
  8
SPOJOVACÍ
  6
Continuous
100
AcDbLine
 10
3935.67581162185
 20
383.0448771993214
 30
0.0
 11
3935.67581162185
 21
385.5637932543504
 31
0.0
  0
LINE
  5
4F44
330
1F
100
AcDbEntity
  8
SPOJOVACÍ
  6
Continuous
100
AcDbLine
 10
3932.976441459114
 20
385.2568352419293
 30
0.0
 11
3932.976441459114
 21
386.504200983818
 31
0.0
  0
LINE
  5
4F45
330
1F
100
AcDbEntity
  8
SPOJOVACÍ
  6
Continuous
100
AcDbLine
 10
3932.976441459114
 20
382.1426066774474
 30
0.0
 11
3932.976441459114
 21
384.6605925567746
 31
0.0
  0
LINE
  5
4F46
330
1F
100
AcDbEntity
  8
SPOJOVACÍ
  6
Continuous
100
AcDbLine
 10
3935.67581162185
 20
379.9232072286795
 30
0.0
 11
3935.67581162185
 21
382.4439836353885
 31
0.0
  0
LINE
  5
4F47
330
1F
100
AcDbEntity
  8
SPOJOVACÍ
  6
Continuous
100
AcDbLine
 10
3935.67581162185
 20
376.8006070823357
 30
0.0
 11
3935.67581162185
 21
379.3288248952048
 31
0.0
  0
LINE
  5
4F48
330
1F
100
AcDbEntity
  8
SPOJOVACÍ
  6
Continuous
100
AcDbLine
 10
3935.67581162185
 20
373.685448342152
 30
0.0
 11
3935.67581162185
 21
376.204364397181
 31
0.0
  0
LINE
  5
4F49
330
1F
100
AcDbEntity
  8
SPOJOVACÍ
  6
Continuous
100
AcDbLine
 10
3932.976441459114
 20
379.0097745972925
 30
0.0
 11
3932.976441459114
 21
381.5379924101616
 31
0.0
  0
LINE
  5
4F4A
330
1F
100
AcDbEntity
  8
SPOJOVACÍ
  6
Continuous
100
AcDbLine
 10
3932.976441459114
 20
375.8946158571088
 30
0.0
 11
3932.976441459114
 21
378.4153922638179
 31
0.0
  0
LINE
  5
4F4B
330
1F
100
AcDbEntity
  8
SPOJOVACÍ
  6
Continuous
100
AcDbLine
 10
3932.976441459114
 20
372.7720157107651
 30
0.0
 11
3932.976441459114
 21
375.2909317657941
 31
0.0
  0
LINE
  5
4F4C
330
1F
100
AcDbEntity
  8
SPOJOVACÍ
  6
Continuous
100
AcDbLine
 10
3932.976441459114
 20
368.1388100719086
 30
0.0
 11
3932.976441459114
 21
372.1767032015886
 31
0.0
  0
LINE
  5
4F4D
330
1F
100
AcDbEntity
  8
SPOJOVACÍ
  6
Continuous
100
AcDbLine
 10
3935.67581162185
 20
368.1388100719086
 30
0.0
 11
3935.67581162185
 21
373.0817642508373
 31
0.0
  0
LINE
  5
4F4E
330
1F
100
AcDbEntity
  8
SPOJOVACÍ
  6
Continuous
100
AcDbLine
 10
3929.225972649666
 20
362.7391395775521
 30
0.0
 11
3930.575657733216
 21
363.4832802140262
 31
0.0
  0
LINE
  5
4F4F
330
1F
100
AcDbEntity
  8
SPOJOVACÍ
  6
Continuous
100
AcDbLine
 10
3930.575657733216
 20
363.4832802140262
 30
0.0
 11
3931.686287633575
 21
364.5520522034384
 31
0.0
  0
LINE
  5
4F50
330
1F
100
AcDbEntity
  8
SPOJOVACÍ
  6
Continuous
100
AcDbLine
 10
3931.686287633575
 20
364.5520522034384
 30
0.0
 11
3932.482518112893
 21
365.871041481736
 31
0.0
  0
LINE
  5
4F51
330
1F
100
AcDbEntity
  8
SPOJOVACÍ
  6
Continuous
100
AcDbLine
 10
3932.482518112893
 20
365.871041481736
 30
0.0
 11
3932.910398977193
 21
367.3518813487862
 31
0.0
  0
LINE
  5
4F52
330
1F
100
AcDbEntity
  8
SPOJOVACÍ
  6
Continuous
100
AcDbLine
 10
3932.910398977193
 20
367.3518813487862
 30
0.0
 11
3932.976441459114
 21
368.1388100719086
 31
0.0
  0
LINE
  5
4F53
330
1F
100
AcDbEntity
  8
SPOJOVACÍ
  6
Continuous
100
AcDbLine
 10
3937.473841431866
 20
363.9939467258773
 30
0.0
 11
3938.710975240766
 21
363.0758632154357
 31
0.0
  0
LINE
  5
4F54
330
1F
100
AcDbEntity
  8
SPOJOVACÍ
  6
Continuous
100
AcDbLine
 10
3938.710975240766
 20
363.0758632154357
 30
0.0
 11
3939.426280426934
 21
362.7391395775521
 31
0.0
  0
LINE
  5
4F55
330
1F
100
AcDbEntity
  8
SPOJOVACÍ
  6
Continuous
100
AcDbLine
 10
3929.225972649666
 20
362.7391395775521
 30
0.0
 11
3939.426280426934
 21
362.7391395775521
 31
0.0
  0
LINE
  5
4F56
330
1F
100
AcDbEntity
  8
SPOJOVACÍ
  6
Continuous
100
AcDbLine
 10
3929.225972649666
 20
361.5392128008206
 30
0.0
 11
3929.225972649666
 21
362.7391395775521
 31
0.0
  0
LINE
  5
4F57
330
1F
100
AcDbEntity
  8
SPOJOVACÍ
  6
Continuous
100
AcDbLine
 10
3929.225972649666
 20
361.5392128008206
 30
0.0
 11
3939.426280426934
 21
361.5392128008206
 31
0.0
  0
LINE
  5
4F58
330
1F
100
AcDbEntity
  8
SPOJOVACÍ
  6
Continuous
100
AcDbLine
 10
3939.426280426934
 20
361.5392128008206
 30
0.0
 11
3939.426280426934
 21
362.7391395775521
 31
0.0
  0
LINE
  5
4F59
330
1F
100
AcDbEntity
  8
SPOJOVACÍ
  6
Continuous
100
AcDbLine
 10
3935.67581162185
 20
368.1388100719086
 30
0.0
 11
3935.902774512734
 21
366.6151821184794
 31
0.0
  0
LINE
  5
4F5A
330
1F
100
AcDbEntity
  8
SPOJOVACÍ
  6
Continuous
100
AcDbLine
 10
3935.902774512734
 20
366.6151821184794
 30
0.0
 11
3936.515760361881
 21
365.201314908776
 31
0.0
  0
LINE
  5
4F5B
330
1F
100
AcDbEntity
  8
SPOJOVACÍ
  6
Continuous
100
AcDbLine
 10
3936.515760361881
 20
365.201314908776
 30
0.0
 11
3937.473841431866
 21
363.9939467258773
 31
0.0
  0
LINE
  5
4F5C
330
1F
100
AcDbEntity
  8
CETRIS
100
AcDbLine
 10
3955.799010713027
 20
361.5392128008206
 30
0.0
 11
3955.799010713027
 21
373.5392128008206
 31
0.0
  0
LINE
  5
4F5D
330
1F
100
AcDbEntity
  8
SPOJOVACÍ
  6
Continuous
100
AcDbLine
 10
3972.471756337759
 20
365.201314908776
 30
0.0
 11
3973.429837407743
 21
363.9939467258773
 31
0.0
  0
LINE
  5
4F5E
330
1F
100
AcDbEntity
  8
SPOJOVACÍ
  6
Continuous
100
AcDbLine
 10
3971.858770488611
 20
366.6151821184794
 30
0.0
 11
3972.471756337759
 21
365.201314908776
 31
0.0
  0
LINE
  5
4F5F
330
1F
100
AcDbEntity
  8
SPOJOVACÍ
  6
Continuous
100
AcDbLine
 10
3971.631807597727
 20
368.1388100719086
 30
0.0
 11
3971.858770488611
 21
366.6151821184794
 31
0.0
  0
LINE
  5
4F60
330
1F
100
AcDbEntity
  8
SPOJOVACÍ
  6
Continuous
100
AcDbLine
 10
3975.382276402811
 20
361.5392128008206
 30
0.0
 11
3975.382276402811
 21
362.7391395775521
 31
0.0
  0
LINE
  5
4F61
330
1F
100
AcDbEntity
  8
SPOJOVACÍ
  6
Continuous
100
AcDbLine
 10
3965.181968625543
 20
361.5392128008206
 30
0.0
 11
3975.382276402811
 21
361.5392128008206
 31
0.0
  0
LINE
  5
4F62
330
1F
100
AcDbEntity
  8
SPOJOVACÍ
  6
Continuous
100
AcDbLine
 10
3965.181968625543
 20
361.5392128008206
 30
0.0
 11
3965.181968625543
 21
362.7391395775521
 31
0.0
  0
LINE
  5
4F63
330
1F
100
AcDbEntity
  8
SPOJOVACÍ
  6
Continuous
100
AcDbLine
 10
3965.181968625543
 20
362.7391395775521
 30
0.0
 11
3975.382276402811
 21
362.7391395775521
 31
0.0
  0
LINE
  5
4F64
330
1F
100
AcDbEntity
  8
SPOJOVACÍ
  6
Continuous
100
AcDbLine
 10
3974.666971216643
 20
363.0758632154357
 30
0.0
 11
3975.382276402811
 21
362.7391395775521
 31
0.0
  0
LINE
  5
4F65
330
1F
100
AcDbEntity
  8
SPOJOVACÍ
  6
Continuous
100
AcDbLine
 10
3973.429837407743
 20
363.9939467258773
 30
0.0
 11
3974.666971216643
 21
363.0758632154357
 31
0.0
  0
LINE
  5
4F66
330
1F
100
AcDbEntity
  8
SPOJOVACÍ
  6
Continuous
100
AcDbLine
 10
3968.866394953069
 20
367.3518813487862
 30
0.0
 11
3968.932437434991
 21
368.1388100719086
 31
0.0
  0
LINE
  5
4F67
330
1F
100
AcDbEntity
  8
SPOJOVACÍ
  6
Continuous
100
AcDbLine
 10
3968.43851408877
 20
365.871041481736
 30
0.0
 11
3968.866394953069
 21
367.3518813487862
 31
0.0
  0
LINE
  5
4F68
330
1F
100
AcDbEntity
  8
SPOJOVACÍ
  6
Continuous
100
AcDbLine
 10
3967.642283609452
 20
364.5520522034384
 30
0.0
 11
3968.43851408877
 21
365.871041481736
 31
0.0
  0
LINE
  5
4F69
330
1F
100
AcDbEntity
  8
SPOJOVACÍ
  6
Continuous
100
AcDbLine
 10
3966.531653709093
 20
363.4832802140262
 30
0.0
 11
3967.642283609452
 21
364.5520522034384
 31
0.0
  0
LINE
  5
4F6A
330
1F
100
AcDbEntity
  8
SPOJOVACÍ
  6
Continuous
100
AcDbLine
 10
3965.181968625543
 20
362.7391395775521
 30
0.0
 11
3966.531653709093
 21
363.4832802140262
 31
0.0
  0
LINE
  5
4F6B
330
1F
100
AcDbEntity
  8
SPOJOVACÍ
  6
Continuous
100
AcDbLine
 10
3971.631807597727
 20
368.1388100719086
 30
0.0
 11
3971.631807597727
 21
373.0817642508373
 31
0.0
  0
LINE
  5
4F6C
330
1F
100
AcDbEntity
  8
SPOJOVACÍ
  6
Continuous
100
AcDbLine
 10
3968.932437434991
 20
368.1388100719086
 30
0.0
 11
3968.932437434991
 21
372.1767032015886
 31
0.0
  0
LINE
  5
4F6D
330
1F
100
AcDbEntity
  8
SPOJOVACÍ
  6
Continuous
100
AcDbLine
 10
3968.932437434991
 20
372.7720157107651
 30
0.0
 11
3968.932437434991
 21
375.2909317657941
 31
0.0
  0
LINE
  5
4F6E
330
1F
100
AcDbEntity
  8
SPOJOVACÍ
  6
Continuous
100
AcDbLine
 10
3968.932437434991
 20
375.8946158571088
 30
0.0
 11
3968.932437434991
 21
378.4153922638179
 31
0.0
  0
LINE
  5
4F6F
330
1F
100
AcDbEntity
  8
SPOJOVACÍ
  6
Continuous
100
AcDbLine
 10
3968.932437434991
 20
379.0097745972925
 30
0.0
 11
3968.932437434991
 21
381.5379924101616
 31
0.0
  0
LINE
  5
4F70
330
1F
100
AcDbEntity
  8
SPOJOVACÍ
  6
Continuous
100
AcDbLine
 10
3971.631807597727
 20
373.685448342152
 30
0.0
 11
3971.631807597727
 21
376.204364397181
 31
0.0
  0
LINE
  5
4F71
330
1F
100
AcDbEntity
  8
SPOJOVACÍ
  6
Continuous
100
AcDbLine
 10
3971.631807597727
 20
376.8006070823357
 30
0.0
 11
3971.631807597727
 21
379.3288248952048
 31
0.0
  0
LINE
  5
4F72
330
1F
100
AcDbEntity
  8
SPOJOVACÍ
  6
Continuous
100
AcDbLine
 10
3971.631807597727
 20
379.9232072286795
 30
0.0
 11
3971.631807597727
 21
382.4439836353885
 31
0.0
  0
LINE
  5
4F73
330
1F
100
AcDbEntity
  8
SPOJOVACÍ
  6
Continuous
100
AcDbLine
 10
3968.932437434991
 20
382.1426066774474
 30
0.0
 11
3968.932437434991
 21
384.6605925567746
 31
0.0
  0
LINE
  5
4F74
330
1F
100
AcDbEntity
  8
SPOJOVACÍ
  6
Continuous
100
AcDbLine
 10
3968.932437434991
 20
385.2568352419293
 30
0.0
 11
3968.932437434991
 21
386.504200983818
 31
0.0
  0
LINE
  5
4F75
330
1F
100
AcDbEntity
  8
SPOJOVACÍ
  6
Continuous
100
AcDbLine
 10
3971.631807597727
 20
383.0448771993214
 30
0.0
 11
3971.631807597727
 21
385.5637932543504
 31
0.0
  0
LINE
  5
4F76
330
1F
100
AcDbEntity
  8
SPOJOVACÍ
  6
Continuous
100
AcDbLine
 10
3971.631807597727
 20
386.1674773459344
 30
0.0
 11
3971.631807597727
 21
386.504200983818
 31
0.0
  0
LINE
  5
4F77
330
1F
100
AcDbEntity
  8
SPOJOVACÍ
  6
Continuous
100
AcDbLine
 10
3968.932437434991
 20
386.504200983818
 30
0.0
 11
3969.082195737714
 21
387.7013372331748
 31
0.0
  0
LINE
  5
4F78
330
1F
100
AcDbEntity
  8
SPOJOVACÍ
  6
Continuous
100
AcDbLine
 10
3970.282122514177
 20
397.3044721487713
 30
0.0
 11
3970.636519495306
 21
394.4683661475028
 31
0.0
  0
LINE
  5
4F79
330
1F
100
AcDbEntity
  8
SPOJOVACÍ
  6
Continuous
100
AcDbLine
 10
3969.15940033024
 20
388.3217644890283
 30
0.0
 11
3969.44961517976
 21
390.6434832750928
 31
0.0
  0
LINE
  5
4F7A
330
1F
100
AcDbEntity
  8
SPOJOVACÍ
  6
Continuous
100
AcDbLine
 10
3969.528680122598
 20
391.2741424647574
 30
0.0
 11
3969.818894967752
 21
393.594931075113
 31
0.0
  0
LINE
  5
4F7B
330
1F
100
AcDbEntity
  8
SPOJOVACÍ
  6
Continuous
100
AcDbLine
 10
3969.896099560278
 20
394.2153583309664
 30
0.0
 11
3970.282122514177
 21
397.3044721487713
 31
0.0
  0
LINE
  5
4F7C
330
1F
100
AcDbEntity
  8
SPOJOVACÍ
  6
Continuous
100
AcDbLine
 10
3970.708143032529
 20
393.8990985604359
 30
0.0
 11
3970.97603366084
 21
391.7541131754515
 31
0.0
  0
LINE
  5
4F7D
330
1F
100
AcDbEntity
  8
SPOJOVACÍ
  6
Continuous
100
AcDbLine
 10
3971.047657193699
 20
391.1820550610027
 30
0.0
 11
3971.314617649036
 21
389.0454412581494
 31
0.0
  0
LINE
  5
4F7E
330
1F
100
AcDbEntity
  8
SPOJOVACÍ
  6
Continuous
100
AcDbLine
 10
3971.38624118626
 20
388.4752434951042
 30
0.0
 11
3971.631807597727
 21
386.504200983818
 31
0.0
  0
LINE
  5
4F7F
330
1F
100
AcDbEntity
  8
SPOJOVACÍ
  6
Continuous
100
AcDbLine
 10
3967.882268961252
 20
372.3394839657739
 30
0.0
 11
3972.681976067101
 21
373.5394107422361
 31
0.0
  0
LINE
  5
4F80
330
1F
100
AcDbEntity
  8
SPOJOVACÍ
  6
Continuous
100
AcDbLine
 10
3967.882268961252
 20
372.3394839657739
 30
0.0
 11
3968.259920336563
 21
372.5571451018222
 31
0.0
  0
LINE
  5
4F81
330
1F
100
AcDbEntity
  8
SPOJOVACÍ
  6
Continuous
100
AcDbLine
 10
3967.882268961252
 20
372.3394839657739
 30
0.0
 11
3968.259920336563
 21
371.9609024169439
 31
0.0
  0
LINE
  5
4F82
330
1F
100
AcDbEntity
  8
SPOJOVACÍ
  6
Continuous
100
AcDbLine
 10
3972.681976067101
 20
373.5394107422361
 30
0.0
 11
3972.304324696155
 21
373.9170621153643
 31
0.0
  0
LINE
  5
4F83
330
1F
100
AcDbEntity
  8
SPOJOVACÍ
  6
Continuous
100
AcDbLine
 10
3972.681976067101
 20
373.5394107422361
 30
0.0
 11
3972.304324696155
 21
373.3208194302096
 31
0.0
  0
LINE
  5
4F84
330
1F
100
AcDbEntity
  8
SPOJOVACÍ
  6
Continuous
100
AcDbLine
 10
3968.259920336563
 20
372.5571451018222
 30
0.0
 11
3972.304324696155
 21
373.9170621153643
 31
0.0
  0
LINE
  5
4F85
330
1F
100
AcDbEntity
  8
SPOJOVACÍ
  6
Continuous
100
AcDbLine
 10
3968.259920336563
 20
371.9609024169439
 30
0.0
 11
3972.304324696155
 21
373.3208194302096
 31
0.0
  0
LINE
  5
4F86
330
1F
100
AcDbEntity
  8
SPOJOVACÍ
  6
Continuous
100
AcDbLine
 10
3967.882268961252
 20
375.4592935847358
 30
0.0
 11
3972.681976067101
 21
376.6592203614745
 31
0.0
  0
LINE
  5
4F87
330
1F
100
AcDbEntity
  8
SPOJOVACÍ
  6
Continuous
100
AcDbLine
 10
3967.882268961252
 20
375.4592935847358
 30
0.0
 11
3968.259920336563
 21
375.6778848967623
 31
0.0
  0
LINE
  5
4F88
330
1F
100
AcDbEntity
  8
SPOJOVACÍ
  6
Continuous
100
AcDbLine
 10
3967.882268961252
 20
375.4592935847358
 30
0.0
 11
3968.259920336563
 21
375.0816422116077
 31
0.0
  0
LINE
  5
4F89
330
1F
100
AcDbEntity
  8
SPOJOVACÍ
  6
Continuous
100
AcDbLine
 10
3972.681976067101
 20
376.6592203614745
 30
0.0
 11
3972.304324696155
 21
377.0368717343262
 31
0.0
  0
LINE
  5
4F8A
330
1F
100
AcDbEntity
  8
SPOJOVACÍ
  6
Continuous
100
AcDbLine
 10
3972.681976067101
 20
376.6592203614745
 30
0.0
 11
3972.304324696155
 21
376.440629049448
 31
0.0
  0
LINE
  5
4F8B
330
1F
100
AcDbEntity
  8
SPOJOVACÍ
  6
Continuous
100
AcDbLine
 10
3968.259920336563
 20
375.6778848967623
 30
0.0
 11
3972.304324696155
 21
377.0368717343262
 31
0.0
  0
LINE
  5
4F8C
330
1F
100
AcDbEntity
  8
SPOJOVACÍ
  6
Continuous
100
AcDbLine
 10
3968.259920336563
 20
375.0816422116077
 30
0.0
 11
3972.304324696155
 21
376.440629049448
 31
0.0
  0
LINE
  5
4F8D
330
1F
100
AcDbEntity
  8
SPOJOVACÍ
  6
Continuous
100
AcDbLine
 10
3968.136206955673
 20
387.8966741501972
 30
0.0
 11
3968.514788503958
 21
388.1152654622237
 31
0.0
  0
LINE
  5
4F8E
330
1F
100
AcDbEntity
  8
SPOJOVACÍ
  6
Continuous
100
AcDbLine
 10
3968.136206955673
 20
387.8966741501972
 30
0.0
 11
3968.514788503958
 21
387.519022777069
 31
0.0
  0
LINE
  5
4F8F
330
1F
100
AcDbEntity
  8
SPOJOVACÍ
  6
Continuous
100
AcDbLine
 10
3972.261536608416
 20
388.8696380325018
 30
0.0
 11
3971.88388523747
 21
389.2482195816083
 31
0.0
  0
LINE
  5
4F90
330
1F
100
AcDbEntity
  8
SPOJOVACÍ
  6
Continuous
100
AcDbLine
 10
3972.261536608416
 20
388.8696380325018
 30
0.0
 11
3971.88388523747
 21
388.6519768964535
 31
0.0
  0
LINE
  5
4F91
330
1F
100
AcDbEntity
  8
SPOJOVACÍ
  6
Continuous
100
AcDbLine
 10
3968.514788503958
 20
388.1152654622237
 30
0.0
 11
3971.88388523747
 21
389.2482195816083
 31
0.0
  0
LINE
  5
4F92
330
1F
100
AcDbEntity
  8
SPOJOVACÍ
  6
Continuous
100
AcDbLine
 10
3968.514788503958
 20
387.519022777069
 30
0.0
 11
3971.88388523747
 21
388.6519768964535
 31
0.0
  0
LINE
  5
4F93
330
1F
100
AcDbEntity
  8
SPOJOVACÍ
  6
Continuous
100
AcDbLine
 10
3968.136206955673
 20
387.8966741501972
 30
0.0
 11
3972.261536608416
 21
388.8696380325018
 31
0.0
  0
LINE
  5
4F94
330
1F
100
AcDbEntity
  8
SPOJOVACÍ
  6
Continuous
100
AcDbLine
 10
3968.700823661779
 20
390.9113739044951
 30
0.0
 11
3969.07847503709
 21
391.1290350405434
 31
0.0
  0
LINE
  5
4F95
330
1F
100
AcDbEntity
  8
SPOJOVACÍ
  6
Continuous
100
AcDbLine
 10
3968.700823661779
 20
390.9113739044951
 30
0.0
 11
3969.07847503709
 21
390.5327923553887
 31
0.0
  0
LINE
  5
4F96
330
1F
100
AcDbEntity
  8
SPOJOVACÍ
  6
Continuous
100
AcDbLine
 10
3971.81691257821
 20
391.5448236212651
 30
0.0
 11
3971.439261207265
 21
391.923405170095
 31
0.0
  0
LINE
  5
4F97
330
1F
100
AcDbEntity
  8
SPOJOVACÍ
  6
Continuous
100
AcDbLine
 10
3971.81691257821
 20
391.5448236212651
 30
0.0
 11
3971.439261207265
 21
391.3271624852168
 31
0.0
  0
LINE
  5
4F98
330
1F
100
AcDbEntity
  8
SPOJOVACÍ
  6
Continuous
100
AcDbLine
 10
3969.07847503709
 20
391.1290350405434
 30
0.0
 11
3971.439261207265
 21
391.923405170095
 31
0.0
  0
LINE
  5
4F99
330
1F
100
AcDbEntity
  8
SPOJOVACÍ
  6
Continuous
100
AcDbLine
 10
3969.07847503709
 20
390.5327923553887
 30
0.0
 11
3971.439261207265
 21
391.3271624852168
 31
0.0
  0
LINE
  5
4F9A
330
1F
100
AcDbEntity
  8
SPOJOVACÍ
  6
Continuous
100
AcDbLine
 10
3968.700823661779
 20
390.9113739044951
 30
0.0
 11
3971.81691257821
 21
391.5448236212651
 31
0.0
  0
LINE
  5
4F9B
330
1F
100
AcDbEntity
  8
SPOJOVACÍ
  6
Continuous
100
AcDbLine
 10
3969.26544037225
 20
393.9251434828147
 30
0.0
 11
3969.643091743196
 21
394.143734794834
 31
0.0
  0
LINE
  5
4F9C
330
1F
100
AcDbEntity
  8
SPOJOVACÍ
  6
Continuous
100
AcDbLine
 10
3969.26544037225
 20
393.9251434828147
 30
0.0
 11
3969.643091743196
 21
393.5474921096865
 31
0.0
  0
LINE
  5
4F9D
330
1F
100
AcDbEntity
  8
SPOJOVACÍ
  6
Continuous
100
AcDbLine
 10
3971.419727513707
 20
394.2358221985887
 30
0.0
 11
3971.042076142762
 21
394.6144037474187
 31
0.0
  0
LINE
  5
4F9E
330
1F
100
AcDbEntity
  8
SPOJOVACÍ
  6
Continuous
100
AcDbLine
 10
3971.419727513707
 20
394.2358221985887
 30
0.0
 11
3971.042076142762
 21
394.0181610622712
 31
0.0
  0
LINE
  5
4F9F
330
1F
100
AcDbEntity
  8
SPOJOVACÍ
  6
Continuous
100
AcDbLine
 10
3969.643091743196
 20
394.143734794834
 30
0.0
 11
3971.042076142762
 21
394.6144037474187
 31
0.0
  0
LINE
  5
4FA0
330
1F
100
AcDbEntity
  8
SPOJOVACÍ
  6
Continuous
100
AcDbLine
 10
3969.643091743196
 20
393.5474921096865
 30
0.0
 11
3971.042076142762
 21
394.0181610622712
 31
0.0
  0
LINE
  5
4FA1
330
1F
100
AcDbEntity
  8
SPOJOVACÍ
  6
Continuous
100
AcDbLine
 10
3969.26544037225
 20
393.9251434828147
 30
0.0
 11
3971.419727513707
 21
394.2358221985887
 31
0.0
  0
LINE
  5
4FA2
330
1F
100
AcDbEntity
  8
SPOJOVACÍ
  6
Continuous
100
AcDbLine
 10
3967.882268961252
 20
378.5791032039742
 30
0.0
 11
3972.681976067101
 21
379.7790299804364
 31
0.0
  0
LINE
  5
4FA3
330
1F
100
AcDbEntity
  8
SPOJOVACÍ
  6
Continuous
100
AcDbLine
 10
3967.882268961252
 20
378.5791032039742
 30
0.0
 11
3968.259920336563
 21
378.7976945160007
 31
0.0
  0
LINE
  5
4FA4
330
1F
100
AcDbEntity
  8
SPOJOVACÍ
  6
Continuous
100
AcDbLine
 10
3967.882268961252
 20
378.5791032039742
 30
0.0
 11
3968.259920336563
 21
378.201451830846
 31
0.0
  0
LINE
  5
4FA5
330
1F
100
AcDbEntity
  8
SPOJOVACÍ
  6
Continuous
100
AcDbLine
 10
3972.681976067101
 20
379.7790299804364
 30
0.0
 11
3972.304324696155
 21
380.1576115292664
 31
0.0
  0
LINE
  5
4FA6
330
1F
100
AcDbEntity
  8
SPOJOVACÍ
  6
Continuous
100
AcDbLine
 10
3972.681976067101
 20
379.7790299804364
 30
0.0
 11
3972.304324696155
 21
379.5613688441189
 31
0.0
  0
LINE
  5
4FA7
330
1F
100
AcDbEntity
  8
SPOJOVACÍ
  6
Continuous
100
AcDbLine
 10
3968.259920336563
 20
378.7976945160007
 30
0.0
 11
3972.304324696155
 21
380.1576115292664
 31
0.0
  0
LINE
  5
4FA8
330
1F
100
AcDbEntity
  8
SPOJOVACÍ
  6
Continuous
100
AcDbLine
 10
3968.259920336563
 20
378.201451830846
 30
0.0
 11
3972.304324696155
 21
379.5613688441189
 31
0.0
  0
LINE
  5
4FA9
330
1F
100
AcDbEntity
  8
SPOJOVACÍ
  6
Continuous
100
AcDbLine
 10
3967.882268961252
 20
381.6989128229433
 30
0.0
 11
3972.681976067101
 21
382.8988395994056
 31
0.0
  0
LINE
  5
4FAA
330
1F
100
AcDbEntity
  8
SPOJOVACÍ
  6
Continuous
100
AcDbLine
 10
3967.882268961252
 20
381.6989128229433
 30
0.0
 11
3968.259920336563
 21
381.9175041349626
 31
0.0
  0
LINE
  5
4FAB
330
1F
100
AcDbEntity
  8
SPOJOVACÍ
  6
Continuous
100
AcDbLine
 10
3967.882268961252
 20
381.6989128229433
 30
0.0
 11
3968.259920336563
 21
381.3212614498151
 31
0.0
  0
LINE
  5
4FAC
330
1F
100
AcDbEntity
  8
SPOJOVACÍ
  6
Continuous
100
AcDbLine
 10
3972.681976067101
 20
382.8988395994056
 30
0.0
 11
3972.304324696155
 21
383.2774211482355
 31
0.0
  0
LINE
  5
4FAD
330
1F
100
AcDbEntity
  8
SPOJOVACÍ
  6
Continuous
100
AcDbLine
 10
3972.681976067101
 20
382.8988395994056
 30
0.0
 11
3972.304324696155
 21
382.6811784633573
 31
0.0
  0
LINE
  5
4FAE
330
1F
100
AcDbEntity
  8
SPOJOVACÍ
  6
Continuous
100
AcDbLine
 10
3968.259920336563
 20
381.9175041349626
 30
0.0
 11
3972.304324696155
 21
383.2774211482355
 31
0.0
  0
LINE
  5
4FAF
330
1F
100
AcDbEntity
  8
SPOJOVACÍ
  6
Continuous
100
AcDbLine
 10
3968.259920336563
 20
381.3212614498151
 30
0.0
 11
3972.304324696155
 21
382.6811784633573
 31
0.0
  0
LINE
  5
4FB0
330
1F
100
AcDbEntity
  8
SPOJOVACÍ
  6
Continuous
100
AcDbLine
 10
3967.882268961252
 20
384.8196526178835
 30
0.0
 11
3972.681976067101
 21
386.0195793943458
 31
0.0
  0
LINE
  5
4FB1
330
1F
100
AcDbEntity
  8
SPOJOVACÍ
  6
Continuous
100
AcDbLine
 10
3967.882268961252
 20
384.8196526178835
 30
0.0
 11
3968.259920336563
 21
385.0373137539318
 31
0.0
  0
LINE
  5
4FB2
330
1F
100
AcDbEntity
  8
SPOJOVACÍ
  6
Continuous
100
AcDbLine
 10
3967.882268961252
 20
384.8196526178835
 30
0.0
 11
3968.259920336563
 21
384.4410710687771
 31
0.0
  0
LINE
  5
4FB3
330
1F
100
AcDbEntity
  8
SPOJOVACÍ
  6
Continuous
100
AcDbLine
 10
3972.681976067101
 20
386.0195793943458
 30
0.0
 11
3972.304324696155
 21
386.3972307674739
 31
0.0
  0
LINE
  5
4FB4
330
1F
100
AcDbEntity
  8
SPOJOVACÍ
  6
Continuous
100
AcDbLine
 10
3972.681976067101
 20
386.0195793943458
 30
0.0
 11
3972.304324696155
 21
385.8009880823192
 31
0.0
  0
LINE
  5
4FB5
330
1F
100
AcDbEntity
  8
SPOJOVACÍ
  6
Continuous
100
AcDbLine
 10
3968.259920336563
 20
385.0373137539318
 30
0.0
 11
3972.304324696155
 21
386.3972307674739
 31
0.0
  0
LINE
  5
4FB6
330
1F
100
AcDbEntity
  8
SPOJOVACÍ
  6
Continuous
100
AcDbLine
 10
3968.259920336563
 20
384.4410710687771
 30
0.0
 11
3972.304324696155
 21
385.8009880823192
 31
0.0
  0
LWPOLYLINE
  5
4FB7
330
1F
100
AcDbEntity
  8
izolace
100
AcDbPolyline
 90
        4
 70
     1
 43
0.0
 10
3955.799010713027
 20
373.5392128008206
 10
3948.799010713027
 20
373.5392128008206
 10
3948.799010713027
 20
361.5392128008206
 10
3955.799010713027
 20
361.5392128008206
  0
INSERT
  5
4FB8
330
1F
100
AcDbEntity
  8
POPIS
100
AcDbBlockReference
  2
E_PUNKT
 10
3951.47828323841
 20
361.5101444699484
 30
0.0
  0
HATCH
  5
4FB9
330
1F
100
AcDbEntity
  8
izolace
100
AcDbHatch
 10
0.0
 20
0.0
 30
0.0
210
0.0
220
0.0
230
1.0
  2
AR-SAND
 70
     0
 71
     0
 91
        1
 92
        7
 72
     1
 73
     1
 93
        6
 10
3955.799010713027
 20
373.5392128008197
 42
0.0
 10
3948.799010713027
 20
373.5392128008206
 42
0.0
 10
3948.799010713027
 20
361.5392128008206
 42
0.0
 10
3950.255893614036
 20
361.5392128008206
 42
-1.0
 10
3952.755893614036
 20
361.5392128008206
 42
0.0
 10
3955.79901071302
 20
361.5392128008206
 42
0.0
 97
        0
 75
     0
 76
     1
 52
90.0
 41
0.05
 77
     0
 78
     4
 53
127.5
 43
-28573.05054269307
 44
-3980.285812486242
 45
-2.447066186646711
 46
-0.0800015647992021
 79
     6
 49
0.0
 49
-1.9304
 49
0.0
 49
-2.159
 49
0.0
 49
-2.06375
 53
97.49999999999989
 43
-28573.05054269307
 44
-3980.285812486242
 45
-3.584125502841771
 46
2.247616415690013
 79
     6
 49
0.0
 49
-1.041399999999999
 49
0.0
 49
-1.7399
 49
0.0
 49
-0.66675
 53
57.5
 43
-28573.05054269307
 44
-3981.847912486241
 45
-0.0071859233927282
 46
3.95496185120729
 79
     6
 49
0.0
 49
-0.635
 49
0.0
 49
-2.286
 49
0.0
 49
-2.9845
 53
47.5
 43
-28573.05054269307
 44
-3981.847912486241
 45
-1.11464661628608
 46
3.817782262361486
 79
     6
 49
0.0
 49
-0.3175
 49
0.0
 49
-1.498599999999999
 49
0.0
 49
-1.7145
 47
0.2169446325764043
 98
        1
 10
3954.090314024502
 20
367.42124290842
  0
LINE
  5
4FBA
330
1F
100
AcDbEntity
  8
STAVBA OBRYS
100
AcDbLine
 10
3357.590396536073
 20
799.1677760033908
 30
0.0
 11
3357.590396536073
 21
288.9453304398321
 31
0.0
  0
LINE
  5
4FBB
330
1F
100
AcDbEntity
  8
STAVBA OBRYS
100
AcDbLine
 10
4111.358596966284
 20
692.4662691571393
 30
0.0
 11
4097.628914912641
 21
691.5894189274077
 31
0.0
  0
LINE
  5
4FBC
330
1F
100
AcDbEntity
  8
STAVBA OBRYS
100
AcDbLine
 10
4073.377306811783
 20
700.9777087743823
 30
0.0
 11
4091.033973031659
 21
702.870710977917
 31
0.0
  0
LINE
  5
4FBD
330
1F
100
AcDbEntity
  8
STAVBA OBRYS
100
AcDbLine
 10
4084.497334009578
 20
696.5372990476935
 30
0.0
 11
4056.885066709651
 21
695.6888491799145
 31
0.0
  0
LINE
  5
4FBE
330
1F
100
AcDbEntity
  8
STAVBA OBRYS
100
AcDbLine
 10
4113.887344457917
 20
696.3257411612976
 30
0.0
 11
4084.497334009578
 21
696.5372990476935
 31
0.0
  0
LINE
  5
4FBF
330
1F
100
AcDbEntity
  8
STAVBA OBRYS
100
AcDbLine
 10
4083.061340028662
 20
690.7885826222955
 30
0.0
 11
4081.048695944231
 21
690.8618092430806
 31
0.0
  0
LINE
  5
4FC0
330
1F
100
AcDbEntity
  8
STAVBA OBRYS
100
AcDbLine
 10
4040.392826607519
 20
699.2852748716869
 30
0.0
 11
4073.377306811783
 21
700.9777087743823
 31
0.0
  0
LINE
  5
4FC1
330
1F
100
AcDbEntity
  8
STAVBA OBRYS
100
AcDbLine
 10
4056.885066709651
 20
695.6888491799145
 30
0.0
 11
4038.921193633238
 21
694.5654924564914
 31
0.0
  0
LINE
  5
4FC2
330
1F
100
AcDbEntity
  8
STAVBA OBRYS
100
AcDbLine
 10
4073.340343781844
 20
691.007342855326
 30
0.0
 11
4069.186219463367
 21
690.7885826222955
 31
0.0
  0
LINE
  5
4FC3
330
1F
100
AcDbEntity
  8
STAVBA OBRYS
100
AcDbLine
 10
4081.048695944231
 20
690.8618092430806
 30
0.0
 11
4073.340343781844
 21
691.007342855326
 31
0.0
  0
LINE
  5
4FC4
330
1F
100
AcDbEntity
  8
STAVBA OBRYS
100
AcDbLine
 10
4097.628914912641
 20
691.5894189274077
 30
0.0
 11
4090.88274160238
 21
690.7885826222955
 31
0.0
  0
LINE
  5
4FC5
330
1F
100
AcDbEntity
  8
STAVBA OBRYS
100
AcDbLine
 10
4122.780530635743
 20
702.870710977917
 30
0.0
 11
4133.254330545674
 21
701.5006782349919
 31
0.0
  0
LINE
  5
4FC6
330
1F
100
AcDbEntity
  8
STAVBA OBRYS
100
AcDbLine
 10
4133.254330545674
 20
701.5006782349919
 30
0.0
 11
4153.054915163225
 21
699.7061139453689
 31
0.0
  0
LINE
  5
4FC7
330
1F
100
AcDbEntity
  8
STAVBA OBRYS
100
AcDbLine
 10
4151.946348976973
 20
696.114183274909
 30
0.0
 11
4113.887344457917
 21
696.3257411612976
 31
0.0
  0
LINE
  5
4FC8
330
1F
100
AcDbEntity
  8
STAVBA OBRYS
100
AcDbLine
 10
4159.499434766173
 20
689.9924312565745
 30
0.0
 11
4143.646407940144
 21
690.4289737164035
 31
0.0
  0
LINE
  5
4FC9
330
1F
100
AcDbEntity
  8
STAVBA OBRYS
100
AcDbLine
 10
4165.855308039641
 20
689.5580487420411
 30
0.0
 11
4159.499434766173
 21
689.9924312565745
 31
0.0
  0
LINE
  5
4FCA
330
1F
100
AcDbEntity
  8
STAVBA OBRYS
100
AcDbLine
 10
4136.09868947571
 20
690.7885826222955
 30
0.0
 11
4131.429395944691
 21
691.0110497884852
 31
0.0
  0
LINE
  5
4FCB
330
1F
100
AcDbEntity
  8
STAVBA OBRYS
100
AcDbLine
 10
4131.429395944691
 20
691.0110497884852
 30
0.0
 11
4111.358596966284
 21
692.4662691571393
 31
0.0
  0
LINE
  5
4FCC
330
1F
100
AcDbEntity
  8
STAVBA OBRYS
100
AcDbLine
 10
4153.054915163225
 20
699.7061139453689
 30
0.0
 11
4172.673480760731
 21
699.8182851591373
 31
0.0
  0
LINE
  5
4FCD
330
1F
100
AcDbEntity
  8
STAVBA OBRYS
100
AcDbLine
 10
4173.040314930442
 20
695.6927896206798
 30
0.0
 11
4151.946348976973
 21
696.114183274909
 31
0.0
  0
LINE
  5
4FCE
330
1F
100
AcDbEntity
  8
STAVBA OBRYS
100
AcDbLine
 10
4172.673480760731
 20
699.8182851591373
 30
0.0
 11
4179.960375007849
 21
701.1642813474791
 31
0.0
  0
LINE
  5
4FCF
330
1F
100
AcDbEntity
  8
STAVBA OBRYS
100
AcDbLine
 10
4387.741255903801
 20
691.0110497884852
 30
0.0
 11
4367.670456925394
 21
692.4662691571393
 31
0.0
  0
LINE
  5
4FD0
330
1F
100
AcDbEntity
  8
STAVBA OBRYS
100
AcDbLine
 10
4389.428028976482
 20
690.9306839637647
 30
0.0
 11
4387.741255903801
 21
691.0110497884852
 31
0.0
  0
LINE
  5
4FD1
330
1F
100
AcDbEntity
  8
STAVBA OBRYS
100
AcDbLine
 10
4389.428028976482
 20
696.2188542489111
 30
0.0
 11
4370.199204417028
 21
696.3257411612976
 31
0.0
  0
LINE
  5
4FD2
330
1F
100
AcDbEntity
  8
STAVBA OBRYS
100
AcDbLine
 10
4379.092390594854
 20
702.870710977917
 30
0.0
 11
4389.566190504784
 21
701.5006782349919
 31
0.0
  0
LINE
  5
4FD3
330
1F
100
AcDbEntity
  8
STAVBA OBRYS
100
AcDbLine
 10
4367.670456925394
 20
692.4662691571393
 30
0.0
 11
4353.940774871752
 21
691.5894189274077
 31
0.0
  0
LINE
  5
4FD4
330
1F
100
AcDbEntity
  8
STAVBA OBRYS
100
AcDbLine
 10
4179.960375007849
 20
701.1642813474791
 30
0.0
 11
4206.776503020238
 21
702.1981946272535
 31
0.0
  0
LINE
  5
4FD5
330
1F
100
AcDbEntity
  8
STAVBA OBRYS
100
AcDbLine
 10
4214.693771165879
 20
695.2698489785944
 30
0.0
 11
4191.858375670267
 21
694.8467332058099
 31
0.0
  0
LINE
  5
4FD6
330
1F
100
AcDbEntity
  8
STAVBA OBRYS
100
AcDbLine
 10
4213.559841377831
 20
692.6139627146949
 30
0.0
 11
4188.834929706233
 21
690.2856584263681
 31
0.0
  0
LINE
  5
4FD7
330
1F
100
AcDbEntity
  8
STAVBA OBRYS
100
AcDbLine
 10
4191.858375670267
 20
694.8467332058099
 30
0.0
 11
4173.040314930442
 21
695.6927896206798
 31
0.0
  0
POLYLINE
  5
4FD8
330
1F
100
AcDbEntity
  8
STAVBA OBRYS
100
AcDb2dPolyline
 66
     1
 10
0.0
 20
0.0
 30
0.0
  0
VERTEX
  5
4FD9
330
4FD8
100
AcDbEntity
  8
STAVBA OBRYS
100
AcDbVertex
100
AcDb2dVertex
 10
4164.308193270971
 20
689.7958492821162
 30
0.0
 42
0.0141362754529377
  0
VERTEX
  5
4FDA
330
4FD8
100
AcDbEntity
  8
STAVBA OBRYS
100
AcDbVertex
100
AcDb2dVertex
 10
4161.710571717619
 20
691.2314848338738
 30
0.0
 42
0.056967459841729
  0
VERTEX
  5
4FDB
330
4FD8
100
AcDbEntity
  8
STAVBA OBRYS
100
AcDbVertex
100
AcDb2dVertex
 10
4159.141434980741
 20
692.2067678361127
 30
0.0
 42
0.0373408083348504
  0
VERTEX
  5
4FDC
330
4FD8
100
AcDbEntity
  8
STAVBA OBRYS
100
AcDbVertex
100
AcDb2dVertex
 10
4158.874609730172
 20
692.2537664852534
 30
0.0
 42
0.0052305969362967
  0
VERTEX
  5
4FDD
330
4FD8
100
AcDbEntity
  8
STAVBA OBRYS
100
AcDbVertex
100
AcDb2dVertex
 10
4158.459458001666
 20
692.2909148455391
 30
0.0
  0
SEQEND
  5
4FDE
330
4FD8
100
AcDbEntity
  8
STAVBA OBRYS
  0
POLYLINE
  5
4FDF
330
1F
100
AcDbEntity
  8
STAVBA OBRYS
100
AcDb2dPolyline
 66
     1
 10
0.0
 20
0.0
 30
0.0
  0
VERTEX
  5
4FE0
330
4FDF
100
AcDbEntity
  8
STAVBA OBRYS
100
AcDbVertex
100
AcDb2dVertex
 10
4152.560658206016
 20
689.7958492821162
 30
0.0
 42
-0.0137909154721682
  0
VERTEX
  5
4FE1
330
4FDF
100
AcDbEntity
  8
STAVBA OBRYS
100
AcDbVertex
100
AcDb2dVertex
 10
4155.086945481986
 20
691.2106189280985
 30
0.0
 42
-0.056967459841729
  0
VERTEX
  5
4FE2
330
4FDF
100
AcDbEntity
  8
STAVBA OBRYS
100
AcDbVertex
100
AcDb2dVertex
 10
4157.649886568901
 20
692.2020691246343
 30
0.0
 42
-0.0373408083348504
  0
VERTEX
  5
4FE3
330
4FDF
100
AcDbEntity
  8
STAVBA OBRYS
100
AcDbVertex
100
AcDb2dVertex
 10
4157.916410414031
 20
692.2507479428523
 30
0.0
 42
-0.0052305969362967
  0
VERTEX
  5
4FE4
330
4FDF
100
AcDbEntity
  8
STAVBA OBRYS
100
AcDbVertex
100
AcDb2dVertex
 10
4158.331319853783
 20
692.2905111816808
 30
0.0
  0
SEQEND
  5
4FE5
330
4FDF
100
AcDbEntity
  8
STAVBA OBRYS
  0
LWPOLYLINE
  5
4FE6
330
1F
100
AcDbEntity
  8
STAVBA OBRYS
100
AcDbPolyline
 90
        2
 70
     0
 43
0.0
 10
4387.775573266738
 20
689.8277106987916
 10
4389.428028976482
 20
691.4830389074968
  0
LINE
  5
4FE7
330
1F
100
AcDbEntity
  8
STAVBA OBRYS
100
AcDbLine
 10
4389.439499087067
 20
636.5392128008206
 30
0.0
 11
3357.590396536066
 21
636.5392128008206
 31
0.0
  0
LWPOLYLINE
  5
4FE8
330
1F
100
AcDbEntity
  8
STAVBA OBRYS
100
AcDbPolyline
 90
        2
 70
     0
 43
0.0
 10
4270.82861027108
 20
689.8473912980598
 10
4270.453045164579
 20
690.0176240999189
  0
LWPOLYLINE
  5
4FE9
330
1F
100
AcDbEntity
  8
STAVBA OBRYS
100
AcDbPolyline
 90
        2
 70
     0
 43
0.0
 10
4284.67434675091
 20
689.8910084682456
 10
4285.048831871095
 20
690.0636040962672
  0
LINE
  5
4FEA
330
1F
100
AcDbEntity
  8
STAVBA OBRYS
100
AcDbLine
 10
4389.439499087067
 20
649.7958492821162
 30
0.0
 11
3357.590396536066
 21
649.7958492821162
 31
0.0
  0
LINE
  5
4FEB
330
1F
100
AcDbEntity
  8
STAVBA OBRYS
100
AcDbLine
 10
4337.360555903341
 20
690.8618092430806
 30
0.0
 11
4329.652203740955
 21
691.007342855326
 31
0.0
  0
LINE
  5
4FEC
330
1F
100
AcDbEntity
  8
STAVBA OBRYS
100
AcDbLine
 10
4329.652203740955
 20
691.007342855326
 30
0.0
 11
4325.498079422478
 21
690.7885826222955
 31
0.0
  0
LINE
  5
4FED
330
1F
100
AcDbEntity
  8
STAVBA OBRYS
100
AcDbLine
 10
4313.196926668761
 20
695.6888491799145
 30
0.0
 11
4282.749726661433
 21
693.7848573908304
 31
0.0
  0
LINE
  5
4FEE
330
1F
100
AcDbEntity
  8
STAVBA OBRYS
100
AcDbLine
 10
4282.749726661433
 20
693.7848573908304
 30
0.0
 11
4275.304427160105
 21
693.999421687582
 31
0.0
  0
LINE
  5
4FEF
330
1F
100
AcDbEntity
  8
STAVBA OBRYS
100
AcDbLine
 10
4296.70468656663
 20
699.2852748716869
 30
0.0
 11
4329.689166770894
 21
700.9777087743823
 31
0.0
  0
LINE
  5
4FF0
330
1F
100
AcDbEntity
  8
STAVBA OBRYS
100
AcDbLine
 10
4353.940774871752
 20
691.5894189274077
 30
0.0
 11
4345.359777706867
 21
690.5707712070397
 31
0.0
  0
LINE
  5
4FF1
330
1F
100
AcDbEntity
  8
STAVBA OBRYS
100
AcDbLine
 10
4345.359777706867
 20
690.5707712070397
 30
0.0
 11
4337.360555903341
 21
690.8618092430806
 31
0.0
  0
LINE
  5
4FF2
330
1F
100
AcDbEntity
  8
STAVBA OBRYS
100
AcDbLine
 10
4370.199204417028
 20
696.3257411612976
 30
0.0
 11
4340.809193968688
 21
696.5372990476935
 31
0.0
  0
LINE
  5
4FF3
330
1F
100
AcDbEntity
  8
STAVBA OBRYS
100
AcDbLine
 10
4340.809193968688
 20
696.5372990476935
 30
0.0
 11
4313.196926668761
 21
695.6888491799145
 31
0.0
  0
LINE
  5
4FF4
330
1F
100
AcDbEntity
  8
STAVBA OBRYS
100
AcDbLine
 10
4329.689166770894
 20
700.9777087743823
 30
0.0
 11
4347.345832990769
 21
702.870710977917
 31
0.0
  0
LINE
  5
4FF5
330
1F
100
AcDbEntity
  8
STAVBA OBRYS
100
AcDbLine
 10
4263.674692587573
 20
701.7281438266909
 30
0.0
 11
4290.663008067388
 21
700.1582138491103
 31
0.0
  0
LINE
  5
4FF6
330
1F
100
AcDbEntity
  8
STAVBA OBRYS
100
AcDbLine
 10
4275.304427160105
 20
693.999421687582
 30
0.0
 11
4250.426955047248
 21
695.2698489785944
 31
0.0
  0
LINE
  5
4FF7
330
1F
100
AcDbEntity
  8
STAVBA OBRYS
100
AcDbLine
 10
4229.504472092808
 20
690.7885826222955
 30
0.0
 11
4227.043121271441
 21
691.4516202544364
 31
0.0
  0
LINE
  5
4FF8
330
1F
100
AcDbEntity
  8
STAVBA OBRYS
100
AcDbLine
 10
4227.017739630095
 20
702.5121747850826
 30
0.0
 11
4263.674692587573
 21
701.7281438266909
 31
0.0
  0
LINE
  5
4FF9
330
1F
100
AcDbEntity
  8
STAVBA OBRYS
100
AcDbLine
 10
4296.70468656663
 20
699.2852748716869
 30
0.0
 11
4290.663008067388
 21
700.1582138491103
 31
0.0
  0
LINE
  5
4FFA
330
1F
100
AcDbEntity
  8
STAVBA OBRYS
100
AcDbLine
 10
4250.426955047248
 20
695.2698489785944
 30
0.0
 11
4214.693771165879
 21
695.2698489785944
 31
0.0
  0
LINE
  5
4FFB
330
1F
100
AcDbEntity
  8
STAVBA OBRYS
100
AcDbLine
 10
4227.043121271441
 20
691.4516202544364
 30
0.0
 11
4213.559841377831
 21
692.6139627146949
 31
0.0
  0
LINE
  5
4FFC
330
1F
100
AcDbEntity
  8
STAVBA OBRYS
100
AcDbLine
 10
4206.776503020238
 20
702.1981946272535
 30
0.0
 11
4227.017739630095
 21
702.5121747850826
 31
0.0
  0
LINE
  5
4FFD
330
1F
100
AcDbEntity
  8
STAVBA OBRYS
100
AcDbLine
 10
4389.439499087067
 20
689.7958492821162
 30
0.0
 11
3372.590396536073
 21
689.7958492821153
 31
0.0
  0
LINE
  5
4FFE
330
1F
100
AcDbEntity
  8
STAVBA OBRYS
100
AcDbLine
 10
4389.428028976482
 20
702.9788530681871
 30
0.0
 11
3372.590396536073
 21
702.9788530681871
 31
0.0
  0
LINE
  5
56E2
330
1F
100
AcDbEntity
  8
izolace
  6
IZOLACE
 48
1.5
100
AcDbLine
 10
3357.590396536073
 20
421.5838401707697
 30
0.0
 11
4389.439499087067
 21
421.5838401707697
 31
0.0
  0
LINE
  5
56E3
330
1F
100
AcDbEntity
  8
NOSNÉ KONSTRUKCE
100
AcDbLine
 10
3360.192512547416
 20
405.1014585134298
 30
0.0
 11
3360.192512547416
 21
435.4572030561066
 31
0.0
  0
LINE
  5
6B19
330
1F
100
AcDbEntity
  8
NOSNÉ KONSTRUKCE
100
AcDbLine
 39
2500.000155029299
 10
4860.977149113775
 20
223.0697025332446
 30
0.0
 11
4860.977129977286
 21
219.0696814425718
 31
0.0
  0
LINE
  5
6B1A
330
1F
100
AcDbEntity
  8
NOSNÉ KONSTRUKCE
100
AcDbLine
 39
2500.000155029299
 10
4860.977129977286
 20
219.0696814425718
 30
0.0
 11
4849.977193093796
 21
219.069734067335
 31
0.0
  0
LINE
  5
6B1B
330
1F
100
AcDbEntity
  8
NOSNÉ KONSTRUKCE
100
AcDbLine
 39
2500.000155029299
 10
4858.977148136454
 20
225.0696742004802
 30
0.0
 11
4860.977168249806
 21
227.0696267312268
 31
0.0
  0
LINE
  5
6B1C
330
1F
100
AcDbEntity
  8
NOSNÉ KONSTRUKCE
100
AcDbLine
 39
2500.000155029299
 10
4860.977149113775
 20
223.0697025332446
 30
0.0
 11
4858.977148136454
 21
225.0696742004802
 31
0.0
  0
LINE
  5
6B1D
330
1F
100
AcDbEntity
  8
NOSNÉ KONSTRUKCE
100
AcDbLine
 39
2500.000155029299
 10
4860.391378827607
 20
225.0696674346663
 30
0.0
 11
4861.977166268118
 21
226.6554012898887
 31
0.0
  0
LINE
  5
6B1E
330
1F
100
AcDbEntity
  8
NOSNÉ KONSTRUKCE
100
AcDbLine
 39
2500.000155029299
 10
4861.977151095434
 20
223.4839184063876
 30
0.0
 11
4860.391378827607
 21
225.0696674346663
 31
0.0
  0
LINE
  5
6B1F
330
1F
100
AcDbEntity
  8
NOSNÉ KONSTRUKCE
100
AcDbLine
 39
2500.000155029299
 10
4861.977151095434
 20
223.4839184063876
 30
0.0
 11
4861.97712519317
 21
218.0696766584878
 31
0.0
  0
LINE
  5
6B20
330
1F
100
AcDbEntity
  8
NOSNÉ KONSTRUKCE
100
AcDbLine
 39
2500.000155029299
 10
4861.97712519317
 20
218.0696766584878
 30
0.0
 11
4849.562981842169
 21
218.0697360489503
 31
0.0
  0
LINE
  5
6B21
330
1F
100
AcDbEntity
  8
0
  6
Continuous
 62
     5
100
AcDbLine
 39
2500.000155029299
 10
4890.066687037473
 20
332.7931126564744
 30
0.0
 11
4886.435487992766
 21
333.7314094367875
 31
0.0
  0
LINE
  5
6B22
330
1F
100
AcDbEntity
  8
0
  6
Continuous
 62
     5
100
AcDbLine
 39
2500.000155029299
 10
4889.456787161023
 20
330.4328063065104
 30
0.0
 11
4890.066687037473
 21
332.7931126564744
 31
0.0
  0
LINE
  5
6B23
330
1F
100
AcDbEntity
  8
0
  6
Continuous
 62
     5
100
AcDbLine
 39
2500.000155029299
 10
4890.727750214656
 20
330.1043912220066
 30
0.0
 11
4889.456787161023
 21
330.4328063065104
 31
0.0
  0
LINE
  5
6B24
330
1F
100
AcDbEntity
  8
0
  6
Continuous
 62
     5
100
AcDbLine
 39
2500.000155029299
 10
4891.337650091106
 20
332.4646975719697
 30
0.0
 11
4890.727750214656
 21
330.1043912220066
 31
0.0
  0
LINE
  5
6B25
330
1F
100
AcDbEntity
  8
0
  6
Continuous
 62
     5
100
AcDbLine
 39
2500.000155029299
 10
4894.242534277381
 20
331.7140795404029
 30
0.0
 11
4891.337650091106
 21
332.4646975719697
 31
0.0
  0
LINE
  5
6B26
330
1F
100
AcDbEntity
  8
0
  6
Continuous
 62
     5
100
AcDbLine
 39
2500.000155029299
 10
4892.923601905854
 20
306.1162792697541
 30
0.0
 11
4894.242534277381
 21
331.7140795404029
 31
0.0
  0
LINE
  5
6B27
330
1F
100
AcDbEntity
  8
0
  6
Continuous
 62
     5
100
AcDbLine
 39
2500.000155029299
 10
4873.299345188843
 20
282.8946697169158
 30
0.0
 11
4880.74333958259
 21
280.9711519239435
 31
0.0
  0
LINE
  5
6B28
330
1F
100
AcDbEntity
  8
0
  6
Continuous
 62
     5
100
AcDbLine
 39
2500.000155029299
 10
4906.216053842053
 20
298.5993419004052
 30
0.0
 11
4894.286454170639
 21
286.4547215130751
 31
0.0
  0
LINE
  5
6B29
330
1F
100
AcDbEntity
  8
0
  6
Continuous
 62
     5
100
AcDbLine
 39
2500.000155029299
 10
4882.804288948052
 20
334.6697062171006
 30
0.0
 11
4886.435487992766
 21
333.7314094367875
 31
0.0
  0
LINE
  5
6B2A
330
1F
100
AcDbEntity
  8
0
  6
Continuous
 62
     5
100
AcDbLine
 39
2500.000155029299
 10
4882.194389071609
 20
332.3093998671356
 30
0.0
 11
4882.804288948052
 21
334.6697062171006
 31
0.0
  0
LINE
  5
6B2B
330
1F
100
AcDbEntity
  8
0
  6
Continuous
 62
     5
100
AcDbLine
 39
2500.000155029299
 10
4880.923426017975
 20
332.6378149516404
 30
0.0
 11
4882.194389071609
 21
332.3093998671356
 31
0.0
  0
LINE
  5
6B2C
330
1F
100
AcDbEntity
  8
0
  6
Continuous
 62
     5
100
AcDbLine
 39
2500.000155029299
 10
4881.533325894426
 20
334.9981213016044
 30
0.0
 11
4880.923426017975
 21
332.6378149516404
 31
0.0
  0
LINE
  5
6B2D
330
1F
100
AcDbEntity
  8
0
  6
Continuous
 62
     5
100
AcDbLine
 39
2500.000155029299
 10
4878.628441708143
 20
335.7487393331721
 30
0.0
 11
4881.533325894426
 21
334.9981213016044
 31
0.0
  0
LINE
  5
6B2E
330
1F
100
AcDbEntity
  8
0
  6
Continuous
 62
     5
100
AcDbLine
 39
2500.000155029299
 10
4867.381400393157
 20
312.7163485984765
 30
0.0
 11
4873.467619207946
 21
325.1800860306921
 31
0.0
  0
LINE
  5
6B2F
330
1F
100
AcDbEntity
  8
0
  6
Continuous
 62
     5
100
AcDbLine
 39
2500.000155029299
 10
4873.299345188843
 20
282.8946697169158
 30
0.0
 11
4865.855350795095
 21
284.818187509888
 31
0.0
  0
LINE
  5
6B30
330
1F
100
AcDbEntity
  8
0
  6
Continuous
 62
     5
100
AcDbLine
 39
2500.000155029299
 10
4852.111331138981
 20
312.5799269597655
 30
0.0
 11
4856.664099689517
 21
296.1762855592178
 31
0.0
  0
INSERT
  5
6B31
330
1F
100
AcDbEntity
  8
0
  6
Continuous
 62
     5
100
AcDbBlockReference
  2
SYM_KOMPON-2_K___-SPO
 10
4862.694379966978
 20
284.91109700386
 30
0.0
 41
999.9983906768532
 42
999.998390674591
 43
1000.0
 50
345.5117604816625
  0
TEXT
  5
6B32
330
1F
100
AcDbEntity
  8
POPIS
100
AcDbText
 10
4541.110405327166
 20
370.0115819837437
 30
0.0
 40
25.0
  1
03
 41
0.85
  7
SIMPLEX7
100
AcDbText
  0
TEXT
  5
6B33
330
1F
100
AcDbEntity
  8
POPIS
100
AcDbText
 10
4595.454108486907
 20
370.0115819837437
 30
0.0
 40
25.0
  1
Tmel DEXAFLAMM - R
 41
0.7
  7
SIMPLEX7
100
AcDbText
  0
TEXT
  5
6B36
330
1F
100
AcDbEntity
  8
POPIS
100
AcDbText
 10
4595.454108486907
 20
212.3026581153108
 30
0.0
 40
25.0
  1
CD profil nosný
 41
0.7
  7
SIMPLEX7
100
AcDbText
  0
TEXT
  5
6B37
330
1F
100
AcDbEntity
  8
POPIS
100
AcDbText
 10
4595.454108486907
 20
247.3026581153108
 30
0.0
 40
25.0
  1
CD profil montážní
 41
0.7
  7
SIMPLEX7
100
AcDbText
  0
TEXT
  5
6B38
330
1F
100
AcDbEntity
  8
POPIS
100
AcDbText
 10
4595.454108486907
 20
300.7221492262952
 30
0.0
 40
25.0
  1
Křížová spojka
 41
0.7
  7
SIMPLEX7
100
AcDbText
  0
TEXT
  5
6B39
330
1F
100
AcDbEntity
  8
POPIS
100
AcDbText
 10
4595.454108486907
 20
142.3026581153107
 30
0.0
 40
25.0
  1
Minerální plsť
 41
0.7
  7
SIMPLEX7
100
AcDbText
  0
TEXT
  5
6B3A
330
1F
100
AcDbEntity
  8
POPIS
100
AcDbText
 10
4595.454108486907
 20
177.3026581153108
 30
0.0
 40
25.0
  1
Závěs
 41
0.7
  7
SIMPLEX7
100
AcDbText
  0
TEXT
  5
6B3B
330
1F
100
AcDbEntity
  8
POPIS
100
AcDbText
 10
4541.110405327166
 20
177.3026581153108
 30
0.0
 40
25.0
  1
07
 41
0.85
  7
SIMPLEX7
100
AcDbText
  0
TEXT
  5
6B3C
330
1F
100
AcDbEntity
  8
POPIS
100
AcDbText
 10
4541.110405327166
 20
142.3026581153107
 30
0.0
 40
25.0
  1
08
 41
0.85
  7
SIMPLEX7
100
AcDbText
  0
TEXT
  5
6B3D
330
1F
100
AcDbEntity
  8
POPIS
100
AcDbText
 10
4541.110405327166
 20
212.3026581153108
 30
0.0
 40
25.0
  1
06
 41
0.85
  7
SIMPLEX7
100
AcDbText
  0
TEXT
  5
6B3E
330
1F
100
AcDbEntity
  8
POPIS
100
AcDbText
 10
4541.110405327166
 20
247.3026581153108
 30
0.0
 40
25.0
  1
05
 41
0.85
  7
SIMPLEX7
100
AcDbText
  0
TEXT
  5
6B3F
330
1F
100
AcDbEntity
  8
POPIS
100
AcDbText
 10
4541.110405327166
 20
300.7221492262952
 30
0.0
 40
25.0
  1
04
 41
0.85
  7
SIMPLEX7
100
AcDbText
  0
HATCH
  5
6B40
330
1F
100
AcDbEntity
  8
NOSNÉ KONSTRUKCE
100
AcDbHatch
 10
0.0
 20
0.0
 30
0.0
210
0.0
220
0.0
230
1.0
  2
SOLID
 70
     1
 71
     0
 91
        1
 92
        7
 72
     0
 73
     1
 93
        8
 10
4833.493674899287
 20
358.9937472460178
 10
4833.493674899287
 20
360.4937472460187
 10
4788.131195198157
 20
360.4937472460187
 10
4788.131195198173
 20
331.4938037562114
 10
4833.49367489928
 20
331.4938037562106
 10
4833.493674899287
 20
332.9938037562105
 10
4789.631195198158
 20
332.9938037562078
 10
4789.631195198165
 20
358.9937472460178
 97
        0
 75
     0
 76
     1
 47
0.1358226225865344
 98
        1
 10
4827.961630692039
 20
359.719616034713
  0
HATCH
  5
6B41
330
1F
100
AcDbEntity
  8
NOSNÉ KONSTRUKCE
100
AcDbHatch
 10
0.0
 20
0.0
 30
0.0
210
0.0
220
0.0
230
1.0
  2
SOLID
 70
     1
 71
     0
 91
        1
 92
        7
 72
     0
 73
     1
 93
       68
 10
4861.977222856675
 20
238.4838763805519
 10
4860.391450588863
 20
240.0696254088252
 10
4861.977238029375
 20
241.6553592640293
 10
4861.977263931617
 20
247.069601011949
 10
4857.977272336796
 20
247.0696201482969
 10
4857.977267552708
 20
246.0696201483069
 10
4860.977259147537
 20
246.0696057960576
 10
4860.977240011055
 20
242.0695847053794
 10
4858.977219897695
 20
240.0696321746381
 10
4860.977220875025
 20
238.0696605074053
 10
4860.977201738536
 20
234.0696394167334
 10
4858.977184017082
 20
232.5696531875528
 10
4860.977187386287
 20
231.0696478218906
 10
4860.977168249799
 20
227.0696267312214
 10
4858.977148136447
 20
225.0696742004829
 10
4860.977149113775
 20
223.0697025332446
 10
4860.977129977286
 20
219.0696814425718
 10
4849.977193093803
 20
219.0697340673359
 10
4847.977192116467
 20
221.0697057345678
 10
4843.977219472133
 20
221.0697248708256
 10
4841.977199358789
 20
219.0697723400817
 10
4830.977262475298
 20
219.0698249648412
 10
4819.9773255918
 20
219.0698775896062
 10
4817.977324614479
 20
221.0698492568372
 10
4813.977351970152
 20
221.0698683930977
 10
4811.977331856799
 20
219.0699158623501
 10
4800.977394973301
 20
219.0699684871133
 10
4800.977414109798
 20
223.0699895777861
 10
4802.977434223135
 20
225.0699421085337
 10
4800.977433245813
 20
227.0699137757674
 10
4800.977452382295
 20
231.0699348664411
 10
4802.97747010377
 20
232.5699210956099
 10
4800.977466734551
 20
234.0699264612794
 10
4800.97748587104
 20
238.0699475519495
 10
4802.977505984391
 20
240.0699000826862
 10
4800.97750500707
 20
242.0698717499344
 10
4800.977524143545
 20
246.0698928405972
 10
4803.977257396657
 20
246.0698784895849
 10
4803.977252613799
 20
247.069620148296
 10
4799.977261018971
 20
247.069601011949
 10
4799.977286921213
 20
241.6553592640402
 10
4801.563074361732
 20
240.0696254088188
 10
4799.977302093913
 20
238.483876380551
 10
4799.97732560414
 20
233.5696322103194
 10
4801.31066565416
 20
232.5696452140209
 10
4799.97733517225
 20
231.5696454601038
 10
4799.977358682476
 20
226.655401289885
 10
4801.563146122989
 20
225.0696674346663
 10
4799.977373855162
 20
223.4839184063876
 10
4799.977375835416
 20
223.0699943617009
 10
4799.977414109812
 20
223.0699943618838
 10
4799.977394973316
 20
219.0699732712128
 10
4799.977399757426
 20
218.0696766584878
 10
4812.39154310842
 20
218.0697360489511
 10
4814.391544085755
 20
220.0697077161839
 10
4817.563103795025
 20
220.0697228892322
 10
4819.563014691465
 20
218.0698795716962
 10
4842.391401042226
 20
218.0697703584874
 10
4844.391421155592
 20
220.0697228892331
 10
4847.562980864847
 20
220.0697077161839
 10
4849.562981842169
 20
218.0697360489503
 10
4861.97712519317
 20
218.0696766584869
 10
4861.977151095434
 20
223.4839184063803
 10
4860.391378827607
 20
225.069667434669
 10
4861.977166268125
 20
226.6554012898923
 10
4861.977189778346
 20
231.5696454601047
 10
4860.643859296436
 20
232.5696452140164
 10
4861.977199346455
 20
233.5696322103158
 97
        0
 75
     0
 76
     1
 47
0.131671459398827
 98
        1
 10
4861.296847174398
 20
236.3527946279536
  0
ELLIPSE
  5
6B42
330
1F
100
AcDbEntity
  8
0
  6
Continuous
 62
     5
100
AcDbEllipse
 10
4882.620469294513
 20
295.800982839708
 30
0.0
 11
-10.56996554938465
 21
10.56996554938465
 31
0.0
210
0.0
220
0.0
230
1.0
 40
0.9999999999992219
 41
2.230281575215805
 42
3.251547081961544
  0
ELLIPSE
  5
6B43
330
1F
100
AcDbEntity
  8
0
  6
Continuous
 62
     5
100
AcDbEllipse
 10
4870.898457036931
 20
295.9659692308978
 30
0.0
 11
-1.250164625375039
 21
1.250164625375039
 31
0.0
210
0.0
220
0.0
230
1.0
 40
0.9999999999966965
 41
3.674123334575764
 42
9.95730864175535
  0
ELLIPSE
  5
6B44
330
1F
100
AcDbEntity
  8
SPOJOVACÍ
100
AcDbEllipse
 10
4864.674663175657
 20
326.8873338944431
 30
0.0
 11
8.569425201158479
 21
2.719295823781615
 31
0.0
210
0.0
220
0.0
230
1.0
 40
0.1246657405440028
 41
0.0
 42
6.283185307179586
  0
LINE
  5
6B45
330
1F
100
AcDbEntity
  8
SPOJOVACÍ
100
AcDbLine
 10
4891.337650091106
 20
332.4646975719697
 30
0.0
 11
4847.816000456888
 21
318.7765464872827
 31
0.0
  0
LINE
  5
6B46
330
1F
100
AcDbEntity
  8
SPOJOVACÍ
100
AcDbLine
 10
4846.545037403254
 20
319.1049615717874
 30
0.0
 11
4890.066687037473
 21
332.7931126564744
 31
0.0
  0
LINE
  5
6B47
330
1F
100
AcDbEntity
  8
SPOJOVACÍ
100
AcDbLine
 10
4882.804288948052
 20
334.6697062171006
 30
0.0
 11
4839.282639313834
 21
320.9815551324136
 31
0.0
  0
LINE
  5
6B48
330
1F
100
AcDbEntity
  8
SPOJOVACÍ
100
AcDbLine
 10
4838.011676260208
 20
321.3099702169174
 30
0.0
 11
4881.533325894426
 21
334.9981213016044
 31
0.0
  0
LINE
  5
6B49
330
1F
100
AcDbEntity
  8
SPOJOVACÍ
100
AcDbLine
 10
4878.628441708143
 20
335.7487393331721
 30
0.0
 11
4835.106792073926
 21
322.0605882484851
 31
0.0
  0
LINE
  5
6B4A
330
1F
100
AcDbEntity
  8
SPOJOVACÍ
100
AcDbLine
 10
4850.720884643163
 20
318.025928455716
 30
0.0
 11
4894.242534277381
 21
331.7140795404029
 31
0.0
  0
ELLIPSE
  5
6B4B
330
1F
100
AcDbEntity
  8
0
  6
Continuous
 62
     5
100
AcDbEllipse
 10
4865.116553679744
 20
300.8801908012665
 30
0.0
 11
-1.340739210142237
 21
1.340739210142237
 31
0.0
210
0.0
220
0.0
230
1.0
 40
0.9999999999956916
 41
3.674123334577329
 42
9.957308641756915
  0
ELLIPSE
  5
6B4C
330
1F
100
AcDbEntity
  8
0
  6
Continuous
 62
     5
100
AcDbEllipse
 10
4859.666488916754
 20
321.5807656420766
 30
0.0
 11
-8.309528029346193
 21
8.309528029346193
 31
0.0
210
0.0
220
0.0
230
0.9999999999999998
 40
0.9999999999989308
 41
1.657892449391184
 42
3.072367890372189
  0
ELLIPSE
  5
6B4D
330
1F
100
AcDbEntity
  8
0
  6
Continuous
 62
     5
100
AcDbEllipse
 10
4871.397522179536
 20
298.7009767574054
 30
0.0
 11
-10.56996554939124
 21
10.56996554939124
 31
0.0
210
0.0
220
0.0
230
1.0
 40
0.9999999999979591
 41
0.9551081495418616
 42
1.976372941029483
  0
ELLIPSE
  5
6B4E
330
1F
100
AcDbEntity
  8
0
  6
Continuous
 62
     5
100
AcDbEllipse
 10
4881.834749671175
 20
315.5519907006119
 30
0.0
 11
-1.193407760276854
 21
1.193407760276854
 31
0.0
210
0.0
220
0.0
230
1.0
 40
0.9999999999942087
 41
3.674123334577874
 42
9.95730864175746
  0
ELLIPSE
  5
6B4F
330
1F
100
AcDbEntity
  8
0
  6
Continuous
 62
     5
100
AcDbEllipse
 10
4877.008580789322
 20
297.6243692357875
 30
0.0
 11
-1.325981978264734
 21
1.325981978264734
 31
0.0
210
0.0
220
0.0
230
0.9999999999999998
 40
0.9999999999995651
 41
3.674123334574658
 42
9.957308641754245
  0
ELLIPSE
  5
6B50
330
1F
100
AcDbEntity
  8
0
  6
Continuous
 62
     5
100
AcDbEllipse
 10
4889.170899122869
 20
294.6645814105595
 30
0.0
 11
1.340739210137066
 21
1.340739210137065
 31
0.0
210
0.0
220
0.0
230
1.0
 40
0.99999999999873
 41
5.244919661368825
 42
11.52810496854841
  0
ELLIPSE
  5
6B51
330
1F
100
AcDbEntity
  8
0
  6
Continuous
 62
     5
100
AcDbEllipse
 10
4883.172407895031
 20
299.1790244253797
 30
0.0
 11
-1.26576984943649
 21
1.265769849436491
 31
0.0
210
0.0
220
0.0
230
0.9999999999999998
 40
0.9999999999967768
 41
3.674123334576878
 42
9.957308641756464
  0
ELLIPSE
  5
6B52
330
1F
100
AcDbEntity
  8
0
  6
Continuous
 62
     5
100
AcDbEllipse
 10
4884.487159619671
 20
305.5153417508136
 30
0.0
 11
-1.135340434781257
 21
1.135340434781257
 31
0.0
210
0.0
220
0.0
230
1.0
 40
0.9999999999972754
 41
3.674123334575802
 42
9.957308641755389
  0
ELLIPSE
  5
6B53
330
1F
100
AcDbEntity
  8
0
  6
Continuous
 62
     5
100
AcDbEllipse
 10
4885.95257367795
 20
311.4374444103396
 30
0.0
 11
1.078269436546344
 21
1.078269436546344
 31
0.0
210
0.0
220
0.0
230
1.0
 40
0.9999999999964984
 41
5.244919661367665
 42
11.52810496854725
  0
ELLIPSE
  5
6B54
330
1F
100
AcDbEntity
  8
0
  6
Continuous
 62
     5
100
AcDbEllipse
 10
4887.282539497256
 20
317.1463590671992
 30
0.0
 11
-1.031379228841726
 21
1.031379228841726
 31
0.0
210
0.0
220
0.0
230
1.0
 40
0.9999999999947879
 41
3.674123334576847
 42
9.957308641756434
  0
ELLIPSE
  5
6B55
330
1F
100
AcDbEntity
  8
0
  6
Continuous
 62
     5
100
AcDbEllipse
 10
4888.642271941465
 20
322.6962676702551
 30
0.0
 11
0.9651898055462371
 21
0.9651898055462371
 31
0.0
210
0.0
220
0.0
230
1.0
 40
0.9999999999977607
 41
5.244919661368762
 42
11.52810496854834
  0
ELLIPSE
  5
6B56
330
1F
100
AcDbEntity
  8
0
  6
Continuous
 62
     5
100
AcDbEllipse
 10
4903.967121952784
 20
310.1335437102161
 30
0.0
 11
-8.309528029346534
 21
8.309528029346536
 31
0.0
210
0.0
220
0.0
230
1.0
 40
0.9999999999986757
 41
1.134286625874864
 42
2.548761590017283
  0
ELLIPSE
  5
6B57
330
1F
100
AcDbEntity
  8
0
  6
Continuous
 62
     5
100
AcDbEllipse
 10
4872.551170037953
 20
301.9235375081188
 30
0.0
 11
-1.265769849436965
 21
1.265769849436966
 31
0.0
210
0.0
220
0.0
230
0.9999999999999998
 40
0.99999999999609
 41
3.674123334576932
 42
9.957308641756519
  0
ELLIPSE
  5
6B58
330
1F
100
AcDbEntity
  8
0
  6
Continuous
 62
     5
100
AcDbEllipse
 10
4874.470632999948
 20
308.1035982912799
 30
0.0
 11
-1.135340434781662
 21
1.135340434781662
 31
0.0
210
0.0
220
0.0
230
1.0
 40
0.9999999999965641
 41
3.674123334576113
 42
9.957308641755698
  0
ELLIPSE
  5
6B59
330
1F
100
AcDbEntity
  8
0
  6
Continuous
 62
     5
100
AcDbEllipse
 10
4876.057627226337
 20
313.9942848045466
 30
0.0
 11
1.078269436546335
 21
1.078269436546335
 31
0.0
210
0.0
220
0.0
230
1.0
 40
0.9999999999964412
 41
5.244919661367929
 42
11.52810496854751
  0
ELLIPSE
  5
6B5A
330
1F
100
AcDbEntity
  8
0
  6
Continuous
 62
     5
100
AcDbEllipse
 10
4877.659835057867
 20
319.6328525042736
 30
0.0
 11
1.031379228840858
 21
1.031379228840858
 31
0.0
210
0.0
220
0.0
230
1.0
 40
0.9999999999963931
 41
5.244919661368188
 42
11.52810496854777
  0
ELLIPSE
  5
6B5B
330
1F
100
AcDbEntity
  8
0
  6
Continuous
 62
     5
100
AcDbEllipse
 10
4879.158971923224
 20
325.1467391988871
 30
0.0
 11
0.9651898055464435
 21
0.9651898055464434
 31
0.0
210
0.0
220
0.0
230
1.0
 40
0.9999999999975724
 41
5.244919661369002
 42
11.52810496854858
  0
ELLIPSE
  5
6B5C
330
1F
100
AcDbEntity
  8
0
  6
Continuous
 62
     5
100
AcDbEllipse
 10
4881.732084940765
 20
293.1665748556206
 30
0.0
 11
-1.250164625372975
 21
1.250164625372975
 31
0.0
210
0.0
220
0.0
230
1.0
 40
0.9999999999989695
 41
3.674123334574769
 42
9.957308641754355
  0
TEXT
  5
6B5D
330
1F
100
AcDbEntity
  8
POPIS
100
AcDbText
 10
4595.454108486907
 20
441.4404814507625
 30
0.0
 40
25.0
  1
Vrut 4,2x25 (35,45) mm
 41
0.7
  7
SIMPLEX7
100
AcDbText
  0
TEXT
  5
6B5E
330
1F
100
AcDbEntity
  8
POPIS
100
AcDbText
 10
4595.454108486907
 20
478.0354930663897
 30
0.0
 40
25.0
  1
Deska CETRIS   
 41
0.7
  7
SIMPLEX7
100
AcDbText
  0
TEXT
  5
6B5F
330
1F
100
AcDbEntity
  8
POPIS
100
AcDbText
 10
4541.110405327166
 20
478.0354930663897
 30
0.0
 40
25.0
  1
01
 41
0.85
  7
SIMPLEX7
100
AcDbText
  0
TEXT
  5
6B60
330
1F
100
AcDbEntity
  8
POPIS
100
AcDbText
 10
4541.110405327166
 20
441.4404814507625
 30
0.0
 40
25.0
  1
02
 41
0.85
  7
SIMPLEX7
100
AcDbText
  0
CIRCLE
  5
6B61
330
1F
100
AcDbEntity
  8
POPIS
100
AcDbCircle
 10
4767.839322781134
 20
508.5561489196579
 30
0.0
 40
11.13656048292026
  0
TEXT
  5
6B62
330
1F
100
AcDbEntity
  8
POPIS
100
AcDbText
 10
4763.080293725953
 20
503.0108031746704
 30
0.0
 40
12.0
  1
R
 41
0.85
  7
SIMPLEX7
100
AcDbText
  0
TEXT
  5
9B1E
330
1F
100
AcDbEntity
  8
POPIS
100
AcDbText
 10
4541.626993847421
 20
408.20972178907
 30
0.0
 40
25.0
  1
v exteriéru vrut s viditelnou hlavou a těsnící podložkou
 41
0.6
 51
10.0
  7
SIMPLEX7
100
AcDbText
  0
ENDSEC
  0
SECTION
  2
OBJECTS
  0
DICTIONARY
  5
C
330
0
100
AcDbDictionary
281
     1
  3
ACAD_GROUP
350
D
  3
ACAD_LAYOUT
350
1A
  3
ACAD_MLINESTYLE
350
17
  3
ACAD_PLOTSETTINGS
350
19
  3
ACAD_PLOTSTYLENAME
350
E
  3
AcDbVariableDictionary
350
5B50
  0
DICTIONARY
  5
D
102
{ACAD_REACTORS
330
C
102
}
330
C
100
AcDbDictionary
281
     1
  0
DICTIONARY
  5
1A
102
{ACAD_REACTORS
330
C
102
}
330
C
100
AcDbDictionary
281
     1
  3
Model
350
22
  3
Rozvržení1
350
1E
  3
Rozvržení2
350
26
  0
DICTIONARY
  5
17
102
{ACAD_REACTORS
330
C
102
}
330
C
100
AcDbDictionary
281
     1
  3
Standard
350
18
  0
DICTIONARY
  5
19
102
{ACAD_REACTORS
330
C
102
}
330
C
100
AcDbDictionary
281
     1
  0
ACDBDICTIONARYWDFLT
  5
E
102
{ACAD_REACTORS
330
C
102
}
330
C
100
AcDbDictionary
281
     1
  3
Normal
350
F
100
AcDbDictionaryWithDefault
340
F
  0
DICTIONARY
  5
5B50
102
{ACAD_REACTORS
330
C
102
}
330
C
100
AcDbDictionary
281
     1
  3
DIMASSOC
350
8518
  3
SORTENTS
350
5B51
  0
LAYOUT
  5
22
102
{ACAD_REACTORS
330
1A
102
}
330
1A
100
AcDbPlotSettings
  1

  2
HP DeskJet 690C
  4
A4
  6

 40
3.757083177566528
 41
5.450418472290039
 42
16.28775024414062
 43
7.56707763671875
 44
296.9259948730469
 45
210.0579986572265
 46
0.0
 47
0.0
 48
0.0
 49
0.0
140
0.0
141
0.0
142
1.0
143
1.0
 70
 11952
 72
     1
 73
     0
 74
     0
  7
monochrome.ctb
 75
     0
147
1.0
148
-323.9392076651195
149
-131.8860906043446
100
AcDbLayout
  1
Model
 70
     1
 71
     0
 10
0.0
 20
0.0
 11
12.0
 21
9.0
 12
0.0
 22
0.0
 32
0.0
 14
0.0
 24
0.0
 34
0.0
 15
0.0
 25
0.0
 35
0.0
146
0.0
 13
0.0
 23
0.0
 33
0.0
 16
1.0
 26
0.0
 36
0.0
 17
0.0
 27
1.0
 37
0.0
 76
     0
330
1F
  0
LAYOUT
  5
1E
102
{ACAD_REACTORS
330
1A
102
}
330
1A
100
AcDbPlotSettings
  1

  2
HP DeskJet 690C
  4

  6

 40
0.0
 41
0.0
 42
0.0
 43
0.0
 44
0.0
 45
0.0
 46
0.0
 47
0.0
 48
0.0
 49
0.0
140
0.0
141
0.0
142
1.0
143
1.0
 70
   688
 72
     0
 73
     0
 74
     5
  7
monochrome.ctb
 75
    16
147
1.0
148
0.0
149
0.0
100
AcDbLayout
  1
Rozvržení1
 70
     1
 71
     1
 10
0.0
 20
0.0
 11
420.0
 21
297.0
 12
0.0
 22
0.0
 32
0.0
 14
1.000000000000000E+20
 24
1.000000000000000E+20
 34
1.000000000000000E+20
 15
-1.000000000000000E+20
 25
-1.000000000000000E+20
 35
-1.000000000000000E+20
146
0.0
 13
0.0
 23
0.0
 33
0.0
 16
1.0
 26
0.0
 36
0.0
 17
0.0
 27
1.0
 37
0.0
 76
     0
330
1B
  0
LAYOUT
  5
26
102
{ACAD_REACTORS
330
1A
102
}
330
1A
100
AcDbPlotSettings
  1

  2
HP DeskJet 690C
  4

  6

 40
0.0
 41
0.0
 42
0.0
 43
0.0
 44
0.0
 45
0.0
 46
0.0
 47
0.0
 48
0.0
 49
0.0
140
0.0
141
0.0
142
1.0
143
1.0
 70
   688
 72
     0
 73
     0
 74
     5
  7
monochrome.ctb
 75
    16
147
1.0
148
0.0
149
0.0
100
AcDbLayout
  1
Rozvržení2
 70
     1
 71
     2
 10
0.0
 20
0.0
 11
12.0
 21
9.0
 12
0.0
 22
0.0
 32
0.0
 14
0.0
 24
0.0
 34
0.0
 15
0.0
 25
0.0
 35
0.0
146
0.0
 13
0.0
 23
0.0
 33
0.0
 16
1.0
 26
0.0
 36
0.0
 17
0.0
 27
1.0
 37
0.0
 76
     0
330
23
  0
MLINESTYLE
  5
18
102
{ACAD_REACTORS
330
17
102
}
330
17
100
AcDbMlineStyle
  2
STANDARD
 70
     0
  3

 62
   256
 51
90.0
 52
90.0
 71
     2
 49
0.5
 62
   256
  6
BYLAYER
 49
-0.5
 62
   256
  6
BYLAYER
  0
ACDBPLACEHOLDER
  5
F
102
{ACAD_REACTORS
330
E
102
}
330
E
  0
DICTIONARYVAR
  5
8518
102
{ACAD_REACTORS
330
5B50
102
}
330
5B50
100
DictionaryVariables
280
     0
  1
1
  0
DICTIONARYVAR
  5
5B51
102
{ACAD_REACTORS
330
5B50
102
}
330
5B50
100
DictionaryVariables
280
     0
  1
96
  0
ENDSEC
  0
EOF
