  0
SECTION
  2
HEADER
  9
$ACADVER
  1
AC1015
  9
$ACADMAINTVER
 70
    13
  9
$DWGCODEPAGE
  3
ANSI_1250
  9
$INSBASE
 10
0.0
 20
0.0
 30
0.0
  9
$EXTMIN
 10
1802.781243650161
 20
-514.9044953074926
 30
0.0
  9
$EXTMAX
 10
2671.614886628602
 20
903.4711052918892
 30
0.0
  9
$LIMMIN
 10
0.0
 20
0.0
  9
$LIMMAX
 10
420.0
 20
297.0
  9
$ORTHOMODE
 70
     0
  9
$REGENMODE
 70
     1
  9
$FILLMODE
 70
     1
  9
$QTEXTMODE
 70
     0
  9
$MIRRTEXT
 70
     1
  9
$LTSCALE
 40
1.0
  9
$ATTMODE
 70
     1
  9
$TEXTSIZE
 40
2.5
  9
$TRACEWID
 40
1.0
  9
$TEXTSTYLE
  7
Standard
  9
$CLAYER
  8
0
  9
$CELTYPE
  6
ByLayer
  9
$CECOLOR
 62
   256
  9
$CELTSCALE
 40
1.0
  9
$DISPSILH
 70
     0
  9
$DIMSCALE
 40
1.0
  9
$DIMASZ
 40
2.5
  9
$DIMEXO
 40
0.625
  9
$DIMDLI
 40
3.75
  9
$DIMRND
 40
0.0
  9
$DIMDLE
 40
0.0
  9
$DIMEXE
 40
1.25
  9
$DIMTP
 40
0.0
  9
$DIMTM
 40
0.0
  9
$DIMTXT
 40
2.5
  9
$DIMCEN
 40
2.5
  9
$DIMTSZ
 40
0.0
  9
$DIMTOL
 70
     0
  9
$DIMLIM
 70
     0
  9
$DIMTIH
 70
     0
  9
$DIMTOH
 70
     0
  9
$DIMSE1
 70
     0
  9
$DIMSE2
 70
     0
  9
$DIMTAD
 70
     1
  9
$DIMZIN
 70
     8
  9
$DIMBLK
  1

  9
$DIMASO
 70
     1
  9
$DIMSHO
 70
     1
  9
$DIMPOST
  1

  9
$DIMAPOST
  1

  9
$DIMALT
 70
     0
  9
$DIMALTD
 70
     3
  9
$DIMALTF
 40
0.03937007874016
  9
$DIMLFAC
 40
1.0
  9
$DIMTOFL
 70
     1
  9
$DIMTVP
 40
0.0
  9
$DIMTIX
 70
     0
  9
$DIMSOXD
 70
     0
  9
$DIMSAH
 70
     0
  9
$DIMBLK1
  1

  9
$DIMBLK2
  1

  9
$DIMSTYLE
  2
ISO-25
  9
$DIMCLRD
 70
     0
  9
$DIMCLRE
 70
     0
  9
$DIMCLRT
 70
     0
  9
$DIMTFAC
 40
1.0
  9
$DIMGAP
 40
0.625
  9
$DIMJUST
 70
     0
  9
$DIMSD1
 70
     0
  9
$DIMSD2
 70
     0
  9
$DIMTOLJ
 70
     0
  9
$DIMTZIN
 70
     8
  9
$DIMALTZ
 70
     0
  9
$DIMALTTZ
 70
     0
  9
$DIMUPT
 70
     0
  9
$DIMDEC
 70
     2
  9
$DIMTDEC
 70
     2
  9
$DIMALTU
 70
     2
  9
$DIMALTTD
 70
     3
  9
$DIMTXSTY
  7
Standard
  9
$DIMAUNIT
 70
     0
  9
$DIMADEC
 70
     0
  9
$DIMALTRND
 40
0.0
  9
$DIMAZIN
 70
     0
  9
$DIMDSEP
 70
    44
  9
$DIMATFIT
 70
     3
  9
$DIMFRAC
 70
     0
  9
$DIMLDRBLK
  1

  9
$DIMLUNIT
 70
     2
  9
$DIMLWD
 70
    -2
  9
$DIMLWE
 70
    -2
  9
$DIMTMOVE
 70
     0
  9
$LUNITS
 70
     2
  9
$LUPREC
 70
     4
  9
$SKETCHINC
 40
1.0
  9
$FILLETRAD
 40
10.0
  9
$AUNITS
 70
     0
  9
$AUPREC
 70
     0
  9
$MENU
  1
.
  9
$ELEVATION
 40
0.0
  9
$PELEVATION
 40
0.0
  9
$THICKNESS
 40
0.0
  9
$LIMCHECK
 70
     0
  9
$CHAMFERA
 40
10.0
  9
$CHAMFERB
 40
10.0
  9
$CHAMFERC
 40
20.0
  9
$CHAMFERD
 40
0.0
  9
$SKPOLY
 70
     0
  9
$TDCREATE
 40
2452334.465307870
  9
$TDUCREATE
 40
2452334.423641203
  9
$TDUPDATE
 40
2455595.896307326
  9
$TDUUPDATE
 40
2455595.854640660
  9
$TDINDWG
 40
0.0122054861
  9
$TDUSRTIMER
 40
0.0122054861
  9
$USRTIMER
 70
     1
  9
$ANGBASE
 50
0.0
  9
$ANGDIR
 70
     0
  9
$PDMODE
 70
     0
  9
$PDSIZE
 40
0.0
  9
$PLINEWID
 40
0.0
  9
$SPLFRAME
 70
     0
  9
$SPLINETYPE
 70
     6
  9
$SPLINESEGS
 70
     8
  9
$HANDSEED
  5
15C9
  9
$SURFTAB1
 70
     6
  9
$SURFTAB2
 70
     6
  9
$SURFTYPE
 70
     6
  9
$SURFU
 70
     6
  9
$SURFV
 70
     6
  9
$UCSBASE
  2

  9
$UCSNAME
  2

  9
$UCSORG
 10
0.0
 20
0.0
 30
0.0
  9
$UCSXDIR
 10
1.0
 20
0.0
 30
0.0
  9
$UCSYDIR
 10
0.0
 20
1.0
 30
0.0
  9
$UCSORTHOREF
  2

  9
$UCSORTHOVIEW
 70
     0
  9
$UCSORGTOP
 10
0.0
 20
0.0
 30
0.0
  9
$UCSORGBOTTOM
 10
0.0
 20
0.0
 30
0.0
  9
$UCSORGLEFT
 10
0.0
 20
0.0
 30
0.0
  9
$UCSORGRIGHT
 10
0.0
 20
0.0
 30
0.0
  9
$UCSORGFRONT
 10
0.0
 20
0.0
 30
0.0
  9
$UCSORGBACK
 10
0.0
 20
0.0
 30
0.0
  9
$PUCSBASE
  2

  9
$PUCSNAME
  2

  9
$PUCSORG
 10
0.0
 20
0.0
 30
0.0
  9
$PUCSXDIR
 10
1.0
 20
0.0
 30
0.0
  9
$PUCSYDIR
 10
0.0
 20
1.0
 30
0.0
  9
$PUCSORTHOREF
  2

  9
$PUCSORTHOVIEW
 70
     0
  9
$PUCSORGTOP
 10
0.0
 20
0.0
 30
0.0
  9
$PUCSORGBOTTOM
 10
0.0
 20
0.0
 30
0.0
  9
$PUCSORGLEFT
 10
0.0
 20
0.0
 30
0.0
  9
$PUCSORGRIGHT
 10
0.0
 20
0.0
 30
0.0
  9
$PUCSORGFRONT
 10
0.0
 20
0.0
 30
0.0
  9
$PUCSORGBACK
 10
0.0
 20
0.0
 30
0.0
  9
$USERI1
 70
     0
  9
$USERI2
 70
     0
  9
$USERI3
 70
     0
  9
$USERI4
 70
     0
  9
$USERI5
 70
     0
  9
$USERR1
 40
0.0
  9
$USERR2
 40
0.0
  9
$USERR3
 40
0.0
  9
$USERR4
 40
0.0
  9
$USERR5
 40
0.0
  9
$WORLDVIEW
 70
     1
  9
$SHADEDGE
 70
     3
  9
$SHADEDIF
 70
    70
  9
$TILEMODE
 70
     1
  9
$MAXACTVP
 70
    48
  9
$PINSBASE
 10
0.0
 20
0.0
 30
0.0
  9
$PLIMCHECK
 70
     0
  9
$PEXTMIN
 10
1.000000000000000E+20
 20
1.000000000000000E+20
 30
1.000000000000000E+20
  9
$PEXTMAX
 10
-1.000000000000000E+20
 20
-1.000000000000000E+20
 30
-1.000000000000000E+20
  9
$PLIMMIN
 10
0.0
 20
0.0
  9
$PLIMMAX
 10
420.0
 20
297.0
  9
$UNITMODE
 70
     0
  9
$VISRETAIN
 70
     1
  9
$PLINEGEN
 70
     0
  9
$PSLTSCALE
 70
     1
  9
$TREEDEPTH
 70
  3020
  9
$CMLSTYLE
  2
Standard
  9
$CMLJUST
 70
     0
  9
$CMLSCALE
 40
20.0
  9
$PROXYGRAPHICS
 70
     1
  9
$MEASUREMENT
 70
     1
  9
$CELWEIGHT
370
    -1
  9
$ENDCAPS
280
     0
  9
$JOINSTYLE
280
     0
  9
$LWDISPLAY
290
     0
  9
$INSUNITS
 70
     4
  9
$HYPERLINKBASE
  1

  9
$STYLESHEET
  1

  9
$XEDIT
290
     1
  9
$CEPSNTYPE
380
     0
  9
$PSTYLEMODE
290
     1
  9
$FINGERPRINTGUID
  2
{4216A968-507C-4CB8-873B-AD6C9E89F3B1}
  9
$VERSIONGUID
  2
{A685F29C-C308-4D67-9F50-A4C212A59308}
  9
$EXTNAMES
290
     1
  9
$PSVPSCALE
 40
0.0
  9
$OLESTARTUP
290
     0
  0
ENDSEC
  0
SECTION
  2
CLASSES
  0
CLASS
  1
ACDBDICTIONARYWDFLT
  2
AcDbDictionaryWithDefault
  3
AutoCAD 2000
 90
        0
280
     0
281
     0
  0
CLASS
  1
ACDBPLACEHOLDER
  2
AcDbPlaceHolder
  3
AutoCAD 2000
 90
        0
280
     0
281
     0
  0
CLASS
  1
LAYOUT
  2
AcDbLayout
  3
AutoCAD 2000
 90
        0
280
     0
281
     0
  0
CLASS
  1
LONG_TRANSACTION
  2
AcDbLongTransaction
  3
AutoCAD 2000
 90
    32768
280
     0
281
     0
  0
CLASS
  1
LWPOLYLINE
  2
AcDbPolyline
  3
AutoCAD 2000
 90
    32768
280
     0
281
     1
  0
CLASS
  1
HATCH
  2
AcDbHatch
  3
AutoCAD 2000
 90
    32768
280
     0
281
     1
  0
CLASS
  1
XRECORD
  2
AcDbXrecord
  3
AutoCAD 2000
 90
    32768
280
     0
281
     0
  0
CLASS
  1
LONG_TRANSACTION
  2
AcDbLongTransaction
  3
AutoCAD 2000
 90
    32768
280
     0
281
     0
  0
CLASS
  1
LWPOLYLINE
  2
AcDbPolyline
  3
AutoCAD 2000
 90
    32768
280
     0
281
     1
  0
CLASS
  1
HATCH
  2
AcDbHatch
  3
AutoCAD 2000
 90
    32768
280
     0
281
     1
  0
CLASS
  1
XRECORD
  2
AcDbXrecord
  3
AutoCAD 2000
 90
    32768
280
     0
281
     0
  0
CLASS
  1
DICTIONARYVAR
  2
AcDbDictionaryVar
  3
AutoCAD 2000
 90
        0
280
     0
281
     0
  0
ENDSEC
  0
SECTION
  2
TABLES
  0
TABLE
  2
VPORT
  5
8
330
0
100
AcDbSymbolTable
 70
     2
  0
VPORT
  5
15C8
330
8
100
AcDbSymbolTableRecord
100
AcDbViewportTableRecord
  2
*Active
 70
     0
 10
0.0
 20
0.0
 11
1.0
 21
1.0
 12
2237.198065139382
 22
194.2833049921982
 13
0.0
 23
0.0
 14
10.0
 24
10.0
 15
10.0
 25
10.0
 16
0.0
 26
0.0
 36
1.0
 17
0.0
 27
0.0
 37
0.0
 40
1431.735496366409
 41
2.229559748427672
 42
50.0
 43
0.0
 44
0.0
 50
0.0
 51
0.0
 71
     0
 72
   100
 73
     1
 74
     3
 75
     0
 76
     0
 77
     0
 78
     0
281
     0
 65
     1
110
0.0
120
0.0
130
0.0
111
1.0
121
0.0
131
0.0
112
0.0
122
1.0
132
0.0
 79
     0
146
0.0
  0
ENDTAB
  0
TABLE
  2
LTYPE
  5
5
330
0
100
AcDbSymbolTable
 70
     4
  0
LTYPE
  5
14
330
5
100
AcDbSymbolTableRecord
100
AcDbLinetypeTableRecord
  2
ByBlock
 70
     0
  3

 72
    65
 73
     0
 40
0.0
  0
LTYPE
  5
15
330
5
100
AcDbSymbolTableRecord
100
AcDbLinetypeTableRecord
  2
ByLayer
 70
     0
  3

 72
    65
 73
     0
 40
0.0
  0
LTYPE
  5
16
330
5
100
AcDbSymbolTableRecord
100
AcDbLinetypeTableRecord
  2
Continuous
 70
     0
  3
Solid line
 72
    65
 73
     0
 40
0.0
  0
LTYPE
  5
33
330
5
100
AcDbSymbolTableRecord
100
AcDbLinetypeTableRecord
  2
IZOLACE
 70
     0
  3
Izolace SSSSSSSSSSSSSSSSSSSSSSSSSSSSSSSSSSSSSSS
 72
    65
 73
     4
 40
10.16253999999999
 49
0.00254
 74
     0
 49
-2.54
 74
     4
 75
   134
340
3D
 46
2.54
 50
0.0
 44
-2.54
 45
0.0
 49
-5.08
 74
     4
 75
   134
340
3D
 46
2.54
 50
180.0
 44
2.54
 45
0.0
 49
-2.54
 74
     0
  0
LTYPE
  5
34
330
5
100
AcDbSymbolTableRecord
100
AcDbLinetypeTableRecord
  2
DASHED
 70
     0
  3
Dashed __ __ __ __ __ __ __ __ __ __ __ __ __ _
 72
    65
 73
     2
 40
19.04999999999999
 49
12.7
 74
     0
 49
-6.349999999999999
 74
     0
  0
LTYPE
  5
35
330
5
100
AcDbSymbolTableRecord
100
AcDbLinetypeTableRecord
  2
DASHDOT2
 70
     0
  3
Dash dot (.5x) _._._._._._._._._._._._._._._.
 72
    65
 73
     4
 40
12.7
 49
6.349999999999999
 74
     0
 49
-3.174999999999999
 74
     0
 49
0.0
 74
     0
 49
-3.174999999999999
 74
     0
  0
ENDTAB
  0
TABLE
  2
LAYER
  5
2
330
0
100
AcDbSymbolTable
 70
     8
  0
LAYER
  5
10
330
2
100
AcDbSymbolTableRecord
100
AcDbLayerTableRecord
  2
0
 70
     0
 62
     7
  6
Continuous
370
    -3
390
F
  0
LAYER
  5
36
330
2
100
AcDbSymbolTableRecord
100
AcDbLayerTableRecord
  2
POPIS
 70
     0
 62
    30
  6
Continuous
370
    -3
390
F
  0
LAYER
  5
37
330
2
100
AcDbSymbolTableRecord
100
AcDbLayerTableRecord
  2
SPOJOVACÍ
 70
     0
 62
   180
  6
Continuous
370
    -3
390
F
  0
LAYER
  5
38
330
2
100
AcDbSymbolTableRecord
100
AcDbLayerTableRecord
  2
CETRIS
 70
     0
 62
     1
  6
Continuous
370
    -3
390
F
  0
LAYER
  5
39
330
2
100
AcDbSymbolTableRecord
100
AcDbLayerTableRecord
  2
NOSNÉ KONSTRUKCE
 70
     0
 62
    33
  6
Continuous
370
    -3
390
F
  0
LAYER
  5
3A
330
2
100
AcDbSymbolTableRecord
100
AcDbLayerTableRecord
  2
PROFILY
 70
     0
 62
    73
  6
Continuous
370
    -3
390
F
  0
LAYER
  5
3B
330
2
100
AcDbSymbolTableRecord
100
AcDbLayerTableRecord
  2
STAVBA OBRYS
 70
     0
 62
     6
  6
Continuous
370
    -3
390
F
  0
LAYER
  5
5FD
330
2
100
AcDbSymbolTableRecord
100
AcDbLayerTableRecord
  2
Defpoints
 70
     0
 62
     7
  6
Continuous
290
     0
370
    -3
390
F
  0
ENDTAB
  0
TABLE
  2
STYLE
  5
3
330
0
100
AcDbSymbolTable
 70
     3
  0
STYLE
  5
11
330
3
100
AcDbSymbolTableRecord
100
AcDbTextStyleTableRecord
  2
Standard
 70
     0
 40
0.0
 41
1.0
 50
0.0
 71
     0
 42
2.5
  3
txt
  4

  0
STYLE
  5
3C
330
3
100
AcDbSymbolTableRecord
100
AcDbTextStyleTableRecord
  2
SIMPLEX7
 70
     0
 40
0.0
 41
0.85
 50
0.0
 71
     0
 42
102.0
  3
ARIAL.TTF
  4

1001
ACAD
1000
Arial CE
1071
    60962
  0
STYLE
  5
3D
330
3
100
AcDbSymbolTableRecord
100
AcDbTextStyleTableRecord
  2

 70
     1
 40
0.0
 41
1.0
 50
0.0
 71
     0
 42
2.5
  3
ltypeshp.shx
  4

  0
ENDTAB
  0
TABLE
  2
VIEW
  5
6
330
0
100
AcDbSymbolTable
 70
     0
  0
ENDTAB
  0
TABLE
  2
UCS
  5
7
330
0
100
AcDbSymbolTable
 70
     0
  0
ENDTAB
  0
TABLE
  2
APPID
  5
9
330
0
100
AcDbSymbolTable
 70
     1
  0
APPID
  5
12
330
9
100
AcDbSymbolTableRecord
100
AcDbRegAppTableRecord
  2
ACAD
 70
     0
  0
ENDTAB
  0
TABLE
  2
DIMSTYLE
  5
A
330
0
100
AcDbSymbolTable
 70
     1
100
AcDbDimStyleTable
 71
     0
  0
DIMSTYLE
105
27
330
A
100
AcDbSymbolTableRecord
100
AcDbDimStyleTableRecord
  2
ISO-25
 70
     0
 41
2.5
 42
0.625
 43
3.75
 44
1.25
 73
     0
 74
     0
 77
     1
 78
     8
140
2.5
141
2.5
143
0.03937007874016
147
0.625
171
     3
172
     1
271
     2
272
     2
274
     3
278
    44
283
     0
284
     8
340
11
  0
ENDTAB
  0
TABLE
  2
BLOCK_RECORD
  5
1
330
0
100
AcDbSymbolTable
 70
     3
  0
BLOCK_RECORD
  5
1F
102
{ACAD_XDICTIONARY
360
1507
102
}
330
1
100
AcDbSymbolTableRecord
100
AcDbBlockTableRecord
  2
*Model_Space
340
22
  0
BLOCK_RECORD
  5
1B
102
{ACAD_XDICTIONARY
360
1509
102
}
330
1
100
AcDbSymbolTableRecord
100
AcDbBlockTableRecord
  2
*Paper_Space
340
1E
  0
BLOCK_RECORD
  5
23
102
{ACAD_XDICTIONARY
360
150B
102
}
330
1
100
AcDbSymbolTableRecord
100
AcDbBlockTableRecord
  2
*Paper_Space0
340
26
  0
BLOCK_RECORD
  5
2B
330
1
100
AcDbSymbolTableRecord
100
AcDbBlockTableRecord
  2
E_PUNKT
340
0
102
{BLKREFS
331
12F4
331
1492
331
1495
331
14A1
331
14BA
331
14C1
331
14F2
331
15BE
102
}
  0
BLOCK_RECORD
  5
1591
330
1
100
AcDbSymbolTableRecord
100
AcDbBlockTableRecord
  2
_ArchTick
340
0
102
{BLKREFS
331
15AA
331
15AD
102
}
  0
ENDTAB
  0
ENDSEC
  0
SECTION
  2
BLOCKS
  0
BLOCK
  5
20
330
1F
100
AcDbEntity
  8
0
100
AcDbBlockBegin
  2
*Model_Space
 70
     0
 10
0.0
 20
0.0
 30
0.0
  3
*Model_Space
  1

  0
ENDBLK
  5
21
330
1F
100
AcDbEntity
  8
0
100
AcDbBlockEnd
  0
BLOCK
  5
1C
330
1B
100
AcDbEntity
 67
     1
  8
0
100
AcDbBlockBegin
  2
*Paper_Space
 70
     0
 10
0.0
 20
0.0
 30
0.0
  3
*Paper_Space
  1

  0
ENDBLK
  5
1D
330
1B
100
AcDbEntity
 67
     1
  8
0
100
AcDbBlockEnd
  0
BLOCK
  5
24
330
23
100
AcDbEntity
  8
0
100
AcDbBlockBegin
  2
*Paper_Space0
 70
     0
 10
0.0
 20
0.0
 30
0.0
  3
*Paper_Space0
  1

  0
ENDBLK
  5
25
330
23
100
AcDbEntity
  8
0
100
AcDbBlockEnd
  0
BLOCK
  5
2D
330
2B
100
AcDbEntity
  8
0
100
AcDbBlockBegin
  2
E_PUNKT
 70
     0
 10
0.0
 20
0.0
 30
0.0
  3
E_PUNKT
  1

  0
LWPOLYLINE
  5
2C
330
2B
100
AcDbEntity
  8
POPIS
100
AcDbPolyline
 90
        2
 70
     1
 43
2.5
 10
1.27761037562675
 20
0.0290683308725193
 42
-1.0
 10
-1.222389624373249
 20
0.0290683308725193
 42
-1.0
  0
ENDBLK
  5
2E
330
2B
100
AcDbEntity
  8
0
100
AcDbBlockEnd
  0
BLOCK
  5
1593
330
1591
100
AcDbEntity
  8
0
100
AcDbBlockBegin
  2
_ArchTick
 70
     0
 10
0.0
 20
0.0
 30
0.0
  3
_ArchTick
  1

  0
LWPOLYLINE
  5
1592
330
1591
100
AcDbEntity
  8
0
  6
ByBlock
 62
     0
100
AcDbPolyline
 90
        2
 70
     0
 43
0.15
 10
-0.5
 20
-0.5
 10
0.5
 20
0.5
  0
ENDBLK
  5
1594
330
1591
100
AcDbEntity
  8
0
100
AcDbBlockEnd
  0
ENDSEC
  0
SECTION
  2
ENTITIES
  0
INSERT
  5
12F4
330
1F
100
AcDbEntity
  8
POPIS
100
AcDbBlockReference
  2
E_PUNKT
 10
2116.684287195198
 20
622.2710809193504
 30
0.0
 41
-1.0
  0
TEXT
  5
12F5
330
1F
100
AcDbEntity
  8
POPIS
100
AcDbText
 10
2396.506466712881
 20
609.9364513044665
 30
0.0
 40
25.0
  1
07
 41
0.7
  7
SIMPLEX7
100
AcDbText
  0
LINE
  5
12F6
330
1F
100
AcDbEntity
  8
POPIS
100
AcDbLine
 10
2117.961167670141
 20
622.3001492502226
 30
0.0
 11
2381.845240425459
 21
622.3001492502226
 31
0.0
  0
TEXT
  5
12F7
330
1F
100
AcDbEntity
  8
POPIS
100
AcDbText
 10
1876.791988380175
 20
-352.2197017652552
 30
0.0
 40
25.0
  1
07
 41
0.85
  7
SIMPLEX7
100
AcDbText
  0
TEXT
  5
12F8
330
1F
100
AcDbEntity
  8
POPIS
100
AcDbText
 10
1931.135691539925
 20
-352.2197017652552
 30
0.0
 40
25.0
  1
Tepelná izolace (np. ORSIL, ROCKWOOL, ISOVER, NOBASIL)
 41
0.7
  7
SIMPLEX7
100
AcDbText
  0
TEXT
  5
12F9
330
1F
100
AcDbEntity
  8
POPIS
100
AcDbText
 10
2078.418793689396
 20
-423.0776073198176
 30
0.0
 40
25.0
  1
- profil PROTECTOR 3540
 41
0.7
  7
SIMPLEX7
100
AcDbText
  0
LINE
  5
12FA
330
1F
100
AcDbEntity
  8
PROFILY
100
AcDbLine
 10
1950.837031570891
 20
-410.1471413705913
 30
0.0
 11
1948.491758192372
 21
-410.1471413705913
 31
0.0
  0
LINE
  5
12FB
330
1F
100
AcDbEntity
  8
PROFILY
100
AcDbLine
 10
2008.985467421541
 20
-468.0620974636221
 30
0.0
 11
2008.985467421541
 21
-470.3957670186619
 31
0.0
  0
LINE
  5
12FC
330
1F
100
AcDbEntity
  8
PROFILY
100
AcDbLine
 10
1948.491758192368
 20
-410.1471413705913
 30
0.0
 11
1948.491758192368
 21
-470.395767018661
 31
0.0
  0
LINE
  5
12FD
330
1F
100
AcDbEntity
  8
PROFILY
100
AcDbLine
 10
1950.837031570891
 20
-468.0620974636221
 30
0.0
 11
1950.837031570891
 21
-410.1471413705913
 31
0.0
  0
LINE
  5
12FE
330
1F
100
AcDbEntity
  8
PROFILY
100
AcDbLine
 10
1950.837031570891
 20
-468.0620974636221
 30
0.0
 11
2008.985467421541
 21
-468.0620974636221
 31
0.0
  0
HATCH
  5
12FF
330
1F
100
AcDbEntity
  8
PROFILY
100
AcDbHatch
 10
0.0
 20
0.0
 30
0.0
210
0.0
220
0.0
230
1.0
  2
SOLID
 70
     1
 71
     0
 91
        1
 92
        7
 72
     0
 73
     1
 93
        6
 10
2008.985467421541
 20
-470.3957670186627
 10
2008.985467421545
 20
-468.0620974636221
 10
1950.837031570895
 20
-468.0620974636221
 10
1950.837031570891
 20
-410.1471413705913
 10
1948.491758192364
 20
-410.1471413705913
 10
1948.491758192372
 20
-470.395767018661
 97
        0
 75
     0
 76
     1
 47
0.6102241244330852
 98
        1
 10
1963.768002744272
 20
-469.3868704492379
  0
HATCH
  5
1300
330
1F
100
AcDbEntity
  8
CETRIS
100
AcDbHatch
 10
0.0
 20
0.0
 30
0.0
210
0.0
220
0.0
230
1.0
  2
SOLID
 70
     1
 71
     0
 91
        6
 92
        7
 72
     0
 73
     1
 93
       12
 10
2217.201072613405
 20
394.8759680098191
 10
2229.201072613406
 20
394.8759680098183
 10
2229.201072613406
 20
414.7758141211852
 10
2228.001145836674
 20
414.7758141211852
 10
2227.664422198794
 20
415.4911193073567
 10
2226.746338688342
 20
416.7282531162582
 10
2225.538970505457
 20
417.6863341862354
 10
2224.125103295754
 20
418.2993200353848
 10
2222.601475342314
 20
418.5262829262683
 10
2217.645597538266
 20
418.5262829262683
 10
2217.419465984013
 20
417.8537658278364
 10
2217.201072613405
 20
417.476456432275
 97
        0
 92
        7
 72
     0
 73
     1
 93
       15
 10
2217.201072613405
 20
421.2256530890044
 10
2217.957008758104
 20
421.2256530890035
 10
2218.183140312401
 20
421.8981701874345
 10
2218.400801448449
 20
422.2758215627427
 10
2218.779382997279
 20
421.8981701874363
 10
2218.553251443025
 20
421.2256530890053
 10
2222.601475342318
 20
421.2256530890044
 10
2223.388404065443
 20
421.291695570926
 10
2224.86924393249
 20
421.7195764352263
 10
2226.188233210791
 20
422.5158069145472
 10
2227.257005200196
 20
423.6264368149031
 10
2228.001145836671
 20
424.9761218984522
 10
2229.201072613406
 20
424.9761218984531
 10
2229.201072613406
 20
494.4461417754719
 10
2217.201072613402
 20
479.0257895568229
 97
        0
 92
        7
 72
     0
 73
     1
 93
        4
 10
2217.201072613405
 20
479.0257895568275
 10
2229.201072613406
 20
494.4461417754719
 10
2229.201072613406
 20
538.7333886812539
 10
2217.201072613402
 20
528.4696563495972
 97
        0
 92
        7
 72
     0
 73
     1
 93
        4
 10
2217.201072613402
 20
528.4696563495926
 10
2229.201072613406
 20
538.733388681253
 10
2229.201072613406
 20
580.4075528856746
 10
2217.201072613405
 20
572.977766431346
 97
        0
 92
        7
 72
     0
 73
     1
 93
       12
 10
2268.195936942934
 20
366.7152737358474
 10
2268.573246338498
 20
366.9336671064611
 10
2269.245763436926
 20
367.1597986607148
 10
2269.245763436926
 20
372.115676464773
 10
2269.018800546046
 20
373.6393044181941
 10
2268.405814696902
 20
375.0531716278883
 10
2267.447733626914
 20
376.2605398107889
 10
2266.210599818007
 20
377.1786233212351
 10
2265.495294631843
 20
377.5153469591177
 10
2265.495294631846
 20
378.7152737358501
 10
2245.595448520477
 20
378.7152737358492
 10
2245.595448520477
 20
366.7152737358492
 97
        0
 92
        7
 72
     0
 73
     1
 93
       15
 10
2275.695602409107
 20
378.7152737358492
 10
2275.695602409111
 20
377.5153469591168
 10
2274.345917325557
 20
376.7712063226436
 10
2273.235287425201
 20
375.7024343332359
 10
2272.439056945887
 20
374.3834450549375
 10
2272.011176081584
 20
372.9026051878872
 10
2271.945133599662
 20
372.1156764647285
 10
2271.945133599662
 20
368.067452565474
 10
2272.617650698087
 20
368.2935841197259
 10
2272.995302073398
 20
367.915002570895
 10
2272.617650698087
 20
367.6973414348458
 10
2271.945133599662
 20
367.4712098805475
 10
2271.945133599662
 20
366.7152737358483
 10
2573.045878931919
 20
366.7152737358483
 10
2573.045878931923
 20
378.7152737358492
 97
        0
 75
     0
 76
     1
 47
0.5428608660554321
 98
        6
 10
2221.450365510288
 20
407.1871679548057
 10
2222.536670483196
 20
440.8445369568071
 10
2219.277719646444
 20
508.7021436281174
 10
2221.993517996742
 20
546.7024175712031
 10
2253.49664955525
 20
370.2726313463281
 10
2296.406055165337
 20
372.9869302855004
  0
HATCH
  5
1301
330
1F
100
AcDbEntity
  8
PROFILY
100
AcDbHatch
 10
0.0
 20
0.0
 30
0.0
210
0.0
220
0.0
230
1.0
  2
SOLID
 70
     1
 71
     0
 91
        3
 92
        7
 72
     0
 73
     1
 93
        8
 10
2217.052104685098
 20
434.4260523313496
 10
2214.706831306578
 20
434.4260523313486
 10
2214.706831306578
 20
421.784992323257
 10
2214.843611264025
 20
422.0218835683217
 10
2215.221262637161
 20
421.6433020200375
 10
2215.03008296043
 20
421.074785772671
 10
2216.236084430408
 20
421.2256530890053
 10
2217.052104685098
 20
421.2256530890044
 97
        0
 92
        7
 72
     1
 73
     1
 93
       17
 10
2217.052104685101
 20
418.189255822097
 42
0.0
 10
2216.939297331899
 20
417.8537658278337
 42
0.0
 10
2216.72070601988
 20
417.4761144568947
 42
0.0
 10
2216.343054646756
 20
417.8537658278419
 42
0.0
 10
2216.569186201052
 20
418.5262829262683
 42
0.0
 10
2216.236084430405
 20
418.5262829262683
 42
0.0
 10
2214.706831306578
 20
418.7168080923629
 42
0.0
 10
2214.706831306578
 20
364.1774266832799
 42
0.0
 10
2269.44172131512
 20
364.177426683279
 42
0.0
 10
2269.245763436926
 20
365.7502855528391
 42
0.0
 10
2269.245763436926
 20
366.0833873234942
 42
0.0
 10
2268.573246338498
 20
365.8572557691959
 42
0.0
 10
2268.195594967552
 20
366.2349071423232
 42
0.0
 10
2268.672755700866
 20
366.5110962383187
 42
0.0
 10
2226.895226138799
 20
366.5110962383187
 42
-0.8565956696785118
 10
2224.424879677531
 20
366.5110962383187
 42
0.0
 10
2217.052104685101
 20
366.5110962383187
 42
0.0
 97
        0
 92
        7
 72
     0
 73
     1
 93
        8
 10
2285.200540535751
 20
366.5110962383187
 10
2271.945133599662
 20
366.5110962383187
 10
2271.945133599662
 20
365.7502855528482
 10
2271.794266283329
 20
364.5442840828682
 10
2272.362782530696
 20
364.7354637596017
 10
2272.741364078981
 20
364.3578123864717
 10
2272.428951393542
 20
364.1774266832781
 10
2285.200540535751
 20
364.1774266832781
 97
        0
 75
     0
 76
     1
 47
0.2350912924921067
 98
        3
 10
2216.180399955649
 20
428.4753004557096
 10
2215.709981484868
 20
408.022348812301
 10
2279.689731034929
 20
365.0006451403605
  0
HATCH
  5
1302
330
1F
100
AcDbEntity
  8
CETRIS
100
AcDbHatch
 10
0.0
 20
0.0
 30
0.0
210
0.0
220
0.0
230
1.0
  2
SOLID
 70
     1
 71
     0
 91
        2
 92
        7
 72
     0
 73
     1
 93
        4
 10
2217.201072613402
 20
572.9777664313441
 10
2229.201072613406
 20
580.4075528856738
 10
2229.201072613406
 20
656.0426099884644
 10
2217.201072613405
 20
656.0426099884644
 97
        0
 92
        7
 72
     0
 73
     1
 93
        4
 10
2217.201072613405
 20
693.428059722366
 10
2217.201072613402
 20
656.0426099884644
 10
2229.201072613406
 20
656.0426099884644
 10
2229.201072613406
 20
693.428059722366
 97
        0
 75
     0
 76
     1
 47
0.6127971981485846
 98
        2
 10
2220.680821665408
 20
615.1226497331227
 10
2221.293978397079
 20
651.8904752795569
  0
LINE
  5
1303
330
1F
100
AcDbEntity
  8
SPOJOVACÍ
  6
Continuous
100
AcDbLine
 10
2222.601475342318
 20
421.2256530890044
 30
0.0
 11
2218.563582212638
 21
421.2256530890044
 31
0.0
  0
LINE
  5
1304
330
1F
100
AcDbEntity
  8
SPOJOVACÍ
  6
Continuous
100
AcDbLine
 10
2222.601475342318
 20
418.5262829262683
 30
0.0
 11
2217.658521163389
 21
418.5262829262683
 31
0.0
  0
LINE
  5
1305
330
1F
100
AcDbEntity
  8
SPOJOVACÍ
  6
Continuous
100
AcDbLine
 10
2227.2570052002
 20
423.6264368149022
 30
0.0
 11
2226.188233210788
 21
422.5158069145436
 31
0.0
  0
LINE
  5
1306
330
1F
100
AcDbEntity
  8
SPOJOVACÍ
  6
Continuous
100
AcDbLine
 10
2226.188233210788
 20
422.5158069145436
 30
0.0
 11
2224.86924393249
 21
421.7195764352254
 31
0.0
  0
LINE
  5
1307
330
1F
100
AcDbEntity
  8
SPOJOVACÍ
  6
Continuous
100
AcDbLine
 10
2224.86924393249
 20
421.7195764352254
 30
0.0
 11
2223.38840406544
 21
421.291695570926
 31
0.0
  0
LINE
  5
1308
330
1F
100
AcDbEntity
  8
SPOJOVACÍ
  6
Continuous
100
AcDbLine
 10
2223.38840406544
 20
421.291695570926
 30
0.0
 11
2222.601475342318
 21
421.2256530890044
 31
0.0
  0
LINE
  5
1309
330
1F
100
AcDbEntity
  8
SPOJOVACÍ
  6
Continuous
100
AcDbLine
 10
2226.746338688349
 20
416.7282531162527
 30
0.0
 11
2227.66442219879
 21
415.491119307353
 31
0.0
  0
LINE
  5
130A
330
1F
100
AcDbEntity
  8
SPOJOVACÍ
  6
Continuous
100
AcDbLine
 10
2227.66442219879
 20
415.491119307353
 30
0.0
 11
2228.001145836674
 21
414.7758141211852
 31
0.0
  0
LINE
  5
130B
330
1F
100
AcDbEntity
  8
SPOJOVACÍ
  6
Continuous
100
AcDbLine
 10
2228.001145836674
 20
424.9761218984531
 30
0.0
 11
2228.001145836674
 21
414.7758141211852
 31
0.0
  0
LINE
  5
130C
330
1F
100
AcDbEntity
  8
SPOJOVACÍ
  6
Continuous
100
AcDbLine
 10
2229.201072613406
 20
414.7758141211852
 30
0.0
 11
2228.001145836674
 21
414.7758141211852
 31
0.0
  0
LINE
  5
130D
330
1F
100
AcDbEntity
  8
SPOJOVACÍ
  6
Continuous
100
AcDbLine
 10
2222.601475342318
 20
418.5262829262683
 30
0.0
 11
2224.125103295747
 21
418.2993200353848
 31
0.0
  0
LINE
  5
130E
330
1F
100
AcDbEntity
  8
SPOJOVACÍ
  6
Continuous
100
AcDbLine
 10
2224.125103295747
 20
418.2993200353848
 30
0.0
 11
2225.53897050545
 21
417.6863341862372
 31
0.0
  0
LINE
  5
130F
330
1F
100
AcDbEntity
  8
SPOJOVACÍ
  6
Continuous
100
AcDbLine
 10
2225.53897050545
 20
417.6863341862372
 30
0.0
 11
2226.746338688349
 21
416.7282531162527
 31
0.0
  0
LINE
  5
1310
330
1F
100
AcDbEntity
  8
SPOJOVACÍ
  6
Continuous
100
AcDbLine
 10
2228.001145836674
 20
424.9761218984531
 30
0.0
 11
2227.2570052002
 21
423.6264368149022
 31
0.0
  0
LINE
  5
1311
330
1F
100
AcDbEntity
  8
SPOJOVACÍ
  6
Continuous
100
AcDbLine
 10
2229.201072613406
 20
424.9761218984531
 30
0.0
 11
2228.001145836674
 21
424.9761218984531
 31
0.0
  0
LINE
  5
1312
330
1F
100
AcDbEntity
  8
SPOJOVACÍ
  6
Continuous
100
AcDbLine
 10
2229.201072613406
 20
424.9761218984531
 30
0.0
 11
2229.201072613406
 21
414.7758141211852
 31
0.0
  0
LINE
  5
1313
330
1F
100
AcDbEntity
  8
SPOJOVACÍ
  6
Continuous
100
AcDbLine
 10
2205.920632796343
 20
422.2758215627436
 30
0.0
 11
2206.299214345449
 21
421.8981701874326
 31
0.0
  0
LINE
  5
1314
330
1F
100
AcDbEntity
  8
SPOJOVACÍ
  6
Continuous
100
AcDbLine
 10
2205.920632796343
 20
422.2758215627436
 30
0.0
 11
2205.702971660294
 21
421.8981701874326
 31
0.0
  0
LINE
  5
1315
330
1F
100
AcDbEntity
  8
SPOJOVACÍ
  6
Continuous
100
AcDbLine
 10
2209.419023964411
 20
421.8981701874326
 30
0.0
 11
2208.059106950869
 21
417.8537658278401
 31
0.0
  0
LINE
  5
1316
330
1F
100
AcDbEntity
  8
SPOJOVACÍ
  6
Continuous
100
AcDbLine
 10
2208.822781279264
 20
421.8981701874326
 30
0.0
 11
2207.462864265991
 21
417.8537658278401
 31
0.0
  0
LINE
  5
1317
330
1F
100
AcDbEntity
  8
SPOJOVACÍ
  6
Continuous
100
AcDbLine
 10
2207.841445814821
 20
417.4761144568947
 30
0.0
 11
2208.059106950869
 21
417.8537658278401
 31
0.0
  0
LINE
  5
1318
330
1F
100
AcDbEntity
  8
SPOJOVACÍ
  6
Continuous
100
AcDbLine
 10
2207.841445814821
 20
417.4761144568947
 30
0.0
 11
2207.462864265991
 21
417.8537658278401
 31
0.0
  0
LINE
  5
1319
330
1F
100
AcDbEntity
  8
SPOJOVACÍ
  6
Continuous
100
AcDbLine
 10
2209.041372591283
 20
422.2758215627436
 30
0.0
 11
2209.419023964411
 21
421.8981701874326
 31
0.0
  0
LINE
  5
131A
330
1F
100
AcDbEntity
  8
SPOJOVACÍ
  6
Continuous
100
AcDbLine
 10
2209.041372591283
 20
422.2758215627436
 30
0.0
 11
2208.822781279264
 21
421.8981701874326
 31
0.0
  0
LINE
  5
131B
330
1F
100
AcDbEntity
  8
SPOJOVACÍ
  6
Continuous
100
AcDbLine
 10
2209.041372591283
 20
422.2758215627436
 30
0.0
 11
2207.841445814821
 21
417.4761144568947
 31
0.0
  0
LINE
  5
131C
330
1F
100
AcDbEntity
  8
SPOJOVACÍ
  6
Continuous
100
AcDbLine
 10
2212.53883358338
 20
421.8981701874326
 30
0.0
 11
2211.178916570107
 21
417.8537658278401
 31
0.0
  0
LINE
  5
131D
330
1F
100
AcDbEntity
  8
SPOJOVACÍ
  6
Continuous
100
AcDbLine
 10
2211.942590898225
 20
421.8981701874326
 30
0.0
 11
2210.58267388496
 21
417.8537658278401
 31
0.0
  0
LINE
  5
131E
330
1F
100
AcDbEntity
  8
SPOJOVACÍ
  6
Continuous
100
AcDbLine
 10
2210.96125543379
 20
417.4761144568947
 30
0.0
 11
2211.178916570107
 21
417.8537658278401
 31
0.0
  0
LINE
  5
131F
330
1F
100
AcDbEntity
  8
SPOJOVACÍ
  6
Continuous
100
AcDbLine
 10
2210.96125543379
 20
417.4761144568947
 30
0.0
 11
2210.58267388496
 21
417.8537658278401
 31
0.0
  0
LINE
  5
1320
330
1F
100
AcDbEntity
  8
SPOJOVACÍ
  6
Continuous
100
AcDbLine
 10
2212.161182210252
 20
422.2758215627436
 30
0.0
 11
2210.96125543379
 21
417.4761144568947
 31
0.0
  0
LINE
  5
1321
330
1F
100
AcDbEntity
  8
SPOJOVACÍ
  6
Continuous
100
AcDbLine
 10
2208.597678736779
 20
421.2256530890044
 30
0.0
 11
2206.079692857451
 21
421.2256530890044
 31
0.0
  0
LINE
  5
1322
330
1F
100
AcDbEntity
  8
SPOJOVACÍ
  6
Continuous
100
AcDbLine
 10
2210.817078185546
 20
418.5262829262683
 30
0.0
 11
2208.296301778838
 21
418.5262829262683
 31
0.0
  0
LINE
  5
1323
330
1F
100
AcDbEntity
  8
SPOJOVACÍ
  6
Continuous
100
AcDbLine
 10
2213.93967833189
 20
418.5262829262683
 30
0.0
 11
2211.411460519021
 21
418.5262829262683
 31
0.0
  0
LINE
  5
1324
330
1F
100
AcDbEntity
  8
SPOJOVACÍ
  6
Continuous
100
AcDbLine
 10
2211.730510816934
 20
421.2256530890044
 30
0.0
 11
2209.202293004064
 21
421.2256530890044
 31
0.0
  0
LINE
  5
1325
330
1F
100
AcDbEntity
  8
SPOJOVACÍ
  6
Continuous
100
AcDbLine
 10
2206.299214345449
 20
421.8981701874326
 30
0.0
 11
2204.939297331907
 21
417.8537658278401
 31
0.0
  0
LINE
  5
1326
330
1F
100
AcDbEntity
  8
SPOJOVACÍ
  6
Continuous
100
AcDbLine
 10
2205.702971660294
 20
421.8981701874326
 30
0.0
 11
2204.343054646752
 21
417.8537658278401
 31
0.0
  0
LINE
  5
1327
330
1F
100
AcDbEntity
  8
SPOJOVACÍ
  6
Continuous
100
AcDbLine
 10
2216.72070601988
 20
417.4761144568947
 30
0.0
 11
2216.939297331907
 21
417.8537658278401
 31
0.0
  0
LINE
  5
1328
330
1F
100
AcDbEntity
  8
SPOJOVACÍ
  6
Continuous
100
AcDbLine
 10
2216.72070601988
 20
417.4761144568947
 30
0.0
 11
2216.343054646752
 21
417.8537658278401
 31
0.0
  0
LINE
  5
1329
330
1F
100
AcDbEntity
  8
SPOJOVACÍ
  6
Continuous
100
AcDbLine
 10
2205.920632796343
 20
422.2758215627436
 30
0.0
 11
2204.72070601988
 21
417.4761144568947
 31
0.0
  0
LINE
  5
132A
330
1F
100
AcDbEntity
  8
SPOJOVACÍ
  6
Continuous
100
AcDbLine
 10
2196.815141931411
 20
420.8926501517453
 30
0.0
 11
2196.504463215637
 21
418.7383630102885
 31
0.0
  0
LINE
  5
132B
330
1F
100
AcDbEntity
  8
SPOJOVACÍ
  6
Continuous
100
AcDbLine
 10
2197.19279330454
 20
420.5149987807999
 30
0.0
 11
2196.722124351955
 21
419.1160143812339
 31
0.0
  0
LINE
  5
132C
330
1F
100
AcDbEntity
  8
SPOJOVACÍ
  6
Continuous
100
AcDbLine
 10
2196.596550619392
 20
420.5149987807999
 30
0.0
 11
2196.125881666807
 21
419.1160143812339
 31
0.0
  0
LINE
  5
132D
330
1F
100
AcDbEntity
  8
SPOJOVACÍ
  6
Continuous
100
AcDbLine
 10
2196.504463215637
 20
418.7383630102885
 30
0.0
 11
2196.722124351955
 21
419.1160143812339
 31
0.0
  0
LINE
  5
132E
330
1F
100
AcDbEntity
  8
SPOJOVACÍ
  6
Continuous
100
AcDbLine
 10
2196.504463215637
 20
418.7383630102885
 30
0.0
 11
2196.125881666807
 21
419.1160143812339
 31
0.0
  0
LINE
  5
132F
330
1F
100
AcDbEntity
  8
SPOJOVACÍ
  6
Continuous
100
AcDbLine
 10
2196.815141931411
 20
420.8926501517453
 30
0.0
 11
2197.19279330454
 21
420.5149987807999
 31
0.0
  0
LINE
  5
1330
330
1F
100
AcDbEntity
  8
SPOJOVACÍ
  6
Continuous
100
AcDbLine
 10
2196.815141931411
 20
420.8926501517453
 30
0.0
 11
2196.596550619392
 21
420.5149987807999
 31
0.0
  0
LINE
  5
1331
330
1F
100
AcDbEntity
  8
SPOJOVACÍ
  6
Continuous
100
AcDbLine
 10
2199.828911509731
 20
421.4572668622167
 30
0.0
 11
2199.195461792961
 21
418.3411779457856
 31
0.0
  0
LINE
  5
1332
330
1F
100
AcDbEntity
  8
SPOJOVACÍ
  6
Continuous
100
AcDbLine
 10
2200.207493058838
 20
421.0796154869058
 30
0.0
 11
2199.413122929009
 21
418.7188293167309
 31
0.0
  0
LINE
  5
1333
330
1F
100
AcDbEntity
  8
SPOJOVACÍ
  6
Continuous
100
AcDbLine
 10
2199.611250373683
 20
421.0796154869058
 30
0.0
 11
2198.816880244131
 21
418.7188293167309
 31
0.0
  0
LINE
  5
1334
330
1F
100
AcDbEntity
  8
SPOJOVACÍ
  6
Continuous
100
AcDbLine
 10
2199.195461792961
 20
418.3411779457856
 30
0.0
 11
2199.413122929009
 21
418.7188293167309
 31
0.0
  0
LINE
  5
1335
330
1F
100
AcDbEntity
  8
SPOJOVACÍ
  6
Continuous
100
AcDbLine
 10
2199.195461792961
 20
418.3411779457856
 30
0.0
 11
2198.816880244131
 21
418.7188293167309
 31
0.0
  0
LINE
  5
1336
330
1F
100
AcDbEntity
  8
SPOJOVACÍ
  6
Continuous
100
AcDbLine
 10
2199.828911509731
 20
421.4572668622167
 30
0.0
 11
2200.207493058838
 21
421.0796154869058
 31
0.0
  0
LINE
  5
1337
330
1F
100
AcDbEntity
  8
SPOJOVACÍ
  6
Continuous
100
AcDbLine
 10
2199.828911509731
 20
421.4572668622167
 30
0.0
 11
2199.611250373683
 21
421.0796154869058
 31
0.0
  0
LINE
  5
1338
330
1F
100
AcDbEntity
  8
SPOJOVACÍ
  6
Continuous
100
AcDbLine
 10
2202.843611264029
 20
422.0218835683226
 30
0.0
 11
2201.870647381724
 21
417.8965539155797
 31
0.0
  0
LINE
  5
1339
330
1F
100
AcDbEntity
  8
SPOJOVACÍ
  6
Continuous
100
AcDbLine
 10
2203.221262637157
 20
421.6433020200383
 30
0.0
 11
2202.088308517772
 21
418.2742052865251
 31
0.0
  0
LINE
  5
133A
330
1F
100
AcDbEntity
  8
SPOJOVACÍ
  6
Continuous
100
AcDbLine
 10
2202.625019952002
 20
421.6433020200383
 30
0.0
 11
2201.492065832618
 21
418.2742052865251
 31
0.0
  0
LINE
  5
133B
330
1F
100
AcDbEntity
  8
SPOJOVACÍ
  6
Continuous
100
AcDbLine
 10
2201.870647381724
 20
417.8965539155797
 30
0.0
 11
2202.088308517772
 21
418.2742052865251
 31
0.0
  0
LINE
  5
133C
330
1F
100
AcDbEntity
  8
SPOJOVACÍ
  6
Continuous
100
AcDbLine
 10
2201.870647381724
 20
417.8965539155797
 30
0.0
 11
2201.492065832618
 21
418.2742052865251
 31
0.0
  0
LINE
  5
133D
330
1F
100
AcDbEntity
  8
SPOJOVACÍ
  6
Continuous
100
AcDbLine
 10
2202.843611264029
 20
422.0218835683226
 30
0.0
 11
2203.221262637157
 21
421.6433020200383
 31
0.0
  0
LINE
  5
133E
330
1F
100
AcDbEntity
  8
SPOJOVACÍ
  6
Continuous
100
AcDbLine
 10
2202.843611264029
 20
422.0218835683226
 30
0.0
 11
2202.625019952002
 21
421.6433020200383
 31
0.0
  0
LINE
  5
133F
330
1F
100
AcDbEntity
  8
SPOJOVACÍ
  6
Continuous
100
AcDbLine
 10
2202.265041919122
 20
418.771849337736
 30
0.0
 11
2204.236084430408
 21
418.5262829262683
 31
0.0
  0
LINE
  5
1340
330
1F
100
AcDbEntity
  8
SPOJOVACÍ
  6
Continuous
100
AcDbLine
 10
2199.558230353223
 20
419.1104333302973
 30
0.0
 11
2201.694844156077
 21
418.8434728749598
 31
0.0
  0
LINE
  5
1341
330
1F
100
AcDbEntity
  8
SPOJOVACÍ
  6
Continuous
100
AcDbLine
 10
2196.84118685379
 20
419.4499474914664
 30
0.0
 11
2198.986172238775
 21
419.1820568631555
 31
0.0
  0
LINE
  5
1342
330
1F
100
AcDbEntity
  8
SPOJOVACÍ
  6
Continuous
100
AcDbLine
 10
2196.52492708326
 20
420.2619909637178
 30
0.0
 11
2193.435813265455
 21
419.8759680098191
 31
0.0
  0
LINE
  5
1343
330
1F
100
AcDbEntity
  8
SPOJOVACÍ
  6
Continuous
100
AcDbLine
 10
2199.466142949469
 20
420.6294104013977
 30
0.0
 11
2197.145354339113
 21
420.3391955562437
 31
0.0
  0
LINE
  5
1344
330
1F
100
AcDbEntity
  8
SPOJOVACÍ
  6
Continuous
100
AcDbLine
 10
2202.418520925198
 20
420.9986901937554
 30
0.0
 11
2200.096802139133
 21
420.7084753442359
 31
0.0
  0
LINE
  5
1345
330
1F
100
AcDbEntity
  8
SPOJOVACÍ
  6
Continuous
100
AcDbLine
 10
2193.435813265455
 20
419.8759680098191
 30
0.0
 11
2196.271919266723
 21
419.5215710286902
 31
0.0
  0
LINE
  5
1346
330
1F
100
AcDbEntity
  8
SPOJOVACÍ
  6
Continuous
100
AcDbLine
 10
2204.236084430408
 20
421.2256530890044
 30
0.0
 11
2203.038948181051
 21
421.0758947862814
 31
0.0
  0
LINE
  5
1347
330
1F
100
AcDbEntity
  8
SPOJOVACÍ
  6
Continuous
100
AcDbLine
 10
2204.572808068292
 20
418.5262829262683
 30
0.0
 11
2204.236084430408
 21
418.5262829262683
 31
0.0
  0
LINE
  5
1348
330
1F
100
AcDbEntity
  8
SPOJOVACÍ
  6
Continuous
100
AcDbLine
 10
2207.695408214905
 20
418.5262829262683
 30
0.0
 11
2205.176492159876
 21
418.5262829262683
 31
0.0
  0
LINE
  5
1349
330
1F
100
AcDbEntity
  8
SPOJOVACÍ
  6
Continuous
100
AcDbLine
 10
2205.483450172297
 20
421.2256530890044
 30
0.0
 11
2204.236084430408
 21
421.2256530890044
 31
0.0
  0
LINE
  5
134A
330
1F
100
AcDbEntity
  8
SPOJOVACÍ
  6
Continuous
100
AcDbLine
 10
2215.658643202619
 20
421.8981701874326
 30
0.0
 11
2214.299656364778
 21
417.8537658278401
 31
0.0
  0
LINE
  5
134B
330
1F
100
AcDbEntity
  8
SPOJOVACÍ
  6
Continuous
100
AcDbLine
 10
2215.28099182949
 20
422.2758215627436
 30
0.0
 11
2215.658643202619
 21
421.8981701874326
 31
0.0
  0
LINE
  5
134C
330
1F
100
AcDbEntity
  8
SPOJOVACÍ
  6
Continuous
100
AcDbLine
 10
2218.779382997282
 20
421.8981701874326
 30
0.0
 11
2217.419465984016
 21
417.8537658278401
 31
0.0
  0
LINE
  5
134D
330
1F
100
AcDbEntity
  8
SPOJOVACÍ
  6
Continuous
100
AcDbLine
 10
2218.183140312404
 20
421.8981701874326
 30
0.0
 11
2216.823223298862
 21
417.8537658278401
 31
0.0
  0
LINE
  5
134E
330
1F
100
AcDbEntity
  8
SPOJOVACÍ
  6
Continuous
100
AcDbLine
 10
2217.20087467199
 20
417.4761144568947
 30
0.0
 11
2217.419465984016
 21
417.8537658278401
 31
0.0
  0
LINE
  5
134F
330
1F
100
AcDbEntity
  8
SPOJOVACÍ
  6
Continuous
100
AcDbLine
 10
2217.20087467199
 20
417.4761144568947
 30
0.0
 11
2216.823223298862
 21
417.8537658278401
 31
0.0
  0
LINE
  5
1350
330
1F
100
AcDbEntity
  8
SPOJOVACÍ
  6
Continuous
100
AcDbLine
 10
2218.400801448452
 20
422.2758215627436
 30
0.0
 11
2218.779382997282
 21
421.8981701874326
 31
0.0
  0
LINE
  5
1351
330
1F
100
AcDbEntity
  8
SPOJOVACÍ
  6
Continuous
100
AcDbLine
 10
2218.400801448452
 20
422.2758215627436
 30
0.0
 11
2218.183140312404
 21
421.8981701874326
 31
0.0
  0
LINE
  5
1352
330
1F
100
AcDbEntity
  8
SPOJOVACÍ
  6
Continuous
100
AcDbLine
 10
2218.400801448452
 20
422.2758215627436
 30
0.0
 11
2217.20087467199
 21
417.4761144568947
 31
0.0
  0
LINE
  5
1353
330
1F
100
AcDbEntity
  8
SPOJOVACÍ
  6
Continuous
100
AcDbLine
 10
2217.054837072074
 20
418.5262829262683
 30
0.0
 11
2214.535921017045
 21
418.5262829262683
 31
0.0
  0
LINE
  5
1354
330
1F
100
AcDbEntity
  8
SPOJOVACÍ
  6
Continuous
100
AcDbLine
 10
2217.968269703461
 20
421.2256530890044
 30
0.0
 11
2215.449353648432
 21
421.2256530890044
 31
0.0
  0
LINE
  5
1355
330
1F
100
AcDbEntity
  8
SPOJOVACÍ
  6
Continuous
100
AcDbLine
 10
2215.062400517464
 20
421.8981701874326
 30
0.0
 11
2213.7034136799
 21
417.8537658278401
 31
0.0
  0
LINE
  5
1356
330
1F
100
AcDbEntity
  8
SPOJOVACÍ
  6
Continuous
100
AcDbLine
 10
2214.081065052752
 20
417.4761144568947
 30
0.0
 11
2214.299656364778
 21
417.8537658278401
 31
0.0
  0
LINE
  5
1357
330
1F
100
AcDbEntity
  8
SPOJOVACÍ
  6
Continuous
100
AcDbLine
 10
2214.081065052752
 20
417.4761144568947
 30
0.0
 11
2213.7034136799
 21
417.8537658278401
 31
0.0
  0
LINE
  5
1358
330
1F
100
AcDbEntity
  8
SPOJOVACÍ
  6
Continuous
100
AcDbLine
 10
2215.28099182949
 20
422.2758215627436
 30
0.0
 11
2215.062400517464
 21
421.8981701874326
 31
0.0
  0
LINE
  5
1359
330
1F
100
AcDbEntity
  8
SPOJOVACÍ
  6
Continuous
100
AcDbLine
 10
2215.28099182949
 20
422.2758215627436
 30
0.0
 11
2214.081065052752
 21
417.4761144568947
 31
0.0
  0
LINE
  5
135A
330
1F
100
AcDbEntity
  8
SPOJOVACÍ
  6
Continuous
100
AcDbLine
 10
2212.161182210252
 20
422.2758215627436
 30
0.0
 11
2212.53883358338
 21
421.8981701874326
 31
0.0
  0
LINE
  5
135B
330
1F
100
AcDbEntity
  8
SPOJOVACÍ
  6
Continuous
100
AcDbLine
 10
2212.161182210252
 20
422.2758215627436
 30
0.0
 11
2211.942590898233
 21
421.8981701874326
 31
0.0
  0
LINE
  5
135C
330
1F
100
AcDbEntity
  8
SPOJOVACÍ
  6
Continuous
100
AcDbLine
 10
2214.863342897089
 20
421.2256530890044
 30
0.0
 11
2212.335125084219
 21
421.2256530890044
 31
0.0
  0
LINE
  5
135D
330
1F
100
AcDbEntity
  8
SPOJOVACÍ
  6
Continuous
100
AcDbLine
 10
2271.945133599662
 20
372.1156764647612
 30
0.0
 11
2271.945133599662
 21
368.0777833350812
 31
0.0
  0
LINE
  5
135E
330
1F
100
AcDbEntity
  8
SPOJOVACÍ
  6
Continuous
100
AcDbLine
 10
2269.245763436926
 20
372.1156764647612
 30
0.0
 11
2269.245763436926
 21
367.1727222858326
 31
0.0
  0
LINE
  5
135F
330
1F
100
AcDbEntity
  8
SPOJOVACÍ
  6
Continuous
100
AcDbLine
 10
2274.34591732556
 20
376.7712063226436
 30
0.0
 11
2273.235287425201
 21
375.7024343332314
 31
0.0
  0
LINE
  5
1360
330
1F
100
AcDbEntity
  8
SPOJOVACÍ
  6
Continuous
100
AcDbLine
 10
2273.235287425201
 20
375.7024343332314
 30
0.0
 11
2272.439056945883
 21
374.3834450549338
 31
0.0
  0
LINE
  5
1361
330
1F
100
AcDbEntity
  8
SPOJOVACÍ
  6
Continuous
100
AcDbLine
 10
2272.439056945883
 20
374.3834450549338
 30
0.0
 11
2272.011176081584
 21
372.9026051878836
 31
0.0
  0
LINE
  5
1362
330
1F
100
AcDbEntity
  8
SPOJOVACÍ
  6
Continuous
100
AcDbLine
 10
2272.011176081584
 20
372.9026051878836
 30
0.0
 11
2271.945133599662
 21
372.1156764647612
 31
0.0
  0
LINE
  5
1363
330
1F
100
AcDbEntity
  8
SPOJOVACÍ
  6
Continuous
100
AcDbLine
 10
2267.44773362691
 20
376.2605398107925
 30
0.0
 11
2266.210599818011
 21
377.1786233212342
 31
0.0
  0
LINE
  5
1364
330
1F
100
AcDbEntity
  8
SPOJOVACÍ
  6
Continuous
100
AcDbLine
 10
2266.210599818011
 20
377.1786233212342
 30
0.0
 11
2265.495294631843
 21
377.5153469591177
 31
0.0
  0
LINE
  5
1365
330
1F
100
AcDbEntity
  8
SPOJOVACÍ
  6
Continuous
100
AcDbLine
 10
2275.695602409111
 20
377.5153469591177
 30
0.0
 11
2265.495294631843
 21
377.5153469591177
 31
0.0
  0
LINE
  5
1366
330
1F
100
AcDbEntity
  8
SPOJOVACÍ
  6
Continuous
100
AcDbLine
 10
2265.495294631843
 20
378.7152737358492
 30
0.0
 11
2265.495294631843
 21
377.5153469591177
 31
0.0
  0
LINE
  5
1367
330
1F
100
AcDbEntity
  8
SPOJOVACÍ
  6
Continuous
100
AcDbLine
 10
2269.245763436926
 20
372.1156764647612
 30
0.0
 11
2269.018800546043
 21
373.6393044181904
 31
0.0
  0
LINE
  5
1368
330
1F
100
AcDbEntity
  8
SPOJOVACÍ
  6
Continuous
100
AcDbLine
 10
2269.018800546043
 20
373.6393044181904
 30
0.0
 11
2268.405814696895
 21
375.0531716278937
 31
0.0
  0
LINE
  5
1369
330
1F
100
AcDbEntity
  8
SPOJOVACÍ
  6
Continuous
100
AcDbLine
 10
2268.405814696895
 20
375.0531716278937
 30
0.0
 11
2267.44773362691
 21
376.2605398107925
 31
0.0
  0
LINE
  5
136A
330
1F
100
AcDbEntity
  8
SPOJOVACÍ
  6
Continuous
100
AcDbLine
 10
2275.695602409111
 20
377.5153469591177
 30
0.0
 11
2274.34591732556
 21
376.7712063226436
 31
0.0
  0
LINE
  5
136B
330
1F
100
AcDbEntity
  8
SPOJOVACÍ
  6
Continuous
100
AcDbLine
 10
2275.695602409111
 20
378.7152737358492
 30
0.0
 11
2275.695602409111
 21
377.5153469591177
 31
0.0
  0
LINE
  5
136C
330
1F
100
AcDbEntity
  8
SPOJOVACÍ
  6
Continuous
100
AcDbLine
 10
2275.695602409111
 20
378.7152737358492
 30
0.0
 11
2265.495294631843
 21
378.7152737358492
 31
0.0
  0
LINE
  5
136D
330
1F
100
AcDbEntity
  8
SPOJOVACÍ
  6
Continuous
100
AcDbLine
 10
2272.995302073402
 20
355.4348339187863
 30
0.0
 11
2272.61765069809
 21
355.8134154678928
 31
0.0
  0
LINE
  5
136E
330
1F
100
AcDbEntity
  8
SPOJOVACÍ
  6
Continuous
100
AcDbLine
 10
2272.995302073402
 20
355.4348339187863
 30
0.0
 11
2272.61765069809
 21
355.217172782738
 31
0.0
  0
LINE
  5
136F
330
1F
100
AcDbEntity
  8
SPOJOVACÍ
  6
Continuous
100
AcDbLine
 10
2272.61765069809
 20
358.9332250868547
 30
0.0
 11
2268.573246338498
 21
357.5733080733125
 31
0.0
  0
LINE
  5
1370
330
1F
100
AcDbEntity
  8
SPOJOVACÍ
  6
Continuous
100
AcDbLine
 10
2272.61765069809
 20
358.3369824017072
 30
0.0
 11
2268.573246338498
 21
356.9770653884343
 31
0.0
  0
LINE
  5
1371
330
1F
100
AcDbEntity
  8
SPOJOVACÍ
  6
Continuous
100
AcDbLine
 10
2268.195594967552
 20
357.3556469372642
 30
0.0
 11
2268.573246338498
 21
357.5733080733125
 31
0.0
  0
LINE
  5
1372
330
1F
100
AcDbEntity
  8
SPOJOVACÍ
  6
Continuous
100
AcDbLine
 10
2268.195594967552
 20
357.3556469372642
 30
0.0
 11
2268.573246338498
 21
356.9770653884343
 31
0.0
  0
LINE
  5
1373
330
1F
100
AcDbEntity
  8
SPOJOVACÍ
  6
Continuous
100
AcDbLine
 10
2272.995302073402
 20
358.5555737137265
 30
0.0
 11
2272.61765069809
 21
358.9332250868547
 31
0.0
  0
LINE
  5
1374
330
1F
100
AcDbEntity
  8
SPOJOVACÍ
  6
Continuous
100
AcDbLine
 10
2272.995302073402
 20
358.5555737137265
 30
0.0
 11
2272.61765069809
 21
358.3369824017072
 31
0.0
  0
LINE
  5
1375
330
1F
100
AcDbEntity
  8
SPOJOVACÍ
  6
Continuous
100
AcDbLine
 10
2272.995302073402
 20
358.5555737137265
 30
0.0
 11
2268.195594967552
 21
357.3556469372642
 31
0.0
  0
LINE
  5
1376
330
1F
100
AcDbEntity
  8
SPOJOVACÍ
  6
Continuous
100
AcDbLine
 10
2272.61765069809
 20
362.0530347058238
 30
0.0
 11
2268.573246338498
 21
360.6931176925509
 31
0.0
  0
LINE
  5
1377
330
1F
100
AcDbEntity
  8
SPOJOVACÍ
  6
Continuous
100
AcDbLine
 10
2272.61765069809
 20
361.4567920206691
 30
0.0
 11
2268.573246338498
 21
360.0968750074034
 31
0.0
  0
LINE
  5
1378
330
1F
100
AcDbEntity
  8
SPOJOVACÍ
  6
Continuous
100
AcDbLine
 10
2268.195594967552
 20
360.4754565562334
 30
0.0
 11
2268.573246338498
 21
360.6931176925509
 31
0.0
  0
LINE
  5
1379
330
1F
100
AcDbEntity
  8
SPOJOVACÍ
  6
Continuous
100
AcDbLine
 10
2268.195594967552
 20
360.4754565562334
 30
0.0
 11
2268.573246338498
 21
360.0968750074034
 31
0.0
  0
LINE
  5
137A
330
1F
100
AcDbEntity
  8
SPOJOVACÍ
  6
Continuous
100
AcDbLine
 10
2272.995302073402
 20
361.6753833326956
 30
0.0
 11
2268.195594967552
 21
360.4754565562334
 31
0.0
  0
LINE
  5
137B
330
1F
100
AcDbEntity
  8
SPOJOVACÍ
  6
Continuous
100
AcDbLine
 10
2271.945133599662
 20
358.1118798592224
 30
0.0
 11
2271.945133599662
 21
355.5938939798952
 31
0.0
  0
LINE
  5
137C
330
1F
100
AcDbEntity
  8
SPOJOVACÍ
  6
Continuous
100
AcDbLine
 10
2269.245763436926
 20
360.3312793079903
 30
0.0
 11
2269.245763436926
 21
357.8105029012813
 31
0.0
  0
LINE
  5
137D
330
1F
100
AcDbEntity
  8
SPOJOVACÍ
  6
Continuous
100
AcDbLine
 10
2269.245763436926
 20
363.4538794543341
 30
0.0
 11
2269.245763436926
 21
360.925661641465
 31
0.0
  0
LINE
  5
137E
330
1F
100
AcDbEntity
  8
SPOJOVACÍ
  6
Continuous
100
AcDbLine
 10
2271.945133599662
 20
361.2447119393773
 30
0.0
 11
2271.945133599662
 21
358.7164941265082
 31
0.0
  0
LINE
  5
137F
330
1F
100
AcDbEntity
  8
SPOJOVACÍ
  6
Continuous
100
AcDbLine
 10
2272.61765069809
 20
355.8134154678928
 30
0.0
 11
2268.573246338498
 21
354.4534984543506
 31
0.0
  0
LINE
  5
1380
330
1F
100
AcDbEntity
  8
SPOJOVACÍ
  6
Continuous
100
AcDbLine
 10
2272.61765069809
 20
355.217172782738
 30
0.0
 11
2268.573246338498
 21
353.8572557691959
 31
0.0
  0
LINE
  5
1381
330
1F
100
AcDbEntity
  8
SPOJOVACÍ
  6
Continuous
100
AcDbLine
 10
2268.195594967552
 20
354.2349071423241
 30
0.0
 11
2268.573246338498
 21
354.4534984543506
 31
0.0
  0
LINE
  5
1382
330
1F
100
AcDbEntity
  8
SPOJOVACÍ
  6
Continuous
100
AcDbLine
 10
2268.195594967552
 20
354.2349071423241
 30
0.0
 11
2268.573246338498
 21
353.8572557691959
 31
0.0
  0
LINE
  5
1383
330
1F
100
AcDbEntity
  8
SPOJOVACÍ
  6
Continuous
100
AcDbLine
 10
2272.995302073402
 20
355.4348339187863
 30
0.0
 11
2268.195594967552
 21
354.2349071423241
 31
0.0
  0
LINE
  5
1384
330
1F
100
AcDbEntity
  8
SPOJOVACÍ
  6
Continuous
100
AcDbLine
 10
2271.612130662403
 20
346.3293430538551
 30
0.0
 11
2269.457843520946
 21
346.0186643380811
 31
0.0
  0
LINE
  5
1385
330
1F
100
AcDbEntity
  8
SPOJOVACÍ
  6
Continuous
100
AcDbLine
 10
2271.234479291458
 20
346.7069944269833
 30
0.0
 11
2269.835494891892
 21
346.2363254743986
 31
0.0
  0
LINE
  5
1386
330
1F
100
AcDbEntity
  8
SPOJOVACÍ
  6
Continuous
100
AcDbLine
 10
2271.234479291458
 20
346.1107517418358
 30
0.0
 11
2269.835494891892
 21
345.6400827892512
 31
0.0
  0
LINE
  5
1387
330
1F
100
AcDbEntity
  8
SPOJOVACÍ
  6
Continuous
100
AcDbLine
 10
2269.457843520946
 20
346.0186643380811
 30
0.0
 11
2269.835494891892
 21
346.2363254743986
 31
0.0
  0
LINE
  5
1388
330
1F
100
AcDbEntity
  8
SPOJOVACÍ
  6
Continuous
100
AcDbLine
 10
2269.457843520946
 20
346.0186643380811
 30
0.0
 11
2269.835494891892
 21
345.6400827892512
 31
0.0
  0
LINE
  5
1389
330
1F
100
AcDbEntity
  8
SPOJOVACÍ
  6
Continuous
100
AcDbLine
 10
2271.612130662403
 20
346.3293430538551
 30
0.0
 11
2271.234479291458
 21
346.7069944269833
 31
0.0
  0
LINE
  5
138A
330
1F
100
AcDbEntity
  8
SPOJOVACÍ
  6
Continuous
100
AcDbLine
 10
2271.612130662403
 20
346.3293430538551
 30
0.0
 11
2271.234479291458
 21
346.1107517418358
 31
0.0
  0
LINE
  5
138B
330
1F
100
AcDbEntity
  8
SPOJOVACÍ
  6
Continuous
100
AcDbLine
 10
2272.176747372875
 20
349.3431126321747
 30
0.0
 11
2269.060658456444
 21
348.7096629154048
 31
0.0
  0
LINE
  5
138C
330
1F
100
AcDbEntity
  8
SPOJOVACÍ
  6
Continuous
100
AcDbLine
 10
2271.799095997564
 20
349.7216941812812
 30
0.0
 11
2269.438309827389
 21
348.927324051453
 31
0.0
  0
LINE
  5
138D
330
1F
100
AcDbEntity
  8
SPOJOVACÍ
  6
Continuous
100
AcDbLine
 10
2271.799095997564
 20
349.1254514961265
 30
0.0
 11
2269.438309827389
 21
348.3310813665748
 31
0.0
  0
LINE
  5
138E
330
1F
100
AcDbEntity
  8
SPOJOVACÍ
  6
Continuous
100
AcDbLine
 10
2269.060658456444
 20
348.7096629154048
 30
0.0
 11
2269.438309827389
 21
348.927324051453
 31
0.0
  0
LINE
  5
138F
330
1F
100
AcDbEntity
  8
SPOJOVACÍ
  6
Continuous
100
AcDbLine
 10
2269.060658456444
 20
348.7096629154048
 30
0.0
 11
2269.438309827389
 21
348.3310813665748
 31
0.0
  0
LINE
  5
1390
330
1F
100
AcDbEntity
  8
SPOJOVACÍ
  6
Continuous
100
AcDbLine
 10
2272.176747372875
 20
349.3431126321747
 30
0.0
 11
2271.799095997564
 21
349.7216941812812
 31
0.0
  0
LINE
  5
1391
330
1F
100
AcDbEntity
  8
SPOJOVACÍ
  6
Continuous
100
AcDbLine
 10
2272.176747372875
 20
349.3431126321747
 30
0.0
 11
2271.799095997564
 21
349.1254514961265
 31
0.0
  0
LINE
  5
1392
330
1F
100
AcDbEntity
  8
SPOJOVACÍ
  6
Continuous
100
AcDbLine
 10
2272.741364078981
 20
352.3578123864727
 30
0.0
 11
2268.616034426238
 21
351.384848504168
 31
0.0
  0
LINE
  5
1393
330
1F
100
AcDbEntity
  8
SPOJOVACÍ
  6
Continuous
100
AcDbLine
 10
2272.362782530696
 20
352.7354637596008
 30
0.0
 11
2268.993685797183
 21
351.6025096402163
 31
0.0
  0
LINE
  5
1394
330
1F
100
AcDbEntity
  8
SPOJOVACÍ
  6
Continuous
100
AcDbLine
 10
2272.362782530696
 20
352.1392210744461
 30
0.0
 11
2268.993685797183
 21
351.0062669550616
 31
0.0
  0
LINE
  5
1395
330
1F
100
AcDbEntity
  8
SPOJOVACÍ
  6
Continuous
100
AcDbLine
 10
2268.616034426238
 20
351.384848504168
 30
0.0
 11
2268.993685797183
 21
351.6025096402163
 31
0.0
  0
LINE
  5
1396
330
1F
100
AcDbEntity
  8
SPOJOVACÍ
  6
Continuous
100
AcDbLine
 10
2268.616034426238
 20
351.384848504168
 30
0.0
 11
2268.993685797183
 21
351.0062669550616
 31
0.0
  0
LINE
  5
1397
330
1F
100
AcDbEntity
  8
SPOJOVACÍ
  6
Continuous
100
AcDbLine
 10
2272.741364078981
 20
352.3578123864727
 30
0.0
 11
2272.362782530696
 21
352.7354637596008
 31
0.0
  0
LINE
  5
1398
330
1F
100
AcDbEntity
  8
SPOJOVACÍ
  6
Continuous
100
AcDbLine
 10
2272.741364078981
 20
352.3578123864727
 30
0.0
 11
2272.362782530696
 21
352.1392210744461
 31
0.0
  0
LINE
  5
1399
330
1F
100
AcDbEntity
  8
SPOJOVACÍ
  6
Continuous
100
AcDbLine
 10
2269.491329848394
 20
351.7792430415656
 30
0.0
 11
2269.245763436926
 21
353.7502855528519
 31
0.0
  0
LINE
  5
139A
330
1F
100
AcDbEntity
  8
SPOJOVACÍ
  6
Continuous
100
AcDbLine
 10
2269.829913840955
 20
349.0724314756671
 30
0.0
 11
2269.562953385618
 21
351.2090452785205
 31
0.0
  0
LINE
  5
139B
330
1F
100
AcDbEntity
  8
SPOJOVACÍ
  6
Continuous
100
AcDbLine
 10
2270.169428002124
 20
346.3553879762339
 30
0.0
 11
2269.901537373813
 21
348.5003733612184
 31
0.0
  0
LINE
  5
139C
330
1F
100
AcDbEntity
  8
SPOJOVACÍ
  6
Continuous
100
AcDbLine
 10
2270.981471474376
 20
346.0391282057035
 30
0.0
 11
2270.595448520477
 21
342.9500143878986
 31
0.0
  0
LINE
  5
139D
330
1F
100
AcDbEntity
  8
SPOJOVACÍ
  6
Continuous
100
AcDbLine
 10
2271.348890912056
 20
348.9803440719124
 30
0.0
 11
2271.058676066902
 21
346.6595554615569
 31
0.0
  0
LINE
  5
139E
330
1F
100
AcDbEntity
  8
SPOJOVACÍ
  6
Continuous
100
AcDbLine
 10
2271.718170704413
 20
351.9327220476416
 30
0.0
 11
2271.427955854894
 21
349.611003261577
 31
0.0
  0
LINE
  5
139F
330
1F
100
AcDbEntity
  8
SPOJOVACÍ
  6
Continuous
100
AcDbLine
 10
2270.595448520477
 20
342.9500143878986
 30
0.0
 11
2270.241051539348
 21
345.786120389167
 31
0.0
  0
LINE
  5
13A0
330
1F
100
AcDbEntity
  8
SPOJOVACÍ
  6
Continuous
100
AcDbLine
 10
2271.945133599662
 20
353.7502855528519
 30
0.0
 11
2271.795375296939
 21
352.553149303495
 31
0.0
  0
LINE
  5
13A1
330
1F
100
AcDbEntity
  8
SPOJOVACÍ
  6
Continuous
100
AcDbLine
 10
2269.245763436926
 20
354.0870091907354
 30
0.0
 11
2269.245763436926
 21
353.7502855528519
 31
0.0
  0
LINE
  5
13A2
330
1F
100
AcDbEntity
  8
SPOJOVACÍ
  6
Continuous
100
AcDbLine
 10
2269.245763436926
 20
357.2096093373484
 30
0.0
 11
2269.245763436926
 21
354.6906932823194
 31
0.0
  0
LINE
  5
13A3
330
1F
100
AcDbEntity
  8
SPOJOVACÍ
  6
Continuous
100
AcDbLine
 10
2271.945133599662
 20
354.9976512947405
 30
0.0
 11
2271.945133599662
 21
353.7502855528519
 31
0.0
  0
LINE
  5
13A4
330
1F
100
AcDbEntity
  8
SPOJOVACÍ
  6
Continuous
100
AcDbLine
 10
2272.61765069809
 20
365.1728443250622
 30
0.0
 11
2268.573246338498
 21
363.8138574872218
 31
0.0
  0
LINE
  5
13A5
330
1F
100
AcDbEntity
  8
SPOJOVACÍ
  6
Continuous
100
AcDbLine
 10
2272.995302073402
 20
364.795192951934
 30
0.0
 11
2272.61765069809
 21
365.1728443250622
 31
0.0
  0
LINE
  5
13A6
330
1F
100
AcDbEntity
  8
SPOJOVACÍ
  6
Continuous
100
AcDbLine
 10
2272.61765069809
 20
368.2935841197259
 30
0.0
 11
2268.573246338498
 21
366.9336671064602
 31
0.0
  0
LINE
  5
13A7
330
1F
100
AcDbEntity
  8
SPOJOVACÍ
  6
Continuous
100
AcDbLine
 10
2272.61765069809
 20
367.6973414348476
 30
0.0
 11
2268.573246338498
 21
366.3374244213055
 31
0.0
  0
LINE
  5
13A8
330
1F
100
AcDbEntity
  8
SPOJOVACÍ
  6
Continuous
100
AcDbLine
 10
2268.195594967552
 20
366.7150757944336
 30
0.0
 11
2268.573246338498
 21
366.9336671064602
 31
0.0
  0
LINE
  5
13A9
330
1F
100
AcDbEntity
  8
SPOJOVACÍ
  6
Continuous
100
AcDbLine
 10
2268.195594967552
 20
366.7150757944336
 30
0.0
 11
2268.573246338498
 21
366.3374244213055
 31
0.0
  0
LINE
  5
13AA
330
1F
100
AcDbEntity
  8
SPOJOVACÍ
  6
Continuous
100
AcDbLine
 10
2272.995302073402
 20
367.9150025708959
 30
0.0
 11
2272.61765069809
 21
368.2935841197259
 31
0.0
  0
LINE
  5
13AB
330
1F
100
AcDbEntity
  8
SPOJOVACÍ
  6
Continuous
100
AcDbLine
 10
2272.995302073402
 20
367.9150025708959
 30
0.0
 11
2272.61765069809
 21
367.6973414348476
 31
0.0
  0
LINE
  5
13AC
330
1F
100
AcDbEntity
  8
SPOJOVACÍ
  6
Continuous
100
AcDbLine
 10
2272.995302073402
 20
367.9150025708959
 30
0.0
 11
2268.195594967552
 21
366.7150757944336
 31
0.0
  0
LINE
  5
13AD
330
1F
100
AcDbEntity
  8
SPOJOVACÍ
  6
Continuous
100
AcDbLine
 10
2269.245763436926
 20
366.5690381945178
 30
0.0
 11
2269.245763436926
 21
364.0501221394888
 31
0.0
  0
LINE
  5
13AE
330
1F
100
AcDbEntity
  8
SPOJOVACÍ
  6
Continuous
100
AcDbLine
 10
2271.945133599662
 20
367.4824708259047
 30
0.0
 11
2271.945133599662
 21
364.9635547708758
 31
0.0
  0
LINE
  5
13AF
330
1F
100
AcDbEntity
  8
SPOJOVACÍ
  6
Continuous
100
AcDbLine
 10
2272.61765069809
 20
364.5766016399075
 30
0.0
 11
2268.573246338498
 21
363.2176148023436
 31
0.0
  0
LINE
  5
13B0
330
1F
100
AcDbEntity
  8
SPOJOVACÍ
  6
Continuous
100
AcDbLine
 10
2268.195594967552
 20
363.5952661751953
 30
0.0
 11
2268.573246338498
 21
363.8138574872218
 31
0.0
  0
LINE
  5
13B1
330
1F
100
AcDbEntity
  8
SPOJOVACÍ
  6
Continuous
100
AcDbLine
 10
2268.195594967552
 20
363.5952661751953
 30
0.0
 11
2268.573246338498
 21
363.2176148023436
 31
0.0
  0
LINE
  5
13B2
330
1F
100
AcDbEntity
  8
SPOJOVACÍ
  6
Continuous
100
AcDbLine
 10
2272.995302073402
 20
364.795192951934
 30
0.0
 11
2272.61765069809
 21
364.5766016399075
 31
0.0
  0
LINE
  5
13B3
330
1F
100
AcDbEntity
  8
SPOJOVACÍ
  6
Continuous
100
AcDbLine
 10
2272.995302073402
 20
364.795192951934
 30
0.0
 11
2268.195594967552
 21
363.5952661751953
 31
0.0
  0
LINE
  5
13B4
330
1F
100
AcDbEntity
  8
SPOJOVACÍ
  6
Continuous
100
AcDbLine
 10
2272.995302073402
 20
361.6753833326956
 30
0.0
 11
2272.61765069809
 21
362.0530347058238
 31
0.0
  0
LINE
  5
13B5
330
1F
100
AcDbEntity
  8
SPOJOVACÍ
  6
Continuous
100
AcDbLine
 10
2272.995302073402
 20
361.6753833326956
 30
0.0
 11
2272.61765069809
 21
361.4567920206764
 31
0.0
  0
LINE
  5
13B6
330
1F
100
AcDbEntity
  8
SPOJOVACÍ
  6
Continuous
100
AcDbLine
 10
2271.945133599662
 20
364.3775440195322
 30
0.0
 11
2271.945133599662
 21
361.8493262066631
 31
0.0
  0
LINE
  5
13B7
330
1F
100
AcDbEntity
  8
CETRIS
100
AcDbLine
 10
2217.201072613405
 20
693.428059722366
 30
0.0
 11
2217.201072613405
 21
394.8759680098191
 31
0.0
  0
LINE
  5
13B8
330
1F
100
AcDbEntity
  8
CETRIS
100
AcDbLine
 10
2229.201072613406
 20
693.428059722366
 30
0.0
 11
2217.201072613405
 21
693.428059722366
 31
0.0
  0
LINE
  5
13B9
330
1F
100
AcDbEntity
  8
CETRIS
100
AcDbLine
 10
2229.201072613406
 20
394.8759680098191
 30
0.0
 11
2229.201072613406
 21
693.428059722366
 31
0.0
  0
LINE
  5
13BA
330
1F
100
AcDbEntity
  8
CETRIS
100
AcDbLine
 10
2573.045878931923
 20
366.7152737358492
 30
0.0
 11
2245.595448520477
 21
366.7152737358492
 31
0.0
  0
LINE
  5
13BB
330
1F
100
AcDbEntity
  8
CETRIS
100
AcDbLine
 10
2573.045878931923
 20
378.7152737358492
 30
0.0
 11
2573.045878931923
 21
366.7152737358492
 31
0.0
  0
LINE
  5
13BC
330
1F
100
AcDbEntity
  8
CETRIS
100
AcDbLine
 10
2245.595448520477
 20
378.7152737358492
 30
0.0
 11
2573.045878931923
 21
378.7152737358492
 31
0.0
  0
LINE
  5
13BD
330
1F
100
AcDbEntity
  8
CETRIS
100
AcDbLine
 10
2241.201072613406
 20
394.8759680098191
 30
0.0
 11
2241.201072613406
 21
693.4280597223668
 31
0.0
  0
LINE
  5
13BE
330
1F
100
AcDbEntity
  8
CETRIS
100
AcDbLine
 10
2217.201072613405
 20
394.8759680098191
 30
0.0
 11
2241.201072613406
 21
394.8759680098191
 31
0.0
  0
LINE
  5
13BF
330
1F
100
AcDbEntity
  8
CETRIS
100
AcDbLine
 10
2245.595448520477
 20
390.7152737358492
 30
0.0
 11
2572.366585856797
 21
390.7152737358492
 31
0.0
  0
LINE
  5
13C0
330
1F
100
AcDbEntity
  8
CETRIS
100
AcDbLine
 10
2245.595448520477
 20
366.7152737358492
 30
0.0
 11
2245.595448520477
 21
390.7152737358492
 31
0.0
  0
HATCH
  5
13C1
330
1F
100
AcDbEntity
  8
STAVBA OBRYS
100
AcDbHatch
 10
0.0
 20
0.0
 30
0.0
210
0.0
220
0.0
230
1.0
  2
BRICK
 70
     0
 71
     0
 91
        1
 92
        7
 72
     0
 73
     1
 93
       29
 10
2076.00870997014
 20
349.4446531237536
 10
1993.936510344409
 20
349.4446531237536
 10
1990.147649202851
 20
356.0071531237535
 10
1993.936510344406
 20
362.5696531237536
 10
2076.00870997014
 20
362.5696531237545
 10
2076.00870997014
 20
450.8852770003577
 10
1998.46303672745
 20
450.8852770003559
 10
1994.674175585892
 20
457.4477770003587
 10
1998.46303672745
 20
464.0102770003568
 10
2053.171726986204
 20
464.0102770003568
 10
2076.00870997014
 20
479.0528324190645
 10
2076.00870997014
 20
693.428059722366
 10
1839.415839395499
 20
693.428059722366
 10
1839.415839395492
 20
-9.52305812987106
 10
2296.940893482077
 20
-9.52305812987106
 10
2583.226116836161
 20
-9.52305812987106
 10
2569.239775130186
 20
225.4769418701289
 10
2324.129213048668
 20
225.4769418701289
 10
2324.129213048672
 20
147.9683875472528
 10
2317.566713048671
 20
144.1795264056954
 10
2311.004213048672
 20
147.9683875472528
 10
2311.004213048668
 20
225.4769418701289
 10
2282.954551776099
 20
225.4769418701289
 10
2199.195832192187
 20
225.4769418701289
 10
2199.195832192187
 20
144.5262649098594
 10
2192.633332192191
 20
140.737403768303
 10
2186.070832192187
 20
144.5262649098603
 10
2186.070832192187
 20
225.4769418701289
 10
2076.00870997014
 20
225.4769418701289
 97
        0
 75
     0
 76
     1
 52
0.0
 41
10.0
 77
     0
 78
     3
 53
0.0
 43
-10629.87054180731
 44
1662.466326468791
 45
0.0
 46
63.5
 79
     0
 53
90.0
 43
-10629.87054180731
 44
1662.466326468791
 45
-127.0
 46
0.0000000000000078
 79
     2
 49
63.5
 49
-63.5
 53
90.0
 43
-10566.37054180731
 44
1662.466326468791
 45
-127.0
 46
0.0000000000000078
 79
     2
 49
-63.5
 49
63.5
 47
2.343896090719463
 98
        1
 10
2043.456853693637
 20
254.0648130005902
  0
LINE
  5
13C2
330
1F
100
AcDbEntity
  8
STAVBA OBRYS
100
AcDbLine
 10
2076.00870997014
 20
693.428059722366
 30
0.0
 11
2076.00870997014
 21
225.4769418701289
 31
0.0
  0
LINE
  5
13C3
330
1F
100
AcDbEntity
  8
STAVBA OBRYS
100
AcDbLine
 10
1839.415839395492
 20
-9.52305812987106
 30
0.0
 11
1839.415839395503
 21
693.428059722366
 31
0.0
  0
LINE
  5
13C4
330
1F
100
AcDbEntity
  8
STAVBA OBRYS
  6
DASHED
100
AcDbLine
 10
2199.195832192187
 20
144.5262649098594
 30
0.0
 11
2199.195832192187
 21
304.8965961424846
 31
0.0
  0
LINE
  5
13C5
330
1F
100
AcDbEntity
  8
STAVBA OBRYS
  6
DASHED
100
AcDbLine
 10
2186.070832192187
 20
144.5262649098594
 30
0.0
 11
2186.070832192187
 21
304.8965961424846
 31
0.0
  0
ARC
  5
13C6
330
1F
100
AcDbEntity
  8
SPOJOVACÍ
100
AcDbCircle
 10
2311.14299345506
 20
239.4253739860323
 30
0.0
 40
1.875
100
AcDbArc
 50
90.0
 51
180.0
  0
ARC
  5
13C7
330
1F
100
AcDbEntity
  8
SPOJOVACÍ
100
AcDbCircle
 10
2328.01799345506
 20
239.4253739860323
 30
0.0
 40
1.875
100
AcDbArc
 50
0.0
 51
90.0
  0
ARC
  5
13C8
330
1F
100
AcDbEntity
  8
SPOJOVACÍ
100
AcDbCircle
 10
2326.14299345506
 20
239.4253739860323
 30
0.0
 40
1.875
100
AcDbArc
 50
90.0
 51
180.0
  0
ARC
  5
13C9
330
1F
100
AcDbEntity
  8
SPOJOVACÍ
100
AcDbCircle
 10
2313.01799345506
 20
239.4253739860323
 30
0.0
 40
1.875
100
AcDbArc
 50
0.0
 51
90.0
  0
ARC
  5
13CA
330
1F
100
AcDbEntity
  8
SPOJOVACÍ
100
AcDbCircle
 10
2319.58049345506
 20
234.6358032912903
 30
0.0
 40
6.701689614562111
100
AcDbArc
 50
45.6170676673795
 51
134.3829323326204
  0
LINE
  5
13CB
330
1F
100
AcDbEntity
  8
SPOJOVACÍ
  6
DASHDOT2
100
AcDbLine
 10
2319.58049345506
 20
244.2405839593611
 30
0.0
 11
2319.580493455064
 21
129.3204742154539
 31
0.0
  0
LINE
  5
13CC
330
1F
100
AcDbEntity
  8
NOSNÉ KONSTRUKCE
100
AcDbLine
 10
2294.187129785524
 20
313.3884867759106
 30
0.0
 11
2294.187129785528
 21
234.4769418701289
 31
0.0
  0
LINE
  5
13CD
330
1F
100
AcDbEntity
  8
NOSNÉ KONSTRUKCE
100
AcDbLine
 10
2290.380652753409
 20
353.499882988789
 30
0.0
 11
2290.380652753398
 21
225.4769418701262
 31
0.0
  0
LINE
  5
13CE
330
1F
100
AcDbEntity
  8
NOSNÉ KONSTRUKCE
100
AcDbLine
 10
2288.943222342934
 20
353.499882988789
 30
0.0
 11
2288.943222342923
 21
225.2714622763169
 31
0.0
  0
LINE
  5
13CF
330
1F
100
AcDbEntity
  8
STAVBA OBRYS
  6
DASHDOT2
100
AcDbLine
 10
2192.633332192187
 20
338.6548406441588
 30
0.0
 11
2192.633332192187
 21
125.8783515780605
 31
0.0
  0
LINE
  5
13D0
330
1F
100
AcDbEntity
  8
STAVBA OBRYS
100
AcDbLine
 10
1839.415839395492
 20
-9.52305812987106
 30
0.0
 11
2296.940893482077
 21
-9.52305812987106
 31
0.0
  0
LINE
  5
13D1
330
1F
100
AcDbEntity
  8
STAVBA OBRYS
100
AcDbLine
 10
2076.00870997014
 20
225.4769418701289
 30
0.0
 11
2282.954551776099
 21
225.4769418701289
 31
0.0
  0
TEXT
  5
13D2
330
1F
100
AcDbEntity
  8
POPIS
100
AcDbText
 10
1931.135691539925
 20
-176.9750335840681
 30
0.0
 40
25.0
  1
Vrut se zápustnou hlavou
 41
0.7
  7
SIMPLEX7
100
AcDbText
  0
TEXT
  5
13D3
330
1F
100
AcDbEntity
  8
POPIS
100
AcDbText
 10
1931.135691539925
 20
-210.9252218287902
 30
0.0
 40
25.0
  1
Vzduchová mezera - min. 25 mm
 41
0.7
  7
SIMPLEX7
100
AcDbText
  0
TEXT
  5
13D4
330
1F
100
AcDbEntity
  8
POPIS
100
AcDbText
 10
1931.135691539925
 20
-318.0550932322303
 30
0.0
 40
25.0
  1
Nosný profil systému - úhelník (np. SPIDI, EuroFox, SPEEDY...)
 41
0.7
  7
SIMPLEX7
100
AcDbText
  0
TEXT
  5
13D5
330
1F
100
AcDbEntity
  8
POPIS
100
AcDbText
 10
1931.135691539925
 20
-282.4362045341413
 30
0.0
 40
25.0
  1
Upevňovací prvek systému - kotva (np. SPIDI, EuroFox, SPEEDY...)
 41
0.7
  7
SIMPLEX7
100
AcDbText
  0
TEXT
  5
13D6
330
1F
100
AcDbEntity
  8
POPIS
100
AcDbText
 10
1876.795633655004
 20
-138.3343687948036
 30
0.0
 40
25.0
  1
01
 41
0.85
  7
SIMPLEX7
100
AcDbText
  0
TEXT
  5
13D7
330
1F
100
AcDbEntity
  8
POPIS
100
AcDbText
 10
1931.135691539925
 20
-140.3800219684399
 30
0.0
 40
25.0
  1
Deska CETRIS   (BASIC,FINISH,LASUR)
 41
0.7
  7
SIMPLEX7
100
AcDbText
  0
TEXT
  5
13D8
330
1F
100
AcDbEntity
  8
POPIS
100
AcDbText
 10
1931.135691539925
 20
-246.3293830469528
 30
0.0
 40
25.0
  1
Kotevní prvek
 41
0.7
  7
SIMPLEX7
100
AcDbText
  0
TEXT
  5
13D9
330
1F
100
AcDbEntity
  8
POPIS
100
AcDbText
 10
1876.791988380175
 20
-282.4362045341413
 30
0.0
 40
25.0
  1
05
 41
0.85
  7
SIMPLEX7
100
AcDbText
  0
TEXT
  5
13DA
330
1F
100
AcDbEntity
  8
POPIS
100
AcDbText
 10
1876.791988380175
 20
-318.0550932322303
 30
0.0
 40
25.0
  1
06
 41
0.85
  7
SIMPLEX7
100
AcDbText
  0
TEXT
  5
13DB
330
1F
100
AcDbEntity
  8
POPIS
100
AcDbText
 10
1876.791988380175
 20
-210.9252218287902
 30
0.0
 40
25.0
  1
03
 41
0.85
  7
SIMPLEX7
100
AcDbText
  0
TEXT
  5
13DC
330
1F
100
AcDbEntity
  8
POPIS
100
AcDbText
 10
1876.791988380175
 20
-176.9750335840681
 30
0.0
 40
25.0
  1
02
 41
0.85
  7
SIMPLEX7
100
AcDbText
  0
TEXT
  5
13DD
330
1F
100
AcDbEntity
  8
POPIS
100
AcDbText
 10
1876.791988380175
 20
-246.3293830469528
 30
0.0
 40
25.0
  1
04
 41
0.85
  7
SIMPLEX7
100
AcDbText
  0
LINE
  5
13DE
330
1F
100
AcDbEntity
  8
STAVBA OBRYS
  6
DASHED
100
AcDbLine
 10
2192.633332192187
 20
140.737403768303
 30
0.0
 11
2199.195832192187
 21
144.5262649098594
 31
0.0
  0
LINE
  5
13DF
330
1F
100
AcDbEntity
  8
STAVBA OBRYS
  6
DASHED
100
AcDbLine
 10
2192.633332192187
 20
140.737403768303
 30
0.0
 11
2186.070832192187
 21
144.5262649098594
 31
0.0
  0
LINE
  5
13E0
330
1F
100
AcDbEntity
  8
STAVBA OBRYS
100
AcDbLine
 10
2296.940893482077
 20
-9.52305812987106
 30
0.0
 11
2583.226116836164
 21
-9.52305812987106
 31
0.0
  0
LINE
  5
13E1
330
1F
100
AcDbEntity
  8
STAVBA OBRYS
100
AcDbLine
 10
2282.954551776099
 20
225.4769418701289
 30
0.0
 11
2569.239775130186
 21
225.4769418701289
 31
0.0
  0
LINE
  5
13E2
330
1F
100
AcDbEntity
  8
SPOJOVACÍ
  6
DASHED
100
AcDbLine
 10
2326.142993455064
 20
147.9683875472528
 30
0.0
 11
2326.14299345506
 21
229.0674824909265
 31
0.0
  0
LINE
  5
13E3
330
1F
100
AcDbEntity
  8
SPOJOVACÍ
  6
DASHED
100
AcDbLine
 10
2319.580493455064
 20
144.1795264056963
 30
0.0
 11
2326.142993455064
 21
147.9683875472528
 31
0.0
  0
LINE
  5
13E4
330
1F
100
AcDbEntity
  8
SPOJOVACÍ
  6
DASHED
100
AcDbLine
 10
2319.580493455064
 20
144.1795264056963
 30
0.0
 11
2313.017993455064
 21
147.9683875472528
 31
0.0
  0
LINE
  5
13E5
330
1F
100
AcDbEntity
  8
SPOJOVACÍ
  6
DASHED
100
AcDbLine
 10
2313.017993455064
 20
147.9683875472528
 30
0.0
 11
2313.01799345506
 21
229.0674824909265
 31
0.0
  0
LINE
  5
13E6
330
1F
100
AcDbEntity
  8
SPOJOVACÍ
100
AcDbLine
 10
2319.629620759739
 20
148.5256901621314
 30
0.0
 11
2319.407353935358
 21
148.4661339460344
 31
0.0
  0
LINE
  5
13E7
330
1F
100
AcDbEntity
  8
SPOJOVACÍ
100
AcDbLine
 10
2319.852091809923
 20
150.4603011003664
 30
0.0
 11
2319.197585660006
 21
150.2849267060555
 31
0.0
  0
LINE
  5
13E8
330
1F
100
AcDbEntity
  8
SPOJOVACÍ
100
AcDbLine
 10
2320.263819127342
 20
154.3206231025715
 30
0.0
 11
2318.805854727349
 21
153.9299627190002
 31
0.0
  0
LINE
  5
13E9
330
1F
100
AcDbEntity
  8
SPOJOVACÍ
100
AcDbLine
 10
2320.063467651372
 20
152.391939086382
 30
0.0
 11
2318.997078561412
 21
152.1062009909101
 31
0.0
  0
LINE
  5
13EA
330
1F
100
AcDbEntity
  8
SPOJOVACÍ
  6
DASHED
100
AcDbLine
 10
2319.580493455064
 20
153.5545264056963
 30
0.0
 11
2325.205493455064
 21
156.8021216698871
 31
0.0
  0
LINE
  5
13EB
330
1F
100
AcDbEntity
  8
SPOJOVACÍ
  6
DASHED
100
AcDbLine
 10
2319.580493455064
 20
153.5545264056963
 30
0.0
 11
2313.955493455064
 21
156.8021216698871
 31
0.0
  0
LINE
  5
13EC
330
1F
100
AcDbEntity
  8
SPOJOVACÍ
100
AcDbLine
 10
2320.453215345437
 20
156.2463716662605
 30
0.0
 11
2318.623937083993
 21
155.7562180333734
 31
0.0
  0
LINE
  5
13ED
330
1F
100
AcDbEntity
  8
NOSNÉ KONSTRUKCE
100
AcDbLine
 10
2341.167150447981
 20
228.5140607899493
 30
0.0
 11
2290.380423108908
 21
228.5140607899466
 31
0.0
  0
LINE
  5
13EE
330
1F
100
AcDbEntity
  8
NOSNÉ KONSTRUKCE
100
AcDbLine
 10
2341.167150447981
 20
228.5511797097697
 30
0.0
 11
2290.380423108908
 21
228.5511797097669
 31
0.0
  0
HATCH
  5
13EF
330
1F
100
AcDbEntity
  8
NOSNÉ KONSTRUKCE
100
AcDbHatch
 10
0.0
 20
0.0
 30
0.0
210
0.0
220
0.0
230
1.0
  2
ANSI37
 70
     0
 71
     0
 91
        1
 92
        7
 72
     0
 73
     1
 93
        4
 10
2290.380423108911
 20
225.5140607899466
 10
2290.380423108911
 20
228.5140607899466
 10
2341.167150447981
 20
228.5140607899493
 10
2341.167150447984
 20
225.5140607899466
 97
        0
 75
     0
 76
     1
 52
90.0
 41
1.0
 77
     0
 78
     2
 53
225.0
 43
2653.038963346577
 44
748.4816123557575
 45
-2.245064030267288
 46
2.245064030267287
 79
     0
 53
135.0
 43
2653.038963346577
 44
748.4816123557575
 45
2.245064030267287
 46
2.245064030267288
 79
     0
 47
0.13614220447659
 98
        1
 10
2308.243688396311
 20
226.4268694417605
  0
HATCH
  5
13F0
330
1F
100
AcDbEntity
  8
NOSNÉ KONSTRUKCE
100
AcDbHatch
 10
0.0
 20
0.0
 30
0.0
210
0.0
220
0.0
230
1.0
  2
ANSI37
 70
     0
 71
     0
 91
        1
 92
        7
 72
     0
 73
     1
 93
        4
 10
2290.380423108911
 20
225.5511797097669
 10
2290.380423108911
 20
228.5511797097669
 10
2341.167150447981
 20
228.5511797097697
 10
2341.167150447984
 20
225.5511797097669
 97
        0
 75
     0
 76
     1
 52
90.0
 41
1.0
 77
     0
 78
     2
 53
225.0
 43
2653.038963346577
 44
748.5187312755779
 45
-2.245064030267288
 46
2.245064030267287
 79
     0
 53
135.0
 43
2653.038963346577
 44
748.5187312755779
 45
2.245064030267287
 46
2.245064030267288
 79
     0
 47
0.13614220447659
 98
        1
 10
2308.243688396311
 20
226.4639883615809
  0
LINE
  5
13F1
330
1F
100
AcDbEntity
  8
SPOJOVACÍ
100
AcDbLine
 10
2320.06834065747
 20
227.3932448044306
 30
0.0
 11
2319.15574027365
 21
227.1487142685728
 31
0.0
  0
LINE
  5
13F2
330
1F
100
AcDbEntity
  8
SPOJOVACÍ
100
AcDbLine
 10
2320.608985201436
 20
221.9131100733775
 30
0.0
 11
2318.366934926783
 21
221.3123545128955
 31
0.0
  0
LINE
  5
13F3
330
1F
100
AcDbEntity
  8
SPOJOVACÍ
100
AcDbLine
 10
2320.438096757144
 20
223.7423206527337
 30
0.0
 11
2318.543470509196
 21
223.234657079638
 31
0.0
  0
LINE
  5
13F4
330
1F
100
AcDbEntity
  8
SPOJOVACÍ
100
AcDbLine
 10
2320.257873932597
 20
225.5690300924388
 30
0.0
 11
2318.730881855738
 21
225.1598737985968
 31
0.0
  0
LINE
  5
13F5
330
1F
100
AcDbEntity
  8
NOSNÉ KONSTRUKCE
100
AcDbLine
 10
2341.167380092471
 20
228.4769418701262
 30
0.0
 11
2341.167380092471
 21
225.476941870128
 31
0.0
  0
LINE
  5
13F6
330
1F
100
AcDbEntity
  8
SPOJOVACÍ
100
AcDbLine
 10
2321.477700813938
 20
169.6458817202019
 30
0.0
 11
2317.613193497555
 21
168.6103901056331
 31
0.0
  0
LINE
  5
13F7
330
1F
100
AcDbEntity
  8
SPOJOVACÍ
100
AcDbLine
 10
2321.989361093462
 20
182.9079806788995
 30
0.0
 11
2317.069166052201
 21
181.5896183909899
 31
0.0
  0
LINE
  5
13F8
330
1F
100
AcDbEntity
  8
SPOJOVACÍ
100
AcDbLine
 10
2321.722550960431
 20
180.9614891192213
 30
0.0
 11
2317.117894273363
 21
179.7276750784967
 31
0.0
  0
LINE
  5
13F9
330
1F
100
AcDbEntity
  8
SPOJOVACÍ
100
AcDbLine
 10
2322.058388641492
 20
190.4264765546486
 30
0.0
 11
2316.972222438259
 21
189.0636424279227
 31
0.0
  0
LINE
  5
13FA
330
1F
100
AcDbEntity
  8
SPOJOVACÍ
100
AcDbLine
 10
2322.056126349739
 20
188.5508703754003
 30
0.0
 11
2316.981684833811
 21
187.1911778691701
 31
0.0
  0
LINE
  5
13FB
330
1F
100
AcDbEntity
  8
SPOJOVACÍ
100
AcDbLine
 10
2320.770514475522
 20
195.7063917119248
 30
0.0
 11
2318.657539899754
 21
195.1402218807197
 31
0.0
  0
LINE
  5
13FC
330
1F
100
AcDbEntity
  8
SPOJOVACÍ
100
AcDbLine
 10
2320.922658918479
 20
193.8721586925457
 30
0.0
 11
2318.540125243655
 21
193.233760718439
 31
0.0
  0
LINE
  5
13FD
330
1F
100
AcDbEntity
  8
SPOJOVACÍ
100
AcDbLine
 10
2322.033181308684
 20
194.1697222701795
 30
0.0
 11
2316.983090529853
 21
192.8165545242882
 31
0.0
  0
LINE
  5
13FE
330
1F
100
AcDbEntity
  8
SPOJOVACÍ
100
AcDbLine
 10
2322.050726476637
 20
192.2994234837633
 30
0.0
 11
2316.972676877572
 21
190.9387641945686
 31
0.0
  0
LINE
  5
13FF
330
1F
100
AcDbEntity
  8
SPOJOVACÍ
100
AcDbLine
 10
2321.758680260517
 20
175.3461699360022
 30
0.0
 11
2317.322265223984
 21
174.1574361096736
 31
0.0
  0
LINE
  5
1400
330
1F
100
AcDbEntity
  8
SPOJOVACÍ
100
AcDbLine
 10
2321.675389546765
 20
173.4488522565152
 30
0.0
 11
2317.435482097617
 21
172.3127724795322
 31
0.0
  0
LINE
  5
1401
330
1F
100
AcDbEntity
  8
SPOJOVACÍ
100
AcDbLine
 10
2321.581747669744
 20
171.5487609911906
 30
0.0
 11
2317.506654755335
 21
170.456843135692
 31
0.0
  0
LINE
  5
1402
330
1F
100
AcDbEntity
  8
SPOJOVACÍ
100
AcDbLine
 10
2321.864961171438
 20
177.2496478202538
 30
0.0
 11
2317.244479247044
 21
176.0115934199711
 31
0.0
  0
LINE
  5
1403
330
1F
100
AcDbEntity
  8
SPOJOVACÍ
100
AcDbLine
 10
2321.798584549952
 20
179.1068622581297
 30
0.0
 11
2317.702909083334
 21
178.0094293243901
 31
0.0
  0
LINE
  5
1404
330
1F
100
AcDbEntity
  8
SPOJOVACÍ
100
AcDbLine
 10
2322.043897015896
 20
186.6725935352733
 30
0.0
 11
2317.001022814372
 21
185.3213594654435
 31
0.0
  0
LINE
  5
1405
330
1F
100
AcDbEntity
  8
SPOJOVACÍ
100
AcDbLine
 10
2322.021656901524
 20
184.791634314588
 30
0.0
 11
2317.030196238181
 21
183.4541764607947
 31
0.0
  0
LINE
  5
1406
330
1F
100
AcDbEntity
  8
SPOJOVACÍ
100
AcDbLine
 10
2320.631723719375
 20
158.1692028408979
 30
0.0
 11
2318.451349405698
 21
157.5849733043514
 31
0.0
  0
LINE
  5
1407
330
1F
100
AcDbEntity
  8
SPOJOVACÍ
100
AcDbLine
 10
2320.799410009221
 20
160.0891342468439
 30
0.0
 11
2318.28811632519
 21
159.416235132252
 31
0.0
  0
LINE
  5
1408
330
1F
100
AcDbEntity
  8
SPOJOVACÍ
100
AcDbLine
 10
2320.956338360177
 20
162.0061830717522
 30
0.0
 11
2318.09888267203
 21
161.2405301277049
 31
0.0
  0
LINE
  5
1409
330
1F
100
AcDbEntity
  8
SPOJOVACÍ
100
AcDbLine
 10
2321.198686245013
 20
165.8211199917814
 30
0.0
 11
2317.85480409959
 21
164.9251294713321
 31
0.0
  0
LINE
  5
140A
330
1F
100
AcDbEntity
  8
SPOJOVACÍ
100
AcDbLine
 10
2321.065391987234
 20
167.6604039030544
 30
0.0
 11
2317.729253286276
 21
166.7664882322951
 31
0.0
  0
LINE
  5
140B
330
1F
100
AcDbEntity
  8
SPOJOVACÍ
100
AcDbLine
 10
2321.102571339942
 20
163.9203660805869
 30
0.0
 11
2317.989816844549
 21
163.0863060273113
 31
0.0
  0
LINE
  5
140C
330
1F
100
AcDbEntity
  8
SPOJOVACÍ
100
AcDbLine
 10
2321.065391987234
 20
216.4104039030525
 30
0.0
 11
2317.90193613135
 21
215.5627584611774
 31
0.0
  0
LINE
  5
140D
330
1F
100
AcDbEntity
  8
SPOJOVACÍ
100
AcDbLine
 10
2321.198686245013
 20
214.5711199917796
 30
0.0
 11
2317.768264865211
 21
213.6519413533642
 31
0.0
  0
LINE
  5
140E
330
1F
100
AcDbEntity
  8
SPOJOVACÍ
100
AcDbLine
 10
2320.922658918479
 20
218.2471586925458
 30
0.0
 11
2318.046230808034
 21
217.4764221032655
 31
0.0
  0
LINE
  5
140F
330
1F
100
AcDbEntity
  8
SPOJOVACÍ
100
AcDbLine
 10
2320.770514475522
 20
220.0813917119248
 30
0.0
 11
2318.201209644928
 21
219.3929485574563
 31
0.0
  0
LINE
  5
1410
330
1F
100
AcDbEntity
  8
SPOJOVACÍ
100
AcDbLine
 10
2322.033181308684
 20
199.7947222701796
 30
0.0
 11
2317.074527912266
 21
198.4660550970638
 31
0.0
  0
LINE
  5
1411
330
1F
100
AcDbEntity
  8
SPOJOVACÍ
100
AcDbLine
 10
2321.798584549952
 20
203.4818622581297
 30
0.0
 11
2317.186111887905
 21
202.245953933223
 31
0.0
  0
LINE
  5
1412
330
1F
100
AcDbEntity
  8
SPOJOVACÍ
100
AcDbLine
 10
2321.722550960431
 20
205.3364891192213
 30
0.0
 11
2317.257236664684
 21
204.140011759724
 31
0.0
  0
LINE
  5
1413
330
1F
100
AcDbEntity
  8
SPOJOVACÍ
100
AcDbLine
 10
2321.636894461247
 20
207.1885375294368
 30
0.0
 11
2317.338650742552
 21
206.0368265961424
 31
0.0
  0
LINE
  5
1414
330
1F
100
AcDbEntity
  8
SPOJOVACÍ
100
AcDbLine
 10
2321.864961171438
 20
201.6246478202538
 30
0.0
 11
2317.125225508089
 21
200.3546394769228
 31
0.0
  0
LINE
  5
1415
330
1F
100
AcDbEntity
  8
SPOJOVACÍ
100
AcDbLine
 10
2321.436844039009
 20
210.8849341803525
 30
0.0
 11
2317.532557035479
 21
209.8387836307374
 31
0.0
  0
LINE
  5
1416
330
1F
100
AcDbEntity
  8
SPOJOVACÍ
100
AcDbLine
 10
2321.541648122066
 20
209.038016349772
 30
0.0
 11
2317.430406343569
 21
207.9364124353342
 31
0.0
  0
LINE
  5
1417
330
1F
100
AcDbEntity
  8
SPOJOVACÍ
100
AcDbLine
 10
2321.322513349236
 20
212.7292993643577
 30
0.0
 11
2317.645157760514
 21
211.7439549040791
 31
0.0
  0
LINE
  5
1418
330
1F
100
AcDbEntity
  8
SPOJOVACÍ
100
AcDbLine
 10
2320.608985201436
 20
197.5381100733775
 30
0.0
 11
2318.777804497974
 21
197.0474466826899
 31
0.0
  0
LINE
  5
1419
330
1F
100
AcDbEntity
  8
SPOJOVACÍ
100
AcDbLine
 10
2321.96860223848
 20
197.9024183604706
 30
0.0
 11
2317.033970752766
 21
196.5801878389275
 31
0.0
  0
LINE
  5
141A
330
1F
100
AcDbEntity
  8
SPOJOVACÍ
100
AcDbLine
 10
2322.033181308684
 20
196.0447222701795
 30
0.0
 11
2317.003506922289
 21
194.6970250801532
 31
0.0
  0
LINE
  5
141B
330
1F
100
AcDbEntity
  8
NOSNÉ KONSTRUKCE
100
AcDbLine
 10
2338.167380092472
 20
231.4769418701289
 30
0.0
 11
2297.187129785527
 21
231.4769418701262
 31
0.0
  0
LINE
  5
141C
330
1F
100
AcDbEntity
  8
SPOJOVACÍ
100
AcDbLine
 10
2319.58049345506
 20
234.7378739860323
 30
0.0
 11
2305.51799345506
 21
234.7378739860323
 31
0.0
  0
LINE
  5
141D
330
1F
100
AcDbEntity
  8
SPOJOVACÍ
100
AcDbLine
 10
2305.51799345506
 20
231.8799824909274
 30
0.0
 11
2319.58049345506
 21
231.8799824909274
 31
0.0
  0
LINE
  5
141E
330
1F
100
AcDbEntity
  8
SPOJOVACÍ
100
AcDbLine
 10
2305.51799345506
 20
231.8799824909274
 30
0.0
 11
2319.58049345506
 21
231.8799824909274
 31
0.0
  0
LINE
  5
141F
330
1F
100
AcDbEntity
  8
SPOJOVACÍ
100
AcDbLine
 10
2309.26799345506
 20
234.7472489860328
 30
0.0
 11
2329.89299345506
 21
234.7472489860328
 31
0.0
  0
ARC
  5
1420
330
1F
100
AcDbEntity
  8
NOSNÉ KONSTRUKCE
100
AcDbCircle
 10
2297.187129785527
 20
234.4769418701289
 30
0.0
 40
3.0
100
AcDbArc
 50
180.0
 51
270.0
  0
LINE
  5
1421
330
1F
100
AcDbEntity
  8
SPOJOVACÍ
100
AcDbLine
 10
2305.51799345506
 20
231.8799824909274
 30
0.0
 11
2305.51799345506
 21
234.7378739860323
 31
0.0
  0
LINE
  5
1422
330
1F
100
AcDbEntity
  8
SPOJOVACÍ
100
AcDbLine
 10
2309.26799345506
 20
234.7378739860323
 30
0.0
 11
2309.26799345506
 21
234.7472489860328
 31
0.0
  0
LINE
  5
1423
330
1F
100
AcDbEntity
  8
SPOJOVACÍ
100
AcDbLine
 10
2309.26799345506
 20
234.7378739860323
 30
0.0
 11
2309.26799345506
 21
239.4253739860323
 31
0.0
  0
LINE
  5
1424
330
1F
100
AcDbEntity
  8
SPOJOVACÍ
100
AcDbLine
 10
2324.26799345506
 20
234.7378739860323
 30
0.0
 11
2324.26799345506
 21
239.4253739860323
 31
0.0
  0
LINE
  5
1425
330
1F
100
AcDbEntity
  8
SPOJOVACÍ
100
AcDbLine
 10
2329.89299345506
 20
239.4253739860323
 30
0.0
 11
2329.89299345506
 21
234.7378739860323
 31
0.0
  0
LINE
  5
1426
330
1F
100
AcDbEntity
  8
SPOJOVACÍ
100
AcDbLine
 10
2333.64299345506
 20
234.7378739860323
 30
0.0
 11
2333.64299345506
 21
231.8799824909274
 31
0.0
  0
LINE
  5
1427
330
1F
100
AcDbEntity
  8
SPOJOVACÍ
100
AcDbLine
 10
2319.58049345506
 20
231.8799824909274
 30
0.0
 11
2333.64299345506
 21
231.8799824909274
 31
0.0
  0
LINE
  5
1428
330
1F
100
AcDbEntity
  8
SPOJOVACÍ
100
AcDbLine
 10
2319.58049345506
 20
231.8799824909274
 30
0.0
 11
2333.64299345506
 21
231.8799824909274
 31
0.0
  0
LINE
  5
1429
330
1F
100
AcDbEntity
  8
SPOJOVACÍ
100
AcDbLine
 10
2319.869520011444
 20
229.2149709728882
 30
0.0
 11
2319.287447113499
 21
229.0590050099481
 31
0.0
  0
LINE
  5
142A
330
1F
100
AcDbEntity
  8
SPOJOVACÍ
100
AcDbLine
 10
2314.89299345506
 20
234.7378739860323
 30
0.0
 11
2314.89299345506
 21
239.4253739860323
 31
0.0
  0
LINE
  5
142B
330
1F
100
AcDbEntity
  8
SPOJOVACÍ
100
AcDbLine
 10
2312.003272364566
 20
234.7378739860323
 30
0.0
 11
2333.64299345506
 21
234.7378739860323
 31
0.0
  0
ARC
  5
142C
330
1F
100
AcDbEntity
  8
NOSNÉ KONSTRUKCE
100
AcDbCircle
 10
2338.167380092472
 20
228.4769418701262
 30
0.0
 40
3.0
100
AcDbArc
 50
0.0
 51
90.0
  0
LINE
  5
142D
330
1F
100
AcDbEntity
  8
POPIS
100
AcDbLine
 10
2227.98038839274
 20
690.2100004690374
 30
0.0
 11
2381.845240425459
 21
690.2083947870123
 31
0.0
  0
LINE
  5
142E
330
1F
100
AcDbEntity
  8
POPIS
100
AcDbLine
 10
2190.272895457953
 20
656.0426099884644
 30
0.0
 11
2381.845240425459
 21
656.0426099884644
 31
0.0
  0
LINE
  5
142F
330
1F
100
AcDbEntity
  8
POPIS
100
AcDbLine
 10
2247.362965595969
 20
517.7847073378461
 30
0.0
 11
2381.845240425459
 21
517.7847073378452
 31
0.0
  0
LINE
  5
1430
330
1F
100
AcDbEntity
  8
POPIS
100
AcDbLine
 10
2247.362965595969
 20
554.2674560320292
 30
0.0
 11
2381.845240425459
 21
554.2674560320283
 31
0.0
  0
LINE
  5
1431
330
1F
100
AcDbEntity
  8
POPIS
100
AcDbLine
 10
2247.362965595969
 20
591.6524684245732
 30
0.0
 11
2381.845240425459
 21
591.6524684245723
 31
0.0
  0
LINE
  5
1432
330
1F
100
AcDbEntity
  8
POPIS
100
AcDbLine
 10
2257.362469082766
 20
481.8616247190475
 30
0.0
 11
2384.850501207055
 21
481.8601899400255
 31
0.0
  0
LINE
  5
1433
330
1F
100
AcDbEntity
  8
NOSNÉ KONSTRUKCE
100
AcDbLine
 10
2308.253812838119
 20
361.7005469959158
 30
0.0
 11
2267.411062727248
 21
361.7005469959158
 31
0.0
  0
LWPOLYLINE
  5
1434
330
1F
100
AcDbEntity
  8
NOSNÉ KONSTRUKCE
100
AcDbPolyline
 90
        3
 70
     0
 43
0.0
 10
2255.641641232846
 20
361.7005469959158
 10
2255.641641232846
 20
359.1744595639147
 10
2286.994357476355
 20
359.1744595639147
  0
LINE
  5
1435
330
1F
100
AcDbEntity
  8
STAVBA OBRYS
100
AcDbLine
 10
2076.00870997014
 20
309.8724093832679
 30
0.0
 11
2564.216865142631
 21
309.8724093832679
 31
0.0
  0
LINE
  5
1436
330
1F
100
AcDbEntity
  8
STAVBA OBRYS
  6
IZOLACE
 48
4.0
100
AcDbLine
 10
2566.699413221478
 20
268.1603726840403
 30
0.0
 11
2076.00870997014
 21
268.8832710153574
 31
0.0
  0
LINE
  5
1437
330
1F
100
AcDbEntity
  8
POPIS
100
AcDbLine
 10
2047.074837019124
 20
467.6442997026533
 30
0.0
 11
2247.362965595969
 21
591.6524684245732
 31
0.0
  0
LINE
  5
1438
330
1F
100
AcDbEntity
  8
POPIS
100
AcDbLine
 10
2117.870228930426
 20
443.5108903629452
 30
0.0
 11
2247.362965595973
 21
554.2674560320292
 31
0.0
  0
LINE
  5
1439
330
1F
100
AcDbEntity
  8
STAVBA OBRYS
  6
IZOLACE
 48
4.0
100
AcDbLine
 10
2117.500890981969
 20
309.8724093832679
 30
0.0
 11
2118.065955161425
 21
693.428059722366
 31
0.0
  0
LINE
  5
143A
330
1F
100
AcDbEntity
  8
STAVBA OBRYS
100
AcDbLine
 10
2159.518410074447
 20
693.428059722366
 30
0.0
 11
2159.518410074447
 21
309.8724093832679
 31
0.0
  0
LINE
  5
143B
330
1F
100
AcDbEntity
  8
STAVBA OBRYS
  6
DASHED
100
AcDbLine
 10
1993.936510344409
 20
349.4446531237536
 30
0.0
 11
2154.306841577035
 21
349.4446531237554
 31
0.0
  0
LINE
  5
143C
330
1F
100
AcDbEntity
  8
STAVBA OBRYS
  6
DASHED
100
AcDbLine
 10
1993.936510344409
 20
362.5696531237536
 30
0.0
 11
2154.306841577035
 21
362.5696531237554
 31
0.0
  0
LINE
  5
143D
330
1F
100
AcDbEntity
  8
SPOJOVACÍ
  6
DASHED
100
AcDbLine
 10
1998.46303672745
 20
458.5352770003565
 30
0.0
 11
2079.562131671124
 21
458.5352770003574
 31
0.0
  0
LINE
  5
143E
330
1F
100
AcDbEntity
  8
SPOJOVACÍ
  6
DASHED
100
AcDbLine
 10
1998.46303672745
 20
471.6602770003564
 30
0.0
 11
2079.562131671124
 21
471.6602770003573
 31
0.0
  0
LINE
  5
143F
330
1F
100
AcDbEntity
  8
SPOJOVACÍ
100
AcDbLine
 10
2040.921125734846
 20
462.6198818139273
 30
0.0
 11
2039.558291608121
 21
467.7060480171603
 31
0.0
  0
LINE
  5
1440
330
1F
100
AcDbEntity
  8
SPOJOVACÍ
  6
DASHDOT2
100
AcDbLine
 10
2094.735233139558
 20
465.0977770003573
 30
0.0
 11
1979.815123395651
 21
465.0977770003565
 31
0.0
  0
LINE
  5
1441
330
1F
100
AcDbEntity
  8
STAVBA OBRYS
  6
DASHDOT2
100
AcDbLine
 10
2188.065086078709
 20
356.0071531237535
 30
0.0
 11
1975.28859701261
 21
356.0071531237535
 31
0.0
  0
LINE
  5
1442
330
1F
100
AcDbEntity
  8
STAVBA OBRYS
  6
DASHED
100
AcDbLine
 10
1990.147649202855
 20
356.0071531237535
 30
0.0
 11
1993.936510344409
 21
349.4446531237536
 31
0.0
  0
LINE
  5
1443
330
1F
100
AcDbEntity
  8
STAVBA OBRYS
  6
DASHED
100
AcDbLine
 10
1990.147649202855
 20
356.0071531237535
 30
0.0
 11
1993.936510344409
 21
362.5696531237536
 31
0.0
  0
LINE
  5
1444
330
1F
100
AcDbEntity
  8
SPOJOVACÍ
  6
DASHED
100
AcDbLine
 10
1994.674175585892
 20
465.0977770003565
 30
0.0
 11
1998.46303672745
 21
458.5352770003565
 31
0.0
  0
LINE
  5
1445
330
1F
100
AcDbEntity
  8
SPOJOVACÍ
  6
DASHED
100
AcDbLine
 10
1994.674175585892
 20
465.0977770003565
 30
0.0
 11
1998.46303672745
 21
471.6602770003564
 31
0.0
  0
LINE
  5
1446
330
1F
100
AcDbEntity
  8
SPOJOVACÍ
100
AcDbLine
 10
2023.943501436714
 20
463.0028809086543
 30
0.0
 11
2022.807421659729
 21
467.242788357802
 31
0.0
  0
LINE
  5
1447
330
1F
100
AcDbEntity
  8
SPOJOVACÍ
100
AcDbLine
 10
2035.286283494783
 20
462.6566135538951
 30
0.0
 11
2033.948825640992
 21
467.6480742172352
 31
0.0
  0
LINE
  5
1448
330
1F
100
AcDbEntity
  8
SPOJOVACÍ
100
AcDbLine
 10
2037.167242715472
 20
462.6343734395223
 30
0.0
 11
2035.81600864564
 21
467.6772476410478
 31
0.0
  0
LINE
  5
1449
330
1F
100
AcDbEntity
  8
SPOJOVACÍ
100
AcDbLine
 10
2029.601511438329
 20
462.8796859054673
 30
0.0
 11
2028.504078504588
 21
466.9753613720831
 31
0.0
  0
LINE
  5
144A
330
1F
100
AcDbEntity
  8
SPOJOVACÍ
100
AcDbLine
 10
2027.744297000451
 20
462.8133092839816
 30
0.0
 11
2026.50624260017
 21
467.4337912083747
 31
0.0
  0
LINE
  5
144B
330
1F
100
AcDbEntity
  8
SPOJOVACÍ
100
AcDbLine
 10
2025.8408191162
 20
462.9195901949006
 30
0.0
 11
2024.652085289871
 21
467.3560052314351
 31
0.0
  0
LINE
  5
144C
330
1F
100
AcDbEntity
  8
SPOJOVACÍ
100
AcDbLine
 10
2039.045519555597
 20
462.6221441056805
 30
0.0
 11
2037.685827049367
 21
467.6965856216056
 31
0.0
  0
LINE
  5
144D
330
1F
100
AcDbEntity
  8
SPOJOVACÍ
100
AcDbLine
 10
2031.456138299417
 20
462.9557194949866
 30
0.0
 11
2030.222324258694
 21
467.5603761820566
 31
0.0
  0
LINE
  5
144E
330
1F
100
AcDbEntity
  8
SPOJOVACÍ
100
AcDbLine
 10
2033.402629859097
 20
462.6889093619547
 30
0.0
 11
2032.084267571185
 21
467.6091044032173
 31
0.0
  0
LINE
  5
144F
330
1F
100
AcDbEntity
  8
SPOJOVACÍ
  6
DASHED
100
AcDbLine
 10
2004.049175585892
 20
465.0977770003556
 30
0.0
 11
2007.296770850083
 21
459.4727770003555
 31
0.0
  0
LINE
  5
1450
330
1F
100
AcDbEntity
  8
SPOJOVACÍ
100
AcDbLine
 10
2012.500832251948
 20
463.7219320952426
 30
0.0
 11
2011.735179307902
 21
466.5793877833903
 31
0.0
  0
LINE
  5
1451
330
1F
100
AcDbEntity
  8
SPOJOVACÍ
100
AcDbLine
 10
2010.583783427041
 20
463.8788604461987
 30
0.0
 11
2009.910884312451
 21
466.3901541302266
 31
0.0
  0
LINE
  5
1452
330
1F
100
AcDbEntity
  8
SPOJOVACÍ
100
AcDbLine
 10
2008.663852021093
 20
464.0465467360445
 30
0.0
 11
2008.07962248455
 21
466.2269210497215
 31
0.0
  0
LINE
  5
1453
330
1F
100
AcDbEntity
  8
SPOJOVACÍ
100
AcDbLine
 10
2006.741020846459
 20
464.2250551099823
 30
0.0
 11
2006.250867213569
 21
466.0543333714249
 31
0.0
  0
LINE
  5
1454
330
1F
100
AcDbEntity
  8
SPOJOVACÍ
100
AcDbLine
 10
2002.88658826658
 20
464.6148028040479
 30
0.0
 11
2002.600850171107
 21
465.6811918940065
 31
0.0
  0
LINE
  5
1455
330
1F
100
AcDbEntity
  8
SPOJOVACÍ
100
AcDbLine
 10
2000.954950280563
 20
464.826178645495
 30
0.0
 11
2000.779575886251
 21
465.4806847954114
 31
0.0
  0
LINE
  5
1456
330
1F
100
AcDbEntity
  8
SPOJOVACÍ
100
AcDbLine
 10
1999.020339342328
 20
465.04864969568
 30
0.0
 11
1998.960783126231
 21
465.2709165200612
 31
0.0
  0
LINE
  5
1457
330
1F
100
AcDbEntity
  8
SPOJOVACÍ
100
AcDbLine
 10
2004.815272282768
 20
464.4144513280771
 30
0.0
 11
2004.424611899196
 21
465.8724157280685
 31
0.0
  0
LINE
  5
1458
330
1F
100
AcDbEntity
  8
SPOJOVACÍ
  6
DASHED
100
AcDbLine
 10
2004.049175585892
 20
465.0977770003565
 30
0.0
 11
2007.296770850083
 21
470.7227770003564
 31
0.0
  0
LINE
  5
1459
330
1F
100
AcDbEntity
  8
SPOJOVACÍ
100
AcDbLine
 10
2020.140530900399
 20
463.2005696414799
 30
0.0
 11
2019.105039285829
 21
467.0650769578641
 31
0.0
  0
LINE
  5
145A
330
1F
100
AcDbEntity
  8
SPOJOVACÍ
100
AcDbLine
 10
2022.043410171386
 20
463.0965227856722
 30
0.0
 11
2020.951492315888
 21
467.1716157000828
 31
0.0
  0
LINE
  5
145B
330
1F
100
AcDbEntity
  8
SPOJOVACÍ
100
AcDbLine
 10
2018.155053083253
 20
463.6128784681859
 30
0.0
 11
2017.261137412492
 21
466.9490171691413
 31
0.0
  0
LINE
  5
145C
330
1F
100
AcDbEntity
  8
SPOJOVACÍ
100
AcDbLine
 10
2016.315769171978
 20
463.4795842104067
 30
0.0
 11
2015.419778651531
 21
466.8234663558268
 31
0.0
  0
LINE
  5
145D
330
1F
100
AcDbEntity
  8
SPOJOVACÍ
100
AcDbLine
 10
2014.415015260786
 20
463.5756991154776
 30
0.0
 11
2013.58095520751
 21
466.6884536108682
 31
0.0
  0
LWPOLYLINE
  5
145E
330
1F
100
AcDbEntity
  8
STAVBA OBRYS
  6
DASHED
100
AcDbPolyline
 90
        4
 70
     1
 43
0.0
 10
2159.680122901888
 20
330.9473671142413
 10
2154.306841577035
 20
330.9473671142413
 10
2154.306841577035
 20
381.0669391332639
 10
2159.680122901888
 20
381.0669391332639
  0
LINE
  5
145F
330
1F
100
AcDbEntity
  8
NOSNÉ KONSTRUKCE
100
AcDbLine
 10
2255.641641232846
 20
361.7005469959158
 30
0.0
 11
2255.641641232846
 21
364.0782227836944
 31
0.0
  0
LINE
  5
1460
330
1F
100
AcDbEntity
  8
NOSNÉ KONSTRUKCE
100
AcDbLine
 10
2267.411062727248
 20
364.0782227836944
 30
0.0
 11
2267.411062727248
 21
361.7005469959158
 31
0.0
  0
LINE
  5
1461
330
1F
100
AcDbEntity
  8
NOSNÉ KONSTRUKCE
100
AcDbLine
 10
2255.641641232846
 20
364.0782227836944
 30
0.0
 11
2267.411062727248
 21
364.0782227836944
 31
0.0
  0
LWPOLYLINE
  5
1462
330
1F
100
AcDbEntity
  8
STAVBA OBRYS
  6
DASHED
100
AcDbPolyline
 90
        4
 70
     1
 43
0.0
 10
2217.693118201702
 20
310.2698774673381
 10
2217.693118201702
 20
304.8965961424846
 10
2167.573546182679
 20
304.8965961424846
 10
2167.573546182679
 20
310.2698774673381
  0
LINE
  5
1463
330
1F
100
AcDbEntity
  8
NOSNÉ KONSTRUKCE
100
AcDbLine
 10
2203.994532168987
 20
434.5484954142575
 30
0.0
 11
2149.624532199682
 21
434.5484954142575
 31
0.0
  0
LINE
  5
1464
330
1F
100
AcDbEntity
  8
NOSNÉ KONSTRUKCE
100
AcDbLine
 10
2150.765454001061
 20
435.9859258247325
 30
0.0
 11
2203.994532168983
 21
435.9859258247325
 31
0.0
  0
LINE
  5
1465
330
1F
100
AcDbEntity
  8
NOSNÉ KONSTRUKCE
100
AcDbLine
 10
2203.994532168987
 20
439.7044133308281
 30
0.0
 11
2075.971591050324
 21
439.7044133308191
 31
0.0
  0
LINE
  5
1466
330
1F
100
AcDbEntity
  8
NOSNÉ KONSTRUKCE
100
AcDbLine
 10
2203.994532168987
 20
438.2669829203532
 30
0.0
 11
2075.766111456515
 21
438.2669829203441
 31
0.0
  0
LINE
  5
1467
330
1F
100
AcDbEntity
  8
NOSNÉ KONSTRUKCE
100
AcDbLine
 10
2163.883135956107
 20
443.5108903629425
 30
0.0
 11
2084.971591050324
 21
443.5108903629461
 31
0.0
  0
LINE
  5
1468
330
1F
100
AcDbEntity
  8
SPOJOVACÍ
100
AcDbLine
 10
2048.397067540669
 20
462.7096682169367
 30
0.0
 11
2047.074837019124
 21
467.6442997026533
 31
0.0
  0
LINE
  5
1469
330
1F
100
AcDbEntity
  8
SPOJOVACÍ
100
AcDbLine
 10
2048.032759253575
 20
464.0692852539832
 30
0.0
 11
2047.542095862888
 21
465.9004659574447
 31
0.0
  0
LINE
  5
146A
330
1F
100
AcDbEntity
  8
SPOJOVACÍ
100
AcDbLine
 10
2059.532665529967
 20
463.1366223333515
 30
0.0
 11
2058.43106161553
 21
467.2478641118504
 31
0.0
  0
LINE
  5
146B
330
1F
100
AcDbEntity
  8
SPOJOVACÍ
100
AcDbLine
 10
2061.37958336055
 20
463.241426416409
 30
0.0
 11
2060.333432810936
 21
467.1457134199399
 31
0.0
  0
LINE
  5
146C
330
1F
100
AcDbEntity
  8
SPOJOVACÍ
100
AcDbLine
 10
2052.119297000451
 20
462.8133092839816
 30
0.0
 11
2050.849288657121
 21
467.5530449473298
 31
0.0
  0
LINE
  5
146D
330
1F
100
AcDbEntity
  8
SPOJOVACÍ
100
AcDbLine
 10
2057.683186709636
 20
463.0413759941712
 30
0.0
 11
2056.53147577634
 21
467.3396197128659
 31
0.0
  0
LINE
  5
146E
330
1F
100
AcDbEntity
  8
SPOJOVACÍ
100
AcDbLine
 10
2055.831138299417
 20
462.9557194949866
 30
0.0
 11
2054.634660939921
 21
467.4210337907352
 31
0.0
  0
LINE
  5
146F
330
1F
100
AcDbEntity
  8
SPOJOVACÍ
100
AcDbLine
 10
2053.976511438329
 20
462.8796859054673
 30
0.0
 11
2052.740603113418
 21
467.4921585675146
 31
0.0
  0
LINE
  5
1470
330
1F
100
AcDbEntity
  8
SPOJOVACÍ
100
AcDbLine
 10
2050.289371450376
 20
462.6450891467339
 30
0.0
 11
2048.960704277261
 21
467.6037425431531
 31
0.0
  0
LINE
  5
1471
330
1F
100
AcDbEntity
  8
SPOJOVACÍ
100
AcDbLine
 10
2063.223948544556
 20
463.3557571061819
 30
0.0
 11
2062.238604084278
 21
467.0331126949058
 31
0.0
  0
LINE
  5
1472
330
1F
100
AcDbEntity
  8
SPOJOVACÍ
100
AcDbLine
 10
2076.063679272635
 20
464.4203965228207
 30
0.0
 11
2075.654522978794
 21
465.9473885996813
 31
0.0
  0
LINE
  5
1473
330
1F
100
AcDbEntity
  8
SPOJOVACÍ
100
AcDbLine
 10
2074.23696983293
 20
464.2401736982756
 30
0.0
 11
2073.729306259835
 21
466.1347999462214
 31
0.0
  0
LINE
  5
1474
330
1F
100
AcDbEntity
  8
SPOJOVACÍ
100
AcDbLine
 10
2072.407759253575
 20
464.0692852539832
 30
0.0
 11
2071.807003693094
 21
466.311335528634
 31
0.0
  0
LINE
  5
1475
330
1F
100
AcDbEntity
  8
SPOJOVACÍ
100
AcDbLine
 10
2070.576040892122
 20
463.9077559798952
 30
0.0
 11
2069.887597737654
 21
466.4770608104909
 31
0.0
  0
LINE
  5
1476
330
1F
100
AcDbEntity
  8
SPOJOVACÍ
100
AcDbLine
 10
2068.741807872745
 20
463.7556115369416
 30
0.0
 11
2067.971071283463
 21
466.6320396473874
 31
0.0
  0
LINE
  5
1477
330
1F
100
AcDbEntity
  8
SPOJOVACÍ
100
AcDbLine
 10
2065.065769171977
 20
463.4795842104067
 30
0.0
 11
2064.14659053356
 21
466.910005590209
 31
0.0
  0
LINE
  5
1478
330
1F
100
AcDbEntity
  8
SPOJOVACÍ
100
AcDbLine
 10
2066.905053083249
 20
463.6128784681859
 30
0.0
 11
2066.057407641375
 21
466.7763343240676
 31
0.0
  0
LINE
  5
1479
330
1F
100
AcDbEntity
  8
SPOJOVACÍ
100
AcDbLine
 10
2085.241898166229
 20
475.4102770003574
 30
0.0
 11
2085.241898166229
 21
454.7852770003573
 31
0.0
  0
LINE
  5
147A
330
1F
100
AcDbEntity
  8
SPOJOVACÍ
100
AcDbLine
 10
2082.374631671125
 20
479.1602770003573
 30
0.0
 11
2082.374631671125
 21
465.0977770003573
 31
0.0
  0
LINE
  5
147B
330
1F
100
AcDbEntity
  8
SPOJOVACÍ
100
AcDbLine
 10
2082.374631671125
 20
479.1602770003573
 30
0.0
 11
2082.374631671125
 21
465.0977770003573
 31
0.0
  0
LINE
  5
147C
330
1F
100
AcDbEntity
  8
SPOJOVACÍ
100
AcDbLine
 10
2085.232523166228
 20
465.0977770003573
 30
0.0
 11
2085.232523166228
 21
479.1602770003573
 31
0.0
  0
LINE
  5
147D
330
1F
100
AcDbEntity
  8
SPOJOVACÍ
100
AcDbLine
 10
2079.709620153086
 20
464.8087504439754
 30
0.0
 11
2079.553654190144
 21
465.3908233419206
 31
0.0
  0
LINE
  5
147E
330
1F
100
AcDbEntity
  8
SPOJOVACÍ
100
AcDbLine
 10
2077.887893984628
 20
464.6099297979453
 30
0.0
 11
2077.643363448772
 21
465.52253018177
 31
0.0
  0
LINE
  5
147F
330
1F
100
AcDbEntity
  8
SPOJOVACÍ
100
AcDbLine
 10
2085.232523166228
 20
475.4102770003574
 30
0.0
 11
2085.241898166229
 21
475.4102770003574
 31
0.0
  0
LINE
  5
1480
330
1F
100
AcDbEntity
  8
SPOJOVACÍ
100
AcDbLine
 10
2082.374631671125
 20
479.1602770003573
 30
0.0
 11
2085.232523166228
 21
479.1602770003573
 31
0.0
  0
ARC
  5
1481
330
1F
100
AcDbEntity
  8
NOSNÉ KONSTRUKCE
100
AcDbCircle
 10
2078.971591050324
 20
487.491140669892
 30
0.0
 40
3.0
100
AcDbArc
 50
0.0
 51
90.0
  0
LINE
  5
1482
330
1F
100
AcDbEntity
  8
NOSNÉ KONSTRUKCE
100
AcDbLine
 10
2078.971591050324
 20
490.4911406698921
 30
0.0
 11
2075.971591050324
 21
490.4911406698902
 31
0.0
  0
LINE
  5
1483
330
1F
100
AcDbEntity
  8
SPOJOVACÍ
100
AcDbLine
 10
2091.795023166228
 20
473.5352770003573
 30
0.0
 11
2091.795023166228
 21
456.6602770003574
 31
0.0
  0
ARC
  5
1484
330
1F
100
AcDbEntity
  8
SPOJOVACÍ
100
AcDbCircle
 10
2089.920023166228
 20
458.5352770003574
 30
0.0
 40
1.875
100
AcDbArc
 50
0.0
 51
90.0
  0
ARC
  5
1485
330
1F
100
AcDbEntity
  8
SPOJOVACÍ
100
AcDbCircle
 10
2089.920023166228
 20
456.6602770003574
 30
0.0
 40
1.875
100
AcDbArc
 50
270.0
 51
0.0
  0
ARC
  5
1486
330
1F
100
AcDbEntity
  8
SPOJOVACÍ
100
AcDbCircle
 10
2085.130452471489
 20
465.0977770003573
 30
0.0
 40
6.701689614562111
100
AcDbArc
 50
315.6170676673795
 51
44.3829323326205
  0
ARC
  5
1487
330
1F
100
AcDbEntity
  8
SPOJOVACÍ
100
AcDbCircle
 10
2089.920023166228
 20
471.6602770003573
 30
0.0
 40
1.875
100
AcDbArc
 50
270.0
 51
0.0
  0
ARC
  5
1488
330
1F
100
AcDbEntity
  8
SPOJOVACÍ
100
AcDbCircle
 10
2089.920023166228
 20
473.5352770003573
 30
0.0
 40
1.875
100
AcDbArc
 50
0.0
 51
90.0
  0
LINE
  5
1489
330
1F
100
AcDbEntity
  8
SPOJOVACÍ
100
AcDbLine
 10
2089.920023166228
 20
454.7852770003573
 30
0.0
 11
2085.232523166228
 21
454.7852770003573
 31
0.0
  0
LINE
  5
148A
330
1F
100
AcDbEntity
  8
SPOJOVACÍ
100
AcDbLine
 10
2085.232523166228
 20
460.4102770003573
 30
0.0
 11
2089.920023166228
 21
460.4102770003573
 31
0.0
  0
LINE
  5
148B
330
1F
100
AcDbEntity
  8
SPOJOVACÍ
100
AcDbLine
 10
2085.232523166228
 20
475.4102770003574
 30
0.0
 11
2089.920023166228
 21
475.4102770003574
 31
0.0
  0
LINE
  5
148C
330
1F
100
AcDbEntity
  8
SPOJOVACÍ
100
AcDbLine
 10
2085.232523166228
 20
469.7852770003573
 30
0.0
 11
2089.920023166228
 21
469.7852770003573
 31
0.0
  0
LINE
  5
148D
330
1F
100
AcDbEntity
  8
SPOJOVACÍ
100
AcDbLine
 10
2042.79407266396
 20
462.6275439787832
 30
0.0
 11
2041.433413374764
 21
467.7055935778462
 31
0.0
  0
LINE
  5
148E
330
1F
100
AcDbEntity
  8
SPOJOVACÍ
100
AcDbLine
 10
2046.539371450376
 20
462.6450891467339
 30
0.0
 11
2045.191674260352
 21
467.6747635331285
 31
0.0
  0
LINE
  5
148F
330
1F
100
AcDbEntity
  8
SPOJOVACÍ
100
AcDbLine
 10
2044.664371450376
 20
462.6450891467339
 30
0.0
 11
2043.311203704487
 21
467.6951799255639
 31
0.0
  0
LINE
  5
1490
330
1F
100
AcDbEntity
  8
SPOJOVACÍ
100
AcDbLine
 10
2044.366807872745
 20
463.7556115369416
 30
0.0
 11
2043.728409898637
 21
466.1381452117621
 31
0.0
  0
LINE
  5
1491
330
1F
100
AcDbEntity
  8
SPOJOVACÍ
100
AcDbLine
 10
2046.201040892122
 20
463.9077559798952
 30
0.0
 11
2045.634871060919
 21
466.0207305556632
 31
0.0
  0
INSERT
  5
1492
330
1F
100
AcDbEntity
  8
POPIS
100
AcDbBlockReference
  2
E_PUNKT
 10
2047.10244739475
 20
467.6152313717802
 30
0.0
 41
-1.0
  0
LINE
  5
1493
330
1F
100
AcDbEntity
  8
NOSNÉ KONSTRUKCE
100
AcDbLine
 10
2150.765454001061
 20
435.9859258247325
 30
0.0
 11
2146.760345641057
 21
438.2669829203496
 31
0.0
  0
LINE
  5
1494
330
1F
100
AcDbEntity
  8
NOSNÉ KONSTRUKCE
100
AcDbLine
 10
2149.624532199682
 20
434.5484954142575
 30
0.0
 11
2143.967987369152
 21
438.2669829203487
 31
0.0
  0
INSERT
  5
1495
330
1F
100
AcDbEntity
  8
POPIS
100
AcDbBlockReference
  2
E_PUNKT
 10
2117.897839306052
 20
443.4818220320721
 30
0.0
 41
-1.0
  0
ARC
  5
1496
330
1F
100
AcDbEntity
  8
NOSNÉ KONSTRUKCE
100
AcDbCircle
 10
2084.971591050324
 20
446.5108903629461
 30
0.0
 40
3.0
100
AcDbArc
 50
180.0
 51
270.0
  0
LINE
  5
1497
330
1F
100
AcDbEntity
  8
SPOJOVACÍ
100
AcDbLine
 10
2085.232523166228
 20
451.0352770003573
 30
0.0
 11
2082.374631671125
 21
451.0352770003573
 31
0.0
  0
LINE
  5
1498
330
1F
100
AcDbEntity
  8
NOSNÉ KONSTRUKCE
100
AcDbLine
 10
2081.971591050324
 20
446.5108903629461
 30
0.0
 11
2081.971591050324
 21
487.491140669892
 31
0.0
  0
LINE
  5
1499
330
1F
100
AcDbEntity
  8
SPOJOVACÍ
100
AcDbLine
 10
2085.232523166228
 20
472.6749980908543
 30
0.0
 11
2085.232523166228
 21
451.0352770003573
 31
0.0
  0
LINE
  5
149A
330
1F
100
AcDbEntity
  8
SPOJOVACÍ
100
AcDbLine
 10
2082.374631671125
 20
465.0977770003573
 30
0.0
 11
2082.374631671125
 21
451.0352770003573
 31
0.0
  0
LINE
  5
149B
330
1F
100
AcDbEntity
  8
SPOJOVACÍ
100
AcDbLine
 10
2082.374631671125
 20
465.0977770003573
 30
0.0
 11
2082.374631671125
 21
451.0352770003573
 31
0.0
  0
LINE
  5
149C
330
1F
100
AcDbEntity
  8
NOSNÉ KONSTRUKCE
100
AcDbLine
 10
2078.971591050324
 20
439.7044133308191
 30
0.0
 11
2078.971591050324
 21
490.4911406698938
 31
0.0
  0
LINE
  5
149D
330
1F
100
AcDbEntity
  8
NOSNÉ KONSTRUKCE
100
AcDbLine
 10
2079.008709970147
 20
439.7044133308191
 30
0.0
 11
2079.008709970144
 21
490.4911406698938
 31
0.0
  0
HATCH
  5
149E
330
1F
100
AcDbEntity
  8
NOSNÉ KONSTRUKCE
100
AcDbHatch
 10
0.0
 20
0.0
 30
0.0
210
0.0
220
0.0
230
1.0
  2
ANSI37
 70
     0
 71
     0
 91
        1
 92
        7
 72
     0
 73
     1
 93
        4
 10
2075.971591050324
 20
490.4911406698911
 10
2078.971591050324
 20
490.4911406698911
 10
2078.971591050324
 20
439.7044133308191
 10
2075.971591050324
 20
439.7044133308191
 97
        0
 75
     0
 76
     1
 52
0.0
 41
1.0
 77
     0
 78
     2
 53
134.9999999999999
 43
2598.939142616133
 44
127.8326004322243
 45
2.245064030267287
 46
2.245064030267288
 79
     0
 53
45.0
 43
2598.939142616133
 44
127.8326004322243
 45
2.245064030267288
 46
-2.245064030267287
 79
     0
 47
0.13614220447659
 98
        1
 10
2076.884399702138
 20
472.6278753824881
  0
HATCH
  5
149F
330
1F
100
AcDbEntity
  8
NOSNÉ KONSTRUKCE
100
AcDbHatch
 10
0.0
 20
0.0
 30
0.0
210
0.0
220
0.0
230
1.0
  2
ANSI37
 70
     0
 71
     0
 91
        1
 92
        7
 72
     0
 73
     1
 93
        4
 10
2076.008709970144
 20
490.4911406698911
 10
2079.008709970144
 20
490.4911406698911
 10
2079.008709970147
 20
439.7044133308191
 10
2076.008709970144
 20
439.7044133308191
 97
        0
 75
     0
 76
     1
 52
0.0
 41
1.0
 77
     0
 78
     2
 53
134.9999999999999
 43
2598.976261535953
 44
127.8326004322243
 45
2.245064030267287
 46
2.245064030267288
 79
     0
 53
45.0
 43
2598.976261535953
 44
127.8326004322243
 45
2.245064030267288
 46
-2.245064030267287
 79
     0
 47
0.13614220447659
 98
        1
 10
2076.921518621957
 20
472.6278753824881
  0
LINE
  5
14A0
330
1F
100
AcDbEntity
  8
POPIS
100
AcDbLine
 10
2209.669108744113
 20
469.3469949099399
 30
0.0
 11
2247.362965595969
 21
517.7847073378461
 31
0.0
  0
INSERT
  5
14A1
330
1F
100
AcDbEntity
  8
POPIS
100
AcDbBlockReference
  2
E_PUNKT
 10
2209.696719119738
 20
469.3179265790677
 30
0.0
 41
-1.0
  0
LINE
  5
14A2
330
1F
100
AcDbEntity
  8
NOSNÉ KONSTRUKCE
100
AcDbLine
 10
2214.572871963893
 20
469.3469949099399
 30
0.0
 11
2214.572871963893
 21
457.5775734155377
 31
0.0
  0
LINE
  5
14A3
330
1F
100
AcDbEntity
  8
NOSNÉ KONSTRUKCE
100
AcDbLine
 10
2214.572871963893
 20
457.5775734155377
 30
0.0
 11
2212.195196176114
 21
457.5775734155377
 31
0.0
  0
LINE
  5
14A4
330
1F
100
AcDbEntity
  8
NOSNÉ KONSTRUKCE
100
AcDbLine
 10
2212.195196176114
 20
469.3469949099399
 30
0.0
 11
2214.572871963893
 21
469.3469949099399
 31
0.0
  0
LINE
  5
14A5
330
1F
100
AcDbEntity
  8
NOSNÉ KONSTRUKCE
100
AcDbLine
 10
2212.195196176114
 20
404.9654018102646
 30
0.0
 11
2214.572871963893
 21
404.9654018102646
 31
0.0
  0
LINE
  5
14A6
330
1F
100
AcDbEntity
  8
NOSNÉ KONSTRUKCE
100
AcDbLine
 10
2214.572871963893
 20
404.9654018102646
 30
0.0
 11
2214.572871963893
 21
416.7348233046668
 31
0.0
  0
LINE
  5
14A7
330
1F
100
AcDbEntity
  8
NOSNÉ KONSTRUKCE
100
AcDbLine
 10
2214.572871963893
 20
416.7348233046668
 30
0.0
 11
2212.195196176114
 21
416.7348233046668
 31
0.0
  0
ARC
  5
14A8
330
1F
100
AcDbEntity
  8
NOSNÉ KONSTRUKCE
100
AcDbCircle
 10
2163.883135956107
 20
441.5108903629425
 30
0.0
 40
2.0
100
AcDbArc
 50
42.10694339897177
 51
90.0
  0
LINE
  5
14A9
330
1F
100
AcDbEntity
  8
NOSNÉ KONSTRUKCE
100
AcDbLine
 10
2165.366925135628
 20
442.8519234239574
 30
0.0
 11
2168.211611667261
 21
439.7044133308245
 31
0.0
  0
LWPOLYLINE
  5
14AA
330
1F
100
AcDbEntity
  8
NOSNÉ KONSTRUKCE
100
AcDbPolyline
 90
        3
 70
     0
 43
0.0
 10
2212.195196176114
 20
404.9654018102646
 10
2209.669108744113
 20
404.9654018102646
 10
2209.669108744113
 20
436.318118053774
  0
LINE
  5
14AB
330
1F
100
AcDbEntity
  8
SPOJOVACÍ
100
AcDbLine
 10
2188.35195946276
 20
434.934707260505
 30
0.0
 11
2192.772802041053
 21
433.7501460617895
 31
0.0
  0
LINE
  5
14AC
330
1F
100
AcDbEntity
  8
SPOJOVACÍ
100
AcDbLine
 10
2188.35195946276
 20
433.4875233778948
 30
0.0
 11
2188.35195946276
 21
440.0851389612235
 31
0.0
  0
LINE
  5
14AD
330
1F
100
AcDbEntity
  8
SPOJOVACÍ
100
AcDbLine
 10
2192.772802041053
 20
433.4875233778948
 30
0.0
 11
2192.772802041053
 21
440.0851389612235
 31
0.0
  0
LINE
  5
14AE
330
1F
100
AcDbEntity
  8
SPOJOVACÍ
100
AcDbLine
 10
2190.562380751907
 20
431.7845066603131
 30
0.0
 11
2188.35195946276
 21
433.4875233778948
 31
0.0
  0
LINE
  5
14AF
330
1F
100
AcDbEntity
  8
SPOJOVACÍ
100
AcDbLine
 10
2190.562380751907
 20
431.7845066603131
 30
0.0
 11
2192.772802041053
 21
433.4875233778948
 31
0.0
  0
LINE
  5
14B0
330
1F
100
AcDbEntity
  8
SPOJOVACÍ
100
AcDbLine
 10
2188.35195946276
 20
433.7042385105051
 30
0.0
 11
2191.840745207565
 21
432.7694211876205
 31
0.0
  0
LINE
  5
14B1
330
1F
100
AcDbEntity
  8
SPOJOVACÍ
100
AcDbLine
 10
2188.35195946276
 20
436.1651760105051
 30
0.0
 11
2192.772802041053
 21
434.9806148117877
 31
0.0
  0
LINE
  5
14B2
330
1F
100
AcDbEntity
  8
SPOJOVACÍ
100
AcDbLine
 10
2188.35195946276
 20
438.626113510505
 30
0.0
 11
2192.772802041053
 21
437.4415523117877
 31
0.0
  0
LINE
  5
14B3
330
1F
100
AcDbEntity
  8
SPOJOVACÍ
100
AcDbLine
 10
2188.35195946276
 20
439.8565822605069
 30
0.0
 11
2192.772802041053
 21
438.6720210617877
 31
0.0
  0
LINE
  5
14B4
330
1F
100
AcDbEntity
  8
SPOJOVACÍ
100
AcDbLine
 10
2188.35195946276
 20
437.3956447605051
 30
0.0
 11
2192.772802041053
 21
436.2110835617859
 31
0.0
  0
LINE
  5
14B5
330
1F
100
AcDbEntity
  8
SPOJOVACÍ
100
AcDbLine
 10
2196.099490126906
 20
440.0851389612235
 30
0.0
 11
2190.562380751907
 21
440.0851389612235
 31
0.0
  0
LINE
  5
14B6
330
1F
100
AcDbEntity
  8
NOSNÉ KONSTRUKCE
100
AcDbLine
 10
2203.994532168987
 20
439.7044133308281
 30
0.0
 11
2203.994532168987
 21
438.2669829203532
 31
0.0
  0
LINE
  5
14B7
330
1F
100
AcDbEntity
  8
NOSNÉ KONSTRUKCE
100
AcDbLine
 10
2203.994532168983
 20
435.9859258247325
 30
0.0
 11
2203.994532168987
 21
434.5484954142575
 31
0.0
  0
ARC
  5
14B8
330
1F
100
AcDbEntity
  8
SPOJOVACÍ
100
AcDbCircle
 10
2190.562380751907
 20
435.7748388924265
 30
0.0
 40
7.016998426235272
100
AcDbArc
 50
37.89856980784575
 51
142.1014301921542
  0
LINE
  5
14B9
330
1F
100
AcDbEntity
  8
SPOJOVACÍ
100
AcDbLine
 10
2190.562380751907
 20
440.0851389612235
 30
0.0
 11
2185.025271376907
 21
440.0851389612235
 31
0.0
  0
INSERT
  5
14BA
330
1F
100
AcDbEntity
  8
POPIS
100
AcDbBlockReference
  2
E_PUNKT
 10
2229.586709626072
 20
420.1101548172846
 30
0.0
 41
-1.0
  0
LINE
  5
14BB
330
1F
100
AcDbEntity
  8
NOSNÉ KONSTRUKCE
100
AcDbLine
 10
2212.195196176114
 20
457.5775734155377
 30
0.0
 11
2212.195196176114
 21
416.7348233046668
 31
0.0
  0
LWPOLYLINE
  5
14BC
330
1F
100
AcDbEntity
  8
NOSNÉ KONSTRUKCE
100
AcDbPolyline
 90
        3
 70
     0
 43
0.0
 10
2209.669108744113
 20
437.9942786664305
 10
2209.669108744113
 20
469.3469949099399
 10
2212.195196176114
 20
469.3469949099399
  0
LINE
  5
14BD
330
1F
100
AcDbEntity
  8
POPIS
100
AcDbLine
 10
2257.362469082766
 20
450.2026709361366
 30
0.0
 11
2229.559099250447
 21
420.1392231481568
 31
0.0
  0
LINE
  5
14BE
330
1F
100
AcDbEntity
  8
NOSNÉ KONSTRUKCE
100
AcDbLine
 10
2157.180031437127
 20
437.9942786664305
 30
0.0
 11
2157.180031437127
 21
436.318118053774
 31
0.0
  0
LINE
  5
14BF
330
1F
100
AcDbEntity
  8
NOSNÉ KONSTRUKCE
100
AcDbLine
 10
2209.669108744113
 20
437.9942786664305
 30
0.0
 11
2157.180031437127
 21
437.9942786664305
 31
0.0
  0
LINE
  5
14C0
330
1F
100
AcDbEntity
  8
NOSNÉ KONSTRUKCE
100
AcDbLine
 10
2157.180031437127
 20
436.318118053774
 30
0.0
 11
2209.669108744113
 21
436.318118053774
 31
0.0
  0
INSERT
  5
14C1
330
1F
100
AcDbEntity
  8
POPIS
100
AcDbBlockReference
  2
E_PUNKT
 10
2190.300505833579
 20
656.0135416575922
 30
0.0
 41
-1.0
  0
TEXT
  5
14C2
330
1F
100
AcDbEntity
  8
POPIS
100
AcDbText
 10
2396.506466712881
 20
541.9037580862732
 30
0.0
 40
25.0
  1
05
 41
0.7
  7
SIMPLEX7
100
AcDbText
  0
LINE
  5
14C3
330
1F
100
AcDbEntity
  8
SPOJOVACÍ
100
AcDbLine
 10
2284.163762800474
 20
342.2781528608538
 30
0.0
 11
2282.460746082894
 21
340.0677315717093
 31
0.0
  0
LINE
  5
14C4
330
1F
100
AcDbEntity
  8
NOSNÉ KONSTRUKCE
100
AcDbLine
 10
2288.670518089012
 20
306.6853822569291
 30
0.0
 11
2286.994357476355
 21
306.6853822569291
 31
0.0
  0
LINE
  5
14C5
330
1F
100
AcDbEntity
  8
NOSNÉ KONSTRUKCE
100
AcDbLine
 10
2286.662165247314
 20
300.2708048208633
 30
0.0
 11
2288.943222342927
 21
296.2656964608586
 31
0.0
  0
LINE
  5
14C6
330
1F
100
AcDbEntity
  8
NOSNÉ KONSTRUKCE
100
AcDbLine
 10
2285.224734836839
 20
299.1298830194837
 30
0.0
 11
2288.943222342927
 21
293.4733381889545
 31
0.0
  0
ARC
  5
14C7
330
1F
100
AcDbEntity
  8
NOSNÉ KONSTRUKCE
100
AcDbCircle
 10
2292.187129785524
 20
313.3884867759106
 30
0.0
 40
2.0
100
AcDbArc
 50
0.0
 51
47.89305660099822
  0
LINE
  5
14C8
330
1F
100
AcDbEntity
  8
NOSNÉ KONSTRUKCE
100
AcDbLine
 10
2293.528162846537
 20
314.8722759554321
 30
0.0
 11
2290.380652753406
 21
317.7169624870648
 31
0.0
  0
LINE
  5
14C9
330
1F
100
AcDbEntity
  8
SPOJOVACÍ
100
AcDbLine
 10
2285.610946683084
 20
337.8573102825639
 30
0.0
 11
2284.426385484369
 21
342.2781528608538
 31
0.0
  0
LINE
  5
14CA
330
1F
100
AcDbEntity
  8
SPOJOVACÍ
100
AcDbLine
 10
2284.380477933085
 20
337.8573102825639
 30
0.0
 11
2283.445660610202
 21
341.3460960273669
 31
0.0
  0
LINE
  5
14CB
330
1F
100
AcDbEntity
  8
SPOJOVACÍ
100
AcDbLine
 10
2286.841415433085
 20
337.8573102825639
 30
0.0
 11
2285.656854234369
 21
342.2781528608538
 31
0.0
  0
LINE
  5
14CC
330
1F
100
AcDbEntity
  8
SPOJOVACÍ
100
AcDbLine
 10
2289.302352933085
 20
337.8573102825639
 30
0.0
 11
2288.117791734369
 21
342.2781528608538
 31
0.0
  0
LINE
  5
14CD
330
1F
100
AcDbEntity
  8
SPOJOVACÍ
100
AcDbLine
 10
2290.532821683088
 20
337.8573102825639
 30
0.0
 11
2289.348260484369
 21
342.2781528608538
 31
0.0
  0
LINE
  5
14CE
330
1F
100
AcDbEntity
  8
SPOJOVACÍ
100
AcDbLine
 10
2284.163762800474
 20
337.8573102825639
 30
0.0
 11
2290.761378383805
 21
337.8573102825639
 31
0.0
  0
LINE
  5
14CF
330
1F
100
AcDbEntity
  8
SPOJOVACÍ
100
AcDbLine
 10
2288.071884183084
 20
337.8573102825639
 30
0.0
 11
2286.887322984369
 21
342.2781528608538
 31
0.0
  0
LINE
  5
14D0
330
1F
100
AcDbEntity
  8
SPOJOVACÍ
100
AcDbLine
 10
2290.761378383805
 20
345.6048409467094
 30
0.0
 11
2290.761378383805
 21
340.0677315717093
 31
0.0
  0
LINE
  5
14D1
330
1F
100
AcDbEntity
  8
SPOJOVACÍ
100
AcDbLine
 10
2290.761378383805
 20
340.0677315717093
 30
0.0
 11
2290.761378383805
 21
334.5306221967093
 31
0.0
  0
ARC
  5
14D2
330
1F
100
AcDbEntity
  8
SPOJOVACÍ
100
AcDbCircle
 10
2286.451078315006
 20
340.0677315717093
 30
0.0
 40
7.016998426235272
100
AcDbArc
 50
307.8985698078451
 51
52.10143019215482
  0
LINE
  5
14D3
330
1F
100
AcDbEntity
  8
NOSNÉ KONSTRUKCE
100
AcDbLine
 10
2290.380652753409
 20
353.499882988789
 30
0.0
 11
2288.943222342934
 21
353.499882988789
 31
0.0
  0
LINE
  5
14D4
330
1F
100
AcDbEntity
  8
NOSNÉ KONSTRUKCE
100
AcDbLine
 10
2286.662165247314
 20
353.4998829887881
 30
0.0
 11
2285.224734836839
 21
353.499882988789
 31
0.0
  0
LINE
  5
14D5
330
1F
100
AcDbEntity
  8
SPOJOVACÍ
100
AcDbLine
 10
2284.163762800474
 20
342.2781528608538
 30
0.0
 11
2290.761378383805
 21
342.2781528608538
 31
0.0
  0
LINE
  5
14D6
330
1F
100
AcDbEntity
  8
NOSNÉ KONSTRUKCE
100
AcDbLine
 10
2285.224734836839
 20
353.499882988789
 30
0.0
 11
2285.224734836839
 21
299.1298830194837
 31
0.0
  0
LINE
  5
14D7
330
1F
100
AcDbEntity
  8
NOSNÉ KONSTRUKCE
100
AcDbLine
 10
2286.662165247314
 20
300.2708048208633
 30
0.0
 11
2286.662165247314
 21
353.4998829887881
 31
0.0
  0
LWPOLYLINE
  5
14D8
330
1F
100
AcDbEntity
  8
NOSNÉ KONSTRUKCE
100
AcDbPolyline
 90
        3
 70
     0
 43
0.0
 10
2288.670518089012
 20
359.1744595639147
 10
2320.023234332521
 20
359.1744595639147
 10
2320.023234332521
 20
361.7005469959158
  0
LINE
  5
14D9
330
1F
100
AcDbEntity
  8
NOSNÉ KONSTRUKCE
100
AcDbLine
 10
2320.023234332521
 20
364.0782227836944
 30
0.0
 11
2308.253812838119
 21
364.0782227836944
 31
0.0
  0
LINE
  5
14DA
330
1F
100
AcDbEntity
  8
NOSNÉ KONSTRUKCE
100
AcDbLine
 10
2308.253812838119
 20
364.0782227836944
 30
0.0
 11
2308.253812838119
 21
361.7005469959158
 31
0.0
  0
LINE
  5
14DB
330
1F
100
AcDbEntity
  8
NOSNÉ KONSTRUKCE
100
AcDbLine
 10
2320.023234332521
 20
361.7005469959158
 30
0.0
 11
2320.023234332521
 21
364.0782227836944
 31
0.0
  0
LINE
  5
14DC
330
1F
100
AcDbEntity
  8
SPOJOVACÍ
100
AcDbLine
 10
2282.460746082894
 20
340.0677315717093
 30
0.0
 11
2284.163762800474
 21
337.8573102825639
 31
0.0
  0
LINE
  5
14DD
330
1F
100
AcDbEntity
  8
NOSNÉ KONSTRUKCE
100
AcDbLine
 10
2288.670518089012
 20
359.1744595639147
 30
0.0
 11
2288.670518089012
 21
306.6853822569291
 31
0.0
  0
LINE
  5
14DE
330
1F
100
AcDbEntity
  8
NOSNÉ KONSTRUKCE
100
AcDbLine
 10
2286.994357476355
 20
306.6853822569291
 30
0.0
 11
2286.994357476355
 21
359.1744595639147
 31
0.0
  0
LINE
  5
14DF
330
1F
100
AcDbEntity
  8
SPOJOVACÍ
100
AcDbLine
 10
2311.14299345506
 20
241.3003739860323
 30
0.0
 11
2328.01799345506
 21
241.3003739860323
 31
0.0
  0
TEXT
  5
14E0
330
1F
100
AcDbEntity
  8
POPIS
100
AcDbText
 10
2395.500059524208
 20
469.4964919942703
 30
0.0
 40
25.0
  1
09
 41
0.7
  7
SIMPLEX7
100
AcDbText
  0
TEXT
  5
14E1
330
1F
100
AcDbEntity
  8
POPIS
100
AcDbText
 10
2396.506466712881
 20
505.4210093920901
 30
0.0
 40
25.0
  1
06
 41
0.7
  7
SIMPLEX7
100
AcDbText
  0
TEXT
  5
14E2
330
1F
100
AcDbEntity
  8
POPIS
100
AcDbText
 10
2396.506466712881
 20
579.2887704788172
 30
0.0
 40
25.0
  1
04
 41
0.7
  7
SIMPLEX7
100
AcDbText
  0
TEXT
  5
14E3
330
1F
100
AcDbEntity
  8
POPIS
100
AcDbText
 10
2396.506466712881
 20
677.8446968412563
 30
0.0
 40
25.0
  1
01
 41
0.7
  7
SIMPLEX7
100
AcDbText
  0
TEXT
  5
14E4
330
1F
100
AcDbEntity
  8
POPIS
100
AcDbText
 10
2396.506466712881
 20
643.6789120427083
 30
0.0
 40
25.0
  1
03
 41
0.7
  7
SIMPLEX7
100
AcDbText
  0
TEXT
  5
14E5
330
1F
100
AcDbEntity
  8
POPIS
100
AcDbText
 10
1930.372250490155
 20
-385.6805993575035
 30
0.0
 40
25.0
  1
Rohový profil - klempířský výrobek
 41
0.7
  7
SIMPLEX7
100
AcDbText
  0
TEXT
  5
14E6
330
1F
100
AcDbEntity
  8
POPIS
100
AcDbText
 10
1876.028547330405
 20
-385.6805993575035
 30
0.0
 40
25.0
  1
08
 41
0.85
  7
SIMPLEX7
100
AcDbText
  0
TEXT
  5
14E7
330
1F
100
AcDbEntity
  8
POPIS
100
AcDbText
 10
2099.408198250817
 20
-113.8941541133126
 30
0.0
 40
12.0
  1
R
 41
0.85
  7
SIMPLEX7
100
AcDbText
  0
CIRCLE
  5
14E8
330
1F
100
AcDbEntity
  8
POPIS
100
AcDbCircle
 10
2103.79048176114
 20
-107.7839927453669
 30
0.0
 40
11.13656048292026
  0
LINE
  5
14E9
330
1F
100
AcDbEntity
  8
PROFILY
100
AcDbLine
 10
2214.706831306578
 20
434.4260523313486
 30
0.0
 11
2214.706831306578
 21
364.1774266832799
 31
0.0
  0
LINE
  5
14EA
330
1F
100
AcDbEntity
  8
PROFILY
100
AcDbLine
 10
2217.052104685101
 20
366.5110962383187
 30
0.0
 11
2217.052104685101
 21
434.4260523313496
 31
0.0
  0
LINE
  5
14EB
330
1F
100
AcDbEntity
  8
PROFILY
100
AcDbLine
 10
2285.200540535751
 20
364.1774266832781
 30
0.0
 11
2214.706831306578
 21
364.1774266832799
 31
0.0
  0
LINE
  5
14EC
330
1F
100
AcDbEntity
  8
PROFILY
100
AcDbLine
 10
2217.052104685101
 20
366.5110962383187
 30
0.0
 11
2285.200540535751
 21
366.5110962383187
 31
0.0
  0
LINE
  5
14ED
330
1F
100
AcDbEntity
  8
PROFILY
100
AcDbLine
 10
2285.200540535751
 20
366.5110962383187
 30
0.0
 11
2285.200540535751
 21
364.177426683279
 31
0.0
  0
LINE
  5
14EE
330
1F
100
AcDbEntity
  8
PROFILY
100
AcDbLine
 10
2217.052104685101
 20
434.4260523313496
 30
0.0
 11
2214.706831306581
 21
434.4260523313496
 31
0.0
  0
TEXT
  5
14EF
330
1F
100
AcDbEntity
  8
POPIS
100
AcDbText
 10
2395.500059524208
 20
403.0141688491258
 30
0.0
 40
25.0
  1
08
 41
0.7
  7
SIMPLEX7
100
AcDbText
  0
LINE
  5
14F0
330
1F
100
AcDbEntity
  8
POPIS
100
AcDbLine
 10
2257.362469082766
 20
415.3793015739029
 30
0.0
 11
2384.850501207055
 21
415.3778667948809
 31
0.0
  0
LINE
  5
14F1
330
1F
100
AcDbEntity
  8
POPIS
100
AcDbLine
 10
2257.362469082766
 20
415.3793015739029
 30
0.0
 11
2225.660052908165
 21
366.7030521976448
 31
0.0
  0
INSERT
  5
14F2
330
1F
100
AcDbEntity
  8
POPIS
100
AcDbBlockReference
  2
E_PUNKT
 10
2225.687663283791
 20
366.6739838667727
 30
0.0
 41
-1.0
  0
TEXT
  5
14F3
330
1F
100
AcDbEntity
  8
POPIS
100
AcDbText
 10
1802.781243650161
 20
840.2378174337718
 30
0.0
 40
50.0
  1
VNITŘNÍ ROH
 41
0.85
  7
SIMPLEX7
100
AcDbText
  0
TEXT
  5
14F4
330
1F
100
AcDbEntity
  8
POPIS
100
AcDbText
 10
1804.506396506999
 20
784.1691001377512
 30
0.0
 40
35.0
  1
PŮDORYS-ŘEŠENÍ S ROHOVÝM PROFILEM
 41
0.75
  7
SIMPLEX7
100
AcDbText
  0
LINE
  5
14F5
330
1F
100
AcDbEntity
  8
STAVBA OBRYS
  6
DASHED
100
AcDbLine
 10
2515.211363448218
 20
144.5262649098594
 30
0.0
 11
2515.211363448218
 21
304.8965961424846
 31
0.0
  0
LINE
  5
14F6
330
1F
100
AcDbEntity
  8
STAVBA OBRYS
  6
DASHED
100
AcDbLine
 10
2528.336363448218
 20
144.5262649098594
 30
0.0
 11
2528.336363448218
 21
304.8965961424846
 31
0.0
  0
LINE
  5
14F7
330
1F
100
AcDbEntity
  8
STAVBA OBRYS
  6
DASHED
100
AcDbLine
 10
2521.773863448218
 20
140.737403768303
 30
0.0
 11
2515.211363448218
 21
144.5262649098594
 31
0.0
  0
LINE
  5
14F8
330
1F
100
AcDbEntity
  8
STAVBA OBRYS
  6
DASHED
100
AcDbLine
 10
2521.773863448218
 20
140.737403768303
 30
0.0
 11
2528.336363448218
 21
144.5262649098594
 31
0.0
  0
LWPOLYLINE
  5
14F9
330
1F
100
AcDbEntity
  8
STAVBA OBRYS
  6
DASHED
100
AcDbPolyline
 90
        4
 70
     1
 43
0.0
 10
2546.833649457733
 20
310.2698774673381
 10
2546.833649457733
 20
304.8965961424846
 10
2496.71407743871
 20
304.8965961424846
 10
2496.71407743871
 20
310.2698774673381
  0
LINE
  5
14FA
330
1F
100
AcDbEntity
  8
STAVBA OBRYS
  6
DASHDOT2
100
AcDbLine
 10
2521.773863448218
 20
338.6548406441588
 30
0.0
 11
2521.773863448218
 21
125.8783515780605
 31
0.0
  0
HATCH
  5
14FB
330
1F
100
AcDbEntity
  8
NOSNÉ KONSTRUKCE
100
AcDbHatch
 10
0.0
 20
0.0
 30
0.0
210
0.0
220
0.0
230
1.0
  2
SOLID
 70
     1
 71
     0
 91
        6
 92
        7
 72
     0
 73
     1
 93
        4
 10
2313.01799345506
 20
228.5140607899474
 10
2290.380652753395
 20
228.5140607899466
 10
2290.380652753398
 20
225.4769418701289
 10
2313.017993455056
 20
225.4769418701289
 97
        0
 92
        7
 72
     0
 73
     1
 93
        4
 10
2319.58049345506
 20
228.5140607899484
 10
2313.017993455056
 20
228.5140607899474
 10
2313.017993455056
 20
225.4769418701289
 10
2319.580493455064
 20
225.4769418701289
 97
        0
 92
        7
 72
     0
 73
     1
 93
        4
 10
2326.14299345506
 20
228.5140607899484
 10
2319.580493455064
 20
228.5140607899484
 10
2319.580493455064
 20
225.4769418701289
 10
2326.142993455057
 20
225.4769418701289
 97
        0
 92
        7
 72
     1
 73
     1
 93
        5
 10
2341.167380092471
 20
228.4769418701344
 42
0.0030933321140477
 10
2341.167150447981
 20
228.5140607899493
 42
0.0
 10
2326.14299345506
 20
228.5140607899484
 42
0.0
 10
2326.142993455064
 20
225.4769418701289
 42
0.0
 10
2341.167380092471
 20
225.4769418701289
 42
0.0
 97
        0
 92
        7
 72
     0
 73
     1
 93
        4
 10
2290.380652753398
 20
268.5704194365389
 10
2288.943222342927
 20
268.5725370964792
 10
2288.943222342927
 20
225.4769418701289
 10
2290.380652753398
 20
225.4769418701289
 97
        0
 92
        7
 72
     0
 73
     1
 93
        4
 10
2290.380652753406
 20
309.8724093832679
 10
2288.943222342927
 20
309.8724093832679
 10
2288.943222342927
 20
268.5725370964792
 10
2290.380652753398
 20
268.5704194365389
 97
        0
 75
     0
 76
     1
 47
0.3080940520130233
 98
        6
 10
2301.798871771195
 20
227.176302621312
 10
2316.595461146275
 20
227.176302621312
 10
2322.452442585675
 20
227.4844025844904
 10
2330.775507414949
 20
227.7924849399423
 10
2289.776637339203
 20
231.1815317117252
 10
2289.776637339203
 20
280.1684750398526
  0
HATCH
  5
14FC
330
1F
100
AcDbEntity
  8
NOSNÉ KONSTRUKCE
100
AcDbHatch
 10
0.0
 20
0.0
 30
0.0
210
0.0
220
0.0
230
1.0
  2
SOLID
 70
     1
 71
     0
 91
        4
 92
        7
 72
     0
 73
     1
 93
        4
 10
2286.662165247314
 20
353.4998829887881
 10
2285.224734836835
 20
353.499882988789
 10
2285.224734836839
 20
342.2781528608538
 10
2286.662165247314
 20
342.2781528608538
 97
        0
 92
        7
 72
     0
 73
     1
 93
        4
 10
2290.380652753409
 20
353.499882988789
 10
2288.943222342934
 20
353.499882988789
 10
2288.943222342934
 20
342.2781528608538
 10
2290.380652753409
 20
342.2781528608538
 97
        0
 92
        7
 72
     0
 73
     1
 93
        4
 10
2290.380652753406
 20
337.8573102825639
 10
2288.943222342934
 20
337.8573102825639
 10
2288.943222342934
 20
309.8724093832679
 10
2290.380652753406
 20
309.8724093832679
 97
        0
 92
        7
 72
     0
 73
     1
 93
        4
 10
2286.662165247314
 20
337.8573102825639
 10
2285.224734836835
 20
337.8573102825639
 10
2285.224734836839
 20
309.8724093832679
 10
2286.662165247314
 20
309.8724093832679
 97
        0
 75
     0
 76
     1
 47
0.1592723572117705
 98
        4
 10
2285.842799095759
 20
348.5875144110941
 10
2289.826764484033
 20
347.7911522477297
 10
2289.508046065824
 20
332.3417297999476
 10
2285.683425047357
 20
328.8377398026787
  0
HATCH
  5
14FD
330
1F
100
AcDbEntity
  8
NOSNÉ KONSTRUKCE
100
AcDbHatch
 10
0.0
 20
0.0
 30
0.0
210
0.0
220
0.0
230
1.0
  2
SOLID
 70
     1
 71
     0
 91
        1
 92
        7
 72
     0
 73
     1
 93
        6
 10
2286.662165247314
 20
309.8724093832679
 10
2285.224734836839
 20
309.8724093832679
 10
2285.224734836839
 20
299.1298830194864
 10
2288.943222342927
 20
293.4733381889564
 10
2288.943222342927
 20
296.2656964608577
 10
2286.662165247314
 20
300.2708048208696
 97
        0
 75
     0
 76
     1
 47
0.1278280300421985
 98
        1
 10
2286.259189765968
 20
301.4832065934788
  0
HATCH
  5
14FE
330
1F
100
AcDbEntity
  8
NOSNÉ KONSTRUKCE
100
AcDbHatch
 10
0.0
 20
0.0
 30
0.0
210
0.0
220
0.0
230
1.0
  2
SOLID
 70
     1
 71
     0
 91
       11
 92
        7
 72
     0
 73
     1
 93
        4
 10
2076.00870997014
 20
471.6602770003564
 10
2078.971591050324
 20
471.6602770003573
 10
2078.971591050324
 20
487.3931389558265
 10
2076.00870997014
 20
485.5586744795491
 97
        0
 92
        7
 72
     0
 73
     1
 93
        4
 10
2078.971591050321
 20
471.6602770003573
 10
2076.00870997014
 20
471.6602770003573
 10
2076.00870997014
 20
465.0977770003582
 10
2078.971591050324
 20
465.0977770003591
 97
        0
 92
        7
 72
     0
 73
     1
 93
        4
 10
2076.00870997014
 20
458.5352770003574
 10
2078.971591050324
 20
458.5352770003574
 10
2078.971591050324
 20
465.0977770003573
 10
2076.00870997014
 20
465.0977770003573
 97
        0
 92
        7
 72
     0
 73
     1
 93
        4
 10
2078.971591050324
 20
458.5352770003574
 10
2076.008709970137
 20
458.5352770003574
 10
2076.008709970137
 20
439.7044133308191
 10
2078.971591050321
 20
439.7044133308181
 97
        0
 92
        7
 72
     0
 73
     1
 93
        4
 10
2076.008709970137
 20
439.70441333082
 10
2076.008709970137
 20
438.2669829203432
 10
2117.690045213642
 20
438.2669829203459
 10
2117.692162873586
 20
439.7044133308217
 97
        0
 92
        7
 72
     0
 73
     1
 93
        4
 10
2159.518410074447
 20
438.2669829203487
 10
2159.518410074443
 20
439.7044133308245
 10
2117.692162873578
 20
439.7044133308217
 10
2117.690045213638
 20
438.2669829203459
 97
        0
 92
        7
 72
     0
 73
     1
 93
        6
 10
2150.765454001065
 20
435.9859258247325
 10
2146.76034564106
 20
438.2669829203496
 10
2143.967987369145
 20
438.2669829203505
 10
2149.624532199682
 20
434.5484954142575
 10
2159.518410074447
 20
434.5484954142575
 10
2159.518410074447
 20
435.9859258247325
 97
        0
 92
        7
 72
     0
 73
     1
 93
        4
 10
2188.35195946276
 20
434.5484954142575
 10
2188.35195946276
 20
435.9859258247325
 10
2159.518410074447
 20
435.9859258247325
 10
2159.518410074447
 20
434.5484954142575
 97
        0
 92
        7
 72
     0
 73
     1
 93
        4
 10
2159.518410074447
 20
439.7044133308254
 10
2159.518410074451
 20
438.2669829203496
 10
2188.35195946276
 20
438.2669829203514
 10
2188.35195946276
 20
439.7044133308273
 97
        0
 92
        7
 72
     0
 73
     1
 93
        4
 10
2192.772802041053
 20
439.7044133308273
 10
2192.772802041053
 20
438.2669829203514
 10
2203.99453216899
 20
438.2669829203542
 10
2203.994532168987
 20
439.7044133308281
 97
        0
 92
        7
 72
     0
 73
     1
 93
        4
 10
2192.772802041056
 20
435.9859258247325
 10
2192.772802041053
 20
434.5484954142566
 10
2203.994532168987
 20
434.5484954142575
 10
2203.994532168983
 20
435.9859258247316
 97
        0
 75
     0
 76
     1
 47
0.2286367050032537
 98
       11
 10
2076.984326705121
 20
478.1618609607794
 10
2078.128110029381
 20
469.2450275539559
 10
2077.213059627097
 20
461.7000295701036
 10
2077.670584828239
 20
445.9240894793293
 10
2079.958210833948
 20
439.2936190979162
 10
2134.860997542181
 20
438.8363464928334
 10
2153.390679152634
 20
435.6354382572608
 10
2168.488921754523
 20
434.9495293496365
 10
2170.31902255909
 20
439.2936190979162
 10
2200.286774840892
 20
439.0649827953748
 10
2198.45670371492
 20
435.4068019547193
  0
LINE
  5
14FF
330
1F
100
AcDbEntity
  8
STAVBA OBRYS
100
AcDbLine
 10
1829.415839395492
 20
-19.52305812987106
 30
0.0
 11
1829.415839395503
 21
693.428059722366
 31
0.0
  0
LINE
  5
1500
330
1F
100
AcDbEntity
  8
STAVBA OBRYS
100
AcDbLine
 10
1829.415839395503
 20
693.428059722366
 30
0.0
 11
1839.415839395503
 21
693.428059722366
 31
0.0
  0
LINE
  5
1501
330
1F
100
AcDbEntity
  8
STAVBA OBRYS
100
AcDbLine
 10
1829.415839395492
 20
-19.52305812987106
 30
0.0
 11
2583.226116836164
 21
-19.52305812987106
 31
0.0
  0
LINE
  5
1502
330
1F
100
AcDbEntity
  8
STAVBA OBRYS
100
AcDbLine
 10
2583.226116836164
 20
-9.52305812987106
 30
0.0
 11
2583.226116836164
 21
-19.52305812987106
 31
0.0
  0
HATCH
  5
1503
330
1F
100
AcDbEntity
  8
STAVBA OBRYS
100
AcDbHatch
 10
0.0
 20
0.0
 30
0.0
210
0.0
220
0.0
230
1.0
  2
AR-SAND
 70
     0
 71
     0
 91
        1
 92
        7
 72
     0
 73
     1
 93
        6
 10
1839.415839395496
 20
332.9907146645309
 10
1829.415839395492
 20
343.1658816410581
 10
1829.415839395492
 20
-19.52305812987106
 10
2185.861036420468
 20
-19.52305812987106
 10
2176.033187872063
 20
-9.52305812987106
 10
1839.415839395488
 20
-9.52305812987106
 97
        0
 75
     0
 76
     1
 52
0.0
 41
0.1
 77
     0
 78
     4
 53
37.5
 43
-11802.31398163939
 44
1662.466326468791
 45
-0.1600031295984046
 46
4.894132373293423
 79
     6
 49
0.0
 49
-3.8608
 49
0.0
 49
-4.318
 49
0.0
 49
-4.1275
 53
7.499999999999999
 43
-11802.31398163939
 44
1662.466326468791
 45
4.495232831380026
 46
7.168251005683543
 79
     6
 49
0.0
 49
-2.0828
 49
0.0
 49
-3.4798
 49
0.0
 49
-1.3335
 53
327.4999999999999
 43
-11805.43818163939
 44
1662.466326468791
 45
7.909923702414579
 46
0.0143718467854569
 79
     6
 49
0.0
 49
-1.27
 49
0.0
 49
-4.572
 49
0.0
 49
-5.969
 53
317.5
 43
-11805.43818163939
 44
1662.466326468791
 45
7.635564524722972
 46
2.229293232572162
 79
     6
 49
0.0
 49
-0.635
 49
0.0
 49
-2.997199999999999
 49
0.0
 49
-3.429
 47
1.072953267924302
 98
        1
 10
1832.537404082179
 20
32.43827907658124
  0
HATCH
  5
1504
330
1F
100
AcDbEntity
  8
STAVBA OBRYS
100
AcDbHatch
 10
0.0
 20
0.0
 30
0.0
210
0.0
220
0.0
230
1.0
  2
AR-SAND
 70
     0
 71
     0
 91
        1
 92
        7
 72
     0
 73
     1
 93
        5
 10
2583.226116836164
 20
-9.52305812987106
 10
2296.940893482077
 20
-9.52305812987106
 10
2176.033187872063
 20
-9.52305812987106
 10
2185.861036420468
 20
-19.52305812987106
 10
2583.226116836164
 20
-19.52305812987106
 97
        0
 75
     0
 76
     1
 52
0.0
 41
0.1
 77
     0
 78
     4
 53
37.5
 43
-11802.31398163939
 44
1662.466326468791
 45
-0.1600031295984046
 46
4.894132373293423
 79
     6
 49
0.0
 49
-3.8608
 49
0.0
 49
-4.318
 49
0.0
 49
-4.1275
 53
7.499999999999999
 43
-11802.31398163939
 44
1662.466326468791
 45
4.495232831380026
 46
7.168251005683543
 79
     6
 49
0.0
 49
-2.0828
 49
0.0
 49
-3.4798
 49
0.0
 49
-1.3335
 53
327.4999999999999
 43
-11805.43818163939
 44
1662.466326468791
 45
7.909923702414579
 46
0.0143718467854569
 79
     6
 49
0.0
 49
-1.27
 49
0.0
 49
-4.572
 49
0.0
 49
-5.969
 53
317.5
 43
-11805.43818163939
 44
1662.466326468791
 45
7.635564524722972
 46
2.229293232572162
 79
     6
 49
0.0
 49
-0.635
 49
0.0
 49
-2.997199999999999
 49
0.0
 49
-3.429
 47
0.4508345885710983
 98
        1
 10
2438.900687468015
 20
-17.19865878226119
  0
HATCH
  5
1505
330
1F
100
AcDbEntity
  8
STAVBA OBRYS
100
AcDbHatch
 10
0.0
 20
0.0
 30
0.0
210
0.0
220
0.0
230
1.0
  2
AR-SAND
 70
     0
 71
     0
 91
        1
 92
        7
 72
     0
 73
     1
 93
        4
 10
1839.415839395499
 20
693.428059722366
 10
1829.415839395496
 20
693.428059722366
 10
1829.415839395496
 20
343.165881641059
 10
1839.415839395496
 20
332.9907146645309
 97
        0
 75
     0
 76
     1
 52
0.0
 41
0.1
 77
     0
 78
     4
 53
37.5
 43
-11802.31398163939
 44
1662.466326468791
 45
-0.1600031295984046
 46
4.894132373293423
 79
     6
 49
0.0
 49
-3.8608
 49
0.0
 49
-4.318
 49
0.0
 49
-4.1275
 53
7.499999999999999
 43
-11802.31398163939
 44
1662.466326468791
 45
4.495232831380026
 46
7.168251005683543
 79
     6
 49
0.0
 49
-2.0828
 49
0.0
 49
-3.4798
 49
0.0
 49
-1.3335
 53
327.4999999999999
 43
-11805.43818163939
 44
1662.466326468791
 45
7.909923702414579
 46
0.0143718467854569
 79
     6
 49
0.0
 49
-1.27
 49
0.0
 49
-4.572
 49
0.0
 49
-5.969
 53
317.5
 43
-11805.43818163939
 44
1662.466326468791
 45
7.635564524722972
 46
2.229293232572162
 79
     6
 49
0.0
 49
-0.635
 49
0.0
 49
-2.997199999999999
 49
0.0
 49
-3.429
 47
0.5688859858000485
 98
        1
 10
1834.187172260443
 20
513.5143909324397
  0
TEXT
  5
15A7
330
1F
100
AcDbEntity
  8
POPIS
100
AcDbText
 10
1931.720311580066
 20
-507.5034039023084
 30
0.0
 40
25.0
  1
Podkladní EPDM páska tl.1 mm
 41
0.7
  7
SIMPLEX7
100
AcDbText
  0
TEXT
  5
15A8
330
1F
100
AcDbEntity
  8
POPIS
100
AcDbText
 10
1877.376608420323
 20
-507.5034039023084
 30
0.0
 40
25.0
  1
09
 41
0.85
  7
SIMPLEX7
100
AcDbText
  0
LINE
  5
15A9
330
1F
100
AcDbEntity
  8
POPIS
100
AcDbLine
 10
2280.148797421194
 20
315.3396618171272
 30
0.0
 11
2215.754512674697
 21
315.3396618171272
 31
0.0
  0
INSERT
  5
15AA
330
1F
100
AcDbEntity
  8
POPIS
100
AcDbBlockReference
  2
_ArchTick
 10
2270.857581338324
 20
315.3396618171272
 30
0.0
 41
15.0
 42
15.0
 43
15.0
  0
LINE
  5
15AB
330
1F
100
AcDbEntity
  8
POPIS
100
AcDbLine
 10
2245.340435033269
 20
311.0545043428678
 30
0.0
 11
2245.340435033269
 21
352.3485719657687
 31
0.0
  0
TEXT
  5
15AC
330
1F
100
AcDbEntity
  8
POPIS
100
AcDbText
 10
2215.74132685884
 20
320.9495722094192
 30
0.0
 40
25.0
  1
35
 41
0.7
  7
SIMPLEX7
100
AcDbText
  0
INSERT
  5
15AD
330
1F
100
AcDbEntity
  8
POPIS
100
AcDbBlockReference
  2
_ArchTick
 10
2245.340435033269
 20
315.3396618171272
 30
0.0
 41
15.0
 42
15.0
 43
15.0
 50
180.0
  0
LINE
  5
15AE
330
1F
100
AcDbEntity
  8
POPIS
100
AcDbLine
 10
2270.857581338324
 20
308.8655621098654
 30
0.0
 11
2270.857581338324
 21
352.3485719657687
 31
0.0
  0
LINE
  5
15AF
330
1F
100
AcDbEntity
  8
PROFILY
100
AcDbLine
 10
2215.33746446989
 20
405.430719140664
 30
0.0
 11
2215.33746446989
 21
469.5101026518009
 31
0.0
  0
LINE
  5
15B0
330
1F
100
AcDbEntity
  8
PROFILY
  6
DASHED
370
    40
100
AcDbLine
 10
2215.53746446989
 20
405.4343520928893
 30
0.0
 11
2215.53746446989
 21
469.5101026518009
 31
0.0
  0
LINE
  5
15B1
330
1F
100
AcDbEntity
  8
PROFILY
100
AcDbLine
 10
2215.73746446989
 20
405.4379850451145
 30
0.0
 11
2215.73746446989
 21
469.5101026518009
 31
0.0
  0
LINE
  5
15B8
330
1F
100
AcDbEntity
  8
PROFILY
100
AcDbLine
 10
2256.362382923307
 20
365.7328770776339
 30
0.0
 11
2320.441766434444
 21
365.7328770776341
 31
0.0
  0
LINE
  5
15B9
330
1F
100
AcDbEntity
  8
PROFILY
  6
DASHED
370
    40
100
AcDbLine
 10
2256.366015875532
 20
365.5328770776341
 30
0.0
 11
2320.441766434444
 21
365.5328770776341
 31
0.0
  0
LINE
  5
15BA
330
1F
100
AcDbEntity
  8
PROFILY
100
AcDbLine
 10
2256.369648827758
 20
365.3328770776342
 30
0.0
 11
2320.441766434444
 21
365.3328770776345
 31
0.0
  0
LINE
  5
15BB
330
1F
100
AcDbEntity
  8
POPIS
100
AcDbLine
 10
2257.362469082766
 20
450.2026709361366
 30
0.0
 11
2384.850501207055
 21
450.2012361571146
 31
0.0
  0
TEXT
  5
15BC
330
1F
100
AcDbEntity
  8
POPIS
100
AcDbText
 10
2395.500059524208
 20
437.8375382113595
 30
0.0
 40
25.0
  1
02
 41
0.7
  7
SIMPLEX7
100
AcDbText
  0
LINE
  5
15BD
330
1F
100
AcDbEntity
  8
POPIS
100
AcDbLine
 10
2257.362469082766
 20
481.8616247190475
 30
0.0
 11
2215.73746446989
 21
436.8530102812766
 31
0.0
  0
INSERT
  5
15BE
330
1F
100
AcDbEntity
  8
POPIS
100
AcDbBlockReference
  2
E_PUNKT
 10
2215.310945604348
 20
438.0236045247338
 30
0.0
 41
-1.0
  0
ENDSEC
  0
SECTION
  2
OBJECTS
  0
DICTIONARY
  5
C
330
0
100
AcDbDictionary
281
     1
  3
ACAD_GROUP
350
D
  3
ACAD_LAYOUT
350
1A
  3
ACAD_MLINESTYLE
350
17
  3
ACAD_PLOTSETTINGS
350
19
  3
ACAD_PLOTSTYLENAME
350
E
  3
AcDbVariableDictionary
350
15C1
  0
DICTIONARY
  5
1507
330
1F
100
AcDbDictionary
280
     1
281
     1
  3
ACAD_LAYOUTSELFREF
360
1588
  0
DICTIONARY
  5
1509
330
1B
100
AcDbDictionary
280
     1
281
     1
  3
ACAD_LAYOUTSELFREF
360
1587
  0
DICTIONARY
  5
150B
330
23
100
AcDbDictionary
280
     1
281
     1
  3
ACAD_LAYOUTSELFREF
360
1589
  0
DICTIONARY
  5
D
102
{ACAD_REACTORS
330
C
102
}
330
C
100
AcDbDictionary
281
     1
  0
DICTIONARY
  5
1A
102
{ACAD_REACTORS
330
C
102
}
330
C
100
AcDbDictionary
281
     1
  3
Model
350
22
  3
Rozvržení1
350
1E
  3
Rozvržení2
350
26
  0
DICTIONARY
  5
17
102
{ACAD_REACTORS
330
C
102
}
330
C
100
AcDbDictionary
281
     1
  3
Standard
350
18
  0
DICTIONARY
  5
19
102
{ACAD_REACTORS
330
C
102
}
330
C
100
AcDbDictionary
281
     1
  0
ACDBDICTIONARYWDFLT
  5
E
102
{ACAD_REACTORS
330
C
102
}
330
C
100
AcDbDictionary
281
     1
  3
Normal
350
F
100
AcDbDictionaryWithDefault
340
F
  0
DICTIONARY
  5
15C1
102
{ACAD_REACTORS
330
C
102
}
330
C
100
AcDbDictionary
281
     1
  3
DIMASSOC
350
15C2
  0
XRECORD
  5
1588
102
{ACAD_REACTORS
330
1507
102
}
330
1507
100
AcDbXrecord
280
     1
340
1F
  0
XRECORD
  5
1587
102
{ACAD_REACTORS
330
1509
102
}
330
1509
100
AcDbXrecord
280
     1
340
1B
  0
XRECORD
  5
1589
102
{ACAD_REACTORS
330
150B
102
}
330
150B
100
AcDbXrecord
280
     1
340
23
  0
LAYOUT
  5
22
102
{ACAD_REACTORS
330
1A
102
}
330
1A
100
AcDbPlotSettings
  1

  2
HP DeskJet 690C
  4

  6

 40
0.0
 41
0.0
 42
0.0
 43
0.0
 44
0.0
 45
0.0
 46
0.0
 47
0.0
 48
0.0
 49
0.0
140
0.0
141
0.0
142
1.0
143
1.0
 70
  1712
 72
     0
 73
     0
 74
     0
  7
monochrome.ctb
 75
     0
147
1.0
148
0.0
149
0.0
100
AcDbLayout
  1
Model
 70
     1
 71
     0
 10
0.0
 20
0.0
 11
12.0
 21
9.0
 12
0.0
 22
0.0
 32
0.0
 14
0.0
 24
0.0
 34
0.0
 15
0.0
 25
0.0
 35
0.0
146
0.0
 13
0.0
 23
0.0
 33
0.0
 16
1.0
 26
0.0
 36
0.0
 17
0.0
 27
1.0
 37
0.0
 76
     0
330
1F
  0
LAYOUT
  5
1E
102
{ACAD_REACTORS
330
1A
102
}
330
1A
100
AcDbPlotSettings
  1

  2
HP DeskJet 690C
  4

  6

 40
0.0
 41
0.0
 42
0.0
 43
0.0
 44
0.0
 45
0.0
 46
0.0
 47
0.0
 48
0.0
 49
0.0
140
0.0
141
0.0
142
1.0
143
1.0
 70
   688
 72
     0
 73
     0
 74
     5
  7
monochrome.ctb
 75
    16
147
1.0
148
0.0
149
0.0
100
AcDbLayout
  1
Rozvržení1
 70
     1
 71
     1
 10
0.0
 20
0.0
 11
420.0
 21
297.0
 12
0.0
 22
0.0
 32
0.0
 14
1.000000000000000E+20
 24
1.000000000000000E+20
 34
1.000000000000000E+20
 15
-1.000000000000000E+20
 25
-1.000000000000000E+20
 35
-1.000000000000000E+20
146
0.0
 13
0.0
 23
0.0
 33
0.0
 16
1.0
 26
0.0
 36
0.0
 17
0.0
 27
1.0
 37
0.0
 76
     0
330
1B
  0
LAYOUT
  5
26
102
{ACAD_REACTORS
330
1A
102
}
330
1A
100
AcDbPlotSettings
  1

  2
HP DeskJet 690C
  4

  6

 40
0.0
 41
0.0
 42
0.0
 43
0.0
 44
0.0
 45
0.0
 46
0.0
 47
0.0
 48
0.0
 49
0.0
140
0.0
141
0.0
142
1.0
143
1.0
 70
   688
 72
     0
 73
     0
 74
     5
  7
monochrome.ctb
 75
    16
147
1.0
148
0.0
149
0.0
100
AcDbLayout
  1
Rozvržení2
 70
     1
 71
     2
 10
0.0
 20
0.0
 11
12.0
 21
9.0
 12
0.0
 22
0.0
 32
0.0
 14
0.0
 24
0.0
 34
0.0
 15
0.0
 25
0.0
 35
0.0
146
0.0
 13
0.0
 23
0.0
 33
0.0
 16
1.0
 26
0.0
 36
0.0
 17
0.0
 27
1.0
 37
0.0
 76
     0
330
23
  0
MLINESTYLE
  5
18
102
{ACAD_REACTORS
330
17
102
}
330
17
100
AcDbMlineStyle
  2
STANDARD
 70
     0
  3

 62
   256
 51
90.0
 52
90.0
 71
     2
 49
0.5
 62
   256
  6
BYLAYER
 49
-0.5
 62
   256
  6
BYLAYER
  0
ACDBPLACEHOLDER
  5
F
102
{ACAD_REACTORS
330
E
102
}
330
E
  0
DICTIONARYVAR
  5
15C2
102
{ACAD_REACTORS
330
15C1
102
}
330
15C1
100
DictionaryVariables
280
     0
  1
1
  0
ENDSEC
  0
EOF
