  0
SECTION
  2
HEADER
  9
$ACADVER
  1
AC1015
  9
$ACADMAINTVER
 70
    13
  9
$DWGCODEPAGE
  3
ANSI_1250
  9
$INSBASE
 10
0.0
 20
0.0
 30
0.0
  9
$EXTMIN
 10
1339.928927347682
 20
-565.9216424437554
 30
-0.0000000349181948
  9
$EXTMAX
 10
2168.143655142615
 20
886.7344686776204
 30
0.0000000814935746
  9
$LIMMIN
 10
0.0
 20
0.0
  9
$LIMMAX
 10
420.0
 20
297.0
  9
$ORTHOMODE
 70
     0
  9
$REGENMODE
 70
     1
  9
$FILLMODE
 70
     1
  9
$QTEXTMODE
 70
     0
  9
$MIRRTEXT
 70
     1
  9
$LTSCALE
 40
1.0
  9
$ATTMODE
 70
     1
  9
$TEXTSIZE
 40
2.5
  9
$TRACEWID
 40
1.0
  9
$TEXTSTYLE
  7
Standard
  9
$CLAYER
  8
0
  9
$CELTYPE
  6
ByLayer
  9
$CECOLOR
 62
   256
  9
$CELTSCALE
 40
1.0
  9
$DISPSILH
 70
     0
  9
$DIMSCALE
 40
1.0
  9
$DIMASZ
 40
2.5
  9
$DIMEXO
 40
0.625
  9
$DIMDLI
 40
3.75
  9
$DIMRND
 40
0.0
  9
$DIMDLE
 40
0.0
  9
$DIMEXE
 40
1.25
  9
$DIMTP
 40
0.0
  9
$DIMTM
 40
0.0
  9
$DIMTXT
 40
2.5
  9
$DIMCEN
 40
2.5
  9
$DIMTSZ
 40
0.0
  9
$DIMTOL
 70
     0
  9
$DIMLIM
 70
     0
  9
$DIMTIH
 70
     0
  9
$DIMTOH
 70
     0
  9
$DIMSE1
 70
     0
  9
$DIMSE2
 70
     0
  9
$DIMTAD
 70
     1
  9
$DIMZIN
 70
     8
  9
$DIMBLK
  1

  9
$DIMASO
 70
     1
  9
$DIMSHO
 70
     1
  9
$DIMPOST
  1

  9
$DIMAPOST
  1

  9
$DIMALT
 70
     0
  9
$DIMALTD
 70
     3
  9
$DIMALTF
 40
0.03937007874016
  9
$DIMLFAC
 40
1.0
  9
$DIMTOFL
 70
     1
  9
$DIMTVP
 40
0.0
  9
$DIMTIX
 70
     0
  9
$DIMSOXD
 70
     0
  9
$DIMSAH
 70
     0
  9
$DIMBLK1
  1

  9
$DIMBLK2
  1

  9
$DIMSTYLE
  2
ISO-25
  9
$DIMCLRD
 70
     0
  9
$DIMCLRE
 70
     0
  9
$DIMCLRT
 70
     0
  9
$DIMTFAC
 40
1.0
  9
$DIMGAP
 40
0.625
  9
$DIMJUST
 70
     0
  9
$DIMSD1
 70
     0
  9
$DIMSD2
 70
     0
  9
$DIMTOLJ
 70
     0
  9
$DIMTZIN
 70
     8
  9
$DIMALTZ
 70
     0
  9
$DIMALTTZ
 70
     0
  9
$DIMUPT
 70
     0
  9
$DIMDEC
 70
     2
  9
$DIMTDEC
 70
     2
  9
$DIMALTU
 70
     2
  9
$DIMALTTD
 70
     3
  9
$DIMTXSTY
  7
Standard
  9
$DIMAUNIT
 70
     0
  9
$DIMADEC
 70
     0
  9
$DIMALTRND
 40
0.0
  9
$DIMAZIN
 70
     0
  9
$DIMDSEP
 70
    44
  9
$DIMATFIT
 70
     3
  9
$DIMFRAC
 70
     0
  9
$DIMLDRBLK
  1

  9
$DIMLUNIT
 70
     2
  9
$DIMLWD
 70
    -2
  9
$DIMLWE
 70
    -2
  9
$DIMTMOVE
 70
     0
  9
$LUNITS
 70
     2
  9
$LUPREC
 70
     4
  9
$SKETCHINC
 40
1.0
  9
$FILLETRAD
 40
10.0
  9
$AUNITS
 70
     0
  9
$AUPREC
 70
     0
  9
$MENU
  1
.
  9
$ELEVATION
 40
0.0
  9
$PELEVATION
 40
0.0
  9
$THICKNESS
 40
0.0
  9
$LIMCHECK
 70
     0
  9
$CHAMFERA
 40
10.0
  9
$CHAMFERB
 40
10.0
  9
$CHAMFERC
 40
20.0
  9
$CHAMFERD
 40
0.0
  9
$SKPOLY
 70
     0
  9
$TDCREATE
 40
2452334.465307870
  9
$TDUCREATE
 40
2452334.423641203
  9
$TDUPDATE
 40
2455595.893776215
  9
$TDUUPDATE
 40
2455595.852109548
  9
$TDINDWG
 40
0.0050159144
  9
$TDUSRTIMER
 40
0.0050159144
  9
$USRTIMER
 70
     1
  9
$ANGBASE
 50
0.0
  9
$ANGDIR
 70
     0
  9
$PDMODE
 70
     0
  9
$PDSIZE
 40
0.0
  9
$PLINEWID
 40
0.0
  9
$SPLFRAME
 70
     0
  9
$SPLINETYPE
 70
     6
  9
$SPLINESEGS
 70
     8
  9
$HANDSEED
  5
C7D
  9
$SURFTAB1
 70
     6
  9
$SURFTAB2
 70
     6
  9
$SURFTYPE
 70
     6
  9
$SURFU
 70
     6
  9
$SURFV
 70
     6
  9
$UCSBASE
  2

  9
$UCSNAME
  2

  9
$UCSORG
 10
0.0
 20
0.0
 30
0.0
  9
$UCSXDIR
 10
1.0
 20
0.0
 30
0.0
  9
$UCSYDIR
 10
0.0
 20
1.0
 30
0.0
  9
$UCSORTHOREF
  2

  9
$UCSORTHOVIEW
 70
     0
  9
$UCSORGTOP
 10
0.0
 20
0.0
 30
0.0
  9
$UCSORGBOTTOM
 10
0.0
 20
0.0
 30
0.0
  9
$UCSORGLEFT
 10
0.0
 20
0.0
 30
0.0
  9
$UCSORGRIGHT
 10
0.0
 20
0.0
 30
0.0
  9
$UCSORGFRONT
 10
0.0
 20
0.0
 30
0.0
  9
$UCSORGBACK
 10
0.0
 20
0.0
 30
0.0
  9
$PUCSBASE
  2

  9
$PUCSNAME
  2

  9
$PUCSORG
 10
0.0
 20
0.0
 30
0.0
  9
$PUCSXDIR
 10
1.0
 20
0.0
 30
0.0
  9
$PUCSYDIR
 10
0.0
 20
1.0
 30
0.0
  9
$PUCSORTHOREF
  2

  9
$PUCSORTHOVIEW
 70
     0
  9
$PUCSORGTOP
 10
0.0
 20
0.0
 30
0.0
  9
$PUCSORGBOTTOM
 10
0.0
 20
0.0
 30
0.0
  9
$PUCSORGLEFT
 10
0.0
 20
0.0
 30
0.0
  9
$PUCSORGRIGHT
 10
0.0
 20
0.0
 30
0.0
  9
$PUCSORGFRONT
 10
0.0
 20
0.0
 30
0.0
  9
$PUCSORGBACK
 10
0.0
 20
0.0
 30
0.0
  9
$USERI1
 70
     0
  9
$USERI2
 70
     0
  9
$USERI3
 70
     0
  9
$USERI4
 70
     0
  9
$USERI5
 70
     0
  9
$USERR1
 40
0.0
  9
$USERR2
 40
0.0
  9
$USERR3
 40
0.0
  9
$USERR4
 40
0.0
  9
$USERR5
 40
0.0
  9
$WORLDVIEW
 70
     1
  9
$SHADEDGE
 70
     3
  9
$SHADEDIF
 70
    70
  9
$TILEMODE
 70
     1
  9
$MAXACTVP
 70
    48
  9
$PINSBASE
 10
0.0
 20
0.0
 30
0.0
  9
$PLIMCHECK
 70
     0
  9
$PEXTMIN
 10
1.000000000000000E+20
 20
1.000000000000000E+20
 30
1.000000000000000E+20
  9
$PEXTMAX
 10
-1.000000000000000E+20
 20
-1.000000000000000E+20
 30
-1.000000000000000E+20
  9
$PLIMMIN
 10
0.0
 20
0.0
  9
$PLIMMAX
 10
420.0
 20
297.0
  9
$UNITMODE
 70
     0
  9
$VISRETAIN
 70
     1
  9
$PLINEGEN
 70
     0
  9
$PSLTSCALE
 70
     1
  9
$TREEDEPTH
 70
  3020
  9
$CMLSTYLE
  2
Standard
  9
$CMLJUST
 70
     0
  9
$CMLSCALE
 40
20.0
  9
$PROXYGRAPHICS
 70
     1
  9
$MEASUREMENT
 70
     1
  9
$CELWEIGHT
370
    -1
  9
$ENDCAPS
280
     0
  9
$JOINSTYLE
280
     0
  9
$LWDISPLAY
290
     0
  9
$INSUNITS
 70
     4
  9
$HYPERLINKBASE
  1

  9
$STYLESHEET
  1

  9
$XEDIT
290
     1
  9
$CEPSNTYPE
380
     0
  9
$PSTYLEMODE
290
     1
  9
$FINGERPRINTGUID
  2
{4216A968-507C-4CB8-873B-AD6C9E89F3B1}
  9
$VERSIONGUID
  2
{6CFFDCC9-778F-41CE-994D-AEB902002120}
  9
$EXTNAMES
290
     1
  9
$PSVPSCALE
 40
0.0
  9
$OLESTARTUP
290
     0
  0
ENDSEC
  0
SECTION
  2
CLASSES
  0
CLASS
  1
ACDBDICTIONARYWDFLT
  2
AcDbDictionaryWithDefault
  3
AutoCAD 2000
 90
        0
280
     0
281
     0
  0
CLASS
  1
ACDBPLACEHOLDER
  2
AcDbPlaceHolder
  3
AutoCAD 2000
 90
        0
280
     0
281
     0
  0
CLASS
  1
LAYOUT
  2
AcDbLayout
  3
AutoCAD 2000
 90
        0
280
     0
281
     0
  0
CLASS
  1
LONG_TRANSACTION
  2
AcDbLongTransaction
  3
AutoCAD 2000
 90
    32768
280
     0
281
     0
  0
CLASS
  1
LWPOLYLINE
  2
AcDbPolyline
  3
AutoCAD 2000
 90
    32768
280
     0
281
     1
  0
CLASS
  1
HATCH
  2
AcDbHatch
  3
AutoCAD 2000
 90
    32768
280
     0
281
     1
  0
CLASS
  1
XRECORD
  2
AcDbXrecord
  3
AutoCAD 2000
 90
    32768
280
     0
281
     0
  0
CLASS
  1
LONG_TRANSACTION
  2
AcDbLongTransaction
  3
AutoCAD 2000
 90
    32768
280
     0
281
     0
  0
CLASS
  1
LWPOLYLINE
  2
AcDbPolyline
  3
AutoCAD 2000
 90
    32768
280
     0
281
     1
  0
CLASS
  1
HATCH
  2
AcDbHatch
  3
AutoCAD 2000
 90
    32768
280
     0
281
     1
  0
CLASS
  1
XRECORD
  2
AcDbXrecord
  3
AutoCAD 2000
 90
    32768
280
     0
281
     0
  0
CLASS
  1
DICTIONARYVAR
  2
AcDbDictionaryVar
  3
AutoCAD 2000
 90
        0
280
     0
281
     0
  0
ENDSEC
  0
SECTION
  2
TABLES
  0
TABLE
  2
VPORT
  5
8
330
0
100
AcDbSymbolTable
 70
     2
  0
VPORT
  5
C7C
330
8
100
AcDbSymbolTableRecord
100
AcDbViewportTableRecord
  2
*Active
 70
     0
 10
0.0
 20
0.0
 11
1.0
 21
1.0
 12
1754.036291245149
 22
160.4064131169325
 13
0.0
 23
0.0
 14
10.0
 24
10.0
 15
10.0
 25
10.0
 16
0.0
 26
0.0
 36
1.0
 17
0.0
 27
0.0
 37
0.0
 40
1466.338900237118
 41
2.229559748427672
 42
50.0
 43
0.0
 44
0.0
 50
0.0
 51
0.0
 71
     0
 72
   100
 73
     1
 74
     3
 75
     0
 76
     0
 77
     0
 78
     0
281
     0
 65
     1
110
0.0
120
0.0
130
0.0
111
1.0
121
0.0
131
0.0
112
0.0
122
1.0
132
0.0
 79
     0
146
0.0
  0
ENDTAB
  0
TABLE
  2
LTYPE
  5
5
330
0
100
AcDbSymbolTable
 70
     4
  0
LTYPE
  5
14
330
5
100
AcDbSymbolTableRecord
100
AcDbLinetypeTableRecord
  2
ByBlock
 70
     0
  3

 72
    65
 73
     0
 40
0.0
  0
LTYPE
  5
15
330
5
100
AcDbSymbolTableRecord
100
AcDbLinetypeTableRecord
  2
ByLayer
 70
     0
  3

 72
    65
 73
     0
 40
0.0
  0
LTYPE
  5
16
330
5
100
AcDbSymbolTableRecord
100
AcDbLinetypeTableRecord
  2
Continuous
 70
     0
  3
Solid line
 72
    65
 73
     0
 40
0.0
  0
LTYPE
  5
33
330
5
100
AcDbSymbolTableRecord
100
AcDbLinetypeTableRecord
  2
IZOLACE
 70
     0
  3
Izolace SSSSSSSSSSSSSSSSSSSSSSSSSSSSSSSSSSSSSSS
 72
    65
 73
     4
 40
10.16253999999999
 49
0.00254
 74
     0
 49
-2.54
 74
     4
 75
   134
340
3D
 46
2.54
 50
0.0
 44
-2.54
 45
0.0
 49
-5.08
 74
     4
 75
   134
340
3D
 46
2.54
 50
180.0
 44
2.54
 45
0.0
 49
-2.54
 74
     0
  0
LTYPE
  5
34
330
5
100
AcDbSymbolTableRecord
100
AcDbLinetypeTableRecord
  2
DASHED
 70
     0
  3
Dashed __ __ __ __ __ __ __ __ __ __ __ __ __ _
 72
    65
 73
     2
 40
19.04999999999999
 49
12.7
 74
     0
 49
-6.349999999999999
 74
     0
  0
LTYPE
  5
35
330
5
100
AcDbSymbolTableRecord
100
AcDbLinetypeTableRecord
  2
DASHDOT2
 70
     0
  3
Dash dot (.5x) _._._._._._._._._._._._._._._.
 72
    65
 73
     4
 40
12.7
 49
6.349999999999999
 74
     0
 49
-3.174999999999999
 74
     0
 49
0.0
 74
     0
 49
-3.174999999999999
 74
     0
  0
ENDTAB
  0
TABLE
  2
LAYER
  5
2
330
0
100
AcDbSymbolTable
 70
     8
  0
LAYER
  5
10
330
2
100
AcDbSymbolTableRecord
100
AcDbLayerTableRecord
  2
0
 70
     0
 62
     7
  6
Continuous
370
    -3
390
F
  0
LAYER
  5
36
330
2
100
AcDbSymbolTableRecord
100
AcDbLayerTableRecord
  2
POPIS
 70
     0
 62
    30
  6
Continuous
370
    -3
390
F
  0
LAYER
  5
37
330
2
100
AcDbSymbolTableRecord
100
AcDbLayerTableRecord
  2
SPOJOVACÍ
 70
     0
 62
   180
  6
Continuous
370
    -3
390
F
  0
LAYER
  5
38
330
2
100
AcDbSymbolTableRecord
100
AcDbLayerTableRecord
  2
CETRIS
 70
     0
 62
     1
  6
Continuous
370
    -3
390
F
  0
LAYER
  5
39
330
2
100
AcDbSymbolTableRecord
100
AcDbLayerTableRecord
  2
NOSNÉ KONSTRUKCE
 70
     0
 62
    33
  6
Continuous
370
    -3
390
F
  0
LAYER
  5
3A
330
2
100
AcDbSymbolTableRecord
100
AcDbLayerTableRecord
  2
PROFILY
 70
     0
 62
    73
  6
Continuous
370
    -3
390
F
  0
LAYER
  5
3B
330
2
100
AcDbSymbolTableRecord
100
AcDbLayerTableRecord
  2
STAVBA OBRYS
 70
     0
 62
     6
  6
Continuous
370
    -3
390
F
  0
LAYER
  5
5FD
330
2
100
AcDbSymbolTableRecord
100
AcDbLayerTableRecord
  2
Defpoints
 70
     0
 62
     7
  6
Continuous
290
     0
370
    -3
390
F
  0
ENDTAB
  0
TABLE
  2
STYLE
  5
3
330
0
100
AcDbSymbolTable
 70
     3
  0
STYLE
  5
11
330
3
100
AcDbSymbolTableRecord
100
AcDbTextStyleTableRecord
  2
Standard
 70
     0
 40
0.0
 41
1.0
 50
0.0
 71
     0
 42
2.5
  3
txt
  4

  0
STYLE
  5
3C
330
3
100
AcDbSymbolTableRecord
100
AcDbTextStyleTableRecord
  2
SIMPLEX7
 70
     0
 40
0.0
 41
0.85
 50
0.0
 71
     0
 42
102.0
  3
ARIAL.TTF
  4

1001
ACAD
1000
Arial CE
1071
    60962
  0
STYLE
  5
3D
330
3
100
AcDbSymbolTableRecord
100
AcDbTextStyleTableRecord
  2

 70
     1
 40
0.0
 41
1.0
 50
0.0
 71
     0
 42
2.5
  3
ltypeshp.shx
  4

  0
ENDTAB
  0
TABLE
  2
VIEW
  5
6
330
0
100
AcDbSymbolTable
 70
     0
  0
ENDTAB
  0
TABLE
  2
UCS
  5
7
330
0
100
AcDbSymbolTable
 70
     0
  0
ENDTAB
  0
TABLE
  2
APPID
  5
9
330
0
100
AcDbSymbolTable
 70
     1
  0
APPID
  5
12
330
9
100
AcDbSymbolTableRecord
100
AcDbRegAppTableRecord
  2
ACAD
 70
     0
  0
ENDTAB
  0
TABLE
  2
DIMSTYLE
  5
A
330
0
100
AcDbSymbolTable
 70
     1
100
AcDbDimStyleTable
 71
     0
  0
DIMSTYLE
105
27
330
A
100
AcDbSymbolTableRecord
100
AcDbDimStyleTableRecord
  2
ISO-25
 70
     0
 41
2.5
 42
0.625
 43
3.75
 44
1.25
 73
     0
 74
     0
 77
     1
 78
     8
140
2.5
141
2.5
143
0.03937007874016
147
0.625
171
     3
172
     1
271
     2
272
     2
274
     3
278
    44
283
     0
284
     8
340
11
  0
ENDTAB
  0
TABLE
  2
BLOCK_RECORD
  5
1
330
0
100
AcDbSymbolTable
 70
     3
  0
BLOCK_RECORD
  5
1F
102
{ACAD_XDICTIONARY
360
B56
102
}
330
1
100
AcDbSymbolTableRecord
100
AcDbBlockTableRecord
  2
*Model_Space
340
22
  0
BLOCK_RECORD
  5
1B
102
{ACAD_XDICTIONARY
360
B58
102
}
330
1
100
AcDbSymbolTableRecord
100
AcDbBlockTableRecord
  2
*Paper_Space
340
1E
  0
BLOCK_RECORD
  5
23
102
{ACAD_XDICTIONARY
360
B5A
102
}
330
1
100
AcDbSymbolTableRecord
100
AcDbBlockTableRecord
  2
*Paper_Space0
340
26
  0
BLOCK_RECORD
  5
2B
330
1
100
AcDbSymbolTableRecord
100
AcDbBlockTableRecord
  2
E_PUNKT
340
0
102
{BLKREFS
331
8A6
331
900
331
9FB
331
AFE
331
AFF
331
B00
331
B02
331
B03
331
C63
102
}
  0
BLOCK_RECORD
  5
C48
330
1
100
AcDbSymbolTableRecord
100
AcDbBlockTableRecord
  2
_ArchTick
340
0
102
{BLKREFS
331
C64
331
C69
331
C70
331
C71
102
}
  0
ENDTAB
  0
ENDSEC
  0
SECTION
  2
BLOCKS
  0
BLOCK
  5
20
330
1F
100
AcDbEntity
  8
0
100
AcDbBlockBegin
  2
*Model_Space
 70
     0
 10
0.0
 20
0.0
 30
0.0
  3
*Model_Space
  1

  0
ENDBLK
  5
21
330
1F
100
AcDbEntity
  8
0
100
AcDbBlockEnd
  0
BLOCK
  5
1C
330
1B
100
AcDbEntity
 67
     1
  8
0
100
AcDbBlockBegin
  2
*Paper_Space
 70
     0
 10
0.0
 20
0.0
 30
0.0
  3
*Paper_Space
  1

  0
ENDBLK
  5
1D
330
1B
100
AcDbEntity
 67
     1
  8
0
100
AcDbBlockEnd
  0
BLOCK
  5
24
330
23
100
AcDbEntity
  8
0
100
AcDbBlockBegin
  2
*Paper_Space0
 70
     0
 10
0.0
 20
0.0
 30
0.0
  3
*Paper_Space0
  1

  0
ENDBLK
  5
25
330
23
100
AcDbEntity
  8
0
100
AcDbBlockEnd
  0
BLOCK
  5
2D
330
2B
100
AcDbEntity
  8
0
100
AcDbBlockBegin
  2
E_PUNKT
 70
     0
 10
0.0
 20
0.0
 30
0.0
  3
E_PUNKT
  1

  0
LWPOLYLINE
  5
2C
330
2B
100
AcDbEntity
  8
POPIS
100
AcDbPolyline
 90
        2
 70
     1
 43
2.5
 10
1.27761037562675
 20
0.0290683308725193
 42
-1.0
 10
-1.222389624373249
 20
0.0290683308725193
 42
-1.0
  0
ENDBLK
  5
2E
330
2B
100
AcDbEntity
  8
0
100
AcDbBlockEnd
  0
BLOCK
  5
C4A
330
C48
100
AcDbEntity
  8
0
100
AcDbBlockBegin
  2
_ArchTick
 70
     0
 10
0.0
 20
0.0
 30
0.0
  3
_ArchTick
  1

  0
LWPOLYLINE
  5
C49
330
C48
100
AcDbEntity
  8
0
  6
ByBlock
 62
     0
100
AcDbPolyline
 90
        2
 70
     0
 43
0.15
 10
-0.5
 20
-0.5
 10
0.5
 20
0.5
  0
ENDBLK
  5
C4B
330
C48
100
AcDbEntity
  8
0
100
AcDbBlockEnd
  0
ENDSEC
  0
SECTION
  2
ENTITIES
  0
LINE
  5
8A1
330
1F
100
AcDbEntity
  8
POPIS
100
AcDbLine
 10
1564.697376950776
 20
107.2814984548174
 30
0.0
 11
1527.060868102954
 21
160.1211879542313
 31
0.0
  0
LINE
  5
8A2
330
1F
100
AcDbEntity
  8
POPIS
100
AcDbLine
 10
1570.919706208521
 20
81.78911387709627
 30
0.0
 11
1411.033907333614
 21
81.78911387709627
 31
0.0
  0
TEXT
  5
8A3
330
1F
100
AcDbEntity
  8
POPIS
100
AcDbText
 10
1371.634032549419
 20
67.98071161089206
 30
0.0
 40
25.0
  1
10
 41
0.7
  7
SIMPLEX7
100
AcDbText
  0
TEXT
  5
8A4
330
1F
100
AcDbEntity
  8
POPIS
100
AcDbText
 10
1371.634032549419
 20
146.3127856880262
 30
0.0
 40
25.0
  1
09
 41
0.7
  7
SIMPLEX7
100
AcDbText
  0
LINE
  5
8A5
330
1F
100
AcDbEntity
  8
POPIS
100
AcDbLine
 10
1527.060868102954
 20
160.1211879542313
 30
0.0
 11
1411.033907333614
 21
160.1211879542304
 31
0.0
  0
INSERT
  5
8A6
330
1F
100
AcDbEntity
  8
POPIS
100
AcDbBlockReference
  2
E_PUNKT
 10
1570.88008026326
 20
82.19966657329747
 30
0.0
  0
LINE
  5
8A7
330
1F
100
AcDbEntity
  8
POPIS
100
AcDbLine
 10
1592.421794029341
 20
253.661024662934
 30
0.0
 11
1411.033907333614
 21
253.661024662934
 31
0.0
  0
TEXT
  5
8A8
330
1F
100
AcDbEntity
  8
POPIS
100
AcDbText
 10
1373.063542004675
 20
-522.7976857541973
 30
0.0
 40
25.0
  1
10
 41
0.85
  7
SIMPLEX7
100
AcDbText
  0
TEXT
  5
8A9
330
1F
100
AcDbEntity
  8
POPIS
100
AcDbText
 10
1427.407245164421
 20
-522.7976857541973
 30
0.0
 40
25.0
  1
Zakládací deska
 41
0.7
  7
SIMPLEX7
100
AcDbText
  0
LINE
  5
8AA
330
1F
100
AcDbEntity
  8
CETRIS
100
AcDbLine
 10
1565.066895534247
 20
616.7769304094833
 30
0.0
 11
1577.050480818713
 21
616.1494881970127
 31
0.0
  0
LWPOLYLINE
  5
8AB
330
1F
100
AcDbEntity
  8
PROFILY
100
AcDbPolyline
 90
        2
 70
     1
 43
2.5
 10
1564.712031872476
 20
603.4680188044392
 42
-1.0
 10
1562.212813083056
 20
603.4055252637078
 42
-1.0
  0
LINE
  5
8AC
330
1F
100
AcDbEntity
  8
PROFILY
100
AcDbLine
 10
1565.370469657692
 20
591.1637491025983
 30
0.0
 11
1560.374067793894
 21
591.4823386644646
 31
0.0
  0
HATCH
  5
8AD
330
1F
100
AcDbEntity
  8
PROFILY
100
AcDbHatch
 10
0.0
 20
0.0
 30
0.0
210
0.0
220
0.0
230
1.0
  2
SOLID
 70
     1
 71
     0
 91
        1
 92
        1
 93
        4
 72
     1
 10
1565.97893284125
 20
603.4050465090102
 11
1560.982530977456
 21
603.7236360708746
 72
     1
 10
1560.98253097746
 20
603.7236360708746
 11
1560.374067793894
 21
591.4823386644646
 72
     1
 10
1560.374067793894
 20
591.4823386644646
 11
1565.370469657689
 21
591.1637491025992
 72
     1
 10
1565.370469657692
 20
591.1637491025983
 11
1565.978932841258
 21
603.4050465090092
 97
        0
 75
     0
 76
     1
 98
        1
 10
-18091.42210011117
 20
-2665.341192745403
  0
LWPOLYLINE
  5
8AE
330
1F
100
AcDbEntity
  8
PROFILY
100
AcDbPolyline
 90
        2
 70
     1
 43
2.5
 10
1564.160259277275
 20
591.3518433255482
 42
-1.0
 10
1561.661040487862
 20
591.289349784817
 42
-1.0
  0
LINE
  5
8AF
330
1F
100
AcDbEntity
  8
CETRIS
100
AcDbLine
 10
1552.63921717361
 20
648.7005970358302
 30
0.0
 11
1548.467274714853
 21
565.2426902751565
 31
0.0
  0
LINE
  5
8B0
330
1F
100
AcDbEntity
  8
CETRIS
100
AcDbLine
 10
1551.313754711113
 20
562.0966528260967
 30
0.0
 11
1548.467274714853
 21
565.2426902751565
 31
0.0
  0
HATCH
  5
8B1
330
1F
100
AcDbEntity
  8
CETRIS
100
AcDbHatch
 10
0.0
 20
0.0
 30
0.0
210
0.0
220
0.0
230
1.0
  2
ANSI31
 70
     0
 71
     0
 91
        1
 92
        7
 72
     0
 73
     1
 93
        5
 10
1564.641576674173
 20
648.4480534681467
 10
1552.63921717361
 20
648.7005970358302
 10
1548.467274714853
 20
565.2426902751547
 10
1551.313754711121
 20
562.0966528260967
 10
1560.302530879092
 20
561.6473166469029
 97
        0
 75
     0
 76
     1
 52
90.0
 41
1.0
 77
     0
 78
     1
 53
135.0
 43
-8623.616749067956
 44
3653.69302017482
 45
-2.245064030267288
 46
-2.245064030267287
 79
     0
 47
0.9552509132763578
 98
        1
 10
1557.951602958895
 20
618.5921079315473
  0
LINE
  5
8B2
330
1F
100
AcDbEntity
  8
CETRIS
100
AcDbLine
 10
1551.313754711113
 20
562.0966528260967
 30
0.0
 11
1560.302530879092
 21
561.6473166469019
 31
0.0
  0
LINE
  5
8B3
330
1F
100
AcDbEntity
  8
CETRIS
100
AcDbLine
 10
1564.641576674173
 20
648.4480534681467
 30
0.0
 11
1560.302530879092
 21
561.6473166469019
 31
0.0
  0
LINE
  5
8B4
330
1F
100
AcDbEntity
  8
SPOJOVACÍ
  6
Continuous
100
AcDbLine
 10
1585.860971594996
 20
577.543668029796
 30
0.0
 11
1586.95820938445
 21
573.4202410399009
 31
0.0
  0
LINE
  5
8B5
330
1F
100
AcDbEntity
  8
SPOJOVACÍ
  6
Continuous
100
AcDbLine
 10
1586.455982191276
 20
577.5053570664247
 30
0.0
 11
1587.553219980734
 21
573.3819300765287
 31
0.0
  0
LINE
  5
8B6
330
1F
100
AcDbEntity
  8
SPOJOVACÍ
  6
Continuous
100
AcDbLine
 10
1587.152083392385
 20
573.0293246949893
 30
0.0
 11
1586.95820938445
 21
573.4202410399009
 31
0.0
  0
LINE
  5
8B7
330
1F
100
AcDbEntity
  8
SPOJOVACÍ
  6
Continuous
100
AcDbLine
 10
1587.152083392385
 20
573.0293246949893
 30
0.0
 11
1587.553219980734
 21
573.3819300765287
 31
0.0
  0
LINE
  5
8B8
330
1F
100
AcDbEntity
  8
SPOJOVACÍ
  6
Continuous
100
AcDbLine
 10
1586.26303643747
 20
577.8962136481866
 30
0.0
 11
1585.860971594996
 21
577.543668029796
 31
0.0
  0
LINE
  5
8B9
330
1F
100
AcDbEntity
  8
SPOJOVACÍ
  6
Continuous
100
AcDbLine
 10
1586.26303643747
 20
577.8962136481866
 30
0.0
 11
1586.455982191276
 21
577.5053570664247
 31
0.0
  0
LINE
  5
8BA
330
1F
100
AcDbEntity
  8
SPOJOVACÍ
  6
Continuous
100
AcDbLine
 10
1586.26303643747
 20
577.8962136481866
 30
0.0
 11
1587.152083392385
 21
573.0293246949893
 31
0.0
  0
LINE
  5
8BB
330
1F
100
AcDbEntity
  8
SPOJOVACÍ
  6
Continuous
100
AcDbLine
 10
1582.7476088186
 20
577.7441282031693
 30
0.0
 11
1583.844846608054
 21
573.6207012132734
 31
0.0
  0
LINE
  5
8BC
330
1F
100
AcDbEntity
  8
SPOJOVACÍ
  6
Continuous
100
AcDbLine
 10
1583.34261941487
 20
577.705817239798
 30
0.0
 11
1584.439857204058
 21
573.5823902499194
 31
0.0
  0
LINE
  5
8BD
330
1F
100
AcDbEntity
  8
SPOJOVACÍ
  6
Continuous
100
AcDbLine
 10
1584.037792362148
 20
573.2298446358679
 30
0.0
 11
1583.844846608054
 21
573.6207012132734
 31
0.0
  0
LINE
  5
8BE
330
1F
100
AcDbEntity
  8
SPOJOVACÍ
  6
Continuous
100
AcDbLine
 10
1584.037792362148
 20
573.2298446358679
 30
0.0
 11
1584.439857204058
 21
573.5823902499194
 31
0.0
  0
LINE
  5
8BF
330
1F
100
AcDbEntity
  8
SPOJOVACÍ
  6
Continuous
100
AcDbLine
 10
1583.148745407229
 20
578.0967335890652
 30
0.0
 11
1582.7476088186
 21
577.7441282031693
 31
0.0
  0
LINE
  5
8C0
330
1F
100
AcDbEntity
  8
SPOJOVACÍ
  6
Continuous
100
AcDbLine
 10
1583.148745407229
 20
578.0967335890652
 30
0.0
 11
1583.34261941487
 21
577.705817239798
 31
0.0
  0
LINE
  5
8C1
330
1F
100
AcDbEntity
  8
SPOJOVACÍ
  6
Continuous
100
AcDbLine
 10
1583.148745407229
 20
578.0967335890652
 30
0.0
 11
1584.037792362148
 21
573.2298446358679
 31
0.0
  0
LINE
  5
8C2
330
1F
100
AcDbEntity
  8
SPOJOVACÍ
  6
Continuous
100
AcDbLine
 10
1579.63424604219
 20
577.9445883765427
 30
0.0
 11
1580.731483831382
 21
573.8211613866639
 31
0.0
  0
LINE
  5
8C3
330
1F
100
AcDbEntity
  8
SPOJOVACÍ
  6
Continuous
100
AcDbLine
 10
1580.229256638474
 20
577.9062774131714
 30
0.0
 11
1581.326494427655
 21
573.7828504232927
 31
0.0
  0
LINE
  5
8C4
330
1F
100
AcDbEntity
  8
SPOJOVACÍ
  6
Continuous
100
AcDbLine
 10
1580.924429585741
 20
573.4303048092413
 30
0.0
 11
1580.731483831382
 21
573.8211613866639
 31
0.0
  0
LINE
  5
8C5
330
1F
100
AcDbEntity
  8
SPOJOVACÍ
  6
Continuous
100
AcDbLine
 10
1580.924429585741
 20
573.4303048092413
 30
0.0
 11
1581.326494427655
 21
573.7828504232927
 31
0.0
  0
LINE
  5
8C6
330
1F
100
AcDbEntity
  8
SPOJOVACÍ
  6
Continuous
100
AcDbLine
 10
1580.035382630823
 20
578.2971937624385
 30
0.0
 11
1579.63424604219
 21
577.9445883765427
 31
0.0
  0
LINE
  5
8C7
330
1F
100
AcDbEntity
  8
SPOJOVACÍ
  6
Continuous
100
AcDbLine
 10
1580.035382630823
 20
578.2971937624385
 30
0.0
 11
1580.229256638474
 21
577.9062774131714
 31
0.0
  0
LINE
  5
8C8
330
1F
100
AcDbEntity
  8
SPOJOVACÍ
  6
Continuous
100
AcDbLine
 10
1580.035382630823
 20
578.2971937624385
 30
0.0
 11
1580.924429585741
 21
573.4303048092413
 31
0.0
  0
LINE
  5
8C9
330
1F
100
AcDbEntity
  8
SPOJOVACÍ
  6
Continuous
100
AcDbLine
 10
1595.260837254619
 20
575.9308364583282
 30
0.0
 11
1595.432452462158
 21
573.761038639908
 31
0.0
  0
LINE
  5
8CA
330
1F
100
AcDbEntity
  8
SPOJOVACÍ
  6
Continuous
100
AcDbLine
 10
1594.859700666274
 20
575.5782310767888
 30
0.0
 11
1595.239506707798
 21
574.1518952173307
 31
0.0
  0
LINE
  5
8CB
330
1F
100
AcDbEntity
  8
SPOJOVACÍ
  6
Continuous
100
AcDbLine
 10
1595.454711262543
 20
575.5399201134175
 30
0.0
 11
1595.834517304071
 21
574.1135842539604
 31
0.0
  0
LINE
  5
8CC
330
1F
100
AcDbEntity
  8
SPOJOVACÍ
  6
Continuous
100
AcDbLine
 10
1595.432452462158
 20
573.761038639908
 30
0.0
 11
1595.239506707798
 21
574.1518952173307
 31
0.0
  0
LINE
  5
8CD
330
1F
100
AcDbEntity
  8
SPOJOVACÍ
  6
Continuous
100
AcDbLine
 10
1595.432452462158
 20
573.761038639908
 30
0.0
 11
1595.834517304071
 21
574.1135842539604
 31
0.0
  0
LINE
  5
8CE
330
1F
100
AcDbEntity
  8
SPOJOVACÍ
  6
Continuous
100
AcDbLine
 10
1595.260837254619
 20
575.9308364583282
 30
0.0
 11
1594.859700666274
 21
575.5782310767888
 31
0.0
  0
LINE
  5
8CF
330
1F
100
AcDbEntity
  8
SPOJOVACÍ
  6
Continuous
100
AcDbLine
 10
1595.260837254619
 20
575.9308364583282
 30
0.0
 11
1595.454711262543
 21
575.5399201134175
 31
0.0
  0
LINE
  5
8D0
330
1F
100
AcDbEntity
  8
SPOJOVACÍ
  6
Continuous
100
AcDbLine
 10
1592.289574264158
 20
576.6879331116412
 30
0.0
 11
1592.72149390319
 21
573.5375816861339
 31
0.0
  0
LINE
  5
8D1
330
1F
100
AcDbEntity
  8
SPOJOVACÍ
  6
Continuous
100
AcDbLine
 10
1591.887509421685
 20
576.3353874932506
 30
0.0
 11
1592.5285481491
 21
573.9284382635402
 31
0.0
  0
LINE
  5
8D2
330
1F
100
AcDbEntity
  8
SPOJOVACÍ
  6
Continuous
100
AcDbLine
 10
1592.482520017965
 20
576.2970765298794
 30
0.0
 11
1593.123558745107
 21
573.8901273001854
 31
0.0
  0
LINE
  5
8D3
330
1F
100
AcDbEntity
  8
SPOJOVACÍ
  6
Continuous
100
AcDbLine
 10
1592.72149390319
 20
573.5375816861339
 30
0.0
 11
1592.5285481491
 21
573.9284382635402
 31
0.0
  0
LINE
  5
8D4
330
1F
100
AcDbEntity
  8
SPOJOVACÍ
  6
Continuous
100
AcDbLine
 10
1592.72149390319
 20
573.5375816861339
 30
0.0
 11
1593.123558745107
 21
573.8901273001854
 31
0.0
  0
LINE
  5
8D5
330
1F
100
AcDbEntity
  8
SPOJOVACÍ
  6
Continuous
100
AcDbLine
 10
1592.289574264158
 20
576.6879331116412
 30
0.0
 11
1591.887509421685
 21
576.3353874932506
 31
0.0
  0
LINE
  5
8D6
330
1F
100
AcDbEntity
  8
SPOJOVACÍ
  6
Continuous
100
AcDbLine
 10
1592.289574264158
 20
576.6879331116412
 30
0.0
 11
1592.482520017965
 21
576.2970765298794
 31
0.0
  0
LINE
  5
8D7
330
1F
100
AcDbEntity
  8
SPOJOVACÍ
  6
Continuous
100
AcDbLine
 10
1589.317383019573
 20
577.4450895281031
 30
0.0
 11
1590.023267514304
 21
573.2657677481772
 31
0.0
  0
LINE
  5
8D8
330
1F
100
AcDbEntity
  8
SPOJOVACÍ
  6
Continuous
100
AcDbLine
 10
1588.91618666363
 20
577.0915558913636
 30
0.0
 11
1589.830321760214
 21
573.6566243255826
 31
0.0
  0
LINE
  5
8D9
330
1F
100
AcDbEntity
  8
SPOJOVACÍ
  6
Continuous
100
AcDbLine
 10
1589.51119725991
 20
577.0532449279914
 30
0.0
 11
1590.425332356494
 21
573.6183133622114
 31
0.0
  0
LINE
  5
8DA
330
1F
100
AcDbEntity
  8
SPOJOVACÍ
  6
Continuous
100
AcDbLine
 10
1590.023267514304
 20
573.2657677481772
 30
0.0
 11
1589.830321760214
 21
573.6566243255826
 31
0.0
  0
LINE
  5
8DB
330
1F
100
AcDbEntity
  8
SPOJOVACÍ
  6
Continuous
100
AcDbLine
 10
1590.023267514304
 20
573.2657677481772
 30
0.0
 11
1590.425332356494
 21
573.6183133622114
 31
0.0
  0
LINE
  5
8DC
330
1F
100
AcDbEntity
  8
SPOJOVACÍ
  6
Continuous
100
AcDbLine
 10
1589.317383019573
 20
577.4450895281031
 30
0.0
 11
1588.91618666363
 21
577.0915558913636
 31
0.0
  0
LINE
  5
8DD
330
1F
100
AcDbEntity
  8
SPOJOVACÍ
  6
Continuous
100
AcDbLine
 10
1589.317383019573
 20
577.4450895281031
 30
0.0
 11
1589.51119725991
 21
577.0532449279914
 31
0.0
  0
LINE
  5
8DE
330
1F
100
AcDbEntity
  8
SPOJOVACÍ
  6
Continuous
100
AcDbLine
 10
1576.520883265518
 20
578.1450485499333
 30
0.0
 11
1577.617192801407
 21
574.0216813275244
 31
0.0
  0
LINE
  5
8DF
330
1F
100
AcDbEntity
  8
SPOJOVACÍ
  6
Continuous
100
AcDbLine
 10
1577.115893861802
 20
578.1067375865611
 30
0.0
 11
1578.212203397411
 21
573.9833703641713
 31
0.0
  0
LINE
  5
8E0
330
1F
100
AcDbEntity
  8
SPOJOVACÍ
  6
Continuous
100
AcDbLine
 10
1577.811066809346
 20
573.6307649826137
 30
0.0
 11
1577.617192801407
 21
574.0216813275244
 31
0.0
  0
LINE
  5
8E1
330
1F
100
AcDbEntity
  8
SPOJOVACÍ
  6
Continuous
100
AcDbLine
 10
1577.811066809346
 20
573.6307649826137
 30
0.0
 11
1578.212203397411
 21
573.9833703641713
 31
0.0
  0
LINE
  5
8E2
330
1F
100
AcDbEntity
  8
SPOJOVACÍ
  6
Continuous
100
AcDbLine
 10
1576.92201985415
 20
578.4976539358292
 30
0.0
 11
1576.520883265518
 21
578.1450485499333
 31
0.0
  0
LINE
  5
8E3
330
1F
100
AcDbEntity
  8
SPOJOVACÍ
  6
Continuous
100
AcDbLine
 10
1576.92201985415
 20
578.4976539358292
 30
0.0
 11
1577.115893861802
 21
578.1067375865611
 31
0.0
  0
LINE
  5
8E4
330
1F
100
AcDbEntity
  8
SPOJOVACÍ
  6
Continuous
100
AcDbLine
 10
1576.92201985415
 20
578.4976539358292
 30
0.0
 11
1577.811066809346
 21
573.6307649826137
 31
0.0
  0
LINE
  5
8E5
330
1F
100
AcDbEntity
  8
SPOJOVACÍ
  6
Continuous
100
AcDbLine
 10
1573.406592235554
 20
578.3455684907937
 30
0.0
 11
1574.503830024735
 21
574.222141500916
 31
0.0
  0
LINE
  5
8E6
330
1F
100
AcDbEntity
  8
SPOJOVACÍ
  6
Continuous
100
AcDbLine
 10
1574.001602831561
 20
578.3072575274397
 30
0.0
 11
1575.098840621015
 21
574.1838305375438
 31
0.0
  0
LINE
  5
8E7
330
1F
100
AcDbEntity
  8
SPOJOVACÍ
  6
Continuous
100
AcDbLine
 10
1574.69770403267
 20
573.8312251560044
 30
0.0
 11
1574.503830024735
 21
574.222141500916
 31
0.0
  0
LINE
  5
8E8
330
1F
100
AcDbEntity
  8
SPOJOVACÍ
  6
Continuous
100
AcDbLine
 10
1574.69770403267
 20
573.8312251560044
 30
0.0
 11
1575.098840621015
 21
574.1838305375438
 31
0.0
  0
LINE
  5
8E9
330
1F
100
AcDbEntity
  8
SPOJOVACÍ
  6
Continuous
100
AcDbLine
 10
1573.808657077751
 20
578.6981141092025
 30
0.0
 11
1573.406592235554
 21
578.3455684907937
 31
0.0
  0
LINE
  5
8EA
330
1F
100
AcDbEntity
  8
SPOJOVACÍ
  6
Continuous
100
AcDbLine
 10
1573.808657077751
 20
578.6981141092025
 30
0.0
 11
1574.001602831561
 21
578.3072575274397
 31
0.0
  0
LINE
  5
8EB
330
1F
100
AcDbEntity
  8
SPOJOVACÍ
  6
Continuous
100
AcDbLine
 10
1573.808657077751
 20
578.6981141092025
 30
0.0
 11
1574.69770403267
 21
573.8312251560044
 31
0.0
  0
LINE
  5
8EC
330
1F
100
AcDbEntity
  8
SPOJOVACÍ
  6
Continuous
100
AcDbLine
 10
1589.685929173693
 20
574.1645958580691
 30
0.0
 11
1587.703181049207
 21
574.0461842092261
 31
0.0
  0
LINE
  5
8ED
330
1F
100
AcDbEntity
  8
SPOJOVACÍ
  6
Continuous
100
AcDbLine
 10
1592.408902693041
 20
574.3285567870405
 30
0.0
 11
1590.259550764726
 21
574.1994339172922
 31
0.0
  0
LINE
  5
8EE
330
1F
100
AcDbEntity
  8
SPOJOVACÍ
  6
Continuous
100
AcDbLine
 10
1595.14214676947
 20
574.4927885200829
 30
0.0
 11
1592.984380790923
 21
574.3632753069312
 31
0.0
  0
LINE
  5
8EF
330
1F
100
AcDbEntity
  8
SPOJOVACÍ
  6
Continuous
100
AcDbLine
 10
1595.509930035957
 20
575.2828330202062
 30
0.0
 11
1598.56785693193
 21
574.6991199064566
 31
0.0
  0
LINE
  5
8F0
330
1F
100
AcDbEntity
  8
SPOJOVACÍ
  6
Continuous
100
AcDbLine
 10
1592.598400122136
 20
575.8384780289686
 30
0.0
 11
1594.895745546556
 21
575.3997429936851
 31
0.0
  0
LINE
  5
8F1
330
1F
100
AcDbEntity
  8
SPOJOVACÍ
  6
Continuous
100
AcDbLine
 10
1589.675850699611
 20
576.3966967580524
 30
0.0
 11
1591.974124377323
 21
575.9579019509235
 31
0.0
  0
LINE
  5
8F2
330
1F
100
AcDbEntity
  8
SPOJOVACÍ
  6
Continuous
100
AcDbLine
 10
1598.56785693193
 20
574.6991199064566
 30
0.0
 11
1595.714840106658
 21
574.5276863468113
 31
0.0
  0
LINE
  5
8F3
330
1F
100
AcDbEntity
  8
SPOJOVACÍ
  6
Continuous
100
AcDbLine
 10
1587.876626315715
 20
576.7399763346499
 30
0.0
 11
1589.061666210207
 21
576.5136067315304
 31
0.0
  0
LINE
  5
8F4
330
1F
100
AcDbEntity
  8
SPOJOVACÍ
  6
Continuous
100
AcDbLine
 10
1587.367153224385
 20
574.0678200418804
 30
0.0
 11
1587.703181049207
 21
574.0461842092261
 31
0.0
  0
LINE
  5
8F5
330
1F
100
AcDbEntity
  8
SPOJOVACÍ
  6
Continuous
100
AcDbLine
 10
1584.251005686746
 20
574.2684595177504
 30
0.0
 11
1586.764716598761
 21
574.1066091452046
 31
0.0
  0
LINE
  5
8F6
330
1F
100
AcDbEntity
  8
SPOJOVACÍ
  6
Continuous
100
AcDbLine
 10
1586.631838157568
 20
576.8201245434891
 30
0.0
 11
1587.876626315715
 21
576.7399763346499
 31
0.0
  0
LINE
  5
8F7
330
1F
100
AcDbEntity
  8
SPOJOVACÍ
  6
Continuous
100
AcDbLine
 10
1583.524044902842
 20
577.0202261119191
 30
0.0
 11
1586.036827561292
 21
576.8584355068603
 31
0.0
  0
LINE
  5
8F8
330
1F
100
AcDbEntity
  8
SPOJOVACÍ
  6
Continuous
100
AcDbLine
 10
1581.135786402937
 20
574.469039226117
 30
0.0
 11
1583.651353822365
 21
574.307069318577
 31
0.0
  0
LINE
  5
8F9
330
1F
100
AcDbEntity
  8
SPOJOVACÍ
  6
Continuous
100
AcDbLine
 10
1578.019638865563
 20
574.6696787019698
 30
0.0
 11
1580.542632314066
 21
574.5072306544959
 31
0.0
  0
LINE
  5
8FA
330
1F
100
AcDbEntity
  8
SPOJOVACÍ
  6
Continuous
100
AcDbLine
 10
1574.910917357268
 20
574.8698400378877
 30
0.0
 11
1577.424628269286
 21
574.707989665341
 31
0.0
  0
LINE
  5
8FB
330
1F
100
AcDbEntity
  8
SPOJOVACÍ
  6
Continuous
100
AcDbLine
 10
1580.397686575145
 20
577.2215230302051
 30
0.0
 11
1582.920680023652
 21
577.0590749827313
 31
0.0
  0
LINE
  5
8FC
330
1F
100
AcDbEntity
  8
SPOJOVACÍ
  6
Continuous
100
AcDbLine
 10
1577.28896506685
 20
577.421684366124
 30
0.0
 11
1579.804532486279
 21
577.2597144585841
 31
0.0
  0
LINE
  5
8FD
330
1F
100
AcDbEntity
  8
SPOJOVACÍ
  6
Continuous
100
AcDbLine
 10
1574.172817529476
 20
577.6223238419768
 30
0.0
 11
1576.686528441495
 21
577.4604734694301
 31
0.0
  0
LINE
  5
8FE
330
1F
100
AcDbEntity
  8
SPOJOVACÍ
  6
Continuous
100
AcDbLine
 10
1569.549186047693
 20
577.9200257273712
 30
0.0
 11
1573.578735187037
 21
577.6605750378428
 31
0.0
  0
LINE
  5
8FF
330
1F
100
AcDbEntity
  8
SPOJOVACÍ
  6
Continuous
100
AcDbLine
 10
1569.375740781185
 20
575.2262336019473
 30
0.0
 11
1574.308480731913
 21
574.9086291411948
 31
0.0
  0
INSERT
  5
900
330
1F
100
AcDbEntity
  8
POPIS
100
AcDbBlockReference
  2
E_PUNKT
 10
1564.691890196008
 20
579.2601322028283
 30
0.0
  0
LINE
  5
901
330
1F
100
AcDbEntity
  8
SPOJOVACÍ
  6
Continuous
100
AcDbLine
 10
1564.401656084144
 20
582.0096947864337
 30
0.0
 11
1565.0575363788
 21
580.6149847267104
 31
0.0
  0
LINE
  5
902
330
1F
100
AcDbEntity
  8
SPOJOVACÍ
  6
Continuous
100
AcDbLine
 10
1565.0575363788
 20
580.6149847267104
 30
0.0
 11
1566.052737447177
 21
579.4379770060766
 31
0.0
  0
LINE
  5
903
330
1F
100
AcDbEntity
  8
SPOJOVACÍ
  6
Continuous
100
AcDbLine
 10
1566.052737447177
 20
579.4379770060766
 30
0.0
 11
1567.317840162933
 21
578.5586415689165
 31
0.0
  0
LINE
  5
904
330
1F
100
AcDbEntity
  8
SPOJOVACÍ
  6
Continuous
100
AcDbLine
 10
1567.317840162933
 20
578.5586415689165
 30
0.0
 11
1568.768126943297
 21
578.0364950372083
 31
0.0
  0
LINE
  5
905
330
1F
100
AcDbEntity
  8
SPOJOVACÍ
  6
Continuous
100
AcDbLine
 10
1568.768126943297
 20
578.0364950372083
 30
0.0
 11
1569.549186047693
 21
577.9200257273712
 31
0.0
  0
LINE
  5
906
330
1F
100
AcDbEntity
  8
SPOJOVACÍ
  6
Continuous
100
AcDbLine
 10
1565.12391190624
 20
573.6982432311795
 30
0.0
 11
1564.128234777104
 21
572.5226563786716
 31
0.0
  0
LINE
  5
907
330
1F
100
AcDbEntity
  8
SPOJOVACÍ
  6
Continuous
100
AcDbLine
 10
1564.128234777104
 20
572.5226563786716
 30
0.0
 11
1563.746245749789
 21
571.8304651473788
 31
0.0
  0
LINE
  5
908
330
1F
100
AcDbEntity
  8
SPOJOVACÍ
  6
Continuous
100
AcDbLine
 10
1564.401656084144
 20
582.0096947864337
 30
0.0
 11
1563.746245749789
 21
571.8304651473788
 31
0.0
  0
LINE
  5
909
330
1F
100
AcDbEntity
  8
SPOJOVACÍ
  6
Continuous
100
AcDbLine
 10
1563.204208862246
 20
582.0867948531293
 30
0.0
 11
1564.401656084144
 21
582.0096947864337
 31
0.0
  0
LINE
  5
90A
330
1F
100
AcDbEntity
  8
SPOJOVACÍ
  6
Continuous
100
AcDbLine
 10
1563.204208862246
 20
582.0867948531293
 30
0.0
 11
1562.548798527895
 21
571.9075652140743
 31
0.0
  0
LINE
  5
90B
330
1F
100
AcDbEntity
  8
SPOJOVACÍ
  6
Continuous
100
AcDbLine
 10
1562.548798527895
 20
571.9075652140743
 30
0.0
 11
1563.746245749789
 21
571.8304651473788
 31
0.0
  0
LINE
  5
90C
330
1F
100
AcDbEntity
  8
SPOJOVACÍ
  6
Continuous
100
AcDbLine
 10
1569.375740781185
 20
575.2262336019473
 30
0.0
 11
1567.840678017534
 21
575.0976388665629
 31
0.0
  0
LINE
  5
90D
330
1F
100
AcDbEntity
  8
SPOJOVACÍ
  6
Continuous
100
AcDbLine
 10
1567.840678017534
 20
575.0976388665629
 30
0.0
 11
1566.390345675604
 21
574.5767662949372
 31
0.0
  0
LINE
  5
90E
330
1F
100
AcDbEntity
  8
SPOJOVACÍ
  6
Continuous
100
AcDbLine
 10
1566.390345675604
 20
574.5767662949372
 30
0.0
 11
1565.12391190624
 21
573.6982432311795
 31
0.0
  0
LINE
  5
90F
330
1F
100
AcDbEntity
  8
CETRIS
100
AcDbLine
 10
1565.885572744285
 20
371.4054028423404
 30
0.0
 11
1577.870607634925
 21
370.8062879367469
 31
0.0
  0
LWPOLYLINE
  5
910
330
1F
100
AcDbEntity
  8
PROFILY
100
AcDbPolyline
 90
        2
 70
     1
 43
2.5
 10
1564.870552871615
 20
343.5724295828438
 42
-1.0
 10
1562.371334082202
 20
343.5099360421125
 42
-1.0
  0
HATCH
  5
911
330
1F
100
AcDbEntity
  8
PROFILY
100
AcDbHatch
 10
0.0
 20
0.0
 30
0.0
210
0.0
220
0.0
230
1.0
  2
SOLID
 70
     1
 71
     0
 91
        1
 92
        1
 93
        4
 72
     1
 10
1566.689226435591
 20
355.6256327663056
 11
1561.692824571796
 21
355.94422232817
 72
     1
 10
1561.6928245718
 20
355.94422232817
 11
1561.084361388234
 21
343.7029249217601
 72
     1
 10
1561.084361388234
 20
343.7029249217601
 11
1566.080763252029
 21
343.3843353598947
 72
     1
 10
1566.080763252033
 20
343.3843353598938
 11
1566.689226435598
 21
355.6256327663047
 97
        0
 75
     0
 76
     1
 98
        1
 10
-18090.71180651683
 20
-2913.120606488107
  0
LINE
  5
912
330
1F
100
AcDbEntity
  8
PROFILY
100
AcDbLine
 10
1566.080763252033
 20
343.3843353598938
 30
0.0
 11
1561.084361388234
 21
343.7029249217601
 31
0.0
  0
LWPOLYLINE
  5
913
330
1F
100
AcDbEntity
  8
PROFILY
100
AcDbPolyline
 90
        2
 70
     1
 43
2.5
 10
1565.422325466817
 20
355.6886050617347
 42
-1.0
 10
1562.923106677396
 20
355.6261115210034
 42
-1.0
  0
HATCH
  5
914
330
1F
100
AcDbEntity
  8
CETRIS
100
AcDbHatch
 10
0.0
 20
0.0
 30
0.0
210
0.0
220
0.0
230
1.0
  2
ANSI31
 70
     0
 71
     0
 91
        2
 92
        7
 72
     0
 73
     1
 93
        7
 10
1574.862776602737
 20
574.3662936203215
 10
1565.442954657893
 20
574.4180750820458
 10
1563.159121767646
 20
571.1893229248296
 10
1562.681307955589
 20
571.2143405258464
 10
1549.537700775599
 20
320.183194619012
 10
1552.376736543595
 20
317.0304377447789
 10
1561.36442550694
 20
316.5598560854257
 97
        0
 92
        7
 72
     0
 73
     1
 93
        6
 10
1577.050480818713
 20
616.1494881970118
 10
1565.066895534254
 20
616.7769304094824
 10
1563.269535029779
 20
582.4489517300314
 10
1563.74734884185
 20
582.4239341290128
 10
1565.681513415769
 20
578.9743340704096
 10
1575.056181825667
 20
578.0601604614701
 97
        0
 75
     0
 76
     1
 52
-0.1354299381046259
 41
1.0
 77
     0
 78
     1
 53
44.86457006189537
 43
-8615.556642858468
 44
3678.028898891802
 45
-2.239751109457527
 46
2.250364407753502
 79
     0
 47
1.163336804849115
 98
        2
 10
1562.691072974851
 20
456.6559771406416
 10
1568.838119631126
 20
595.0789132162451
  0
LINE
  5
915
330
1F
100
AcDbEntity
  8
CETRIS
100
AcDbLine
 10
1565.066895534247
 20
616.7769304094833
 30
0.0
 11
1549.537700775599
 21
320.183194619012
 31
0.0
  0
LINE
  5
916
330
1F
100
AcDbEntity
  8
CETRIS
100
AcDbLine
 10
1577.050480818713
 20
616.1494881970127
 30
0.0
 11
1561.36442550694
 21
316.5598560854257
 31
0.0
  0
LINE
  5
917
330
1F
100
AcDbEntity
  8
CETRIS
100
AcDbLine
 10
1552.376736543595
 20
317.030437744778
 30
0.0
 11
1561.36442550694
 21
316.5598560854257
 31
0.0
  0
LINE
  5
918
330
1F
100
AcDbEntity
  8
CETRIS
100
AcDbLine
 10
1552.376736543595
 20
317.030437744778
 30
0.0
 11
1549.537700775599
 21
320.183194619012
 31
0.0
  0
LINE
  5
919
330
1F
100
AcDbEntity
  8
SPOJOVACÍ
  6
Continuous
100
AcDbLine
 10
1586.681098411208
 20
332.2004677695301
 30
0.0
 11
1587.778336200662
 21
328.0770407796351
 31
0.0
  0
LINE
  5
91A
330
1F
100
AcDbEntity
  8
SPOJOVACÍ
  6
Continuous
100
AcDbLine
 10
1587.276109007488
 20
332.1621568061589
 30
0.0
 11
1588.373346796946
 21
328.0387298162629
 31
0.0
  0
LINE
  5
91B
330
1F
100
AcDbEntity
  8
SPOJOVACÍ
  6
Continuous
100
AcDbLine
 10
1587.972210208597
 20
327.6861244347235
 30
0.0
 11
1587.778336200662
 21
328.0770407796351
 31
0.0
  0
LINE
  5
91C
330
1F
100
AcDbEntity
  8
SPOJOVACÍ
  6
Continuous
100
AcDbLine
 10
1587.972210208597
 20
327.6861244347235
 30
0.0
 11
1588.373346796946
 21
328.0387298162629
 31
0.0
  0
LINE
  5
91D
330
1F
100
AcDbEntity
  8
SPOJOVACÍ
  6
Continuous
100
AcDbLine
 10
1587.083163253682
 20
332.5530133879208
 30
0.0
 11
1586.681098411208
 21
332.2004677695301
 31
0.0
  0
LINE
  5
91E
330
1F
100
AcDbEntity
  8
SPOJOVACÍ
  6
Continuous
100
AcDbLine
 10
1587.083163253682
 20
332.5530133879208
 30
0.0
 11
1587.276109007488
 21
332.1621568061589
 31
0.0
  0
LINE
  5
91F
330
1F
100
AcDbEntity
  8
SPOJOVACÍ
  6
Continuous
100
AcDbLine
 10
1587.083163253682
 20
332.5530133879208
 30
0.0
 11
1587.972210208597
 21
327.6861244347235
 31
0.0
  0
LINE
  5
920
330
1F
100
AcDbEntity
  8
SPOJOVACÍ
  6
Continuous
100
AcDbLine
 10
1583.567735634812
 20
332.4009279429035
 30
0.0
 11
1584.664973424266
 21
328.2775009530075
 31
0.0
  0
LINE
  5
921
330
1F
100
AcDbEntity
  8
SPOJOVACÍ
  6
Continuous
100
AcDbLine
 10
1584.162746231082
 20
332.3626169795322
 30
0.0
 11
1585.25998402027
 21
328.2391899896536
 31
0.0
  0
LINE
  5
922
330
1F
100
AcDbEntity
  8
SPOJOVACÍ
  6
Continuous
100
AcDbLine
 10
1584.85791917836
 20
327.8866443756021
 30
0.0
 11
1584.664973424266
 21
328.2775009530075
 31
0.0
  0
LINE
  5
923
330
1F
100
AcDbEntity
  8
SPOJOVACÍ
  6
Continuous
100
AcDbLine
 10
1584.85791917836
 20
327.8866443756021
 30
0.0
 11
1585.25998402027
 21
328.2391899896536
 31
0.0
  0
LINE
  5
924
330
1F
100
AcDbEntity
  8
SPOJOVACÍ
  6
Continuous
100
AcDbLine
 10
1583.968872223441
 20
332.7535333287994
 30
0.0
 11
1583.567735634812
 21
332.4009279429035
 31
0.0
  0
LINE
  5
925
330
1F
100
AcDbEntity
  8
SPOJOVACÍ
  6
Continuous
100
AcDbLine
 10
1583.968872223441
 20
332.7535333287994
 30
0.0
 11
1584.162746231082
 21
332.3626169795322
 31
0.0
  0
LINE
  5
926
330
1F
100
AcDbEntity
  8
SPOJOVACÍ
  6
Continuous
100
AcDbLine
 10
1583.968872223441
 20
332.7535333287994
 30
0.0
 11
1584.85791917836
 21
327.8866443756021
 31
0.0
  0
LINE
  5
927
330
1F
100
AcDbEntity
  8
SPOJOVACÍ
  6
Continuous
100
AcDbLine
 10
1580.454372858402
 20
332.6013881162769
 30
0.0
 11
1581.551610647594
 21
328.4779611263981
 31
0.0
  0
LINE
  5
928
330
1F
100
AcDbEntity
  8
SPOJOVACÍ
  6
Continuous
100
AcDbLine
 10
1581.049383454686
 20
332.5630771529056
 30
0.0
 11
1582.146621243867
 21
328.4396501630269
 31
0.0
  0
LINE
  5
929
330
1F
100
AcDbEntity
  8
SPOJOVACÍ
  6
Continuous
100
AcDbLine
 10
1581.744556401953
 20
328.0871045489754
 30
0.0
 11
1581.551610647594
 21
328.4779611263981
 31
0.0
  0
LINE
  5
92A
330
1F
100
AcDbEntity
  8
SPOJOVACÍ
  6
Continuous
100
AcDbLine
 10
1581.744556401953
 20
328.0871045489754
 30
0.0
 11
1582.146621243867
 21
328.4396501630269
 31
0.0
  0
LINE
  5
92B
330
1F
100
AcDbEntity
  8
SPOJOVACÍ
  6
Continuous
100
AcDbLine
 10
1580.855509447035
 20
332.9539935021728
 30
0.0
 11
1581.744556401953
 21
328.0871045489754
 31
0.0
  0
LINE
  5
92C
330
1F
100
AcDbEntity
  8
SPOJOVACÍ
  6
Continuous
100
AcDbLine
 10
1596.080964070831
 20
330.5876361980624
 30
0.0
 11
1596.25257927837
 21
328.4178383796422
 31
0.0
  0
LINE
  5
92D
330
1F
100
AcDbEntity
  8
SPOJOVACÍ
  6
Continuous
100
AcDbLine
 10
1595.679827482486
 20
330.235030816523
 30
0.0
 11
1596.059633524011
 21
328.8086949570649
 31
0.0
  0
LINE
  5
92E
330
1F
100
AcDbEntity
  8
SPOJOVACÍ
  6
Continuous
100
AcDbLine
 10
1596.274838078755
 20
330.1967198531517
 30
0.0
 11
1596.654644120284
 21
328.7703839936946
 31
0.0
  0
LINE
  5
92F
330
1F
100
AcDbEntity
  8
SPOJOVACÍ
  6
Continuous
100
AcDbLine
 10
1596.25257927837
 20
328.4178383796422
 30
0.0
 11
1596.059633524011
 21
328.8086949570649
 31
0.0
  0
LINE
  5
930
330
1F
100
AcDbEntity
  8
SPOJOVACÍ
  6
Continuous
100
AcDbLine
 10
1596.25257927837
 20
328.4178383796422
 30
0.0
 11
1596.654644120284
 21
328.7703839936946
 31
0.0
  0
LINE
  5
931
330
1F
100
AcDbEntity
  8
SPOJOVACÍ
  6
Continuous
100
AcDbLine
 10
1596.080964070831
 20
330.5876361980624
 30
0.0
 11
1595.679827482486
 21
330.235030816523
 31
0.0
  0
LINE
  5
932
330
1F
100
AcDbEntity
  8
SPOJOVACÍ
  6
Continuous
100
AcDbLine
 10
1596.080964070831
 20
330.5876361980624
 30
0.0
 11
1596.274838078755
 21
330.1967198531517
 31
0.0
  0
LINE
  5
933
330
1F
100
AcDbEntity
  8
SPOJOVACÍ
  6
Continuous
100
AcDbLine
 10
1593.10970108037
 20
331.3447328513755
 30
0.0
 11
1593.541620719402
 21
328.1943814258681
 31
0.0
  0
LINE
  5
934
330
1F
100
AcDbEntity
  8
SPOJOVACÍ
  6
Continuous
100
AcDbLine
 10
1592.707636237896
 20
330.9921872329848
 30
0.0
 11
1593.348674965312
 21
328.5852380032745
 31
0.0
  0
LINE
  5
935
330
1F
100
AcDbEntity
  8
SPOJOVACÍ
  6
Continuous
100
AcDbLine
 10
1593.302646834177
 20
330.9538762696135
 30
0.0
 11
1593.943685561319
 21
328.5469270399196
 31
0.0
  0
LINE
  5
936
330
1F
100
AcDbEntity
  8
SPOJOVACÍ
  6
Continuous
100
AcDbLine
 10
1593.541620719402
 20
328.1943814258681
 30
0.0
 11
1593.348674965312
 21
328.5852380032745
 31
0.0
  0
LINE
  5
937
330
1F
100
AcDbEntity
  8
SPOJOVACÍ
  6
Continuous
100
AcDbLine
 10
1593.541620719402
 20
328.1943814258681
 30
0.0
 11
1593.943685561319
 21
328.5469270399196
 31
0.0
  0
LINE
  5
938
330
1F
100
AcDbEntity
  8
SPOJOVACÍ
  6
Continuous
100
AcDbLine
 10
1593.10970108037
 20
331.3447328513755
 30
0.0
 11
1592.707636237896
 21
330.9921872329848
 31
0.0
  0
LINE
  5
939
330
1F
100
AcDbEntity
  8
SPOJOVACÍ
  6
Continuous
100
AcDbLine
 10
1593.10970108037
 20
331.3447328513755
 30
0.0
 11
1593.302646834177
 21
330.9538762696135
 31
0.0
  0
LINE
  5
93A
330
1F
100
AcDbEntity
  8
SPOJOVACÍ
  6
Continuous
100
AcDbLine
 10
1590.137509835785
 20
332.1018892678373
 30
0.0
 11
1590.843394330516
 21
327.9225674879114
 31
0.0
  0
LINE
  5
93B
330
1F
100
AcDbEntity
  8
SPOJOVACÍ
  6
Continuous
100
AcDbLine
 10
1589.736313479842
 20
331.7483556310978
 30
0.0
 11
1590.650448576426
 21
328.3134240653168
 31
0.0
  0
LINE
  5
93C
330
1F
100
AcDbEntity
  8
SPOJOVACÍ
  6
Continuous
100
AcDbLine
 10
1590.331324076123
 20
331.7100446677256
 30
0.0
 11
1591.245459172706
 21
328.2751131019456
 31
0.0
  0
LINE
  5
93D
330
1F
100
AcDbEntity
  8
SPOJOVACÍ
  6
Continuous
100
AcDbLine
 10
1590.843394330516
 20
327.9225674879114
 30
0.0
 11
1590.650448576426
 21
328.3134240653168
 31
0.0
  0
LINE
  5
93E
330
1F
100
AcDbEntity
  8
SPOJOVACÍ
  6
Continuous
100
AcDbLine
 10
1590.843394330516
 20
327.9225674879114
 30
0.0
 11
1591.245459172706
 21
328.2751131019456
 31
0.0
  0
LINE
  5
93F
330
1F
100
AcDbEntity
  8
SPOJOVACÍ
  6
Continuous
100
AcDbLine
 10
1590.137509835785
 20
332.1018892678373
 30
0.0
 11
1589.736313479842
 21
331.7483556310978
 31
0.0
  0
LINE
  5
940
330
1F
100
AcDbEntity
  8
SPOJOVACÍ
  6
Continuous
100
AcDbLine
 10
1590.137509835785
 20
332.1018892678373
 30
0.0
 11
1590.331324076123
 21
331.7100446677256
 31
0.0
  0
LINE
  5
941
330
1F
100
AcDbEntity
  8
SPOJOVACÍ
  6
Continuous
100
AcDbLine
 10
1590.506055989906
 20
328.8213955978033
 30
0.0
 11
1588.523307865419
 21
328.7029839489603
 31
0.0
  0
LINE
  5
942
330
1F
100
AcDbEntity
  8
SPOJOVACÍ
  6
Continuous
100
AcDbLine
 10
1593.229029509252
 20
328.9853565267747
 30
0.0
 11
1591.079677580938
 21
328.8562336570264
 31
0.0
  0
LINE
  5
943
330
1F
100
AcDbEntity
  8
SPOJOVACÍ
  6
Continuous
100
AcDbLine
 10
1595.962273585682
 20
329.1495882598171
 30
0.0
 11
1593.804507607135
 21
329.0200750466654
 31
0.0
  0
LINE
  5
944
330
1F
100
AcDbEntity
  8
SPOJOVACÍ
  6
Continuous
100
AcDbLine
 10
1596.330056852169
 20
329.9396327599404
 30
0.0
 11
1599.387983748143
 21
329.3559196461908
 31
0.0
  0
LINE
  5
945
330
1F
100
AcDbEntity
  8
SPOJOVACÍ
  6
Continuous
100
AcDbLine
 10
1593.418526938348
 20
330.4952777687028
 30
0.0
 11
1595.715872362768
 21
330.0565427334193
 31
0.0
  0
LINE
  5
946
330
1F
100
AcDbEntity
  8
SPOJOVACÍ
  6
Continuous
100
AcDbLine
 10
1590.495977515823
 20
331.0534964977867
 30
0.0
 11
1592.794251193535
 21
330.6147016906577
 31
0.0
  0
LINE
  5
947
330
1F
100
AcDbEntity
  8
SPOJOVACÍ
  6
Continuous
100
AcDbLine
 10
1599.387983748143
 20
329.3559196461908
 30
0.0
 11
1596.53496692287
 21
329.1844860865456
 31
0.0
  0
LINE
  5
948
330
1F
100
AcDbEntity
  8
SPOJOVACÍ
  6
Continuous
100
AcDbLine
 10
1588.696753131927
 20
331.3967760743842
 30
0.0
 11
1589.881793026418
 21
331.1704064712646
 31
0.0
  0
LINE
  5
949
330
1F
100
AcDbEntity
  8
SPOJOVACÍ
  6
Continuous
100
AcDbLine
 10
1588.187280040597
 20
328.7246197816145
 30
0.0
 11
1588.523307865419
 21
328.7029839489603
 31
0.0
  0
LINE
  5
94A
330
1F
100
AcDbEntity
  8
SPOJOVACÍ
  6
Continuous
100
AcDbLine
 10
1585.071132502958
 20
328.9252592574846
 30
0.0
 11
1587.584843414973
 21
328.7634088849388
 31
0.0
  0
LINE
  5
94B
330
1F
100
AcDbEntity
  8
SPOJOVACÍ
  6
Continuous
100
AcDbLine
 10
1587.45196497378
 20
331.4769242832233
 30
0.0
 11
1588.696753131927
 21
331.3967760743842
 31
0.0
  0
LINE
  5
94C
330
1F
100
AcDbEntity
  8
SPOJOVACÍ
  6
Continuous
100
AcDbLine
 10
1584.344171719053
 20
331.6770258516533
 30
0.0
 11
1586.856954377504
 21
331.5152352465945
 31
0.0
  0
LINE
  5
94D
330
1F
100
AcDbEntity
  8
SPOJOVACÍ
  6
Continuous
100
AcDbLine
 10
1581.955913219149
 20
329.1258389658512
 30
0.0
 11
1584.471480638577
 21
328.9638690583112
 31
0.0
  0
LINE
  5
94E
330
1F
100
AcDbEntity
  8
SPOJOVACÍ
  6
Continuous
100
AcDbLine
 10
1578.839765681775
 20
329.326478441704
 30
0.0
 11
1581.362759130278
 21
329.1640303942301
 31
0.0
  0
LINE
  5
94F
330
1F
100
AcDbEntity
  8
SPOJOVACÍ
  6
Continuous
100
AcDbLine
 10
1581.217813391357
 20
331.8783227699393
 30
0.0
 11
1583.740806839864
 21
331.7158747224655
 31
0.0
  0
LINE
  5
950
330
1F
100
AcDbEntity
  8
SPOJOVACÍ
  6
Continuous
100
AcDbLine
 10
1580.855509447035
 20
332.9539935021728
 30
0.0
 11
1580.454372858402
 21
332.6013881162769
 31
0.0
  0
LINE
  5
951
330
1F
100
AcDbEntity
  8
SPOJOVACÍ
  6
Continuous
100
AcDbLine
 10
1580.855509447035
 20
332.9539935021728
 30
0.0
 11
1581.049383454686
 21
332.5630771529056
 31
0.0
  0
LINE
  5
952
330
1F
100
AcDbEntity
  8
SPOJOVACÍ
  6
Continuous
100
AcDbLine
 10
1577.34101008173
 20
332.8018482896675
 30
0.0
 11
1578.437319617619
 21
328.6784810672586
 31
0.0
  0
LINE
  5
953
330
1F
100
AcDbEntity
  8
SPOJOVACÍ
  6
Continuous
100
AcDbLine
 10
1577.936020678014
 20
332.7635373262953
 30
0.0
 11
1579.032330213623
 21
328.6401701039055
 31
0.0
  0
LINE
  5
954
330
1F
100
AcDbEntity
  8
SPOJOVACÍ
  6
Continuous
100
AcDbLine
 10
1578.631193625558
 20
328.2875647223479
 30
0.0
 11
1578.437319617619
 21
328.6784810672586
 31
0.0
  0
LINE
  5
955
330
1F
100
AcDbEntity
  8
SPOJOVACÍ
  6
Continuous
100
AcDbLine
 10
1578.631193625558
 20
328.2875647223479
 30
0.0
 11
1579.032330213623
 21
328.6401701039055
 31
0.0
  0
LINE
  5
956
330
1F
100
AcDbEntity
  8
SPOJOVACÍ
  6
Continuous
100
AcDbLine
 10
1577.742146670362
 20
333.1544536755634
 30
0.0
 11
1577.34101008173
 21
332.8018482896675
 31
0.0
  0
LINE
  5
957
330
1F
100
AcDbEntity
  8
SPOJOVACÍ
  6
Continuous
100
AcDbLine
 10
1577.742146670362
 20
333.1544536755634
 30
0.0
 11
1577.936020678014
 21
332.7635373262953
 31
0.0
  0
LINE
  5
958
330
1F
100
AcDbEntity
  8
SPOJOVACÍ
  6
Continuous
100
AcDbLine
 10
1577.742146670362
 20
333.1544536755634
 30
0.0
 11
1578.631193625558
 21
328.2875647223479
 31
0.0
  0
LINE
  5
959
330
1F
100
AcDbEntity
  8
SPOJOVACÍ
  6
Continuous
100
AcDbLine
 10
1574.226719051766
 20
333.0023682305279
 30
0.0
 11
1575.323956840947
 21
328.8789412406501
 31
0.0
  0
LINE
  5
95A
330
1F
100
AcDbEntity
  8
SPOJOVACÍ
  6
Continuous
100
AcDbLine
 10
1574.821729647773
 20
332.9640572671739
 30
0.0
 11
1575.918967437227
 21
328.840630277278
 31
0.0
  0
LINE
  5
95B
330
1F
100
AcDbEntity
  8
SPOJOVACÍ
  6
Continuous
100
AcDbLine
 10
1575.517830848882
 20
328.4880248957386
 30
0.0
 11
1575.323956840947
 21
328.8789412406501
 31
0.0
  0
LINE
  5
95C
330
1F
100
AcDbEntity
  8
SPOJOVACÍ
  6
Continuous
100
AcDbLine
 10
1575.517830848882
 20
328.4880248957386
 30
0.0
 11
1575.918967437227
 21
328.840630277278
 31
0.0
  0
LINE
  5
95D
330
1F
100
AcDbEntity
  8
SPOJOVACÍ
  6
Continuous
100
AcDbLine
 10
1574.628783893963
 20
333.3549138489368
 30
0.0
 11
1574.226719051766
 21
333.0023682305279
 31
0.0
  0
LINE
  5
95E
330
1F
100
AcDbEntity
  8
SPOJOVACÍ
  6
Continuous
100
AcDbLine
 10
1574.628783893963
 20
333.3549138489368
 30
0.0
 11
1574.821729647773
 21
332.9640572671739
 31
0.0
  0
LINE
  5
95F
330
1F
100
AcDbEntity
  8
SPOJOVACÍ
  6
Continuous
100
AcDbLine
 10
1574.628783893963
 20
333.3549138489368
 30
0.0
 11
1575.517830848882
 21
328.4880248957386
 31
0.0
  0
LINE
  5
960
330
1F
100
AcDbEntity
  8
SPOJOVACÍ
  6
Continuous
100
AcDbLine
 10
1575.73104417348
 20
329.526639777622
 30
0.0
 11
1578.244755085498
 21
329.3647894050752
 31
0.0
  0
LINE
  5
961
330
1F
100
AcDbEntity
  8
SPOJOVACÍ
  6
Continuous
100
AcDbLine
 10
1578.109091883062
 20
332.0784841058582
 30
0.0
 11
1580.624659302491
 21
331.9165141983182
 31
0.0
  0
LINE
  5
962
330
1F
100
AcDbEntity
  8
SPOJOVACÍ
  6
Continuous
100
AcDbLine
 10
1574.992944345688
 20
332.279123581711
 30
0.0
 11
1577.506655257707
 21
332.1172732091643
 31
0.0
  0
LINE
  5
963
330
1F
100
AcDbEntity
  8
SPOJOVACÍ
  6
Continuous
100
AcDbLine
 10
1570.369312863905
 20
332.5768254671054
 30
0.0
 11
1574.398862003249
 21
332.317374777577
 31
0.0
  0
LINE
  5
964
330
1F
100
AcDbEntity
  8
SPOJOVACÍ
  6
Continuous
100
AcDbLine
 10
1570.195867597397
 20
329.8830333416815
 30
0.0
 11
1575.128607548125
 21
329.5654288809289
 31
0.0
  0
LINE
  5
965
330
1F
100
AcDbEntity
  8
SPOJOVACÍ
  6
Continuous
100
AcDbLine
 10
1567.636930064363
 20
336.6664945261679
 30
0.0
 11
1568.292810359019
 21
335.2717844664446
 31
0.0
  0
LINE
  5
966
330
1F
100
AcDbEntity
  8
SPOJOVACÍ
  6
Continuous
100
AcDbLine
 10
1568.292810359019
 20
335.2717844664446
 30
0.0
 11
1569.288011427397
 21
334.0947767458108
 31
0.0
  0
LINE
  5
967
330
1F
100
AcDbEntity
  8
SPOJOVACÍ
  6
Continuous
100
AcDbLine
 10
1566.872864263389
 20
334.0947767458108
 30
0.0
 11
1568.137966979145
 21
333.2154413086507
 31
0.0
  0
LINE
  5
968
330
1F
100
AcDbEntity
  8
SPOJOVACÍ
  6
Continuous
100
AcDbLine
 10
1568.137966979145
 20
333.2154413086507
 30
0.0
 11
1569.588253759509
 21
332.6932947769425
 31
0.0
  0
LINE
  5
969
330
1F
100
AcDbEntity
  8
SPOJOVACÍ
  6
Continuous
100
AcDbLine
 10
1569.588253759509
 20
332.6932947769425
 30
0.0
 11
1570.369312863905
 21
332.5768254671054
 31
0.0
  0
LINE
  5
96A
330
1F
100
AcDbEntity
  8
SPOJOVACÍ
  6
Continuous
100
AcDbLine
 10
1565.944038722452
 20
328.3550429709137
 30
0.0
 11
1564.948361593316
 21
327.1794561184058
 31
0.0
  0
LINE
  5
96B
330
1F
100
AcDbEntity
  8
SPOJOVACÍ
  6
Continuous
100
AcDbLine
 10
1567.363508757323
 20
327.1794561184058
 30
0.0
 11
1566.981519730008
 21
326.487264887113
 31
0.0
  0
LINE
  5
96C
330
1F
100
AcDbEntity
  8
SPOJOVACÍ
  6
Continuous
100
AcDbLine
 10
1567.636930064363
 20
336.6664945261679
 30
0.0
 11
1566.981519730008
 21
326.487264887113
 31
0.0
  0
LINE
  5
96D
330
1F
100
AcDbEntity
  8
SPOJOVACÍ
  6
Continuous
100
AcDbLine
 10
1564.024335678458
 20
336.7435945928634
 30
0.0
 11
1565.221782900356
 21
336.6664945261679
 31
0.0
  0
LINE
  5
96E
330
1F
100
AcDbEntity
  8
SPOJOVACÍ
  6
Continuous
100
AcDbLine
 10
1564.024335678458
 20
336.7435945928634
 30
0.0
 11
1563.368925344107
 21
326.5643649538085
 31
0.0
  0
LINE
  5
96F
330
1F
100
AcDbEntity
  8
SPOJOVACÍ
  6
Continuous
100
AcDbLine
 10
1563.368925344107
 20
326.5643649538085
 30
0.0
 11
1564.566372566001
 21
326.487264887113
 31
0.0
  0
LINE
  5
970
330
1F
100
AcDbEntity
  8
SPOJOVACÍ
  6
Continuous
100
AcDbLine
 10
1570.195867597397
 20
329.8830333416815
 30
0.0
 11
1568.660804833746
 21
329.754438606297
 31
0.0
  0
LINE
  5
971
330
1F
100
AcDbEntity
  8
SPOJOVACÍ
  6
Continuous
100
AcDbLine
 10
1568.660804833746
 20
329.754438606297
 30
0.0
 11
1567.210472491816
 21
329.2335660346714
 31
0.0
  0
LINE
  5
972
330
1F
100
AcDbEntity
  8
SPOJOVACÍ
  6
Continuous
100
AcDbLine
 10
1567.210472491816
 20
329.2335660346714
 30
0.0
 11
1565.944038722452
 21
328.3550429709137
 31
0.0
  0
LWPOLYLINE
  5
973
330
1F
100
AcDbEntity
  8
NOSNÉ KONSTRUKCE
100
AcDbPolyline
 90
        7
 70
     0
 43
0.0
 10
1577.870607634925
 20
113.6589656634175
 42
-0.0072417954699014
 10
1577.459202423651
 20
113.7145360312595
 42
-0.0707158694326265
 10
1575.523098971057
 20
114.2456625476795
 42
-0.033952657250207
 10
1571.170061245883
 20
116.494318387088
 42
-0.0571374688189033
 10
1568.863136962197
 20
118.28047514694
 42
-0.0274923553235744
 10
1566.478061639062
 20
120.8777808774927
 42
-0.0065397459216397
 10
1565.870607634925
 20
121.6370414057589
 42
-0.0272796991712396
  0
LWPOLYLINE
  5
97C
330
1F
100
AcDbEntity
  8
NOSNÉ KONSTRUKCE
100
AcDbPolyline
 90
        5
 70
     0
 43
0.0
 10
1577.870607634925
 20
97.84212841622389
 42
-0.0120721047703142
 10
1576.136719496181
 20
97.91111110626184
 42
-0.044358077361292
 10
1573.440919477764
 20
98.30673884093517
 42
-0.0188067511131767
 10
1566.198690302458
 20
100.3265622893184
 42
-0.0051027088350076
 10
1565.870607634925
 20
100.435212005507
 42
-0.0051027088350076
  0
LWPOLYLINE
  5
97D
330
1F
100
AcDbEntity
  8
NOSNÉ KONSTRUKCE
100
AcDbPolyline
 90
        2
 70
     0
 43
0.0
 10
1571.37143806567
 20
104.7504964154093
 10
1565.870607634925
 20
92.81520484072075
  0
LWPOLYLINE
  5
97E
330
1F
100
AcDbEntity
  8
NOSNÉ KONSTRUKCE
100
AcDbPolyline
 90
        4
 70
     0
 43
0.0
 10
1577.870607634925
 20
89.21791303618169
 42
-0.0128837512779303
 10
1574.537442813179
 20
89.50270499640714
 42
-0.0351641677647434
 10
1570.93373335884
 20
90.13046471793018
 42
-0.0080161298787018
 10
1565.870607634925
 20
91.47085550570659
 42
-0.0080161298787018
  0
LWPOLYLINE
  5
97F
330
1F
100
AcDbEntity
  8
NOSNÉ KONSTRUKCE
100
AcDbPolyline
 90
        4
 70
     0
 43
0.0
 10
1577.870607634925
 20
106.7091876397341
 42
-0.0168162630274191
 10
1576.179569482806
 20
106.8442132187981
 42
-0.0575155827655532
 10
1573.079944822088
 20
107.5242454991409
 42
-0.0308717424615247
 10
1565.870607634925
 20
110.5096018947394
 42
-0.0308717424615247
  0
LWPOLYLINE
  5
980
330
1F
100
AcDbEntity
  8
NOSNÉ KONSTRUKCE
100
AcDbPolyline
 90
        4
 70
     1
 43
0.0
 10
1565.870607634925
 20
80.75147149835606
 10
1577.870607634925
 20
80.75147149835606
 10
1577.870607634925
 20
130.751471498356
 10
1565.870607634925
 20
130.751471498356
  0
LWPOLYLINE
  5
981
330
1F
100
AcDbEntity
  8
NOSNÉ KONSTRUKCE
100
AcDbPolyline
 90
        2
 70
     0
 43
0.0
 10
1572.353276939407
 20
124.0430740406543
 10
1565.870607634925
 20
111.0872185742343
  0
LWPOLYLINE
  5
982
330
1F
100
AcDbEntity
  8
NOSNÉ KONSTRUKCE
100
AcDbPolyline
 90
        7
 70
     0
 43
0.0
 10
1577.870607634925
 20
126.236703018673
 42
-0.0203924744732807
 10
1576.857477605771
 20
127.1387870030837
 42
-0.0273961979096945
 10
1576.069301231745
 20
127.988651353279
 42
-0.0243529190212958
 10
1575.195541887078
 20
129.1517718456987
 42
-0.0398020282482987
 10
1574.755913143631
 20
129.9267303832591
 42
-0.104168275620852
 10
1574.665896683454
 20
130.3131415195991
 42
-0.007272956268647
 10
1574.647443332159
 20
130.751471498356
 42
-0.007272956268647
  0
LWPOLYLINE
  5
983
330
1F
100
AcDbEntity
  8
NOSNÉ KONSTRUKCE
100
AcDbPolyline
 90
        9
 70
     0
 43
0.0
 10
1577.870607634925
 20
120.8870166841541
 42
-0.0064239028828688
 10
1577.651493975575
 20
120.9258851243346
 42
-0.0832048017309575
 10
1575.32128039592
 20
121.7100677270161
 42
-0.0336767237692336
 10
1572.59300587646
 20
123.4128842859379
 42
-0.0844635135812105
 10
1571.688584271464
 20
124.3326940458307
 42
-0.0495829410719565
 10
1570.711934764152
 20
126.0813724831848
 42
-0.0322692699774654
 10
1569.670411262751
 20
128.9727266642755
 42
-0.0276160659512937
 10
1569.473675833807
 20
129.8283031025628
 42
-0.0126891984598699
 10
1569.338473444265
 20
130.751471498356
  0
LWPOLYLINE
  5
98E
330
1F
100
AcDbEntity
  8
PROFILY
100
AcDbPolyline
 90
        2
 70
     1
 43
2.5
 10
1565.422325466817
 20
112.5640953429563
 42
-1.0
 10
1562.923106677396
 20
112.5016018022249
 42
-1.0
  0
HATCH
  5
98F
330
1F
100
AcDbEntity
  8
PROFILY
100
AcDbHatch
 10
0.0
 20
0.0
 30
0.0
210
0.0
220
0.0
230
1.0
  2
SOLID
 70
     1
 71
     0
 91
        1
 92
        1
 93
        4
 72
     1
 10
1566.689226435591
 20
112.5011230475272
 11
1561.692824571796
 21
112.8197126093916
 72
     1
 10
1561.6928245718
 20
112.8197126093916
 11
1561.084361388234
 21
100.5784152029816
 72
     1
 10
1561.084361388234
 20
100.5784152029816
 11
1566.080763252029
 21
100.2598256411163
 72
     1
 10
1566.080763252033
 20
100.2598256411154
 11
1566.689226435598
 21
112.5011230475263
 97
        0
 75
     0
 76
     1
 98
        1
 10
-18090.71180651683
 20
-3156.245116206886
  0
LWPOLYLINE
  5
990
330
1F
100
AcDbEntity
  8
PROFILY
100
AcDbPolyline
 90
        2
 70
     1
 43
2.5
 10
1564.870552871615
 20
100.4479198640654
 42
-1.0
 10
1562.371334082202
 20
100.385426323334
 42
-1.0
  0
HATCH
  5
991
330
1F
100
AcDbEntity
  8
CETRIS
100
AcDbHatch
 10
0.0
 20
0.0
 30
0.0
210
0.0
220
0.0
230
1.0
  2
ANSI31
 70
     0
 71
     0
 91
        3
 92
        7
 72
     0
 73
     1
 93
        6
 10
1577.870607634925
 20
370.8062879367469
 10
1565.885572744285
 20
371.4054028423404
 10
1564.169358170969
 20
337.07327164519
 10
1564.647229782268
 20
337.049383520716
 10
1566.589542759319
 20
333.6043648759939
 10
1575.966345809377
 20
332.7123526882194
 97
        0
 92
        7
 72
     0
 73
     1
 93
        6
 10
1560.42012740494
 20
262.0715297015438
 10
1572.435111200479
 20
262.0715297015428
 10
1575.781672305477
 20
329.0180390148359
 10
1566.361754279583
 20
329.0475547352823
 10
1564.085559558261
 20
325.8134133107403
 10
1563.607687946976
 20
325.8373014352134
 97
        0
 92
        7
 72
     0
 73
     1
 93
        5
 10
1572.435111200479
 20
262.0715297015428
 10
1560.42012740494
 20
262.0715297015428
 10
1551.05747883085
 20
74.77578929896186
 10
1553.903958827111
 20
71.62975184990205
 10
1562.892734995089
 20
71.18041567070736
 97
        0
 75
     0
 76
     1
 52
90.0
 41
1.0
 77
     0
 78
     1
 53
135.0
 43
-8622.864245346429
 44
3653.943719221385
 45
-2.245064030267288
 46
-2.245064030267287
 79
     0
 47
1.163336804849115
 98
        3
 10
1571.117172776968
 20
351.9377556118458
 10
1567.625249053569
 20
292.6075816587333
 10
1565.297299904631
 20
184.4172505168906
  0
LINE
  5
992
330
1F
100
AcDbEntity
  8
CETRIS
100
AcDbLine
 10
1553.903958827111
 20
71.62975184990205
 30
0.0
 11
1551.05747883085
 21
74.77578929896186
 31
0.0
  0
LINE
  5
993
330
1F
100
AcDbEntity
  8
CETRIS
100
AcDbLine
 10
1553.903958827111
 20
71.62975184990205
 30
0.0
 11
1562.892734995089
 21
71.18041567070736
 31
0.0
  0
LINE
  5
994
330
1F
100
AcDbEntity
  8
CETRIS
100
AcDbLine
 10
1565.885572744285
 20
371.4054028423404
 30
0.0
 11
1551.05747883085
 21
74.77578929896186
 31
0.0
  0
LINE
  5
995
330
1F
100
AcDbEntity
  8
CETRIS
100
AcDbLine
 10
1577.870607634925
 20
370.8062879367469
 30
0.0
 11
1562.892734995089
 21
71.18041567070736
 31
0.0
  0
TEXT
  5
996
330
1F
100
AcDbEntity
  8
POPIS
100
AcDbText
 10
1427.407245164421
 20
-488.7342253919917
 30
0.0
 40
25.0
  1
Silikonový tmel
 41
0.7
  7
SIMPLEX7
100
AcDbText
  0
TEXT
  5
997
330
1F
100
AcDbEntity
  8
POPIS
100
AcDbText
 10
1373.063542004675
 20
-488.7342253919917
 30
0.0
 40
25.0
  1
09
 41
0.85
  7
SIMPLEX7
100
AcDbText
  0
LWPOLYLINE
  5
998
330
1F
100
AcDbEntity
  8
STAVBA OBRYS
  6
DASHED
100
AcDbPolyline
 90
        4
 70
     1
 43
0.0
 10
1633.776636416253
 20
263.3335916130424
 10
1639.149917741107
 20
263.3335916130424
 10
1639.149917741107
 20
313.453163632065
 10
1633.776636416253
 20
313.453163632065
  0
LINE
  5
999
330
1F
100
AcDbEntity
  8
STAVBA OBRYS
  6
DASHED
100
AcDbLine
 10
1799.520248973732
 20
294.9558776225547
 30
0.0
 11
1639.149917741107
 21
294.9558776225564
 31
0.0
  0
LINE
  5
99A
330
1F
100
AcDbEntity
  8
STAVBA OBRYS
  6
DASHED
100
AcDbLine
 10
1803.309110115288
 20
288.3933776225546
 30
0.0
 11
1799.520248973732
 21
294.9558776225547
 31
0.0
  0
LINE
  5
99B
330
1F
100
AcDbEntity
  8
STAVBA OBRYS
  6
DASHED
100
AcDbLine
 10
1803.309110115288
 20
288.3933776225546
 30
0.0
 11
1799.520248973732
 21
281.8308776225546
 31
0.0
  0
LINE
  5
99C
330
1F
100
AcDbEntity
  8
STAVBA OBRYS
  6
DASHDOT2
100
AcDbLine
 10
1605.391673239433
 20
288.3933776225556
 30
0.0
 11
1818.168162305531
 21
288.3933776225546
 31
0.0
  0
LINE
  5
99D
330
1F
100
AcDbEntity
  8
STAVBA OBRYS
  6
DASHED
100
AcDbLine
 10
1799.520248973732
 20
281.8308776225546
 30
0.0
 11
1639.149917741107
 21
281.8308776225565
 31
0.0
  0
LINE
  5
99E
330
1F
100
AcDbEntity
  8
NOSNÉ KONSTRUKCE
100
AcDbLine
 10
1628.448049348016
 20
519.858350361327
 30
0.0
 11
1628.448049348016
 21
526.3694239740359
 31
0.0
  0
LWPOLYLINE
  5
99F
330
1F
100
AcDbEntity
  8
NOSNÉ KONSTRUKCE
100
AcDbPolyline
 90
        2
 70
     0
 43
0.0
 10
1614.948049347992
 20
200.4485580101079
 10
1614.948049347992
 20
177.8707563918176
  0
LINE
  5
9A0
330
1F
100
AcDbEntity
  8
NOSNÉ KONSTRUKCE
100
AcDbLine
 10
1614.948049347994
 20
210.8293725596875
 30
0.0
 11
1614.948049347994
 21
231.0323289544673
 31
0.0
  0
LINE
  5
9A1
330
1F
100
AcDbEntity
  8
NOSNÉ KONSTRUKCE
100
AcDbLine
 10
1614.948049347994
 20
210.8293725596875
 30
0.0
 11
1614.948049347994
 21
231.0323289544673
 31
0.0
  0
LINE
  5
9A2
330
1F
100
AcDbEntity
  8
NOSNÉ KONSTRUKCE
100
AcDbLine
 10
1711.448049348009
 20
534.712581303397
 30
0.0
 11
1711.44804934801
 21
494.6818768118252
 31
0.0
  0
LINE
  5
9A3
330
1F
100
AcDbEntity
  8
NOSNÉ KONSTRUKCE
100
AcDbLine
 10
1614.948049347994
 20
519.858350361327
 30
0.0
 11
1614.948049347994
 21
540.0613067560723
 31
0.0
  0
LINE
  5
9A4
330
1F
100
AcDbEntity
  8
NOSNÉ KONSTRUKCE
100
AcDbLine
 10
1614.948049347994
 20
519.858350361327
 30
0.0
 11
1614.948049347994
 21
540.0613067560723
 31
0.0
  0
LWPOLYLINE
  5
9A5
330
1F
100
AcDbEntity
  8
NOSNÉ KONSTRUKCE
100
AcDbPolyline
 90
        2
 70
     0
 43
0.0
 10
1614.948049347992
 20
509.4775358117474
 10
1614.948049347992
 20
486.8997341934225
  0
LINE
  5
9A6
330
1F
100
AcDbEntity
  8
NOSNÉ KONSTRUKCE
100
AcDbLine
 10
1612.382477593545
 20
479.3052724637043
 30
0.0
 11
1614.948049347947
 21
486.8997341934225
 31
0.0
  0
LINE
  5
9A7
330
1F
100
AcDbEntity
  8
NOSNÉ KONSTRUKCE
100
AcDbLine
 10
1612.382477593545
 20
550.0306137093709
 30
0.0
 11
1614.948049347947
 21
542.4361519796518
 31
0.0
  0
LINE
  5
9A8
330
1F
100
AcDbEntity
  8
NOSNÉ KONSTRUKCE
100
AcDbLine
 10
1602.239980814685
 20
536.8613656800487
 30
0.0
 11
1602.239980814687
 21
545.1113656800487
 31
0.0
  0
CIRCLE
  5
9A9
330
1F
100
AcDbEntity
  8
NOSNÉ KONSTRUKCE
100
AcDbCircle
 10
1602.239980814685
 20
540.9863656800487
 30
0.0
 40
3.0
  0
LINE
  5
9AA
330
1F
100
AcDbEntity
  8
NOSNÉ KONSTRUKCE
100
AcDbLine
 10
1603.552480814686
 20
538.2668978281542
 30
0.0
 11
1603.552480814686
 21
538.2887104481858
 31
0.0
  0
LINE
  5
9AB
330
1F
100
AcDbEntity
  8
NOSNÉ KONSTRUKCE
100
AcDbLine
 10
1600.927480814686
 20
538.288710448184
 30
0.0
 11
1600.927480814686
 21
538.2668978281542
 31
0.0
  0
ARC
  5
9AC
330
1F
100
AcDbEntity
  8
NOSNÉ KONSTRUKCE
100
AcDbCircle
 10
1602.239980814687
 20
538.2668978281542
 30
0.0
 40
1.3125
100
AcDbArc
 50
180.0
 51
0.0
  0
LINE
  5
9AD
330
1F
100
AcDbEntity
  8
NOSNÉ KONSTRUKCE
100
AcDbLine
 10
1606.364980814684
 20
540.9863656800487
 30
0.0
 11
1598.114980814685
 21
540.9863656800468
 31
0.0
  0
LINE
  5
9AE
330
1F
100
AcDbEntity
  8
NOSNÉ KONSTRUKCE
100
AcDbLine
 10
1603.552480814686
 20
543.6840209119098
 30
0.0
 11
1603.552480814686
 21
543.7058335319395
 31
0.0
  0
LINE
  5
9AF
330
1F
100
AcDbEntity
  8
NOSNÉ KONSTRUKCE
100
AcDbLine
 10
1600.927480814686
 20
543.7058335319395
 30
0.0
 11
1600.927480814686
 21
543.6840209119134
 31
0.0
  0
ARC
  5
9B0
330
1F
100
AcDbEntity
  8
NOSNÉ KONSTRUKCE
100
AcDbCircle
 10
1602.239980814687
 20
543.7058335319395
 30
0.0
 40
1.3125
100
AcDbArc
 50
0.0
 51
180.0
  0
ARC
  5
9B1
330
1F
100
AcDbEntity
  8
NOSNÉ KONSTRUKCE
100
AcDbCircle
 10
1602.239980814688
 20
532.0437083739623
 30
0.0
 40
1.75
100
AcDbArc
 50
0.0
 51
180.0
  0
ARC
  5
9B2
330
1F
100
AcDbEntity
  8
NOSNÉ KONSTRUKCE
100
AcDbCircle
 10
1602.239980814687
 20
485.6300526411348
 30
0.0
 40
1.3125
100
AcDbArc
 50
180.0
 51
0.0
  0
LINE
  5
9B3
330
1F
100
AcDbEntity
  8
NOSNÉ KONSTRUKCE
100
AcDbLine
 10
1600.927480814686
 20
485.6300526411348
 30
0.0
 11
1600.927480814686
 21
485.6518652611619
 31
0.0
  0
LINE
  5
9B4
330
1F
100
AcDbEntity
  8
NOSNÉ KONSTRUKCE
100
AcDbLine
 10
1603.552480814686
 20
485.6518652611637
 30
0.0
 11
1603.552480814686
 21
485.6300526411348
 31
0.0
  0
CIRCLE
  5
9B5
330
1F
100
AcDbEntity
  8
NOSNÉ KONSTRUKCE
100
AcDbCircle
 10
1602.239980814685
 20
488.3495204930266
 30
0.0
 40
3.0
  0
LINE
  5
9B6
330
1F
100
AcDbEntity
  8
NOSNÉ KONSTRUKCE
100
AcDbLine
 10
1602.239980814685
 20
492.4745204930266
 30
0.0
 11
1602.239980814687
 21
484.2245204930265
 31
0.0
  0
ARC
  5
9B7
330
1F
100
AcDbEntity
  8
NOSNÉ KONSTRUKCE
100
AcDbCircle
 10
1602.239980814688
 20
502.1804265047519
 30
0.0
 40
1.75
100
AcDbArc
 50
0.0
 51
180.0
  0
ARC
  5
9B8
330
1F
100
AcDbEntity
  8
NOSNÉ KONSTRUKCE
100
AcDbCircle
 10
1602.239980814688
 20
497.292177799112
 30
0.0
 40
1.75
100
AcDbArc
 50
180.0
 51
0.0
  0
LINE
  5
9B9
330
1F
100
AcDbEntity
  8
NOSNÉ KONSTRUKCE
100
AcDbLine
 10
1600.489980814688
 20
497.292177799112
 30
0.0
 11
1600.489980814688
 21
502.1804265047519
 31
0.0
  0
LINE
  5
9BA
330
1F
100
AcDbEntity
  8
NOSNÉ KONSTRUKCE
100
AcDbLine
 10
1603.989980814688
 20
502.1804265047519
 30
0.0
 11
1603.989980814688
 21
497.292177799112
 31
0.0
  0
LINE
  5
9BB
330
1F
100
AcDbEntity
  8
NOSNÉ KONSTRUKCE
100
AcDbLine
 10
1606.364980814684
 20
488.3495204930266
 30
0.0
 11
1598.114980814685
 21
488.3495204930275
 31
0.0
  0
ARC
  5
9BC
330
1F
100
AcDbEntity
  8
NOSNÉ KONSTRUKCE
100
AcDbCircle
 10
1602.239980814687
 20
491.0689883449201
 30
0.0
 40
1.3125
100
AcDbArc
 50
0.0
 51
180.0
  0
LINE
  5
9BD
330
1F
100
AcDbEntity
  8
NOSNÉ KONSTRUKCE
100
AcDbLine
 10
1600.927480814686
 20
491.0471757248912
 30
0.0
 11
1600.927480814686
 21
491.0689883449201
 31
0.0
  0
LINE
  5
9BE
330
1F
100
AcDbEntity
  8
NOSNÉ KONSTRUKCE
100
AcDbLine
 10
1603.552480814686
 20
491.0689883449201
 30
0.0
 11
1603.552480814686
 21
491.0471757248886
 31
0.0
  0
ARC
  5
9BF
330
1F
100
AcDbEntity
  8
NOSNÉ KONSTRUKCE
100
AcDbCircle
 10
1602.239980814688
 20
527.1554596683224
 30
0.0
 40
1.75
100
AcDbArc
 50
180.0
 51
0.0
  0
LINE
  5
9C0
330
1F
100
AcDbEntity
  8
NOSNÉ KONSTRUKCE
100
AcDbLine
 10
1603.989980814688
 20
527.1554596683224
 30
0.0
 11
1603.989980814688
 21
532.0437083739623
 31
0.0
  0
LINE
  5
9C1
330
1F
100
AcDbEntity
  8
NOSNÉ KONSTRUKCE
100
AcDbLine
 10
1600.489980814688
 20
532.0437083739623
 30
0.0
 11
1600.489980814688
 21
527.1554596683224
 31
0.0
  0
LWPOLYLINE
  5
9C2
330
1F
100
AcDbEntity
  8
NOSNÉ KONSTRUKCE
100
AcDbPolyline
 90
        3
 70
     0
 43
0.0
 10
1612.382477593545
 20
479.3052724637043
 10
1589.425108229342
 20
479.3052724637043
 10
1589.425108229342
 20
512.4675651184268
  0
LINE
  5
9C3
330
1F
100
AcDbEntity
  8
NOSNÉ KONSTRUKCE
100
AcDbLine
 10
1598.526658026679
 20
516.8683210546484
 30
0.0
 11
1602.12158909899
 21
519.858350361327
 31
0.0
  0
LINE
  5
9C4
330
1F
100
AcDbEntity
  8
NOSNÉ KONSTRUKCE
100
AcDbLine
 10
1589.425108229342
 20
512.4675651184268
 30
0.0
 11
1598.526658026679
 21
512.4675651184268
 31
0.0
  0
LINE
  5
9C5
330
1F
100
AcDbEntity
  8
NOSNÉ KONSTRUKCE
100
AcDbLine
 10
1598.526658026679
 20
512.4675651184268
 30
0.0
 11
1602.12158909899
 21
509.4775358117474
 31
0.0
  0
LINE
  5
9C6
330
1F
100
AcDbEntity
  8
NOSNÉ KONSTRUKCE
100
AcDbLine
 10
1589.425108229342
 20
516.8683210546484
 30
0.0
 11
1598.526658026679
 21
516.8683210546484
 31
0.0
  0
LWPOLYLINE
  5
9C7
330
1F
100
AcDbEntity
  8
NOSNÉ KONSTRUKCE
100
AcDbPolyline
 90
        3
 70
     0
 43
0.0
 10
1589.425108229342
 20
516.8683210546484
 10
1589.425108229342
 20
550.0306137093709
 10
1612.382477593545
 20
550.0306137093709
  0
LINE
  5
9C8
330
1F
100
AcDbEntity
  8
NOSNÉ KONSTRUKCE
100
AcDbLine
 10
1644.828322146414
 20
509.4775358117474
 30
0.0
 11
1644.828322146414
 21
519.0347845729664
 31
0.0
  0
LINE
  5
9C9
330
1F
100
AcDbEntity
  8
NOSNÉ KONSTRUKCE
100
AcDbLine
 10
1644.828322146414
 20
519.858350361327
 30
0.0
 11
1644.828322146414
 21
510.301101600108
 31
0.0
  0
LINE
  5
9CA
330
1F
100
AcDbEntity
  8
NOSNÉ KONSTRUKCE
100
AcDbLine
 10
1602.12158909899
 20
509.4775358117474
 30
0.0
 11
1644.828322146414
 21
509.4775358117474
 31
0.0
  0
LINE
  5
9CB
330
1F
100
AcDbEntity
  8
NOSNÉ KONSTRUKCE
100
AcDbLine
 10
1602.12158909899
 20
519.858350361327
 30
0.0
 11
1644.828322146414
 21
519.858350361327
 31
0.0
  0
LINE
  5
9CC
330
1F
100
AcDbEntity
  8
NOSNÉ KONSTRUKCE
100
AcDbLine
 10
1628.448049347965
 20
494.6818768118216
 30
0.0
 11
1711.448049348007
 21
494.6818768118252
 31
0.0
  0
ARC
  5
9CD
330
1F
100
AcDbEntity
  8
NOSNÉ KONSTRUKCE
100
AcDbCircle
 10
1711.448049347956
 20
491.9782281144104
 30
0.0
 40
2.703648697414791
100
AcDbArc
 50
90.0
 51
270.0
  0
LINE
  5
9CE
330
1F
100
AcDbEntity
  8
NOSNÉ KONSTRUKCE
100
AcDbLine
 10
1628.448049347965
 20
534.7125813034015
 30
0.0
 11
1711.448049348009
 21
534.712581303397
 31
0.0
  0
ARC
  5
9CF
330
1F
100
AcDbEntity
  8
NOSNÉ KONSTRUKCE
100
AcDbCircle
 10
1711.448049347956
 20
537.4162300008126
 30
0.0
 40
2.703648697414791
100
AcDbArc
 50
90.0
 51
270.0
  0
LINE
  5
9D0
330
1F
100
AcDbEntity
  8
NOSNÉ KONSTRUKCE
100
AcDbLine
 10
1612.38247759354
 20
170.2762946620648
 30
0.0
 11
1614.948049347941
 21
177.870756391783
 31
0.0
  0
LINE
  5
9D1
330
1F
100
AcDbEntity
  8
NOSNÉ KONSTRUKCE
100
AcDbLine
 10
1612.38247759354
 20
241.0016359077315
 30
0.0
 11
1614.948049347941
 21
233.4071741780123
 31
0.0
  0
LINE
  5
9D2
330
1F
100
AcDbEntity
  8
NOSNÉ KONSTRUKCE
100
AcDbLine
 10
1602.239980814679
 20
227.8323878784092
 30
0.0
 11
1602.239980814679
 21
236.0823878784092
 31
0.0
  0
CIRCLE
  5
9D3
330
1F
100
AcDbEntity
  8
NOSNÉ KONSTRUKCE
100
AcDbCircle
 10
1602.239980814679
 20
231.9573878784092
 30
0.0
 40
3.0
  0
LINE
  5
9D4
330
1F
100
AcDbEntity
  8
NOSNÉ KONSTRUKCE
100
AcDbLine
 10
1603.552480814681
 20
229.2379200265147
 30
0.0
 11
1603.552480814681
 21
229.2597326465463
 31
0.0
  0
LINE
  5
9D5
330
1F
100
AcDbEntity
  8
NOSNÉ KONSTRUKCE
100
AcDbLine
 10
1600.927480814683
 20
229.2597326465445
 30
0.0
 11
1600.927480814683
 21
229.2379200265147
 31
0.0
  0
ARC
  5
9D6
330
1F
100
AcDbEntity
  8
NOSNÉ KONSTRUKCE
100
AcDbCircle
 10
1602.239980814683
 20
229.2379200265147
 30
0.0
 40
1.3125
100
AcDbArc
 50
180.0
 51
0.0
  0
LINE
  5
9D7
330
1F
100
AcDbEntity
  8
NOSNÉ KONSTRUKCE
100
AcDbLine
 10
1606.364980814679
 20
231.9573878784092
 30
0.0
 11
1598.114980814679
 21
231.9573878784074
 31
0.0
  0
LINE
  5
9D8
330
1F
100
AcDbEntity
  8
NOSNÉ KONSTRUKCE
100
AcDbLine
 10
1603.552480814683
 20
234.6550431102712
 30
0.0
 11
1603.552480814683
 21
234.6768557303
 31
0.0
  0
LINE
  5
9D9
330
1F
100
AcDbEntity
  8
NOSNÉ KONSTRUKCE
100
AcDbLine
 10
1600.927480814683
 20
234.6768557303
 30
0.0
 11
1600.927480814683
 21
234.6550431102739
 31
0.0
  0
ARC
  5
9DA
330
1F
100
AcDbEntity
  8
NOSNÉ KONSTRUKCE
100
AcDbCircle
 10
1602.239980814683
 20
234.6768557303
 30
0.0
 40
1.3125
100
AcDbArc
 50
0.0
 51
180.0
  0
ARC
  5
9DB
330
1F
100
AcDbEntity
  8
NOSNÉ KONSTRUKCE
100
AcDbCircle
 10
1602.239980814683
 20
223.0147305723228
 30
0.0
 40
1.75
100
AcDbArc
 50
0.0
 51
180.0
  0
ARC
  5
9DC
330
1F
100
AcDbEntity
  8
NOSNÉ KONSTRUKCE
100
AcDbCircle
 10
1602.239980814683
 20
176.6010748394953
 30
0.0
 40
1.3125
100
AcDbArc
 50
180.0
 51
0.0
  0
LINE
  5
9DD
330
1F
100
AcDbEntity
  8
NOSNÉ KONSTRUKCE
100
AcDbLine
 10
1600.927480814683
 20
176.6010748394953
 30
0.0
 11
1600.927480814683
 21
176.6228874595224
 31
0.0
  0
LINE
  5
9DE
330
1F
100
AcDbEntity
  8
NOSNÉ KONSTRUKCE
100
AcDbLine
 10
1603.552480814683
 20
176.6228874595251
 30
0.0
 11
1603.552480814683
 21
176.6010748394953
 31
0.0
  0
CIRCLE
  5
9DF
330
1F
100
AcDbEntity
  8
NOSNÉ KONSTRUKCE
100
AcDbCircle
 10
1602.239980814679
 20
179.3205426913871
 30
0.0
 40
3.0
  0
LINE
  5
9E0
330
1F
100
AcDbEntity
  8
NOSNÉ KONSTRUKCE
100
AcDbLine
 10
1602.239980814679
 20
183.4455426913871
 30
0.0
 11
1602.239980814679
 21
175.1955426913871
 31
0.0
  0
ARC
  5
9E1
330
1F
100
AcDbEntity
  8
NOSNÉ KONSTRUKCE
100
AcDbCircle
 10
1602.239980814683
 20
193.1514487031124
 30
0.0
 40
1.75
100
AcDbArc
 50
0.0
 51
180.0
  0
ARC
  5
9E2
330
1F
100
AcDbEntity
  8
NOSNÉ KONSTRUKCE
100
AcDbCircle
 10
1602.239980814683
 20
188.2631999974735
 30
0.0
 40
1.75
100
AcDbArc
 50
180.0
 51
0.0
  0
LINE
  5
9E3
330
1F
100
AcDbEntity
  8
NOSNÉ KONSTRUKCE
100
AcDbLine
 10
1600.489980814683
 20
188.2631999974735
 30
0.0
 11
1600.489980814683
 21
193.1514487031124
 31
0.0
  0
LINE
  5
9E4
330
1F
100
AcDbEntity
  8
NOSNÉ KONSTRUKCE
100
AcDbLine
 10
1603.989980814683
 20
193.1514487031124
 30
0.0
 11
1603.989980814683
 21
188.2631999974735
 31
0.0
  0
LINE
  5
9E5
330
1F
100
AcDbEntity
  8
NOSNÉ KONSTRUKCE
100
AcDbLine
 10
1606.364980814679
 20
179.3205426913871
 30
0.0
 11
1598.114980814679
 21
179.320542691388
 31
0.0
  0
ARC
  5
9E6
330
1F
100
AcDbEntity
  8
NOSNÉ KONSTRUKCE
100
AcDbCircle
 10
1602.239980814683
 20
182.0400105432806
 30
0.0
 40
1.3125
100
AcDbArc
 50
0.0
 51
180.0
  0
LINE
  5
9E7
330
1F
100
AcDbEntity
  8
NOSNÉ KONSTRUKCE
100
AcDbLine
 10
1600.927480814683
 20
182.0181979232518
 30
0.0
 11
1600.927480814683
 21
182.0400105432806
 31
0.0
  0
LINE
  5
9E8
330
1F
100
AcDbEntity
  8
NOSNÉ KONSTRUKCE
100
AcDbLine
 10
1603.552480814681
 20
182.0400105432806
 30
0.0
 11
1603.552480814681
 21
182.018197923249
 31
0.0
  0
ARC
  5
9E9
330
1F
100
AcDbEntity
  8
NOSNÉ KONSTRUKCE
100
AcDbCircle
 10
1602.239980814683
 20
218.1264818666829
 30
0.0
 40
1.75
100
AcDbArc
 50
180.0
 51
0.0
  0
LINE
  5
9EA
330
1F
100
AcDbEntity
  8
NOSNÉ KONSTRUKCE
100
AcDbLine
 10
1603.989980814683
 20
218.1264818666829
 30
0.0
 11
1603.989980814683
 21
223.0147305723228
 31
0.0
  0
LINE
  5
9EB
330
1F
100
AcDbEntity
  8
NOSNÉ KONSTRUKCE
100
AcDbLine
 10
1600.489980814683
 20
223.0147305723228
 30
0.0
 11
1600.489980814683
 21
218.1264818666829
 31
0.0
  0
LWPOLYLINE
  5
9EC
330
1F
100
AcDbEntity
  8
NOSNÉ KONSTRUKCE
100
AcDbPolyline
 90
        3
 70
     0
 43
0.0
 10
1612.38247759354
 20
170.2762946620648
 10
1589.425108229336
 20
170.2762946620648
 10
1589.425108229336
 20
203.4385873167873
  0
LINE
  5
9ED
330
1F
100
AcDbEntity
  8
NOSNÉ KONSTRUKCE
100
AcDbLine
 10
1598.526658026673
 20
207.839343253009
 30
0.0
 11
1602.121589098985
 21
210.8293725596875
 31
0.0
  0
LINE
  5
9EE
330
1F
100
AcDbEntity
  8
NOSNÉ KONSTRUKCE
100
AcDbLine
 10
1589.425108229336
 20
203.4385873167873
 30
0.0
 11
1598.526658026673
 21
203.4385873167873
 31
0.0
  0
LINE
  5
9EF
330
1F
100
AcDbEntity
  8
NOSNÉ KONSTRUKCE
100
AcDbLine
 10
1598.526658026673
 20
203.4385873167873
 30
0.0
 11
1602.121589098985
 21
200.4485580101079
 31
0.0
  0
LINE
  5
9F0
330
1F
100
AcDbEntity
  8
NOSNÉ KONSTRUKCE
100
AcDbLine
 10
1589.425108229336
 20
207.839343253009
 30
0.0
 11
1598.526658026673
 21
207.839343253009
 31
0.0
  0
LWPOLYLINE
  5
9F1
330
1F
100
AcDbEntity
  8
NOSNÉ KONSTRUKCE
100
AcDbPolyline
 90
        3
 70
     0
 43
0.0
 10
1589.425108229336
 20
207.839343253009
 10
1589.425108229336
 20
241.0016359077315
 10
1612.38247759354
 20
241.0016359077315
  0
LINE
  5
9F2
330
1F
100
AcDbEntity
  8
NOSNÉ KONSTRUKCE
100
AcDbLine
 10
1644.828322146409
 20
200.4485580101079
 30
0.0
 11
1644.828322146409
 21
210.0058067713268
 31
0.0
  0
LINE
  5
9F3
330
1F
100
AcDbEntity
  8
NOSNÉ KONSTRUKCE
100
AcDbLine
 10
1644.828322146409
 20
210.8293725596875
 30
0.0
 11
1644.828322146409
 21
201.2721237984685
 31
0.0
  0
LINE
  5
9F4
330
1F
100
AcDbEntity
  8
NOSNÉ KONSTRUKCE
100
AcDbLine
 10
1602.121589098985
 20
200.4485580101079
 30
0.0
 11
1644.828322146409
 21
200.4485580101079
 31
0.0
  0
LINE
  5
9F5
330
1F
100
AcDbEntity
  8
NOSNÉ KONSTRUKCE
100
AcDbLine
 10
1602.121589098985
 20
210.8293725596875
 30
0.0
 11
1644.828322146409
 21
210.8293725596875
 31
0.0
  0
LINE
  5
9F6
330
1F
100
AcDbEntity
  8
NOSNÉ KONSTRUKCE
100
AcDbLine
 10
1628.44804934796
 20
185.6528990101821
 30
0.0
 11
1711.448049348001
 21
185.6528990101858
 31
0.0
  0
ARC
  5
9F7
330
1F
100
AcDbEntity
  8
NOSNÉ KONSTRUKCE
100
AcDbCircle
 10
1711.44804934795
 20
182.9492503127719
 30
0.0
 40
2.703648697414791
100
AcDbArc
 50
90.0
 51
270.0
  0
LINE
  5
9F8
330
1F
100
AcDbEntity
  8
NOSNÉ KONSTRUKCE
100
AcDbLine
 10
1628.44804934796
 20
225.683603501762
 30
0.0
 11
1711.448049348003
 21
225.6836035017584
 31
0.0
  0
ARC
  5
9F9
330
1F
100
AcDbEntity
  8
NOSNÉ KONSTRUKCE
100
AcDbCircle
 10
1711.44804934795
 20
228.3872521991731
 30
0.0
 40
2.703648697414791
100
AcDbArc
 50
90.0
 51
270.0
  0
LINE
  5
9FA
330
1F
100
AcDbEntity
  8
POPIS
100
AcDbLine
 10
1629.947092772511
 20
70.14934645034441
 30
0.0
 11
1557.732684355543
 21
-27.44732354292978
 31
0.0
  0
INSERT
  5
9FB
330
1F
100
AcDbEntity
  8
POPIS
100
AcDbBlockReference
  2
E_PUNKT
 10
1629.717781315673
 20
69.93123401630214
 30
0.0
  0
TEXT
  5
9FC
330
1F
100
AcDbEntity
  8
POPIS
100
AcDbText
 10
1371.076083598137
 20
-40.89066499230034
 30
0.0
 40
25.0
  1
07
 41
0.7
  7
SIMPLEX7
100
AcDbText
  0
LINE
  5
9FD
330
1F
100
AcDbEntity
  8
POPIS
100
AcDbLine
 10
1411.611518892688
 20
-27.44732354292978
 30
0.0
 11
1557.732684355543
 21
-27.44732354292978
 31
0.0
  0
LINE
  5
9FE
330
1F
100
AcDbEntity
  8
SPOJOVACÍ
100
AcDbLine
 10
1779.041744057363
 20
513.1458652016533
 30
0.0
 11
1779.875804110639
 21
516.2586196970448
 31
0.0
  0
LINE
  5
9FF
330
1F
100
AcDbEntity
  8
SPOJOVACÍ
100
AcDbLine
 10
1773.316228417748
 20
512.7707357276565
 30
0.0
 11
1774.351720032318
 21
516.6352430440399
 31
0.0
  0
LINE
  5
A00
330
1F
100
AcDbEntity
  8
SPOJOVACÍ
100
AcDbLine
 10
1771.413349146759
 20
512.6666888718489
 30
0.0
 11
1772.505267002259
 21
516.7417817862586
 31
0.0
  0
LINE
  5
A01
330
1F
100
AcDbEntity
  8
SPOJOVACÍ
100
AcDbLine
 10
1769.513257881435
 20
512.5730469948309
 30
0.0
 11
1770.649337658417
 21
516.8129544439787
 31
0.0
  0
LINE
  5
A02
330
1F
100
AcDbEntity
  8
SPOJOVACÍ
100
AcDbLine
 10
1767.615940201946
 20
512.4897562810772
 30
0.0
 11
1768.804674028276
 21
516.9261713176108
 31
0.0
  0
LINE
  5
A03
330
1F
100
AcDbEntity
  8
SPOJOVACÍ
100
AcDbLine
 10
1775.301706234895
 20
513.1830445543617
 30
0.0
 11
1776.195621905655
 21
516.519183255318
 31
0.0
  0
LINE
  5
A04
330
1F
100
AcDbEntity
  8
SPOJOVACÍ
100
AcDbLine
 10
1777.140990146169
 20
513.0497502965834
 30
0.0
 11
1778.036980666618
 21
516.3936324420026
 31
0.0
  0
LINE
  5
A05
330
1F
100
AcDbEntity
  8
SPOJOVACÍ
100
AcDbLine
 10
1780.955927066198
 20
513.2920981814184
 30
0.0
 11
1781.721580010245
 21
516.149553869566
 31
0.0
  0
LINE
  5
A06
330
1F
100
AcDbEntity
  8
SPOJOVACÍ
100
AcDbLine
 10
1765.712462317696
 20
512.3834753701573
 30
0.0
 11
1766.950516717979
 21
517.0039572945504
 31
0.0
  0
LINE
  5
A07
330
1F
100
AcDbEntity
  8
SPOJOVACÍ
100
AcDbLine
 10
1762.000621018728
 20
512.5258855811632
 30
0.0
 11
1763.234435059453
 21
517.1305422682324
 31
0.0
  0
LINE
  5
A08
330
1F
100
AcDbEntity
  8
SPOJOVACÍ
100
AcDbLine
 10
1760.05412945905
 20
512.2590754481304
 30
0.0
 11
1761.37249174696
 21
517.179270489393
 31
0.0
  0
LINE
  5
A09
330
1F
100
AcDbEntity
  8
SPOJOVACÍ
100
AcDbLine
 10
1758.170475823362
 20
512.2267796400708
 30
0.0
 11
1759.507933677155
 21
517.2182403034119
 31
0.0
  0
LINE
  5
A0A
330
1F
100
AcDbEntity
  8
SPOJOVACÍ
100
AcDbLine
 10
1756.289516602676
 20
512.2045395256979
 30
0.0
 11
1757.640750672507
 21
517.2474137272245
 31
0.0
  0
LINE
  5
A0B
330
1F
100
AcDbEntity
  8
SPOJOVACÍ
100
AcDbLine
 10
1754.411239762549
 20
512.1923101918562
 30
0.0
 11
1755.77093226878
 21
517.2667517077814
 31
0.0
  0
LINE
  5
A0C
330
1F
100
AcDbEntity
  8
SPOJOVACÍ
100
AcDbLine
 10
1752.535633583301
 20
512.1900479001039
 30
0.0
 11
1753.898467710026
 21
517.276214103336
 31
0.0
  0
LINE
  5
A0D
330
1F
100
AcDbEntity
  8
SPOJOVACÍ
100
AcDbLine
 10
1750.662686654187
 20
512.197710064959
 30
0.0
 11
1752.023345943381
 21
517.2757596640219
 31
0.0
  0
LINE
  5
A0E
330
1F
100
AcDbEntity
  8
SPOJOVACÍ
100
AcDbLine
 10
1743.167387867771
 20
512.2152552329096
 30
0.0
 11
1744.496055040886
 21
517.1739086293298
 31
0.0
  0
LINE
  5
A0F
330
1F
100
AcDbEntity
  8
SPOJOVACÍ
100
AcDbLine
 10
1745.059691777479
 20
512.2798343031124
 30
0.0
 11
1746.381922299023
 21
517.214465788829
 31
0.0
  0
LINE
  5
A10
330
1F
100
AcDbEntity
  8
SPOJOVACÍ
100
AcDbLine
 10
1746.917387867771
 20
512.2152552329096
 30
0.0
 11
1748.265085057797
 21
517.2449296193051
 31
0.0
  0
LINE
  5
A11
330
1F
100
AcDbEntity
  8
SPOJOVACÍ
100
AcDbLine
 10
1748.792387867771
 20
512.2152552329096
 30
0.0
 11
1750.145555613662
 21
517.2653460117405
 31
0.0
  0
LINE
  5
A12
330
1F
100
AcDbEntity
  8
SPOJOVACÍ
100
AcDbLine
 10
1749.089951445404
 20
513.3257776231173
 30
0.0
 11
1749.72834941951
 21
515.7083112979387
 31
0.0
  0
LINE
  5
A13
330
1F
100
AcDbEntity
  8
SPOJOVACÍ
100
AcDbLine
 10
1747.255718426025
 20
513.4779220660719
 30
0.0
 11
1747.82188825723
 21
515.5908966418398
 31
0.0
  0
LINE
  5
A14
330
1F
100
AcDbEntity
  8
SPOJOVACÍ
100
AcDbLine
 10
1745.424000064572
 20
513.6394513401598
 30
0.0
 11
1745.914663455259
 21
515.4706320436205
 31
0.0
  0
LINE
  5
A15
330
1F
100
AcDbEntity
  8
SPOJOVACÍ
100
AcDbLine
 10
1763.85524787982
 20
512.4498519916439
 30
0.0
 11
1764.952680813559
 21
516.5455274582589
 31
0.0
  0
LINE
  5
A16
330
1F
100
AcDbEntity
  8
SPOJOVACÍ
100
AcDbLine
 10
1733.924093788178
 20
512.7067884195273
 30
0.0
 11
1735.025697702615
 21
516.8180301980271
 31
0.0
  0
LINE
  5
A17
330
1F
100
AcDbEntity
  8
SPOJOVACÍ
100
AcDbLine
 10
1735.773572608513
 20
512.6115420803478
 30
0.0
 11
1736.925283541807
 21
516.9097857990425
 31
0.0
  0
LINE
  5
A18
330
1F
100
AcDbEntity
  8
SPOJOVACÍ
100
AcDbLine
 10
1737.625621018728
 20
512.5258855811632
 30
0.0
 11
1738.822098378226
 21
516.991199876911
 31
0.0
  0
LINE
  5
A19
330
1F
100
AcDbEntity
  8
SPOJOVACÍ
100
AcDbLine
 10
1739.48024787982
 20
512.4498519916439
 30
0.0
 11
1740.716156204727
 21
517.0623246536913
 31
0.0
  0
LINE
  5
A1A
330
1F
100
AcDbEntity
  8
SPOJOVACÍ
100
AcDbLine
 10
1732.077175957597
 20
512.8115925025857
 30
0.0
 11
1733.123326507212
 21
516.7158795061157
 31
0.0
  0
LINE
  5
A1B
330
1F
100
AcDbEntity
  8
SPOJOVACÍ
100
AcDbLine
 10
1741.337462317696
 20
512.3834753701573
 30
0.0
 11
1742.607470661026
 21
517.1232110335065
 31
0.0
  0
LINE
  5
A1C
330
1F
100
AcDbEntity
  8
NOSNÉ KONSTRUKCE
100
AcDbLine
 10
1614.948049347994
 20
540.0613067560723
 30
0.0
 11
1717.448049348001
 21
540.0613067560668
 31
0.0
  0
LINE
  5
A1D
330
1F
100
AcDbEntity
  8
NOSNÉ KONSTRUKCE
100
AcDbLine
 10
1614.948049347992
 20
489.274579417002
 30
0.0
 11
1717.448049348003
 21
489.2745794169957
 31
0.0
  0
LINE
  5
A1E
330
1F
100
AcDbEntity
  8
NOSNÉ KONSTRUKCE
100
AcDbLine
 10
1614.948049347994
 20
500.0613067560705
 30
0.0
 11
1614.948049347994
 21
509.4775358117474
 31
0.0
  0
LINE
  5
A1F
330
1F
100
AcDbEntity
  8
NOSNÉ KONSTRUKCE
100
AcDbLine
 10
1614.948049347992
 20
489.274579417002
 30
0.0
 11
1614.948049347994
 21
509.4775358117474
 31
0.0
  0
LWPOLYLINE
  5
A20
330
1F
100
AcDbEntity
  8
NOSNÉ KONSTRUKCE
100
AcDbPolyline
 90
        2
 70
     0
 43
0.0
 10
1614.948049347992
 20
542.4361519796518
 10
1614.948049347992
 20
519.858350361327
  0
LINE
  5
A21
330
1F
100
AcDbEntity
  8
SPOJOVACÍ
100
AcDbLine
 10
1708.224236151917
 20
522.2451641770301
 30
0.0
 11
1708.224236151917
 21
500.605443086534
 31
0.0
  0
LINE
  5
A22
330
1F
100
AcDbEntity
  8
SPOJOVACÍ
100
AcDbLine
 10
1708.214861151918
 20
524.9804430865339
 30
0.0
 11
1708.214861151918
 21
504.355443086534
 31
0.0
  0
LINE
  5
A23
330
1F
100
AcDbEntity
  8
SPOJOVACÍ
100
AcDbLine
 10
1711.082127647022
 20
528.730443086534
 30
0.0
 11
1711.082127647022
 21
514.667943086534
 31
0.0
  0
LINE
  5
A24
330
1F
100
AcDbEntity
  8
SPOJOVACÍ
100
AcDbLine
 10
1711.082127647022
 20
528.730443086534
 30
0.0
 11
1711.082127647022
 21
514.667943086534
 31
0.0
  0
LINE
  5
A25
330
1F
100
AcDbEntity
  8
SPOJOVACÍ
100
AcDbLine
 10
1708.224236151917
 20
514.667943086534
 30
0.0
 11
1708.224236151917
 21
528.730443086534
 31
0.0
  0
LINE
  5
A26
330
1F
100
AcDbEntity
  8
SPOJOVACÍ
100
AcDbLine
 10
1713.747139165061
 20
514.378916530152
 30
0.0
 11
1713.903105128002
 21
514.9609894280972
 31
0.0
  0
LINE
  5
A27
330
1F
100
AcDbEntity
  8
SPOJOVACÍ
100
AcDbLine
 10
1715.568865333519
 20
514.180095884122
 30
0.0
 11
1715.813395869377
 21
515.0926962679466
 31
0.0
  0
LINE
  5
A28
330
1F
100
AcDbEntity
  8
SPOJOVACÍ
100
AcDbLine
 10
1708.224236151917
 20
500.605443086534
 30
0.0
 11
1711.082127647022
 21
500.605443086534
 31
0.0
  0
LINE
  5
A29
330
1F
100
AcDbEntity
  8
SPOJOVACÍ
100
AcDbLine
 10
1703.536736151917
 20
504.355443086534
 30
0.0
 11
1708.224236151917
 21
504.355443086534
 31
0.0
  0
LINE
  5
A2A
330
1F
100
AcDbEntity
  8
SPOJOVACÍ
100
AcDbLine
 10
1708.224236151917
 20
509.980443086534
 30
0.0
 11
1703.536736151917
 21
509.980443086534
 31
0.0
  0
LINE
  5
A2B
330
1F
100
AcDbEntity
  8
SPOJOVACÍ
100
AcDbLine
 10
1708.224236151917
 20
519.355443086534
 30
0.0
 11
1703.536736151917
 21
519.355443086534
 31
0.0
  0
LINE
  5
A2C
330
1F
100
AcDbEntity
  8
SPOJOVACÍ
100
AcDbLine
 10
1711.082127647022
 20
514.667943086534
 30
0.0
 11
1711.082127647022
 21
500.605443086534
 31
0.0
  0
LINE
  5
A2D
330
1F
100
AcDbEntity
  8
SPOJOVACÍ
100
AcDbLine
 10
1711.082127647022
 20
514.667943086534
 30
0.0
 11
1711.082127647022
 21
500.605443086534
 31
0.0
  0
LINE
  5
A2E
330
1F
100
AcDbEntity
  8
SPOJOVACÍ
100
AcDbLine
 10
1717.393080045512
 20
513.9905626089974
 30
0.0
 11
1717.802236339353
 21
515.517554685857
 31
0.0
  0
LINE
  5
A2F
330
1F
100
AcDbEntity
  8
SPOJOVACÍ
100
AcDbLine
 10
1719.219789485217
 20
513.8103397844522
 30
0.0
 11
1719.727453058311
 21
515.7049660323971
 31
0.0
  0
LINE
  5
A30
330
1F
100
AcDbEntity
  8
SPOJOVACÍ
100
AcDbLine
 10
1721.049000064572
 20
513.6394513401598
 30
0.0
 11
1721.649755625053
 21
515.8815016148098
 31
0.0
  0
LINE
  5
A31
330
1F
100
AcDbEntity
  8
SPOJOVACÍ
100
AcDbLine
 10
1722.880718426025
 20
513.4779220660719
 30
0.0
 11
1723.569161580492
 21
516.0472268966666
 31
0.0
  0
LINE
  5
A32
330
1F
100
AcDbEntity
  8
SPOJOVACÍ
100
AcDbLine
 10
1724.714951445404
 20
513.3257776231173
 30
0.0
 11
1725.485688034684
 21
516.2022057335632
 31
0.0
  0
LINE
  5
A33
330
1F
100
AcDbEntity
  8
SPOJOVACÍ
100
AcDbLine
 10
1728.390990146169
 20
513.0497502965834
 30
0.0
 11
1729.310168784586
 21
516.4801716763848
 31
0.0
  0
LINE
  5
A34
330
1F
100
AcDbEntity
  8
SPOJOVACÍ
100
AcDbLine
 10
1730.232810773591
 20
512.9259231923576
 30
0.0
 11
1731.218155233871
 21
516.6032787810824
 31
0.0
  0
LINE
  5
A35
330
1F
100
AcDbEntity
  8
SPOJOVACÍ
100
AcDbLine
 10
1726.551706234898
 20
513.1830445543617
 30
0.0
 11
1727.399351676772
 21
516.3465004102433
 31
0.0
  0
LINE
  5
A36
330
1F
100
AcDbEntity
  8
SPOJOVACÍ
100
AcDbLine
 10
1708.224236151917
 20
524.9804430865339
 30
0.0
 11
1703.536736151917
 21
524.9804430865339
 31
0.0
  0
LINE
  5
A37
330
1F
100
AcDbEntity
  8
SPOJOVACÍ
100
AcDbLine
 10
1708.224236151917
 20
524.9804430865339
 30
0.0
 11
1708.214861151918
 21
524.9804430865339
 31
0.0
  0
LINE
  5
A38
330
1F
100
AcDbEntity
  8
SPOJOVACÍ
100
AcDbLine
 10
1711.082127647022
 20
528.730443086534
 30
0.0
 11
1708.224236151917
 21
528.730443086534
 31
0.0
  0
LINE
  5
A39
330
1F
100
AcDbEntity
  8
SPOJOVACÍ
100
AcDbLine
 10
1701.661736151917
 20
523.105443086534
 30
0.0
 11
1701.661736151917
 21
506.2304430865339
 31
0.0
  0
ARC
  5
A3A
330
1F
100
AcDbEntity
  8
SPOJOVACÍ
100
AcDbCircle
 10
1703.536736151917
 20
508.105443086534
 30
0.0
 40
1.875
100
AcDbArc
 50
90.0
 51
180.0
  0
ARC
  5
A3B
330
1F
100
AcDbEntity
  8
SPOJOVACÍ
100
AcDbCircle
 10
1703.536736151917
 20
506.2304430865339
 30
0.0
 40
1.875
100
AcDbArc
 50
180.0
 51
270.0
  0
ARC
  5
A3C
330
1F
100
AcDbEntity
  8
SPOJOVACÍ
100
AcDbCircle
 10
1703.536736151917
 20
521.230443086534
 30
0.0
 40
1.875
100
AcDbArc
 50
180.0
 51
270.0
  0
ARC
  5
A3D
330
1F
100
AcDbEntity
  8
SPOJOVACÍ
100
AcDbCircle
 10
1708.326306846659
 20
514.667943086534
 30
0.0
 40
6.701689614562111
100
AcDbArc
 50
135.6170676673795
 51
224.3829323326205
  0
ARC
  5
A3E
330
1F
100
AcDbEntity
  8
SPOJOVACÍ
100
AcDbCircle
 10
1703.536736151917
 20
523.105443086534
 30
0.0
 40
1.875
100
AcDbArc
 50
90.0
 51
180.0
  0
LINE
  5
A3F
330
1F
100
AcDbEntity
  8
SPOJOVACÍ
  6
DASHED
100
AcDbLine
 10
1798.782583732253
 20
514.6679430865321
 30
0.0
 11
1794.993722590697
 21
521.2304430865322
 31
0.0
  0
LINE
  5
A40
330
1F
100
AcDbEntity
  8
SPOJOVACÍ
  6
DASHED
100
AcDbLine
 10
1798.782583732253
 20
514.6679430865321
 30
0.0
 11
1794.993722590697
 21
508.1054430865322
 31
0.0
  0
LINE
  5
A41
330
1F
100
AcDbEntity
  8
SPOJOVACÍ
100
AcDbLine
 10
1782.872975891106
 20
513.4490265323745
 30
0.0
 11
1783.545875005698
 21
515.9603202164023
 31
0.0
  0
LINE
  5
A42
330
1F
100
AcDbEntity
  8
SPOJOVACÍ
100
AcDbLine
 10
1784.792907297052
 20
513.6167128222211
 30
0.0
 11
1785.377136833597
 21
515.7970871358982
 31
0.0
  0
LINE
  5
A43
330
1F
100
AcDbEntity
  8
SPOJOVACÍ
100
AcDbLine
 10
1786.715738471689
 20
513.7952211961581
 30
0.0
 11
1787.205892104576
 21
515.6244994576016
 31
0.0
  0
LINE
  5
A44
330
1F
100
AcDbEntity
  8
SPOJOVACÍ
100
AcDbLine
 10
1790.570171051567
 20
514.1849688902246
 30
0.0
 11
1790.85590914704
 21
515.2513579801823
 31
0.0
  0
LINE
  5
A45
330
1F
100
AcDbEntity
  8
SPOJOVACÍ
100
AcDbLine
 10
1792.501809037584
 20
514.3963447316716
 30
0.0
 11
1792.677183431894
 21
515.0508508815881
 31
0.0
  0
LINE
  5
A46
330
1F
100
AcDbEntity
  8
SPOJOVACÍ
100
AcDbLine
 10
1794.436419975819
 20
514.6188157818557
 30
0.0
 11
1794.495976191915
 21
514.8410826062379
 31
0.0
  0
LINE
  5
A47
330
1F
100
AcDbEntity
  8
SPOJOVACÍ
100
AcDbLine
 10
1788.641487035379
 20
513.9846174142538
 30
0.0
 11
1789.03214741895
 21
515.4425818142451
 31
0.0
  0
LINE
  5
A48
330
1F
100
AcDbEntity
  8
SPOJOVACÍ
  6
DASHED
100
AcDbLine
 10
1789.407583732253
 20
514.6679430865321
 30
0.0
 11
1786.159988468063
 21
520.2929430865322
 31
0.0
  0
LINE
  5
A49
330
1F
100
AcDbEntity
  8
SPOJOVACÍ
  6
DASHED
100
AcDbLine
 10
1789.407583732253
 20
514.6679430865321
 30
0.0
 11
1786.159988468063
 21
509.0429430865322
 31
0.0
  0
LINE
  5
A4A
330
1F
100
AcDbEntity
  8
SPOJOVACÍ
  6
DASHED
100
AcDbLine
 10
1794.993722590697
 20
521.2304430865322
 30
0.0
 11
1713.894627647022
 21
521.230443086534
 31
0.0
  0
LINE
  5
A4B
330
1F
100
AcDbEntity
  8
SPOJOVACÍ
  6
DASHED
100
AcDbLine
 10
1794.993722590697
 20
508.1054430865322
 30
0.0
 11
1713.894627647022
 21
508.105443086534
 31
0.0
  0
LINE
  5
A4C
330
1F
100
AcDbEntity
  8
SPOJOVACÍ
  6
DASHDOT2
100
AcDbLine
 10
1698.721526178588
 20
514.667943086534
 30
0.0
 11
1813.641635922496
 21
514.6679430865321
 31
0.0
  0
TEXT
  5
A4D
330
1F
100
AcDbEntity
  8
POPIS
100
AcDbText
 10
1347.332293169008
 20
5.961143829889579
 30
0.0
 40
25.0
  1
TERÉN
 41
0.7
  7
SIMPLEX7
100
AcDbText
  0
HATCH
  5
A4F
330
1F
100
AcDbEntity
  8
PROFILY
100
AcDbHatch
 10
0.0
 20
0.0
 30
0.0
210
0.0
220
0.0
230
1.0
  2
SOLID
 70
     1
 71
     0
 91
        2
 92
        7
 72
     0
 73
     1
 93
        4
 10
1585.148145047206
 20
93.39778892313438
 10
1583.653865667379
 20
93.39778892313438
 10
1583.653865667379
 20
87.81298763895097
 10
1585.148145047206
 20
87.81298763895097
 97
        0
 92
        7
 72
     0
 73
     1
 93
        7
 10
1585.148145047206
 20
83.39214506066104
 10
1583.653865667379
 20
83.39214506066104
 10
1583.653865667379
 20
75.0024659525759
 10
1583.653865667379
 20
69.74639316536718
 10
1587.483585382214
 20
69.74639316536718
 10
1587.483585382214
 20
71.38909168424447
 10
1585.148145047206
 20
71.38909168424447
 97
        0
 75
     0
 76
     1
 47
0.169069331426656
 98
        2
 10
1584.527793782369
 20
90.57944700584698
 10
1584.358644741281
 20
76.37762316600561
  0
HATCH
  5
A50
330
1F
100
AcDbEntity
  8
PROFILY
100
AcDbHatch
 10
0.0
 20
0.0
 30
0.0
210
0.0
220
0.0
230
1.0
  2
SOLID
 70
     1
 71
     0
 91
        5
 92
        7
 72
     0
 73
     1
 93
        4
 10
1715.818085728249
 20
71.38909168424629
 10
1701.558696800911
 20
71.38909168424539
 10
1701.558696800911
 20
69.74639316536809
 10
1715.818085728249
 20
69.74639316536809
 97
        0
 92
        7
 72
     0
 73
     1
 93
        4
 10
1687.299307873574
 20
71.38909168424539
 10
1673.039918946236
 20
71.38909168424539
 10
1673.039918946236
 20
69.74639316536809
 10
1687.299307873574
 20
69.74639316536809
 97
        0
 92
        7
 72
     0
 73
     1
 93
        4
 10
1658.7805300189
 20
71.38909168424539
 10
1644.521141091562
 20
71.38909168424539
 10
1644.521141091562
 20
69.74639316536718
 10
1658.780530018898
 20
69.74639316536809
 97
        0
 92
        7
 72
     0
 73
     1
 93
        4
 10
1630.261752164225
 20
71.38909168424539
 10
1616.002363236889
 20
71.38909168424447
 10
1616.002363236889
 20
69.74639316536809
 10
1630.261752164225
 20
69.74639316536809
 97
        0
 92
        7
 72
     0
 73
     1
 93
        4
 10
1601.742974309551
 20
71.38909168424447
 10
1587.483585382214
 20
71.38909168424447
 10
1587.483585382214
 20
69.74639316536809
 10
1601.742974309551
 20
69.74639316536809
 97
        0
 75
     0
 76
     1
 47
0.2346926121939802
 98
        5
 10
1708.612157129372
 20
70.8401879215678
 10
1679.257790198509
 20
70.60550206843323
 10
1654.36530845459
 20
70.60550206843323
 10
1622.607194635081
 20
70.61038566520142
 10
1595.836027421031
 20
70.61038566520142
  0
LINE
  5
A51
330
1F
100
AcDbEntity
  8
PROFILY
100
AcDbLine
 10
1616.002363236889
 20
69.74639316536809
 30
0.0
 11
1616.002363236889
 21
71.38909168424539
 31
0.0
  0
LINE
  5
A52
330
1F
100
AcDbEntity
  8
PROFILY
100
AcDbLine
 10
1601.742974309551
 20
69.74639316536809
 30
0.0
 11
1601.742974309551
 21
71.38909168424539
 31
0.0
  0
LINE
  5
A53
330
1F
100
AcDbEntity
  8
PROFILY
100
AcDbLine
 10
1587.483585382214
 20
69.74639316536809
 30
0.0
 11
1587.483585382214
 21
71.38909168424539
 31
0.0
  0
LINE
  5
A54
330
1F
100
AcDbEntity
  8
NOSNÉ KONSTRUKCE
100
AcDbLine
 10
1630.261752164225
 20
69.74639316536809
 30
0.0
 11
1630.261752164225
 21
71.38909168424539
 31
0.0
  0
LINE
  5
A55
330
1F
100
AcDbEntity
  8
PROFILY
100
AcDbLine
 10
1644.521141091562
 20
69.74639316536809
 30
0.0
 11
1644.521141091562
 21
71.38909168424539
 31
0.0
  0
LINE
  5
A56
330
1F
100
AcDbEntity
  8
PROFILY
100
AcDbLine
 10
1658.7805300189
 20
69.74639316536809
 30
0.0
 11
1658.7805300189
 21
71.38909168424539
 31
0.0
  0
LINE
  5
A57
330
1F
100
AcDbEntity
  8
PROFILY
100
AcDbLine
 10
1673.039918946236
 20
69.74639316536809
 30
0.0
 11
1673.039918946236
 21
71.38909168424539
 31
0.0
  0
LINE
  5
A58
330
1F
100
AcDbEntity
  8
PROFILY
100
AcDbLine
 10
1687.299307873574
 20
69.74639316536809
 30
0.0
 11
1687.299307873574
 21
71.38909168424539
 31
0.0
  0
LINE
  5
A59
330
1F
100
AcDbEntity
  8
PROFILY
100
AcDbLine
 10
1701.558696800911
 20
69.74639316536809
 30
0.0
 11
1701.558696800911
 21
71.38909168424539
 31
0.0
  0
LINE
  5
A5A
330
1F
100
AcDbEntity
  8
PROFILY
100
AcDbLine
 10
1715.818085728249
 20
69.74639316536809
 30
0.0
 11
1715.818085728249
 21
71.38909168424539
 31
0.0
  0
LINE
  5
A5B
330
1F
100
AcDbEntity
  8
PROFILY
100
AcDbLine
 10
1583.653865667379
 20
75.0024659525759
 30
0.0
 11
1583.653865667379
 21
69.74639316536809
 31
0.0
  0
LINE
  5
A5C
330
1F
100
AcDbEntity
  8
SPOJOVACÍ
100
AcDbLine
 10
1583.010092849433
 20
83.39214506066104
 30
0.0
 11
1581.825531650714
 21
87.81298763895097
 31
0.0
  0
LINE
  5
A5D
330
1F
100
AcDbEntity
  8
SPOJOVACÍ
100
AcDbLine
 10
1579.318686599433
 20
83.39214506066104
 30
0.0
 11
1578.383869276548
 21
86.88093080546309
 31
0.0
  0
LINE
  5
A5E
330
1F
100
AcDbEntity
  8
SPOJOVACÍ
100
AcDbLine
 10
1577.398954749241
 20
85.60256634980556
 30
0.0
 11
1579.101971466821
 21
87.81298763895097
 31
0.0
  0
LINE
  5
A5F
330
1F
100
AcDbEntity
  8
SPOJOVACÍ
100
AcDbLine
 10
1577.398954749241
 20
85.60256634980556
 30
0.0
 11
1579.101971466821
 21
83.39214506066104
 31
0.0
  0
LINE
  5
A60
330
1F
100
AcDbEntity
  8
SPOJOVACÍ
100
AcDbLine
 10
1580.549155349431
 20
83.39214506066104
 30
0.0
 11
1579.364594150716
 21
87.81298763895097
 31
0.0
  0
LINE
  5
A61
330
1F
100
AcDbEntity
  8
SPOJOVACÍ
100
AcDbLine
 10
1581.779624099433
 20
83.39214506066104
 30
0.0
 11
1580.595062900715
 21
87.81298763895097
 31
0.0
  0
LINE
  5
A62
330
1F
100
AcDbEntity
  8
PROFILY
100
AcDbLine
 10
1585.148145047206
 20
71.38909168424447
 30
0.0
 11
1585.148145047206
 21
83.39214506066104
 31
0.0
  0
LINE
  5
A63
330
1F
100
AcDbEntity
  8
PROFILY
100
AcDbLine
 10
1585.148145047206
 20
87.81298763895097
 30
0.0
 11
1585.148145047206
 21
93.39778892313438
 31
0.0
  0
LINE
  5
A64
330
1F
100
AcDbEntity
  8
PROFILY
100
AcDbLine
 10
1583.653865667388
 20
93.39778892313438
 30
0.0
 11
1585.148145047206
 21
93.39778892313438
 31
0.0
  0
LINE
  5
A65
330
1F
100
AcDbEntity
  8
SPOJOVACÍ
100
AcDbLine
 10
1579.101971466821
 20
87.81298763895097
 30
0.0
 11
1585.699587050151
 21
87.81298763895097
 31
0.0
  0
LINE
  5
A66
330
1F
100
AcDbEntity
  8
SPOJOVACÍ
100
AcDbLine
 10
1579.101971466821
 20
83.39214506066104
 30
0.0
 11
1585.699587050151
 21
83.39214506066104
 31
0.0
  0
LINE
  5
A67
330
1F
100
AcDbEntity
  8
SPOJOVACÍ
100
AcDbLine
 10
1585.699587050151
 20
91.13967572480556
 30
0.0
 11
1585.699587050151
 21
85.60256634980556
 31
0.0
  0
LINE
  5
A68
330
1F
100
AcDbEntity
  8
SPOJOVACÍ
100
AcDbLine
 10
1585.699587050151
 20
85.60256634980556
 30
0.0
 11
1585.699587050151
 21
80.06545697480556
 31
0.0
  0
LINE
  5
A69
330
1F
100
AcDbEntity
  8
SPOJOVACÍ
100
AcDbLine
 10
1585.471030349435
 20
83.39214506066104
 30
0.0
 11
1584.286469150716
 21
87.81298763895097
 31
0.0
  0
LINE
  5
A6A
330
1F
100
AcDbEntity
  8
SPOJOVACÍ
100
AcDbLine
 10
1584.240561599433
 20
83.39214506066104
 30
0.0
 11
1583.056000400715
 21
87.81298763895097
 31
0.0
  0
ARC
  5
A6B
330
1F
100
AcDbEntity
  8
SPOJOVACÍ
100
AcDbCircle
 10
1581.389286981354
 20
85.60256634980556
 30
0.0
 40
7.016998426235272
100
AcDbArc
 50
307.8985698078451
 51
52.10143019215482
  0
LINE
  5
A6C
330
1F
100
AcDbEntity
  8
PROFILY
100
AcDbLine
 10
1715.818085728249
 20
69.74639316536809
 30
0.0
 11
1583.653865667388
 21
69.74639316536809
 31
0.0
  0
LINE
  5
A6D
330
1F
100
AcDbEntity
  8
PROFILY
100
AcDbLine
 10
1715.818085728249
 20
71.38909168424539
 30
0.0
 11
1585.148145047206
 21
71.38909168424447
 31
0.0
  0
LINE
  5
A6E
330
1F
100
AcDbEntity
  8
STAVBA OBRYS
100
AcDbLine
 10
1633.776636416253
 20
72.67490492162938
 30
0.0
 11
1715.818085728249
 21
72.67490492162938
 31
0.0
  0
LINE
  5
A6F
330
1F
100
AcDbEntity
  8
STAVBA OBRYS
100
AcDbLine
 10
1954.258410860729
 20
211.293694064331
 30
0.0
 11
2103.727926786242
 21
211.293694064331
 31
0.0
  0
LINE
  5
A70
330
1F
100
AcDbEntity
  8
STAVBA OBRYS
100
AcDbLine
 10
1954.393696593251
 20
198.7471621993033
 30
0.0
 11
2100.516140318967
 21
198.7471621993033
 31
0.0
  0
HATCH
  5
A71
330
1F
100
AcDbEntity
  8
STAVBA OBRYS
100
AcDbHatch
 10
0.0
 20
0.0
 30
0.0
210
0.0
220
0.0
230
1.0
  2
AR-SAND
 70
     0
 71
     0
 91
        1
 92
        7
 72
     0
 73
     1
 93
        4
 10
2100.516140318967
 20
198.7471621993033
 10
1954.393696593249
 20
198.7471621993033
 10
1954.314587983813
 20
154.3530394769702
 10
2089.151689638892
 20
154.3530394769702
 97
        0
 75
     0
 76
     1
 52
0.0
 41
0.35
 77
     0
 78
     4
 53
37.5
 43
696.6503931588915
 44
-43.16011194025782
 45
-0.560010953594416
 46
17.12946330652698
 79
     6
 49
0.0
 49
-13.5128
 49
0.0
 49
-15.113
 49
0.0
 49
-14.44625
 53
7.499999999999999
 43
696.6503931588915
 44
-43.16011194025782
 45
15.73331490983009
 46
25.08887851989239
 79
     6
 49
0.0
 49
-7.2898
 49
0.0
 49
-12.17929999999999
 49
0.0
 49
-4.66725
 53
327.4999999999999
 43
685.7156931588917
 44
-43.16011194025782
 45
27.68473295845102
 46
0.0503014637490992
 79
     6
 49
0.0
 49
-4.444999999999999
 49
0.0
 49
-16.002
 49
0.0
 49
-20.89149999999999
 53
317.5
 43
685.7156931588917
 44
-43.16011194025782
 45
26.7244758365304
 46
7.802526314002567
 79
     6
 49
0.0
 49
-2.222499999999999
 49
0.0
 49
-10.49019999999999
 49
0.0
 49
-12.00149999999999
 47
4.017849295243367
 98
        1
 10
2041.010006047769
 20
187.6917665981752
  0
LINE
  5
A72
330
1F
100
AcDbEntity
  8
STAVBA OBRYS
100
AcDbLine
 10
1954.040919922651
 20
0.7761585418390951
 30
0.0
 11
1954.125984271931
 21
48.51251983152611
 31
0.0
  0
LINE
  5
A73
330
1F
100
AcDbEntity
  8
STAVBA OBRYS
100
AcDbLine
 10
1954.156944816833
 20
154.3530394769702
 30
0.0
 11
1955.00189622756
 21
628.5223731236835
 31
0.0
  0
CIRCLE
  5
A74
330
1F
100
AcDbEntity
  8
NOSNÉ KONSTRUKCE
100
AcDbCircle
 10
1604.484147472182
 20
605.7373351199555
 30
0.0
 40
5.0
  0
LINE
  5
A75
330
1F
100
AcDbEntity
  8
SPOJOVACÍ
  6
DASHED
100
AcDbLine
 10
1789.407583732253
 20
205.6389652849272
 30
0.0
 11
1786.159988468063
 21
200.0139652849272
 31
0.0
  0
LINE
  5
A76
330
1F
100
AcDbEntity
  8
SPOJOVACÍ
  6
DASHED
100
AcDbLine
 10
1789.407583732253
 20
205.6389652849272
 30
0.0
 11
1786.159988468063
 21
211.2639652849273
 31
0.0
  0
LINE
  5
A77
330
1F
100
AcDbEntity
  8
SPOJOVACÍ
100
AcDbLine
 10
1788.641487035379
 20
204.9556396126488
 30
0.0
 11
1789.03214741895
 21
206.4136040126402
 31
0.0
  0
LINE
  5
A78
330
1F
100
AcDbEntity
  8
SPOJOVACÍ
100
AcDbLine
 10
1794.436419975819
 20
205.5898379802509
 30
0.0
 11
1794.495976191915
 21
205.812104804633
 31
0.0
  0
LINE
  5
A79
330
1F
100
AcDbEntity
  8
SPOJOVACÍ
100
AcDbLine
 10
1792.501809037584
 20
205.3673669300667
 30
0.0
 11
1792.677183431894
 21
206.0218730799831
 31
0.0
  0
LINE
  5
A7A
330
1F
100
AcDbEntity
  8
SPOJOVACÍ
100
AcDbLine
 10
1790.570171051567
 20
205.1559910886196
 30
0.0
 11
1790.85590914704
 21
206.2223801785774
 31
0.0
  0
LINE
  5
A7B
330
1F
100
AcDbEntity
  8
SPOJOVACÍ
100
AcDbLine
 10
1786.715738471689
 20
204.7662433945531
 30
0.0
 11
1787.205892104576
 21
206.5955216559966
 31
0.0
  0
LINE
  5
A7C
330
1F
100
AcDbEntity
  8
SPOJOVACÍ
100
AcDbLine
 10
1784.792907297052
 20
204.5877350206162
 30
0.0
 11
1785.377136833597
 21
206.7681093342932
 31
0.0
  0
LINE
  5
A7D
330
1F
100
AcDbEntity
  8
SPOJOVACÍ
100
AcDbLine
 10
1782.872975891106
 20
204.4200487307696
 30
0.0
 11
1783.545875005698
 21
206.9313424147974
 31
0.0
  0
LINE
  5
A7E
330
1F
100
AcDbEntity
  8
SPOJOVACÍ
100
AcDbLine
 10
1780.955927066198
 20
204.2631203798134
 30
0.0
 11
1781.721580010245
 21
207.1205760679611
 31
0.0
  0
LINE
  5
A7F
330
1F
100
AcDbEntity
  8
SPOJOVACÍ
  6
DASHED
100
AcDbLine
 10
1798.782583732253
 20
205.6389652849272
 30
0.0
 11
1794.993722590697
 21
199.0764652849272
 31
0.0
  0
LINE
  5
A80
330
1F
100
AcDbEntity
  8
SPOJOVACÍ
  6
DASHED
100
AcDbLine
 10
1798.782583732253
 20
205.6389652849272
 30
0.0
 11
1794.993722590697
 21
212.2014652849272
 31
0.0
  0
LINE
  5
A81
330
1F
100
AcDbEntity
  8
STAVBA OBRYS
100
AcDbLine
 10
1791.701617182595
 20
48.51251983152611
 30
0.0
 11
1791.701617182595
 21
154.3530394769702
 31
0.0
  0
LINE
  5
A82
330
1F
100
AcDbEntity
  8
SPOJOVACÍ
100
AcDbLine
 10
1763.85524787982
 20
203.420874190039
 30
0.0
 11
1764.952680813559
 21
207.516549656654
 31
0.0
  0
LINE
  5
A83
330
1F
100
AcDbEntity
  8
SPOJOVACÍ
100
AcDbLine
 10
1777.140990146169
 20
204.0207724949784
 30
0.0
 11
1778.036980666618
 21
207.3646546403977
 31
0.0
  0
LINE
  5
A84
330
1F
100
AcDbEntity
  8
SPOJOVACÍ
100
AcDbLine
 10
1775.301706234895
 20
204.1540667527567
 30
0.0
 11
1776.195621905655
 21
207.4902054537131
 31
0.0
  0
LINE
  5
A85
330
1F
100
AcDbEntity
  8
SPOJOVACÍ
100
AcDbLine
 10
1767.615940201946
 20
203.4607784794723
 30
0.0
 11
1768.804674028276
 21
207.8971935160059
 31
0.0
  0
LINE
  5
A86
330
1F
100
AcDbEntity
  8
SPOJOVACÍ
100
AcDbLine
 10
1769.513257881435
 20
203.544069193226
 30
0.0
 11
1770.649337658417
 21
207.7839766423737
 31
0.0
  0
LINE
  5
A87
330
1F
100
AcDbEntity
  8
SPOJOVACÍ
100
AcDbLine
 10
1771.413349146759
 20
203.6377110702439
 30
0.0
 11
1772.505267002259
 21
207.7128039846536
 31
0.0
  0
LINE
  5
A88
330
1F
100
AcDbEntity
  8
SPOJOVACÍ
100
AcDbLine
 10
1773.316228417748
 20
203.7417579260516
 30
0.0
 11
1774.351720032318
 21
207.606265242435
 31
0.0
  0
LINE
  5
A89
330
1F
100
AcDbEntity
  8
SPOJOVACÍ
100
AcDbLine
 10
1765.712462317696
 20
203.3544975685524
 30
0.0
 11
1766.950516717979
 21
207.9749794929455
 31
0.0
  0
LINE
  5
A8A
330
1F
100
AcDbEntity
  8
SPOJOVACÍ
100
AcDbLine
 10
1745.424000064572
 20
204.6104735385549
 30
0.0
 11
1745.914663455259
 21
206.4416542420155
 31
0.0
  0
LINE
  5
A8B
330
1F
100
AcDbEntity
  8
SPOJOVACÍ
100
AcDbLine
 10
1747.255718426025
 20
204.4489442644669
 30
0.0
 11
1747.82188825723
 21
206.5619188402349
 31
0.0
  0
LINE
  5
A8C
330
1F
100
AcDbEntity
  8
SPOJOVACÍ
100
AcDbLine
 10
1749.089951445404
 20
204.2967998215124
 30
0.0
 11
1749.72834941951
 21
206.6793334963338
 31
0.0
  0
LINE
  5
A8D
330
1F
100
AcDbEntity
  8
SPOJOVACÍ
100
AcDbLine
 10
1748.792387867771
 20
203.1862774313046
 30
0.0
 11
1750.145555613662
 21
208.2363682101356
 31
0.0
  0
LINE
  5
A8E
330
1F
100
AcDbEntity
  8
SPOJOVACÍ
100
AcDbLine
 10
1746.917387867771
 20
203.1862774313046
 30
0.0
 11
1748.265085057797
 21
208.2159518177002
 31
0.0
  0
LINE
  5
A8F
330
1F
100
AcDbEntity
  8
SPOJOVACÍ
100
AcDbLine
 10
1745.059691777479
 20
203.2508565015075
 30
0.0
 11
1746.381922299023
 21
208.1854879872241
 31
0.0
  0
LINE
  5
A90
330
1F
100
AcDbEntity
  8
SPOJOVACÍ
100
AcDbLine
 10
1743.167387867771
 20
203.1862774313046
 30
0.0
 11
1744.496055040886
 21
208.1449308277249
 31
0.0
  0
LINE
  5
A91
330
1F
100
AcDbEntity
  8
SPOJOVACÍ
100
AcDbLine
 10
1741.337462317696
 20
203.3544975685524
 30
0.0
 11
1742.607470661026
 21
208.0942332319016
 31
0.0
  0
LINE
  5
A92
330
1F
100
AcDbEntity
  8
SPOJOVACÍ
100
AcDbLine
 10
1750.662686654187
 20
203.168732263354
 30
0.0
 11
1752.023345943381
 21
208.246781862417
 31
0.0
  0
LINE
  5
A93
330
1F
100
AcDbEntity
  8
SPOJOVACÍ
100
AcDbLine
 10
1752.535633583301
 20
203.161070098499
 30
0.0
 11
1753.898467710026
 21
208.2472363017311
 31
0.0
  0
LINE
  5
A94
330
1F
100
AcDbEntity
  8
SPOJOVACÍ
100
AcDbLine
 10
1754.411239762549
 20
203.1633323902513
 30
0.0
 11
1755.77093226878
 21
208.2377739061764
 31
0.0
  0
LINE
  5
A95
330
1F
100
AcDbEntity
  8
SPOJOVACÍ
100
AcDbLine
 10
1756.289516602676
 20
203.175561724093
 30
0.0
 11
1757.640750672507
 21
208.2184359256195
 31
0.0
  0
LINE
  5
A96
330
1F
100
AcDbEntity
  8
SPOJOVACÍ
100
AcDbLine
 10
1758.170475823362
 20
203.1978018384659
 30
0.0
 11
1759.507933677155
 21
208.189262501807
 31
0.0
  0
LINE
  5
A97
330
1F
100
AcDbEntity
  8
SPOJOVACÍ
100
AcDbLine
 10
1760.05412945905
 20
203.2300976465255
 30
0.0
 11
1761.37249174696
 21
208.1502926877881
 31
0.0
  0
LINE
  5
A98
330
1F
100
AcDbEntity
  8
SPOJOVACÍ
100
AcDbLine
 10
1762.000621018728
 20
203.4969077795583
 30
0.0
 11
1763.234435059453
 21
208.1015644666274
 31
0.0
  0
LINE
  5
A99
330
1F
100
AcDbEntity
  8
SPOJOVACÍ
100
AcDbLine
 10
1732.077175957597
 20
203.7826147009807
 30
0.0
 11
1733.123326507212
 21
207.6869017045107
 31
0.0
  0
LINE
  5
A9A
330
1F
100
AcDbEntity
  8
SPOJOVACÍ
100
AcDbLine
 10
1739.48024787982
 20
203.420874190039
 30
0.0
 11
1740.716156204727
 21
208.0333468520864
 31
0.0
  0
LINE
  5
A9B
330
1F
100
AcDbEntity
  8
SPOJOVACÍ
100
AcDbLine
 10
1737.625621018728
 20
203.4969077795583
 30
0.0
 11
1738.822098378226
 21
207.962222075306
 31
0.0
  0
LINE
  5
A9C
330
1F
100
AcDbEntity
  8
SPOJOVACÍ
100
AcDbLine
 10
1735.773572608513
 20
203.5825642787429
 30
0.0
 11
1736.925283541807
 21
207.8808079974375
 31
0.0
  0
LINE
  5
A9D
330
1F
100
AcDbEntity
  8
SPOJOVACÍ
100
AcDbLine
 10
1733.924093788178
 20
203.6778106179224
 30
0.0
 11
1735.025697702615
 21
207.7890523964222
 31
0.0
  0
LINE
  5
A9E
330
1F
100
AcDbEntity
  8
SPOJOVACÍ
100
AcDbLine
 10
1726.551706234898
 20
204.1540667527567
 30
0.0
 11
1727.399351676772
 21
207.3175226086384
 31
0.0
  0
LINE
  5
A9F
330
1F
100
AcDbEntity
  8
SPOJOVACÍ
100
AcDbLine
 10
1730.232810773591
 20
203.8969453907527
 30
0.0
 11
1731.218155233871
 21
207.5743009794775
 31
0.0
  0
LINE
  5
AA0
330
1F
100
AcDbEntity
  8
SPOJOVACÍ
100
AcDbLine
 10
1728.390990146169
 20
204.0207724949784
 30
0.0
 11
1729.310168784586
 21
207.4511938747798
 31
0.0
  0
LINE
  5
AA1
330
1F
100
AcDbEntity
  8
SPOJOVACÍ
100
AcDbLine
 10
1724.714951445404
 20
204.2967998215124
 30
0.0
 11
1725.485688034684
 21
207.1732279319582
 31
0.0
  0
LINE
  5
AA2
330
1F
100
AcDbEntity
  8
SPOJOVACÍ
100
AcDbLine
 10
1722.880718426025
 20
204.4489442644669
 30
0.0
 11
1723.569161580492
 21
207.0182490950617
 31
0.0
  0
LINE
  5
AA3
330
1F
100
AcDbEntity
  8
SPOJOVACÍ
100
AcDbLine
 10
1721.049000064572
 20
204.6104735385549
 30
0.0
 11
1721.649755625053
 21
206.8525238132049
 31
0.0
  0
LINE
  5
AA4
330
1F
100
AcDbEntity
  8
SPOJOVACÍ
100
AcDbLine
 10
1719.219789485217
 20
204.7813619828473
 30
0.0
 11
1719.727453058311
 21
206.6759882307922
 31
0.0
  0
LINE
  5
AA5
330
1F
100
AcDbEntity
  8
SPOJOVACÍ
100
AcDbLine
 10
1717.393080045512
 20
204.9615848073924
 30
0.0
 11
1717.802236339353
 21
206.4885768842521
 31
0.0
  0
LINE
  5
AA6
330
1F
100
AcDbEntity
  8
SPOJOVACÍ
100
AcDbLine
 10
1708.224236151917
 20
205.638965284929
 30
0.0
 11
1708.224236151917
 21
219.701465284929
 31
0.0
  0
LINE
  5
AA7
330
1F
100
AcDbEntity
  8
SPOJOVACÍ
100
AcDbLine
 10
1711.082127647022
 20
219.701465284929
 30
0.0
 11
1711.082127647022
 21
205.638965284929
 31
0.0
  0
LINE
  5
AA8
330
1F
100
AcDbEntity
  8
SPOJOVACÍ
100
AcDbLine
 10
1711.082127647022
 20
219.701465284929
 30
0.0
 11
1711.082127647022
 21
205.638965284929
 31
0.0
  0
LINE
  5
AA9
330
1F
100
AcDbEntity
  8
SPOJOVACÍ
100
AcDbLine
 10
1708.214861151918
 20
215.9514652849291
 30
0.0
 11
1708.214861151918
 21
195.326465284929
 31
0.0
  0
ARC
  5
AAA
330
1F
100
AcDbEntity
  8
SPOJOVACÍ
100
AcDbCircle
 10
1703.536736151917
 20
214.076465284929
 30
0.0
 40
1.875
100
AcDbArc
 50
90.0
 51
180.0
  0
LINE
  5
AAB
330
1F
100
AcDbEntity
  8
NOSNÉ KONSTRUKCE
100
AcDbLine
 10
1711.448049348001
 20
185.6528990101858
 30
0.0
 11
1711.448049348003
 21
225.6836035017584
 31
0.0
  0
LINE
  5
AAC
330
1F
100
AcDbEntity
  8
SPOJOVACÍ
100
AcDbLine
 10
1711.082127647022
 20
205.638965284929
 30
0.0
 11
1711.082127647022
 21
191.5764652849291
 31
0.0
  0
LINE
  5
AAD
330
1F
100
AcDbEntity
  8
SPOJOVACÍ
100
AcDbLine
 10
1708.224236151917
 20
213.2161863754252
 30
0.0
 11
1708.224236151917
 21
191.5764652849291
 31
0.0
  0
LINE
  5
AAE
330
1F
100
AcDbEntity
  8
SPOJOVACÍ
100
AcDbLine
 10
1711.082127647022
 20
205.638965284929
 30
0.0
 11
1711.082127647022
 21
191.5764652849291
 31
0.0
  0
ARC
  5
AAF
330
1F
100
AcDbEntity
  8
SPOJOVACÍ
100
AcDbCircle
 10
1708.326306846659
 20
205.638965284929
 30
0.0
 40
6.701689614562111
100
AcDbArc
 50
135.6170676673795
 51
224.3829323326205
  0
LINE
  5
AB0
330
1F
100
AcDbEntity
  8
SPOJOVACÍ
100
AcDbLine
 10
1701.661736151917
 20
214.076465284929
 30
0.0
 11
1701.661736151917
 21
197.201465284929
 31
0.0
  0
ARC
  5
AB1
330
1F
100
AcDbEntity
  8
SPOJOVACÍ
100
AcDbCircle
 10
1703.536736151917
 20
212.2014652849291
 30
0.0
 40
1.875
100
AcDbArc
 50
180.0
 51
270.0
  0
LINE
  5
AB2
330
1F
100
AcDbEntity
  8
SPOJOVACÍ
100
AcDbLine
 10
1708.224236151917
 20
210.326465284929
 30
0.0
 11
1703.536736151917
 21
210.326465284929
 31
0.0
  0
ARC
  5
AB3
330
1F
100
AcDbEntity
  8
SPOJOVACÍ
100
AcDbCircle
 10
1703.536736151917
 20
197.201465284929
 30
0.0
 40
1.875
100
AcDbArc
 50
180.0
 51
270.0
  0
ARC
  5
AB4
330
1F
100
AcDbEntity
  8
SPOJOVACÍ
100
AcDbCircle
 10
1703.536736151917
 20
199.0764652849291
 30
0.0
 40
1.875
100
AcDbArc
 50
90.0
 51
180.0
  0
LINE
  5
AB5
330
1F
100
AcDbEntity
  8
SPOJOVACÍ
100
AcDbLine
 10
1708.224236151917
 20
200.951465284929
 30
0.0
 11
1703.536736151917
 21
200.951465284929
 31
0.0
  0
LINE
  5
AB6
330
1F
100
AcDbEntity
  8
SPOJOVACÍ
100
AcDbLine
 10
1703.536736151917
 20
195.326465284929
 30
0.0
 11
1708.224236151917
 21
195.326465284929
 31
0.0
  0
LINE
  5
AB7
330
1F
100
AcDbEntity
  8
SPOJOVACÍ
100
AcDbLine
 10
1708.224236151917
 20
191.5764652849291
 30
0.0
 11
1711.082127647022
 21
191.5764652849291
 31
0.0
  0
LINE
  5
AB8
330
1F
100
AcDbEntity
  8
SPOJOVACÍ
100
AcDbLine
 10
1715.568865333519
 20
205.151118082517
 30
0.0
 11
1715.813395869377
 21
206.0637184663416
 31
0.0
  0
LINE
  5
AB9
330
1F
100
AcDbEntity
  8
SPOJOVACÍ
100
AcDbLine
 10
1713.747139165061
 20
205.3499387285471
 30
0.0
 11
1713.903105128002
 21
205.9320116264923
 31
0.0
  0
LINE
  5
ABA
330
1F
100
AcDbEntity
  8
SPOJOVACÍ
100
AcDbLine
 10
1711.082127647022
 20
219.701465284929
 30
0.0
 11
1708.224236151917
 21
219.701465284929
 31
0.0
  0
LINE
  5
ABB
330
1F
100
AcDbEntity
  8
SPOJOVACÍ
100
AcDbLine
 10
1708.224236151917
 20
215.9514652849291
 30
0.0
 11
1708.214861151918
 21
215.9514652849291
 31
0.0
  0
LINE
  5
ABC
330
1F
100
AcDbEntity
  8
SPOJOVACÍ
100
AcDbLine
 10
1708.224236151917
 20
215.9514652849291
 30
0.0
 11
1703.536736151917
 21
215.9514652849291
 31
0.0
  0
LINE
  5
ABD
330
1F
100
AcDbEntity
  8
SPOJOVACÍ
100
AcDbLine
 10
1779.041744057363
 20
204.1168874000484
 30
0.0
 11
1779.875804110639
 21
207.2296418954399
 31
0.0
  0
LINE
  5
ABE
330
1F
100
AcDbEntity
  8
SPOJOVACÍ
  6
DASHDOT2
100
AcDbLine
 10
1698.721526178588
 20
205.638965284929
 30
0.0
 11
1813.641635922496
 21
205.6389652849272
 31
0.0
  0
LINE
  5
ABF
330
1F
100
AcDbEntity
  8
SPOJOVACÍ
  6
DASHED
100
AcDbLine
 10
1794.993722590697
 20
199.0764652849272
 30
0.0
 11
1713.894627647022
 21
199.0764652849291
 31
0.0
  0
LINE
  5
AC0
330
1F
100
AcDbEntity
  8
SPOJOVACÍ
  6
DASHED
100
AcDbLine
 10
1794.993722590697
 20
212.2014652849272
 30
0.0
 11
1713.894627647022
 21
212.2014652849291
 31
0.0
  0
LINE
  5
AC1
330
1F
100
AcDbEntity
  8
STAVBA OBRYS
100
AcDbLine
 10
1717.448049347999
 20
39.89258665316333
 30
0.0
 11
1717.448049348009
 21
529.1782127430094
 31
0.0
  0
CIRCLE
  5
AC2
330
1F
100
AcDbEntity
  8
NOSNÉ KONSTRUKCE
100
AcDbCircle
 10
1604.484147472182
 20
571.1907375825419
 30
0.0
 40
5.0
  0
CIRCLE
  5
AC3
330
1F
100
AcDbEntity
  8
NOSNÉ KONSTRUKCE
100
AcDbCircle
 10
1604.484147472182
 20
355.0482703046607
 30
0.0
 40
5.0
  0
CIRCLE
  5
AC4
330
1F
100
AcDbEntity
  8
NOSNÉ KONSTRUKCE
100
AcDbCircle
 10
1604.484147472182
 20
389.5948678420743
 30
0.0
 40
5.0
  0
LWPOLYLINE
  5
AC5
330
1F
100
AcDbEntity
  8
NOSNÉ KONSTRUKCE
100
AcDbPolyline
 90
        2
 70
     0
 43
0.0
 10
1614.948049347992
 20
233.4071741780469
 10
1614.948049347992
 20
210.8293725596875
  0
LINE
  5
AC6
330
1F
100
AcDbEntity
  8
NOSNÉ KONSTRUKCE
100
AcDbLine
 10
1614.948049347992
 20
180.2456016153971
 30
0.0
 11
1614.948049347992
 21
200.4485580101079
 31
0.0
  0
LINE
  5
AC7
330
1F
100
AcDbEntity
  8
NOSNÉ KONSTRUKCE
100
AcDbLine
 10
1614.948049347994
 20
191.0323289544655
 30
0.0
 11
1614.948049347994
 21
200.4485580101079
 31
0.0
  0
LINE
  5
AC8
330
1F
100
AcDbEntity
  8
NOSNÉ KONSTRUKCE
  6
DASHED
100
AcDbLine
 10
1628.448049348012
 20
180.2456016153962
 30
0.0
 11
1628.448049348007
 21
231.0323289544655
 31
0.0
  0
CIRCLE
  5
AC9
330
1F
100
AcDbEntity
  8
NOSNÉ KONSTRUKCE
100
AcDbCircle
 10
1604.484147472182
 20
268.0690739768658
 30
0.0
 40
5.0
  0
CIRCLE
  5
ACA
330
1F
100
AcDbEntity
  8
NOSNÉ KONSTRUKCE
100
AcDbCircle
 10
1604.484147472182
 20
120.6091650689038
 30
0.0
 40
5.0
  0
LINE
  5
ACB
330
1F
100
AcDbEntity
  8
NOSNÉ KONSTRUKCE
100
AcDbLine
 10
1578.448049348003
 20
75.0024659525759
 30
0.0
 11
1583.653865667379
 21
75.0024659525759
 31
0.0
  0
LINE
  5
ACC
330
1F
100
AcDbEntity
  8
NOSNÉ KONSTRUKCE
100
AcDbLine
 10
1583.653865667379
 20
102.131050912131
 30
0.0
 11
1628.448049348005
 21
102.131050912131
 31
0.0
  0
CIRCLE
  5
ACD
330
1F
100
AcDbEntity
  8
NOSNÉ KONSTRUKCE
100
AcDbCircle
 10
1604.484147472182
 20
155.1557626063174
 30
0.0
 40
5.0
  0
LINE
  5
ACE
330
1F
100
AcDbEntity
  8
NOSNÉ KONSTRUKCE
100
AcDbLine
 10
1628.448049348005
 20
102.131050912131
 30
0.0
 11
1628.448049348012
 21
180.2456016153962
 31
0.0
  0
LINE
  5
ACF
330
1F
100
AcDbEntity
  8
NOSNÉ KONSTRUKCE
100
AcDbLine
 10
1583.653865667379
 20
75.0024659525759
 30
0.0
 11
1583.653865667388
 21
524.9557453219292
 31
0.0
  0
LINE
  5
AD0
330
1F
100
AcDbEntity
  8
NOSNÉ KONSTRUKCE
100
AcDbLine
 10
1578.448049348003
 20
75.0024659525759
 30
0.0
 11
1578.448049348007
 21
524.791452755511
 31
0.0
  0
LINE
  5
AD1
330
1F
100
AcDbEntity
  8
NOSNÉ KONSTRUKCE
100
AcDbLine
 10
1628.448049348007
 20
231.0323289544665
 30
0.0
 11
1628.448049348016
 21
509.4775358117474
 31
0.0
  0
LINE
  5
AD2
330
1F
100
AcDbEntity
  8
STAVBA OBRYS
100
AcDbLine
 10
1633.776636416255
 20
72.67490492162938
 30
0.0
 11
1633.776636416261
 21
526.5375911146172
 31
0.0
  0
LINE
  5
AD3
330
1F
100
AcDbEntity
  8
NOSNÉ KONSTRUKCE
100
AcDbLine
 10
1614.948049347992
 20
180.2456016153971
 30
0.0
 11
1717.448049348003
 21
180.2456016153908
 31
0.0
  0
LINE
  5
AD4
330
1F
100
AcDbEntity
  8
NOSNÉ KONSTRUKCE
100
AcDbLine
 10
1614.948049347994
 20
231.0323289544673
 30
0.0
 11
1717.448049348001
 21
231.0323289544619
 31
0.0
  0
LINE
  5
AD5
330
1F
100
AcDbEntity
  8
STAVBA OBRYS
100
AcDbLine
 10
1349.526753884583
 20
39.89258665316333
 30
0.0
 11
1717.448049347999
 21
39.89258665316333
 31
0.0
  0
LINE
  5
AD6
330
1F
100
AcDbEntity
  8
NOSNÉ KONSTRUKCE
100
AcDbLine
 10
1578.448049348007
 20
524.791452755511
 30
0.0
 11
1578.448049348005
 21
646.6477150638263
 31
0.0
  0
LINE
  5
AD7
330
1F
100
AcDbEntity
  8
STAVBA OBRYS
100
AcDbLine
 10
1633.776636416259
 20
526.5375911146172
 30
0.0
 11
1633.776636416261
 21
639.4329700301784
 31
0.0
  0
LINE
  5
AD8
330
1F
100
AcDbEntity
  8
NOSNÉ KONSTRUKCE
100
AcDbLine
 10
1628.448049348014
 20
526.3694239740359
 30
0.0
 11
1628.448049348018
 21
640.1278078911125
 31
0.0
  0
LINE
  5
AD9
330
1F
100
AcDbEntity
  8
NOSNÉ KONSTRUKCE
100
AcDbLine
 10
1583.653865667386
 20
524.8861310286226
 30
0.0
 11
1583.653865667386
 21
645.9688862806167
 31
0.0
  0
LINE
  5
ADA
330
1F
100
AcDbEntity
  8
STAVBA OBRYS
  6
IZOLACE
 48
4.0
100
AcDbLine
 10
1674.53024869286
 20
72.67490492162938
 30
0.0
 11
1674.530248692873
 21
634.1187746502543
 31
0.0
  0
LINE
  5
ADB
330
1F
100
AcDbEntity
  8
STAVBA OBRYS
100
AcDbLine
 10
1717.448049348007
 20
529.1782127430094
 30
0.0
 11
1717.448049348009
 21
628.5223731236835
 31
0.0
  0
HATCH
  5
ADC
330
1F
100
AcDbEntity
  8
STAVBA OBRYS
100
AcDbHatch
 10
0.0
 20
0.0
 30
0.0
210
0.0
220
0.0
230
1.0
  2
AR-CONC
 70
     0
 71
     0
 91
        1
 92
        7
 72
     0
 73
     1
 93
        5
 10
2089.151689638892
 20
154.3530394769702
 10
1791.701617182592
 20
154.3530394769702
 10
1791.701617182592
 20
48.51251983152611
 10
1847.206235795488
 20
48.51251983152611
 10
2062.057576911683
 20
48.51251983152611
 97
        0
 75
     0
 76
     1
 52
0.0
 41
0.35
 77
     0
 78
    13
 53
50.0
 43
696.6503931588915
 44
-1495.154825846754
 45
63.7646341486014
 46
-5.57867993861608
 79
     2
 49
6.667499999999999
 49
-73.3425
 53
355.0
 43
696.6503931588915
 44
-1495.154825846754
 45
-12.33498909148344
 46
66.86982500876299
 79
     2
 49
5.333999999999999
 49
-58.67399999999999
 53
100.451
 43
701.9640931588903
 44
-1495.619713346755
 45
51.42987558308573
 46
61.29084073710215
 79
     2
 49
5.6665
 49
-62.3315
 53
46.1842
 43
696.6503931588915
 44
-1477.374825846755
 45
94.87766431224546
 46
-14.7148147764545
 79
     2
 49
10.00124999999999
 49
-110.0137499999999
 53
96.63559999999998
 43
704.5568581588915
 44
-1478.601050846754
 45
83.09148206318299
 46
86.59894456151723
 79
     2
 49
8.49974999999997
 49
-93.49724999999976
 53
351.184
 43
696.6503931588915
 44
-1477.374825846755
 45
83.09161203487688
 46
86.59879125120918
 79
     2
 49
8.000999999999999
 49
-88.01099999999999
 53
21.0
 43
705.540393158891
 44
-1481.819825846755
 45
53.06520794238414
 46
-35.79293148086687
 79
     2
 49
6.667499999999999
 49
-73.3425
 53
326.0
 43
705.540393158891
 44
-1481.819825846755
 45
21.63070992167647
 46
64.46578814281174
 79
     2
 49
5.333999999999999
 49
-58.67399999999999
 53
71.45140000000001
 43
709.9624681588913
 44
-1484.802560846755
 45
74.69577176954356
 46
28.6730002006201
 79
     2
 49
5.6665
 49
-62.3315
 53
37.5
 43
696.6503931588915
 44
-1495.154825846754
 45
1.081011137707135
 46
29.59426360560359
 79
     6
 49
0.0
 49
-57.96279999999999
 49
0.0
 49
-59.56299999999999
 49
0.0
 49
-58.89624999999999
 53
7.499999999999999
 43
696.6503931588915
 44
-1495.154825846754
 45
23.38688187860701
 46
35.06320118634183
 79
     6
 49
0.0
 49
-33.95979999999999
 49
0.0
 49
-56.62929999999999
 49
0.0
 49
-22.44725
 53
327.4999999999999
 43
676.8256931588905
 44
-1495.154825846754
 45
47.45670830840498
 46
-2.005060397435712
 79
     6
 49
0.0
 49
-22.22499999999999
 49
0.0
 49
-69.342
 49
0.0
 49
-92.01149999999998
 53
317.5
 43
667.9356931588911
 44
-1495.154825846754
 45
51.84521348510632
 46
8.899271861666553
 79
     6
 49
0.0
 49
-28.8925
 49
0.0
 49
-46.05019999999999
 49
0.0
 49
-65.3415
 47
1.943322863705773
 98
        1
 10
1906.288364046933
 20
111.9678079264383
  0
LINE
  5
ADD
330
1F
100
AcDbEntity
  8
STAVBA OBRYS
100
AcDbLine
 10
1791.701617182595
 20
48.51251983152611
 30
0.0
 11
2062.057576911683
 21
48.51251983152611
 31
0.0
  0
LINE
  5
ADE
330
1F
100
AcDbEntity
  8
STAVBA OBRYS
100
AcDbLine
 10
1791.701617182592
 20
154.3530394769702
 30
0.0
 11
2089.151689638892
 21
154.3530394769702
 31
0.0
  0
TEXT
  5
ADF
330
1F
100
AcDbEntity
  8
POPIS
100
AcDbText
 10
1373.307867794966
 20
-146.1763503691556
 30
0.0
 40
25.0
  1
01
 41
0.85
  7
SIMPLEX7
100
AcDbText
  0
TEXT
  5
AE0
330
1F
100
AcDbEntity
  8
POPIS
100
AcDbText
 10
1427.651570954712
 20
-146.1763503691556
 30
0.0
 40
25.0
  1
Deska CETRIS   (BASIC,FINISH,LASUR)
 41
0.7
  7
SIMPLEX7
100
AcDbText
  0
TEXT
  5
AE1
330
1F
100
AcDbEntity
  8
POPIS
100
AcDbText
 10
1373.307867794966
 20
-182.7713619847829
 30
0.0
 40
25.0
  1
02
 41
0.85
  7
SIMPLEX7
100
AcDbText
  0
TEXT
  5
AE2
330
1F
100
AcDbEntity
  8
POPIS
100
AcDbText
 10
1427.651570954712
 20
-182.7713619847829
 30
0.0
 40
25.0
  1
Vrut se zápustnou hlavou
 41
0.7
  7
SIMPLEX7
100
AcDbText
  0
TEXT
  5
AE3
330
1F
100
AcDbEntity
  8
POPIS
100
AcDbText
 10
1373.307867794966
 20
-216.721550229505
 30
0.0
 40
25.0
  1
03
 41
0.85
  7
SIMPLEX7
100
AcDbText
  0
TEXT
  5
AE4
330
1F
100
AcDbEntity
  8
POPIS
100
AcDbText
 10
1427.651570954712
 20
-216.721550229505
 30
0.0
 40
25.0
  1
Vzduchová mezera - min. 25 mm
 41
0.7
  7
SIMPLEX7
100
AcDbText
  0
TEXT
  5
AE5
330
1F
100
AcDbEntity
  8
POPIS
100
AcDbText
 10
1373.307867794966
 20
-252.1257114476677
 30
0.0
 40
25.0
  1
04
 41
0.85
  7
SIMPLEX7
100
AcDbText
  0
TEXT
  5
AE6
330
1F
100
AcDbEntity
  8
POPIS
100
AcDbText
 10
1427.651570954712
 20
-252.1257114476677
 30
0.0
 40
25.0
  1
Kotevní prvek
 41
0.7
  7
SIMPLEX7
100
AcDbText
  0
TEXT
  5
AE7
330
1F
100
AcDbEntity
  8
POPIS
100
AcDbText
 10
1373.307867794966
 20
-362.0347614754712
 30
0.0
 40
25.0
  1
07
 41
0.85
  7
SIMPLEX7
100
AcDbText
  0
TEXT
  5
AE8
330
1F
100
AcDbEntity
  8
POPIS
100
AcDbText
 10
1427.651570954712
 20
-362.0347614754712
 30
0.0
 40
25.0
  1
Perforovaný odvětrávací profil (PROTECTOR 3613)
 41
0.7
  7
SIMPLEX7
100
AcDbText
  0
TEXT
  5
AE9
330
1F
100
AcDbEntity
  8
POPIS
100
AcDbText
 10
1373.307867794966
 20
-452.2410132964425
 30
0.0
 40
25.0
  1
08
 41
0.85
  7
SIMPLEX7
100
AcDbText
  0
TEXT
  5
AEA
330
1F
100
AcDbEntity
  8
POPIS
100
AcDbText
 10
1427.651570954712
 20
-452.2410132964425
 30
0.0
 40
25.0
  1
Tepelná izolace (np. ORSIL, ROCKWOOL, ISOVER, NOBASIL)
 41
0.7
  7
SIMPLEX7
100
AcDbText
  0
TEXT
  5
AEB
330
1F
100
AcDbEntity
  8
POPIS
100
AcDbText
 10
1427.651570954712
 20
-288.2325329348562
 30
0.0
 40
25.0
  1
Upevňovací prvek systému - kotva (np. SPIDI, EuroFox, SPEEDY...)
 41
0.7
  7
SIMPLEX7
100
AcDbText
  0
TEXT
  5
AEC
330
1F
100
AcDbEntity
  8
POPIS
100
AcDbText
 10
1373.307867794966
 20
-288.2325329348562
 30
0.0
 40
25.0
  1
05
 41
0.85
  7
SIMPLEX7
100
AcDbText
  0
TEXT
  5
AED
330
1F
100
AcDbEntity
  8
POPIS
100
AcDbText
 10
1427.651570954712
 20
-323.8514216329452
 30
0.0
 40
25.0
  1
Nosný profil systému - úhelník (np. SPIDI, EuroFox, SPEEDY...)
 41
0.7
  7
SIMPLEX7
100
AcDbText
  0
TEXT
  5
AEE
330
1F
100
AcDbEntity
  8
POPIS
100
AcDbText
 10
1373.307867794966
 20
-323.8514216329452
 30
0.0
 40
25.0
  1
06
 41
0.85
  7
SIMPLEX7
100
AcDbText
  0
TEXT
  5
AEF
330
1F
100
AcDbEntity
  8
POPIS
100
AcDbText
 10
1595.277756193755
 20
-121.201040260875
 30
0.0
 40
12.0
  1
R
 41
0.85
  7
SIMPLEX7
100
AcDbText
  0
CIRCLE
  5
AF0
330
1F
100
AcDbEntity
  8
POPIS
100
AcDbCircle
 10
1600.036785248939
 20
-115.6556945158874
 30
0.0
 40
11.13656048292026
  0
TEXT
  5
AF1
330
1F
100
AcDbEntity
  8
POPIS
100
AcDbText
 10
1371.045053093628
 20
292.3872157060784
 30
0.0
 40
25.0
  1
08
 41
0.7
  7
SIMPLEX7
100
AcDbText
  0
LINE
  5
AF2
330
1F
100
AcDbEntity
  8
POPIS
100
AcDbLine
 10
1411.611518892688
 20
305.830557155449
 30
0.0
 11
1679.883489877719
 21
305.830557155449
 31
0.0
  0
TEXT
  5
AF3
330
1F
100
AcDbEntity
  8
POPIS
100
AcDbText
 10
1371.634032549419
 20
390.8282653663798
 30
0.0
 40
25.0
  1
03
 41
0.7
  7
SIMPLEX7
100
AcDbText
  0
LINE
  5
AF4
330
1F
100
AcDbEntity
  8
POPIS
100
AcDbLine
 10
1411.611518892688
 20
404.2716068157504
 30
0.0
 11
1618.493941970867
 21
404.2716068157494
 31
0.0
  0
LINE
  5
AF5
330
1F
100
AcDbEntity
  8
POPIS
100
AcDbLine
 10
1411.611518892688
 20
503.0043300614913
 30
0.0
 11
1661.370760699264
 21
503.0043300614904
 31
0.0
  0
TEXT
  5
AF6
330
1F
100
AcDbEntity
  8
POPIS
100
AcDbText
 10
1370.231908854693
 20
489.5609886121207
 30
0.0
 40
25.0
  1
05
 41
0.7
  7
SIMPLEX7
100
AcDbText
  0
LINE
  5
AF7
330
1F
100
AcDbEntity
  8
POPIS
100
AcDbLine
 10
1413.635299830635
 20
623.22416971712
 30
0.0
 11
1576.471830285957
 21
623.22416971712
 31
0.0
  0
TEXT
  5
AF8
330
1F
100
AcDbEntity
  8
POPIS
100
AcDbText
 10
1375.331648732913
 20
609.7808282677495
 30
0.0
 40
25.0
  1
01
 41
0.7
  7
SIMPLEX7
100
AcDbText
  0
LINE
  5
AF9
330
1F
100
AcDbEntity
  8
POPIS
100
AcDbLine
 10
1413.635299830635
 20
579.2845232282568
 30
0.0
 11
1564.226190389246
 21
579.2845232282577
 31
0.0
  0
TEXT
  5
AFA
330
1F
100
AcDbEntity
  8
POPIS
100
AcDbText
 10
1373.099864536084
 20
565.8411817788872
 30
0.0
 40
25.0
  1
02
 41
0.7
  7
SIMPLEX7
100
AcDbText
  0
TEXT
  5
AFB
330
1F
100
AcDbEntity
  8
POPIS
100
AcDbText
 10
1371.634032549419
 20
239.8526223967298
 30
0.0
 40
25.0
  1
06
 41
0.7
  7
SIMPLEX7
100
AcDbText
  0
TEXT
  5
AFC
330
1F
100
AcDbEntity
  8
POPIS
100
AcDbText
 10
1370.231908854693
 20
439.250344578865
 30
0.0
 40
25.0
  1
04
 41
0.7
  7
SIMPLEX7
100
AcDbText
  0
LINE
  5
AFD
330
1F
100
AcDbEntity
  8
POPIS
100
AcDbLine
 10
1411.611518892688
 20
449.9506755911122
 30
0.0
 11
1698.883616483089
 21
449.9506755911113
 31
0.0
  0
INSERT
  5
AFE
330
1F
100
AcDbEntity
  8
POPIS
100
AcDbBlockReference
  2
E_PUNKT
 10
1592.394183653715
 20
253.6319563320619
 30
0.0
  0
INSERT
  5
AFF
330
1F
100
AcDbEntity
  8
POPIS
100
AcDbBlockReference
  2
E_PUNKT
 10
1679.855879502093
 20
306.1665496414105
 30
0.0
  0
INSERT
  5
B00
330
1F
100
AcDbEntity
  8
POPIS
100
AcDbBlockReference
  2
E_PUNKT
 10
1662.125093799431
 20
503.9504870382595
 30
0.0
  0
LINE
  5
B01
330
1F
100
AcDbEntity
  8
POPIS
100
AcDbLine
 10
1766.559812866654
 20
513.5154595819874
 30
0.0
 11
1698.883616483089
 21
449.9506755911113
 31
0.0
  0
INSERT
  5
B02
330
1F
100
AcDbEntity
  8
POPIS
100
AcDbBlockReference
  2
E_PUNKT
 10
1766.532202491028
 20
513.4863912511153
 30
0.0
  0
INSERT
  5
B03
330
1F
100
AcDbEntity
  8
POPIS
100
AcDbBlockReference
  2
E_PUNKT
 10
1617.216331595241
 20
404.2425384848764
 30
0.0
  0
TEXT
  5
B04
330
1F
100
AcDbEntity
  8
POPIS
100
AcDbText
 10
1339.955542268471
 20
823.485981924027
 30
0.0
 40
50.0
  1
SPODNÍ ZAKONČENÍ
 41
0.85
  7
SIMPLEX7
100
AcDbText
  0
TEXT
  5
B05
330
1F
100
AcDbEntity
  8
POPIS
100
AcDbText
 10
1339.955542268471
 20
768.8612388982262
 30
0.0
 40
35.0
  1
ŘEZ-ŘEŠENÍ PŘESAHEM
 41
0.85
  7
SIMPLEX7
100
AcDbText
  0
HATCH
  5
B06
330
1F
100
AcDbEntity
  8
STAVBA OBRYS
100
AcDbHatch
 10
0.0
 20
0.0
 30
0.0
210
0.0
220
0.0
230
1.0
  2
BRICK
 70
     0
 71
     0
 91
        1
 92
        7
 72
     0
 73
     1
 93
       28
 10
1954.838219047437
 20
536.6701098499377
 10
1955.001553935802
 20
628.330286036499
 10
1717.448049348007
 20
628.4723390288352
 10
1717.448049348007
 20
529.1782127430094
 10
1717.448049348009
 20
521.230443086534
 10
1794.993722590697
 20
521.2304430865322
 10
1798.782583732255
 20
514.6679430865321
 10
1794.9937225907
 20
508.1054430865322
 10
1717.448049348009
 20
508.105443086534
 10
1717.448049348003
 20
294.9558776225556
 10
1799.520248973734
 20
294.9558776225556
 10
1803.309110115287
 20
288.3933776225528
 10
1799.520248973732
 20
281.8308776225537
 10
1717.448049348007
 20
281.8308776225555
 10
1717.448049348007
 20
280.2440694376171
 10
1762.046955353874
 20
212.2014652849291
 10
1794.993722590697
 20
212.2014652849272
 10
1798.782583732251
 20
205.6389652849281
 10
1794.993722590695
 20
199.0764652849272
 10
1717.448049348003
 20
199.0764652849291
 10
1717.448049347997
 20
39.89258665314878
 10
1720.777297195745
 20
-16.7892326038484
 10
1954.040919922651
 20
0.7761585418400046
 10
1954.125984271931
 20
48.51251983152611
 10
1791.701617182595
 20
48.51251983152701
 10
1791.701617182595
 20
154.3530394769702
 10
1954.314587983813
 20
154.3530394769702
 10
1954.995861713839
 20
536.6698289368039
 97
        0
 75
     0
 76
     1
 52
0.0
 41
10.0
 77
     0
 78
     3
 53
0.0
 43
-10531.04387267217
 44
4297.335691996042
 45
0.0
 46
63.5
 79
     0
 53
90.0
 43
-10531.04387267217
 44
4297.335691996042
 45
-127.0
 46
0.0000000000000078
 79
     2
 49
63.5
 49
-63.5
 53
90.0
 43
-10467.54387267216
 44
4297.335691996042
 45
-127.0
 46
0.0000000000000078
 79
     2
 49
-63.5
 49
63.5
 47
4.665898073608155
 98
        1
 10
1888.849674344386
 20
332.0133970683934
  0
HATCH
  5
B07
330
1F
100
AcDbEntity
  8
NOSNÉ KONSTRUKCE
100
AcDbHatch
 10
0.0
 20
0.0
 30
0.0
210
0.0
220
0.0
230
1.0
  2
SOLID
 70
     1
 71
     0
 91
        5
 92
        7
 72
     0
 73
     1
 93
        4
 10
1717.448049347961
 20
540.0613067560632
 10
1714.448049347963
 20
540.0613067560632
 10
1714.448049347963
 20
534.4138403759814
 10
1717.448049347963
 20
534.4138403759814
 97
        0
 92
        7
 72
     0
 73
     1
 93
        4
 10
1717.448049347963
 20
534.4138403759814
 10
1714.448049347963
 20
534.4138403759814
 10
1714.448049347961
 20
521.2304430865303
 10
1717.448049347961
 20
521.2304430865303
 97
        0
 92
        7
 72
     0
 73
     1
 93
        4
 10
1717.448049347961
 20
521.2304430865303
 10
1714.448049347959
 20
521.2304430865303
 10
1714.448049347959
 20
514.6679430865304
 10
1717.448049347961
 20
514.6679430865304
 97
        0
 92
        7
 72
     0
 73
     1
 93
        4
 10
1717.448049347963
 20
514.6679430865304
 10
1714.448049347961
 20
514.6679430865304
 10
1714.448049347961
 20
508.1054430865304
 10
1717.448049347961
 20
508.1054430865304
 97
        0
 92
        7
 72
     0
 73
     1
 93
        4
 10
1717.448049347963
 20
508.1054430865304
 10
1714.448049347959
 20
508.1054430865294
 10
1714.448049347959
 20
489.274579416993
 10
1717.448049347963
 20
489.274579416992
 97
        0
 75
     0
 76
     1
 47
0.1874983414428997
 98
        5
 10
1716.532511179375
 20
535.016982250451
 10
1716.532511179375
 20
530.3295171041688
 10
1716.532511179375
 20
518.517117521377
 10
1716.90772169574
 20
512.1421693644959
 10
1716.720131411234
 20
502.9547495232807
  0
LINE
  5
B08
330
1F
100
AcDbEntity
  8
NOSNÉ KONSTRUKCE
100
AcDbLine
 10
1714.448049347959
 20
489.274579416992
 30
0.0
 11
1714.448049347963
 21
540.0613067560668
 31
0.0
  0
HATCH
  5
B09
330
1F
100
AcDbEntity
  8
NOSNÉ KONSTRUKCE
100
AcDbHatch
 10
0.0
 20
0.0
 30
0.0
210
0.0
220
0.0
230
1.0
  2
SOLID
 70
     1
 71
     0
 91
        5
 92
        7
 72
     0
 73
     1
 93
        4
 10
1717.448049347956
 20
231.0323289544237
 10
1714.448049347958
 20
231.0323289544237
 10
1714.448049347958
 20
225.3848625743419
 10
1717.448049347958
 20
225.3848625743419
 97
        0
 92
        7
 72
     0
 73
     1
 93
        4
 10
1717.448049347958
 20
225.3848625743419
 10
1714.448049347958
 20
225.3848625743419
 10
1714.448049347956
 20
212.2014652848909
 10
1717.448049347956
 20
212.2014652848909
 97
        0
 92
        7
 72
     0
 73
     1
 93
        4
 10
1717.448049347956
 20
212.2014652848909
 10
1714.448049347954
 20
212.2014652848909
 10
1714.448049347954
 20
205.6389652848908
 10
1717.448049347956
 20
205.6389652848908
 97
        0
 92
        7
 72
     0
 73
     1
 93
        4
 10
1717.448049347958
 20
205.6389652848908
 10
1714.448049347956
 20
205.6389652848908
 10
1714.448049347956
 20
199.0764652848909
 10
1717.448049347956
 20
199.0764652848909
 97
        0
 92
        7
 72
     0
 73
     1
 93
        4
 10
1717.448049347958
 20
199.0764652848909
 10
1714.448049347954
 20
199.0764652848899
 10
1714.448049347954
 20
180.2456016153534
 10
1717.448049347958
 20
180.2456016153525
 97
        0
 75
     0
 76
     1
 47
0.1874983414428997
 98
        5
 10
1716.532511179369
 20
225.9880044488115
 10
1716.532511179369
 20
221.3005393025293
 10
1716.532511179369
 20
209.4881397197375
 10
1716.907721695735
 20
203.1131915628563
 10
1716.720131411229
 20
193.9257717216412
  0
LINE
  5
B0A
330
1F
100
AcDbEntity
  8
NOSNÉ KONSTRUKCE
100
AcDbLine
 10
1714.448049347954
 20
179.4220358269956
 30
0.0
 11
1714.448049347958
 21
230.2087631660703
 31
0.0
  0
LINE
  5
B0B
330
1F
100
AcDbEntity
  8
STAVBA OBRYS
100
AcDbLine
 10
1964.258426737647
 20
211.293694064331
 30
0.0
 11
1965.001880350667
 21
628.5045535387959
 31
0.0
  0
HATCH
  5
B0C
330
1F
100
AcDbEntity
  8
STAVBA OBRYS
100
AcDbHatch
 10
0.0
 20
0.0
 30
0.0
210
0.0
220
0.0
230
1.0
  2
AR-SAND
 70
     0
 71
     0
 91
        1
 92
        7
 72
     0
 73
     1
 93
        4
 10
1965.001880350665
 20
628.5045535387959
 10
1955.001896227561
 20
628.5223731236835
 10
1954.258410860727
 20
211.293694064331
 10
1964.258426737648
 20
211.293694064331
 97
        0
 75
     0
 76
     1
 52
0.0
 41
0.1
 77
     0
 78
     4
 53
37.5
 43
-9770.711777511097
 44
3702.945036145255
 45
-0.1600031295984046
 46
4.894132373293423
 79
     6
 49
0.0
 49
-3.8608
 49
0.0
 49
-4.318
 49
0.0
 49
-4.1275
 53
7.499999999999999
 43
-9770.711777511097
 44
3702.945036145255
 45
4.495232831380026
 46
7.168251005683543
 79
     6
 49
0.0
 49
-2.0828
 49
0.0
 49
-3.4798
 49
0.0
 49
-1.3335
 53
327.4999999999999
 43
-9773.835977511097
 44
3702.945036145255
 45
7.909923702414579
 46
0.0143718467854569
 79
     6
 49
0.0
 49
-1.27
 49
0.0
 49
-4.572
 49
0.0
 49
-5.969
 53
317.5
 43
-9773.835977511097
 44
3702.945036145255
 45
7.635564524722972
 46
2.229293232572162
 79
     6
 49
0.0
 49
-0.635
 49
0.0
 49
-2.997199999999999
 49
0.0
 49
-3.429
 47
0.6630861309027388
 98
        1
 10
1958.893257096329
 20
508.1973333724024
  0
LINE
  5
B0D
330
1F
100
AcDbEntity
  8
PROFILY
100
AcDbLine
 10
1436.656488563975
 20
-383.0514942740967
 30
0.0
 11
1438.150767943794
 21
-383.0514942740967
 31
0.0
  0
LINE
  5
B0E
330
1F
100
AcDbEntity
  8
PROFILY
100
AcDbLine
 10
1438.150767943794
 20
-388.6362955582801
 30
0.0
 11
1438.150767943794
 21
-383.0514942740967
 31
0.0
  0
HATCH
  5
B0F
330
1F
100
AcDbEntity
  8
PROFILY
100
AcDbHatch
 10
0.0
 20
0.0
 30
0.0
210
0.0
220
0.0
230
1.0
  2
SOLID
 70
     1
 71
     0
 91
        2
 92
        7
 72
     0
 73
     1
 93
        4
 10
1438.150767943794
 20
-383.0514942740967
 10
1436.656488563966
 20
-383.0514942740967
 10
1436.656488563966
 20
-388.6362955582801
 10
1438.150767943794
 20
-388.6362955582801
 97
        0
 92
        7
 72
     0
 73
     1
 93
        7
 10
1438.150767943794
 20
-393.05713813657
 10
1436.656488563966
 20
-393.05713813657
 10
1436.656488563966
 20
-401.4468172446552
 10
1436.656488563966
 20
-406.7028900318639
 10
1440.486208278801
 20
-406.7028900318639
 10
1440.486208278801
 20
-405.0601915129866
 10
1438.150767943794
 20
-405.0601915129866
 97
        0
 75
     0
 76
     1
 47
0.169069331426656
 98
        2
 10
1437.530416678956
 20
-385.8698361913841
 10
1437.361267637868
 20
-400.0716600312255
  0
LINE
  5
B10
330
1F
100
AcDbEntity
  8
PROFILY
100
AcDbLine
 10
1568.820708624835
 20
-405.0601915129857
 30
0.0
 11
1438.150767943794
 21
-405.0601915129866
 31
0.0
  0
LINE
  5
B11
330
1F
100
AcDbEntity
  8
PROFILY
100
AcDbLine
 10
1568.820708624835
 20
-406.702890031863
 30
0.0
 11
1436.656488563975
 21
-406.702890031863
 31
0.0
  0
HATCH
  5
B12
330
1F
100
AcDbEntity
  8
PROFILY
100
AcDbHatch
 10
0.0
 20
0.0
 30
0.0
210
0.0
220
0.0
230
1.0
  2
SOLID
 70
     1
 71
     0
 91
        5
 92
        7
 72
     0
 73
     1
 93
        4
 10
1568.820708624835
 20
-405.0601915129848
 10
1554.561319697498
 20
-405.0601915129857
 10
1554.561319697498
 20
-406.702890031863
 10
1568.820708624835
 20
-406.702890031863
 97
        0
 92
        7
 72
     0
 73
     1
 93
        4
 10
1540.30193077016
 20
-405.0601915129857
 10
1526.042541842823
 20
-405.0601915129857
 10
1526.042541842823
 20
-406.702890031863
 10
1540.30193077016
 20
-406.702890031863
 97
        0
 92
        7
 72
     0
 73
     1
 93
        4
 10
1511.783152915487
 20
-405.0601915129857
 10
1497.52376398815
 20
-405.0601915129857
 10
1497.52376398815
 20
-406.7028900318639
 10
1511.783152915485
 20
-406.702890031863
 97
        0
 92
        7
 72
     0
 73
     1
 93
        4
 10
1483.264375060812
 20
-405.0601915129857
 10
1469.004986133476
 20
-405.0601915129866
 10
1469.004986133476
 20
-406.702890031863
 10
1483.264375060812
 20
-406.702890031863
 97
        0
 92
        7
 72
     0
 73
     1
 93
        4
 10
1454.745597206139
 20
-405.0601915129866
 10
1440.486208278801
 20
-405.0601915129866
 10
1440.486208278801
 20
-406.702890031863
 10
1454.745597206139
 20
-406.702890031863
 97
        0
 75
     0
 76
     1
 47
0.2346926121939802
 98
        5
 10
1561.614780025959
 20
-405.6090952756632
 10
1532.260413095096
 20
-405.8437811287978
 10
1507.367931351177
 20
-405.8437811287978
 10
1475.609817531668
 20
-405.8388975320297
 10
1448.838650317618
 20
-405.8388975320297
  0
LINE
  5
B13
330
1F
100
AcDbEntity
  8
PROFILY
100
AcDbLine
 10
1469.004986133476
 20
-406.702890031863
 30
0.0
 11
1469.004986133476
 21
-405.0601915129857
 31
0.0
  0
LINE
  5
B14
330
1F
100
AcDbEntity
  8
PROFILY
100
AcDbLine
 10
1497.52376398815
 20
-406.702890031863
 30
0.0
 11
1497.52376398815
 21
-405.0601915129857
 31
0.0
  0
LINE
  5
B15
330
1F
100
AcDbEntity
  8
PROFILY
100
AcDbLine
 10
1540.30193077016
 20
-406.702890031863
 30
0.0
 11
1540.30193077016
 21
-405.0601915129857
 31
0.0
  0
LINE
  5
B16
330
1F
100
AcDbEntity
  8
PROFILY
100
AcDbLine
 10
1526.042541842823
 20
-406.702890031863
 30
0.0
 11
1526.042541842823
 21
-405.0601915129857
 31
0.0
  0
LINE
  5
B17
330
1F
100
AcDbEntity
  8
PROFILY
100
AcDbLine
 10
1511.783152915487
 20
-406.702890031863
 30
0.0
 11
1511.783152915487
 21
-405.0601915129857
 31
0.0
  0
LINE
  5
B18
330
1F
100
AcDbEntity
  8
PROFILY
100
AcDbLine
 10
1568.820708624835
 20
-406.702890031863
 30
0.0
 11
1568.820708624835
 21
-405.0601915129857
 31
0.0
  0
LINE
  5
B19
330
1F
100
AcDbEntity
  8
PROFILY
100
AcDbLine
 10
1554.561319697498
 20
-406.702890031863
 30
0.0
 11
1554.561319697498
 21
-405.0601915129857
 31
0.0
  0
LWPOLYLINE
  5
B1A
330
1F
100
AcDbEntity
  8
PROFILY
100
AcDbPolyline
 90
        4
 70
     1
 43
0.0
 10
1436.6557101036
 20
-388.6341581222943
 10
1438.155292736576
 20
-388.6341581222943
 10
1438.155292736576
 20
-393.0727261636486
 10
1436.6557101036
 20
-393.0727261636486
  0
HATCH
  5
B1B
330
1F
100
AcDbEntity
  8
PROFILY
100
AcDbHatch
 10
0.0
 20
0.0
 30
0.0
210
0.0
220
0.0
230
1.0
  2
SOLID
 70
     1
 71
     0
 91
        1
 92
        7
 72
     0
 73
     1
 93
        4
 10
1438.155292736576
 20
-388.6341581222943
 10
1436.6557101036
 20
-388.6341581222943
 10
1436.6557101036
 20
-393.0727261636486
 10
1438.155292736576
 20
-393.0727261636486
 97
        0
 75
     0
 76
     1
 47
0.0099002372419542
 98
        1
 10
1437.689723527291
 20
-389.8650358471488
  0
LINE
  5
B1C
330
1F
100
AcDbEntity
  8
POPIS
100
AcDbLine
 10
1604.097552702849
 20
578.9512408615872
 30
0.0
 11
1607.517026490585
 21
584.3325375090651
 31
0.0
  0
LINE
  5
B1D
330
1F
100
AcDbEntity
  8
POPIS
100
AcDbLine
 10
1610.93650027833
 20
578.9512408615872
 30
0.0
 11
1607.517026490593
 21
584.3325375090651
 31
0.0
  0
HATCH
  5
B1E
330
1F
100
AcDbEntity
  8
POPIS
100
AcDbHatch
 10
0.0
 20
0.0
 30
0.0
210
0.0
220
0.0
230
1.0
  2
SOLID
 70
     1
 71
     0
 91
        1
 92
        7
 72
     0
 73
     1
 93
        8
 10
1609.410754330371
 20
591.8868847606707
 10
1613.089595667969
 20
591.8868847606707
 10
1607.517026490589
 20
599.6877368435677
 10
1601.94445731321
 20
591.8868847606707
 10
1605.623298650808
 20
591.8868847606707
 10
1604.097552702845
 20
578.9512408615889
 10
1607.517026490589
 20
584.3325375090723
 10
1610.936500278328
 20
578.9512408615872
 97
        0
 75
     0
 76
     1
 47
0.3835833255279223
 98
        1
 10
1607.925209237843
 20
588.978701580171
  0
LINE
  5
B1F
330
1F
100
AcDbEntity
  8
POPIS
100
AcDbLine
 10
1607.517026490589
 20
599.6877368435677
 30
0.0
 11
1601.944457313208
 21
591.8868847606707
 31
0.0
  0
LINE
  5
B20
330
1F
100
AcDbEntity
  8
POPIS
100
AcDbLine
 10
1601.944457313208
 20
591.8868847606707
 30
0.0
 11
1605.623298650806
 21
591.8868847606707
 31
0.0
  0
LINE
  5
B21
330
1F
100
AcDbEntity
  8
POPIS
100
AcDbLine
 10
1605.623298650806
 20
591.8868847606707
 30
0.0
 11
1604.097552702849
 21
578.9512408615872
 31
0.0
  0
LINE
  5
B22
330
1F
100
AcDbEntity
  8
POPIS
100
AcDbLine
 10
1609.410754330371
 20
591.8868847606707
 30
0.0
 11
1610.93650027833
 21
578.9512408615872
 31
0.0
  0
LINE
  5
B23
330
1F
100
AcDbEntity
  8
POPIS
100
AcDbLine
 10
1613.089595667969
 20
591.8868847606707
 30
0.0
 11
1609.410754330371
 21
591.8868847606707
 31
0.0
  0
LINE
  5
B24
330
1F
100
AcDbEntity
  8
POPIS
100
AcDbLine
 10
1607.517026490589
 20
599.6877368435677
 30
0.0
 11
1613.089595667969
 21
591.8868847606707
 31
0.0
  0
HATCH
  5
B25
330
1F
100
AcDbEntity
  8
POPIS
100
AcDbHatch
 10
0.0
 20
0.0
 30
0.0
210
0.0
220
0.0
230
1.0
  2
SOLID
 70
     1
 71
     0
 91
        1
 92
        7
 72
     0
 73
     1
 93
        8
 10
1609.41075433037
 20
57.75129418590108
 10
1613.089595667969
 20
57.75129418590108
 10
1607.517026490587
 20
65.55214626879728
 10
1601.944457313207
 20
57.75129418590108
 10
1605.623298650806
 20
57.75129418590108
 10
1604.09755270285
 20
44.81565028682484
 10
1607.517026490591
 20
50.19694693430278
 10
1610.936500278331
 20
44.81565028681757
 97
        0
 75
     0
 76
     1
 47
0.3835833255279223
 98
        1
 10
1607.925209237843
 20
54.84311100540139
  0
LINE
  5
B26
330
1F
100
AcDbEntity
  8
POPIS
100
AcDbLine
 10
1607.517026490589
 20
65.5521462687982
 30
0.0
 11
1601.944457313208
 21
57.75129418590108
 31
0.0
  0
LINE
  5
B27
330
1F
100
AcDbEntity
  8
POPIS
100
AcDbLine
 10
1601.944457313208
 20
57.75129418590108
 30
0.0
 11
1605.623298650806
 21
57.75129418590108
 31
0.0
  0
LINE
  5
B28
330
1F
100
AcDbEntity
  8
POPIS
100
AcDbLine
 10
1605.623298650806
 20
57.75129418590108
 30
0.0
 11
1604.097552702849
 21
44.81565028681757
 31
0.0
  0
LINE
  5
B29
330
1F
100
AcDbEntity
  8
POPIS
100
AcDbLine
 10
1609.410754330371
 20
57.75129418590108
 30
0.0
 11
1610.93650027833
 21
44.81565028681757
 31
0.0
  0
LINE
  5
B2A
330
1F
100
AcDbEntity
  8
POPIS
100
AcDbLine
 10
1613.089595667969
 20
57.75129418590108
 30
0.0
 11
1609.410754330371
 21
57.75129418590108
 31
0.0
  0
LINE
  5
B2B
330
1F
100
AcDbEntity
  8
POPIS
100
AcDbLine
 10
1607.517026490589
 20
65.5521462687982
 30
0.0
 11
1613.089595667969
 21
57.75129418590108
 31
0.0
  0
LINE
  5
B2C
330
1F
100
AcDbEntity
  8
POPIS
100
AcDbLine
 10
1604.097552702849
 20
44.81565028681757
 30
0.0
 11
1607.517026490585
 21
50.19694693429551
 31
0.0
  0
LINE
  5
B2D
330
1F
100
AcDbEntity
  8
POPIS
100
AcDbLine
 10
1610.93650027833
 20
44.81565028681757
 30
0.0
 11
1607.517026490593
 21
50.19694693429551
 31
0.0
  0
LINE
  5
B2E
330
1F
100
AcDbEntity
  8
POPIS
100
AcDbLine
 10
1607.517026490589
 20
436.3289865460835
 30
0.0
 11
1613.089595667969
 21
428.5281344631864
 31
0.0
  0
LINE
  5
B2F
330
1F
100
AcDbEntity
  8
POPIS
100
AcDbLine
 10
1613.089595667969
 20
428.5281344631864
 30
0.0
 11
1609.410754330371
 21
428.5281344631864
 31
0.0
  0
LINE
  5
B30
330
1F
100
AcDbEntity
  8
POPIS
100
AcDbLine
 10
1609.410754330371
 20
428.5281344631864
 30
0.0
 11
1610.93650027833
 21
415.5924905641029
 31
0.0
  0
LINE
  5
B31
330
1F
100
AcDbEntity
  8
POPIS
100
AcDbLine
 10
1605.623298650806
 20
428.5281344631864
 30
0.0
 11
1604.097552702849
 21
415.5924905641029
 31
0.0
  0
LINE
  5
B32
330
1F
100
AcDbEntity
  8
POPIS
100
AcDbLine
 10
1601.944457313208
 20
428.5281344631864
 30
0.0
 11
1605.623298650806
 21
428.5281344631864
 31
0.0
  0
LINE
  5
B33
330
1F
100
AcDbEntity
  8
POPIS
100
AcDbLine
 10
1607.517026490589
 20
436.3289865460835
 30
0.0
 11
1601.944457313208
 21
428.5281344631864
 31
0.0
  0
HATCH
  5
B34
330
1F
100
AcDbEntity
  8
POPIS
100
AcDbHatch
 10
0.0
 20
0.0
 30
0.0
210
0.0
220
0.0
230
1.0
  2
SOLID
 70
     1
 71
     0
 91
        1
 92
        7
 72
     0
 73
     1
 93
        8
 10
1609.410754330371
 20
428.5281344631864
 10
1613.089595667969
 20
428.5281344631864
 10
1607.517026490589
 20
436.3289865460835
 10
1601.94445731321
 20
428.5281344631864
 10
1605.623298650808
 20
428.5281344631864
 10
1604.097552702845
 20
415.5924905641048
 10
1607.517026490589
 20
420.9737872115881
 10
1610.936500278328
 20
415.5924905641029
 97
        0
 75
     0
 76
     1
 47
0.3835833255279223
 98
        1
 10
1607.925209237843
 20
425.6199512826867
  0
LINE
  5
B35
330
1F
100
AcDbEntity
  8
POPIS
100
AcDbLine
 10
1610.93650027833
 20
415.5924905641029
 30
0.0
 11
1607.517026490593
 21
420.9737872115808
 31
0.0
  0
LINE
  5
B36
330
1F
100
AcDbEntity
  8
POPIS
100
AcDbLine
 10
1604.097552702849
 20
415.5924905641029
 30
0.0
 11
1607.517026490585
 21
420.9737872115808
 31
0.0
  0
LINE
  5
B37
330
1F
100
AcDbEntity
  8
POPIS
100
AcDbLine
 10
1607.517026490589
 20
263.5845237453547
 30
0.0
 11
1613.089595667969
 21
255.7836716624576
 31
0.0
  0
LINE
  5
B38
330
1F
100
AcDbEntity
  8
POPIS
100
AcDbLine
 10
1613.089595667969
 20
255.7836716624576
 30
0.0
 11
1609.410754330371
 21
255.7836716624576
 31
0.0
  0
LINE
  5
B39
330
1F
100
AcDbEntity
  8
POPIS
100
AcDbLine
 10
1609.410754330371
 20
255.7836716624576
 30
0.0
 11
1610.93650027833
 21
242.8480277633741
 31
0.0
  0
LINE
  5
B3A
330
1F
100
AcDbEntity
  8
POPIS
100
AcDbLine
 10
1605.623298650806
 20
255.7836716624576
 30
0.0
 11
1604.097552702849
 21
242.8480277633741
 31
0.0
  0
LINE
  5
B3B
330
1F
100
AcDbEntity
  8
POPIS
100
AcDbLine
 10
1601.944457313208
 20
255.7836716624576
 30
0.0
 11
1605.623298650806
 21
255.7836716624576
 31
0.0
  0
LINE
  5
B3C
330
1F
100
AcDbEntity
  8
POPIS
100
AcDbLine
 10
1607.517026490589
 20
263.5845237453547
 30
0.0
 11
1601.944457313208
 21
255.7836716624576
 31
0.0
  0
HATCH
  5
B3D
330
1F
100
AcDbEntity
  8
POPIS
100
AcDbHatch
 10
0.0
 20
0.0
 30
0.0
210
0.0
220
0.0
230
1.0
  2
SOLID
 70
     1
 71
     0
 91
        1
 92
        7
 72
     0
 73
     1
 93
        8
 10
1609.410754330371
 20
255.7836716624576
 10
1613.089595667969
 20
255.7836716624576
 10
1607.517026490589
 20
263.5845237453547
 10
1601.94445731321
 20
255.7836716624576
 10
1605.623298650808
 20
255.7836716624576
 10
1604.097552702845
 20
242.8480277633759
 10
1607.517026490589
 20
248.2293244108593
 10
1610.936500278328
 20
242.8480277633741
 97
        0
 75
     0
 76
     1
 47
0.3835833255279223
 98
        1
 10
1607.925209237843
 20
252.8754884819579
  0
LINE
  5
B3E
330
1F
100
AcDbEntity
  8
POPIS
100
AcDbLine
 10
1610.93650027833
 20
242.8480277633741
 30
0.0
 11
1607.517026490593
 21
248.229324410852
 31
0.0
  0
LINE
  5
B3F
330
1F
100
AcDbEntity
  8
POPIS
100
AcDbLine
 10
1604.097552702849
 20
242.8480277633741
 30
0.0
 11
1607.517026490585
 21
248.229324410852
 31
0.0
  0
LINE
  5
C5E
330
1F
100
AcDbEntity
  8
PROFILY
100
AcDbLine
 10
1578.238065385798
 20
79.57502137414394
 30
0.0
 11
1578.238065385798
 21
647.2597817835185
 31
0.0
  0
LINE
  5
C5F
330
1F
100
AcDbEntity
  8
PROFILY
  6
DASHED
370
    40
100
AcDbLine
 10
1578.038065385798
 20
79.57502137414394
 30
0.0
 11
1578.038065385798
 21
647.2597817835185
 31
0.0
  0
LINE
  5
C60
330
1F
100
AcDbEntity
  8
PROFILY
100
AcDbLine
 10
1577.838065385798
 20
79.57502137414394
 30
0.0
 11
1577.838065385798
 21
647.2597817835185
 31
0.0
  0
LINE
  5
C61
330
1F
100
AcDbEntity
  8
POPIS
100
AcDbLine
 10
1411.184098487156
 20
199.8866383704789
 30
0.0
 11
1578.038065385798
 21
199.8866383704771
 31
0.0
  0
TEXT
  5
C62
330
1F
100
AcDbEntity
  8
POPIS
100
AcDbText
 10
1371.649348362074
 20
186.4432969211084
 30
0.0
 40
25.0
  1
11
 41
0.7
  7
SIMPLEX7
100
AcDbText
  0
INSERT
  5
C63
330
1F
100
AcDbEntity
  8
POPIS
100
AcDbBlockReference
  2
E_PUNKT
 10
1578.098382047942
 20
200.3073814366898
 30
0.0
  0
INSERT
  5
C64
330
1F
100
AcDbEntity
  8
POPIS
100
AcDbBlockReference
  2
_ArchTick
 10
1447.247509056028
 20
315.3834059612131
 30
0.0
 41
15.0
 42
15.0
 43
15.0
 50
270.0
  0
LINE
  5
C65
330
1F
100
AcDbEntity
  8
POPIS
100
AcDbLine
 10
1447.247509056028
 20
375.6374893791239
 30
0.0
 11
1447.247509056028
 21
311.2432046326271
 31
0.0
  0
LINE
  5
C66
330
1F
100
AcDbEntity
  8
POPIS
100
AcDbLine
 10
1476.041576678929
 20
315.3834059612131
 30
0.0
 11
1434.747509056028
 21
315.3834059612131
 31
0.0
  0
TEXT
  5
C67
330
1F
100
AcDbEntity
  8
POPIS
100
AcDbText
 10
1441.637598663736
 20
331.4640251904825
 30
0.0
 40
25.0
  1
50
 50
90.0
 41
0.7
  7
SIMPLEX7
100
AcDbText
  0
LINE
  5
C68
330
1F
100
AcDbEntity
  8
POPIS
100
AcDbLine
 10
1478.230518911931
 20
370.2289527181283
 30
0.0
 11
1434.747509056028
 21
370.2289527181283
 31
0.0
  0
INSERT
  5
C69
330
1F
100
AcDbEntity
  8
POPIS
100
AcDbBlockReference
  2
_ArchTick
 10
1447.247509056028
 20
370.2289527181283
 30
0.0
 41
15.0
 42
15.0
 43
15.0
 50
90.0
  0
TEXT
  5
C6A
330
1F
100
AcDbEntity
  8
POPIS
100
AcDbText
 10
1428.728364573672
 20
-558.4787629374432
 30
0.0
 40
25.0
  1
Podkladní EPDM páska tl.1 mm
 41
0.7
  7
SIMPLEX7
100
AcDbText
  0
TEXT
  5
C6B
330
1F
100
AcDbEntity
  8
POPIS
100
AcDbText
 10
1374.38466141393
 20
-558.4787629374432
 30
0.0
 40
25.0
  1
11
 41
0.85
  7
SIMPLEX7
100
AcDbText
  0
LINE
  5
C6C
330
1F
100
AcDbEntity
  8
POPIS
100
AcDbLine
 10
1521.888747193634
 20
370.2289527181283
 30
0.0
 11
1478.40573733773
 21
370.2289527181283
 31
0.0
  0
LINE
  5
C6D
330
1F
100
AcDbEntity
  8
POPIS
100
AcDbLine
 10
1519.699804960631
 20
329.7201898111661
 30
0.0
 11
1478.40573733773
 21
329.7201898111661
 31
0.0
  0
TEXT
  5
C6E
330
1F
100
AcDbEntity
  8
POPIS
100
AcDbText
 10
1485.295826945439
 20
336.649670258424
 30
0.0
 40
25.0
  1
40
 50
90.0
 41
0.7
  7
SIMPLEX7
100
AcDbText
  0
LINE
  5
C6F
330
1F
100
AcDbEntity
  8
POPIS
100
AcDbLine
 10
1490.905737337731
 20
375.6374893791239
 30
0.0
 11
1490.905737337731
 21
311.2432046326271
 31
0.0
  0
INSERT
  5
C70
330
1F
100
AcDbEntity
  8
POPIS
100
AcDbBlockReference
  2
_ArchTick
 10
1490.905737337731
 20
329.7201898111661
 30
0.0
 41
15.0
 42
15.0
 43
15.0
 50
270.0
  0
INSERT
  5
C71
330
1F
100
AcDbEntity
  8
POPIS
100
AcDbBlockReference
  2
_ArchTick
 10
1490.905737337731
 20
370.2289527181283
 30
0.0
 41
15.0
 42
15.0
 43
15.0
 50
90.0
  0
ENDSEC
  0
SECTION
  2
OBJECTS
  0
DICTIONARY
  5
C
330
0
100
AcDbDictionary
281
     1
  3
ACAD_GROUP
350
D
  3
ACAD_LAYOUT
350
1A
  3
ACAD_MLINESTYLE
350
17
  3
ACAD_PLOTSETTINGS
350
19
  3
ACAD_PLOTSTYLENAME
350
E
  3
AcDbVariableDictionary
350
C73
  0
DICTIONARY
  5
B56
330
1F
100
AcDbDictionary
280
     1
281
     1
  3
ACAD_LAYOUTSELFREF
360
C29
  0
DICTIONARY
  5
B58
330
1B
100
AcDbDictionary
280
     1
281
     1
  3
ACAD_LAYOUTSELFREF
360
C28
  0
DICTIONARY
  5
B5A
330
23
100
AcDbDictionary
280
     1
281
     1
  3
ACAD_LAYOUTSELFREF
360
C2A
  0
DICTIONARY
  5
D
102
{ACAD_REACTORS
330
C
102
}
330
C
100
AcDbDictionary
281
     1
  0
DICTIONARY
  5
1A
102
{ACAD_REACTORS
330
C
102
}
330
C
100
AcDbDictionary
281
     1
  3
Model
350
22
  3
Rozvržení1
350
1E
  3
Rozvržení2
350
26
  0
DICTIONARY
  5
17
102
{ACAD_REACTORS
330
C
102
}
330
C
100
AcDbDictionary
281
     1
  3
Standard
350
18
  0
DICTIONARY
  5
19
102
{ACAD_REACTORS
330
C
102
}
330
C
100
AcDbDictionary
281
     1
  0
ACDBDICTIONARYWDFLT
  5
E
102
{ACAD_REACTORS
330
C
102
}
330
C
100
AcDbDictionary
281
     1
  3
Normal
350
F
100
AcDbDictionaryWithDefault
340
F
  0
DICTIONARY
  5
C73
102
{ACAD_REACTORS
330
C
102
}
330
C
100
AcDbDictionary
281
     1
  3
DIMASSOC
350
C74
  0
XRECORD
  5
C29
102
{ACAD_REACTORS
330
B56
102
}
330
B56
100
AcDbXrecord
280
     1
340
1F
  0
XRECORD
  5
C28
102
{ACAD_REACTORS
330
B58
102
}
330
B58
100
AcDbXrecord
280
     1
340
1B
  0
XRECORD
  5
C2A
102
{ACAD_REACTORS
330
B5A
102
}
330
B5A
100
AcDbXrecord
280
     1
340
23
  0
LAYOUT
  5
22
102
{ACAD_REACTORS
330
1A
102
}
330
1A
100
AcDbPlotSettings
  1

  2
HP DeskJet 690C
  4

  6

 40
0.0
 41
0.0
 42
0.0
 43
0.0
 44
0.0
 45
0.0
 46
0.0
 47
0.0
 48
0.0
 49
0.0
140
0.0
141
0.0
142
1.0
143
1.0
 70
  1712
 72
     0
 73
     0
 74
     0
  7
monochrome.ctb
 75
     0
147
1.0
148
0.0
149
0.0
100
AcDbLayout
  1
Model
 70
     1
 71
     0
 10
0.0
 20
0.0
 11
12.0
 21
9.0
 12
0.0
 22
0.0
 32
0.0
 14
0.0
 24
0.0
 34
0.0
 15
0.0
 25
0.0
 35
0.0
146
0.0
 13
0.0
 23
0.0
 33
0.0
 16
1.0
 26
0.0
 36
0.0
 17
0.0
 27
1.0
 37
0.0
 76
     0
330
1F
  0
LAYOUT
  5
1E
102
{ACAD_REACTORS
330
1A
102
}
330
1A
100
AcDbPlotSettings
  1

  2
HP DeskJet 690C
  4

  6

 40
0.0
 41
0.0
 42
0.0
 43
0.0
 44
0.0
 45
0.0
 46
0.0
 47
0.0
 48
0.0
 49
0.0
140
0.0
141
0.0
142
1.0
143
1.0
 70
   688
 72
     0
 73
     0
 74
     5
  7
monochrome.ctb
 75
    16
147
1.0
148
0.0
149
0.0
100
AcDbLayout
  1
Rozvržení1
 70
     1
 71
     1
 10
0.0
 20
0.0
 11
420.0
 21
297.0
 12
0.0
 22
0.0
 32
0.0
 14
1.000000000000000E+20
 24
1.000000000000000E+20
 34
1.000000000000000E+20
 15
-1.000000000000000E+20
 25
-1.000000000000000E+20
 35
-1.000000000000000E+20
146
0.0
 13
0.0
 23
0.0
 33
0.0
 16
1.0
 26
0.0
 36
0.0
 17
0.0
 27
1.0
 37
0.0
 76
     0
330
1B
  0
LAYOUT
  5
26
102
{ACAD_REACTORS
330
1A
102
}
330
1A
100
AcDbPlotSettings
  1

  2
HP DeskJet 690C
  4

  6

 40
0.0
 41
0.0
 42
0.0
 43
0.0
 44
0.0
 45
0.0
 46
0.0
 47
0.0
 48
0.0
 49
0.0
140
0.0
141
0.0
142
1.0
143
1.0
 70
   688
 72
     0
 73
     0
 74
     5
  7
monochrome.ctb
 75
    16
147
1.0
148
0.0
149
0.0
100
AcDbLayout
  1
Rozvržení2
 70
     1
 71
     2
 10
0.0
 20
0.0
 11
12.0
 21
9.0
 12
0.0
 22
0.0
 32
0.0
 14
0.0
 24
0.0
 34
0.0
 15
0.0
 25
0.0
 35
0.0
146
0.0
 13
0.0
 23
0.0
 33
0.0
 16
1.0
 26
0.0
 36
0.0
 17
0.0
 27
1.0
 37
0.0
 76
     0
330
23
  0
MLINESTYLE
  5
18
102
{ACAD_REACTORS
330
17
102
}
330
17
100
AcDbMlineStyle
  2
STANDARD
 70
     0
  3

 62
   256
 51
90.0
 52
90.0
 71
     2
 49
0.5
 62
   256
  6
BYLAYER
 49
-0.5
 62
   256
  6
BYLAYER
  0
ACDBPLACEHOLDER
  5
F
102
{ACAD_REACTORS
330
E
102
}
330
E
  0
DICTIONARYVAR
  5
C74
102
{ACAD_REACTORS
330
C73
102
}
330
C73
100
DictionaryVariables
280
     0
  1
1
  0
ENDSEC
  0
EOF
