  0
SECTION
  2
HEADER
  9
$ACADVER
  1
AC1015
  9
$ACADMAINTVER
 70
    13
  9
$DWGCODEPAGE
  3
ANSI_1250
  9
$INSBASE
 10
0.0
 20
0.0
 30
0.0
  9
$EXTMIN
 10
1722.477303803199
 20
-336.4775922692779
 30
-0.0000000349181948
  9
$EXTMAX
 10
2611.150728610011
 20
1109.263760637665
 30
0.0000000814935746
  9
$LIMMIN
 10
0.0
 20
0.0
  9
$LIMMAX
 10
420.0
 20
297.0
  9
$ORTHOMODE
 70
     1
  9
$REGENMODE
 70
     1
  9
$FILLMODE
 70
     1
  9
$QTEXTMODE
 70
     0
  9
$MIRRTEXT
 70
     1
  9
$LTSCALE
 40
1.0
  9
$ATTMODE
 70
     1
  9
$TEXTSIZE
 40
2.5
  9
$TRACEWID
 40
1.0
  9
$TEXTSTYLE
  7
Standard
  9
$CLAYER
  8
0
  9
$CELTYPE
  6
ByLayer
  9
$CECOLOR
 62
   256
  9
$CELTSCALE
 40
1.0
  9
$DISPSILH
 70
     0
  9
$DIMSCALE
 40
1.0
  9
$DIMASZ
 40
2.5
  9
$DIMEXO
 40
0.625
  9
$DIMDLI
 40
3.75
  9
$DIMRND
 40
0.0
  9
$DIMDLE
 40
0.0
  9
$DIMEXE
 40
1.25
  9
$DIMTP
 40
0.0
  9
$DIMTM
 40
0.0
  9
$DIMTXT
 40
2.5
  9
$DIMCEN
 40
2.5
  9
$DIMTSZ
 40
0.0
  9
$DIMTOL
 70
     0
  9
$DIMLIM
 70
     0
  9
$DIMTIH
 70
     0
  9
$DIMTOH
 70
     0
  9
$DIMSE1
 70
     0
  9
$DIMSE2
 70
     0
  9
$DIMTAD
 70
     1
  9
$DIMZIN
 70
     8
  9
$DIMBLK
  1

  9
$DIMASO
 70
     1
  9
$DIMSHO
 70
     1
  9
$DIMPOST
  1

  9
$DIMAPOST
  1

  9
$DIMALT
 70
     0
  9
$DIMALTD
 70
     3
  9
$DIMALTF
 40
0.03937007874016
  9
$DIMLFAC
 40
1.0
  9
$DIMTOFL
 70
     1
  9
$DIMTVP
 40
0.0
  9
$DIMTIX
 70
     0
  9
$DIMSOXD
 70
     0
  9
$DIMSAH
 70
     0
  9
$DIMBLK1
  1

  9
$DIMBLK2
  1

  9
$DIMSTYLE
  2
ISO-25
  9
$DIMCLRD
 70
     0
  9
$DIMCLRE
 70
     0
  9
$DIMCLRT
 70
     0
  9
$DIMTFAC
 40
1.0
  9
$DIMGAP
 40
0.625
  9
$DIMJUST
 70
     0
  9
$DIMSD1
 70
     0
  9
$DIMSD2
 70
     0
  9
$DIMTOLJ
 70
     0
  9
$DIMTZIN
 70
     8
  9
$DIMALTZ
 70
     0
  9
$DIMALTTZ
 70
     0
  9
$DIMUPT
 70
     0
  9
$DIMDEC
 70
     2
  9
$DIMTDEC
 70
     2
  9
$DIMALTU
 70
     2
  9
$DIMALTTD
 70
     3
  9
$DIMTXSTY
  7
Standard
  9
$DIMAUNIT
 70
     0
  9
$DIMADEC
 70
     0
  9
$DIMALTRND
 40
0.0
  9
$DIMAZIN
 70
     0
  9
$DIMDSEP
 70
    44
  9
$DIMATFIT
 70
     3
  9
$DIMFRAC
 70
     0
  9
$DIMLDRBLK
  1

  9
$DIMLUNIT
 70
     2
  9
$DIMLWD
 70
    -2
  9
$DIMLWE
 70
    -2
  9
$DIMTMOVE
 70
     0
  9
$LUNITS
 70
     2
  9
$LUPREC
 70
     4
  9
$SKETCHINC
 40
1.0
  9
$FILLETRAD
 40
10.0
  9
$AUNITS
 70
     0
  9
$AUPREC
 70
     0
  9
$MENU
  1
.
  9
$ELEVATION
 40
0.0
  9
$PELEVATION
 40
0.0
  9
$THICKNESS
 40
0.0
  9
$LIMCHECK
 70
     0
  9
$CHAMFERA
 40
10.0
  9
$CHAMFERB
 40
10.0
  9
$CHAMFERC
 40
20.0
  9
$CHAMFERD
 40
0.0
  9
$SKPOLY
 70
     0
  9
$TDCREATE
 40
2452334.465307870
  9
$TDUCREATE
 40
2452334.423641203
  9
$TDUPDATE
 40
2455595.884973958
  9
$TDUUPDATE
 40
2455595.843307291
  9
$TDINDWG
 40
0.0104922569
  9
$TDUSRTIMER
 40
0.0104922569
  9
$USRTIMER
 70
     1
  9
$ANGBASE
 50
0.0
  9
$ANGDIR
 70
     0
  9
$PDMODE
 70
     0
  9
$PDSIZE
 40
0.0
  9
$PLINEWID
 40
0.0
  9
$SPLFRAME
 70
     0
  9
$SPLINETYPE
 70
     6
  9
$SPLINESEGS
 70
     8
  9
$HANDSEED
  5
24F0
  9
$SURFTAB1
 70
     6
  9
$SURFTAB2
 70
     6
  9
$SURFTYPE
 70
     6
  9
$SURFU
 70
     6
  9
$SURFV
 70
     6
  9
$UCSBASE
  2

  9
$UCSNAME
  2

  9
$UCSORG
 10
0.0
 20
0.0
 30
0.0
  9
$UCSXDIR
 10
1.0
 20
0.0
 30
0.0
  9
$UCSYDIR
 10
0.0
 20
1.0
 30
0.0
  9
$UCSORTHOREF
  2

  9
$UCSORTHOVIEW
 70
     0
  9
$UCSORGTOP
 10
0.0
 20
0.0
 30
0.0
  9
$UCSORGBOTTOM
 10
0.0
 20
0.0
 30
0.0
  9
$UCSORGLEFT
 10
0.0
 20
0.0
 30
0.0
  9
$UCSORGRIGHT
 10
0.0
 20
0.0
 30
0.0
  9
$UCSORGFRONT
 10
0.0
 20
0.0
 30
0.0
  9
$UCSORGBACK
 10
0.0
 20
0.0
 30
0.0
  9
$PUCSBASE
  2

  9
$PUCSNAME
  2

  9
$PUCSORG
 10
0.0
 20
0.0
 30
0.0
  9
$PUCSXDIR
 10
1.0
 20
0.0
 30
0.0
  9
$PUCSYDIR
 10
0.0
 20
1.0
 30
0.0
  9
$PUCSORTHOREF
  2

  9
$PUCSORTHOVIEW
 70
     0
  9
$PUCSORGTOP
 10
0.0
 20
0.0
 30
0.0
  9
$PUCSORGBOTTOM
 10
0.0
 20
0.0
 30
0.0
  9
$PUCSORGLEFT
 10
0.0
 20
0.0
 30
0.0
  9
$PUCSORGRIGHT
 10
0.0
 20
0.0
 30
0.0
  9
$PUCSORGFRONT
 10
0.0
 20
0.0
 30
0.0
  9
$PUCSORGBACK
 10
0.0
 20
0.0
 30
0.0
  9
$USERI1
 70
     0
  9
$USERI2
 70
     0
  9
$USERI3
 70
     0
  9
$USERI4
 70
     0
  9
$USERI5
 70
     0
  9
$USERR1
 40
0.0
  9
$USERR2
 40
0.0
  9
$USERR3
 40
0.0
  9
$USERR4
 40
0.0
  9
$USERR5
 40
0.0
  9
$WORLDVIEW
 70
     1
  9
$SHADEDGE
 70
     3
  9
$SHADEDIF
 70
    70
  9
$TILEMODE
 70
     1
  9
$MAXACTVP
 70
    48
  9
$PINSBASE
 10
0.0
 20
0.0
 30
0.0
  9
$PLIMCHECK
 70
     0
  9
$PEXTMIN
 10
1.000000000000000E+20
 20
1.000000000000000E+20
 30
1.000000000000000E+20
  9
$PEXTMAX
 10
-1.000000000000000E+20
 20
-1.000000000000000E+20
 30
-1.000000000000000E+20
  9
$PLIMMIN
 10
0.0
 20
0.0
  9
$PLIMMAX
 10
420.0
 20
297.0
  9
$UNITMODE
 70
     0
  9
$VISRETAIN
 70
     1
  9
$PLINEGEN
 70
     0
  9
$PSLTSCALE
 70
     1
  9
$TREEDEPTH
 70
  3020
  9
$CMLSTYLE
  2
Standard
  9
$CMLJUST
 70
     0
  9
$CMLSCALE
 40
20.0
  9
$PROXYGRAPHICS
 70
     1
  9
$MEASUREMENT
 70
     1
  9
$CELWEIGHT
370
    -1
  9
$ENDCAPS
280
     0
  9
$JOINSTYLE
280
     0
  9
$LWDISPLAY
290
     0
  9
$INSUNITS
 70
     4
  9
$HYPERLINKBASE
  1

  9
$STYLESHEET
  1

  9
$XEDIT
290
     1
  9
$CEPSNTYPE
380
     0
  9
$PSTYLEMODE
290
     1
  9
$FINGERPRINTGUID
  2
{4216A968-507C-4CB8-873B-AD6C9E89F3B1}
  9
$VERSIONGUID
  2
{16A2B4F3-7FA4-44CF-9595-C57B7ED68F67}
  9
$EXTNAMES
290
     1
  9
$PSVPSCALE
 40
0.0
  9
$OLESTARTUP
290
     0
  0
ENDSEC
  0
SECTION
  2
CLASSES
  0
CLASS
  1
ACDBDICTIONARYWDFLT
  2
AcDbDictionaryWithDefault
  3
AutoCAD 2000
 90
        0
280
     0
281
     0
  0
CLASS
  1
ACDBPLACEHOLDER
  2
AcDbPlaceHolder
  3
AutoCAD 2000
 90
        0
280
     0
281
     0
  0
CLASS
  1
LAYOUT
  2
AcDbLayout
  3
AutoCAD 2000
 90
        0
280
     0
281
     0
  0
CLASS
  1
LONG_TRANSACTION
  2
AcDbLongTransaction
  3
AutoCAD 2000
 90
    32768
280
     0
281
     0
  0
CLASS
  1
LWPOLYLINE
  2
AcDbPolyline
  3
AutoCAD 2000
 90
    32768
280
     0
281
     1
  0
CLASS
  1
HATCH
  2
AcDbHatch
  3
AutoCAD 2000
 90
    32768
280
     0
281
     1
  0
CLASS
  1
XRECORD
  2
AcDbXrecord
  3
AutoCAD 2000
 90
    32768
280
     0
281
     0
  0
CLASS
  1
LONG_TRANSACTION
  2
AcDbLongTransaction
  3
AutoCAD 2000
 90
    32768
280
     0
281
     0
  0
CLASS
  1
LWPOLYLINE
  2
AcDbPolyline
  3
AutoCAD 2000
 90
    32768
280
     0
281
     1
  0
CLASS
  1
HATCH
  2
AcDbHatch
  3
AutoCAD 2000
 90
    32768
280
     0
281
     1
  0
CLASS
  1
XRECORD
  2
AcDbXrecord
  3
AutoCAD 2000
 90
    32768
280
     0
281
     0
  0
CLASS
  1
LONG_TRANSACTION
  2
AcDbLongTransaction
  3
AutoCAD 2000
 90
    32768
280
     0
281
     0
  0
CLASS
  1
LWPOLYLINE
  2
AcDbPolyline
  3
AutoCAD 2000
 90
    32768
280
     0
281
     1
  0
CLASS
  1
HATCH
  2
AcDbHatch
  3
AutoCAD 2000
 90
    32768
280
     0
281
     1
  0
CLASS
  1
XRECORD
  2
AcDbXrecord
  3
AutoCAD 2000
 90
    32768
280
     0
281
     0
  0
CLASS
  1
DICTIONARYVAR
  2
AcDbDictionaryVar
  3
AutoCAD 2000
 90
        0
280
     0
281
     0
  0
ENDSEC
  0
SECTION
  2
TABLES
  0
TABLE
  2
VPORT
  5
8
330
0
100
AcDbSymbolTable
 70
     2
  0
VPORT
  5
24EF
330
8
100
AcDbSymbolTableRecord
100
AcDbViewportTableRecord
  2
*Active
 70
     0
 10
0.0
 20
0.0
 11
1.0
 21
1.0
 12
2166.814016206605
 22
386.3930841841938
 13
0.0
 23
0.0
 14
10.0
 24
10.0
 15
10.0
 25
10.0
 16
0.0
 26
0.0
 36
1.0
 17
0.0
 27
0.0
 37
0.0
 40
1459.359010862111
 41
2.229559748427672
 42
50.0
 43
0.0
 44
0.0
 50
0.0
 51
0.0
 71
     0
 72
   100
 73
     1
 74
     3
 75
     0
 76
     0
 77
     0
 78
     0
281
     0
 65
     1
110
0.0
120
0.0
130
0.0
111
1.0
121
0.0
131
0.0
112
0.0
122
1.0
132
0.0
 79
     0
146
0.0
  0
ENDTAB
  0
TABLE
  2
LTYPE
  5
5
330
0
100
AcDbSymbolTable
 70
     3
  0
LTYPE
  5
14
330
5
100
AcDbSymbolTableRecord
100
AcDbLinetypeTableRecord
  2
ByBlock
 70
     0
  3

 72
    65
 73
     0
 40
0.0
  0
LTYPE
  5
15
330
5
100
AcDbSymbolTableRecord
100
AcDbLinetypeTableRecord
  2
ByLayer
 70
     0
  3

 72
    65
 73
     0
 40
0.0
  0
LTYPE
  5
16
330
5
100
AcDbSymbolTableRecord
100
AcDbLinetypeTableRecord
  2
Continuous
 70
     0
  3
Solid line
 72
    65
 73
     0
 40
0.0
  0
LTYPE
  5
33
330
5
100
AcDbSymbolTableRecord
100
AcDbLinetypeTableRecord
  2
IZOLACE
 70
     0
  3
Izolace SSSSSSSSSSSSSSSSSSSSSSSSSSSSSSSSSSSSSSS
 72
    65
 73
     4
 40
10.16253999999999
 49
0.00254
 74
     0
 49
-2.54
 74
     4
 75
   134
340
3D
 46
2.54
 50
0.0
 44
-2.54
 45
0.0
 49
-5.08
 74
     4
 75
   134
340
3D
 46
2.54
 50
180.0
 44
2.54
 45
0.0
 49
-2.54
 74
     0
  0
LTYPE
  5
24AF
330
5
100
AcDbSymbolTableRecord
100
AcDbLinetypeTableRecord
  2
DASHED
 70
     0
  3
Dashed __ __ __ __ __ __ __ __ __ __ __ __ __ _
 72
    65
 73
     2
 40
19.04999999999999
 49
12.7
 74
     0
 49
-6.349999999999999
 74
     0
  0
ENDTAB
  0
TABLE
  2
LAYER
  5
2
330
0
100
AcDbSymbolTable
 70
     8
  0
LAYER
  5
10
330
2
100
AcDbSymbolTableRecord
100
AcDbLayerTableRecord
  2
0
 70
     0
 62
     7
  6
Continuous
370
    -3
390
F
  0
LAYER
  5
36
330
2
100
AcDbSymbolTableRecord
100
AcDbLayerTableRecord
  2
POPIS
 70
     0
 62
    30
  6
Continuous
370
    -3
390
F
  0
LAYER
  5
37
330
2
100
AcDbSymbolTableRecord
100
AcDbLayerTableRecord
  2
SPOJOVACÍ
 70
     0
 62
   180
  6
Continuous
370
    -3
390
F
  0
LAYER
  5
38
330
2
100
AcDbSymbolTableRecord
100
AcDbLayerTableRecord
  2
CETRIS
 70
     0
 62
     1
  6
Continuous
370
    -3
390
F
  0
LAYER
  5
39
330
2
100
AcDbSymbolTableRecord
100
AcDbLayerTableRecord
  2
NOSNÉ KONSTRUKCE
 70
     0
 62
    33
  6
Continuous
370
    -3
390
F
  0
LAYER
  5
3A
330
2
100
AcDbSymbolTableRecord
100
AcDbLayerTableRecord
  2
PROFILY
 70
     0
 62
    73
  6
Continuous
370
    -3
390
F
  0
LAYER
  5
3B
330
2
100
AcDbSymbolTableRecord
100
AcDbLayerTableRecord
  2
STAVBA OBRYS
 70
     0
 62
     6
  6
Continuous
370
    -3
390
F
  0
LAYER
  5
5FD
330
2
100
AcDbSymbolTableRecord
100
AcDbLayerTableRecord
  2
Defpoints
 70
     0
 62
     7
  6
Continuous
290
     0
370
    -3
390
F
  0
ENDTAB
  0
TABLE
  2
STYLE
  5
3
330
0
100
AcDbSymbolTable
 70
     3
  0
STYLE
  5
11
330
3
100
AcDbSymbolTableRecord
100
AcDbTextStyleTableRecord
  2
Standard
 70
     0
 40
0.0
 41
1.0
 50
0.0
 71
     0
 42
2.5
  3
txt
  4

  0
STYLE
  5
3C
330
3
100
AcDbSymbolTableRecord
100
AcDbTextStyleTableRecord
  2
SIMPLEX7
 70
     0
 40
0.0
 41
0.85
 50
0.0
 71
     0
 42
102.0
  3
ARIAL.TTF
  4

1001
ACAD
1000
Arial CE
1071
    60962
  0
STYLE
  5
3D
330
3
100
AcDbSymbolTableRecord
100
AcDbTextStyleTableRecord
  2

 70
     1
 40
0.0
 41
1.0
 50
0.0
 71
     0
 42
2.5
  3
ltypeshp.shx
  4

  0
ENDTAB
  0
TABLE
  2
VIEW
  5
6
330
0
100
AcDbSymbolTable
 70
     0
  0
ENDTAB
  0
TABLE
  2
UCS
  5
7
330
0
100
AcDbSymbolTable
 70
     0
  0
ENDTAB
  0
TABLE
  2
APPID
  5
9
330
0
100
AcDbSymbolTable
 70
     1
  0
APPID
  5
12
330
9
100
AcDbSymbolTableRecord
100
AcDbRegAppTableRecord
  2
ACAD
 70
     0
  0
ENDTAB
  0
TABLE
  2
DIMSTYLE
  5
A
330
0
100
AcDbSymbolTable
 70
     1
100
AcDbDimStyleTable
 71
     0
  0
DIMSTYLE
105
27
330
A
100
AcDbSymbolTableRecord
100
AcDbDimStyleTableRecord
  2
ISO-25
 70
     0
 41
2.5
 42
0.625
 43
3.75
 44
1.25
 73
     0
 74
     0
 77
     1
 78
     8
140
2.5
141
2.5
143
0.03937007874016
147
0.625
171
     3
172
     1
271
     2
272
     2
274
     3
278
    44
283
     0
284
     8
340
11
  0
ENDTAB
  0
TABLE
  2
BLOCK_RECORD
  5
1
330
0
100
AcDbSymbolTable
 70
     3
  0
BLOCK_RECORD
  5
1F
102
{ACAD_XDICTIONARY
360
B56
102
}
330
1
100
AcDbSymbolTableRecord
100
AcDbBlockTableRecord
  2
*Model_Space
340
22
  0
BLOCK_RECORD
  5
1B
102
{ACAD_XDICTIONARY
360
B58
102
}
330
1
100
AcDbSymbolTableRecord
100
AcDbBlockTableRecord
  2
*Paper_Space
340
1E
  0
BLOCK_RECORD
  5
23
102
{ACAD_XDICTIONARY
360
B5A
102
}
330
1
100
AcDbSymbolTableRecord
100
AcDbBlockTableRecord
  2
*Paper_Space0
340
26
  0
BLOCK_RECORD
  5
2B
330
1
100
AcDbSymbolTableRecord
100
AcDbBlockTableRecord
  2
E_PUNKT
340
0
102
{BLKREFS
331
2217
331
221A
331
221B
331
221C
331
2392
331
241D
331
24D6
102
}
  0
BLOCK_RECORD
  5
24AB
330
1
100
AcDbSymbolTableRecord
100
AcDbBlockTableRecord
  2
_ArchTick
340
0
102
{BLKREFS
331
24E1
331
24E2
102
}
  0
ENDTAB
  0
ENDSEC
  0
SECTION
  2
BLOCKS
  0
BLOCK
  5
20
330
1F
100
AcDbEntity
  8
0
100
AcDbBlockBegin
  2
*Model_Space
 70
     0
 10
0.0
 20
0.0
 30
0.0
  3
*Model_Space
  1

  0
ENDBLK
  5
21
330
1F
100
AcDbEntity
  8
0
100
AcDbBlockEnd
  0
BLOCK
  5
1C
330
1B
100
AcDbEntity
 67
     1
  8
0
100
AcDbBlockBegin
  2
*Paper_Space
 70
     0
 10
0.0
 20
0.0
 30
0.0
  3
*Paper_Space
  1

  0
ENDBLK
  5
1D
330
1B
100
AcDbEntity
 67
     1
  8
0
100
AcDbBlockEnd
  0
BLOCK
  5
24
330
23
100
AcDbEntity
  8
0
100
AcDbBlockBegin
  2
*Paper_Space0
 70
     0
 10
0.0
 20
0.0
 30
0.0
  3
*Paper_Space0
  1

  0
ENDBLK
  5
25
330
23
100
AcDbEntity
  8
0
100
AcDbBlockEnd
  0
BLOCK
  5
2D
330
2B
100
AcDbEntity
  8
0
100
AcDbBlockBegin
  2
E_PUNKT
 70
     0
 10
0.0
 20
0.0
 30
0.0
  3
E_PUNKT
  1

  0
LWPOLYLINE
  5
2C
330
2B
100
AcDbEntity
  8
POPIS
100
AcDbPolyline
 90
        2
 70
     1
 43
2.5
 10
1.27761037562675
 20
0.0290683308725193
 42
-1.0
 10
-1.222389624373249
 20
0.0290683308725193
 42
-1.0
  0
ENDBLK
  5
2E
330
2B
100
AcDbEntity
  8
0
100
AcDbBlockEnd
  0
BLOCK
  5
24AD
330
24AB
100
AcDbEntity
  8
0
100
AcDbBlockBegin
  2
_ArchTick
 70
     0
 10
0.0
 20
0.0
 30
0.0
  3
_ArchTick
  1

  0
LWPOLYLINE
  5
24AC
330
24AB
100
AcDbEntity
  8
0
  6
ByBlock
 62
     0
100
AcDbPolyline
 90
        2
 70
     0
 43
0.15
 10
-0.5
 20
-0.5
 10
0.5
 20
0.5
  0
ENDBLK
  5
24AE
330
24AB
100
AcDbEntity
  8
0
100
AcDbBlockEnd
  0
ENDSEC
  0
SECTION
  2
ENTITIES
  0
LINE
  5
220E
330
1F
100
AcDbEntity
  8
PROFILY
100
AcDbLine
 10
2333.259321711154
 20
-234.2426284450625
 30
0.0
 11
2330.914048332634
 21
-234.2426284450625
 31
0.0
  0
LINE
  5
220F
330
1F
100
AcDbEntity
  8
PROFILY
100
AcDbLine
 10
2391.407757561804
 20
-292.1575845380934
 30
0.0
 11
2391.407757561804
 21
-294.4912540931332
 31
0.0
  0
LINE
  5
2210
330
1F
100
AcDbEntity
  8
PROFILY
100
AcDbLine
 10
2330.914048332631
 20
-234.2426284450625
 30
0.0
 11
2330.914048332631
 21
-294.4912540931322
 31
0.0
  0
LINE
  5
2211
330
1F
100
AcDbEntity
  8
PROFILY
100
AcDbLine
 10
2333.259321711154
 20
-292.1575845380934
 30
0.0
 11
2333.259321711154
 21
-234.2426284450625
 31
0.0
  0
LINE
  5
2212
330
1F
100
AcDbEntity
  8
PROFILY
100
AcDbLine
 10
2333.259321711154
 20
-292.1575845380934
 30
0.0
 11
2391.407757561804
 21
-292.1575845380934
 31
0.0
  0
HATCH
  5
2213
330
1F
100
AcDbEntity
  8
PROFILY
100
AcDbHatch
 10
0.0
 20
0.0
 30
0.0
210
0.0
220
0.0
230
1.0
  2
SOLID
 70
     1
 71
     0
 91
        1
 92
        7
 72
     0
 73
     1
 93
        6
 10
2391.407757561804
 20
-294.4912540931336
 10
2391.407757561807
 20
-292.1575845380934
 10
2333.259321711158
 20
-292.1575845380934
 10
2333.259321711154
 20
-234.2426284450625
 10
2330.914048332627
 20
-234.242628445063
 10
2330.914048332634
 20
-294.4912540931322
 97
        0
 75
     0
 76
     1
 47
0.6102241244330852
 98
        1
 10
2346.190292884534
 20
-293.4823575237091
  0
HATCH
  5
2214
330
1F
100
AcDbEntity
  8
CETRIS
100
AcDbHatch
 10
0.0
 20
0.0
 30
0.0
210
0.0
220
0.0
230
1.0
  2
SOLID
 70
     1
 71
     0
 91
        9
 92
        7
 72
     0
 73
     1
 93
       11
 10
2527.88262137679
 20
289.0891332138226
 10
2054.314409357147
 20
289.0891332138221
 10
2052.99238858196
 20
288.6446082889587
 10
2052.99238858196
 20
283.6887304849188
 10
2053.21935147285
 20
282.1651025314699
 10
2053.832337322002
 20
280.7512353217639
 10
2054.790418391975
 20
279.5438671388728
 10
2056.027552200878
 20
278.6257836284367
 10
2056.742857387046
 20
278.2890599905535
 10
2056.742857387039
 20
277.0891332138221
 10
2526.584181870978
 20
277.0891332138221
 97
        0
 92
        7
 72
     0
 73
     1
 93
       14
 10
2050.226975937298
 20
282.9018017617832
 10
2050.293018419223
 20
283.6887304849529
 10
2050.293018419223
 20
287.7369543841996
 10
2049.620501320791
 20
287.5108228299445
 10
2049.175115192531
 20
287.9573059656859
 10
2050.293018419223
 20
288.3331970691233
 10
2050.293018419223
 20
289.0891332138221
 10
2001.67073091754
 20
289.0891332138216
 10
2001.670730917537
 20
277.0891332138221
 10
2046.542549609778
 20
277.0891332138221
 10
2046.542549609778
 20
278.2890599905535
 10
2047.892234693329
 20
279.0332006270314
 10
2049.002864593684
 20
280.1019726164377
 10
2049.799095072999
 20
281.4209618947452
 97
        0
 92
        7
 72
     0
 73
     1
 93
       11
 10
1993.228227311691
 20
345.2274300482113
 10
1992.783702386828
 20
346.5494508233973
 10
1987.827824582783
 20
346.5494508233973
 10
1986.304196629357
 20
346.3224879325143
 10
1984.89032941965
 20
345.7095020833667
 10
1983.682961236752
 20
344.7514210133799
 10
1982.764877726314
 20
343.5142872044902
 10
1982.428154088423
 20
342.7989820183142
 10
1981.228227311695
 20
342.7989820183142
 10
1981.228227311695
 20
297.7596686092478
 10
1993.228227311691
 20
297.7596686092478
 97
        0
 92
        7
 72
     0
 73
     1
 93
       14
 10
1993.228227311691
 20
527.1903163138017
 10
1981.228227311695
 20
527.1903163138022
 10
1981.228227311699
 20
352.9992897955826
 10
1982.428154088426
 20
352.9992897955821
 10
1983.172294724904
 20
351.6496047120317
 10
1984.241066714316
 20
350.5389748116736
 10
1985.56005599261
 20
349.7427443323558
 10
1987.040895859664
 20
349.3148634680546
 10
1987.827824582783
 20
349.248820986133
 10
1991.876048482071
 20
349.2488209861335
 10
1991.649916927818
 20
349.9213380845603
 10
1992.096400063562
 20
350.3667242128244
 10
1992.472291166997
 20
349.2488209861335
 10
1993.228227311695
 20
349.2488209861335
 97
        0
 92
        7
 72
     0
 73
     1
 93
        4
 10
1993.228227311687
 20
593.9111903532507
 10
1981.228227311695
 20
593.9111903532507
 10
1981.228227311695
 20
527.1903163138022
 10
1993.228227311691
 20
527.1903163138022
 97
        0
 92
        7
 72
     0
 73
     1
 93
        4
 10
1993.228227311691
 20
663.8980862705984
 10
1981.228227311695
 20
663.8980862705989
 10
1981.228227311695
 20
593.9111903532507
 10
1993.228227311695
 20
593.9111903532512
 97
        0
 92
        7
 72
     0
 73
     1
 93
        4
 10
1993.228227311691
 20
781.3846078486221
 10
1981.228227311699
 20
773.8706684902613
 10
1981.228227311699
 20
663.898086270598
 10
1993.228227311695
 20
663.8980862705984
 97
        0
 92
        7
 72
     0
 73
     1
 93
       11
 10
1993.228227311687
 20
807.8394005424515
 10
1992.783702386828
 20
809.1614213176299
 10
1987.827824582779
 20
809.161421317629
 10
1986.30419662935
 20
808.9344584267459
 10
1984.890329419661
 20
808.3214725776015
 10
1983.682961236748
 20
807.3633915076184
 10
1982.764877726306
 20
806.1262576987132
 10
1982.428154088423
 20
805.4109525125459
 10
1981.228227311695
 20
805.4109525125463
 10
1981.228227311695
 20
773.8706684902553
 10
1993.228227311691
 20
781.3846078486208
 97
        0
 92
        7
 72
     0
 73
     1
 93
       14
 10
1993.228227311687
 20
917.1184747562151
 10
1981.228227311691
 20
915.3023069339333
 10
1981.228227311691
 20
815.6112602898142
 10
1982.428154088426
 20
815.6112602898142
 10
1983.172294724897
 20
814.2615752062624
 10
1984.241066714313
 20
813.1509453059035
 10
1985.560055992614
 20
812.3547148265894
 10
1987.040895859653
 20
811.9268339622863
 10
1987.82782458279
 20
811.8607914803661
 10
1991.876048482067
 20
811.8607914803652
 10
1991.649916927818
 20
812.5333085787911
 10
1992.096400063566
 20
812.978694707057
 10
1992.472291167
 20
811.8607914803652
 10
1993.228227311687
 20
811.8607914803646
 97
        0
 75
     0
 76
     1
 47
1.4023926222127
 98
        9
 10
2155.698204005665
 20
285.6974138978262
 10
2023.80132787611
 20
281.4902031318274
 10
1985.916021085392
 20
329.1715892988363
 10
1988.722345857289
 20
393.6816266169121
 10
1988.722345857289
 20
573.1878945973953
 10
1987.31918347134
 20
627.881202751269
 10
1990.125508243251
 20
700.805661601335
 10
1985.916021085392
 20
800.3755007666555
 10
1985.916021085392
 20
852.2640497214311
  0
TEXT
  5
2215
330
1F
100
AcDbEntity
  8
POPIS
100
AcDbText
 10
1722.559406996076
 20
513.7469748644321
 30
0.0
 40
25.0
  1
06,07
 41
0.7
  7
SIMPLEX7
100
AcDbText
  0
LINE
  5
2216
330
1F
100
AcDbEntity
  8
POPIS
100
AcDbLine
 10
1794.947033329587
 20
527.1903163138026
 30
0.0
 11
2068.339083281699
 21
527.1903163138022
 31
0.0
  0
INSERT
  5
2217
330
1F
100
AcDbEntity
  8
POPIS
100
AcDbBlockReference
  2
E_PUNKT
 10
2069.561472906073
 20
527.1612479829295
 30
0.0
  0
TEXT
  5
2218
330
1F
100
AcDbEntity
  8
POPIS
100
AcDbText
 10
1754.969546986319
 20
650.4547448212283
 30
0.0
 40
25.0
  1
04
 41
0.7
  7
SIMPLEX7
100
AcDbText
  0
LINE
  5
2219
330
1F
100
AcDbEntity
  8
POPIS
100
AcDbLine
 10
1794.947033329587
 20
663.8980862705989
 30
0.0
 11
2009.945639601709
 21
663.8980862705984
 31
0.0
  0
INSERT
  5
221A
330
1F
100
AcDbEntity
  8
POPIS
100
AcDbBlockReference
  2
E_PUNKT
 10
2008.668029226083
 20
663.8690179397258
 30
0.0
  0
INSERT
  5
221B
330
1F
100
AcDbEntity
  8
POPIS
100
AcDbBlockReference
  2
E_PUNKT
 10
2005.211164991164
 20
789.3716647860733
 30
0.0
  0
INSERT
  5
221C
330
1F
100
AcDbEntity
  8
POPIS
100
AcDbBlockReference
  2
E_PUNKT
 10
1980.78100162411
 20
809.4647065553095
 30
0.0
  0
LINE
  5
221D
330
1F
100
AcDbEntity
  8
POPIS
100
AcDbLine
 10
1923.804847639175
 20
737.9143524392788
 30
0.0
 11
2005.448244647316
 21
789.0363136167938
 31
0.0
  0
TEXT
  5
221E
330
1F
100
AcDbEntity
  8
POPIS
100
AcDbText
 10
1754.411598035036
 20
724.4710109899083
 30
0.0
 40
25.0
  1
03
 41
0.7
  7
SIMPLEX7
100
AcDbText
  0
LINE
  5
221F
330
1F
100
AcDbEntity
  8
POPIS
100
AcDbLine
 10
1794.947033329587
 20
737.9143524392788
 30
0.0
 11
1923.804847639175
 21
737.9143524392788
 31
0.0
  0
LINE
  5
2220
330
1F
100
AcDbEntity
  8
POPIS
100
AcDbLine
 10
1794.947033329587
 20
878.4113518331764
 30
0.0
 11
1982.228227311695
 21
878.4113518331764
 31
0.0
  0
TEXT
  5
2221
330
1F
100
AcDbEntity
  8
POPIS
100
AcDbText
 10
1754.411598035036
 20
864.9680103838059
 30
0.0
 40
25.0
  1
01
 41
0.7
  7
SIMPLEX7
100
AcDbText
  0
LINE
  5
2222
330
1F
100
AcDbEntity
  8
POPIS
100
AcDbLine
 10
1794.947033329587
 20
809.5067522276554
 30
0.0
 11
1981.228227311691
 21
809.5067522276554
 31
0.0
  0
TEXT
  5
2223
330
1F
100
AcDbEntity
  8
POPIS
100
AcDbText
 10
1754.411598035036
 20
796.0634107782848
 30
0.0
 40
25.0
  1
02
 41
0.7
  7
SIMPLEX7
100
AcDbText
  0
TEXT
  5
2224
330
1F
100
AcDbEntity
  8
POPIS
100
AcDbText
 10
1861.39860068962
 20
-55.49170979521796
 30
0.0
 40
25.0
  1
05
 41
0.85
  7
SIMPLEX7
100
AcDbText
  0
TEXT
  5
2225
330
1F
100
AcDbEntity
  8
POPIS
100
AcDbText
 10
1862.286055031961
 20
-126.5865304762378
 30
0.0
 40
25.0
  1
07
 41
0.85
  7
SIMPLEX7
100
AcDbText
  0
TEXT
  5
2226
330
1F
100
AcDbEntity
  8
POPIS
100
AcDbText
 10
1862.286055031961
 20
-90.96764177814884
 30
0.0
 40
25.0
  1
06
 41
0.85
  7
SIMPLEX7
100
AcDbText
  0
TEXT
  5
2227
330
1F
100
AcDbEntity
  8
POPIS
100
AcDbText
 10
1863.6999422626
 20
-19.19315809316822
 30
0.0
 40
25.0
  1
04
 41
0.85
  7
SIMPLEX7
100
AcDbText
  0
TEXT
  5
2228
330
1F
100
AcDbEntity
  8
POPIS
100
AcDbText
 10
1918.164056815993
 20
-125.3871648049575
 30
0.0
 40
25.0
  1
Tepelná izolace (np. ORSIL, ROCKWOOL, ISOVER, NOBASIL)
 41
0.7
  7
SIMPLEX7
100
AcDbText
  0
TEXT
  5
2229
330
1F
100
AcDbEntity
  8
POPIS
100
AcDbText
 10
1918.120285395391
 20
16.73975153740548
 30
0.0
 40
25.0
  1
Svislá dřevěné lať 50x25 (100x25), impregnovaná
 41
0.7
  7
SIMPLEX7
100
AcDbText
  0
TEXT
  5
222A
330
1F
100
AcDbEntity
  8
POPIS
100
AcDbText
 10
1919.007739737732
 20
-55.03473214757514
 30
0.0
 40
25.0
  1
Pojistná fólie - parozábrana
 41
0.7
  7
SIMPLEX7
100
AcDbText
  0
TEXT
  5
222B
330
1F
100
AcDbEntity
  8
POPIS
100
AcDbText
 10
1919.007739737732
 20
-90.65362084566414
 30
0.0
 40
25.0
  1
Vodorovná dřevěná lať š=100 mm (tloušťka dle izolace)
 41
0.7
  7
SIMPLEX7
100
AcDbText
  0
TEXT
  5
222C
330
1F
100
AcDbEntity
  8
POPIS
100
AcDbText
 10
1918.120285395391
 20
-19.55880016464425
 30
0.0
 40
25.0
  1
Vzduchová mezera - min. 25 mm
 41
0.7
  7
SIMPLEX7
100
AcDbText
  0
TEXT
  5
222D
330
1F
100
AcDbEntity
  8
POPIS
100
AcDbText
 10
1863.998970193105
 20
17.26081634055526
 30
0.0
 40
25.0
  1
03
 41
0.85
  7
SIMPLEX7
100
AcDbText
  0
LINE
  5
222E
330
1F
100
AcDbEntity
  8
SPOJOVACÍ
  6
Continuous
100
AcDbLine
 10
1981.228227311695
 20
815.6112602898142
 30
0.0
 11
1981.228227311695
 21
805.4109525125463
 31
0.0
  0
LINE
  5
222F
330
1F
100
AcDbEntity
  8
SPOJOVACÍ
  6
Continuous
100
AcDbLine
 10
2004.130085579651
 20
812.5333085787938
 30
0.0
 11
2005.490002593194
 21
808.4889042192012
 31
0.0
  0
LINE
  5
2230
330
1F
100
AcDbEntity
  8
SPOJOVACÍ
  6
Continuous
100
AcDbLine
 10
2004.726328264806
 20
812.5333085787938
 30
0.0
 11
2006.086245278348
 21
808.4889042192012
 31
0.0
  0
LINE
  5
2231
330
1F
100
AcDbEntity
  8
SPOJOVACÍ
  6
Continuous
100
AcDbLine
 10
2005.70859390522
 20
808.1112528482558
 30
0.0
 11
2005.490002593194
 21
808.4889042192012
 31
0.0
  0
LINE
  5
2232
330
1F
100
AcDbEntity
  8
SPOJOVACÍ
  6
Continuous
100
AcDbLine
 10
2005.70859390522
 20
808.1112528482558
 30
0.0
 11
2006.086245278348
 21
808.4889042192012
 31
0.0
  0
LINE
  5
2233
330
1F
100
AcDbEntity
  8
SPOJOVACÍ
  6
Continuous
100
AcDbLine
 10
2004.508667128758
 20
812.9109599541047
 30
0.0
 11
2004.130085579651
 21
812.5333085787938
 31
0.0
  0
LINE
  5
2234
330
1F
100
AcDbEntity
  8
SPOJOVACÍ
  6
Continuous
100
AcDbLine
 10
2004.508667128758
 20
812.9109599541047
 30
0.0
 11
2004.726328264806
 21
812.5333085787938
 31
0.0
  0
LINE
  5
2235
330
1F
100
AcDbEntity
  8
SPOJOVACÍ
  6
Continuous
100
AcDbLine
 10
2004.508667128758
 20
812.9109599541047
 30
0.0
 11
2005.70859390522
 21
808.1112528482558
 31
0.0
  0
LINE
  5
2236
330
1F
100
AcDbEntity
  8
SPOJOVACÍ
  6
Continuous
100
AcDbLine
 10
2001.010275960689
 20
812.5333085787938
 30
0.0
 11
2002.370192974232
 21
808.4889042192012
 31
0.0
  0
LINE
  5
2237
330
1F
100
AcDbEntity
  8
SPOJOVACÍ
  6
Continuous
100
AcDbLine
 10
2001.606518645837
 20
812.5333085787938
 30
0.0
 11
2002.96643565911
 21
808.4889042192012
 31
0.0
  0
LINE
  5
2238
330
1F
100
AcDbEntity
  8
SPOJOVACÍ
  6
Continuous
100
AcDbLine
 10
2002.58785411028
 20
808.1112528482558
 30
0.0
 11
2002.370192974232
 21
808.4889042192012
 31
0.0
  0
LINE
  5
2239
330
1F
100
AcDbEntity
  8
SPOJOVACÍ
  6
Continuous
100
AcDbLine
 10
2002.58785411028
 20
808.1112528482558
 30
0.0
 11
2002.96643565911
 21
808.4889042192012
 31
0.0
  0
LINE
  5
223A
330
1F
100
AcDbEntity
  8
SPOJOVACÍ
  6
Continuous
100
AcDbLine
 10
2001.387927333817
 20
812.9109599541047
 30
0.0
 11
2001.010275960689
 21
812.5333085787938
 31
0.0
  0
LINE
  5
223B
330
1F
100
AcDbEntity
  8
SPOJOVACÍ
  6
Continuous
100
AcDbLine
 10
2001.387927333817
 20
812.9109599541047
 30
0.0
 11
2001.606518645837
 21
812.5333085787938
 31
0.0
  0
LINE
  5
223C
330
1F
100
AcDbEntity
  8
SPOJOVACÍ
  6
Continuous
100
AcDbLine
 10
2001.387927333817
 20
812.9109599541047
 30
0.0
 11
2002.58785411028
 21
808.1112528482558
 31
0.0
  0
LINE
  5
223D
330
1F
100
AcDbEntity
  8
SPOJOVACÍ
  6
Continuous
100
AcDbLine
 10
1997.89046634172
 20
812.5333085787938
 30
0.0
 11
1999.250383354993
 21
808.4889042192012
 31
0.0
  0
LINE
  5
223E
330
1F
100
AcDbEntity
  8
SPOJOVACÍ
  6
Continuous
100
AcDbLine
 10
1998.486709026875
 20
812.5333085787938
 30
0.0
 11
1999.846626040141
 21
808.4889042192012
 31
0.0
  0
LINE
  5
223F
330
1F
100
AcDbEntity
  8
SPOJOVACÍ
  6
Continuous
100
AcDbLine
 10
1999.468044491311
 20
808.1112528482558
 30
0.0
 11
1999.250383354993
 21
808.4889042192012
 31
0.0
  0
LINE
  5
2240
330
1F
100
AcDbEntity
  8
SPOJOVACÍ
  6
Continuous
100
AcDbLine
 10
1999.468044491311
 20
808.1112528482558
 30
0.0
 11
1999.846626040141
 21
808.4889042192012
 31
0.0
  0
LINE
  5
2241
330
1F
100
AcDbEntity
  8
SPOJOVACÍ
  6
Continuous
100
AcDbLine
 10
1998.268117714848
 20
812.9109599541047
 30
0.0
 11
1997.89046634172
 21
812.5333085787938
 31
0.0
  0
LINE
  5
2242
330
1F
100
AcDbEntity
  8
SPOJOVACÍ
  6
Continuous
100
AcDbLine
 10
1998.268117714848
 20
812.9109599541047
 30
0.0
 11
1998.486709026875
 21
812.5333085787938
 31
0.0
  0
LINE
  5
2243
330
1F
100
AcDbEntity
  8
SPOJOVACÍ
  6
Continuous
100
AcDbLine
 10
1998.268117714848
 20
812.9109599541047
 30
0.0
 11
1999.468044491311
 21
808.1112528482558
 31
0.0
  0
LINE
  5
2244
330
1F
100
AcDbEntity
  8
SPOJOVACÍ
  6
Continuous
100
AcDbLine
 10
2013.614157993689
 20
811.5277885431064
 30
0.0
 11
2013.924836709463
 21
809.3735014016496
 31
0.0
  0
LINE
  5
2245
330
1F
100
AcDbEntity
  8
SPOJOVACÍ
  6
Continuous
100
AcDbLine
 10
2013.236506620561
 20
811.150137172161
 30
0.0
 11
2013.707175573145
 21
809.751152772595
 31
0.0
  0
LINE
  5
2246
330
1F
100
AcDbEntity
  8
SPOJOVACÍ
  6
Continuous
100
AcDbLine
 10
2013.832749305708
 20
811.150137172161
 30
0.0
 11
2014.303418258293
 21
809.751152772595
 31
0.0
  0
LINE
  5
2247
330
1F
100
AcDbEntity
  8
SPOJOVACÍ
  6
Continuous
100
AcDbLine
 10
2013.924836709463
 20
809.3735014016496
 30
0.0
 11
2013.707175573145
 21
809.751152772595
 31
0.0
  0
LINE
  5
2248
330
1F
100
AcDbEntity
  8
SPOJOVACÍ
  6
Continuous
100
AcDbLine
 10
2013.924836709463
 20
809.3735014016496
 30
0.0
 11
2014.303418258293
 21
809.751152772595
 31
0.0
  0
LINE
  5
2249
330
1F
100
AcDbEntity
  8
SPOJOVACÍ
  6
Continuous
100
AcDbLine
 10
2013.614157993689
 20
811.5277885431064
 30
0.0
 11
2013.236506620561
 21
811.150137172161
 31
0.0
  0
LINE
  5
224A
330
1F
100
AcDbEntity
  8
SPOJOVACÍ
  6
Continuous
100
AcDbLine
 10
2013.614157993689
 20
811.5277885431064
 30
0.0
 11
2013.832749305708
 21
811.150137172161
 31
0.0
  0
LINE
  5
224B
330
1F
100
AcDbEntity
  8
SPOJOVACÍ
  6
Continuous
100
AcDbLine
 10
2010.600388415369
 20
812.0924052535778
 30
0.0
 11
2011.233838132139
 21
808.9763163371467
 31
0.0
  0
LINE
  5
224C
330
1F
100
AcDbEntity
  8
SPOJOVACÍ
  6
Continuous
100
AcDbLine
 10
2010.221806866263
 20
811.7147538782669
 30
0.0
 11
2011.016176996091
 21
809.353967708092
 31
0.0
  0
LINE
  5
224D
330
1F
100
AcDbEntity
  8
SPOJOVACÍ
  6
Continuous
100
AcDbLine
 10
2010.818049551418
 20
811.7147538782669
 30
0.0
 11
2011.612419680969
 21
809.353967708092
 31
0.0
  0
LINE
  5
224E
330
1F
100
AcDbEntity
  8
SPOJOVACÍ
  6
Continuous
100
AcDbLine
 10
2011.233838132139
 20
808.9763163371467
 30
0.0
 11
2011.016176996091
 21
809.353967708092
 31
0.0
  0
LINE
  5
224F
330
1F
100
AcDbEntity
  8
SPOJOVACÍ
  6
Continuous
100
AcDbLine
 10
2011.233838132139
 20
808.9763163371467
 30
0.0
 11
2011.612419680969
 21
809.353967708092
 31
0.0
  0
LINE
  5
2250
330
1F
100
AcDbEntity
  8
SPOJOVACÍ
  6
Continuous
100
AcDbLine
 10
2010.600388415369
 20
812.0924052535778
 30
0.0
 11
2010.221806866263
 21
811.7147538782669
 31
0.0
  0
LINE
  5
2251
330
1F
100
AcDbEntity
  8
SPOJOVACÍ
  6
Continuous
100
AcDbLine
 10
2010.600388415369
 20
812.0924052535778
 30
0.0
 11
2010.818049551418
 21
811.7147538782669
 31
0.0
  0
LINE
  5
2252
330
1F
100
AcDbEntity
  8
SPOJOVACÍ
  6
Continuous
100
AcDbLine
 10
2007.585688661071
 20
812.6570219596837
 30
0.0
 11
2008.558652543376
 21
808.5316923069408
 31
0.0
  0
LINE
  5
2253
330
1F
100
AcDbEntity
  8
SPOJOVACÍ
  6
Continuous
100
AcDbLine
 10
2007.208037287943
 20
812.2784404113994
 30
0.0
 11
2008.340991407328
 21
808.9093436778862
 31
0.0
  0
LINE
  5
2254
330
1F
100
AcDbEntity
  8
SPOJOVACÍ
  6
Continuous
100
AcDbLine
 10
2007.804279973098
 20
812.2784404113994
 30
0.0
 11
2008.937234092483
 21
808.9093436778862
 31
0.0
  0
LINE
  5
2255
330
1F
100
AcDbEntity
  8
SPOJOVACÍ
  6
Continuous
100
AcDbLine
 10
2008.558652543376
 20
808.5316923069408
 30
0.0
 11
2008.340991407328
 21
808.9093436778862
 31
0.0
  0
LINE
  5
2256
330
1F
100
AcDbEntity
  8
SPOJOVACÍ
  6
Continuous
100
AcDbLine
 10
2008.558652543376
 20
808.5316923069408
 30
0.0
 11
2008.937234092483
 21
808.9093436778862
 31
0.0
  0
LINE
  5
2257
330
1F
100
AcDbEntity
  8
SPOJOVACÍ
  6
Continuous
100
AcDbLine
 10
2007.585688661071
 20
812.6570219596837
 30
0.0
 11
2007.208037287943
 21
812.2784404113994
 31
0.0
  0
LINE
  5
2258
330
1F
100
AcDbEntity
  8
SPOJOVACÍ
  6
Continuous
100
AcDbLine
 10
2007.585688661071
 20
812.6570219596837
 30
0.0
 11
2007.804279973098
 21
812.2784404113994
 31
0.0
  0
LINE
  5
2259
330
1F
100
AcDbEntity
  8
SPOJOVACÍ
  6
Continuous
100
AcDbLine
 10
1994.770656722482
 20
812.5333085787938
 30
0.0
 11
1996.129643560322
 21
808.4889042192012
 31
0.0
  0
LINE
  5
225A
330
1F
100
AcDbEntity
  8
SPOJOVACÍ
  6
Continuous
100
AcDbLine
 10
1995.366899407637
 20
812.5333085787938
 30
0.0
 11
1996.725886245201
 21
808.4889042192012
 31
0.0
  0
LINE
  5
225B
330
1F
100
AcDbEntity
  8
SPOJOVACÍ
  6
Continuous
100
AcDbLine
 10
1996.348234872349
 20
808.1112528482558
 30
0.0
 11
1996.129643560322
 21
808.4889042192012
 31
0.0
  0
LINE
  5
225C
330
1F
100
AcDbEntity
  8
SPOJOVACÍ
  6
Continuous
100
AcDbLine
 10
1996.348234872349
 20
808.1112528482558
 30
0.0
 11
1996.725886245201
 21
808.4889042192012
 31
0.0
  0
LINE
  5
225D
330
1F
100
AcDbEntity
  8
SPOJOVACÍ
  6
Continuous
100
AcDbLine
 10
1995.14830809561
 20
812.9109599541047
 30
0.0
 11
1994.770656722482
 21
812.5333085787938
 31
0.0
  0
LINE
  5
225E
330
1F
100
AcDbEntity
  8
SPOJOVACÍ
  6
Continuous
100
AcDbLine
 10
1995.14830809561
 20
812.9109599541047
 30
0.0
 11
1995.366899407637
 21
812.5333085787938
 31
0.0
  0
LINE
  5
225F
330
1F
100
AcDbEntity
  8
SPOJOVACÍ
  6
Continuous
100
AcDbLine
 10
1995.14830809561
 20
812.9109599541047
 30
0.0
 11
1996.348234872349
 21
808.1112528482558
 31
0.0
  0
LINE
  5
2260
330
1F
100
AcDbEntity
  8
SPOJOVACÍ
  6
Continuous
100
AcDbLine
 10
1991.649916927818
 20
812.5333085787938
 30
0.0
 11
1993.009833941084
 21
808.4889042192012
 31
0.0
  0
LINE
  5
2261
330
1F
100
AcDbEntity
  8
SPOJOVACÍ
  6
Continuous
100
AcDbLine
 10
1992.246159612697
 20
812.5333085787938
 30
0.0
 11
1993.606076626239
 21
808.4889042192012
 31
0.0
  0
LINE
  5
2262
330
1F
100
AcDbEntity
  8
SPOJOVACÍ
  6
Continuous
100
AcDbLine
 10
1993.22842525311
 20
808.1112528482558
 30
0.0
 11
1993.009833941084
 21
808.4889042192012
 31
0.0
  0
LINE
  5
2263
330
1F
100
AcDbEntity
  8
SPOJOVACÍ
  6
Continuous
100
AcDbLine
 10
1993.22842525311
 20
808.1112528482558
 30
0.0
 11
1993.606076626239
 21
808.4889042192012
 31
0.0
  0
LINE
  5
2264
330
1F
100
AcDbEntity
  8
SPOJOVACÍ
  6
Continuous
100
AcDbLine
 10
1992.028498476648
 20
812.9109599541047
 30
0.0
 11
1991.649916927818
 21
812.5333085787938
 31
0.0
  0
LINE
  5
2265
330
1F
100
AcDbEntity
  8
SPOJOVACÍ
  6
Continuous
100
AcDbLine
 10
1992.028498476648
 20
812.9109599541047
 30
0.0
 11
1992.246159612697
 21
812.5333085787938
 31
0.0
  0
LINE
  5
2266
330
1F
100
AcDbEntity
  8
SPOJOVACÍ
  6
Continuous
100
AcDbLine
 10
1992.028498476648
 20
812.9109599541047
 30
0.0
 11
1993.22842525311
 21
808.1112528482558
 31
0.0
  0
LINE
  5
2267
330
1F
100
AcDbEntity
  8
SPOJOVACÍ
  6
Continuous
100
AcDbLine
 10
2008.164258005979
 20
809.4069877290971
 30
0.0
 11
2006.193215494692
 21
809.1614213176294
 31
0.0
  0
LINE
  5
2268
330
1F
100
AcDbEntity
  8
SPOJOVACÍ
  6
Continuous
100
AcDbLine
 10
2010.871069571877
 20
809.7455717216584
 30
0.0
 11
2008.734455769024
 21
809.4786112663209
 31
0.0
  0
LINE
  5
2269
330
1F
100
AcDbEntity
  8
SPOJOVACÍ
  6
Continuous
100
AcDbLine
 10
2013.58811307131
 20
810.0850858828275
 30
0.0
 11
2011.443127686326
 21
809.8171952545166
 31
0.0
  0
LINE
  5
226A
330
1F
100
AcDbEntity
  8
SPOJOVACÍ
  6
Continuous
100
AcDbLine
 10
2013.904372841841
 20
810.8971293550789
 30
0.0
 11
2016.993486659646
 21
810.5111064011802
 31
0.0
  0
LINE
  5
226B
330
1F
100
AcDbEntity
  8
SPOJOVACÍ
  6
Continuous
100
AcDbLine
 10
2010.963156975632
 20
811.2645487927588
 30
0.0
 11
2013.283945585987
 21
810.9743339476048
 31
0.0
  0
LINE
  5
226C
330
1F
100
AcDbEntity
  8
SPOJOVACÍ
  6
Continuous
100
AcDbLine
 10
2008.010778999902
 20
811.6338285851165
 30
0.0
 11
2010.332497785967
 21
811.343613735597
 31
0.0
  0
LINE
  5
226D
330
1F
100
AcDbEntity
  8
SPOJOVACÍ
  6
Continuous
100
AcDbLine
 10
2016.993486659646
 20
810.5111064011802
 30
0.0
 11
2014.157380658377
 21
810.1567094200513
 31
0.0
  0
LINE
  5
226E
330
1F
100
AcDbEntity
  8
SPOJOVACÍ
  6
Continuous
100
AcDbLine
 10
2006.193215494692
 20
811.8607914803655
 30
0.0
 11
2007.390351744049
 21
811.7110331776425
 31
0.0
  0
LINE
  5
226F
330
1F
100
AcDbEntity
  8
SPOJOVACÍ
  6
Continuous
100
AcDbLine
 10
2005.856491856809
 20
809.1614213176294
 30
0.0
 11
2006.193215494692
 21
809.1614213176294
 31
0.0
  0
LINE
  5
2270
330
1F
100
AcDbEntity
  8
SPOJOVACÍ
  6
Continuous
100
AcDbLine
 10
2002.733891710196
 20
809.1614213176294
 30
0.0
 11
2005.252807765225
 21
809.1614213176294
 31
0.0
  0
LINE
  5
2271
330
1F
100
AcDbEntity
  8
SPOJOVACÍ
  6
Continuous
100
AcDbLine
 10
2004.945849752803
 20
811.8607914803655
 30
0.0
 11
2006.193215494692
 21
811.8607914803655
 31
0.0
  0
LINE
  5
2272
330
1F
100
AcDbEntity
  8
SPOJOVACÍ
  6
Continuous
100
AcDbLine
 10
2001.831621188322
 20
811.8607914803655
 30
0.0
 11
2004.349607067649
 21
811.8607914803655
 31
0.0
  0
LINE
  5
2273
330
1F
100
AcDbEntity
  8
SPOJOVACÍ
  6
Continuous
100
AcDbLine
 10
1999.612221739554
 20
809.1614213176294
 30
0.0
 11
2002.132998146263
 21
809.1614213176294
 31
0.0
  0
LINE
  5
2274
330
1F
100
AcDbEntity
  8
SPOJOVACÍ
  6
Continuous
100
AcDbLine
 10
1996.48962159321
 20
809.1614213176294
 30
0.0
 11
1999.017839406079
 21
809.1614213176294
 31
0.0
  0
LINE
  5
2275
330
1F
100
AcDbEntity
  8
SPOJOVACÍ
  6
Continuous
100
AcDbLine
 10
1993.374462853026
 20
809.1614213176294
 30
0.0
 11
1995.893378908055
 21
809.1614213176294
 31
0.0
  0
LINE
  5
2276
330
1F
100
AcDbEntity
  8
SPOJOVACÍ
  6
Continuous
100
AcDbLine
 10
1998.698789108167
 20
811.8607914803655
 30
0.0
 11
2001.227006921036
 21
811.8607914803655
 31
0.0
  0
LINE
  5
2277
330
1F
100
AcDbEntity
  8
SPOJOVACÍ
  6
Continuous
100
AcDbLine
 10
1995.583630367983
 20
811.8607914803655
 30
0.0
 11
1998.104406774692
 21
811.8607914803655
 31
0.0
  0
LINE
  5
2278
330
1F
100
AcDbEntity
  8
SPOJOVACÍ
  6
Continuous
100
AcDbLine
 10
1992.461030221639
 20
811.8607914803655
 30
0.0
 11
1994.979946276668
 21
811.8607914803655
 31
0.0
  0
LINE
  5
2279
330
1F
100
AcDbEntity
  8
SPOJOVACÍ
  6
Continuous
100
AcDbLine
 10
1984.241066714313
 20
813.1509453059047
 30
0.0
 11
1985.56005599261
 21
812.3547148265865
 31
0.0
  0
LINE
  5
227A
330
1F
100
AcDbEntity
  8
SPOJOVACÍ
  6
Continuous
100
AcDbLine
 10
1984.89032941965
 20
808.3214725775983
 30
0.0
 11
1983.682961236752
 21
807.3633915076138
 31
0.0
  0
LINE
  5
227B
330
1F
100
AcDbEntity
  8
SPOJOVACÍ
  6
Continuous
100
AcDbLine
 10
1983.682961236752
 20
807.3633915076138
 30
0.0
 11
1982.76487772631
 21
806.1262576987141
 31
0.0
  0
LINE
  5
227C
330
1F
100
AcDbEntity
  8
SPOJOVACÍ
  6
Continuous
100
AcDbLine
 10
1982.76487772631
 20
806.1262576987141
 30
0.0
 11
1982.428154088426
 21
805.4109525125463
 31
0.0
  0
LINE
  5
227D
330
1F
100
AcDbEntity
  8
SPOJOVACÍ
  6
Continuous
100
AcDbLine
 10
1981.228227311695
 20
805.4109525125463
 30
0.0
 11
1982.428154088426
 21
805.4109525125463
 31
0.0
  0
LINE
  5
227E
330
1F
100
AcDbEntity
  8
SPOJOVACÍ
  6
Continuous
100
AcDbLine
 10
1982.428154088426
 20
815.6112602898142
 30
0.0
 11
1983.172294724901
 21
814.2615752062633
 31
0.0
  0
LINE
  5
227F
330
1F
100
AcDbEntity
  8
SPOJOVACÍ
  6
Continuous
100
AcDbLine
 10
1983.172294724901
 20
814.2615752062633
 30
0.0
 11
1984.241066714313
 21
813.1509453059047
 31
0.0
  0
LINE
  5
2280
330
1F
100
AcDbEntity
  8
SPOJOVACÍ
  6
Continuous
100
AcDbLine
 10
1982.428154088426
 20
815.6112602898142
 30
0.0
 11
1982.428154088426
 21
805.4109525125463
 31
0.0
  0
LINE
  5
2281
330
1F
100
AcDbEntity
  8
SPOJOVACÍ
  6
Continuous
100
AcDbLine
 10
1981.228227311695
 20
815.6112602898142
 30
0.0
 11
1982.428154088426
 21
815.6112602898142
 31
0.0
  0
LINE
  5
2282
330
1F
100
AcDbEntity
  8
SPOJOVACÍ
  6
Continuous
100
AcDbLine
 10
1987.827824582783
 20
811.8607914803655
 30
0.0
 11
1991.865717712463
 21
811.8607914803655
 31
0.0
  0
LINE
  5
2283
330
1F
100
AcDbEntity
  8
SPOJOVACÍ
  6
Continuous
100
AcDbLine
 10
1987.827824582783
 20
809.1614213176294
 30
0.0
 11
1992.770778761712
 21
809.1614213176294
 31
0.0
  0
LINE
  5
2284
330
1F
100
AcDbEntity
  8
SPOJOVACÍ
  6
Continuous
100
AcDbLine
 10
1985.56005599261
 20
812.3547148265865
 30
0.0
 11
1987.04089585966
 21
811.9268339622871
 31
0.0
  0
LINE
  5
2285
330
1F
100
AcDbEntity
  8
SPOJOVACÍ
  6
Continuous
100
AcDbLine
 10
1987.04089585966
 20
811.9268339622871
 30
0.0
 11
1987.827824582783
 21
811.8607914803655
 31
0.0
  0
LINE
  5
2286
330
1F
100
AcDbEntity
  8
SPOJOVACÍ
  6
Continuous
100
AcDbLine
 10
1987.827824582783
 20
809.1614213176294
 30
0.0
 11
1986.304196629354
 21
808.9344584267459
 31
0.0
  0
LINE
  5
2287
330
1F
100
AcDbEntity
  8
SPOJOVACÍ
  6
Continuous
100
AcDbLine
 10
1986.304196629354
 20
808.9344584267459
 30
0.0
 11
1984.89032941965
 21
808.3214725775983
 31
0.0
  0
LINE
  5
2288
330
1F
100
AcDbEntity
  8
STAVBA OBRYS
  6
IZOLACE
 48
3.9
100
AcDbLine
 10
2067.163696955563
 20
926.0762401103974
 30
0.0
 11
2067.163696955563
 21
403.5019800770455
 31
0.0
  0
LINE
  5
2289
330
1F
100
AcDbEntity
  8
STAVBA OBRYS
  6
IZOLACE
 48
3.9
100
AcDbLine
 10
2027.163696955559
 20
363.5019800770455
 30
0.0
 11
2538.930226515575
 21
363.5019800770455
 31
0.0
  0
HATCH
  5
228A
330
1F
100
AcDbEntity
  8
PROFILY
100
AcDbHatch
 10
0.0
 20
0.0
 30
0.0
210
0.0
220
0.0
230
1.0
  2
SOLID
 70
     1
 71
     0
 91
        3
 92
        7
 72
     0
 73
     1
 93
        4
 10
2531.332009082712
 20
321.850974833957
 10
2531.332009082712
 20
319.8509748339533
 10
2501.52702259805
 20
319.850974833957
 10
2501.52702259805
 20
321.8509748339606
 97
        0
 92
        7
 72
     0
 73
     1
 93
        4
 10
2479.258935865132
 20
321.8509748339606
 10
2479.258935865132
 20
319.850974833957
 10
2458.703815787224
 20
319.850974833957
 10
2458.703815787224
 20
321.8509748339606
 97
        0
 92
        7
 72
     0
 73
     1
 93
        4
 10
2434.164583701008
 20
321.8509748339606
 10
2434.164583701008
 20
319.850974833957
 10
2409.155788702644
 20
319.8509748339643
 10
2409.155788702644
 20
321.8509748339643
 97
        0
 75
     0
 76
     1
 47
0.2441686704409117
 98
        3
 10
2515.971117469908
 20
320.8979785410742
 10
2466.38134932744
 20
320.8979785410779
 10
2426.222805291528
 20
320.8979785410815
  0
HATCH
  5
228B
330
1F
100
AcDbEntity
  8
PROFILY
100
AcDbHatch
 10
0.0
 20
0.0
 30
0.0
210
0.0
220
0.0
230
1.0
  2
SOLID
 70
     1
 71
     0
 91
        3
 92
        7
 72
     0
 73
     1
 93
        4
 10
2223.736456639636
 20
321.850974833957
 10
2223.736456639636
 20
319.8509748339533
 10
2193.931470154975
 20
319.850974833957
 10
2193.931470154975
 20
321.8509748339606
 97
        0
 92
        7
 72
     0
 73
     1
 93
        4
 10
2171.663383422056
 20
321.8509748339606
 10
2171.663383422056
 20
319.850974833957
 10
2151.108263344148
 20
319.850974833957
 10
2151.108263344148
 20
321.8509748339606
 97
        0
 92
        7
 72
     0
 73
     1
 93
        4
 10
2126.569031257932
 20
321.8509748339606
 10
2126.569031257932
 20
319.850974833957
 10
2101.560236259568
 20
319.8509748339643
 10
2101.560236259568
 20
321.8509748339643
 97
        0
 75
     0
 76
     1
 47
0.2441686704409117
 98
        3
 10
2208.375565026833
 20
320.8979785410742
 10
2158.785796884364
 20
320.8979785410779
 10
2118.627252848452
 20
320.8979785410815
  0
HATCH
  5
228C
330
1F
100
AcDbEntity
  8
PROFILY
100
AcDbHatch
 10
0.0
 20
0.0
 30
0.0
210
0.0
220
0.0
230
1.0
  2
SOLID
 70
     1
 71
     0
 91
        3
 92
        7
 72
     0
 73
     1
 93
        4
 10
2390.96298517102
 20
321.8509748339533
 10
2390.96298517102
 20
319.8509748339497
 10
2363.021425062689
 20
319.8509748339497
 10
2363.021425062689
 20
321.8509748339497
 97
        0
 92
        7
 72
     0
 73
     1
 93
        4
 10
2330.818342834879
 20
321.850974833957
 10
2330.818342834879
 20
319.8509748339497
 10
2303.0688875493
 20
319.8509748339497
 10
2303.0688875493
 20
321.8509748339533
 97
        0
 92
        7
 72
     0
 73
     1
 93
        4
 10
2276.689738418209
 20
321.8509748339606
 10
2276.689738418209
 20
319.8509748339533
 10
2249.77299324843
 20
319.8509748339533
 10
2249.77299324843
 20
321.850974833957
 97
        0
 75
     0
 76
     1
 47
0.3042315167532693
 98
        3
 10
2376.854517207842
 20
320.8861787799146
 10
2323.918219721793
 20
320.8861787799182
 10
2270.069232414765
 20
320.5817915204356
  0
LINE
  5
228D
330
1F
100
AcDbEntity
  8
PROFILY
100
AcDbLine
 10
2023.793190977253
 20
319.8509748339643
 30
0.0
 11
2023.793190977253
 21
321.8509748339679
 31
0.0
  0
LINE
  5
228E
330
1F
100
AcDbEntity
  8
PROFILY
100
AcDbLine
 10
2520.982191845364
 20
321.8509748339438
 30
0.0
 11
2023.793190977253
 21
321.8509748339679
 31
0.0
  0
LINE
  5
228F
330
1F
100
AcDbEntity
  8
PROFILY
100
AcDbLine
 10
2520.542563830576
 20
319.8509748339434
 30
0.0
 11
2023.793190977253
 21
319.8509748339643
 31
0.0
  0
LINE
  5
2290
330
1F
100
AcDbEntity
  8
PROFILY
100
AcDbLine
 10
2045.033536099749
 20
319.8509748339643
 30
0.0
 11
2045.033536099749
 21
321.8509748339643
 31
0.0
  0
HATCH
  5
2291
330
1F
100
AcDbEntity
  8
PROFILY
100
AcDbHatch
 10
0.0
 20
0.0
 30
0.0
210
0.0
220
0.0
230
1.0
  2
SOLID
 70
     1
 71
     0
 91
        1
 92
        7
 72
     0
 73
     1
 93
        4
 10
2073.468168451691
 20
321.8509748339643
 10
2073.468168451691
 20
319.8509748339606
 10
2045.033536099749
 20
319.850974833957
 10
2045.033536099749
 20
321.8509748339643
 97
        0
 75
     0
 76
     1
 47
0.2441686704409117
 98
        1
 10
2060.313171802828
 20
320.7760994292661
  0
HATCH
  5
2292
330
1F
100
AcDbEntity
  8
PROFILY
100
AcDbHatch
 10
0.0
 20
0.0
 30
0.0
210
0.0
220
0.0
230
1.0
  2
SOLID
 70
     1
 71
     0
 91
        1
 92
        7
 72
     0
 73
     1
 93
        4
 10
2025.512691712481
 20
369.8064515731794
 10
2023.512691712477
 20
369.8064515731794
 10
2023.512691712473
 20
341.3718192212372
 10
2025.512691712481
 20
341.3718192212372
 97
        0
 75
     0
 76
     1
 47
0.2441686704409117
 98
        1
 10
2024.437816307782
 20
356.6514549243152
  0
HATCH
  5
2293
330
1F
100
AcDbEntity
  8
PROFILY
100
AcDbHatch
 10
0.0
 20
0.0
 30
0.0
210
0.0
220
0.0
230
1.0
  2
SOLID
 70
     1
 71
     0
 91
        3
 92
        7
 72
     0
 73
     1
 93
        4
 10
2025.512691712481
 20
520.0747397611239
 10
2023.512691712477
 20
520.0747397611239
 10
2023.512691712477
 20
490.2697532764623
 10
2025.512691712481
 20
490.2697532764627
 97
        0
 92
        7
 72
     0
 73
     1
 93
        4
 10
2025.512691712481
 20
468.0016665435442
 10
2023.512691712477
 20
468.0016665435442
 10
2023.512691712477
 20
447.4465464656359
 10
2025.512691712481
 20
447.4465464656359
 97
        0
 92
        7
 72
     0
 73
     1
 93
        4
 10
2025.512691712481
 20
422.9073143794202
 10
2023.512691712477
 20
422.9073143794202
 10
2023.51269171248
 20
397.8985193810558
 10
2025.512691712481
 20
397.8985193810558
 97
        0
 75
     0
 76
     1
 47
0.2441686704409117
 98
        3
 10
2024.559695419598
 20
504.7138481483202
 10
2024.559695419598
 20
455.1240800058517
 10
2024.559695419598
 20
414.9655359699395
  0
HATCH
  5
2294
330
1F
100
AcDbEntity
  8
PROFILY
100
AcDbHatch
 10
0.0
 20
0.0
 30
0.0
210
0.0
220
0.0
230
1.0
  2
SOLID
 70
     1
 71
     0
 91
        3
 92
        7
 72
     0
 73
     1
 93
        4
 10
2025.512691712484
 20
687.3012682925081
 10
2023.51269171248
 20
687.3012682925081
 10
2023.51269171248
 20
659.3597081841771
 10
2025.512691712481
 20
659.3597081841771
 97
        0
 92
        7
 72
     0
 73
     1
 93
        4
 10
2025.512691712484
 20
627.156625956367
 10
2023.512691712477
 20
627.156625956367
 10
2023.512691712477
 20
599.4071706707882
 10
2025.512691712481
 20
599.4071706707882
 97
        0
 92
        7
 72
     0
 73
     1
 93
        4
 10
2025.512691712484
 20
573.028021539697
 10
2023.512691712477
 20
573.0280215396974
 10
2023.512691712477
 20
546.1112763699174
 10
2025.512691712481
 20
546.1112763699174
 97
        0
 75
     0
 76
     1
 47
0.3042315167532693
 98
        3
 10
2024.547895658445
 20
673.1928003293291
 10
2024.547895658445
 20
620.2565028432805
 10
2024.243508398959
 20
566.407515536252
  0
HATCH
  5
2295
330
1F
100
AcDbEntity
  8
PROFILY
100
AcDbHatch
 10
0.0
 20
0.0
 30
0.0
210
0.0
220
0.0
230
1.0
  2
SOLID
 70
     1
 71
     0
 91
        5
 92
        7
 72
     0
 73
     1
 93
        4
 10
2025.512691712481
 20
926.0762401103974
 10
2023.51269171248
 20
926.0762401103974
 10
2023.51269171248
 20
907.505451542017
 10
2025.512691712481
 20
907.505451542017
 97
        0
 92
        7
 72
     0
 73
     1
 93
        4
 10
2025.512691712481
 20
885.7310127914288
 10
2023.51269171248
 20
885.7310127914288
 10
2023.51269171248
 20
866.1833875119601
 10
2025.512691712481
 20
866.1833875119601
 97
        0
 92
        7
 72
     0
 73
     1
 93
        4
 10
2025.512691712481
 20
843.1778754229718
 10
2023.51269171248
 20
843.1778754229718
 10
2023.51269171248
 20
819.196870013261
 10
2025.512691712481
 20
819.196870013261
 97
        0
 92
        7
 72
     0
 73
     1
 93
        4
 10
2025.512691712481
 20
790.4196251390285
 10
2023.51269171248
 20
790.4196251390285
 10
2023.51269171248
 20
766.7812322516083
 10
2025.512691712481
 20
766.7812322516083
 97
        0
 92
        7
 72
     0
 73
     1
 93
        4
 10
2025.512691712481
 20
741.7724372532439
 10
2023.51269171248
 20
741.7724372532439
 10
2023.51269171248
 20
713.6803694453674
 10
2025.512691712481
 20
713.6803694453674
 97
        0
 75
     0
 76
     1
 47
0.3042315167532693
 98
        5
 10
2024.778844930832
 20
917.3875846340383
 10
2024.778844930832
 20
875.3108710642631
 10
2024.399622344081
 20
838.1620971933884
 10
2024.399622344081
 20
783.1970403591772
 10
2024.85127372784
 20
730.6159736692429
  0
LINE
  5
2296
330
1F
100
AcDbEntity
  8
PROFILY
100
AcDbLine
 10
2023.512691712477
 20
320.1314740987409
 30
0.0
 11
2025.512691712481
 21
320.1314740987409
 31
0.0
  0
LINE
  5
2297
330
1F
100
AcDbEntity
  8
PROFILY
100
AcDbLine
 10
2023.51269171248
 20
341.3718192212372
 30
0.0
 11
2025.512691712481
 21
341.3718192212372
 31
0.0
  0
LINE
  5
2298
330
1F
100
AcDbEntity
  8
PROFILY
100
AcDbLine
 10
2023.51269171248
 20
369.8064515731794
 30
0.0
 11
2025.512691712481
 21
369.8064515731794
 31
0.0
  0
LINE
  5
2299
330
1F
100
AcDbEntity
  8
PROFILY
100
AcDbLine
 10
2023.51269171248
 20
397.8985193810558
 30
0.0
 11
2025.512691712481
 21
397.8985193810558
 31
0.0
  0
LINE
  5
229A
330
1F
100
AcDbEntity
  8
PROFILY
100
AcDbLine
 10
2023.51269171248
 20
422.9073143794202
 30
0.0
 11
2025.512691712481
 21
422.9073143794202
 31
0.0
  0
LINE
  5
229B
330
1F
100
AcDbEntity
  8
PROFILY
100
AcDbLine
 10
2023.51269171248
 20
447.4465464656359
 30
0.0
 11
2025.512691712481
 21
447.4465464656359
 31
0.0
  0
LINE
  5
229C
330
1F
100
AcDbEntity
  8
PROFILY
100
AcDbLine
 10
2023.51269171248
 20
468.0016665435442
 30
0.0
 11
2025.512691712481
 21
468.0016665435442
 31
0.0
  0
LINE
  5
229D
330
1F
100
AcDbEntity
  8
PROFILY
100
AcDbLine
 10
2023.51269171248
 20
490.2697532764623
 30
0.0
 11
2025.512691712481
 21
490.2697532764623
 31
0.0
  0
LINE
  5
229E
330
1F
100
AcDbEntity
  8
PROFILY
100
AcDbLine
 10
2023.51269171248
 20
520.0747397611239
 30
0.0
 11
2025.512691712481
 21
520.0747397611239
 31
0.0
  0
LINE
  5
229F
330
1F
100
AcDbEntity
  8
PROFILY
100
AcDbLine
 10
2023.51269171248
 20
546.1112763699174
 30
0.0
 11
2025.512691712481
 21
546.1112763699174
 31
0.0
  0
LINE
  5
22A0
330
1F
100
AcDbEntity
  8
PROFILY
100
AcDbLine
 10
2023.51269171248
 20
573.028021539697
 30
0.0
 11
2025.512691712481
 21
573.028021539697
 31
0.0
  0
LINE
  5
22A1
330
1F
100
AcDbEntity
  8
PROFILY
100
AcDbLine
 10
2023.51269171248
 20
599.4071706707882
 30
0.0
 11
2025.512691712481
 21
599.4071706707882
 31
0.0
  0
LINE
  5
22A2
330
1F
100
AcDbEntity
  8
PROFILY
100
AcDbLine
 10
2023.51269171248
 20
627.156625956367
 30
0.0
 11
2025.512691712481
 21
627.156625956367
 31
0.0
  0
LINE
  5
22A3
330
1F
100
AcDbEntity
  8
PROFILY
100
AcDbLine
 10
2023.51269171248
 20
659.3597081841771
 30
0.0
 11
2025.512691712481
 21
659.3597081841771
 31
0.0
  0
LINE
  5
22A4
330
1F
100
AcDbEntity
  8
PROFILY
100
AcDbLine
 10
2023.51269171248
 20
687.3012682925081
 30
0.0
 11
2025.512691712481
 21
687.3012682925081
 31
0.0
  0
LINE
  5
22A5
330
1F
100
AcDbEntity
  8
PROFILY
100
AcDbLine
 10
2023.51269171248
 20
713.6803694453674
 30
0.0
 11
2025.512691712481
 21
713.6803694453674
 31
0.0
  0
LINE
  5
22A6
330
1F
100
AcDbEntity
  8
PROFILY
100
AcDbLine
 10
2023.51269171248
 20
741.7724372532439
 30
0.0
 11
2025.512691712481
 21
741.7724372532439
 31
0.0
  0
LINE
  5
22A7
330
1F
100
AcDbEntity
  8
PROFILY
100
AcDbLine
 10
2023.51269171248
 20
766.7812322516083
 30
0.0
 11
2025.512691712481
 21
766.7812322516083
 31
0.0
  0
LINE
  5
22A8
330
1F
100
AcDbEntity
  8
PROFILY
100
AcDbLine
 10
2023.51269171248
 20
790.4196251390285
 30
0.0
 11
2025.512691712481
 21
790.4196251390285
 31
0.0
  0
LINE
  5
22A9
330
1F
100
AcDbEntity
  8
PROFILY
100
AcDbLine
 10
2023.51269171248
 20
819.196870013261
 30
0.0
 11
2025.512691712481
 21
819.196870013261
 31
0.0
  0
LINE
  5
22AA
330
1F
100
AcDbEntity
  8
PROFILY
100
AcDbLine
 10
2023.51269171248
 20
843.1778754229718
 30
0.0
 11
2025.512691712481
 21
843.1778754229718
 31
0.0
  0
LINE
  5
22AB
330
1F
100
AcDbEntity
  8
PROFILY
100
AcDbLine
 10
2023.51269171248
 20
866.1833875119601
 30
0.0
 11
2025.512691712481
 21
866.1833875119601
 31
0.0
  0
LINE
  5
22AC
330
1F
100
AcDbEntity
  8
PROFILY
100
AcDbLine
 10
2023.51269171248
 20
885.7310127914288
 30
0.0
 11
2025.512691712481
 21
885.7310127914288
 31
0.0
  0
LINE
  5
22AD
330
1F
100
AcDbEntity
  8
PROFILY
100
AcDbLine
 10
2023.51269171248
 20
907.505451542017
 30
0.0
 11
2025.512691712481
 21
907.505451542017
 31
0.0
  0
LINE
  5
22AE
330
1F
100
AcDbEntity
  8
PROFILY
100
AcDbLine
 10
2023.51269171248
 20
926.0762401103974
 30
0.0
 11
2025.512691712481
 21
926.0762401103974
 31
0.0
  0
LINE
  5
22AF
330
1F
100
AcDbEntity
  8
PROFILY
100
AcDbLine
 10
2023.51269171248
 20
926.0762401103974
 30
0.0
 11
2023.512691712477
 21
320.1314740987409
 31
0.0
  0
LINE
  5
22B0
330
1F
100
AcDbEntity
  8
PROFILY
100
AcDbLine
 10
2025.512691712481
 20
926.0762401103974
 30
0.0
 11
2025.512691712481
 21
320.1314740987409
 31
0.0
  0
LINE
  5
22B1
330
1F
100
AcDbEntity
  8
STAVBA OBRYS
100
AcDbLine
 10
2027.163696955559
 20
323.5019800770455
 30
0.0
 11
2531.96332035217
 21
323.5019800770455
 31
0.0
  0
LINE
  5
22B2
330
1F
100
AcDbEntity
  8
STAVBA OBRYS
100
AcDbLine
 10
2027.163696955562
 20
926.0762401103974
 30
0.0
 11
2027.163696955559
 21
323.5019800770455
 31
0.0
  0
LINE
  5
22B3
330
1F
100
AcDbEntity
  8
PROFILY
100
AcDbLine
 10
2122.876386421635
 20
-286.9989069668331
 30
0.0
 11
2169.008704869608
 21
-286.998906966834
 31
0.0
  0
LINE
  5
22B4
330
1F
100
AcDbEntity
  8
PROFILY
100
AcDbLine
 10
2169.008704869605
 20
-289.3325765218719
 30
0.0
 11
2123.600221698264
 21
-289.3325765218719
 31
0.0
  0
LINE
  5
22B5
330
1F
100
AcDbEntity
  8
PROFILY
100
AcDbLine
 10
2115.184932556488
 20
-284.5717024238215
 30
0.0
 11
2102.34580532719
 21
-284.5717024238215
 31
0.0
  0
LINE
  5
22B6
330
1F
100
AcDbEntity
  8
PROFILY
100
AcDbLine
 10
2102.34580532719
 20
-284.5717024238215
 30
0.0
 11
2102.34580532719
 21
-304.2575446901842
 31
0.0
  0
LINE
  5
22B7
330
1F
100
AcDbEntity
  8
PROFILY
100
AcDbLine
 10
2102.34580532719
 20
-304.2575446901842
 30
0.0
 11
2122.031647593555
 21
-304.2575446901842
 31
0.0
  0
LINE
  5
22B8
330
1F
100
AcDbEntity
  8
PROFILY
100
AcDbLine
 10
2122.031647593555
 20
-304.2575446901842
 30
0.0
 11
2122.031647593555
 21
-291.4184174608812
 31
0.0
  0
LINE
  5
22B9
330
1F
100
AcDbEntity
  8
PROFILY
100
AcDbLine
 10
2115.821598051004
 20
-286.5717024238215
 30
0.0
 11
2104.34580532719
 21
-286.5717024238215
 31
0.0
  0
LINE
  5
22BA
330
1F
100
AcDbEntity
  8
PROFILY
100
AcDbLine
 10
2104.34580532719
 20
-286.5717024238215
 30
0.0
 11
2104.34580532719
 21
-302.2575446901841
 31
0.0
  0
LINE
  5
22BB
330
1F
100
AcDbEntity
  8
PROFILY
100
AcDbLine
 10
2104.34580532719
 20
-302.2575446901841
 30
0.0
 11
2120.031647593555
 21
-302.2575446901841
 31
0.0
  0
LINE
  5
22BC
330
1F
100
AcDbEntity
  8
PROFILY
100
AcDbLine
 10
2120.031647593555
 20
-302.2575446901841
 30
0.0
 11
2120.031647593558
 21
-290.7817519663653
 31
0.0
  0
LINE
  5
22BD
330
1F
100
AcDbEntity
  8
PROFILY
100
AcDbLine
 10
2115.184932556488
 20
-284.5717024238215
 30
0.0
 11
2117.270773495508
 21
-283.0031283191024
 31
0.0
  0
LINE
  5
22BE
330
1F
100
AcDbEntity
  8
PROFILY
100
AcDbLine
 10
2115.821598051004
 20
-286.5717024238215
 30
0.0
 11
2119.616046874028
 21
-283.7182373996506
 31
0.0
  0
LINE
  5
22BF
330
1F
100
AcDbEntity
  8
PROFILY
100
AcDbLine
 10
2120.031647593558
 20
-290.7817519663653
 30
0.0
 11
2122.876386421635
 21
-286.9989069668331
 31
0.0
  0
LINE
  5
22C0
330
1F
100
AcDbEntity
  8
PROFILY
100
AcDbLine
 10
2122.031647593555
 20
-291.4184174608812
 30
0.0
 11
2123.600221698264
 21
-289.3325765218719
 31
0.0
  0
LINE
  5
22C1
330
1F
100
AcDbEntity
  8
PROFILY
100
AcDbLine
 10
2117.270773495508
 20
-237.5946451477716
 30
0.0
 11
2117.270773495508
 21
-283.0031283191024
 31
0.0
  0
LINE
  5
22C2
330
1F
100
AcDbEntity
  8
PROFILY
100
AcDbLine
 10
2119.616046874028
 20
-283.7182373996506
 30
0.0
 11
2119.616046874028
 21
-237.5946451477716
 31
0.0
  0
HATCH
  5
22C3
330
1F
100
AcDbEntity
  8
PROFILY
100
AcDbHatch
 10
0.0
 20
0.0
 30
0.0
210
0.0
220
0.0
230
1.0
  2
SOLID
 70
     1
 71
     0
 91
        1
 92
        7
 72
     0
 73
     1
 93
       18
 10
2122.876386421635
 20
-286.9989069668326
 10
2120.031647593555
 20
-290.7817519663662
 10
2120.031647593555
 20
-302.2575446901841
 10
2104.34580532719
 20
-302.2575446901841
 10
2104.345805327187
 20
-286.5717024238215
 10
2115.821598051004
 20
-286.571702423822
 10
2119.616046874028
 20
-283.7182373996506
 10
2119.616046874028
 20
-237.5946451477716
 10
2117.270773495508
 20
-237.5946451477716
 10
2117.270773495508
 20
-283.0031283191033
 10
2115.184932556484
 20
-284.5717024238215
 10
2102.34580532719
 20
-284.5717024238215
 10
2102.34580532719
 20
-304.2575446901842
 10
2122.031647593558
 20
-304.2575446901837
 10
2122.031647593555
 20
-291.4184174608795
 10
2123.600221698264
 20
-289.3325765218719
 10
2169.008704869605
 20
-289.3325765218719
 10
2169.008704869608
 20
-286.9989069668335
 97
        0
 75
     0
 76
     1
 47
0.1846483013704088
 98
        1
 10
2128.271737349886
 20
-287.9047871295838
  0
LINE
  5
22C4
330
1F
100
AcDbEntity
  8
PROFILY
100
AcDbLine
 10
2169.008704869608
 20
-286.9989069668331
 30
0.0
 11
2169.008704869608
 21
-289.3325765218719
 31
0.0
  0
LINE
  5
22C5
330
1F
100
AcDbEntity
  8
PROFILY
100
AcDbLine
 10
2119.616046874024
 20
-237.5946451477716
 30
0.0
 11
2117.270773495508
 21
-237.5946451477716
 31
0.0
  0
TEXT
  5
22C6
330
1F
100
AcDbEntity
  8
POPIS
100
AcDbText
 10
2068.169468783727
 20
-200.0559157644452
 30
0.0
 40
25.0
  1
- profil PROTECTOR 9402 (3506)
 41
0.7
  7
SIMPLEX7
100
AcDbText
  0
TEXT
  5
22C7
330
1F
100
AcDbEntity
  8
POPIS
100
AcDbText
 10
1919.509822992707
 20
-163.7264652603257
 30
0.0
 40
25.0
  1
Rohový profil - klempířský výrobek
 41
0.7
  7
SIMPLEX7
100
AcDbText
  0
LINE
  5
22C8
330
1F
100
AcDbEntity
  8
PROFILY
100
AcDbLine
 10
2231.522759726217
 20
-237.5946451477716
 30
0.0
 11
2229.177486347701
 21
-237.5946451477716
 31
0.0
  0
LINE
  5
22C9
330
1F
100
AcDbEntity
  8
PROFILY
100
AcDbLine
 10
2277.052548547523
 20
-286.9989069668331
 30
0.0
 11
2277.052548547523
 21
-289.3325765218719
 31
0.0
  0
LINE
  5
22CA
330
1F
100
AcDbEntity
  8
PROFILY
100
AcDbLine
 10
2231.522759726221
 20
-283.7182373996506
 30
0.0
 11
2231.522759726221
 21
-237.5946451477716
 31
0.0
  0
LINE
  5
22CB
330
1F
100
AcDbEntity
  8
PROFILY
100
AcDbLine
 10
2229.177486347701
 20
-237.5946451477716
 30
0.0
 11
2229.177486347701
 21
-283.0031283191024
 31
0.0
  0
LINE
  5
22CC
330
1F
100
AcDbEntity
  8
PROFILY
100
AcDbLine
 10
2216.252518179383
 20
-302.2575446901841
 30
0.0
 11
2229.177486347701
 21
-302.2575446901841
 31
0.0
  0
LINE
  5
22CD
330
1F
100
AcDbEntity
  8
PROFILY
100
AcDbLine
 10
2216.25251817938
 20
-289.3325765218719
 30
0.0
 11
2216.252518179383
 21
-302.2575446901841
 31
0.0
  0
LINE
  5
22CE
330
1F
100
AcDbEntity
  8
PROFILY
100
AcDbLine
 10
2214.252518179383
 20
-304.2575446901842
 30
0.0
 11
2231.522759726217
 21
-304.2575446901842
 31
0.0
  0
LINE
  5
22CF
330
1F
100
AcDbEntity
  8
PROFILY
100
AcDbLine
 10
2214.252518179387
 20
-286.9989069668331
 30
0.0
 11
2214.252518179383
 21
-304.2575446901842
 31
0.0
  0
LINE
  5
22D0
330
1F
100
AcDbEntity
  8
PROFILY
100
AcDbLine
 10
2280.915417721798
 20
-289.3325765218719
 30
0.0
 11
2235.506934550457
 21
-289.3325765218719
 31
0.0
  0
LINE
  5
22D1
330
1F
100
AcDbEntity
  8
PROFILY
100
AcDbLine
 10
2234.783099273828
 20
-286.9989069668331
 30
0.0
 11
2280.915417721801
 21
-286.998906966834
 31
0.0
  0
LINE
  5
22D2
330
1F
100
AcDbEntity
  8
PROFILY
100
AcDbLine
 10
2235.506934550457
 20
-289.3325765218719
 30
0.0
 11
2216.25251817938
 21
-289.3325765218719
 31
0.0
  0
LINE
  5
22D3
330
1F
100
AcDbEntity
  8
PROFILY
100
AcDbLine
 10
2231.522759726221
 20
-283.7182373996506
 30
0.0
 11
2231.522759726217
 21
-304.2575446901842
 31
0.0
  0
LINE
  5
22D4
330
1F
100
AcDbEntity
  8
PROFILY
100
AcDbLine
 10
2229.177486347701
 20
-283.0031283191024
 30
0.0
 11
2229.177486347701
 21
-302.2575446901841
 31
0.0
  0
LINE
  5
22D5
330
1F
100
AcDbEntity
  8
PROFILY
100
AcDbLine
 10
2234.783099273828
 20
-286.9989069668331
 30
0.0
 11
2214.252518179387
 21
-286.9989069668331
 31
0.0
  0
HATCH
  5
22D6
330
1F
100
AcDbEntity
  8
PROFILY
100
AcDbHatch
 10
0.0
 20
0.0
 30
0.0
210
0.0
220
0.0
230
1.0
  2
SOLID
 70
     1
 71
     0
 91
        4
 92
        7
 72
     0
 73
     1
 93
        6
 10
2231.522759726221
 20
-237.5946451477716
 10
2229.177486347701
 20
-237.5946451477716
 10
2229.177486347701
 20
-283.0031283191024
 10
2229.177486347697
 20
-286.9989069668331
 10
2231.522759726217
 20
-286.9989069668331
 10
2231.522759726221
 20
-283.7182373996506
 97
        0
 92
        7
 72
     0
 73
     1
 93
        4
 10
2231.522759726221
 20
-286.9989069668331
 10
2229.177486347701
 20
-286.9989069668326
 10
2229.177486347701
 20
-289.3325765218719
 10
2231.522759726221
 20
-289.3325765218719
 97
        0
 92
        7
 72
     0
 73
     1
 93
       10
 10
2231.522759726217
 20
-289.3325765218714
 10
2229.177486347697
 20
-289.3325765218714
 10
2229.177486347701
 20
-302.2575446901841
 10
2216.252518179383
 20
-302.2575446901841
 10
2216.25251817938
 20
-289.3325765218719
 10
2229.177486347701
 20
-289.3325765218719
 10
2229.177486347701
 20
-286.9989069668331
 10
2214.252518179387
 20
-286.9989069668326
 10
2214.252518179383
 20
-304.2575446901846
 10
2231.522759726217
 20
-304.2575446901846
 97
        0
 92
        7
 72
     0
 73
     1
 93
        6
 10
2280.915417721801
 20
-286.9989069668345
 10
2234.783099273828
 20
-286.9989069668331
 10
2231.522759726221
 20
-286.9989069668331
 10
2231.522759726221
 20
-289.3325765218719
 10
2235.506934550457
 20
-289.3325765218719
 10
2280.915417721798
 20
-289.3325765218719
 97
        0
 75
     0
 76
     1
 47
0.1559045317109681
 98
        4
 10
2230.45658492122
 20
-269.2045911775199
 10
2230.45658492122
 20
-288.8485551278131
 10
2231.08053378957
 20
-291.3430549623803
 10
2233.420401856926
 20
-288.0690609706648
  0
LINE
  5
22D7
330
1F
100
AcDbEntity
  8
SPOJOVACÍ
  6
Continuous
100
AcDbLine
 10
2049.620501320795
 20
299.9909914817785
 30
0.0
 11
2053.664905680388
 21
301.3509084953207
 31
0.0
  0
LINE
  5
22D8
330
1F
100
AcDbEntity
  8
SPOJOVACÍ
  6
Continuous
100
AcDbLine
 10
2049.620501320795
 20
300.5872341669332
 30
0.0
 11
2053.664905680388
 21
301.9471511804754
 31
0.0
  0
LINE
  5
22D9
330
1F
100
AcDbEntity
  8
SPOJOVACÍ
  6
Continuous
100
AcDbLine
 10
2054.042557051333
 20
301.5694998073472
 30
0.0
 11
2053.664905680388
 21
301.3509084953207
 31
0.0
  0
LINE
  5
22DA
330
1F
100
AcDbEntity
  8
SPOJOVACÍ
  6
Continuous
100
AcDbLine
 10
2054.042557051333
 20
301.5694998073472
 30
0.0
 11
2053.664905680388
 21
301.9471511804754
 31
0.0
  0
LINE
  5
22DB
330
1F
100
AcDbEntity
  8
SPOJOVACÍ
  6
Continuous
100
AcDbLine
 10
2049.242849945484
 20
300.369573030885
 30
0.0
 11
2049.620501320795
 21
299.9909914817785
 31
0.0
  0
LINE
  5
22DC
330
1F
100
AcDbEntity
  8
SPOJOVACÍ
  6
Continuous
100
AcDbLine
 10
2049.242849945484
 20
300.369573030885
 30
0.0
 11
2049.620501320795
 21
300.5872341669332
 31
0.0
  0
LINE
  5
22DD
330
1F
100
AcDbEntity
  8
SPOJOVACÍ
  6
Continuous
100
AcDbLine
 10
2049.242849945484
 20
300.369573030885
 30
0.0
 11
2054.042557051333
 21
301.5694998073472
 31
0.0
  0
LINE
  5
22DE
330
1F
100
AcDbEntity
  8
SPOJOVACÍ
  6
Continuous
100
AcDbLine
 10
2049.620501320795
 20
296.8711818628166
 30
0.0
 11
2053.664905680388
 21
298.2310988763588
 31
0.0
  0
LINE
  5
22DF
330
1F
100
AcDbEntity
  8
SPOJOVACÍ
  6
Continuous
100
AcDbLine
 10
2049.620501320795
 20
297.4674245479641
 30
0.0
 11
2053.664905680388
 21
298.827341561237
 31
0.0
  0
LINE
  5
22E0
330
1F
100
AcDbEntity
  8
SPOJOVACÍ
  6
Continuous
100
AcDbLine
 10
2054.042557051333
 20
298.448760012407
 30
0.0
 11
2053.664905680388
 21
298.2310988763588
 31
0.0
  0
LINE
  5
22E1
330
1F
100
AcDbEntity
  8
SPOJOVACÍ
  6
Continuous
100
AcDbLine
 10
2054.042557051333
 20
298.448760012407
 30
0.0
 11
2053.664905680388
 21
298.827341561237
 31
0.0
  0
LINE
  5
22E2
330
1F
100
AcDbEntity
  8
SPOJOVACÍ
  6
Continuous
100
AcDbLine
 10
2049.242849945484
 20
297.2488332359448
 30
0.0
 11
2049.620501320795
 21
296.8711818628166
 31
0.0
  0
LINE
  5
22E3
330
1F
100
AcDbEntity
  8
SPOJOVACÍ
  6
Continuous
100
AcDbLine
 10
2049.242849945484
 20
297.2488332359448
 30
0.0
 11
2049.620501320795
 21
297.4674245479641
 31
0.0
  0
LINE
  5
22E4
330
1F
100
AcDbEntity
  8
SPOJOVACÍ
  6
Continuous
100
AcDbLine
 10
2049.242849945484
 20
297.2488332359448
 30
0.0
 11
2054.042557051333
 21
298.448760012407
 31
0.0
  0
LINE
  5
22E5
330
1F
100
AcDbEntity
  8
SPOJOVACÍ
  6
Continuous
100
AcDbLine
 10
2049.620501320795
 20
293.7513722438475
 30
0.0
 11
2053.664905680388
 21
295.1112892571204
 31
0.0
  0
LINE
  5
22E6
330
1F
100
AcDbEntity
  8
SPOJOVACÍ
  6
Continuous
100
AcDbLine
 10
2049.620501320795
 20
294.3476149290022
 30
0.0
 11
2053.664905680388
 21
295.7075319422679
 31
0.0
  0
LINE
  5
22E7
330
1F
100
AcDbEntity
  8
SPOJOVACÍ
  6
Continuous
100
AcDbLine
 10
2054.042557051333
 20
295.3289503934379
 30
0.0
 11
2053.664905680388
 21
295.1112892571204
 31
0.0
  0
LINE
  5
22E8
330
1F
100
AcDbEntity
  8
SPOJOVACÍ
  6
Continuous
100
AcDbLine
 10
2054.042557051333
 20
295.3289503934379
 30
0.0
 11
2053.664905680388
 21
295.7075319422679
 31
0.0
  0
LINE
  5
22E9
330
1F
100
AcDbEntity
  8
SPOJOVACÍ
  6
Continuous
100
AcDbLine
 10
2049.242849945484
 20
294.1290236169757
 30
0.0
 11
2049.620501320795
 21
293.7513722438475
 31
0.0
  0
LINE
  5
22EA
330
1F
100
AcDbEntity
  8
SPOJOVACÍ
  6
Continuous
100
AcDbLine
 10
2049.242849945484
 20
294.1290236169757
 30
0.0
 11
2049.620501320795
 21
294.3476149290022
 31
0.0
  0
LINE
  5
22EB
330
1F
100
AcDbEntity
  8
SPOJOVACÍ
  6
Continuous
100
AcDbLine
 10
2049.242849945484
 20
294.1290236169757
 30
0.0
 11
2054.042557051333
 21
295.3289503934379
 31
0.0
  0
LINE
  5
22EC
330
1F
100
AcDbEntity
  8
SPOJOVACÍ
  6
Continuous
100
AcDbLine
 10
2050.626021356483
 20
309.4750638958162
 30
0.0
 11
2052.780308497939
 21
309.7857426115901
 31
0.0
  0
LINE
  5
22ED
330
1F
100
AcDbEntity
  8
SPOJOVACÍ
  6
Continuous
100
AcDbLine
 10
2051.003672727428
 20
309.097412522688
 30
0.0
 11
2052.402657126994
 21
309.5680814752727
 31
0.0
  0
LINE
  5
22EE
330
1F
100
AcDbEntity
  8
SPOJOVACÍ
  6
Continuous
100
AcDbLine
 10
2051.003672727428
 20
309.6936552078354
 30
0.0
 11
2052.402657126994
 21
310.1643241604201
 31
0.0
  0
LINE
  5
22EF
330
1F
100
AcDbEntity
  8
SPOJOVACÍ
  6
Continuous
100
AcDbLine
 10
2052.780308497939
 20
309.7857426115901
 30
0.0
 11
2052.402657126994
 21
309.5680814752727
 31
0.0
  0
LINE
  5
22F0
330
1F
100
AcDbEntity
  8
SPOJOVACÍ
  6
Continuous
100
AcDbLine
 10
2052.780308497939
 20
309.7857426115901
 30
0.0
 11
2052.402657126994
 21
310.1643241604201
 31
0.0
  0
LINE
  5
22F1
330
1F
100
AcDbEntity
  8
SPOJOVACÍ
  6
Continuous
100
AcDbLine
 10
2050.626021356483
 20
309.4750638958162
 30
0.0
 11
2051.003672727428
 21
309.097412522688
 31
0.0
  0
LINE
  5
22F2
330
1F
100
AcDbEntity
  8
SPOJOVACÍ
  6
Continuous
100
AcDbLine
 10
2050.626021356483
 20
309.4750638958162
 30
0.0
 11
2051.003672727428
 21
309.6936552078354
 31
0.0
  0
LINE
  5
22F3
330
1F
100
AcDbEntity
  8
SPOJOVACÍ
  6
Continuous
100
AcDbLine
 10
2050.061404646011
 20
306.4612943174966
 30
0.0
 11
2053.177493562442
 21
307.0947440342665
 31
0.0
  0
LINE
  5
22F4
330
1F
100
AcDbEntity
  8
SPOJOVACÍ
  6
Continuous
100
AcDbLine
 10
2050.439056021322
 20
306.0827127683901
 30
0.0
 11
2052.799842191497
 21
306.8770828982183
 31
0.0
  0
LINE
  5
22F5
330
1F
100
AcDbEntity
  8
SPOJOVACÍ
  6
Continuous
100
AcDbLine
 10
2050.439056021322
 20
306.6789554535448
 30
0.0
 11
2052.799842191497
 21
307.4733255830965
 31
0.0
  0
LINE
  5
22F6
330
1F
100
AcDbEntity
  8
SPOJOVACÍ
  6
Continuous
100
AcDbLine
 10
2053.177493562442
 20
307.0947440342665
 30
0.0
 11
2052.799842191497
 21
306.8770828982183
 31
0.0
  0
LINE
  5
22F7
330
1F
100
AcDbEntity
  8
SPOJOVACÍ
  6
Continuous
100
AcDbLine
 10
2053.177493562442
 20
307.0947440342665
 30
0.0
 11
2052.799842191497
 21
307.4733255830965
 31
0.0
  0
LINE
  5
22F8
330
1F
100
AcDbEntity
  8
SPOJOVACÍ
  6
Continuous
100
AcDbLine
 10
2050.061404646011
 20
306.4612943174966
 30
0.0
 11
2050.439056021322
 21
306.0827127683901
 31
0.0
  0
LINE
  5
22F9
330
1F
100
AcDbEntity
  8
SPOJOVACÍ
  6
Continuous
100
AcDbLine
 10
2050.061404646011
 20
306.4612943174966
 30
0.0
 11
2050.439056021322
 21
306.6789554535448
 31
0.0
  0
LINE
  5
22FA
330
1F
100
AcDbEntity
  8
SPOJOVACÍ
  6
Continuous
100
AcDbLine
 10
2049.496787939905
 20
303.4465945631986
 30
0.0
 11
2053.622117592648
 21
304.4195584455033
 31
0.0
  0
LINE
  5
22FB
330
1F
100
AcDbEntity
  8
SPOJOVACÍ
  6
Continuous
100
AcDbLine
 10
2049.875369488189
 20
303.0689431900705
 30
0.0
 11
2053.244466221703
 21
304.201897309455
 31
0.0
  0
LINE
  5
22FC
330
1F
100
AcDbEntity
  8
SPOJOVACÍ
  6
Continuous
100
AcDbLine
 10
2049.875369488189
 20
303.6651858752252
 30
0.0
 11
2053.244466221703
 21
304.7981399946097
 31
0.0
  0
LINE
  5
22FD
330
1F
100
AcDbEntity
  8
SPOJOVACÍ
  6
Continuous
100
AcDbLine
 10
2053.622117592648
 20
304.4195584455033
 30
0.0
 11
2053.244466221703
 21
304.201897309455
 31
0.0
  0
LINE
  5
22FE
330
1F
100
AcDbEntity
  8
SPOJOVACÍ
  6
Continuous
100
AcDbLine
 10
2053.622117592648
 20
304.4195584455033
 30
0.0
 11
2053.244466221703
 21
304.7981399946097
 31
0.0
  0
LINE
  5
22FF
330
1F
100
AcDbEntity
  8
SPOJOVACÍ
  6
Continuous
100
AcDbLine
 10
2049.496787939905
 20
303.4465945631986
 30
0.0
 11
2049.875369488189
 21
303.0689431900705
 31
0.0
  0
LINE
  5
2300
330
1F
100
AcDbEntity
  8
SPOJOVACÍ
  6
Continuous
100
AcDbLine
 10
2049.496787939905
 20
303.4465945631986
 30
0.0
 11
2049.875369488189
 21
303.6651858752252
 31
0.0
  0
LINE
  5
2301
330
1F
100
AcDbEntity
  8
SPOJOVACÍ
  6
Continuous
100
AcDbLine
 10
2049.620501320795
 20
290.6315626246091
 30
0.0
 11
2053.664905680388
 21
291.9905494624495
 31
0.0
  0
LINE
  5
2302
330
1F
100
AcDbEntity
  8
SPOJOVACÍ
  6
Continuous
100
AcDbLine
 10
2049.620501320795
 20
291.2278053097638
 30
0.0
 11
2053.664905680388
 21
292.5867921473277
 31
0.0
  0
LINE
  5
2303
330
1F
100
AcDbEntity
  8
SPOJOVACÍ
  6
Continuous
100
AcDbLine
 10
2054.042557051333
 20
292.209140774476
 30
0.0
 11
2053.664905680388
 21
291.9905494624495
 31
0.0
  0
LINE
  5
2304
330
1F
100
AcDbEntity
  8
SPOJOVACÍ
  6
Continuous
100
AcDbLine
 10
2054.042557051333
 20
292.209140774476
 30
0.0
 11
2053.664905680388
 21
292.5867921473277
 31
0.0
  0
LINE
  5
2305
330
1F
100
AcDbEntity
  8
SPOJOVACÍ
  6
Continuous
100
AcDbLine
 10
2049.242849945484
 20
291.0092139977373
 30
0.0
 11
2049.620501320795
 21
290.6315626246091
 31
0.0
  0
LINE
  5
2306
330
1F
100
AcDbEntity
  8
SPOJOVACÍ
  6
Continuous
100
AcDbLine
 10
2049.242849945484
 20
291.0092139977373
 30
0.0
 11
2049.620501320795
 21
291.2278053097638
 31
0.0
  0
LINE
  5
2307
330
1F
100
AcDbEntity
  8
SPOJOVACÍ
  6
Continuous
100
AcDbLine
 10
2049.242849945484
 20
291.0092139977373
 30
0.0
 11
2054.042557051333
 21
292.209140774476
 31
0.0
  0
LINE
  5
2308
330
1F
100
AcDbEntity
  8
SPOJOVACÍ
  6
Continuous
100
AcDbLine
 10
2049.620501320795
 20
287.5108228299454
 30
0.0
 11
2053.664905680388
 21
288.8707398432111
 31
0.0
  0
LINE
  5
2309
330
1F
100
AcDbEntity
  8
SPOJOVACÍ
  6
Continuous
100
AcDbLine
 10
2049.620501320795
 20
288.1070655148237
 30
0.0
 11
2053.664905680388
 21
289.4669825283658
 31
0.0
  0
LINE
  5
230A
330
1F
100
AcDbEntity
  8
SPOJOVACÍ
  6
Continuous
100
AcDbLine
 10
2054.042557051333
 20
289.0893311552376
 30
0.0
 11
2053.664905680388
 21
288.8707398432111
 31
0.0
  0
LINE
  5
230B
330
1F
100
AcDbEntity
  8
SPOJOVACÍ
  6
Continuous
100
AcDbLine
 10
2054.042557051333
 20
289.0893311552376
 30
0.0
 11
2053.664905680388
 21
289.4669825283658
 31
0.0
  0
LINE
  5
230C
330
1F
100
AcDbEntity
  8
SPOJOVACÍ
  6
Continuous
100
AcDbLine
 10
2049.242849945484
 20
287.8894043787754
 30
0.0
 11
2049.620501320795
 21
287.5108228299454
 31
0.0
  0
LINE
  5
230D
330
1F
100
AcDbEntity
  8
SPOJOVACÍ
  6
Continuous
100
AcDbLine
 10
2049.242849945484
 20
287.8894043787754
 30
0.0
 11
2049.620501320795
 21
288.1070655148237
 31
0.0
  0
LINE
  5
230E
330
1F
100
AcDbEntity
  8
SPOJOVACÍ
  6
Continuous
100
AcDbLine
 10
2049.242849945484
 20
287.8894043787754
 30
0.0
 11
2054.042557051333
 21
289.0893311552376
 31
0.0
  0
LINE
  5
230F
330
1F
100
AcDbEntity
  8
SPOJOVACÍ
  6
Continuous
100
AcDbLine
 10
2052.746822170492
 20
304.0251639081057
 30
0.0
 11
2052.99238858196
 21
302.0541213968194
 31
0.0
  0
LINE
  5
2310
330
1F
100
AcDbEntity
  8
SPOJOVACÍ
  6
Continuous
100
AcDbLine
 10
2052.40823817793
 20
306.7319754740042
 30
0.0
 11
2052.675198633268
 21
304.5953616711508
 31
0.0
  0
LINE
  5
2311
330
1F
100
AcDbEntity
  8
SPOJOVACÍ
  6
Continuous
100
AcDbLine
 10
2052.068724016761
 20
309.4490189734374
 30
0.0
 11
2052.336614645072
 21
307.3040335884529
 31
0.0
  0
LINE
  5
2312
330
1F
100
AcDbEntity
  8
SPOJOVACÍ
  6
Continuous
100
AcDbLine
 10
2051.25668054451
 20
309.7652787439678
 30
0.0
 11
2051.642703498409
 21
312.8543925617727
 31
0.0
  0
LINE
  5
2313
330
1F
100
AcDbEntity
  8
SPOJOVACÍ
  6
Continuous
100
AcDbLine
 10
2050.88926110683
 20
306.8240628777589
 30
0.0
 11
2051.179475951984
 21
309.1448514881144
 31
0.0
  0
LINE
  5
2314
330
1F
100
AcDbEntity
  8
SPOJOVACÍ
  6
Continuous
100
AcDbLine
 10
2050.519981314472
 20
303.8716849020297
 30
0.0
 11
2050.810196163992
 21
306.1934036880943
 31
0.0
  0
LINE
  5
2315
330
1F
100
AcDbEntity
  8
SPOJOVACÍ
  6
Continuous
100
AcDbLine
 10
2051.642703498409
 20
312.8543925617727
 30
0.0
 11
2051.997100479538
 21
310.0182865605042
 31
0.0
  0
LINE
  5
2316
330
1F
100
AcDbEntity
  8
SPOJOVACÍ
  6
Continuous
100
AcDbLine
 10
2050.293018419223
 20
302.0541213968194
 30
0.0
 11
2050.442776721947
 21
303.2512576461763
 31
0.0
  0
LINE
  5
2317
330
1F
100
AcDbEntity
  8
SPOJOVACÍ
  6
Continuous
100
AcDbLine
 10
2052.99238858196
 20
301.7173977589359
 30
0.0
 11
2052.99238858196
 21
302.0541213968194
 31
0.0
  0
LINE
  5
2318
330
1F
100
AcDbEntity
  8
SPOJOVACÍ
  6
Continuous
100
AcDbLine
 10
2052.99238858196
 20
298.5947976123229
 30
0.0
 11
2052.99238858196
 21
301.1137136673519
 31
0.0
  0
LINE
  5
2319
330
1F
100
AcDbEntity
  8
SPOJOVACÍ
  6
Continuous
100
AcDbLine
 10
2050.293018419223
 20
300.8067556549308
 30
0.0
 11
2050.293018419223
 21
302.0541213968194
 31
0.0
  0
LINE
  5
231A
330
1F
100
AcDbEntity
  8
SPOJOVACÍ
  6
Continuous
100
AcDbLine
 10
2050.293018419223
 20
297.6925270904489
 30
0.0
 11
2050.293018419223
 21
300.2105129697761
 31
0.0
  0
LINE
  5
231B
330
1F
100
AcDbEntity
  8
SPOJOVACÍ
  6
Continuous
100
AcDbLine
 10
2052.99238858196
 20
295.473127641681
 30
0.0
 11
2052.99238858196
 21
297.99390404839
 31
0.0
  0
LINE
  5
231C
330
1F
100
AcDbEntity
  8
SPOJOVACÍ
  6
Continuous
100
AcDbLine
 10
2052.99238858196
 20
292.3505274953372
 30
0.0
 11
2052.99238858196
 21
294.8787453082063
 31
0.0
  0
LINE
  5
231D
330
1F
100
AcDbEntity
  8
SPOJOVACÍ
  6
Continuous
100
AcDbLine
 10
2052.99238858196
 20
289.2353687551535
 30
0.0
 11
2052.99238858196
 21
291.7542848101825
 31
0.0
  0
LINE
  5
231E
330
1F
100
AcDbEntity
  8
SPOJOVACÍ
  6
Continuous
100
AcDbLine
 10
2050.293018419223
 20
294.559695010294
 30
0.0
 11
2050.293018419223
 21
297.0879128231631
 31
0.0
  0
LINE
  5
231F
330
1F
100
AcDbEntity
  8
SPOJOVACÍ
  6
Continuous
100
AcDbLine
 10
2050.293018419223
 20
291.4445362701103
 30
0.0
 11
2050.293018419223
 21
293.9653126768194
 31
0.0
  0
LINE
  5
2320
330
1F
100
AcDbEntity
  8
SPOJOVACÍ
  6
Continuous
100
AcDbLine
 10
2050.293018419223
 20
288.3219361237665
 30
0.0
 11
2050.293018419223
 21
290.8408521787955
 31
0.0
  0
LINE
  5
2321
330
1F
100
AcDbEntity
  8
SPOJOVACÍ
  6
Continuous
100
AcDbLine
 10
2050.293018419223
 20
283.6887304849101
 30
0.0
 11
2050.293018419223
 21
287.7266236145901
 31
0.0
  0
LINE
  5
2322
330
1F
100
AcDbEntity
  8
SPOJOVACÍ
  6
Continuous
100
AcDbLine
 10
2052.99238858196
 20
283.6887304849101
 30
0.0
 11
2052.99238858196
 21
288.6316846638387
 31
0.0
  0
LINE
  5
2323
330
1F
100
AcDbEntity
  8
SPOJOVACÍ
  6
Continuous
100
AcDbLine
 10
2046.542549609775
 20
278.2890599905535
 30
0.0
 11
2047.892234693326
 21
279.0332006270277
 31
0.0
  0
LINE
  5
2324
330
1F
100
AcDbEntity
  8
SPOJOVACÍ
  6
Continuous
100
AcDbLine
 10
2047.892234693326
 20
279.0332006270277
 30
0.0
 11
2049.002864593684
 21
280.1019726164399
 31
0.0
  0
LINE
  5
2325
330
1F
100
AcDbEntity
  8
SPOJOVACÍ
  6
Continuous
100
AcDbLine
 10
2049.002864593684
 20
280.1019726164399
 30
0.0
 11
2049.799095073002
 21
281.4209618947375
 31
0.0
  0
LINE
  5
2326
330
1F
100
AcDbEntity
  8
SPOJOVACÍ
  6
Continuous
100
AcDbLine
 10
2049.799095073002
 20
281.4209618947375
 30
0.0
 11
2050.226975937302
 21
282.9018017617877
 31
0.0
  0
LINE
  5
2327
330
1F
100
AcDbEntity
  8
SPOJOVACÍ
  6
Continuous
100
AcDbLine
 10
2050.226975937302
 20
282.9018017617877
 30
0.0
 11
2050.293018419223
 21
283.6887304849101
 31
0.0
  0
LINE
  5
2328
330
1F
100
AcDbEntity
  8
SPOJOVACÍ
  6
Continuous
100
AcDbLine
 10
2054.790418391975
 20
279.5438671388787
 30
0.0
 11
2056.027552200875
 21
278.6257836284371
 31
0.0
  0
LINE
  5
2329
330
1F
100
AcDbEntity
  8
SPOJOVACÍ
  6
Continuous
100
AcDbLine
 10
2056.027552200875
 20
278.6257836284371
 30
0.0
 11
2056.742857387042
 21
278.2890599905535
 31
0.0
  0
LINE
  5
232A
330
1F
100
AcDbEntity
  8
SPOJOVACÍ
  6
Continuous
100
AcDbLine
 10
2046.542549609775
 20
278.2890599905535
 30
0.0
 11
2056.742857387042
 21
278.2890599905535
 31
0.0
  0
LINE
  5
232B
330
1F
100
AcDbEntity
  8
SPOJOVACÍ
  6
Continuous
100
AcDbLine
 10
2046.542549609775
 20
277.0891332138221
 30
0.0
 11
2046.542549609775
 21
278.2890599905535
 31
0.0
  0
LINE
  5
232C
330
1F
100
AcDbEntity
  8
SPOJOVACÍ
  6
Continuous
100
AcDbLine
 10
2046.542549609775
 20
277.0891332138221
 30
0.0
 11
2056.742857387042
 21
277.0891332138221
 31
0.0
  0
LINE
  5
232D
330
1F
100
AcDbEntity
  8
SPOJOVACÍ
  6
Continuous
100
AcDbLine
 10
2056.742857387042
 20
277.0891332138221
 30
0.0
 11
2056.742857387042
 21
278.2890599905535
 31
0.0
  0
LINE
  5
232E
330
1F
100
AcDbEntity
  8
SPOJOVACÍ
  6
Continuous
100
AcDbLine
 10
2052.99238858196
 20
283.6887304849101
 30
0.0
 11
2053.219351472843
 21
282.1651025314809
 31
0.0
  0
LINE
  5
232F
330
1F
100
AcDbEntity
  8
SPOJOVACÍ
  6
Continuous
100
AcDbLine
 10
2053.219351472843
 20
282.1651025314809
 30
0.0
 11
2053.832337321991
 21
280.7512353217775
 31
0.0
  0
LINE
  5
2330
330
1F
100
AcDbEntity
  8
SPOJOVACÍ
  6
Continuous
100
AcDbLine
 10
2053.832337321991
 20
280.7512353217775
 30
0.0
 11
2054.790418391975
 21
279.5438671388787
 31
0.0
  0
LINE
  5
2331
330
1F
100
AcDbEntity
  8
SPOJOVACÍ
  6
Continuous
100
AcDbLine
 10
1984.89032941965
 20
345.7095020833662
 30
0.0
 11
1983.682961236752
 21
344.7514210133817
 31
0.0
  0
LINE
  5
2332
330
1F
100
AcDbEntity
  8
SPOJOVACÍ
  6
Continuous
100
AcDbLine
 10
1986.304196629354
 20
346.3224879325139
 30
0.0
 11
1984.89032941965
 21
345.7095020833662
 31
0.0
  0
LINE
  5
2333
330
1F
100
AcDbEntity
  8
SPOJOVACÍ
  6
Continuous
100
AcDbLine
 10
1987.827824582783
 20
346.5494508233973
 30
0.0
 11
1986.304196629354
 21
346.3224879325139
 31
0.0
  0
LINE
  5
2334
330
1F
100
AcDbEntity
  8
SPOJOVACÍ
  6
Continuous
100
AcDbLine
 10
1981.228227311695
 20
342.7989820183142
 30
0.0
 11
1982.428154088426
 21
342.7989820183142
 31
0.0
  0
LINE
  5
2335
330
1F
100
AcDbEntity
  8
SPOJOVACÍ
  6
Continuous
100
AcDbLine
 10
1981.228227311695
 20
352.9992897955821
 30
0.0
 11
1981.228227311695
 21
342.7989820183142
 31
0.0
  0
LINE
  5
2336
330
1F
100
AcDbEntity
  8
SPOJOVACÍ
  6
Continuous
100
AcDbLine
 10
1981.228227311695
 20
352.9992897955821
 30
0.0
 11
1982.428154088426
 21
352.9992897955821
 31
0.0
  0
LINE
  5
2337
330
1F
100
AcDbEntity
  8
SPOJOVACÍ
  6
Continuous
100
AcDbLine
 10
1982.428154088426
 20
352.9992897955821
 30
0.0
 11
1982.428154088426
 21
342.7989820183142
 31
0.0
  0
LINE
  5
2338
330
1F
100
AcDbEntity
  8
SPOJOVACÍ
  6
Continuous
100
AcDbLine
 10
1982.76487772631
 20
343.5142872044821
 30
0.0
 11
1982.428154088426
 21
342.7989820183142
 31
0.0
  0
LINE
  5
2339
330
1F
100
AcDbEntity
  8
SPOJOVACÍ
  6
Continuous
100
AcDbLine
 10
1983.682961236752
 20
344.7514210133817
 30
0.0
 11
1982.76487772631
 21
343.5142872044821
 31
0.0
  0
LINE
  5
233A
330
1F
100
AcDbEntity
  8
SPOJOVACÍ
  6
Continuous
100
AcDbLine
 10
1987.04089585966
 20
349.3148634680551
 30
0.0
 11
1987.827824582783
 21
349.2488209861335
 31
0.0
  0
LINE
  5
233B
330
1F
100
AcDbEntity
  8
SPOJOVACÍ
  6
Continuous
100
AcDbLine
 10
1985.56005599261
 20
349.7427443323545
 30
0.0
 11
1987.04089585966
 21
349.3148634680551
 31
0.0
  0
LINE
  5
233C
330
1F
100
AcDbEntity
  8
SPOJOVACÍ
  6
Continuous
100
AcDbLine
 10
1984.241066714313
 20
350.5389748116726
 30
0.0
 11
1985.56005599261
 21
349.7427443323545
 31
0.0
  0
LINE
  5
233D
330
1F
100
AcDbEntity
  8
SPOJOVACÍ
  6
Continuous
100
AcDbLine
 10
1983.172294724901
 20
351.6496047120313
 30
0.0
 11
1984.241066714313
 21
350.5389748116726
 31
0.0
  0
LINE
  5
233E
330
1F
100
AcDbEntity
  8
SPOJOVACÍ
  6
Continuous
100
AcDbLine
 10
1982.428154088426
 20
352.9992897955821
 30
0.0
 11
1983.172294724901
 21
351.6496047120313
 31
0.0
  0
LINE
  5
233F
330
1F
100
AcDbEntity
  8
SPOJOVACÍ
  6
Continuous
100
AcDbLine
 10
1987.827824582783
 20
346.5494508233973
 30
0.0
 11
1992.770778761712
 21
346.5494508233973
 31
0.0
  0
LINE
  5
2340
330
1F
100
AcDbEntity
  8
SPOJOVACÍ
  6
Continuous
100
AcDbLine
 10
1987.827824582783
 20
349.2488209861335
 30
0.0
 11
1991.865717712463
 21
349.2488209861335
 31
0.0
  0
LINE
  5
2341
330
1F
100
AcDbEntity
  8
SPOJOVACÍ
  6
Continuous
100
AcDbLine
 10
1992.461030221639
 20
349.2488209861335
 30
0.0
 11
1994.979946276668
 21
349.2488209861335
 31
0.0
  0
LINE
  5
2342
330
1F
100
AcDbEntity
  8
SPOJOVACÍ
  6
Continuous
100
AcDbLine
 10
1995.583630367983
 20
349.2488209861335
 30
0.0
 11
1998.104406774692
 21
349.2488209861335
 31
0.0
  0
LINE
  5
2343
330
1F
100
AcDbEntity
  8
SPOJOVACÍ
  6
Continuous
100
AcDbLine
 10
1998.698789108167
 20
349.2488209861335
 30
0.0
 11
2001.227006921036
 21
349.2488209861335
 31
0.0
  0
LINE
  5
2344
330
1F
100
AcDbEntity
  8
SPOJOVACÍ
  6
Continuous
100
AcDbLine
 10
1993.374462853026
 20
346.5494508233973
 30
0.0
 11
1995.893378908055
 21
346.5494508233973
 31
0.0
  0
LINE
  5
2345
330
1F
100
AcDbEntity
  8
SPOJOVACÍ
  6
Continuous
100
AcDbLine
 10
1996.48962159321
 20
346.5494508233973
 30
0.0
 11
1999.017839406079
 21
346.5494508233973
 31
0.0
  0
LINE
  5
2346
330
1F
100
AcDbEntity
  8
SPOJOVACÍ
  6
Continuous
100
AcDbLine
 10
1999.612221739554
 20
346.5494508233973
 30
0.0
 11
2002.132998146263
 21
346.5494508233973
 31
0.0
  0
LINE
  5
2347
330
1F
100
AcDbEntity
  8
SPOJOVACÍ
  6
Continuous
100
AcDbLine
 10
2001.831621188322
 20
349.2488209861335
 30
0.0
 11
2004.349607067649
 21
349.2488209861335
 31
0.0
  0
LINE
  5
2348
330
1F
100
AcDbEntity
  8
SPOJOVACÍ
  6
Continuous
100
AcDbLine
 10
2004.945849752803
 20
349.2488209861335
 30
0.0
 11
2006.193215494692
 21
349.2488209861335
 31
0.0
  0
LINE
  5
2349
330
1F
100
AcDbEntity
  8
SPOJOVACÍ
  6
Continuous
100
AcDbLine
 10
2002.733891710196
 20
346.5494508233973
 30
0.0
 11
2005.252807765225
 21
346.5494508233973
 31
0.0
  0
LINE
  5
234A
330
1F
100
AcDbEntity
  8
SPOJOVACÍ
  6
Continuous
100
AcDbLine
 10
2005.856491856809
 20
346.5494508233973
 30
0.0
 11
2006.193215494692
 21
346.5494508233973
 31
0.0
  0
LINE
  5
234B
330
1F
100
AcDbEntity
  8
SPOJOVACÍ
  6
Continuous
100
AcDbLine
 10
2006.193215494692
 20
349.2488209861335
 30
0.0
 11
2007.390351744049
 21
349.0990626834104
 31
0.0
  0
LINE
  5
234C
330
1F
100
AcDbEntity
  8
SPOJOVACÍ
  6
Continuous
100
AcDbLine
 10
2016.993486659646
 20
347.8991359069482
 30
0.0
 11
2014.157380658377
 21
347.5447389258192
 31
0.0
  0
LINE
  5
234D
330
1F
100
AcDbEntity
  8
SPOJOVACÍ
  6
Continuous
100
AcDbLine
 10
2008.010778999902
 20
349.0218580908845
 30
0.0
 11
2010.332497785967
 21
348.7316432413649
 31
0.0
  0
LINE
  5
234E
330
1F
100
AcDbEntity
  8
SPOJOVACÍ
  6
Continuous
100
AcDbLine
 10
2010.963156975632
 20
348.6525782985268
 30
0.0
 11
2013.283945585987
 21
348.3623634533728
 31
0.0
  0
LINE
  5
234F
330
1F
100
AcDbEntity
  8
SPOJOVACÍ
  6
Continuous
100
AcDbLine
 10
2013.904372841841
 20
348.2851588608468
 30
0.0
 11
2016.993486659646
 21
347.8991359069482
 31
0.0
  0
LINE
  5
2350
330
1F
100
AcDbEntity
  8
SPOJOVACÍ
  6
Continuous
100
AcDbLine
 10
2013.58811307131
 20
347.4731153885954
 30
0.0
 11
2011.443127686326
 21
347.2052247602846
 31
0.0
  0
LINE
  5
2351
330
1F
100
AcDbEntity
  8
SPOJOVACÍ
  6
Continuous
100
AcDbLine
 10
2010.871069571877
 20
347.1336012274264
 30
0.0
 11
2008.734455769024
 21
346.8666407720888
 31
0.0
  0
LINE
  5
2352
330
1F
100
AcDbEntity
  8
SPOJOVACÍ
  6
Continuous
100
AcDbLine
 10
2008.164258005979
 20
346.795017234865
 30
0.0
 11
2006.193215494692
 21
346.5494508233973
 31
0.0
  0
LINE
  5
2353
330
1F
100
AcDbEntity
  8
SPOJOVACÍ
  6
Continuous
100
AcDbLine
 10
1992.028498476648
 20
350.2989894598727
 30
0.0
 11
1993.22842525311
 21
345.4992823540237
 31
0.0
  0
LINE
  5
2354
330
1F
100
AcDbEntity
  8
SPOJOVACÍ
  6
Continuous
100
AcDbLine
 10
1992.028498476648
 20
350.2989894598727
 30
0.0
 11
1992.246159612697
 21
349.9213380845617
 31
0.0
  0
LINE
  5
2355
330
1F
100
AcDbEntity
  8
SPOJOVACÍ
  6
Continuous
100
AcDbLine
 10
1992.028498476648
 20
350.2989894598727
 30
0.0
 11
1991.649916927818
 21
349.9213380845617
 31
0.0
  0
LINE
  5
2356
330
1F
100
AcDbEntity
  8
SPOJOVACÍ
  6
Continuous
100
AcDbLine
 10
1993.22842525311
 20
345.4992823540237
 30
0.0
 11
1993.606076626239
 21
345.8769337249691
 31
0.0
  0
LINE
  5
2357
330
1F
100
AcDbEntity
  8
SPOJOVACÍ
  6
Continuous
100
AcDbLine
 10
1993.22842525311
 20
345.4992823540237
 30
0.0
 11
1993.009833941084
 21
345.8769337249691
 31
0.0
  0
LINE
  5
2358
330
1F
100
AcDbEntity
  8
SPOJOVACÍ
  6
Continuous
100
AcDbLine
 10
1992.246159612697
 20
349.9213380845617
 30
0.0
 11
1993.606076626239
 21
345.8769337249691
 31
0.0
  0
LINE
  5
2359
330
1F
100
AcDbEntity
  8
SPOJOVACÍ
  6
Continuous
100
AcDbLine
 10
1991.649916927818
 20
349.9213380845617
 30
0.0
 11
1993.009833941084
 21
345.8769337249691
 31
0.0
  0
LINE
  5
235A
330
1F
100
AcDbEntity
  8
SPOJOVACÍ
  6
Continuous
100
AcDbLine
 10
1995.14830809561
 20
350.2989894598727
 30
0.0
 11
1996.348234872349
 21
345.4992823540237
 31
0.0
  0
LINE
  5
235B
330
1F
100
AcDbEntity
  8
SPOJOVACÍ
  6
Continuous
100
AcDbLine
 10
1995.14830809561
 20
350.2989894598727
 30
0.0
 11
1995.366899407637
 21
349.9213380845617
 31
0.0
  0
LINE
  5
235C
330
1F
100
AcDbEntity
  8
SPOJOVACÍ
  6
Continuous
100
AcDbLine
 10
1995.14830809561
 20
350.2989894598727
 30
0.0
 11
1994.770656722482
 21
349.9213380845617
 31
0.0
  0
LINE
  5
235D
330
1F
100
AcDbEntity
  8
SPOJOVACÍ
  6
Continuous
100
AcDbLine
 10
1996.348234872349
 20
345.4992823540237
 30
0.0
 11
1996.725886245201
 21
345.8769337249691
 31
0.0
  0
LINE
  5
235E
330
1F
100
AcDbEntity
  8
SPOJOVACÍ
  6
Continuous
100
AcDbLine
 10
1996.348234872349
 20
345.4992823540237
 30
0.0
 11
1996.129643560322
 21
345.8769337249691
 31
0.0
  0
LINE
  5
235F
330
1F
100
AcDbEntity
  8
SPOJOVACÍ
  6
Continuous
100
AcDbLine
 10
1995.366899407637
 20
349.9213380845617
 30
0.0
 11
1996.725886245201
 21
345.8769337249691
 31
0.0
  0
LINE
  5
2360
330
1F
100
AcDbEntity
  8
SPOJOVACÍ
  6
Continuous
100
AcDbLine
 10
1994.770656722482
 20
349.9213380845617
 30
0.0
 11
1996.129643560322
 21
345.8769337249691
 31
0.0
  0
LINE
  5
2361
330
1F
100
AcDbEntity
  8
SPOJOVACÍ
  6
Continuous
100
AcDbLine
 10
2007.585688661071
 20
350.0450514654517
 30
0.0
 11
2007.804279973098
 21
349.6664699171674
 31
0.0
  0
LINE
  5
2362
330
1F
100
AcDbEntity
  8
SPOJOVACÍ
  6
Continuous
100
AcDbLine
 10
2007.585688661071
 20
350.0450514654517
 30
0.0
 11
2007.208037287943
 21
349.6664699171674
 31
0.0
  0
LINE
  5
2363
330
1F
100
AcDbEntity
  8
SPOJOVACÍ
  6
Continuous
100
AcDbLine
 10
2008.558652543376
 20
345.9197218127087
 30
0.0
 11
2008.937234092483
 21
346.2973731836541
 31
0.0
  0
LINE
  5
2364
330
1F
100
AcDbEntity
  8
SPOJOVACÍ
  6
Continuous
100
AcDbLine
 10
2008.558652543376
 20
345.9197218127087
 30
0.0
 11
2008.340991407328
 21
346.2973731836541
 31
0.0
  0
LINE
  5
2365
330
1F
100
AcDbEntity
  8
SPOJOVACÍ
  6
Continuous
100
AcDbLine
 10
2007.804279973098
 20
349.6664699171674
 30
0.0
 11
2008.937234092483
 21
346.2973731836541
 31
0.0
  0
LINE
  5
2366
330
1F
100
AcDbEntity
  8
SPOJOVACÍ
  6
Continuous
100
AcDbLine
 10
2007.208037287943
 20
349.6664699171674
 30
0.0
 11
2008.340991407328
 21
346.2973731836541
 31
0.0
  0
LINE
  5
2367
330
1F
100
AcDbEntity
  8
SPOJOVACÍ
  6
Continuous
100
AcDbLine
 10
2007.585688661071
 20
350.0450514654517
 30
0.0
 11
2008.558652543376
 21
345.9197218127087
 31
0.0
  0
LINE
  5
2368
330
1F
100
AcDbEntity
  8
SPOJOVACÍ
  6
Continuous
100
AcDbLine
 10
2010.600388415369
 20
349.4804347593458
 30
0.0
 11
2010.818049551418
 21
349.1027833840348
 31
0.0
  0
LINE
  5
2369
330
1F
100
AcDbEntity
  8
SPOJOVACÍ
  6
Continuous
100
AcDbLine
 10
2010.600388415369
 20
349.4804347593458
 30
0.0
 11
2010.221806866263
 21
349.1027833840348
 31
0.0
  0
LINE
  5
236A
330
1F
100
AcDbEntity
  8
SPOJOVACÍ
  6
Continuous
100
AcDbLine
 10
2011.233838132139
 20
346.3643458429146
 30
0.0
 11
2011.612419680969
 21
346.74199721386
 31
0.0
  0
LINE
  5
236B
330
1F
100
AcDbEntity
  8
SPOJOVACÍ
  6
Continuous
100
AcDbLine
 10
2011.233838132139
 20
346.3643458429146
 30
0.0
 11
2011.016176996091
 21
346.74199721386
 31
0.0
  0
LINE
  5
236C
330
1F
100
AcDbEntity
  8
SPOJOVACÍ
  6
Continuous
100
AcDbLine
 10
2010.818049551418
 20
349.1027833840348
 30
0.0
 11
2011.612419680969
 21
346.74199721386
 31
0.0
  0
LINE
  5
236D
330
1F
100
AcDbEntity
  8
SPOJOVACÍ
  6
Continuous
100
AcDbLine
 10
2010.221806866263
 20
349.1027833840348
 30
0.0
 11
2011.016176996091
 21
346.74199721386
 31
0.0
  0
LINE
  5
236E
330
1F
100
AcDbEntity
  8
SPOJOVACÍ
  6
Continuous
100
AcDbLine
 10
2010.600388415369
 20
349.4804347593458
 30
0.0
 11
2011.233838132139
 21
346.3643458429146
 31
0.0
  0
LINE
  5
236F
330
1F
100
AcDbEntity
  8
SPOJOVACÍ
  6
Continuous
100
AcDbLine
 10
2013.614157993689
 20
348.9158180488743
 30
0.0
 11
2013.832749305708
 21
348.5381666779289
 31
0.0
  0
LINE
  5
2370
330
1F
100
AcDbEntity
  8
SPOJOVACÍ
  6
Continuous
100
AcDbLine
 10
2013.614157993689
 20
348.9158180488743
 30
0.0
 11
2013.236506620561
 21
348.5381666779289
 31
0.0
  0
LINE
  5
2371
330
1F
100
AcDbEntity
  8
SPOJOVACÍ
  6
Continuous
100
AcDbLine
 10
2013.924836709463
 20
346.7615309074176
 30
0.0
 11
2014.303418258293
 21
347.139182278363
 31
0.0
  0
LINE
  5
2372
330
1F
100
AcDbEntity
  8
SPOJOVACÍ
  6
Continuous
100
AcDbLine
 10
2013.924836709463
 20
346.7615309074176
 30
0.0
 11
2013.707175573145
 21
347.139182278363
 31
0.0
  0
LINE
  5
2373
330
1F
100
AcDbEntity
  8
SPOJOVACÍ
  6
Continuous
100
AcDbLine
 10
2013.832749305708
 20
348.5381666779289
 30
0.0
 11
2014.303418258293
 21
347.139182278363
 31
0.0
  0
LINE
  5
2374
330
1F
100
AcDbEntity
  8
SPOJOVACÍ
  6
Continuous
100
AcDbLine
 10
2013.236506620561
 20
348.5381666779289
 30
0.0
 11
2013.707175573145
 21
347.139182278363
 31
0.0
  0
LINE
  5
2375
330
1F
100
AcDbEntity
  8
SPOJOVACÍ
  6
Continuous
100
AcDbLine
 10
2013.614157993689
 20
348.9158180488743
 30
0.0
 11
2013.924836709463
 21
346.7615309074176
 31
0.0
  0
LINE
  5
2376
330
1F
100
AcDbEntity
  8
SPOJOVACÍ
  6
Continuous
100
AcDbLine
 10
1998.268117714848
 20
350.2989894598727
 30
0.0
 11
1999.468044491311
 21
345.4992823540237
 31
0.0
  0
LINE
  5
2377
330
1F
100
AcDbEntity
  8
SPOJOVACÍ
  6
Continuous
100
AcDbLine
 10
1998.268117714848
 20
350.2989894598727
 30
0.0
 11
1998.486709026875
 21
349.9213380845617
 31
0.0
  0
LINE
  5
2378
330
1F
100
AcDbEntity
  8
SPOJOVACÍ
  6
Continuous
100
AcDbLine
 10
1998.268117714848
 20
350.2989894598727
 30
0.0
 11
1997.89046634172
 21
349.9213380845617
 31
0.0
  0
LINE
  5
2379
330
1F
100
AcDbEntity
  8
SPOJOVACÍ
  6
Continuous
100
AcDbLine
 10
1999.468044491311
 20
345.4992823540237
 30
0.0
 11
1999.846626040141
 21
345.8769337249691
 31
0.0
  0
LINE
  5
237A
330
1F
100
AcDbEntity
  8
SPOJOVACÍ
  6
Continuous
100
AcDbLine
 10
1999.468044491311
 20
345.4992823540237
 30
0.0
 11
1999.250383354993
 21
345.8769337249691
 31
0.0
  0
LINE
  5
237B
330
1F
100
AcDbEntity
  8
SPOJOVACÍ
  6
Continuous
100
AcDbLine
 10
1998.486709026875
 20
349.9213380845617
 30
0.0
 11
1999.846626040141
 21
345.8769337249691
 31
0.0
  0
LINE
  5
237C
330
1F
100
AcDbEntity
  8
SPOJOVACÍ
  6
Continuous
100
AcDbLine
 10
1997.89046634172
 20
349.9213380845617
 30
0.0
 11
1999.250383354993
 21
345.8769337249691
 31
0.0
  0
LINE
  5
237D
330
1F
100
AcDbEntity
  8
SPOJOVACÍ
  6
Continuous
100
AcDbLine
 10
2001.387927333817
 20
350.2989894598727
 30
0.0
 11
2002.58785411028
 21
345.4992823540237
 31
0.0
  0
LINE
  5
237E
330
1F
100
AcDbEntity
  8
SPOJOVACÍ
  6
Continuous
100
AcDbLine
 10
2001.387927333817
 20
350.2989894598727
 30
0.0
 11
2001.606518645837
 21
349.9213380845617
 31
0.0
  0
LINE
  5
237F
330
1F
100
AcDbEntity
  8
SPOJOVACÍ
  6
Continuous
100
AcDbLine
 10
2001.387927333817
 20
350.2989894598727
 30
0.0
 11
2001.010275960689
 21
349.9213380845617
 31
0.0
  0
LINE
  5
2380
330
1F
100
AcDbEntity
  8
SPOJOVACÍ
  6
Continuous
100
AcDbLine
 10
2002.58785411028
 20
345.4992823540237
 30
0.0
 11
2002.96643565911
 21
345.8769337249691
 31
0.0
  0
LINE
  5
2381
330
1F
100
AcDbEntity
  8
SPOJOVACÍ
  6
Continuous
100
AcDbLine
 10
2002.58785411028
 20
345.4992823540237
 30
0.0
 11
2002.370192974232
 21
345.8769337249691
 31
0.0
  0
LINE
  5
2382
330
1F
100
AcDbEntity
  8
SPOJOVACÍ
  6
Continuous
100
AcDbLine
 10
2001.606518645837
 20
349.9213380845617
 30
0.0
 11
2002.96643565911
 21
345.8769337249691
 31
0.0
  0
LINE
  5
2383
330
1F
100
AcDbEntity
  8
SPOJOVACÍ
  6
Continuous
100
AcDbLine
 10
2001.010275960689
 20
349.9213380845617
 30
0.0
 11
2002.370192974232
 21
345.8769337249691
 31
0.0
  0
LINE
  5
2384
330
1F
100
AcDbEntity
  8
SPOJOVACÍ
  6
Continuous
100
AcDbLine
 10
2004.508667128758
 20
350.2989894598727
 30
0.0
 11
2005.70859390522
 21
345.4992823540237
 31
0.0
  0
LINE
  5
2385
330
1F
100
AcDbEntity
  8
SPOJOVACÍ
  6
Continuous
100
AcDbLine
 10
2004.508667128758
 20
350.2989894598727
 30
0.0
 11
2004.726328264806
 21
349.9213380845617
 31
0.0
  0
LINE
  5
2386
330
1F
100
AcDbEntity
  8
SPOJOVACÍ
  6
Continuous
100
AcDbLine
 10
2004.508667128758
 20
350.2989894598727
 30
0.0
 11
2004.130085579651
 21
349.9213380845617
 31
0.0
  0
LINE
  5
2387
330
1F
100
AcDbEntity
  8
SPOJOVACÍ
  6
Continuous
100
AcDbLine
 10
2005.70859390522
 20
345.4992823540237
 30
0.0
 11
2006.086245278348
 21
345.8769337249691
 31
0.0
  0
LINE
  5
2388
330
1F
100
AcDbEntity
  8
SPOJOVACÍ
  6
Continuous
100
AcDbLine
 10
2005.70859390522
 20
345.4992823540237
 30
0.0
 11
2005.490002593194
 21
345.8769337249691
 31
0.0
  0
LINE
  5
2389
330
1F
100
AcDbEntity
  8
SPOJOVACÍ
  6
Continuous
100
AcDbLine
 10
2004.726328264806
 20
349.9213380845617
 30
0.0
 11
2006.086245278348
 21
345.8769337249691
 31
0.0
  0
LINE
  5
238A
330
1F
100
AcDbEntity
  8
SPOJOVACÍ
  6
Continuous
100
AcDbLine
 10
2004.130085579651
 20
349.9213380845617
 30
0.0
 11
2005.490002593194
 21
345.8769337249691
 31
0.0
  0
HATCH
  5
238B
330
1F
100
AcDbEntity
  8
STAVBA OBRYS
100
AcDbHatch
 10
0.0
 20
0.0
 30
0.0
210
0.0
220
0.0
230
1.0
  2
AR-SAND
 70
     0
 71
     0
 91
        1
 92
        7
 72
     0
 73
     1
 93
        6
 10
2364.403622823706
 20
927.323375226441
 10
2354.403622823706
 20
927.323375226441
 10
2354.403622823709
 20
658.7084696339661
 10
2610.211425627124
 20
658.7084696339665
 10
2610.211425627124
 20
668.7084696339666
 10
2364.40362282371
 20
668.7084696339666
 97
        0
 75
     0
 76
     1
 52
0.0
 41
0.1
 77
     0
 78
     4
 53
37.5
 43
-19487.00071699901
 44
-2076.116339666397
 45
-0.1600031295984046
 46
4.894132373293423
 79
     6
 49
0.0
 49
-3.8608
 49
0.0
 49
-4.318
 49
0.0
 49
-4.1275
 53
7.499999999999999
 43
-19487.00071699901
 44
-2076.116339666397
 45
4.495232831380026
 46
7.168251005683543
 79
     6
 49
0.0
 49
-2.0828
 49
0.0
 49
-3.4798
 49
0.0
 49
-1.3335
 53
327.4999999999999
 43
-19490.12491699901
 44
-2076.116339666397
 45
7.909923702414579
 46
0.0143718467854569
 79
     6
 49
0.0
 49
-1.27
 49
0.0
 49
-4.572
 49
0.0
 49
-5.969
 53
317.5
 43
-19490.12491699901
 44
-2076.116339666397
 45
7.635564524722972
 46
2.229293232572162
 79
     6
 49
0.0
 49
-0.635
 49
0.0
 49
-2.997199999999999
 49
0.0
 49
-3.429
 47
0.4393401728473458
 98
        1
 10
2360.813158985159
 20
788.7498457344395
  0
LINE
  5
238C
330
1F
100
AcDbEntity
  8
STAVBA OBRYS
100
AcDbLine
 10
2364.40362282371
 20
668.7084696339666
 30
0.0
 11
2610.211425627124
 21
668.7084696339666
 31
0.0
  0
LINE
  5
238D
330
1F
100
AcDbEntity
  8
STAVBA OBRYS
100
AcDbLine
 10
2364.403622823706
 20
927.323375226441
 30
0.0
 11
2364.40362282371
 21
668.7084696339666
 31
0.0
  0
LINE
  5
238E
330
1F
100
AcDbEntity
  8
CETRIS
100
AcDbLine
 10
2526.584181870978
 20
277.0891332138221
 30
0.0
 11
2527.882621376794
 21
289.0891332138221
 31
0.0
  0
LINE
  5
238F
330
1F
100
AcDbEntity
  8
CETRIS
100
AcDbLine
 10
1981.228227311695
 20
915.3023069339328
 30
0.0
 11
1993.228227311691
 21
917.1184747562151
 31
0.0
  0
HATCH
  5
2390
330
1F
100
AcDbEntity
  8
PROFILY
100
AcDbHatch
 10
0.0
 20
0.0
 30
0.0
210
0.0
220
0.0
230
1.0
  2
SOLID
 70
     1
 71
     0
 91
        4
 92
        7
 72
     1
 73
     1
 93
       21
 10
1999.800062479714
 20
289.0299649997055
 42
0.0
 10
2001.368636584423
 20
291.1158059387139
 42
0.0
 10
2049.858357921884
 20
291.1158059387139
 42
0.0
 10
2049.963203721961
 20
293.4494754937518
 42
0.0
 10
2000.64480130779
 20
293.4494754937531
 42
0.0
 10
1997.800062479718
 20
289.6666304942204
 42
0.0
 10
1997.800062479706
 20
268.1908377704021
 42
0.0
 10
1972.114220213349
 20
268.1908377704012
 42
0.0
 10
1972.114220213349
 20
293.8766800367639
 42
0.0
 10
1993.590012937159
 20
293.8766800367648
 42
0.0
 10
1997.384461760191
 20
296.7301450609383
 42
0.0
 10
1997.384461760183
 20
325.657076987045
 42
0.0
 10
1995.03918838166
 20
324.7860125024326
 42
0.0
 10
1995.039188381664
 20
297.4452541414811
 42
0.0
 10
1992.953347442643
 20
295.8766800367643
 42
0.0
 10
1970.114220213353
 20
295.8766800367643
 42
0.0
 10
1970.114220213349
 20
269.5339705528799
 42
-0.2082663859230627
 10
1970.512655324005
 20
268.6189092220201
 42
-0.2082663859231576
 10
1970.114220213349
 20
267.7038478911599
 42
0.0
 10
1970.114220213349
 20
266.1908377704021
 42
0.0
 10
1999.800062479717
 20
266.1908377704016
 42
0.0
 97
        0
 92
        7
 72
     0
 73
     1
 93
        4
 10
1997.384461760187
 20
357.0076290085889
 10
1995.03918838166
 20
357.0076290085862
 10
1995.039188381664
 20
349.5817329774422
 10
1997.384461760191
 20
349.476365847277
 97
        0
 92
        7
 72
     0
 73
     1
 93
        4
 10
1997.384461760191
 20
346.0671038051582
 10
1995.03918838166
 20
345.9572326401548
 10
1995.039188381656
 20
324.7860125024326
 10
1997.384461760191
 20
325.6570769870463
 97
        0
 92
        7
 72
     0
 73
     1
 93
        4
 10
2060.931011451536
 20
293.4494754937518
 10
2053.353733695542
 20
293.4494754937518
 10
2053.463061245621
 20
291.1158059387135
 10
2060.931011451532
 20
291.1158059387135
 97
        0
 75
     0
 76
     1
 47
0.3262771497392532
 98
        4
 10
1999.025986485388
 20
279.5057331576304
 10
1996.740808412506
 20
353.2443760516821
 10
1996.41434446141
 20
333.0151898434419
 10
2058.440852968619
 20
292.5568174269615
  0
HATCH
  5
2391
330
1F
100
AcDbEntity
  8
STAVBA OBRYS
100
AcDbHatch
 10
0.0
 20
0.0
 30
0.0
210
0.0
220
0.0
230
1.0
  2
BRICK
 70
     0
 71
     0
 91
        1
 92
        7
 72
     0
 73
     1
 93
        7
 10
2610.211425627124
 20
658.7084696339665
 10
2354.403622823706
 20
658.7084696339671
 10
2354.403622823709
 20
927.323375226441
 10
2107.163696955562
 20
926.0762401103974
 10
2107.163696955562
 20
403.5019800770455
 10
2157.160862104215
 20
403.5019800770455
 10
2538.612025456125
 20
403.5019800770455
 97
        0
 75
     0
 76
     1
 52
0.0
 41
10.0
 77
     0
 78
     3
 53
0.0
 43
-19282.17523282391
 44
-2063.118643017816
 45
0.0
 46
63.5
 79
     0
 53
90.0
 43
-19282.17523282391
 44
-2063.118643017816
 45
-127.0
 46
0.0000000000000078
 79
     2
 49
63.5
 49
-63.5
 53
90.0
 43
-19218.67523282391
 44
-2063.118643017816
 45
-127.0
 46
0.0000000000000078
 79
     2
 49
-63.5
 49
63.5
 47
2.692342029676046
 98
        1
 10
2233.859729643624
 20
529.8238160523728
  0
INSERT
  5
2392
330
1F
100
AcDbEntity
  8
POPIS
100
AcDbBlockReference
  2
E_PUNKT
 10
1969.737321190598
 20
282.0931385378944
 30
0.0
  0
LINE
  5
2393
330
1F
100
AcDbEntity
  8
POPIS
100
AcDbLine
 10
1794.947033329587
 20
281.7147200233453
 30
0.0
 11
1968.583214818941
 21
281.7147200233453
 31
0.0
  0
TEXT
  5
2394
330
1F
100
AcDbEntity
  8
POPIS
100
AcDbText
 10
1754.411598035036
 20
268.2713785739747
 30
0.0
 40
25.0
  1
08
 41
0.7
  7
SIMPLEX7
100
AcDbText
  0
TEXT
  5
2395
330
1F
100
AcDbEntity
  8
POPIS
100
AcDbText
 10
1863.708058351644
 20
89.28387550201524
 30
0.0
 40
25.0
  1
01
 41
0.85
  7
SIMPLEX7
100
AcDbText
  0
TEXT
  5
2396
330
1F
100
AcDbEntity
  8
POPIS
100
AcDbText
 10
1918.051761511386
 20
89.28387550201524
 30
0.0
 40
25.0
  1
Deska CETRIS   PLANK (BASIC,FINISH,DOLOMIT)
 41
0.7
  7
SIMPLEX7
100
AcDbText
  0
TEXT
  5
2397
330
1F
100
AcDbEntity
  8
POPIS
100
AcDbText
 10
1863.708058351644
 20
52.68886388638794
 30
0.0
 40
25.0
  1
02
 41
0.85
  7
SIMPLEX7
100
AcDbText
  0
TEXT
  5
2398
330
1F
100
AcDbEntity
  8
POPIS
100
AcDbText
 10
1918.051761511386
 20
52.68886388638794
 30
0.0
 40
25.0
  1
Vrut se zápustnou hlavou
 41
0.7
  7
SIMPLEX7
100
AcDbText
  0
TEXT
  5
2399
330
1F
100
AcDbEntity
  8
POPIS
100
AcDbText
 10
1862.462717770985
 20
-163.9015977671838
 30
0.0
 40
25.0
  1
08
 41
0.85
  7
SIMPLEX7
100
AcDbText
  0
TEXT
  5
239A
330
1F
100
AcDbEntity
  8
POPIS
100
AcDbText
 10
2085.677946750432
 20
114.2591856102958
 30
0.0
 40
12.0
  1
R
 41
0.85
  7
SIMPLEX7
100
AcDbText
  0
CIRCLE
  5
239B
330
1F
100
AcDbEntity
  8
POPIS
100
AcDbCircle
 10
2090.436975805614
 20
119.8045313552834
 30
0.0
 40
11.13656048292026
  0
LWPOLYLINE
  5
239C
330
1F
100
AcDbEntity
  8
NOSNÉ KONSTRUKCE
100
AcDbPolyline
 90
        7
 70
     0
 43
0.0
 10
2021.163443267091
 20
830.5187726520493
 42
-0.0203924744732807
 10
2020.150313237937
 20
831.4208566364609
 42
-0.0273961979096945
 10
2019.362136863911
 20
832.2707209866562
 42
-0.0243529190212958
 10
2018.488377519243
 20
833.4338414790758
 42
-0.0398020282482987
 10
2018.048748775797
 20
834.2088000166363
 42
-0.104168275620852
 10
2017.95873231562
 20
834.5952111529763
 42
-0.007272956268647
 10
2017.940278964325
 20
835.0335411317328
 42
-0.007272956268647
  0
LWPOLYLINE
  5
239D
330
1F
100
AcDbEntity
  8
NOSNÉ KONSTRUKCE
100
AcDbPolyline
 90
        4
 70
     0
 43
0.0
 10
1996.163443267091
 20
785.0363759830793
 10
1996.163443267091
 20
835.0335411317328
 10
2021.163443267091
 20
835.0335411317328
 10
2021.163443267091
 20
785.0363759830793
  0
LWPOLYLINE
  5
239E
330
1F
100
AcDbEntity
  8
NOSNÉ KONSTRUKCE
100
AcDbPolyline
 90
       11
 70
     0
 43
0.0
 10
2021.163443267091
 20
817.9410352967943
 42
-0.0072417954699014
 10
2020.752038055817
 20
817.9966056646367
 42
-0.0707158694326265
 10
2018.815934603223
 20
818.5277321810568
 42
-0.033952657250207
 10
2014.46289687805
 20
820.7763880204652
 42
-0.0571374688189033
 10
2012.155972594363
 20
822.5625447803173
 42
-0.0274923553235744
 10
2009.770897271228
 20
825.1598505108699
 42
-0.0255412025538677
 10
2007.514183594209
 20
828.2112805485807
 42
-0.0272796991712396
 10
2005.097847712547
 20
832.3242797017661
 42
-0.056967459841729
 10
2004.285111877348
 20
834.4652269824978
 42
-0.0373408083348504
 10
2004.245946336396
 20
834.6875813579712
 42
-0.0052305969362967
 10
2004.214989369492
 20
835.0335411317328
  0
LWPOLYLINE
  5
23AB
330
1F
100
AcDbEntity
  8
NOSNÉ KONSTRUKCE
100
AcDbPolyline
 90
        9
 70
     0
 43
0.0
 10
2021.163443267091
 20
825.1690863175312
 42
-0.0064239028828688
 10
2020.944329607741
 20
825.2079547577118
 42
-0.0832048017309575
 10
2018.614116028087
 20
825.9921373603933
 42
-0.0336767237692336
 10
2015.885841508626
 20
827.694953919315
 42
-0.0844635135812105
 10
2014.981419903631
 20
828.614763679208
 42
-0.0495829410719565
 10
2014.004770396318
 20
830.363442116562
 42
-0.0322692699774654
 10
2012.963246894917
 20
833.2547962976528
 42
-0.0276160659512937
 10
2012.766511465973
 20
834.1103727359399
 42
-0.0126891984598699
 10
2012.631309076431
 20
835.0335411317328
  0
LWPOLYLINE
  5
23B6
330
1F
100
AcDbEntity
  8
NOSNÉ KONSTRUKCE
100
AcDbPolyline
 90
       10
 70
     0
 43
0.0
 10
2021.163443267091
 20
810.9912572731113
 42
-0.0168162630274194
 10
2019.472405114972
 20
811.1262828521754
 42
-0.0575155827655532
 10
2016.372780454255
 20
811.8063151325182
 42
-0.0310289133982999
 10
2009.12775292961
 20
814.8091164773463
 42
-0.0882970623535771
 10
2006.88738387881
 20
816.4463383974393
 42
-0.0171636441953577
 10
2004.373466523565
 20
819.2597024592974
 42
-0.0157521173632038
 10
2001.841970471058
 20
822.4985572963337
 42
-0.0073640874174249
 10
1998.553569045322
 20
827.1322066526549
 42
-0.0194185739168057
 10
1997.402000046041
 20
828.9542499723316
 42
-0.0229547400386702
 10
1996.163443267091
 20
831.3397080363447
 42
-0.0229547400386702
  0
LINE
  5
23B7
330
1F
100
AcDbEntity
  8
NOSNÉ KONSTRUKCE
100
AcDbLine
 10
2021.163443267091
 20
785.0363759830793
 30
0.0
 11
1996.163443267091
 21
785.0363759830793
 31
0.0
  0
LWPOLYLINE
  5
23B8
330
1F
100
AcDbEntity
  8
NOSNÉ KONSTRUKCE
100
AcDbPolyline
 90
        6
 70
     0
 43
0.0
 10
2021.163443267091
 20
793.4999826695584
 42
-0.0128837512779302
 10
2017.830278445345
 20
793.7847746297843
 42
-0.0351641677647434
 10
2014.226568991006
 20
794.4125343513073
 42
-0.0187319685742942
 10
2002.468331648863
 20
797.7965502322981
 42
-0.0582629403736403
 10
1998.888497449931
 20
799.4560501003793
 42
-0.0146402521923566
 10
1996.163443267091
 20
801.2404580819625
  0
LWPOLYLINE
  5
23B9
330
1F
100
AcDbEntity
  8
NOSNÉ KONSTRUKCE
100
AcDbPolyline
 90
        3
 70
     0
 43
0.0
 10
2014.664273697836
 20
809.0325660487865
 10
2005.448244647316
 20
789.0363136167938
 10
2004.802847171974
 20
785.0363759830793
  0
LWPOLYLINE
  5
23BA
330
1F
100
AcDbEntity
  8
NOSNÉ KONSTRUKCE
100
AcDbPolyline
 90
        4
 70
     0
 43
0.0
 10
2010.948122060036
 20
785.0363759830793
 42
-0.0067781046155075
 10
2000.834750084626
 20
787.0293844227813
 42
-0.0219777111230329
 10
1997.31663682879
 20
787.9354969247647
 42
-0.0092752982622242
 10
1996.163443267091
 20
788.3107238867101
  0
LWPOLYLINE
  5
23BB
330
1F
100
AcDbEntity
  8
NOSNÉ KONSTRUKCE
100
AcDbPolyline
 90
        8
 70
     0
 43
0.0
 10
2021.163443267091
 20
802.1241980496011
 42
-0.0120721047703142
 10
2019.429555128347
 20
802.193180739639
 42
-0.044358077361292
 10
2016.73375510993
 20
802.5888084743124
 42
-0.0188067511131767
 10
2009.491525934624
 20
804.6086319226956
 42
-0.0457786284636091
 10
2006.642915551744
 20
805.8166548123113
 42
-0.0295006114745606
 10
2002.716016338342
 20
808.2327152666106
 42
-0.0258674098621065
 10
1998.570236259588
 20
811.4653905805749
 42
-0.0093759062953949
 10
1996.163443267091
 20
813.6312027602308
 42
-0.0093759062953949
  0
LWPOLYLINE
  5
23BC
330
1F
100
AcDbEntity
  8
NOSNÉ KONSTRUKCE
100
AcDbPolyline
 90
        3
 70
     0
 43
0.0
 10
2015.646112571573
 20
828.3251436740314
 10
2007.262371703605
 20
811.5699260543037
 10
1999.081070002507
 20
803.402821405179
  0
LINE
  5
23BD
330
1F
100
AcDbEntity
  8
PROFILY
100
AcDbLine
 10
1997.384461760187
 20
357.0076290085889
 30
0.0
 11
1995.03918838166
 21
357.0076290085858
 31
0.0
  0
LINE
  5
23BE
330
1F
100
AcDbEntity
  8
PROFILY
100
AcDbLine
 10
2060.931011451536
 20
293.4494754937513
 30
0.0
 11
2060.931011451532
 21
291.1158059387139
 31
0.0
  0
LWPOLYLINE
  5
23BF
330
1F
100
AcDbEntity
  8
NOSNÉ KONSTRUKCE
100
AcDbPolyline
 90
        3
 70
     0
 43
0.0
 10
2029.872094413263
 20
313.9846493815271
 10
2046.62731203299
 20
305.6009085135588
 10
2054.794416682115
 20
297.4196068124615
  0
LWPOLYLINE
  5
23C0
330
1F
100
AcDbEntity
  8
NOSNÉ KONSTRUKCE
100
AcDbPolyline
 90
        8
 70
     0
 43
0.0
 10
2056.073040037693
 20
319.5019800770455
 42
-0.0120721047703142
 10
2056.004057347655
 20
317.7680919383015
 42
-0.044358077361292
 10
2055.608429612982
 20
315.0722919198847
 42
-0.0188067511131767
 10
2053.588606164598
 20
307.8300627445782
 42
-0.0457786284636091
 10
2052.380583274983
 20
304.9814523616983
 42
-0.0295006114745606
 10
2049.964522820683
 20
301.0545531482962
 42
-0.0258674098621065
 10
2046.731847506719
 20
296.9087730695423
 42
-0.0093759062953949
 10
2044.566035327066
 20
294.5019800770456
 42
-0.0093759062953949
  0
LWPOLYLINE
  5
23C1
330
1F
100
AcDbEntity
  8
NOSNÉ KONSTRUKCE
100
AcDbPolyline
 90
        4
 70
     0
 43
0.0
 10
2073.160862104215
 20
309.2866588699903
 42
-0.0067781046155075
 10
2071.167853664513
 20
299.1732868945796
 42
-0.0219777111230329
 10
2070.261741162529
 20
295.6551736387441
 42
-0.0092752982622242
 10
2069.886514200586
 20
294.5019800770456
  0
LWPOLYLINE
  5
23C2
330
1F
100
AcDbEntity
  8
NOSNÉ KONSTRUKCE
100
AcDbPolyline
 90
        3
 70
     0
 43
0.0
 10
2049.164672038508
 20
313.0028105077903
 10
2069.1609244705
 20
303.7867814572705
 10
2073.160862104215
 20
303.1413839819283
  0
LWPOLYLINE
  5
23C3
330
1F
100
AcDbEntity
  8
NOSNÉ KONSTRUKCE
100
AcDbPolyline
 90
        6
 70
     0
 43
0.0
 10
2064.697255417738
 20
319.5019800770455
 42
-0.0128837512779302
 10
2064.41246345751
 20
316.1688152552992
 42
-0.0351641677647434
 10
2063.784703735987
 20
312.5651058009602
 42
-0.0187319685742942
 10
2060.400687854996
 20
300.8068684588174
 42
-0.0582629403736403
 10
2058.741187986915
 20
297.2270342598853
 42
-0.0146402521923566
 10
2056.956780005334
 20
294.5019800770456
  0
LWPOLYLINE
  5
23C4
330
1F
100
AcDbEntity
  8
NOSNÉ KONSTRUKCE
100
AcDbPolyline
 90
       10
 70
     0
 43
0.0
 10
2047.205980814183
 20
319.5019800770455
 42
-0.0168162630274194
 10
2047.070955235119
 20
317.8109419249262
 42
-0.0575155827655532
 10
2046.390922954776
 20
314.7113172642089
 42
-0.0310289133982999
 10
2043.388121609948
 20
307.4662897395642
 42
-0.0882970623535771
 10
2041.750899689855
 20
305.2259206887642
 42
-0.0171636441953577
 10
2038.937535627997
 20
302.712003333519
 42
-0.0157521173632038
 10
2035.69868079096
 20
300.1805072810125
 42
-0.0073640874174249
 10
2031.065031434639
 20
296.8921058552764
 42
-0.0194185739168057
 10
2029.242988114963
 20
295.7405368559952
 42
-0.0229547400386702
 10
2026.857530050952
 20
294.5019800770456
 42
-0.0229547400386702
  0
LWPOLYLINE
  5
23C5
330
1F
100
AcDbEntity
  8
NOSNÉ KONSTRUKCE
100
AcDbPolyline
 90
        7
 70
     0
 43
0.0
 10
2027.678465435246
 20
319.5019800770455
 42
-0.0203924744732807
 10
2026.776381450833
 20
318.4888500478914
 42
-0.0273961979096945
 10
2025.926517100638
 20
317.7006736738653
 42
-0.0243529190212958
 10
2024.763396608218
 20
316.8269143291977
 42
-0.0398020282482987
 10
2023.988438070658
 20
316.3872855857512
 42
-0.104168275620852
 10
2023.602026934318
 20
316.297269125574
 42
-0.007272956268647
 10
2023.163696955563
 20
316.2788157742793
 42
-0.007272956268647
  0
LWPOLYLINE
  5
23C6
330
1F
100
AcDbEntity
  8
NOSNÉ KONSTRUKCE
100
AcDbPolyline
 90
        9
 70
     0
 43
0.0
 10
2033.028151769763
 20
319.5019800770442
 42
-0.0064239028828688
 10
2032.989283329582
 20
319.2828664176941
 42
-0.0832048017309575
 10
2032.205100726901
 20
316.9526528380393
 42
-0.0336767237692336
 10
2030.502284167979
 20
314.2243783185786
 42
-0.0844635135812105
 10
2029.582474408086
 20
313.3199567135834
 42
-0.0495829410719565
 10
2027.833795970732
 20
312.3433072062707
 42
-0.0322692699774654
 10
2024.942441789642
 20
311.3017837048701
 42
-0.0276160659512937
 10
2024.086865351354
 20
311.1050482759255
 42
-0.0126891984598699
 10
2023.163696955563
 20
310.969845886384
  0
LWPOLYLINE
  5
23D1
330
1F
100
AcDbEntity
  8
NOSNÉ KONSTRUKCE
100
AcDbPolyline
 90
       11
 70
     0
 43
0.0
 10
2040.256202790501
 20
319.5019800770442
 42
-0.0072417954699014
 10
2040.200632422657
 20
319.0905748657696
 42
-0.0707158694326265
 10
2039.669505906237
 20
317.1544714131759
 42
-0.033952657250207
 10
2037.420850066829
 20
312.8014336880023
 42
-0.0571374688189033
 10
2035.634693306977
 20
310.4945094043159
 42
-0.0274923553235744
 10
2033.037387576424
 20
308.1094340811814
 42
-0.0255412025538677
 10
2029.985957538713
 20
305.852720404162
 42
-0.0272796991712396
 10
2025.872958385528
 20
303.4363845224997
 42
-0.056967459841729
 10
2023.732011104796
 20
302.6236486873003
 42
-0.0373408083348504
 10
2023.509656729323
 20
302.5844831463491
 42
-0.0052305969362967
 10
2023.163696955563
 20
302.5535261794448
  0
LWPOLYLINE
  5
23DE
330
1F
100
AcDbEntity
  8
NOSNÉ KONSTRUKCE
100
AcDbPolyline
 90
        4
 70
     0
 43
0.0
 10
2073.160862104215
 20
294.5019800770456
 10
2023.163696955563
 20
294.5019800770456
 10
2023.163696955563
 20
319.5019800770455
 10
2073.160862104215
 20
319.5019800770455
  0
LINE
  5
23DF
330
1F
100
AcDbEntity
  8
NOSNÉ KONSTRUKCE
100
AcDbLine
 10
2073.160862104215
 20
319.5019800770455
 30
0.0
 11
2073.160862104215
 21
294.5019800770456
 31
0.0
  0
LWPOLYLINE
  5
23E0
330
1F
100
AcDbEntity
  8
NOSNÉ KONSTRUKCE
100
AcDbPolyline
 90
        3
 70
     0
 43
0.0
 10
2017.646366260044
 20
362.7907477679978
 10
2009.262625392076
 20
346.03553014827
 10
2001.081323690979
 20
337.8684254991453
  0
LWPOLYLINE
  5
23E1
330
1F
100
AcDbEntity
  8
NOSNÉ KONSTRUKCE
100
AcDbPolyline
 90
        8
 70
     0
 43
0.0
 10
2023.163696955563
 20
336.5898021435673
 42
-0.0120721047703142
 10
2021.429808816818
 20
336.6587848336052
 42
-0.044358077361292
 10
2018.734008798402
 20
337.0544125682786
 42
-0.0188067511131767
 10
2011.491779623095
 20
339.0742360166618
 42
-0.0457786284636091
 10
2008.643169240215
 20
340.2822589062775
 42
-0.0295006114745606
 10
2004.716270026813
 20
342.6983193605769
 42
-0.0258674098621065
 10
2000.57048994806
 20
345.9309946745411
 42
-0.0093759062953949
 10
1998.163696955563
 20
348.0968068541969
 42
-0.0093759062953949
  0
LWPOLYLINE
  5
23E2
330
1F
100
AcDbEntity
  8
NOSNÉ KONSTRUKCE
100
AcDbPolyline
 90
        4
 70
     0
 43
0.0
 10
2012.948375748507
 20
319.5019800770455
 42
-0.0067781046155075
 10
2002.835003773097
 20
321.4949885167475
 42
-0.0219777111230329
 10
1999.316890517261
 20
322.4011010187309
 42
-0.0092752982622242
 10
1998.163696955563
 20
322.7763279806763
  0
LWPOLYLINE
  5
23E3
330
1F
100
AcDbEntity
  8
NOSNÉ KONSTRUKCE
100
AcDbPolyline
 90
        3
 70
     0
 43
0.0
 10
2016.664527386307
 20
343.4981701427527
 10
2007.448498335788
 20
323.5019177107601
 10
2006.803100860445
 20
319.5019800770455
  0
LWPOLYLINE
  5
23E4
330
1F
100
AcDbEntity
  8
NOSNÉ KONSTRUKCE
100
AcDbPolyline
 90
        6
 70
     0
 43
0.0
 10
2023.163696955563
 20
327.9655867635247
 42
-0.0128837512779302
 10
2019.830532133816
 20
328.2503787237506
 42
-0.0351641677647434
 10
2016.226822679477
 20
328.8781384452736
 42
-0.0187319685742942
 10
2004.468585337334
 20
332.2621543262644
 42
-0.0582629403736403
 10
2000.888751138402
 20
333.9216541943455
 42
-0.0146402521923566
 10
1998.163696955563
 20
335.7060621759287
  0
LWPOLYLINE
  5
23E5
330
1F
100
AcDbEntity
  8
NOSNÉ KONSTRUKCE
100
AcDbPolyline
 90
       10
 70
     0
 43
0.0
 10
2023.163696955563
 20
345.4568613670776
 42
-0.0168162630274194
 10
2021.472658803443
 20
345.5918869461415
 42
-0.0575155827655532
 10
2018.373034142726
 20
346.2719192264844
 42
-0.0310289133982999
 10
2011.128006618081
 20
349.2747205713126
 42
-0.0882970623535771
 10
2008.887637567281
 20
350.9119424914056
 42
-0.0171636441953577
 10
2006.373720212036
 20
353.7253065532636
 42
-0.0157521173632038
 10
2003.84222415953
 20
356.9641613902999
 42
-0.0073640874174249
 10
2000.553822733794
 20
361.5978107466212
 42
-0.0194185739168057
 10
1999.402253734512
 20
363.4198540662978
 42
-0.0229547400386702
 10
1998.163696955563
 20
365.805312130311
 42
-0.0229547400386702
  0
LWPOLYLINE
  5
23E6
330
1F
100
AcDbEntity
  8
NOSNÉ KONSTRUKCE
100
AcDbPolyline
 90
        7
 70
     0
 43
0.0
 10
2023.163696955563
 20
364.9843767460156
 42
-0.0203924744732807
 10
2022.150566926409
 20
365.8864607304272
 42
-0.0273961979096945
 10
2021.362390552382
 20
366.7363250806224
 42
-0.0243529190212958
 10
2020.488631207715
 20
367.8994455730421
 42
-0.0398020282482987
 10
2020.049002464268
 20
368.6744041106026
 42
-0.104168275620852
 10
2019.958986004091
 20
369.0608152469426
 42
-0.007272956268647
 10
2019.940532652796
 20
369.499145225699
 42
-0.007272956268647
  0
LWPOLYLINE
  5
23E7
330
1F
100
AcDbEntity
  8
NOSNÉ KONSTRUKCE
100
AcDbPolyline
 90
        9
 70
     0
 43
0.0
 10
2023.163696955563
 20
359.6346904114975
 42
-0.0064239028828688
 10
2022.944583296212
 20
359.673558851678
 42
-0.0832048017309575
 10
2020.614369716557
 20
360.4577414543596
 42
-0.0336767237692336
 10
2017.886095197097
 20
362.1605580132813
 42
-0.0844635135812105
 10
2016.981673592102
 20
363.0803677731742
 42
-0.0495829410719565
 10
2016.005024084789
 20
364.8290462105283
 42
-0.0322692699774654
 10
2014.963500583389
 20
367.720400391619
 42
-0.0276160659512937
 10
2014.766765154444
 20
368.5759768299062
 42
-0.0126891984598699
 10
2014.631562764902
 20
369.499145225699
  0
LWPOLYLINE
  5
23F2
330
1F
100
AcDbEntity
  8
NOSNÉ KONSTRUKCE
100
AcDbPolyline
 90
       11
 70
     0
 43
0.0
 10
2023.163696955563
 20
352.4066393907606
 42
-0.0072417954699014
 10
2022.752291744288
 20
352.4622097586029
 42
-0.0707158694326265
 10
2020.816188291694
 20
352.993336275023
 42
-0.033952657250207
 10
2016.463150566521
 20
355.2419921144314
 42
-0.0571374688189033
 10
2014.156226282834
 20
357.0281488742835
 42
-0.0274923553235744
 10
2011.7711509597
 20
359.6254546048362
 42
-0.0255412025538677
 10
2009.51443728268
 20
362.676884642547
 42
-0.0272796991712396
 10
2007.098101401018
 20
366.7898837957323
 42
-0.056967459841729
 10
2006.285365565819
 20
368.930831076464
 42
-0.0373408083348504
 10
2006.246200024868
 20
369.1531854519376
 42
-0.0052305969362967
 10
2006.215243057963
 20
369.499145225699
  0
LWPOLYLINE
  5
23FF
330
1F
100
AcDbEntity
  8
NOSNÉ KONSTRUKCE
100
AcDbPolyline
 90
        4
 70
     0
 43
0.0
 10
1998.163696955563
 20
319.5019800770455
 10
1998.163696955563
 20
369.499145225699
 10
2023.163696955563
 20
369.499145225699
 10
2023.163696955563
 20
319.5019800770455
  0
LINE
  5
2400
330
1F
100
AcDbEntity
  8
NOSNÉ KONSTRUKCE
100
AcDbLine
 10
2023.163696955563
 20
319.5019800770455
 30
0.0
 11
1998.163696955563
 21
319.5019800770455
 31
0.0
  0
LINE
  5
2401
330
1F
100
AcDbEntity
  8
CETRIS
100
AcDbLine
 10
2001.67073091754
 20
289.0891332138221
 30
0.0
 11
2527.882621376794
 21
289.0891332138221
 31
0.0
  0
LINE
  5
2402
330
1F
100
AcDbEntity
  8
CETRIS
100
AcDbLine
 10
2001.67073091754
 20
277.0891332138221
 30
0.0
 11
2526.584181870978
 21
277.0891332138221
 31
0.0
  0
LINE
  5
2403
330
1F
100
AcDbEntity
  8
CETRIS
100
AcDbLine
 10
1993.228227311695
 20
297.7596686092478
 30
0.0
 11
1993.228227311691
 21
917.1184747562151
 31
0.0
  0
LINE
  5
2404
330
1F
100
AcDbEntity
  8
CETRIS
100
AcDbLine
 10
1981.228227311695
 20
297.7596686092478
 30
0.0
 11
1981.228227311695
 21
915.3023069339328
 31
0.0
  0
LINE
  5
2405
330
1F
100
AcDbEntity
  8
CETRIS
100
AcDbLine
 10
1993.228227311695
 20
297.7596686092478
 30
0.0
 11
1969.228227311695
 21
297.7596686092478
 31
0.0
  0
LINE
  5
2406
330
1F
100
AcDbEntity
  8
CETRIS
100
AcDbLine
 10
1969.228227311695
 20
297.7596686092478
 30
0.0
 11
1969.228227311695
 21
916.0451538296989
 31
0.0
  0
LINE
  5
2407
330
1F
100
AcDbEntity
  8
PROFILY
100
AcDbLine
 10
2049.772035060582
 20
289.0299649997046
 30
0.0
 11
2051.340609165291
 21
291.1158059387139
 31
0.0
  0
LINE
  5
2408
330
1F
100
AcDbEntity
  8
PROFILY
100
AcDbLine
 10
1997.800062479714
 20
289.6666304942204
 30
0.0
 11
2000.64480130779
 21
293.4494754937527
 31
0.0
  0
LINE
  5
2409
330
1F
100
AcDbEntity
  8
PROFILY
100
AcDbLine
 10
1993.590012937159
 20
293.8766800367643
 30
0.0
 11
1997.384461760187
 21
296.7301450609352
 31
0.0
  0
LINE
  5
240A
330
1F
100
AcDbEntity
  8
PROFILY
100
AcDbLine
 10
1992.953347442643
 20
295.8766800367643
 30
0.0
 11
1995.039188381664
 21
297.4452541414834
 31
0.0
  0
LINE
  5
240B
330
1F
100
AcDbEntity
  8
PROFILY
100
AcDbLine
 10
1997.80006247971
 20
268.1908377704016
 30
0.0
 11
1997.800062479714
 21
289.6666304942204
 31
0.0
  0
LINE
  5
240C
330
1F
100
AcDbEntity
  8
PROFILY
100
AcDbLine
 10
1972.114220213349
 20
268.1908377704016
 30
0.0
 11
1997.80006247971
 21
268.1908377704016
 31
0.0
  0
LINE
  5
240D
330
1F
100
AcDbEntity
  8
PROFILY
100
AcDbLine
 10
1972.114220213349
 20
293.8766800367643
 30
0.0
 11
1972.114220213349
 21
268.1908377704016
 31
0.0
  0
LINE
  5
240E
330
1F
100
AcDbEntity
  8
PROFILY
100
AcDbLine
 10
1993.590012937159
 20
293.8766800367643
 30
0.0
 11
1972.114220213349
 21
293.8766800367643
 31
0.0
  0
LINE
  5
240F
330
1F
100
AcDbEntity
  8
PROFILY
100
AcDbLine
 10
1999.800062479714
 20
266.1908377704016
 30
0.0
 11
1999.800062479714
 21
289.0299649997046
 31
0.0
  0
LINE
  5
2410
330
1F
100
AcDbEntity
  8
PROFILY
100
AcDbLine
 10
1970.114220213349
 20
266.1908377704016
 30
0.0
 11
1999.800062479714
 21
266.1908377704016
 31
0.0
  0
LINE
  5
2411
330
1F
100
AcDbEntity
  8
PROFILY
100
AcDbLine
 10
1970.114220213349
 20
295.8766800367643
 30
0.0
 11
1970.114220213349
 21
266.1908377704016
 31
0.0
  0
LINE
  5
2412
330
1F
100
AcDbEntity
  8
PROFILY
100
AcDbLine
 10
1992.953347442643
 20
295.8766800367643
 30
0.0
 11
1970.114220213349
 21
295.8766800367643
 31
0.0
  0
LINE
  5
2413
330
1F
100
AcDbEntity
  8
PROFILY
100
AcDbLine
 10
2060.931011451532
 20
291.1158059387139
 30
0.0
 11
2001.368636584423
 21
291.1158059387139
 31
0.0
  0
LINE
  5
2414
330
1F
100
AcDbEntity
  8
PROFILY
100
AcDbLine
 10
2000.64480130779
 20
293.4494754937527
 30
0.0
 11
2060.931011451536
 21
293.4494754937513
 31
0.0
  0
LINE
  5
2415
330
1F
100
AcDbEntity
  8
PROFILY
100
AcDbLine
 10
1997.384461760187
 20
296.7301450609352
 30
0.0
 11
1997.384461760187
 21
357.0076290085889
 31
0.0
  0
LINE
  5
2416
330
1F
100
AcDbEntity
  8
PROFILY
100
AcDbLine
 10
1995.03918838166
 20
357.0076290085858
 30
0.0
 11
1995.039188381664
 21
297.4452541414834
 31
0.0
  0
LINE
  5
2417
330
1F
100
AcDbEntity
  8
CETRIS
100
AcDbLine
 10
2001.67073091754
 20
265.0891332138221
 30
0.0
 11
2526.584181870978
 21
265.0891332138221
 31
0.0
  0
LINE
  5
2418
330
1F
100
AcDbEntity
  8
CETRIS
100
AcDbLine
 10
2001.67073091754
 20
289.0891332138221
 30
0.0
 11
2001.67073091754
 21
265.0891332138221
 31
0.0
  0
TEXT
  5
2419
330
1F
100
AcDbEntity
  8
POPIS
100
AcDbText
 10
1870.659981559948
 20
991.3184673148066
 30
0.0
 40
35.0
  1
PŮDORYS
 41
0.75
  7
SIMPLEX7
100
AcDbText
  0
TEXT
  5
241A
330
1F
100
AcDbEntity
  8
POPIS
100
AcDbText
 10
1870.659981559948
 20
1045.943210340607
 30
0.0
 40
50.0
  1
VNĚJŠÍ ROH
 41
0.85
  7
SIMPLEX7
100
AcDbText
  0
TEXT
  5
241B
330
1F
100
AcDbEntity
  8
POPIS
100
AcDbText
 10
1754.969546986319
 20
580.4678489038811
 30
0.0
 40
25.0
  1
05
 41
0.7
  7
SIMPLEX7
100
AcDbText
  0
LINE
  5
241C
330
1F
100
AcDbEntity
  8
POPIS
100
AcDbLine
 10
1794.947033329587
 20
593.9111903532516
 30
0.0
 11
2025.512691712481
 21
593.9111903532512
 31
0.0
  0
INSERT
  5
241D
330
1F
100
AcDbEntity
  8
POPIS
100
AcDbBlockReference
  2
E_PUNKT
 10
2025.220532319869
 20
593.8821220223785
 30
0.0
  0
LINE
  5
241E
330
1F
100
AcDbEntity
  8
STAVBA OBRYS
100
AcDbLine
 10
2354.403622823706
 20
658.7084696339665
 30
0.0
 11
2610.211425627124
 21
658.7084696339665
 31
0.0
  0
LINE
  5
241F
330
1F
100
AcDbEntity
  8
STAVBA OBRYS
100
AcDbLine
 10
2354.403622823706
 20
927.323375226441
 30
0.0
 11
2354.403622823706
 21
658.7084696339665
 31
0.0
  0
LINE
  5
2420
330
1F
100
AcDbEntity
  8
STAVBA OBRYS
100
AcDbLine
 10
2107.163696955562
 20
926.0762401103974
 30
0.0
 11
2107.163696955562
 21
403.5019800770455
 31
0.0
  0
LINE
  5
2421
330
1F
100
AcDbEntity
  8
STAVBA OBRYS
100
AcDbLine
 10
2027.163696955559
 20
403.501980077046
 30
0.0
 11
2538.930226515575
 21
403.5019800770455
 31
0.0
  0
LINE
  5
24D0
330
1F
100
AcDbEntity
  8
PROFILY
  6
DASHED
370
    40
100
AcDbLine
 10
2073.181710865196
 20
289.713295431296
 30
0.0
 11
2023.18454571654
 21
289.713295431296
 31
0.0
  0
LINE
  5
24D1
330
1F
100
AcDbEntity
  8
PROFILY
100
AcDbLine
 10
2073.168254791784
 20
289.913295431296
 30
0.0
 11
2023.171089643128
 21
289.913295431296
 31
0.0
  0
LINE
  5
24D2
330
1F
100
AcDbEntity
  8
PROFILY
100
AcDbLine
 10
2073.181710865196
 20
289.5132954312959
 30
0.0
 11
2023.18454571654
 21
289.5132954312959
 31
0.0
  0
LINE
  5
24D3
330
1F
100
AcDbEntity
  8
PROFILY
  6
DASHED
370
    40
100
AcDbLine
 10
1993.850442431224
 20
358.2067447179561
 30
0.0
 11
1993.850442431224
 21
308.2095795693003
 31
0.0
  0
LINE
  5
24D4
330
1F
100
AcDbEntity
  8
PROFILY
100
AcDbLine
 10
1994.050442431224
 20
358.2067447179561
 30
0.0
 11
1994.050442431224
 21
308.2095795693003
 31
0.0
  0
LINE
  5
24D5
330
1F
100
AcDbEntity
  8
PROFILY
100
AcDbLine
 10
1993.650442431223
 20
358.193288644544
 30
0.0
 11
1993.650442431223
 21
308.1961234958882
 31
0.0
  0
INSERT
  5
24D6
330
1F
100
AcDbEntity
  8
POPIS
100
AcDbBlockReference
  2
E_PUNKT
 10
1993.753541888595
 20
359.8615036165938
 30
0.0
 41
-1.0
  0
TEXT
  5
24D7
330
1F
100
AcDbEntity
  8
POPIS
100
AcDbText
 10
1754.790051237742
 20
382.3482141489962
 30
0.0
 40
25.0
  1
09
 41
0.7
  7
SIMPLEX7
100
AcDbText
  0
LINE
  5
24D8
330
1F
100
AcDbEntity
  8
POPIS
100
AcDbLine
 10
1993.770098718298
 20
360.0865423462692
 30
0.0
 11
1935.399811303268
 21
394.4115710918399
 31
0.0
  0
LINE
  5
24D9
330
1F
100
AcDbEntity
  8
POPIS
100
AcDbLine
 10
1795.325486532293
 20
395.7915555983668
 30
0.0
 11
1930.330754892822
 21
395.7915555983668
 31
0.0
  0
LINE
  5
24DB
330
1F
100
AcDbEntity
  8
PROFILY
100
AcDbLine
 10
1994.753248648231
 20
835.2463012844761
 30
0.0
 11
1994.753248648231
 21
785.2491361358204
 31
0.0
  0
LINE
  5
24DC
330
1F
100
AcDbEntity
  8
PROFILY
100
AcDbLine
 10
1995.153248648232
 20
835.2597573578883
 30
0.0
 11
1995.153248648232
 21
785.2625922092324
 31
0.0
  0
LINE
  5
24DD
330
1F
100
AcDbEntity
  8
PROFILY
  6
DASHED
370
    40
100
AcDbLine
 10
1994.953248648231
 20
835.2597573578883
 30
0.0
 11
1994.953248648231
 21
785.2625922092324
 31
0.0
  0
LINE
  5
24DE
330
1F
100
AcDbEntity
  8
POPIS
100
AcDbLine
 10
2069.47234215561
 20
222.9667217203871
 30
0.0
 11
1998.530241446475
 21
222.9667217203871
 31
0.0
  0
TEXT
  5
24DF
330
1F
100
AcDbEntity
  8
POPIS
100
AcDbText
 10
2014.120874799533
 20
229.7989264524129
 30
0.0
 40
25.0
  1
35
 41
0.7
  7
SIMPLEX7
100
AcDbText
  0
LINE
  5
24E0
330
1F
100
AcDbEntity
  8
POPIS
100
AcDbLine
 10
2002.820084260213
 20
251.760789343288
 30
0.0
 11
2002.820084260213
 21
210.466721720387
 31
0.0
  0
INSERT
  5
24E1
330
1F
100
AcDbEntity
  8
POPIS
100
AcDbBlockReference
  2
_ArchTick
 10
2002.761398750128
 20
222.9667217203872
 30
0.0
 41
15.0
 42
15.0
 43
15.0
 50
180.0
  0
INSERT
  5
24E2
330
1F
100
AcDbEntity
  8
POPIS
100
AcDbBlockReference
  2
_ArchTick
 10
2052.370378878015
 20
222.9667217203872
 30
0.0
 41
15.0
 42
15.0
 43
15.0
  0
LINE
  5
24E3
330
1F
100
AcDbEntity
  8
POPIS
100
AcDbLine
 10
2052.370378878015
 20
253.9497315762903
 30
0.0
 11
2052.370378878015
 21
210.466721720387
 31
0.0
  0
TEXT
  5
24E4
330
1F
100
AcDbEntity
  8
POPIS
100
AcDbText
 10
1912.848322403252
 20
-329.0593826396198
 30
0.0
 40
25.0
  1
Podkladní EPDM páska tl.1 mm
 41
0.7
  7
SIMPLEX7
100
AcDbText
  0
TEXT
  5
24E5
330
1F
100
AcDbEntity
  8
POPIS
100
AcDbText
 10
1858.50461924351
 20
-329.0593826396198
 30
0.0
 40
25.0
  1
09
 41
0.85
  7
SIMPLEX7
100
AcDbText
  0
ARC
  5
24E6
330
1F
100
AcDbEntity
  8
POPIS
100
AcDbCircle
 10
1930.330754892822
 20
385.7915555983668
 30
0.0
 40
10.0
100
AcDbArc
 50
59.5420650358158
 51
90.0
  0
ENDSEC
  0
SECTION
  2
OBJECTS
  0
DICTIONARY
  5
C
330
0
100
AcDbDictionary
281
     1
  3
ACAD_GROUP
350
D
  3
ACAD_LAYOUT
350
1A
  3
ACAD_MLINESTYLE
350
17
  3
ACAD_PLOTSETTINGS
350
19
  3
ACAD_PLOTSTYLENAME
350
E
  3
AcDbVariableDictionary
350
24E8
  0
DICTIONARY
  5
B56
330
1F
100
AcDbDictionary
280
     1
281
     1
  3
ACAD_LAYOUTSELFREF
360
249C
  0
DICTIONARY
  5
B58
330
1B
100
AcDbDictionary
280
     1
281
     1
  3
ACAD_LAYOUTSELFREF
360
249B
  0
DICTIONARY
  5
B5A
330
23
100
AcDbDictionary
280
     1
281
     1
  3
ACAD_LAYOUTSELFREF
360
249D
  0
DICTIONARY
  5
D
102
{ACAD_REACTORS
330
C
102
}
330
C
100
AcDbDictionary
281
     1
  0
DICTIONARY
  5
1A
102
{ACAD_REACTORS
330
C
102
}
330
C
100
AcDbDictionary
281
     1
  3
Model
350
22
  3
Rozvržení1
350
1E
  3
Rozvržení2
350
26
  0
DICTIONARY
  5
17
102
{ACAD_REACTORS
330
C
102
}
330
C
100
AcDbDictionary
281
     1
  3
Standard
350
18
  0
DICTIONARY
  5
19
102
{ACAD_REACTORS
330
C
102
}
330
C
100
AcDbDictionary
281
     1
  0
ACDBDICTIONARYWDFLT
  5
E
102
{ACAD_REACTORS
330
C
102
}
330
C
100
AcDbDictionary
281
     1
  3
Normal
350
F
100
AcDbDictionaryWithDefault
340
F
  0
DICTIONARY
  5
24E8
102
{ACAD_REACTORS
330
C
102
}
330
C
100
AcDbDictionary
281
     1
  3
DIMASSOC
350
24E9
  0
XRECORD
  5
249C
102
{ACAD_REACTORS
330
B56
102
}
330
B56
100
AcDbXrecord
280
     1
340
1F
  0
XRECORD
  5
249B
102
{ACAD_REACTORS
330
B58
102
}
330
B58
100
AcDbXrecord
280
     1
340
1B
  0
XRECORD
  5
249D
102
{ACAD_REACTORS
330
B5A
102
}
330
B5A
100
AcDbXrecord
280
     1
340
23
  0
LAYOUT
  5
22
102
{ACAD_REACTORS
330
1A
102
}
330
1A
100
AcDbPlotSettings
  1

  2
HP DeskJet 690C
  4

  6

 40
0.0
 41
0.0
 42
0.0
 43
0.0
 44
0.0
 45
0.0
 46
0.0
 47
0.0
 48
0.0
 49
0.0
140
0.0
141
0.0
142
1.0
143
1.0
 70
  1712
 72
     0
 73
     0
 74
     0
  7
monochrome.ctb
 75
     0
147
1.0
148
0.0
149
0.0
100
AcDbLayout
  1
Model
 70
     1
 71
     0
 10
0.0
 20
0.0
 11
12.0
 21
9.0
 12
0.0
 22
0.0
 32
0.0
 14
0.0
 24
0.0
 34
0.0
 15
0.0
 25
0.0
 35
0.0
146
0.0
 13
0.0
 23
0.0
 33
0.0
 16
1.0
 26
0.0
 36
0.0
 17
0.0
 27
1.0
 37
0.0
 76
     0
330
1F
  0
LAYOUT
  5
1E
102
{ACAD_REACTORS
330
1A
102
}
330
1A
100
AcDbPlotSettings
  1

  2
HP DeskJet 690C
  4

  6

 40
0.0
 41
0.0
 42
0.0
 43
0.0
 44
0.0
 45
0.0
 46
0.0
 47
0.0
 48
0.0
 49
0.0
140
0.0
141
0.0
142
1.0
143
1.0
 70
   688
 72
     0
 73
     0
 74
     5
  7
monochrome.ctb
 75
    16
147
1.0
148
0.0
149
0.0
100
AcDbLayout
  1
Rozvržení1
 70
     1
 71
     1
 10
0.0
 20
0.0
 11
420.0
 21
297.0
 12
0.0
 22
0.0
 32
0.0
 14
1.000000000000000E+20
 24
1.000000000000000E+20
 34
1.000000000000000E+20
 15
-1.000000000000000E+20
 25
-1.000000000000000E+20
 35
-1.000000000000000E+20
146
0.0
 13
0.0
 23
0.0
 33
0.0
 16
1.0
 26
0.0
 36
0.0
 17
0.0
 27
1.0
 37
0.0
 76
     0
330
1B
  0
LAYOUT
  5
26
102
{ACAD_REACTORS
330
1A
102
}
330
1A
100
AcDbPlotSettings
  1

  2
HP DeskJet 690C
  4

  6

 40
0.0
 41
0.0
 42
0.0
 43
0.0
 44
0.0
 45
0.0
 46
0.0
 47
0.0
 48
0.0
 49
0.0
140
0.0
141
0.0
142
1.0
143
1.0
 70
   688
 72
     0
 73
     0
 74
     5
  7
monochrome.ctb
 75
    16
147
1.0
148
0.0
149
0.0
100
AcDbLayout
  1
Rozvržení2
 70
     1
 71
     2
 10
0.0
 20
0.0
 11
12.0
 21
9.0
 12
0.0
 22
0.0
 32
0.0
 14
0.0
 24
0.0
 34
0.0
 15
0.0
 25
0.0
 35
0.0
146
0.0
 13
0.0
 23
0.0
 33
0.0
 16
1.0
 26
0.0
 36
0.0
 17
0.0
 27
1.0
 37
0.0
 76
     0
330
23
  0
MLINESTYLE
  5
18
102
{ACAD_REACTORS
330
17
102
}
330
17
100
AcDbMlineStyle
  2
STANDARD
 70
     0
  3

 62
   256
 51
90.0
 52
90.0
 71
     2
 49
0.5
 62
   256
  6
BYLAYER
 49
-0.5
 62
   256
  6
BYLAYER
  0
ACDBPLACEHOLDER
  5
F
102
{ACAD_REACTORS
330
E
102
}
330
E
  0
DICTIONARYVAR
  5
24E9
102
{ACAD_REACTORS
330
24E8
102
}
330
24E8
100
DictionaryVariables
280
     0
  1
1
  0
ENDSEC
  0
EOF
