  0
SECTION
  2
HEADER
  9
$ACADVER
  1
AC1015
  9
$ACADMAINTVER
 70
    13
  9
$DWGCODEPAGE
  3
ANSI_1250
  9
$INSBASE
 10
0.0
 20
0.0
 30
0.0
  9
$EXTMIN
 10
2360.339935153821
 20
-647.7879166709722
 30
0.0
  9
$EXTMAX
 10
3200.409594140215
 20
764.2337750505658
 30
0.0
  9
$LIMMIN
 10
0.0
 20
0.0
  9
$LIMMAX
 10
420.0
 20
297.0
  9
$ORTHOMODE
 70
     1
  9
$REGENMODE
 70
     1
  9
$FILLMODE
 70
     1
  9
$QTEXTMODE
 70
     0
  9
$MIRRTEXT
 70
     1
  9
$LTSCALE
 40
1.0
  9
$ATTMODE
 70
     1
  9
$TEXTSIZE
 40
2.5
  9
$TRACEWID
 40
1.0
  9
$TEXTSTYLE
  7
Standard
  9
$CLAYER
  8
0
  9
$CELTYPE
  6
ByLayer
  9
$CECOLOR
 62
   256
  9
$CELTSCALE
 40
1.0
  9
$DISPSILH
 70
     0
  9
$DIMSCALE
 40
1.0
  9
$DIMASZ
 40
2.5
  9
$DIMEXO
 40
0.625
  9
$DIMDLI
 40
3.75
  9
$DIMRND
 40
0.0
  9
$DIMDLE
 40
0.0
  9
$DIMEXE
 40
1.25
  9
$DIMTP
 40
0.0
  9
$DIMTM
 40
0.0
  9
$DIMTXT
 40
2.5
  9
$DIMCEN
 40
2.5
  9
$DIMTSZ
 40
0.0
  9
$DIMTOL
 70
     0
  9
$DIMLIM
 70
     0
  9
$DIMTIH
 70
     0
  9
$DIMTOH
 70
     0
  9
$DIMSE1
 70
     0
  9
$DIMSE2
 70
     0
  9
$DIMTAD
 70
     1
  9
$DIMZIN
 70
     8
  9
$DIMBLK
  1

  9
$DIMASO
 70
     1
  9
$DIMSHO
 70
     1
  9
$DIMPOST
  1

  9
$DIMAPOST
  1

  9
$DIMALT
 70
     0
  9
$DIMALTD
 70
     3
  9
$DIMALTF
 40
0.03937007874016
  9
$DIMLFAC
 40
1.0
  9
$DIMTOFL
 70
     1
  9
$DIMTVP
 40
0.0
  9
$DIMTIX
 70
     0
  9
$DIMSOXD
 70
     0
  9
$DIMSAH
 70
     0
  9
$DIMBLK1
  1

  9
$DIMBLK2
  1

  9
$DIMSTYLE
  2
ISO-25
  9
$DIMCLRD
 70
     0
  9
$DIMCLRE
 70
     0
  9
$DIMCLRT
 70
     0
  9
$DIMTFAC
 40
1.0
  9
$DIMGAP
 40
0.625
  9
$DIMJUST
 70
     0
  9
$DIMSD1
 70
     0
  9
$DIMSD2
 70
     0
  9
$DIMTOLJ
 70
     0
  9
$DIMTZIN
 70
     8
  9
$DIMALTZ
 70
     0
  9
$DIMALTTZ
 70
     0
  9
$DIMUPT
 70
     0
  9
$DIMDEC
 70
     2
  9
$DIMTDEC
 70
     2
  9
$DIMALTU
 70
     2
  9
$DIMALTTD
 70
     3
  9
$DIMTXSTY
  7
Standard
  9
$DIMAUNIT
 70
     0
  9
$DIMADEC
 70
     0
  9
$DIMALTRND
 40
0.0
  9
$DIMAZIN
 70
     0
  9
$DIMDSEP
 70
    44
  9
$DIMATFIT
 70
     3
  9
$DIMFRAC
 70
     0
  9
$DIMLDRBLK
  1

  9
$DIMLUNIT
 70
     2
  9
$DIMLWD
 70
    -2
  9
$DIMLWE
 70
    -2
  9
$DIMTMOVE
 70
     0
  9
$LUNITS
 70
     2
  9
$LUPREC
 70
     4
  9
$SKETCHINC
 40
1.0
  9
$FILLETRAD
 40
10.0
  9
$AUNITS
 70
     0
  9
$AUPREC
 70
     0
  9
$MENU
  1
.
  9
$ELEVATION
 40
0.0
  9
$PELEVATION
 40
0.0
  9
$THICKNESS
 40
0.0
  9
$LIMCHECK
 70
     0
  9
$CHAMFERA
 40
10.0
  9
$CHAMFERB
 40
10.0
  9
$CHAMFERC
 40
20.0
  9
$CHAMFERD
 40
0.0
  9
$SKPOLY
 70
     0
  9
$TDCREATE
 40
2452334.465307870
  9
$TDUCREATE
 40
2452334.423641203
  9
$TDUPDATE
 40
2455595.887788078
  9
$TDUUPDATE
 40
2455595.846121412
  9
$TDINDWG
 40
0.0041109259
  9
$TDUSRTIMER
 40
0.0041109259
  9
$USRTIMER
 70
     1
  9
$ANGBASE
 50
0.0
  9
$ANGDIR
 70
     0
  9
$PDMODE
 70
     0
  9
$PDSIZE
 40
0.0
  9
$PLINEWID
 40
0.0
  9
$SPLFRAME
 70
     0
  9
$SPLINETYPE
 70
     6
  9
$SPLINESEGS
 70
     8
  9
$HANDSEED
  5
16D1
  9
$SURFTAB1
 70
     6
  9
$SURFTAB2
 70
     6
  9
$SURFTYPE
 70
     6
  9
$SURFU
 70
     6
  9
$SURFV
 70
     6
  9
$UCSBASE
  2

  9
$UCSNAME
  2

  9
$UCSORG
 10
0.0
 20
0.0
 30
0.0
  9
$UCSXDIR
 10
1.0
 20
0.0
 30
0.0
  9
$UCSYDIR
 10
0.0
 20
1.0
 30
0.0
  9
$UCSORTHOREF
  2

  9
$UCSORTHOVIEW
 70
     0
  9
$UCSORGTOP
 10
0.0
 20
0.0
 30
0.0
  9
$UCSORGBOTTOM
 10
0.0
 20
0.0
 30
0.0
  9
$UCSORGLEFT
 10
0.0
 20
0.0
 30
0.0
  9
$UCSORGRIGHT
 10
0.0
 20
0.0
 30
0.0
  9
$UCSORGFRONT
 10
0.0
 20
0.0
 30
0.0
  9
$UCSORGBACK
 10
0.0
 20
0.0
 30
0.0
  9
$PUCSBASE
  2

  9
$PUCSNAME
  2

  9
$PUCSORG
 10
0.0
 20
0.0
 30
0.0
  9
$PUCSXDIR
 10
1.0
 20
0.0
 30
0.0
  9
$PUCSYDIR
 10
0.0
 20
1.0
 30
0.0
  9
$PUCSORTHOREF
  2

  9
$PUCSORTHOVIEW
 70
     0
  9
$PUCSORGTOP
 10
0.0
 20
0.0
 30
0.0
  9
$PUCSORGBOTTOM
 10
0.0
 20
0.0
 30
0.0
  9
$PUCSORGLEFT
 10
0.0
 20
0.0
 30
0.0
  9
$PUCSORGRIGHT
 10
0.0
 20
0.0
 30
0.0
  9
$PUCSORGFRONT
 10
0.0
 20
0.0
 30
0.0
  9
$PUCSORGBACK
 10
0.0
 20
0.0
 30
0.0
  9
$USERI1
 70
     0
  9
$USERI2
 70
     0
  9
$USERI3
 70
     0
  9
$USERI4
 70
     0
  9
$USERI5
 70
     0
  9
$USERR1
 40
0.0
  9
$USERR2
 40
0.0
  9
$USERR3
 40
0.0
  9
$USERR4
 40
0.0
  9
$USERR5
 40
0.0
  9
$WORLDVIEW
 70
     1
  9
$SHADEDGE
 70
     3
  9
$SHADEDIF
 70
    70
  9
$TILEMODE
 70
     1
  9
$MAXACTVP
 70
    48
  9
$PINSBASE
 10
0.0
 20
0.0
 30
0.0
  9
$PLIMCHECK
 70
     0
  9
$PEXTMIN
 10
1.000000000000000E+20
 20
1.000000000000000E+20
 30
1.000000000000000E+20
  9
$PEXTMAX
 10
-1.000000000000000E+20
 20
-1.000000000000000E+20
 30
-1.000000000000000E+20
  9
$PLIMMIN
 10
0.0
 20
0.0
  9
$PLIMMAX
 10
420.0
 20
297.0
  9
$UNITMODE
 70
     0
  9
$VISRETAIN
 70
     1
  9
$PLINEGEN
 70
     0
  9
$PSLTSCALE
 70
     1
  9
$TREEDEPTH
 70
  3020
  9
$CMLSTYLE
  2
Standard
  9
$CMLJUST
 70
     0
  9
$CMLSCALE
 40
20.0
  9
$PROXYGRAPHICS
 70
     1
  9
$MEASUREMENT
 70
     1
  9
$CELWEIGHT
370
    -1
  9
$ENDCAPS
280
     0
  9
$JOINSTYLE
280
     0
  9
$LWDISPLAY
290
     0
  9
$INSUNITS
 70
     4
  9
$HYPERLINKBASE
  1

  9
$STYLESHEET
  1

  9
$XEDIT
290
     1
  9
$CEPSNTYPE
380
     0
  9
$PSTYLEMODE
290
     1
  9
$FINGERPRINTGUID
  2
{4216A968-507C-4CB8-873B-AD6C9E89F3B1}
  9
$VERSIONGUID
  2
{9BA0ED5A-EA52-4C3E-AD62-C8CC44937323}
  9
$EXTNAMES
290
     1
  9
$PSVPSCALE
 40
0.0
  9
$OLESTARTUP
290
     0
  0
ENDSEC
  0
SECTION
  2
CLASSES
  0
CLASS
  1
ACDBDICTIONARYWDFLT
  2
AcDbDictionaryWithDefault
  3
AutoCAD 2000
 90
        0
280
     0
281
     0
  0
CLASS
  1
ACDBPLACEHOLDER
  2
AcDbPlaceHolder
  3
AutoCAD 2000
 90
        0
280
     0
281
     0
  0
CLASS
  1
LAYOUT
  2
AcDbLayout
  3
AutoCAD 2000
 90
        0
280
     0
281
     0
  0
CLASS
  1
LONG_TRANSACTION
  2
AcDbLongTransaction
  3
AutoCAD 2000
 90
    32768
280
     0
281
     0
  0
CLASS
  1
LWPOLYLINE
  2
AcDbPolyline
  3
AutoCAD 2000
 90
    32768
280
     0
281
     1
  0
CLASS
  1
HATCH
  2
AcDbHatch
  3
AutoCAD 2000
 90
    32768
280
     0
281
     1
  0
CLASS
  1
XRECORD
  2
AcDbXrecord
  3
AutoCAD 2000
 90
    32768
280
     0
281
     0
  0
CLASS
  1
LONG_TRANSACTION
  2
AcDbLongTransaction
  3
AutoCAD 2000
 90
    32768
280
     0
281
     0
  0
CLASS
  1
LWPOLYLINE
  2
AcDbPolyline
  3
AutoCAD 2000
 90
    32768
280
     0
281
     1
  0
CLASS
  1
HATCH
  2
AcDbHatch
  3
AutoCAD 2000
 90
    32768
280
     0
281
     1
  0
CLASS
  1
XRECORD
  2
AcDbXrecord
  3
AutoCAD 2000
 90
    32768
280
     0
281
     0
  0
CLASS
  1
LONG_TRANSACTION
  2
AcDbLongTransaction
  3
AutoCAD 2000
 90
    32768
280
     0
281
     0
  0
CLASS
  1
LWPOLYLINE
  2
AcDbPolyline
  3
AutoCAD 2000
 90
    32768
280
     0
281
     1
  0
CLASS
  1
HATCH
  2
AcDbHatch
  3
AutoCAD 2000
 90
    32768
280
     0
281
     1
  0
CLASS
  1
XRECORD
  2
AcDbXrecord
  3
AutoCAD 2000
 90
    32768
280
     0
281
     0
  0
CLASS
  1
DICTIONARYVAR
  2
AcDbDictionaryVar
  3
AutoCAD 2000
 90
        0
280
     0
281
     0
  0
ENDSEC
  0
SECTION
  2
TABLES
  0
TABLE
  2
VPORT
  5
8
330
0
100
AcDbSymbolTable
 70
     2
  0
VPORT
  5
16D0
330
8
100
AcDbSymbolTableRecord
100
AcDbViewportTableRecord
  2
*Active
 70
     0
 10
0.0
 20
0.0
 11
1.0
 21
1.0
 12
2780.374764647017
 22
58.22292918979679
 13
0.0
 23
0.0
 14
10.0
 24
10.0
 15
10.0
 25
10.0
 16
0.0
 26
0.0
 36
1.0
 17
0.0
 27
0.0
 37
0.0
 40
1425.321739053295
 41
2.229559748427672
 42
50.0
 43
0.0
 44
0.0
 50
0.0
 51
0.0
 71
     0
 72
   100
 73
     1
 74
     3
 75
     0
 76
     0
 77
     0
 78
     0
281
     0
 65
     1
110
0.0
120
0.0
130
0.0
111
1.0
121
0.0
131
0.0
112
0.0
122
1.0
132
0.0
 79
     0
146
0.0
  0
ENDTAB
  0
TABLE
  2
LTYPE
  5
5
330
0
100
AcDbSymbolTable
 70
     4
  0
LTYPE
  5
14
330
5
100
AcDbSymbolTableRecord
100
AcDbLinetypeTableRecord
  2
ByBlock
 70
     0
  3

 72
    65
 73
     0
 40
0.0
  0
LTYPE
  5
15
330
5
100
AcDbSymbolTableRecord
100
AcDbLinetypeTableRecord
  2
ByLayer
 70
     0
  3

 72
    65
 73
     0
 40
0.0
  0
LTYPE
  5
16
330
5
100
AcDbSymbolTableRecord
100
AcDbLinetypeTableRecord
  2
Continuous
 70
     0
  3
Solid line
 72
    65
 73
     0
 40
0.0
  0
LTYPE
  5
33
330
5
100
AcDbSymbolTableRecord
100
AcDbLinetypeTableRecord
  2
IZOLACE
 70
     0
  3
Izolace SSSSSSSSSSSSSSSSSSSSSSSSSSSSSSSSSSSSSSS
 72
    65
 73
     4
 40
10.16253999999999
 49
0.00254
 74
     0
 49
-2.54
 74
     4
 75
   134
340
3D
 46
2.54
 50
0.0
 44
-2.54
 45
0.0
 49
-5.08
 74
     4
 75
   134
340
3D
 46
2.54
 50
180.0
 44
2.54
 45
0.0
 49
-2.54
 74
     0
  0
LTYPE
  5
34
330
5
100
AcDbSymbolTableRecord
100
AcDbLinetypeTableRecord
  2
DASHED
 70
     0
  3
Dashed __ __ __ __ __ __ __ __ __ __ __ __ __ _
 72
    65
 73
     2
 40
19.04999999999999
 49
12.7
 74
     0
 49
-6.349999999999999
 74
     0
  0
LTYPE
  5
35
330
5
100
AcDbSymbolTableRecord
100
AcDbLinetypeTableRecord
  2
DASHDOT2
 70
     0
  3
Dash dot (.5x) _._._._._._._._._._._._._._._.
 72
    65
 73
     4
 40
12.7
 49
6.349999999999999
 74
     0
 49
-3.174999999999999
 74
     0
 49
0.0
 74
     0
 49
-3.174999999999999
 74
     0
  0
ENDTAB
  0
TABLE
  2
LAYER
  5
2
330
0
100
AcDbSymbolTable
 70
     8
  0
LAYER
  5
10
330
2
100
AcDbSymbolTableRecord
100
AcDbLayerTableRecord
  2
0
 70
     0
 62
     7
  6
Continuous
370
    -3
390
F
  0
LAYER
  5
36
330
2
100
AcDbSymbolTableRecord
100
AcDbLayerTableRecord
  2
POPIS
 70
     0
 62
    30
  6
Continuous
370
    -3
390
F
  0
LAYER
  5
37
330
2
100
AcDbSymbolTableRecord
100
AcDbLayerTableRecord
  2
SPOJOVACÍ
 70
     0
 62
   180
  6
Continuous
370
    -3
390
F
  0
LAYER
  5
38
330
2
100
AcDbSymbolTableRecord
100
AcDbLayerTableRecord
  2
CETRIS
 70
     0
 62
     1
  6
Continuous
370
    -3
390
F
  0
LAYER
  5
39
330
2
100
AcDbSymbolTableRecord
100
AcDbLayerTableRecord
  2
NOSNÉ KONSTRUKCE
 70
     0
 62
    33
  6
Continuous
370
    -3
390
F
  0
LAYER
  5
3A
330
2
100
AcDbSymbolTableRecord
100
AcDbLayerTableRecord
  2
PROFILY
 70
     0
 62
    73
  6
Continuous
370
    -3
390
F
  0
LAYER
  5
3B
330
2
100
AcDbSymbolTableRecord
100
AcDbLayerTableRecord
  2
STAVBA OBRYS
 70
     0
 62
     6
  6
Continuous
370
    -3
390
F
  0
LAYER
  5
5FD
330
2
100
AcDbSymbolTableRecord
100
AcDbLayerTableRecord
  2
Defpoints
 70
     0
 62
     7
  6
Continuous
290
     0
370
    -3
390
F
  0
ENDTAB
  0
TABLE
  2
STYLE
  5
3
330
0
100
AcDbSymbolTable
 70
     3
  0
STYLE
  5
11
330
3
100
AcDbSymbolTableRecord
100
AcDbTextStyleTableRecord
  2
Standard
 70
     0
 40
0.0
 41
1.0
 50
0.0
 71
     0
 42
2.5
  3
txt
  4

  0
STYLE
  5
3C
330
3
100
AcDbSymbolTableRecord
100
AcDbTextStyleTableRecord
  2
SIMPLEX7
 70
     0
 40
0.0
 41
0.85
 50
0.0
 71
     0
 42
102.0
  3
ARIAL.TTF
  4

1001
ACAD
1000
Arial CE
1071
    60962
  0
STYLE
  5
3D
330
3
100
AcDbSymbolTableRecord
100
AcDbTextStyleTableRecord
  2

 70
     1
 40
0.0
 41
1.0
 50
0.0
 71
     0
 42
2.5
  3
ltypeshp.shx
  4

  0
ENDTAB
  0
TABLE
  2
VIEW
  5
6
330
0
100
AcDbSymbolTable
 70
     0
  0
ENDTAB
  0
TABLE
  2
UCS
  5
7
330
0
100
AcDbSymbolTable
 70
     0
  0
ENDTAB
  0
TABLE
  2
APPID
  5
9
330
0
100
AcDbSymbolTable
 70
     1
  0
APPID
  5
12
330
9
100
AcDbSymbolTableRecord
100
AcDbRegAppTableRecord
  2
ACAD
 70
     0
  0
ENDTAB
  0
TABLE
  2
DIMSTYLE
  5
A
330
0
100
AcDbSymbolTable
 70
     1
100
AcDbDimStyleTable
 71
     0
  0
DIMSTYLE
105
27
330
A
100
AcDbSymbolTableRecord
100
AcDbDimStyleTableRecord
  2
ISO-25
 70
     0
 41
2.5
 42
0.625
 43
3.75
 44
1.25
 73
     0
 74
     0
 77
     1
 78
     8
140
2.5
141
2.5
143
0.03937007874016
147
0.625
171
     3
172
     1
271
     2
272
     2
274
     3
278
    44
283
     0
284
     8
340
11
  0
ENDTAB
  0
TABLE
  2
BLOCK_RECORD
  5
1
330
0
100
AcDbSymbolTable
 70
     3
  0
BLOCK_RECORD
  5
1F
102
{ACAD_XDICTIONARY
360
B56
102
}
330
1
100
AcDbSymbolTableRecord
100
AcDbBlockTableRecord
  2
*Model_Space
340
22
  0
BLOCK_RECORD
  5
1B
102
{ACAD_XDICTIONARY
360
B58
102
}
330
1
100
AcDbSymbolTableRecord
100
AcDbBlockTableRecord
  2
*Paper_Space
340
1E
  0
BLOCK_RECORD
  5
23
102
{ACAD_XDICTIONARY
360
B5A
102
}
330
1
100
AcDbSymbolTableRecord
100
AcDbBlockTableRecord
  2
*Paper_Space0
340
26
  0
BLOCK_RECORD
  5
2B
330
1
100
AcDbSymbolTableRecord
100
AcDbBlockTableRecord
  2
E_PUNKT
340
0
102
{BLKREFS
331
13EC
331
13EF
331
13F0
331
1608
331
1609
331
160A
331
160B
331
164C
331
16C1
102
}
  0
BLOCK_RECORD
  5
1697
330
1
100
AcDbSymbolTableRecord
100
AcDbBlockTableRecord
  2
_ArchTick
340
0
102
{BLKREFS
331
16B3
331
16B5
331
16B8
331
16B9
102
}
  0
ENDTAB
  0
ENDSEC
  0
SECTION
  2
BLOCKS
  0
BLOCK
  5
20
330
1F
100
AcDbEntity
  8
0
100
AcDbBlockBegin
  2
*Model_Space
 70
     0
 10
0.0
 20
0.0
 30
0.0
  3
*Model_Space
  1

  0
ENDBLK
  5
21
330
1F
100
AcDbEntity
  8
0
100
AcDbBlockEnd
  0
BLOCK
  5
1C
330
1B
100
AcDbEntity
 67
     1
  8
0
100
AcDbBlockBegin
  2
*Paper_Space
 70
     0
 10
0.0
 20
0.0
 30
0.0
  3
*Paper_Space
  1

  0
ENDBLK
  5
1D
330
1B
100
AcDbEntity
 67
     1
  8
0
100
AcDbBlockEnd
  0
BLOCK
  5
24
330
23
100
AcDbEntity
  8
0
100
AcDbBlockBegin
  2
*Paper_Space0
 70
     0
 10
0.0
 20
0.0
 30
0.0
  3
*Paper_Space0
  1

  0
ENDBLK
  5
25
330
23
100
AcDbEntity
  8
0
100
AcDbBlockEnd
  0
BLOCK
  5
2D
330
2B
100
AcDbEntity
  8
0
100
AcDbBlockBegin
  2
E_PUNKT
 70
     0
 10
0.0
 20
0.0
 30
0.0
  3
E_PUNKT
  1

  0
LWPOLYLINE
  5
2C
330
2B
100
AcDbEntity
  8
POPIS
100
AcDbPolyline
 90
        2
 70
     1
 43
2.5
 10
1.27761037562675
 20
0.0290683308725193
 42
-1.0
 10
-1.222389624373249
 20
0.0290683308725193
 42
-1.0
  0
ENDBLK
  5
2E
330
2B
100
AcDbEntity
  8
0
100
AcDbBlockEnd
  0
BLOCK
  5
1699
330
1697
100
AcDbEntity
  8
0
100
AcDbBlockBegin
  2
_ArchTick
 70
     0
 10
0.0
 20
0.0
 30
0.0
  3
_ArchTick
  1

  0
LWPOLYLINE
  5
1698
330
1697
100
AcDbEntity
  8
0
  6
ByBlock
 62
     0
100
AcDbPolyline
 90
        2
 70
     0
 43
0.15
 10
-0.5
 20
-0.5
 10
0.5
 20
0.5
  0
ENDBLK
  5
169A
330
1697
100
AcDbEntity
  8
0
100
AcDbBlockEnd
  0
ENDSEC
  0
SECTION
  2
ENTITIES
  0
LINE
  5
13CB
330
1F
100
AcDbEntity
  8
PROFILY
100
AcDbLine
 10
2649.353039165398
 20
49.90044668708105
 30
0.0
 11
2629.847014541341
 21
49.90044668708105
 31
0.0
  0
LINE
  5
13CC
330
1F
100
AcDbEntity
  8
PROFILY
100
AcDbLine
 10
2888.354881589068
 20
-514.7004093802852
 30
0.0
 11
2890.695978918797
 21
-514.7004093802852
 31
0.0
  0
LINE
  5
13CD
330
1F
100
AcDbEntity
  8
PROFILY
100
AcDbLine
 10
2890.695978918797
 20
-543.4834893574616
 30
0.0
 11
2890.695978918797
 21
-514.7004093802852
 31
0.0
  0
LINE
  5
13CE
330
1F
100
AcDbEntity
  8
PROFILY
100
AcDbLine
 10
2888.354881589068
 20
-541.5063949739874
 30
0.0
 11
2888.354881589068
 21
-514.7004093802852
 31
0.0
  0
LINE
  5
13CF
330
1F
100
AcDbEntity
  8
PROFILY
100
AcDbLine
 10
2864.57522890636
 20
-547.5825160132562
 30
0.0
 11
2864.57522890636
 21
-562.5620470072171
 31
0.0
  0
LINE
  5
13D0
330
1F
100
AcDbEntity
  8
PROFILY
100
AcDbLine
 10
2862.13772890636
 20
-545.4828378730566
 30
0.0
 11
2862.13772890636
 21
-566.5156767757411
 31
0.0
  0
LINE
  5
13D1
330
1F
100
AcDbEntity
  8
PROFILY
100
AcDbLine
 10
2864.57522890636
 20
-547.5825160132562
 30
0.0
 11
2890.695978918797
 21
-543.4834893574616
 31
0.0
  0
LINE
  5
13D2
330
1F
100
AcDbEntity
  8
PROFILY
100
AcDbLine
 10
2862.13772890636
 20
-545.4828378730566
 30
0.0
 11
2888.354881589068
 21
-541.5063949739874
 31
0.0
  0
LINE
  5
13D3
330
1F
100
AcDbEntity
  8
PROFILY
100
AcDbLine
 10
2864.57522890636
 20
-562.5620470072171
 30
0.0
 11
2870.967259246659
 21
-556.0997419737686
 31
0.0
  0
LINE
  5
13D4
330
1F
100
AcDbEntity
  8
PROFILY
100
AcDbLine
 10
2863.527885459593
 20
-567.0870515708716
 30
0.0
 11
2872.70022890636
 21
-557.8138663591476
 31
0.0
  0
LINE
  5
13D5
330
1F
100
AcDbEntity
  8
PROFILY
100
AcDbLine
 10
2872.70022890636
 20
-557.8138663591476
 30
0.0
 11
2870.967259246659
 21
-556.0997419737686
 31
0.0
  0
HATCH
  5
13D6
330
1F
100
AcDbEntity
  8
PROFILY
100
AcDbHatch
 10
0.0
 20
0.0
 30
0.0
210
0.0
220
0.0
230
1.0
  2
SOLID
 70
     1
 71
     0
 91
        1
 92
        7
 72
     1
 73
     1
 93
       11
 10
2888.354881589068
 20
-541.5063949739869
 42
0.0
 10
2862.137728906361
 20
-545.4828378730566
 42
0.0
 10
2862.13772890636
 20
-566.5156767757411
 42
0.6701573805511034
 10
2863.527885459594
 20
-567.0870515708697
 42
0.0
 10
2872.700228906358
 20
-557.8138663591484
 42
0.0
 10
2870.967259246659
 20
-556.0997419737695
 42
0.0
 10
2864.575228906358
 20
-562.5620470072185
 42
0.0
 10
2864.57522890636
 20
-547.5825160132567
 42
0.0
 10
2890.695978918797
 20
-543.4834893574612
 42
0.0
 10
2890.695978918797
 20
-514.7004093802852
 42
0.0
 10
2888.354881589068
 20
-514.7004093802852
 42
0.0
 97
        0
 75
     0
 76
     1
 47
0.1939792635575993
 98
        1
 10
2889.197364450451
 20
-527.5231184295503
  0
HATCH
  5
13D7
330
1F
100
AcDbEntity
  8
PROFILY
100
AcDbHatch
 10
0.0
 20
0.0
 30
0.0
210
0.0
220
0.0
230
1.0
  2
SOLID
 70
     1
 71
     0
 91
        1
 92
        7
 72
     1
 73
     1
 93
       11
 10
2638.633709006612
 20
27.87162104411118
 42
0.0
 10
2612.416556323905
 20
23.89517814504142
 42
0.0
 10
2612.416556323903
 20
2.862339242356938
 42
0.6701573805511034
 10
2613.806712877138
 20
2.290964447228361
 42
0.0
 10
2622.979056323902
 20
11.56414965894964
 42
0.0
 10
2621.246086664203
 20
13.27827404432855
 42
0.0
 10
2614.854056323902
 20
6.815969010879598
 42
0.0
 10
2614.854056323903
 20
21.79550000484141
 42
0.0
 10
2640.97480633634
 20
25.89452666063698
 42
0.0
 10
2640.97480633634
 20
54.67760663781291
 42
0.0
 10
2638.633709006612
 20
54.67760663781291
 42
0.0
 97
        0
 75
     0
 76
     1
 47
0.1939792635575993
 98
        1
 10
2639.476191867994
 20
41.85489758854783
  0
LINE
  5
13D8
330
1F
100
AcDbEntity
  8
PROFILY
100
AcDbLine
 10
2622.979056323904
 20
11.56414965895055
 30
0.0
 11
2621.246086664203
 21
13.27827404432946
 31
0.0
  0
LINE
  5
13D9
330
1F
100
AcDbEntity
  8
PROFILY
100
AcDbLine
 10
2612.416556323903
 20
23.89517814504142
 30
0.0
 11
2612.416556323903
 21
2.862339242356938
 31
0.0
  0
LINE
  5
13DA
330
1F
100
AcDbEntity
  8
PROFILY
100
AcDbLine
 10
2614.854056323903
 20
21.79550000484187
 30
0.0
 11
2614.854056323903
 21
6.815969010880962
 31
0.0
  0
ARC
  5
13DB
330
1F
100
AcDbEntity
  8
PROFILY
100
AcDbCircle
 10
2613.229056323904
 20
2.862339242356938
 30
0.0
 40
0.8125
100
AcDbArc
 50
180.0
 51
315.3132330916355
  0
LINE
  5
13DC
330
1F
100
AcDbEntity
  8
PROFILY
100
AcDbLine
 10
2613.806712877136
 20
2.290964447226542
 30
0.0
 11
2622.979056323904
 21
11.56414965895055
 31
0.0
  0
LINE
  5
13DD
330
1F
100
AcDbEntity
  8
PROFILY
100
AcDbLine
 10
2614.854056323903
 20
6.815969010880962
 30
0.0
 11
2621.246086664203
 21
13.27827404432946
 31
0.0
  0
LINE
  5
13DE
330
1F
100
AcDbEntity
  8
PROFILY
100
AcDbLine
 10
2612.416556323903
 20
23.89517814504142
 30
0.0
 11
2638.633709006612
 21
27.87162104411072
 31
0.0
  0
LINE
  5
13DF
330
1F
100
AcDbEntity
  8
PROFILY
100
AcDbLine
 10
2614.854056323903
 20
21.79550000484187
 30
0.0
 11
2640.97480633634
 21
25.89452666063653
 31
0.0
  0
LINE
  5
13E0
330
1F
100
AcDbEntity
  8
PROFILY
100
AcDbLine
 10
2638.633709006612
 20
27.87162104411072
 30
0.0
 11
2638.633709006612
 21
54.67760663781291
 31
0.0
  0
LINE
  5
13E1
330
1F
100
AcDbEntity
  8
PROFILY
100
AcDbLine
 10
2640.97480633634
 20
25.89452666063653
 30
0.0
 11
2640.97480633634
 21
54.67760663781291
 31
0.0
  0
LINE
  5
13E2
330
1F
100
AcDbEntity
  8
PROFILY
100
AcDbLine
 10
2638.633709006612
 20
54.67760663781291
 30
0.0
 11
2640.97480633634
 21
54.67760663781291
 31
0.0
  0
LINE
  5
13E3
330
1F
100
AcDbEntity
  8
STAVBA OBRYS
100
AcDbLine
 10
2625.708199514003
 20
16.32381160604381
 30
0.0
 11
2762.654223502202
 21
16.32381160604109
 31
0.0
  0
LINE
  5
13E4
330
1F
100
AcDbEntity
  8
STAVBA OBRYS
100
AcDbLine
 10
2625.708199514003
 20
16.32381160604381
 30
0.0
 11
2625.708199514003
 21
-51.09437970273257
 31
0.0
  0
HATCH
  5
13E5
330
1F
100
AcDbEntity
  8
PROFILY
100
AcDbHatch
 10
0.0
 20
0.0
 30
0.0
210
0.0
220
0.0
230
1.0
  2
SOLID
 70
     1
 71
     0
 91
        3
 92
        7
 72
     0
 73
     1
 93
        4
 10
2698.22451153694
 20
38.7658220663302
 10
2687.575245823209
 20
38.7658220663302
 10
2687.575245823216
 20
37.33105295717632
 10
2698.22451153694
 20
37.33105295717632
 97
        0
 92
        7
 72
     0
 73
     1
 93
        4
 10
2721.777611079011
 20
38.7658220663302
 10
2710.001061307979
 20
38.76582206633111
 10
2710.001061307975
 20
37.33105295717632
 10
2721.777611079011
 20
37.33105295717587
 97
        0
 92
        7
 72
     0
 73
     1
 93
        4
 10
2745.330710621081
 20
38.76582206633065
 10
2733.554160850046
 20
38.76582206633065
 10
2733.554160850046
 20
37.33105295717587
 10
2745.330710621081
 20
37.33105295717541
 97
        0
 75
     0
 76
     1
 47
0.1512241515596127
 98
        3
 10
2691.889954566381
 20
38.37945074777781
 10
2714.585941195408
 20
38.37945074777781
 10
2740.762003431628
 20
38.22822337482466
  0
LWPOLYLINE
  5
13E6
330
1F
100
AcDbEntity
  8
STAVBA OBRYS
  6
DASHED
100
AcDbPolyline
 90
        4
 70
     1
 43
0.0
 10
2762.65422350221
 20
306.9046869954672
 10
2768.027504827063
 20
306.9046869954672
 10
2768.027504827063
 20
357.0242590144898
 10
2762.65422350221
 20
357.0242590144898
  0
LINE
  5
13E7
330
1F
100
AcDbEntity
  8
STAVBA OBRYS
  6
DASHED
100
AcDbLine
 10
2932.186697201247
 20
331.9644730049785
 30
0.0
 11
2928.397836059688
 21
325.4019730049785
 31
0.0
  0
LINE
  5
13E8
330
1F
100
AcDbEntity
  8
STAVBA OBRYS
  6
DASHED
100
AcDbLine
 10
2928.397836059688
 20
325.4019730049785
 30
0.0
 11
2768.027504827063
 21
325.4019730049804
 31
0.0
  0
LINE
  5
13E9
330
1F
100
AcDbEntity
  8
STAVBA OBRYS
  6
DASHED
100
AcDbLine
 10
2928.397836059688
 20
338.5269730049785
 30
0.0
 11
2768.027504827063
 21
338.5269730049803
 31
0.0
  0
LINE
  5
13EA
330
1F
100
AcDbEntity
  8
STAVBA OBRYS
  6
DASHED
100
AcDbLine
 10
2932.186697201247
 20
331.9644730049785
 30
0.0
 11
2928.397836059688
 21
338.5269730049785
 31
0.0
  0
LINE
  5
13EB
330
1F
100
AcDbEntity
  8
STAVBA OBRYS
  6
DASHDOT2
100
AcDbLine
 10
2734.269260325389
 20
331.9644730049803
 30
0.0
 11
2947.045749391487
 21
331.9644730049785
 31
0.0
  0
INSERT
  5
13EC
330
1F
100
AcDbEntity
  8
POPIS
100
AcDbBlockReference
  2
E_PUNKT
 10
2719.827587331052
 20
121.2352031139289
 30
0.0
  0
LINE
  5
13ED
330
1F
100
AcDbEntity
  8
POPIS
100
AcDbLine
 10
2433.714347161429
 20
120.6220006831481
 30
0.0
 11
2720.423251980995
 21
120.6220006831472
 31
0.0
  0
TEXT
  5
13EE
330
1F
100
AcDbEntity
  8
POPIS
100
AcDbText
 10
2393.73686081816
 20
107.1786592337775
 30
0.0
 40
25.0
  1
06
 41
0.7
  7
SIMPLEX7
100
AcDbText
  0
INSERT
  5
13EF
330
1F
100
AcDbEntity
  8
POPIS
100
AcDbBlockReference
  2
E_PUNKT
 10
2677.618133861356
 20
251.4777150075442
 30
0.0
  0
INSERT
  5
13F0
330
1F
100
AcDbEntity
  8
POPIS
100
AcDbBlockReference
  2
E_PUNKT
 10
2721.153197339492
 20
181.8379415658691
 30
0.0
  0
LINE
  5
13F1
330
1F
100
AcDbEntity
  8
POPIS
100
AcDbLine
 10
2433.714347161429
 20
251.4354055053027
 30
0.0
 11
2678.982810570451
 21
251.4354055053013
 31
0.0
  0
TEXT
  5
13F2
330
1F
100
AcDbEntity
  8
POPIS
100
AcDbText
 10
2393.73686081816
 20
237.9920640559321
 30
0.0
 40
25.0
  1
05
 41
0.7
  7
SIMPLEX7
100
AcDbText
  0
LINE
  5
13F3
330
1F
100
AcDbEntity
  8
POPIS
100
AcDbLine
 10
2433.714347161429
 20
181.902815423773
 30
0.0
 11
2720.965548964723
 21
181.9028154237721
 31
0.0
  0
TEXT
  5
13F4
330
1F
100
AcDbEntity
  8
POPIS
100
AcDbText
 10
2393.73686081816
 20
168.4594739744025
 30
0.0
 40
25.0
  1
07
 41
0.7
  7
SIMPLEX7
100
AcDbText
  0
HATCH
  5
13F5
330
1F
100
AcDbEntity
  8
PROFILY
100
AcDbHatch
 10
0.0
 20
0.0
 30
0.0
210
0.0
220
0.0
230
1.0
  2
SOLID
 70
     1
 71
     0
 91
        1
 92
        7
 72
     0
 73
     1
 93
        4
 10
2678.982810570451
 20
605.9010480629917
 10
2676.982810570447
 20
605.9335195539119
 10
2676.982810570447
 20
599.6712573711143
 10
2678.982810570458
 20
599.6387858801941
 97
        0
 75
     0
 76
     1
 47
0.1026596987000604
 98
        1
 10
2678.354696974951
 20
602.3722945592726
  0
LINE
  5
13F6
330
1F
100
AcDbEntity
  8
PROFILY
100
AcDbLine
 10
2678.982810570454
 20
599.6387858801941
 30
0.0
 11
2676.982810570447
 21
599.6712573711143
 31
0.0
  0
HATCH
  5
13F7
330
1F
100
AcDbEntity
  8
PROFILY
100
AcDbHatch
 10
0.0
 20
0.0
 30
0.0
210
0.0
220
0.0
230
1.0
  2
SOLID
 70
     1
 71
     0
 91
        4
 92
        7
 72
     0
 73
     1
 93
        4
 10
2678.982810570447
 20
469.5139229626392
 10
2676.982810570447
 20
469.5139229626392
 10
2676.982810570447
 20
450.3315678180906
 10
2678.982810570447
 20
450.3315678180906
 97
        0
 92
        7
 72
     0
 73
     1
 93
        4
 10
2678.982810570447
 20
506.3191247466702
 10
2676.982810570447
 20
506.3191247466702
 10
2676.982810570447
 20
487.1367696021215
 10
2678.982810570447
 20
487.1367696021215
 97
        0
 92
        7
 72
     0
 73
     1
 93
        4
 10
2678.982810570447
 20
545.4227714954131
 10
2676.982810570447
 20
545.4227714954131
 10
2676.982810570447
 20
526.2404163508644
 10
2678.982810570447
 20
526.2404163508644
 97
        0
 92
        7
 72
     0
 73
     1
 93
        4
 10
2678.982810570447
 20
581.8340720319929
 10
2676.982810570447
 20
581.8340720319929
 10
2676.982810570447
 20
562.6517168874443
 10
2678.982810570447
 20
562.6517168874443
 97
        0
 75
     0
 76
     1
 47
0.2832868271764444
 98
        4
 10
2677.516702333367
 20
460.4128748687749
 10
2677.800207120835
 20
497.8067695037411
 10
2678.083634278304
 20
533.5008914962477
 10
2678.083634278304
 20
573.444349138454
  0
HATCH
  5
13F8
330
1F
100
AcDbEntity
  8
PROFILY
100
AcDbHatch
 10
0.0
 20
0.0
 30
0.0
210
0.0
220
0.0
230
1.0
  2
SOLID
 70
     1
 71
     0
 91
        4
 92
        7
 72
     0
 73
     1
 93
        4
 10
2678.982810570447
 20
320.185960054684
 10
2676.982810570447
 20
320.185960054684
 10
2676.982810570447
 20
301.0036049101354
 10
2678.982810570447
 20
301.0036049101354
 97
        0
 92
        7
 72
     0
 73
     1
 93
        4
 10
2678.982810570447
 20
356.991161838715
 10
2676.982810570447
 20
356.991161838715
 10
2676.982810570447
 20
337.8088066941663
 10
2678.982810570447
 20
337.8088066941663
 97
        0
 92
        7
 72
     0
 73
     1
 93
        4
 10
2678.982810570447
 20
396.0948085874579
 10
2676.982810570447
 20
396.0948085874579
 10
2676.982810570447
 20
376.9124534429092
 10
2678.982810570447
 20
376.9124534429092
 97
        0
 92
        7
 72
     0
 73
     1
 93
        4
 10
2678.982810570447
 20
432.5061091240377
 10
2676.982810570447
 20
432.5061091240377
 10
2676.982810570447
 20
413.323753979489
 10
2678.982810570447
 20
413.323753979489
 97
        0
 75
     0
 76
     1
 47
0.2832868271764444
 98
        4
 10
2677.516702333367
 20
311.0849119608197
 10
2677.800207120835
 20
348.4788065957859
 10
2678.083634278304
 20
384.1729285882925
 10
2678.083634278304
 20
424.1163862304988
  0
LINE
  5
13F9
330
1F
100
AcDbEntity
  8
PROFILY
100
AcDbLine
 10
2745.330710621081
 20
38.76582206633247
 30
0.0
 11
2745.330710621081
 21
37.33105295717905
 31
0.0
  0
LINE
  5
13FA
330
1F
100
AcDbEntity
  8
PROFILY
100
AcDbLine
 10
2733.554160850046
 20
38.76582206633156
 30
0.0
 11
2733.554160850046
 21
37.33105295717814
 31
0.0
  0
LINE
  5
13FB
330
1F
100
AcDbEntity
  8
PROFILY
100
AcDbLine
 10
2721.777611079011
 20
38.76582206633065
 30
0.0
 11
2721.777611079011
 21
37.33105295717723
 31
0.0
  0
LINE
  5
13FC
330
1F
100
AcDbEntity
  8
PROFILY
100
AcDbLine
 10
2710.001061307975
 20
38.76582206633065
 30
0.0
 11
2710.001061307975
 21
37.33105295717723
 31
0.0
  0
LINE
  5
13FD
330
1F
100
AcDbEntity
  8
PROFILY
100
AcDbLine
 10
2698.22451153694
 20
38.76582206633065
 30
0.0
 11
2698.22451153694
 21
37.33105295717723
 31
0.0
  0
LINE
  5
13FE
330
1F
100
AcDbEntity
  8
PROFILY
100
AcDbLine
 10
2687.575245823213
 20
38.76582206633065
 30
0.0
 11
2687.575245823213
 21
37.33105295717723
 31
0.0
  0
LINE
  5
13FF
330
1F
100
AcDbEntity
  8
STAVBA OBRYS
100
AcDbLine
 10
2679.439838050086
 20
38.76582206633065
 30
0.0
 11
2679.439838050104
 21
605.8936278811638
 31
0.0
  0
HATCH
  5
1400
330
1F
100
AcDbEntity
  8
PROFILY
100
AcDbHatch
 10
0.0
 20
0.0
 30
0.0
210
0.0
220
0.0
230
1.0
  2
SOLID
 70
     1
 71
     0
 91
        4
 92
        7
 72
     0
 73
     1
 93
        4
 10
2678.982810570447
 20
170.8386619210678
 10
2676.982810570447
 20
170.8386619210678
 10
2676.982810570447
 20
151.6563067765191
 10
2678.982810570447
 20
151.6563067765191
 97
        0
 92
        7
 72
     0
 73
     1
 93
        4
 10
2678.982810570447
 20
207.6438637050987
 10
2676.982810570447
 20
207.6438637050987
 10
2676.982810570447
 20
188.4615085605501
 10
2678.982810570447
 20
188.4615085605501
 97
        0
 92
        7
 72
     0
 73
     1
 93
        4
 10
2678.982810570447
 20
246.7475104538416
 10
2676.982810570447
 20
246.7475104538416
 10
2676.982810570447
 20
227.5651553092929
 10
2678.982810570447
 20
227.5651553092929
 97
        0
 92
        7
 72
     0
 73
     1
 93
        4
 10
2678.982810570447
 20
283.1588109904214
 10
2676.982810570447
 20
283.1588109904214
 10
2676.982810570447
 20
263.9764558458728
 10
2678.982810570447
 20
263.9764558458728
 97
        0
 75
     0
 76
     1
 47
0.2832868271764444
 98
        4
 10
2677.516702333367
 20
161.7376138272033
 10
2677.800207120835
 20
199.1315084621696
 10
2678.083634278304
 20
234.8256304546762
 10
2678.083634278304
 20
274.7690880968825
  0
LWPOLYLINE
  5
1401
330
1F
100
AcDbEntity
  8
PROFILY
100
AcDbPolyline
 90
        4
 70
     1
 43
0.0
 10
2678.982810570447
 20
64.38845706856501
 10
2678.982810570447
 20
45.20610192401636
 10
2676.982810570447
 20
45.20610192401636
 10
2676.982810570447
 20
64.38845706856501
  0
HATCH
  5
1402
330
1F
100
AcDbEntity
  8
PROFILY
100
AcDbHatch
 10
0.0
 20
0.0
 30
0.0
210
0.0
220
0.0
230
1.0
  2
SOLID
 70
     1
 71
     0
 91
        4
 92
        7
 72
     0
 73
     1
 93
        4
 10
2678.982810570447
 20
64.38845706856501
 10
2676.982810570447
 20
64.38845706856501
 10
2676.982810570447
 20
45.20610192401636
 10
2678.982810570447
 20
45.20610192401636
 97
        0
 92
        7
 72
     0
 73
     1
 93
        4
 10
2678.982810570447
 20
100.2033769147701
 10
2676.982810570447
 20
100.2033769147701
 10
2676.982810570443
 20
88.92550220266457
 10
2678.982810570451
 20
88.92550220266457
 97
        0
 92
        7
 72
     1
 73
     1
 93
        7
 10
2678.982810570447
 20
88.92550220266457
 42
0.0
 10
2676.982810570447
 20
88.92550220266457
 42
0.0
 10
2676.982810570447
 20
84.36826208597722
 42
-0.486313530282424
 10
2678.529645132177
 20
83.15401777655598
 42
-0.4863135302824241
 10
2676.982810570447
 20
81.93977346713472
 42
0.0
 10
2676.982810570447
 20
81.02102177022151
 42
0.0
 10
2678.982810570447
 20
81.02102177022151
 42
0.0
 97
        0
 92
        7
 72
     0
 73
     1
 93
        4
 10
2678.982810570447
 20
136.0182967609753
 10
2676.982810570447
 20
136.0182967609753
 10
2676.982810570447
 20
116.8359416164266
 10
2678.982810570447
 20
116.8359416164266
 97
        0
 75
     0
 76
     1
 47
0.2023988941542929
 98
        4
 10
2678.44461381328
 20
53.14460537986679
 10
2678.242077123654
 20
92.81477903846326
 10
2678.242077123654
 20
86.33800620068587
 10
2678.242077123654
 20
120.7458319149832
  0
LINE
  5
1403
330
1F
100
AcDbEntity
  8
PROFILY
100
AcDbLine
 10
2678.982810570454
 20
605.9010480629917
 30
0.0
 11
2678.982810570447
 21
38.76582206633111
 31
0.0
  0
LINE
  5
1404
330
1F
100
AcDbEntity
  8
PROFILY
100
AcDbLine
 10
2676.982810570447
 20
605.9335195539119
 30
0.0
 11
2676.982810570443
 21
38.76582206633065
 31
0.0
  0
LINE
  5
1405
330
1F
100
AcDbEntity
  8
SPOJOVACÍ
100
AcDbLine
 10
2797.042161008295
 20
90.44758008754433
 30
0.0
 11
2797.876221061571
 21
87.33482559215373
 31
0.0
  0
LINE
  5
1406
330
1F
100
AcDbEntity
  8
SPOJOVACÍ
100
AcDbLine
 10
2795.141407097104
 20
90.5436949926152
 30
0.0
 11
2796.03739761755
 21
87.19981284719507
 31
0.0
  0
LINE
  5
1407
330
1F
100
AcDbEntity
  8
SPOJOVACÍ
100
AcDbLine
 10
2780.001037969661
 20
91.06755970803533
 30
0.0
 11
2781.234852010388
 21
86.46290302096531
 31
0.0
  0
LINE
  5
1408
330
1F
100
AcDbEntity
  8
SPOJOVACÍ
100
AcDbLine
 10
2781.855664830753
 20
91.14359329755462
 30
0.0
 11
2782.953097764493
 21
87.04791783093879
 31
0.0
  0
LINE
  5
1409
330
1F
100
AcDbEntity
  8
SPOJOVACÍ
100
AcDbLine
 10
2783.71287926863
 20
91.2099699190403
 30
0.0
 11
2784.950933668911
 21
86.58948799464724
 31
0.0
  0
LINE
  5
140A
330
1F
100
AcDbEntity
  8
SPOJOVACÍ
100
AcDbLine
 10
2791.316645368683
 20
90.82270956154207
 30
0.0
 11
2792.352136983248
 21
86.95820224515774
 31
0.0
  0
LINE
  5
140B
330
1F
100
AcDbEntity
  8
SPOJOVACÍ
100
AcDbLine
 10
2789.413766097692
 20
90.92675641734969
 30
0.0
 11
2790.505683953194
 21
86.85166350293911
 31
0.0
  0
LINE
  5
140C
330
1F
100
AcDbEntity
  8
SPOJOVACÍ
100
AcDbLine
 10
2787.513674832367
 20
91.02039829436762
 30
0.0
 11
2788.649754609348
 21
86.7804908452199
 31
0.0
  0
LINE
  5
140D
330
1F
100
AcDbEntity
  8
SPOJOVACÍ
100
AcDbLine
 10
2785.616357152878
 20
91.10368900812137
 30
0.0
 11
2786.805090979211
 21
86.66727397158684
 31
0.0
  0
LINE
  5
140E
330
1F
100
AcDbEntity
  8
SPOJOVACÍ
100
AcDbLine
 10
2793.302123185825
 20
90.410400734836
 30
0.0
 11
2794.196038856589
 21
87.07426203388058
 31
0.0
  0
LINE
  5
140F
330
1F
100
AcDbEntity
  8
SPOJOVACÍ
  6
DASHED
100
AcDbLine
 10
2824.24136494453
 20
88.92550220266548
 30
0.0
 11
2820.452503802975
 21
95.48800220266457
 31
0.0
  0
LINE
  5
1410
330
1F
100
AcDbEntity
  8
SPOJOVACÍ
  6
DASHED
100
AcDbLine
 10
2814.86636494453
 20
88.9255022026664
 30
0.0
 11
2812.232204341351
 21
93.48800220266548
 31
0.0
  0
LINE
  5
1411
330
1F
100
AcDbEntity
  8
SPOJOVACÍ
100
AcDbLine
 10
2798.956344017129
 20
90.30134710777929
 30
0.0
 11
2799.72199696118
 21
87.44389141963166
 31
0.0
  0
LINE
  5
1412
330
1F
100
AcDbEntity
  8
SPOJOVACÍ
100
AcDbLine
 10
2800.873392842037
 20
90.14441875682313
 30
0.0
 11
2801.546291956631
 21
87.63312507279534
 31
0.0
  0
LINE
  5
1413
330
1F
100
AcDbEntity
  8
SPOJOVACÍ
100
AcDbLine
 10
2802.793324247985
 20
89.97673246697742
 30
0.0
 11
2803.377553784532
 21
87.79635815330038
 31
0.0
  0
LINE
  5
1414
330
1F
100
AcDbEntity
  8
SPOJOVACÍ
100
AcDbLine
 10
2804.716155422622
 20
89.79822409303961
 30
0.0
 11
2805.206309055509
 21
87.96894583159701
 31
0.0
  0
LINE
  5
1415
330
1F
100
AcDbEntity
  8
SPOJOVACÍ
100
AcDbLine
 10
2808.570588002501
 20
89.40847639897402
 30
0.0
 11
2808.856326097975
 21
88.34208730901536
 31
0.0
  0
LINE
  5
1416
330
1F
100
AcDbEntity
  8
SPOJOVACÍ
100
AcDbLine
 10
2810.502225988519
 20
89.19710055752693
 30
0.0
 11
2810.677600382827
 21
88.54259440761053
 31
0.0
  0
LINE
  5
1417
330
1F
100
AcDbEntity
  8
SPOJOVACÍ
100
AcDbLine
 10
2812.43683692675
 20
88.97462950734189
 30
0.0
 11
2812.496393142846
 21
88.75236268296067
 31
0.0
  0
LINE
  5
1418
330
1F
100
AcDbEntity
  8
SPOJOVACÍ
100
AcDbLine
 10
2806.641903986314
 20
89.60882787494483
 30
0.0
 11
2807.032564369885
 21
88.15086347495343
 31
0.0
  0
LINE
  5
1419
330
1F
100
AcDbEntity
  8
SPOJOVACÍ
  6
DASHED
100
AcDbLine
 10
2814.86636494453
 20
88.92550220266548
 30
0.0
 11
2812.232204341348
 21
84.36300220265911
 31
0.0
  0
LINE
  5
141A
330
1F
100
AcDbEntity
  8
SPOJOVACÍ
  6
DASHED
100
AcDbLine
 10
2824.24136494453
 20
88.92550220266548
 30
0.0
 11
2820.452503802971
 21
82.36300220266548
 31
0.0
  0
LINE
  5
141B
330
1F
100
AcDbEntity
  8
SPOJOVACÍ
100
AcDbLine
 10
2778.054546409981
 20
91.33436984106721
 30
0.0
 11
2779.372908697892
 21
86.41417479980464
 31
0.0
  0
LINE
  5
141C
330
1F
100
AcDbEntity
  8
SPOJOVACÍ
100
AcDbLine
 10
2776.170892774294
 20
91.36666564912685
 30
0.0
 11
2777.50835062809
 21
86.3752049857867
 31
0.0
  0
LINE
  5
141D
330
1F
100
AcDbEntity
  8
SPOJOVACÍ
100
AcDbLine
 10
2774.289933553609
 20
91.38890576349968
 30
0.0
 11
2775.641167623438
 21
86.34603156197409
 31
0.0
  0
LINE
  5
141E
330
1F
100
AcDbEntity
  8
SPOJOVACÍ
100
AcDbLine
 10
2772.41165671348
 20
91.40113509734147
 30
0.0
 11
2773.77134921971
 21
86.3266935814163
 31
0.0
  0
LINE
  5
141F
330
1F
100
AcDbEntity
  8
SPOJOVACÍ
100
AcDbLine
 10
2770.536050534236
 20
91.4033973890946
 30
0.0
 11
2771.898884660961
 21
86.3172311858616
 31
0.0
  0
LINE
  5
1420
330
1F
100
AcDbEntity
  8
SPOJOVACÍ
100
AcDbLine
 10
2768.663103605122
 20
91.39573522423871
 30
0.0
 11
2770.023762894314
 21
86.31768562517573
 31
0.0
  0
LINE
  5
1421
330
1F
100
AcDbEntity
  8
SPOJOVACÍ
100
AcDbLine
 10
2763.060108728412
 20
91.31361098608522
 30
0.0
 11
2764.382339249958
 21
86.37897950036858
 31
0.0
  0
LINE
  5
1422
330
1F
100
AcDbEntity
  8
SPOJOVACÍ
100
AcDbLine
 10
2764.917804818706
 20
91.37819005628808
 30
0.0
 11
2766.265502008729
 21
86.34851566989345
 31
0.0
  0
LINE
  5
1423
330
1F
100
AcDbEntity
  8
SPOJOVACÍ
100
AcDbLine
 10
2766.792804818706
 20
91.37819005628808
 30
0.0
 11
2768.145972564594
 21
86.32809927745801
 31
0.0
  0
LINE
  5
1424
330
1F
100
AcDbEntity
  8
SPOJOVACÍ
100
AcDbLine
 10
2767.090368396337
 20
90.26766766608034
 30
0.0
 11
2767.728766370444
 21
87.88513399125987
 31
0.0
  0
LINE
  5
1425
330
1F
100
AcDbEntity
  8
SPOJOVACÍ
100
AcDbLine
 10
2765.25613537696
 20
90.11552322312672
 30
0.0
 11
2765.822305208163
 21
88.00254864735871
 31
0.0
  0
LINE
  5
1426
330
1F
100
AcDbEntity
  8
SPOJOVACÍ
100
AcDbLine
 10
2763.424417015503
 20
89.9539939490387
 30
0.0
 11
2763.91508040619
 21
88.12281324557716
 31
0.0
  0
LINE
  5
1427
330
1F
100
AcDbEntity
  8
SPOJOVACÍ
100
AcDbLine
 10
2759.337879268631
 20
91.2099699190403
 30
0.0
 11
2760.607887611961
 21
86.47023425569205
 31
0.0
  0
LINE
  5
1428
330
1F
100
AcDbEntity
  8
SPOJOVACÍ
100
AcDbLine
 10
2761.167804818706
 20
91.37819005628808
 30
0.0
 11
2762.496471991817
 21
86.41953665986875
 31
0.0
  0
LWPOLYLINE
  5
1429
330
1F
100
AcDbEntity
  8
STAVBA OBRYS
100
AcDbPolyline
 90
        2
 70
     0
 43
0.0
 10
2762.654223502202
 20
95.96259963528883
 42
-0.0020939004487291
 10
2762.145153265413
 20
95.10487619229389
  0
LINE
  5
142A
330
1F
100
AcDbEntity
  8
STAVBA OBRYS
  6
IZOLACE
 48
4.099999999999999
100
AcDbLine
 10
2720.965548964723
 20
138.7658220663306
 30
0.0
 11
2720.965548964723
 21
605.2194270087084
 31
0.0
  0
LINE
  5
142B
330
1F
100
AcDbEntity
  8
SPOJOVACÍ
100
AcDbLine
 10
2709.124126541526
 20
89.21452875904652
 30
0.0
 11
2709.280092504468
 21
88.63245586110133
 31
0.0
  0
LINE
  5
142C
330
1F
100
AcDbEntity
  8
SPOJOVACÍ
100
AcDbLine
 10
2710.945852709989
 20
89.41334940507658
 30
0.0
 11
2711.190383245845
 21
88.50074902125198
 31
0.0
  0
LINE
  5
142D
330
1F
100
AcDbEntity
  8
SPOJOVACÍ
100
AcDbLine
 10
2712.770067421978
 20
89.60288268020121
 30
0.0
 11
2713.179223715818
 21
88.07589060334066
 31
0.0
  0
LINE
  5
142E
330
1F
100
AcDbEntity
  8
SPOJOVACÍ
100
AcDbLine
 10
2714.596776861686
 20
89.78310550474635
 30
0.0
 11
2715.104440434781
 21
87.88847925680057
 31
0.0
  0
LINE
  5
142F
330
1F
100
AcDbEntity
  8
SPOJOVACÍ
100
AcDbLine
 10
2716.425987441038
 20
89.9539939490387
 30
0.0
 11
2717.026743001519
 21
87.71194367438784
 31
0.0
  0
LINE
  5
1430
330
1F
100
AcDbEntity
  8
SPOJOVACÍ
100
AcDbLine
 10
2718.257705802495
 20
90.11552322312672
 30
0.0
 11
2718.946148956962
 21
87.54621839253104
 31
0.0
  0
LINE
  5
1431
330
1F
100
AcDbEntity
  8
SPOJOVACÍ
100
AcDbLine
 10
2720.091938821871
 20
90.26766766608034
 30
0.0
 11
2720.86267541115
 21
87.39123955563446
 31
0.0
  0
LINE
  5
1432
330
1F
100
AcDbEntity
  8
SPOJOVACÍ
100
AcDbLine
 10
2723.767977522639
 20
90.5436949926152
 30
0.0
 11
2724.687156161053
 21
87.11327361281291
 31
0.0
  0
LINE
  5
1433
330
1F
100
AcDbEntity
  8
SPOJOVACÍ
100
AcDbLine
 10
2725.60979815006
 20
90.66752209684
 30
0.0
 11
2726.595142610338
 21
86.99016650811609
 31
0.0
  0
LINE
  5
1434
330
1F
100
AcDbEntity
  8
SPOJOVACÍ
100
AcDbLine
 10
2721.928693611367
 20
90.410400734836
 30
0.0
 11
2722.776339053238
 21
87.24694487895432
 31
0.0
  0
LINE
  5
1435
330
1F
100
AcDbEntity
  8
SPOJOVACÍ
100
AcDbLine
 10
2729.301081164645
 20
90.88665686967033
 30
0.0
 11
2730.402685079083
 21
86.77541509117146
 31
0.0
  0
LINE
  5
1436
330
1F
100
AcDbEntity
  8
SPOJOVACÍ
100
AcDbLine
 10
2727.454163334066
 20
90.78185278661294
 30
0.0
 11
2728.50031388368
 21
86.87756578308199
 31
0.0
  0
LINE
  5
1437
330
1F
100
AcDbEntity
  8
SPOJOVACÍ
100
AcDbLine
 10
2731.15055998498
 20
90.98190320885079
 30
0.0
 11
2732.302270918273
 21
86.68365949015607
 31
0.0
  0
LINE
  5
1438
330
1F
100
AcDbEntity
  8
SPOJOVACÍ
100
AcDbLine
 10
2681.840702065561
 20
102.9880022026627
 30
0.0
 11
2687.594984747215
 21
95.48800220266457
 31
0.0
  0
LINE
  5
1439
330
1F
100
AcDbEntity
  8
SPOJOVACÍ
100
AcDbLine
 10
2681.840702065561
 20
74.86300220266276
 30
0.0
 11
2687.594984747215
 21
82.36300220266093
 31
0.0
  0
LINE
  5
143A
330
1F
100
AcDbEntity
  8
SPOJOVACÍ
100
AcDbLine
 10
2680.85434133658
 20
100.9880022026627
 30
0.0
 11
2686.608624018237
 21
93.48800220266458
 31
0.0
  0
LINE
  5
143B
330
1F
100
AcDbEntity
  8
SPOJOVACÍ
100
AcDbLine
 10
2680.85434133658
 20
76.86300220266275
 30
0.0
 11
2686.608624018237
 21
84.36300220266094
 31
0.0
  0
LWPOLYLINE
  5
143C
330
1F
100
AcDbEntity
  8
NOSNÉ KONSTRUKCE
100
AcDbPolyline
 90
        6
 70
     0
 43
0.0
 10
2720.516369032633
 20
138.9255022026645
 42
-0.0128837512779302
 10
2720.231577072405
 20
135.5923373809182
 42
-0.0351641677647434
 10
2719.603817350882
 20
131.9886279265792
 42
-0.0187319685742942
 10
2716.219801469891
 20
120.2303905844364
 42
-0.0582629403736403
 10
2714.56030160181
 20
116.6505563855043
 42
-0.2042445348716764
 10
2678.982810570454
 20
91.39220819596994
  0
LWPOLYLINE
  5
143D
330
1F
100
AcDbEntity
  8
NOSNÉ KONSTRUKCE
100
AcDbPolyline
 90
        4
 70
     0
 43
0.0
 10
2730.706098636638
 20
138.9255022026645
 42
-0.0135911980674876
 10
2726.986967279412
 20
118.5968090201986
 42
-0.0219777111230329
 10
2726.080854777425
 20
115.0786957643631
 42
-0.2163722049316613
 10
2678.982810570454
 20
82.31843081033366
  0
LWPOLYLINE
  5
143E
330
1F
100
AcDbEntity
  8
NOSNÉ KONSTRUKCE
100
AcDbPolyline
 90
        8
 70
     0
 43
0.0
 10
2711.892153652592
 20
138.9255022026645
 42
-0.0120721047703132
 10
2711.823170962551
 20
137.1916140639205
 42
-0.044358077361292
 10
2711.427543227877
 20
134.4958140455037
 42
-0.0188067511131767
 10
2709.407719779494
 20
127.2535848701973
 42
-0.0457786284636091
 10
2708.199696889878
 20
124.4049744873173
 42
-0.0295006114745606
 10
2705.783636435579
 20
120.4780752739152
 42
-0.0258674098621065
 10
2702.550961121614
 20
116.3322951951613
 42
-0.2409478365688615
 10
2678.982810570454
 20
101.9077477501878
 42
-0.0884720560394402
  0
LWPOLYLINE
  5
143F
330
1F
100
AcDbEntity
  8
NOSNÉ KONSTRUKCE
100
AcDbPolyline
 90
        3
 70
     0
 43
0.0
 10
2685.691208028158
 20
133.4081715071461
 10
2702.446425647886
 20
125.0244306391778
 10
2710.61353029701
 20
116.8431289380805
  0
LWPOLYLINE
  5
1440
330
1F
100
AcDbEntity
  8
NOSNÉ KONSTRUKCE
100
AcDbPolyline
 90
       10
 70
     0
 43
0.0
 10
2703.025094429078
 20
138.9255022026645
 42
-0.0168162630274194
 10
2702.890068850018
 20
137.2344640505452
 42
-0.0575155827655532
 10
2702.210036569671
 20
134.1348393898279
 42
-0.0310289133982999
 10
2699.207235224847
 20
126.8898118651832
 42
-0.0882970623535771
 10
2697.570013304753
 20
124.6494428143833
 42
-0.0171636441953577
 10
2694.756649242892
 20
122.135525459138
 42
-0.0157521173632038
 10
2691.517794405855
 20
119.6040294066315
 42
-0.0073640874174249
 10
2686.884145049535
 20
116.3156279808954
 42
-0.0194185739168057
 10
2685.062101729858
 20
115.1640589816142
 42
-0.0567960585128809
 10
2678.982810570454
 20
112.5121947762381
 42
-0.0229547400386702
  0
LWPOLYLINE
  5
1441
330
1F
100
AcDbEntity
  8
NOSNÉ KONSTRUKCE
100
AcDbPolyline
 90
        2
 70
     0
 43
0.0
 10
2712.613778499955
 20
83.48890771259993
 42
-0.1134617175825293
 10
2678.788691761266
 20
67.54881166969608
  0
LWPOLYLINE
  5
1442
330
1F
100
AcDbEntity
  8
NOSNÉ KONSTRUKCE
100
AcDbPolyline
 90
        3
 70
     0
 43
0.0
 10
2684.594866588613
 20
89.06933189268238
 10
2704.591119020606
 20
79.85330284216252
 10
2708.59105665432
 20
79.20790536682034
  0
LWPOLYLINE
  5
1443
330
1F
100
AcDbEntity
  8
NOSNÉ KONSTRUKCE
100
AcDbPolyline
 90
        3
 70
     0
 43
0.0
 10
2704.983785653403
 20
132.4263326334093
 10
2724.980038085396
 20
123.2103035828895
 10
2728.97997571911
 20
122.5649061075473
  0
LWPOLYLINE
  5
1444
330
1F
100
AcDbEntity
  8
NOSNÉ KONSTRUKCE
100
AcDbPolyline
 90
       11
 70
     0
 43
0.0
 10
2696.075316405392
 20
138.9255022026627
 42
-0.0072417954699014
 10
2696.019746037553
 20
138.5140969913882
 42
-0.0707158694326265
 10
2695.488619521133
 20
136.5779935387945
 42
-0.033952657250207
 10
2693.239963681724
 20
132.2249558136209
 42
-0.0571374688189033
 10
2691.453806921872
 20
129.9180315299345
 42
-0.0274923553235744
 10
2688.856501191319
 20
127.5329562068
 42
-0.0255412025538677
 10
2685.805071153609
 20
125.2762425297805
 42
-0.0272796991712396
 10
2681.692072000423
 20
122.8599066481183
 42
-0.056967459841729
 10
2679.551124719688
 20
122.0471708129189
 42
-0.0373408083348504
 10
2679.328770344215
 20
122.0080052719677
 42
-0.0052305969362967
 10
2678.982810570454
 20
121.9770483050633
  0
LWPOLYLINE
  5
1451
330
1F
100
AcDbEntity
  8
NOSNÉ KONSTRUKCE
100
AcDbPolyline
 90
        9
 70
     0
 43
0.0
 10
2688.847265384658
 20
138.9255022026627
 42
-0.0064239028828688
 10
2688.808396944474
 20
138.7063885433126
 42
-0.0832048017309575
 10
2688.024214341796
 20
136.3761749636578
 42
-0.0336767237692336
 10
2686.321397782874
 20
133.6479004441971
 42
-0.0844635135812105
 10
2685.401588022982
 20
132.743478839202
 42
-0.0495829410719565
 10
2683.652909585628
 20
131.7668293318893
 42
-0.0322692699774654
 10
2680.761555404536
 20
130.7253058304886
 42
-0.0276160659512937
 10
2679.905978966246
 20
130.5285704015441
 42
-0.0126891984598699
 10
2678.982810570454
 20
130.3933680120026
  0
LWPOLYLINE
  5
145C
330
1F
100
AcDbEntity
  8
NOSNÉ KONSTRUKCE
100
AcDbPolyline
 90
        7
 70
     0
 43
0.0
 10
2683.497579050137
 20
138.9255022026645
 42
-0.0203924744732807
 10
2682.595495065728
 20
137.9123721735104
 42
-0.0273961979096945
 10
2681.745630715533
 20
137.1241957994843
 42
-0.0243529190212958
 10
2680.582510223114
 20
136.2504364548167
 42
-0.0398020282482987
 10
2679.807551685557
 20
135.8108077113702
 42
-0.104168275620852
 10
2679.421140549213
 20
135.720791251193
 42
-0.007272956268647
 10
2678.982810570454
 20
135.7023378998983
 42
-0.007272956268647
  0
LINE
  5
145D
330
1F
100
AcDbEntity
  8
SPOJOVACÍ
  6
DASHED
100
AcDbLine
 10
2820.452503802975
 20
95.48800220266457
 30
0.0
 11
2687.594984747215
 21
95.48800220266457
 31
0.0
  0
LINE
  5
145E
330
1F
100
AcDbEntity
  8
SPOJOVACÍ
  6
DASHED
100
AcDbLine
 10
2820.452503802971
 20
82.36300220266548
 30
0.0
 11
2687.594984747215
 21
82.36300220266093
 31
0.0
  0
LINE
  5
145F
330
1F
100
AcDbEntity
  8
SPOJOVACÍ
  6
DASHDOT2
100
AcDbLine
 10
2671.185677551399
 20
88.92550220266457
 30
0.0
 11
2856.432662912684
 21
88.92550220266548
 31
0.0
  0
LINE
  5
1460
330
1F
100
AcDbEntity
  8
SPOJOVACÍ
  6
DASHED
100
AcDbLine
 10
2812.232204341351
 20
93.48800220266548
 30
0.0
 11
2686.608624018237
 21
93.48800220266458
 31
0.0
  0
LINE
  5
1461
330
1F
100
AcDbEntity
  8
SPOJOVACÍ
  6
DASHED
100
AcDbLine
 10
2812.232204341348
 20
84.36300220265911
 30
0.0
 11
2686.608624018237
 21
84.36300220266094
 31
0.0
  0
LINE
  5
1462
330
1F
100
AcDbEntity
  8
SPOJOVACÍ
100
AcDbLine
 10
2733.002608395196
 20
91.06755970803533
 30
0.0
 11
2734.199085754695
 21
86.60224541228672
 31
0.0
  0
LINE
  5
1463
330
1F
100
AcDbEntity
  8
SPOJOVACÍ
100
AcDbLine
 10
2734.857235256288
 20
91.14359329755462
 30
0.0
 11
2736.093143581194
 21
86.53112063550725
 31
0.0
  0
LINE
  5
1464
330
1F
100
AcDbEntity
  8
SPOJOVACÍ
100
AcDbLine
 10
2739.26486414621
 20
91.37819005628808
 30
0.0
 11
2740.593531319322
 21
86.41953665986875
 31
0.0
  0
LINE
  5
1465
330
1F
100
AcDbEntity
  8
SPOJOVACÍ
100
AcDbLine
 10
2737.434938596136
 20
91.2099699190403
 30
0.0
 11
2738.704946939466
 21
86.47023425569205
 31
0.0
  0
LINE
  5
1466
330
1F
100
AcDbEntity
  8
SPOJOVACÍ
100
AcDbLine
 10
2741.521476343008
 20
89.9539939490387
 30
0.0
 11
2742.012139733695
 21
88.12281324557716
 31
0.0
  0
LINE
  5
1467
330
1F
100
AcDbEntity
  8
SPOJOVACÍ
100
AcDbLine
 10
2742.91948341094
 20
90.11552322312672
 30
0.0
 11
2743.485653242143
 21
88.00254864735871
 31
0.0
  0
LINE
  5
1468
330
1F
100
AcDbEntity
  8
SPOJOVACÍ
100
AcDbLine
 10
2744.753716430317
 20
90.26766766608034
 30
0.0
 11
2745.392114404425
 21
87.88513399125987
 31
0.0
  0
LINE
  5
1469
330
1F
100
AcDbEntity
  8
SPOJOVACÍ
100
AcDbLine
 10
2744.456152852686
 20
91.37819005628808
 30
0.0
 11
2745.809320598575
 21
86.32809927745801
 31
0.0
  0
LINE
  5
146A
330
1F
100
AcDbEntity
  8
SPOJOVACÍ
100
AcDbLine
 10
2742.581152852686
 20
91.37819005628808
 30
0.0
 11
2743.92885004271
 21
86.34851566989345
 31
0.0
  0
LINE
  5
146B
330
1F
100
AcDbEntity
  8
SPOJOVACÍ
100
AcDbLine
 10
2741.157168055917
 20
91.31361098608522
 30
0.0
 11
2742.479398577463
 21
86.37897950036858
 31
0.0
  0
LINE
  5
146C
330
1F
100
AcDbEntity
  8
SPOJOVACÍ
100
AcDbLine
 10
2746.326451639102
 20
91.39573522423871
 30
0.0
 11
2747.687110928294
 21
86.31768562517573
 31
0.0
  0
LINE
  5
146D
330
1F
100
AcDbEntity
  8
SPOJOVACÍ
100
AcDbLine
 10
2748.199398568216
 20
91.4033973890946
 30
0.0
 11
2749.562232694941
 21
86.3172311858616
 31
0.0
  0
LINE
  5
146E
330
1F
100
AcDbEntity
  8
SPOJOVACÍ
100
AcDbLine
 10
2750.075004747461
 20
91.40113509734147
 30
0.0
 11
2751.434697253691
 21
86.3266935814163
 31
0.0
  0
LINE
  5
146F
330
1F
100
AcDbEntity
  8
SPOJOVACÍ
100
AcDbLine
 10
2751.95328158759
 20
91.38890576349968
 30
0.0
 11
2753.304515657418
 21
86.34603156197409
 31
0.0
  0
LINE
  5
1470
330
1F
100
AcDbEntity
  8
SPOJOVACÍ
100
AcDbLine
 10
2753.834240808275
 20
91.36666564912685
 30
0.0
 11
2755.17169866207
 21
86.3752049857867
 31
0.0
  0
LWPOLYLINE
  5
1471
330
1F
100
AcDbEntity
  8
NOSNÉ KONSTRUKCE
100
AcDbPolyline
 90
        3
 70
     0
 43
0.0
 10
2726.196957562333
 20
107.9225321535404
 10
2742.952175182061
 20
99.53879128557218
 10
2751.119279831186
 20
91.35748958447493
  0
LWPOLYLINE
  5
1472
330
1F
100
AcDbEntity
  8
NOSNÉ KONSTRUKCE
100
AcDbPolyline
 90
        4
 70
     0
 43
0.0
 10
2756.373623860538
 20
138.848752679738
 42
-0.0135911980674875
 10
2750.794926824699
 20
108.3557129060391
 42
-0.0219777111230329
 10
2749.435758071722
 20
103.0785430222858
 42
-0.2158759397126542
 10
2678.982810570454
 20
53.97397573422404
 42
-0.0618986513001703
  0
LWPOLYLINE
  5
1473
330
1F
100
AcDbEntity
  8
NOSNÉ KONSTRUKCE
100
AcDbPolyline
 90
        2
 70
     0
 43
0.0
 10
2762.654223502202
 20
64.55411887835362
 42
-0.1112051866389916
 10
2731.383332074539
 20
38.92550220266457
  0
LWPOLYLINE
  5
1474
330
1F
100
AcDbEntity
  8
NOSNÉ KONSTRUKCE
100
AcDbPolyline
 90
        2
 70
     0
 43
0.0
 10
2760.118703259886
 20
91.84333742912441
 42
-0.2104338366210547
 10
2680.034049300106
 20
38.92550220266457
  0
LWPOLYLINE
  5
1475
330
1F
100
AcDbEntity
  8
NOSNÉ KONSTRUKCE
100
AcDbPolyline
 90
        6
 70
     0
 43
0.0
 10
2741.089029454535
 20
138.848752679738
 42
-0.0128837512779301
 10
2740.661841514196
 20
133.8490054471185
 42
-0.0351641677647434
 10
2739.720201931912
 20
128.44344126561
 42
-0.0187319685742942
 10
2734.644178110426
 20
110.8060852523958
 42
-0.0582629403736403
 10
2732.154928308304
 20
105.4363339539977
 42
-0.0636293101863209
 10
2718.893458714777
 20
88.95502565377228
 42
-0.0636293101863209
  0
LWPOLYLINE
  5
1476
330
1F
100
AcDbEntity
  8
NOSNÉ KONSTRUKCE
100
AcDbPolyline
 90
        4
 70
     1
 43
0.0
 10
2678.982810570454
 20
38.76582206633065
 10
2762.654223502202
 20
38.76582206633065
 10
2762.654223502202
 20
138.7658220663306
 10
2678.982810570454
 20
138.7658220663306
  0
LINE
  5
1477
330
1F
100
AcDbEntity
  8
SPOJOVACÍ
100
AcDbLine
 10
2678.982810570454
 20
102.9880022026627
 30
0.0
 11
2681.840702065561
 21
102.9880022026627
 31
0.0
  0
LINE
  5
1478
330
1F
100
AcDbEntity
  8
SPOJOVACÍ
100
AcDbLine
 10
2681.840702065561
 20
74.86300220266276
 30
0.0
 11
2678.982810570454
 21
74.86300220266276
 31
0.0
  0
LINE
  5
1479
330
1F
100
AcDbEntity
  8
SPOJOVACÍ
100
AcDbLine
 10
2755.717894443962
 20
91.33436984106721
 30
0.0
 11
2757.036256731873
 21
86.41417479980464
 31
0.0
  0
LINE
  5
147A
330
1F
100
AcDbEntity
  8
SPOJOVACÍ
100
AcDbLine
 10
2757.664386003642
 20
91.06755970803533
 30
0.0
 11
2758.898200044368
 21
86.46290302096531
 31
0.0
  0
TEXT
  5
147B
330
1F
100
AcDbEntity
  8
POPIS
100
AcDbText
 10
2415.913672445684
 20
-380.4610427211737
 30
0.0
 40
25.0
  1
05
 41
0.85
  7
SIMPLEX7
100
AcDbText
  0
TEXT
  5
147C
330
1F
100
AcDbEntity
  8
POPIS
100
AcDbText
 10
2416.801126788024
 20
-451.5558634021935
 30
0.0
 40
25.0
  1
07
 41
0.85
  7
SIMPLEX7
100
AcDbText
  0
TEXT
  5
147D
330
1F
100
AcDbEntity
  8
POPIS
100
AcDbText
 10
2416.801126788024
 20
-415.9369747041045
 30
0.0
 40
25.0
  1
06
 41
0.85
  7
SIMPLEX7
100
AcDbText
  0
TEXT
  5
147E
330
1F
100
AcDbEntity
  8
POPIS
100
AcDbText
 10
2418.215014018664
 20
-344.162491019124
 30
0.0
 40
25.0
  1
04
 41
0.85
  7
SIMPLEX7
100
AcDbText
  0
TEXT
  5
147F
330
1F
100
AcDbEntity
  8
POPIS
100
AcDbText
 10
2417.690611414192
 20
-486.289407361487
 30
0.0
 40
25.0
  1
08
 41
0.85
  7
SIMPLEX7
100
AcDbText
  0
TEXT
  5
1480
330
1F
100
AcDbEntity
  8
POPIS
100
AcDbText
 10
2472.679128572057
 20
-450.3564977309133
 30
0.0
 40
25.0
  1
Tepelná izolace (np. ORSIL, ROCKWOOL, ISOVER, NOBASIL)
 41
0.7
  7
SIMPLEX7
100
AcDbText
  0
TEXT
  5
1481
330
1F
100
AcDbEntity
  8
POPIS
100
AcDbText
 10
2472.635357151455
 20
-308.2295813885502
 30
0.0
 40
25.0
  1
Svislá dřevěné lať 50x25 (100x25), impregnovaná
 41
0.7
  7
SIMPLEX7
100
AcDbText
  0
TEXT
  5
1482
330
1F
100
AcDbEntity
  8
POPIS
100
AcDbText
 10
2473.522811493796
 20
-380.0040650735309
 30
0.0
 40
25.0
  1
Pojistná fólie - parozábrana
 41
0.7
  7
SIMPLEX7
100
AcDbText
  0
TEXT
  5
1483
330
1F
100
AcDbEntity
  8
POPIS
100
AcDbText
 10
2473.522811493796
 20
-415.6229537716199
 30
0.0
 40
25.0
  1
Vodorovná dřevěná lať š=100 mm (tloušťka dle izolace)
 41
0.7
  7
SIMPLEX7
100
AcDbText
  0
TEXT
  5
1484
330
1F
100
AcDbEntity
  8
POPIS
100
AcDbText
 10
2472.635357151455
 20
-344.5281330906
 30
0.0
 40
25.0
  1
Vzduchová mezera - min. 25 mm
 41
0.7
  7
SIMPLEX7
100
AcDbText
  0
LINE
  5
1485
330
1F
100
AcDbEntity
  8
POPIS
100
AcDbLine
 10
2664.016404377322
 20
326.8362743052948
 30
0.0
 11
2669.588973554702
 21
319.0354222223977
 31
0.0
  0
LINE
  5
1486
330
1F
100
AcDbEntity
  8
POPIS
100
AcDbLine
 10
2669.588973554702
 20
319.0354222223977
 30
0.0
 11
2665.910132217105
 21
319.0354222223977
 31
0.0
  0
LINE
  5
1487
330
1F
100
AcDbEntity
  8
POPIS
100
AcDbLine
 10
2665.910132217105
 20
319.0354222223977
 30
0.0
 11
2667.435878165062
 21
306.0997783233142
 31
0.0
  0
LINE
  5
1488
330
1F
100
AcDbEntity
  8
POPIS
100
AcDbLine
 10
2662.122676537539
 20
319.0354222223977
 30
0.0
 11
2660.596930589581
 21
306.0997783233142
 31
0.0
  0
LINE
  5
1489
330
1F
100
AcDbEntity
  8
POPIS
100
AcDbLine
 10
2658.443835199941
 20
319.0354222223977
 30
0.0
 11
2662.122676537539
 21
319.0354222223977
 31
0.0
  0
LINE
  5
148A
330
1F
100
AcDbEntity
  8
POPIS
100
AcDbLine
 10
2664.016404377322
 20
326.8362743052948
 30
0.0
 11
2658.443835199941
 21
319.0354222223977
 31
0.0
  0
HATCH
  5
148B
330
1F
100
AcDbEntity
  8
POPIS
100
AcDbHatch
 10
0.0
 20
0.0
 30
0.0
210
0.0
220
0.0
230
1.0
  2
SOLID
 70
     1
 71
     0
 91
        1
 92
        7
 72
     0
 73
     1
 93
        8
 10
2665.910132217101
 20
319.0354222223977
 10
2669.588973554699
 20
319.0354222223977
 10
2664.016404377322
 20
326.8362743052957
 10
2658.443835199941
 20
319.0354222223982
 10
2662.122676537535
 20
319.0354222223977
 10
2660.596930589585
 20
306.0997783233183
 10
2664.016404377326
 20
311.4810749707972
 10
2667.435878165062
 20
306.0997783233128
 97
        0
 75
     0
 76
     1
 47
0.3835833255279223
 98
        1
 10
2664.424587124576
 20
316.127239041898
  0
LINE
  5
148C
330
1F
100
AcDbEntity
  8
POPIS
100
AcDbLine
 10
2669.851025329069
 20
306.0997783233142
 30
0.0
 11
2666.431551541332
 21
311.4810749707926
 31
0.0
  0
LINE
  5
148D
330
1F
100
AcDbEntity
  8
POPIS
100
AcDbLine
 10
2663.012077753588
 20
306.0997783233142
 30
0.0
 11
2666.431551541325
 21
311.4810749707926
 31
0.0
  0
LINE
  5
148E
330
1F
100
AcDbEntity
  8
NOSNÉ KONSTRUKCE
100
AcDbLine
 10
2669.646438766252
 20
522.5788244691338
 30
0.0
 11
2669.694106521583
 21
531.1541952413872
 31
0.0
  0
LINE
  5
148F
330
1F
100
AcDbEntity
  8
POPIS
100
AcDbLine
 10
2660.596930589581
 20
500.4360999615055
 30
0.0
 11
2664.016404377318
 21
505.8173966089839
 31
0.0
  0
LINE
  5
1490
330
1F
100
AcDbEntity
  8
POPIS
100
AcDbLine
 10
2667.435878165062
 20
500.4360999615055
 30
0.0
 11
2664.016404377326
 21
505.8173966089839
 31
0.0
  0
HATCH
  5
1491
330
1F
100
AcDbEntity
  8
POPIS
100
AcDbHatch
 10
0.0
 20
0.0
 30
0.0
210
0.0
220
0.0
230
1.0
  2
SOLID
 70
     1
 71
     0
 91
        1
 92
        7
 72
     0
 73
     1
 93
        8
 10
2665.910132217108
 20
513.3717438605895
 10
2669.588973554702
 20
513.3717438605885
 10
2664.016404377322
 20
521.1725959434829
 10
2658.443835199941
 20
513.3717438605891
 10
2662.122676537535
 20
513.3717438605891
 10
2660.596930589585
 20
500.4360999615082
 10
2664.016404377322
 20
505.8173966089907
 10
2667.435878165066
 20
500.4360999615005
 97
        0
 75
     0
 76
     1
 47
0.3835833255279223
 98
        1
 10
2664.424587124576
 20
510.4635606800894
  0
LINE
  5
1492
330
1F
100
AcDbEntity
  8
POPIS
100
AcDbLine
 10
2664.016404377322
 20
521.1725959434861
 30
0.0
 11
2658.443835199941
 21
513.3717438605891
 31
0.0
  0
LINE
  5
1493
330
1F
100
AcDbEntity
  8
POPIS
100
AcDbLine
 10
2658.443835199941
 20
513.3717438605891
 30
0.0
 11
2662.122676537539
 21
513.3717438605891
 31
0.0
  0
LINE
  5
1494
330
1F
100
AcDbEntity
  8
POPIS
100
AcDbLine
 10
2662.122676537539
 20
513.3717438605891
 30
0.0
 11
2660.596930589581
 21
500.4360999615055
 31
0.0
  0
LINE
  5
1495
330
1F
100
AcDbEntity
  8
POPIS
100
AcDbLine
 10
2665.910132217105
 20
513.3717438605891
 30
0.0
 11
2667.435878165062
 21
500.4360999615055
 31
0.0
  0
LINE
  5
1496
330
1F
100
AcDbEntity
  8
POPIS
100
AcDbLine
 10
2669.588973554702
 20
513.3717438605891
 30
0.0
 11
2665.910132217105
 21
513.3717438605891
 31
0.0
  0
LINE
  5
1497
330
1F
100
AcDbEntity
  8
POPIS
100
AcDbLine
 10
2664.016404377322
 20
521.1725959434861
 30
0.0
 11
2669.588973554702
 21
513.3717438605891
 31
0.0
  0
LWPOLYLINE
  5
1498
330
1F
100
AcDbEntity
  8
PROFILY
100
AcDbPolyline
 90
        2
 70
     1
 43
2.5
 10
2639.239021574892
 20
58.46227043203999
 42
-1.0
 10
2636.739802785479
 20
58.39977689130819
 42
-1.0
  0
HATCH
  5
1499
330
1F
100
AcDbEntity
  8
PROFILY
100
AcDbHatch
 10
0.0
 20
0.0
 30
0.0
210
0.0
220
0.0
230
1.0
  2
SOLID
 70
     1
 71
     0
 91
        1
 92
        1
 93
        4
 72
     1
 10
2641.057695138868
 20
70.51547361550138
 11
2636.061293275073
 21
70.83406317736626
 72
     1
 10
2636.061293275077
 20
70.83406317736581
 11
2635.452830091511
 21
58.59276577095534
 72
     1
 10
2635.452830091511
 20
58.59276577095579
 11
2640.449231955306
 21
58.27417620909045
 72
     1
 10
2640.44923195531
 20
58.27417620909045
 11
2641.057695138876
 21
70.51547361550138
 97
        0
 75
     0
 76
     1
 98
        1
 10
-17016.34333781355
 20
-3198.230765638911
  0
LWPOLYLINE
  5
149A
330
1F
100
AcDbEntity
  8
PROFILY
100
AcDbPolyline
 90
        2
 70
     1
 43
2.5
 10
2639.790794170094
 20
70.57844591093135
 42
-1.0
 10
2637.291575380674
 20
70.51595237019956
 42
-1.0
  0
TEXT
  5
149B
330
1F
100
AcDbEntity
  8
POPIS
100
AcDbText
 10
2477.105874651261
 20
-520.4212325761709
 30
0.0
 40
25.0
  1
Oplechování - klempířský výrobek
 41
0.7
  7
SIMPLEX7
100
AcDbText
  0
LINE
  5
149C
330
1F
100
AcDbEntity
  8
SPOJOVACÍ
  6
Continuous
100
AcDbLine
 10
2641.578941195093
 20
287.2479166026464
 30
0.0
 11
2640.312507425729
 21
286.3693935388882
 31
0.0
  0
LINE
  5
149D
330
1F
100
AcDbEntity
  8
SPOJOVACÍ
  6
Continuous
100
AcDbLine
 10
2643.029273537024
 20
287.7687891742721
 30
0.0
 11
2641.578941195093
 21
287.2479166026464
 31
0.0
  0
LINE
  5
149E
330
1F
100
AcDbEntity
  8
SPOJOVACÍ
  6
Continuous
100
AcDbLine
 10
2644.564336300675
 20
287.8973839096561
 30
0.0
 11
2643.029273537024
 21
287.7687891742721
 31
0.0
  0
LINE
  5
149F
330
1F
100
AcDbEntity
  8
SPOJOVACÍ
  6
Continuous
100
AcDbLine
 10
2637.737394047384
 20
284.5787155217831
 30
0.0
 11
2638.934841269278
 21
284.5016154550876
 31
0.0
  0
LINE
  5
14A0
330
1F
100
AcDbEntity
  8
SPOJOVACÍ
  6
Continuous
100
AcDbLine
 10
2638.392804381735
 20
294.7579451608376
 30
0.0
 11
2637.737394047384
 21
284.5787155217831
 31
0.0
  0
LINE
  5
14A1
330
1F
100
AcDbEntity
  8
SPOJOVACÍ
  6
Continuous
100
AcDbLine
 10
2638.392804381735
 20
294.7579451608376
 30
0.0
 11
2639.590251603633
 21
294.6808450941425
 31
0.0
  0
LINE
  5
14A2
330
1F
100
AcDbEntity
  8
SPOJOVACÍ
  6
Continuous
100
AcDbLine
 10
2642.00539876764
 20
294.6808450941425
 30
0.0
 11
2641.349988433285
 21
284.5016154550876
 31
0.0
  0
LINE
  5
14A3
330
1F
100
AcDbEntity
  8
SPOJOVACÍ
  6
Continuous
100
AcDbLine
 10
2641.7319774606
 20
285.1938066863808
 30
0.0
 11
2641.349988433285
 21
284.5016154550876
 31
0.0
  0
LINE
  5
14A4
330
1F
100
AcDbEntity
  8
SPOJOVACÍ
  6
Continuous
100
AcDbLine
 10
2640.312507425729
 20
286.3693935388882
 30
0.0
 11
2639.316830296593
 21
285.1938066863808
 31
0.0
  0
LINE
  5
14A5
330
1F
100
AcDbEntity
  8
SPOJOVACÍ
  6
Continuous
100
AcDbLine
 10
2643.956722462786
 20
290.7076453449176
 30
0.0
 11
2644.737781567182
 21
290.59117603508
 31
0.0
  0
LINE
  5
14A6
330
1F
100
AcDbEntity
  8
SPOJOVACÍ
  6
Continuous
100
AcDbLine
 10
2642.506435682422
 20
291.2297918766252
 30
0.0
 11
2643.956722462786
 21
290.7076453449176
 31
0.0
  0
LINE
  5
14A7
330
1F
100
AcDbEntity
  8
SPOJOVACÍ
  6
Continuous
100
AcDbLine
 10
2641.241332966667
 20
292.1091273137853
 30
0.0
 11
2642.506435682422
 21
291.2297918766252
 31
0.0
  0
LINE
  5
14A8
330
1F
100
AcDbEntity
  8
SPOJOVACÍ
  6
Continuous
100
AcDbLine
 10
2642.661279062297
 20
293.2861350344192
 30
0.0
 11
2643.656480130674
 21
292.1091273137853
 31
0.0
  0
LINE
  5
14A9
330
1F
100
AcDbEntity
  8
SPOJOVACÍ
  6
Continuous
100
AcDbLine
 10
2642.00539876764
 20
294.6808450941425
 30
0.0
 11
2642.661279062297
 21
293.2861350344192
 31
0.0
  0
LINE
  5
14AA
330
1F
100
AcDbEntity
  8
SPOJOVACÍ
  6
Continuous
100
AcDbLine
 10
2644.564336300675
 20
287.8973839096561
 30
0.0
 11
2649.497076251402
 21
287.5797794489035
 31
0.0
  0
LINE
  5
14AB
330
1F
100
AcDbEntity
  8
SPOJOVACÍ
  6
Continuous
100
AcDbLine
 10
2644.737781567182
 20
290.59117603508
 30
0.0
 11
2648.767330706527
 21
290.3317253455515
 31
0.0
  0
LINE
  5
14AC
330
1F
100
AcDbEntity
  8
SPOJOVACÍ
  6
Continuous
100
AcDbLine
 10
2649.361413048966
 20
290.2934741496856
 30
0.0
 11
2651.875123960985
 21
290.1316237771388
 31
0.0
  0
LINE
  5
14AD
330
1F
100
AcDbEntity
  8
SPOJOVACÍ
  6
Continuous
100
AcDbLine
 10
2652.477560586339
 20
290.0928346738323
 30
0.0
 11
2654.993128005768
 21
289.9308647662928
 31
0.0
  0
LINE
  5
14AE
330
1F
100
AcDbEntity
  8
SPOJOVACÍ
  6
Continuous
100
AcDbLine
 10
2655.586282094635
 20
289.8926733379139
 30
0.0
 11
2658.109275543142
 21
289.7302252904401
 31
0.0
  0
LINE
  5
14AF
330
1F
100
AcDbEntity
  8
SPOJOVACÍ
  6
Continuous
100
AcDbLine
 10
2650.099512876757
 20
287.5409903455965
 30
0.0
 11
2652.613223788776
 21
287.3791399730498
 31
0.0
  0
LINE
  5
14B0
330
1F
100
AcDbEntity
  8
SPOJOVACÍ
  6
Continuous
100
AcDbLine
 10
2653.208234385052
 20
287.3408290096786
 30
0.0
 11
2655.731227833555
 21
287.1783809622042
 31
0.0
  0
LINE
  5
14B1
330
1F
100
AcDbEntity
  8
SPOJOVACÍ
  6
Continuous
100
AcDbLine
 10
2656.324381922426
 20
287.1401895338253
 30
0.0
 11
2658.839949341854
 21
286.9782196262858
 31
0.0
  0
LINE
  5
14B2
330
1F
100
AcDbEntity
  8
SPOJOVACÍ
  6
Continuous
100
AcDbLine
 10
2658.712640422331
 20
289.6913764196278
 30
0.0
 11
2661.225423080781
 21
289.5295858145691
 31
0.0
  0
LINE
  5
14B3
330
1F
100
AcDbEntity
  8
SPOJOVACÍ
  6
Continuous
100
AcDbLine
 10
2661.820433677057
 20
289.4912748511974
 30
0.0
 11
2663.065221835204
 21
289.4111266423588
 31
0.0
  0
LINE
  5
14B4
330
1F
100
AcDbEntity
  8
SPOJOVACÍ
  6
Continuous
100
AcDbLine
 10
2659.439601206235
 20
286.9396098254592
 30
0.0
 11
2661.95331211825
 21
286.7777594529134
 31
0.0
  0
LINE
  5
14B5
330
1F
100
AcDbEntity
  8
SPOJOVACÍ
  6
Continuous
100
AcDbLine
 10
2662.555748743875
 20
286.7389703495891
 30
0.0
 11
2662.891776568696
 21
286.7173345169348
 31
0.0
  0
LINE
  5
14B6
330
1F
100
AcDbEntity
  8
SPOJOVACÍ
  6
Continuous
100
AcDbLine
 10
2663.065221835204
 20
289.4111266423588
 30
0.0
 11
2664.250261729696
 21
289.1847570392392
 31
0.0
  0
LINE
  5
14B7
330
1F
100
AcDbEntity
  8
SPOJOVACÍ
  6
Continuous
100
AcDbLine
 10
2673.75645245142
 20
287.3702702141658
 30
0.0
 11
2670.903435626147
 21
287.1988366545201
 31
0.0
  0
LINE
  5
14B8
330
1F
100
AcDbEntity
  8
SPOJOVACÍ
  6
Continuous
100
AcDbLine
 10
2664.8644462191
 20
289.0678470657612
 30
0.0
 11
2667.162719896813
 21
288.6290522586323
 31
0.0
  0
LINE
  5
14B9
330
1F
100
AcDbEntity
  8
SPOJOVACÍ
  6
Continuous
100
AcDbLine
 10
2667.786995641625
 20
288.5096283366774
 30
0.0
 11
2670.084341066045
 21
288.0708933013938
 31
0.0
  0
LINE
  5
14BA
330
1F
100
AcDbEntity
  8
SPOJOVACÍ
  6
Continuous
100
AcDbLine
 10
2670.698525555446
 20
287.9539833279149
 30
0.0
 11
2673.75645245142
 21
287.3702702141658
 31
0.0
  0
LINE
  5
14BB
330
1F
100
AcDbEntity
  8
SPOJOVACÍ
  6
Continuous
100
AcDbLine
 10
2670.330742288959
 20
287.1639388277917
 30
0.0
 11
2668.172976310412
 21
287.0344256146404
 31
0.0
  0
LINE
  5
14BC
330
1F
100
AcDbEntity
  8
SPOJOVACÍ
  6
Continuous
100
AcDbLine
 10
2667.59749821253
 20
286.9997070947492
 30
0.0
 11
2665.448146284216
 21
286.870584225001
 31
0.0
  0
LINE
  5
14BD
330
1F
100
AcDbEntity
  8
SPOJOVACÍ
  6
Continuous
100
AcDbLine
 10
2664.874524693183
 20
286.8357461657783
 30
0.0
 11
2662.891776568696
 21
286.7173345169348
 31
0.0
  0
LINE
  5
14BE
330
1F
100
AcDbEntity
  8
SPOJOVACÍ
  6
Continuous
100
AcDbLine
 10
2648.99725259724
 20
291.3692644169113
 30
0.0
 11
2649.886299552159
 21
286.5023754637131
 31
0.0
  0
LINE
  5
14BF
330
1F
100
AcDbEntity
  8
SPOJOVACÍ
  6
Continuous
100
AcDbLine
 10
2648.99725259724
 20
291.3692644169113
 30
0.0
 11
2649.19019835105
 21
290.9784078351485
 31
0.0
  0
LINE
  5
14C0
330
1F
100
AcDbEntity
  8
SPOJOVACÍ
  6
Continuous
100
AcDbLine
 10
2648.99725259724
 20
291.3692644169113
 30
0.0
 11
2648.595187755043
 21
291.0167187985025
 31
0.0
  0
LINE
  5
14C1
330
1F
100
AcDbEntity
  8
SPOJOVACÍ
  6
Continuous
100
AcDbLine
 10
2649.886299552159
 20
286.5023754637131
 30
0.0
 11
2650.287436140505
 21
286.8549808452526
 31
0.0
  0
LINE
  5
14C2
330
1F
100
AcDbEntity
  8
SPOJOVACÍ
  6
Continuous
100
AcDbLine
 10
2649.886299552159
 20
286.5023754637131
 30
0.0
 11
2649.692425544224
 21
286.8932918086247
 31
0.0
  0
LINE
  5
14C3
330
1F
100
AcDbEntity
  8
SPOJOVACÍ
  6
Continuous
100
AcDbLine
 10
2649.19019835105
 20
290.9784078351485
 30
0.0
 11
2650.287436140505
 21
286.8549808452526
 31
0.0
  0
LINE
  5
14C4
330
1F
100
AcDbEntity
  8
SPOJOVACÍ
  6
Continuous
100
AcDbLine
 10
2648.595187755043
 20
291.0167187985025
 30
0.0
 11
2649.692425544224
 21
286.8932918086247
 31
0.0
  0
LINE
  5
14C5
330
1F
100
AcDbEntity
  8
SPOJOVACÍ
  6
Continuous
100
AcDbLine
 10
2652.11061537364
 20
291.168804243538
 30
0.0
 11
2652.999662328835
 21
286.3019152903225
 31
0.0
  0
LINE
  5
14C6
330
1F
100
AcDbEntity
  8
SPOJOVACÍ
  6
Continuous
100
AcDbLine
 10
2652.11061537364
 20
291.168804243538
 30
0.0
 11
2652.304489381291
 21
290.7778878942703
 31
0.0
  0
LINE
  5
14C7
330
1F
100
AcDbEntity
  8
SPOJOVACÍ
  6
Continuous
100
AcDbLine
 10
2652.11061537364
 20
291.168804243538
 30
0.0
 11
2651.709478785007
 21
290.8161988576421
 31
0.0
  0
LINE
  5
14C8
330
1F
100
AcDbEntity
  8
SPOJOVACÍ
  6
Continuous
100
AcDbLine
 10
2652.999662328835
 20
286.3019152903225
 30
0.0
 11
2653.4007989169
 21
286.6545206718801
 31
0.0
  0
LINE
  5
14C9
330
1F
100
AcDbEntity
  8
SPOJOVACÍ
  6
Continuous
100
AcDbLine
 10
2652.999662328835
 20
286.3019152903225
 30
0.0
 11
2652.805788320896
 21
286.6928316352336
 31
0.0
  0
LINE
  5
14CA
330
1F
100
AcDbEntity
  8
SPOJOVACÍ
  6
Continuous
100
AcDbLine
 10
2652.304489381291
 20
290.7778878942703
 30
0.0
 11
2653.4007989169
 21
286.6545206718801
 31
0.0
  0
LINE
  5
14CB
330
1F
100
AcDbEntity
  8
SPOJOVACÍ
  6
Continuous
100
AcDbLine
 10
2651.709478785007
 20
290.8161988576421
 30
0.0
 11
2652.805788320896
 21
286.6928316352336
 31
0.0
  0
LINE
  5
14CC
330
1F
100
AcDbEntity
  8
SPOJOVACÍ
  6
Continuous
100
AcDbLine
 10
2664.505978539062
 20
290.1162398358119
 30
0.0
 11
2664.6997927794
 21
289.7243952357003
 31
0.0
  0
LINE
  5
14CD
330
1F
100
AcDbEntity
  8
SPOJOVACÍ
  6
Continuous
100
AcDbLine
 10
2664.505978539062
 20
290.1162398358119
 30
0.0
 11
2664.10478218312
 21
289.7627061990724
 31
0.0
  0
LINE
  5
14CE
330
1F
100
AcDbEntity
  8
SPOJOVACÍ
  6
Continuous
100
AcDbLine
 10
2665.211863033793
 20
285.9369180558855
 30
0.0
 11
2665.613927875984
 21
286.2894636699197
 31
0.0
  0
LINE
  5
14CF
330
1F
100
AcDbEntity
  8
SPOJOVACÍ
  6
Continuous
100
AcDbLine
 10
2665.211863033793
 20
285.9369180558855
 30
0.0
 11
2665.018917279704
 21
286.3277746332915
 31
0.0
  0
LINE
  5
14D0
330
1F
100
AcDbEntity
  8
SPOJOVACÍ
  6
Continuous
100
AcDbLine
 10
2664.6997927794
 20
289.7243952357003
 30
0.0
 11
2665.613927875984
 21
286.2894636699197
 31
0.0
  0
LINE
  5
14D1
330
1F
100
AcDbEntity
  8
SPOJOVACÍ
  6
Continuous
100
AcDbLine
 10
2664.10478218312
 20
289.7627061990724
 30
0.0
 11
2665.018917279704
 21
286.3277746332915
 31
0.0
  0
LINE
  5
14D2
330
1F
100
AcDbEntity
  8
SPOJOVACÍ
  6
Continuous
100
AcDbLine
 10
2664.505978539062
 20
290.1162398358119
 30
0.0
 11
2665.211863033793
 21
285.9369180558855
 31
0.0
  0
LINE
  5
14D3
330
1F
100
AcDbEntity
  8
SPOJOVACÍ
  6
Continuous
100
AcDbLine
 10
2667.478169783648
 20
289.3590834193501
 30
0.0
 11
2667.671115537454
 21
288.9682268375882
 31
0.0
  0
LINE
  5
14D4
330
1F
100
AcDbEntity
  8
SPOJOVACÍ
  6
Continuous
100
AcDbLine
 10
2667.478169783648
 20
289.3590834193501
 30
0.0
 11
2667.076104941174
 21
289.0065378009594
 31
0.0
  0
LINE
  5
14D5
330
1F
100
AcDbEntity
  8
SPOJOVACÍ
  6
Continuous
100
AcDbLine
 10
2667.910089422679
 20
286.2087319938428
 30
0.0
 11
2668.312154264596
 21
286.5612776078947
 31
0.0
  0
LINE
  5
14D6
330
1F
100
AcDbEntity
  8
SPOJOVACÍ
  6
Continuous
100
AcDbLine
 10
2667.910089422679
 20
286.2087319938428
 30
0.0
 11
2667.717143668589
 21
286.5995885712486
 31
0.0
  0
LINE
  5
14D7
330
1F
100
AcDbEntity
  8
SPOJOVACÍ
  6
Continuous
100
AcDbLine
 10
2667.671115537454
 20
288.9682268375882
 30
0.0
 11
2668.312154264596
 21
286.5612776078947
 31
0.0
  0
LINE
  5
14D8
330
1F
100
AcDbEntity
  8
SPOJOVACÍ
  6
Continuous
100
AcDbLine
 10
2667.076104941174
 20
289.0065378009594
 30
0.0
 11
2667.717143668589
 21
286.5995885712486
 31
0.0
  0
LINE
  5
14D9
330
1F
100
AcDbEntity
  8
SPOJOVACÍ
  6
Continuous
100
AcDbLine
 10
2667.478169783648
 20
289.3590834193501
 30
0.0
 11
2667.910089422679
 21
286.2087319938428
 31
0.0
  0
LINE
  5
14DA
330
1F
100
AcDbEntity
  8
SPOJOVACÍ
  6
Continuous
100
AcDbLine
 10
2670.449432774109
 20
288.601986766037
 30
0.0
 11
2670.643306782032
 21
288.2110704211263
 31
0.0
  0
LINE
  5
14DB
330
1F
100
AcDbEntity
  8
SPOJOVACÍ
  6
Continuous
100
AcDbLine
 10
2670.449432774109
 20
288.601986766037
 30
0.0
 11
2670.048296185763
 21
288.2493813844975
 31
0.0
  0
LINE
  5
14DC
330
1F
100
AcDbEntity
  8
SPOJOVACÍ
  6
Continuous
100
AcDbLine
 10
2670.621047981647
 20
286.4321889476168
 30
0.0
 11
2671.023112823561
 21
286.7847345616691
 31
0.0
  0
LINE
  5
14DD
330
1F
100
AcDbEntity
  8
SPOJOVACÍ
  6
Continuous
100
AcDbLine
 10
2670.621047981647
 20
286.4321889476168
 30
0.0
 11
2670.428102227288
 21
286.82304552504
 31
0.0
  0
LINE
  5
14DE
330
1F
100
AcDbEntity
  8
SPOJOVACÍ
  6
Continuous
100
AcDbLine
 10
2670.643306782032
 20
288.2110704211263
 30
0.0
 11
2671.023112823561
 21
286.7847345616691
 31
0.0
  0
LINE
  5
14DF
330
1F
100
AcDbEntity
  8
SPOJOVACÍ
  6
Continuous
100
AcDbLine
 10
2670.048296185763
 20
288.2493813844975
 30
0.0
 11
2670.428102227288
 21
286.82304552504
 31
0.0
  0
LINE
  5
14E0
330
1F
100
AcDbEntity
  8
SPOJOVACÍ
  6
Continuous
100
AcDbLine
 10
2670.449432774109
 20
288.601986766037
 30
0.0
 11
2670.621047981647
 21
286.4321889476168
 31
0.0
  0
LINE
  5
14E1
330
1F
100
AcDbEntity
  8
SPOJOVACÍ
  6
Continuous
100
AcDbLine
 10
2655.223978150312
 20
290.9683440701474
 30
0.0
 11
2656.113025105231
 21
286.1014551169496
 31
0.0
  0
LINE
  5
14E2
330
1F
100
AcDbEntity
  8
SPOJOVACÍ
  6
Continuous
100
AcDbLine
 10
2655.223978150312
 20
290.9683440701474
 30
0.0
 11
2655.417852157963
 21
290.5774277208797
 31
0.0
  0
LINE
  5
14E3
330
1F
100
AcDbEntity
  8
SPOJOVACÍ
  6
Continuous
100
AcDbLine
 10
2655.223978150312
 20
290.9683440701474
 30
0.0
 11
2654.822841561679
 21
290.6157386842514
 31
0.0
  0
LINE
  5
14E4
330
1F
100
AcDbEntity
  8
SPOJOVACÍ
  6
Continuous
100
AcDbLine
 10
2656.113025105231
 20
286.1014551169496
 30
0.0
 11
2656.515089947145
 21
286.4540007310015
 31
0.0
  0
LINE
  5
14E5
330
1F
100
AcDbEntity
  8
SPOJOVACÍ
  6
Continuous
100
AcDbLine
 10
2656.113025105231
 20
286.1014551169496
 30
0.0
 11
2655.920079350872
 21
286.4923116943728
 31
0.0
  0
LINE
  5
14E6
330
1F
100
AcDbEntity
  8
SPOJOVACÍ
  6
Continuous
100
AcDbLine
 10
2655.417852157963
 20
290.5774277208797
 30
0.0
 11
2656.515089947145
 21
286.4540007310015
 31
0.0
  0
LINE
  5
14E7
330
1F
100
AcDbEntity
  8
SPOJOVACÍ
  6
Continuous
100
AcDbLine
 10
2654.822841561679
 20
290.6157386842514
 30
0.0
 11
2655.920079350872
 21
286.4923116943728
 31
0.0
  0
LINE
  5
14E8
330
1F
100
AcDbEntity
  8
SPOJOVACÍ
  6
Continuous
100
AcDbLine
 10
2658.337340926719
 20
290.767883896774
 30
0.0
 11
2659.226387881637
 21
285.9009949435767
 31
0.0
  0
LINE
  5
14E9
330
1F
100
AcDbEntity
  8
SPOJOVACÍ
  6
Continuous
100
AcDbLine
 10
2658.337340926719
 20
290.767883896774
 30
0.0
 11
2658.531214934359
 21
290.3769675475068
 31
0.0
  0
LINE
  5
14EA
330
1F
100
AcDbEntity
  8
SPOJOVACÍ
  6
Continuous
100
AcDbLine
 10
2658.337340926719
 20
290.767883896774
 30
0.0
 11
2657.936204338089
 21
290.4152785108781
 31
0.0
  0
LINE
  5
14EB
330
1F
100
AcDbEntity
  8
SPOJOVACÍ
  6
Continuous
100
AcDbLine
 10
2659.226387881637
 20
285.9009949435767
 30
0.0
 11
2659.628452723547
 21
286.2535405576281
 31
0.0
  0
LINE
  5
14EC
330
1F
100
AcDbEntity
  8
SPOJOVACÍ
  6
Continuous
100
AcDbLine
 10
2659.226387881637
 20
285.9009949435767
 30
0.0
 11
2659.033442127544
 21
286.2918515209821
 31
0.0
  0
LINE
  5
14ED
330
1F
100
AcDbEntity
  8
SPOJOVACÍ
  6
Continuous
100
AcDbLine
 10
2658.531214934359
 20
290.3769675475068
 30
0.0
 11
2659.628452723547
 21
286.2535405576281
 31
0.0
  0
LINE
  5
14EE
330
1F
100
AcDbEntity
  8
SPOJOVACÍ
  6
Continuous
100
AcDbLine
 10
2657.936204338089
 20
290.4152785108781
 30
0.0
 11
2659.033442127544
 21
286.2918515209821
 31
0.0
  0
LINE
  5
14EF
330
1F
100
AcDbEntity
  8
SPOJOVACÍ
  6
Continuous
100
AcDbLine
 10
2661.451631956959
 20
290.5673639558958
 30
0.0
 11
2662.340678911874
 21
285.7004750026981
 31
0.0
  0
LINE
  5
14F0
330
1F
100
AcDbEntity
  8
SPOJOVACÍ
  6
Continuous
100
AcDbLine
 10
2661.451631956959
 20
290.5673639558958
 30
0.0
 11
2661.644577710765
 21
290.1765073741334
 31
0.0
  0
LINE
  5
14F1
330
1F
100
AcDbEntity
  8
SPOJOVACÍ
  6
Continuous
100
AcDbLine
 10
2661.451631956959
 20
290.5673639558958
 30
0.0
 11
2661.049567114485
 21
290.2148183375052
 31
0.0
  0
LINE
  5
14F2
330
1F
100
AcDbEntity
  8
SPOJOVACÍ
  6
Continuous
100
AcDbLine
 10
2662.340678911874
 20
285.7004750026981
 30
0.0
 11
2662.741815500223
 21
286.0530803842375
 31
0.0
  0
LINE
  5
14F3
330
1F
100
AcDbEntity
  8
SPOJOVACÍ
  6
Continuous
100
AcDbLine
 10
2662.340678911874
 20
285.7004750026981
 30
0.0
 11
2662.146804903939
 21
286.0913913476096
 31
0.0
  0
LINE
  5
14F4
330
1F
100
AcDbEntity
  8
SPOJOVACÍ
  6
Continuous
100
AcDbLine
 10
2661.644577710765
 20
290.1765073741334
 30
0.0
 11
2662.741815500223
 21
286.0530803842375
 31
0.0
  0
LINE
  5
14F5
330
1F
100
AcDbEntity
  8
SPOJOVACÍ
  6
Continuous
100
AcDbLine
 10
2661.049567114485
 20
290.2148183375052
 30
0.0
 11
2662.146804903939
 21
286.0913913476096
 31
0.0
  0
LINE
  5
14F6
330
1F
100
AcDbEntity
  8
SPOJOVACÍ
  6
Continuous
100
AcDbLine
 10
2640.758814378882
 20
532.5911168629122
 30
0.0
 11
2639.492380609517
 21
531.7125937991541
 31
0.0
  0
LINE
  5
14F7
330
1F
100
AcDbEntity
  8
SPOJOVACÍ
  6
Continuous
100
AcDbLine
 10
2642.209146720812
 20
533.1119894345379
 30
0.0
 11
2640.758814378882
 21
532.5911168629122
 31
0.0
  0
LINE
  5
14F8
330
1F
100
AcDbEntity
  8
SPOJOVACÍ
  6
Continuous
100
AcDbLine
 10
2643.744209484462
 20
533.2405841699219
 30
0.0
 11
2642.209146720812
 21
533.1119894345379
 31
0.0
  0
LINE
  5
14F9
330
1F
100
AcDbEntity
  8
SPOJOVACÍ
  6
Continuous
100
AcDbLine
 10
2636.917267231172
 20
529.9219157820489
 30
0.0
 11
2638.114714453066
 21
529.8448157153534
 31
0.0
  0
LINE
  5
14FA
330
1F
100
AcDbEntity
  8
SPOJOVACÍ
  6
Continuous
100
AcDbLine
 10
2637.572677565524
 20
540.1011454211034
 30
0.0
 11
2636.917267231172
 21
529.9219157820489
 31
0.0
  0
LINE
  5
14FB
330
1F
100
AcDbEntity
  8
SPOJOVACÍ
  6
Continuous
100
AcDbLine
 10
2637.572677565524
 20
540.1011454211034
 30
0.0
 11
2638.770124787421
 21
540.0240453544084
 31
0.0
  0
LINE
  5
14FC
330
1F
100
AcDbEntity
  8
SPOJOVACÍ
  6
Continuous
100
AcDbLine
 10
2638.770124787421
 20
540.0240453544084
 30
0.0
 11
2638.114714453066
 21
529.8448157153534
 31
0.0
  0
LINE
  5
14FD
330
1F
100
AcDbEntity
  8
SPOJOVACÍ
  6
Continuous
100
AcDbLine
 10
2638.496703480381
 20
530.5370069466467
 30
0.0
 11
2638.114714453066
 21
529.8448157153534
 31
0.0
  0
LINE
  5
14FE
330
1F
100
AcDbEntity
  8
SPOJOVACÍ
  6
Continuous
100
AcDbLine
 10
2639.492380609517
 20
531.7125937991541
 30
0.0
 11
2638.496703480381
 21
530.5370069466467
 31
0.0
  0
LINE
  5
14FF
330
1F
100
AcDbEntity
  8
SPOJOVACÍ
  6
Continuous
100
AcDbLine
 10
2643.136595646574
 20
536.0508456051834
 30
0.0
 11
2643.91765475097
 21
535.9343762953458
 31
0.0
  0
LINE
  5
1500
330
1F
100
AcDbEntity
  8
SPOJOVACÍ
  6
Continuous
100
AcDbLine
 10
2641.68630886621
 20
536.572992136891
 30
0.0
 11
2643.136595646574
 21
536.0508456051834
 31
0.0
  0
LINE
  5
1501
330
1F
100
AcDbEntity
  8
SPOJOVACÍ
  6
Continuous
100
AcDbLine
 10
2640.421206150455
 20
537.4523275740512
 30
0.0
 11
2641.68630886621
 21
536.572992136891
 31
0.0
  0
LINE
  5
1502
330
1F
100
AcDbEntity
  8
SPOJOVACÍ
  6
Continuous
100
AcDbLine
 10
2639.426005082077
 20
538.6293352946849
 30
0.0
 11
2640.421206150455
 21
537.4523275740512
 31
0.0
  0
LINE
  5
1503
330
1F
100
AcDbEntity
  8
SPOJOVACÍ
  6
Continuous
100
AcDbLine
 10
2638.770124787421
 20
540.0240453544084
 30
0.0
 11
2639.426005082077
 21
538.6293352946849
 31
0.0
  0
LINE
  5
1504
330
1F
100
AcDbEntity
  8
SPOJOVACÍ
  6
Continuous
100
AcDbLine
 10
2643.744209484462
 20
533.2405841699219
 30
0.0
 11
2648.67694943519
 21
532.9229797091693
 31
0.0
  0
LINE
  5
1505
330
1F
100
AcDbEntity
  8
SPOJOVACÍ
  6
Continuous
100
AcDbLine
 10
2643.91765475097
 20
535.9343762953458
 30
0.0
 11
2647.947203890315
 21
535.6749256058174
 31
0.0
  0
LINE
  5
1506
330
1F
100
AcDbEntity
  8
SPOJOVACÍ
  6
Continuous
100
AcDbLine
 10
2648.541286232754
 20
535.6366744099513
 30
0.0
 11
2651.054997144772
 21
535.4748240374046
 31
0.0
  0
LINE
  5
1507
330
1F
100
AcDbEntity
  8
SPOJOVACÍ
  6
Continuous
100
AcDbLine
 10
2651.657433770127
 20
535.4360349340981
 30
0.0
 11
2654.173001189556
 21
535.2740650265586
 31
0.0
  0
LINE
  5
1508
330
1F
100
AcDbEntity
  8
SPOJOVACÍ
  6
Continuous
100
AcDbLine
 10
2654.766155278423
 20
535.2358735981797
 30
0.0
 11
2657.289148726929
 21
535.0734255507059
 31
0.0
  0
LINE
  5
1509
330
1F
100
AcDbEntity
  8
SPOJOVACÍ
  6
Continuous
100
AcDbLine
 10
2649.279386060545
 20
532.8841906058624
 30
0.0
 11
2651.793096972564
 21
532.7223402333157
 31
0.0
  0
LINE
  5
150A
330
1F
100
AcDbEntity
  8
SPOJOVACÍ
  6
Continuous
100
AcDbLine
 10
2652.38810756884
 20
532.6840292699444
 30
0.0
 11
2654.911101017344
 21
532.52158122247
 31
0.0
  0
LINE
  5
150B
330
1F
100
AcDbEntity
  8
SPOJOVACÍ
  6
Continuous
100
AcDbLine
 10
2655.504255106214
 20
532.4833897940911
 30
0.0
 11
2658.019822525643
 21
532.3214198865517
 31
0.0
  0
LINE
  5
150C
330
1F
100
AcDbEntity
  8
SPOJOVACÍ
  6
Continuous
100
AcDbLine
 10
2657.892513606119
 20
535.0345766798937
 30
0.0
 11
2660.405296264569
 21
534.8727860748349
 31
0.0
  0
LINE
  5
150D
330
1F
100
AcDbEntity
  8
SPOJOVACÍ
  6
Continuous
100
AcDbLine
 10
2661.000306860845
 20
534.8344751114632
 30
0.0
 11
2662.245095018992
 21
534.7543269026245
 31
0.0
  0
LINE
  5
150E
330
1F
100
AcDbEntity
  8
SPOJOVACÍ
  6
Continuous
100
AcDbLine
 10
2658.619474390023
 20
532.2828100857249
 30
0.0
 11
2661.133185302038
 21
532.1209597131792
 31
0.0
  0
LINE
  5
150F
330
1F
100
AcDbEntity
  8
SPOJOVACÍ
  6
Continuous
100
AcDbLine
 10
2661.735621927662
 20
532.0821706098549
 30
0.0
 11
2662.071649752484
 21
532.0605347772007
 31
0.0
  0
LINE
  5
1510
330
1F
100
AcDbEntity
  8
SPOJOVACÍ
  6
Continuous
100
AcDbLine
 10
2662.245095018992
 20
534.7543269026245
 30
0.0
 11
2663.430134913484
 21
534.527957299505
 31
0.0
  0
LINE
  5
1511
330
1F
100
AcDbEntity
  8
SPOJOVACÍ
  6
Continuous
100
AcDbLine
 10
2672.936325635208
 20
532.7134704744317
 30
0.0
 11
2670.083308809935
 21
532.542036914786
 31
0.0
  0
LINE
  5
1512
330
1F
100
AcDbEntity
  8
SPOJOVACÍ
  6
Continuous
100
AcDbLine
 10
2664.044319402888
 20
534.411047326027
 30
0.0
 11
2666.3425930806
 21
533.9722525188981
 31
0.0
  0
LINE
  5
1513
330
1F
100
AcDbEntity
  8
SPOJOVACÍ
  6
Continuous
100
AcDbLine
 10
2666.966868825413
 20
533.8528285969432
 30
0.0
 11
2669.264214249833
 21
533.4140935616597
 31
0.0
  0
LINE
  5
1514
330
1F
100
AcDbEntity
  8
SPOJOVACÍ
  6
Continuous
100
AcDbLine
 10
2669.878398739234
 20
533.2971835881807
 30
0.0
 11
2672.936325635208
 21
532.7134704744317
 31
0.0
  0
LINE
  5
1515
330
1F
100
AcDbEntity
  8
SPOJOVACÍ
  6
Continuous
100
AcDbLine
 10
2669.510615472747
 20
532.5071390880575
 30
0.0
 11
2667.3528494942
 21
532.3776258749062
 31
0.0
  0
LINE
  5
1516
330
1F
100
AcDbEntity
  8
SPOJOVACÍ
  6
Continuous
100
AcDbLine
 10
2666.777371396317
 20
532.342907355015
 30
0.0
 11
2664.628019468004
 21
532.2137844852668
 31
0.0
  0
LINE
  5
1517
330
1F
100
AcDbEntity
  8
SPOJOVACÍ
  6
Continuous
100
AcDbLine
 10
2664.054397876971
 20
532.1789464260441
 30
0.0
 11
2662.071649752484
 21
532.0605347772007
 31
0.0
  0
LINE
  5
1518
330
1F
100
AcDbEntity
  8
SPOJOVACÍ
  6
Continuous
100
AcDbLine
 10
2648.177125781028
 20
536.7124646771771
 30
0.0
 11
2649.066172735947
 21
531.845575723979
 31
0.0
  0
LINE
  5
1519
330
1F
100
AcDbEntity
  8
SPOJOVACÍ
  6
Continuous
100
AcDbLine
 10
2648.177125781028
 20
536.7124646771771
 30
0.0
 11
2648.370071534838
 21
536.3216080954144
 31
0.0
  0
LINE
  5
151A
330
1F
100
AcDbEntity
  8
SPOJOVACÍ
  6
Continuous
100
AcDbLine
 10
2648.177125781028
 20
536.7124646771771
 30
0.0
 11
2647.775060938831
 21
536.3599190587684
 31
0.0
  0
LINE
  5
151B
330
1F
100
AcDbEntity
  8
SPOJOVACÍ
  6
Continuous
100
AcDbLine
 10
2649.066172735947
 20
531.845575723979
 30
0.0
 11
2649.467309324292
 21
532.1981811055183
 31
0.0
  0
LINE
  5
151C
330
1F
100
AcDbEntity
  8
SPOJOVACÍ
  6
Continuous
100
AcDbLine
 10
2649.066172735947
 20
531.845575723979
 30
0.0
 11
2648.872298728012
 21
532.2364920688905
 31
0.0
  0
LINE
  5
151D
330
1F
100
AcDbEntity
  8
SPOJOVACÍ
  6
Continuous
100
AcDbLine
 10
2648.370071534838
 20
536.3216080954144
 30
0.0
 11
2649.467309324292
 21
532.1981811055183
 31
0.0
  0
LINE
  5
151E
330
1F
100
AcDbEntity
  8
SPOJOVACÍ
  6
Continuous
100
AcDbLine
 10
2647.775060938831
 20
536.3599190587684
 30
0.0
 11
2648.872298728012
 21
532.2364920688905
 31
0.0
  0
LINE
  5
151F
330
1F
100
AcDbEntity
  8
SPOJOVACÍ
  6
Continuous
100
AcDbLine
 10
2651.290488557428
 20
536.5120045038038
 30
0.0
 11
2652.179535512623
 21
531.6451155505883
 31
0.0
  0
LINE
  5
1520
330
1F
100
AcDbEntity
  8
SPOJOVACÍ
  6
Continuous
100
AcDbLine
 10
2651.290488557428
 20
536.5120045038038
 30
0.0
 11
2651.484362565079
 21
536.1210881545361
 31
0.0
  0
LINE
  5
1521
330
1F
100
AcDbEntity
  8
SPOJOVACÍ
  6
Continuous
100
AcDbLine
 10
2651.290488557428
 20
536.5120045038038
 30
0.0
 11
2650.889351968795
 21
536.1593991179079
 31
0.0
  0
LINE
  5
1522
330
1F
100
AcDbEntity
  8
SPOJOVACÍ
  6
Continuous
100
AcDbLine
 10
2652.179535512623
 20
531.6451155505883
 30
0.0
 11
2652.580672100688
 21
531.9977209321459
 31
0.0
  0
LINE
  5
1523
330
1F
100
AcDbEntity
  8
SPOJOVACÍ
  6
Continuous
100
AcDbLine
 10
2652.179535512623
 20
531.6451155505883
 30
0.0
 11
2651.985661504685
 21
532.0360318954994
 31
0.0
  0
LINE
  5
1524
330
1F
100
AcDbEntity
  8
SPOJOVACÍ
  6
Continuous
100
AcDbLine
 10
2651.484362565079
 20
536.1210881545361
 30
0.0
 11
2652.580672100688
 21
531.9977209321459
 31
0.0
  0
LINE
  5
1525
330
1F
100
AcDbEntity
  8
SPOJOVACÍ
  6
Continuous
100
AcDbLine
 10
2650.889351968795
 20
536.1593991179079
 30
0.0
 11
2651.985661504685
 21
532.0360318954994
 31
0.0
  0
LINE
  5
1526
330
1F
100
AcDbEntity
  8
SPOJOVACÍ
  6
Continuous
100
AcDbLine
 10
2663.68585172285
 20
535.4594400960777
 30
0.0
 11
2663.879665963188
 21
535.0675954959661
 31
0.0
  0
LINE
  5
1527
330
1F
100
AcDbEntity
  8
SPOJOVACÍ
  6
Continuous
100
AcDbLine
 10
2663.68585172285
 20
535.4594400960777
 30
0.0
 11
2663.284655366908
 21
535.1059064593382
 31
0.0
  0
LINE
  5
1528
330
1F
100
AcDbEntity
  8
SPOJOVACÍ
  6
Continuous
100
AcDbLine
 10
2664.391736217581
 20
531.2801183161513
 30
0.0
 11
2664.793801059772
 21
531.6326639301856
 31
0.0
  0
LINE
  5
1529
330
1F
100
AcDbEntity
  8
SPOJOVACÍ
  6
Continuous
100
AcDbLine
 10
2664.391736217581
 20
531.2801183161513
 30
0.0
 11
2664.198790463491
 21
531.6709748935572
 31
0.0
  0
LINE
  5
152A
330
1F
100
AcDbEntity
  8
SPOJOVACÍ
  6
Continuous
100
AcDbLine
 10
2663.879665963188
 20
535.0675954959661
 30
0.0
 11
2664.793801059772
 21
531.6326639301856
 31
0.0
  0
LINE
  5
152B
330
1F
100
AcDbEntity
  8
SPOJOVACÍ
  6
Continuous
100
AcDbLine
 10
2663.284655366908
 20
535.1059064593382
 30
0.0
 11
2664.198790463491
 21
531.6709748935572
 31
0.0
  0
LINE
  5
152C
330
1F
100
AcDbEntity
  8
SPOJOVACÍ
  6
Continuous
100
AcDbLine
 10
2663.68585172285
 20
535.4594400960777
 30
0.0
 11
2664.391736217581
 21
531.2801183161513
 31
0.0
  0
LINE
  5
152D
330
1F
100
AcDbEntity
  8
SPOJOVACÍ
  6
Continuous
100
AcDbLine
 10
2666.658042967435
 20
534.7022836796159
 30
0.0
 11
2666.850988721242
 21
534.3114270978539
 31
0.0
  0
LINE
  5
152E
330
1F
100
AcDbEntity
  8
SPOJOVACÍ
  6
Continuous
100
AcDbLine
 10
2666.658042967435
 20
534.7022836796159
 30
0.0
 11
2666.255978124961
 21
534.3497380612252
 31
0.0
  0
LINE
  5
152F
330
1F
100
AcDbEntity
  8
SPOJOVACÍ
  6
Continuous
100
AcDbLine
 10
2667.089962606467
 20
531.5519322541085
 30
0.0
 11
2667.492027448385
 21
531.9044778681605
 31
0.0
  0
LINE
  5
1530
330
1F
100
AcDbEntity
  8
SPOJOVACÍ
  6
Continuous
100
AcDbLine
 10
2667.089962606467
 20
531.5519322541085
 30
0.0
 11
2666.897016852377
 21
531.9427888315145
 31
0.0
  0
LINE
  5
1531
330
1F
100
AcDbEntity
  8
SPOJOVACÍ
  6
Continuous
100
AcDbLine
 10
2666.850988721242
 20
534.3114270978539
 30
0.0
 11
2667.492027448385
 21
531.9044778681605
 31
0.0
  0
LINE
  5
1532
330
1F
100
AcDbEntity
  8
SPOJOVACÍ
  6
Continuous
100
AcDbLine
 10
2666.255978124961
 20
534.3497380612252
 30
0.0
 11
2666.897016852377
 21
531.9427888315145
 31
0.0
  0
LINE
  5
1533
330
1F
100
AcDbEntity
  8
SPOJOVACÍ
  6
Continuous
100
AcDbLine
 10
2666.658042967435
 20
534.7022836796159
 30
0.0
 11
2667.089962606467
 21
531.5519322541085
 31
0.0
  0
LINE
  5
1534
330
1F
100
AcDbEntity
  8
SPOJOVACÍ
  6
Continuous
100
AcDbLine
 10
2669.629305957896
 20
533.9451870263028
 30
0.0
 11
2669.82317996582
 21
533.5542706813921
 31
0.0
  0
LINE
  5
1535
330
1F
100
AcDbEntity
  8
SPOJOVACÍ
  6
Continuous
100
AcDbLine
 10
2669.629305957896
 20
533.9451870263028
 30
0.0
 11
2669.228169369551
 21
533.5925816447634
 31
0.0
  0
LINE
  5
1536
330
1F
100
AcDbEntity
  8
SPOJOVACÍ
  6
Continuous
100
AcDbLine
 10
2669.800921165435
 20
531.7753892078826
 30
0.0
 11
2670.202986007349
 21
532.1279348219349
 31
0.0
  0
LINE
  5
1537
330
1F
100
AcDbEntity
  8
SPOJOVACÍ
  6
Continuous
100
AcDbLine
 10
2669.800921165435
 20
531.7753892078826
 30
0.0
 11
2669.607975411076
 21
532.1662457853058
 31
0.0
  0
LINE
  5
1538
330
1F
100
AcDbEntity
  8
SPOJOVACÍ
  6
Continuous
100
AcDbLine
 10
2669.82317996582
 20
533.5542706813921
 30
0.0
 11
2670.202986007349
 21
532.1279348219349
 31
0.0
  0
LINE
  5
1539
330
1F
100
AcDbEntity
  8
SPOJOVACÍ
  6
Continuous
100
AcDbLine
 10
2669.228169369551
 20
533.5925816447634
 30
0.0
 11
2669.607975411076
 21
532.1662457853058
 31
0.0
  0
LINE
  5
153A
330
1F
100
AcDbEntity
  8
SPOJOVACÍ
  6
Continuous
100
AcDbLine
 10
2669.629305957896
 20
533.9451870263028
 30
0.0
 11
2669.800921165435
 21
531.7753892078826
 31
0.0
  0
LINE
  5
153B
330
1F
100
AcDbEntity
  8
SPOJOVACÍ
  6
Continuous
100
AcDbLine
 10
2654.4038513341
 20
536.3115443304131
 30
0.0
 11
2655.292898289019
 21
531.4446553772154
 31
0.0
  0
LINE
  5
153C
330
1F
100
AcDbEntity
  8
SPOJOVACÍ
  6
Continuous
100
AcDbLine
 10
2654.4038513341
 20
536.3115443304131
 30
0.0
 11
2654.597725341751
 21
535.9206279811456
 31
0.0
  0
LINE
  5
153D
330
1F
100
AcDbEntity
  8
SPOJOVACÍ
  6
Continuous
100
AcDbLine
 10
2654.4038513341
 20
536.3115443304131
 30
0.0
 11
2654.002714745467
 21
535.9589389445172
 31
0.0
  0
LINE
  5
153E
330
1F
100
AcDbEntity
  8
SPOJOVACÍ
  6
Continuous
100
AcDbLine
 10
2655.292898289019
 20
531.4446553772154
 30
0.0
 11
2655.694963130932
 21
531.7972009912673
 31
0.0
  0
LINE
  5
153F
330
1F
100
AcDbEntity
  8
SPOJOVACÍ
  6
Continuous
100
AcDbLine
 10
2655.292898289019
 20
531.4446553772154
 30
0.0
 11
2655.099952534659
 21
531.8355119546386
 31
0.0
  0
LINE
  5
1540
330
1F
100
AcDbEntity
  8
SPOJOVACÍ
  6
Continuous
100
AcDbLine
 10
2654.597725341751
 20
535.9206279811456
 30
0.0
 11
2655.694963130932
 21
531.7972009912673
 31
0.0
  0
LINE
  5
1541
330
1F
100
AcDbEntity
  8
SPOJOVACÍ
  6
Continuous
100
AcDbLine
 10
2654.002714745467
 20
535.9589389445172
 30
0.0
 11
2655.099952534659
 21
531.8355119546386
 31
0.0
  0
LINE
  5
1542
330
1F
100
AcDbEntity
  8
SPOJOVACÍ
  6
Continuous
100
AcDbLine
 10
2657.517214110507
 20
536.1110841570398
 30
0.0
 11
2658.406261065425
 21
531.2441952038425
 31
0.0
  0
LINE
  5
1543
330
1F
100
AcDbEntity
  8
SPOJOVACÍ
  6
Continuous
100
AcDbLine
 10
2657.517214110507
 20
536.1110841570398
 30
0.0
 11
2657.711088118147
 21
535.7201678077727
 31
0.0
  0
LINE
  5
1544
330
1F
100
AcDbEntity
  8
SPOJOVACÍ
  6
Continuous
100
AcDbLine
 10
2657.517214110507
 20
536.1110841570398
 30
0.0
 11
2657.116077521878
 21
535.7584787711439
 31
0.0
  0
LINE
  5
1545
330
1F
100
AcDbEntity
  8
SPOJOVACÍ
  6
Continuous
100
AcDbLine
 10
2658.406261065425
 20
531.2441952038425
 30
0.0
 11
2658.808325907335
 21
531.596740817894
 31
0.0
  0
LINE
  5
1546
330
1F
100
AcDbEntity
  8
SPOJOVACÍ
  6
Continuous
100
AcDbLine
 10
2658.406261065425
 20
531.2441952038425
 30
0.0
 11
2658.213315311332
 21
531.6350517812479
 31
0.0
  0
LINE
  5
1547
330
1F
100
AcDbEntity
  8
SPOJOVACÍ
  6
Continuous
100
AcDbLine
 10
2657.711088118147
 20
535.7201678077727
 30
0.0
 11
2658.808325907335
 21
531.596740817894
 31
0.0
  0
LINE
  5
1548
330
1F
100
AcDbEntity
  8
SPOJOVACÍ
  6
Continuous
100
AcDbLine
 10
2657.116077521878
 20
535.7584787711439
 30
0.0
 11
2658.213315311332
 21
531.6350517812479
 31
0.0
  0
LINE
  5
1549
330
1F
100
AcDbEntity
  8
SPOJOVACÍ
  6
Continuous
100
AcDbLine
 10
2660.631505140747
 20
535.9105642161616
 30
0.0
 11
2661.520552095662
 21
531.0436752629639
 31
0.0
  0
LINE
  5
154A
330
1F
100
AcDbEntity
  8
SPOJOVACÍ
  6
Continuous
100
AcDbLine
 10
2660.631505140747
 20
535.9105642161616
 30
0.0
 11
2660.824450894553
 21
535.5197076343992
 31
0.0
  0
LINE
  5
154B
330
1F
100
AcDbEntity
  8
SPOJOVACÍ
  6
Continuous
100
AcDbLine
 10
2660.631505140747
 20
535.9105642161616
 30
0.0
 11
2660.229440298273
 21
535.558018597771
 31
0.0
  0
LINE
  5
154C
330
1F
100
AcDbEntity
  8
SPOJOVACÍ
  6
Continuous
100
AcDbLine
 10
2661.520552095662
 20
531.0436752629639
 30
0.0
 11
2661.921688684011
 21
531.3962806445033
 31
0.0
  0
LINE
  5
154D
330
1F
100
AcDbEntity
  8
SPOJOVACÍ
  6
Continuous
100
AcDbLine
 10
2661.520552095662
 20
531.0436752629639
 30
0.0
 11
2661.326678087727
 21
531.4345916078755
 31
0.0
  0
LINE
  5
154E
330
1F
100
AcDbEntity
  8
SPOJOVACÍ
  6
Continuous
100
AcDbLine
 10
2660.824450894553
 20
535.5197076343992
 30
0.0
 11
2661.921688684011
 21
531.3962806445033
 31
0.0
  0
LINE
  5
154F
330
1F
100
AcDbEntity
  8
SPOJOVACÍ
  6
Continuous
100
AcDbLine
 10
2660.229440298273
 20
535.558018597771
 30
0.0
 11
2661.326678087727
 21
531.4345916078755
 31
0.0
  0
HATCH
  5
1550
330
1F
100
AcDbEntity
  8
STAVBA OBRYS
100
AcDbHatch
 10
0.0
 20
0.0
 30
0.0
210
0.0
220
0.0
230
1.0
  2
AR-SAND
 70
     0
 71
     0
 91
        1
 92
        7
 72
     0
 73
     1
 93
        4
 10
3056.400660841249
 20
599.9357453685334
 10
3046.400660841249
 20
599.9357453685334
 10
3046.400660841249
 20
271.1921974577871
 10
3056.400660841249
 20
271.1921974577867
 97
        0
 75
     0
 76
     1
 52
0.0
 41
0.1
 77
     0
 78
     4
 53
37.5
 43
-16080.76416464831
 44
-2477.956340651022
 45
-0.1600031295984046
 46
4.894132373293423
 79
     6
 49
0.0
 49
-3.8608
 49
0.0
 49
-4.318
 49
0.0
 49
-4.1275
 53
7.499999999999999
 43
-16080.76416464831
 44
-2477.956340651022
 45
4.495232831380026
 46
7.168251005683543
 79
     6
 49
0.0
 49
-2.0828
 49
0.0
 49
-3.4798
 49
0.0
 49
-1.3335
 53
327.4999999999999
 43
-16083.88836464831
 44
-2477.956340651022
 45
7.909923702414579
 46
0.0143718467854569
 79
     6
 49
0.0
 49
-1.27
 49
0.0
 49
-4.572
 49
0.0
 49
-5.969
 53
317.5
 43
-16083.88836464831
 44
-2477.956340651022
 45
7.635564524722972
 46
2.229293232572162
 79
     6
 49
0.0
 49
-0.635
 49
0.0
 49
-2.997199999999999
 49
0.0
 49
-3.429
 47
0.5328985462403347
 98
        1
 10
3051.985566366766
 20
508.6701703028374
  0
LINE
  5
1551
330
1F
100
AcDbEntity
  8
STAVBA OBRYS
100
AcDbLine
 10
3056.128666707933
 20
98.41102322498228
 30
0.0
 11
3173.315481413006
 21
98.41102322498228
 31
0.0
  0
LINE
  5
1552
330
1F
100
AcDbEntity
  8
STAVBA OBRYS
100
AcDbLine
 10
3056.048379659525
 20
-89.0560026078433
 30
0.0
 11
3056.128666707933
 21
98.41102322498228
 31
0.0
  0
LINE
  5
1553
330
1F
100
AcDbEntity
  8
STAVBA OBRYS
100
AcDbLine
 10
3056.400660841249
 20
599.9357453685334
 30
0.0
 11
3056.400660841253
 21
271.1921974577871
 31
0.0
  0
LINE
  5
1554
330
1F
100
AcDbEntity
  8
POPIS
100
AcDbLine
 10
2435.479327134675
 20
554.5754059523246
 30
0.0
 11
2638.305518248871
 21
554.5754059523228
 31
0.0
  0
TEXT
  5
1555
330
1F
100
AcDbEntity
  8
POPIS
100
AcDbText
 10
2397.175676036957
 20
541.132064502954
 30
0.0
 40
25.0
  1
10
 41
0.7
  7
SIMPLEX7
100
AcDbText
  0
LWPOLYLINE
  5
1556
330
1F
100
AcDbEntity
  8
PROFILY
100
AcDbPolyline
 90
        2
 70
     1
 43
2.5
 10
2639.790794170094
 20
313.7029556297097
 42
-1.0
 10
2637.291575380674
 20
313.6404620889779
 42
-1.0
  0
LINE
  5
1557
330
1F
100
AcDbEntity
  8
PROFILY
100
AcDbLine
 10
2640.44923195531
 20
301.3986859278688
 30
0.0
 11
2635.452830091511
 21
301.7172754897342
 31
0.0
  0
HATCH
  5
1558
330
1F
100
AcDbEntity
  8
PROFILY
100
AcDbHatch
 10
0.0
 20
0.0
 30
0.0
210
0.0
220
0.0
230
1.0
  2
SOLID
 70
     1
 71
     0
 91
        1
 92
        1
 93
        4
 72
     1
 10
2641.057695138868
 20
313.6399833342798
 11
2636.061293275073
 21
313.9585728961447
 72
     1
 10
2636.061293275077
 20
313.9585728961442
 11
2635.452830091511
 21
301.7172754897337
 72
     1
 10
2635.452830091511
 20
301.7172754897342
 11
2640.449231955306
 21
301.3986859278688
 72
     1
 10
2640.44923195531
 20
301.3986859278688
 11
2641.057695138876
 21
313.6399833342798
 97
        0
 75
     0
 76
     1
 98
        1
 10
-17016.34333781355
 20
-2955.106255920132
  0
LWPOLYLINE
  5
1559
330
1F
100
AcDbEntity
  8
PROFILY
100
AcDbPolyline
 90
        2
 70
     1
 43
2.5
 10
2639.239021574892
 20
301.5867801508184
 42
-1.0
 10
2636.739802785479
 20
301.5242866100866
 42
-1.0
  0
LWPOLYLINE
  5
155A
330
1F
100
AcDbEntity
  8
PROFILY
100
AcDbPolyline
 90
        2
 70
     1
 43
2.5
 10
2638.528727980552
 20
549.3661938935229
 42
-1.0
 10
2636.029509191139
 20
549.3037003527911
 42
-1.0
  0
HATCH
  5
155B
330
1F
100
AcDbEntity
  8
PROFILY
100
AcDbHatch
 10
0.0
 20
0.0
 30
0.0
210
0.0
220
0.0
230
1.0
  2
SOLID
 70
     1
 71
     0
 91
        1
 92
        1
 93
        4
 72
     1
 10
2640.347401544528
 20
561.4193970769843
 11
2635.350999680733
 21
561.7379866388492
 72
     1
 10
2635.350999680737
 20
561.7379866388487
 11
2634.742536497171
 21
549.4966892324383
 72
     1
 10
2634.742536497171
 20
549.4966892324387
 11
2639.738938360966
 21
549.1780996705734
 72
     1
 10
2639.73893836097
 20
549.1780996705734
 11
2640.347401544535
 21
561.4193970769843
 97
        0
 75
     0
 76
     1
 98
        1
 10
-17017.05363140789
 20
-2707.326842177428
  0
LINE
  5
155C
330
1F
100
AcDbEntity
  8
PROFILY
100
AcDbLine
 10
2639.73893836097
 20
549.1780996705734
 30
0.0
 11
2634.742536497171
 21
549.4966892324387
 31
0.0
  0
LWPOLYLINE
  5
155D
330
1F
100
AcDbEntity
  8
PROFILY
100
AcDbPolyline
 90
        2
 70
     1
 43
2.5
 10
2639.080500575754
 20
561.4823693724142
 42
-1.0
 10
2636.581281786333
 20
561.4198758316824
 42
-1.0
  0
TEXT
  5
155E
330
1F
100
AcDbEntity
  8
POPIS
100
AcDbText
 10
2470.568746707129
 20
-610.867324382436
 30
0.0
 40
25.0
  1
Silikonový tmel
 41
0.7
  7
SIMPLEX7
100
AcDbText
  0
TEXT
  5
155F
330
1F
100
AcDbEntity
  8
POPIS
100
AcDbText
 10
2416.225043547387
 20
-610.867324382436
 30
0.0
 40
25.0
  1
10
 41
0.85
  7
SIMPLEX7
100
AcDbText
  0
LWPOLYLINE
  5
1560
330
1F
100
AcDbEntity
  8
NOSNÉ KONSTRUKCE
100
AcDbPolyline
 90
        7
 70
     0
 43
0.0
 10
2652.239076338203
 20
71.67331623139216
 42
-0.0072417954699014
 10
2651.827671126928
 20
71.72888659923455
 42
-0.0707158694326265
 10
2649.891567674334
 20
72.2600131156546
 42
-0.033952657250207
 10
2645.538529949161
 20
74.50866895506305
 42
-0.0571374688189033
 10
2643.231605665474
 20
76.29482571491507
 42
-0.0274923553235744
 10
2640.84653034234
 20
78.89213144546784
 42
-0.0065397459216397
 10
2640.239076338202
 20
79.65139197373355
 42
-0.0272796991712396
  0
LWPOLYLINE
  5
1569
330
1F
100
AcDbEntity
  8
NOSNÉ KONSTRUKCE
100
AcDbPolyline
 90
        9
 70
     0
 43
0.0
 10
2652.239076338203
 20
78.90136725212915
 42
-0.0064239028828688
 10
2652.019962678852
 20
78.94023569230967
 42
-0.0832048017309575
 10
2649.689749099198
 20
79.72441829499121
 42
-0.0336767237692336
 10
2646.961474579737
 20
81.42723485391298
 42
-0.0844635135812105
 10
2646.057052974742
 20
82.34704461380578
 42
-0.0495829410719565
 10
2645.080403467429
 20
84.0957230511599
 42
-0.0322692699774654
 10
2644.038879966029
 20
86.9870772322506
 42
-0.0276160659512937
 10
2643.842144537084
 20
87.84265367053786
 42
-0.0126891984598699
 10
2643.706942147542
 20
88.76582206633065
  0
LWPOLYLINE
  5
1574
330
1F
100
AcDbEntity
  8
NOSNÉ KONSTRUKCE
100
AcDbPolyline
 90
        7
 70
     0
 43
0.0
 10
2652.239076338203
 20
84.25105358664723
 42
-0.0203924744732807
 10
2651.225946309049
 20
85.15313757105877
 42
-0.0273961979096945
 10
2650.437769935022
 20
86.00300192125406
 42
-0.0243529190212958
 10
2649.564010590355
 20
87.16612241367375
 42
-0.0398020282482987
 10
2649.124381846908
 20
87.94108095123419
 42
-0.104168275620852
 10
2649.034365386731
 20
88.32749208757423
 42
-0.007272956268647
 10
2649.015912035436
 20
88.76582206633065
 42
-0.007272956268647
  0
LWPOLYLINE
  5
1575
330
1F
100
AcDbEntity
  8
NOSNÉ KONSTRUKCE
100
AcDbPolyline
 90
        4
 70
     0
 43
0.0
 10
2652.239076338203
 20
64.72353820770923
 42
-0.0168162630274191
 10
2650.548038186083
 20
64.85856378677318
 42
-0.0575155827655532
 10
2647.448413525366
 20
65.53859606711603
 42
-0.0308717424615247
 10
2640.239076338202
 20
68.52395246271453
 42
-0.0308717424615247
  0
LWPOLYLINE
  5
1576
330
1F
100
AcDbEntity
  8
NOSNÉ KONSTRUKCE
100
AcDbPolyline
 90
        4
 70
     0
 43
0.0
 10
2652.239076338203
 20
47.23226360415629
 42
-0.0128837512779303
 10
2648.905911516456
 20
47.51705556438219
 42
-0.0351641677647434
 10
2645.302202062117
 20
48.14481528590523
 42
-0.0080161298787018
 10
2640.239076338202
 20
49.48520607368073
 42
-0.0080161298787018
  0
LWPOLYLINE
  5
1577
330
1F
100
AcDbEntity
  8
NOSNÉ KONSTRUKCE
100
AcDbPolyline
 90
        2
 70
     0
 43
0.0
 10
2645.739906768947
 20
62.76484698338435
 10
2640.239076338202
 20
50.82955540869534
  0
LWPOLYLINE
  5
1578
330
1F
100
AcDbEntity
  8
NOSNÉ KONSTRUKCE
100
AcDbPolyline
 90
        5
 70
     0
 43
0.0
 10
2652.239076338203
 20
55.85647898419892
 42
-0.0120721047703142
 10
2650.505188199458
 20
55.92546167423688
 42
-0.044358077361292
 10
2647.809388181042
 20
56.32108940891021
 42
-0.0188067511131767
 10
2640.567159005735
 20
58.34091285729346
 42
-0.0051027088350076
 10
2640.239076338202
 20
58.44956257348212
 42
-0.0051027088350076
  0
LWPOLYLINE
  5
1579
330
1F
100
AcDbEntity
  8
NOSNÉ KONSTRUKCE
100
AcDbPolyline
 90
        2
 70
     0
 43
0.0
 10
2646.721745642684
 20
82.05742460862939
 10
2640.239076338202
 20
69.10156914220943
  0
HATCH
  5
157A
330
1F
100
AcDbEntity
  8
STAVBA OBRYS
100
AcDbHatch
 10
0.0
 20
0.0
 30
0.0
210
0.0
220
0.0
230
1.0
  2
AR-CONC
 70
     0
 71
     0
 91
        2
 92
        7
 72
     0
 73
     1
 93
        4
 10
2762.654223502202
 20
-51.09437970273211
 10
2394.732928038782
 20
-51.09437970273211
 10
2396.725304266616
 20
-106.3929766774326
 10
2762.654223502202
 20
-96.07663765019061
 97
        0
 92
      137
 93
        4
 72
     1
 10
2408.454836197084
 20
-92.85324408125825
 11
2482.109167711409
 21
-92.85324408125825
 72
     1
 10
2482.109167711409
 20
-92.85324408125825
 11
2482.109167711409
 21
-45.88871474974394
 72
     1
 10
2482.109167711409
 20
-45.88871474974394
 11
2408.454836197084
 21
-45.88871474974394
 72
     1
 10
2408.454836197084
 20
-45.88871474974394
 11
2408.454836197084
 21
-92.85324408125825
 97
        0
 75
     0
 76
     1
 52
0.0
 41
0.35
 77
     0
 78
    13
 53
50.0
 43
-17481.73846573744
 44
-2477.956340651022
 45
63.7646341486014
 46
-5.57867993861608
 79
     2
 49
6.667499999999999
 49
-73.3425
 53
355.0
 43
-17481.73846573744
 44
-2477.956340651022
 45
-12.33498909148344
 46
66.86982500876299
 79
     2
 49
5.333999999999999
 49
-58.67399999999999
 53
100.451
 43
-17476.42476573744
 44
-2478.421228151022
 45
51.42987558308573
 46
61.29084073710215
 79
     2
 49
5.6665
 49
-62.3315
 53
46.1842
 43
-17481.73846573744
 44
-2460.176340651022
 45
94.87766431224546
 46
-14.7148147764545
 79
     2
 49
10.00124999999999
 49
-110.0137499999999
 53
96.63559999999998
 43
-17473.83200073744
 44
-2461.402565651022
 45
83.09148206318299
 46
86.59894456151723
 79
     2
 49
8.499749999999989
 49
-93.49724999999992
 53
351.184
 43
-17481.73846573744
 44
-2460.176340651022
 45
83.09161203487688
 46
86.59879125120918
 79
     2
 49
8.000999999999999
 49
-88.01099999999999
 53
21.0
 43
-17472.84846573744
 44
-2464.621340651022
 45
53.06520794238414
 46
-35.79293148086687
 79
     2
 49
6.667499999999999
 49
-73.3425
 53
326.0
 43
-17472.84846573744
 44
-2464.621340651022
 45
21.63070992167647
 46
64.46578814281174
 79
     2
 49
5.333999999999999
 49
-58.67399999999999
 53
71.45140000000001
 43
-17468.42639073744
 44
-2467.604075651022
 45
74.69577176954356
 46
28.6730002006201
 79
     2
 49
5.6665
 49
-62.3315
 53
37.5
 43
-17481.73846573744
 44
-2477.956340651022
 45
1.081011137707135
 46
29.59426360560359
 79
     6
 49
0.0
 49
-57.96279999999999
 49
0.0
 49
-59.56299999999999
 49
0.0
 49
-58.89624999999999
 53
7.499999999999999
 43
-17481.73846573744
 44
-2477.956340651022
 45
23.38688187860701
 46
35.06320118634183
 79
     6
 49
0.0
 49
-33.95979999999999
 49
0.0
 49
-56.62929999999999
 49
0.0
 49
-22.44725
 53
327.4999999999999
 43
-17501.56316573744
 44
-2477.956340651022
 45
47.45670830840498
 46
-2.005060397435712
 79
     6
 49
0.0
 49
-22.22499999999999
 49
0.0
 49
-69.342
 49
0.0
 49
-92.01149999999998
 53
317.5
 43
-17510.45316573744
 44
-2477.956340651022
 45
51.84521348510632
 46
8.899271861666553
 79
     6
 49
0.0
 49
-28.8925
 49
0.0
 49
-46.05019999999999
 49
0.0
 49
-65.3415
 47
1.064071045595498
 98
        1
 10
2600.073847964544
 20
-81.91934818482513
  0
HATCH
  5
157B
330
1F
100
AcDbEntity
  8
STAVBA OBRYS
100
AcDbHatch
 10
0.0
 20
0.0
 30
0.0
210
0.0
220
0.0
230
1.0
  2
BRICK
 70
     0
 71
     0
 91
        1
 92
        7
 72
     0
 73
     1
 93
       20
 10
3046.132948519927
 20
108.4110232249822
 10
2902.959521683919
 20
108.4110232249818
 10
2902.959521683919
 20
214.2515428704264
 10
3046.400660841253
 20
214.2515428704264
 10
3046.400660841249
 20
599.9541992610939
 10
2762.65422350221
 20
605.9245534735073
 10
2762.65422350221
 20
587.6196419237722
 10
2822.647334644065
 20
587.6196419237713
 10
2825.281495247244
 20
583.0571419237712
 10
2822.647334644061
 20
578.4946419237708
 10
2762.65422350221
 20
578.4946419237721
 10
2762.65422350221
 20
438.1912463871144
 10
2762.654223502202
 20
87.61964192377218
 10
2822.647334644068
 20
87.61964192377082
 10
2825.281495247244
 20
83.05714192377037
 10
2822.647334644061
 20
78.49464192377173
 10
2762.654223502202
 20
78.49464192377263
 10
2762.654223502202
 20
-51.09437970273211
 10
2762.654223502202
 20
-96.07030361593434
 10
3046.048380576612
 20
-89.05171987915128
 97
        0
 75
     0
 76
     1
 52
0.0
 41
10.0
 77
     0
 78
     3
 53
0.0
 43
-7903.496983973775
 44
-2779.535526995021
 45
0.0
 46
63.5
 79
     0
 53
90.0
 43
-7903.496983973775
 44
-2779.535526995021
 45
-127.0
 46
0.0000000000000078
 79
     2
 49
63.5
 49
-63.5
 53
90.0
 43
-7839.996983973775
 44
-2779.535526995021
 45
-127.0
 46
0.0000000000000078
 79
     2
 49
-63.5
 49
63.5
 47
3.614665800895636
 98
        1
 10
2828.710965692098
 20
-16.05470632897595
  0
LINE
  5
157C
330
1F
100
AcDbEntity
  8
STAVBA OBRYS
100
AcDbLine
 10
3046.400660841249
 20
599.9357453685334
 30
0.0
 11
3046.400660841249
 21
214.2515428704264
 31
0.0
  0
LINE
  5
157D
330
1F
100
AcDbEntity
  8
STAVBA OBRYS
100
AcDbLine
 10
2762.654223502202
 20
-51.09437970273211
 30
0.0
 11
2762.654223502202
 21
-96.07030361593388
 31
0.0
  0
LINE
  5
157E
330
1F
100
AcDbEntity
  8
NOSNÉ KONSTRUKCE
100
AcDbLine
 10
2672.653640231972
 20
348.3368531326823
 30
0.0
 11
2673.526579209396
 21
354.3785316319235
 31
0.0
  0
LINE
  5
157F
330
1F
100
AcDbEntity
  8
NOSNÉ KONSTRUKCE
100
AcDbLine
 10
2675.566559987539
 20
438.2650366790739
 30
0.0
 11
2675.880540145368
 21
418.0238000692161
 31
0.0
  0
LINE
  5
1580
330
1F
100
AcDbEntity
  8
NOSNÉ KONSTRUKCE
100
AcDbLine
 10
2675.880540145368
 20
418.0238000692161
 30
0.0
 11
2675.096509186976
 21
381.3668471117316
 31
0.0
  0
LINE
  5
1581
330
1F
100
AcDbEntity
  8
NOSNÉ KONSTRUKCE
100
AcDbLine
 10
2662.782690173993
 20
410.43550108605
 30
0.0
 11
2664.819985614722
 21
417.99841842787
 31
0.0
  0
LINE
  5
1582
330
1F
100
AcDbEntity
  8
NOSNÉ KONSTRUKCE
100
AcDbLine
 10
2664.819985614722
 20
417.99841842787
 30
0.0
 11
2665.98232807498
 21
431.4816983214813
 31
0.0
  0
LINE
  5
1583
330
1F
100
AcDbEntity
  8
NOSNÉ KONSTRUKCE
100
AcDbLine
 10
2652.239076338203
 20
369.1167302039284
 30
0.0
 11
2653.724259001701
 21
385.4448127819314
 31
0.0
  0
LINE
  5
1584
330
1F
100
AcDbEntity
  8
NOSNÉ KONSTRUKCE
100
AcDbLine
 10
2657.103989639861
 20
405.2753971646243
 30
0.0
 11
2656.881923911434
 21
431.0060676493058
 31
0.0
  0
LINE
  5
1585
330
1F
100
AcDbEntity
  8
NOSNÉ KONSTRUKCE
100
AcDbLine
 10
2662.491652137953
 20
401.1272937392322
 30
0.0
 11
2662.782690173993
 21
410.43550108605
 31
0.0
  0
LINE
  5
1586
330
1F
100
AcDbEntity
  8
NOSNÉ KONSTRUKCE
100
AcDbLine
 10
2653.724259001701
 20
385.4448127819314
 30
0.0
 11
2652.849276832774
 21
407.0163035599225
 31
0.0
  0
LINE
  5
1587
330
1F
100
AcDbEntity
  8
NOSNÉ KONSTRUKCE
100
AcDbLine
 10
2652.849276832774
 20
407.0163035599225
 30
0.0
 11
2652.239076338203
 21
416.7845486278475
 31
0.0
  0
LINE
  5
1588
330
1F
100
AcDbEntity
  8
NOSNÉ KONSTRUKCE
100
AcDbLine
 10
2657.659124772497
 20
394.8444265087828
 30
0.0
 11
2657.103989639861
 21
405.2753971646243
 31
0.0
  0
LINE
  5
1589
330
1F
100
AcDbEntity
  8
NOSNÉ KONSTRUKCE
100
AcDbLine
 10
2668.63821433888
 20
394.6145846520639
 30
0.0
 11
2668.63821433888
 21
430.3477685334301
 31
0.0
  0
LINE
  5
158A
330
1F
100
AcDbEntity
  8
NOSNÉ KONSTRUKCE
100
AcDbLine
 10
2657.659124772497
 20
375.6469941147161
 30
0.0
 11
2657.659124772497
 21
394.8444265087828
 31
0.0
  0
LINE
  5
158B
330
1F
100
AcDbEntity
  8
NOSNÉ KONSTRUKCE
100
AcDbLine
 10
2662.200614101912
 20
373.7844650996858
 30
0.0
 11
2662.491652137953
 21
401.1272937392322
 31
0.0
  0
LINE
  5
158C
330
1F
100
AcDbEntity
  8
NOSNÉ KONSTRUKCE
100
AcDbLine
 10
2667.367787047867
 20
369.7371125391991
 30
0.0
 11
2668.63821433888
 21
394.6145846520639
 31
0.0
  0
LINE
  5
158D
330
1F
100
AcDbEntity
  8
NOSNÉ KONSTRUKCE
100
AcDbLine
 10
2675.096509186976
 20
381.3668471117316
 30
0.0
 11
2673.526579209396
 21
354.3785316319235
 31
0.0
  0
LINE
  5
158E
330
1F
100
AcDbEntity
  8
NOSNÉ KONSTRUKCE
100
AcDbLine
 10
2657.04917373056
 20
367.9758755754564
 30
0.0
 11
2657.659124772497
 21
375.6469941147161
 31
0.0
  0
LINE
  5
158F
330
1F
100
AcDbEntity
  8
NOSNÉ KONSTRUKCE
100
AcDbLine
 10
2661.910714415422
 20
357.1243670211925
 30
0.0
 11
2661.910714415422
 21
364.1055090016497
 31
0.0
  0
LINE
  5
1590
330
1F
100
AcDbEntity
  8
NOSNÉ KONSTRUKCE
100
AcDbLine
 10
2661.910714415422
 20
364.1055090016497
 30
0.0
 11
2662.200614101912
 21
373.7844650996858
 31
0.0
  0
LINE
  5
1591
330
1F
100
AcDbEntity
  8
NOSNÉ KONSTRUKCE
100
AcDbLine
 10
2663.362985750612
 20
469.8780243128466
 30
0.0
 11
2662.926414102327
 21
479.186231659668
 31
0.0
  0
LINE
  5
1592
330
1F
100
AcDbEntity
  8
NOSNÉ KONSTRUKCE
100
AcDbLine
 10
2673.186650519423
 20
472.3680589385776
 30
0.0
 11
2674.532646707765
 21
465.0811646914635
 31
0.0
  0
LINE
  5
1593
330
1F
100
AcDbEntity
  8
NOSNÉ KONSTRUKCE
100
AcDbLine
 10
2656.881923911434
 20
431.0060676493058
 30
0.0
 11
2655.105485649325
 21
458.8589824940582
 31
0.0
  0
LINE
  5
1594
330
1F
100
AcDbEntity
  8
NOSNÉ KONSTRUKCE
100
AcDbLine
 10
2655.105485649325
 20
458.8589824940582
 30
0.0
 11
2655.327522189309
 21
475.282203292857
 31
0.0
  0
LINE
  5
1595
330
1F
100
AcDbEntity
  8
NOSNÉ KONSTRUKCE
100
AcDbLine
 10
2665.98232807498
 20
431.4816983214813
 30
0.0
 11
2663.654023786654
 21
456.2066099930753
 31
0.0
  0
LINE
  5
1596
330
1F
100
AcDbEntity
  8
NOSNÉ KONSTRUKCE
100
AcDbLine
 10
2663.654023786654
 20
456.2066099930753
 30
0.0
 11
2663.362985750612
 21
469.8780243128466
 31
0.0
  0
LINE
  5
1597
330
1F
100
AcDbEntity
  8
NOSNÉ KONSTRUKCE
100
AcDbLine
 10
2668.63821433888
 20
430.3477685334301
 30
0.0
 11
2668.215098566095
 21
453.1831640290447
 31
0.0
  0
LINE
  5
1598
330
1F
100
AcDbEntity
  8
NOSNÉ KONSTRUKCE
100
AcDbLine
 10
2668.215098566095
 20
453.1831640290447
 30
0.0
 11
2669.061154980965
 21
472.0012247688619
 31
0.0
  0
LINE
  5
1599
330
1F
100
AcDbEntity
  8
NOSNÉ KONSTRUKCE
100
AcDbLine
 10
2674.532646707765
 20
465.0811646914635
 30
0.0
 11
2675.566559987539
 21
438.2650366790739
 31
0.0
  0
LINE
  5
159A
330
1F
100
AcDbEntity
  8
NOSNÉ KONSTRUKCE
100
AcDbLine
 10
2665.834634517425
 20
533.682942733024
 30
0.0
 11
2664.957784287693
 21
547.412624786667
 31
0.0
  0
LINE
  5
159B
330
1F
100
AcDbEntity
  8
NOSNÉ KONSTRUKCE
100
AcDbLine
 10
2658.720459422595
 20
522.5788244691338
 30
0.0
 11
2659.523537023229
 21
541.440939726247
 31
0.0
  0
LINE
  5
159C
330
1F
100
AcDbEntity
  8
NOSNÉ KONSTRUKCE
100
AcDbLine
 10
2665.02953811908
 20
522.5788244691338
 30
0.0
 11
2665.834634517425
 21
533.682942733024
 31
0.0
  0
LINE
  5
159D
330
1F
100
AcDbEntity
  8
NOSNÉ KONSTRUKCE
100
AcDbLine
 10
2655.327522189309
 20
475.282203292857
 30
0.0
 11
2656.103555512363
 21
495.2352581539462
 31
0.0
  0
LINE
  5
159E
330
1F
100
AcDbEntity
  8
NOSNÉ KONSTRUKCE
100
AcDbLine
 10
2656.103555512363
 20
495.2352581539462
 30
0.0
 11
2657.512627378084
 21
508.5471801583152
 31
0.0
  0
LINE
  5
159F
330
1F
100
AcDbEntity
  8
NOSNÉ KONSTRUKCE
100
AcDbLine
 10
2662.926414102327
 20
479.186231659668
 30
0.0
 11
2663.36079661686
 21
485.5421049331352
 31
0.0
  0
LINE
  5
15A0
330
1F
100
AcDbEntity
  8
NOSNÉ KONSTRUKCE
100
AcDbLine
 10
2663.36079661686
 20
485.5421049331352
 30
0.0
 11
2663.71505304602
 21
498.4069169309209
 31
0.0
  0
LINE
  5
15A1
330
1F
100
AcDbEntity
  8
NOSNÉ KONSTRUKCE
100
AcDbLine
 10
2669.061154980965
 20
472.0012247688619
 30
0.0
 11
2669.482548635194
 21
493.0951907223361
 31
0.0
  0
LINE
  5
15A2
330
1F
100
AcDbEntity
  8
NOSNÉ KONSTRUKCE
100
AcDbLine
 10
2669.482548635194
 20
493.0951907223361
 30
0.0
 11
2669.51207482969
 21
498.4069169309204
 31
0.0
  0
LINE
  5
15A3
330
1F
100
AcDbEntity
  8
NOSNÉ KONSTRUKCE
100
AcDbLine
 10
2674.869043595277
 20
511.7872091536346
 30
0.0
 11
2673.074479305654
 21
491.9866245360871
 31
0.0
  0
LINE
  5
15A4
330
1F
100
AcDbEntity
  8
NOSNÉ KONSTRUKCE
100
AcDbLine
 10
2676.239076338203
 20
522.2610090635685
 30
0.0
 11
2674.869043595277
 21
511.7872091536346
 31
0.0
  0
LINE
  5
15A5
330
1F
100
AcDbEntity
  8
NOSNÉ KONSTRUKCE
100
AcDbLine
 10
2673.074479305654
 20
491.9866245360871
 30
0.0
 11
2673.186650519423
 21
472.3680589385776
 31
0.0
  0
LINE
  5
15A6
330
1F
100
AcDbEntity
  8
NOSNÉ KONSTRUKCE
100
AcDbLine
 10
2664.957784287693
 20
547.412624786667
 30
0.0
 11
2663.939136567325
 21
555.993621951552
 31
0.0
  0
LINE
  5
15A7
330
1F
100
AcDbEntity
  8
NOSNÉ KONSTRUKCE
100
AcDbLine
 10
2651.974265475397
 20
520.597182277027
 30
0.0
 11
2653.724259001701
 21
539.8365926948399
 31
0.0
  0
LINE
  5
15A8
330
1F
100
AcDbEntity
  8
NOSNÉ KONSTRUKCE
100
AcDbLine
 10
2653.724259001701
 20
539.8365926948399
 30
0.0
 11
2652.849276832774
 21
561.408083472831
 31
0.0
  0
LINE
  5
15A9
330
1F
100
AcDbEntity
  8
NOSNÉ KONSTRUKCE
100
AcDbLine
 10
2655.069642232589
 20
586.9448468766067
 30
0.0
 11
2655.454774513862
 21
606.3829204555968
 31
0.0
  0
LINE
  5
15AA
330
1F
100
AcDbEntity
  8
NOSNÉ KONSTRUKCE
100
AcDbLine
 10
2664.230174603366
 20
563.9928437550743
 30
0.0
 11
2664.375708215612
 21
571.7011959174605
 31
0.0
  0
LINE
  5
15AB
330
1F
100
AcDbEntity
  8
NOSNÉ KONSTRUKCE
100
AcDbLine
 10
2664.375708215612
 20
571.7011959174605
 30
0.0
 11
2663.648098531284
 21
585.5180630973491
 31
0.0
  0
LINE
  5
15AC
330
1F
100
AcDbEntity
  8
NOSNÉ KONSTRUKCE
100
AcDbLine
 10
2663.648098531284
 20
585.5180630973491
 30
0.0
 11
2662.483946387121
 21
593.6627377609847
 31
0.0
  0
LINE
  5
15AD
330
1F
100
AcDbEntity
  8
NOSNÉ KONSTRUKCE
100
AcDbLine
 10
2662.483946387121
 20
593.6627377609847
 30
0.0
 11
2661.939057840474
 21
606.2464836120661
 31
0.0
  0
LINE
  5
15AE
330
1F
100
AcDbEntity
  8
NOSNÉ KONSTRUKCE
100
AcDbLine
 10
2669.0572145402
 20
588.1564729896608
 30
0.0
 11
2667.933857816777
 21
606.1203460660699
 31
0.0
  0
LINE
  5
15AF
330
1F
100
AcDbEntity
  8
NOSNÉ KONSTRUKCE
100
AcDbLine
 10
2672.700952912688
 20
606.0200408550031
 30
0.0
 11
2672.653640231972
 21
604.648713091793
 31
0.0
  0
LINE
  5
15B0
330
1F
100
AcDbEntity
  8
NOSNÉ KONSTRUKCE
100
AcDbLine
 10
2672.653640231972
 20
604.648713091793
 30
0.0
 11
2674.346074134668
 21
571.664232887525
 31
0.0
  0
LINE
  5
15B1
330
1F
100
AcDbEntity
  8
NOSNÉ KONSTRUKCE
100
AcDbLine
 10
2659.523537023229
 20
541.440939726247
 30
0.0
 11
2657.296604222134
 21
561.7198429083373
 31
0.0
  0
LINE
  5
15B2
330
1F
100
AcDbEntity
  8
NOSNÉ KONSTRUKCE
100
AcDbLine
 10
2657.296604222134
 20
561.7198429083373
 30
0.0
 11
2655.069642232589
 21
586.9448468766067
 31
0.0
  0
LINE
  5
15B3
330
1F
100
AcDbEntity
  8
NOSNÉ KONSTRUKCE
100
AcDbLine
 10
2663.939136567325
 20
555.993621951552
 30
0.0
 11
2664.230174603366
 21
563.9928437550743
 31
0.0
  0
LINE
  5
15B4
330
1F
100
AcDbEntity
  8
NOSNÉ KONSTRUKCE
100
AcDbLine
 10
2669.694106521583
 20
531.1541952413872
 30
0.0
 11
2669.905664407979
 21
560.5442056897309
 31
0.0
  0
LINE
  5
15B5
330
1F
100
AcDbEntity
  8
NOSNÉ KONSTRUKCE
100
AcDbLine
 10
2669.905664407979
 20
560.5442056897309
 30
0.0
 11
2669.0572145402
 21
588.1564729896608
 31
0.0
  0
LINE
  5
15B6
330
1F
100
AcDbEntity
  8
NOSNÉ KONSTRUKCE
100
AcDbLine
 10
2674.346074134668
 20
571.664232887525
 30
0.0
 11
2676.239076338203
 21
554.0075666676448
 31
0.0
  0
LINE
  5
15B7
330
1F
100
AcDbEntity
  8
NOSNÉ KONSTRUKCE
100
AcDbLine
 10
2674.346074134668
 20
315.3523729284143
 30
0.0
 11
2676.239076338203
 21
297.695706708534
 31
0.0
  0
LINE
  5
15B8
330
1F
100
AcDbEntity
  8
NOSNÉ KONSTRUKCE
100
AcDbLine
 10
2675.880540145368
 20
161.7119401101053
 30
0.0
 11
2675.096509186976
 21
125.0549871526209
 31
0.0
  0
LINE
  5
15B9
330
1F
100
AcDbEntity
  8
NOSNÉ KONSTRUKCE
100
AcDbLine
 10
2676.947793871772
 20
208.7693047323528
 30
0.0
 11
2677.981707151546
 21
181.9531767199632
 31
0.0
  0
LINE
  5
15BA
330
1F
100
AcDbEntity
  8
NOSNÉ KONSTRUKCE
100
AcDbLine
 10
2675.566559987539
 20
181.9531767199632
 30
0.0
 11
2675.880540145368
 21
161.7119401101053
 31
0.0
  0
LINE
  5
15BB
330
1F
100
AcDbEntity
  8
NOSNÉ KONSTRUKCE
100
AcDbLine
 10
2676.239076338203
 20
265.9491491044577
 30
0.0
 11
2674.869043595277
 21
255.4753491945239
 31
0.0
  0
LINE
  5
15BC
330
1F
100
AcDbEntity
  8
NOSNÉ KONSTRUKCE
100
AcDbLine
 10
2671.327959204911
 20
46.99072756609257
 30
0.0
 11
2671.116955078691
 21
38.76582206633065
 31
0.0
  0
LINE
  5
15BD
330
1F
100
AcDbEntity
  8
NOSNÉ KONSTRUKCE
100
AcDbLine
 10
2670.856974373946
 20
61.42633313727947
 30
0.0
 11
2671.327959204911
 21
46.99072756609257
 31
0.0
  0
LINE
  5
15BE
330
1F
100
AcDbEntity
  8
NOSNÉ KONSTRUKCE
100
AcDbLine
 10
2662.925158998976
 20
48.09061673067208
 30
0.0
 11
2664.19447712888
 21
69.23451614772147
 31
0.0
  0
LINE
  5
15BF
330
1F
100
AcDbEntity
  8
NOSNÉ KONSTRUKCE
100
AcDbLine
 10
2663.075622786887
 20
38.76582206633065
 30
0.0
 11
2662.925158998976
 21
48.09061673067208
 31
0.0
  0
LINE
  5
15C0
330
1F
100
AcDbEntity
  8
NOSNÉ KONSTRUKCE
100
AcDbLine
 10
2656.380962542204
 20
46.70858906526063
 30
0.0
 11
2658.272724370694
 21
56.59855373389746
 31
0.0
  0
LINE
  5
15C1
330
1F
100
AcDbEntity
  8
NOSNÉ KONSTRUKCE
100
AcDbLine
 10
2654.586442264244
 20
38.76582206633065
 30
0.0
 11
2656.380962542204
 21
46.70858906526063
 31
0.0
  0
LINE
  5
15C2
330
1F
100
AcDbEntity
  8
NOSNÉ KONSTRUKCE
100
AcDbLine
 10
2652.028614369501
 20
46.68723024269366
 30
0.0
 11
2654.011765235281
 21
56.59757959840954
 31
0.0
  0
LINE
  5
15C3
330
1F
100
AcDbEntity
  8
NOSNÉ KONSTRUKCE
100
AcDbLine
 10
2673.526579209396
 20
98.06667167281284
 30
0.0
 11
2670.856974373946
 21
61.42633313727947
 31
0.0
  0
LINE
  5
15C4
330
1F
100
AcDbEntity
  8
NOSNÉ KONSTRUKCE
100
AcDbLine
 10
2665.886911031568
 20
96.51012943853949
 30
0.0
 11
2667.367787047867
 21
113.4252525800884
 31
0.0
  0
LINE
  5
15C5
330
1F
100
AcDbEntity
  8
NOSNÉ KONSTRUKCE
100
AcDbLine
 10
2664.19447712888
 20
69.23451614772147
 30
0.0
 11
2665.886911031568
 21
96.51012943853949
 31
0.0
  0
LINE
  5
15C6
330
1F
100
AcDbEntity
  8
NOSNÉ KONSTRUKCE
100
AcDbLine
 10
2661.910714415422
 20
107.793649042539
 30
0.0
 11
2662.200614101912
 21
117.472605140575
 31
0.0
  0
LINE
  5
15C7
330
1F
100
AcDbEntity
  8
NOSNÉ KONSTRUKCE
100
AcDbLine
 10
2661.910714415422
 20
100.8125070620817
 30
0.0
 11
2661.910714415422
 21
107.793649042539
 31
0.0
  0
LINE
  5
15C8
330
1F
100
AcDbEntity
  8
NOSNÉ KONSTRUKCE
100
AcDbLine
 10
2661.183104731095
 20
91.64973453583389
 30
0.0
 11
2661.910714415422
 21
100.8125070620817
 31
0.0
  0
LINE
  5
15C9
330
1F
100
AcDbEntity
  8
NOSNÉ KONSTRUKCE
100
AcDbLine
 10
2660.309990622972
 20
79.43272254037674
 30
0.0
 11
2661.183104731095
 21
91.64973453583389
 31
0.0
  0
LINE
  5
15CA
330
1F
100
AcDbEntity
  8
NOSNÉ KONSTRUKCE
100
AcDbLine
 10
2661.183104731095
 20
69.68821073185336
 30
0.0
 11
2660.309990622972
 21
79.43272254037674
 31
0.0
  0
LINE
  5
15CB
330
1F
100
AcDbEntity
  8
NOSNÉ KONSTRUKCE
100
AcDbLine
 10
2661.183104731095
 20
65.3249857193523
 30
0.0
 11
2661.183104731095
 21
69.68821073185336
 31
0.0
  0
LINE
  5
15CC
330
1F
100
AcDbEntity
  8
NOSNÉ KONSTRUKCE
100
AcDbLine
 10
2655.51914436428
 20
101.1243927744117
 30
0.0
 11
2657.659124772497
 21
119.3351341556053
 31
0.0
  0
LINE
  5
15CD
330
1F
100
AcDbEntity
  8
NOSNÉ KONSTRUKCE
100
AcDbLine
 10
2654.487916421913
 20
78.60809880956458
 30
0.0
 11
2655.51914436428
 21
101.1243927744117
 31
0.0
  0
LINE
  5
15CE
330
1F
100
AcDbEntity
  8
NOSNÉ KONSTRUKCE
100
AcDbLine
 10
2654.011765235281
 20
68.25213658636221
 30
0.0
 11
2654.487916421913
 21
78.60809880956458
 31
0.0
  0
LINE
  5
15CF
330
1F
100
AcDbEntity
  8
NOSNÉ KONSTRUKCE
100
AcDbLine
 10
2653.456484160397
 20
62.22665759950996
 30
0.0
 11
2654.011765235281
 21
68.25213658636221
 31
0.0
  0
LINE
  5
15D0
330
1F
100
AcDbEntity
  8
NOSNÉ KONSTRUKCE
100
AcDbLine
 10
2658.272724370694
 20
56.59855373389746
 30
0.0
 11
2661.183104731095
 21
65.3249857193523
 31
0.0
  0
LINE
  5
15D1
330
1F
100
AcDbEntity
  8
NOSNÉ KONSTRUKCE
100
AcDbLine
 10
2654.011765235281
 20
56.59757959840954
 30
0.0
 11
2653.456484160397
 21
62.22665759950996
 31
0.0
  0
LINE
  5
15D2
330
1F
100
AcDbEntity
  8
NOSNÉ KONSTRUKCE
100
AcDbLine
 10
2651.974265475397
 20
109.8935424050077
 30
0.0
 11
2653.724259001701
 21
129.1329528228206
 31
0.0
  0
LINE
  5
15D3
330
1F
100
AcDbEntity
  8
NOSNÉ KONSTRUKCE
100
AcDbLine
 10
2675.096509186976
 20
125.0549871526209
 30
0.0
 11
2673.526579209396
 21
98.06667167281284
 31
0.0
  0
LINE
  5
15D4
330
1F
100
AcDbEntity
  8
NOSNÉ KONSTRUKCE
100
AcDbLine
 10
2667.367787047867
 20
113.4252525800884
 30
0.0
 11
2668.63821433888
 21
138.3027246929532
 31
0.0
  0
LINE
  5
15D5
330
1F
100
AcDbEntity
  8
NOSNÉ KONSTRUKCE
100
AcDbLine
 10
2662.200614101912
 20
117.472605140575
 30
0.0
 11
2662.491652137953
 21
144.8154337801215
 31
0.0
  0
LINE
  5
15D6
330
1F
100
AcDbEntity
  8
NOSNÉ KONSTRUKCE
100
AcDbLine
 10
2657.659124772497
 20
119.3351341556053
 30
0.0
 11
2657.659124772497
 21
138.532566549672
 31
0.0
  0
LINE
  5
15D7
330
1F
100
AcDbEntity
  8
NOSNÉ KONSTRUKCE
100
AcDbLine
 10
2652.849276832774
 20
150.7044436008118
 30
0.0
 11
2652.239076338203
 21
160.4726886687367
 31
0.0
  0
LINE
  5
15D8
330
1F
100
AcDbEntity
  8
NOSNÉ KONSTRUKCE
100
AcDbLine
 10
2653.724259001701
 20
129.1329528228206
 30
0.0
 11
2652.849276832774
 21
150.7044436008118
 31
0.0
  0
LINE
  5
15D9
330
1F
100
AcDbEntity
  8
NOSNÉ KONSTRUKCE
100
AcDbLine
 10
2668.215098566095
 20
196.871304069934
 30
0.0
 11
2669.061154980965
 21
215.6893648097511
 31
0.0
  0
LINE
  5
15DA
330
1F
100
AcDbEntity
  8
NOSNÉ KONSTRUKCE
100
AcDbLine
 10
2668.63821433888
 20
174.0359085743193
 30
0.0
 11
2668.215098566095
 21
196.871304069934
 31
0.0
  0
LINE
  5
15DB
330
1F
100
AcDbEntity
  8
NOSNÉ KONSTRUKCE
100
AcDbLine
 10
2668.63821433888
 20
138.3027246929532
 30
0.0
 11
2668.63821433888
 21
174.0359085743193
 31
0.0
  0
LINE
  5
15DC
330
1F
100
AcDbEntity
  8
NOSNÉ KONSTRUKCE
100
AcDbLine
 10
2663.654023786654
 20
199.8947500339645
 30
0.0
 11
2663.362985750612
 21
213.566164353736
 31
0.0
  0
LINE
  5
15DD
330
1F
100
AcDbEntity
  8
NOSNÉ KONSTRUKCE
100
AcDbLine
 10
2665.98232807498
 20
175.1698383623706
 30
0.0
 11
2663.654023786654
 21
199.8947500339645
 31
0.0
  0
LINE
  5
15DE
330
1F
100
AcDbEntity
  8
NOSNÉ KONSTRUKCE
100
AcDbLine
 10
2664.819985614722
 20
161.6865584687593
 30
0.0
 11
2665.98232807498
 21
175.1698383623706
 31
0.0
  0
LINE
  5
15DF
330
1F
100
AcDbEntity
  8
NOSNÉ KONSTRUKCE
100
AcDbLine
 10
2662.782690173993
 20
154.1236411269392
 30
0.0
 11
2664.819985614722
 21
161.6865584687593
 31
0.0
  0
LINE
  5
15E0
330
1F
100
AcDbEntity
  8
NOSNÉ KONSTRUKCE
100
AcDbLine
 10
2662.491652137953
 20
144.8154337801215
 30
0.0
 11
2662.782690173993
 21
154.1236411269392
 31
0.0
  0
LINE
  5
15E1
330
1F
100
AcDbEntity
  8
NOSNÉ KONSTRUKCE
100
AcDbLine
 10
2655.105485649325
 20
202.5471225349474
 30
0.0
 11
2655.327522189309
 21
218.9703433337462
 31
0.0
  0
LINE
  5
15E2
330
1F
100
AcDbEntity
  8
NOSNÉ KONSTRUKCE
100
AcDbLine
 10
2656.881923911434
 20
174.694207690195
 30
0.0
 11
2655.105485649325
 21
202.5471225349474
 31
0.0
  0
LINE
  5
15E3
330
1F
100
AcDbEntity
  8
NOSNÉ KONSTRUKCE
100
AcDbLine
 10
2657.103989639861
 20
148.9635372055136
 30
0.0
 11
2656.881923911434
 21
174.694207690195
 31
0.0
  0
LINE
  5
15E4
330
1F
100
AcDbEntity
  8
NOSNÉ KONSTRUKCE
100
AcDbLine
 10
2657.659124772497
 20
138.532566549672
 30
0.0
 11
2657.103989639861
 21
148.9635372055136
 31
0.0
  0
LINE
  5
15E5
330
1F
100
AcDbEntity
  8
NOSNÉ KONSTRUKCE
100
AcDbLine
 10
2673.186650519423
 20
216.0561989794668
 30
0.0
 11
2674.532646707765
 21
208.7693047323528
 31
0.0
  0
LINE
  5
15E6
330
1F
100
AcDbEntity
  8
NOSNÉ KONSTRUKCE
100
AcDbLine
 10
2673.074479305654
 20
235.6747645769764
 30
0.0
 11
2673.186650519423
 21
216.0561989794668
 31
0.0
  0
LINE
  5
15E7
330
1F
100
AcDbEntity
  8
NOSNÉ KONSTRUKCE
100
AcDbLine
 10
2674.869043595277
 20
255.4753491945239
 30
0.0
 11
2673.074479305654
 21
235.6747645769764
 31
0.0
  0
LINE
  5
15E8
330
1F
100
AcDbEntity
  8
NOSNÉ KONSTRUKCE
100
AcDbLine
 10
2669.482548635194
 20
236.7833307632254
 30
0.0
 11
2669.694106521583
 21
274.8423352822765
 31
0.0
  0
LINE
  5
15E9
330
1F
100
AcDbEntity
  8
NOSNÉ KONSTRUKCE
100
AcDbLine
 10
2669.061154980965
 20
215.6893648097511
 30
0.0
 11
2669.482548635194
 21
236.7833307632254
 31
0.0
  0
LINE
  5
15EA
330
1F
100
AcDbEntity
  8
NOSNÉ KONSTRUKCE
100
AcDbLine
 10
2663.36079661686
 20
229.2302449740245
 30
0.0
 11
2663.797339076689
 21
245.0832718000501
 31
0.0
  0
LINE
  5
15EB
330
1F
100
AcDbEntity
  8
NOSNÉ KONSTRUKCE
100
AcDbLine
 10
2662.926414102327
 20
222.8743717005572
 30
0.0
 11
2663.36079661686
 21
229.2302449740245
 31
0.0
  0
LINE
  5
15EC
330
1F
100
AcDbEntity
  8
NOSNÉ KONSTRUKCE
100
AcDbLine
 10
2663.362985750612
 20
213.566164353736
 30
0.0
 11
2662.926414102327
 21
222.8743717005572
 31
0.0
  0
LINE
  5
15ED
330
1F
100
AcDbEntity
  8
NOSNÉ KONSTRUKCE
100
AcDbLine
 10
2656.103555512363
 20
238.9233981948355
 30
0.0
 11
2658.533785868469
 21
261.8825088975218
 31
0.0
  0
LINE
  5
15EE
330
1F
100
AcDbEntity
  8
NOSNÉ KONSTRUKCE
100
AcDbLine
 10
2655.327522189309
 20
218.9703433337462
 30
0.0
 11
2656.103555512363
 21
238.9233981948355
 31
0.0
  0
LINE
  5
15EF
330
1F
100
AcDbEntity
  8
NOSNÉ KONSTRUKCE
100
AcDbLine
 10
2651.974265475397
 20
264.2853223179163
 30
0.0
 11
2653.724259001701
 21
283.5247327357292
 31
0.0
  0
LINE
  5
15F0
330
1F
100
AcDbEntity
  8
NOSNÉ KONSTRUKCE
100
AcDbLine
 10
2663.797339076689
 20
245.0832718000501
 30
0.0
 11
2664.379415148771
 21
257.3002837955036
 31
0.0
  0
LINE
  5
15F1
330
1F
100
AcDbEntity
  8
NOSNÉ KONSTRUKCE
100
AcDbLine
 10
2664.379415148771
 20
257.3002837955036
 30
0.0
 11
2665.834634517425
 21
277.3710827739132
 31
0.0
  0
LINE
  5
15F2
330
1F
100
AcDbEntity
  8
NOSNÉ KONSTRUKCE
100
AcDbLine
 10
2658.533785868469
 20
261.8825088975218
 30
0.0
 11
2659.523537023229
 21
285.1290797671363
 31
0.0
  0
LINE
  5
15F3
330
1F
100
AcDbEntity
  8
NOSNÉ KONSTRUKCE
100
AcDbLine
 10
2652.849276832774
 20
305.0962235137203
 30
0.0
 11
2650.144757180696
 21
325.6449294825256
 31
0.0
  0
LINE
  5
15F4
330
1F
100
AcDbEntity
  8
NOSNÉ KONSTRUKCE
100
AcDbLine
 10
2653.724259001701
 20
283.5247327357292
 30
0.0
 11
2652.849276832774
 21
305.0962235137203
 31
0.0
  0
LINE
  5
15F5
330
1F
100
AcDbEntity
  8
NOSNÉ KONSTRUKCE
100
AcDbLine
 10
2669.167897588766
 20
328.2425028309426
 30
0.0
 11
2669.0572145402
 21
331.8446130305501
 31
0.0
  0
LINE
  5
15F6
330
1F
100
AcDbEntity
  8
NOSNÉ KONSTRUKCE
100
AcDbLine
 10
2669.694106521583
 20
274.8423352822765
 30
0.0
 11
2669.905664407979
 21
304.2323457306201
 31
0.0
  0
LINE
  5
15F7
330
1F
100
AcDbEntity
  8
NOSNÉ KONSTRUKCE
100
AcDbLine
 10
2666.354283731332
 20
299.6817619924413
 30
0.0
 11
2666.513963942183
 21
304.0705952927292
 31
0.0
  0
LINE
  5
15F8
330
1F
100
AcDbEntity
  8
NOSNÉ KONSTRUKCE
100
AcDbLine
 10
2664.957784287693
 20
291.1007648275563
 30
0.0
 11
2663.939136567325
 21
299.6817619924413
 31
0.0
  0
LINE
  5
15F9
330
1F
100
AcDbEntity
  8
NOSNÉ KONSTRUKCE
100
AcDbLine
 10
2665.834634517425
 20
277.3710827739132
 30
0.0
 11
2664.957784287693
 21
291.1007648275563
 31
0.0
  0
LINE
  5
15FA
330
1F
100
AcDbEntity
  8
NOSNÉ KONSTRUKCE
100
AcDbLine
 10
2657.296604222134
 20
305.4079829492266
 30
0.0
 11
2655.069642232589
 21
330.632986917496
 31
0.0
  0
LINE
  5
15FB
330
1F
100
AcDbEntity
  8
NOSNÉ KONSTRUKCE
100
AcDbLine
 10
2659.523537023229
 20
285.1290797671363
 30
0.0
 11
2657.296604222134
 21
305.4079829492266
 31
0.0
  0
LINE
  5
15FC
330
1F
100
AcDbEntity
  8
NOSNÉ KONSTRUKCE
100
AcDbLine
 10
2652.25021308273
 20
369.9391013367576
 30
0.0
 11
2652.25021308273
 21
384.03079380498
 31
0.0
  0
LINE
  5
15FD
330
1F
100
AcDbEntity
  8
NOSNÉ KONSTRUKCE
100
AcDbLine
 10
2672.653640231972
 20
348.3368531326823
 30
0.0
 11
2674.346074134668
 21
315.3523729284143
 31
0.0
  0
LINE
  5
15FE
330
1F
100
AcDbEntity
  8
NOSNÉ KONSTRUKCE
100
AcDbLine
 10
2667.153222751116
 20
362.2918130378793
 30
0.0
 11
2667.367787047867
 21
369.7371125391991
 31
0.0
  0
LINE
  5
15FF
330
1F
100
AcDbEntity
  8
NOSNÉ KONSTRUKCE
100
AcDbLine
 10
2669.0572145402
 20
331.8446130305501
 30
0.0
 11
2667.153222751116
 21
362.2918130378793
 31
0.0
  0
LINE
  5
1600
330
1F
100
AcDbEntity
  8
NOSNÉ KONSTRUKCE
100
AcDbLine
 10
2661.899943877335
 20
350.8379279606206
 30
0.0
 11
2661.910714415422
 21
357.3100300295414
 31
0.0
  0
LINE
  5
1601
330
1F
100
AcDbEntity
  8
NOSNÉ KONSTRUKCE
100
AcDbLine
 10
2662.483946387121
 20
337.350877801874
 30
0.0
 11
2661.899943877335
 21
350.8379279606206
 31
0.0
  0
LINE
  5
1602
330
1F
100
AcDbEntity
  8
NOSNÉ KONSTRUKCE
100
AcDbLine
 10
2663.648098531284
 20
329.2062031382383
 30
0.0
 11
2662.483946387121
 21
337.350877801874
 31
0.0
  0
LINE
  5
1603
330
1F
100
AcDbEntity
  8
NOSNÉ KONSTRUKCE
100
AcDbLine
 10
2663.698847928182
 20
328.2425028309426
 30
0.0
 11
2663.648098531284
 21
329.2062031382383
 31
0.0
  0
LINE
  5
1604
330
1F
100
AcDbEntity
  8
NOSNÉ KONSTRUKCE
100
AcDbLine
 10
2655.564532404194
 20
355.610668708884
 30
0.0
 11
2657.04917373056
 21
367.9758755754564
 31
0.0
  0
LINE
  5
1605
330
1F
100
AcDbEntity
  8
NOSNÉ KONSTRUKCE
100
AcDbLine
 10
2655.069642232589
 20
330.632986917496
 30
0.0
 11
2655.564532404194
 21
355.610668708884
 31
0.0
  0
TEXT
  5
1606
330
1F
100
AcDbEntity
  8
POPIS
100
AcDbText
 10
2382.124152794578
 20
646.3757441666476
 30
0.0
 40
35.0
  1
ŘEZ-ŘEŠENÍ OPLECHOVÁNÍM
 41
0.85
  7
SIMPLEX7
100
AcDbText
  0
TEXT
  5
1607
330
1F
100
AcDbEntity
  8
POPIS
100
AcDbText
 10
2382.124152794578
 20
701.0004871924484
 30
0.0
 40
50.0
  1
SPODNÍ ZAKONČENÍ
 41
0.85
  7
SIMPLEX7
100
AcDbText
  0
INSERT
  5
1608
330
1F
100
AcDbEntity
  8
POPIS
100
AcDbBlockReference
  2
E_PUNKT
 10
2639.060358899285
 20
537.2744827708033
 30
0.0
  0
INSERT
  5
1609
330
1F
100
AcDbEntity
  8
POPIS
100
AcDbBlockReference
  2
E_PUNKT
 10
2665.894838388794
 20
413.5796079158904
 30
0.0
  0
INSERT
  5
160A
330
1F
100
AcDbEntity
  8
POPIS
100
AcDbBlockReference
  2
E_PUNKT
 10
2612.665984524643
 20
5.330769949478053
 30
0.0
  0
INSERT
  5
160B
330
1F
100
AcDbEntity
  8
POPIS
100
AcDbBlockReference
  2
E_PUNKT
 10
2645.091704119859
 20
76.05818446390003
 30
0.0
  0
TEXT
  5
160C
330
1F
100
AcDbEntity
  8
POPIS
100
AcDbText
 10
2393.73686081816
 20
62.31513032196744
 30
0.0
 40
25.0
  1
08
 41
0.7
  7
SIMPLEX7
100
AcDbText
  0
LINE
  5
160D
330
1F
100
AcDbEntity
  8
POPIS
100
AcDbLine
 10
2433.714347161429
 20
75.75847177133801
 30
0.0
 11
2643.913328161139
 21
75.75847177133709
 31
0.0
  0
TEXT
  5
160E
330
1F
100
AcDbEntity
  8
POPIS
100
AcDbText
 10
2397.175676036957
 20
582.3676753537078
 30
0.0
 40
25.0
  1
01
 41
0.7
  7
SIMPLEX7
100
AcDbText
  0
LINE
  5
160F
330
1F
100
AcDbEntity
  8
POPIS
100
AcDbLine
 10
2435.479327134675
 20
595.8110168030784
 30
0.0
 11
2632.483772875359
 21
595.8110168030766
 31
0.0
  0
TEXT
  5
1610
330
1F
100
AcDbEntity
  8
POPIS
100
AcDbText
 10
2360.339935153821
 20
400.4082432564923
 30
0.0
 40
25.0
  1
03,04
 41
0.7
  7
SIMPLEX7
100
AcDbText
  0
LINE
  5
1611
330
1F
100
AcDbEntity
  8
POPIS
100
AcDbLine
 10
2433.455546196728
 20
413.851584705862
 30
0.0
 11
2665.694125415608
 21
413.8515847058616
 31
0.0
  0
LINE
  5
1612
330
1F
100
AcDbEntity
  8
POPIS
100
AcDbLine
 10
2433.455546196728
 20
497.8375707102727
 30
0.0
 11
2595.823168244507
 21
497.8375707102722
 31
0.0
  0
TEXT
  5
1613
330
1F
100
AcDbEntity
  8
POPIS
100
AcDbText
 10
2393.478059853459
 20
484.3942292609021
 30
0.0
 40
25.0
  1
02
 41
0.7
  7
SIMPLEX7
100
AcDbText
  0
LINE
  5
1614
330
1F
100
AcDbEntity
  8
POPIS
100
AcDbLine
 10
2433.455546196728
 20
-6.092224612601057
 30
0.0
 11
2595.823168244507
 21
-6.092224612601512
 31
0.0
  0
TEXT
  5
1615
330
1F
100
AcDbEntity
  8
POPIS
100
AcDbText
 10
2392.889080397672
 20
-19.53556606197162
 30
0.0
 40
25.0
  1
09
 41
0.7
  7
SIMPLEX7
100
AcDbText
  0
CIRCLE
  5
1616
330
1F
100
AcDbEntity
  8
POPIS
100
AcDbCircle
 10
2645.242959403138
 20
-206.6426608717829
 30
0.0
 40
11.13656048292026
  0
TEXT
  5
1617
330
1F
100
AcDbEntity
  8
POPIS
100
AcDbText
 10
2640.483930347956
 20
-212.1880066167705
 30
0.0
 40
12.0
  1
R
 41
0.85
  7
SIMPLEX7
100
AcDbText
  0
TEXT
  5
1618
330
1F
100
AcDbEntity
  8
POPIS
100
AcDbText
 10
2472.857745108911
 20
-484.0210855091954
 30
0.0
 40
25.0
  1
Vyrovnávací deska
 41
0.7
  7
SIMPLEX7
100
AcDbText
  0
TEXT
  5
1619
330
1F
100
AcDbEntity
  8
POPIS
100
AcDbText
 10
2418.514041949169
 20
-519.9539951397691
 30
0.0
 40
25.0
  1
09
 41
0.85
  7
SIMPLEX7
100
AcDbText
  0
TEXT
  5
161A
330
1F
100
AcDbEntity
  8
POPIS
100
AcDbText
 10
2418.514041949169
 20
-307.7085165854005
 30
0.0
 40
25.0
  1
03
 41
0.85
  7
SIMPLEX7
100
AcDbText
  0
TEXT
  5
161B
330
1F
100
AcDbEntity
  8
POPIS
100
AcDbText
 10
2472.857745108911
 20
-273.7583283406784
 30
0.0
 40
25.0
  1
Vrut se zápustnou hlavou
 41
0.7
  7
SIMPLEX7
100
AcDbText
  0
TEXT
  5
161C
330
1F
100
AcDbEntity
  8
POPIS
100
AcDbText
 10
2418.514041949169
 20
-273.7583283406784
 30
0.0
 40
25.0
  1
02
 41
0.85
  7
SIMPLEX7
100
AcDbText
  0
TEXT
  5
161D
330
1F
100
AcDbEntity
  8
POPIS
100
AcDbText
 10
2472.857745108911
 20
-237.1633167250511
 30
0.0
 40
25.0
  1
Deska CETRIS   (BASIC,FINISH,LASUR)
 41
0.7
  7
SIMPLEX7
100
AcDbText
  0
TEXT
  5
161E
330
1F
100
AcDbEntity
  8
POPIS
100
AcDbText
 10
2418.514041949169
 20
-237.1633167250511
 30
0.0
 40
25.0
  1
01
 41
0.85
  7
SIMPLEX7
100
AcDbText
  0
LINE
  5
161F
330
1F
100
AcDbEntity
  8
STAVBA OBRYS
100
AcDbLine
 10
2902.959521683919
 20
214.2515428704264
 30
0.0
 11
3200.409594140215
 21
214.2515428704264
 31
0.0
  0
LINE
  5
1620
330
1F
100
AcDbEntity
  8
STAVBA OBRYS
100
AcDbLine
 10
2902.959521683919
 20
108.4110232249822
 30
0.0
 11
3173.315481413006
 21
108.4110232249822
 31
0.0
  0
HATCH
  5
1621
330
1F
100
AcDbEntity
  8
STAVBA OBRYS
100
AcDbHatch
 10
0.0
 20
0.0
 30
0.0
210
0.0
220
0.0
230
1.0
  2
AR-CONC
 70
     0
 71
     0
 91
        1
 92
        7
 72
     0
 73
     1
 93
        5
 10
3200.409594140215
 20
214.2515428704264
 10
2902.959521683919
 20
214.2515428704264
 10
2902.959521683919
 20
108.4110232249822
 10
2958.464140296815
 20
108.4110232249822
 10
3173.315481413006
 20
108.4110232249822
 97
        0
 75
     0
 76
     1
 52
0.0
 41
0.35
 77
     0
 78
    13
 53
50.0
 43
1807.908297660218
 44
-1435.256322453298
 45
63.7646341486014
 46
-5.57867993861608
 79
     2
 49
6.667499999999999
 49
-73.3425
 53
355.0
 43
1807.908297660218
 44
-1435.256322453298
 45
-12.33498909148344
 46
66.86982500876299
 79
     2
 49
5.333999999999999
 49
-58.67399999999999
 53
100.451
 43
1813.221997660217
 44
-1435.721209953299
 45
51.42987558308573
 46
61.29084073710215
 79
     2
 49
5.6665
 49
-62.3315
 53
46.1842
 43
1807.908297660218
 44
-1417.476322453299
 45
94.87766431224546
 46
-14.7148147764545
 79
     2
 49
10.00124999999999
 49
-110.0137499999999
 53
96.63559999999998
 43
1815.814762660218
 44
-1418.702547453298
 45
83.09148206318299
 46
86.59894456151723
 79
     2
 49
8.499749999999959
 49
-93.49724999999969
 53
351.184
 43
1807.908297660218
 44
-1417.476322453299
 45
83.09161203487688
 46
86.59879125120918
 79
     2
 49
8.000999999999999
 49
-88.01099999999999
 53
21.0
 43
1816.798297660217
 44
-1421.921322453298
 45
53.06520794238414
 46
-35.79293148086687
 79
     2
 49
6.667499999999999
 49
-73.3425
 53
326.0
 43
1816.798297660217
 44
-1421.921322453298
 45
21.63070992167647
 46
64.46578814281174
 79
     2
 49
5.333999999999999
 49
-58.67399999999999
 53
71.45140000000001
 43
1821.220372660213
 44
-1424.904057453299
 45
74.69577176954356
 46
28.6730002006201
 79
     2
 49
5.6665
 49
-62.3315
 53
37.5
 43
1807.908297660218
 44
-1435.256322453298
 45
1.081011137707135
 46
29.59426360560359
 79
     6
 49
0.0
 49
-57.96279999999999
 49
0.0
 49
-59.56299999999999
 49
0.0
 49
-58.89624999999999
 53
7.499999999999999
 43
1807.908297660218
 44
-1435.256322453298
 45
23.38688187860701
 46
35.06320118634183
 79
     6
 49
0.0
 49
-33.95979999999999
 49
0.0
 49
-56.62929999999999
 49
0.0
 49
-22.44725
 53
327.4999999999999
 43
1788.083597660214
 44
-1435.256322453298
 45
47.45670830840498
 46
-2.005060397435712
 79
     6
 49
0.0
 49
-22.22499999999999
 49
0.0
 49
-69.342
 49
0.0
 49
-92.01149999999998
 53
317.5
 43
1779.193597660214
 44
-1435.256322453298
 45
51.84521348510632
 46
8.899271861666553
 79
     6
 49
0.0
 49
-28.8925
 49
0.0
 49
-46.05019999999999
 49
0.0
 49
-65.3415
 47
1.943322863705773
 98
        1
 10
3017.54626854826
 20
171.8663113198945
  0
LINE
  5
1622
330
1F
100
AcDbEntity
  8
STAVBA OBRYS
100
AcDbLine
 10
2762.65422350221
 20
438.1912463871144
 30
0.0
 11
2762.65422350221
 21
605.9245534735078
 31
0.0
  0
LINE
  5
1623
330
1F
100
AcDbEntity
  8
STAVBA OBRYS
100
AcDbLine
 10
2394.732928038782
 20
-51.09437970273211
 30
0.0
 11
2762.654223502202
 21
-51.09437970273211
 31
0.0
  0
LINE
  5
1624
330
1F
100
AcDbEntity
  8
STAVBA OBRYS
100
AcDbLine
 10
2762.654223502202
 20
-51.09437970273211
 30
0.0
 11
2762.65422350221
 21
438.1912463871144
 31
0.0
  0
LINE
  5
1625
330
1F
100
AcDbEntity
  8
STAVBA OBRYS
100
AcDbLine
 10
2902.959521683919
 20
108.4110232249822
 30
0.0
 11
2902.959521683919
 21
214.2515428704264
 31
0.0
  0
LINE
  5
1626
330
1F
100
AcDbEntity
  8
STAVBA OBRYS
100
AcDbLine
 10
3046.048380576612
 20
-89.05171987915082
 30
0.0
 11
3046.132948519927
 21
108.4110232249822
 31
0.0
  0
HATCH
  5
1627
330
1F
100
AcDbEntity
  8
STAVBA OBRYS
100
AcDbHatch
 10
0.0
 20
0.0
 30
0.0
210
0.0
220
0.0
230
1.0
  2
AR-SAND
 70
     0
 71
     0
 91
        1
 92
        7
 72
     0
 73
     1
 93
        4
 10
3192.523104566967
 20
258.6456655927595
 10
3046.400660841249
 20
258.6456655927595
 10
3046.321552231809
 20
214.2515428704264
 10
3181.15865388689
 20
214.2515428704264
 97
        0
 75
     0
 76
     1
 52
0.0
 41
0.35
 77
     0
 78
     4
 53
37.5
 43
1788.657357406893
 44
16.73839145319834
 45
-0.560010953594416
 46
17.12946330652698
 79
     6
 49
0.0
 49
-13.5128
 49
0.0
 49
-15.113
 49
0.0
 49
-14.44625
 53
7.499999999999999
 43
1788.657357406893
 44
16.73839145319834
 45
15.73331490983009
 46
25.08887851989239
 79
     6
 49
0.0
 49
-7.2898
 49
0.0
 49
-12.17929999999999
 49
0.0
 49
-4.66725
 53
327.4999999999999
 43
1777.722657406888
 44
16.73839145319834
 45
27.68473295845102
 46
0.0503014637490992
 79
     6
 49
0.0
 49
-4.444999999999999
 49
0.0
 49
-16.002
 49
0.0
 49
-20.89149999999999
 53
317.5
 43
1777.722657406888
 44
16.73839145319834
 45
26.7244758365304
 46
7.802526314002567
 79
     6
 49
0.0
 49
-2.222499999999999
 49
0.0
 49
-10.49019999999999
 49
0.0
 49
-12.00149999999999
 47
4.017849295243367
 98
        1
 10
3133.016970295768
 20
247.5902699916314
  0
LINE
  5
1628
330
1F
100
AcDbEntity
  8
STAVBA OBRYS
100
AcDbLine
 10
3046.400660841249
 20
258.6456655927595
 30
0.0
 11
3192.523104566967
 21
258.6456655927595
 31
0.0
  0
LINE
  5
1629
330
1F
100
AcDbEntity
  8
STAVBA OBRYS
100
AcDbLine
 10
3046.400660841249
 20
271.1921974577867
 30
0.0
 11
3195.734891034244
 21
271.1921974577871
 31
0.0
  0
TEXT
  5
162A
330
1F
100
AcDbEntity
  8
POPIS
100
AcDbText
 10
2416.282257752337
 20
-85.02582252600587
 30
0.0
 40
25.0
  1
TERÉN
 41
0.7
  7
SIMPLEX7
100
AcDbText
  0
LINE
  5
162B
330
1F
100
AcDbEntity
  8
NOSNÉ KONSTRUKCE
100
AcDbLine
 10
2652.239076338203
 20
38.76582206633065
 30
0.0
 11
2652.239076338203
 21
606.4505824757052
 31
0.0
  0
LINE
  5
162C
330
1F
100
AcDbEntity
  8
NOSNÉ KONSTRUKCE
100
AcDbLine
 10
2676.239076338203
 20
38.76582206633065
 30
0.0
 11
2676.239076338203
 21
605.9455946335965
 31
0.0
  0
LINE
  5
162D
330
1F
100
AcDbEntity
  8
NOSNÉ KONSTRUKCE
100
AcDbLine
 10
2652.239076338203
 20
38.76582206633065
 30
0.0
 11
2754.898583061316
 21
38.76582206633065
 31
0.0
  0
LWPOLYLINE
  5
162E
330
1F
100
AcDbEntity
  8
NOSNÉ KONSTRUKCE
100
AcDbPolyline
 90
        4
 70
     1
 43
0.0
 10
2640.239076338202
 20
38.76582206633065
 10
2652.239076338203
 20
38.76582206633065
 10
2652.239076338203
 20
88.76582206633065
 10
2640.239076338202
 20
88.76582206633065
  0
LINE
  5
162F
330
1F
100
AcDbEntity
  8
CETRIS
100
AcDbLine
 10
2652.239076338203
 20
328.8206385047215
 30
0.0
 11
2637.261203698366
 21
29.19476623868195
 31
0.0
  0
LINE
  5
1630
330
1F
100
AcDbEntity
  8
CETRIS
100
AcDbLine
 10
2640.254041447562
 20
329.419753410315
 30
0.0
 11
2652.239076338203
 21
328.8206385047215
 31
0.0
  0
LINE
  5
1631
330
1F
100
AcDbEntity
  8
CETRIS
100
AcDbLine
 10
2640.254041447562
 20
329.419753410315
 30
0.0
 11
2625.425947534127
 21
32.79013986693598
 31
0.0
  0
LINE
  5
1632
330
1F
100
AcDbEntity
  8
CETRIS
100
AcDbLine
 10
2628.272427530388
 20
29.64410241787709
 30
0.0
 11
2637.261203698366
 21
29.19476623868195
 31
0.0
  0
LINE
  5
1633
330
1F
100
AcDbEntity
  8
CETRIS
100
AcDbLine
 10
2628.272427530388
 20
29.64410241787709
 30
0.0
 11
2625.425947534127
 21
32.79013986693598
 31
0.0
  0
LINE
  5
1634
330
1F
100
AcDbEntity
  8
CETRIS
100
AcDbLine
 10
2626.745205246872
 20
275.044788312753
 30
0.0
 11
2623.906169478876
 21
278.1975451869866
 31
0.0
  0
LINE
  5
1635
330
1F
100
AcDbEntity
  8
CETRIS
100
AcDbLine
 10
2626.745205246872
 20
275.044788312753
 30
0.0
 11
2635.732894210217
 21
274.5742066533998
 31
0.0
  0
LINE
  5
1636
330
1F
100
AcDbEntity
  8
CETRIS
100
AcDbLine
 10
2651.418949521991
 20
574.1638387649873
 30
0.0
 11
2635.732894210217
 21
274.5742066533998
 31
0.0
  0
LINE
  5
1637
330
1F
100
AcDbEntity
  8
CETRIS
100
AcDbLine
 10
2639.435364237524
 20
574.791280977458
 30
0.0
 11
2623.906169478876
 21
278.1975451869866
 31
0.0
  0
LINE
  5
1638
330
1F
100
AcDbEntity
  8
CETRIS
100
AcDbLine
 10
2639.435364237524
 20
574.791280977458
 30
0.0
 11
2651.418949521991
 21
574.1638387649873
 31
0.0
  0
HATCH
  5
1639
330
1F
100
AcDbEntity
  8
CETRIS
100
AcDbHatch
 10
0.0
 20
0.0
 30
0.0
210
0.0
220
0.0
230
1.0
  2
ANSI31
 70
     0
 71
     0
 91
        3
 92
        7
 72
     0
 73
     1
 93
        6
 10
2652.239076338203
 20
328.8206385047215
 10
2640.254041447562
 20
329.4197534103155
 10
2638.537826874246
 20
295.0876222131646
 10
2639.015698485545
 20
295.0637340886905
 10
2640.958011462597
 20
291.618715443968
 10
2650.334814512655
 20
290.726703256194
 97
        0
 92
        7
 72
     0
 73
     1
 93
        6
 10
2634.788596108217
 20
220.0858802695179
 10
2646.803579903757
 20
220.0858802695174
 10
2650.150141008754
 20
287.0323895828105
 10
2640.73022298286
 20
287.0619053032564
 10
2638.454028261538
 20
283.8277638787149
 10
2637.976156650253
 20
283.851652003188
 97
        0
 92
        7
 72
     0
 73
     1
 93
        5
 10
2646.803579903757
 20
220.0858802695174
 10
2634.788596108217
 20
220.0858802695174
 10
2625.425947534127
 20
32.79013986693644
 10
2628.272427530388
 20
29.64410241787709
 10
2637.261203698366
 20
29.19476623868195
 97
        0
 75
     0
 76
     1
 52
90.0
 41
1.0
 77
     0
 78
     1
 53
135.0
 43
-7548.495776643152
 44
3611.958069789359
 45
-2.245064030267288
 46
-2.245064030267287
 79
     0
 47
1.163336804849115
 98
        3
 10
2645.485641480245
 20
309.9521061798204
 10
2641.993717756846
 20
250.6219322267079
 10
2639.665768607908
 20
142.4316010848651
  0
HATCH
  5
163A
330
1F
100
AcDbEntity
  8
CETRIS
100
AcDbHatch
 10
0.0
 20
0.0
 30
0.0
210
0.0
220
0.0
230
1.0
  2
ANSI31
 70
     0
 71
     0
 91
        2
 92
        7
 72
     0
 73
     1
 93
        7
 10
2649.231245306015
 20
532.3806441882961
 10
2639.81142336117
 20
532.4324256500208
 10
2637.527590470923
 20
529.2036734928042
 10
2637.049776658867
 20
529.228691093821
 10
2623.906169478876
 20
278.1975451869866
 10
2626.745205246872
 20
275.0447883127535
 10
2635.732894210217
 20
274.5742066534003
 97
        0
 92
        7
 72
     0
 73
     1
 93
        6
 10
2651.418949521991
 20
574.1638387649864
 10
2639.435364237531
 20
574.7912809774574
 10
2637.638003733056
 20
540.463302298006
 10
2638.115817545127
 20
540.4382846969874
 10
2640.049982119046
 20
536.9886846383842
 10
2649.424650528945
 20
536.0745110294442
 97
        0
 75
     0
 76
     1
 52
-0.1354299381046259
 41
1.0
 77
     0
 78
     1
 53
44.86457006189537
 43
-7541.188174155192
 44
3636.043249459777
 45
-2.239751109457527
 46
2.250364407753502
 79
     0
 47
1.163336804849115
 98
        2
 10
2637.059541678128
 20
414.6703277086162
 10
2643.206588334404
 20
553.0932637842193
  0
LINE
  5
163B
330
1F
100
AcDbEntity
  8
CETRIS
100
AcDbLine
 10
2627.007685876888
 20
606.7149476038053
 30
0.0
 11
2622.83574341813
 21
523.2570408431306
 31
0.0
  0
LINE
  5
163C
330
1F
100
AcDbEntity
  8
CETRIS
100
AcDbLine
 10
2639.01004537745
 20
606.4624040361214
 30
0.0
 11
2634.670999582369
 21
519.6616672148766
 31
0.0
  0
LINE
  5
163D
330
1F
100
AcDbEntity
  8
CETRIS
100
AcDbLine
 10
2625.682223414391
 20
520.1110033940717
 30
0.0
 11
2634.670999582369
 21
519.6616672148766
 31
0.0
  0
LINE
  5
163E
330
1F
100
AcDbEntity
  8
CETRIS
100
AcDbLine
 10
2625.682223414391
 20
520.1110033940717
 30
0.0
 11
2622.83574341813
 21
523.2570408431306
 31
0.0
  0
HATCH
  5
163F
330
1F
100
AcDbEntity
  8
CETRIS
100
AcDbHatch
 10
0.0
 20
0.0
 30
0.0
210
0.0
220
0.0
230
1.0
  2
ANSI31
 70
     0
 71
     0
 91
        1
 92
        7
 72
     0
 73
     1
 93
        5
 10
2639.01004537745
 20
606.4624040361218
 10
2627.007685876888
 20
606.7149476038053
 10
2622.83574341813
 20
523.2570408431293
 10
2625.682223414398
 20
520.1110033940713
 10
2634.670999582369
 20
519.661667214877
 97
        0
 75
     0
 76
     1
 52
90.0
 41
1.0
 77
     0
 78
     1
 53
135.0
 43
-7549.248280364679
 44
3611.707370742795
 45
-2.245064030267288
 46
-2.245064030267287
 79
     0
 47
0.9552509132763578
 98
        1
 10
2632.320071662172
 20
576.6064584995219
  0
LINE
  5
1640
330
1F
100
AcDbEntity
  8
PROFILY
100
AcDbLine
 10
2638.739076338203
 20
70.43085954707703
 30
0.0
 11
2638.739076338203
 21
37.33105295717723
 31
0.0
  0
LINE
  5
1641
330
1F
100
AcDbEntity
  8
PROFILY
100
AcDbLine
 10
2638.739076338203
 20
37.33105295717723
 30
0.0
 11
2754.870785321811
 21
37.33105295717587
 31
0.0
  0
LINE
  5
1642
330
1F
100
AcDbEntity
  8
PROFILY
100
AcDbLine
 10
2761.65422350221
 20
38.76582206633065
 30
0.0
 11
2762.654223502202
 21
38.76582206633065
 31
0.0
  0
LINE
  5
1643
330
1F
100
AcDbEntity
  8
PROFILY
100
AcDbLine
 10
2640.239076338202
 20
55.87656312498575
 30
0.0
 11
2638.739076338203
 21
55.87656312498575
 31
0.0
  0
LINE
  5
1644
330
1F
100
AcDbEntity
  8
PROFILY
100
AcDbLine
 10
2640.239076338202
 20
46.60474674076385
 30
0.0
 11
2638.739076338203
 21
46.60474674076385
 31
0.0
  0
LINE
  5
1645
330
1F
100
AcDbEntity
  8
PROFILY
100
AcDbLine
 10
2640.239076338202
 20
39.50472406076869
 30
0.0
 11
2638.739076338203
 21
39.50472406076869
 31
0.0
  0
LINE
  5
1646
330
1F
100
AcDbEntity
  8
PROFILY
100
AcDbLine
 10
2642.544315302632
 20
38.76582206633065
 30
0.0
 11
2642.544315302632
 21
37.33105295717723
 31
0.0
  0
LINE
  5
1647
330
1F
100
AcDbEntity
  8
PROFILY
100
AcDbLine
 10
2651.069036116121
 20
38.76582206633065
 30
0.0
 11
2651.069036116121
 21
37.33105295717723
 31
0.0
  0
LINE
  5
1648
330
1F
100
AcDbEntity
  8
PROFILY
100
AcDbLine
 10
2659.593723783993
 20
38.76582206633065
 30
0.0
 11
2659.593723783993
 21
37.33105295717723
 31
0.0
  0
LINE
  5
1649
330
1F
100
AcDbEntity
  8
PROFILY
100
AcDbLine
 10
2754.870785321811
 20
38.76582206633065
 30
0.0
 11
2754.870785321811
 21
37.33105295717587
 31
0.0
  0
HATCH
  5
164A
330
1F
100
AcDbEntity
  8
PROFILY
100
AcDbHatch
 10
0.0
 20
0.0
 30
0.0
210
0.0
220
0.0
230
1.0
  2
SOLID
 70
     1
 71
     0
 91
        6
 92
        7
 72
     0
 73
     1
 93
        5
 10
2677.239076338195
 20
38.76582206633065
 10
2676.239076338203
 20
38.76582206633065
 10
2669.455638157804
 20
38.76582206633065
 10
2669.455638157804
 20
37.33105295717632
 10
2677.239076338195
 20
37.33105295717769
 97
        0
 92
        7
 72
     0
 73
     1
 93
        5
 10
2659.593723783993
 20
38.76582206633111
 10
2652.239076338203
 20
38.76582206633065
 10
2651.069036116121
 20
38.76582206633065
 10
2651.069036116121
 20
37.33105295717632
 10
2659.593723783993
 20
37.33105295717678
 97
        0
 92
        7
 72
     0
 73
     1
 93
        6
 10
2642.544315302632
 20
38.7658220663302
 10
2640.239076338202
 20
38.76582206633156
 10
2640.239076338202
 20
39.50472406076915
 10
2638.739076338203
 20
39.50472406076915
 10
2638.739076338203
 20
37.33105295717678
 10
2642.544315302632
 20
37.33105295717678
 97
        0
 92
        7
 72
     0
 73
     1
 93
        4
 10
2640.239076338202
 20
55.8765631249853
 10
2638.739076338203
 20
55.87656312498484
 10
2638.739076338203
 20
46.60474674076385
 10
2640.239076338202
 20
46.60474674076385
 97
        0
 92
        7
 72
     0
 73
     1
 93
        4
 10
2640.239076338202
 20
70.43085954707703
 10
2639.322537551368
 20
70.43085954707658
 10
2639.058473862107
 20
65.14837950920764
 10
2640.239076338202
 20
65.14837950920719
 97
        0
 92
        7
 72
     0
 73
     1
 93
        4
 10
2639.322537551368
 20
70.43085954707703
 10
2638.739076338203
 20
70.43085954707748
 10
2638.739076338203
 20
65.14837950920764
 10
2639.058473862107
 20
65.14837950920719
 97
        0
 75
     0
 76
     1
 47
0.0856700822312996
 98
        6
 10
2671.284962085829
 20
37.84246382071614
 10
2655.377022306111
 20
37.84246382071614
 10
2639.469049380768
 20
38.25543761696645
 10
2639.675646001288
 20
49.19908530769498
 10
2639.765205453983
 20
67.07697005014598
 10
2638.988437958109
 20
68.00107836766073
  0
LINE
  5
164B
330
1F
100
AcDbEntity
  8
POPIS
100
AcDbLine
 10
2639.087969274911
 20
537.303551101676
 30
0.0
 11
2595.823168244507
 21
497.8375707102722
 31
0.0
  0
INSERT
  5
164C
330
1F
100
AcDbEntity
  8
POPIS
100
AcDbBlockReference
  2
E_PUNKT
 10
2633.698624722408
 20
595.644880513761
 30
0.0
  0
LINE
  5
164D
330
1F
100
AcDbEntity
  8
POPIS
100
AcDbLine
 10
2613.685117460172
 20
6.121010411475253
 30
0.0
 11
2595.823168244507
 21
-6.092224612601512
 31
0.0
  0
TEXT
  5
16AF
330
1F
100
AcDbEntity
  8
POPIS
100
AcDbText
 10
2470.512648365105
 20
-640.386825265788
 30
0.0
 40
25.0
  1
Podkladní EPDM páska tl.1 mm
 41
0.7
  7
SIMPLEX7
100
AcDbText
  0
TEXT
  5
16B0
330
1F
100
AcDbEntity
  8
POPIS
100
AcDbText
 10
2416.168945205363
 20
-640.386825265788
 30
0.0
 40
25.0
  1
11
 41
0.85
  7
SIMPLEX7
100
AcDbText
  0
LINE
  5
16B1
330
1F
100
AcDbEntity
  8
POPIS
100
AcDbLine
 10
2521.892421666409
 20
334.8277910135898
 30
0.0
 11
2521.892421666409
 21
270.4335062670929
 31
0.0
  0
LINE
  5
16B2
330
1F
100
AcDbEntity
  8
POPIS
100
AcDbLine
 10
2569.214933249635
 20
334.8277910135898
 30
0.0
 11
2569.214933249635
 21
284.407497596479
 31
0.0
  0
INSERT
  5
16B3
330
1F
100
AcDbEntity
  8
POPIS
100
AcDbBlockReference
  2
_ArchTick
 10
2569.214933249635
 20
289.6678312835895
 30
0.0
 41
15.0
 42
15.0
 43
15.0
 50
270.0
  0
LINE
  5
16B4
330
1F
100
AcDbEntity
  8
POPIS
100
AcDbLine
 10
2550.68648928931
 20
274.573707595679
 30
0.0
 11
2509.392421666409
 21
274.573707595679
 31
0.0
  0
INSERT
  5
16B5
330
1F
100
AcDbEntity
  8
POPIS
100
AcDbBlockReference
  2
_ArchTick
 10
2521.892421666409
 20
274.573707595679
 30
0.0
 41
15.0
 42
15.0
 43
15.0
 50
270.0
  0
TEXT
  5
16B6
330
1F
100
AcDbEntity
  8
POPIS
100
AcDbText
 10
2516.282511274117
 20
290.6543268249484
 30
0.0
 40
25.0
  1
50
 50
90.0
 41
0.7
  7
SIMPLEX7
100
AcDbText
  0
LINE
  5
16B7
330
1F
100
AcDbEntity
  8
POPIS
100
AcDbLine
 10
2552.875431522312
 20
329.4192543525941
 30
0.0
 11
2509.392421666409
 21
329.4192543525941
 31
0.0
  0
INSERT
  5
16B8
330
1F
100
AcDbEntity
  8
POPIS
100
AcDbBlockReference
  2
_ArchTick
 10
2521.892421666409
 20
329.4192543525941
 30
0.0
 41
15.0
 42
15.0
 43
15.0
 50
90.0
  0
INSERT
  5
16B9
330
1F
100
AcDbEntity
  8
POPIS
100
AcDbBlockReference
  2
_ArchTick
 10
2569.214933249635
 20
329.4192543525941
 30
0.0
 41
15.0
 42
15.0
 43
15.0
 50
90.0
  0
LINE
  5
16BA
330
1F
100
AcDbEntity
  8
POPIS
100
AcDbLine
 10
2598.009000872536
 20
289.6678312835895
 30
0.0
 11
2556.714933249635
 21
289.6678312835895
 31
0.0
  0
LINE
  5
16BB
330
1F
100
AcDbEntity
  8
POPIS
100
AcDbLine
 10
2600.197943105539
 20
329.4192543525941
 30
0.0
 11
2556.714933249635
 21
329.4192543525941
 31
0.0
  0
TEXT
  5
16BC
330
1F
100
AcDbEntity
  8
POPIS
100
AcDbText
 10
2563.605022857343
 20
297.1105679004991
 30
0.0
 40
25.0
  1
40
 50
90.0
 41
0.7
  7
SIMPLEX7
100
AcDbText
  0
LINE
  5
16BD
330
1F
100
AcDbEntity
  8
PROFILY
  6
DASHED
370
    40
100
AcDbLine
 10
2652.682977996179
 20
38.76532300860981
 30
0.0
 11
2652.682977996179
 21
606.4500834179844
 31
0.0
  0
LINE
  5
16BE
330
1F
100
AcDbEntity
  8
PROFILY
100
AcDbLine
 10
2653.182977996179
 20
38.76532300860981
 30
0.0
 11
2653.182977996179
 21
606.4500834179844
 31
0.0
  0
LINE
  5
16BF
330
1F
100
AcDbEntity
  8
POPIS
100
AcDbLine
 10
2433.714347161429
 20
455.5394638766501
 30
0.0
 11
2652.682977996179
 21
455.5394638766495
 31
0.0
  0
TEXT
  5
16C0
330
1F
100
AcDbEntity
  8
POPIS
100
AcDbText
 10
2393.73686081816
 20
442.0961224272796
 30
0.0
 40
25.0
  1
11
 41
0.7
  7
SIMPLEX7
100
AcDbText
  0
INSERT
  5
16C1
330
1F
100
AcDbEntity
  8
POPIS
100
AcDbBlockReference
  2
E_PUNKT
 10
2651.66448530761
 20
455.4745900187462
 30
0.0
  0
ENDSEC
  0
SECTION
  2
OBJECTS
  0
DICTIONARY
  5
C
330
0
100
AcDbDictionary
281
     1
  3
ACAD_GROUP
350
D
  3
ACAD_LAYOUT
350
1A
  3
ACAD_MLINESTYLE
350
17
  3
ACAD_PLOTSETTINGS
350
19
  3
ACAD_PLOTSTYLENAME
350
E
  3
AcDbVariableDictionary
350
16C3
  0
DICTIONARY
  5
B56
330
1F
100
AcDbDictionary
280
     1
281
     1
  3
ACAD_LAYOUTSELFREF
360
1688
  0
DICTIONARY
  5
B58
330
1B
100
AcDbDictionary
280
     1
281
     1
  3
ACAD_LAYOUTSELFREF
360
1687
  0
DICTIONARY
  5
B5A
330
23
100
AcDbDictionary
280
     1
281
     1
  3
ACAD_LAYOUTSELFREF
360
1689
  0
DICTIONARY
  5
D
102
{ACAD_REACTORS
330
C
102
}
330
C
100
AcDbDictionary
281
     1
  0
DICTIONARY
  5
1A
102
{ACAD_REACTORS
330
C
102
}
330
C
100
AcDbDictionary
281
     1
  3
Model
350
22
  3
Rozvržení1
350
1E
  3
Rozvržení2
350
26
  0
DICTIONARY
  5
17
102
{ACAD_REACTORS
330
C
102
}
330
C
100
AcDbDictionary
281
     1
  3
Standard
350
18
  0
DICTIONARY
  5
19
102
{ACAD_REACTORS
330
C
102
}
330
C
100
AcDbDictionary
281
     1
  0
ACDBDICTIONARYWDFLT
  5
E
102
{ACAD_REACTORS
330
C
102
}
330
C
100
AcDbDictionary
281
     1
  3
Normal
350
F
100
AcDbDictionaryWithDefault
340
F
  0
DICTIONARY
  5
16C3
102
{ACAD_REACTORS
330
C
102
}
330
C
100
AcDbDictionary
281
     1
  3
DIMASSOC
350
16C4
  0
XRECORD
  5
1688
102
{ACAD_REACTORS
330
B56
102
}
330
B56
100
AcDbXrecord
280
     1
340
1F
  0
XRECORD
  5
1687
102
{ACAD_REACTORS
330
B58
102
}
330
B58
100
AcDbXrecord
280
     1
340
1B
  0
XRECORD
  5
1689
102
{ACAD_REACTORS
330
B5A
102
}
330
B5A
100
AcDbXrecord
280
     1
340
23
  0
LAYOUT
  5
22
102
{ACAD_REACTORS
330
1A
102
}
330
1A
100
AcDbPlotSettings
  1

  2
HP DeskJet 690C
  4

  6

 40
0.0
 41
0.0
 42
0.0
 43
0.0
 44
0.0
 45
0.0
 46
0.0
 47
0.0
 48
0.0
 49
0.0
140
0.0
141
0.0
142
1.0
143
1.0
 70
  1712
 72
     0
 73
     0
 74
     0
  7
monochrome.ctb
 75
     0
147
1.0
148
0.0
149
0.0
100
AcDbLayout
  1
Model
 70
     1
 71
     0
 10
0.0
 20
0.0
 11
12.0
 21
9.0
 12
0.0
 22
0.0
 32
0.0
 14
0.0
 24
0.0
 34
0.0
 15
0.0
 25
0.0
 35
0.0
146
0.0
 13
0.0
 23
0.0
 33
0.0
 16
1.0
 26
0.0
 36
0.0
 17
0.0
 27
1.0
 37
0.0
 76
     0
330
1F
  0
LAYOUT
  5
1E
102
{ACAD_REACTORS
330
1A
102
}
330
1A
100
AcDbPlotSettings
  1

  2
HP DeskJet 690C
  4

  6

 40
0.0
 41
0.0
 42
0.0
 43
0.0
 44
0.0
 45
0.0
 46
0.0
 47
0.0
 48
0.0
 49
0.0
140
0.0
141
0.0
142
1.0
143
1.0
 70
   688
 72
     0
 73
     0
 74
     5
  7
monochrome.ctb
 75
    16
147
1.0
148
0.0
149
0.0
100
AcDbLayout
  1
Rozvržení1
 70
     1
 71
     1
 10
0.0
 20
0.0
 11
420.0
 21
297.0
 12
0.0
 22
0.0
 32
0.0
 14
1.000000000000000E+20
 24
1.000000000000000E+20
 34
1.000000000000000E+20
 15
-1.000000000000000E+20
 25
-1.000000000000000E+20
 35
-1.000000000000000E+20
146
0.0
 13
0.0
 23
0.0
 33
0.0
 16
1.0
 26
0.0
 36
0.0
 17
0.0
 27
1.0
 37
0.0
 76
     0
330
1B
  0
LAYOUT
  5
26
102
{ACAD_REACTORS
330
1A
102
}
330
1A
100
AcDbPlotSettings
  1

  2
HP DeskJet 690C
  4

  6

 40
0.0
 41
0.0
 42
0.0
 43
0.0
 44
0.0
 45
0.0
 46
0.0
 47
0.0
 48
0.0
 49
0.0
140
0.0
141
0.0
142
1.0
143
1.0
 70
   688
 72
     0
 73
     0
 74
     5
  7
monochrome.ctb
 75
    16
147
1.0
148
0.0
149
0.0
100
AcDbLayout
  1
Rozvržení2
 70
     1
 71
     2
 10
0.0
 20
0.0
 11
12.0
 21
9.0
 12
0.0
 22
0.0
 32
0.0
 14
0.0
 24
0.0
 34
0.0
 15
0.0
 25
0.0
 35
0.0
146
0.0
 13
0.0
 23
0.0
 33
0.0
 16
1.0
 26
0.0
 36
0.0
 17
0.0
 27
1.0
 37
0.0
 76
     0
330
23
  0
MLINESTYLE
  5
18
102
{ACAD_REACTORS
330
17
102
}
330
17
100
AcDbMlineStyle
  2
STANDARD
 70
     0
  3

 62
   256
 51
90.0
 52
90.0
 71
     2
 49
0.5
 62
   256
  6
BYLAYER
 49
-0.5
 62
   256
  6
BYLAYER
  0
ACDBPLACEHOLDER
  5
F
102
{ACAD_REACTORS
330
E
102
}
330
E
  0
DICTIONARYVAR
  5
16C4
102
{ACAD_REACTORS
330
16C3
102
}
330
16C3
100
DictionaryVariables
280
     0
  1
1
  0
ENDSEC
  0
EOF
