  0
SECTION
  2
HEADER
  9
$ACADVER
  1
AC1015
  9
$ACADMAINTVER
 70
    13
  9
$DWGCODEPAGE
  3
ANSI_1250
  9
$INSBASE
 10
0.0
 20
0.0
 30
0.0
  9
$EXTMIN
 10
2735.580220057831
 20
-660.6601681109432
 30
0.0
  9
$EXTMAX
 10
3575.649879044226
 20
754.038898211173
 30
0.0
  9
$LIMMIN
 10
0.0
 20
0.0
  9
$LIMMAX
 10
420.0
 20
297.0
  9
$ORTHOMODE
 70
     1
  9
$REGENMODE
 70
     1
  9
$FILLMODE
 70
     1
  9
$QTEXTMODE
 70
     0
  9
$MIRRTEXT
 70
     1
  9
$LTSCALE
 40
1.0
  9
$ATTMODE
 70
     1
  9
$TEXTSIZE
 40
102.0
  9
$TRACEWID
 40
1.0
  9
$TEXTSTYLE
  7
SIMPLEX7
  9
$CLAYER
  8
POPIS
  9
$CELTYPE
  6
ByLayer
  9
$CECOLOR
 62
   256
  9
$CELTSCALE
 40
1.0
  9
$DISPSILH
 70
     0
  9
$DIMSCALE
 40
10.0
  9
$DIMASZ
 40
1.5
  9
$DIMEXO
 40
4.0
  9
$DIMDLI
 40
3.75
  9
$DIMRND
 40
0.0
  9
$DIMDLE
 40
0.0
  9
$DIMEXE
 40
1.25
  9
$DIMTP
 40
0.0
  9
$DIMTM
 40
0.0
  9
$DIMTXT
 40
2.5
  9
$DIMCEN
 40
1.5
  9
$DIMTSZ
 40
0.0
  9
$DIMTOL
 70
     0
  9
$DIMLIM
 70
     0
  9
$DIMTIH
 70
     0
  9
$DIMTOH
 70
     0
  9
$DIMSE1
 70
     0
  9
$DIMSE2
 70
     0
  9
$DIMTAD
 70
     1
  9
$DIMZIN
 70
     8
  9
$DIMBLK
  1
ArchTick
  9
$DIMASO
 70
     1
  9
$DIMSHO
 70
     1
  9
$DIMPOST
  1

  9
$DIMAPOST
  1

  9
$DIMALT
 70
     0
  9
$DIMALTD
 70
     3
  9
$DIMALTF
 40
0.03937007874016
  9
$DIMLFAC
 40
1.0
  9
$DIMTOFL
 70
     1
  9
$DIMTVP
 40
0.0
  9
$DIMTIX
 70
     0
  9
$DIMSOXD
 70
     0
  9
$DIMSAH
 70
     0
  9
$DIMBLK1
  1

  9
$DIMBLK2
  1

  9
$DIMSTYLE
  2
ISO-25
  9
$DIMCLRD
 70
     0
  9
$DIMCLRE
 70
     0
  9
$DIMCLRT
 70
     0
  9
$DIMTFAC
 40
1.0
  9
$DIMGAP
 40
0.625
  9
$DIMJUST
 70
     0
  9
$DIMSD1
 70
     0
  9
$DIMSD2
 70
     0
  9
$DIMTOLJ
 70
     0
  9
$DIMTZIN
 70
     8
  9
$DIMALTZ
 70
     0
  9
$DIMALTTZ
 70
     0
  9
$DIMUPT
 70
     0
  9
$DIMDEC
 70
     2
  9
$DIMTDEC
 70
     2
  9
$DIMALTU
 70
     2
  9
$DIMALTTD
 70
     3
  9
$DIMTXSTY
  7
SIMPLEX7
  9
$DIMAUNIT
 70
     0
  9
$DIMADEC
 70
     0
  9
$DIMALTRND
 40
0.0
  9
$DIMAZIN
 70
     0
  9
$DIMDSEP
 70
    44
  9
$DIMATFIT
 70
     3
  9
$DIMFRAC
 70
     0
  9
$DIMLDRBLK
  1

  9
$DIMLUNIT
 70
     2
  9
$DIMLWD
 70
    -2
  9
$DIMLWE
 70
    -2
  9
$DIMTMOVE
 70
     0
  9
$LUNITS
 70
     2
  9
$LUPREC
 70
     4
  9
$SKETCHINC
 40
1.0
  9
$FILLETRAD
 40
10.0
  9
$AUNITS
 70
     0
  9
$AUPREC
 70
     0
  9
$MENU
  1
.
  9
$ELEVATION
 40
0.0
  9
$PELEVATION
 40
0.0
  9
$THICKNESS
 40
0.0
  9
$LIMCHECK
 70
     0
  9
$CHAMFERA
 40
10.0
  9
$CHAMFERB
 40
10.0
  9
$CHAMFERC
 40
20.0
  9
$CHAMFERD
 40
0.0
  9
$SKPOLY
 70
     0
  9
$TDCREATE
 40
2452334.465307870
  9
$TDUCREATE
 40
2452334.423641203
  9
$TDUPDATE
 40
2455595.891289236
  9
$TDUUPDATE
 40
2455595.849622569
  9
$TDINDWG
 40
0.0189270023
  9
$TDUSRTIMER
 40
0.0189270023
  9
$USRTIMER
 70
     1
  9
$ANGBASE
 50
0.0
  9
$ANGDIR
 70
     0
  9
$PDMODE
 70
     0
  9
$PDSIZE
 40
0.0
  9
$PLINEWID
 40
0.0
  9
$SPLFRAME
 70
     0
  9
$SPLINETYPE
 70
     6
  9
$SPLINESEGS
 70
     8
  9
$HANDSEED
  5
11E0
  9
$SURFTAB1
 70
     6
  9
$SURFTAB2
 70
     6
  9
$SURFTYPE
 70
     6
  9
$SURFU
 70
     6
  9
$SURFV
 70
     6
  9
$UCSBASE
  2

  9
$UCSNAME
  2

  9
$UCSORG
 10
0.0
 20
0.0
 30
0.0
  9
$UCSXDIR
 10
1.0
 20
0.0
 30
0.0
  9
$UCSYDIR
 10
0.0
 20
1.0
 30
0.0
  9
$UCSORTHOREF
  2

  9
$UCSORTHOVIEW
 70
     0
  9
$UCSORGTOP
 10
0.0
 20
0.0
 30
0.0
  9
$UCSORGBOTTOM
 10
0.0
 20
0.0
 30
0.0
  9
$UCSORGLEFT
 10
0.0
 20
0.0
 30
0.0
  9
$UCSORGRIGHT
 10
0.0
 20
0.0
 30
0.0
  9
$UCSORGFRONT
 10
0.0
 20
0.0
 30
0.0
  9
$UCSORGBACK
 10
0.0
 20
0.0
 30
0.0
  9
$PUCSBASE
  2

  9
$PUCSNAME
  2

  9
$PUCSORG
 10
0.0
 20
0.0
 30
0.0
  9
$PUCSXDIR
 10
1.0
 20
0.0
 30
0.0
  9
$PUCSYDIR
 10
0.0
 20
1.0
 30
0.0
  9
$PUCSORTHOREF
  2

  9
$PUCSORTHOVIEW
 70
     0
  9
$PUCSORGTOP
 10
0.0
 20
0.0
 30
0.0
  9
$PUCSORGBOTTOM
 10
0.0
 20
0.0
 30
0.0
  9
$PUCSORGLEFT
 10
0.0
 20
0.0
 30
0.0
  9
$PUCSORGRIGHT
 10
0.0
 20
0.0
 30
0.0
  9
$PUCSORGFRONT
 10
0.0
 20
0.0
 30
0.0
  9
$PUCSORGBACK
 10
0.0
 20
0.0
 30
0.0
  9
$USERI1
 70
     0
  9
$USERI2
 70
     0
  9
$USERI3
 70
     0
  9
$USERI4
 70
     0
  9
$USERI5
 70
     0
  9
$USERR1
 40
0.0
  9
$USERR2
 40
0.0
  9
$USERR3
 40
0.0
  9
$USERR4
 40
0.0
  9
$USERR5
 40
0.0
  9
$WORLDVIEW
 70
     1
  9
$SHADEDGE
 70
     3
  9
$SHADEDIF
 70
    70
  9
$TILEMODE
 70
     1
  9
$MAXACTVP
 70
    48
  9
$PINSBASE
 10
0.0
 20
0.0
 30
0.0
  9
$PLIMCHECK
 70
     0
  9
$PEXTMIN
 10
1.000000000000000E+20
 20
1.000000000000000E+20
 30
1.000000000000000E+20
  9
$PEXTMAX
 10
-1.000000000000000E+20
 20
-1.000000000000000E+20
 30
-1.000000000000000E+20
  9
$PLIMMIN
 10
0.0
 20
0.0
  9
$PLIMMAX
 10
420.0
 20
297.0
  9
$UNITMODE
 70
     0
  9
$VISRETAIN
 70
     1
  9
$PLINEGEN
 70
     0
  9
$PSLTSCALE
 70
     1
  9
$TREEDEPTH
 70
  3020
  9
$CMLSTYLE
  2
Standard
  9
$CMLJUST
 70
     0
  9
$CMLSCALE
 40
20.0
  9
$PROXYGRAPHICS
 70
     1
  9
$MEASUREMENT
 70
     1
  9
$CELWEIGHT
370
    -1
  9
$ENDCAPS
280
     0
  9
$JOINSTYLE
280
     0
  9
$LWDISPLAY
290
     1
  9
$INSUNITS
 70
     4
  9
$HYPERLINKBASE
  1

  9
$STYLESHEET
  1

  9
$XEDIT
290
     1
  9
$CEPSNTYPE
380
     0
  9
$PSTYLEMODE
290
     1
  9
$FINGERPRINTGUID
  2
{4216A968-507C-4CB8-873B-AD6C9E89F3B1}
  9
$VERSIONGUID
  2
{F802CD66-3186-4948-A6B4-4961E4B4609E}
  9
$EXTNAMES
290
     1
  9
$PSVPSCALE
 40
0.0
  9
$OLESTARTUP
290
     0
  0
ENDSEC
  0
SECTION
  2
CLASSES
  0
CLASS
  1
ACDBDICTIONARYWDFLT
  2
AcDbDictionaryWithDefault
  3
AutoCAD 2000
 90
        0
280
     0
281
     0
  0
CLASS
  1
ACDBPLACEHOLDER
  2
AcDbPlaceHolder
  3
AutoCAD 2000
 90
        0
280
     0
281
     0
  0
CLASS
  1
LAYOUT
  2
AcDbLayout
  3
AutoCAD 2000
 90
        0
280
     0
281
     0
  0
CLASS
  1
LONG_TRANSACTION
  2
AcDbLongTransaction
  3
AutoCAD 2000
 90
    32768
280
     0
281
     0
  0
CLASS
  1
LWPOLYLINE
  2
AcDbPolyline
  3
AutoCAD 2000
 90
    32768
280
     0
281
     1
  0
CLASS
  1
HATCH
  2
AcDbHatch
  3
AutoCAD 2000
 90
    32768
280
     0
281
     1
  0
CLASS
  1
XRECORD
  2
AcDbXrecord
  3
AutoCAD 2000
 90
    32768
280
     0
281
     0
  0
CLASS
  1
LONG_TRANSACTION
  2
AcDbLongTransaction
  3
AutoCAD 2000
 90
    32768
280
     0
281
     0
  0
CLASS
  1
LWPOLYLINE
  2
AcDbPolyline
  3
AutoCAD 2000
 90
    32768
280
     0
281
     1
  0
CLASS
  1
HATCH
  2
AcDbHatch
  3
AutoCAD 2000
 90
    32768
280
     0
281
     1
  0
CLASS
  1
XRECORD
  2
AcDbXrecord
  3
AutoCAD 2000
 90
    32768
280
     0
281
     0
  0
CLASS
  1
DICTIONARYVAR
  2
AcDbDictionaryVar
  3
AutoCAD 2000
 90
        0
280
     0
281
     0
  0
ENDSEC
  0
SECTION
  2
TABLES
  0
TABLE
  2
VPORT
  5
8
330
0
100
AcDbSymbolTable
 70
     2
  0
VPORT
  5
11DF
330
8
100
AcDbSymbolTableRecord
100
AcDbViewportTableRecord
  2
*Active
 70
     0
 10
0.0
 20
0.0
 11
1.0
 21
1.0
 12
3155.615049551028
 22
46.68936505011493
 13
0.0
 23
0.0
 14
10.0
 24
10.0
 15
10.0
 25
10.0
 16
0.0
 26
0.0
 36
1.0
 17
0.0
 27
0.0
 37
0.0
 40
1428.024332252936
 41
2.229559748427672
 42
50.0
 43
0.0
 44
0.0
 50
0.0
 51
0.0
 71
     0
 72
   100
 73
     1
 74
     3
 75
     0
 76
     0
 77
     0
 78
     0
281
     0
 65
     1
110
0.0
120
0.0
130
0.0
111
1.0
121
0.0
131
0.0
112
0.0
122
1.0
132
0.0
 79
     0
146
0.0
  0
ENDTAB
  0
TABLE
  2
LTYPE
  5
5
330
0
100
AcDbSymbolTable
 70
     4
  0
LTYPE
  5
14
330
5
100
AcDbSymbolTableRecord
100
AcDbLinetypeTableRecord
  2
ByBlock
 70
     0
  3

 72
    65
 73
     0
 40
0.0
  0
LTYPE
  5
15
330
5
100
AcDbSymbolTableRecord
100
AcDbLinetypeTableRecord
  2
ByLayer
 70
     0
  3

 72
    65
 73
     0
 40
0.0
  0
LTYPE
  5
16
330
5
100
AcDbSymbolTableRecord
100
AcDbLinetypeTableRecord
  2
Continuous
 70
     0
  3
Solid line
 72
    65
 73
     0
 40
0.0
  0
LTYPE
  5
33
330
5
100
AcDbSymbolTableRecord
100
AcDbLinetypeTableRecord
  2
IZOLACE
 70
     0
  3
Izolace SSSSSSSSSSSSSSSSSSSSSSSSSSSSSSSSSSSSSSS
 72
    65
 73
     4
 40
10.16253999999999
 49
0.00254
 74
     0
 49
-2.54
 74
     4
 75
   134
340
3D
 46
2.54
 50
0.0
 44
-2.54
 45
0.0
 49
-5.08
 74
     4
 75
   134
340
3D
 46
2.54
 50
180.0
 44
2.54
 45
0.0
 49
-2.54
 74
     0
  0
LTYPE
  5
34
330
5
100
AcDbSymbolTableRecord
100
AcDbLinetypeTableRecord
  2
DASHED
 70
     0
  3
Dashed __ __ __ __ __ __ __ __ __ __ __ __ __ _
 72
    65
 73
     2
 40
19.04999999999999
 49
12.7
 74
     0
 49
-6.349999999999999
 74
     0
  0
LTYPE
  5
35
330
5
100
AcDbSymbolTableRecord
100
AcDbLinetypeTableRecord
  2
DASHDOT2
 70
     0
  3
Dash dot (.5x) _._._._._._._._._._._._._._._.
 72
    65
 73
     4
 40
12.7
 49
6.349999999999999
 74
     0
 49
-3.174999999999999
 74
     0
 49
0.0
 74
     0
 49
-3.174999999999999
 74
     0
  0
ENDTAB
  0
TABLE
  2
LAYER
  5
2
330
0
100
AcDbSymbolTable
 70
     8
  0
LAYER
  5
10
330
2
100
AcDbSymbolTableRecord
100
AcDbLayerTableRecord
  2
0
 70
     0
 62
     7
  6
Continuous
370
    -3
390
F
  0
LAYER
  5
36
330
2
100
AcDbSymbolTableRecord
100
AcDbLayerTableRecord
  2
POPIS
 70
     0
 62
    30
  6
Continuous
370
    -3
390
F
  0
LAYER
  5
37
330
2
100
AcDbSymbolTableRecord
100
AcDbLayerTableRecord
  2
SPOJOVACÍ
 70
     0
 62
   180
  6
Continuous
370
    -3
390
F
  0
LAYER
  5
38
330
2
100
AcDbSymbolTableRecord
100
AcDbLayerTableRecord
  2
CETRIS
 70
     0
 62
     1
  6
Continuous
370
    -3
390
F
  0
LAYER
  5
39
330
2
100
AcDbSymbolTableRecord
100
AcDbLayerTableRecord
  2
NOSNÉ KONSTRUKCE
 70
     0
 62
    33
  6
Continuous
370
    -3
390
F
  0
LAYER
  5
3A
330
2
100
AcDbSymbolTableRecord
100
AcDbLayerTableRecord
  2
PROFILY
 70
     0
 62
    73
  6
Continuous
370
    -3
390
F
  0
LAYER
  5
3B
330
2
100
AcDbSymbolTableRecord
100
AcDbLayerTableRecord
  2
STAVBA OBRYS
 70
     0
 62
     6
  6
Continuous
370
    -3
390
F
  0
LAYER
  5
5FD
330
2
100
AcDbSymbolTableRecord
100
AcDbLayerTableRecord
  2
Defpoints
 70
     0
 62
     7
  6
Continuous
290
     0
370
    -3
390
F
  0
ENDTAB
  0
TABLE
  2
STYLE
  5
3
330
0
100
AcDbSymbolTable
 70
     3
  0
STYLE
  5
11
330
3
100
AcDbSymbolTableRecord
100
AcDbTextStyleTableRecord
  2
Standard
 70
     0
 40
0.0
 41
1.0
 50
0.0
 71
     0
 42
2.5
  3
txt
  4

  0
STYLE
  5
3C
330
3
100
AcDbSymbolTableRecord
100
AcDbTextStyleTableRecord
  2
SIMPLEX7
 70
     0
 40
0.0
 41
0.85
 50
0.0
 71
     0
 42
102.0
  3
ARIAL.TTF
  4

1001
ACAD
1000
Arial CE
1071
    60962
  0
STYLE
  5
3D
330
3
100
AcDbSymbolTableRecord
100
AcDbTextStyleTableRecord
  2

 70
     1
 40
0.0
 41
1.0
 50
0.0
 71
     0
 42
2.5
  3
ltypeshp.shx
  4

  0
ENDTAB
  0
TABLE
  2
VIEW
  5
6
330
0
100
AcDbSymbolTable
 70
     0
  0
ENDTAB
  0
TABLE
  2
UCS
  5
7
330
0
100
AcDbSymbolTable
 70
     0
  0
ENDTAB
  0
TABLE
  2
APPID
  5
9
330
0
100
AcDbSymbolTable
 70
     1
  0
APPID
  5
12
330
9
100
AcDbSymbolTableRecord
100
AcDbRegAppTableRecord
  2
ACAD
 70
     0
  0
ENDTAB
  0
TABLE
  2
DIMSTYLE
  5
A
330
0
100
AcDbSymbolTable
 70
     1
100
AcDbDimStyleTable
 71
     1
340
27
  0
DIMSTYLE
105
27
330
A
100
AcDbSymbolTableRecord
100
AcDbDimStyleTableRecord
  2
ISO-25
 70
     0
 40
10.0
 41
1.5
 42
4.0
 43
3.75
 44
1.25
 73
     0
 74
     0
 77
     1
 78
     8
140
2.5
141
1.5
143
0.03937007874016
147
0.625
171
     3
172
     1
271
     2
272
     2
274
     3
278
    44
283
     0
284
     8
340
3C
342
1198
  0
ENDTAB
  0
TABLE
  2
BLOCK_RECORD
  5
1
330
0
100
AcDbSymbolTable
 70
     3
  0
BLOCK_RECORD
  5
1F
102
{ACAD_XDICTIONARY
360
B56
102
}
330
1
100
AcDbSymbolTableRecord
100
AcDbBlockTableRecord
  2
*Model_Space
340
22
  0
BLOCK_RECORD
  5
1B
102
{ACAD_XDICTIONARY
360
B58
102
}
330
1
100
AcDbSymbolTableRecord
100
AcDbBlockTableRecord
  2
*Paper_Space
340
1E
  0
BLOCK_RECORD
  5
23
102
{ACAD_XDICTIONARY
360
B5A
102
}
330
1
100
AcDbSymbolTableRecord
100
AcDbBlockTableRecord
  2
*Paper_Space0
340
26
  0
BLOCK_RECORD
  5
2B
330
1
100
AcDbSymbolTableRecord
100
AcDbBlockTableRecord
  2
E_PUNKT
340
0
102
{BLKREFS
331
1133
331
1134
331
1137
331
EC2
331
F03
331
F04
331
F05
331
F06
331
11C8
102
}
  0
BLOCK_RECORD
  5
1198
330
1
100
AcDbSymbolTableRecord
100
AcDbBlockTableRecord
  2
_ArchTick
340
0
102
{BLKREFS
331
11B4
331
11B5
331
11B9
331
11B8
102
}
  0
ENDTAB
  0
ENDSEC
  0
SECTION
  2
BLOCKS
  0
BLOCK
  5
20
330
1F
100
AcDbEntity
  8
0
100
AcDbBlockBegin
  2
*Model_Space
 70
     0
 10
0.0
 20
0.0
 30
0.0
  3
*Model_Space
  1

  0
ENDBLK
  5
21
330
1F
100
AcDbEntity
  8
0
100
AcDbBlockEnd
  0
BLOCK
  5
1C
330
1B
100
AcDbEntity
 67
     1
  8
0
100
AcDbBlockBegin
  2
*Paper_Space
 70
     0
 10
0.0
 20
0.0
 30
0.0
  3
*Paper_Space
  1

  0
ENDBLK
  5
1D
330
1B
100
AcDbEntity
 67
     1
  8
0
100
AcDbBlockEnd
  0
BLOCK
  5
24
330
23
100
AcDbEntity
  8
0
100
AcDbBlockBegin
  2
*Paper_Space0
 70
     0
 10
0.0
 20
0.0
 30
0.0
  3
*Paper_Space0
  1

  0
ENDBLK
  5
25
330
23
100
AcDbEntity
  8
0
100
AcDbBlockEnd
  0
BLOCK
  5
2D
330
2B
100
AcDbEntity
  8
0
100
AcDbBlockBegin
  2
E_PUNKT
 70
     0
 10
0.0
 20
0.0
 30
0.0
  3
E_PUNKT
  1

  0
LWPOLYLINE
  5
2C
330
2B
100
AcDbEntity
  8
POPIS
100
AcDbPolyline
 90
        2
 70
     1
 43
2.5
 10
1.27761037562675
 20
0.0290683308725193
 42
-1.0
 10
-1.222389624373249
 20
0.0290683308725193
 42
-1.0
  0
ENDBLK
  5
2E
330
2B
100
AcDbEntity
  8
0
100
AcDbBlockEnd
  0
BLOCK
  5
119A
330
1198
100
AcDbEntity
  8
0
100
AcDbBlockBegin
  2
_ArchTick
 70
     0
 10
0.0
 20
0.0
 30
0.0
  3
_ArchTick
  1

  0
LWPOLYLINE
  5
1199
330
1198
100
AcDbEntity
  8
0
  6
ByBlock
 62
     0
100
AcDbPolyline
 90
        2
 70
     0
 43
0.15
 10
-0.5
 20
-0.5
 10
0.5
 20
0.5
  0
ENDBLK
  5
119B
330
1198
100
AcDbEntity
  8
0
100
AcDbBlockEnd
  0
ENDSEC
  0
SECTION
  2
ENTITIES
  0
LINE
  5
EC1
330
1F
100
AcDbEntity
  8
POPIS
100
AcDbLine
 10
3033.193183379471
 20
26.19454420332113
 30
0.0
 11
2971.063453148517
 21
-16.2871014519942
 31
0.0
  0
INSERT
  5
EC2
330
1F
100
AcDbEntity
  8
POPIS
100
AcDbBlockReference
  2
E_PUNKT
 10
3008.938909626418
 20
585.4500036743684
 30
0.0
  0
LINE
  5
EC3
330
1F
100
AcDbEntity
  8
POPIS
100
AcDbLine
 10
3014.328254178921
 20
527.1086742622833
 30
0.0
 11
2971.063453148517
 21
487.6426938708796
 31
0.0
  0
HATCH
  5
EC4
330
1F
100
AcDbEntity
  8
PROFILY
100
AcDbHatch
 10
0.0
 20
0.0
 30
0.0
210
0.0
220
0.0
230
1.0
  2
SOLID
 70
     1
 71
     0
 91
        6
 92
        7
 72
     0
 73
     1
 93
        5
 10
3052.479361242205
 20
28.57094522693796
 10
3051.479361242213
 20
28.57094522693796
 10
3044.695923061814
 20
28.57094522693796
 10
3044.695923061814
 20
27.13617611778363
 10
3052.479361242205
 20
27.136176117785
 97
        0
 92
        7
 72
     0
 73
     1
 93
        5
 10
3034.834008688003
 20
28.57094522693842
 10
3027.479361242212
 20
28.57094522693796
 10
3026.309321020131
 20
28.57094522693796
 10
3026.309321020131
 20
27.13617611778363
 10
3034.834008688003
 20
27.13617611778408
 97
        0
 92
        7
 72
     0
 73
     1
 93
        6
 10
3017.784600206641
 20
28.57094522693751
 10
3015.479361242213
 20
28.57094522693887
 10
3015.479361242213
 20
29.30984722137646
 10
3013.979361242212
 20
29.30984722137646
 10
3013.979361242212
 20
27.13617611778408
 10
3017.784600206641
 20
27.13617611778408
 97
        0
 92
        7
 72
     0
 73
     1
 93
        4
 10
3015.479361242213
 20
45.6816862855926
 10
3013.979361242212
 20
45.68168628559215
 10
3013.979361242212
 20
36.40986990137117
 10
3015.479361242213
 20
36.40986990137117
 97
        0
 92
        7
 72
     0
 73
     1
 93
        4
 10
3015.479361242213
 20
60.23598270768435
 10
3014.562822455378
 20
60.23598270768388
 10
3014.298758766117
 20
54.95350266981495
 10
3015.479361242213
 20
54.9535026698145
 97
        0
 92
        7
 72
     0
 73
     1
 93
        4
 10
3014.562822455378
 20
60.23598270768435
 10
3013.979361242212
 20
60.2359827076848
 10
3013.979361242212
 20
54.95350266981495
 10
3014.298758766117
 20
54.9535026698145
 97
        0
 75
     0
 76
     1
 47
0.0856700822312996
 98
        6
 10
3046.525246989839
 20
27.64758698132345
 10
3030.617307210121
 20
27.64758698132345
 10
3014.709334284778
 20
28.06056077757375
 10
3014.915930905297
 20
39.00420846830229
 10
3015.005490357993
 20
56.88209321075328
 10
3014.228722862119
 20
57.80620152826805
  0
LINE
  5
EC5
330
1F
100
AcDbEntity
  8
PROFILY
100
AcDbLine
 10
3130.111070225821
 20
28.57094522693796
 30
0.0
 11
3130.111070225821
 21
27.13617611778317
 31
0.0
  0
LINE
  5
EC6
330
1F
100
AcDbEntity
  8
PROFILY
100
AcDbLine
 10
3034.834008688003
 20
28.57094522693796
 30
0.0
 11
3034.834008688003
 21
27.13617611778454
 31
0.0
  0
LINE
  5
EC7
330
1F
100
AcDbEntity
  8
PROFILY
100
AcDbLine
 10
3026.309321020131
 20
28.57094522693796
 30
0.0
 11
3026.309321020131
 21
27.13617611778454
 31
0.0
  0
LINE
  5
EC8
330
1F
100
AcDbEntity
  8
PROFILY
100
AcDbLine
 10
3017.784600206641
 20
28.57094522693796
 30
0.0
 11
3017.784600206641
 21
27.13617611778454
 31
0.0
  0
LINE
  5
EC9
330
1F
100
AcDbEntity
  8
PROFILY
100
AcDbLine
 10
3015.479361242213
 20
29.309847221376
 30
0.0
 11
3013.979361242212
 21
29.309847221376
 31
0.0
  0
LINE
  5
ECA
330
1F
100
AcDbEntity
  8
PROFILY
100
AcDbLine
 10
3015.479361242213
 20
36.40986990137117
 30
0.0
 11
3013.979361242212
 21
36.40986990137117
 31
0.0
  0
LINE
  5
ECB
330
1F
100
AcDbEntity
  8
PROFILY
100
AcDbLine
 10
3015.479361242213
 20
45.68168628559305
 30
0.0
 11
3013.979361242212
 21
45.68168628559305
 31
0.0
  0
LINE
  5
ECC
330
1F
100
AcDbEntity
  8
PROFILY
100
AcDbLine
 10
3136.89450840622
 20
28.57094522693796
 30
0.0
 11
3137.894508406212
 21
28.57094522693796
 31
0.0
  0
LINE
  5
ECD
330
1F
100
AcDbEntity
  8
PROFILY
100
AcDbLine
 10
3013.979361242212
 20
27.13617611778454
 30
0.0
 11
3130.111070225821
 21
27.13617611778317
 31
0.0
  0
LINE
  5
ECE
330
1F
100
AcDbEntity
  8
PROFILY
100
AcDbLine
 10
3013.979361242212
 20
60.23598270768435
 30
0.0
 11
3013.979361242212
 21
27.13617611778454
 31
0.0
  0
HATCH
  5
ECF
330
1F
100
AcDbEntity
  8
CETRIS
100
AcDbHatch
 10
0.0
 20
0.0
 30
0.0
210
0.0
220
0.0
230
1.0
  2
ANSI31
 70
     0
 71
     0
 91
        1
 92
        7
 72
     0
 73
     1
 93
        5
 10
3014.25033028146
 20
596.2675271967291
 10
3002.247970780898
 20
596.5200707644125
 10
2998.07602832214
 20
513.0621640037365
 10
3000.922508318408
 20
509.9161265546785
 10
3009.911284486379
 20
509.4667903754843
 97
        0
 75
     0
 76
     1
 52
90.0
 41
1.0
 77
     0
 78
     1
 53
135.0
 43
-7174.007995460669
 44
3601.512493903402
 45
-2.245064030267288
 46
-2.245064030267287
 79
     0
 47
0.9552509132763578
 98
        1
 10
3007.560356566182
 20
566.4115816601293
  0
LINE
  5
ED0
330
1F
100
AcDbEntity
  8
CETRIS
100
AcDbLine
 10
3000.922508318401
 20
509.916126554679
 30
0.0
 11
2998.07602832214
 21
513.062164003738
 31
0.0
  0
LINE
  5
ED1
330
1F
100
AcDbEntity
  8
CETRIS
100
AcDbLine
 10
3000.922508318401
 20
509.916126554679
 30
0.0
 11
3009.911284486379
 21
509.4667903754839
 31
0.0
  0
LINE
  5
ED2
330
1F
100
AcDbEntity
  8
CETRIS
100
AcDbLine
 10
3014.25033028146
 20
596.2675271967286
 30
0.0
 11
3009.911284486379
 21
509.4667903754839
 31
0.0
  0
LINE
  5
ED3
330
1F
100
AcDbEntity
  8
CETRIS
100
AcDbLine
 10
3002.247970780898
 20
596.5200707644125
 30
0.0
 11
2998.07602832214
 21
513.062164003738
 31
0.0
  0
HATCH
  5
ED4
330
1F
100
AcDbEntity
  8
CETRIS
100
AcDbHatch
 10
0.0
 20
0.0
 30
0.0
210
0.0
220
0.0
230
1.0
  2
ANSI31
 70
     0
 71
     0
 91
        2
 92
        7
 72
     0
 73
     1
 93
        7
 10
3024.471530210025
 20
522.1857673489035
 10
3015.05170826518
 20
522.2375488106281
 10
3012.767875374933
 20
519.0087966534115
 10
3012.290061562877
 20
519.0338142544283
 10
2999.146454382886
 20
268.0026683475939
 10
3001.985490150882
 20
264.8499114733608
 10
3010.973179114227
 20
264.3793298140076
 97
        0
 92
        7
 72
     0
 73
     1
 93
        6
 10
3026.659234426
 20
563.9689619255936
 10
3014.675649141541
 20
564.5964041380648
 10
3012.878288637066
 20
530.2684254586133
 10
3013.356102449137
 20
530.2434078575948
 10
3015.290267023056
 20
526.7938077989915
 10
3024.664935432955
 20
525.8796341900515
 97
        0
 75
     0
 76
     1
 52
-0.1354299381046259
 41
1.0
 77
     0
 78
     1
 53
44.86457006189537
 43
-7165.947889251182
 44
3625.848372620384
 45
-2.239751109457527
 46
2.250364407753502
 79
     0
 47
1.163336804849115
 98
        2
 10
3012.299826582139
 20
404.4754508692235
 10
3018.446873238413
 20
542.8983869448265
  0
HATCH
  5
ED5
330
1F
100
AcDbEntity
  8
CETRIS
100
AcDbHatch
 10
0.0
 20
0.0
 30
0.0
210
0.0
220
0.0
230
1.0
  2
ANSI31
 70
     0
 71
     0
 91
        3
 92
        7
 72
     0
 73
     1
 93
        6
 10
3027.479361242212
 20
318.6257616653288
 10
3015.494326351572
 20
319.2248765709227
 10
3013.778111778256
 20
284.8927453737719
 10
3014.255983389555
 20
284.8688572492978
 10
3016.198296366606
 20
281.4238386045754
 10
3025.575099416665
 20
280.5318264168013
 97
        0
 92
        7
 72
     0
 73
     1
 93
        6
 10
3010.028881012227
 20
209.8910034301252
 10
3022.043864807767
 20
209.8910034301247
 10
3025.390425912764
 20
276.8375127434178
 10
3015.97050788687
 20
276.8670284638637
 10
3013.694313165548
 20
273.6328870393222
 10
3013.216441554263
 20
273.6567751637953
 97
        0
 92
        7
 72
     0
 73
     1
 93
        5
 10
3022.043864807767
 20
209.8910034301247
 10
3010.028881012227
 20
209.8910034301247
 10
3000.666232438137
 20
22.59526302754375
 10
3003.512712434398
 20
19.4492255784844
 10
3012.501488602376
 20
18.99988939928926
 97
        0
 75
     0
 76
     1
 52
90.0
 41
1.0
 77
     0
 78
     1
 53
135.0
 43
-7173.255491739142
 44
3601.763192949967
 45
-2.245064030267288
 46
-2.245064030267287
 79
     0
 47
1.163336804849115
 98
        3
 10
3020.725926384255
 20
299.7572293404278
 10
3017.234002660856
 20
240.4270553873152
 10
3014.906053511919
 20
132.2367242454724
  0
LINE
  5
ED6
330
1F
100
AcDbEntity
  8
CETRIS
100
AcDbLine
 10
3014.675649141534
 20
564.5964041380652
 30
0.0
 11
3026.659234426
 21
563.9689619255945
 31
0.0
  0
LINE
  5
ED7
330
1F
100
AcDbEntity
  8
CETRIS
100
AcDbLine
 10
3014.675649141534
 20
564.5964041380652
 30
0.0
 11
2999.146454382886
 21
268.0026683475939
 31
0.0
  0
LINE
  5
ED8
330
1F
100
AcDbEntity
  8
CETRIS
100
AcDbLine
 10
3026.659234426
 20
563.9689619255945
 30
0.0
 11
3010.973179114227
 21
264.3793298140071
 31
0.0
  0
LINE
  5
ED9
330
1F
100
AcDbEntity
  8
CETRIS
100
AcDbLine
 10
3001.985490150882
 20
264.8499114733604
 30
0.0
 11
3010.973179114227
 21
264.3793298140071
 31
0.0
  0
LINE
  5
EDA
330
1F
100
AcDbEntity
  8
CETRIS
100
AcDbLine
 10
3001.985490150882
 20
264.8499114733604
 30
0.0
 11
2999.146454382886
 21
268.0026683475939
 31
0.0
  0
LINE
  5
EDB
330
1F
100
AcDbEntity
  8
CETRIS
100
AcDbLine
 10
3003.512712434398
 20
19.4492255784844
 30
0.0
 11
3000.666232438137
 21
22.59526302754329
 31
0.0
  0
LINE
  5
EDC
330
1F
100
AcDbEntity
  8
CETRIS
100
AcDbLine
 10
3003.512712434398
 20
19.4492255784844
 30
0.0
 11
3012.501488602376
 21
18.99988939928926
 31
0.0
  0
LINE
  5
EDD
330
1F
100
AcDbEntity
  8
CETRIS
100
AcDbLine
 10
3015.494326351572
 20
319.2248765709223
 30
0.0
 11
3000.666232438137
 21
22.59526302754329
 31
0.0
  0
LINE
  5
EDE
330
1F
100
AcDbEntity
  8
CETRIS
100
AcDbLine
 10
3015.494326351572
 20
319.2248765709223
 30
0.0
 11
3027.479361242212
 21
318.6257616653288
 31
0.0
  0
LINE
  5
EDF
330
1F
100
AcDbEntity
  8
CETRIS
100
AcDbLine
 10
3027.479361242212
 20
318.6257616653288
 30
0.0
 11
3012.501488602376
 21
18.99988939928926
 31
0.0
  0
LWPOLYLINE
  5
EE0
330
1F
100
AcDbEntity
  8
NOSNÉ KONSTRUKCE
100
AcDbPolyline
 90
        4
 70
     1
 43
0.0
 10
3015.479361242213
 20
28.57094522693796
 10
3027.479361242212
 20
28.57094522693796
 10
3027.479361242212
 20
78.57094522693796
 10
3015.479361242213
 20
78.57094522693796
  0
LINE
  5
EE1
330
1F
100
AcDbEntity
  8
NOSNÉ KONSTRUKCE
100
AcDbLine
 10
3027.479361242212
 20
28.57094522693796
 30
0.0
 11
3130.138867965326
 21
28.57094522693796
 31
0.0
  0
LINE
  5
EE2
330
1F
100
AcDbEntity
  8
NOSNÉ KONSTRUKCE
100
AcDbLine
 10
3051.479361242213
 20
28.57094522693796
 30
0.0
 11
3051.479361242213
 21
595.7507177942038
 31
0.0
  0
LINE
  5
EE3
330
1F
100
AcDbEntity
  8
PROFILY
100
AcDbLine
 10
3027.779361242213
 20
28.57094522693796
 30
0.0
 11
3027.779361242213
 21
596.2557056363125
 31
0.0
  0
TEXT
  5
EE4
330
1F
100
AcDbEntity
  8
POPIS
100
AcDbText
 10
2791.522542656347
 20
-95.22069936539855
 30
0.0
 40
25.0
  1
TERÉN
 41
0.7
  7
SIMPLEX7
100
AcDbText
  0
LINE
  5
EE5
330
1F
100
AcDbEntity
  8
STAVBA OBRYS
100
AcDbLine
 10
3421.640945745259
 20
260.997320618394
 30
0.0
 11
3570.975175938254
 21
260.9973206183945
 31
0.0
  0
LINE
  5
EE6
330
1F
100
AcDbEntity
  8
STAVBA OBRYS
100
AcDbLine
 10
3421.640945745259
 20
248.4507887533668
 30
0.0
 11
3567.763389470977
 21
248.4507887533668
 31
0.0
  0
HATCH
  5
EE7
330
1F
100
AcDbEntity
  8
STAVBA OBRYS
100
AcDbHatch
 10
0.0
 20
0.0
 30
0.0
210
0.0
220
0.0
230
1.0
  2
AR-SAND
 70
     0
 71
     0
 91
        1
 92
        7
 72
     0
 73
     1
 93
        4
 10
3567.763389470977
 20
248.4507887533668
 10
3421.640945745259
 20
248.4507887533668
 10
3421.561837135819
 20
204.0566660310337
 10
3556.3989387909
 20
204.0566660310337
 97
        0
 75
     0
 76
     1
 52
0.0
 41
0.35
 77
     0
 78
     4
 53
37.5
 43
2163.897642310903
 44
6.543514613805655
 45
-0.560010953594416
 46
17.12946330652698
 79
     6
 49
0.0
 49
-13.5128
 49
0.0
 49
-15.113
 49
0.0
 49
-14.44625
 53
7.499999999999999
 43
2163.897642310903
 44
6.543514613805655
 45
15.73331490983009
 46
25.08887851989239
 79
     6
 49
0.0
 49
-7.2898
 49
0.0
 49
-12.17929999999999
 49
0.0
 49
-4.66725
 53
327.4999999999999
 43
2152.962942310898
 44
6.543514613805655
 45
27.68473295845102
 46
0.0503014637490992
 79
     6
 49
0.0
 49
-4.444999999999999
 49
0.0
 49
-16.002
 49
0.0
 49
-20.89149999999999
 53
317.5
 43
2152.962942310898
 44
6.543514613805655
 45
26.7244758365304
 46
7.802526314002567
 79
     6
 49
0.0
 49
-2.222499999999999
 49
0.0
 49
-10.49019999999999
 49
0.0
 49
-12.00149999999999
 47
4.017849295243367
 98
        1
 10
3508.257255199778
 20
237.3953931522387
  0
LINE
  5
EE8
330
1F
100
AcDbEntity
  8
STAVBA OBRYS
100
AcDbLine
 10
3421.288665480622
 20
-99.24659671854351
 30
0.0
 11
3421.373233423937
 21
98.21614638558958
 31
0.0
  0
LINE
  5
EE9
330
1F
100
AcDbEntity
  8
STAVBA OBRYS
100
AcDbLine
 10
3278.199806587928
 20
98.21614638558958
 30
0.0
 11
3278.199806587928
 21
204.0566660310337
 31
0.0
  0
LINE
  5
EEA
330
1F
100
AcDbEntity
  8
STAVBA OBRYS
100
AcDbLine
 10
3137.894508406212
 20
-61.2892565421248
 30
0.0
 11
3137.894508406219
 21
427.9963695477217
 31
0.0
  0
LINE
  5
EEB
330
1F
100
AcDbEntity
  8
STAVBA OBRYS
100
AcDbLine
 10
2769.973212942792
 20
-61.2892565421248
 30
0.0
 11
3137.894508406212
 21
-61.2892565421248
 31
0.0
  0
LINE
  5
EEC
330
1F
100
AcDbEntity
  8
STAVBA OBRYS
100
AcDbLine
 10
3137.894508406219
 20
427.9963695477217
 30
0.0
 11
3137.894508406219
 21
595.729676634115
 31
0.0
  0
HATCH
  5
EED
330
1F
100
AcDbEntity
  8
STAVBA OBRYS
100
AcDbHatch
 10
0.0
 20
0.0
 30
0.0
210
0.0
220
0.0
230
1.0
  2
AR-CONC
 70
     0
 71
     0
 91
        1
 92
        7
 72
     0
 73
     1
 93
        5
 10
3575.649879044226
 20
204.0566660310337
 10
3278.199806587928
 20
204.0566660310337
 10
3278.199806587928
 20
98.21614638558958
 10
3333.704425200825
 20
98.21614638558958
 10
3548.555766317017
 20
98.21614638558958
 97
        0
 75
     0
 76
     1
 52
0.0
 41
0.35
 77
     0
 78
    13
 53
50.0
 43
2183.148582564228
 44
-1445.451199292691
 45
63.7646341486014
 46
-5.57867993861608
 79
     2
 49
6.667499999999999
 49
-73.3425
 53
355.0
 43
2183.148582564228
 44
-1445.451199292691
 45
-12.33498909148344
 46
66.86982500876299
 79
     2
 49
5.333999999999999
 49
-58.67399999999999
 53
100.451
 43
2188.462282564227
 44
-1445.916086792691
 45
51.42987558308573
 46
61.29084073710215
 79
     2
 49
5.6665
 49
-62.3315
 53
46.1842
 43
2183.148582564228
 44
-1427.671199292691
 45
94.87766431224546
 46
-14.7148147764545
 79
     2
 49
10.00124999999999
 49
-110.0137499999999
 53
96.63559999999998
 43
2191.055047564228
 44
-1428.897424292691
 45
83.09148206318299
 46
86.59894456151723
 79
     2
 49
8.499749999999957
 49
-93.49724999999967
 53
351.184
 43
2183.148582564228
 44
-1427.671199292691
 45
83.09161203487688
 46
86.59879125120918
 79
     2
 49
8.000999999999999
 49
-88.01099999999999
 53
21.0
 43
2192.038582564228
 44
-1432.116199292691
 45
53.06520794238414
 46
-35.79293148086687
 79
     2
 49
6.667499999999999
 49
-73.3425
 53
326.0
 43
2192.038582564228
 44
-1432.116199292691
 45
21.63070992167647
 46
64.46578814281174
 79
     2
 49
5.333999999999999
 49
-58.67399999999999
 53
71.45140000000001
 43
2196.460657564223
 44
-1435.098934292692
 45
74.69577176954356
 46
28.6730002006201
 79
     2
 49
5.6665
 49
-62.3315
 53
37.5
 43
2183.148582564228
 44
-1445.451199292691
 45
1.081011137707135
 46
29.59426360560359
 79
     6
 49
0.0
 49
-57.96279999999999
 49
0.0
 49
-59.56299999999999
 49
0.0
 49
-58.89624999999999
 53
7.499999999999999
 43
2183.148582564228
 44
-1445.451199292691
 45
23.38688187860701
 46
35.06320118634183
 79
     6
 49
0.0
 49
-33.95979999999999
 49
0.0
 49
-56.62929999999999
 49
0.0
 49
-22.44725
 53
327.4999999999999
 43
2163.323882564224
 44
-1445.451199292691
 45
47.45670830840498
 46
-2.005060397435712
 79
     6
 49
0.0
 49
-22.22499999999999
 49
0.0
 49
-69.342
 49
0.0
 49
-92.01149999999998
 53
317.5
 43
2154.433882564224
 44
-1445.451199292691
 45
51.84521348510632
 46
8.899271861666553
 79
     6
 49
0.0
 49
-28.8925
 49
0.0
 49
-46.05019999999999
 49
0.0
 49
-65.3415
 47
1.943322863705773
 98
        1
 10
3392.786553452269
 20
161.6714344805018
  0
LINE
  5
EEE
330
1F
100
AcDbEntity
  8
STAVBA OBRYS
100
AcDbLine
 10
3278.199806587928
 20
98.21614638558958
 30
0.0
 11
3548.555766317017
 21
98.21614638558958
 31
0.0
  0
LINE
  5
EEF
330
1F
100
AcDbEntity
  8
STAVBA OBRYS
100
AcDbLine
 10
3278.199806587928
 20
204.0566660310337
 30
0.0
 11
3575.649879044226
 21
204.0566660310337
 31
0.0
  0
TEXT
  5
EF0
330
1F
100
AcDbEntity
  8
POPIS
100
AcDbText
 10
2793.754326853179
 20
-247.3581935644438
 30
0.0
 40
25.0
  1
01
 41
0.85
  7
SIMPLEX7
100
AcDbText
  0
TEXT
  5
EF1
330
1F
100
AcDbEntity
  8
POPIS
100
AcDbText
 10
2848.098030012921
 20
-247.3581935644438
 30
0.0
 40
25.0
  1
Deska CETRIS   PLANK (BASIC,FINISH,LASUR)
 41
0.7
  7
SIMPLEX7
100
AcDbText
  0
TEXT
  5
EF2
330
1F
100
AcDbEntity
  8
POPIS
100
AcDbText
 10
2793.754326853179
 20
-283.9532051800711
 30
0.0
 40
25.0
  1
02
 41
0.85
  7
SIMPLEX7
100
AcDbText
  0
TEXT
  5
EF3
330
1F
100
AcDbEntity
  8
POPIS
100
AcDbText
 10
2848.098030012921
 20
-283.9532051800711
 30
0.0
 40
25.0
  1
Vrut se zápustnou hlavou
 41
0.7
  7
SIMPLEX7
100
AcDbText
  0
TEXT
  5
EF4
330
1F
100
AcDbEntity
  8
POPIS
100
AcDbText
 10
2793.754326853179
 20
-317.9033934247931
 30
0.0
 40
25.0
  1
03
 41
0.85
  7
SIMPLEX7
100
AcDbText
  0
TEXT
  5
EF5
330
1F
100
AcDbEntity
  8
POPIS
100
AcDbText
 10
2793.754326853179
 20
-530.1488719791619
 30
0.0
 40
25.0
  1
09
 41
0.85
  7
SIMPLEX7
100
AcDbText
  0
TEXT
  5
EF6
330
1F
100
AcDbEntity
  8
POPIS
100
AcDbText
 10
2848.098030012921
 20
-494.2159623485881
 30
0.0
 40
25.0
  1
Zakládací deska
 41
0.7
  7
SIMPLEX7
100
AcDbText
  0
TEXT
  5
EF7
330
1F
100
AcDbEntity
  8
POPIS
100
AcDbText
 10
3015.724215251966
 20
-222.3828834561631
 30
0.0
 40
12.0
  1
R
 41
0.85
  7
SIMPLEX7
100
AcDbText
  0
CIRCLE
  5
EF8
330
1F
100
AcDbEntity
  8
POPIS
100
AcDbCircle
 10
3020.483244307148
 20
-216.8375377111756
 30
0.0
 40
11.13656048292026
  0
TEXT
  5
EF9
330
1F
100
AcDbEntity
  8
POPIS
100
AcDbText
 10
2768.129365301682
 20
-29.73044290136431
 30
0.0
 40
25.0
  1
09
 41
0.7
  7
SIMPLEX7
100
AcDbText
  0
LINE
  5
EFA
330
1F
100
AcDbEntity
  8
POPIS
100
AcDbLine
 10
2808.695831100738
 20
-16.28710145199375
 30
0.0
 11
2971.063453148517
 21
-16.2871014519942
 31
0.0
  0
TEXT
  5
EFB
330
1F
100
AcDbEntity
  8
POPIS
100
AcDbText
 10
2768.71834475747
 20
474.1993524215095
 30
0.0
 40
25.0
  1
02
 41
0.7
  7
SIMPLEX7
100
AcDbText
  0
LINE
  5
EFC
330
1F
100
AcDbEntity
  8
POPIS
100
AcDbLine
 10
2808.695831100738
 20
487.64269387088
 30
0.0
 11
2971.063453148517
 21
487.6426938708796
 31
0.0
  0
LINE
  5
EFD
330
1F
100
AcDbEntity
  8
POPIS
100
AcDbLine
 10
2808.695831100738
 20
403.6567078664693
 30
0.0
 11
3040.934410319618
 21
403.6567078664688
 31
0.0
  0
TEXT
  5
EFE
330
1F
100
AcDbEntity
  8
POPIS
100
AcDbText
 10
2735.580220057831
 20
390.2133664170996
 30
0.0
 40
25.0
  1
03,04
 41
0.7
  7
SIMPLEX7
100
AcDbText
  0
LINE
  5
EFF
330
1F
100
AcDbEntity
  8
POPIS
100
AcDbLine
 10
2810.719612038685
 20
585.6161399636858
 30
0.0
 11
3007.724057779369
 21
585.6161399636839
 31
0.0
  0
TEXT
  5
F00
330
1F
100
AcDbEntity
  8
POPIS
100
AcDbText
 10
2772.415960940967
 20
572.1727985143152
 30
0.0
 40
25.0
  1
01
 41
0.7
  7
SIMPLEX7
100
AcDbText
  0
LINE
  5
F01
330
1F
100
AcDbEntity
  8
POPIS
100
AcDbLine
 10
2808.954632065439
 20
65.56359493194531
 30
0.0
 11
3019.153613065149
 21
65.56359493194441
 31
0.0
  0
TEXT
  5
F02
330
1F
100
AcDbEntity
  8
POPIS
100
AcDbText
 10
2768.97714572217
 20
52.12025348257475
 30
0.0
 40
25.0
  1
08
 41
0.7
  7
SIMPLEX7
100
AcDbText
  0
INSERT
  5
F03
330
1F
100
AcDbEntity
  8
POPIS
100
AcDbBlockReference
  2
E_PUNKT
 10
3020.331989023869
 20
65.86330762450734
 30
0.0
  0
INSERT
  5
F04
330
1F
100
AcDbEntity
  8
POPIS
100
AcDbBlockReference
  2
E_PUNKT
 10
3033.165573003845
 20
26.16547587244849
 30
0.0
  0
INSERT
  5
F05
330
1F
100
AcDbEntity
  8
POPIS
100
AcDbBlockReference
  2
E_PUNKT
 10
3041.135123292804
 20
403.3847310764977
 30
0.0
  0
INSERT
  5
F06
330
1F
100
AcDbEntity
  8
POPIS
100
AcDbBlockReference
  2
E_PUNKT
 10
3014.300643803295
 20
527.0796059314107
 30
0.0
  0
TEXT
  5
F07
330
1F
100
AcDbEntity
  8
POPIS
100
AcDbText
 10
2757.364437698588
 20
690.8056103530557
 30
0.0
 40
50.0
  1
SPODNÍ ZAKONČENÍ
 41
0.85
  7
SIMPLEX7
100
AcDbText
  0
TEXT
  5
F08
330
1F
100
AcDbEntity
  8
POPIS
100
AcDbText
 10
2757.364437698588
 20
636.1808673272548
 30
0.0
 40
35.0
  1
ŘEZ-ŘEŠENÍ PŘESAHEM
 41
0.85
  7
SIMPLEX7
100
AcDbText
  0
LINE
  5
F09
330
1F
100
AcDbEntity
  8
NOSNÉ KONSTRUKCE
100
AcDbLine
 10
3030.309927136599
 20
320.4381100781033
 30
0.0
 11
3030.804817308204
 21
345.4157918694913
 31
0.0
  0
LINE
  5
F0A
330
1F
100
AcDbEntity
  8
NOSNÉ KONSTRUKCE
100
AcDbLine
 10
3030.804817308204
 20
345.4157918694913
 30
0.0
 11
3032.28945863457
 21
357.7809987360637
 31
0.0
  0
LINE
  5
F0B
330
1F
100
AcDbEntity
  8
NOSNÉ KONSTRUKCE
100
AcDbLine
 10
3038.939132832192
 20
318.0476259915499
 30
0.0
 11
3038.888383435294
 21
319.0113262988456
 31
0.0
  0
LINE
  5
F0C
330
1F
100
AcDbEntity
  8
NOSNÉ KONSTRUKCE
100
AcDbLine
 10
3038.888383435294
 20
319.0113262988456
 30
0.0
 11
3037.724231291131
 21
327.1560009624813
 31
0.0
  0
LINE
  5
F0D
330
1F
100
AcDbEntity
  8
NOSNÉ KONSTRUKCE
100
AcDbLine
 10
3037.724231291131
 20
327.1560009624813
 30
0.0
 11
3037.140228781345
 21
340.6430511212279
 31
0.0
  0
LINE
  5
F0E
330
1F
100
AcDbEntity
  8
NOSNÉ KONSTRUKCE
100
AcDbLine
 10
3037.140228781345
 20
340.6430511212279
 30
0.0
 11
3037.150999319432
 21
347.1151531901487
 31
0.0
  0
LINE
  5
F0F
330
1F
100
AcDbEntity
  8
NOSNÉ KONSTRUKCE
100
AcDbLine
 10
3044.29749944421
 20
321.6497361911574
 30
0.0
 11
3042.393507655126
 21
352.0969361984866
 31
0.0
  0
LINE
  5
F10
330
1F
100
AcDbEntity
  8
NOSNÉ KONSTRUKCE
100
AcDbLine
 10
3042.393507655126
 20
352.0969361984866
 30
0.0
 11
3042.608071951878
 21
359.5422356998065
 31
0.0
  0
LINE
  5
F11
330
1F
100
AcDbEntity
  8
NOSNÉ KONSTRUKCE
100
AcDbLine
 10
3047.893925135982
 20
338.1419762932896
 30
0.0
 11
3049.586359038678
 21
305.1574960890216
 31
0.0
  0
LINE
  5
F12
330
1F
100
AcDbEntity
  8
NOSNÉ KONSTRUKCE
100
AcDbLine
 10
3027.49049798674
 20
359.7442244973649
 30
0.0
 11
3027.49049798674
 21
373.8359169655873
 31
0.0
  0
LINE
  5
F13
330
1F
100
AcDbEntity
  8
NOSNÉ KONSTRUKCE
100
AcDbLine
 10
3034.763821927239
 20
274.9342029277436
 30
0.0
 11
3032.536889126144
 21
295.2131061098339
 31
0.0
  0
LINE
  5
F14
330
1F
100
AcDbEntity
  8
NOSNÉ KONSTRUKCE
100
AcDbLine
 10
3032.536889126144
 20
295.2131061098339
 30
0.0
 11
3030.309927136599
 21
320.4381100781033
 31
0.0
  0
LINE
  5
F15
330
1F
100
AcDbEntity
  8
NOSNÉ KONSTRUKCE
100
AcDbLine
 10
3041.074919421435
 20
267.1762059345205
 30
0.0
 11
3040.198069191703
 21
280.9058879881636
 31
0.0
  0
LINE
  5
F16
330
1F
100
AcDbEntity
  8
NOSNÉ KONSTRUKCE
100
AcDbLine
 10
3040.198069191703
 20
280.9058879881636
 30
0.0
 11
3039.179421471335
 21
289.4868851530486
 31
0.0
  0
LINE
  5
F17
330
1F
100
AcDbEntity
  8
NOSNÉ KONSTRUKCE
100
AcDbLine
 10
3041.594568635342
 20
289.4868851530486
 30
0.0
 11
3041.754248846193
 21
293.8757184533364
 31
0.0
  0
LINE
  5
F18
330
1F
100
AcDbEntity
  8
NOSNÉ KONSTRUKCE
100
AcDbLine
 10
3044.934391425593
 20
264.6474584428838
 30
0.0
 11
3045.145949311989
 21
294.0374688912275
 31
0.0
  0
LINE
  5
F19
330
1F
100
AcDbEntity
  8
NOSNÉ KONSTRUKCE
100
AcDbLine
 10
3044.408182492776
 20
318.0476259915499
 30
0.0
 11
3044.29749944421
 21
321.6497361911574
 31
0.0
  0
LINE
  5
F1A
330
1F
100
AcDbEntity
  8
NOSNÉ KONSTRUKCE
100
AcDbLine
 10
3028.964543905711
 20
273.3298558963365
 30
0.0
 11
3028.089561736784
 21
294.9013466743276
 31
0.0
  0
LINE
  5
F1B
330
1F
100
AcDbEntity
  8
NOSNÉ KONSTRUKCE
100
AcDbLine
 10
3028.089561736784
 20
294.9013466743276
 30
0.0
 11
3027.479361242212
 21
299.5375971579769
 31
0.0
  0
LINE
  5
F1C
330
1F
100
AcDbEntity
  8
NOSNÉ KONSTRUKCE
100
AcDbLine
 10
3033.774070772478
 20
251.6876320581291
 30
0.0
 11
3034.763821927239
 21
274.9342029277436
 31
0.0
  0
LINE
  5
F1D
330
1F
100
AcDbEntity
  8
NOSNÉ KONSTRUKCE
100
AcDbLine
 10
3039.619700052781
 20
247.1054069561109
 30
0.0
 11
3041.074919421435
 21
267.1762059345205
 31
0.0
  0
LINE
  5
F1E
330
1F
100
AcDbEntity
  8
NOSNÉ KONSTRUKCE
100
AcDbLine
 10
3039.037623980699
 20
234.8883949606574
 30
0.0
 11
3039.619700052781
 21
247.1054069561109
 31
0.0
  0
LINE
  5
F1F
330
1F
100
AcDbEntity
  8
NOSNÉ KONSTRUKCE
100
AcDbLine
 10
3027.214550379407
 20
254.0904454785236
 30
0.0
 11
3028.964543905711
 21
273.3298558963365
 31
0.0
  0
LINE
  5
F20
330
1F
100
AcDbEntity
  8
NOSNÉ KONSTRUKCE
100
AcDbLine
 10
3030.567807093319
 20
208.7754664943536
 30
0.0
 11
3031.343840416373
 21
228.7285213554428
 31
0.0
  0
LINE
  5
F21
330
1F
100
AcDbEntity
  8
NOSNÉ KONSTRUKCE
100
AcDbLine
 10
3031.343840416373
 20
228.7285213554428
 30
0.0
 11
3033.774070772478
 21
251.6876320581291
 31
0.0
  0
LINE
  5
F22
330
1F
100
AcDbEntity
  8
NOSNÉ KONSTRUKCE
100
AcDbLine
 10
3038.603270654623
 20
203.3712875143432
 30
0.0
 11
3038.166699006337
 21
212.6794948611645
 31
0.0
  0
LINE
  5
F23
330
1F
100
AcDbEntity
  8
NOSNÉ KONSTRUKCE
100
AcDbLine
 10
3038.166699006337
 20
212.6794948611645
 30
0.0
 11
3038.60108152087
 21
219.0353681346318
 31
0.0
  0
LINE
  5
F24
330
1F
100
AcDbEntity
  8
NOSNÉ KONSTRUKCE
100
AcDbLine
 10
3038.60108152087
 20
219.0353681346318
 30
0.0
 11
3039.037623980699
 21
234.8883949606574
 31
0.0
  0
LINE
  5
F25
330
1F
100
AcDbEntity
  8
NOSNÉ KONSTRUKCE
100
AcDbLine
 10
3044.301439884975
 20
205.4944879703584
 30
0.0
 11
3044.722833539204
 21
226.5884539238327
 31
0.0
  0
LINE
  5
F26
330
1F
100
AcDbEntity
  8
NOSNÉ KONSTRUKCE
100
AcDbLine
 10
3044.722833539204
 20
226.5884539238327
 30
0.0
 11
3044.934391425593
 21
264.6474584428838
 31
0.0
  0
LINE
  5
F27
330
1F
100
AcDbEntity
  8
NOSNÉ KONSTRUKCE
100
AcDbLine
 10
3050.109328499287
 20
245.2804723551312
 30
0.0
 11
3048.314764209664
 21
225.4798877375837
 31
0.0
  0
LINE
  5
F28
330
1F
100
AcDbEntity
  8
NOSNÉ KONSTRUKCE
100
AcDbLine
 10
3048.314764209664
 20
225.4798877375837
 30
0.0
 11
3048.426935423433
 21
205.8613221400741
 31
0.0
  0
LINE
  5
F29
330
1F
100
AcDbEntity
  8
NOSNÉ KONSTRUKCE
100
AcDbLine
 10
3048.426935423433
 20
205.8613221400741
 30
0.0
 11
3049.772931611775
 21
198.5744278929601
 31
0.0
  0
LINE
  5
F2A
330
1F
100
AcDbEntity
  8
NOSNÉ KONSTRUKCE
100
AcDbLine
 10
3032.899409676507
 20
128.3376897102793
 30
0.0
 11
3032.344274543871
 21
138.7686603661209
 31
0.0
  0
LINE
  5
F2B
330
1F
100
AcDbEntity
  8
NOSNÉ KONSTRUKCE
100
AcDbLine
 10
3032.344274543871
 20
138.7686603661209
 30
0.0
 11
3032.122208815444
 21
164.4993308508023
 31
0.0
  0
LINE
  5
F2C
330
1F
100
AcDbEntity
  8
NOSNÉ KONSTRUKCE
100
AcDbLine
 10
3032.122208815444
 20
164.4993308508023
 30
0.0
 11
3030.345770553334
 21
192.3522456955547
 31
0.0
  0
LINE
  5
F2D
330
1F
100
AcDbEntity
  8
NOSNÉ KONSTRUKCE
100
AcDbLine
 10
3030.345770553334
 20
192.3522456955547
 30
0.0
 11
3030.567807093319
 21
208.7754664943536
 31
0.0
  0
LINE
  5
F2E
330
1F
100
AcDbEntity
  8
NOSNÉ KONSTRUKCE
100
AcDbLine
 10
3037.731937041963
 20
134.6205569407288
 30
0.0
 11
3038.022975078003
 21
143.9287642875465
 31
0.0
  0
LINE
  5
F2F
330
1F
100
AcDbEntity
  8
NOSNÉ KONSTRUKCE
100
AcDbLine
 10
3038.022975078003
 20
143.9287642875465
 30
0.0
 11
3040.060270518732
 21
151.4916816293666
 31
0.0
  0
LINE
  5
F30
330
1F
100
AcDbEntity
  8
NOSNÉ KONSTRUKCE
100
AcDbLine
 10
3040.060270518732
 20
151.4916816293666
 30
0.0
 11
3041.22261297899
 21
164.9749615229779
 31
0.0
  0
LINE
  5
F31
330
1F
100
AcDbEntity
  8
NOSNÉ KONSTRUKCE
100
AcDbLine
 10
3041.22261297899
 20
164.9749615229779
 30
0.0
 11
3038.894308690664
 21
189.6998731945718
 31
0.0
  0
LINE
  5
F32
330
1F
100
AcDbEntity
  8
NOSNÉ KONSTRUKCE
100
AcDbLine
 10
3038.894308690664
 20
189.6998731945718
 30
0.0
 11
3038.603270654623
 21
203.3712875143432
 31
0.0
  0
LINE
  5
F33
330
1F
100
AcDbEntity
  8
NOSNÉ KONSTRUKCE
100
AcDbLine
 10
3043.87849924289
 20
128.1078478535605
 30
0.0
 11
3043.87849924289
 21
163.8410317349266
 31
0.0
  0
LINE
  5
F34
330
1F
100
AcDbEntity
  8
NOSNÉ KONSTRUKCE
100
AcDbLine
 10
3043.87849924289
 20
163.8410317349266
 30
0.0
 11
3043.455383470105
 21
186.6764272305413
 31
0.0
  0
LINE
  5
F35
330
1F
100
AcDbEntity
  8
NOSNÉ KONSTRUKCE
100
AcDbLine
 10
3043.455383470105
 20
186.6764272305413
 30
0.0
 11
3044.301439884975
 21
205.4944879703584
 31
0.0
  0
LINE
  5
F36
330
1F
100
AcDbEntity
  8
NOSNÉ KONSTRUKCE
100
AcDbLine
 10
3028.964543905711
 20
118.938075983428
 30
0.0
 11
3028.089561736784
 21
140.5095667614191
 31
0.0
  0
LINE
  5
F37
330
1F
100
AcDbEntity
  8
NOSNÉ KONSTRUKCE
100
AcDbLine
 10
3028.089561736784
 20
140.5095667614191
 30
0.0
 11
3027.479361242212
 21
150.277811829344
 31
0.0
  0
LINE
  5
F38
330
1F
100
AcDbEntity
  8
NOSNÉ KONSTRUKCE
100
AcDbLine
 10
3032.899409676507
 20
109.1402573162126
 30
0.0
 11
3032.899409676507
 21
128.3376897102793
 31
0.0
  0
LINE
  5
F39
330
1F
100
AcDbEntity
  8
NOSNÉ KONSTRUKCE
100
AcDbLine
 10
3037.440899005922
 20
107.2777283011823
 30
0.0
 11
3037.731937041963
 21
134.6205569407288
 31
0.0
  0
LINE
  5
F3A
330
1F
100
AcDbEntity
  8
NOSNÉ KONSTRUKCE
100
AcDbLine
 10
3042.608071951878
 20
103.2303757406957
 30
0.0
 11
3043.87849924289
 21
128.1078478535605
 31
0.0
  0
LINE
  5
F3B
330
1F
100
AcDbEntity
  8
NOSNÉ KONSTRUKCE
100
AcDbLine
 10
3050.336794090986
 20
114.8601103132282
 30
0.0
 11
3048.766864113406
 21
87.87179483342015
 31
0.0
  0
LINE
  5
F3C
330
1F
100
AcDbEntity
  8
NOSNÉ KONSTRUKCE
100
AcDbLine
 10
3027.214550379407
 20
99.69866556561511
 30
0.0
 11
3028.964543905711
 21
118.938075983428
 31
0.0
  0
LINE
  5
F3D
330
1F
100
AcDbEntity
  8
NOSNÉ KONSTRUKCE
100
AcDbLine
 10
3029.252050139291
 20
46.40270275901684
 30
0.0
 11
3028.696769064406
 21
52.03178076011727
 31
0.0
  0
LINE
  5
F3E
330
1F
100
AcDbEntity
  8
NOSNÉ KONSTRUKCE
100
AcDbLine
 10
3033.513009274704
 20
46.40367689450477
 30
0.0
 11
3036.423389635105
 21
55.1301088799596
 31
0.0
  0
LINE
  5
F3F
330
1F
100
AcDbEntity
  8
NOSNÉ KONSTRUKCE
100
AcDbLine
 10
3028.696769064406
 20
52.03178076011727
 30
0.0
 11
3029.252050139291
 21
58.05725974696952
 31
0.0
  0
LINE
  5
F40
330
1F
100
AcDbEntity
  8
NOSNÉ KONSTRUKCE
100
AcDbLine
 10
3029.252050139291
 20
58.05725974696952
 30
0.0
 11
3029.728201325923
 21
68.41322197017189
 31
0.0
  0
LINE
  5
F41
330
1F
100
AcDbEntity
  8
NOSNÉ KONSTRUKCE
100
AcDbLine
 10
3029.728201325923
 20
68.41322197017189
 30
0.0
 11
3030.75942926829
 21
90.92951593501902
 31
0.0
  0
LINE
  5
F42
330
1F
100
AcDbEntity
  8
NOSNÉ KONSTRUKCE
100
AcDbLine
 10
3030.75942926829
 20
90.92951593501902
 30
0.0
 11
3032.899409676507
 21
109.1402573162126
 31
0.0
  0
LINE
  5
F43
330
1F
100
AcDbEntity
  8
NOSNÉ KONSTRUKCE
100
AcDbLine
 10
3036.423389635105
 20
55.1301088799596
 30
0.0
 11
3036.423389635105
 21
59.49333389246067
 31
0.0
  0
LINE
  5
F44
330
1F
100
AcDbEntity
  8
NOSNÉ KONSTRUKCE
100
AcDbLine
 10
3036.423389635105
 20
59.49333389246067
 30
0.0
 11
3035.550275526983
 21
69.23784570098405
 31
0.0
  0
LINE
  5
F45
330
1F
100
AcDbEntity
  8
NOSNÉ KONSTRUKCE
100
AcDbLine
 10
3035.550275526983
 20
69.23784570098405
 30
0.0
 11
3036.423389635105
 21
81.45485769644119
 31
0.0
  0
LINE
  5
F46
330
1F
100
AcDbEntity
  8
NOSNÉ KONSTRUKCE
100
AcDbLine
 10
3036.423389635105
 20
81.45485769644119
 30
0.0
 11
3037.150999319432
 21
90.61763022268905
 31
0.0
  0
LINE
  5
F47
330
1F
100
AcDbEntity
  8
NOSNÉ KONSTRUKCE
100
AcDbLine
 10
3037.150999319432
 20
90.61763022268905
 30
0.0
 11
3037.150999319432
 21
97.59877220314638
 31
0.0
  0
LINE
  5
F48
330
1F
100
AcDbEntity
  8
NOSNÉ KONSTRUKCE
100
AcDbLine
 10
3037.150999319432
 20
97.59877220314638
 30
0.0
 11
3037.440899005922
 21
107.2777283011823
 31
0.0
  0
LINE
  5
F49
330
1F
100
AcDbEntity
  8
NOSNÉ KONSTRUKCE
100
AcDbLine
 10
3039.43476203289
 20
59.03963930832879
 30
0.0
 11
3041.127195935578
 21
86.31525259914679
 31
0.0
  0
LINE
  5
F4A
330
1F
100
AcDbEntity
  8
NOSNÉ KONSTRUKCE
100
AcDbLine
 10
3041.127195935578
 20
86.31525259914679
 30
0.0
 11
3042.608071951878
 21
103.2303757406957
 31
0.0
  0
LINE
  5
F4B
330
1F
100
AcDbEntity
  8
NOSNÉ KONSTRUKCE
100
AcDbLine
 10
3048.766864113406
 20
87.87179483342015
 30
0.0
 11
3046.097259277956
 21
51.23145629788678
 31
0.0
  0
LINE
  5
F4C
330
1F
100
AcDbEntity
  8
NOSNÉ KONSTRUKCE
100
AcDbLine
 10
3027.268899273511
 20
36.49235340330096
 30
0.0
 11
3029.252050139291
 21
46.40270275901684
 31
0.0
  0
LINE
  5
F4D
330
1F
100
AcDbEntity
  8
NOSNÉ KONSTRUKCE
100
AcDbLine
 10
3029.826727168254
 20
28.57094522693796
 30
0.0
 11
3031.621247446214
 21
36.51371222586794
 31
0.0
  0
LINE
  5
F4E
330
1F
100
AcDbEntity
  8
NOSNÉ KONSTRUKCE
100
AcDbLine
 10
3031.621247446214
 20
36.51371222586794
 30
0.0
 11
3033.513009274704
 21
46.40367689450477
 31
0.0
  0
LINE
  5
F4F
330
1F
100
AcDbEntity
  8
NOSNÉ KONSTRUKCE
100
AcDbLine
 10
3038.315907690897
 20
28.57094522693796
 30
0.0
 11
3038.165443902986
 21
37.89573989127939
 31
0.0
  0
LINE
  5
F50
330
1F
100
AcDbEntity
  8
NOSNÉ KONSTRUKCE
100
AcDbLine
 10
3038.165443902986
 20
37.89573989127939
 30
0.0
 11
3039.43476203289
 21
59.03963930832879
 31
0.0
  0
LINE
  5
F51
330
1F
100
AcDbEntity
  8
NOSNÉ KONSTRUKCE
100
AcDbLine
 10
3046.097259277956
 20
51.23145629788678
 30
0.0
 11
3046.568244108921
 21
36.79585072669988
 31
0.0
  0
LINE
  5
F52
330
1F
100
AcDbEntity
  8
NOSNÉ KONSTRUKCE
100
AcDbLine
 10
3046.568244108921
 20
36.79585072669988
 30
0.0
 11
3046.3572399827
 21
28.57094522693796
 31
0.0
  0
LINE
  5
F53
330
1F
100
AcDbEntity
  8
NOSNÉ KONSTRUKCE
100
AcDbLine
 10
3051.479361242213
 20
255.7542722650651
 30
0.0
 11
3050.109328499287
 21
245.2804723551312
 31
0.0
  0
LINE
  5
F54
330
1F
100
AcDbEntity
  8
NOSNÉ KONSTRUKCE
100
AcDbLine
 10
3050.806844891549
 20
171.7582998805705
 30
0.0
 11
3051.120825049378
 21
151.5170632707127
 31
0.0
  0
LINE
  5
F55
330
1F
100
AcDbEntity
  8
NOSNÉ KONSTRUKCE
100
AcDbLine
 10
3052.188078775782
 20
198.5744278929601
 30
0.0
 11
3053.221992055556
 21
171.7582998805705
 31
0.0
  0
LINE
  5
F56
330
1F
100
AcDbEntity
  8
NOSNÉ KONSTRUKCE
100
AcDbLine
 10
3051.120825049378
 20
151.5170632707127
 30
0.0
 11
3050.336794090986
 21
114.8601103132282
 31
0.0
  0
LINE
  5
F57
330
1F
100
AcDbEntity
  8
NOSNÉ KONSTRUKCE
100
AcDbLine
 10
3049.586359038678
 20
305.1574960890216
 30
0.0
 11
3051.479361242213
 21
287.5008298691414
 31
0.0
  0
LINE
  5
F58
330
1F
100
AcDbEntity
  8
NOSNÉ KONSTRUKCE
100
AcDbLine
 10
3049.586359038678
 20
561.4693560481323
 30
0.0
 11
3051.479361242213
 21
543.8126898282521
 31
0.0
  0
LINE
  5
F59
330
1F
100
AcDbEntity
  8
NOSNÉ KONSTRUKCE
100
AcDbLine
 10
3045.145949311989
 20
550.3493288503382
 30
0.0
 11
3044.29749944421
 21
577.9615961502681
 31
0.0
  0
LINE
  5
F5A
330
1F
100
AcDbEntity
  8
NOSNÉ KONSTRUKCE
100
AcDbLine
 10
3044.934391425593
 20
520.9593184019945
 30
0.0
 11
3045.145949311989
 21
550.3493288503382
 31
0.0
  0
LINE
  5
F5B
330
1F
100
AcDbEntity
  8
NOSNÉ KONSTRUKCE
100
AcDbLine
 10
3039.179421471335
 20
545.7987451121594
 30
0.0
 11
3039.470459507376
 21
553.7979669156816
 31
0.0
  0
LINE
  5
F5C
330
1F
100
AcDbEntity
  8
NOSNÉ KONSTRUKCE
100
AcDbLine
 10
3032.536889126144
 20
551.5249660689446
 30
0.0
 11
3030.309927136599
 21
576.749970037214
 31
0.0
  0
LINE
  5
F5D
330
1F
100
AcDbEntity
  8
NOSNÉ KONSTRUKCE
100
AcDbLine
 10
3034.763821927239
 20
531.2460628868543
 30
0.0
 11
3032.536889126144
 21
551.5249660689446
 31
0.0
  0
LINE
  5
F5E
330
1F
100
AcDbEntity
  8
NOSNÉ KONSTRUKCE
100
AcDbLine
 10
3047.893925135982
 20
594.4538362524004
 30
0.0
 11
3049.586359038678
 21
561.4693560481323
 31
0.0
  0
LINE
  5
F5F
330
1F
100
AcDbEntity
  8
NOSNÉ KONSTRUKCE
100
AcDbLine
 10
3047.941237816698
 20
595.8251640156104
 30
0.0
 11
3047.893925135982
 21
594.4538362524004
 31
0.0
  0
LINE
  5
F60
330
1F
100
AcDbEntity
  8
NOSNÉ KONSTRUKCE
100
AcDbLine
 10
3044.29749944421
 20
577.9615961502681
 30
0.0
 11
3043.174142720787
 21
595.9254692266772
 31
0.0
  0
LINE
  5
F61
330
1F
100
AcDbEntity
  8
NOSNÉ KONSTRUKCE
100
AcDbLine
 10
3037.724231291131
 20
583.467860921592
 30
0.0
 11
3037.179342744484
 21
596.0516067726735
 31
0.0
  0
LINE
  5
F62
330
1F
100
AcDbEntity
  8
NOSNÉ KONSTRUKCE
100
AcDbLine
 10
3038.888383435294
 20
575.3231862579564
 30
0.0
 11
3037.724231291131
 21
583.467860921592
 31
0.0
  0
LINE
  5
F63
330
1F
100
AcDbEntity
  8
NOSNÉ KONSTRUKCE
100
AcDbLine
 10
3039.615993119621
 20
561.5063190780679
 30
0.0
 11
3038.888383435294
 21
575.3231862579564
 31
0.0
  0
LINE
  5
F64
330
1F
100
AcDbEntity
  8
NOSNÉ KONSTRUKCE
100
AcDbLine
 10
3039.470459507376
 20
553.7979669156816
 30
0.0
 11
3039.615993119621
 21
561.5063190780679
 31
0.0
  0
LINE
  5
F65
330
1F
100
AcDbEntity
  8
NOSNÉ KONSTRUKCE
100
AcDbLine
 10
3030.309927136599
 20
576.749970037214
 30
0.0
 11
3030.695059417872
 21
596.1880436162041
 31
0.0
  0
LINE
  5
F66
330
1F
100
AcDbEntity
  8
NOSNÉ KONSTRUKCE
100
AcDbLine
 10
3028.964543905711
 20
529.6417158554472
 30
0.0
 11
3028.089561736784
 21
551.2132066334384
 31
0.0
  0
LINE
  5
F67
330
1F
100
AcDbEntity
  8
NOSNÉ KONSTRUKCE
100
AcDbLine
 10
3027.214550379407
 20
510.4023054376344
 30
0.0
 11
3028.964543905711
 21
529.6417158554472
 31
0.0
  0
LINE
  5
F68
330
1F
100
AcDbEntity
  8
NOSNÉ KONSTRUKCE
100
AcDbLine
 10
3040.198069191703
 20
537.2177479472743
 30
0.0
 11
3039.179421471335
 21
545.7987451121594
 31
0.0
  0
LINE
  5
F69
330
1F
100
AcDbEntity
  8
NOSNÉ KONSTRUKCE
100
AcDbLine
 10
3048.314764209664
 20
481.7917476966945
 30
0.0
 11
3048.426935423433
 21
462.1731820991849
 31
0.0
  0
LINE
  5
F6A
330
1F
100
AcDbEntity
  8
NOSNÉ KONSTRUKCE
100
AcDbLine
 10
3051.479361242213
 20
512.0661322241757
 30
0.0
 11
3050.109328499287
 21
501.5923323142419
 31
0.0
  0
LINE
  5
F6B
330
1F
100
AcDbEntity
  8
NOSNÉ KONSTRUKCE
100
AcDbLine
 10
3050.109328499287
 20
501.5923323142419
 30
0.0
 11
3048.314764209664
 21
481.7917476966945
 31
0.0
  0
LINE
  5
F6C
330
1F
100
AcDbEntity
  8
NOSNÉ KONSTRUKCE
100
AcDbLine
 10
3044.722833539204
 20
482.9003138829434
 30
0.0
 11
3044.7523597337
 21
488.2120400915278
 31
0.0
  0
LINE
  5
F6D
330
1F
100
AcDbEntity
  8
NOSNÉ KONSTRUKCE
100
AcDbLine
 10
3044.301439884975
 20
461.8063479294692
 30
0.0
 11
3044.722833539204
 21
482.9003138829434
 31
0.0
  0
LINE
  5
F6E
330
1F
100
AcDbEntity
  8
NOSNÉ KONSTRUKCE
100
AcDbLine
 10
3038.60108152087
 20
475.3472280937426
 30
0.0
 11
3038.95533795003
 21
488.2120400915282
 31
0.0
  0
LINE
  5
F6F
330
1F
100
AcDbEntity
  8
NOSNÉ KONSTRUKCE
100
AcDbLine
 10
3038.166699006337
 20
468.9913548202753
 30
0.0
 11
3038.60108152087
 21
475.3472280937426
 31
0.0
  0
LINE
  5
F70
330
1F
100
AcDbEntity
  8
NOSNÉ KONSTRUKCE
100
AcDbLine
 10
3031.343840416373
 20
485.0403813145535
 30
0.0
 11
3032.752912282094
 21
498.3523033189226
 31
0.0
  0
LINE
  5
F71
330
1F
100
AcDbEntity
  8
NOSNÉ KONSTRUKCE
100
AcDbLine
 10
3030.567807093319
 20
465.0873264534643
 30
0.0
 11
3031.343840416373
 21
485.0403813145535
 31
0.0
  0
LINE
  5
F72
330
1F
100
AcDbEntity
  8
NOSNÉ KONSTRUKCE
100
AcDbLine
 10
3040.26982302309
 20
512.3839476297412
 30
0.0
 11
3041.074919421435
 21
523.4880658936313
 31
0.0
  0
LINE
  5
F73
330
1F
100
AcDbEntity
  8
NOSNÉ KONSTRUKCE
100
AcDbLine
 10
3033.960744326605
 20
512.3839476297412
 30
0.0
 11
3034.763821927239
 21
531.2460628868543
 31
0.0
  0
LINE
  5
F74
330
1F
100
AcDbEntity
  8
NOSNÉ KONSTRUKCE
100
AcDbLine
 10
3041.074919421435
 20
523.4880658936313
 30
0.0
 11
3040.198069191703
 21
537.2177479472743
 31
0.0
  0
LINE
  5
F75
330
1F
100
AcDbEntity
  8
NOSNÉ KONSTRUKCE
100
AcDbLine
 10
3049.772931611775
 20
454.8862878520708
 30
0.0
 11
3050.806844891549
 21
428.0701598396813
 31
0.0
  0
LINE
  5
F76
330
1F
100
AcDbEntity
  8
NOSNÉ KONSTRUKCE
100
AcDbLine
 10
3043.455383470105
 20
442.988287189652
 30
0.0
 11
3044.301439884975
 21
461.8063479294692
 31
0.0
  0
LINE
  5
F77
330
1F
100
AcDbEntity
  8
NOSNÉ KONSTRUKCE
100
AcDbLine
 10
3043.87849924289
 20
420.1528916940374
 30
0.0
 11
3043.455383470105
 21
442.988287189652
 31
0.0
  0
LINE
  5
F78
330
1F
100
AcDbEntity
  8
NOSNÉ KONSTRUKCE
100
AcDbLine
 10
3038.894308690664
 20
446.0117331536825
 30
0.0
 11
3038.603270654623
 21
459.683147473454
 31
0.0
  0
LINE
  5
F79
330
1F
100
AcDbEntity
  8
NOSNÉ KONSTRUKCE
100
AcDbLine
 10
3041.22261297899
 20
421.2868214820887
 30
0.0
 11
3038.894308690664
 21
446.0117331536825
 31
0.0
  0
LINE
  5
F7A
330
1F
100
AcDbEntity
  8
NOSNÉ KONSTRUKCE
100
AcDbLine
 10
3030.345770553334
 20
448.6641056546655
 30
0.0
 11
3030.567807093319
 21
465.0873264534643
 31
0.0
  0
LINE
  5
F7B
330
1F
100
AcDbEntity
  8
NOSNÉ KONSTRUKCE
100
AcDbLine
 10
3032.122208815444
 20
420.8111908099131
 30
0.0
 11
3030.345770553334
 21
448.6641056546655
 31
0.0
  0
LINE
  5
F7C
330
1F
100
AcDbEntity
  8
NOSNÉ KONSTRUKCE
100
AcDbLine
 10
3048.426935423433
 20
462.1731820991849
 30
0.0
 11
3049.772931611775
 21
454.8862878520708
 31
0.0
  0
LINE
  5
F7D
330
1F
100
AcDbEntity
  8
NOSNÉ KONSTRUKCE
100
AcDbLine
 10
3038.603270654623
 20
459.683147473454
 30
0.0
 11
3038.166699006337
 21
468.9913548202753
 31
0.0
  0
LINE
  5
F7E
330
1F
100
AcDbEntity
  8
NOSNÉ KONSTRUKCE
100
AcDbLine
 10
3037.150999319432
 20
353.9106321622571
 30
0.0
 11
3037.440899005922
 21
363.5895882602931
 31
0.0
  0
LINE
  5
F7F
330
1F
100
AcDbEntity
  8
NOSNÉ KONSTRUKCE
100
AcDbLine
 10
3037.150999319432
 20
346.9294901817998
 30
0.0
 11
3037.150999319432
 21
353.9106321622571
 31
0.0
  0
LINE
  5
F80
330
1F
100
AcDbEntity
  8
NOSNÉ KONSTRUKCE
100
AcDbLine
 10
3032.28945863457
 20
357.7809987360637
 30
0.0
 11
3032.899409676507
 21
365.4521172753234
 31
0.0
  0
LINE
  5
F81
330
1F
100
AcDbEntity
  8
NOSNÉ KONSTRUKCE
100
AcDbLine
 10
3050.336794090986
 20
371.1719702723389
 30
0.0
 11
3048.766864113406
 21
344.1836547925309
 31
0.0
  0
LINE
  5
F82
330
1F
100
AcDbEntity
  8
NOSNÉ KONSTRUKCE
100
AcDbLine
 10
3042.608071951878
 20
359.5422356998065
 30
0.0
 11
3043.87849924289
 21
384.4197078126713
 31
0.0
  0
LINE
  5
F83
330
1F
100
AcDbEntity
  8
NOSNÉ KONSTRUKCE
100
AcDbLine
 10
3037.440899005922
 20
363.5895882602931
 30
0.0
 11
3037.731937041963
 21
390.9324168998395
 31
0.0
  0
LINE
  5
F84
330
1F
100
AcDbEntity
  8
NOSNÉ KONSTRUKCE
100
AcDbLine
 10
3032.899409676507
 20
365.4521172753234
 30
0.0
 11
3032.899409676507
 21
384.6495496693901
 31
0.0
  0
LINE
  5
F85
330
1F
100
AcDbEntity
  8
NOSNÉ KONSTRUKCE
100
AcDbLine
 10
3043.87849924289
 20
384.4197078126713
 30
0.0
 11
3043.87849924289
 21
420.1528916940374
 31
0.0
  0
LINE
  5
F86
330
1F
100
AcDbEntity
  8
NOSNÉ KONSTRUKCE
100
AcDbLine
 10
3032.899409676507
 20
384.6495496693901
 30
0.0
 11
3032.344274543871
 21
395.0805203252316
 31
0.0
  0
LINE
  5
F87
330
1F
100
AcDbEntity
  8
NOSNÉ KONSTRUKCE
100
AcDbLine
 10
3028.089561736784
 20
396.8214267205298
 30
0.0
 11
3027.479361242212
 21
406.5896717884547
 31
0.0
  0
LINE
  5
F88
330
1F
100
AcDbEntity
  8
NOSNÉ KONSTRUKCE
100
AcDbLine
 10
3028.964543905711
 20
375.2499359425387
 30
0.0
 11
3028.089561736784
 21
396.8214267205298
 31
0.0
  0
LINE
  5
F89
330
1F
100
AcDbEntity
  8
NOSNÉ KONSTRUKCE
100
AcDbLine
 10
3037.731937041963
 20
390.9324168998395
 30
0.0
 11
3038.022975078003
 21
400.2406242466572
 31
0.0
  0
LINE
  5
F8A
330
1F
100
AcDbEntity
  8
NOSNÉ KONSTRUKCE
100
AcDbLine
 10
3032.344274543871
 20
395.0805203252316
 30
0.0
 11
3032.122208815444
 21
420.8111908099131
 31
0.0
  0
LINE
  5
F8B
330
1F
100
AcDbEntity
  8
NOSNÉ KONSTRUKCE
100
AcDbLine
 10
3027.479361242212
 20
358.9218533645357
 30
0.0
 11
3028.964543905711
 21
375.2499359425387
 31
0.0
  0
LINE
  5
F8C
330
1F
100
AcDbEntity
  8
NOSNÉ KONSTRUKCE
100
AcDbLine
 10
3040.060270518732
 20
407.8035415884774
 30
0.0
 11
3041.22261297899
 21
421.2868214820887
 31
0.0
  0
LINE
  5
F8D
330
1F
100
AcDbEntity
  8
NOSNÉ KONSTRUKCE
100
AcDbLine
 10
3038.022975078003
 20
400.2406242466572
 30
0.0
 11
3040.060270518732
 21
407.8035415884774
 31
0.0
  0
LINE
  5
F8E
330
1F
100
AcDbEntity
  8
NOSNÉ KONSTRUKCE
100
AcDbLine
 10
3051.120825049378
 20
407.8289232298234
 30
0.0
 11
3050.336794090986
 21
371.1719702723389
 31
0.0
  0
LINE
  5
F8F
330
1F
100
AcDbEntity
  8
NOSNÉ KONSTRUKCE
100
AcDbLine
 10
3050.806844891549
 20
428.0701598396813
 30
0.0
 11
3051.120825049378
 21
407.8289232298234
 31
0.0
  0
LINE
  5
F90
330
1F
100
AcDbEntity
  8
NOSNÉ KONSTRUKCE
100
AcDbLine
 10
3047.893925135982
 20
338.1419762932896
 30
0.0
 11
3048.766864113406
 21
344.1836547925309
 31
0.0
  0
LINE
  5
F91
330
1F
100
AcDbEntity
  8
STAVBA OBRYS
100
AcDbLine
 10
3137.894508406212
 20
-61.2892565421248
 30
0.0
 11
3137.894508406212
 21
-106.2651804553265
 31
0.0
  0
LINE
  5
F92
330
1F
100
AcDbEntity
  8
STAVBA OBRYS
100
AcDbLine
 10
3421.640945745259
 20
589.7408685291407
 30
0.0
 11
3421.640945745259
 21
204.0566660310337
 31
0.0
  0
HATCH
  5
F93
330
1F
100
AcDbEntity
  8
STAVBA OBRYS
100
AcDbHatch
 10
0.0
 20
0.0
 30
0.0
210
0.0
220
0.0
230
1.0
  2
BRICK
 70
     0
 71
     0
 91
        1
 92
        7
 72
     0
 73
     1
 93
       20
 10
3421.373233423937
 20
98.21614638558958
 10
3278.199806587928
 20
98.21614638558912
 10
3278.199806587928
 20
204.0566660310337
 10
3421.640945745263
 20
204.0566660310337
 10
3421.640945745259
 20
589.7593224217011
 10
3137.894508406219
 20
595.7296766341146
 10
3137.894508406219
 20
577.4247650843794
 10
3197.887619548075
 20
577.4247650843785
 10
3200.521780151253
 20
572.8622650843785
 10
3197.887619548071
 20
568.299765084378
 10
3137.894508406219
 20
568.2997650843795
 10
3137.894508406219
 20
427.9963695477217
 10
3137.894508406212
 20
77.42476508437949
 10
3197.887619548079
 20
77.42476508437812
 10
3200.521780151253
 20
72.86226508437767
 10
3197.887619548071
 20
68.29976508437903
 10
3137.894508406212
 20
68.29976508437994
 10
3137.894508406212
 20
-61.2892565421248
 10
3137.894508406212
 20
-106.265180455327
 10
3421.288665480622
 20
-99.24659671854398
 97
        0
 75
     0
 76
     1
 52
0.0
 41
10.0
 77
     0
 78
     3
 53
0.0
 43
-7528.256699069764
 44
-2789.730403834414
 45
0.0
 46
63.5
 79
     0
 53
90.0
 43
-7528.256699069764
 44
-2789.730403834414
 45
-127.0
 46
0.0000000000000078
 79
     2
 49
63.5
 49
-63.5
 53
90.0
 43
-7464.756699069766
 44
-2789.730403834414
 45
-127.0
 46
0.0000000000000078
 79
     2
 49
-63.5
 49
63.5
 47
3.614665800895636
 98
        1
 10
3203.951250596108
 20
-26.24958316836864
  0
HATCH
  5
F94
330
1F
100
AcDbEntity
  8
STAVBA OBRYS
100
AcDbHatch
 10
0.0
 20
0.0
 30
0.0
210
0.0
220
0.0
230
1.0
  2
AR-CONC
 70
     0
 71
     0
 91
        2
 92
        7
 72
     0
 73
     1
 93
        4
 10
3137.894508406212
 20
-61.2892565421248
 10
2769.973212942792
 20
-61.2892565421248
 10
2771.965589170626
 20
-116.5878535168253
 10
3137.894508406212
 20
-106.2715144895832
 97
        0
 92
      137
 93
        4
 72
     1
 10
2783.695121101095
 20
-103.0481209206509
 11
2857.349452615419
 21
-103.0481209206509
 72
     1
 10
2857.349452615419
 20
-103.0481209206509
 11
2857.349452615419
 21
-56.08359158913663
 72
     1
 10
2857.349452615419
 20
-56.08359158913663
 11
2783.695121101095
 21
-56.08359158913663
 72
     1
 10
2783.695121101095
 20
-56.08359158913663
 11
2783.695121101095
 21
-103.0481209206509
 97
        0
 75
     0
 76
     1
 52
0.0
 41
0.35
 77
     0
 78
    13
 53
50.0
 43
-17106.49818083343
 44
-2488.151217490415
 45
63.7646341486014
 46
-5.57867993861608
 79
     2
 49
6.667499999999999
 49
-73.3425
 53
355.0
 43
-17106.49818083343
 44
-2488.151217490415
 45
-12.33498909148344
 46
66.86982500876299
 79
     2
 49
5.333999999999999
 49
-58.67399999999999
 53
100.451
 43
-17101.18448083344
 44
-2488.616104990414
 45
51.42987558308573
 46
61.29084073710215
 79
     2
 49
5.6665
 49
-62.3315
 53
46.1842
 43
-17106.49818083343
 44
-2470.371217490415
 45
94.87766431224546
 46
-14.7148147764545
 79
     2
 49
10.00124999999999
 49
-110.0137499999999
 53
96.63559999999998
 43
-17098.59171583343
 44
-2471.597442490415
 45
83.09148206318299
 46
86.59894456151723
 79
     2
 49
8.499749999999988
 49
-93.4972499999999
 53
351.184
 43
-17106.49818083343
 44
-2470.371217490415
 45
83.09161203487688
 46
86.59879125120918
 79
     2
 49
8.000999999999999
 49
-88.01099999999999
 53
21.0
 43
-17097.60818083343
 44
-2474.816217490415
 45
53.06520794238414
 46
-35.79293148086687
 79
     2
 49
6.667499999999999
 49
-73.3425
 53
326.0
 43
-17097.60818083343
 44
-2474.816217490415
 45
21.63070992167647
 46
64.46578814281174
 79
     2
 49
5.333999999999999
 49
-58.67399999999999
 53
71.45140000000001
 43
-17093.18610583343
 44
-2477.798952490415
 45
74.69577176954356
 46
28.6730002006201
 79
     2
 49
5.6665
 49
-62.3315
 53
37.5
 43
-17106.49818083343
 44
-2488.151217490415
 45
1.081011137707135
 46
29.59426360560359
 79
     6
 49
0.0
 49
-57.96279999999999
 49
0.0
 49
-59.56299999999999
 49
0.0
 49
-58.89624999999999
 53
7.499999999999999
 43
-17106.49818083343
 44
-2488.151217490415
 45
23.38688187860701
 46
35.06320118634183
 79
     6
 49
0.0
 49
-33.95979999999999
 49
0.0
 49
-56.62929999999999
 49
0.0
 49
-22.44725
 53
327.4999999999999
 43
-17126.32288083343
 44
-2488.151217490415
 45
47.45670830840498
 46
-2.005060397435712
 79
     6
 49
0.0
 49
-22.22499999999999
 49
0.0
 49
-69.342
 49
0.0
 49
-92.01149999999998
 53
317.5
 43
-17135.21288083343
 44
-2488.151217490415
 45
51.84521348510632
 46
8.899271861666553
 79
     6
 49
0.0
 49
-28.8925
 49
0.0
 49
-46.05019999999999
 49
0.0
 49
-65.3415
 47
1.064071045595498
 98
        1
 10
2975.314132868554
 20
-92.11422502421783
  0
LWPOLYLINE
  5
F95
330
1F
100
AcDbEntity
  8
NOSNÉ KONSTRUKCE
100
AcDbPolyline
 90
        2
 70
     0
 43
0.0
 10
3021.962030546694
 20
71.8625477692367
 10
3015.479361242213
 20
58.90669230281673
  0
LWPOLYLINE
  5
F96
330
1F
100
AcDbEntity
  8
NOSNÉ KONSTRUKCE
100
AcDbPolyline
 90
        5
 70
     0
 43
0.0
 10
3027.479361242212
 20
45.66160214480624
 42
-0.0120721047703142
 10
3025.745473103468
 20
45.73058483484419
 42
-0.044358077361292
 10
3023.049673085052
 20
46.12621256951752
 42
-0.0188067511131767
 10
3015.807443909745
 20
48.14603601790077
 42
-0.0051027088350076
 10
3015.479361242213
 20
48.25468573408944
 42
-0.0051027088350076
  0
LWPOLYLINE
  5
F97
330
1F
100
AcDbEntity
  8
NOSNÉ KONSTRUKCE
100
AcDbPolyline
 90
        2
 70
     0
 43
0.0
 10
3020.980191672957
 20
52.56997014399167
 10
3015.479361242213
 20
40.63467856930265
  0
LWPOLYLINE
  5
F98
330
1F
100
AcDbEntity
  8
NOSNÉ KONSTRUKCE
100
AcDbPolyline
 90
        4
 70
     0
 43
0.0
 10
3027.479361242212
 20
37.03738676476359
 42
-0.0128837512779303
 10
3024.146196420466
 20
37.32217872498949
 42
-0.0351641677647434
 10
3020.542486966127
 20
37.94993844651253
 42
-0.0080161298787018
 10
3015.479361242213
 20
39.29032923428803
 42
-0.0080161298787018
  0
LWPOLYLINE
  5
F99
330
1F
100
AcDbEntity
  8
NOSNÉ KONSTRUKCE
100
AcDbPolyline
 90
        4
 70
     0
 43
0.0
 10
3027.479361242212
 20
54.52866136831653
 42
-0.0168162630274191
 10
3025.788323090093
 20
54.66368694738048
 42
-0.0575155827655532
 10
3022.688698429376
 20
55.34371922772334
 42
-0.0308717424615247
 10
3015.479361242213
 20
58.32907562332184
 42
-0.0308717424615247
  0
LWPOLYLINE
  5
F9A
330
1F
100
AcDbEntity
  8
NOSNÉ KONSTRUKCE
100
AcDbPolyline
 90
        7
 70
     0
 43
0.0
 10
3027.479361242212
 20
74.05617674725454
 42
-0.0203924744732807
 10
3026.466231213058
 20
74.95826073166608
 42
-0.0273961979096945
 10
3025.678054839032
 20
75.80812508186136
 42
-0.0243529190212958
 10
3024.804295494365
 20
76.97124557428105
 42
-0.0398020282482987
 10
3024.364666750918
 20
77.74620411184151
 42
-0.104168275620852
 10
3024.274650290741
 20
78.13261524818154
 42
-0.007272956268647
 10
3024.256196939446
 20
78.57094522693796
 42
-0.007272956268647
  0
POLYLINE
  5
F9B
330
1F
100
AcDbEntity
  8
NOSNÉ KONSTRUKCE
100
AcDb2dPolyline
 66
     1
 10
0.0
 20
0.0
 30
0.0
  0
VERTEX
  5
F9C
330
F9B
100
AcDbEntity
  8
NOSNÉ KONSTRUKCE
100
AcDbVertex
100
AcDb2dVertex
 10
3027.479361242212
 20
68.70649041273646
 30
0.0
 42
-0.0064239028828688
  0
VERTEX
  5
F9D
330
F9B
100
AcDbEntity
  8
NOSNÉ KONSTRUKCE
100
AcDbVertex
100
AcDb2dVertex
 10
3027.260247582862
 20
68.74535885291698
 30
0.0
 42
-0.0832048017309575
  0
VERTEX
  5
F9E
330
F9B
100
AcDbEntity
  8
NOSNÉ KONSTRUKCE
100
AcDbVertex
100
AcDb2dVertex
 10
3024.930034003208
 20
69.52954145559852
 30
0.0
 42
-0.0336767237692336
  0
VERTEX
  5
F9F
330
F9B
100
AcDbEntity
  8
NOSNÉ KONSTRUKCE
100
AcDbVertex
100
AcDb2dVertex
 10
3022.201759483747
 20
71.23235801452029
 30
0.0
 42
-0.0844635135812105
  0
VERTEX
  5
FA0
330
F9B
100
AcDbEntity
  8
NOSNÉ KONSTRUKCE
100
AcDbVertex
100
AcDb2dVertex
 10
3021.297337878752
 20
72.1521677744131
 30
0.0
 42
-0.0495829410719565
  0
VERTEX
  5
FA1
330
F9B
100
AcDbEntity
  8
NOSNÉ KONSTRUKCE
100
AcDbVertex
100
AcDb2dVertex
 10
3020.320688371439
 20
73.9008462117672
 30
0.0
 42
-0.0322692699774654
  0
VERTEX
  5
FA2
330
F9B
100
AcDbEntity
  8
NOSNÉ KONSTRUKCE
100
AcDbVertex
100
AcDb2dVertex
 10
3019.279164870038
 20
76.79220039285792
 30
0.0
 42
-0.0276160659512937
  0
VERTEX
  5
FA3
330
F9B
100
AcDbEntity
  8
NOSNÉ KONSTRUKCE
100
AcDbVertex
100
AcDb2dVertex
 10
3019.082429441094
 20
77.64777683114516
 30
0.0
 42
-0.0126891984598699
  0
VERTEX
  5
FA4
330
F9B
100
AcDbEntity
  8
NOSNÉ KONSTRUKCE
100
AcDbVertex
100
AcDb2dVertex
 10
3018.947227051552
 20
78.57094522693796
 30
0.0
  0
SEQEND
  5
FA5
330
F9B
100
AcDbEntity
  8
NOSNÉ KONSTRUKCE
  0
POLYLINE
  5
FA6
330
1F
100
AcDbEntity
  8
NOSNÉ KONSTRUKCE
100
AcDb2dPolyline
 66
     1
 10
0.0
 20
0.0
 30
0.0
  0
VERTEX
  5
FA7
330
FA6
100
AcDbEntity
  8
NOSNÉ KONSTRUKCE
100
AcDbVertex
100
AcDb2dVertex
 10
3027.479361242212
 20
61.47843939199947
 30
0.0
 42
-0.0072417954699014
  0
VERTEX
  5
FA8
330
FA6
100
AcDbEntity
  8
NOSNÉ KONSTRUKCE
100
AcDbVertex
100
AcDb2dVertex
 10
3027.067956030938
 20
61.53400975984187
 30
0.0
 42
-0.0707158694326265
  0
VERTEX
  5
FA9
330
FA6
100
AcDbEntity
  8
NOSNÉ KONSTRUKCE
100
AcDbVertex
100
AcDb2dVertex
 10
3025.131852578344
 20
62.06513627626191
 30
0.0
 42
-0.033952657250207
  0
VERTEX
  5
FAA
330
FA6
100
AcDbEntity
  8
NOSNÉ KONSTRUKCE
100
AcDbVertex
100
AcDb2dVertex
 10
3020.778814853171
 20
64.31379211567037
 30
0.0
 42
-0.0571374688189033
  0
VERTEX
  5
FAB
330
FA6
100
AcDbEntity
  8
NOSNÉ KONSTRUKCE
100
AcDbVertex
100
AcDb2dVertex
 10
3018.471890569484
 20
66.09994887552239
 30
0.0
 42
-0.0274923553235744
  0
VERTEX
  5
FAC
330
FA6
100
AcDbEntity
  8
NOSNÉ KONSTRUKCE
100
AcDbVertex
100
AcDb2dVertex
 10
3016.08681524635
 20
68.69725460607515
 30
0.0
 42
-0.0065397459216397
  0
VERTEX
  5
FAD
330
FA6
100
AcDbEntity
  8
NOSNÉ KONSTRUKCE
100
AcDbVertex
100
AcDb2dVertex
 10
3015.479361242213
 20
69.45651513434086
 30
0.0
 42
-0.0272796991712396
  0
SEQEND
  5
FAE
330
FA6
100
AcDbEntity
  8
NOSNÉ KONSTRUKCE
  0
TEXT
  5
FAF
330
1F
100
AcDbEntity
  8
POPIS
100
AcDbText
 10
2791.465328451397
 20
-621.0622012218286
 30
0.0
 40
25.0
  1
10
 41
0.85
  7
SIMPLEX7
100
AcDbText
  0
TEXT
  5
FB0
330
1F
100
AcDbEntity
  8
POPIS
100
AcDbText
 10
2845.809031611139
 20
-621.0622012218286
 30
0.0
 40
25.0
  1
Silikonový tmel
 41
0.7
  7
SIMPLEX7
100
AcDbText
  0
LWPOLYLINE
  5
FB1
330
1F
100
AcDbEntity
  8
PROFILY
100
AcDbPolyline
 90
        2
 70
     1
 43
2.5
 10
3014.320785479764
 20
551.2874925330216
 42
-1.0
 10
3011.821566690343
 20
551.2249989922898
 42
-1.0
  0
LINE
  5
FB2
330
1F
100
AcDbEntity
  8
PROFILY
100
AcDbLine
 10
3014.97922326498
 20
538.9832228311806
 30
0.0
 11
3009.982821401181
 21
539.301812393046
 31
0.0
  0
HATCH
  5
FB3
330
1F
100
AcDbEntity
  8
PROFILY
100
AcDbHatch
 10
0.0
 20
0.0
 30
0.0
210
0.0
220
0.0
230
1.0
  2
SOLID
 70
     1
 71
     0
 91
        1
 92
        1
 93
        4
 72
     1
 10
3015.587686448538
 20
551.2245202375916
 11
3010.591284584743
 21
551.5431097994564
 72
     1
 10
3010.591284584747
 20
551.543109799456
 11
3009.982821401181
 21
539.3018123930455
 72
     1
 10
3009.982821401181
 20
539.301812393046
 11
3014.979223264976
 21
538.9832228311806
 72
     1
 10
3014.97922326498
 20
538.9832228311806
 11
3015.587686448545
 21
551.2245202375916
 97
        0
 75
     0
 76
     1
 98
        1
 10
-16641.81334650388
 20
-2717.521719016821
  0
LWPOLYLINE
  5
FB4
330
1F
100
AcDbEntity
  8
PROFILY
100
AcDbPolyline
 90
        2
 70
     1
 43
2.5
 10
3013.769012884562
 20
539.1713170541302
 42
-1.0
 10
3011.269794095149
 20
539.1088235133984
 42
-1.0
  0
LWPOLYLINE
  5
FB5
330
1F
100
AcDbEntity
  8
PROFILY
100
AcDbPolyline
 90
        2
 70
     1
 43
2.5
 10
3014.479306478902
 20
291.3919033114257
 42
-1.0
 10
3011.980087689489
 20
291.3294097706939
 42
-1.0
  0
HATCH
  5
FB6
330
1F
100
AcDbEntity
  8
PROFILY
100
AcDbHatch
 10
0.0
 20
0.0
 30
0.0
210
0.0
220
0.0
230
1.0
  2
SOLID
 70
     1
 71
     0
 91
        1
 92
        1
 93
        4
 72
     1
 10
3016.297980042878
 20
303.4451064948871
 11
3011.301578179083
 21
303.763696056752
 72
     1
 10
3011.301578179087
 20
303.7636960567515
 11
3010.693114995521
 21
291.522398650341
 72
     1
 10
3010.693114995521
 20
291.5223986503415
 11
3015.689516859316
 21
291.2038090884761
 72
     1
 10
3015.68951685932
 20
291.2038090884761
 11
3016.297980042885
 21
303.4451064948871
 97
        0
 75
     0
 76
     1
 98
        1
 10
-16641.10305290954
 20
-2965.301132759525
  0
LINE
  5
FB7
330
1F
100
AcDbEntity
  8
PROFILY
100
AcDbLine
 10
3015.68951685932
 20
291.2038090884761
 30
0.0
 11
3010.693114995521
 21
291.5223986503415
 31
0.0
  0
LWPOLYLINE
  5
FB8
330
1F
100
AcDbEntity
  8
PROFILY
100
AcDbPolyline
 90
        2
 70
     1
 43
2.5
 10
3015.031079074104
 20
303.508078790317
 42
-1.0
 10
3012.531860284684
 20
303.4455852495852
 42
-1.0
  0
TEXT
  5
FB9
330
1F
100
AcDbEntity
  8
POPIS
100
AcDbText
 10
2772.415960940967
 20
530.9371876635614
 30
0.0
 40
25.0
  1
10
 41
0.7
  7
SIMPLEX7
100
AcDbText
  0
LINE
  5
FBA
330
1F
100
AcDbEntity
  8
POPIS
100
AcDbLine
 10
2810.719612038685
 20
544.3805291129319
 30
0.0
 11
3013.545803152881
 21
544.3805291129301
 31
0.0
  0
LINE
  5
FBB
330
1F
100
AcDbEntity
  8
STAVBA OBRYS
100
AcDbLine
 10
3431.640945745259
 20
589.7408685291407
 30
0.0
 11
3431.640945745263
 21
260.9973206183945
 31
0.0
  0
LINE
  5
FBC
330
1F
100
AcDbEntity
  8
STAVBA OBRYS
100
AcDbLine
 10
3431.288664563535
 20
-99.250879447236
 30
0.0
 11
3431.368951611943
 21
88.21614638558958
 31
0.0
  0
LINE
  5
FBD
330
1F
100
AcDbEntity
  8
STAVBA OBRYS
100
AcDbLine
 10
3431.368951611943
 20
88.21614638558958
 30
0.0
 11
3548.555766317017
 21
88.21614638558958
 31
0.0
  0
LINE
  5
FBE
330
1F
100
AcDbEntity
  8
STAVBA OBRYS
100
AcDbLine
 10
3127.894508406212
 20
-61.2892565421248
 30
0.0
 11
3127.894508406219
 21
27.13617611778454
 31
0.0
  0
HATCH
  5
FBF
330
1F
100
AcDbEntity
  8
STAVBA OBRYS
100
AcDbHatch
 10
0.0
 20
0.0
 30
0.0
210
0.0
220
0.0
230
1.0
  2
AR-SAND
 70
     0
 71
     0
 91
        2
 92
        7
 72
     0
 73
     1
 93
        6
 10
3548.555766317017
 20
98.21614638558958
 10
3421.373233423941
 20
98.21614638558958
 10
3421.288665480619
 20
-99.24659671854398
 10
3431.288664563535
 20
-99.250879447236
 10
3431.368951611939
 20
88.21614638558958
 10
3548.555766317017
 20
88.21614638558958
 97
        0
 92
        7
 72
     0
 73
     1
 93
        4
 10
3137.894508406216
 20
27.13617611778408
 10
3127.894508406219
 20
27.13617611778363
 10
3127.894508406209
 20
-61.28925654212435
 10
3137.894508406216
 20
-61.2892565421248
 97
        0
 75
     0
 76
     1
 52
0.0
 41
0.1
 77
     0
 78
     4
 53
37.5
 43
-15705.52387974429
 44
-2488.151217490415
 45
-0.1600031295984046
 46
4.894132373293423
 79
     6
 49
0.0
 49
-3.8608
 49
0.0
 49
-4.318
 49
0.0
 49
-4.1275
 53
7.499999999999999
 43
-15705.52387974429
 44
-2488.151217490415
 45
4.495232831380026
 46
7.168251005683543
 79
     6
 49
0.0
 49
-2.0828
 49
0.0
 49
-3.4798
 49
0.0
 49
-1.3335
 53
327.4999999999999
 43
-15708.64807974429
 44
-2488.151217490415
 45
7.909923702414579
 46
0.0143718467854569
 79
     6
 49
0.0
 49
-1.27
 49
0.0
 49
-4.572
 49
0.0
 49
-5.969
 53
317.5
 43
-15708.64807974429
 44
-2488.151217490415
 45
7.635564524722972
 46
2.229293232572162
 79
     6
 49
0.0
 49
-0.635
 49
0.0
 49
-2.997199999999999
 49
0.0
 49
-3.429
 47
0.4170065557424615
 98
        2
 10
3426.585774874258
 20
90.15091278564751
 10
3133.270117538717
 20
-17.85378421684299
  0
HATCH
  5
FC0
330
1F
100
AcDbEntity
  8
STAVBA OBRYS
100
AcDbHatch
 10
0.0
 20
0.0
 30
0.0
210
0.0
220
0.0
230
1.0
  2
AR-SAND
 70
     0
 71
     0
 91
        1
 92
        7
 72
     0
 73
     1
 93
        4
 10
3431.640945745259
 20
589.7408685291407
 10
3421.640945745259
 20
589.7408685291407
 10
3421.640945745259
 20
260.9973206183945
 10
3431.640945745259
 20
260.997320618394
 97
        0
 75
     0
 76
     1
 52
0.0
 41
0.1
 77
     0
 78
     4
 53
37.5
 43
-15705.52387974429
 44
-2488.151217490415
 45
-0.1600031295984046
 46
4.894132373293423
 79
     6
 49
0.0
 49
-3.8608
 49
0.0
 49
-4.318
 49
0.0
 49
-4.1275
 53
7.499999999999999
 43
-15705.52387974429
 44
-2488.151217490415
 45
4.495232831380026
 46
7.168251005683543
 79
     6
 49
0.0
 49
-2.0828
 49
0.0
 49
-3.4798
 49
0.0
 49
-1.3335
 53
327.4999999999999
 43
-15708.64807974429
 44
-2488.151217490415
 45
7.909923702414579
 46
0.0143718467854569
 79
     6
 49
0.0
 49
-1.27
 49
0.0
 49
-4.572
 49
0.0
 49
-5.969
 53
317.5
 43
-15708.64807974429
 44
-2488.151217490415
 45
7.635564524722972
 46
2.229293232572162
 79
     6
 49
0.0
 49
-0.635
 49
0.0
 49
-2.997199999999999
 49
0.0
 49
-3.429
 47
0.5328985462403347
 98
        1
 10
3427.225851270776
 20
498.4752934634448
  0
LINE
  5
FC1
330
1F
100
AcDbEntity
  8
SPOJOVACÍ
  6
Continuous
100
AcDbLine
 10
3035.469725202283
 20
525.3631417583783
 30
0.0
 11
3036.566962991737
 21
521.2397147684828
 31
0.0
  0
LINE
  5
FC2
330
1F
100
AcDbEntity
  8
SPOJOVACÍ
  6
Continuous
100
AcDbLine
 10
3036.064735798563
 20
525.3248307950066
 30
0.0
 11
3037.161973588021
 21
521.2014038051107
 31
0.0
  0
LINE
  5
FC3
330
1F
100
AcDbEntity
  8
SPOJOVACÍ
  6
Continuous
100
AcDbLine
 10
3036.760836999672
 20
520.8487984235712
 30
0.0
 11
3036.566962991737
 21
521.2397147684828
 31
0.0
  0
LINE
  5
FC4
330
1F
100
AcDbEntity
  8
SPOJOVACÍ
  6
Continuous
100
AcDbLine
 10
3036.760836999672
 20
520.8487984235712
 30
0.0
 11
3037.161973588021
 21
521.2014038051107
 31
0.0
  0
LINE
  5
FC5
330
1F
100
AcDbEntity
  8
SPOJOVACÍ
  6
Continuous
100
AcDbLine
 10
3035.871790044757
 20
525.715687376769
 30
0.0
 11
3035.469725202283
 21
525.3631417583783
 31
0.0
  0
LINE
  5
FC6
330
1F
100
AcDbEntity
  8
SPOJOVACÍ
  6
Continuous
100
AcDbLine
 10
3035.871790044757
 20
525.715687376769
 30
0.0
 11
3036.064735798563
 21
525.3248307950066
 31
0.0
  0
LINE
  5
FC7
330
1F
100
AcDbEntity
  8
SPOJOVACÍ
  6
Continuous
100
AcDbLine
 10
3035.871790044757
 20
525.715687376769
 30
0.0
 11
3036.760836999672
 21
520.8487984235712
 31
0.0
  0
LINE
  5
FC8
330
1F
100
AcDbEntity
  8
SPOJOVACÍ
  6
Continuous
100
AcDbLine
 10
3032.356362425888
 20
525.5636019317512
 30
0.0
 11
3033.453600215342
 21
521.4401749418552
 31
0.0
  0
LINE
  5
FC9
330
1F
100
AcDbEntity
  8
SPOJOVACÍ
  6
Continuous
100
AcDbLine
 10
3032.951373022157
 20
525.5252909683799
 30
0.0
 11
3034.048610811345
 21
521.4018639785012
 31
0.0
  0
LINE
  5
FCA
330
1F
100
AcDbEntity
  8
SPOJOVACÍ
  6
Continuous
100
AcDbLine
 10
3033.646545969435
 20
521.0493183644498
 30
0.0
 11
3033.453600215342
 21
521.4401749418552
 31
0.0
  0
LINE
  5
FCB
330
1F
100
AcDbEntity
  8
SPOJOVACÍ
  6
Continuous
100
AcDbLine
 10
3033.646545969435
 20
521.0493183644498
 30
0.0
 11
3034.048610811345
 21
521.4018639785012
 31
0.0
  0
LINE
  5
FCC
330
1F
100
AcDbEntity
  8
SPOJOVACÍ
  6
Continuous
100
AcDbLine
 10
3032.757499014516
 20
525.9162073176471
 30
0.0
 11
3032.356362425888
 21
525.5636019317512
 31
0.0
  0
LINE
  5
FCD
330
1F
100
AcDbEntity
  8
SPOJOVACÍ
  6
Continuous
100
AcDbLine
 10
3032.757499014516
 20
525.9162073176471
 30
0.0
 11
3032.951373022157
 21
525.5252909683799
 31
0.0
  0
LINE
  5
FCE
330
1F
100
AcDbEntity
  8
SPOJOVACÍ
  6
Continuous
100
AcDbLine
 10
3032.757499014516
 20
525.9162073176471
 30
0.0
 11
3033.646545969435
 21
521.0493183644498
 31
0.0
  0
LINE
  5
FCF
330
1F
100
AcDbEntity
  8
SPOJOVACÍ
  6
Continuous
100
AcDbLine
 10
3029.242999649477
 20
525.7640621051246
 30
0.0
 11
3030.340237438669
 21
521.6406351152459
 31
0.0
  0
LINE
  5
FD0
330
1F
100
AcDbEntity
  8
SPOJOVACÍ
  6
Continuous
100
AcDbLine
 10
3029.838010245761
 20
525.7257511417528
 30
0.0
 11
3030.935248034942
 21
521.6023241518747
 31
0.0
  0
LINE
  5
FD1
330
1F
100
AcDbEntity
  8
SPOJOVACÍ
  6
Continuous
100
AcDbLine
 10
3030.533183193028
 20
521.2497785378227
 30
0.0
 11
3030.340237438669
 21
521.6406351152459
 31
0.0
  0
LINE
  5
FD2
330
1F
100
AcDbEntity
  8
SPOJOVACÍ
  6
Continuous
100
AcDbLine
 10
3030.533183193028
 20
521.2497785378227
 30
0.0
 11
3030.935248034942
 21
521.6023241518747
 31
0.0
  0
LINE
  5
FD3
330
1F
100
AcDbEntity
  8
SPOJOVACÍ
  6
Continuous
100
AcDbLine
 10
3029.64413623811
 20
526.1166674910205
 30
0.0
 11
3029.242999649477
 21
525.7640621051246
 31
0.0
  0
LINE
  5
FD4
330
1F
100
AcDbEntity
  8
SPOJOVACÍ
  6
Continuous
100
AcDbLine
 10
3029.64413623811
 20
526.1166674910205
 30
0.0
 11
3029.838010245761
 21
525.7257511417528
 31
0.0
  0
LINE
  5
FD5
330
1F
100
AcDbEntity
  8
SPOJOVACÍ
  6
Continuous
100
AcDbLine
 10
3029.64413623811
 20
526.1166674910205
 30
0.0
 11
3030.533183193028
 21
521.2497785378227
 31
0.0
  0
LINE
  5
FD6
330
1F
100
AcDbEntity
  8
SPOJOVACÍ
  6
Continuous
100
AcDbLine
 10
3044.869590861906
 20
523.7503101869101
 30
0.0
 11
3045.041206069445
 21
521.58051236849
 31
0.0
  0
LINE
  5
FD7
330
1F
100
AcDbEntity
  8
SPOJOVACÍ
  6
Continuous
100
AcDbLine
 10
3044.468454273561
 20
523.3977048053707
 30
0.0
 11
3044.848260315086
 21
521.9713689459131
 31
0.0
  0
LINE
  5
FD8
330
1F
100
AcDbEntity
  8
SPOJOVACÍ
  6
Continuous
100
AcDbLine
 10
3045.06346486983
 20
523.3593938419994
 30
0.0
 11
3045.443270911359
 21
521.9330579825423
 31
0.0
  0
LINE
  5
FD9
330
1F
100
AcDbEntity
  8
SPOJOVACÍ
  6
Continuous
100
AcDbLine
 10
3045.041206069445
 20
521.58051236849
 30
0.0
 11
3044.848260315086
 21
521.9713689459131
 31
0.0
  0
LINE
  5
FDA
330
1F
100
AcDbEntity
  8
SPOJOVACÍ
  6
Continuous
100
AcDbLine
 10
3045.041206069445
 20
521.58051236849
 30
0.0
 11
3045.443270911359
 21
521.9330579825423
 31
0.0
  0
LINE
  5
FDB
330
1F
100
AcDbEntity
  8
SPOJOVACÍ
  6
Continuous
100
AcDbLine
 10
3044.869590861906
 20
523.7503101869101
 30
0.0
 11
3044.468454273561
 21
523.3977048053707
 31
0.0
  0
LINE
  5
FDC
330
1F
100
AcDbEntity
  8
SPOJOVACÍ
  6
Continuous
100
AcDbLine
 10
3044.869590861906
 20
523.7503101869101
 30
0.0
 11
3045.06346486983
 21
523.3593938419994
 31
0.0
  0
LINE
  5
FDD
330
1F
100
AcDbEntity
  8
SPOJOVACÍ
  6
Continuous
100
AcDbLine
 10
3041.898327871446
 20
524.5074068402232
 30
0.0
 11
3042.330247510477
 21
521.3570554147159
 31
0.0
  0
LINE
  5
FDE
330
1F
100
AcDbEntity
  8
SPOJOVACÍ
  6
Continuous
100
AcDbLine
 10
3041.496263028972
 20
524.1548612218325
 30
0.0
 11
3042.137301756387
 21
521.7479119921217
 31
0.0
  0
LINE
  5
FDF
330
1F
100
AcDbEntity
  8
SPOJOVACÍ
  6
Continuous
100
AcDbLine
 10
3042.091273625252
 20
524.1165502584613
 30
0.0
 11
3042.732312352395
 21
521.7096010287677
 31
0.0
  0
LINE
  5
FE0
330
1F
100
AcDbEntity
  8
SPOJOVACÍ
  6
Continuous
100
AcDbLine
 10
3042.330247510477
 20
521.3570554147159
 30
0.0
 11
3042.137301756387
 21
521.7479119921217
 31
0.0
  0
LINE
  5
FE1
330
1F
100
AcDbEntity
  8
SPOJOVACÍ
  6
Continuous
100
AcDbLine
 10
3042.330247510477
 20
521.3570554147159
 30
0.0
 11
3042.732312352395
 21
521.7096010287677
 31
0.0
  0
LINE
  5
FE2
330
1F
100
AcDbEntity
  8
SPOJOVACÍ
  6
Continuous
100
AcDbLine
 10
3041.898327871446
 20
524.5074068402232
 30
0.0
 11
3041.496263028972
 21
524.1548612218325
 31
0.0
  0
LINE
  5
FE3
330
1F
100
AcDbEntity
  8
SPOJOVACÍ
  6
Continuous
100
AcDbLine
 10
3041.898327871446
 20
524.5074068402232
 30
0.0
 11
3042.091273625252
 21
524.1165502584613
 31
0.0
  0
LINE
  5
FE4
330
1F
100
AcDbEntity
  8
SPOJOVACÍ
  6
Continuous
100
AcDbLine
 10
3038.92613662686
 20
525.264563256685
 30
0.0
 11
3039.632021121591
 21
521.0852414767587
 31
0.0
  0
LINE
  5
FE5
330
1F
100
AcDbEntity
  8
SPOJOVACÍ
  6
Continuous
100
AcDbLine
 10
3038.524940270917
 20
524.9110296199456
 30
0.0
 11
3039.439075367501
 21
521.4760980541646
 31
0.0
  0
LINE
  5
FE6
330
1F
100
AcDbEntity
  8
SPOJOVACÍ
  6
Continuous
100
AcDbLine
 10
3039.119950867198
 20
524.8727186565734
 30
0.0
 11
3040.034085963782
 21
521.4377870907928
 31
0.0
  0
LINE
  5
FE7
330
1F
100
AcDbEntity
  8
SPOJOVACÍ
  6
Continuous
100
AcDbLine
 10
3039.632021121591
 20
521.0852414767587
 30
0.0
 11
3039.439075367501
 21
521.4760980541646
 31
0.0
  0
LINE
  5
FE8
330
1F
100
AcDbEntity
  8
SPOJOVACÍ
  6
Continuous
100
AcDbLine
 10
3039.632021121591
 20
521.0852414767587
 30
0.0
 11
3040.034085963782
 21
521.4377870907928
 31
0.0
  0
LINE
  5
FE9
330
1F
100
AcDbEntity
  8
SPOJOVACÍ
  6
Continuous
100
AcDbLine
 10
3038.92613662686
 20
525.264563256685
 30
0.0
 11
3038.524940270917
 21
524.9110296199456
 31
0.0
  0
LINE
  5
FEA
330
1F
100
AcDbEntity
  8
SPOJOVACÍ
  6
Continuous
100
AcDbLine
 10
3038.92613662686
 20
525.264563256685
 30
0.0
 11
3039.119950867198
 21
524.8727186565734
 31
0.0
  0
LINE
  5
FEB
330
1F
100
AcDbEntity
  8
SPOJOVACÍ
  6
Continuous
100
AcDbLine
 10
3026.129636872805
 20
525.9645222785152
 30
0.0
 11
3027.225946408695
 21
521.8411550561068
 31
0.0
  0
LINE
  5
FEC
330
1F
100
AcDbEntity
  8
SPOJOVACÍ
  6
Continuous
100
AcDbLine
 10
3026.724647469089
 20
525.9262113151435
 30
0.0
 11
3027.820957004698
 21
521.8028440927533
 31
0.0
  0
LINE
  5
FED
330
1F
100
AcDbEntity
  8
SPOJOVACÍ
  6
Continuous
100
AcDbLine
 10
3027.419820416633
 20
521.4502387111956
 30
0.0
 11
3027.225946408695
 21
521.8411550561068
 31
0.0
  0
LINE
  5
FEE
330
1F
100
AcDbEntity
  8
SPOJOVACÍ
  6
Continuous
100
AcDbLine
 10
3027.419820416633
 20
521.4502387111956
 30
0.0
 11
3027.820957004698
 21
521.8028440927533
 31
0.0
  0
LINE
  5
FEF
330
1F
100
AcDbEntity
  8
SPOJOVACÍ
  6
Continuous
100
AcDbLine
 10
3026.530773461438
 20
526.3171276644111
 30
0.0
 11
3026.129636872805
 21
525.9645222785152
 31
0.0
  0
LINE
  5
FF0
330
1F
100
AcDbEntity
  8
SPOJOVACÍ
  6
Continuous
100
AcDbLine
 10
3026.530773461438
 20
526.3171276644111
 30
0.0
 11
3026.724647469089
 21
525.9262113151435
 31
0.0
  0
LINE
  5
FF1
330
1F
100
AcDbEntity
  8
SPOJOVACÍ
  6
Continuous
100
AcDbLine
 10
3026.530773461438
 20
526.3171276644111
 30
0.0
 11
3027.419820416633
 21
521.4502387111956
 31
0.0
  0
LINE
  5
FF2
330
1F
100
AcDbEntity
  8
SPOJOVACÍ
  6
Continuous
100
AcDbLine
 10
3023.015345842841
 20
526.1650422193756
 30
0.0
 11
3024.112583632022
 21
522.0416152294979
 31
0.0
  0
LINE
  5
FF3
330
1F
100
AcDbEntity
  8
SPOJOVACÍ
  6
Continuous
100
AcDbLine
 10
3023.610356438848
 20
526.1267312560216
 30
0.0
 11
3024.707594228303
 21
522.0033042661257
 31
0.0
  0
LINE
  5
FF4
330
1F
100
AcDbEntity
  8
SPOJOVACÍ
  6
Continuous
100
AcDbLine
 10
3024.306457639957
 20
521.6506988845862
 30
0.0
 11
3024.112583632022
 21
522.0416152294979
 31
0.0
  0
LINE
  5
FF5
330
1F
100
AcDbEntity
  8
SPOJOVACÍ
  6
Continuous
100
AcDbLine
 10
3024.306457639957
 20
521.6506988845862
 30
0.0
 11
3024.707594228303
 21
522.0033042661257
 31
0.0
  0
LINE
  5
FF6
330
1F
100
AcDbEntity
  8
SPOJOVACÍ
  6
Continuous
100
AcDbLine
 10
3023.417410685039
 20
526.5175878377845
 30
0.0
 11
3023.015345842841
 21
526.1650422193756
 31
0.0
  0
LINE
  5
FF7
330
1F
100
AcDbEntity
  8
SPOJOVACÍ
  6
Continuous
100
AcDbLine
 10
3023.417410685039
 20
526.5175878377845
 30
0.0
 11
3023.610356438848
 21
526.1267312560216
 31
0.0
  0
LINE
  5
FF8
330
1F
100
AcDbEntity
  8
SPOJOVACÍ
  6
Continuous
100
AcDbLine
 10
3023.417410685039
 20
526.5175878377845
 30
0.0
 11
3024.306457639957
 21
521.6506988845862
 31
0.0
  0
LINE
  5
FF9
330
1F
100
AcDbEntity
  8
SPOJOVACÍ
  6
Continuous
100
AcDbLine
 10
3039.294682780981
 20
521.9840695866515
 30
0.0
 11
3037.311934656494
 21
521.8656579378079
 31
0.0
  0
LINE
  5
FFA
330
1F
100
AcDbEntity
  8
SPOJOVACÍ
  6
Continuous
100
AcDbLine
 10
3042.017656300328
 20
522.1480305156224
 30
0.0
 11
3039.868304372014
 21
522.0189076458741
 31
0.0
  0
LINE
  5
FFB
330
1F
100
AcDbEntity
  8
SPOJOVACÍ
  6
Continuous
100
AcDbLine
 10
3044.750900376757
 20
522.3122622486648
 30
0.0
 11
3042.59313439821
 21
522.1827490355135
 31
0.0
  0
LINE
  5
FFC
330
1F
100
AcDbEntity
  8
SPOJOVACÍ
  6
Continuous
100
AcDbLine
 10
3045.118683643244
 20
523.1023067487881
 30
0.0
 11
3048.176610539218
 21
522.5185936350389
 31
0.0
  0
LINE
  5
FFD
330
1F
100
AcDbEntity
  8
SPOJOVACÍ
  6
Continuous
100
AcDbLine
 10
3042.207153729423
 20
523.6579517575505
 30
0.0
 11
3044.504499153843
 21
523.2192167222669
 31
0.0
  0
LINE
  5
FFE
330
1F
100
AcDbEntity
  8
SPOJOVACÍ
  6
Continuous
100
AcDbLine
 10
3039.284604306898
 20
524.2161704866344
 30
0.0
 11
3041.58287798461
 21
523.7773756795054
 31
0.0
  0
LINE
  5
FFF
330
1F
100
AcDbEntity
  8
SPOJOVACÍ
  6
Continuous
100
AcDbLine
 10
3048.176610539218
 20
522.5185936350389
 30
0.0
 11
3045.323593713945
 21
522.3471600753932
 31
0.0
  0
LINE
  5
1000
330
1F
100
AcDbEntity
  8
SPOJOVACÍ
  6
Continuous
100
AcDbLine
 10
3037.485379923002
 20
524.5594500632319
 30
0.0
 11
3038.670419817494
 21
524.3330804601123
 31
0.0
  0
LINE
  5
1001
330
1F
100
AcDbEntity
  8
SPOJOVACÍ
  6
Continuous
100
AcDbLine
 10
3036.975906831672
 20
521.8872937704623
 30
0.0
 11
3037.311934656494
 21
521.8656579378079
 31
0.0
  0
LINE
  5
1002
330
1F
100
AcDbEntity
  8
SPOJOVACÍ
  6
Continuous
100
AcDbLine
 10
3033.859759294033
 20
522.0879332463323
 30
0.0
 11
3036.373470206048
 21
521.9260828737865
 31
0.0
  0
LINE
  5
1003
330
1F
100
AcDbEntity
  8
SPOJOVACÍ
  6
Continuous
100
AcDbLine
 10
3036.240591764856
 20
524.6395982720705
 30
0.0
 11
3037.485379923002
 21
524.5594500632319
 31
0.0
  0
LINE
  5
1004
330
1F
100
AcDbEntity
  8
SPOJOVACÍ
  6
Continuous
100
AcDbLine
 10
3033.132798510129
 20
524.8396998405009
 30
0.0
 11
3035.645581168579
 21
524.6779092354422
 31
0.0
  0
LINE
  5
1005
330
1F
100
AcDbEntity
  8
SPOJOVACÍ
  6
Continuous
100
AcDbLine
 10
3030.744540010224
 20
522.2885129546985
 30
0.0
 11
3033.260107429653
 21
522.1265430471589
 31
0.0
  0
LINE
  5
1006
330
1F
100
AcDbEntity
  8
SPOJOVACÍ
  6
Continuous
100
AcDbLine
 10
3027.62839247285
 20
522.4891524305517
 30
0.0
 11
3030.151385921354
 21
522.3267043830774
 31
0.0
  0
LINE
  5
1007
330
1F
100
AcDbEntity
  8
SPOJOVACÍ
  6
Continuous
100
AcDbLine
 10
3024.519670964555
 20
522.6893137664696
 30
0.0
 11
3027.033381876574
 21
522.5274633939229
 31
0.0
  0
LINE
  5
1008
330
1F
100
AcDbEntity
  8
SPOJOVACÍ
  6
Continuous
100
AcDbLine
 10
3030.006440182432
 20
525.040996758787
 30
0.0
 11
3032.529433630939
 21
524.8785487113131
 31
0.0
  0
LINE
  5
1009
330
1F
100
AcDbEntity
  8
SPOJOVACÍ
  6
Continuous
100
AcDbLine
 10
3026.897718674137
 20
525.2411580947055
 30
0.0
 11
3029.413286093566
 21
525.0791881871659
 31
0.0
  0
LINE
  5
100A
330
1F
100
AcDbEntity
  8
SPOJOVACÍ
  6
Continuous
100
AcDbLine
 10
3023.781571136764
 20
525.4417975705587
 30
0.0
 11
3026.295282048782
 21
525.279947198012
 31
0.0
  0
LINE
  5
100B
330
1F
100
AcDbEntity
  8
SPOJOVACÍ
  6
Continuous
100
AcDbLine
 10
3019.15793965498
 20
525.7394994559531
 30
0.0
 11
3023.187488794325
 21
525.4800487664247
 31
0.0
  0
LINE
  5
100C
330
1F
100
AcDbEntity
  8
SPOJOVACÍ
  6
Continuous
100
AcDbLine
 10
3018.984494388472
 20
523.0457073305292
 30
0.0
 11
3023.9172343392
 21
522.7281028697766
 31
0.0
  0
LINE
  5
100D
330
1F
100
AcDbEntity
  8
SPOJOVACÍ
  6
Continuous
100
AcDbLine
 10
3014.010409691431
 20
529.8291685150156
 30
0.0
 11
3014.666289986087
 21
528.4344584552923
 31
0.0
  0
LINE
  5
100E
330
1F
100
AcDbEntity
  8
SPOJOVACÍ
  6
Continuous
100
AcDbLine
 10
3014.666289986087
 20
528.4344584552923
 30
0.0
 11
3015.661491054465
 21
527.2574507346584
 31
0.0
  0
LINE
  5
100F
330
1F
100
AcDbEntity
  8
SPOJOVACÍ
  6
Continuous
100
AcDbLine
 10
3015.661491054465
 20
527.2574507346584
 30
0.0
 11
3016.92659377022
 21
526.3781152974984
 31
0.0
  0
LINE
  5
1010
330
1F
100
AcDbEntity
  8
SPOJOVACÍ
  6
Continuous
100
AcDbLine
 10
3016.92659377022
 20
526.3781152974984
 30
0.0
 11
3018.376880550584
 21
525.8559687657907
 31
0.0
  0
LINE
  5
1011
330
1F
100
AcDbEntity
  8
SPOJOVACÍ
  6
Continuous
100
AcDbLine
 10
3018.376880550584
 20
525.8559687657907
 30
0.0
 11
3019.15793965498
 21
525.7394994559531
 31
0.0
  0
LINE
  5
1012
330
1F
100
AcDbEntity
  8
SPOJOVACÍ
  6
Continuous
100
AcDbLine
 10
3014.732665513527
 20
521.5177169597613
 30
0.0
 11
3013.736988384391
 21
520.3421301072539
 31
0.0
  0
LINE
  5
1013
330
1F
100
AcDbEntity
  8
SPOJOVACÍ
  6
Continuous
100
AcDbLine
 10
3013.736988384391
 20
520.3421301072539
 30
0.0
 11
3013.354999357076
 21
519.6499388759607
 31
0.0
  0
LINE
  5
1014
330
1F
100
AcDbEntity
  8
SPOJOVACÍ
  6
Continuous
100
AcDbLine
 10
3014.010409691431
 20
529.8291685150156
 30
0.0
 11
3013.354999357076
 21
519.6499388759607
 31
0.0
  0
LINE
  5
1015
330
1F
100
AcDbEntity
  8
SPOJOVACÍ
  6
Continuous
100
AcDbLine
 10
3012.812962469534
 20
529.9062685817107
 30
0.0
 11
3014.010409691431
 21
529.8291685150156
 31
0.0
  0
LINE
  5
1016
330
1F
100
AcDbEntity
  8
SPOJOVACÍ
  6
Continuous
100
AcDbLine
 10
3012.812962469534
 20
529.9062685817107
 30
0.0
 11
3012.157552135182
 21
519.7270389426562
 31
0.0
  0
LINE
  5
1017
330
1F
100
AcDbEntity
  8
SPOJOVACÍ
  6
Continuous
100
AcDbLine
 10
3012.157552135182
 20
519.7270389426562
 30
0.0
 11
3013.354999357076
 21
519.6499388759607
 31
0.0
  0
LINE
  5
1018
330
1F
100
AcDbEntity
  8
SPOJOVACÍ
  6
Continuous
100
AcDbLine
 10
3018.984494388472
 20
523.0457073305292
 30
0.0
 11
3017.449431624822
 21
522.9171125951451
 31
0.0
  0
LINE
  5
1019
330
1F
100
AcDbEntity
  8
SPOJOVACÍ
  6
Continuous
100
AcDbLine
 10
3017.449431624822
 20
522.9171125951451
 30
0.0
 11
3015.999099282892
 21
522.3962400235195
 31
0.0
  0
LINE
  5
101A
330
1F
100
AcDbEntity
  8
SPOJOVACÍ
  6
Continuous
100
AcDbLine
 10
3015.999099282892
 20
522.3962400235195
 30
0.0
 11
3014.732665513527
 21
521.5177169597613
 31
0.0
  0
LINE
  5
101B
330
1F
100
AcDbEntity
  8
SPOJOVACÍ
  6
Continuous
100
AcDbLine
 10
3036.289852018495
 20
280.0199414981125
 30
0.0
 11
3037.387089807949
 21
275.896514508217
 31
0.0
  0
LINE
  5
101C
330
1F
100
AcDbEntity
  8
SPOJOVACÍ
  6
Continuous
100
AcDbLine
 10
3036.884862614775
 20
279.9816305347408
 30
0.0
 11
3037.982100404233
 21
275.8582035448448
 31
0.0
  0
LINE
  5
101D
330
1F
100
AcDbEntity
  8
SPOJOVACÍ
  6
Continuous
100
AcDbLine
 10
3037.580963815884
 20
275.5055981633054
 30
0.0
 11
3037.387089807949
 21
275.896514508217
 31
0.0
  0
LINE
  5
101E
330
1F
100
AcDbEntity
  8
SPOJOVACÍ
  6
Continuous
100
AcDbLine
 10
3037.580963815884
 20
275.5055981633054
 30
0.0
 11
3037.982100404233
 21
275.8582035448448
 31
0.0
  0
LINE
  5
101F
330
1F
100
AcDbEntity
  8
SPOJOVACÍ
  6
Continuous
100
AcDbLine
 10
3036.691916860969
 20
280.3724871165032
 30
0.0
 11
3036.289852018495
 21
280.0199414981125
 31
0.0
  0
LINE
  5
1020
330
1F
100
AcDbEntity
  8
SPOJOVACÍ
  6
Continuous
100
AcDbLine
 10
3036.691916860969
 20
280.3724871165032
 30
0.0
 11
3036.884862614775
 21
279.9816305347408
 31
0.0
  0
LINE
  5
1021
330
1F
100
AcDbEntity
  8
SPOJOVACÍ
  6
Continuous
100
AcDbLine
 10
3036.691916860969
 20
280.3724871165032
 30
0.0
 11
3037.580963815884
 21
275.5055981633054
 31
0.0
  0
LINE
  5
1022
330
1F
100
AcDbEntity
  8
SPOJOVACÍ
  6
Continuous
100
AcDbLine
 10
3033.1764892421
 20
280.2204016714854
 30
0.0
 11
3034.273727031553
 21
276.0969746815894
 31
0.0
  0
LINE
  5
1023
330
1F
100
AcDbEntity
  8
SPOJOVACÍ
  6
Continuous
100
AcDbLine
 10
3033.771499838369
 20
280.1820907081141
 30
0.0
 11
3034.868737627557
 21
276.0586637182354
 31
0.0
  0
LINE
  5
1024
330
1F
100
AcDbEntity
  8
SPOJOVACÍ
  6
Continuous
100
AcDbLine
 10
3034.466672785647
 20
275.706118104184
 30
0.0
 11
3034.273727031553
 21
276.0969746815894
 31
0.0
  0
LINE
  5
1025
330
1F
100
AcDbEntity
  8
SPOJOVACÍ
  6
Continuous
100
AcDbLine
 10
3034.466672785647
 20
275.706118104184
 30
0.0
 11
3034.868737627557
 21
276.0586637182354
 31
0.0
  0
LINE
  5
1026
330
1F
100
AcDbEntity
  8
SPOJOVACÍ
  6
Continuous
100
AcDbLine
 10
3033.577625830728
 20
280.5730070573813
 30
0.0
 11
3033.1764892421
 21
280.2204016714854
 31
0.0
  0
LINE
  5
1027
330
1F
100
AcDbEntity
  8
SPOJOVACÍ
  6
Continuous
100
AcDbLine
 10
3033.577625830728
 20
280.5730070573813
 30
0.0
 11
3033.771499838369
 21
280.1820907081141
 31
0.0
  0
LINE
  5
1028
330
1F
100
AcDbEntity
  8
SPOJOVACÍ
  6
Continuous
100
AcDbLine
 10
3033.577625830728
 20
280.5730070573813
 30
0.0
 11
3034.466672785647
 21
275.706118104184
 31
0.0
  0
LINE
  5
1029
330
1F
100
AcDbEntity
  8
SPOJOVACÍ
  6
Continuous
100
AcDbLine
 10
3030.063126465689
 20
280.4208618448587
 30
0.0
 11
3031.160364254882
 21
276.2974348549801
 31
0.0
  0
LINE
  5
102A
330
1F
100
AcDbEntity
  8
SPOJOVACÍ
  6
Continuous
100
AcDbLine
 10
3030.658137061973
 20
280.382550881487
 30
0.0
 11
3031.755374851154
 21
276.2591238916088
 31
0.0
  0
LINE
  5
102B
330
1F
100
AcDbEntity
  8
SPOJOVACÍ
  6
Continuous
100
AcDbLine
 10
3031.353310009241
 20
275.9065782775569
 30
0.0
 11
3031.160364254882
 21
276.2974348549801
 31
0.0
  0
LINE
  5
102C
330
1F
100
AcDbEntity
  8
SPOJOVACÍ
  6
Continuous
100
AcDbLine
 10
3031.353310009241
 20
275.9065782775569
 30
0.0
 11
3031.755374851154
 21
276.2591238916088
 31
0.0
  0
LINE
  5
102D
330
1F
100
AcDbEntity
  8
SPOJOVACÍ
  6
Continuous
100
AcDbLine
 10
3030.464263054322
 20
280.7734672307546
 30
0.0
 11
3030.063126465689
 21
280.4208618448587
 31
0.0
  0
LINE
  5
102E
330
1F
100
AcDbEntity
  8
SPOJOVACÍ
  6
Continuous
100
AcDbLine
 10
3030.464263054322
 20
280.7734672307546
 30
0.0
 11
3030.658137061973
 21
280.382550881487
 31
0.0
  0
LINE
  5
102F
330
1F
100
AcDbEntity
  8
SPOJOVACÍ
  6
Continuous
100
AcDbLine
 10
3030.464263054322
 20
280.7734672307546
 30
0.0
 11
3031.353310009241
 21
275.9065782775569
 31
0.0
  0
LINE
  5
1030
330
1F
100
AcDbEntity
  8
SPOJOVACÍ
  6
Continuous
100
AcDbLine
 10
3045.689717678119
 20
278.4071099266443
 30
0.0
 11
3045.861332885657
 21
276.2373121082241
 31
0.0
  0
LINE
  5
1031
330
1F
100
AcDbEntity
  8
SPOJOVACÍ
  6
Continuous
100
AcDbLine
 10
3045.288581089773
 20
278.0545045451049
 30
0.0
 11
3045.668387131298
 21
276.6281686856473
 31
0.0
  0
LINE
  5
1032
330
1F
100
AcDbEntity
  8
SPOJOVACÍ
  6
Continuous
100
AcDbLine
 10
3045.883591686042
 20
278.0161935817336
 30
0.0
 11
3046.263397727571
 21
276.5898577222765
 31
0.0
  0
LINE
  5
1033
330
1F
100
AcDbEntity
  8
SPOJOVACÍ
  6
Continuous
100
AcDbLine
 10
3045.861332885657
 20
276.2373121082241
 30
0.0
 11
3045.668387131298
 21
276.6281686856473
 31
0.0
  0
LINE
  5
1034
330
1F
100
AcDbEntity
  8
SPOJOVACÍ
  6
Continuous
100
AcDbLine
 10
3045.861332885657
 20
276.2373121082241
 30
0.0
 11
3046.263397727571
 21
276.5898577222765
 31
0.0
  0
LINE
  5
1035
330
1F
100
AcDbEntity
  8
SPOJOVACÍ
  6
Continuous
100
AcDbLine
 10
3045.689717678119
 20
278.4071099266443
 30
0.0
 11
3045.288581089773
 21
278.0545045451049
 31
0.0
  0
LINE
  5
1036
330
1F
100
AcDbEntity
  8
SPOJOVACÍ
  6
Continuous
100
AcDbLine
 10
3045.689717678119
 20
278.4071099266443
 30
0.0
 11
3045.883591686042
 21
278.0161935817336
 31
0.0
  0
LINE
  5
1037
330
1F
100
AcDbEntity
  8
SPOJOVACÍ
  6
Continuous
100
AcDbLine
 10
3042.718454687658
 20
279.1642065799574
 30
0.0
 11
3043.150374326689
 21
276.01385515445
 31
0.0
  0
LINE
  5
1038
330
1F
100
AcDbEntity
  8
SPOJOVACÍ
  6
Continuous
100
AcDbLine
 10
3042.316389845184
 20
278.8116609615667
 30
0.0
 11
3042.957428572599
 21
276.4047117318559
 31
0.0
  0
LINE
  5
1039
330
1F
100
AcDbEntity
  8
SPOJOVACÍ
  6
Continuous
100
AcDbLine
 10
3042.911400441464
 20
278.7733499981955
 30
0.0
 11
3043.552439168607
 21
276.366400768502
 31
0.0
  0
LINE
  5
103A
330
1F
100
AcDbEntity
  8
SPOJOVACÍ
  6
Continuous
100
AcDbLine
 10
3043.150374326689
 20
276.01385515445
 30
0.0
 11
3042.957428572599
 21
276.4047117318559
 31
0.0
  0
LINE
  5
103B
330
1F
100
AcDbEntity
  8
SPOJOVACÍ
  6
Continuous
100
AcDbLine
 10
3043.150374326689
 20
276.01385515445
 30
0.0
 11
3043.552439168607
 21
276.366400768502
 31
0.0
  0
LINE
  5
103C
330
1F
100
AcDbEntity
  8
SPOJOVACÍ
  6
Continuous
100
AcDbLine
 10
3042.718454687658
 20
279.1642065799574
 30
0.0
 11
3042.316389845184
 21
278.8116609615667
 31
0.0
  0
LINE
  5
103D
330
1F
100
AcDbEntity
  8
SPOJOVACÍ
  6
Continuous
100
AcDbLine
 10
3042.718454687658
 20
279.1642065799574
 30
0.0
 11
3042.911400441464
 21
278.7733499981955
 31
0.0
  0
LINE
  5
103E
330
1F
100
AcDbEntity
  8
SPOJOVACÍ
  6
Continuous
100
AcDbLine
 10
3039.746263443072
 20
279.9213629964192
 30
0.0
 11
3040.452147937803
 21
275.7420412164929
 31
0.0
  0
LINE
  5
103F
330
1F
100
AcDbEntity
  8
SPOJOVACÍ
  6
Continuous
100
AcDbLine
 10
3039.34506708713
 20
279.5678293596797
 30
0.0
 11
3040.259202183714
 21
276.1328977938987
 31
0.0
  0
LINE
  5
1040
330
1F
100
AcDbEntity
  8
SPOJOVACÍ
  6
Continuous
100
AcDbLine
 10
3039.94007768341
 20
279.5295183963076
 30
0.0
 11
3040.854212779994
 21
276.094586830527
 31
0.0
  0
LINE
  5
1041
330
1F
100
AcDbEntity
  8
SPOJOVACÍ
  6
Continuous
100
AcDbLine
 10
3040.452147937803
 20
275.7420412164929
 30
0.0
 11
3040.259202183714
 21
276.1328977938987
 31
0.0
  0
LINE
  5
1042
330
1F
100
AcDbEntity
  8
SPOJOVACÍ
  6
Continuous
100
AcDbLine
 10
3040.452147937803
 20
275.7420412164929
 30
0.0
 11
3040.854212779994
 21
276.094586830527
 31
0.0
  0
LINE
  5
1043
330
1F
100
AcDbEntity
  8
SPOJOVACÍ
  6
Continuous
100
AcDbLine
 10
3039.746263443072
 20
279.9213629964192
 30
0.0
 11
3039.34506708713
 21
279.5678293596797
 31
0.0
  0
LINE
  5
1044
330
1F
100
AcDbEntity
  8
SPOJOVACÍ
  6
Continuous
100
AcDbLine
 10
3039.746263443072
 20
279.9213629964192
 30
0.0
 11
3039.94007768341
 21
279.5295183963076
 31
0.0
  0
LINE
  5
1045
330
1F
100
AcDbEntity
  8
SPOJOVACÍ
  6
Continuous
100
AcDbLine
 10
3026.949763689017
 20
280.6213220182494
 30
0.0
 11
3028.046073224906
 21
276.497954795841
 31
0.0
  0
LINE
  5
1046
330
1F
100
AcDbEntity
  8
SPOJOVACÍ
  6
Continuous
100
AcDbLine
 10
3027.544774285301
 20
280.5830110548777
 30
0.0
 11
3028.64108382091
 21
276.4596438324874
 31
0.0
  0
LINE
  5
1047
330
1F
100
AcDbEntity
  8
SPOJOVACÍ
  6
Continuous
100
AcDbLine
 10
3028.239947232845
 20
276.1070384509298
 30
0.0
 11
3028.046073224906
 21
276.497954795841
 31
0.0
  0
LINE
  5
1048
330
1F
100
AcDbEntity
  8
SPOJOVACÍ
  6
Continuous
100
AcDbLine
 10
3028.239947232845
 20
276.1070384509298
 30
0.0
 11
3028.64108382091
 21
276.4596438324874
 31
0.0
  0
LINE
  5
1049
330
1F
100
AcDbEntity
  8
SPOJOVACÍ
  6
Continuous
100
AcDbLine
 10
3027.350900277649
 20
280.9739274041453
 30
0.0
 11
3026.949763689017
 21
280.6213220182494
 31
0.0
  0
LINE
  5
104A
330
1F
100
AcDbEntity
  8
SPOJOVACÍ
  6
Continuous
100
AcDbLine
 10
3027.350900277649
 20
280.9739274041453
 30
0.0
 11
3027.544774285301
 21
280.5830110548777
 31
0.0
  0
LINE
  5
104B
330
1F
100
AcDbEntity
  8
SPOJOVACÍ
  6
Continuous
100
AcDbLine
 10
3027.350900277649
 20
280.9739274041453
 30
0.0
 11
3028.239947232845
 21
276.1070384509298
 31
0.0
  0
LINE
  5
104C
330
1F
100
AcDbEntity
  8
SPOJOVACÍ
  6
Continuous
100
AcDbLine
 10
3023.835472659053
 20
280.8218419591098
 30
0.0
 11
3024.932710448235
 21
276.6984149692321
 31
0.0
  0
LINE
  5
104D
330
1F
100
AcDbEntity
  8
SPOJOVACÍ
  6
Continuous
100
AcDbLine
 10
3024.430483255061
 20
280.7835309957559
 30
0.0
 11
3025.527721044515
 21
276.6601040058599
 31
0.0
  0
LINE
  5
104E
330
1F
100
AcDbEntity
  8
SPOJOVACÍ
  6
Continuous
100
AcDbLine
 10
3025.126584456169
 20
276.3074986243204
 30
0.0
 11
3024.932710448235
 21
276.6984149692321
 31
0.0
  0
LINE
  5
104F
330
1F
100
AcDbEntity
  8
SPOJOVACÍ
  6
Continuous
100
AcDbLine
 10
3025.126584456169
 20
276.3074986243204
 30
0.0
 11
3025.527721044515
 21
276.6601040058599
 31
0.0
  0
LINE
  5
1050
330
1F
100
AcDbEntity
  8
SPOJOVACÍ
  6
Continuous
100
AcDbLine
 10
3024.23753750125
 20
281.1743875775187
 30
0.0
 11
3023.835472659053
 21
280.8218419591098
 31
0.0
  0
LINE
  5
1051
330
1F
100
AcDbEntity
  8
SPOJOVACÍ
  6
Continuous
100
AcDbLine
 10
3024.23753750125
 20
281.1743875775187
 30
0.0
 11
3024.430483255061
 21
280.7835309957559
 31
0.0
  0
LINE
  5
1052
330
1F
100
AcDbEntity
  8
SPOJOVACÍ
  6
Continuous
100
AcDbLine
 10
3024.23753750125
 20
281.1743875775187
 30
0.0
 11
3025.126584456169
 21
276.3074986243204
 31
0.0
  0
LINE
  5
1053
330
1F
100
AcDbEntity
  8
SPOJOVACÍ
  6
Continuous
100
AcDbLine
 10
3040.114809597193
 20
276.6408693263856
 30
0.0
 11
3038.132061472706
 21
276.5224576775421
 31
0.0
  0
LINE
  5
1054
330
1F
100
AcDbEntity
  8
SPOJOVACÍ
  6
Continuous
100
AcDbLine
 10
3042.83778311654
 20
276.8048302553566
 30
0.0
 11
3040.688431188225
 21
276.6757073856083
 31
0.0
  0
LINE
  5
1055
330
1F
100
AcDbEntity
  8
SPOJOVACÍ
  6
Continuous
100
AcDbLine
 10
3045.571027192969
 20
276.969061988399
 30
0.0
 11
3043.413261214422
 21
276.8395487752477
 31
0.0
  0
LINE
  5
1056
330
1F
100
AcDbEntity
  8
SPOJOVACÍ
  6
Continuous
100
AcDbLine
 10
3045.938810459456
 20
277.7591064885223
 30
0.0
 11
3048.99673735543
 21
277.1753933747731
 31
0.0
  0
LINE
  5
1057
330
1F
100
AcDbEntity
  8
SPOJOVACÍ
  6
Continuous
100
AcDbLine
 10
3043.027280545635
 20
278.3147514972847
 30
0.0
 11
3045.324625970055
 21
277.8760164620011
 31
0.0
  0
LINE
  5
1058
330
1F
100
AcDbEntity
  8
SPOJOVACÍ
  6
Continuous
100
AcDbLine
 10
3040.10473112311
 20
278.8729702263685
 30
0.0
 11
3042.403004800823
 21
278.4341754192396
 31
0.0
  0
LINE
  5
1059
330
1F
100
AcDbEntity
  8
SPOJOVACÍ
  6
Continuous
100
AcDbLine
 10
3048.99673735543
 20
277.1753933747731
 30
0.0
 11
3046.143720530157
 21
277.0039598151274
 31
0.0
  0
LINE
  5
105A
330
1F
100
AcDbEntity
  8
SPOJOVACÍ
  6
Continuous
100
AcDbLine
 10
3038.305506739214
 20
279.216249802966
 30
0.0
 11
3039.490546633706
 21
278.9898801998465
 31
0.0
  0
LINE
  5
105B
330
1F
100
AcDbEntity
  8
SPOJOVACÍ
  6
Continuous
100
AcDbLine
 10
3037.796033647884
 20
276.5440935101965
 30
0.0
 11
3038.132061472706
 21
276.5224576775421
 31
0.0
  0
LINE
  5
105C
330
1F
100
AcDbEntity
  8
SPOJOVACÍ
  6
Continuous
100
AcDbLine
 10
3034.679886110245
 20
276.7447329860665
 30
0.0
 11
3037.19359702226
 21
276.5828826135207
 31
0.0
  0
LINE
  5
105D
330
1F
100
AcDbEntity
  8
SPOJOVACÍ
  6
Continuous
100
AcDbLine
 10
3037.060718581067
 20
279.2963980118047
 30
0.0
 11
3038.305506739214
 21
279.216249802966
 31
0.0
  0
LINE
  5
105E
330
1F
100
AcDbEntity
  8
SPOJOVACÍ
  6
Continuous
100
AcDbLine
 10
3033.952925326341
 20
279.4964995802351
 30
0.0
 11
3036.465707984791
 21
279.3347089751764
 31
0.0
  0
LINE
  5
105F
330
1F
100
AcDbEntity
  8
SPOJOVACÍ
  6
Continuous
100
AcDbLine
 10
3031.564666826436
 20
276.9453126944326
 30
0.0
 11
3034.080234245864
 21
276.7833427868931
 31
0.0
  0
LINE
  5
1060
330
1F
100
AcDbEntity
  8
SPOJOVACÍ
  6
Continuous
100
AcDbLine
 10
3028.448519289062
 20
277.1459521702859
 30
0.0
 11
3030.971512737565
 21
276.9835041228116
 31
0.0
  0
LINE
  5
1061
330
1F
100
AcDbEntity
  8
SPOJOVACÍ
  6
Continuous
100
AcDbLine
 10
3025.339797780767
 20
277.3461135062039
 30
0.0
 11
3027.853508692786
 21
277.1842631336571
 31
0.0
  0
LINE
  5
1062
330
1F
100
AcDbEntity
  8
SPOJOVACÍ
  6
Continuous
100
AcDbLine
 10
3030.826566998645
 20
279.6977964985212
 30
0.0
 11
3033.349560447152
 21
279.5353484510474
 31
0.0
  0
LINE
  5
1063
330
1F
100
AcDbEntity
  8
SPOJOVACÍ
  6
Continuous
100
AcDbLine
 10
3027.717845490349
 20
279.8979578344396
 30
0.0
 11
3030.233412909778
 21
279.7359879269001
 31
0.0
  0
LINE
  5
1064
330
1F
100
AcDbEntity
  8
SPOJOVACÍ
  6
Continuous
100
AcDbLine
 10
3024.601697952975
 20
280.0985973102929
 30
0.0
 11
3027.115408864994
 21
279.9367469377461
 31
0.0
  0
LINE
  5
1065
330
1F
100
AcDbEntity
  8
SPOJOVACÍ
  6
Continuous
100
AcDbLine
 10
3019.978066471193
 20
280.3962991956873
 30
0.0
 11
3024.007615610537
 21
280.1368485061589
 31
0.0
  0
LINE
  5
1066
330
1F
100
AcDbEntity
  8
SPOJOVACÍ
  6
Continuous
100
AcDbLine
 10
3019.804621204684
 20
277.7025070702634
 30
0.0
 11
3024.737361155412
 21
277.3849026095108
 31
0.0
  0
LINE
  5
1067
330
1F
100
AcDbEntity
  8
SPOJOVACÍ
  6
Continuous
100
AcDbLine
 10
3014.830536507643
 20
284.4859682547498
 30
0.0
 11
3015.486416802299
 21
283.0912581950265
 31
0.0
  0
LINE
  5
1068
330
1F
100
AcDbEntity
  8
SPOJOVACÍ
  6
Continuous
100
AcDbLine
 10
3015.486416802299
 20
283.0912581950265
 30
0.0
 11
3016.481617870677
 21
281.9142504743926
 31
0.0
  0
LINE
  5
1069
330
1F
100
AcDbEntity
  8
SPOJOVACÍ
  6
Continuous
100
AcDbLine
 10
3016.481617870677
 20
281.9142504743926
 30
0.0
 11
3017.746720586432
 21
281.0349150372326
 31
0.0
  0
LINE
  5
106A
330
1F
100
AcDbEntity
  8
SPOJOVACÍ
  6
Continuous
100
AcDbLine
 10
3017.746720586432
 20
281.0349150372326
 30
0.0
 11
3019.197007366796
 21
280.5127685055249
 31
0.0
  0
LINE
  5
106B
330
1F
100
AcDbEntity
  8
SPOJOVACÍ
  6
Continuous
100
AcDbLine
 10
3019.197007366796
 20
280.5127685055249
 30
0.0
 11
3019.978066471193
 21
280.3962991956873
 31
0.0
  0
LINE
  5
106C
330
1F
100
AcDbEntity
  8
SPOJOVACÍ
  6
Continuous
100
AcDbLine
 10
3015.552792329739
 20
276.1745166994955
 30
0.0
 11
3014.557115200603
 21
274.9989298469881
 31
0.0
  0
LINE
  5
106D
330
1F
100
AcDbEntity
  8
SPOJOVACÍ
  6
Continuous
100
AcDbLine
 10
3014.557115200603
 20
274.9989298469881
 30
0.0
 11
3014.175126173288
 21
274.3067386156949
 31
0.0
  0
LINE
  5
106E
330
1F
100
AcDbEntity
  8
SPOJOVACÍ
  6
Continuous
100
AcDbLine
 10
3014.830536507643
 20
284.4859682547498
 30
0.0
 11
3014.175126173288
 21
274.3067386156949
 31
0.0
  0
LINE
  5
106F
330
1F
100
AcDbEntity
  8
SPOJOVACÍ
  6
Continuous
100
AcDbLine
 10
3013.633089285745
 20
284.5630683214449
 30
0.0
 11
3014.830536507643
 21
284.4859682547498
 31
0.0
  0
LINE
  5
1070
330
1F
100
AcDbEntity
  8
SPOJOVACÍ
  6
Continuous
100
AcDbLine
 10
3013.633089285745
 20
284.5630683214449
 30
0.0
 11
3012.977678951394
 21
274.3838386823904
 31
0.0
  0
LINE
  5
1071
330
1F
100
AcDbEntity
  8
SPOJOVACÍ
  6
Continuous
100
AcDbLine
 10
3012.977678951394
 20
274.3838386823904
 30
0.0
 11
3014.175126173288
 21
274.3067386156949
 31
0.0
  0
LINE
  5
1072
330
1F
100
AcDbEntity
  8
SPOJOVACÍ
  6
Continuous
100
AcDbLine
 10
3019.804621204684
 20
277.7025070702634
 30
0.0
 11
3018.269558441033
 21
277.5739123348794
 31
0.0
  0
LINE
  5
1073
330
1F
100
AcDbEntity
  8
SPOJOVACÍ
  6
Continuous
100
AcDbLine
 10
3018.269558441033
 20
277.5739123348794
 30
0.0
 11
3016.819226099103
 21
277.0530397632537
 31
0.0
  0
LINE
  5
1074
330
1F
100
AcDbEntity
  8
SPOJOVACÍ
  6
Continuous
100
AcDbLine
 10
3016.819226099103
 20
277.0530397632537
 30
0.0
 11
3015.552792329739
 21
276.1745166994955
 31
0.0
  0
HATCH
  5
1075
330
1F
100
AcDbEntity
  8
PROFILY
100
AcDbHatch
 10
0.0
 20
0.0
 30
0.0
210
0.0
220
0.0
230
1.0
  2
SOLID
 70
     1
 71
     0
 91
        1
 92
        7
 72
     0
 73
     1
 93
        4
 10
2862.849881337135
 20
-551.3067028173122
 10
2861.350298704159
 20
-551.3067028173122
 10
2861.350298704159
 20
-555.7452708586665
 10
2862.849881337135
 20
-555.7452708586665
 97
        0
 75
     0
 76
     1
 47
0.0099002372419542
 98
        1
 10
2862.384312127849
 20
-552.5375805421667
  0
LWPOLYLINE
  5
1076
330
1F
100
AcDbEntity
  8
PROFILY
100
AcDbPolyline
 90
        4
 70
     1
 43
0.0
 10
2861.350298704159
 20
-551.3067028173122
 10
2862.849881337135
 20
-551.3067028173122
 10
2862.849881337135
 20
-555.7452708586665
 10
2861.350298704159
 20
-555.7452708586665
  0
LINE
  5
1077
330
1F
100
AcDbEntity
  8
PROFILY
100
AcDbLine
 10
2893.699574734035
 20
-569.3754347268809
 30
0.0
 11
2893.699574734035
 21
-567.7327362080036
 31
0.0
  0
LINE
  5
1078
330
1F
100
AcDbEntity
  8
PROFILY
100
AcDbLine
 10
2927.516186561517
 20
-569.3754347268809
 30
0.0
 11
2861.351077164532
 21
-569.3754347268809
 31
0.0
  0
LINE
  5
1079
330
1F
100
AcDbEntity
  8
PROFILY
100
AcDbLine
 10
2927.516186561517
 20
-567.7327362080041
 30
0.0
 11
2862.845356544351
 21
-567.7327362080045
 31
0.0
  0
HATCH
  5
107A
330
1F
100
AcDbEntity
  8
PROFILY
100
AcDbHatch
 10
0.0
 20
0.0
 30
0.0
210
0.0
220
0.0
230
1.0
  2
SOLID
 70
     1
 71
     0
 91
        2
 92
        7
 72
     0
 73
     1
 93
        4
 10
2862.845356544351
 20
-545.7240389691146
 10
2861.351077164525
 20
-545.7240389691146
 10
2861.351077164525
 20
-551.308840253298
 10
2862.845356544351
 20
-551.308840253298
 97
        0
 92
        7
 72
     0
 73
     1
 93
        7
 10
2862.845356544351
 20
-555.7296828315879
 10
2861.351077164525
 20
-555.7296828315879
 10
2861.351077164525
 20
-564.1193619396731
 10
2861.351077164525
 20
-569.3754347268818
 10
2865.18079687936
 20
-569.3754347268818
 10
2865.18079687936
 20
-567.7327362080045
 10
2862.845356544351
 20
-567.7327362080045
 97
        0
 75
     0
 76
     1
 47
0.169069331426656
 98
        2
 10
2862.225005279515
 20
-548.542380886402
 10
2862.055856238427
 20
-562.7442047262434
  0
LINE
  5
107B
330
1F
100
AcDbEntity
  8
PROFILY
100
AcDbLine
 10
2862.845356544351
 20
-551.308840253298
 30
0.0
 11
2862.845356544351
 21
-545.7240389691146
 31
0.0
  0
LINE
  5
107C
330
1F
100
AcDbEntity
  8
PROFILY
100
AcDbLine
 10
2861.351077164532
 20
-545.7240389691146
 30
0.0
 11
2862.845356544351
 21
-545.7240389691146
 31
0.0
  0
TEXT
  5
107D
330
1F
100
AcDbEntity
  8
POPIS
100
AcDbText
 10
2852.346159555271
 20
-530.6161094155636
 30
0.0
 40
25.0
  1
Perforovaný odvětrávací profil (PROTECTOR 3614)
 41
0.7
  7
SIMPLEX7
100
AcDbText
  0
HATCH
  5
107E
330
1F
100
AcDbEntity
  8
PROFILY
100
AcDbHatch
 10
0.0
 20
0.0
 30
0.0
210
0.0
220
0.0
230
1.0
  2
SOLID
 70
     1
 71
     0
 91
        4
 92
        7
 72
     0
 73
     1
 93
        4
 10
2927.516186561517
 20
-567.7327362080041
 10
2921.103460471096
 20
-567.7327362080045
 10
2921.103460471096
 20
-569.3754347268809
 10
2927.516186561513
 20
-569.3754347268809
 97
        0
 92
        7
 72
     0
 73
     1
 93
        4
 10
2906.763937432648
 20
-567.7327362080041
 10
2893.699574734035
 20
-567.7327362080045
 10
2893.699574734035
 20
-569.3754347268809
 10
2906.763937432652
 20
-569.3754347268805
 97
        0
 92
        7
 72
     0
 73
     1
 93
        4
 10
2893.699574734035
 20
-567.7327362080045
 10
2892.424414394199
 20
-567.7327362080045
 10
2892.424414394203
 20
-569.3754347268809
 10
2893.699574734035
 20
-569.3754347268809
 97
        0
 92
        7
 72
     0
 73
     1
 93
        4
 10
2878.084891355751
 20
-567.7327362080045
 10
2865.247629792682
 20
-567.732736208005
 10
2865.247629792682
 20
-569.3754347268813
 10
2878.084891355747
 20
-569.3754347268809
 97
        0
 75
     0
 76
     1
 47
0.1541731619048685
 98
        4
 10
2924.714507116756
 20
-568.8039792196891
 10
2898.336438116496
 20
-568.8039792196891
 10
2893.091683081171
 20
-568.8039792196891
 10
2875.969082304562
 20
-568.9581859250925
  0
LWPOLYLINE
  5
107F
330
1F
100
AcDbEntity
  8
PROFILY
100
AcDbPolyline
 90
        2
 70
     1
 43
2.5
 10
3015.031079074104
 20
60.38356907153866
 42
-1.0
 10
3012.531860284684
 20
60.32107553080686
 42
-1.0
  0
HATCH
  5
1080
330
1F
100
AcDbEntity
  8
PROFILY
100
AcDbHatch
 10
0.0
 20
0.0
 30
0.0
210
0.0
220
0.0
230
1.0
  2
SOLID
 70
     1
 71
     0
 91
        1
 92
        1
 93
        4
 72
     1
 10
3016.297980042878
 20
60.32059677610869
 11
3011.301578179083
 21
60.63918633797356
 72
     1
 10
3011.301578179087
 20
60.63918633797311
 11
3010.693114995521
 21
48.39788893156264
 72
     1
 10
3010.693114995521
 20
48.3978889315631
 11
3015.689516859316
 21
48.07929936969776
 72
     1
 10
3015.68951685932
 20
48.07929936969776
 11
3016.297980042885
 21
60.32059677610869
 97
        0
 75
     0
 76
     1
 98
        1
 10
-16641.10305290954
 20
-3208.425642478304
  0
LWPOLYLINE
  5
1081
330
1F
100
AcDbEntity
  8
PROFILY
100
AcDbPolyline
 90
        2
 70
     1
 43
2.5
 10
3014.479306478902
 20
48.26739359264729
 42
-1.0
 10
3011.980087689489
 20
48.2049000519155
 42
-1.0
  0
LINE
  5
1082
330
1F
100
AcDbEntity
  8
POPIS
100
AcDbLine
 10
3033.009772178715
 20
-6.059568582754309
 30
0.0
 11
3036.429245966452
 21
-0.6782719352759159
 31
0.0
  0
LINE
  5
1083
330
1F
100
AcDbEntity
  8
POPIS
100
AcDbLine
 10
3039.848719754196
 20
-6.059568582754309
 30
0.0
 11
3036.429245966459
 21
-0.6782719352759159
 31
0.0
  0
HATCH
  5
1084
330
1F
100
AcDbEntity
  8
POPIS
100
AcDbHatch
 10
0.0
 20
0.0
 30
0.0
210
0.0
220
0.0
230
1.0
  2
SOLID
 70
     1
 71
     0
 91
        1
 92
        7
 72
     0
 73
     1
 93
        8
 10
3038.322973806238
 20
6.876075316329206
 10
3042.001815143832
 20
6.876075316329206
 10
3036.429245966456
 20
14.67692739922722
 10
3030.856676789078
 20
6.876075316329206
 10
3034.535518126673
 20
6.876075316329661
 10
3033.009772178711
 20
-6.059568582757947
 10
3036.429245966456
 20
-0.6782719352754612
 10
3039.8487197542
 20
-6.059568582752035
 97
        0
 75
     0
 76
     1
 47
0.3835833255279223
 98
        1
 10
3036.83742871371
 20
3.967892135829515
  0
LINE
  5
1085
330
1F
100
AcDbEntity
  8
POPIS
100
AcDbLine
 10
3036.429245966456
 20
14.67692739922631
 30
0.0
 11
3030.856676789075
 21
6.876075316329206
 31
0.0
  0
LINE
  5
1086
330
1F
100
AcDbEntity
  8
POPIS
100
AcDbLine
 10
3030.856676789075
 20
6.876075316329206
 30
0.0
 11
3034.535518126673
 21
6.876075316329206
 31
0.0
  0
LINE
  5
1087
330
1F
100
AcDbEntity
  8
POPIS
100
AcDbLine
 10
3034.535518126673
 20
6.876075316329206
 30
0.0
 11
3033.009772178715
 21
-6.059568582754309
 31
0.0
  0
LINE
  5
1088
330
1F
100
AcDbEntity
  8
POPIS
100
AcDbLine
 10
3038.322973806238
 20
6.876075316329206
 30
0.0
 11
3039.848719754196
 21
-6.059568582754309
 31
0.0
  0
LINE
  5
1089
330
1F
100
AcDbEntity
  8
POPIS
100
AcDbLine
 10
3042.001815143836
 20
6.876075316329206
 30
0.0
 11
3038.322973806238
 21
6.876075316329206
 31
0.0
  0
LINE
  5
108A
330
1F
100
AcDbEntity
  8
POPIS
100
AcDbLine
 10
3036.429245966456
 20
14.67692739922631
 30
0.0
 11
3042.001815143836
 21
6.876075316329206
 31
0.0
  0
LINE
  5
108B
330
1F
100
AcDbEntity
  8
POPIS
100
AcDbLine
 10
3039.256689281332
 20
510.9777191040934
 30
0.0
 11
3044.829258458712
 21
503.1768670211963
 31
0.0
  0
LINE
  5
108C
330
1F
100
AcDbEntity
  8
POPIS
100
AcDbLine
 10
3044.829258458712
 20
503.1768670211963
 30
0.0
 11
3041.150417121114
 21
503.1768670211963
 31
0.0
  0
LINE
  5
108D
330
1F
100
AcDbEntity
  8
POPIS
100
AcDbLine
 10
3041.150417121114
 20
503.1768670211963
 30
0.0
 11
3042.676163069073
 21
490.2412231221128
 31
0.0
  0
LINE
  5
108E
330
1F
100
AcDbEntity
  8
POPIS
100
AcDbLine
 10
3037.362961441549
 20
503.1768670211963
 30
0.0
 11
3035.837215493591
 21
490.2412231221128
 31
0.0
  0
LINE
  5
108F
330
1F
100
AcDbEntity
  8
POPIS
100
AcDbLine
 10
3033.684120103951
 20
503.1768670211963
 30
0.0
 11
3037.362961441549
 21
503.1768670211963
 31
0.0
  0
LINE
  5
1090
330
1F
100
AcDbEntity
  8
POPIS
100
AcDbLine
 10
3039.256689281332
 20
510.9777191040934
 30
0.0
 11
3033.684120103951
 21
503.1768670211963
 31
0.0
  0
HATCH
  5
1091
330
1F
100
AcDbEntity
  8
POPIS
100
AcDbHatch
 10
0.0
 20
0.0
 30
0.0
210
0.0
220
0.0
230
1.0
  2
SOLID
 70
     1
 71
     0
 91
        1
 92
        7
 72
     0
 73
     1
 93
        8
 10
3041.150417121118
 20
503.1768670211968
 10
3044.829258458712
 20
503.1768670211959
 10
3039.256689281332
 20
510.9777191040903
 10
3033.684120103951
 20
503.1768670211963
 10
3037.362961441546
 20
503.1768670211963
 10
3035.837215493595
 20
490.2412231221155
 10
3039.256689281332
 20
495.622519769598
 10
3042.676163069076
 20
490.2412231221078
 97
        0
 75
     0
 76
     1
 47
0.3835833255279223
 98
        1
 10
3039.664872028586
 20
500.2686838406966
  0
LINE
  5
1092
330
1F
100
AcDbEntity
  8
POPIS
100
AcDbLine
 10
3042.676163069073
 20
490.2412231221128
 30
0.0
 11
3039.256689281335
 21
495.6225197695912
 31
0.0
  0
LINE
  5
1093
330
1F
100
AcDbEntity
  8
POPIS
100
AcDbLine
 10
3035.837215493591
 20
490.2412231221128
 30
0.0
 11
3039.256689281328
 21
495.6225197695912
 31
0.0
  0
LINE
  5
1094
330
1F
100
AcDbEntity
  8
NOSNÉ KONSTRUKCE
100
AcDbLine
 10
3044.886723670262
 20
512.3839476297412
 30
0.0
 11
3044.934391425593
 21
520.9593184019945
 31
0.0
  0
LINE
  5
1095
330
1F
100
AcDbEntity
  8
POPIS
100
AcDbLine
 10
3038.252362657598
 20
295.9049014839215
 30
0.0
 11
3041.671836445335
 21
301.2861981313999
 31
0.0
  0
LINE
  5
1096
330
1F
100
AcDbEntity
  8
POPIS
100
AcDbLine
 10
3045.091310233079
 20
295.9049014839215
 30
0.0
 11
3041.671836445342
 21
301.2861981313999
 31
0.0
  0
HATCH
  5
1097
330
1F
100
AcDbEntity
  8
POPIS
100
AcDbHatch
 10
0.0
 20
0.0
 30
0.0
210
0.0
220
0.0
230
1.0
  2
SOLID
 70
     1
 71
     0
 91
        1
 92
        7
 72
     0
 73
     1
 93
        8
 10
3041.150417121111
 20
308.840545383005
 10
3044.829258458709
 20
308.840545383005
 10
3039.256689281332
 20
316.641397465903
 10
3033.684120103951
 20
308.8405453830055
 10
3037.362961441546
 20
308.840545383005
 10
3035.837215493595
 20
295.9049014839256
 10
3039.256689281335
 20
301.2861981314045
 10
3042.676163069073
 20
295.9049014839201
 97
        0
 75
     0
 76
     1
 47
0.3835833255279223
 98
        1
 10
3039.664872028586
 20
305.9323622025053
  0
LINE
  5
1098
330
1F
100
AcDbEntity
  8
POPIS
100
AcDbLine
 10
3039.256689281332
 20
316.6413974659021
 30
0.0
 11
3033.684120103951
 21
308.840545383005
 31
0.0
  0
LINE
  5
1099
330
1F
100
AcDbEntity
  8
POPIS
100
AcDbLine
 10
3033.684120103951
 20
308.840545383005
 30
0.0
 11
3037.362961441549
 21
308.840545383005
 31
0.0
  0
LINE
  5
109A
330
1F
100
AcDbEntity
  8
POPIS
100
AcDbLine
 10
3037.362961441549
 20
308.840545383005
 30
0.0
 11
3035.837215493591
 21
295.9049014839215
 31
0.0
  0
LINE
  5
109B
330
1F
100
AcDbEntity
  8
POPIS
100
AcDbLine
 10
3041.150417121114
 20
308.840545383005
 30
0.0
 11
3042.676163069073
 21
295.9049014839215
 31
0.0
  0
LINE
  5
109C
330
1F
100
AcDbEntity
  8
POPIS
100
AcDbLine
 10
3044.829258458712
 20
308.840545383005
 30
0.0
 11
3041.150417121114
 21
308.840545383005
 31
0.0
  0
LINE
  5
109D
330
1F
100
AcDbEntity
  8
POPIS
100
AcDbLine
 10
3039.256689281332
 20
316.6413974659021
 30
0.0
 11
3044.829258458712
 21
308.840545383005
 31
0.0
  0
TEXT
  5
109E
330
1F
100
AcDbEntity
  8
POPIS
100
AcDbText
 10
2847.875642055465
 20
-354.7230099299927
 30
0.0
 40
25.0
  1
Vzduchová mezera - min. 25 mm
 41
0.7
  7
SIMPLEX7
100
AcDbText
  0
TEXT
  5
109F
330
1F
100
AcDbEntity
  8
POPIS
100
AcDbText
 10
2848.763096397806
 20
-425.8178306110125
 30
0.0
 40
25.0
  1
Vodorovná dřevěná lať š=100 mm (tloušťka dle izolace)
 41
0.7
  7
SIMPLEX7
100
AcDbText
  0
TEXT
  5
10A0
330
1F
100
AcDbEntity
  8
POPIS
100
AcDbText
 10
2848.763096397806
 20
-390.1989419129236
 30
0.0
 40
25.0
  1
Pojistná fólie - parozábrana
 41
0.7
  7
SIMPLEX7
100
AcDbText
  0
TEXT
  5
10A1
330
1F
100
AcDbEntity
  8
POPIS
100
AcDbText
 10
2847.875642055465
 20
-318.4244582279429
 30
0.0
 40
25.0
  1
Svislá dřevěné lať 50x25 (100x25), impregnovaná
 41
0.7
  7
SIMPLEX7
100
AcDbText
  0
TEXT
  5
10A2
330
1F
100
AcDbEntity
  8
POPIS
100
AcDbText
 10
2847.919413476067
 20
-460.551374570306
 30
0.0
 40
25.0
  1
Tepelná izolace (np. ORSIL, ROCKWOOL, ISOVER, NOBASIL)
 41
0.7
  7
SIMPLEX7
100
AcDbText
  0
TEXT
  5
10A3
330
1F
100
AcDbEntity
  8
POPIS
100
AcDbText
 10
2792.930896318203
 20
-496.4842842008797
 30
0.0
 40
25.0
  1
08
 41
0.85
  7
SIMPLEX7
100
AcDbText
  0
TEXT
  5
10A4
330
1F
100
AcDbEntity
  8
POPIS
100
AcDbText
 10
2793.455298922674
 20
-354.3573678585167
 30
0.0
 40
25.0
  1
04
 41
0.85
  7
SIMPLEX7
100
AcDbText
  0
TEXT
  5
10A5
330
1F
100
AcDbEntity
  8
POPIS
100
AcDbText
 10
2792.041411692034
 20
-426.1318515434973
 30
0.0
 40
25.0
  1
06
 41
0.85
  7
SIMPLEX7
100
AcDbText
  0
TEXT
  5
10A6
330
1F
100
AcDbEntity
  8
POPIS
100
AcDbText
 10
2792.041411692034
 20
-461.7507402415863
 30
0.0
 40
25.0
  1
07
 41
0.85
  7
SIMPLEX7
100
AcDbText
  0
TEXT
  5
10A7
330
1F
100
AcDbEntity
  8
POPIS
100
AcDbText
 10
2791.153957349694
 20
-390.6559195605664
 30
0.0
 40
25.0
  1
05
 41
0.85
  7
SIMPLEX7
100
AcDbText
  0
LINE
  5
10A8
330
1F
100
AcDbEntity
  8
SPOJOVACÍ
100
AcDbLine
 10
3132.904670907652
 20
80.87268286864263
 30
0.0
 11
3134.138484948378
 21
76.26802618157262
 31
0.0
  0
LINE
  5
10A9
330
1F
100
AcDbEntity
  8
SPOJOVACÍ
100
AcDbLine
 10
3130.958179347972
 20
81.13949300167451
 30
0.0
 11
3132.276541635883
 21
76.21929796041195
 31
0.0
  0
LINE
  5
10AA
330
1F
100
AcDbEntity
  8
SPOJOVACÍ
100
AcDbLine
 10
3057.080986969571
 20
64.66812536327006
 30
0.0
 11
3054.223095474464
 21
64.66812536327006
 31
0.0
  0
LINE
  5
10AB
330
1F
100
AcDbEntity
  8
SPOJOVACÍ
100
AcDbLine
 10
3054.223095474464
 20
92.79312536327006
 30
0.0
 11
3057.080986969571
 21
92.79312536327006
 31
0.0
  0
LWPOLYLINE
  5
10AC
330
1F
100
AcDbEntity
  8
NOSNÉ KONSTRUKCE
100
AcDbPolyline
 90
        4
 70
     1
 43
0.0
 10
3054.223095474464
 20
28.57094522693796
 10
3137.894508406212
 20
28.57094522693796
 10
3137.894508406212
 20
128.5709452269379
 10
3054.223095474464
 20
128.5709452269379
  0
LWPOLYLINE
  5
10AD
330
1F
100
AcDbEntity
  8
NOSNÉ KONSTRUKCE
100
AcDbPolyline
 90
        6
 70
     0
 43
0.0
 10
3116.329314358545
 20
128.6538758403453
 42
-0.0128837512779301
 10
3115.902126418206
 20
123.6541286077258
 42
-0.0351641677647434
 10
3114.960486835922
 20
118.2485644262174
 42
-0.0187319685742942
 10
3109.884463014436
 20
100.6112084130031
 42
-0.0582629403736403
 10
3107.395213212314
 20
95.24145711460505
 42
-0.0636293101863209
 10
3094.133743618788
 20
78.76014881437959
 42
-0.0636293101863209
  0
LWPOLYLINE
  5
10AE
330
1F
100
AcDbEntity
  8
NOSNÉ KONSTRUKCE
100
AcDbPolyline
 90
        2
 70
     0
 43
0.0
 10
3135.358988163896
 20
81.64846058973171
 42
-0.2104338366210547
 10
3055.274334204115
 20
28.73062536327188
  0
LWPOLYLINE
  5
10AF
330
1F
100
AcDbEntity
  8
NOSNÉ KONSTRUKCE
100
AcDbPolyline
 90
        2
 70
     0
 43
0.0
 10
3137.894508406212
 20
54.35924203896092
 42
-0.1112051866389916
 10
3106.623616978549
 20
28.73062536327188
  0
LWPOLYLINE
  5
10B0
330
1F
100
AcDbEntity
  8
NOSNÉ KONSTRUKCE
100
AcDbPolyline
 90
        4
 70
     0
 43
0.0
 10
3131.613908764547
 20
128.6538758403453
 42
-0.0135911980674875
 10
3126.035211728709
 20
98.16083606664642
 42
-0.0219777111230329
 10
3124.676042975732
 20
92.8836661828932
 42
-0.2158759397126542
 10
3054.223095474464
 20
43.77909889483134
 42
-0.0618986513001703
  0
LWPOLYLINE
  5
10B1
330
1F
100
AcDbEntity
  8
NOSNÉ KONSTRUKCE
100
AcDbPolyline
 90
        3
 70
     0
 43
0.0
 10
3101.437242466343
 20
97.7276553141478
 10
3118.192460086071
 20
89.34391444617949
 10
3126.359564735196
 20
81.16261274508223
  0
LINE
  5
10B2
330
1F
100
AcDbEntity
  8
SPOJOVACÍ
100
AcDbLine
 10
3129.074525712285
 20
81.17178880973415
 30
0.0
 11
3130.41198356608
 21
76.180328146394
 31
0.0
  0
LINE
  5
10B3
330
1F
100
AcDbEntity
  8
SPOJOVACÍ
100
AcDbLine
 10
3127.1935664916
 20
81.19402892410699
 30
0.0
 11
3128.544800561428
 21
76.15115472258139
 31
0.0
  0
LINE
  5
10B4
330
1F
100
AcDbEntity
  8
SPOJOVACÍ
100
AcDbLine
 10
3125.315289651471
 20
81.20625825794878
 30
0.0
 11
3126.674982157701
 21
76.1318167420236
 31
0.0
  0
LINE
  5
10B5
330
1F
100
AcDbEntity
  8
SPOJOVACÍ
100
AcDbLine
 10
3123.439683472226
 20
81.20852054970191
 30
0.0
 11
3124.802517598951
 21
76.12235434646891
 31
0.0
  0
LINE
  5
10B6
330
1F
100
AcDbEntity
  8
SPOJOVACÍ
100
AcDbLine
 10
3121.566736543112
 20
81.20085838484602
 30
0.0
 11
3122.927395832304
 21
76.12280878578303
 31
0.0
  0
LINE
  5
10B7
330
1F
100
AcDbEntity
  8
SPOJOVACÍ
100
AcDbLine
 10
3116.397452959927
 20
81.11873414669252
 30
0.0
 11
3117.719683481473
 21
76.1841026609759
 31
0.0
  0
LINE
  5
10B8
330
1F
100
AcDbEntity
  8
SPOJOVACÍ
100
AcDbLine
 10
3117.821437756696
 20
81.18331321689538
 30
0.0
 11
3119.16913494672
 21
76.15363883050076
 31
0.0
  0
LINE
  5
10B9
330
1F
100
AcDbEntity
  8
SPOJOVACÍ
100
AcDbLine
 10
3119.696437756696
 20
81.18331321689538
 30
0.0
 11
3121.049605502585
 21
76.13322243806533
 31
0.0
  0
LINE
  5
10BA
330
1F
100
AcDbEntity
  8
SPOJOVACÍ
100
AcDbLine
 10
3119.994001334327
 20
80.07279082668764
 30
0.0
 11
3120.632399308435
 21
77.69025715186717
 31
0.0
  0
LINE
  5
10BB
330
1F
100
AcDbEntity
  8
SPOJOVACÍ
100
AcDbLine
 10
3118.15976831495
 20
79.92064638373403
 30
0.0
 11
3118.725938146154
 21
77.80767180796601
 31
0.0
  0
LINE
  5
10BC
330
1F
100
AcDbEntity
  8
SPOJOVACÍ
100
AcDbLine
 10
3116.761761247018
 20
79.75911710964601
 30
0.0
 11
3117.252424637705
 21
77.92793640618447
 31
0.0
  0
LINE
  5
10BD
330
1F
100
AcDbEntity
  8
SPOJOVACÍ
100
AcDbLine
 10
3112.675223500145
 20
81.01509307964761
 30
0.0
 11
3113.945231843476
 21
76.27535741629936
 31
0.0
  0
LINE
  5
10BE
330
1F
100
AcDbEntity
  8
SPOJOVACÍ
100
AcDbLine
 10
3114.505149050221
 20
81.18331321689538
 30
0.0
 11
3115.833816223332
 21
76.22465982047606
 31
0.0
  0
LINE
  5
10BF
330
1F
100
AcDbEntity
  8
SPOJOVACÍ
100
AcDbLine
 10
3110.097520160298
 20
80.94871645816192
 30
0.0
 11
3111.333428485204
 21
76.33624379611456
 31
0.0
  0
LINE
  5
10C0
330
1F
100
AcDbEntity
  8
SPOJOVACÍ
100
AcDbLine
 10
3108.242893299206
 20
80.87268286864263
 30
0.0
 11
3109.439370658705
 21
76.40736857289403
 31
0.0
  0
LINE
  5
10C1
330
1F
100
AcDbEntity
  8
SPOJOVACÍ
  6
DASHED
100
AcDbLine
 10
3187.472489245358
 20
74.16812536326642
 30
0.0
 11
3061.848908922247
 21
74.16812536326824
 31
0.0
  0
LINE
  5
10C2
330
1F
100
AcDbEntity
  8
SPOJOVACÍ
  6
DASHED
100
AcDbLine
 10
3187.472489245361
 20
83.29312536327279
 30
0.0
 11
3061.848908922247
 21
83.29312536327188
 31
0.0
  0
LINE
  5
10C3
330
1F
100
AcDbEntity
  8
SPOJOVACÍ
  6
DASHDOT2
100
AcDbLine
 10
3046.425962455408
 20
78.73062536327188
 30
0.0
 11
3231.672947816695
 21
78.73062536327279
 31
0.0
  0
LINE
  5
10C4
330
1F
100
AcDbEntity
  8
SPOJOVACÍ
  6
DASHED
100
AcDbLine
 10
3195.692788706981
 20
72.16812536327279
 30
0.0
 11
3062.835269651225
 21
72.16812536326824
 31
0.0
  0
LINE
  5
10C5
330
1F
100
AcDbEntity
  8
SPOJOVACÍ
  6
DASHED
100
AcDbLine
 10
3195.692788706985
 20
85.29312536327187
 30
0.0
 11
3062.835269651225
 21
85.29312536327187
 31
0.0
  0
LWPOLYLINE
  5
10C6
330
1F
100
AcDbEntity
  8
NOSNÉ KONSTRUKCE
100
AcDbPolyline
 90
        7
 70
     0
 43
0.0
 10
3058.737863954148
 20
128.7306253632718
 42
-0.0203924744732807
 10
3057.835779969738
 20
127.7174953341177
 42
-0.0273961979096945
 10
3056.985915619543
 20
126.9293189600916
 42
-0.0243529190212958
 10
3055.822795127124
 20
126.055559615424
 42
-0.0398020282482987
 10
3055.047836589567
 20
125.6159308719775
 42
-0.104168275620852
 10
3054.661425453223
 20
125.5259144118003
 42
-0.007272956268647
 10
3054.223095474464
 20
125.5074610605056
 42
-0.007272956268647
  0
POLYLINE
  5
10C7
330
1F
100
AcDbEntity
  8
NOSNÉ KONSTRUKCE
100
AcDb2dPolyline
 66
     1
 10
0.0
 20
0.0
 30
0.0
  0
VERTEX
  5
10C8
330
10C7
100
AcDbEntity
  8
NOSNÉ KONSTRUKCE
100
AcDbVertex
100
AcDb2dVertex
 10
3064.087550288668
 20
128.73062536327
 30
0.0
 42
-0.0064239028828688
  0
VERTEX
  5
10C9
330
10C7
100
AcDbEntity
  8
NOSNÉ KONSTRUKCE
100
AcDbVertex
100
AcDb2dVertex
 10
3064.048681848484
 20
128.5115117039199
 30
0.0
 42
-0.0832048017309575
  0
VERTEX
  5
10CA
330
10C7
100
AcDbEntity
  8
NOSNÉ KONSTRUKCE
100
AcDbVertex
100
AcDb2dVertex
 10
3063.264499245806
 20
126.1812981242651
 30
0.0
 42
-0.0336767237692336
  0
VERTEX
  5
10CB
330
10C7
100
AcDbEntity
  8
NOSNÉ KONSTRUKCE
100
AcDbVertex
100
AcDb2dVertex
 10
3061.561682686884
 20
123.4530236048044
 30
0.0
 42
-0.0844635135812105
  0
VERTEX
  5
10CC
330
10C7
100
AcDbEntity
  8
NOSNÉ KONSTRUKCE
100
AcDbVertex
100
AcDb2dVertex
 10
3060.641872926991
 20
122.5486019998093
 30
0.0
 42
-0.0495829410719565
  0
VERTEX
  5
10CD
330
10C7
100
AcDbEntity
  8
NOSNÉ KONSTRUKCE
100
AcDbVertex
100
AcDb2dVertex
 10
3058.893194489638
 20
121.5719524924966
 30
0.0
 42
-0.0322692699774654
  0
VERTEX
  5
10CE
330
10C7
100
AcDbEntity
  8
NOSNÉ KONSTRUKCE
100
AcDbVertex
100
AcDb2dVertex
 10
3056.001840308546
 20
120.5304289910959
 30
0.0
 42
-0.0276160659512937
  0
VERTEX
  5
10CF
330
10C7
100
AcDbEntity
  8
NOSNÉ KONSTRUKCE
100
AcDbVertex
100
AcDb2dVertex
 10
3055.146263870256
 20
120.3336935621514
 30
0.0
 42
-0.0126891984598699
  0
VERTEX
  5
10D0
330
10C7
100
AcDbEntity
  8
NOSNÉ KONSTRUKCE
100
AcDbVertex
100
AcDb2dVertex
 10
3054.223095474464
 20
120.1984911726099
 30
0.0
  0
SEQEND
  5
10D1
330
10C7
100
AcDbEntity
  8
NOSNÉ KONSTRUKCE
  0
POLYLINE
  5
10D2
330
1F
100
AcDbEntity
  8
NOSNÉ KONSTRUKCE
100
AcDb2dPolyline
 66
     1
 10
0.0
 20
0.0
 30
0.0
  0
VERTEX
  5
10D3
330
10D2
100
AcDbEntity
  8
NOSNÉ KONSTRUKCE
100
AcDbVertex
100
AcDb2dVertex
 10
3071.315601309403
 20
128.73062536327
 30
0.0
 42
-0.0072417954699014
  0
VERTEX
  5
10D4
330
10D2
100
AcDbEntity
  8
NOSNÉ KONSTRUKCE
100
AcDbVertex
100
AcDb2dVertex
 10
3071.260030941563
 20
128.3192201519955
 30
0.0
 42
-0.0707158694326265
  0
VERTEX
  5
10D5
330
10D2
100
AcDbEntity
  8
NOSNÉ KONSTRUKCE
100
AcDbVertex
100
AcDb2dVertex
 10
3070.728904425143
 20
126.3831166994018
 30
0.0
 42
-0.033952657250207
  0
VERTEX
  5
10D6
330
10D2
100
AcDbEntity
  8
NOSNÉ KONSTRUKCE
100
AcDbVertex
100
AcDb2dVertex
 10
3068.480248585734
 20
122.0300789742282
 30
0.0
 42
-0.0571374688189033
  0
VERTEX
  5
10D7
330
10D2
100
AcDbEntity
  8
NOSNÉ KONSTRUKCE
100
AcDbVertex
100
AcDb2dVertex
 10
3066.694091825882
 20
119.7231546905418
 30
0.0
 42
-0.0274923553235744
  0
VERTEX
  5
10D8
330
10D2
100
AcDbEntity
  8
NOSNÉ KONSTRUKCE
100
AcDbVertex
100
AcDb2dVertex
 10
3064.096786095329
 20
117.3380793674073
 30
0.0
 42
-0.0255412025538677
  0
VERTEX
  5
10D9
330
10D2
100
AcDbEntity
  8
NOSNÉ KONSTRUKCE
100
AcDbVertex
100
AcDb2dVertex
 10
3061.045356057618
 20
115.0813656903878
 30
0.0
 42
-0.0272796991712396
  0
VERTEX
  5
10DA
330
10D2
100
AcDbEntity
  8
NOSNÉ KONSTRUKCE
100
AcDbVertex
100
AcDb2dVertex
 10
3056.932356904433
 20
112.6650298087256
 30
0.0
 42
-0.056967459841729
  0
VERTEX
  5
10DB
330
10D2
100
AcDbEntity
  8
NOSNÉ KONSTRUKCE
100
AcDbVertex
100
AcDb2dVertex
 10
3054.791409623698
 20
111.8522939735262
 30
0.0
 42
-0.0373408083348504
  0
VERTEX
  5
10DC
330
10D2
100
AcDbEntity
  8
NOSNÉ KONSTRUKCE
100
AcDbVertex
100
AcDb2dVertex
 10
3054.569055248224
 20
111.813128432575
 30
0.0
 42
-0.0052305969362967
  0
VERTEX
  5
10DD
330
10D2
100
AcDbEntity
  8
NOSNÉ KONSTRUKCE
100
AcDbVertex
100
AcDb2dVertex
 10
3054.223095474464
 20
111.7821714656706
 30
0.0
  0
SEQEND
  5
10DE
330
10D2
100
AcDbEntity
  8
NOSNÉ KONSTRUKCE
  0
LWPOLYLINE
  5
10DF
330
1F
100
AcDbEntity
  8
NOSNÉ KONSTRUKCE
100
AcDbPolyline
 90
        3
 70
     0
 43
0.0
 10
3080.224070557413
 20
122.2314557940167
 10
3100.220322989406
 20
113.0154267434968
 10
3104.22026062312
 20
112.3700292681546
  0
LWPOLYLINE
  5
10E0
330
1F
100
AcDbEntity
  8
NOSNÉ KONSTRUKCE
100
AcDbPolyline
 90
        3
 70
     0
 43
0.0
 10
3059.835151492623
 20
78.87445505328969
 10
3079.831403924616
 20
69.65842600276983
 10
3083.83134155833
 20
69.01302852742765
  0
LWPOLYLINE
  5
10E1
330
1F
100
AcDbEntity
  8
NOSNÉ KONSTRUKCE
100
AcDbPolyline
 90
        2
 70
     0
 43
0.0
 10
3087.854063403965
 20
73.29403087320724
 42
-0.1134617175825293
 10
3054.028976665277
 20
57.35393483030339
  0
LWPOLYLINE
  5
10E2
330
1F
100
AcDbEntity
  8
NOSNÉ KONSTRUKCE
100
AcDbPolyline
 90
       10
 70
     0
 43
0.0
 10
3078.265379333088
 20
128.7306253632718
 42
-0.0168162630274194
 10
3078.130353754028
 20
127.0395872111526
 42
-0.0575155827655532
 10
3077.450321473681
 20
123.9399625504352
 42
-0.0310289133982999
 10
3074.447520128857
 20
116.6949350257905
 42
-0.0882970623535771
 10
3072.810298208764
 20
114.4545659749905
 42
-0.0171636441953577
 10
3069.996934146902
 20
111.9406486197453
 42
-0.0157521173632038
 10
3066.758079309866
 20
109.4091525672388
 42
-0.0073640874174249
 10
3062.124429953545
 20
106.1207511415027
 42
-0.0194185739168057
 10
3060.302386633868
 20
104.9691821422215
 42
-0.0567960585128809
 10
3054.223095474464
 20
102.3173179368454
 42
-0.0229547400386702
  0
LWPOLYLINE
  5
10E3
330
1F
100
AcDbEntity
  8
NOSNÉ KONSTRUKCE
100
AcDbPolyline
 90
        3
 70
     0
 43
0.0
 10
3060.931492932168
 20
123.2132946677534
 10
3077.686710551896
 20
114.8295537997851
 10
3085.85381520102
 20
106.6482520986878
  0
LWPOLYLINE
  5
10E4
330
1F
100
AcDbEntity
  8
NOSNÉ KONSTRUKCE
100
AcDbPolyline
 90
        8
 70
     0
 43
0.0
 10
3087.132438556602
 20
128.7306253632718
 42
-0.0120721047703132
 10
3087.063455866561
 20
126.9967372245278
 42
-0.044358077361292
 10
3086.667828131887
 20
124.300937206111
 42
-0.0188067511131767
 10
3084.648004683504
 20
117.0587080308046
 42
-0.0457786284636091
 10
3083.439981793888
 20
114.2100976479246
 42
-0.0295006114745606
 10
3081.023921339589
 20
110.2831984345225
 42
-0.0258674098621065
 10
3077.791246025625
 20
106.1374183557686
 42
-0.2409478365688615
 10
3054.223095474464
 20
91.71287091079511
 42
-0.0884720560394402
  0
LWPOLYLINE
  5
10E5
330
1F
100
AcDbEntity
  8
NOSNÉ KONSTRUKCE
100
AcDbPolyline
 90
        4
 70
     0
 43
0.0
 10
3105.946383540648
 20
128.7306253632718
 42
-0.0135911980674876
 10
3102.227252183422
 20
108.4019321808059
 42
-0.0219777111230329
 10
3101.321139681434
 20
104.8838189249704
 42
-0.2163722049316613
 10
3054.223095474464
 20
72.12355397094097
  0
LWPOLYLINE
  5
10E6
330
1F
100
AcDbEntity
  8
NOSNÉ KONSTRUKCE
100
AcDbPolyline
 90
        6
 70
     0
 43
0.0
 10
3095.756653936643
 20
128.7306253632718
 42
-0.0128837512779302
 10
3095.471861976415
 20
125.3974605415255
 42
-0.0351641677647434
 10
3094.844102254892
 20
121.7937510871865
 42
-0.0187319685742942
 10
3091.460086373901
 20
110.0355137450437
 42
-0.0582629403736403
 10
3089.80058650582
 20
106.4556795461117
 42
-0.2042445348716764
 10
3054.223095474464
 20
81.19733135657725
  0
LINE
  5
10E7
330
1F
100
AcDbEntity
  8
SPOJOVACÍ
100
AcDbLine
 10
3056.09462624059
 20
66.66812536327006
 30
0.0
 11
3061.848908922247
 21
74.16812536326824
 31
0.0
  0
LINE
  5
10E8
330
1F
100
AcDbEntity
  8
SPOJOVACÍ
100
AcDbLine
 10
3056.09462624059
 20
90.79312536327007
 30
0.0
 11
3061.848908922247
 21
83.29312536327188
 31
0.0
  0
LINE
  5
10E9
330
1F
100
AcDbEntity
  8
SPOJOVACÍ
100
AcDbLine
 10
3057.080986969571
 20
64.66812536327006
 30
0.0
 11
3062.835269651225
 21
72.16812536326824
 31
0.0
  0
LINE
  5
10EA
330
1F
100
AcDbEntity
  8
SPOJOVACÍ
100
AcDbLine
 10
3057.080986969571
 20
92.79312536327006
 30
0.0
 11
3062.835269651225
 21
85.29312536327187
 31
0.0
  0
LINE
  5
10EB
330
1F
100
AcDbEntity
  8
SPOJOVACÍ
100
AcDbLine
 10
3106.39084488899
 20
80.78702636945809
 30
0.0
 11
3107.542555822283
 21
76.48878265076337
 31
0.0
  0
LINE
  5
10EC
330
1F
100
AcDbEntity
  8
SPOJOVACÍ
100
AcDbLine
 10
3102.694448238077
 20
80.58697594722024
 30
0.0
 11
3103.74059878769
 21
76.6826889436893
 31
0.0
  0
LINE
  5
10ED
330
1F
100
AcDbEntity
  8
SPOJOVACÍ
100
AcDbLine
 10
3104.541366068655
 20
80.69178003027763
 30
0.0
 11
3105.642969983093
 21
76.58053825177876
 31
0.0
  0
LINE
  5
10EE
330
1F
100
AcDbEntity
  8
SPOJOVACÍ
100
AcDbLine
 10
3097.168978515377
 20
80.2155238954433
 30
0.0
 11
3098.016623957248
 21
77.05206803956162
 31
0.0
  0
LINE
  5
10EF
330
1F
100
AcDbEntity
  8
SPOJOVACÍ
100
AcDbLine
 10
3100.850083054071
 20
80.47264525744731
 30
0.0
 11
3101.835427514348
 21
76.79528966872339
 31
0.0
  0
LINE
  5
10F0
330
1F
100
AcDbEntity
  8
SPOJOVACÍ
100
AcDbLine
 10
3099.008262426648
 20
80.3488181532225
 30
0.0
 11
3099.927441065063
 21
76.91839677342023
 31
0.0
  0
LINE
  5
10F1
330
1F
100
AcDbEntity
  8
SPOJOVACÍ
100
AcDbLine
 10
3095.332223725881
 20
80.07279082668764
 30
0.0
 11
3096.10296031516
 21
77.19636271624176
 31
0.0
  0
LINE
  5
10F2
330
1F
100
AcDbEntity
  8
SPOJOVACÍ
100
AcDbLine
 10
3093.497990706504
 20
79.92064638373403
 30
0.0
 11
3094.186433860972
 21
77.35134155313835
 31
0.0
  0
LINE
  5
10F3
330
1F
100
AcDbEntity
  8
SPOJOVACÍ
100
AcDbLine
 10
3091.666272345048
 20
79.75911710964601
 30
0.0
 11
3092.267027905529
 21
77.51706683499515
 31
0.0
  0
LINE
  5
10F4
330
1F
100
AcDbEntity
  8
SPOJOVACÍ
100
AcDbLine
 10
3089.837061765696
 20
79.58822866535365
 30
0.0
 11
3090.344725338791
 21
77.69360241740788
 31
0.0
  0
LINE
  5
10F5
330
1F
100
AcDbEntity
  8
SPOJOVACÍ
100
AcDbLine
 10
3088.010352325987
 20
79.40800584080853
 30
0.0
 11
3088.419508619828
 21
77.88101376394798
 31
0.0
  0
LINE
  5
10F6
330
1F
100
AcDbEntity
  8
SPOJOVACÍ
100
AcDbLine
 10
3086.186137613998
 20
79.2184725656839
 30
0.0
 11
3086.430668149855
 21
78.30587218185929
 31
0.0
  0
LINE
  5
10F7
330
1F
100
AcDbEntity
  8
SPOJOVACÍ
100
AcDbLine
 10
3084.364411445536
 20
79.01965191965382
 30
0.0
 11
3084.520377408478
 21
78.43757902170864
 31
0.0
  0
LINE
  5
10F8
330
1F
100
AcDbEntity
  8
STAVBA OBRYS
  6
IZOLACE
 48
4.099999999999999
100
AcDbLine
 10
3096.205833868733
 20
128.5709452269379
 30
0.0
 11
3096.205833868733
 21
595.0245501693157
 31
0.0
  0
LWPOLYLINE
  5
10F9
330
1F
100
AcDbEntity
  8
STAVBA OBRYS
100
AcDbPolyline
 90
        2
 70
     0
 43
0.0
 10
3137.894508406212
 20
85.76772279589613
 42
-0.0020939004487291
 10
3137.385438169423
 20
84.90999935290119
  0
LINE
  5
10FA
330
1F
100
AcDbEntity
  8
SPOJOVACÍ
100
AcDbLine
 10
3136.408089722715
 20
81.18331321689538
 30
0.0
 11
3137.736756895827
 21
76.22465982047606
 31
0.0
  0
LINE
  5
10FB
330
1F
100
AcDbEntity
  8
SPOJOVACÍ
100
AcDbLine
 10
3134.578164172641
 20
81.01509307964761
 30
0.0
 11
3135.848172515971
 21
76.27535741629936
 31
0.0
  0
LINE
  5
10FC
330
1F
100
AcDbEntity
  8
SPOJOVACÍ
100
AcDbLine
 10
3138.664701919513
 20
79.75911710964601
 30
0.0
 11
3139.1553653102
 21
77.92793640618447
 31
0.0
  0
LINE
  5
10FD
330
1F
100
AcDbEntity
  8
SPOJOVACÍ
100
AcDbLine
 10
3140.496420280969
 20
79.92064638373403
 30
0.0
 11
3141.062590112173
 21
77.80767180796601
 31
0.0
  0
LINE
  5
10FE
330
1F
100
AcDbEntity
  8
SPOJOVACÍ
100
AcDbLine
 10
3142.330653300346
 20
80.07279082668764
 30
0.0
 11
3142.969051274454
 21
77.69025715186717
 31
0.0
  0
LINE
  5
10FF
330
1F
100
AcDbEntity
  8
SPOJOVACÍ
100
AcDbLine
 10
3142.033089722715
 20
81.18331321689538
 30
0.0
 11
3143.386257468604
 21
76.13322243806533
 31
0.0
  0
LINE
  5
1100
330
1F
100
AcDbEntity
  8
SPOJOVACÍ
100
AcDbLine
 10
3140.158089722715
 20
81.18331321689538
 30
0.0
 11
3141.505786912739
 21
76.15363883050076
 31
0.0
  0
LINE
  5
1101
330
1F
100
AcDbEntity
  8
SPOJOVACÍ
100
AcDbLine
 10
3138.300393632422
 20
81.11873414669252
 30
0.0
 11
3139.622624153968
 21
76.1841026609759
 31
0.0
  0
LINE
  5
1102
330
1F
100
AcDbEntity
  8
SPOJOVACÍ
100
AcDbLine
 10
3143.903388509132
 20
81.20085838484602
 30
0.0
 11
3145.264047798324
 21
76.12280878578303
 31
0.0
  0
LINE
  5
1103
330
1F
100
AcDbEntity
  8
SPOJOVACÍ
100
AcDbLine
 10
3145.776335438246
 20
81.20852054970191
 30
0.0
 11
3147.139169564971
 21
76.12235434646891
 31
0.0
  0
LINE
  5
1104
330
1F
100
AcDbEntity
  8
SPOJOVACÍ
100
AcDbLine
 10
3147.65194161749
 20
81.20625825794878
 30
0.0
 11
3149.01163412372
 21
76.1318167420236
 31
0.0
  0
LINE
  5
1105
330
1F
100
AcDbEntity
  8
SPOJOVACÍ
100
AcDbLine
 10
3149.530218457619
 20
81.19402892410699
 30
0.0
 11
3150.881452527448
 21
76.15115472258139
 31
0.0
  0
LINE
  5
1106
330
1F
100
AcDbEntity
  8
SPOJOVACÍ
100
AcDbLine
 10
3151.411177678304
 20
81.17178880973415
 30
0.0
 11
3152.7486355321
 21
76.180328146394
 31
0.0
  0
LINE
  5
1107
330
1F
100
AcDbEntity
  8
SPOJOVACÍ
100
AcDbLine
 10
3153.294831313991
 20
81.13949300167451
 30
0.0
 11
3154.613193601903
 21
76.21929796041195
 31
0.0
  0
LINE
  5
1108
330
1F
100
AcDbEntity
  8
SPOJOVACÍ
  6
DASHED
100
AcDbLine
 10
3199.481649848539
 20
78.73062536327279
 30
0.0
 11
3195.692788706981
 21
72.16812536327279
 31
0.0
  0
LINE
  5
1109
330
1F
100
AcDbEntity
  8
SPOJOVACÍ
  6
DASHED
100
AcDbLine
 10
3190.106649848539
 20
78.73062536327279
 30
0.0
 11
3187.472489245358
 21
74.16812536326642
 31
0.0
  0
LINE
  5
110A
330
1F
100
AcDbEntity
  8
SPOJOVACÍ
100
AcDbLine
 10
3181.882188890324
 20
79.41395103555215
 30
0.0
 11
3182.272849273895
 21
77.95598663556075
 31
0.0
  0
LINE
  5
110B
330
1F
100
AcDbEntity
  8
SPOJOVACÍ
100
AcDbLine
 10
3187.67712183076
 20
78.77975266794919
 30
0.0
 11
3187.736678046857
 21
78.55748584356797
 31
0.0
  0
LINE
  5
110C
330
1F
100
AcDbEntity
  8
SPOJOVACÍ
100
AcDbLine
 10
3185.742510892529
 20
79.00222371813424
 30
0.0
 11
3185.917885286837
 21
78.34771756821783
 31
0.0
  0
LINE
  5
110D
330
1F
100
AcDbEntity
  8
SPOJOVACÍ
100
AcDbLine
 10
3183.810872906511
 20
79.21359955958132
 30
0.0
 11
3184.096611001985
 21
78.14721046962268
 31
0.0
  0
LINE
  5
110E
330
1F
100
AcDbEntity
  8
SPOJOVACÍ
100
AcDbLine
 10
3179.956440326632
 20
79.60334725364692
 30
0.0
 11
3180.446593959519
 21
77.77406899220432
 31
0.0
  0
LINE
  5
110F
330
1F
100
AcDbEntity
  8
SPOJOVACÍ
100
AcDbLine
 10
3178.033609151995
 20
79.78185562758472
 30
0.0
 11
3178.617838688542
 21
77.6014813139077
 31
0.0
  0
LINE
  5
1110
330
1F
100
AcDbEntity
  8
SPOJOVACÍ
100
AcDbLine
 10
3176.113677746047
 20
79.94954191743045
 30
0.0
 11
3176.78657686064
 21
77.43824823340265
 31
0.0
  0
LINE
  5
1111
330
1F
100
AcDbEntity
  8
SPOJOVACÍ
100
AcDbLine
 10
3174.196628921139
 20
80.10647026838659
 30
0.0
 11
3174.962281865189
 21
77.24901458023897
 31
0.0
  0
LINE
  5
1112
330
1F
100
AcDbEntity
  8
SPOJOVACÍ
  6
DASHED
100
AcDbLine
 10
3190.106649848539
 20
78.7306253632737
 30
0.0
 11
3187.472489245361
 21
83.29312536327279
 31
0.0
  0
LINE
  5
1113
330
1F
100
AcDbEntity
  8
SPOJOVACÍ
  6
DASHED
100
AcDbLine
 10
3199.481649848539
 20
78.73062536327279
 30
0.0
 11
3195.692788706985
 21
85.29312536327187
 31
0.0
  0
LINE
  5
1114
330
1F
100
AcDbEntity
  8
SPOJOVACÍ
100
AcDbLine
 10
3168.542408089836
 20
80.2155238954433
 30
0.0
 11
3169.436323760599
 21
76.87938519448789
 31
0.0
  0
LINE
  5
1115
330
1F
100
AcDbEntity
  8
SPOJOVACÍ
100
AcDbLine
 10
3160.856642056887
 20
80.90881216872867
 30
0.0
 11
3162.04537588322
 21
76.47239713219414
 31
0.0
  0
LINE
  5
1116
330
1F
100
AcDbEntity
  8
SPOJOVACÍ
100
AcDbLine
 10
3162.753959736377
 20
80.82552145497492
 30
0.0
 11
3163.890039513359
 21
76.58561400582721
 31
0.0
  0
LINE
  5
1117
330
1F
100
AcDbEntity
  8
SPOJOVACÍ
100
AcDbLine
 10
3164.654051001702
 20
80.73187957795699
 30
0.0
 11
3165.745968857203
 21
76.65678666354643
 31
0.0
  0
LINE
  5
1118
330
1F
100
AcDbEntity
  8
SPOJOVACÍ
100
AcDbLine
 10
3166.556930272692
 20
80.62783272214938
 30
0.0
 11
3167.592421887258
 21
76.76332540576504
 31
0.0
  0
LINE
  5
1119
330
1F
100
AcDbEntity
  8
SPOJOVACÍ
100
AcDbLine
 10
3158.953164172641
 20
81.01509307964761
 30
0.0
 11
3160.191218572921
 21
76.39461115525455
 31
0.0
  0
LINE
  5
111A
330
1F
100
AcDbEntity
  8
SPOJOVACÍ
100
AcDbLine
 10
3157.095949734763
 20
80.94871645816192
 30
0.0
 11
3158.193382668503
 21
76.8530409915461
 31
0.0
  0
LINE
  5
111B
330
1F
100
AcDbEntity
  8
SPOJOVACÍ
100
AcDbLine
 10
3155.241322873671
 20
80.87268286864263
 30
0.0
 11
3156.475136914398
 21
76.26802618157262
 31
0.0
  0
LINE
  5
111C
330
1F
100
AcDbEntity
  8
SPOJOVACÍ
100
AcDbLine
 10
3170.381692001114
 20
80.3488181532225
 30
0.0
 11
3171.27768252156
 21
77.00493600780237
 31
0.0
  0
LINE
  5
111D
330
1F
100
AcDbEntity
  8
SPOJOVACÍ
100
AcDbLine
 10
3172.282445912305
 20
80.25270324815165
 30
0.0
 11
3173.116505965581
 21
77.13994875276103
 31
0.0
  0
LINE
  5
111E
330
1F
100
AcDbEntity
  8
PROFILY
100
AcDbLine
 10
3052.223095474457
 20
595.7386427145193
 30
0.0
 11
3052.223095474453
 21
28.57094522693796
 31
0.0
  0
LINE
  5
111F
330
1F
100
AcDbEntity
  8
PROFILY
100
AcDbLine
 10
3054.223095474464
 20
595.706171223599
 30
0.0
 11
3054.223095474457
 21
28.57094522693842
 31
0.0
  0
HATCH
  5
1120
330
1F
100
AcDbEntity
  8
PROFILY
100
AcDbHatch
 10
0.0
 20
0.0
 30
0.0
210
0.0
220
0.0
230
1.0
  2
SOLID
 70
     1
 71
     0
 91
        4
 92
        7
 72
     0
 73
     1
 93
        4
 10
3054.223095474457
 20
54.19358022917231
 10
3052.223095474457
 20
54.19358022917231
 10
3052.223095474457
 20
35.01122508462367
 10
3054.223095474457
 20
35.01122508462367
 97
        0
 92
        7
 72
     0
 73
     1
 93
        4
 10
3054.223095474457
 20
90.00850007537747
 10
3052.223095474457
 20
90.00850007537747
 10
3052.223095474453
 20
78.73062536327188
 10
3054.223095474461
 20
78.73062536327188
 97
        0
 92
        7
 72
     1
 73
     1
 93
        7
 10
3054.223095474457
 20
78.73062536327188
 42
0.0
 10
3052.223095474457
 20
78.73062536327188
 42
0.0
 10
3052.223095474457
 20
74.17338524658453
 42
-0.486313530282424
 10
3053.769930036187
 20
72.95914093716328
 42
-0.4863135302824241
 10
3052.223095474457
 20
71.74489662774203
 42
0.0
 10
3052.223095474457
 20
70.82614493082883
 42
0.0
 10
3054.223095474457
 20
70.82614493082883
 42
0.0
 97
        0
 92
        7
 72
     0
 73
     1
 93
        4
 10
3054.223095474457
 20
125.8234199215826
 10
3052.223095474457
 20
125.8234199215826
 10
3052.223095474457
 20
106.6410647770339
 10
3054.223095474457
 20
106.6410647770339
 97
        0
 75
     0
 76
     1
 47
0.2023988941542929
 98
        4
 10
3053.68489871729
 20
42.9497285404741
 10
3053.482362027664
 20
82.61990219907056
 10
3053.482362027664
 20
76.14312936129318
 10
3053.482362027664
 20
110.5509550755905
  0
LWPOLYLINE
  5
1121
330
1F
100
AcDbEntity
  8
PROFILY
100
AcDbPolyline
 90
        4
 70
     1
 43
0.0
 10
3054.223095474457
 20
54.19358022917231
 10
3054.223095474457
 20
35.01122508462367
 10
3052.223095474457
 20
35.01122508462367
 10
3052.223095474457
 20
54.19358022917231
  0
HATCH
  5
1122
330
1F
100
AcDbEntity
  8
PROFILY
100
AcDbHatch
 10
0.0
 20
0.0
 30
0.0
210
0.0
220
0.0
230
1.0
  2
SOLID
 70
     1
 71
     0
 91
        4
 92
        7
 72
     0
 73
     1
 93
        4
 10
3054.223095474457
 20
160.6437850816751
 10
3052.223095474457
 20
160.6437850816751
 10
3052.223095474457
 20
141.4614299371264
 10
3054.223095474457
 20
141.4614299371264
 97
        0
 92
        7
 72
     0
 73
     1
 93
        4
 10
3054.223095474457
 20
197.448986865706
 10
3052.223095474457
 20
197.448986865706
 10
3052.223095474457
 20
178.2666317211574
 10
3054.223095474457
 20
178.2666317211574
 97
        0
 92
        7
 72
     0
 73
     1
 93
        4
 10
3054.223095474457
 20
236.5526336144489
 10
3052.223095474457
 20
236.5526336144489
 10
3052.223095474457
 20
217.3702784699003
 10
3054.223095474457
 20
217.3702784699003
 97
        0
 92
        7
 72
     0
 73
     1
 93
        4
 10
3054.223095474457
 20
272.9639341510287
 10
3052.223095474457
 20
272.9639341510287
 10
3052.223095474457
 20
253.7815790064801
 10
3054.223095474457
 20
253.7815790064801
 97
        0
 75
     0
 76
     1
 47
0.2832868271764444
 98
        4
 10
3052.756987237377
 20
151.5427369878107
 10
3053.040492024845
 20
188.9366316227769
 10
3053.323919182314
 20
224.6307536152835
 10
3053.323919182314
 20
264.5742112574898
  0
LINE
  5
1123
330
1F
100
AcDbEntity
  8
STAVBA OBRYS
100
AcDbLine
 10
3054.680122954096
 20
28.57094522693796
 30
0.0
 11
3054.680122954114
 21
595.6987510417711
 31
0.0
  0
LINE
  5
1124
330
1F
100
AcDbEntity
  8
PROFILY
100
AcDbLine
 10
3062.815530727222
 20
28.57094522693796
 30
0.0
 11
3062.815530727222
 21
27.13617611778454
 31
0.0
  0
LINE
  5
1125
330
1F
100
AcDbEntity
  8
PROFILY
100
AcDbLine
 10
3073.46479644095
 20
28.57094522693796
 30
0.0
 11
3073.46479644095
 21
27.13617611778454
 31
0.0
  0
LINE
  5
1126
330
1F
100
AcDbEntity
  8
PROFILY
100
AcDbLine
 10
3085.241346211986
 20
28.57094522693796
 30
0.0
 11
3085.241346211986
 21
27.13617611778454
 31
0.0
  0
LINE
  5
1127
330
1F
100
AcDbEntity
  8
PROFILY
100
AcDbLine
 10
3097.017895983021
 20
28.57094522693796
 30
0.0
 11
3097.017895983021
 21
27.13617611778454
 31
0.0
  0
LINE
  5
1128
330
1F
100
AcDbEntity
  8
PROFILY
100
AcDbLine
 10
3108.794445754056
 20
28.57094522693887
 30
0.0
 11
3108.794445754056
 21
27.13617611778545
 31
0.0
  0
LINE
  5
1129
330
1F
100
AcDbEntity
  8
PROFILY
100
AcDbLine
 10
3120.570995525091
 20
28.57094522693978
 30
0.0
 11
3120.570995525091
 21
27.13617611778636
 31
0.0
  0
LINE
  5
112A
330
1F
100
AcDbEntity
  8
CETRIS
100
AcDbLine
 10
3421.640945745259
 20
589.7408685291407
 30
0.0
 11
3051.479361242213
 21
595.7507177942038
 31
0.0
  0
HATCH
  5
112B
330
1F
100
AcDbEntity
  8
PROFILY
100
AcDbHatch
 10
0.0
 20
0.0
 30
0.0
210
0.0
220
0.0
230
1.0
  2
SOLID
 70
     1
 71
     0
 91
        4
 92
        7
 72
     0
 73
     1
 93
        4
 10
3054.223095474457
 20
309.9910832152914
 10
3052.223095474457
 20
309.9910832152914
 10
3052.223095474457
 20
290.8087280707427
 10
3054.223095474457
 20
290.8087280707427
 97
        0
 92
        7
 72
     0
 73
     1
 93
        4
 10
3054.223095474457
 20
346.7962849993223
 10
3052.223095474457
 20
346.7962849993223
 10
3052.223095474457
 20
327.6139298547736
 10
3054.223095474457
 20
327.6139298547736
 97
        0
 92
        7
 72
     0
 73
     1
 93
        4
 10
3054.223095474457
 20
385.8999317480652
 10
3052.223095474457
 20
385.8999317480652
 10
3052.223095474457
 20
366.7175766035165
 10
3054.223095474457
 20
366.7175766035165
 97
        0
 92
        7
 72
     0
 73
     1
 93
        4
 10
3054.223095474457
 20
422.311232284645
 10
3052.223095474457
 20
422.311232284645
 10
3052.223095474457
 20
403.1288771400964
 10
3054.223095474457
 20
403.1288771400964
 97
        0
 75
     0
 76
     1
 47
0.2832868271764444
 98
        4
 10
3052.756987237377
 20
300.8900351214269
 10
3053.040492024845
 20
338.2839297563932
 10
3053.323919182314
 20
373.9780517488998
 10
3053.323919182314
 20
413.9215093911061
  0
HATCH
  5
112C
330
1F
100
AcDbEntity
  8
PROFILY
100
AcDbHatch
 10
0.0
 20
0.0
 30
0.0
210
0.0
220
0.0
230
1.0
  2
SOLID
 70
     1
 71
     0
 91
        4
 92
        7
 72
     0
 73
     1
 93
        4
 10
3054.223095474457
 20
459.3190461232466
 10
3052.223095474457
 20
459.3190461232466
 10
3052.223095474457
 20
440.1366909786979
 10
3054.223095474457
 20
440.1366909786979
 97
        0
 92
        7
 72
     0
 73
     1
 93
        4
 10
3054.223095474457
 20
496.1242479072775
 10
3052.223095474457
 20
496.1242479072775
 10
3052.223095474457
 20
476.9418927627289
 10
3054.223095474457
 20
476.9418927627289
 97
        0
 92
        7
 72
     0
 73
     1
 93
        4
 10
3054.223095474457
 20
535.2278946560204
 10
3052.223095474457
 20
535.2278946560204
 10
3052.223095474457
 20
516.0455395114718
 10
3054.223095474457
 20
516.0455395114718
 97
        0
 92
        7
 72
     0
 73
     1
 93
        4
 10
3054.223095474457
 20
571.6391951926002
 10
3052.223095474457
 20
571.6391951926002
 10
3052.223095474457
 20
552.4568400480516
 10
3054.223095474457
 20
552.4568400480516
 97
        0
 75
     0
 76
     1
 47
0.2832868271764444
 98
        4
 10
3052.756987237377
 20
450.2179980293822
 10
3053.040492024845
 20
487.6118926643484
 10
3053.323919182314
 20
523.306014656855
 10
3053.323919182314
 20
563.2494722990613
  0
LINE
  5
112D
330
1F
100
AcDbEntity
  8
PROFILY
100
AcDbLine
 10
3054.223095474464
 20
589.4439090408013
 30
0.0
 11
3052.223095474457
 21
589.4763805317215
 31
0.0
  0
HATCH
  5
112E
330
1F
100
AcDbEntity
  8
PROFILY
100
AcDbHatch
 10
0.0
 20
0.0
 30
0.0
210
0.0
220
0.0
230
1.0
  2
SOLID
 70
     1
 71
     0
 91
        1
 92
        7
 72
     0
 73
     1
 93
        4
 10
3054.223095474461
 20
595.706171223599
 10
3052.223095474457
 20
595.7386427145193
 10
3052.223095474457
 20
589.4763805317215
 10
3054.223095474468
 20
589.4439090408013
 97
        0
 75
     0
 76
     1
 47
0.1026596987000604
 98
        1
 10
3053.594981878961
 20
592.1774177198799
  0
TEXT
  5
112F
330
1F
100
AcDbEntity
  8
POPIS
100
AcDbText
 10
2768.97714572217
 20
158.2645971350098
 30
0.0
 40
25.0
  1
07
 41
0.7
  7
SIMPLEX7
100
AcDbText
  0
LINE
  5
1130
330
1F
100
AcDbEntity
  8
POPIS
100
AcDbLine
 10
2808.954632065439
 20
171.7079385843803
 30
0.0
 11
3096.205833868733
 21
171.7079385843794
 31
0.0
  0
TEXT
  5
1131
330
1F
100
AcDbEntity
  8
POPIS
100
AcDbText
 10
2768.97714572217
 20
227.7971872165394
 30
0.0
 40
25.0
  1
05
 41
0.7
  7
SIMPLEX7
100
AcDbText
  0
LINE
  5
1132
330
1F
100
AcDbEntity
  8
POPIS
100
AcDbLine
 10
2808.954632065439
 20
241.24052866591
 30
0.0
 11
3054.223095474461
 21
241.2405286659086
 31
0.0
  0
INSERT
  5
1133
330
1F
100
AcDbEntity
  8
POPIS
100
AcDbBlockReference
  2
E_PUNKT
 10
3096.393482243502
 20
171.6430647264765
 30
0.0
  0
INSERT
  5
1134
330
1F
100
AcDbEntity
  8
POPIS
100
AcDbBlockReference
  2
E_PUNKT
 10
3052.858418765367
 20
241.2828381681515
 30
0.0
  0
TEXT
  5
1135
330
1F
100
AcDbEntity
  8
POPIS
100
AcDbText
 10
2768.97714572217
 20
96.9837823943849
 30
0.0
 40
25.0
  1
06
 41
0.7
  7
SIMPLEX7
100
AcDbText
  0
LINE
  5
1136
330
1F
100
AcDbEntity
  8
POPIS
100
AcDbLine
 10
2808.954632065439
 20
110.4271238437554
 30
0.0
 11
3095.663536885005
 21
110.4271238437545
 31
0.0
  0
INSERT
  5
1137
330
1F
100
AcDbEntity
  8
POPIS
100
AcDbBlockReference
  2
E_PUNKT
 10
3095.067872235062
 20
111.0403262745362
 30
0.0
  0
LINE
  5
1138
330
1F
100
AcDbEntity
  8
STAVBA OBRYS
  6
DASHDOT2
100
AcDbLine
 10
3109.509545229399
 20
321.7695961655877
 30
0.0
 11
3322.286034295497
 21
321.7695961655858
 31
0.0
  0
LINE
  5
1139
330
1F
100
AcDbEntity
  8
STAVBA OBRYS
  6
DASHED
100
AcDbLine
 10
3307.426982105257
 20
321.7695961655858
 30
0.0
 11
3303.638120963698
 21
328.3320961655858
 31
0.0
  0
LINE
  5
113A
330
1F
100
AcDbEntity
  8
STAVBA OBRYS
  6
DASHED
100
AcDbLine
 10
3303.638120963698
 20
328.3320961655858
 30
0.0
 11
3143.267789731073
 21
328.3320961655876
 31
0.0
  0
LINE
  5
113B
330
1F
100
AcDbEntity
  8
STAVBA OBRYS
  6
DASHED
100
AcDbLine
 10
3303.638120963698
 20
315.2070961655859
 30
0.0
 11
3143.267789731073
 21
315.2070961655876
 31
0.0
  0
LINE
  5
113C
330
1F
100
AcDbEntity
  8
STAVBA OBRYS
  6
DASHED
100
AcDbLine
 10
3307.426982105257
 20
321.7695961655858
 30
0.0
 11
3303.638120963698
 21
315.2070961655859
 31
0.0
  0
LWPOLYLINE
  5
113D
330
1F
100
AcDbEntity
  8
STAVBA OBRYS
  6
DASHED
100
AcDbPolyline
 90
        4
 70
     1
 43
0.0
 10
3137.894508406219
 20
296.7098101560745
 10
3143.267789731073
 20
296.7098101560745
 10
3143.267789731073
 20
346.8293821750971
 10
3137.894508406219
 20
346.8293821750971
  0
HATCH
  5
113E
330
1F
100
AcDbEntity
  8
PROFILY
100
AcDbHatch
 10
0.0
 20
0.0
 30
0.0
210
0.0
220
0.0
230
1.0
  2
SOLID
 70
     1
 71
     0
 91
        3
 92
        7
 72
     0
 73
     1
 93
        4
 10
3073.46479644095
 20
28.57094522693751
 10
3062.815530727219
 20
28.57094522693751
 10
3062.815530727226
 20
27.13617611778363
 10
3073.46479644095
 20
27.13617611778363
 97
        0
 92
        7
 72
     0
 73
     1
 93
        4
 10
3097.017895983021
 20
28.57094522693751
 10
3085.241346211989
 20
28.57094522693842
 10
3085.241346211986
 20
27.13617611778363
 10
3097.017895983021
 20
27.13617611778317
 97
        0
 92
        7
 72
     0
 73
     1
 93
        4
 10
3120.570995525091
 20
28.57094522693796
 10
3108.794445754056
 20
28.57094522693796
 10
3108.794445754056
 20
27.13617611778317
 10
3120.570995525091
 20
27.13617611778272
 97
        0
 75
     0
 76
     1
 47
0.1512241515596127
 98
        3
 10
3067.13023947039
 20
28.18457390838512
 10
3089.826226099418
 20
28.18457390838512
 10
3116.002288335637
 20
28.03334653543197
  0
TEXT
  5
1161
330
1F
100
AcDbEntity
  8
POPIS
100
AcDbText
 10
2938.901406103377
 20
286.9161901188272
 30
0.0
 40
25.0
  1
40
 50
90.0
 41
0.7
  7
SIMPLEX7
100
AcDbText
  0
LINE
  5
11B0
330
1F
100
AcDbEntity
  8
POPIS
100
AcDbLine
 10
2975.494326351572
 20
319.2248765709223
 30
0.0
 11
2932.011316495669
 21
319.2248765709223
 31
0.0
  0
LINE
  5
11B1
330
1F
100
AcDbEntity
  8
POPIS
100
AcDbLine
 10
2973.30538411857
 20
279.4734535019177
 30
0.0
 11
2932.011316495669
 21
279.4734535019177
 31
0.0
  0
LINE
  5
11B2
330
1F
100
AcDbEntity
  8
POPIS
100
AcDbLine
 10
2944.511316495669
 20
324.633413231918
 30
0.0
 11
2944.511316495669
 21
274.2131198148072
 31
0.0
  0
INSERT
  5
11B4
330
1F
100
AcDbEntity
  8
POPIS
100
AcDbBlockReference
  2
_ArchTick
 10
2944.511316495669
 20
319.2248765709223
 30
0.0
 41
15.0
 42
15.0
 43
15.0
 50
90.0
  0
INSERT
  5
11B5
330
1F
100
AcDbEntity
  8
POPIS
100
AcDbBlockReference
  2
_ArchTick
 10
2944.511316495669
 20
279.4734535019177
 30
0.0
 41
15.0
 42
15.0
 43
15.0
 50
270.0
  0
LINE
  5
11B7
330
1F
100
AcDbEntity
  8
POPIS
100
AcDbLine
 10
2897.188804912442
 20
324.633413231918
 30
0.0
 11
2897.188804912442
 21
260.2391284854211
 31
0.0
  0
INSERT
  5
11B8
330
1F
100
AcDbEntity
  8
POPIS
100
AcDbBlockReference
  2
_ArchTick
 10
2897.188804912442
 20
264.3793298140071
 30
0.0
 41
15.0
 42
15.0
 43
15.0
 50
270.0
  0
INSERT
  5
11B9
330
1F
100
AcDbEntity
  8
POPIS
100
AcDbBlockReference
  2
_ArchTick
 10
2897.188804912442
 20
319.2248765709223
 30
0.0
 41
15.0
 42
15.0
 43
15.0
 50
90.0
  0
LINE
  5
11BA
330
1F
100
AcDbEntity
  8
POPIS
100
AcDbLine
 10
2925.982872535343
 20
264.3793298140071
 30
0.0
 11
2884.688804912443
 21
264.3793298140071
 31
0.0
  0
LINE
  5
11BB
330
1F
100
AcDbEntity
  8
POPIS
100
AcDbLine
 10
2928.171814768345
 20
319.2248765709223
 30
0.0
 11
2884.688804912443
 21
319.2248765709223
 31
0.0
  0
TEXT
  5
11BC
330
1F
100
AcDbEntity
  8
POPIS
100
AcDbText
 10
2891.578894520151
 20
280.4599490432766
 30
0.0
 40
25.0
  1
50
 50
90.0
 41
0.7
  7
SIMPLEX7
100
AcDbText
  0
TEXT
  5
11BE
330
1F
100
AcDbEntity
  8
POPIS
100
AcDbText
 10
2845.809031611139
 20
-653.259076705759
 30
0.0
 40
25.0
  1
Podkladní EPDM páska tl.1 mm
 41
0.7
  7
SIMPLEX7
100
AcDbText
  0
TEXT
  5
11BF
330
1F
100
AcDbEntity
  8
POPIS
100
AcDbText
 10
2791.465328451397
 20
-653.259076705759
 30
0.0
 40
25.0
  1
11
 41
0.85
  7
SIMPLEX7
100
AcDbText
  0
LINE
  5
11C0
330
1F
100
AcDbEntity
  8
PROFILY
100
AcDbLine
 10
3028.179361242212
 20
28.57094522693796
 30
0.0
 11
3028.179361242212
 21
596.2557056363125
 31
0.0
  0
LINE
  5
11C1
330
1F
100
AcDbEntity
  8
PROFILY
  6
DASHED
370
    40
100
AcDbLine
 10
3027.979361242213
 20
28.57094522693796
 30
0.0
 11
3027.979361242213
 21
596.2557056363125
 31
0.0
  0
LINE
  5
11C5
330
1F
100
AcDbEntity
  8
POPIS
100
AcDbLine
 10
2810.719612038685
 20
444.5525524236073
 30
0.0
 11
3027.979361242213
 21
444.5525524236053
 31
0.0
  0
TEXT
  5
11C6
330
1F
100
AcDbEntity
  8
POPIS
100
AcDbText
 10
2772.415960940967
 20
431.1092109742367
 30
0.0
 40
25.0
  1
11
 41
0.7
  7
SIMPLEX7
100
AcDbText
  0
INSERT
  5
11C8
330
1F
100
AcDbEntity
  8
POPIS
100
AcDbBlockReference
  2
E_PUNKT
 10
3028.039677904356
 20
444.9732954898181
 30
0.0
  0
ENDSEC
  0
SECTION
  2
OBJECTS
  0
DICTIONARY
  5
C
330
0
100
AcDbDictionary
281
     1
  3
ACAD_GROUP
350
D
  3
ACAD_LAYOUT
350
1A
  3
ACAD_MLINESTYLE
350
17
  3
ACAD_PLOTSETTINGS
350
19
  3
ACAD_PLOTSTYLENAME
350
E
  3
AcDbVariableDictionary
350
11C3
  0
DICTIONARY
  5
B56
330
1F
100
AcDbDictionary
280
     1
281
     1
  3
ACAD_LAYOUTSELFREF
360
C29
  0
DICTIONARY
  5
B58
330
1B
100
AcDbDictionary
280
     1
281
     1
  3
ACAD_LAYOUTSELFREF
360
C28
  0
DICTIONARY
  5
B5A
330
23
100
AcDbDictionary
280
     1
281
     1
  3
ACAD_LAYOUTSELFREF
360
C2A
  0
DICTIONARY
  5
D
102
{ACAD_REACTORS
330
C
102
}
330
C
100
AcDbDictionary
281
     1
  0
DICTIONARY
  5
1A
102
{ACAD_REACTORS
330
C
102
}
330
C
100
AcDbDictionary
281
     1
  3
Model
350
22
  3
Rozvržení1
350
1E
  3
Rozvržení2
350
26
  0
DICTIONARY
  5
17
102
{ACAD_REACTORS
330
C
102
}
330
C
100
AcDbDictionary
281
     1
  3
Standard
350
18
  0
DICTIONARY
  5
19
102
{ACAD_REACTORS
330
C
102
}
330
C
100
AcDbDictionary
281
     1
  0
ACDBDICTIONARYWDFLT
  5
E
102
{ACAD_REACTORS
330
C
102
}
330
C
100
AcDbDictionary
281
     1
  3
Normal
350
F
100
AcDbDictionaryWithDefault
340
F
  0
DICTIONARY
  5
11C3
102
{ACAD_REACTORS
330
C
102
}
330
C
100
AcDbDictionary
281
     1
  3
DIMASSOC
350
11C4
  0
XRECORD
  5
C29
102
{ACAD_REACTORS
330
B56
102
}
330
B56
100
AcDbXrecord
280
     1
340
1F
  0
XRECORD
  5
C28
102
{ACAD_REACTORS
330
B58
102
}
330
B58
100
AcDbXrecord
280
     1
340
1B
  0
XRECORD
  5
C2A
102
{ACAD_REACTORS
330
B5A
102
}
330
B5A
100
AcDbXrecord
280
     1
340
23
  0
LAYOUT
  5
22
102
{ACAD_REACTORS
330
1A
102
}
330
1A
100
AcDbPlotSettings
  1

  2
HP DeskJet 690C
  4

  6

 40
0.0
 41
0.0
 42
0.0
 43
0.0
 44
0.0
 45
0.0
 46
0.0
 47
0.0
 48
0.0
 49
0.0
140
0.0
141
0.0
142
1.0
143
1.0
 70
  1712
 72
     0
 73
     0
 74
     0
  7
monochrome.ctb
 75
     0
147
1.0
148
0.0
149
0.0
100
AcDbLayout
  1
Model
 70
     1
 71
     0
 10
0.0
 20
0.0
 11
12.0
 21
9.0
 12
0.0
 22
0.0
 32
0.0
 14
0.0
 24
0.0
 34
0.0
 15
0.0
 25
0.0
 35
0.0
146
0.0
 13
0.0
 23
0.0
 33
0.0
 16
1.0
 26
0.0
 36
0.0
 17
0.0
 27
1.0
 37
0.0
 76
     0
330
1F
  0
LAYOUT
  5
1E
102
{ACAD_REACTORS
330
1A
102
}
330
1A
100
AcDbPlotSettings
  1

  2
HP DeskJet 690C
  4

  6

 40
0.0
 41
0.0
 42
0.0
 43
0.0
 44
0.0
 45
0.0
 46
0.0
 47
0.0
 48
0.0
 49
0.0
140
0.0
141
0.0
142
1.0
143
1.0
 70
   688
 72
     0
 73
     0
 74
     5
  7
monochrome.ctb
 75
    16
147
1.0
148
0.0
149
0.0
100
AcDbLayout
  1
Rozvržení1
 70
     1
 71
     1
 10
0.0
 20
0.0
 11
420.0
 21
297.0
 12
0.0
 22
0.0
 32
0.0
 14
1.000000000000000E+20
 24
1.000000000000000E+20
 34
1.000000000000000E+20
 15
-1.000000000000000E+20
 25
-1.000000000000000E+20
 35
-1.000000000000000E+20
146
0.0
 13
0.0
 23
0.0
 33
0.0
 16
1.0
 26
0.0
 36
0.0
 17
0.0
 27
1.0
 37
0.0
 76
     0
330
1B
  0
LAYOUT
  5
26
102
{ACAD_REACTORS
330
1A
102
}
330
1A
100
AcDbPlotSettings
  1

  2
HP DeskJet 690C
  4

  6

 40
0.0
 41
0.0
 42
0.0
 43
0.0
 44
0.0
 45
0.0
 46
0.0
 47
0.0
 48
0.0
 49
0.0
140
0.0
141
0.0
142
1.0
143
1.0
 70
   688
 72
     0
 73
     0
 74
     5
  7
monochrome.ctb
 75
    16
147
1.0
148
0.0
149
0.0
100
AcDbLayout
  1
Rozvržení2
 70
     1
 71
     2
 10
0.0
 20
0.0
 11
12.0
 21
9.0
 12
0.0
 22
0.0
 32
0.0
 14
0.0
 24
0.0
 34
0.0
 15
0.0
 25
0.0
 35
0.0
146
0.0
 13
0.0
 23
0.0
 33
0.0
 16
1.0
 26
0.0
 36
0.0
 17
0.0
 27
1.0
 37
0.0
 76
     0
330
23
  0
MLINESTYLE
  5
18
102
{ACAD_REACTORS
330
17
102
}
330
17
100
AcDbMlineStyle
  2
STANDARD
 70
     0
  3

 62
   256
 51
90.0
 52
90.0
 71
     2
 49
0.5
 62
   256
  6
BYLAYER
 49
-0.5
 62
   256
  6
BYLAYER
  0
ACDBPLACEHOLDER
  5
F
102
{ACAD_REACTORS
330
E
102
}
330
E
  0
DICTIONARYVAR
  5
11C4
102
{ACAD_REACTORS
330
11C3
102
}
330
11C3
100
DictionaryVariables
280
     0
  1
1
  0
ENDSEC
  0
EOF
