  0
SECTION
  2
HEADER
  9
$ACADVER
  1
AC1015
  9
$ACADMAINTVER
 70
    13
  9
$DWGCODEPAGE
  3
ANSI_1250
  9
$INSBASE
 10
0.0
 20
0.0
 30
0.0
  9
$EXTMIN
 10
-143.2939672990427
 20
-140.9351754605705
 30
0.0
  9
$EXTMAX
 10
2322.631390642401
 20
815.5171592005331
 30
0.0
  9
$LIMMIN
 10
0.0
 20
0.0
  9
$LIMMAX
 10
420.0
 20
297.0
  9
$ORTHOMODE
 70
     1
  9
$REGENMODE
 70
     1
  9
$FILLMODE
 70
     1
  9
$QTEXTMODE
 70
     0
  9
$MIRRTEXT
 70
     1
  9
$LTSCALE
 40
1.0
  9
$ATTMODE
 70
     1
  9
$TEXTSIZE
 40
2.5
  9
$TRACEWID
 40
1.0
  9
$TEXTSTYLE
  7
Standard
  9
$CLAYER
  8
0
  9
$CELTYPE
  6
ByLayer
  9
$CECOLOR
 62
   256
  9
$CELTSCALE
 40
1.0
  9
$DISPSILH
 70
     0
  9
$DIMSCALE
 40
1.0
  9
$DIMASZ
 40
2.5
  9
$DIMEXO
 40
0.625
  9
$DIMDLI
 40
3.75
  9
$DIMRND
 40
0.0
  9
$DIMDLE
 40
0.0
  9
$DIMEXE
 40
1.25
  9
$DIMTP
 40
0.0
  9
$DIMTM
 40
0.0
  9
$DIMTXT
 40
2.5
  9
$DIMCEN
 40
2.5
  9
$DIMTSZ
 40
0.0
  9
$DIMTOL
 70
     0
  9
$DIMLIM
 70
     0
  9
$DIMTIH
 70
     0
  9
$DIMTOH
 70
     0
  9
$DIMSE1
 70
     0
  9
$DIMSE2
 70
     0
  9
$DIMTAD
 70
     1
  9
$DIMZIN
 70
     8
  9
$DIMBLK
  1

  9
$DIMASO
 70
     1
  9
$DIMSHO
 70
     1
  9
$DIMPOST
  1

  9
$DIMAPOST
  1

  9
$DIMALT
 70
     0
  9
$DIMALTD
 70
     3
  9
$DIMALTF
 40
0.03937007874016
  9
$DIMLFAC
 40
1.0
  9
$DIMTOFL
 70
     1
  9
$DIMTVP
 40
0.0
  9
$DIMTIX
 70
     0
  9
$DIMSOXD
 70
     0
  9
$DIMSAH
 70
     0
  9
$DIMBLK1
  1

  9
$DIMBLK2
  1

  9
$DIMSTYLE
  2
ISO-25
  9
$DIMCLRD
 70
     0
  9
$DIMCLRE
 70
     0
  9
$DIMCLRT
 70
     0
  9
$DIMTFAC
 40
1.0
  9
$DIMGAP
 40
0.625
  9
$DIMJUST
 70
     0
  9
$DIMSD1
 70
     0
  9
$DIMSD2
 70
     0
  9
$DIMTOLJ
 70
     0
  9
$DIMTZIN
 70
     8
  9
$DIMALTZ
 70
     0
  9
$DIMALTTZ
 70
     0
  9
$DIMUPT
 70
     0
  9
$DIMDEC
 70
     2
  9
$DIMTDEC
 70
     2
  9
$DIMALTU
 70
     2
  9
$DIMALTTD
 70
     3
  9
$DIMTXSTY
  7
Standard
  9
$DIMAUNIT
 70
     0
  9
$DIMADEC
 70
     0
  9
$DIMALTRND
 40
0.0
  9
$DIMAZIN
 70
     0
  9
$DIMDSEP
 70
    44
  9
$DIMATFIT
 70
     3
  9
$DIMFRAC
 70
     0
  9
$DIMLDRBLK
  1

  9
$DIMLUNIT
 70
     2
  9
$DIMLWD
 70
    -2
  9
$DIMLWE
 70
    -2
  9
$DIMTMOVE
 70
     0
  9
$LUNITS
 70
     2
  9
$LUPREC
 70
     4
  9
$SKETCHINC
 40
1.0
  9
$FILLETRAD
 40
10.0
  9
$AUNITS
 70
     0
  9
$AUPREC
 70
     0
  9
$MENU
  1
.
  9
$ELEVATION
 40
0.0
  9
$PELEVATION
 40
0.0
  9
$THICKNESS
 40
0.0
  9
$LIMCHECK
 70
     0
  9
$CHAMFERA
 40
10.0
  9
$CHAMFERB
 40
10.0
  9
$CHAMFERC
 40
20.0
  9
$CHAMFERD
 40
0.0
  9
$SKPOLY
 70
     0
  9
$TDCREATE
 40
2452332.468649768
  9
$TDUCREATE
 40
2452332.426983101
  9
$TDUPDATE
 40
2455595.843770428
  9
$TDUUPDATE
 40
2455595.802103761
  9
$TDINDWG
 40
0.0451902431
  9
$TDUSRTIMER
 40
0.0451876968
  9
$USRTIMER
 70
     1
  9
$ANGBASE
 50
0.0
  9
$ANGDIR
 70
     0
  9
$PDMODE
 70
     0
  9
$PDSIZE
 40
0.0
  9
$PLINEWID
 40
0.0
  9
$SPLFRAME
 70
     0
  9
$SPLINETYPE
 70
     6
  9
$SPLINESEGS
 70
     8
  9
$HANDSEED
  5
5ED1
  9
$SURFTAB1
 70
     6
  9
$SURFTAB2
 70
     6
  9
$SURFTYPE
 70
     6
  9
$SURFU
 70
     6
  9
$SURFV
 70
     6
  9
$UCSBASE
  2

  9
$UCSNAME
  2

  9
$UCSORG
 10
0.0
 20
0.0
 30
0.0
  9
$UCSXDIR
 10
1.0
 20
0.0
 30
0.0
  9
$UCSYDIR
 10
0.0
 20
1.0
 30
0.0
  9
$UCSORTHOREF
  2

  9
$UCSORTHOVIEW
 70
     0
  9
$UCSORGTOP
 10
0.0
 20
0.0
 30
0.0
  9
$UCSORGBOTTOM
 10
0.0
 20
0.0
 30
0.0
  9
$UCSORGLEFT
 10
0.0
 20
0.0
 30
0.0
  9
$UCSORGRIGHT
 10
0.0
 20
0.0
 30
0.0
  9
$UCSORGFRONT
 10
0.0
 20
0.0
 30
0.0
  9
$UCSORGBACK
 10
0.0
 20
0.0
 30
0.0
  9
$PUCSBASE
  2

  9
$PUCSNAME
  2

  9
$PUCSORG
 10
0.0
 20
0.0
 30
0.0
  9
$PUCSXDIR
 10
1.0
 20
0.0
 30
0.0
  9
$PUCSYDIR
 10
0.0
 20
1.0
 30
0.0
  9
$PUCSORTHOREF
  2

  9
$PUCSORTHOVIEW
 70
     0
  9
$PUCSORGTOP
 10
0.0
 20
0.0
 30
0.0
  9
$PUCSORGBOTTOM
 10
0.0
 20
0.0
 30
0.0
  9
$PUCSORGLEFT
 10
0.0
 20
0.0
 30
0.0
  9
$PUCSORGRIGHT
 10
0.0
 20
0.0
 30
0.0
  9
$PUCSORGFRONT
 10
0.0
 20
0.0
 30
0.0
  9
$PUCSORGBACK
 10
0.0
 20
0.0
 30
0.0
  9
$USERI1
 70
     0
  9
$USERI2
 70
     0
  9
$USERI3
 70
     0
  9
$USERI4
 70
     0
  9
$USERI5
 70
     0
  9
$USERR1
 40
0.0
  9
$USERR2
 40
0.0
  9
$USERR3
 40
0.0
  9
$USERR4
 40
0.0
  9
$USERR5
 40
0.0
  9
$WORLDVIEW
 70
     1
  9
$SHADEDGE
 70
     3
  9
$SHADEDIF
 70
    70
  9
$TILEMODE
 70
     1
  9
$MAXACTVP
 70
    64
  9
$PINSBASE
 10
0.0
 20
0.0
 30
0.0
  9
$PLIMCHECK
 70
     0
  9
$PEXTMIN
 10
1.000000000000000E+20
 20
1.000000000000000E+20
 30
1.000000000000000E+20
  9
$PEXTMAX
 10
-1.000000000000000E+20
 20
-1.000000000000000E+20
 30
-1.000000000000000E+20
  9
$PLIMMIN
 10
0.0
 20
0.0
  9
$PLIMMAX
 10
420.0
 20
297.0
  9
$UNITMODE
 70
     0
  9
$VISRETAIN
 70
     1
  9
$PLINEGEN
 70
     0
  9
$PSLTSCALE
 70
     1
  9
$TREEDEPTH
 70
  3020
  9
$CMLSTYLE
  2
Standard
  9
$CMLJUST
 70
     0
  9
$CMLSCALE
 40
20.0
  9
$PROXYGRAPHICS
 70
     1
  9
$MEASUREMENT
 70
     1
  9
$CELWEIGHT
370
    -1
  9
$ENDCAPS
280
     0
  9
$JOINSTYLE
280
     0
  9
$LWDISPLAY
290
     0
  9
$INSUNITS
 70
     4
  9
$HYPERLINKBASE
  1

  9
$STYLESHEET
  1

  9
$XEDIT
290
     1
  9
$CEPSNTYPE
380
     0
  9
$PSTYLEMODE
290
     1
  9
$FINGERPRINTGUID
  2
{A3477950-F6EC-44A0-8776-592C40033ABE}
  9
$VERSIONGUID
  2
{1180EBD6-D0A9-403B-8D99-2357F7966EEA}
  9
$EXTNAMES
290
     1
  9
$PSVPSCALE
 40
0.0
  9
$OLESTARTUP
290
     0
  0
ENDSEC
  0
SECTION
  2
CLASSES
  0
CLASS
  1
ACDBDICTIONARYWDFLT
  2
AcDbDictionaryWithDefault
  3
AutoCAD 2000
 90
        0
280
     0
281
     0
  0
CLASS
  1
ACDBPLACEHOLDER
  2
AcDbPlaceHolder
  3
AutoCAD 2000
 90
        0
280
     0
281
     0
  0
CLASS
  1
LAYOUT
  2
AcDbLayout
  3
AutoCAD 2000
 90
        0
280
     0
281
     0
  0
CLASS
  1
DICTIONARYVAR
  2
AcDbDictionaryVar
  3
AutoCAD 2000
 90
        0
280
     0
281
     0
  0
ENDSEC
  0
SECTION
  2
TABLES
  0
TABLE
  2
VPORT
  5
8
330
0
100
AcDbSymbolTable
 70
     2
  0
VPORT
  5
5ED0
330
8
100
AcDbSymbolTableRecord
100
AcDbViewportTableRecord
  2
*Active
 70
     0
 10
0.0
 20
0.0
 11
1.0
 21
1.0
 12
1469.907595320363
 22
420.7623773017487
 13
0.0
 23
0.0
 14
10.0
 24
10.0
 15
10.0
 25
10.0
 16
0.0
 26
0.0
 36
1.0
 17
0.0
 27
0.0
 37
0.0
 40
788.5110677291382
 41
2.229559748427672
 42
50.0
 43
0.0
 44
0.0
 50
0.0
 51
0.0
 71
     0
 72
   100
 73
     1
 74
     3
 75
     0
 76
     0
 77
     0
 78
     0
281
     0
 65
     1
110
0.0
120
0.0
130
0.0
111
1.0
121
0.0
131
0.0
112
0.0
122
1.0
132
0.0
 79
     0
146
0.0
  0
ENDTAB
  0
TABLE
  2
LTYPE
  5
5
330
0
100
AcDbSymbolTable
 70
     3
  0
LTYPE
  5
14
330
5
100
AcDbSymbolTableRecord
100
AcDbLinetypeTableRecord
  2
ByBlock
 70
     0
  3

 72
    65
 73
     0
 40
0.0
  0
LTYPE
  5
15
330
5
100
AcDbSymbolTableRecord
100
AcDbLinetypeTableRecord
  2
ByLayer
 70
     0
  3

 72
    65
 73
     0
 40
0.0
  0
LTYPE
  5
16
330
5
100
AcDbSymbolTableRecord
100
AcDbLinetypeTableRecord
  2
Continuous
 70
     0
  3
Solid line
 72
    65
 73
     0
 40
0.0
  0
LTYPE
  5
55A6
330
5
100
AcDbSymbolTableRecord
100
AcDbLinetypeTableRecord
  2
DASHED
 70
     0
  3
Dashed __ __ __ __ __ __ __ __ __ __ __ __ __ _
 72
    65
 73
     2
 40
19.04999999999999
 49
12.7
 74
     0
 49
-6.349999999999999
 74
     0
  0
LTYPE
  5
55A7
330
5
100
AcDbSymbolTableRecord
100
AcDbLinetypeTableRecord
  2
IZOLACE
 70
     0
  3
Izolace SSSSSSSSSSSSSSSSSSSSSSSSSSSSSSSSSSSSSSS
 72
    65
 73
     4
 40
10.16253999999999
 49
0.00254
 74
     0
 49
-2.54
 74
     4
 75
   134
340
55AF
 46
2.54
 50
0.0
 44
-2.54
 45
0.0
 49
-5.08
 74
     4
 75
   134
340
55AF
 46
2.54
 50
180.0
 44
2.54
 45
0.0
 49
-2.54
 74
     0
  0
ENDTAB
  0
TABLE
  2
LAYER
  5
2
330
0
100
AcDbSymbolTable
 70
     7
  0
LAYER
  5
10
330
2
100
AcDbSymbolTableRecord
100
AcDbLayerTableRecord
  2
0
 70
     0
 62
     7
  6
Continuous
370
    -3
390
F
  0
LAYER
  5
55A8
330
2
100
AcDbSymbolTableRecord
100
AcDbLayerTableRecord
  2
POPIS
 70
     0
 62
    30
  6
Continuous
370
    -3
390
F
  0
LAYER
  5
55A9
330
2
100
AcDbSymbolTableRecord
100
AcDbLayerTableRecord
  2
SPOJOVACÍ
 70
     0
 62
   180
  6
Continuous
370
    -3
390
F
  0
LAYER
  5
55AA
330
2
100
AcDbSymbolTableRecord
100
AcDbLayerTableRecord
  2
CETRIS
 70
     0
 62
     1
  6
Continuous
370
    -3
390
F
  0
LAYER
  5
55AB
330
2
100
AcDbSymbolTableRecord
100
AcDbLayerTableRecord
  2
izolace
 70
     0
 62
    33
  6
Continuous
370
    -3
390
F
  0
LAYER
  5
55AC
330
2
100
AcDbSymbolTableRecord
100
AcDbLayerTableRecord
  2
nášlap_vrstvy
 70
     0
 62
    73
  6
Continuous
370
    -3
390
F
  0
LAYER
  5
55AD
330
2
100
AcDbSymbolTableRecord
100
AcDbLayerTableRecord
  2
STAVBA OBRYS
 70
     0
 62
     6
  6
Continuous
370
    -3
390
F
  0
ENDTAB
  0
TABLE
  2
STYLE
  5
3
330
0
100
AcDbSymbolTable
 70
     3
  0
STYLE
  5
11
330
3
100
AcDbSymbolTableRecord
100
AcDbTextStyleTableRecord
  2
Standard
 70
     0
 40
0.0
 41
1.0
 50
0.0
 71
     0
 42
2.5
  3
txt
  4

  0
STYLE
  5
55AE
330
3
100
AcDbSymbolTableRecord
100
AcDbTextStyleTableRecord
  2
SIMPLEX7
 70
     0
 40
0.0
 41
0.85
 50
0.0
 71
     0
 42
102.0
  3
ARIAL.TTF
  4

1001
ACAD
1000
Arial CE
1071
    60962
  0
STYLE
  5
55AF
330
3
100
AcDbSymbolTableRecord
100
AcDbTextStyleTableRecord
  2

 70
     1
 40
0.0
 41
1.0
 50
0.0
 71
     0
 42
2.5
  3
ltypeshp.shx
  4

  0
ENDTAB
  0
TABLE
  2
VIEW
  5
6
330
0
100
AcDbSymbolTable
 70
     0
  0
ENDTAB
  0
TABLE
  2
UCS
  5
7
330
0
100
AcDbSymbolTable
 70
     0
  0
ENDTAB
  0
TABLE
  2
APPID
  5
9
330
0
100
AcDbSymbolTable
 70
     1
  0
APPID
  5
12
330
9
100
AcDbSymbolTableRecord
100
AcDbRegAppTableRecord
  2
ACAD
 70
     0
  0
ENDTAB
  0
TABLE
  2
DIMSTYLE
  5
A
330
0
100
AcDbSymbolTable
 70
     1
100
AcDbDimStyleTable
 71
     0
  0
DIMSTYLE
105
27
330
A
100
AcDbSymbolTableRecord
100
AcDbDimStyleTableRecord
  2
ISO-25
 70
     0
 41
2.5
 42
0.625
 43
3.75
 44
1.25
 73
     0
 74
     0
 77
     1
 78
     8
140
2.5
141
2.5
143
0.03937007874016
147
0.625
171
     3
172
     1
271
     2
272
     2
274
     3
278
    44
283
     0
284
     8
340
11
  0
ENDTAB
  0
TABLE
  2
BLOCK_RECORD
  5
1
330
0
100
AcDbSymbolTable
 70
     2
  0
BLOCK_RECORD
  5
1F
330
1
100
AcDbSymbolTableRecord
100
AcDbBlockTableRecord
  2
*Model_Space
340
22
  0
BLOCK_RECORD
  5
1B
330
1
100
AcDbSymbolTableRecord
100
AcDbBlockTableRecord
  2
*Paper_Space
340
1E
  0
BLOCK_RECORD
  5
23
330
1
100
AcDbSymbolTableRecord
100
AcDbBlockTableRecord
  2
*Paper_Space0
340
26
  0
BLOCK_RECORD
  5
55A2
330
1
100
AcDbSymbolTableRecord
100
AcDbBlockTableRecord
  2
E_PUNKT
340
0
102
{BLKREFS
331
5A81
331
5BBB
331
5C1E
331
5C28
331
5C39
331
5CD4
331
5CE7
331
5DAB
331
5DAC
102
}
  0
ENDTAB
  0
ENDSEC
  0
SECTION
  2
BLOCKS
  0
BLOCK
  5
20
330
1F
100
AcDbEntity
  8
0
100
AcDbBlockBegin
  2
*Model_Space
 70
     0
 10
0.0
 20
0.0
 30
0.0
  3
*Model_Space
  1

  0
ENDBLK
  5
21
330
1F
100
AcDbEntity
  8
0
100
AcDbBlockEnd
  0
BLOCK
  5
1C
330
1B
100
AcDbEntity
 67
     1
  8
0
100
AcDbBlockBegin
  2
*Paper_Space
 70
     0
 10
0.0
 20
0.0
 30
0.0
  3
*Paper_Space
  1

  0
ENDBLK
  5
1D
330
1B
100
AcDbEntity
 67
     1
  8
0
100
AcDbBlockEnd
  0
BLOCK
  5
24
330
23
100
AcDbEntity
  8
0
100
AcDbBlockBegin
  2
*Paper_Space0
 70
     0
 10
0.0
 20
0.0
 30
0.0
  3
*Paper_Space0
  1

  0
ENDBLK
  5
25
330
23
100
AcDbEntity
  8
0
100
AcDbBlockEnd
  0
BLOCK
  5
55A4
330
55A2
100
AcDbEntity
  8
0
100
AcDbBlockBegin
  2
E_PUNKT
 70
     0
 10
0.0
 20
0.0
 30
0.0
  3
E_PUNKT
  1

  0
LWPOLYLINE
  5
55A3
330
55A2
100
AcDbEntity
  8
POPIS
100
AcDbPolyline
 90
        2
 70
     1
 43
2.5
 10
1.27761037562675
 20
0.0290683308725193
 42
-1.0
 10
-1.222389624373249
 20
0.0290683308725193
 42
-1.0
  0
ENDBLK
  5
55A5
330
55A2
100
AcDbEntity
  8
0
100
AcDbBlockEnd
  0
ENDSEC
  0
SECTION
  2
ENTITIES
  0
TEXT
  5
5A2B
330
1F
100
AcDbEntity
  8
POPIS
100
AcDbText
 10
1910.882967862533
 20
550.9251576514238
 30
0.0
 40
25.0
  1
Rohový profil (přichycen ke stěně)
 41
0.7
  7
SIMPLEX7
100
AcDbText
  0
TEXT
  5
5A2C
330
1F
100
AcDbEntity
  8
POPIS
100
AcDbText
 10
1911.281663065034
 20
477.81462618478
 30
0.0
 40
25.0
  1
Disperzní lepidlo 
 41
0.7
  7
SIMPLEX7
100
AcDbText
  0
TEXT
  5
5A2D
330
1F
100
AcDbEntity
  8
POPIS
100
AcDbText
 10
1910.882967862533
 20
513.9153707279733
 30
0.0
 40
25.0
  1
Dřevěné parkety
 41
0.7
  7
SIMPLEX7
100
AcDbText
  0
TEXT
  5
5A2E
330
1F
100
AcDbEntity
  8
POPIS
100
AcDbText
 10
1911.281663065034
 20
300.4507900871581
 30
0.0
 40
25.0
  1
Dilatační spára tl. 15 mm
 41
0.7
  7
SIMPLEX7
100
AcDbText
  0
TEXT
  5
5A2F
330
1F
100
AcDbEntity
  8
POPIS
100
AcDbText
 10
1911.281663065034
 20
407.5055065756118
 30
0.0
 40
25.0
  1
Penetrace PRIMER S
 41
0.7
  7
SIMPLEX7
100
AcDbText
  0
TEXT
  5
5A30
330
1F
100
AcDbEntity
  8
POPIS
100
AcDbText
 10
1911.281663065034
 20
442.9096677937746
 30
0.0
 40
25.0
  1
Nivelační stěrka 
 41
0.7
  7
SIMPLEX7
100
AcDbText
  0
TEXT
  5
5A31
330
1F
100
AcDbEntity
  8
POPIS
100
AcDbText
 10
1910.939712606931
 20
370.8794362577814
 30
0.0
 40
25.0
  1
Podlahová deska CETRIS   PD (PDB)
 41
0.7
  7
SIMPLEX7
100
AcDbText
  0
TEXT
  5
5A32
330
1F
100
AcDbEntity
  8
POPIS
100
AcDbText
 10
1910.939712606931
 20
336.9941647184955
 30
0.0
 40
25.0
  1
Stávající dřevěná podlaha
 41
0.7
  7
SIMPLEX7
100
AcDbText
  0
TEXT
  5
5A33
330
1F
100
AcDbEntity
  8
POPIS
100
AcDbText
 10
1911.281663065034
 20
266.6078642597499
 30
0.0
 40
25.0
  1
Stropní konstrukce
 41
0.7
  7
SIMPLEX7
100
AcDbText
  0
LINE
  5
5A34
330
1F
100
AcDbEntity
  8
STAVBA OBRYS
100
AcDbLine
 10
1091.440905488143
 20
242.6236702723877
 30
0.0
 11
1091.440905488143
 21
54.86717537948289
 31
0.0
  0
LINE
  5
5A35
330
1F
100
AcDbEntity
  8
STAVBA OBRYS
100
AcDbLine
 10
1101.44090548814
 20
232.6236702723877
 30
0.0
 11
1101.44090548814
 21
54.86717537948289
 31
0.0
  0
HATCH
  5
5A36
330
1F
100
AcDbEntity
  8
STAVBA OBRYS
100
AcDbHatch
 10
0.0
 20
0.0
 30
0.0
210
0.0
220
0.0
230
1.0
  2
AR-CONC
 70
     0
 71
     0
 91
        1
 92
        7
 72
     0
 73
     1
 93
        6
 10
1801.182785271041
 20
242.6236702723877
 10
1091.440905488147
 20
242.6236702723877
 10
1091.44090548814
 20
54.38092344478582
 10
1101.440905488136
 20
54.86717537948289
 10
1101.440905488143
 20
232.6236702723877
 10
1801.182785271041
 20
232.6236702723877
 97
        0
 75
     0
 76
     1
 52
90.0
 41
0.1
 77
     0
 78
    13
 53
140.0
 43
-26595.95056163805
 44
3289.342900267181
 45
1.593908553890309
 46
18.2184668996004
 79
     2
 49
1.905
 49
-20.955
 53
85.00000000000001
 43
-26595.95056163805
 44
3289.342900267181
 45
-19.10566428821799
 46
-3.524282597566697
 79
     2
 49
1.524
 49
-16.764
 53
190.4509999999999
 43
-26595.81773663804
 44
3290.861100267181
 45
-17.51166878202918
 46
14.69425016659592
 79
     2
 49
1.619
 49
-17.809
 53
136.1841999999999
 43
-26601.03056163804
 44
3289.342900267181
 45
4.204232793272717
 46
27.10790408921299
 79
     2
 49
2.857499999999999
 49
-31.4325
 53
186.6355999999999
 43
-26600.68021163805
 44
3291.60189026718
 45
-24.74255558900492
 46
23.74042344662371
 79
     2
 49
2.4285
 49
-26.7135
 53
81.18400000000004
 43
-26601.03056163804
 44
3289.342900267181
 45
-24.74251178605976
 46
23.74046058139339
 79
     2
 49
2.286
 49
-25.146
 53
111.0
 43
-26599.76056163805
 44
3291.882900267181
 45
10.22655185167625
 46
15.16148798353833
 79
     2
 49
1.905
 49
-20.955
 53
56.00000000000004
 43
-26599.76056163805
 44
3291.882900267181
 45
-18.41879661223192
 46
6.180202834764708
 79
     2
 49
1.524
 49
-16.764
 53
161.4514
 43
-26598.90835163805
 44
3293.14635026718
 45
-8.192285771605742
 46
21.34164907701245
 79
     2
 49
1.618999999999996
 49
-17.80899999999994
 53
127.5
 43
-26595.95056163805
 44
3289.342900267181
 45
-8.455503887315311
 46
0.3088603250591822
 79
     6
 49
0.0
 49
-16.5608
 49
0.0
 49
-17.018
 49
0.0
 49
-16.8275
 53
97.49999999999985
 43
-26595.95056163805
 44
3289.342900267181
 45
-10.01805748181195
 46
6.681966251030575
 79
     6
 49
0.0
 49
-9.702799999999998
 49
0.0
 49
-16.17979999999999
 49
0.0
 49
-6.413499999999999
 53
57.5
 43
-26595.95056163805
 44
3283.67870026718
 45
0.5728743992673473
 46
13.55905951668713
 79
     6
 49
0.0
 49
-6.35
 49
0.0
 49
-19.812
 49
0.0
 49
-26.289
 53
47.5
 43
-26595.95056163805
 44
3281.138700267181
 45
-2.5426491033333
 46
14.8129181386018
 79
     6
 49
0.0
 49
-8.255
 49
0.0
 49
-13.1572
 49
0.0
 49
-18.669
 47
1.255134839913078
 98
        1
 10
1275.039253899995
 20
238.9514966917599
  0
HATCH
  5
5A37
330
1F
100
AcDbEntity
  8
STAVBA OBRYS
100
AcDbHatch
 10
0.0
 20
0.0
 30
0.0
210
0.0
220
0.0
230
1.0
  2
AR-CONC
 70
     0
 71
     0
 91
        2
 92
        7
 72
     0
 73
     1
 93
        4
 10
1101.440905488143
 20
638.0445502741372
 10
1091.440905488143
 20
638.0445502741372
 10
1091.440905488143
 20
390.0550989903336
 10
1101.440905488143
 20
385.1730396961397
 97
        0
 92
        7
 72
     0
 73
     1
 93
        4
 10
852.3603096596495
 20
638.0445502741345
 10
842.3603096596458
 20
638.0445502741336
 10
842.3603096596494
 20
42.26933128306018
 10
852.3603096596495
 20
42.75558321775725
 97
        0
 75
     0
 76
     1
 52
90.0
 41
0.1
 77
     0
 78
    13
 53
140.0
 43
-26595.95056163805
 44
3289.342900267181
 45
1.593908553890309
 46
18.2184668996004
 79
     2
 49
1.905
 49
-20.955
 53
85.00000000000001
 43
-26595.95056163805
 44
3289.342900267181
 45
-19.10566428821799
 46
-3.524282597566697
 79
     2
 49
1.524
 49
-16.764
 53
190.4509999999999
 43
-26595.81773663804
 44
3290.861100267181
 45
-17.51166878202918
 46
14.69425016659592
 79
     2
 49
1.619
 49
-17.809
 53
136.1841999999999
 43
-26601.03056163804
 44
3289.342900267181
 45
4.204232793272717
 46
27.10790408921299
 79
     2
 49
2.857499999999999
 49
-31.4325
 53
186.6355999999999
 43
-26600.68021163805
 44
3291.60189026718
 45
-24.74255558900492
 46
23.74042344662371
 79
     2
 49
2.4285
 49
-26.7135
 53
81.18400000000004
 43
-26601.03056163804
 44
3289.342900267181
 45
-24.74251178605976
 46
23.74046058139339
 79
     2
 49
2.286
 49
-25.146
 53
111.0
 43
-26599.76056163805
 44
3291.882900267181
 45
10.22655185167625
 46
15.16148798353833
 79
     2
 49
1.905
 49
-20.955
 53
56.00000000000004
 43
-26599.76056163805
 44
3291.882900267181
 45
-18.41879661223192
 46
6.180202834764708
 79
     2
 49
1.524
 49
-16.764
 53
161.4514
 43
-26598.90835163805
 44
3293.14635026718
 45
-8.192285771605742
 46
21.34164907701245
 79
     2
 49
1.618999999999996
 49
-17.80899999999994
 53
127.5
 43
-26595.95056163805
 44
3289.342900267181
 45
-8.455503887315311
 46
0.3088603250591822
 79
     6
 49
0.0
 49
-16.5608
 49
0.0
 49
-17.018
 49
0.0
 49
-16.8275
 53
97.49999999999985
 43
-26595.95056163805
 44
3289.342900267181
 45
-10.01805748181195
 46
6.681966251030575
 79
     6
 49
0.0
 49
-9.702799999999998
 49
0.0
 49
-16.17979999999999
 49
0.0
 49
-6.413499999999999
 53
57.5
 43
-26595.95056163805
 44
3283.67870026718
 45
0.5728743992673473
 46
13.55905951668713
 79
     6
 49
0.0
 49
-6.35
 49
0.0
 49
-19.812
 49
0.0
 49
-26.289
 53
47.5
 43
-26595.95056163805
 44
3281.138700267181
 45
-2.5426491033333
 46
14.8129181386018
 79
     6
 49
0.0
 49
-8.255
 49
0.0
 49
-13.1572
 49
0.0
 49
-18.669
 47
1.255134839913078
 98
        2
 10
1095.323527263841
 20
486.6124945814449
 10
847.9101119298871
 20
435.1519549140798
  0
HATCH
  5
5A38
330
1F
100
AcDbEntity
  8
STAVBA OBRYS
100
AcDbHatch
 10
0.0
 20
0.0
 30
0.0
210
0.0
220
0.0
230
1.0
  2
BRICK
 70
     0
 71
     0
 91
        3
 92
        7
 72
     0
 73
     1
 93
        4
 10
1091.440905488143
 20
638.0445502741372
 10
852.3603096596495
 20
638.0445502741345
 10
852.3603096596495
 20
362.6236702723895
 10
1091.440905488151
 20
362.6236702723895
 97
        0
 92
        7
 72
     0
 73
     1
 93
        4
 10
1091.440905488143
 20
149.0119801878795
 10
852.3603096596495
 20
149.0119801878813
 10
852.3603096596495
 20
42.75558321775906
 10
1091.440905488147
 20
54.380923444784
 97
        0
 92
       24
 93
        4
 72
     1
 10
990.3047009836779
 20
399.4329472710346
 11
1031.136130042345
 21
399.4329472710346
 72
     1
 10
1031.136130042345
 20
399.4329472710346
 11
1031.136130042345
 21
437.7259213501615
 72
     1
 10
1031.136130042345
 20
437.7259213501624
 11
990.3047009836777
 21
437.7259213501624
 72
     1
 10
990.3047009836779
 20
437.7259213501624
 11
990.3047009836779
 21
399.4329472710365
 97
        0
 75
     0
 76
     1
 52
0.0
 41
10.0
 77
     0
 78
     3
 53
0.0
 43
-26595.95056163805
 44
3289.342900267181
 45
0.0
 46
63.5
 79
     0
 53
90.0
 43
-26595.95056163805
 44
3289.342900267181
 45
-127.0
 46
0.0000000000000078
 79
     2
 49
63.5
 49
-63.5
 53
90.0
 43
-26532.45056163804
 44
3289.342900267181
 45
-127.0
 46
0.0000000000000078
 79
     2
 49
-63.5
 49
63.5
 47
3.017070218097292
 98
        2
 10
1015.548977794737
 20
494.7437210599641
 10
985.3597404087564
 20
99.50752020327536
  0
LINE
  5
5A39
330
1F
100
AcDbEntity
  8
STAVBA OBRYS
100
AcDbLine
 10
852.3603096596495
 20
42.26933128306018
 30
0.0
 11
852.3603096596458
 21
638.0445502741345
 31
0.0
  0
LINE
  5
5A3A
330
1F
100
AcDbEntity
  8
STAVBA OBRYS
100
AcDbLine
 10
842.3603096596494
 20
42.26933128306018
 30
0.0
 11
842.3603096596458
 21
638.0445502741345
 31
0.0
  0
LINE
  5
5A47
330
1F
100
AcDbEntity
  8
STAVBA OBRYS
100
AcDbLine
 10
976.0404601763317
 20
362.6236702723872
 30
0.0
 11
1804.907259806821
 21
362.6236702723867
 31
0.0
  0
POLYLINE
  5
5A48
330
1F
100
AcDbEntity
  8
STAVBA OBRYS
100
AcDb2dPolyline
 66
     1
 10
0.0
 20
0.0
 30
0.0
  0
VERTEX
  5
5A49
330
5A48
100
AcDbEntity
  8
STAVBA OBRYS
100
AcDbVertex
100
AcDb2dVertex
 10
1414.844808226709
 20
362.6236702723872
 30
0.0
 42
0.0502247168465557
  0
VERTEX
  5
5A4A
330
5A48
100
AcDbEntity
  8
STAVBA OBRYS
100
AcDbVertex
100
AcDb2dVertex
 10
1413.245761050545
 20
364.63114094511
 30
0.0
 42
0.0274923553235744
  0
VERTEX
  5
5A4B
330
5A48
100
AcDbEntity
  8
STAVBA OBRYS
100
AcDbVertex
100
AcDb2dVertex
 10
1410.648455319992
 20
367.0162162682481
 30
0.0
 42
0.0255412025538677
  0
VERTEX
  5
5A4C
330
5A48
100
AcDbEntity
  8
STAVBA OBRYS
100
AcDbVertex
100
AcDb2dVertex
 10
1407.597025282281
 20
369.2729299452639
 30
0.0
 42
0.0272796991712396
  0
VERTEX
  5
5A4D
330
5A48
100
AcDbEntity
  8
STAVBA OBRYS
100
AcDbVertex
100
AcDb2dVertex
 10
1403.484026129096
 20
371.6892658269298
 30
0.0
 42
0.056967459841729
  0
VERTEX
  5
5A4E
330
5A48
100
AcDbEntity
  8
STAVBA OBRYS
100
AcDbVertex
100
AcDb2dVertex
 10
1401.343078848364
 20
372.5020016621292
 30
0.0
 42
0.0373408083348504
  0
VERTEX
  5
5A4F
330
5A48
100
AcDbEntity
  8
STAVBA OBRYS
100
AcDbVertex
100
AcDb2dVertex
 10
1401.12072447289
 20
372.5411672030768
 30
0.0
 42
0.0052305969362967
  0
VERTEX
  5
5A50
330
5A48
100
AcDbEntity
  8
STAVBA OBRYS
100
AcDbVertex
100
AcDb2dVertex
 10
1400.77476469913
 20
372.5721241699811
 30
0.0
  0
SEQEND
  5
5A51
330
5A48
100
AcDbEntity
  8
STAVBA OBRYS
  0
POLYLINE
  5
5A52
330
1F
100
AcDbEntity
  8
STAVBA OBRYS
100
AcDb2dPolyline
 66
     1
 10
0.0
 20
0.0
 30
0.0
  0
VERTEX
  5
5A53
330
5A52
100
AcDbEntity
  8
STAVBA OBRYS
100
AcDbVertex
100
AcDb2dVertex
 10
1405.791662277174
 20
362.6236702723872
 30
0.0
 42
0.0094186890201653
  0
VERTEX
  5
5A54
330
5A52
100
AcDbEntity
  8
STAVBA OBRYS
100
AcDbVertex
100
AcDb2dVertex
 10
1405.4448637143
 20
362.7823431431552
 30
0.0
 42
0.0322692699774654
  0
VERTEX
  5
5A55
330
5A52
100
AcDbEntity
  8
STAVBA OBRYS
100
AcDbVertex
100
AcDb2dVertex
 10
1402.553509533209
 20
363.8238666445559
 30
0.0
 42
0.0276160659512937
  0
VERTEX
  5
5A56
330
5A52
100
AcDbEntity
  8
STAVBA OBRYS
100
AcDbVertex
100
AcDb2dVertex
 10
1401.697933094922
 20
364.0206020735003
 30
0.0
 42
0.0126891984598699
  0
VERTEX
  5
5A57
330
5A52
100
AcDbEntity
  8
STAVBA OBRYS
100
AcDbVertex
100
AcDb2dVertex
 10
1400.77476469913
 20
364.1558044630419
 30
0.0
  0
SEQEND
  5
5A58
330
5A52
100
AcDbEntity
  8
STAVBA OBRYS
  0
LWPOLYLINE
  5
5A59
330
1F
100
AcDbEntity
  8
izolace
100
AcDbPolyline
 90
        4
 70
     0
 43
0.0
 10
1801.826022038918
 20
380.6236702723868
 10
1125.623788040513
 20
380.6236702723868
 10
1125.623788040513
 20
383.6236702723867
 10
1801.312482410933
 20
383.6236702723867
  0
LINE
  5
5A5A
330
1F
100
AcDbEntity
  8
STAVBA OBRYS
100
AcDbLine
 10
1100.623788040521
 20
380.6236702723872
 30
0.0
 11
1801.826022038918
 21
380.623670272387
 31
0.0
  0
LWPOLYLINE
  5
5A5B
330
1F
100
AcDbEntity
  8
nášlap_vrstvy
100
AcDbPolyline
 90
        4
 70
     0
 43
0.0
 10
1383.978136827896
 20
414.7583960480046
 10
1403.974389259889
 20
423.9744250985244
 10
1420.752279831107
 20
426.6815693612157
 10
1424.015891078812
 20
426.8118707255857
  0
LWPOLYLINE
  5
5A5C
330
1F
100
AcDbEntity
  8
nášlap_vrstvy
100
AcDbPolyline
 90
        4
 70
     1
 43
0.0
 10
1451.311845379594
 20
408.3813360852732
 10
1101.440905488143
 20
408.3813360852732
 10
1101.440905488143
 20
409.8813360852732
 10
1451.311845379594
 20
409.8813360852732
  0
HATCH
  5
5A5D
330
1F
100
AcDbEntity
  8
CETRIS
100
AcDbHatch
 10
0.0
 20
0.0
 30
0.0
210
0.0
220
0.0
230
1.0
  2
ANSI31
 70
     0
 71
     0
 91
        3
 92
        7
 72
     1
 73
     1
 93
       42
 10
1419.494496846513
 20
392.381336085273
 42
0.0
 10
1409.494496846513
 20
392.381336085273
 42
0.0
 10
1409.494496846513
 20
400.3813360852729
 42
0.0
 10
1419.494496846513
 20
400.3813360852729
 42
0.0
 10
1419.494496846513
 20
408.381336085273
 42
0.0
 10
1397.896910951125
 20
408.381336085273
 42
0.0
 10
1397.896910951125
 20
407.2054078440762
 42
0.0
 10
1397.195911868685
 20
406.8754186789521
 42
0.0
 10
1395.983520735959
 20
405.9756968387193
 42
0.0
 10
1395.044601287374
 20
404.7924760194766
 42
0.0
 10
1394.44387515521
 20
403.4068861539692
 42
0.0
 10
1394.221451522144
 20
401.9137307596094
 42
0.0
 10
1394.221451522144
 20
401.6230937055699
 42
-0.1200842046796913
 10
1394.221451522144
 20
401.0312078048339
 42
0.0
 10
1394.221451522144
 20
399.699679545127
 42
0.0
 10
1394.880518278609
 20
399.4780706219565
 42
0.0
 10
1395.25061662213
 20
399.2638511361712
 42
0.0
 10
1394.880518278604
 20
398.8937527905065
 42
0.0
 10
1394.221451522144
 20
399.115361713719
 42
0.0
 10
1394.221451522144
 20
396.6570317416738
 42
0.0
 10
1394.880518278602
 20
396.4354228185077
 42
0.0
 10
1395.25061662213
 20
396.2212033327198
 42
0.0
 10
1394.880518278604
 20
395.8511049870542
 42
0.0
 10
1394.221451522144
 20
396.0727139102684
 42
0.0
 10
1394.221451522144
 20
393.5994667355901
 42
0.0
 10
1394.880518278607
 20
393.3780093916496
 42
0.0
 10
1395.25061662213
 20
393.1637899058653
 42
0.0
 10
1394.880518278604
 20
392.7936915604716
 42
0.0
 10
1394.221451522144
 20
393.0151489043648
 42
0.0
 10
1394.221451522144
 20
390.5569705116406
 42
0.0
 10
1394.880518278607
 20
390.3353615884691
 42
0.0
 10
1395.25061662213
 20
390.1211421026857
 42
0.0
 10
1394.880518278604
 20
389.7510437570201
 42
0.0
 10
1394.221451522144
 20
389.9726526802335
 42
0.0
 10
1394.221451522144
 20
387.4994055055569
 42
0.0
 10
1394.880518278607
 20
387.2779481616191
 42
0.0
 10
1395.25061662213
 20
387.0637286758313
 42
0.0
 10
1394.880518278604
 20
386.6936303304385
 42
0.0
 10
1394.221451522144
 20
386.9150876743308
 42
0.0
 10
1394.221451522144
 20
384.4412320860094
 42
0.0
 10
1394.399582719963
 20
384.381336085272
 42
0.0
 10
1419.494496846513
 20
384.381336085272
 42
0.0
 97
        0
 92
        7
 72
     1
 73
     1
 93
       83
 10
1391.576068762663
 20
393.9040413173909
 42
0.0
 10
1390.917002006203
 20
394.1254986612841
 42
0.0
 10
1390.546903658398
 20
394.3397181470702
 42
0.0
 10
1390.917002006203
 20
394.7098164927358
 42
0.0
 10
1391.576068762663
 20
394.4883591487971
 42
0.0
 10
1391.576068762663
 20
396.9622147371112
 42
0.0
 10
1390.917002006203
 20
397.1838236603264
 42
0.0
 10
1390.546903658398
 20
397.3971315736528
 42
0.0
 10
1390.917002006203
 20
397.7681414915053
 42
0.0
 10
1391.576068762663
 20
397.5465325683364
 42
0.0
 10
1391.576068762663
 20
400.0048625405636
 42
0.0
 10
1390.917002006196
 20
400.2264714637788
 42
0.0
 10
1390.546903658398
 20
400.4397793771042
 42
0.0
 10
1390.917002006203
 20
400.8107892949586
 42
0.0
 10
1391.576068762663
 20
400.5891803717897
 42
0.0
 10
1391.543707946521
 20
402.2993258339322
 42
0.0
 10
1391.511347130379
 20
402.6849209082595
 42
0.0
 10
1391.092023883366
 20
404.1361439779759
 42
0.0
 10
1390.311718013633
 20
405.4287534707075
 42
0.0
 10
1389.223300711286
 20
406.4761500203287
 42
0.0
 10
1387.900609329403
 20
407.2054078440753
 42
0.0
 10
1387.900609329403
 20
408.381336085273
 42
0.0
 10
1343.918474131686
 20
408.381336085273
 42
0.0
 10
1343.918474131686
 20
387.9360386495811
 42
-1.0
 10
1343.918474131684
 20
385.4360386495812
 42
-1.0
 10
1343.918474131686
 20
387.9360386495811
 42
0.0
 10
1343.918474131686
 20
408.3813360852738
 42
0.0
 10
1297.036159317519
 20
408.3813360852748
 42
0.0
 10
1297.036159317519
 20
399.5771507552019
 42
-1.0
 10
1297.036159317517
 20
397.0771507552019
 42
-1.0
 10
1297.036159317519
 20
399.5771507552019
 42
0.0
 10
1297.036159317519
 20
408.381336085273
 42
0.0
 10
1148.001759983768
 20
408.381336085273
 42
0.0
 10
1148.00175998377
 20
407.2054078440762
 42
0.0
 10
1147.300760901327
 20
406.8754186789521
 42
0.0
 10
1146.088369768606
 20
405.9756968387184
 42
0.0
 10
1145.149450320017
 20
404.7924760194757
 42
0.0
 10
1144.548724187856
 20
403.4068861539674
 42
0.0
 10
1144.326300554789
 20
401.913730759604
 42
0.0
 10
1144.326300554787
 20
399.6996795451261
 42
0.0
 10
1144.98536731125
 20
399.4780706219565
 42
0.0
 10
1145.355465654775
 20
399.2638511361722
 42
0.0
 10
1144.985367311248
 20
398.8937527905056
 42
0.0
 10
1144.326300554789
 20
399.1153617137199
 42
0.0
 10
1144.326300554789
 20
396.6570317416728
 42
0.0
 10
1144.98536731125
 20
396.435422818505
 42
0.0
 10
1145.355465654777
 20
396.2212033327207
 42
0.0
 10
1144.985367311247
 20
395.8511049870542
 42
0.0
 10
1144.326300554791
 20
396.0727139102676
 42
0.0
 10
1144.326300554789
 20
393.5994667355901
 42
0.0
 10
1144.985367311247
 20
393.3780093916541
 42
0.0
 10
1145.355465654777
 20
393.1637899058662
 42
0.0
 10
1144.985367311248
 20
392.7936915604725
 42
0.0
 10
1144.326300554789
 20
393.0151489043657
 42
0.0
 10
1144.326300554789
 20
390.5569705116388
 42
0.0
 10
1144.985367311243
 20
390.3353615884745
 42
0.0
 10
1145.355465654775
 20
390.1211421026848
 42
0.0
 10
1144.985367311247
 20
389.7510437570192
 42
0.0
 10
1144.326300554791
 20
389.9726526802335
 42
0.0
 10
1144.326300554789
 20
387.499405505556
 42
0.0
 10
1144.985367311256
 20
387.2779481616173
 42
0.0
 10
1145.355465654777
 20
387.0637286758331
 42
0.0
 10
1144.985367311247
 20
386.6936303304376
 42
0.0
 10
1144.326300554789
 20
386.915087674329
 42
0.0
 10
1144.326300554789
 20
384.4412320860112
 42
0.0
 10
1144.50443175261
 20
384.381336085272
 42
0.0
 10
1166.440905488136
 20
384.381336085272
 42
0.0
 10
1391.576068762663
 20
384.381336085272
 42
0.0
 10
1391.576068762663
 20
384.7464150812277
 42
0.0
 10
1390.917002006199
 20
384.9680240043928
 42
0.0
 10
1390.546903658398
 20
385.1822434901835
 42
0.0
 10
1390.917002006203
 20
385.5523418358473
 42
0.0
 10
1391.576068762663
 20
385.3307329126785
 42
0.0
 10
1391.576068762663
 20
387.8039800873578
 42
0.0
 10
1390.917002006199
 20
388.0254374312519
 42
0.0
 10
1390.546903658398
 20
388.2396569170353
 42
0.0
 10
1390.917002006203
 20
388.6097552627018
 42
0.0
 10
1391.576068762663
 20
388.388297918764
 42
0.0
 10
1391.576068762663
 20
390.8621535070772
 42
0.0
 10
1390.917002006201
 20
391.0837624302914
 42
0.0
 10
1390.546903658398
 20
391.2970703436187
 42
0.0
 10
1390.917002006203
 20
391.6680802614721
 42
0.0
 10
1391.576068762663
 20
391.4464713383051
 42
0.0
 97
        0
 92
        7
 72
     0
 73
     1
 93
       40
 10
1141.680917795306
 20
390.8621535070781
 10
1141.02185103885
 20
391.0837624302923
 10
1140.651752691043
 20
391.2970703436187
 10
1141.021851038846
 20
391.6680802614721
 10
1141.680917795308
 20
391.4464713383033
 10
1141.680917795308
 20
393.9040413173918
 10
1141.021851038855
 20
394.1254986612814
 10
1140.651752691043
 20
394.3397181470702
 10
1141.021851038848
 20
394.7098164927358
 10
1141.680917795308
 20
394.4883591487971
 10
1141.680917795308
 20
396.9622147371121
 10
1141.021851038844
 20
397.1838236603255
 10
1140.651752691045
 20
397.3971315736528
 10
1141.021851038846
 20
397.7681414915053
 10
1141.680917795308
 20
397.5465325683364
 10
1141.680917795308
 20
400.0048625405627
 10
1141.02185103885
 20
400.2264714637743
 10
1140.651752691043
 20
400.4397793771033
 10
1141.021851038848
 20
400.8107892949586
 10
1141.680917795308
 20
400.5891803717906
 10
1141.648556979168
 20
402.2993258339213
 10
1141.616196163026
 20
402.6849209082667
 10
1141.196872916009
 20
404.1361439779759
 10
1140.416567046281
 20
405.4287534707047
 10
1139.328149743929
 20
406.4761500203287
 10
1138.005458362048
 20
407.2054078440762
 10
1138.005458362048
 20
408.381336085273
 10
1116.440905488134
 20
408.381336085273
 10
1116.440905488136
 20
384.381336085272
 10
1141.680917795308
 20
384.381336085272
 10
1141.680917795306
 20
384.7464150812268
 10
1141.021851038848
 20
384.9680240043937
 10
1140.651752691043
 20
385.1822434901817
 10
1141.021851038848
 20
385.5523418358482
 10
1141.680917795308
 20
385.3307329126785
 10
1141.680917795308
 20
387.8039800873578
 10
1141.021851038846
 20
388.0254374312501
 10
1140.651752691043
 20
388.2396569170353
 10
1141.021851038848
 20
388.6097552627018
 10
1141.680917795308
 20
388.388297918764
 97
        0
 75
     0
 76
     1
 52
0.0
 41
1.0
 77
     0
 78
     1
 53
45.0
 43
-4089.721785666244
 44
-4750.186567426168
 45
-2.245064030267287
 46
2.245064030267288
 79
     0
 47
0.7293997082383822
 98
        3
 10
1402.029784508575
 20
391.1304556392317
 10
1366.267247796432
 20
391.8598623959626
 10
1133.445868836136
 20
388.9422689188543
  0
LINE
  5
5A5E
330
1F
100
AcDbEntity
  8
nášlap_vrstvy
100
AcDbLine
 10
1101.44090548814
 20
412.2189968514244
 30
0.0
 11
1801.182785271041
 21
412.2189968514308
 31
0.0
  0
LINE
  5
5A5F
330
1F
100
AcDbEntity
  8
nášlap_vrstvy
100
AcDbLine
 10
1103.325407723376
 20
433.2592264787531
 30
0.0
 11
1801.182785271038
 21
433.2592264787522
 31
0.0
  0
LINE
  5
5A60
330
1F
100
AcDbEntity
  8
nášlap_vrstvy
100
AcDbLine
 10
1103.32540772338
 20
415.2592264787531
 30
0.0
 11
1801.182785271041
 21
415.2592264787521
 31
0.0
  0
LINE
  5
5A61
330
1F
100
AcDbEntity
  8
CETRIS
100
AcDbLine
 10
1116.44090548814
 20
408.3813360852732
 30
0.0
 11
1801.182785271041
 21
408.3813360852732
 31
0.0
  0
LINE
  5
5A62
330
1F
100
AcDbEntity
  8
STAVBA OBRYS
100
AcDbLine
 10
852.3603096596458
 20
362.6236702723876
 30
0.0
 11
1801.182785271041
 21
362.6236702723876
 31
0.0
  0
LWPOLYLINE
  5
5A63
330
1F
100
AcDbEntity
  8
CETRIS
100
AcDbPolyline
 90
        4
 70
     0
 43
0.0
 10
1801.182785271038
 20
384.381336085273
 10
1116.440905488136
 20
384.381336085273
 10
1116.440905488136
 20
384.381336085272
 10
1116.440905488136
 20
408.381336085273
  0
LINE
  5
5A64
330
1F
100
AcDbEntity
  8
CETRIS
100
AcDbLine
 10
1116.440905488136
 20
408.381336085273
 30
0.0
 11
1801.182785271038
 21
408.381336085273
 31
0.0
  0
LINE
  5
5A65
330
1F
100
AcDbEntity
  8
STAVBA OBRYS
100
AcDbLine
 10
1101.44090548814
 20
232.6236702723877
 30
0.0
 11
1801.182785271041
 21
232.6236702723877
 31
0.0
  0
LINE
  5
5A66
330
1F
100
AcDbEntity
  8
STAVBA OBRYS
100
AcDbLine
 10
1091.440905488143
 20
242.6236702723877
 30
0.0
 11
1801.182785271041
 21
242.6236702723877
 31
0.0
  0
TEXT
  5
5A67
330
1F
100
AcDbEntity
  8
POPIS
100
AcDbText
 10
833.098056054802
 20
752.2838713424157
 30
0.0
 40
50.0
  1
Podlahová krytina - dřevěné parkety lepené
 41
0.85
  7
SIMPLEX7
100
AcDbText
  0
TEXT
  5
5A68
330
1F
100
AcDbEntity
  8
POPIS
100
AcDbText
 10
833.098056054802
 20
697.6591283166149
 30
0.0
 40
35.0
  1
SVISLÝ ŘEZ
 41
0.85
  7
SIMPLEX7
100
AcDbText
  0
POLYLINE
  5
5A69
330
1F
100
AcDbEntity
  8
STAVBA OBRYS
100
AcDb2dPolyline
 66
     1
 10
0.0
 20
0.0
 30
0.0
  0
VERTEX
  5
5A6A
330
5A69
100
AcDbEntity
  8
STAVBA OBRYS
100
AcDbVertex
100
AcDb2dVertex
 10
1105.791662277174
 20
362.6236702723872
 30
0.0
 42
0.0094186890201653
  0
VERTEX
  5
5A6B
330
5A69
100
AcDbEntity
  8
STAVBA OBRYS
100
AcDbVertex
100
AcDb2dVertex
 10
1105.4448637143
 20
362.7823431431552
 30
0.0
 42
0.0322692699774654
  0
VERTEX
  5
5A6C
330
5A69
100
AcDbEntity
  8
STAVBA OBRYS
100
AcDbVertex
100
AcDb2dVertex
 10
1102.553509533209
 20
363.8238666445559
 30
0.0
 42
0.0276160659512937
  0
VERTEX
  5
5A6D
330
5A69
100
AcDbEntity
  8
STAVBA OBRYS
100
AcDbVertex
100
AcDb2dVertex
 10
1101.697933094922
 20
364.0206020735003
 30
0.0
 42
0.0126891984598699
  0
VERTEX
  5
5A6E
330
5A69
100
AcDbEntity
  8
STAVBA OBRYS
100
AcDbVertex
100
AcDb2dVertex
 10
1100.77476469913
 20
364.1558044630419
 30
0.0
  0
SEQEND
  5
5A6F
330
5A69
100
AcDbEntity
  8
STAVBA OBRYS
  0
POLYLINE
  5
5A70
330
1F
100
AcDbEntity
  8
STAVBA OBRYS
100
AcDb2dPolyline
 66
     1
 10
0.0
 20
0.0
 30
0.0
  0
VERTEX
  5
5A71
330
5A70
100
AcDbEntity
  8
STAVBA OBRYS
100
AcDbVertex
100
AcDb2dVertex
 10
1114.844808226709
 20
362.6236702723872
 30
0.0
 42
0.0502247168465557
  0
VERTEX
  5
5A72
330
5A70
100
AcDbEntity
  8
STAVBA OBRYS
100
AcDbVertex
100
AcDb2dVertex
 10
1113.245761050545
 20
364.63114094511
 30
0.0
 42
0.0274923553235744
  0
VERTEX
  5
5A73
330
5A70
100
AcDbEntity
  8
STAVBA OBRYS
100
AcDbVertex
100
AcDb2dVertex
 10
1110.648455319992
 20
367.0162162682481
 30
0.0
 42
0.0255412025538677
  0
VERTEX
  5
5A74
330
5A70
100
AcDbEntity
  8
STAVBA OBRYS
100
AcDbVertex
100
AcDb2dVertex
 10
1107.597025282281
 20
369.2729299452639
 30
0.0
 42
0.0272796991712396
  0
VERTEX
  5
5A75
330
5A70
100
AcDbEntity
  8
STAVBA OBRYS
100
AcDbVertex
100
AcDb2dVertex
 10
1103.484026129096
 20
371.6892658269298
 30
0.0
 42
0.056967459841729
  0
VERTEX
  5
5A76
330
5A70
100
AcDbEntity
  8
STAVBA OBRYS
100
AcDbVertex
100
AcDb2dVertex
 10
1101.343078848364
 20
372.5020016621292
 30
0.0
 42
0.0373408083348504
  0
VERTEX
  5
5A77
330
5A70
100
AcDbEntity
  8
STAVBA OBRYS
100
AcDbVertex
100
AcDb2dVertex
 10
1101.12072447289
 20
372.5411672030768
 30
0.0
 42
0.0052305969362967
  0
VERTEX
  5
5A78
330
5A70
100
AcDbEntity
  8
STAVBA OBRYS
100
AcDbVertex
100
AcDb2dVertex
 10
1100.77476469913
 20
372.5721241699811
 30
0.0
  0
SEQEND
  5
5A79
330
5A70
100
AcDbEntity
  8
STAVBA OBRYS
  0
HATCH
  5
5A7A
330
1F
100
AcDbEntity
  8
STAVBA OBRYS
100
AcDbHatch
 10
0.0
 20
0.0
 30
0.0
210
0.0
220
0.0
230
1.0
  2
AR-CONC
 70
     0
 71
     0
 91
        1
 92
        7
 72
     0
 73
     1
 93
        5
 10
1100.623788040521
 20
359.6236702723872
 10
1110.623788040517
 20
359.6236702723872
 10
1110.623788040517
 20
362.6236702723863
 10
1110.62378804052
 20
382.1730396961429
 10
1100.623788040521
 20
387.0550989903313
 97
        0
 75
     0
 76
     1
 52
90.0
 41
0.1
 77
     0
 78
    13
 53
140.0
 43
-26586.76767908567
 44
3286.342900267179
 45
1.593908553890309
 46
18.2184668996004
 79
     2
 49
1.905
 49
-20.955
 53
85.00000000000001
 43
-26586.76767908567
 44
3286.342900267179
 45
-19.10566428821799
 46
-3.524282597566697
 79
     2
 49
1.524
 49
-16.764
 53
190.4509999999999
 43
-26586.63485408567
 44
3287.861100267179
 45
-17.51166878202918
 46
14.69425016659592
 79
     2
 49
1.619
 49
-17.809
 53
136.1841999999999
 43
-26591.84767908567
 44
3286.342900267179
 45
4.204232793272717
 46
27.10790408921299
 79
     2
 49
2.857499999999999
 49
-31.4325
 53
186.6355999999999
 43
-26591.49732908567
 44
3288.601890267179
 45
-24.74255558900492
 46
23.74042344662371
 79
     2
 49
2.4285
 49
-26.7135
 53
81.18400000000004
 43
-26591.84767908567
 44
3286.342900267179
 45
-24.74251178605976
 46
23.74046058139339
 79
     2
 49
2.286
 49
-25.146
 53
111.0
 43
-26590.57767908567
 44
3288.882900267179
 45
10.22655185167625
 46
15.16148798353833
 79
     2
 49
1.905
 49
-20.955
 53
56.00000000000004
 43
-26590.57767908567
 44
3288.882900267179
 45
-18.41879661223192
 46
6.180202834764708
 79
     2
 49
1.524
 49
-16.764
 53
161.4514
 43
-26589.72546908567
 44
3290.146350267179
 45
-8.192285771605742
 46
21.34164907701245
 79
     2
 49
1.618999999999997
 49
-17.80899999999995
 53
127.5
 43
-26586.76767908567
 44
3286.342900267179
 45
-8.455503887315311
 46
0.3088603250591822
 79
     6
 49
0.0
 49
-16.5608
 49
0.0
 49
-17.018
 49
0.0
 49
-16.8275
 53
97.49999999999985
 43
-26586.76767908567
 44
3286.342900267179
 45
-10.01805748181195
 46
6.681966251030575
 79
     6
 49
0.0
 49
-9.702799999999998
 49
0.0
 49
-16.17979999999999
 49
0.0
 49
-6.413499999999999
 53
57.5
 43
-26586.76767908567
 44
3280.678700267179
 45
0.5728743992673473
 46
13.55905951668713
 79
     6
 49
0.0
 49
-6.35
 49
0.0
 49
-19.812
 49
0.0
 49
-26.289
 53
47.5
 43
-26586.76767908567
 44
3278.138700267179
 45
-2.5426491033333
 46
14.8129181386018
 79
     6
 49
0.0
 49
-8.255
 49
0.0
 49
-13.1572
 49
0.0
 49
-18.669
 47
0.415434097446913
 98
        1
 10
1103.209271424115
 20
367.5237796721548
  0
LWPOLYLINE
  5
5A7B
330
1F
100
AcDbEntity
  8
nášlap_vrstvy
100
AcDbPolyline
 90
        4
 70
     1
 43
0.0
 10
1113.261771843059
 20
409.8813360852732
 10
1101.440905488143
 20
409.8813360852732
 10
1101.440905488143
 20
408.3813360852732
 10
1113.261771843059
 20
408.3813360852732
  0
HATCH
  5
5A7C
330
1F
100
AcDbEntity
  8
nášlap_vrstvy
100
AcDbHatch
 10
0.0
 20
0.0
 30
0.0
210
0.0
220
0.0
230
1.0
  2
SOLID
 70
     1
 71
     0
 91
        1
 92
        7
 72
     0
 73
     1
 93
        4
 10
1113.261771843059
 20
409.8813360852732
 10
1101.440905488143
 20
409.8813360852732
 10
1101.440905488143
 20
408.3813360852732
 10
1113.261771843063
 20
408.3813360852732
 97
        0
 75
     0
 76
     1
 47
0.1901250437635136
 98
        3
 10
1127.383516975155
 20
408.9976136205791
 10
1109.215421561483
 20
408.9025502827484
 10
1107.217885466871
 20
409.1877402962404
  0
LINE
  5
5A7D
330
1F
100
AcDbEntity
  8
nášlap_vrstvy
100
AcDbLine
 10
1112.638233566464
 20
452.0693760219715
 30
0.0
 11
1101.957720204682
 21
452.0693760219715
 31
0.0
  0
HATCH
  5
5A7E
330
1F
100
AcDbEntity
  8
nášlap_vrstvy
100
AcDbHatch
 10
0.0
 20
0.0
 30
0.0
210
0.0
220
0.0
230
1.0
  2
ANSI31
 70
     0
 71
     0
 91
        1
 92
        7
 72
     1
 73
     1
 93
       11
 10
1121.957720204682
 20
443.9876513363092
 42
0.0
 10
1118.079841821254
 20
447.350491659597
 42
0.0
 10
1111.964609915336
 20
444.013113381216
 42
-0.5665140878365952
 10
1110.862245960179
 20
442.1737970736426
 42
-1.0
 10
1110.862245960179
 20
444.6737970736426
 42
-0.2767200853982219
 10
1111.964609915336
 20
444.013113381216
 42
0.0
 10
1118.079841821247
 20
447.3504916595979
 42
0.0
 10
1112.638233566464
 20
452.0693760219706
 42
0.0
 10
1101.957720204686
 20
452.0693760219724
 42
0.0
 10
1101.957720204686
 20
435.2622905290213
 42
0.0
 10
1121.957720204686
 20
435.2622905290213
 42
0.0
 97
        0
 75
     0
 76
     1
 52
0.0
 41
1.0
 77
     0
 78
     1
 53
45.0
 43
-29727.4485441877
 44
7877.784785636342
 45
-2.245064030267287
 46
2.245064030267288
 79
     0
 47
0.3819952100862718
 98
        1
 10
1116.906972608853
 20
439.9474634555668
  0
LINE
  5
5A7F
330
1F
100
AcDbEntity
  8
nášlap_vrstvy
100
AcDbLine
 10
1101.957720204686
 20
435.2622905290213
 30
0.0
 11
1121.957720204686
 21
435.2622905290213
 31
0.0
  0
LWPOLYLINE
  5
5A80
330
1F
100
AcDbEntity
  8
nášlap_vrstvy
100
AcDbPolyline
 90
        4
 70
     0
 43
0.0
 10
1103.32540772338
 20
423.6753174175196
 10
1103.974389259889
 20
423.9744250985244
 10
1120.752279831107
 20
426.6815693612157
 10
1124.015891078812
 20
426.8118707255857
  0
INSERT
  5
5A81
330
1F
100
AcDbEntity
  8
POPIS
100
AcDbBlockReference
  2
E_PUNKT
 10
1105.882925613994
 20
383.0214015387359
 30
0.0
 50
270.0
  0
LINE
  5
5A82
330
1F
100
AcDbEntity
  8
POPIS
100
AcDbLine
 10
1106.014948724711
 20
382.9399646666302
 30
0.0
 11
1034.895259265624
 21
417.6610187590017
 31
0.0
  0
LWPOLYLINE
  5
5A83
330
1F
100
AcDbEntity
  8
izolace
100
AcDbPolyline
 90
        4
 70
     1
 43
0.0
 10
1101.440905488143
 20
408.3813360852732
 10
1116.440905488136
 20
408.381336085273
 10
1116.440905488138
 20
380.6236702723872
 10
1101.440905488143
 20
380.6236702723872
  0
LINE
  5
5A84
330
1F
100
AcDbEntity
  8
STAVBA OBRYS
100
AcDbLine
 10
1100.623788040521
 20
362.6236702723876
 30
0.0
 11
1312.051467932361
 21
362.6236702723876
 31
0.0
  0
LINE
  5
5A85
330
1F
100
AcDbEntity
  8
nášlap_vrstvy
100
AcDbLine
 10
1103.325407723376
 20
433.2592264787531
 30
0.0
 11
1103.32540772338
 21
415.2592264787531
 31
0.0
  0
TEXT
  5
5A86
330
1F
100
AcDbEntity
  8
POPIS
100
AcDbText
 10
996.6868633302008
 20
406.2414397676243
 30
0.0
 40
25.0
  1
08
 41
0.85
  7
SIMPLEX7
100
AcDbText
  0
LINE
  5
5A87
330
1F
100
AcDbEntity
  8
STAVBA OBRYS
100
AcDbLine
 10
1091.440905488143
 20
362.6236702723876
 30
0.0
 11
1091.44090548814
 21
638.0445502741372
 31
0.0
  0
LINE
  5
5A88
330
1F
100
AcDbEntity
  8
STAVBA OBRYS
100
AcDbLine
 10
1101.440905488143
 20
362.6236702723876
 30
0.0
 11
1101.44090548814
 21
638.0445502741372
 31
0.0
  0
LINE
  5
5A89
330
1F
100
AcDbEntity
  8
STAVBA OBRYS
100
AcDbLine
 10
1091.440905488143
 20
149.0119801878795
 30
0.0
 11
852.3603096596495
 21
149.0119801878795
 31
0.0
  0
LINE
  5
5A8A
330
1F
100
AcDbEntity
  8
STAVBA OBRYS
100
AcDbLine
 10
896.0615216917728
 20
149.0119801878795
 30
0.0
 11
896.0615216917728
 21
362.6236702723876
 31
0.0
  0
LINE
  5
5A8B
330
1F
100
AcDbEntity
  8
izolace
  6
IZOLACE
 48
2.1
100
AcDbLine
 10
874.741023764415
 20
149.0119801878795
 30
0.0
 11
874.741023764415
 21
362.6236702723876
 31
0.0
  0
HATCH
  5
5A8C
330
1F
100
AcDbEntity
  8
STAVBA OBRYS
100
AcDbHatch
 10
0.0
 20
0.0
 30
0.0
210
0.0
220
0.0
230
1.0
  2
AR-CONC
 70
     0
 71
     0
 91
        1
 92
        7
 72
     0
 73
     1
 93
        5
 10
1091.440905488143
 20
362.6236702723876
 10
1101.44090548814
 20
362.6236702723876
 10
1101.44090548814
 20
365.6236702723877
 10
1101.440905488136
 20
385.1730396961443
 10
1091.440905488136
 20
390.0550989903326
 97
        0
 75
     0
 76
     1
 52
90.0
 41
0.1
 77
     0
 78
    13
 53
140.0
 43
-26595.95056163805
 44
3289.342900267181
 45
1.593908553890309
 46
18.2184668996004
 79
     2
 49
1.905
 49
-20.955
 53
85.00000000000001
 43
-26595.95056163805
 44
3289.342900267181
 45
-19.10566428821799
 46
-3.524282597566697
 79
     2
 49
1.524
 49
-16.764
 53
190.4509999999999
 43
-26595.81773663804
 44
3290.861100267181
 45
-17.51166878202918
 46
14.69425016659592
 79
     2
 49
1.619
 49
-17.809
 53
136.1841999999999
 43
-26601.03056163804
 44
3289.342900267181
 45
4.204232793272717
 46
27.10790408921299
 79
     2
 49
2.857499999999999
 49
-31.4325
 53
186.6355999999999
 43
-26600.68021163805
 44
3291.60189026718
 45
-24.74255558900492
 46
23.74042344662371
 79
     2
 49
2.4285
 49
-26.7135
 53
81.18400000000004
 43
-26601.03056163804
 44
3289.342900267181
 45
-24.74251178605976
 46
23.74046058139339
 79
     2
 49
2.286
 49
-25.146
 53
111.0
 43
-26599.76056163805
 44
3291.882900267181
 45
10.22655185167625
 46
15.16148798353833
 79
     2
 49
1.905
 49
-20.955
 53
56.00000000000004
 43
-26599.76056163805
 44
3291.882900267181
 45
-18.41879661223192
 46
6.180202834764708
 79
     2
 49
1.524
 49
-16.764
 53
161.4514
 43
-26598.90835163805
 44
3293.14635026718
 45
-8.192285771605742
 46
21.34164907701245
 79
     2
 49
1.618999999999996
 49
-17.80899999999994
 53
127.5
 43
-26595.95056163805
 44
3289.342900267181
 45
-8.455503887315311
 46
0.3088603250591822
 79
     6
 49
0.0
 49
-16.5608
 49
0.0
 49
-17.018
 49
0.0
 49
-16.8275
 53
97.49999999999985
 43
-26595.95056163805
 44
3289.342900267181
 45
-10.01805748181195
 46
6.681966251030575
 79
     6
 49
0.0
 49
-9.702799999999998
 49
0.0
 49
-16.17979999999999
 49
0.0
 49
-6.413499999999999
 53
57.5
 43
-26595.95056163805
 44
3283.67870026718
 45
0.5728743992673473
 46
13.55905951668713
 79
     6
 49
0.0
 49
-6.35
 49
0.0
 49
-19.812
 49
0.0
 49
-26.289
 53
47.5
 43
-26595.95056163805
 44
3281.138700267181
 45
-2.5426491033333
 46
14.8129181386018
 79
     6
 49
0.0
 49
-8.255
 49
0.0
 49
-13.1572
 49
0.0
 49
-18.669
 47
0.415434097446913
 98
        1
 10
1094.026388871738
 20
370.5237796721562
  0
LINE
  5
5A8D
330
1F
100
AcDbEntity
  8
nášlap_vrstvy
100
AcDbLine
 10
1101.44090548814
 20
436.5013126392581
 30
0.0
 11
1103.32540772338
 21
436.5015606658675
 31
0.0
  0
LINE
  5
5A8E
330
1F
100
AcDbEntity
  8
nášlap_vrstvy
100
AcDbLine
 10
1101.957720204686
 20
435.2622905290213
 30
0.0
 11
1101.957720204682
 21
452.0693760219715
 31
0.0
  0
LWPOLYLINE
  5
5A8F
330
1F
100
AcDbEntity
  8
nášlap_vrstvy
100
AcDbPolyline
 90
        6
 70
     0
 43
0.0
 10
1389.772060667649
 20
415.2592264787531
 42
0.0121757200102759
 10
1388.402070953987
 20
419.9311438112204
 42
0.0457786284636091
 10
1387.194048064372
 20
422.7797541940967
 42
0.0295006114745606
 10
1384.777987610072
 20
426.7066534074988
 42
0.0258674098621065
 10
1381.545312296108
 20
430.8524334862527
 42
0.0093759062953949
 10
1379.379500116451
 20
433.2592264787531
  0
LWPOLYLINE
  5
5A90
330
1F
100
AcDbEntity
  8
nášlap_vrstvy
100
AcDbPolyline
 90
        4
 70
     0
 43
0.0
 10
1398.582522016492
 20
415.2592264787531
 42
0.0186324019486548
 10
1395.214152644385
 20
426.9543380969776
 42
0.0582629403736403
 10
1393.554652776304
 20
430.5341722959133
 42
0.0146402521923566
 10
1391.770244794719
 20
433.2592264787531
  0
POLYLINE
  5
5A91
330
1F
100
AcDbEntity
  8
nášlap_vrstvy
100
AcDb2dPolyline
 66
     1
 10
0.0
 20
0.0
 30
0.0
  0
VERTEX
  5
5A92
330
5A91
100
AcDbEntity
  8
nášlap_vrstvy
100
AcDbVertex
100
AcDb2dVertex
 10
1372.047205272531
 20
415.2592264787531
 30
0.0
 42
0.0502247168465557
  0
VERTEX
  5
5A93
330
5A91
100
AcDbEntity
  8
nášlap_vrstvy
100
AcDbVertex
100
AcDb2dVertex
 10
1370.448158096366
 20
417.2666971514758
 30
0.0
 42
0.0274923553235744
  0
VERTEX
  5
5A94
330
5A91
100
AcDbEntity
  8
nášlap_vrstvy
100
AcDbVertex
100
AcDb2dVertex
 10
1367.850852365813
 20
419.651772474614
 30
0.0
 42
0.0255412025538677
  0
VERTEX
  5
5A95
330
5A91
100
AcDbEntity
  8
nášlap_vrstvy
100
AcDbVertex
100
AcDb2dVertex
 10
1364.799422328102
 20
421.9084861516298
 30
0.0
 42
0.0272796991712396
  0
VERTEX
  5
5A96
330
5A91
100
AcDbEntity
  8
nášlap_vrstvy
100
AcDbVertex
100
AcDb2dVertex
 10
1360.686423174917
 20
424.3248220332957
 30
0.0
 42
0.056967459841729
  0
VERTEX
  5
5A97
330
5A91
100
AcDbEntity
  8
nášlap_vrstvy
100
AcDbVertex
100
AcDb2dVertex
 10
1358.545475894185
 20
425.1375578684951
 30
0.0
 42
0.0373408083348504
  0
VERTEX
  5
5A98
330
5A91
100
AcDbEntity
  8
nášlap_vrstvy
100
AcDbVertex
100
AcDb2dVertex
 10
1358.323121518712
 20
425.1767234094427
 30
0.0
 42
0.0052305969362967
  0
VERTEX
  5
5A99
330
5A91
100
AcDbEntity
  8
nášlap_vrstvy
100
AcDbVertex
100
AcDb2dVertex
 10
1357.977161744952
 20
425.207680376347
 30
0.0
  0
SEQEND
  5
5A9A
330
5A91
100
AcDbEntity
  8
nášlap_vrstvy
  0
LWPOLYLINE
  5
5A9B
330
1F
100
AcDbEntity
  8
nášlap_vrstvy
100
AcDbPolyline
 90
        8
 70
     0
 43
0.0
 10
1380.399256659846
 20
415.2592264787531
 42
0.0217273703039143
 10
1378.201586399337
 20
420.2949168162308
 42
0.0882970623535771
 10
1376.564364479244
 20
422.5352858670308
 42
0.0171636441953577
 10
1373.751000417386
 20
425.0492032222759
 42
0.0157521173632038
 10
1370.512145580349
 20
427.5806992747825
 42
0.0073640874174249
 10
1365.878496224028
 20
430.8691007005186
 42
0.0194185739168057
 10
1364.056452904351
 20
432.0206696997997
 42
0.0229547400386702
 10
1361.670994840337
 20
433.2592264787531
  0
LWPOLYLINE
  5
5A9C
330
1F
100
AcDbEntity
  8
nášlap_vrstvy
100
AcDbPolyline
 90
        3
 70
     0
 43
0.0
 10
1367.64872889574
 20
415.2592264787531
 10
1381.440776822379
 20
422.1602980422399
 10
1389.607881471504
 20
430.3415997433335
  0
LINE
  5
5A9D
330
1F
100
AcDbEntity
  8
POPIS
100
AcDbLine
 10
1369.638545242098
 20
501.9171290255749
 30
0.0
 11
1369.638545242096
 21
410.8060910157905
 31
0.0
  0
LINE
  5
5A9E
330
1F
100
AcDbEntity
  8
nášlap_vrstvy
100
AcDbLine
 10
1356.915075820602
 20
421.2592264787531
 30
0.0
 11
1356.915075820602
 21
415.2592264787531
 31
0.0
  0
LINE
  5
5A9F
330
1F
100
AcDbEntity
  8
nášlap_vrstvy
100
AcDbLine
 10
1357.826185086346
 20
422.0939237021744
 30
0.0
 11
1357.826185086346
 21
415.2592264787531
 31
0.0
  0
POLYLINE
  5
5AA0
330
1F
100
AcDbEntity
  8
nášlap_vrstvy
100
AcDb2dPolyline
 66
     1
 10
0.0
 20
0.0
 30
0.0
  0
VERTEX
  5
5AA1
330
5AA0
100
AcDbEntity
  8
nášlap_vrstvy
100
AcDbVertex
100
AcDb2dVertex
 10
1342.655418261675
 20
415.2592264787531
 30
0.0
 42
-0.0502247168465557
  0
VERTEX
  5
5AA2
330
5AA0
100
AcDbEntity
  8
nášlap_vrstvy
100
AcDbVertex
100
AcDb2dVertex
 10
1344.25446543784
 20
417.2666971514758
 30
0.0
 42
-0.0274923553235744
  0
VERTEX
  5
5AA3
330
5AA0
100
AcDbEntity
  8
nášlap_vrstvy
100
AcDbVertex
100
AcDb2dVertex
 10
1346.851771168393
 20
419.651772474614
 30
0.0
 42
-0.0178170165843964
  0
VERTEX
  5
5AA4
330
5AA0
100
AcDbEntity
  8
nášlap_vrstvy
100
AcDbVertex
100
AcDb2dVertex
 10
1348.956529681487
 20
421.2592264787531
 30
0.0
 42
-0.0272796991712396
  0
SEQEND
  5
5AA5
330
5AA0
100
AcDbEntity
  8
nášlap_vrstvy
  0
LWPOLYLINE
  5
5AA6
330
1F
100
AcDbEntity
  8
nášlap_vrstvy
100
AcDbPolyline
 90
        6
 70
     0
 43
0.0
 10
1324.930562866557
 20
415.2592264787531
 42
-0.0121757200102759
 10
1326.300552580218
 20
419.9311438112204
 42
-0.0457786284636091
 10
1327.508575469834
 20
422.7797541940967
 42
-0.0295006114745606
 10
1329.924635924133
 20
426.7066534074988
 42
-0.0258674098621065
 10
1333.157311238098
 20
430.8524334862527
 42
-0.0093759062953949
 10
1335.323123417755
 20
433.2592264787531
  0
LWPOLYLINE
  5
5AA7
330
1F
100
AcDbEntity
  8
nášlap_vrstvy
100
AcDbPolyline
 90
        4
 70
     0
 43
0.0
 10
1329.637822193428
 20
415.2592264787531
 10
1310.728234274317
 20
423.9744250985244
 10
1293.950343703098
 20
426.6815693612157
 10
1282.826185086338
 20
427.1257071384257
  0
LWPOLYLINE
  5
5AA8
330
1F
100
AcDbEntity
  8
nášlap_vrstvy
100
AcDbPolyline
 90
        4
 70
     0
 43
0.0
 10
1316.120101517714
 20
415.2592264787531
 42
-0.0186324019486548
 10
1319.488470889821
 20
426.9543380969776
 42
-0.0582629403736403
 10
1321.147970757902
 20
430.5341722959133
 42
-0.0146402521923566
 10
1322.932378739486
 20
433.2592264787531
  0
LWPOLYLINE
  5
5AA9
330
1F
100
AcDbEntity
  8
nášlap_vrstvy
100
AcDbPolyline
 90
        3
 70
     0
 43
0.0
 10
1284.876324019977
 20
415.2592264787531
 42
-0.0327520985396081
 10
1285.579862281451
 20
420.9113204249665
 42
-0.0020140331156959
 10
1286.822729323649
 20
427.2592264787531
 42
-0.0001103000883317
  0
LWPOLYLINE
  5
5AAA
330
1F
100
AcDbEntity
  8
nášlap_vrstvy
100
AcDbPolyline
 90
        4
 70
     0
 43
0.0
 10
1295.970359269024
 20
415.2592264787531
 42
-0.0334776267545482
 10
1296.40763706373
 20
419.3062014074898
 42
-0.0091133963862869
 10
1298.885241388649
 20
431.9979311929496
 42
-0.007828075361276
 10
1299.176140523807
 20
433.2592264787531
  0
LWPOLYLINE
  5
5AAB
330
1F
100
AcDbEntity
  8
nášlap_vrstvy
100
AcDbPolyline
 90
        5
 70
     0
 43
0.0
 10
1258.488125890388
 20
415.2592264787531
 42
0.0133579731639958
 10
1258.10131540136
 20
417.7770287663084
 42
0.0072443097182286
 10
1255.981318453902
 20
428.5879196612154
 42
0.0219777111230329
 10
1255.075205951918
 20
432.1060329170509
 42
0.0092752982622242
 10
1254.699978989971
 20
433.2592264787531
  0
LWPOLYLINE
  5
5AAC
330
1F
100
AcDbEntity
  8
nášlap_vrstvy
100
AcDbPolyline
 90
        4
 70
     0
 43
0.0
 10
1268.732264265182
 20
415.2592264787531
 42
0.0334776267545482
 10
1268.294986470475
 20
419.3062014074898
 42
0.0091133963862869
 10
1265.817382145557
 20
431.9979311929496
 42
0.007828075361276
 10
1265.526483010399
 20
433.2592264787531
  0
LWPOLYLINE
  5
5AAD
330
1F
100
AcDbEntity
  8
nášlap_vrstvy
100
AcDbPolyline
 90
        4
 70
     0
 43
0.0
 10
1248.582522016492
 20
415.2592264787531
 42
0.0186324019486548
 10
1245.214152644385
 20
426.9543380969776
 42
0.0582629403736403
 10
1243.554652776304
 20
430.5341722959133
 42
0.0146402521923566
 10
1241.77024479472
 20
433.2592264787531
  0
LINE
  5
5AAE
330
1F
100
AcDbEntity
  8
POPIS
100
AcDbLine
 10
1294.10638214256
 20
501.9171290255749
 30
0.0
 11
1294.106382142558
 21
413.7854256797395
 31
0.0
  0
LWPOLYLINE
  5
5AAF
330
1F
100
AcDbEntity
  8
nášlap_vrstvy
100
AcDbPolyline
 90
        5
 70
     0
 43
0.0
 10
1306.214497643818
 20
415.2592264787531
 42
-0.0133579731639958
 10
1306.601308132846
 20
417.7770287663084
 42
-0.0072443097182286
 10
1308.721305080304
 20
428.5879196612154
 42
-0.0219777111230329
 10
1309.627417582287
 20
432.1060329170509
 42
-0.0092752982622242
 10
1310.002644544234
 20
433.2592264787531
  0
LINE
  5
5AB0
330
1F
100
AcDbEntity
  8
nášlap_vrstvy
100
AcDbLine
 10
1282.826185086346
 20
422.0939237021744
 30
0.0
 11
1282.826185086346
 21
415.2592264787531
 31
0.0
  0
LINE
  5
5AB1
330
1F
100
AcDbEntity
  8
nášlap_vrstvy
100
AcDbLine
 10
1281.915075820601
 20
421.2592264787531
 30
0.0
 11
1281.915075820601
 21
415.2592264787531
 31
0.0
  0
LINE
  5
5AB2
330
1F
100
AcDbEntity
  8
nášlap_vrstvy
100
AcDbLine
 10
1282.826185086346
 20
422.0939237021744
 30
0.0
 11
1282.826185086346
 21
415.2592264787531
 31
0.0
  0
LWPOLYLINE
  5
5AB3
330
1F
100
AcDbEntity
  8
nášlap_vrstvy
100
AcDbPolyline
 90
        3
 70
     0
 43
0.0
 10
1279.826299514229
 20
415.2592264787531
 42
0.0327520985396081
 10
1279.122761252755
 20
420.9113204249665
 42
0.0001103000883317
 10
1279.05601855
 20
421.2592264787531
 42
0.0001103000883317
  0
LWPOLYLINE
  5
5AB4
330
1F
100
AcDbEntity
  8
nášlap_vrstvy
100
AcDbPolyline
 90
        8
 70
     0
 43
0.0
 10
1184.303366874359
 20
415.2592264787531
 42
-0.0217273703039143
 10
1186.501037134869
 20
420.2949168162308
 42
-0.0882970623535771
 10
1188.138259054962
 20
422.5352858670308
 42
-0.0171636441953577
 10
1190.95162311682
 20
425.0492032222759
 42
-0.0157521173632038
 10
1194.190477953856
 20
427.5806992747825
 42
-0.0073640874174249
 10
1198.824127310178
 20
430.8691007005186
 42
-0.0194185739168057
 10
1200.646170629854
 20
432.0206696997997
 42
-0.0229547400386702
 10
1203.031628693869
 20
433.2592264787531
  0
LWPOLYLINE
  5
5AB5
330
1F
100
AcDbEntity
  8
nášlap_vrstvy
100
AcDbPolyline
 90
        4
 70
     0
 43
0.0
 10
1145.970359269024
 20
415.2592264787531
 42
-0.0334776267545482
 10
1146.40763706373
 20
419.3062014074898
 42
-0.0091133963862869
 10
1148.885241388649
 20
431.9979311929496
 42
-0.007828075361276
 10
1149.176140523807
 20
433.2592264787531
  0
LWPOLYLINE
  5
5AB6
330
1F
100
AcDbEntity
  8
nášlap_vrstvy
100
AcDbPolyline
 90
        5
 70
     0
 43
0.0
 10
1156.214497643818
 20
415.2592264787531
 42
-0.0133579731639958
 10
1156.601308132846
 20
417.7770287663084
 42
-0.0072443097182286
 10
1158.721305080304
 20
428.5879196612154
 42
-0.0219777111230329
 10
1159.627417582287
 20
432.1060329170509
 42
-0.0092752982622242
 10
1160.002644544235
 20
433.2592264787531
  0
LWPOLYLINE
  5
5AB7
330
1F
100
AcDbEntity
  8
nášlap_vrstvy
100
AcDbPolyline
 90
        4
 70
     0
 43
0.0
 10
1166.120101517714
 20
415.2592264787531
 42
-0.0186324019486548
 10
1169.488470889821
 20
426.9543380969776
 42
-0.0582629403736403
 10
1171.147970757902
 20
430.5341722959133
 42
-0.0146402521923566
 10
1172.932378739486
 20
433.2592264787531
  0
LWPOLYLINE
  5
5AB8
330
1F
100
AcDbEntity
  8
nášlap_vrstvy
100
AcDbPolyline
 90
        3
 70
     0
 43
0.0
 10
1197.053894638466
 20
415.2592264787531
 10
1183.261846711826
 20
422.1602980422399
 10
1175.094742062702
 20
430.3415997433335
  0
LWPOLYLINE
  5
5AB9
330
1F
100
AcDbEntity
  8
nášlap_vrstvy
100
AcDbPolyline
 90
        6
 70
     0
 43
0.0
 10
1174.930562866557
 20
415.2592264787531
 42
-0.0121757200102759
 10
1176.300552580218
 20
419.9311438112204
 42
-0.0457786284636091
 10
1177.508575469834
 20
422.7797541940967
 42
-0.0295006114745606
 10
1179.924635924133
 20
426.7066534074988
 42
-0.0258674098621065
 10
1183.157311238097
 20
430.8524334862527
 42
-0.0093759062953949
 10
1185.323123417755
 20
433.2592264787531
  0
POLYLINE
  5
5ABA
330
1F
100
AcDbEntity
  8
nášlap_vrstvy
100
AcDb2dPolyline
 66
     1
 10
0.0
 20
0.0
 30
0.0
  0
VERTEX
  5
5ABB
330
5ABA
100
AcDbEntity
  8
nášlap_vrstvy
100
AcDbVertex
100
AcDb2dVertex
 10
1192.655418261675
 20
415.2592264787531
 30
0.0
 42
-0.0502247168465557
  0
VERTEX
  5
5ABC
330
5ABA
100
AcDbEntity
  8
nášlap_vrstvy
100
AcDbVertex
100
AcDb2dVertex
 10
1194.25446543784
 20
417.2666971514758
 30
0.0
 42
-0.0274923553235744
  0
VERTEX
  5
5ABD
330
5ABA
100
AcDbEntity
  8
nášlap_vrstvy
100
AcDbVertex
100
AcDb2dVertex
 10
1196.851771168393
 20
419.651772474614
 30
0.0
 42
-0.0178170165843964
  0
VERTEX
  5
5ABE
330
5ABA
100
AcDbEntity
  8
nášlap_vrstvy
100
AcDbVertex
100
AcDb2dVertex
 10
1198.956529681487
 20
421.2592264787531
 30
0.0
 42
-0.0272796991712396
  0
SEQEND
  5
5ABF
330
5ABA
100
AcDbEntity
  8
nášlap_vrstvy
  0
LWPOLYLINE
  5
5AC0
330
1F
100
AcDbEntity
  8
nášlap_vrstvy
100
AcDbPolyline
 90
        8
 70
     0
 43
0.0
 10
1230.399256659846
 20
415.2592264787531
 42
0.0217273703039143
 10
1228.201586399337
 20
420.2949168162308
 42
0.0882970623535771
 10
1226.564364479244
 20
422.5352858670308
 42
0.0171636441953577
 10
1223.751000417386
 20
425.0492032222759
 42
0.0157521173632038
 10
1220.512145580349
 20
427.5806992747825
 42
0.0073640874174249
 10
1215.878496224028
 20
430.8691007005186
 42
0.0194185739168057
 10
1214.056452904351
 20
432.0206696997997
 42
0.0229547400386702
 10
1211.670994840337
 20
433.2592264787531
  0
POLYLINE
  5
5AC1
330
1F
100
AcDbEntity
  8
nášlap_vrstvy
100
AcDb2dPolyline
 66
     1
 10
0.0
 20
0.0
 30
0.0
  0
VERTEX
  5
5AC2
330
5AC1
100
AcDbEntity
  8
nášlap_vrstvy
100
AcDbVertex
100
AcDb2dVertex
 10
1222.047205272531
 20
415.2592264787531
 30
0.0
 42
0.0502247168465557
  0
VERTEX
  5
5AC3
330
5AC1
100
AcDbEntity
  8
nášlap_vrstvy
100
AcDbVertex
100
AcDb2dVertex
 10
1220.448158096366
 20
417.2666971514758
 30
0.0
 42
0.0274923553235744
  0
VERTEX
  5
5AC4
330
5AC1
100
AcDbEntity
  8
nášlap_vrstvy
100
AcDbVertex
100
AcDb2dVertex
 10
1217.850852365813
 20
419.651772474614
 30
0.0
 42
0.0255412025538677
  0
VERTEX
  5
5AC5
330
5AC1
100
AcDbEntity
  8
nášlap_vrstvy
100
AcDbVertex
100
AcDb2dVertex
 10
1214.799422328102
 20
421.9084861516298
 30
0.0
 42
0.0272796991712396
  0
VERTEX
  5
5AC6
330
5AC1
100
AcDbEntity
  8
nášlap_vrstvy
100
AcDbVertex
100
AcDb2dVertex
 10
1210.686423174917
 20
424.3248220332957
 30
0.0
 42
0.056967459841729
  0
VERTEX
  5
5AC7
330
5AC1
100
AcDbEntity
  8
nášlap_vrstvy
100
AcDbVertex
100
AcDb2dVertex
 10
1208.545475894185
 20
425.1375578684951
 30
0.0
 42
0.0373408083348504
  0
VERTEX
  5
5AC8
330
5AC1
100
AcDbEntity
  8
nášlap_vrstvy
100
AcDbVertex
100
AcDb2dVertex
 10
1208.323121518712
 20
425.1767234094427
 30
0.0
 42
0.0052305969362967
  0
VERTEX
  5
5AC9
330
5AC1
100
AcDbEntity
  8
nášlap_vrstvy
100
AcDbVertex
100
AcDb2dVertex
 10
1207.977161744952
 20
425.207680376347
 30
0.0
  0
SEQEND
  5
5ACA
330
5AC1
100
AcDbEntity
  8
nášlap_vrstvy
  0
LINE
  5
5ACB
330
1F
100
AcDbEntity
  8
nášlap_vrstvy
100
AcDbLine
 10
1207.826185086346
 20
422.0939237021744
 30
0.0
 11
1207.826185086346
 21
415.2592264787531
 31
0.0
  0
LINE
  5
5ACC
330
1F
100
AcDbEntity
  8
nášlap_vrstvy
100
AcDbLine
 10
1206.915075820601
 20
421.2592264787531
 30
0.0
 11
1206.915075820601
 21
415.2592264787531
 31
0.0
  0
LWPOLYLINE
  5
5ACD
330
1F
100
AcDbEntity
  8
nášlap_vrstvy
100
AcDbPolyline
 90
        6
 70
     0
 43
0.0
 10
1239.772060667649
 20
415.2592264787531
 42
0.0121757200102759
 10
1238.402070953987
 20
419.9311438112204
 42
0.0457786284636091
 10
1237.194048064372
 20
422.7797541940967
 42
0.0295006114745606
 10
1234.777987610072
 20
426.7066534074988
 42
0.0258674098621065
 10
1231.545312296108
 20
430.8524334862527
 42
0.0093759062953949
 10
1229.379500116451
 20
433.2592264787531
  0
LWPOLYLINE
  5
5ACE
330
1F
100
AcDbEntity
  8
nášlap_vrstvy
100
AcDbPolyline
 90
        3
 70
     0
 43
0.0
 10
1217.64872889574
 20
415.2592264787531
 10
1231.440776822379
 20
422.1602980422399
 10
1239.607881471504
 20
430.3415997433335
  0
LWPOLYLINE
  5
5ACF
330
1F
100
AcDbEntity
  8
nášlap_vrstvy
100
AcDbPolyline
 90
        4
 70
     0
 43
0.0
 10
1233.978136827897
 20
414.7583960480046
 10
1253.974389259889
 20
423.9744250985244
 10
1270.752279831107
 20
426.6815693612157
 10
1274.015891078812
 20
426.8118707255857
  0
LWPOLYLINE
  5
5AD0
330
1F
100
AcDbEntity
  8
nášlap_vrstvy
100
AcDbPolyline
 90
        3
 70
     0
 43
0.0
 10
1347.053894638466
 20
415.2592264787531
 10
1333.261846711826
 20
422.1602980422399
 10
1325.094742062702
 20
430.3415997433335
  0
LWPOLYLINE
  5
5AD1
330
1F
100
AcDbEntity
  8
nášlap_vrstvy
100
AcDbPolyline
 90
        8
 70
     0
 43
0.0
 10
1334.303366874359
 20
415.2592264787531
 42
-0.0217273703039143
 10
1336.501037134869
 20
420.2949168162308
 42
-0.0882970623535771
 10
1338.138259054962
 20
422.5352858670308
 42
-0.0171636441953577
 10
1340.95162311682
 20
425.0492032222759
 42
-0.0157521173632038
 10
1344.190477953856
 20
427.5806992747825
 42
-0.0073640874174249
 10
1348.824127310177
 20
430.8691007005186
 42
-0.0194185739168057
 10
1350.646170629854
 20
432.0206696997997
 42
-0.0229547400386702
 10
1353.031628693869
 20
433.2592264787531
  0
LWPOLYLINE
  5
5AD2
330
1F
100
AcDbEntity
  8
nášlap_vrstvy
100
AcDbPolyline
 90
        3
 70
     0
 43
0.0
 10
1134.876324019977
 20
415.2592264787531
 42
-0.0327520985396081
 10
1135.579862281451
 20
420.9113204249665
 42
-0.0020140331156959
 10
1136.822729323649
 20
427.2592264787531
 42
-0.0001103000883317
  0
LWPOLYLINE
  5
5AD3
330
1F
100
AcDbEntity
  8
nášlap_vrstvy
100
AcDbPolyline
 90
        5
 70
     0
 43
0.0
 10
1108.488125890388
 20
415.2592264787531
 42
0.0133579731639958
 10
1108.10131540136
 20
417.7770287663084
 42
0.0072443097182286
 10
1105.981318453902
 20
428.5879196612154
 42
0.0219777111230329
 10
1105.075205951918
 20
432.1060329170509
 42
0.0092752982622242
 10
1104.699978989971
 20
433.2592264787531
  0
LWPOLYLINE
  5
5AD4
330
1F
100
AcDbEntity
  8
nášlap_vrstvy
100
AcDbPolyline
 90
        4
 70
     0
 43
0.0
 10
1118.732264265182
 20
415.2592264787531
 42
0.0334776267545482
 10
1118.294986470475
 20
419.3062014074898
 42
0.0091133963862869
 10
1115.817382145557
 20
431.9979311929496
 42
0.007828075361276
 10
1115.526483010399
 20
433.2592264787531
  0
LINE
  5
5AD5
330
1F
100
AcDbEntity
  8
nášlap_vrstvy
100
AcDbLine
 10
1131.915075820602
 20
421.2592264787531
 30
0.0
 11
1131.915075820602
 21
415.2592264787531
 31
0.0
  0
LINE
  5
5AD6
330
1F
100
AcDbEntity
  8
nášlap_vrstvy
100
AcDbLine
 10
1132.826185086345
 20
422.0939237021744
 30
0.0
 11
1132.826185086345
 21
415.2592264787531
 31
0.0
  0
LWPOLYLINE
  5
5AD7
330
1F
100
AcDbEntity
  8
nášlap_vrstvy
100
AcDbPolyline
 90
        3
 70
     0
 43
0.0
 10
1129.826299514229
 20
415.2592264787531
 42
0.0327520985396081
 10
1129.122761252755
 20
420.9113204249665
 42
0.0001103000883317
 10
1129.05601855
 20
421.2592264787531
 42
0.0001103000883317
  0
LWPOLYLINE
  5
5AD8
330
1F
100
AcDbEntity
  8
nášlap_vrstvy
100
AcDbPolyline
 90
        4
 70
     0
 43
0.0
 10
1179.637822193428
 20
415.2592264787531
 10
1160.728234274317
 20
423.9744250985244
 10
1143.950343703098
 20
426.6815693612157
 10
1132.826185086338
 20
427.1257071384257
  0
HATCH
  5
5AD9
330
1F
100
AcDbEntity
  8
nášlap_vrstvy
100
AcDbHatch
 10
0.0
 20
0.0
 30
0.0
210
0.0
220
0.0
230
1.0
  2
SOLID
 70
     1
 71
     0
 91
        1
 92
        7
 72
     0
 73
     1
 93
        4
 10
1255.112168102074
 20
409.8813360852732
 10
1243.291301747155
 20
409.8813360852732
 10
1243.291301747155
 20
408.3813360852732
 10
1255.112168102074
 20
408.3813360852732
 97
        0
 75
     0
 76
     1
 47
0.1901250437635136
 98
        1
 10
1247.970199126325
 20
409.4729303097342
  0
LWPOLYLINE
  5
5ADA
330
1F
100
AcDbEntity
  8
nášlap_vrstvy
100
AcDbPolyline
 90
        4
 70
     1
 43
0.0
 10
1255.11216810207
 20
409.8813360852732
 10
1243.291301747155
 20
409.8813360852732
 10
1243.291301747155
 20
408.3813360852732
 10
1255.11216810207
 20
408.3813360852732
  0
LINE
  5
5ADB
330
1F
100
AcDbEntity
  8
STAVBA OBRYS
100
AcDbLine
 10
1250.623788040521
 20
380.6236702723863
 30
0.0
 11
1250.623788040521
 21
362.6236702723872
 31
0.0
  0
LWPOLYLINE
  5
5ADC
330
1F
100
AcDbEntity
  8
STAVBA OBRYS
100
AcDbPolyline
 90
        3
 70
     0
 43
0.0
 10
1245.231297698263
 20
362.6236702723872
 42
0.0052038508054843
 10
1242.032900758281
 20
379.0274967543846
 42
0.0065712046643719
 10
1241.682474988516
 20
380.6236702723872
  0
LWPOLYLINE
  5
5ADD
330
1F
100
AcDbEntity
  8
STAVBA OBRYS
100
AcDbPolyline
 90
        4
 70
     0
 43
0.0
 10
1161.52986721936
 20
362.6236702723872
 42
0.0334776267545482
 10
1161.092589424654
 20
366.670645201124
 42
0.0091133963862869
 10
1158.614985099735
 20
379.3623749865837
 42
0.007828075361276
 10
1158.324085964578
 20
380.6236702723872
  0
LWPOLYLINE
  5
5ADE
330
1F
100
AcDbEntity
  8
STAVBA OBRYS
100
AcDbPolyline
 90
        5
 70
     0
 43
0.0
 10
1151.285728844567
 20
362.6236702723872
 42
0.0133579731639958
 10
1150.898918355539
 20
365.1414725599424
 42
0.0072443097182286
 10
1148.77892140808
 20
375.9523634548495
 42
0.0219777111230329
 10
1147.872808906097
 20
379.470476710685
 42
0.0092752982622242
 10
1147.49758194415
 20
380.6236702723872
  0
HATCH
  5
5ADF
330
1F
100
AcDbEntity
  8
izolace
100
AcDbHatch
 10
0.0
 20
0.0
 30
0.0
210
0.0
220
0.0
230
1.0
  2
SOLID
 70
     1
 71
     0
 91
        1
 92
        7
 72
     0
 73
     1
 93
        4
 10
1149.265520750349
 20
383.6236702723867
 10
1125.623788040517
 20
383.6236702723867
 10
1125.623788040513
 20
380.6236702723868
 10
1149.265520750352
 20
380.6236702723868
 97
        0
 75
     0
 76
     1
 47
0.1901250437635136
 98
        3
 10
1177.509011014536
 20
381.8562253429986
 10
1141.172820187196
 20
381.6660986673373
 10
1137.177747997968
 20
382.2364786943212
  0
HATCH
  5
5AE0
330
1F
100
AcDbEntity
  8
izolace
100
AcDbHatch
 10
0.0
 20
0.0
 30
0.0
210
0.0
220
0.0
230
1.0
  2
SOLID
 70
     1
 71
     0
 91
        1
 92
        7
 72
     0
 73
     1
 93
        4
 10
1196.548986170023
 20
383.6236702723867
 10
1172.907253460187
 20
383.6236702723867
 10
1172.907253460184
 20
380.6236702723868
 10
1196.548986170023
 20
380.6236702723868
 97
        0
 75
     0
 76
     1
 47
0.1901250437635136
 98
        1
 10
1182.265048218527
 20
382.8068587213069
  0
LWPOLYLINE
  5
5AE1
330
1F
100
AcDbEntity
  8
izolace
100
AcDbPolyline
 90
        4
 70
     1
 43
0.0
 10
1243.832451589689
 20
383.6236702723867
 10
1220.190718879854
 20
383.6236702723867
 10
1220.190718879854
 20
380.6236702723868
 10
1243.832451589689
 20
380.6236702723868
  0
HATCH
  5
5AE2
330
1F
100
AcDbEntity
  8
izolace
100
AcDbHatch
 10
0.0
 20
0.0
 30
0.0
210
0.0
220
0.0
230
1.0
  2
SOLID
 70
     1
 71
     0
 91
        1
 92
        7
 72
     0
 73
     1
 93
        4
 10
1243.832451589693
 20
383.6236702723867
 10
1220.190718879858
 20
383.6236702723867
 10
1220.190718879854
 20
380.6236702723868
 10
1243.832451589693
 20
380.6236702723868
 97
        0
 75
     0
 76
     1
 47
0.1901250437635136
 98
        1
 10
1229.548513638198
 20
382.8068587213069
  0
LWPOLYLINE
  5
5AE3
330
1F
100
AcDbEntity
  8
STAVBA OBRYS
100
AcDbPolyline
 90
        4
 70
     0
 43
0.0
 10
1233.778759835295
 20
362.6236702723872
 42
0.0334776267545482
 10
1233.341482040589
 20
366.670645201124
 42
0.0091133963862869
 10
1230.86387771567
 20
379.3623749865837
 42
0.007828075361276
 10
1230.572978580513
 20
380.6236702723872
  0
LWPOLYLINE
  5
5AE4
330
1F
100
AcDbEntity
  8
STAVBA OBRYS
100
AcDbPolyline
 90
        3
 70
     0
 43
0.0
 10
1215.084288841788
 20
362.6236702723872
 42
0.0052038508054843
 10
1211.885891901806
 20
379.0274967543846
 42
0.0065712046643719
 10
1211.535466132042
 20
380.6236702723872
  0
LWPOLYLINE
  5
5AE5
330
1F
100
AcDbEntity
  8
STAVBA OBRYS
100
AcDbPolyline
 90
        4
 70
     0
 43
0.0
 10
1203.631750978821
 20
362.6236702723872
 42
0.0334776267545482
 10
1203.194473184114
 20
366.670645201124
 42
0.0091133963862869
 10
1200.716868859196
 20
379.3623749865837
 42
0.007828075361276
 10
1200.425969724038
 20
380.6236702723872
  0
LWPOLYLINE
  5
5AE6
330
1F
100
AcDbEntity
  8
STAVBA OBRYS
100
AcDbPolyline
 90
        4
 70
     0
 43
0.0
 10
1183.48200873013
 20
362.6236702723872
 42
0.0186324019486548
 10
1180.113639358024
 20
374.3187818906117
 42
0.0582629403736403
 10
1178.454139489943
 20
377.8986160895474
 42
0.0146402521923566
 10
1176.669731508358
 20
380.6236702723872
  0
LWPOLYLINE
  5
5AE7
330
1F
100
AcDbEntity
  8
STAVBA OBRYS
100
AcDbPolyline
 90
        5
 70
     0
 43
0.0
 10
1193.387612604027
 20
362.6236702723872
 42
0.0133579731639958
 10
1193.000802114999
 20
365.1414725599424
 42
0.0072443097182286
 10
1190.880805167541
 20
375.9523634548495
 42
0.0219777111230329
 10
1189.974692665557
 20
379.470476710685
 42
0.0092752982622242
 10
1189.59946570361
 20
380.6236702723872
  0
LWPOLYLINE
  5
5AE8
330
1F
100
AcDbEntity
  8
STAVBA OBRYS
100
AcDbPolyline
 90
        5
 70
     0
 43
0.0
 10
1223.534621460502
 20
362.6236702723872
 42
0.0133579731639958
 10
1223.147810971473
 20
365.1414725599424
 42
0.0072443097182286
 10
1221.027814024015
 20
375.9523634548495
 42
0.0219777111230329
 10
1220.121701522032
 20
379.470476710685
 42
0.0092752982622242
 10
1219.746474560085
 20
380.6236702723872
  0
LWPOLYLINE
  5
5AE9
330
1F
100
AcDbEntity
  8
STAVBA OBRYS
100
AcDbPolyline
 90
        4
 70
     0
 43
0.0
 10
1199.02463239801
 20
362.1228398416387
 10
1219.020884830003
 20
371.3388688921586
 10
1235.798775401221
 20
374.0460131548497
 10
1239.062386648926
 20
374.1763145192198
  0
LWPOLYLINE
  5
5AEA
330
1F
100
AcDbEntity
  8
STAVBA OBRYS
100
AcDbPolyline
 90
        3
 70
     0
 43
0.0
 10
1172.982405082328
 20
362.6236702723872
 42
0.0052038508054843
 10
1169.784008142346
 20
379.0274967543846
 42
0.0065712046643719
 10
1169.433582372581
 20
380.6236702723872
  0
LWPOLYLINE
  5
5AEB
330
1F
100
AcDbEntity
  8
STAVBA OBRYS
100
AcDbPolyline
 90
        4
 70
     0
 43
0.0
 10
1168.877623541535
 20
362.1228398416387
 10
1188.873875973528
 20
371.3388688921586
 10
1205.651766544747
 20
374.0460131548497
 10
1208.915377792451
 20
374.1763145192198
  0
LWPOLYLINE
  5
5AEC
330
1F
100
AcDbEntity
  8
STAVBA OBRYS
100
AcDbPolyline
 90
        4
 70
     0
 43
0.0
 10
1126.775739782075
 20
362.1228398416387
 10
1146.771992214068
 20
371.3388688921586
 10
1163.549882785286
 20
374.0460131548497
 10
1166.813494032991
 20
374.1763145192198
  0
LWPOLYLINE
  5
5AED
330
1F
100
AcDbEntity
  8
STAVBA OBRYS
100
AcDbPolyline
 90
        8
 70
     0
 43
0.0
 10
1123.196859614025
 20
362.6236702723872
 42
0.0217273703039143
 10
1120.999189353515
 20
367.6593606098649
 42
0.0882970623535771
 10
1119.361967433422
 20
369.8997296606648
 42
0.0171636441953577
 10
1116.548603371564
 20
372.4136470159101
 42
0.0157521173632038
 10
1113.309748534528
 20
374.9451430684166
 42
0.0073640874174249
 10
1108.676099178207
 20
378.2335444941527
 42
0.0194185739168057
 10
1106.85405585853
 20
379.3851134934338
 42
0.0229547400386702
 10
1104.468597794516
 20
380.6236702723872
  0
LWPOLYLINE
  5
5AEE
330
1F
100
AcDbEntity
  8
STAVBA OBRYS
100
AcDbPolyline
 90
        3
 70
     0
 43
0.0
 10
1110.446331849918
 20
362.6236702723872
 10
1124.238379776558
 20
369.524741835874
 10
1132.405484425683
 20
377.7060435369676
  0
LWPOLYLINE
  5
5AEF
330
1F
100
AcDbEntity
  8
STAVBA OBRYS
100
AcDbPolyline
 90
        6
 70
     0
 43
0.0
 10
1132.569663621827
 20
362.6236702723872
 42
0.0121757200102759
 10
1131.199673908166
 20
367.2955876048545
 42
0.0457786284636091
 10
1129.99165101855
 20
370.1441979877309
 42
0.0295006114745606
 10
1127.575590564251
 20
374.0710972011329
 42
0.0258674098621065
 10
1124.342915250287
 20
378.2168772798868
 42
0.0093759062953949
 10
1122.17710307063
 20
380.6236702723872
  0
LWPOLYLINE
  5
5AF0
330
1F
100
AcDbEntity
  8
STAVBA OBRYS
100
AcDbPolyline
 90
        4
 70
     0
 43
0.0
 10
1141.38012497067
 20
362.6236702723872
 42
0.0186324019486548
 10
1138.011755598564
 20
374.3187818906117
 42
0.0582629403736403
 10
1136.352255730482
 20
377.8986160895474
 42
0.0146402521923566
 10
1134.567847748898
 20
380.6236702723872
  0
HATCH
  5
5AF1
330
1F
100
AcDbEntity
  8
nášlap_vrstvy
100
AcDbHatch
 10
0.0
 20
0.0
 30
0.0
210
0.0
220
0.0
230
1.0
  2
SOLID
 70
     1
 71
     0
 91
        1
 92
        7
 72
     0
 73
     1
 93
        4
 10
1207.828702682404
 20
409.8813360852732
 10
1196.007836327484
 20
409.8813360852732
 10
1196.007836327484
 20
408.3813360852732
 10
1207.828702682404
 20
408.3813360852732
 97
        0
 75
     0
 76
     1
 47
0.1901250437635136
 98
        1
 10
1200.686733706654
 20
409.4729303097342
  0
LWPOLYLINE
  5
5AF2
330
1F
100
AcDbEntity
  8
nášlap_vrstvy
100
AcDbPolyline
 90
        4
 70
     1
 43
0.0
 10
1207.8287026824
 20
409.8813360852732
 10
1196.007836327484
 20
409.8813360852732
 10
1196.007836327484
 20
408.3813360852732
 10
1207.8287026824
 20
408.3813360852732
  0
HATCH
  5
5AF3
330
1F
100
AcDbEntity
  8
nášlap_vrstvy
100
AcDbHatch
 10
0.0
 20
0.0
 30
0.0
210
0.0
220
0.0
230
1.0
  2
SOLID
 70
     1
 71
     0
 91
        1
 92
        7
 72
     0
 73
     1
 93
        4
 10
1160.545237262733
 20
409.8813360852732
 10
1148.724370907814
 20
409.8813360852732
 10
1148.724370907814
 20
408.3813360852732
 10
1160.545237262733
 20
408.3813360852732
 97
        0
 75
     0
 76
     1
 47
0.1901250437635136
 98
        1
 10
1153.403268286984
 20
409.4729303097342
  0
LWPOLYLINE
  5
5AF4
330
1F
100
AcDbEntity
  8
nášlap_vrstvy
100
AcDbPolyline
 90
        4
 70
     1
 43
0.0
 10
1160.54523726273
 20
409.8813360852732
 10
1148.724370907814
 20
409.8813360852732
 10
1148.724370907814
 20
408.3813360852732
 10
1160.54523726273
 20
408.3813360852732
  0
HATCH
  5
5AF5
330
1F
100
AcDbEntity
  8
nášlap_vrstvy
100
AcDbHatch
 10
0.0
 20
0.0
 30
0.0
210
0.0
220
0.0
230
1.0
  2
SOLID
 70
     1
 71
     0
 91
        1
 92
        7
 72
     0
 73
     1
 93
        4
 10
1184.186969972569
 20
409.8813360852732
 10
1172.366103617653
 20
409.8813360852732
 10
1172.366103617649
 20
408.3813360852732
 10
1184.186969972569
 20
408.3813360852732
 97
        0
 75
     0
 76
     1
 47
0.1901250437635136
 98
        1
 10
1177.045000996823
 20
409.4729303097342
  0
LWPOLYLINE
  5
5AF6
330
1F
100
AcDbEntity
  8
nášlap_vrstvy
100
AcDbPolyline
 90
        4
 70
     1
 43
0.0
 10
1184.186969972569
 20
409.8813360852732
 10
1172.366103617649
 20
409.8813360852732
 10
1172.366103617649
 20
408.3813360852732
 10
1184.186969972569
 20
408.3813360852732
  0
POLYLINE
  5
5AF7
330
1F
100
AcDbEntity
  8
nášlap_vrstvy
100
AcDb2dPolyline
 66
     1
 10
0.0
 20
0.0
 30
0.0
  0
VERTEX
  5
5AF8
330
5AF7
100
AcDbEntity
  8
nášlap_vrstvy
100
AcDbVertex
100
AcDb2dVertex
 10
1212.994059322995
 20
415.2592264787531
 30
0.0
 42
0.0094186890201653
  0
VERTEX
  5
5AF9
330
5AF7
100
AcDbEntity
  8
nášlap_vrstvy
100
AcDbVertex
100
AcDb2dVertex
 10
1212.647260760121
 20
415.4178993495211
 30
0.0
 42
0.0322692699774654
  0
VERTEX
  5
5AFA
330
5AF7
100
AcDbEntity
  8
nášlap_vrstvy
100
AcDbVertex
100
AcDb2dVertex
 10
1209.75590657903
 20
416.4594228509217
 30
0.0
 42
0.0276160659512937
  0
VERTEX
  5
5AFB
330
5AF7
100
AcDbEntity
  8
nášlap_vrstvy
100
AcDbVertex
100
AcDb2dVertex
 10
1208.900330140743
 20
416.6561582798663
 30
0.0
 42
0.0126891984598699
  0
VERTEX
  5
5AFC
330
5AF7
100
AcDbEntity
  8
nášlap_vrstvy
100
AcDbVertex
100
AcDb2dVertex
 10
1207.977161744952
 20
416.7913606694078
 30
0.0
  0
SEQEND
  5
5AFD
330
5AF7
100
AcDbEntity
  8
nášlap_vrstvy
  0
POLYLINE
  5
5AFE
330
1F
100
AcDbEntity
  8
nášlap_vrstvy
100
AcDb2dPolyline
 66
     1
 10
0.0
 20
0.0
 30
0.0
  0
VERTEX
  5
5AFF
330
5AFE
100
AcDbEntity
  8
nášlap_vrstvy
100
AcDbVertex
100
AcDb2dVertex
 10
1201.708564211211
 20
415.2592264787531
 30
0.0
 42
-0.0094186890201653
  0
VERTEX
  5
5B00
330
5AFE
100
AcDbEntity
  8
nášlap_vrstvy
100
AcDbVertex
100
AcDb2dVertex
 10
1202.055362774085
 20
415.4178993495211
 30
0.0
 42
-0.0322692699774654
  0
VERTEX
  5
5B01
330
5AFE
100
AcDbEntity
  8
nášlap_vrstvy
100
AcDbVertex
100
AcDb2dVertex
 10
1204.946716955175
 20
416.4594228509217
 30
0.0
 42
-0.0276160659512937
  0
VERTEX
  5
5B02
330
5AFE
100
AcDbEntity
  8
nášlap_vrstvy
100
AcDbVertex
100
AcDb2dVertex
 10
1205.802293393463
 20
416.6561582798663
 30
0.0
 42
-0.0126891984598699
  0
VERTEX
  5
5B03
330
5AFE
100
AcDbEntity
  8
nášlap_vrstvy
100
AcDbVertex
100
AcDb2dVertex
 10
1206.725461789254
 20
416.7913606694078
 30
0.0
  0
SEQEND
  5
5B04
330
5AFE
100
AcDbEntity
  8
nášlap_vrstvy
  0
HATCH
  5
5B05
330
1F
100
AcDbEntity
  8
nášlap_vrstvy
100
AcDbHatch
 10
0.0
 20
0.0
 30
0.0
210
0.0
220
0.0
230
1.0
  2
SOLID
 70
     1
 71
     0
 91
        1
 92
        7
 72
     0
 73
     1
 93
        4
 10
1231.470435392239
 20
409.8813360852732
 10
1219.649569037323
 20
409.8813360852732
 10
1219.649569037319
 20
408.3813360852732
 10
1231.470435392239
 20
408.3813360852732
 97
        0
 75
     0
 76
     1
 47
0.1901250437635136
 98
        1
 10
1224.328466416493
 20
409.4729303097342
  0
LWPOLYLINE
  5
5B06
330
1F
100
AcDbEntity
  8
nášlap_vrstvy
100
AcDbPolyline
 90
        4
 70
     1
 43
0.0
 10
1231.470435392239
 20
409.8813360852732
 10
1219.649569037319
 20
409.8813360852732
 10
1219.649569037319
 20
408.3813360852732
 10
1231.470435392239
 20
408.3813360852732
  0
LINE
  5
5B07
330
1F
100
AcDbEntity
  8
SPOJOVACÍ
  6
DASHED
100
AcDbLine
 10
1148.00175998377
 20
408.381336085273
 30
0.0
 11
1148.00175998377
 21
407.2054078440762
 31
0.0
  0
LINE
  5
5B08
330
1F
100
AcDbEntity
  8
SPOJOVACÍ
  6
DASHED
100
AcDbLine
 10
1147.300760901326
 20
406.8754186789504
 30
0.0
 11
1148.00175998377
 21
407.2054078440762
 31
0.0
  0
LINE
  5
5B09
330
1F
100
AcDbEntity
  8
SPOJOVACÍ
  6
DASHED
100
AcDbLine
 10
1146.088369768604
 20
405.9756968387175
 30
0.0
 11
1147.300760901326
 21
406.8754186789504
 31
0.0
  0
LINE
  5
5B0A
330
1F
100
AcDbEntity
  8
SPOJOVACÍ
  6
DASHED
100
AcDbLine
 10
1145.149450320019
 20
404.7924760194766
 30
0.0
 11
1146.088369768604
 21
405.9756968387175
 31
0.0
  0
LINE
  5
5B0B
330
1F
100
AcDbEntity
  8
SPOJOVACÍ
  6
DASHED
100
AcDbLine
 10
1144.548724187855
 20
403.4068861539674
 30
0.0
 11
1145.149450320019
 21
404.7924760194766
 31
0.0
  0
LINE
  5
5B0C
330
1F
100
AcDbEntity
  8
SPOJOVACÍ
  6
DASHED
100
AcDbLine
 10
1144.326300554789
 20
401.9137307596067
 30
0.0
 11
1144.548724187855
 21
403.4068861539674
 31
0.0
  0
LINE
  5
5B0D
330
1F
100
AcDbEntity
  8
SPOJOVACÍ
  6
DASHED
100
AcDbLine
 10
1144.326300554789
 20
401.9137307596086
 30
0.0
 11
1144.326300554789
 21
399.699679545127
 31
0.0
  0
LINE
  5
5B0E
330
1F
100
AcDbEntity
  8
SPOJOVACÍ
  6
DASHED
100
AcDbLine
 10
1141.021851038848
 20
400.8107892949576
 30
0.0
 11
1144.985367311248
 21
399.4780706219573
 31
0.0
  0
LINE
  5
5B0F
330
1F
100
AcDbEntity
  8
SPOJOVACÍ
  6
DASHED
100
AcDbLine
 10
1145.355465654775
 20
399.2638511361712
 30
0.0
 11
1144.985367311248
 21
399.4780706219573
 31
0.0
  0
LINE
  5
5B10
330
1F
100
AcDbEntity
  8
SPOJOVACÍ
  6
DASHED
100
AcDbLine
 10
1145.355465654775
 20
399.2638511361712
 30
0.0
 11
1144.985367311248
 21
398.8937527905056
 31
0.0
  0
LINE
  5
5B11
330
1F
100
AcDbEntity
  8
SPOJOVACÍ
  6
DASHED
100
AcDbLine
 10
1141.021851038848
 20
400.2264714637769
 30
0.0
 11
1144.985367311248
 21
398.8937527905056
 31
0.0
  0
LINE
  5
5B12
330
1F
100
AcDbEntity
  8
SPOJOVACÍ
  6
DASHED
100
AcDbLine
 10
1144.326300554789
 20
399.1207342882537
 30
0.0
 11
1144.326300554789
 21
396.6521965543254
 31
0.0
  0
LINE
  5
5B13
330
1F
100
AcDbEntity
  8
SPOJOVACÍ
  6
DASHED
100
AcDbLine
 10
1141.021851038848
 20
397.7681414915061
 30
0.0
 11
1144.985367311248
 21
396.4354228185058
 31
0.0
  0
LINE
  5
5B14
330
1F
100
AcDbEntity
  8
SPOJOVACÍ
  6
DASHED
100
AcDbLine
 10
1145.355465654775
 20
396.2212033327198
 30
0.0
 11
1144.985367311248
 21
396.4354228185058
 31
0.0
  0
LINE
  5
5B15
330
1F
100
AcDbEntity
  8
SPOJOVACÍ
  6
DASHED
100
AcDbLine
 10
1145.355465654775
 20
396.2212033327198
 30
0.0
 11
1144.985367311248
 21
395.8511049870542
 31
0.0
  0
LINE
  5
5B16
330
1F
100
AcDbEntity
  8
SPOJOVACÍ
  6
DASHED
100
AcDbLine
 10
1141.021851038848
 20
397.1838236603255
 30
0.0
 11
1144.985367311248
 21
395.8511049870542
 31
0.0
  0
LINE
  5
5B17
330
1F
100
AcDbEntity
  8
SPOJOVACÍ
  6
DASHED
100
AcDbLine
 10
1144.326300554789
 20
396.0780864848022
 30
0.0
 11
1144.326300554789
 21
393.6095487508739
 31
0.0
  0
LINE
  5
5B18
330
1F
100
AcDbEntity
  8
SPOJOVACÍ
  6
DASHED
100
AcDbLine
 10
1141.021851038848
 20
394.7098164927358
 30
0.0
 11
1144.985367311248
 21
393.3780093916523
 31
0.0
  0
LINE
  5
5B19
330
1F
100
AcDbEntity
  8
SPOJOVACÍ
  6
DASHED
100
AcDbLine
 10
1145.355465654775
 20
393.1637899058662
 30
0.0
 11
1144.985367311248
 21
393.3780093916523
 31
0.0
  0
LINE
  5
5B1A
330
1F
100
AcDbEntity
  8
SPOJOVACÍ
  6
DASHED
100
AcDbLine
 10
1145.355465654775
 20
393.1637899058662
 30
0.0
 11
1144.985367311248
 21
392.7936915604716
 31
0.0
  0
LINE
  5
5B1B
330
1F
100
AcDbEntity
  8
SPOJOVACÍ
  6
DASHED
100
AcDbLine
 10
1141.021851038848
 20
394.1254986612841
 30
0.0
 11
1144.985367311248
 21
392.7936915604716
 31
0.0
  0
LINE
  5
5B1C
330
1F
100
AcDbEntity
  8
SPOJOVACÍ
  6
DASHED
100
AcDbLine
 10
1144.326300554789
 20
393.0252309194222
 30
0.0
 11
1144.326300554789
 21
390.5475774628105
 31
0.0
  0
LINE
  5
5B1D
330
1F
100
AcDbEntity
  8
SPOJOVACÍ
  6
DASHED
100
AcDbLine
 10
1141.021851038848
 20
391.6680802614721
 30
0.0
 11
1144.985367311248
 21
390.3353615884718
 31
0.0
  0
LINE
  5
5B1E
330
1F
100
AcDbEntity
  8
SPOJOVACÍ
  6
DASHED
100
AcDbLine
 10
1145.355465654775
 20
390.1211421026857
 30
0.0
 11
1144.985367311248
 21
390.3353615884718
 31
0.0
  0
LINE
  5
5B1F
330
1F
100
AcDbEntity
  8
SPOJOVACÍ
  6
DASHED
100
AcDbLine
 10
1145.355465654775
 20
390.1211421026857
 30
0.0
 11
1144.985367311248
 21
389.7510437570201
 31
0.0
  0
LINE
  5
5B20
330
1F
100
AcDbEntity
  8
SPOJOVACÍ
  6
DASHED
100
AcDbLine
 10
1141.021851038848
 20
391.0837624302914
 30
0.0
 11
1144.985367311248
 21
389.7510437570201
 31
0.0
  0
LINE
  5
5B21
330
1F
100
AcDbEntity
  8
SPOJOVACÍ
  6
DASHED
100
AcDbLine
 10
1144.326300554789
 20
389.9780252547682
 30
0.0
 11
1144.326300554789
 21
387.5094875208399
 31
0.0
  0
LINE
  5
5B22
330
1F
100
AcDbEntity
  8
SPOJOVACÍ
  6
DASHED
100
AcDbLine
 10
1141.021851038848
 20
388.6097552627018
 30
0.0
 11
1144.985367311248
 21
387.2779481616182
 31
0.0
  0
LINE
  5
5B23
330
1F
100
AcDbEntity
  8
SPOJOVACÍ
  6
DASHED
100
AcDbLine
 10
1145.355465654775
 20
387.0637286758321
 30
0.0
 11
1144.985367311248
 21
387.2779481616182
 31
0.0
  0
LINE
  5
5B24
330
1F
100
AcDbEntity
  8
SPOJOVACÍ
  6
DASHED
100
AcDbLine
 10
1141.680917795308
 20
393.9131023201446
 30
0.0
 11
1141.680917795308
 21
391.4427414415697
 31
0.0
  0
LINE
  5
5B25
330
1F
100
AcDbEntity
  8
SPOJOVACÍ
  6
DASHED
100
AcDbLine
 10
1141.680917795308
 20
396.9732504635615
 30
0.0
 11
1141.680917795308
 21
394.5047127296331
 31
0.0
  0
LINE
  5
5B26
330
1F
100
AcDbEntity
  8
SPOJOVACÍ
  6
DASHED
100
AcDbLine
 10
1141.680917795308
 20
400.015898267013
 30
0.0
 11
1141.680917795308
 21
397.5473605330846
 31
0.0
  0
LINE
  5
5B27
330
1F
100
AcDbEntity
  8
SPOJOVACÍ
  6
DASHED
100
AcDbLine
 10
1141.648556979166
 20
402.2993258339368
 30
0.0
 11
1141.680917795308
 21
400.5891803717897
 31
0.0
  0
LINE
  5
5B28
330
1F
100
AcDbEntity
  8
SPOJOVACÍ
  6
DASHED
100
AcDbLine
 10
1141.616196163024
 20
402.6849209082667
 30
0.0
 11
1141.680917795308
 21
401.9137307596067
 31
0.0
  0
LINE
  5
5B29
330
1F
100
AcDbEntity
  8
SPOJOVACÍ
  6
DASHED
100
AcDbLine
 10
1141.196872916011
 20
404.1361439779759
 30
0.0
 11
1141.616196163024
 21
402.6849209082667
 31
0.0
  0
LINE
  5
5B2A
330
1F
100
AcDbEntity
  8
SPOJOVACÍ
  6
DASHED
100
AcDbLine
 10
1141.680917795308
 20
390.8731892335274
 30
0.0
 11
1141.680917795308
 21
388.4046514995991
 31
0.0
  0
LINE
  5
5B2B
330
1F
100
AcDbEntity
  8
SPOJOVACÍ
  6
DASHED
100
AcDbLine
 10
1143.421109280895
 20
370.16864804085
 30
0.0
 11
1143.683642096639
 21
372.2707337181347
 31
0.0
  0
LINE
  5
5B2C
330
1F
100
AcDbEntity
  8
SPOJOVACÍ
  6
DASHED
100
AcDbLine
 10
1142.265235629162
 20
372.7411050146149
 30
0.0
 11
1142.549646177413
 21
370.4667321764666
 31
0.0
  0
LINE
  5
5B2D
330
1F
100
AcDbEntity
  8
SPOJOVACÍ
  6
DASHED
100
AcDbLine
 10
1142.007260673821
 20
370.1431240169188
 30
0.0
 11
1144.118462072449
 21
369.8386588754603
 31
0.0
  0
LINE
  5
5B2E
330
1F
100
AcDbEntity
  8
SPOJOVACÍ
  6
DASHED
100
AcDbLine
 10
1142.377359017348
 20
370.5132223625844
 30
0.0
 11
1143.748363728922
 21
370.0519667890514
 31
0.0
  0
LINE
  5
5B2F
330
1F
100
AcDbEntity
  8
SPOJOVACÍ
  6
DASHED
100
AcDbLine
 10
1142.377359017348
 20
369.92890453114
 30
0.0
 11
1143.748363728922
 21
369.467648957607
 31
0.0
  0
LINE
  5
5B30
330
1F
100
AcDbEntity
  8
SPOJOVACÍ
  6
DASHED
100
AcDbLine
 10
1144.118462072449
 20
369.8386588754603
 30
0.0
 11
1143.748363728922
 21
370.0519667890514
 31
0.0
  0
LINE
  5
5B31
330
1F
100
AcDbEntity
  8
SPOJOVACÍ
  6
DASHED
100
AcDbLine
 10
1144.118462072449
 20
369.8386588754603
 30
0.0
 11
1143.748363728922
 21
369.467648957607
 31
0.0
  0
LINE
  5
5B32
330
1F
100
AcDbEntity
  8
SPOJOVACÍ
  6
DASHED
100
AcDbLine
 10
1142.007260673821
 20
370.1431240169188
 30
0.0
 11
1142.377359017348
 21
370.5132223625844
 31
0.0
  0
LINE
  5
5B33
330
1F
100
AcDbEntity
  8
SPOJOVACÍ
  6
DASHED
100
AcDbLine
 10
1142.007260673821
 20
370.1431240169188
 30
0.0
 11
1142.377359017348
 21
369.92890453114
 31
0.0
  0
LINE
  5
5B34
330
1F
100
AcDbEntity
  8
SPOJOVACÍ
  6
DASHED
100
AcDbLine
 10
1142.625306678088
 20
369.8587134657302
 30
0.0
 11
1143.003609172909
 21
366.8313819242814
 31
0.0
  0
LINE
  5
5B35
330
1F
100
AcDbEntity
  8
SPOJOVACÍ
  6
DASHED
100
AcDbLine
 10
1143.003609172909
 20
366.8313819242814
 30
0.0
 11
1143.350918214415
 21
369.6107658055245
 31
0.0
  0
LINE
  5
5B36
330
1F
100
AcDbEntity
  8
SPOJOVACÍ
  6
DASHED
100
AcDbLine
 10
1141.680917795308
 20
384.7601855247305
 30
0.0
 11
1141.680917795308
 21
382.2825320681188
 31
0.0
  0
LINE
  5
5B37
330
1F
100
AcDbEntity
  8
SPOJOVACÍ
  6
DASHED
100
AcDbLine
 10
1141.021851038848
 20
379.4375149826758
 30
0.0
 11
1144.985367311248
 21
378.1047963094045
 31
0.0
  0
LINE
  5
5B38
330
1F
100
AcDbEntity
  8
SPOJOVACÍ
  6
DASHED
100
AcDbLine
 10
1141.021851038848
 20
378.8531971512241
 30
0.0
 11
1144.985367311248
 21
377.5204784779528
 31
0.0
  0
LINE
  5
5B39
330
1F
100
AcDbEntity
  8
SPOJOVACÍ
  6
DASHED
100
AcDbLine
 10
1145.355465654775
 20
377.8905768236183
 30
0.0
 11
1144.985367311248
 21
378.1047963094045
 31
0.0
  0
LINE
  5
5B3A
330
1F
100
AcDbEntity
  8
SPOJOVACÍ
  6
DASHED
100
AcDbLine
 10
1145.355465654775
 20
377.8905768236183
 30
0.0
 11
1144.985367311248
 21
377.5204784779528
 31
0.0
  0
LINE
  5
5B3B
330
1F
100
AcDbEntity
  8
SPOJOVACÍ
  6
DASHED
100
AcDbLine
 10
1141.021851038848
 20
382.4949284092583
 30
0.0
 11
1144.985367311248
 21
381.162209735987
 31
0.0
  0
LINE
  5
5B3C
330
1F
100
AcDbEntity
  8
SPOJOVACÍ
  6
DASHED
100
AcDbLine
 10
1141.021851038848
 20
381.9106105778139
 30
0.0
 11
1144.985367311248
 21
380.5778919048064
 31
0.0
  0
LINE
  5
5B3D
330
1F
100
AcDbEntity
  8
SPOJOVACÍ
  6
DASHED
100
AcDbLine
 10
1145.355465654775
 20
380.9489018226597
 30
0.0
 11
1144.985367311248
 21
381.162209735987
 31
0.0
  0
LINE
  5
5B3E
330
1F
100
AcDbEntity
  8
SPOJOVACÍ
  6
DASHED
100
AcDbLine
 10
1145.355465654775
 20
380.9489018226597
 30
0.0
 11
1144.985367311248
 21
380.5778919048064
 31
0.0
  0
LINE
  5
5B3F
330
1F
100
AcDbEntity
  8
SPOJOVACÍ
  6
DASHED
100
AcDbLine
 10
1141.453936297559
 20
373.096618203672
 30
0.0
 11
1144.507703435662
 21
372.4758374812374
 31
0.0
  0
LINE
  5
5B40
330
1F
100
AcDbEntity
  8
SPOJOVACÍ
  6
DASHED
100
AcDbLine
 10
1141.824034645364
 20
373.4676281217964
 30
0.0
 11
1144.137605092135
 21
372.6891453945647
 31
0.0
  0
LINE
  5
5B41
330
1F
100
AcDbEntity
  8
SPOJOVACÍ
  6
DASHED
100
AcDbLine
 10
1141.824034645364
 20
372.8833102903447
 30
0.0
 11
1144.137605092135
 21
372.1048275633841
 31
0.0
  0
LINE
  5
5B42
330
1F
100
AcDbEntity
  8
SPOJOVACÍ
  6
DASHED
100
AcDbLine
 10
1144.507703435662
 20
372.4758374812374
 30
0.0
 11
1144.137605092135
 21
372.6891453945647
 31
0.0
  0
LINE
  5
5B43
330
1F
100
AcDbEntity
  8
SPOJOVACÍ
  6
DASHED
100
AcDbLine
 10
1144.507703435662
 20
372.4758374812374
 30
0.0
 11
1144.137605092135
 21
372.1048275633841
 31
0.0
  0
LINE
  5
5B44
330
1F
100
AcDbEntity
  8
SPOJOVACÍ
  6
DASHED
100
AcDbLine
 10
1141.453936297559
 20
373.096618203672
 30
0.0
 11
1141.824034645364
 21
373.4676281217964
 31
0.0
  0
LINE
  5
5B45
330
1F
100
AcDbEntity
  8
SPOJOVACÍ
  6
DASHED
100
AcDbLine
 10
1141.453936297559
 20
373.096618203672
 30
0.0
 11
1141.824034645364
 21
372.8833102903447
 31
0.0
  0
LINE
  5
5B46
330
1F
100
AcDbEntity
  8
SPOJOVACÍ
  6
DASHED
100
AcDbLine
 10
1140.900611925576
 20
376.051023962884
 30
0.0
 11
1144.943434985264
 21
375.0975193582255
 31
0.0
  0
LINE
  5
5B47
330
1F
100
AcDbEntity
  8
SPOJOVACÍ
  6
DASHED
100
AcDbLine
 10
1141.271621842894
 20
376.4211223085496
 30
0.0
 11
1144.573336641737
 21
375.3108272715528
 31
0.0
  0
LINE
  5
5B48
330
1F
100
AcDbEntity
  8
SPOJOVACÍ
  6
DASHED
100
AcDbLine
 10
1141.271621842894
 20
375.8368044770979
 30
0.0
 11
1144.573336641737
 21
374.7265094401011
 31
0.0
  0
LINE
  5
5B49
330
1F
100
AcDbEntity
  8
SPOJOVACÍ
  6
DASHED
100
AcDbLine
 10
1144.943434985264
 20
375.0975193582255
 30
0.0
 11
1144.573336641737
 21
375.3108272715528
 31
0.0
  0
LINE
  5
5B4A
330
1F
100
AcDbEntity
  8
SPOJOVACÍ
  6
DASHED
100
AcDbLine
 10
1144.943434985264
 20
375.0975193582255
 30
0.0
 11
1144.573336641737
 21
374.7265094401011
 31
0.0
  0
LINE
  5
5B4B
330
1F
100
AcDbEntity
  8
SPOJOVACÍ
  6
DASHED
100
AcDbLine
 10
1140.900611925576
 20
376.051023962884
 30
0.0
 11
1141.271621842894
 21
376.4211223085496
 31
0.0
  0
LINE
  5
5B4C
330
1F
100
AcDbEntity
  8
SPOJOVACÍ
  6
DASHED
100
AcDbLine
 10
1140.900611925576
 20
376.051023962884
 30
0.0
 11
1141.271621842894
 21
375.8368044770979
 31
0.0
  0
LINE
  5
5B4D
330
1F
100
AcDbEntity
  8
SPOJOVACÍ
  6
DASHED
100
AcDbLine
 10
1144.08564547155
 20
375.4840260048752
 30
0.0
 11
1144.326300554789
 21
377.4156476659356
 31
0.0
  0
LINE
  5
5B4E
330
1F
100
AcDbEntity
  8
SPOJOVACÍ
  6
DASHED
100
AcDbLine
 10
1143.75383315884
 20
372.8313506702945
 30
0.0
 11
1144.015454405071
 21
374.9252321970909
 31
0.0
  0
LINE
  5
5B4F
330
1F
100
AcDbEntity
  8
SPOJOVACÍ
  6
DASHED
100
AcDbLine
 10
1141.903341432651
 20
375.6344354308296
 30
0.0
 11
1142.187751985181
 21
373.3591510204862
 31
0.0
  0
LINE
  5
5B50
330
1F
100
AcDbEntity
  8
SPOJOVACÍ
  6
DASHED
100
AcDbLine
 10
1141.680917795308
 20
377.4156476659356
 30
0.0
 11
1141.827680931976
 21
376.242454141566
 31
0.0
  0
LINE
  5
5B51
330
1F
100
AcDbEntity
  8
SPOJOVACÍ
  6
DASHED
100
AcDbLine
 10
1144.326300554789
 20
377.7456368310615
 30
0.0
 11
1144.326300554789
 21
377.4156476659356
 31
0.0
  0
LINE
  5
5B52
330
1F
100
AcDbEntity
  8
SPOJOVACÍ
  6
DASHED
100
AcDbLine
 10
1144.326300554789
 20
380.8057849747422
 30
0.0
 11
1144.326300554789
 21
378.3372472408139
 31
0.0
  0
LINE
  5
5B53
330
1F
100
AcDbEntity
  8
SPOJOVACÍ
  6
DASHED
100
AcDbLine
 10
1141.680917795308
 20
378.6380660929864
 30
0.0
 11
1141.680917795308
 21
377.4156476659356
 31
0.0
  0
LINE
  5
5B54
330
1F
100
AcDbEntity
  8
SPOJOVACÍ
  6
DASHED
100
AcDbLine
 10
1141.680917795308
 20
381.6900100861787
 30
0.0
 11
1141.680917795308
 21
379.2223839244381
 31
0.0
  0
LINE
  5
5B55
330
1F
100
AcDbEntity
  8
SPOJOVACÍ
  6
DASHED
100
AcDbLine
 10
1144.326300554789
 20
383.8650215459713
 30
0.0
 11
1144.326300554789
 21
381.3946606673964
 31
0.0
  0
LINE
  5
5B56
330
1F
100
AcDbEntity
  8
SPOJOVACÍ
  6
DASHED
100
AcDbLine
 10
1141.021851038848
 20
385.5523418358482
 30
0.0
 11
1144.985367311248
 21
384.2196231628406
 31
0.0
  0
LINE
  5
5B57
330
1F
100
AcDbEntity
  8
SPOJOVACÍ
  6
DASHED
100
AcDbLine
 10
1141.021851038848
 20
384.9680240043965
 30
0.0
 11
1144.985367311248
 21
383.6353053313962
 31
0.0
  0
LINE
  5
5B58
330
1F
100
AcDbEntity
  8
SPOJOVACÍ
  6
DASHED
100
AcDbLine
 10
1145.355465654775
 20
384.0063152492496
 30
0.0
 11
1144.985367311248
 21
384.2196231628406
 31
0.0
  0
LINE
  5
5B59
330
1F
100
AcDbEntity
  8
SPOJOVACÍ
  6
DASHED
100
AcDbLine
 10
1145.355465654775
 20
384.0063152492496
 30
0.0
 11
1144.985367311248
 21
383.6353053313962
 31
0.0
  0
LINE
  5
5B5A
330
1F
100
AcDbEntity
  8
SPOJOVACÍ
  6
DASHED
100
AcDbLine
 10
1145.355465654775
 20
387.0637286758321
 30
0.0
 11
1144.985367311248
 21
386.6936303304376
 31
0.0
  0
LINE
  5
5B5B
330
1F
100
AcDbEntity
  8
SPOJOVACÍ
  6
DASHED
100
AcDbLine
 10
1141.021851038848
 20
388.0254374312501
 30
0.0
 11
1144.985367311248
 21
386.6936303304376
 31
0.0
  0
LINE
  5
5B5C
330
1F
100
AcDbEntity
  8
SPOJOVACÍ
  6
DASHED
100
AcDbLine
 10
1144.326300554789
 20
386.9251696893882
 30
0.0
 11
1144.326300554789
 21
384.4475162327765
 31
0.0
  0
LINE
  5
5B5D
330
1F
100
AcDbEntity
  8
SPOJOVACÍ
  6
DASHED
100
AcDbLine
 10
1141.680917795308
 20
387.8130410901105
 30
0.0
 11
1141.680917795308
 21
385.3426802115357
 31
0.0
  0
LWPOLYLINE
  5
5B5E
330
1F
100
AcDbEntity
  8
nášlap_vrstvy
100
AcDbPolyline
 90
        4
 70
     1
 43
0.0
 10
1136.903504552898
 20
409.8813360852732
 10
1125.082638197979
 20
409.8813360852732
 10
1125.082638197979
 20
408.3813360852732
 10
1136.903504552898
 20
408.3813360852732
  0
HATCH
  5
5B5F
330
1F
100
AcDbEntity
  8
nášlap_vrstvy
100
AcDbHatch
 10
0.0
 20
0.0
 30
0.0
210
0.0
220
0.0
230
1.0
  2
SOLID
 70
     1
 71
     0
 91
        1
 92
        7
 72
     0
 73
     1
 93
        4
 10
1136.903504552898
 20
409.8813360852732
 10
1125.082638197982
 20
409.8813360852732
 10
1125.082638197979
 20
408.3813360852732
 10
1136.903504552898
 20
408.3813360852732
 97
        0
 75
     0
 76
     1
 47
0.1901250437635136
 98
        1
 10
1129.761535577152
 20
409.4729303097342
  0
LWPOLYLINE
  5
5B60
330
1F
100
AcDbEntity
  8
nášlap_vrstvy
100
AcDbPolyline
 90
        2
 70
     0
 43
0.0
 10
1135.257653170738
 20
415.2592264787531
 10
1132.787547713604
 20
416.4951832140909
  0
LWPOLYLINE
  5
5B61
330
1F
100
AcDbEntity
  8
nášlap_vrstvy
100
AcDbPolyline
 90
        2
 70
     0
 43
0.0
 10
1129.444970363467
 20
415.2592264787521
 10
1131.915075820602
 20
416.4951832140909
  0
LINE
  5
5B62
330
1F
100
AcDbEntity
  8
SPOJOVACÍ
  6
DASHED
100
AcDbLine
 10
1139.328149743928
 20
406.4761500203315
 30
0.0
 11
1140.416567046279
 21
405.4287534707075
 31
0.0
  0
LINE
  5
5B63
330
1F
100
AcDbEntity
  8
SPOJOVACÍ
  6
DASHED
100
AcDbLine
 10
1138.005458362048
 20
407.2054078440762
 30
0.0
 11
1139.328149743928
 21
406.4761500203315
 31
0.0
  0
LINE
  5
5B64
330
1F
100
AcDbEntity
  8
SPOJOVACÍ
  6
DASHED
100
AcDbLine
 10
1138.005458362048
 20
408.381336085273
 30
0.0
 11
1138.005458362048
 21
407.2054078440762
 31
0.0
  0
LINE
  5
5B65
330
1F
100
AcDbEntity
  8
izolace
  6
IZOLACE
 48
0.7
100
AcDbLine
 10
1108.94090548814
 20
408.3813360852732
 30
0.0
 11
1108.94090548814
 21
380.6236702723872
 31
0.0
  0
LINE
  5
5B66
330
1F
100
AcDbEntity
  8
SPOJOVACÍ
  6
DASHED
100
AcDbLine
 10
1140.651752691043
 20
379.0665050645514
 30
0.0
 11
1141.021851038848
 21
379.4375149826758
 31
0.0
  0
LINE
  5
5B67
330
1F
100
AcDbEntity
  8
SPOJOVACÍ
  6
DASHED
100
AcDbLine
 10
1140.651752691043
 20
379.0665050645514
 30
0.0
 11
1141.021851038848
 21
378.8531971512241
 31
0.0
  0
LINE
  5
5B68
330
1F
100
AcDbEntity
  8
SPOJOVACÍ
  6
DASHED
100
AcDbLine
 10
1140.651752691043
 20
379.0665050645514
 30
0.0
 11
1145.355465654775
 21
377.8905768236183
 31
0.0
  0
LINE
  5
5B69
330
1F
100
AcDbEntity
  8
SPOJOVACÍ
  6
DASHED
100
AcDbLine
 10
1140.651752691043
 20
382.1248300635927
 30
0.0
 11
1141.021851038848
 21
382.4949284092583
 31
0.0
  0
LINE
  5
5B6A
330
1F
100
AcDbEntity
  8
SPOJOVACÍ
  6
DASHED
100
AcDbLine
 10
1140.651752691043
 20
382.1248300635927
 30
0.0
 11
1141.021851038848
 21
381.9106105778139
 31
0.0
  0
LINE
  5
5B6B
330
1F
100
AcDbEntity
  8
SPOJOVACÍ
  6
DASHED
100
AcDbLine
 10
1140.651752691043
 20
382.1248300635927
 30
0.0
 11
1145.355465654775
 21
380.9489018226597
 31
0.0
  0
LINE
  5
5B6C
330
1F
100
AcDbEntity
  8
SPOJOVACÍ
  6
DASHED
100
AcDbLine
 10
1140.651752691043
 20
391.2970703436187
 30
0.0
 11
1141.021851038848
 21
391.0837624302914
 31
0.0
  0
LINE
  5
5B6D
330
1F
100
AcDbEntity
  8
SPOJOVACÍ
  6
DASHED
100
AcDbLine
 10
1140.651752691043
 20
391.2970703436187
 30
0.0
 11
1141.021851038848
 21
391.6680802614721
 31
0.0
  0
LINE
  5
5B6E
330
1F
100
AcDbEntity
  8
SPOJOVACÍ
  6
DASHED
100
AcDbLine
 10
1140.651752691043
 20
394.3397181470702
 30
0.0
 11
1141.021851038848
 21
394.1254986612841
 31
0.0
  0
LINE
  5
5B6F
330
1F
100
AcDbEntity
  8
SPOJOVACÍ
  6
DASHED
100
AcDbLine
 10
1140.651752691043
 20
394.3397181470702
 30
0.0
 11
1141.021851038848
 21
394.7098164927358
 31
0.0
  0
LINE
  5
5B70
330
1F
100
AcDbEntity
  8
SPOJOVACÍ
  6
DASHED
100
AcDbLine
 10
1140.651752691043
 20
397.3971315736528
 30
0.0
 11
1141.021851038848
 21
397.1838236603255
 31
0.0
  0
LINE
  5
5B71
330
1F
100
AcDbEntity
  8
SPOJOVACÍ
  6
DASHED
100
AcDbLine
 10
1140.651752691043
 20
397.3971315736528
 30
0.0
 11
1141.021851038848
 21
397.7681414915061
 31
0.0
  0
LINE
  5
5B72
330
1F
100
AcDbEntity
  8
SPOJOVACÍ
  6
DASHED
100
AcDbLine
 10
1140.651752691043
 20
400.4397793771042
 30
0.0
 11
1141.021851038848
 21
400.2264714637769
 31
0.0
  0
LINE
  5
5B73
330
1F
100
AcDbEntity
  8
SPOJOVACÍ
  6
DASHED
100
AcDbLine
 10
1140.651752691043
 20
400.4397793771042
 30
0.0
 11
1141.021851038848
 21
400.8107892949576
 31
0.0
  0
LINE
  5
5B74
330
1F
100
AcDbEntity
  8
SPOJOVACÍ
  6
DASHED
100
AcDbLine
 10
1140.416567046279
 20
405.4287534707075
 30
0.0
 11
1141.196872916011
 21
404.1361439779759
 31
0.0
  0
LINE
  5
5B75
330
1F
100
AcDbEntity
  8
SPOJOVACÍ
  6
DASHED
100
AcDbLine
 10
1140.651752691043
 20
385.1822434901825
 30
0.0
 11
1141.021851038848
 21
384.9680240043965
 31
0.0
  0
LINE
  5
5B76
330
1F
100
AcDbEntity
  8
SPOJOVACÍ
  6
DASHED
100
AcDbLine
 10
1140.651752691043
 20
385.1822434901825
 30
0.0
 11
1141.021851038848
 21
385.5523418358482
 31
0.0
  0
LINE
  5
5B77
330
1F
100
AcDbEntity
  8
SPOJOVACÍ
  6
DASHED
100
AcDbLine
 10
1140.651752691043
 20
388.2396569170361
 30
0.0
 11
1141.021851038848
 21
388.0254374312501
 31
0.0
  0
LINE
  5
5B78
330
1F
100
AcDbEntity
  8
SPOJOVACÍ
  6
DASHED
100
AcDbLine
 10
1140.651752691043
 20
388.2396569170361
 30
0.0
 11
1141.021851038848
 21
388.6097552627018
 31
0.0
  0
LINE
  5
5B79
330
1F
100
AcDbEntity
  8
SPOJOVACÍ
  6
DASHED
100
AcDbLine
 10
1138.005458362048
 20
407.2054078440762
 30
0.0
 11
1148.00175998377
 21
407.2054078440762
 31
0.0
  0
LINE
  5
5B7A
330
1F
100
AcDbEntity
  8
SPOJOVACÍ
  6
DASHED
100
AcDbLine
 10
1140.651752691043
 20
400.4397793771042
 30
0.0
 11
1145.355465654775
 21
399.2638511361712
 31
0.0
  0
LINE
  5
5B7B
330
1F
100
AcDbEntity
  8
SPOJOVACÍ
  6
DASHED
100
AcDbLine
 10
1140.651752691043
 20
397.3971315736528
 30
0.0
 11
1145.355465654775
 21
396.2212033327198
 31
0.0
  0
LINE
  5
5B7C
330
1F
100
AcDbEntity
  8
SPOJOVACÍ
  6
DASHED
100
AcDbLine
 10
1140.651752691043
 20
394.3397181470702
 30
0.0
 11
1145.355465654775
 21
393.1637899058662
 31
0.0
  0
LINE
  5
5B7D
330
1F
100
AcDbEntity
  8
SPOJOVACÍ
  6
DASHED
100
AcDbLine
 10
1140.651752691043
 20
391.2970703436187
 30
0.0
 11
1145.355465654775
 21
390.1211421026857
 31
0.0
  0
LINE
  5
5B7E
330
1F
100
AcDbEntity
  8
SPOJOVACÍ
  6
DASHED
100
AcDbLine
 10
1140.651752691043
 20
385.1822434901825
 30
0.0
 11
1145.355465654775
 21
384.0063152492496
 31
0.0
  0
LINE
  5
5B7F
330
1F
100
AcDbEntity
  8
SPOJOVACÍ
  6
DASHED
100
AcDbLine
 10
1140.651752691043
 20
388.2396569170361
 30
0.0
 11
1145.355465654775
 21
387.0637286758321
 31
0.0
  0
LINE
  5
5B80
330
1F
100
AcDbEntity
  8
SPOJOVACÍ
  6
DASHED
100
AcDbLine
 10
1138.005458362048
 20
408.381336085273
 30
0.0
 11
1148.00175998377
 21
408.381336085273
 31
0.0
  0
LINE
  5
5B81
330
1F
100
AcDbEntity
  8
STAVBA OBRYS
100
AcDbLine
 10
1400.623788040521
 20
380.6236702723863
 30
0.0
 11
1400.623788040521
 21
362.6236702723872
 31
0.0
  0
POLYLINE
  5
5B82
330
1F
100
AcDbEntity
  8
STAVBA OBRYS
100
AcDb2dPolyline
 66
     1
 10
0.0
 20
0.0
 30
0.0
  0
VERTEX
  5
5B83
330
5B82
100
AcDbEntity
  8
STAVBA OBRYS
100
AcDbVertex
100
AcDb2dVertex
 10
1395.455913803868
 20
362.6236702723872
 30
0.0
 42
-0.0094186890201653
  0
VERTEX
  5
5B84
330
5B82
100
AcDbEntity
  8
STAVBA OBRYS
100
AcDbVertex
100
AcDb2dVertex
 10
1395.802712366742
 20
362.7823431431552
 30
0.0
 42
-0.0322692699774654
  0
VERTEX
  5
5B85
330
5B82
100
AcDbEntity
  8
STAVBA OBRYS
100
AcDbVertex
100
AcDb2dVertex
 10
1398.694066547832
 20
363.8238666445559
 30
0.0
 42
-0.0276160659512937
  0
VERTEX
  5
5B86
330
5B82
100
AcDbEntity
  8
STAVBA OBRYS
100
AcDbVertex
100
AcDb2dVertex
 10
1399.54964298612
 20
364.0206020735003
 30
0.0
 42
-0.0126891984598699
  0
VERTEX
  5
5B87
330
5B82
100
AcDbEntity
  8
STAVBA OBRYS
100
AcDbVertex
100
AcDb2dVertex
 10
1400.472811381911
 20
364.1558044630419
 30
0.0
  0
SEQEND
  5
5B88
330
5B82
100
AcDbEntity
  8
STAVBA OBRYS
  0
LWPOLYLINE
  5
5B89
330
1F
100
AcDbEntity
  8
izolace
100
AcDbPolyline
 90
        4
 70
     1
 43
0.0
 10
1338.39938242903
 20
383.6236702723867
 10
1314.757649719195
 20
383.6236702723867
 10
1314.757649719195
 20
380.6236702723868
 10
1338.39938242903
 20
380.6236702723868
  0
HATCH
  5
5B8A
330
1F
100
AcDbEntity
  8
izolace
100
AcDbHatch
 10
0.0
 20
0.0
 30
0.0
210
0.0
220
0.0
230
1.0
  2
SOLID
 70
     1
 71
     0
 91
        1
 92
        7
 72
     0
 73
     1
 93
        4
 10
1338.399382429034
 20
383.6236702723867
 10
1314.757649719199
 20
383.6236702723867
 10
1314.757649719195
 20
380.6236702723868
 10
1338.399382429034
 20
380.6236702723868
 97
        0
 75
     0
 76
     1
 47
0.1901250437635136
 98
        1
 10
1324.115444477539
 20
382.8068587213069
  0
LWPOLYLINE
  5
5B8B
330
1F
100
AcDbEntity
  8
izolace
100
AcDbPolyline
 90
        4
 70
     1
 43
0.0
 10
1291.11591700936
 20
383.6236702723867
 10
1267.474184299524
 20
383.6236702723867
 10
1267.474184299524
 20
380.6236702723868
 10
1291.11591700936
 20
380.6236702723868
  0
HATCH
  5
5B8C
330
1F
100
AcDbEntity
  8
izolace
100
AcDbHatch
 10
0.0
 20
0.0
 30
0.0
210
0.0
220
0.0
230
1.0
  2
SOLID
 70
     1
 71
     0
 91
        1
 92
        7
 72
     0
 73
     1
 93
        4
 10
1291.115917009364
 20
383.6236702723867
 10
1267.474184299528
 20
383.6236702723867
 10
1267.474184299524
 20
380.6236702723868
 10
1291.115917009364
 20
380.6236702723868
 97
        0
 75
     0
 76
     1
 47
0.1901250437635136
 98
        1
 10
1276.831979057868
 20
382.8068587213069
  0
LWPOLYLINE
  5
5B8D
330
1F
100
AcDbEntity
  8
STAVBA OBRYS
100
AcDbPolyline
 90
        4
 70
     0
 43
0.0
 10
1339.717708861681
 20
362.6236702723872
 42
-0.0334776267545482
 10
1340.154986656387
 20
366.670645201124
 42
-0.0091133963862869
 10
1342.632590981306
 20
379.3623749865837
 42
-0.007828075361276
 10
1342.923490116464
 20
380.6236702723872
  0
LWPOLYLINE
  5
5B8E
330
1F
100
AcDbEntity
  8
STAVBA OBRYS
100
AcDbPolyline
 90
        5
 70
     0
 43
0.0
 10
1349.961847236475
 20
362.6236702723872
 42
-0.0133579731639958
 10
1350.348657725503
 20
365.1414725599424
 42
-0.0072443097182286
 10
1352.468654672961
 20
375.9523634548495
 42
-0.0219777111230329
 10
1353.374767174944
 20
379.470476710685
 42
-0.0092752982622242
 10
1353.749994136892
 20
380.6236702723872
  0
LWPOLYLINE
  5
5B8F
330
1F
100
AcDbEntity
  8
STAVBA OBRYS
100
AcDbPolyline
 90
        4
 70
     0
 43
0.0
 10
1297.615825102221
 20
362.6236702723872
 42
-0.0334776267545482
 10
1298.053102896927
 20
366.670645201124
 42
-0.0091133963862869
 10
1300.530707221846
 20
379.3623749865837
 42
-0.007828075361276
 10
1300.821606357003
 20
380.6236702723872
  0
LWPOLYLINE
  5
5B90
330
1F
100
AcDbEntity
  8
STAVBA OBRYS
100
AcDbPolyline
 90
        5
 70
     0
 43
0.0
 10
1307.859963477014
 20
362.6236702723872
 42
-0.0133579731639958
 10
1308.246773966042
 20
365.1414725599424
 42
-0.0072443097182286
 10
1310.366770913501
 20
375.9523634548495
 42
-0.0219777111230329
 10
1311.272883415484
 20
379.470476710685
 42
-0.0092752982622242
 10
1311.648110377431
 20
380.6236702723872
  0
LWPOLYLINE
  5
5B91
330
1F
100
AcDbEntity
  8
STAVBA OBRYS
100
AcDbPolyline
 90
        5
 70
     0
 43
0.0
 10
1277.71295462054
 20
362.6236702723872
 42
-0.0133579731639958
 10
1278.099765109568
 20
365.1414725599424
 42
-0.0072443097182286
 10
1280.219762057026
 20
375.9523634548495
 42
-0.0219777111230329
 10
1281.125874559009
 20
379.470476710685
 42
-0.0092752982622242
 10
1281.501101520957
 20
380.6236702723872
  0
LWPOLYLINE
  5
5B92
330
1F
100
AcDbEntity
  8
STAVBA OBRYS
100
AcDbPolyline
 90
        3
 70
     0
 43
0.0
 10
1286.163287239253
 20
362.6236702723872
 42
-0.0052038508054843
 10
1289.361684179236
 20
379.0274967543846
 42
-0.0065712046643719
 10
1289.712109949
 20
380.6236702723872
  0
LWPOLYLINE
  5
5B93
330
1F
100
AcDbEntity
  8
STAVBA OBRYS
100
AcDbPolyline
 90
        4
 70
     0
 43
0.0
 10
1317.765567350911
 20
362.6236702723872
 42
-0.0186324019486548
 10
1321.133936723018
 20
374.3187818906117
 42
-0.0582629403736403
 10
1322.793436591099
 20
377.8986160895474
 42
-0.0146402521923566
 10
1324.577844572683
 20
380.6236702723872
  0
LWPOLYLINE
  5
5B94
330
1F
100
AcDbEntity
  8
STAVBA OBRYS
100
AcDbPolyline
 90
        4
 70
     0
 43
0.0
 10
1332.369952539506
 20
362.1228398416387
 10
1312.373700107513
 20
371.3388688921586
 10
1295.595809536295
 20
374.0460131548497
 10
1292.33219828859
 20
374.1763145192198
  0
LWPOLYLINE
  5
5B95
330
1F
100
AcDbEntity
  8
STAVBA OBRYS
100
AcDbPolyline
 90
        3
 70
     0
 43
0.0
 10
1328.265170998713
 20
362.6236702723872
 42
-0.0052038508054843
 10
1331.463567938696
 20
379.0274967543846
 42
-0.0065712046643719
 10
1331.81399370846
 20
380.6236702723872
  0
LWPOLYLINE
  5
5B96
330
1F
100
AcDbEntity
  8
STAVBA OBRYS
100
AcDbPolyline
 90
        3
 70
     0
 43
0.0
 10
1256.016278382778
 20
362.6236702723872
 42
-0.0052038508054843
 10
1259.214675322761
 20
379.0274967543846
 42
-0.0065712046643719
 10
1259.565101092525
 20
380.6236702723872
  0
LWPOLYLINE
  5
5B97
330
1F
100
AcDbEntity
  8
STAVBA OBRYS
100
AcDbPolyline
 90
        4
 70
     0
 43
0.0
 10
1302.222943683031
 20
362.1228398416387
 10
1282.226691251039
 20
371.3388688921586
 10
1265.44880067982
 20
374.0460131548497
 10
1262.185189432115
 20
374.1763145192198
  0
LWPOLYLINE
  5
5B98
330
1F
100
AcDbEntity
  8
STAVBA OBRYS
100
AcDbPolyline
 90
        4
 70
     0
 43
0.0
 10
1267.468816245746
 20
362.6236702723872
 42
-0.0334776267545482
 10
1267.906094040452
 20
366.670645201124
 42
-0.0091133963862869
 10
1270.383698365371
 20
379.3623749865837
 42
-0.007828075361276
 10
1270.674597500529
 20
380.6236702723872
  0
LWPOLYLINE
  5
5B99
330
1F
100
AcDbEntity
  8
STAVBA OBRYS
100
AcDbPolyline
 90
        6
 70
     0
 43
0.0
 10
1368.677912459214
 20
362.6236702723872
 42
-0.0121757200102759
 10
1370.047902172875
 20
367.2955876048545
 42
-0.0457786284636091
 10
1371.255925062491
 20
370.1441979877309
 42
-0.0295006114745606
 10
1373.67198551679
 20
374.0710972011329
 42
-0.0258674098621065
 10
1376.904660830755
 20
378.2168772798868
 42
-0.0093759062953949
 10
1379.070473010412
 20
380.6236702723872
  0
LWPOLYLINE
  5
5B9A
330
1F
100
AcDbEntity
  8
STAVBA OBRYS
100
AcDbPolyline
 90
        3
 70
     0
 43
0.0
 10
1390.801244231123
 20
362.6236702723872
 10
1377.009196304483
 20
369.524741835874
 10
1368.842091655359
 20
377.7060435369676
  0
LWPOLYLINE
  5
5B9B
330
1F
100
AcDbEntity
  8
STAVBA OBRYS
100
AcDbPolyline
 90
        8
 70
     0
 43
0.0
 10
1378.050716467016
 20
362.6236702723872
 42
-0.0217273703039143
 10
1380.248386727526
 20
367.6593606098649
 42
-0.0882970623535771
 10
1381.885608647619
 20
369.8997296606648
 42
-0.0171636441953577
 10
1384.698972709477
 20
372.4136470159101
 42
-0.0157521173632038
 10
1387.937827546513
 20
374.9451430684166
 42
-0.0073640874174249
 10
1392.571476902834
 20
378.2335444941527
 42
-0.0194185739168057
 10
1394.393520222511
 20
379.3851134934338
 42
-0.0229547400386702
 10
1396.778978286526
 20
380.6236702723872
  0
POLYLINE
  5
5B9C
330
1F
100
AcDbEntity
  8
STAVBA OBRYS
100
AcDb2dPolyline
 66
     1
 10
0.0
 20
0.0
 30
0.0
  0
VERTEX
  5
5B9D
330
5B9C
100
AcDbEntity
  8
STAVBA OBRYS
100
AcDbVertex
100
AcDb2dVertex
 10
1386.402767854332
 20
362.6236702723872
 30
0.0
 42
-0.0502247168465557
  0
VERTEX
  5
5B9E
330
5B9C
100
AcDbEntity
  8
STAVBA OBRYS
100
AcDbVertex
100
AcDb2dVertex
 10
1388.001815030497
 20
364.63114094511
 30
0.0
 42
-0.0274923553235744
  0
VERTEX
  5
5B9F
330
5B9C
100
AcDbEntity
  8
STAVBA OBRYS
100
AcDbVertex
100
AcDb2dVertex
 10
1390.599120761049
 20
367.0162162682481
 30
0.0
 42
-0.0255412025538677
  0
VERTEX
  5
5BA0
330
5B9C
100
AcDbEntity
  8
STAVBA OBRYS
100
AcDbVertex
100
AcDb2dVertex
 10
1393.65055079876
 20
369.2729299452639
 30
0.0
 42
-0.0272796991712396
  0
VERTEX
  5
5BA1
330
5B9C
100
AcDbEntity
  8
STAVBA OBRYS
100
AcDbVertex
100
AcDb2dVertex
 10
1397.763549951946
 20
371.6892658269298
 30
0.0
 42
-0.056967459841729
  0
VERTEX
  5
5BA2
330
5B9C
100
AcDbEntity
  8
STAVBA OBRYS
100
AcDbVertex
100
AcDb2dVertex
 10
1399.904497232677
 20
372.5020016621292
 30
0.0
 42
-0.0373408083348504
  0
VERTEX
  5
5BA3
330
5B9C
100
AcDbEntity
  8
STAVBA OBRYS
100
AcDbVertex
100
AcDb2dVertex
 10
1400.126851608151
 20
372.5411672030768
 30
0.0
 42
-0.0052305969362967
  0
VERTEX
  5
5BA4
330
5B9C
100
AcDbEntity
  8
STAVBA OBRYS
100
AcDbVertex
100
AcDb2dVertex
 10
1400.472811381911
 20
372.5721241699811
 30
0.0
  0
SEQEND
  5
5BA5
330
5B9C
100
AcDbEntity
  8
STAVBA OBRYS
  0
LWPOLYLINE
  5
5BA6
330
1F
100
AcDbEntity
  8
STAVBA OBRYS
100
AcDbPolyline
 90
        4
 70
     0
 43
0.0
 10
1359.867451110371
 20
362.6236702723872
 42
-0.0186324019486548
 10
1363.235820482478
 20
374.3187818906117
 42
-0.0582629403736403
 10
1364.895320350559
 20
377.8986160895474
 42
-0.0146402521923566
 10
1366.679728332143
 20
380.6236702723872
  0
LWPOLYLINE
  5
5BA7
330
1F
100
AcDbEntity
  8
STAVBA OBRYS
100
AcDbPolyline
 90
        4
 70
     0
 43
0.0
 10
1374.471836298966
 20
362.1228398416387
 10
1354.475583866974
 20
371.3388688921586
 10
1337.697693295755
 20
374.0460131548497
 10
1334.43408204805
 20
374.1763145192198
  0
LWPOLYLINE
  5
5BA8
330
1F
100
AcDbEntity
  8
izolace
100
AcDbPolyline
 90
        4
 70
     1
 43
0.0
 10
1385.682847848701
 20
383.6236702723867
 10
1362.041115138865
 20
383.6236702723867
 10
1362.041115138865
 20
380.6236702723868
 10
1385.682847848701
 20
380.6236702723868
  0
HATCH
  5
5BA9
330
1F
100
AcDbEntity
  8
izolace
100
AcDbHatch
 10
0.0
 20
0.0
 30
0.0
210
0.0
220
0.0
230
1.0
  2
SOLID
 70
     1
 71
     0
 91
        1
 92
        7
 72
     0
 73
     1
 93
        4
 10
1385.682847848704
 20
383.6236702723867
 10
1362.041115138869
 20
383.6236702723867
 10
1362.041115138865
 20
380.6236702723868
 10
1385.682847848704
 20
380.6236702723868
 97
        0
 75
     0
 76
     1
 47
0.1901250437635136
 98
        1
 10
1371.398909897209
 20
382.8068587213069
  0
HATCH
  5
5BAA
330
1F
100
AcDbEntity
  8
nášlap_vrstvy
100
AcDbHatch
 10
0.0
 20
0.0
 30
0.0
210
0.0
220
0.0
230
1.0
  2
SOLID
 70
     1
 71
     0
 91
        1
 92
        7
 72
     0
 73
     1
 93
        4
 10
1396.962564361085
 20
409.8813360852732
 10
1385.141698006166
 20
409.8813360852732
 10
1385.141698006166
 20
408.3813360852732
 10
1396.962564361085
 20
408.3813360852732
 97
        0
 75
     0
 76
     1
 47
0.1901250437635136
 98
        1
 10
1389.820595385336
 20
409.4729303097342
  0
LWPOLYLINE
  5
5BAB
330
1F
100
AcDbEntity
  8
nášlap_vrstvy
100
AcDbPolyline
 90
        4
 70
     1
 43
0.0
 10
1396.962564361082
 20
409.8813360852732
 10
1385.141698006166
 20
409.8813360852732
 10
1385.141698006166
 20
408.3813360852732
 10
1396.962564361082
 20
408.3813360852732
  0
POLYLINE
  5
5BAC
330
1F
100
AcDbEntity
  8
nášlap_vrstvy
100
AcDb2dPolyline
 66
     1
 10
0.0
 20
0.0
 30
0.0
  0
VERTEX
  5
5BAD
330
5BAC
100
AcDbEntity
  8
nášlap_vrstvy
100
AcDbVertex
100
AcDb2dVertex
 10
1351.708564211211
 20
415.2592264787531
 30
0.0
 42
-0.0094186890201653
  0
VERTEX
  5
5BAE
330
5BAC
100
AcDbEntity
  8
nášlap_vrstvy
100
AcDbVertex
100
AcDb2dVertex
 10
1352.055362774085
 20
415.4178993495211
 30
0.0
 42
-0.0322692699774654
  0
VERTEX
  5
5BAF
330
5BAC
100
AcDbEntity
  8
nášlap_vrstvy
100
AcDbVertex
100
AcDb2dVertex
 10
1354.946716955176
 20
416.4594228509217
 30
0.0
 42
-0.0276160659512937
  0
VERTEX
  5
5BB0
330
5BAC
100
AcDbEntity
  8
nášlap_vrstvy
100
AcDbVertex
100
AcDb2dVertex
 10
1355.802293393463
 20
416.6561582798663
 30
0.0
 42
-0.0126891984598699
  0
VERTEX
  5
5BB1
330
5BAC
100
AcDbEntity
  8
nášlap_vrstvy
100
AcDbVertex
100
AcDb2dVertex
 10
1356.725461789254
 20
416.7913606694078
 30
0.0
  0
SEQEND
  5
5BB2
330
5BAC
100
AcDbEntity
  8
nášlap_vrstvy
  0
POLYLINE
  5
5BB3
330
1F
100
AcDbEntity
  8
nášlap_vrstvy
100
AcDb2dPolyline
 66
     1
 10
0.0
 20
0.0
 30
0.0
  0
VERTEX
  5
5BB4
330
5BB3
100
AcDbEntity
  8
nášlap_vrstvy
100
AcDbVertex
100
AcDb2dVertex
 10
1362.994059322995
 20
415.2592264787531
 30
0.0
 42
0.0094186890201653
  0
VERTEX
  5
5BB5
330
5BB3
100
AcDbEntity
  8
nášlap_vrstvy
100
AcDbVertex
100
AcDb2dVertex
 10
1362.647260760121
 20
415.4178993495211
 30
0.0
 42
0.0322692699774654
  0
VERTEX
  5
5BB6
330
5BB3
100
AcDbEntity
  8
nášlap_vrstvy
100
AcDbVertex
100
AcDb2dVertex
 10
1359.75590657903
 20
416.4594228509217
 30
0.0
 42
0.0276160659512937
  0
VERTEX
  5
5BB7
330
5BB3
100
AcDbEntity
  8
nášlap_vrstvy
100
AcDbVertex
100
AcDb2dVertex
 10
1358.900330140743
 20
416.6561582798663
 30
0.0
 42
0.0126891984598699
  0
VERTEX
  5
5BB8
330
5BB3
100
AcDbEntity
  8
nášlap_vrstvy
100
AcDbVertex
100
AcDb2dVertex
 10
1357.977161744952
 20
416.7913606694078
 30
0.0
  0
SEQEND
  5
5BB9
330
5BB3
100
AcDbEntity
  8
nášlap_vrstvy
  0
HATCH
  5
5BBA
330
1F
100
AcDbEntity
  8
nášlap_vrstvy
100
AcDbHatch
 10
0.0
 20
0.0
 30
0.0
210
0.0
220
0.0
230
1.0
  2
SOLID
 70
     1
 71
     0
 91
        1
 92
        7
 72
     0
 73
     1
 93
        4
 10
1349.679098941415
 20
409.8813360852732
 10
1337.858232586496
 20
409.8813360852732
 10
1337.858232586496
 20
408.3813360852732
 10
1349.679098941415
 20
408.3813360852732
 97
        0
 75
     0
 76
     1
 47
0.1901250437635136
 98
        1
 10
1342.537129965665
 20
409.4729303097342
  0
INSERT
  5
5BBB
330
1F
100
AcDbEntity
  8
POPIS
100
AcDbBlockReference
  2
E_PUNKT
 10
1369.609476911224
 20
410.8337013914174
 30
0.0
 50
270.0
  0
HATCH
  5
5BBC
330
1F
100
AcDbEntity
  8
nášlap_vrstvy
100
AcDbHatch
 10
0.0
 20
0.0
 30
0.0
210
0.0
220
0.0
230
1.0
  2
SOLID
 70
     1
 71
     0
 91
        1
 92
        7
 72
     0
 73
     1
 93
        4
 10
1373.32083165125
 20
409.8813360852732
 10
1361.499965296334
 20
409.8813360852732
 10
1361.499965296331
 20
408.3813360852732
 10
1373.32083165125
 20
408.3813360852732
 97
        0
 75
     0
 76
     1
 47
0.1901250437635136
 98
        1
 10
1366.178862675504
 20
409.4729303097342
  0
LWPOLYLINE
  5
5BBD
330
1F
100
AcDbEntity
  8
nášlap_vrstvy
100
AcDbPolyline
 90
        4
 70
     1
 43
0.0
 10
1373.32083165125
 20
409.8813360852732
 10
1361.499965296331
 20
409.8813360852732
 10
1361.499965296331
 20
408.3813360852732
 10
1373.32083165125
 20
408.3813360852732
  0
LINE
  5
5BBE
330
1F
100
AcDbEntity
  8
SPOJOVACÍ
  6
DASHED
100
AcDbLine
 10
1395.25061662213
 20
399.2638511361712
 30
0.0
 11
1394.880518278604
 21
398.8937527905056
 31
0.0
  0
LINE
  5
5BBF
330
1F
100
AcDbEntity
  8
SPOJOVACÍ
  6
DASHED
100
AcDbLine
 10
1390.917002006203
 20
400.2264714637769
 30
0.0
 11
1394.880518278604
 21
398.8937527905056
 31
0.0
  0
LINE
  5
5BC0
330
1F
100
AcDbEntity
  8
SPOJOVACÍ
  6
DASHED
100
AcDbLine
 10
1394.221451522144
 20
399.1207342882537
 30
0.0
 11
1394.221451522144
 21
396.6521965543254
 31
0.0
  0
LINE
  5
5BC1
330
1F
100
AcDbEntity
  8
SPOJOVACÍ
  6
DASHED
100
AcDbLine
 10
1390.917002006203
 20
397.7681414915061
 30
0.0
 11
1394.880518278604
 21
396.4354228185058
 31
0.0
  0
LINE
  5
5BC2
330
1F
100
AcDbEntity
  8
SPOJOVACÍ
  6
DASHED
100
AcDbLine
 10
1395.25061662213
 20
396.2212033327198
 30
0.0
 11
1394.880518278604
 21
396.4354228185058
 31
0.0
  0
LINE
  5
5BC3
330
1F
100
AcDbEntity
  8
SPOJOVACÍ
  6
DASHED
100
AcDbLine
 10
1395.25061662213
 20
396.2212033327198
 30
0.0
 11
1394.880518278604
 21
395.8511049870542
 31
0.0
  0
LINE
  5
5BC4
330
1F
100
AcDbEntity
  8
SPOJOVACÍ
  6
DASHED
100
AcDbLine
 10
1390.917002006203
 20
397.1838236603255
 30
0.0
 11
1394.880518278604
 21
395.8511049870542
 31
0.0
  0
LINE
  5
5BC5
330
1F
100
AcDbEntity
  8
SPOJOVACÍ
  6
DASHED
100
AcDbLine
 10
1394.221451522144
 20
396.0780864848022
 30
0.0
 11
1394.221451522144
 21
393.6095487508739
 31
0.0
  0
LINE
  5
5BC6
330
1F
100
AcDbEntity
  8
SPOJOVACÍ
  6
DASHED
100
AcDbLine
 10
1390.917002006203
 20
394.7098164927358
 30
0.0
 11
1394.880518278604
 21
393.3780093916523
 31
0.0
  0
LINE
  5
5BC7
330
1F
100
AcDbEntity
  8
SPOJOVACÍ
  6
DASHED
100
AcDbLine
 10
1395.25061662213
 20
393.1637899058662
 30
0.0
 11
1394.880518278604
 21
393.3780093916523
 31
0.0
  0
LINE
  5
5BC8
330
1F
100
AcDbEntity
  8
SPOJOVACÍ
  6
DASHED
100
AcDbLine
 10
1395.25061662213
 20
393.1637899058662
 30
0.0
 11
1394.880518278604
 21
392.7936915604716
 31
0.0
  0
LINE
  5
5BC9
330
1F
100
AcDbEntity
  8
SPOJOVACÍ
  6
DASHED
100
AcDbLine
 10
1390.917002006203
 20
394.1254986612841
 30
0.0
 11
1394.880518278604
 21
392.7936915604716
 31
0.0
  0
LINE
  5
5BCA
330
1F
100
AcDbEntity
  8
SPOJOVACÍ
  6
DASHED
100
AcDbLine
 10
1394.221451522144
 20
393.0252309194222
 30
0.0
 11
1394.221451522144
 21
390.5475774628105
 31
0.0
  0
LINE
  5
5BCB
330
1F
100
AcDbEntity
  8
SPOJOVACÍ
  6
DASHED
100
AcDbLine
 10
1390.917002006203
 20
391.6680802614721
 30
0.0
 11
1394.880518278604
 21
390.3353615884718
 31
0.0
  0
LINE
  5
5BCC
330
1F
100
AcDbEntity
  8
SPOJOVACÍ
  6
DASHED
100
AcDbLine
 10
1395.25061662213
 20
390.1211421026857
 30
0.0
 11
1394.880518278604
 21
390.3353615884718
 31
0.0
  0
LINE
  5
5BCD
330
1F
100
AcDbEntity
  8
SPOJOVACÍ
  6
DASHED
100
AcDbLine
 10
1395.25061662213
 20
390.1211421026857
 30
0.0
 11
1394.880518278604
 21
389.7510437570201
 31
0.0
  0
LINE
  5
5BCE
330
1F
100
AcDbEntity
  8
SPOJOVACÍ
  6
DASHED
100
AcDbLine
 10
1390.917002006203
 20
391.0837624302914
 30
0.0
 11
1394.880518278604
 21
389.7510437570201
 31
0.0
  0
LINE
  5
5BCF
330
1F
100
AcDbEntity
  8
SPOJOVACÍ
  6
DASHED
100
AcDbLine
 10
1394.221451522144
 20
389.9780252547682
 30
0.0
 11
1394.221451522144
 21
387.5094875208399
 31
0.0
  0
LINE
  5
5BD0
330
1F
100
AcDbEntity
  8
SPOJOVACÍ
  6
DASHED
100
AcDbLine
 10
1390.917002006203
 20
388.6097552627018
 30
0.0
 11
1394.880518278604
 21
387.2779481616182
 31
0.0
  0
LINE
  5
5BD1
330
1F
100
AcDbEntity
  8
SPOJOVACÍ
  6
DASHED
100
AcDbLine
 10
1395.25061662213
 20
387.0637286758321
 30
0.0
 11
1394.880518278604
 21
387.2779481616182
 31
0.0
  0
LINE
  5
5BD2
330
1F
100
AcDbEntity
  8
SPOJOVACÍ
  6
DASHED
100
AcDbLine
 10
1391.576068762663
 20
396.9732504635615
 30
0.0
 11
1391.576068762663
 21
394.5047127296331
 31
0.0
  0
LINE
  5
5BD3
330
1F
100
AcDbEntity
  8
SPOJOVACÍ
  6
DASHED
100
AcDbLine
 10
1391.576068762663
 20
400.015898267013
 30
0.0
 11
1391.576068762663
 21
397.5473605330846
 31
0.0
  0
LINE
  5
5BD4
330
1F
100
AcDbEntity
  8
SPOJOVACÍ
  6
DASHED
100
AcDbLine
 10
1391.576068762663
 20
390.8731892335274
 30
0.0
 11
1391.576068762663
 21
388.4046514995991
 31
0.0
  0
LINE
  5
5BD5
330
1F
100
AcDbEntity
  8
SPOJOVACÍ
  6
DASHED
100
AcDbLine
 10
1391.576068762663
 20
393.9131023201446
 30
0.0
 11
1391.576068762663
 21
391.4427414415697
 31
0.0
  0
LINE
  5
5BD6
330
1F
100
AcDbEntity
  8
SPOJOVACÍ
  6
DASHED
100
AcDbLine
 10
1395.044601287374
 20
404.7924760194766
 30
0.0
 11
1395.983520735959
 21
405.9756968387175
 31
0.0
  0
LINE
  5
5BD7
330
1F
100
AcDbEntity
  8
SPOJOVACÍ
  6
DASHED
100
AcDbLine
 10
1394.44387515521
 20
403.4068861539674
 30
0.0
 11
1395.044601287374
 21
404.7924760194766
 31
0.0
  0
LINE
  5
5BD8
330
1F
100
AcDbEntity
  8
SPOJOVACÍ
  6
DASHED
100
AcDbLine
 10
1394.221451522144
 20
401.9137307596067
 30
0.0
 11
1394.44387515521
 21
403.4068861539674
 31
0.0
  0
LINE
  5
5BD9
330
1F
100
AcDbEntity
  8
SPOJOVACÍ
  6
DASHED
100
AcDbLine
 10
1394.221451522144
 20
401.9137307596086
 30
0.0
 11
1394.221451522144
 21
399.699679545127
 31
0.0
  0
LINE
  5
5BDA
330
1F
100
AcDbEntity
  8
SPOJOVACÍ
  6
DASHED
100
AcDbLine
 10
1390.917002006203
 20
400.8107892949576
 30
0.0
 11
1394.880518278604
 21
399.4780706219573
 31
0.0
  0
LINE
  5
5BDB
330
1F
100
AcDbEntity
  8
SPOJOVACÍ
  6
DASHED
100
AcDbLine
 10
1395.25061662213
 20
399.2638511361712
 30
0.0
 11
1394.880518278604
 21
399.4780706219573
 31
0.0
  0
LINE
  5
5BDC
330
1F
100
AcDbEntity
  8
SPOJOVACÍ
  6
DASHED
100
AcDbLine
 10
1390.546903658398
 20
400.4397793771042
 30
0.0
 11
1390.917002006203
 21
400.2264714637769
 31
0.0
  0
LINE
  5
5BDD
330
1F
100
AcDbEntity
  8
SPOJOVACÍ
  6
DASHED
100
AcDbLine
 10
1390.546903658398
 20
400.4397793771042
 30
0.0
 11
1390.917002006203
 21
400.8107892949576
 31
0.0
  0
LINE
  5
5BDE
330
1F
100
AcDbEntity
  8
SPOJOVACÍ
  6
DASHED
100
AcDbLine
 10
1391.543707946521
 20
402.2993258339368
 30
0.0
 11
1391.576068762663
 21
400.5891803717897
 31
0.0
  0
LINE
  5
5BDF
330
1F
100
AcDbEntity
  8
SPOJOVACÍ
  6
DASHED
100
AcDbLine
 10
1391.511347130379
 20
402.6849209082667
 30
0.0
 11
1391.576068762663
 21
401.9137307596067
 31
0.0
  0
LINE
  5
5BE0
330
1F
100
AcDbEntity
  8
SPOJOVACÍ
  6
DASHED
100
AcDbLine
 10
1391.092023883366
 20
404.1361439779759
 30
0.0
 11
1391.511347130379
 21
402.6849209082667
 31
0.0
  0
LINE
  5
5BE1
330
1F
100
AcDbEntity
  8
SPOJOVACÍ
  6
DASHED
100
AcDbLine
 10
1390.311718013634
 20
405.4287534707075
 30
0.0
 11
1391.092023883366
 21
404.1361439779759
 31
0.0
  0
LINE
  5
5BE2
330
1F
100
AcDbEntity
  8
SPOJOVACÍ
  6
DASHED
100
AcDbLine
 10
1389.223300711283
 20
406.4761500203315
 30
0.0
 11
1390.311718013634
 21
405.4287534707075
 31
0.0
  0
LINE
  5
5BE3
330
1F
100
AcDbEntity
  8
SPOJOVACÍ
  6
DASHED
100
AcDbLine
 10
1390.546903658398
 20
400.4397793771042
 30
0.0
 11
1395.25061662213
 21
399.2638511361712
 31
0.0
  0
LINE
  5
5BE4
330
1F
100
AcDbEntity
  8
SPOJOVACÍ
  6
DASHED
100
AcDbLine
 10
1387.900609329403
 20
408.381336085273
 30
0.0
 11
1387.900609329403
 21
407.2054078440762
 31
0.0
  0
LINE
  5
5BE5
330
1F
100
AcDbEntity
  8
SPOJOVACÍ
  6
DASHED
100
AcDbLine
 10
1387.900609329403
 20
407.2054078440762
 30
0.0
 11
1389.223300711283
 21
406.4761500203315
 31
0.0
  0
LINE
  5
5BE6
330
1F
100
AcDbEntity
  8
SPOJOVACÍ
  6
DASHED
100
AcDbLine
 10
1397.896910951125
 20
408.381336085273
 30
0.0
 11
1397.896910951125
 21
407.2054078440762
 31
0.0
  0
LINE
  5
5BE7
330
1F
100
AcDbEntity
  8
SPOJOVACÍ
  6
DASHED
100
AcDbLine
 10
1397.195911868681
 20
406.8754186789504
 30
0.0
 11
1397.896910951125
 21
407.2054078440762
 31
0.0
  0
LINE
  5
5BE8
330
1F
100
AcDbEntity
  8
SPOJOVACÍ
  6
DASHED
100
AcDbLine
 10
1395.983520735959
 20
405.9756968387175
 30
0.0
 11
1397.195911868681
 21
406.8754186789504
 31
0.0
  0
LINE
  5
5BE9
330
1F
100
AcDbEntity
  8
SPOJOVACÍ
  6
DASHED
100
AcDbLine
 10
1387.900609329403
 20
408.381336085273
 30
0.0
 11
1397.896910951125
 21
408.381336085273
 31
0.0
  0
LINE
  5
5BEA
330
1F
100
AcDbEntity
  8
SPOJOVACÍ
  6
DASHED
100
AcDbLine
 10
1387.900609329403
 20
407.2054078440762
 30
0.0
 11
1397.896910951125
 21
407.2054078440762
 31
0.0
  0
LINE
  5
5BEB
330
1F
100
AcDbEntity
  8
SPOJOVACÍ
  6
DASHED
100
AcDbLine
 10
1392.160386596517
 20
372.7411050146149
 30
0.0
 11
1392.444797144768
 21
370.4667321764666
 31
0.0
  0
LINE
  5
5BEC
330
1F
100
AcDbEntity
  8
SPOJOVACÍ
  6
DASHED
100
AcDbLine
 10
1393.31626024825
 20
370.16864804085
 30
0.0
 11
1393.578793063994
 21
372.2707337181347
 31
0.0
  0
LINE
  5
5BED
330
1F
100
AcDbEntity
  8
SPOJOVACÍ
  6
DASHED
100
AcDbLine
 10
1392.898760140264
 20
366.8313819242814
 30
0.0
 11
1393.24606918177
 21
369.6107658055245
 31
0.0
  0
LINE
  5
5BEE
330
1F
100
AcDbEntity
  8
SPOJOVACÍ
  6
DASHED
100
AcDbLine
 10
1392.520457645443
 20
369.8587134657302
 30
0.0
 11
1392.898760140264
 21
366.8313819242814
 31
0.0
  0
LINE
  5
5BEF
330
1F
100
AcDbEntity
  8
SPOJOVACÍ
  6
DASHED
100
AcDbLine
 10
1391.902411641177
 20
370.1431240169188
 30
0.0
 11
1392.272509984703
 21
369.92890453114
 31
0.0
  0
LINE
  5
5BF0
330
1F
100
AcDbEntity
  8
SPOJOVACÍ
  6
DASHED
100
AcDbLine
 10
1391.902411641177
 20
370.1431240169188
 30
0.0
 11
1392.272509984703
 21
370.5132223625844
 31
0.0
  0
LINE
  5
5BF1
330
1F
100
AcDbEntity
  8
SPOJOVACÍ
  6
DASHED
100
AcDbLine
 10
1394.013613039804
 20
369.8386588754603
 30
0.0
 11
1393.643514696278
 21
369.467648957607
 31
0.0
  0
LINE
  5
5BF2
330
1F
100
AcDbEntity
  8
SPOJOVACÍ
  6
DASHED
100
AcDbLine
 10
1394.013613039804
 20
369.8386588754603
 30
0.0
 11
1393.643514696278
 21
370.0519667890514
 31
0.0
  0
LINE
  5
5BF3
330
1F
100
AcDbEntity
  8
SPOJOVACÍ
  6
DASHED
100
AcDbLine
 10
1392.272509984703
 20
369.92890453114
 30
0.0
 11
1393.643514696278
 21
369.467648957607
 31
0.0
  0
LINE
  5
5BF4
330
1F
100
AcDbEntity
  8
SPOJOVACÍ
  6
DASHED
100
AcDbLine
 10
1392.272509984703
 20
370.5132223625844
 30
0.0
 11
1393.643514696278
 21
370.0519667890514
 31
0.0
  0
LINE
  5
5BF5
330
1F
100
AcDbEntity
  8
SPOJOVACÍ
  6
DASHED
100
AcDbLine
 10
1391.902411641177
 20
370.1431240169188
 30
0.0
 11
1394.013613039804
 21
369.8386588754603
 31
0.0
  0
LINE
  5
5BF6
330
1F
100
AcDbEntity
  8
SPOJOVACÍ
  6
DASHED
100
AcDbLine
 10
1391.576068762663
 20
384.7601855247305
 30
0.0
 11
1391.576068762663
 21
382.2825320681188
 31
0.0
  0
LINE
  5
5BF7
330
1F
100
AcDbEntity
  8
SPOJOVACÍ
  6
DASHED
100
AcDbLine
 10
1394.221451522144
 20
383.8650215459713
 30
0.0
 11
1394.221451522144
 21
381.3946606673964
 31
0.0
  0
LINE
  5
5BF8
330
1F
100
AcDbEntity
  8
SPOJOVACÍ
  6
DASHED
100
AcDbLine
 10
1391.576068762663
 20
381.6900100861787
 30
0.0
 11
1391.576068762663
 21
379.2223839244381
 31
0.0
  0
LINE
  5
5BF9
330
1F
100
AcDbEntity
  8
SPOJOVACÍ
  6
DASHED
100
AcDbLine
 10
1391.576068762663
 20
378.6380660929864
 30
0.0
 11
1391.576068762663
 21
377.4156476659356
 31
0.0
  0
LINE
  5
5BFA
330
1F
100
AcDbEntity
  8
SPOJOVACÍ
  6
DASHED
100
AcDbLine
 10
1394.221451522144
 20
380.8057849747422
 30
0.0
 11
1394.221451522144
 21
378.3372472408139
 31
0.0
  0
LINE
  5
5BFB
330
1F
100
AcDbEntity
  8
SPOJOVACÍ
  6
DASHED
100
AcDbLine
 10
1394.221451522144
 20
377.7456368310615
 30
0.0
 11
1394.221451522144
 21
377.4156476659356
 31
0.0
  0
LINE
  5
5BFC
330
1F
100
AcDbEntity
  8
SPOJOVACÍ
  6
DASHED
100
AcDbLine
 10
1391.576068762663
 20
377.4156476659356
 30
0.0
 11
1391.722831899331
 21
376.242454141566
 31
0.0
  0
LINE
  5
5BFD
330
1F
100
AcDbEntity
  8
SPOJOVACÍ
  6
DASHED
100
AcDbLine
 10
1391.798492400007
 20
375.6344354308296
 30
0.0
 11
1392.082902952536
 21
373.3591510204862
 31
0.0
  0
LINE
  5
5BFE
330
1F
100
AcDbEntity
  8
SPOJOVACÍ
  6
DASHED
100
AcDbLine
 10
1393.648984126196
 20
372.8313506702945
 30
0.0
 11
1393.910605372426
 21
374.9252321970909
 31
0.0
  0
LINE
  5
5BFF
330
1F
100
AcDbEntity
  8
SPOJOVACÍ
  6
DASHED
100
AcDbLine
 10
1393.980796438906
 20
375.4840260048752
 30
0.0
 11
1394.221451522144
 21
377.4156476659356
 31
0.0
  0
LINE
  5
5C00
330
1F
100
AcDbEntity
  8
SPOJOVACÍ
  6
DASHED
100
AcDbLine
 10
1390.795762892931
 20
376.051023962884
 30
0.0
 11
1391.166772810249
 21
375.8368044770979
 31
0.0
  0
LINE
  5
5C01
330
1F
100
AcDbEntity
  8
SPOJOVACÍ
  6
DASHED
100
AcDbLine
 10
1390.795762892931
 20
376.051023962884
 30
0.0
 11
1391.166772810249
 21
376.4211223085496
 31
0.0
  0
LINE
  5
5C02
330
1F
100
AcDbEntity
  8
SPOJOVACÍ
  6
DASHED
100
AcDbLine
 10
1394.838585952619
 20
375.0975193582255
 30
0.0
 11
1394.468487609092
 21
374.7265094401011
 31
0.0
  0
LINE
  5
5C03
330
1F
100
AcDbEntity
  8
SPOJOVACÍ
  6
DASHED
100
AcDbLine
 10
1394.838585952619
 20
375.0975193582255
 30
0.0
 11
1394.468487609092
 21
375.3108272715528
 31
0.0
  0
LINE
  5
5C04
330
1F
100
AcDbEntity
  8
SPOJOVACÍ
  6
DASHED
100
AcDbLine
 10
1391.166772810249
 20
375.8368044770979
 30
0.0
 11
1394.468487609092
 21
374.7265094401011
 31
0.0
  0
LINE
  5
5C05
330
1F
100
AcDbEntity
  8
SPOJOVACÍ
  6
DASHED
100
AcDbLine
 10
1391.166772810249
 20
376.4211223085496
 30
0.0
 11
1394.468487609092
 21
375.3108272715528
 31
0.0
  0
LINE
  5
5C06
330
1F
100
AcDbEntity
  8
SPOJOVACÍ
  6
DASHED
100
AcDbLine
 10
1390.795762892931
 20
376.051023962884
 30
0.0
 11
1394.838585952619
 21
375.0975193582255
 31
0.0
  0
LINE
  5
5C07
330
1F
100
AcDbEntity
  8
SPOJOVACÍ
  6
DASHED
100
AcDbLine
 10
1391.349087264915
 20
373.096618203672
 30
0.0
 11
1391.719185612719
 21
372.8833102903447
 31
0.0
  0
LINE
  5
5C08
330
1F
100
AcDbEntity
  8
SPOJOVACÍ
  6
DASHED
100
AcDbLine
 10
1391.349087264915
 20
373.096618203672
 30
0.0
 11
1391.719185612719
 21
373.4676281217964
 31
0.0
  0
LINE
  5
5C09
330
1F
100
AcDbEntity
  8
SPOJOVACÍ
  6
DASHED
100
AcDbLine
 10
1394.402854403017
 20
372.4758374812374
 30
0.0
 11
1394.032756059491
 21
372.1048275633841
 31
0.0
  0
LINE
  5
5C0A
330
1F
100
AcDbEntity
  8
SPOJOVACÍ
  6
DASHED
100
AcDbLine
 10
1394.402854403017
 20
372.4758374812374
 30
0.0
 11
1394.032756059491
 21
372.6891453945647
 31
0.0
  0
LINE
  5
5C0B
330
1F
100
AcDbEntity
  8
SPOJOVACÍ
  6
DASHED
100
AcDbLine
 10
1391.719185612719
 20
372.8833102903447
 30
0.0
 11
1394.032756059491
 21
372.1048275633841
 31
0.0
  0
LINE
  5
5C0C
330
1F
100
AcDbEntity
  8
SPOJOVACÍ
  6
DASHED
100
AcDbLine
 10
1391.719185612719
 20
373.4676281217964
 30
0.0
 11
1394.032756059491
 21
372.6891453945647
 31
0.0
  0
LINE
  5
5C0D
330
1F
100
AcDbEntity
  8
SPOJOVACÍ
  6
DASHED
100
AcDbLine
 10
1391.349087264915
 20
373.096618203672
 30
0.0
 11
1394.402854403017
 21
372.4758374812374
 31
0.0
  0
LINE
  5
5C0E
330
1F
100
AcDbEntity
  8
SPOJOVACÍ
  6
DASHED
100
AcDbLine
 10
1395.25061662213
 20
380.9489018226597
 30
0.0
 11
1394.880518278604
 21
380.5778919048064
 31
0.0
  0
LINE
  5
5C0F
330
1F
100
AcDbEntity
  8
SPOJOVACÍ
  6
DASHED
100
AcDbLine
 10
1395.25061662213
 20
380.9489018226597
 30
0.0
 11
1394.880518278604
 21
381.162209735987
 31
0.0
  0
LINE
  5
5C10
330
1F
100
AcDbEntity
  8
SPOJOVACÍ
  6
DASHED
100
AcDbLine
 10
1390.917002006203
 20
381.9106105778139
 30
0.0
 11
1394.880518278604
 21
380.5778919048064
 31
0.0
  0
LINE
  5
5C11
330
1F
100
AcDbEntity
  8
SPOJOVACÍ
  6
DASHED
100
AcDbLine
 10
1390.917002006203
 20
382.4949284092583
 30
0.0
 11
1394.880518278604
 21
381.162209735987
 31
0.0
  0
LINE
  5
5C12
330
1F
100
AcDbEntity
  8
SPOJOVACÍ
  6
DASHED
100
AcDbLine
 10
1395.25061662213
 20
377.8905768236183
 30
0.0
 11
1394.880518278604
 21
377.5204784779528
 31
0.0
  0
LINE
  5
5C13
330
1F
100
AcDbEntity
  8
SPOJOVACÍ
  6
DASHED
100
AcDbLine
 10
1395.25061662213
 20
377.8905768236183
 30
0.0
 11
1394.880518278604
 21
378.1047963094045
 31
0.0
  0
LINE
  5
5C14
330
1F
100
AcDbEntity
  8
SPOJOVACÍ
  6
DASHED
100
AcDbLine
 10
1390.917002006203
 20
378.8531971512241
 30
0.0
 11
1394.880518278604
 21
377.5204784779528
 31
0.0
  0
LINE
  5
5C15
330
1F
100
AcDbEntity
  8
SPOJOVACÍ
  6
DASHED
100
AcDbLine
 10
1390.917002006203
 20
379.4375149826758
 30
0.0
 11
1394.880518278604
 21
378.1047963094045
 31
0.0
  0
LINE
  5
5C16
330
1F
100
AcDbEntity
  8
SPOJOVACÍ
  6
DASHED
100
AcDbLine
 10
1390.917002006203
 20
385.5523418358482
 30
0.0
 11
1394.880518278604
 21
384.2196231628406
 31
0.0
  0
LINE
  5
5C17
330
1F
100
AcDbEntity
  8
SPOJOVACÍ
  6
DASHED
100
AcDbLine
 10
1390.917002006203
 20
384.9680240043965
 30
0.0
 11
1394.880518278604
 21
383.6353053313962
 31
0.0
  0
LINE
  5
5C18
330
1F
100
AcDbEntity
  8
SPOJOVACÍ
  6
DASHED
100
AcDbLine
 10
1395.25061662213
 20
384.0063152492496
 30
0.0
 11
1394.880518278604
 21
383.6353053313962
 31
0.0
  0
LINE
  5
5C19
330
1F
100
AcDbEntity
  8
SPOJOVACÍ
  6
DASHED
100
AcDbLine
 10
1395.25061662213
 20
384.0063152492496
 30
0.0
 11
1394.880518278604
 21
384.2196231628406
 31
0.0
  0
LINE
  5
5C1A
330
1F
100
AcDbEntity
  8
SPOJOVACÍ
  6
DASHED
100
AcDbLine
 10
1395.25061662213
 20
387.0637286758321
 30
0.0
 11
1394.880518278604
 21
386.6936303304376
 31
0.0
  0
LINE
  5
5C1B
330
1F
100
AcDbEntity
  8
SPOJOVACÍ
  6
DASHED
100
AcDbLine
 10
1390.917002006203
 20
388.0254374312501
 30
0.0
 11
1394.880518278604
 21
386.6936303304376
 31
0.0
  0
LINE
  5
5C1C
330
1F
100
AcDbEntity
  8
SPOJOVACÍ
  6
DASHED
100
AcDbLine
 10
1394.221451522144
 20
386.9251696893882
 30
0.0
 11
1394.221451522144
 21
384.4475162327765
 31
0.0
  0
LINE
  5
5C1D
330
1F
100
AcDbEntity
  8
SPOJOVACÍ
  6
DASHED
100
AcDbLine
 10
1391.576068762663
 20
387.8130410901105
 30
0.0
 11
1391.576068762663
 21
385.3426802115357
 31
0.0
  0
INSERT
  5
5C1E
330
1F
100
AcDbEntity
  8
POPIS
100
AcDbBlockReference
  2
E_PUNKT
 10
1294.077313811686
 20
413.8130360553664
 30
0.0
 50
270.0
  0
LWPOLYLINE
  5
5C1F
330
1F
100
AcDbEntity
  8
nášlap_vrstvy
100
AcDbPolyline
 90
        2
 70
     0
 43
0.0
 10
1285.257653170738
 20
415.2592264787531
 10
1282.787547713604
 20
416.4951832140909
  0
LWPOLYLINE
  5
5C20
330
1F
100
AcDbEntity
  8
nášlap_vrstvy
100
AcDbPolyline
 90
        2
 70
     0
 43
0.0
 10
1279.444970363467
 20
415.2592264787531
 10
1281.915075820601
 20
416.4951832140909
  0
HATCH
  5
5C21
330
1F
100
AcDbEntity
  8
nášlap_vrstvy
100
AcDbHatch
 10
0.0
 20
0.0
 30
0.0
210
0.0
220
0.0
230
1.0
  2
SOLID
 70
     1
 71
     0
 91
        1
 92
        7
 72
     0
 73
     1
 93
        4
 10
1278.753900811909
 20
409.8813360852732
 10
1266.933034456994
 20
409.8813360852732
 10
1266.93303445699
 20
408.3813360852732
 10
1278.753900811909
 20
408.3813360852732
 97
        0
 75
     0
 76
     1
 47
0.1901250437635136
 98
        1
 10
1271.611931836163
 20
409.4729303097342
  0
LWPOLYLINE
  5
5C22
330
1F
100
AcDbEntity
  8
nášlap_vrstvy
100
AcDbPolyline
 90
        4
 70
     1
 43
0.0
 10
1278.753900811909
 20
409.8813360852732
 10
1266.93303445699
 20
409.8813360852732
 10
1266.93303445699
 20
408.3813360852732
 10
1278.753900811909
 20
408.3813360852732
  0
TEXT
  5
5C23
330
1F
100
AcDbEntity
  8
POPIS
100
AcDbText
 10
1166.819297044662
 20
510.7664900982986
 30
0.0
 40
25.0
  1
01
 41
0.85
  7
SIMPLEX7
100
AcDbText
  0
LINE
  5
5C24
330
1F
100
AcDbEntity
  8
nášlap_vrstvy
100
AcDbLine
 10
1206.915075820601
 20
427.2592264787531
 30
0.0
 11
1198.915075820598
 21
427.2592264787531
 31
0.0
  0
LINE
  5
5C25
330
1F
100
AcDbEntity
  8
nášlap_vrstvy
100
AcDbLine
 10
1198.915075820598
 20
421.2592264787531
 30
0.0
 11
1206.915075820601
 21
421.2592264787531
 31
0.0
  0
LINE
  5
5C26
330
1F
100
AcDbEntity
  8
nášlap_vrstvy
100
AcDbLine
 10
1198.915075820601
 20
427.2592264787531
 30
0.0
 11
1198.915075820601
 21
421.2592264787531
 31
0.0
  0
LINE
  5
5C27
330
1F
100
AcDbEntity
  8
nášlap_vrstvy
100
AcDbLine
 10
1200.169727071876
 20
426.4383114146653
 30
0.0
 11
1200.169727071876
 21
422.0939237021744
 31
0.0
  0
INSERT
  5
5C28
330
1F
100
AcDbEntity
  8
POPIS
100
AcDbBlockReference
  2
E_PUNKT
 10
1235.528997460999
 20
423.3191655730556
 30
0.0
 50
270.0
  0
LINE
  5
5C29
330
1F
100
AcDbEntity
  8
nášlap_vrstvy
100
AcDbLine
 10
1200.169727071876
 20
422.0939237021744
 30
0.0
 11
1207.826185086346
 21
422.0939237021744
 31
0.0
  0
LINE
  5
5C2A
330
1F
100
AcDbEntity
  8
nášlap_vrstvy
100
AcDbLine
 10
1207.826185086342
 20
433.2592264787531
 30
0.0
 11
1207.826185086338
 21
426.4383114146653
 31
0.0
  0
LINE
  5
5C2B
330
1F
100
AcDbEntity
  8
nášlap_vrstvy
100
AcDbLine
 10
1207.826185086338
 20
426.4383114146653
 30
0.0
 11
1200.169727071876
 21
426.4383114146653
 31
0.0
  0
LINE
  5
5C2C
330
1F
100
AcDbEntity
  8
nášlap_vrstvy
100
AcDbLine
 10
1206.915075820601
 20
433.2592264787531
 30
0.0
 11
1206.915075820601
 21
427.2592264787531
 31
0.0
  0
LINE
  5
5C2D
330
1F
100
AcDbEntity
  8
POPIS
100
AcDbLine
 10
1235.558065791873
 20
501.9171290255749
 30
0.0
 11
1235.558065791871
 21
423.2915551974287
 31
0.0
  0
TEXT
  5
5C2E
330
1F
100
AcDbEntity
  8
POPIS
100
AcDbText
 10
1216.76247238016
 20
510.7664900982986
 30
0.0
 40
25.0
  1
02
 41
0.85
  7
SIMPLEX7
100
AcDbText
  0
LINE
  5
5C2F
330
1F
100
AcDbEntity
  8
nášlap_vrstvy
100
AcDbLine
 10
1123.915075820602
 20
427.2592264787531
 30
0.0
 11
1123.915075820602
 21
421.2592264787531
 31
0.0
  0
LINE
  5
5C30
330
1F
100
AcDbEntity
  8
nášlap_vrstvy
100
AcDbLine
 10
1125.169727071876
 20
426.4383114146653
 30
0.0
 11
1125.169727071876
 21
422.0939237021744
 31
0.0
  0
LINE
  5
5C31
330
1F
100
AcDbEntity
  8
nášlap_vrstvy
100
AcDbLine
 10
1123.915075820598
 20
421.2592264787531
 30
0.0
 11
1131.915075820602
 21
421.2592264787531
 31
0.0
  0
LINE
  5
5C32
330
1F
100
AcDbEntity
  8
nášlap_vrstvy
100
AcDbLine
 10
1125.169727071876
 20
422.0939237021744
 30
0.0
 11
1132.826185086345
 21
422.0939237021744
 31
0.0
  0
LINE
  5
5C33
330
1F
100
AcDbEntity
  8
nášlap_vrstvy
100
AcDbLine
 10
1131.915075820602
 20
427.2592264787531
 30
0.0
 11
1123.915075820598
 21
427.2592264787531
 31
0.0
  0
LINE
  5
5C34
330
1F
100
AcDbEntity
  8
nášlap_vrstvy
100
AcDbLine
 10
1131.915075820602
 20
433.2592264787531
 30
0.0
 11
1131.915075820602
 21
427.2592264787531
 31
0.0
  0
LINE
  5
5C35
330
1F
100
AcDbEntity
  8
nášlap_vrstvy
100
AcDbLine
 10
1132.826185086338
 20
426.4383114146653
 30
0.0
 11
1125.169727071876
 21
426.4383114146653
 31
0.0
  0
LINE
  5
5C36
330
1F
100
AcDbEntity
  8
nášlap_vrstvy
100
AcDbLine
 10
1132.826185086342
 20
433.2592264787531
 30
0.0
 11
1132.826185086338
 21
426.4383114146653
 31
0.0
  0
LINE
  5
5C37
330
1F
100
AcDbEntity
  8
nášlap_vrstvy
100
AcDbLine
 10
1121.957720204686
 20
435.2622905290213
 30
0.0
 11
1121.957720204686
 21
443.9876513363038
 31
0.0
  0
LWPOLYLINE
  5
5C38
330
1F
100
AcDbEntity
  8
nášlap_vrstvy
100
AcDbPolyline
 90
        3
 70
     0
 43
0.0
 10
1127.879894210557
 20
427.2592264787531
 42
0.00139912452586
 10
1126.986405188167
 20
431.6630529607505
 42
0.0065712046643719
 10
1126.635979418403
 20
433.2592264787531
  0
INSERT
  5
5C39
330
1F
100
AcDbEntity
  8
POPIS
100
AcDbBlockReference
  2
E_PUNKT
 10
1110.833177629305
 20
446.9720764179114
 30
0.0
 50
270.0
  0
LINE
  5
5C3A
330
1F
100
AcDbEntity
  8
nášlap_vrstvy
100
AcDbLine
 10
1121.957720204686
 20
443.9876513363038
 30
0.0
 11
1112.638233566464
 21
452.0693760219715
 31
0.0
  0
LWPOLYLINE
  5
5C3B
330
1F
100
AcDbEntity
  8
nášlap_vrstvy
100
AcDbPolyline
 90
        3
 70
     0
 43
0.0
 10
1136.822729323649
 20
427.2592264787531
 42
-0.00139912452586
 10
1137.716218346039
 20
431.6630529607505
 42
-0.0065712046643719
 10
1138.066644115803
 20
433.2592264787531
  0
LINE
  5
5C3C
330
1F
100
AcDbEntity
  8
POPIS
100
AcDbLine
 10
1110.862245960178
 20
446.9444660422846
 30
0.0
 11
1181.663780966352
 21
501.9171290255749
 31
0.0
  0
LINE
  5
5C3D
330
1F
100
AcDbEntity
  8
nášlap_vrstvy
100
AcDbLine
 10
1348.915075820602
 20
427.2592264787531
 30
0.0
 11
1348.915075820602
 21
421.2592264787531
 31
0.0
  0
LINE
  5
5C3E
330
1F
100
AcDbEntity
  8
nášlap_vrstvy
100
AcDbLine
 10
1350.169727071876
 20
426.4383114146653
 30
0.0
 11
1350.169727071876
 21
422.0939237021744
 31
0.0
  0
LINE
  5
5C3F
330
1F
100
AcDbEntity
  8
nášlap_vrstvy
100
AcDbLine
 10
1348.915075820598
 20
421.2592264787531
 30
0.0
 11
1356.915075820602
 21
421.2592264787531
 31
0.0
  0
LINE
  5
5C40
330
1F
100
AcDbEntity
  8
nášlap_vrstvy
100
AcDbLine
 10
1350.169727071876
 20
422.0939237021744
 30
0.0
 11
1357.826185086346
 21
422.0939237021744
 31
0.0
  0
TEXT
  5
5C41
330
1F
100
AcDbEntity
  8
POPIS
100
AcDbText
 10
1352.740874310293
 20
510.7664900982986
 30
0.0
 40
25.0
  1
04
 41
0.85
  7
SIMPLEX7
100
AcDbText
  0
LINE
  5
5C42
330
1F
100
AcDbEntity
  8
nášlap_vrstvy
100
AcDbLine
 10
1356.915075820602
 20
427.2592264787531
 30
0.0
 11
1348.915075820598
 21
427.2592264787531
 31
0.0
  0
LINE
  5
5C43
330
1F
100
AcDbEntity
  8
nášlap_vrstvy
100
AcDbLine
 10
1356.915075820602
 20
433.2592264787531
 30
0.0
 11
1356.915075820602
 21
427.2592264787531
 31
0.0
  0
LINE
  5
5C44
330
1F
100
AcDbEntity
  8
nášlap_vrstvy
100
AcDbLine
 10
1357.826185086338
 20
426.4383114146653
 30
0.0
 11
1350.169727071876
 21
426.4383114146653
 31
0.0
  0
LINE
  5
5C45
330
1F
100
AcDbEntity
  8
nášlap_vrstvy
100
AcDbLine
 10
1357.826185086342
 20
433.2592264787531
 30
0.0
 11
1357.826185086338
 21
426.4383114146653
 31
0.0
  0
LINE
  5
5C46
330
1F
100
AcDbEntity
  8
nášlap_vrstvy
100
AcDbLine
 10
1275.169727071876
 20
426.4383114146653
 30
0.0
 11
1275.169727071876
 21
422.0939237021744
 31
0.0
  0
LINE
  5
5C47
330
1F
100
AcDbEntity
  8
nášlap_vrstvy
100
AcDbLine
 10
1273.915075820601
 20
427.2592264787531
 30
0.0
 11
1273.915075820601
 21
421.2592264787531
 31
0.0
  0
LINE
  5
5C48
330
1F
100
AcDbEntity
  8
nášlap_vrstvy
100
AcDbLine
 10
1275.169727071876
 20
426.4383114146653
 30
0.0
 11
1275.169727071876
 21
422.0939237021744
 31
0.0
  0
LINE
  5
5C49
330
1F
100
AcDbEntity
  8
nášlap_vrstvy
100
AcDbLine
 10
1275.169727071876
 20
422.0939237021744
 30
0.0
 11
1282.826185086346
 21
422.0939237021744
 31
0.0
  0
LINE
  5
5C4A
330
1F
100
AcDbEntity
  8
nášlap_vrstvy
100
AcDbLine
 10
1273.915075820598
 20
421.2592264787531
 30
0.0
 11
1281.915075820601
 21
421.2592264787531
 31
0.0
  0
LINE
  5
5C4B
330
1F
100
AcDbEntity
  8
nášlap_vrstvy
100
AcDbLine
 10
1275.169727071876
 20
422.0939237021744
 30
0.0
 11
1282.826185086346
 21
422.0939237021744
 31
0.0
  0
LINE
  5
5C4C
330
1F
100
AcDbEntity
  8
nášlap_vrstvy
100
AcDbLine
 10
1282.826185086342
 20
433.2592264787531
 30
0.0
 11
1282.826185086338
 21
426.4383114146653
 31
0.0
  0
LINE
  5
5C4D
330
1F
100
AcDbEntity
  8
nášlap_vrstvy
100
AcDbLine
 10
1282.826185086338
 20
426.4383114146653
 30
0.0
 11
1275.169727071876
 21
426.4383114146653
 31
0.0
  0
LWPOLYLINE
  5
5C4E
330
1F
100
AcDbEntity
  8
nášlap_vrstvy
100
AcDbPolyline
 90
        3
 70
     0
 43
0.0
 10
1286.822729323649
 20
427.2592264787531
 42
-0.00139912452586
 10
1287.716218346039
 20
431.6630529607505
 42
-0.0065712046643719
 10
1288.066644115803
 20
433.2592264787531
  0
LINE
  5
5C4F
330
1F
100
AcDbEntity
  8
nášlap_vrstvy
100
AcDbLine
 10
1281.915075820601
 20
427.2592264787531
 30
0.0
 11
1273.915075820598
 21
427.2592264787531
 31
0.0
  0
LINE
  5
5C50
330
1F
100
AcDbEntity
  8
nášlap_vrstvy
100
AcDbLine
 10
1281.915075820601
 20
433.2592264787531
 30
0.0
 11
1281.915075820601
 21
427.2592264787531
 31
0.0
  0
LINE
  5
5C51
330
1F
100
AcDbEntity
  8
nášlap_vrstvy
100
AcDbLine
 10
1282.826185086338
 20
426.4383114146653
 30
0.0
 11
1275.169727071876
 21
426.4383114146653
 31
0.0
  0
LINE
  5
5C52
330
1F
100
AcDbEntity
  8
nášlap_vrstvy
100
AcDbLine
 10
1282.826185086342
 20
433.2592264787531
 30
0.0
 11
1282.826185086338
 21
426.4383114146653
 31
0.0
  0
LWPOLYLINE
  5
5C53
330
1F
100
AcDbEntity
  8
nášlap_vrstvy
100
AcDbPolyline
 90
        3
 70
     0
 43
0.0
 10
1277.879894210557
 20
427.2592264787531
 42
0.00139912452586
 10
1276.986405188167
 20
431.6630529607505
 42
0.0065712046643719
 10
1276.635979418403
 20
433.2592264787531
  0
TEXT
  5
5C54
330
1F
100
AcDbEntity
  8
POPIS
100
AcDbText
 10
1277.208711210755
 20
510.7664900982986
 30
0.0
 40
25.0
  1
03
 41
0.85
  7
SIMPLEX7
100
AcDbText
  0
LWPOLYLINE
  5
5C55
330
1F
100
AcDbEntity
  8
izolace
100
AcDbPolyline
 90
        4
 70
     1
 43
0.0
 10
1716.667105786393
 20
383.6236702723867
 10
1693.025373076558
 20
383.6236702723867
 10
1693.025373076558
 20
380.6236702723868
 10
1716.667105786393
 20
380.6236702723868
  0
HATCH
  5
5C56
330
1F
100
AcDbEntity
  8
izolace
100
AcDbHatch
 10
0.0
 20
0.0
 30
0.0
210
0.0
220
0.0
230
1.0
  2
SOLID
 70
     1
 71
     0
 91
        1
 92
        7
 72
     0
 73
     1
 93
        4
 10
1716.667105786397
 20
383.6236702723867
 10
1693.025373076562
 20
383.6236702723867
 10
1693.025373076558
 20
380.6236702723868
 10
1716.667105786397
 20
380.6236702723868
 97
        0
 75
     0
 76
     1
 47
0.1901250437635136
 98
        1
 10
1702.383167834901
 20
382.8068587213069
  0
POLYLINE
  5
5C57
330
1F
100
AcDbEntity
  8
STAVBA OBRYS
100
AcDb2dPolyline
 66
     1
 10
0.0
 20
0.0
 30
0.0
  0
VERTEX
  5
5C58
330
5C57
100
AcDbEntity
  8
STAVBA OBRYS
100
AcDbVertex
100
AcDb2dVertex
 10
1705.791662277174
 20
362.6236702723872
 30
0.0
 42
0.0094186890201653
  0
VERTEX
  5
5C59
330
5C57
100
AcDbEntity
  8
STAVBA OBRYS
100
AcDbVertex
100
AcDb2dVertex
 10
1705.4448637143
 20
362.7823431431552
 30
0.0
 42
0.0322692699774654
  0
VERTEX
  5
5C5A
330
5C57
100
AcDbEntity
  8
STAVBA OBRYS
100
AcDbVertex
100
AcDb2dVertex
 10
1702.553509533209
 20
363.8238666445559
 30
0.0
 42
0.0276160659512937
  0
VERTEX
  5
5C5B
330
5C57
100
AcDbEntity
  8
STAVBA OBRYS
100
AcDbVertex
100
AcDb2dVertex
 10
1701.697933094922
 20
364.0206020735003
 30
0.0
 42
0.0126891984598699
  0
VERTEX
  5
5C5C
330
5C57
100
AcDbEntity
  8
STAVBA OBRYS
100
AcDbVertex
100
AcDb2dVertex
 10
1700.77476469913
 20
364.1558044630419
 30
0.0
  0
SEQEND
  5
5C5D
330
5C57
100
AcDbEntity
  8
STAVBA OBRYS
  0
POLYLINE
  5
5C5E
330
1F
100
AcDbEntity
  8
STAVBA OBRYS
100
AcDb2dPolyline
 66
     1
 10
0.0
 20
0.0
 30
0.0
  0
VERTEX
  5
5C5F
330
5C5E
100
AcDbEntity
  8
STAVBA OBRYS
100
AcDbVertex
100
AcDb2dVertex
 10
1714.84480822671
 20
362.6236702723872
 30
0.0
 42
0.0502247168465557
  0
VERTEX
  5
5C60
330
5C5E
100
AcDbEntity
  8
STAVBA OBRYS
100
AcDbVertex
100
AcDb2dVertex
 10
1713.245761050544
 20
364.63114094511
 30
0.0
 42
0.0274923553235744
  0
VERTEX
  5
5C61
330
5C5E
100
AcDbEntity
  8
STAVBA OBRYS
100
AcDbVertex
100
AcDb2dVertex
 10
1710.648455319992
 20
367.0162162682481
 30
0.0
 42
0.0255412025538677
  0
VERTEX
  5
5C62
330
5C5E
100
AcDbEntity
  8
STAVBA OBRYS
100
AcDbVertex
100
AcDb2dVertex
 10
1707.597025282281
 20
369.2729299452639
 30
0.0
 42
0.0272796991712396
  0
VERTEX
  5
5C63
330
5C5E
100
AcDbEntity
  8
STAVBA OBRYS
100
AcDbVertex
100
AcDb2dVertex
 10
1703.484026129095
 20
371.6892658269298
 30
0.0
 42
0.056967459841729
  0
VERTEX
  5
5C64
330
5C5E
100
AcDbEntity
  8
STAVBA OBRYS
100
AcDbVertex
100
AcDb2dVertex
 10
1701.343078848364
 20
372.5020016621292
 30
0.0
 42
0.0373408083348504
  0
VERTEX
  5
5C65
330
5C5E
100
AcDbEntity
  8
STAVBA OBRYS
100
AcDbVertex
100
AcDb2dVertex
 10
1701.12072447289
 20
372.5411672030768
 30
0.0
 42
0.0052305969362967
  0
VERTEX
  5
5C66
330
5C5E
100
AcDbEntity
  8
STAVBA OBRYS
100
AcDbVertex
100
AcDb2dVertex
 10
1700.77476469913
 20
372.5721241699811
 30
0.0
  0
SEQEND
  5
5C67
330
5C5E
100
AcDbEntity
  8
STAVBA OBRYS
  0
LWPOLYLINE
  5
5C68
330
1F
100
AcDbEntity
  8
nášlap_vrstvy
100
AcDbPolyline
 90
        4
 70
     0
 43
0.0
 10
1683.978136827897
 20
414.7583960480046
 10
1703.974389259889
 20
423.9744250985244
 10
1720.752279831107
 20
426.6815693612157
 10
1724.015891078813
 20
426.8118707255857
  0
LWPOLYLINE
  5
5C69
330
1F
100
AcDbEntity
  8
nášlap_vrstvy
100
AcDbPolyline
 90
        4
 70
     1
 43
0.0
 10
1801.182785271045
 20
408.3813360852732
 10
1451.311845379594
 20
408.3813360852732
 10
1451.311845379594
 20
409.8813360852732
 10
1801.182785271045
 20
409.8813360852732
  0
HATCH
  5
5C6A
330
1F
100
AcDbEntity
  8
CETRIS
100
AcDbHatch
 10
0.0
 20
0.0
 30
0.0
210
0.0
220
0.0
230
1.0
  2
ANSI31
 70
     0
 71
     0
 91
        6
 92
        7
 72
     0
 73
     1
 93
       37
 10
1548.706269863948
 20
408.381336085273
 10
1447.416983411764
 20
408.381336085273
 10
1447.416983411762
 20
407.2054078440762
 10
1446.715984329321
 20
406.8754186789495
 10
1445.5035931966
 20
405.9756968387175
 10
1444.564673748013
 20
404.7924760194757
 10
1443.96394761585
 20
403.4068861539692
 10
1443.741523982782
 20
401.9137307596113
 10
1443.741523982782
 20
399.6996795451261
 10
1444.400590739244
 20
399.4780706219573
 10
1444.77068908277
 20
399.2638511361712
 10
1444.400590739244
 20
398.8937527905075
 10
1443.741523982782
 20
399.1153617137208
 10
1443.741523982782
 20
396.6570317416747
 10
1444.400590739248
 20
396.4354228185058
 10
1444.77068908277
 20
396.2212033327198
 10
1444.400590739242
 20
395.8511049870542
 10
1443.741523982782
 20
396.0727139102684
 10
1443.741523982782
 20
393.599466735591
 10
1444.400590739236
 20
393.3780093916541
 10
1444.77068908277
 20
393.1637899058662
 10
1444.400590739242
 20
392.7936915604725
 10
1443.741523982784
 20
393.0151489043657
 10
1443.741523982784
 20
390.5569705116415
 10
1444.40059073924
 20
390.3353615884709
 10
1444.770689082768
 20
390.1211421026867
 10
1444.400590739242
 20
389.751043757021
 10
1443.741523982782
 20
389.9726526802353
 10
1443.741523982782
 20
387.4994055055569
 10
1444.400590739244
 20
387.2779481616173
 10
1444.770689082768
 20
387.0637286758313
 10
1444.400590739242
 20
386.6936303304366
 10
1443.741523982784
 20
386.9150876743308
 10
1443.741523982782
 20
384.4412320860112
 10
1443.919655180605
 20
384.381336085272
 10
1469.494496846514
 20
384.381336085272
 10
1548.706269863946
 20
384.381336085273
 97
        0
 92
        7
 72
     0
 73
     1
 93
       44
 10
1441.096141223301
 20
396.9622147371121
 10
1440.437074466838
 20
397.1838236603255
 10
1440.066976119038
 20
397.3971315736528
 10
1440.437074466841
 20
397.7681414915061
 10
1441.096141223301
 20
397.5465325683383
 10
1441.096141223301
 20
400.0048625405636
 10
1440.437074466838
 20
400.2264714637769
 10
1440.066976119035
 20
400.4397793771042
 10
1440.437074466841
 20
400.8107892949586
 10
1441.096141223301
 20
400.5891803717906
 10
1441.063780407158
 20
402.2993258339213
 10
1441.031419591018
 20
402.6849209082622
 10
1440.612096344006
 20
404.1361439779732
 10
1439.831790474271
 20
405.4287534707093
 10
1438.743373171919
 20
406.4761500203342
 10
1437.420681790041
 20
407.2054078440771
 10
1437.420681790041
 20
408.381336085273
 10
1419.494496846513
 20
408.381336085273
 10
1419.494496846513
 20
400.3813360852729
 10
1409.494496846513
 20
400.3813360852729
 10
1409.494496846513
 20
392.381336085273
 10
1419.494496846513
 20
392.381336085273
 10
1419.494496846512
 20
384.381336085272
 10
1441.096141223299
 20
384.381336085272
 10
1441.096141223301
 20
384.7464150812277
 10
1440.437074466845
 20
384.9680240043955
 10
1440.066976119035
 20
385.1822434901835
 10
1440.437074466843
 20
385.5523418358473
 10
1441.096141223301
 20
385.3307329126803
 10
1441.096141223301
 20
387.8039800873587
 10
1440.437074466849
 20
388.0254374312473
 10
1440.066976119037
 20
388.2396569170371
 10
1440.437074466839
 20
388.6097552627018
 10
1441.096141223301
 20
388.388297918764
 10
1441.096141223299
 20
390.8621535070772
 10
1440.437074466839
 20
391.0837624302914
 10
1440.066976119037
 20
391.2970703436178
 10
1440.437074466843
 20
391.6680802614721
 10
1441.096141223301
 20
391.4464713383051
 10
1441.096141223301
 20
393.9040413173918
 10
1440.437074466843
 20
394.1254986612832
 10
1440.066976119037
 20
394.3397181470702
 10
1440.437074466841
 20
394.7098164927358
 10
1441.096141223301
 20
394.488359148798
 97
        0
 92
        7
 72
     0
 73
     1
 93
        4
 10
1595.588584678113
 20
408.3813360852738
 10
1548.706269863946
 20
408.3813360852738
 10
1548.706269863944
 20
384.381336085273
 10
1595.588584678113
 20
384.3813360852739
 97
        0
 92
        7
 72
     0
 73
     1
 93
        4
 10
1644.6771001424
 20
408.3813360852738
 10
1595.588584678113
 20
408.3813360852738
 10
1595.588584678113
 20
384.381336085272
 10
1644.6771001424
 20
384.381336085272
 97
        0
 92
        7
 72
     0
 73
     1
 93
       40
 10
1720.459921808213
 20
400.0048625405636
 10
1719.800855051754
 20
400.2264714637779
 10
1719.430756703952
 20
400.4397793771052
 10
1719.800855051755
 20
400.8107892949586
 10
1720.459921808215
 20
400.5891803717906
 10
1720.427560992072
 20
402.2993258339313
 10
1720.395200175934
 20
402.6849209082704
 10
1719.975876928916
 20
404.1361439779759
 10
1719.195571059185
 20
405.4287534707111
 10
1718.107153756841
 20
406.4761500203296
 10
1716.784462374955
 20
407.2054078440762
 10
1716.784462374955
 20
408.381336085273
 10
1644.677100142402
 20
408.3813360852721
 10
1644.6771001424
 20
384.381336085273
 10
1720.459921808215
 20
384.381336085273
 10
1720.459921808215
 20
384.7464150812277
 10
1719.80085505175
 20
384.9680240043974
 10
1719.430756703951
 20
385.1822434901825
 10
1719.800855051755
 20
385.5523418358491
 10
1720.459921808215
 20
385.3307329126803
 10
1720.459921808215
 20
387.8039800873578
 10
1719.800855051757
 20
388.0254374312483
 10
1719.430756703951
 20
388.2396569170371
 10
1719.800855051755
 20
388.6097552627027
 10
1720.459921808215
 20
388.3882979187649
 10
1720.459921808215
 20
390.862153507079
 10
1719.800855051757
 20
391.0837624302887
 10
1719.430756703949
 20
391.2970703436187
 10
1719.800855051755
 20
391.668080261473
 10
1720.459921808215
 20
391.4464713383051
 10
1720.459921808215
 20
393.9040413173909
 10
1719.800855051766
 20
394.1254986612823
 10
1719.430756703951
 20
394.3397181470693
 10
1719.800855051757
 20
394.7098164927367
 10
1720.459921808215
 20
394.4883591488007
 10
1720.459921808215
 20
396.9622147371121
 10
1719.800855051754
 20
397.1838236603236
 10
1719.430756703951
 20
397.3971315736537
 10
1719.800855051757
 20
397.7681414915061
 10
1720.459921808215
 20
397.5465325683392
 97
        0
 92
        7
 72
     0
 73
     1
 93
       37
 10
1801.182785271038
 20
408.381336085273
 10
1726.780763996678
 20
408.381336085273
 10
1726.780763996678
 20
407.2054078440762
 10
1726.079764914235
 20
406.8754186789531
 10
1724.867373781513
 20
405.9756968387175
 10
1723.928454332925
 20
404.7924760194739
 10
1723.327728200764
 20
403.4068861539638
 10
1723.105304567696
 20
401.913730759615
 10
1723.105304567696
 20
399.6996795451261
 10
1723.764371324154
 20
399.4780706219573
 10
1724.134469667681
 20
399.2638511361712
 10
1723.764371324158
 20
398.8937527905056
 10
1723.105304567696
 20
399.115361713719
 10
1723.105304567695
 20
396.6570317416738
 10
1723.764371324158
 20
396.4354228185041
 10
1724.134469667681
 20
396.2212033327207
 10
1723.764371324156
 20
395.8511049870542
 10
1723.105304567696
 20
396.0727139102684
 10
1723.105304567696
 20
393.599466735591
 10
1723.764371324154
 20
393.3780093916541
 10
1724.134469667682
 20
393.1637899058671
 10
1723.764371324156
 20
392.7936915604716
 10
1723.105304567696
 20
393.0151489043648
 10
1723.105304567696
 20
390.5569705116397
 10
1723.764371324156
 20
390.3353615884727
 10
1724.134469667681
 20
390.1211421026857
 10
1723.764371324156
 20
389.751043757021
 10
1723.105304567696
 20
389.9726526802353
 10
1723.105304567696
 20
387.4994055055569
 10
1723.764371324162
 20
387.2779481616173
 10
1724.134469667682
 20
387.0637286758313
 10
1723.764371324154
 20
386.6936303304376
 10
1723.105304567695
 20
386.915087674329
 10
1723.105304567696
 20
384.4412320860103
 10
1723.283435765518
 20
384.381336085272
 10
1747.548088204891
 20
384.381336085272
 10
1801.182785271038
 20
384.3813360852739
 97
        0
 75
     0
 76
     1
 52
90.0
 41
1.0
 77
     0
 78
     1
 53
135.0
 43
-4089.721785666244
 44
-4750.186567426168
 45
-2.245064030267288
 46
-2.245064030267287
 79
     0
 47
0.7293997082383822
 98
        6
 10
1505.66815158256
 20
394.7774558730709
 10
1428.304323233244
 20
395.5068626298055
 10
1557.487335119555
 20
397.6950661250923
 10
1638.500434843731
 20
397.6950661250923
 10
1660.39586490601
 20
399.8832528454661
 10
1737.75972156774
 20
399.8832528454661
  0
LWPOLYLINE
  5
5C6B
330
1F
100
AcDbEntity
  8
nášlap_vrstvy
100
AcDbPolyline
 90
        4
 70
     0
 43
0.0
 10
1698.582522016492
 20
415.2592264787531
 42
0.0186324019486548
 10
1695.214152644385
 20
426.9543380969776
 42
0.0582629403736403
 10
1693.554652776304
 20
430.5341722959133
 42
0.0146402521923566
 10
1691.77024479472
 20
433.2592264787531
  0
POLYLINE
  5
5C6C
330
1F
100
AcDbEntity
  8
nášlap_vrstvy
100
AcDb2dPolyline
 66
     1
 10
0.0
 20
0.0
 30
0.0
  0
VERTEX
  5
5C6D
330
5C6C
100
AcDbEntity
  8
nášlap_vrstvy
100
AcDbVertex
100
AcDb2dVertex
 10
1672.047205272531
 20
415.2592264787531
 30
0.0
 42
0.0502247168465557
  0
VERTEX
  5
5C6E
330
5C6C
100
AcDbEntity
  8
nášlap_vrstvy
100
AcDbVertex
100
AcDb2dVertex
 10
1670.448158096366
 20
417.2666971514758
 30
0.0
 42
0.0274923553235744
  0
VERTEX
  5
5C6F
330
5C6C
100
AcDbEntity
  8
nášlap_vrstvy
100
AcDbVertex
100
AcDb2dVertex
 10
1667.850852365813
 20
419.651772474614
 30
0.0
 42
0.0255412025538677
  0
VERTEX
  5
5C70
330
5C6C
100
AcDbEntity
  8
nášlap_vrstvy
100
AcDbVertex
100
AcDb2dVertex
 10
1664.799422328102
 20
421.9084861516298
 30
0.0
 42
0.0272796991712396
  0
VERTEX
  5
5C71
330
5C6C
100
AcDbEntity
  8
nášlap_vrstvy
100
AcDbVertex
100
AcDb2dVertex
 10
1660.686423174917
 20
424.3248220332957
 30
0.0
 42
0.056967459841729
  0
VERTEX
  5
5C72
330
5C6C
100
AcDbEntity
  8
nášlap_vrstvy
100
AcDbVertex
100
AcDb2dVertex
 10
1658.545475894185
 20
425.1375578684951
 30
0.0
 42
0.0373408083348504
  0
VERTEX
  5
5C73
330
5C6C
100
AcDbEntity
  8
nášlap_vrstvy
100
AcDbVertex
100
AcDb2dVertex
 10
1658.323121518711
 20
425.1767234094427
 30
0.0
 42
0.0052305969362967
  0
VERTEX
  5
5C74
330
5C6C
100
AcDbEntity
  8
nášlap_vrstvy
100
AcDbVertex
100
AcDb2dVertex
 10
1657.977161744952
 20
425.207680376347
 30
0.0
  0
SEQEND
  5
5C75
330
5C6C
100
AcDbEntity
  8
nášlap_vrstvy
  0
LWPOLYLINE
  5
5C76
330
1F
100
AcDbEntity
  8
nášlap_vrstvy
100
AcDbPolyline
 90
        8
 70
     0
 43
0.0
 10
1680.399256659846
 20
415.2592264787524
 42
0.0217273703039143
 10
1678.201586399336
 20
420.2949168162302
 42
0.0882970623535771
 10
1676.564364479244
 20
422.5352858670301
 42
0.0171636441953577
 10
1673.751000417386
 20
425.0492032222752
 42
0.0157521173632038
 10
1670.512145580349
 20
427.5806992747818
 42
0.0073640874174249
 10
1665.878496224028
 20
430.8691007005179
 42
0.0194185739168057
 10
1664.056452904351
 20
432.0206696997991
 42
0.0229547400386702
 10
1661.670994840337
 20
433.2592264787524
  0
LWPOLYLINE
  5
5C77
330
1F
100
AcDbEntity
  8
nášlap_vrstvy
100
AcDbPolyline
 90
        8
 70
     0
 43
0.0
 10
1634.303366874359
 20
415.2592264787531
 42
-0.0217273703039143
 10
1636.501037134869
 20
420.2949168162308
 42
-0.0882970623535771
 10
1638.138259054962
 20
422.5352858670308
 42
-0.0171636441953577
 10
1640.95162311682
 20
425.0492032222759
 42
-0.0157521173632038
 10
1644.190477953856
 20
427.5806992747825
 42
-0.0073640874174249
 10
1648.824127310178
 20
430.8691007005186
 42
-0.0194185739168057
 10
1650.646170629854
 20
432.0206696997997
 42
-0.0229547400386702
 10
1653.031628693869
 20
433.2592264787531
  0
LWPOLYLINE
  5
5C78
330
1F
100
AcDbEntity
  8
nášlap_vrstvy
100
AcDbPolyline
 90
        3
 70
     0
 43
0.0
 10
1667.64872889574
 20
415.2592264787531
 10
1681.440776822379
 20
422.1602980422399
 10
1689.607881471504
 20
430.3415997433335
  0
LWPOLYLINE
  5
5C79
330
1F
100
AcDbEntity
  8
nášlap_vrstvy
100
AcDbPolyline
 90
        6
 70
     0
 43
0.0
 10
1689.772060667649
 20
415.2592264787531
 42
0.0121757200102759
 10
1688.402070953987
 20
419.9311438112204
 42
0.0457786284636091
 10
1687.194048064372
 20
422.7797541940967
 42
0.0295006114745606
 10
1684.777987610072
 20
426.7066534074988
 42
0.0258674098621065
 10
1681.545312296108
 20
430.8524334862527
 42
0.0093759062953949
 10
1679.379500116451
 20
433.2592264787531
  0
POLYLINE
  5
5C7A
330
1F
100
AcDbEntity
  8
nášlap_vrstvy
100
AcDb2dPolyline
 66
     1
 10
0.0
 20
0.0
 30
0.0
  0
VERTEX
  5
5C7B
330
5C7A
100
AcDbEntity
  8
nášlap_vrstvy
100
AcDbVertex
100
AcDb2dVertex
 10
1642.655418261675
 20
415.2592264787531
 30
0.0
 42
-0.0502247168465557
  0
VERTEX
  5
5C7C
330
5C7A
100
AcDbEntity
  8
nášlap_vrstvy
100
AcDbVertex
100
AcDb2dVertex
 10
1644.25446543784
 20
417.2666971514758
 30
0.0
 42
-0.0274923553235744
  0
VERTEX
  5
5C7D
330
5C7A
100
AcDbEntity
  8
nášlap_vrstvy
100
AcDbVertex
100
AcDb2dVertex
 10
1646.851771168392
 20
419.651772474614
 30
0.0
 42
-0.0178170165843964
  0
VERTEX
  5
5C7E
330
5C7A
100
AcDbEntity
  8
nášlap_vrstvy
100
AcDbVertex
100
AcDb2dVertex
 10
1648.956529681487
 20
421.2592264787531
 30
0.0
 42
-0.0272796991712396
  0
SEQEND
  5
5C7F
330
5C7A
100
AcDbEntity
  8
nášlap_vrstvy
  0
LINE
  5
5C80
330
1F
100
AcDbEntity
  8
nášlap_vrstvy
100
AcDbLine
 10
1656.915075820602
 20
421.2592264787531
 30
0.0
 11
1656.915075820602
 21
415.2592264787531
 31
0.0
  0
LINE
  5
5C81
330
1F
100
AcDbEntity
  8
nášlap_vrstvy
100
AcDbLine
 10
1657.826185086346
 20
422.0939237021744
 30
0.0
 11
1657.826185086346
 21
415.2592264787531
 31
0.0
  0
LWPOLYLINE
  5
5C82
330
1F
100
AcDbEntity
  8
nášlap_vrstvy
100
AcDbPolyline
 90
        4
 70
     0
 43
0.0
 10
1568.732264265182
 20
415.2592264787531
 42
0.0334776267545482
 10
1568.294986470475
 20
419.3062014074898
 42
0.0091133963862869
 10
1565.817382145557
 20
431.9979311929496
 42
0.007828075361276
 10
1565.526483010399
 20
433.2592264787531
  0
LWPOLYLINE
  5
5C83
330
1F
100
AcDbEntity
  8
nášlap_vrstvy
100
AcDbPolyline
 90
        5
 70
     0
 43
0.0
 10
1558.488125890388
 20
415.2592264787531
 42
0.0133579731639958
 10
1558.10131540136
 20
417.7770287663084
 42
0.0072443097182286
 10
1555.981318453902
 20
428.5879196612154
 42
0.0219777111230329
 10
1555.075205951918
 20
432.1060329170509
 42
0.0092752982622242
 10
1554.699978989971
 20
433.2592264787531
  0
LWPOLYLINE
  5
5C84
330
1F
100
AcDbEntity
  8
nášlap_vrstvy
100
AcDbPolyline
 90
        4
 70
     0
 43
0.0
 10
1548.582522016492
 20
415.2592264787531
 42
0.0186324019486548
 10
1545.214152644385
 20
426.9543380969776
 42
0.0582629403736403
 10
1543.554652776304
 20
430.5341722959133
 42
0.0146402521923566
 10
1541.77024479472
 20
433.2592264787531
  0
LWPOLYLINE
  5
5C85
330
1F
100
AcDbEntity
  8
nášlap_vrstvy
100
AcDbPolyline
 90
        4
 70
     0
 43
0.0
 10
1533.978136827896
 20
414.7583960480046
 10
1553.974389259889
 20
423.9744250985244
 10
1570.752279831108
 20
426.6815693612157
 10
1574.015891078812
 20
426.8118707255857
  0
LWPOLYLINE
  5
5C86
330
1F
100
AcDbEntity
  8
nášlap_vrstvy
100
AcDbPolyline
 90
        3
 70
     0
 43
0.0
 10
1579.826299514229
 20
415.2592264787531
 42
0.0327520985396081
 10
1579.122761252755
 20
420.9113204249665
 42
0.0001103000883317
 10
1579.05601855
 20
421.2592264787531
 42
0.0001103000883317
  0
LWPOLYLINE
  5
5C87
330
1F
100
AcDbEntity
  8
nášlap_vrstvy
100
AcDbPolyline
 90
        3
 70
     0
 43
0.0
 10
1584.876324019977
 20
415.2592264787531
 42
-0.0327520985396081
 10
1585.579862281451
 20
420.9113204249665
 42
-0.0020140331156959
 10
1586.822729323649
 20
427.2592264787531
 42
-0.0001103000883317
  0
LWPOLYLINE
  5
5C88
330
1F
100
AcDbEntity
  8
nášlap_vrstvy
100
AcDbPolyline
 90
        4
 70
     0
 43
0.0
 10
1616.120101517714
 20
415.2592264787531
 42
-0.0186324019486548
 10
1619.488470889821
 20
426.9543380969776
 42
-0.0582629403736403
 10
1621.147970757902
 20
430.5341722959133
 42
-0.0146402521923566
 10
1622.932378739486
 20
433.2592264787531
  0
LWPOLYLINE
  5
5C89
330
1F
100
AcDbEntity
  8
nášlap_vrstvy
100
AcDbPolyline
 90
        5
 70
     0
 43
0.0
 10
1606.214497643818
 20
415.2592264787531
 42
-0.0133579731639958
 10
1606.601308132846
 20
417.7770287663084
 42
-0.0072443097182286
 10
1608.721305080304
 20
428.5879196612154
 42
-0.0219777111230329
 10
1609.627417582287
 20
432.1060329170509
 42
-0.0092752982622242
 10
1610.002644544235
 20
433.2592264787531
  0
LWPOLYLINE
  5
5C8A
330
1F
100
AcDbEntity
  8
nášlap_vrstvy
100
AcDbPolyline
 90
        4
 70
     0
 43
0.0
 10
1595.970359269024
 20
415.2592264787531
 42
-0.0334776267545482
 10
1596.40763706373
 20
419.3062014074898
 42
-0.0091133963862869
 10
1598.885241388649
 20
431.9979311929496
 42
-0.007828075361276
 10
1599.176140523807
 20
433.2592264787531
  0
LINE
  5
5C8B
330
1F
100
AcDbEntity
  8
nášlap_vrstvy
100
AcDbLine
 10
1582.826185086346
 20
422.0939237021744
 30
0.0
 11
1582.826185086346
 21
415.2592264787531
 31
0.0
  0
LINE
  5
5C8C
330
1F
100
AcDbEntity
  8
nášlap_vrstvy
100
AcDbLine
 10
1581.915075820601
 20
421.2592264787531
 30
0.0
 11
1581.915075820601
 21
415.2592264787531
 31
0.0
  0
LWPOLYLINE
  5
5C8D
330
1F
100
AcDbEntity
  8
nášlap_vrstvy
100
AcDbPolyline
 90
        3
 70
     0
 43
0.0
 10
1647.053894638466
 20
415.2592264787531
 10
1633.261846711826
 20
422.1602980422399
 10
1625.094742062702
 20
430.3415997433335
  0
LWPOLYLINE
  5
5C8E
330
1F
100
AcDbEntity
  8
nášlap_vrstvy
100
AcDbPolyline
 90
        4
 70
     0
 43
0.0
 10
1629.637822193428
 20
415.2592264787531
 10
1610.728234274317
 20
423.9744250985244
 10
1593.950343703098
 20
426.6815693612157
 10
1582.826185086338
 20
427.1257071384257
  0
LWPOLYLINE
  5
5C8F
330
1F
100
AcDbEntity
  8
nášlap_vrstvy
100
AcDbPolyline
 90
        6
 70
     0
 43
0.0
 10
1624.930562866557
 20
415.2592264787531
 42
-0.0121757200102759
 10
1626.300552580218
 20
419.9311438112204
 42
-0.0457786284636091
 10
1627.508575469834
 20
422.7797541940967
 42
-0.0295006114745606
 10
1629.924635924133
 20
426.7066534074988
 42
-0.0258674098621065
 10
1633.157311238098
 20
430.8524334862527
 42
-0.0093759062953949
 10
1635.323123417755
 20
433.2592264787531
  0
LINE
  5
5C90
330
1F
100
AcDbEntity
  8
POPIS
100
AcDbLine
 10
1644.677100142402
 20
501.9171290255749
 30
0.0
 11
1644.677100142402
 21
307.1713864870239
 31
0.0
  0
LINE
  5
5C91
330
1F
100
AcDbEntity
  8
POPIS
100
AcDbLine
 10
1595.588584678117
 20
501.9171290255749
 30
0.0
 11
1595.588584678115
 21
371.0464694459583
 31
0.0
  0
LWPOLYLINE
  5
5C92
330
1F
100
AcDbEntity
  8
nášlap_vrstvy
100
AcDbPolyline
 90
        3
 70
     0
 43
0.0
 10
1434.876324019977
 20
415.2592264787531
 42
-0.0327520985396081
 10
1435.579862281451
 20
420.9113204249665
 42
-0.0020140331156959
 10
1436.822729323649
 20
427.2592264787531
 42
-0.0001103000883317
  0
LWPOLYLINE
  5
5C93
330
1F
100
AcDbEntity
  8
nášlap_vrstvy
100
AcDbPolyline
 90
        4
 70
     0
 43
0.0
 10
1445.970359269024
 20
415.2592264787531
 42
-0.0334776267545482
 10
1446.40763706373
 20
419.3062014074898
 42
-0.0091133963862869
 10
1448.885241388649
 20
431.9979311929496
 42
-0.007828075361276
 10
1449.176140523807
 20
433.2592264787531
  0
LINE
  5
5C94
330
1F
100
AcDbEntity
  8
POPIS
100
AcDbLine
 10
1440.263564750621
 20
501.9171290255749
 30
0.0
 11
1440.26356475062
 21
410.4260728470321
 31
0.0
  0
POLYLINE
  5
5C95
330
1F
100
AcDbEntity
  8
nášlap_vrstvy
100
AcDb2dPolyline
 66
     1
 10
0.0
 20
0.0
 30
0.0
  0
VERTEX
  5
5C96
330
5C95
100
AcDbEntity
  8
nášlap_vrstvy
100
AcDbVertex
100
AcDb2dVertex
 10
1522.047205272531
 20
415.2592264787531
 30
0.0
 42
0.0502247168465557
  0
VERTEX
  5
5C97
330
5C95
100
AcDbEntity
  8
nášlap_vrstvy
100
AcDbVertex
100
AcDb2dVertex
 10
1520.448158096366
 20
417.2666971514758
 30
0.0
 42
0.0274923553235744
  0
VERTEX
  5
5C98
330
5C95
100
AcDbEntity
  8
nášlap_vrstvy
100
AcDbVertex
100
AcDb2dVertex
 10
1517.850852365813
 20
419.651772474614
 30
0.0
 42
0.0255412025538677
  0
VERTEX
  5
5C99
330
5C95
100
AcDbEntity
  8
nášlap_vrstvy
100
AcDbVertex
100
AcDb2dVertex
 10
1514.799422328102
 20
421.9084861516298
 30
0.0
 42
0.0272796991712396
  0
VERTEX
  5
5C9A
330
5C95
100
AcDbEntity
  8
nášlap_vrstvy
100
AcDbVertex
100
AcDb2dVertex
 10
1510.686423174917
 20
424.3248220332957
 30
0.0
 42
0.056967459841729
  0
VERTEX
  5
5C9B
330
5C95
100
AcDbEntity
  8
nášlap_vrstvy
100
AcDbVertex
100
AcDb2dVertex
 10
1508.545475894185
 20
425.1375578684951
 30
0.0
 42
0.0373408083348504
  0
VERTEX
  5
5C9C
330
5C95
100
AcDbEntity
  8
nášlap_vrstvy
100
AcDbVertex
100
AcDb2dVertex
 10
1508.323121518712
 20
425.1767234094427
 30
0.0
 42
0.0052305969362967
  0
VERTEX
  5
5C9D
330
5C95
100
AcDbEntity
  8
nášlap_vrstvy
100
AcDbVertex
100
AcDb2dVertex
 10
1507.977161744951
 20
425.207680376347
 30
0.0
  0
SEQEND
  5
5C9E
330
5C95
100
AcDbEntity
  8
nášlap_vrstvy
  0
LWPOLYLINE
  5
5C9F
330
1F
100
AcDbEntity
  8
nášlap_vrstvy
100
AcDbPolyline
 90
        8
 70
     0
 43
0.0
 10
1530.399256659846
 20
415.2592264787531
 42
0.0217273703039143
 10
1528.201586399337
 20
420.2949168162308
 42
0.0882970623535771
 10
1526.564364479244
 20
422.5352858670308
 42
0.0171636441953577
 10
1523.751000417385
 20
425.0492032222759
 42
0.0157521173632038
 10
1520.512145580349
 20
427.5806992747825
 42
0.0073640874174249
 10
1515.878496224028
 20
430.8691007005186
 42
0.0194185739168057
 10
1514.056452904351
 20
432.0206696997997
 42
0.0229547400386702
 10
1511.670994840337
 20
433.2592264787531
  0
LWPOLYLINE
  5
5CA0
330
1F
100
AcDbEntity
  8
nášlap_vrstvy
100
AcDbPolyline
 90
        4
 70
     0
 43
0.0
 10
1466.120101517714
 20
415.2592264787531
 42
-0.0186324019486548
 10
1469.488470889821
 20
426.9543380969776
 42
-0.0582629403736403
 10
1471.147970757902
 20
430.5341722959133
 42
-0.0146402521923566
 10
1472.932378739486
 20
433.2592264787531
  0
LWPOLYLINE
  5
5CA1
330
1F
100
AcDbEntity
  8
nášlap_vrstvy
100
AcDbPolyline
 90
        5
 70
     0
 43
0.0
 10
1456.214497643818
 20
415.2592264787531
 42
-0.0133579731639958
 10
1456.601308132846
 20
417.7770287663084
 42
-0.0072443097182286
 10
1458.721305080304
 20
428.5879196612154
 42
-0.0219777111230329
 10
1459.627417582287
 20
432.1060329170509
 42
-0.0092752982622242
 10
1460.002644544235
 20
433.2592264787531
  0
LWPOLYLINE
  5
5CA2
330
1F
100
AcDbEntity
  8
nášlap_vrstvy
100
AcDbPolyline
 90
        6
 70
     0
 43
0.0
 10
1474.930562866557
 20
415.2592264787531
 42
-0.0121757200102759
 10
1476.300552580218
 20
419.9311438112204
 42
-0.0457786284636091
 10
1477.508575469834
 20
422.7797541940967
 42
-0.0295006114745606
 10
1479.924635924133
 20
426.7066534074988
 42
-0.0258674098621065
 10
1483.157311238097
 20
430.8524334862527
 42
-0.0093759062953949
 10
1485.323123417755
 20
433.2592264787531
  0
LWPOLYLINE
  5
5CA3
330
1F
100
AcDbEntity
  8
nášlap_vrstvy
100
AcDbPolyline
 90
        3
 70
     0
 43
0.0
 10
1497.053894638466
 20
415.2592264787531
 10
1483.261846711826
 20
422.1602980422399
 10
1475.094742062702
 20
430.3415997433335
  0
LWPOLYLINE
  5
5CA4
330
1F
100
AcDbEntity
  8
nášlap_vrstvy
100
AcDbPolyline
 90
        8
 70
     0
 43
0.0
 10
1484.303366874359
 20
415.2592264787531
 42
-0.0217273703039143
 10
1486.501037134869
 20
420.2949168162308
 42
-0.0882970623535771
 10
1488.138259054962
 20
422.5352858670308
 42
-0.0171636441953577
 10
1490.95162311682
 20
425.0492032222759
 42
-0.0157521173632038
 10
1494.190477953856
 20
427.5806992747825
 42
-0.0073640874174249
 10
1498.824127310178
 20
430.8691007005186
 42
-0.0194185739168057
 10
1500.646170629854
 20
432.0206696997997
 42
-0.0229547400386702
 10
1503.031628693869
 20
433.2592264787531
  0
LINE
  5
5CA5
330
1F
100
AcDbEntity
  8
POPIS
100
AcDbLine
 10
1520.484614499885
 20
501.9171290255749
 30
0.0
 11
1520.484614499883
 21
397.1719673174007
 31
0.0
  0
LINE
  5
5CA6
330
1F
100
AcDbEntity
  8
nášlap_vrstvy
100
AcDbLine
 10
1506.915075820602
 20
421.2592264787531
 30
0.0
 11
1506.915075820602
 21
415.2592264787531
 31
0.0
  0
LINE
  5
5CA7
330
1F
100
AcDbEntity
  8
nášlap_vrstvy
100
AcDbLine
 10
1507.826185086345
 20
422.0939237021744
 30
0.0
 11
1507.826185086345
 21
415.2592264787531
 31
0.0
  0
POLYLINE
  5
5CA8
330
1F
100
AcDbEntity
  8
nášlap_vrstvy
100
AcDb2dPolyline
 66
     1
 10
0.0
 20
0.0
 30
0.0
  0
VERTEX
  5
5CA9
330
5CA8
100
AcDbEntity
  8
nášlap_vrstvy
100
AcDbVertex
100
AcDb2dVertex
 10
1492.655418261675
 20
415.2592264787531
 30
0.0
 42
-0.0502247168465557
  0
VERTEX
  5
5CAA
330
5CA8
100
AcDbEntity
  8
nášlap_vrstvy
100
AcDbVertex
100
AcDb2dVertex
 10
1494.25446543784
 20
417.2666971514758
 30
0.0
 42
-0.0274923553235744
  0
VERTEX
  5
5CAB
330
5CA8
100
AcDbEntity
  8
nášlap_vrstvy
100
AcDbVertex
100
AcDb2dVertex
 10
1496.851771168393
 20
419.651772474614
 30
0.0
 42
-0.0178170165843964
  0
VERTEX
  5
5CAC
330
5CA8
100
AcDbEntity
  8
nášlap_vrstvy
100
AcDbVertex
100
AcDb2dVertex
 10
1498.956529681487
 20
421.2592264787531
 30
0.0
 42
-0.0272796991712396
  0
SEQEND
  5
5CAD
330
5CA8
100
AcDbEntity
  8
nášlap_vrstvy
  0
LWPOLYLINE
  5
5CAE
330
1F
100
AcDbEntity
  8
nášlap_vrstvy
100
AcDbPolyline
 90
        4
 70
     0
 43
0.0
 10
1418.732264265182
 20
415.2592264787531
 42
0.0334776267545482
 10
1418.294986470475
 20
419.3062014074898
 42
0.0091133963862869
 10
1415.817382145557
 20
431.9979311929496
 42
0.007828075361276
 10
1415.526483010399
 20
433.2592264787531
  0
LWPOLYLINE
  5
5CAF
330
1F
100
AcDbEntity
  8
nášlap_vrstvy
100
AcDbPolyline
 90
        5
 70
     0
 43
0.0
 10
1408.488125890388
 20
415.2592264787531
 42
0.0133579731639958
 10
1408.10131540136
 20
417.7770287663084
 42
0.0072443097182286
 10
1405.981318453902
 20
428.5879196612154
 42
0.0219777111230329
 10
1405.075205951918
 20
432.1060329170509
 42
0.0092752982622242
 10
1404.699978989971
 20
433.2592264787531
  0
LINE
  5
5CB0
330
1F
100
AcDbEntity
  8
nášlap_vrstvy
100
AcDbLine
 10
1432.826185086345
 20
422.0939237021744
 30
0.0
 11
1432.826185086345
 21
415.2592264787531
 31
0.0
  0
LINE
  5
5CB1
330
1F
100
AcDbEntity
  8
nášlap_vrstvy
100
AcDbLine
 10
1431.915075820602
 20
421.2592264787531
 30
0.0
 11
1431.915075820602
 21
415.2592264787531
 31
0.0
  0
LWPOLYLINE
  5
5CB2
330
1F
100
AcDbEntity
  8
nášlap_vrstvy
100
AcDbPolyline
 90
        3
 70
     0
 43
0.0
 10
1429.826299514229
 20
415.2592264787531
 42
0.0327520985396081
 10
1429.122761252755
 20
420.9113204249665
 42
0.0001103000883317
 10
1429.05601855
 20
421.2592264787531
 42
0.0001103000883317
  0
LWPOLYLINE
  5
5CB3
330
1F
100
AcDbEntity
  8
nášlap_vrstvy
100
AcDbPolyline
 90
        4
 70
     0
 43
0.0
 10
1479.637822193429
 20
415.2592264787531
 10
1460.728234274317
 20
423.9744250985244
 10
1443.950343703098
 20
426.6815693612157
 10
1432.826185086338
 20
427.1257071384257
  0
LWPOLYLINE
  5
5CB4
330
1F
100
AcDbEntity
  8
nášlap_vrstvy
100
AcDbPolyline
 90
        3
 70
     0
 43
0.0
 10
1517.64872889574
 20
415.2592264787531
 10
1531.440776822379
 20
422.1602980422399
 10
1539.607881471504
 20
430.3415997433335
  0
LWPOLYLINE
  5
5CB5
330
1F
100
AcDbEntity
  8
nášlap_vrstvy
100
AcDbPolyline
 90
        6
 70
     0
 43
0.0
 10
1539.772060667649
 20
415.2592264787531
 42
0.0121757200102759
 10
1538.402070953987
 20
419.9311438112204
 42
0.0457786284636091
 10
1537.194048064372
 20
422.7797541940967
 42
0.0295006114745606
 10
1534.777987610072
 20
426.7066534074988
 42
0.0258674098621065
 10
1531.545312296108
 20
430.8524334862527
 42
0.0093759062953949
 10
1529.379500116451
 20
433.2592264787531
  0
LWPOLYLINE
  5
5CB6
330
1F
100
AcDbEntity
  8
STAVBA OBRYS
100
AcDbPolyline
 90
        4
 70
     1
 43
0.0
 10
1574.816709527382
 20
383.6236702723867
 10
1551.174976817547
 20
383.6236702723867
 10
1551.174976817547
 20
380.6236702723868
 10
1574.816709527382
 20
380.6236702723868
  0
HATCH
  5
5CB7
330
1F
100
AcDbEntity
  8
izolace
100
AcDbHatch
 10
0.0
 20
0.0
 30
0.0
210
0.0
220
0.0
230
1.0
  2
SOLID
 70
     1
 71
     0
 91
        1
 92
        7
 72
     0
 73
     1
 93
        4
 10
1574.816709527386
 20
383.6236702723867
 10
1551.17497681755
 20
383.6236702723867
 10
1551.174976817547
 20
380.6236702723868
 10
1574.816709527386
 20
380.6236702723868
 97
        0
 75
     0
 76
     1
 47
0.1901250437635136
 98
        1
 10
1560.53277157589
 20
382.8068587213069
  0
LWPOLYLINE
  5
5CB8
330
1F
100
AcDbEntity
  8
nášlap_vrstvy
100
AcDbPolyline
 90
        4
 70
     1
 43
0.0
 10
1557.699642573851
 20
409.8813360852732
 10
1545.878776218935
 20
409.8813360852732
 10
1545.878776218935
 20
408.3813360852732
 10
1557.699642573851
 20
408.3813360852732
  0
HATCH
  5
5CB9
330
1F
100
AcDbEntity
  8
nášlap_vrstvy
100
AcDbHatch
 10
0.0
 20
0.0
 30
0.0
210
0.0
220
0.0
230
1.0
  2
SOLID
 70
     1
 71
     0
 91
        1
 92
        7
 72
     0
 73
     1
 93
        4
 10
1557.699642573854
 20
409.8813360852732
 10
1545.878776218935
 20
409.8813360852732
 10
1545.878776218935
 20
408.3813360852732
 10
1557.699642573854
 20
408.3813360852732
 97
        0
 75
     0
 76
     1
 47
0.1901250437635136
 98
        1
 10
1550.557673598105
 20
409.4729303097342
  0
LWPOLYLINE
  5
5CBA
330
1F
100
AcDbEntity
  8
izolace
100
AcDbPolyline
 90
        4
 70
     1
 43
0.0
 10
1527.533244107712
 20
383.6236702723867
 10
1503.891511397877
 20
383.6236702723867
 10
1503.891511397877
 20
380.6236702723868
 10
1527.533244107712
 20
380.6236702723868
  0
HATCH
  5
5CBB
330
1F
100
AcDbEntity
  8
izolace
100
AcDbHatch
 10
0.0
 20
0.0
 30
0.0
210
0.0
220
0.0
230
1.0
  2
SOLID
 70
     1
 71
     0
 91
        1
 92
        7
 72
     0
 73
     1
 93
        4
 10
1527.533244107715
 20
383.6236702723867
 10
1503.89151139788
 20
383.6236702723867
 10
1503.891511397877
 20
380.6236702723868
 10
1527.533244107715
 20
380.6236702723868
 97
        0
 75
     0
 76
     1
 47
0.1901250437635136
 98
        1
 10
1513.24930615622
 20
382.8068587213069
  0
LINE
  5
5CBC
330
1F
100
AcDbEntity
  8
STAVBA OBRYS
100
AcDbLine
 10
1550.623788040521
 20
380.6236702723863
 30
0.0
 11
1550.623788040521
 21
362.6236702723872
 31
0.0
  0
LWPOLYLINE
  5
5CBD
330
1F
100
AcDbEntity
  8
STAVBA OBRYS
100
AcDbPolyline
 90
        4
 70
     0
 43
0.0
 10
1533.778759835295
 20
362.6236702723872
 42
0.0334776267545482
 10
1533.341482040589
 20
366.670645201124
 42
0.0091133963862869
 10
1530.86387771567
 20
379.3623749865837
 42
0.007828075361276
 10
1530.572978580512
 20
380.6236702723872
  0
LWPOLYLINE
  5
5CBE
330
1F
100
AcDbEntity
  8
STAVBA OBRYS
100
AcDbPolyline
 90
        3
 70
     0
 43
0.0
 10
1545.231297698263
 20
362.6236702723872
 42
0.0052038508054843
 10
1542.032900758281
 20
379.0274967543846
 42
0.0065712046643719
 10
1541.682474988516
 20
380.6236702723872
  0
LWPOLYLINE
  5
5CBF
330
1F
100
AcDbEntity
  8
STAVBA OBRYS
100
AcDbPolyline
 90
        5
 70
     0
 43
0.0
 10
1493.387612604027
 20
362.6236702723872
 42
0.0133579731639958
 10
1493.000802114999
 20
365.1414725599424
 42
0.0072443097182286
 10
1490.880805167541
 20
375.9523634548495
 42
0.0219777111230329
 10
1489.974692665557
 20
379.470476710685
 42
0.0092752982622242
 10
1489.59946570361
 20
380.6236702723872
  0
LWPOLYLINE
  5
5CC0
330
1F
100
AcDbEntity
  8
STAVBA OBRYS
100
AcDbPolyline
 90
        4
 70
     0
 43
0.0
 10
1503.631750978821
 20
362.6236702723872
 42
0.0334776267545482
 10
1503.194473184114
 20
366.670645201124
 42
0.0091133963862869
 10
1500.716868859196
 20
379.3623749865837
 42
0.007828075361276
 10
1500.425969724038
 20
380.6236702723872
  0
LWPOLYLINE
  5
5CC1
330
1F
100
AcDbEntity
  8
STAVBA OBRYS
100
AcDbPolyline
 90
        3
 70
     0
 43
0.0
 10
1515.084288841788
 20
362.6236702723872
 42
0.0052038508054843
 10
1511.885891901806
 20
379.0274967543846
 42
0.0065712046643719
 10
1511.535466132042
 20
380.6236702723872
  0
LWPOLYLINE
  5
5CC2
330
1F
100
AcDbEntity
  8
STAVBA OBRYS
100
AcDbPolyline
 90
        5
 70
     0
 43
0.0
 10
1523.534621460502
 20
362.6236702723872
 42
0.0133579731639958
 10
1523.147810971473
 20
365.1414725599424
 42
0.0072443097182286
 10
1521.027814024015
 20
375.9523634548495
 42
0.0219777111230329
 10
1520.121701522032
 20
379.470476710685
 42
0.0092752982622242
 10
1519.746474560085
 20
380.6236702723872
  0
LWPOLYLINE
  5
5CC3
330
1F
100
AcDbEntity
  8
STAVBA OBRYS
100
AcDbPolyline
 90
        4
 70
     0
 43
0.0
 10
1499.02463239801
 20
362.1228398416387
 10
1519.020884830003
 20
371.3388688921586
 10
1535.798775401221
 20
374.0460131548497
 10
1539.062386648926
 20
374.1763145192198
  0
LWPOLYLINE
  5
5CC4
330
1F
100
AcDbEntity
  8
STAVBA OBRYS
100
AcDbPolyline
 90
        5
 70
     0
 43
0.0
 10
1451.285728844567
 20
362.6236702723872
 42
0.0133579731639958
 10
1450.898918355539
 20
365.1414725599424
 42
0.0072443097182286
 10
1448.77892140808
 20
375.9523634548495
 42
0.0219777111230329
 10
1447.872808906097
 20
379.470476710685
 42
0.0092752982622242
 10
1447.49758194415
 20
380.6236702723872
  0
LWPOLYLINE
  5
5CC5
330
1F
100
AcDbEntity
  8
STAVBA OBRYS
100
AcDbPolyline
 90
        4
 70
     0
 43
0.0
 10
1483.48200873013
 20
362.6236702723872
 42
0.0186324019486548
 10
1480.113639358024
 20
374.3187818906117
 42
0.0582629403736403
 10
1478.454139489943
 20
377.8986160895474
 42
0.0146402521923566
 10
1476.669731508359
 20
380.6236702723872
  0
LWPOLYLINE
  5
5CC6
330
1F
100
AcDbEntity
  8
STAVBA OBRYS
100
AcDbPolyline
 90
        4
 70
     0
 43
0.0
 10
1468.877623541535
 20
362.1228398416387
 10
1488.873875973528
 20
371.3388688921586
 10
1505.651766544747
 20
374.0460131548497
 10
1508.915377792451
 20
374.1763145192198
  0
LWPOLYLINE
  5
5CC7
330
1F
100
AcDbEntity
  8
STAVBA OBRYS
100
AcDbPolyline
 90
        3
 70
     0
 43
0.0
 10
1472.982405082328
 20
362.6236702723872
 42
0.0052038508054843
 10
1469.784008142346
 20
379.0274967543846
 42
0.0065712046643719
 10
1469.433582372581
 20
380.6236702723872
  0
LWPOLYLINE
  5
5CC8
330
1F
100
AcDbEntity
  8
STAVBA OBRYS
100
AcDbPolyline
 90
        4
 70
     0
 43
0.0
 10
1461.52986721936
 20
362.6236702723872
 42
0.0334776267545482
 10
1461.092589424654
 20
366.670645201124
 42
0.0091133963862869
 10
1458.614985099735
 20
379.3623749865837
 42
0.007828075361276
 10
1458.324085964578
 20
380.6236702723872
  0
LWPOLYLINE
  5
5CC9
330
1F
100
AcDbEntity
  8
izolace
100
AcDbPolyline
 90
        4
 70
     1
 43
0.0
 10
1480.249778688041
 20
383.6236702723867
 10
1456.608045978206
 20
383.6236702723867
 10
1456.608045978206
 20
380.6236702723868
 10
1480.249778688041
 20
380.6236702723868
  0
HATCH
  5
5CCA
330
1F
100
AcDbEntity
  8
izolace
100
AcDbHatch
 10
0.0
 20
0.0
 30
0.0
210
0.0
220
0.0
230
1.0
  2
SOLID
 70
     1
 71
     0
 91
        1
 92
        7
 72
     0
 73
     1
 93
        4
 10
1480.249778688045
 20
383.6236702723867
 10
1456.60804597821
 20
383.6236702723867
 10
1456.608045978206
 20
380.6236702723868
 10
1480.249778688045
 20
380.6236702723868
 97
        0
 75
     0
 76
     1
 47
0.1901250437635136
 98
        1
 10
1465.96584073655
 20
382.8068587213069
  0
LWPOLYLINE
  5
5CCB
330
1F
100
AcDbEntity
  8
izolace
100
AcDbPolyline
 90
        4
 70
     1
 43
0.0
 10
1432.966313268371
 20
383.6236702723867
 10
1409.324580558536
 20
383.6236702723867
 10
1409.324580558536
 20
380.6236702723868
 10
1432.966313268371
 20
380.6236702723868
  0
HATCH
  5
5CCC
330
1F
100
AcDbEntity
  8
izolace
100
AcDbHatch
 10
0.0
 20
0.0
 30
0.0
210
0.0
220
0.0
230
1.0
  2
SOLID
 70
     1
 71
     0
 91
        1
 92
        7
 72
     0
 73
     1
 93
        4
 10
1432.966313268375
 20
383.6236702723867
 10
1409.324580558539
 20
383.6236702723867
 10
1409.324580558536
 20
380.6236702723868
 10
1432.966313268375
 20
380.6236702723868
 97
        0
 75
     0
 76
     1
 47
0.1901250437635136
 98
        1
 10
1418.682375316879
 20
382.8068587213069
  0
LWPOLYLINE
  5
5CCD
330
1F
100
AcDbEntity
  8
STAVBA OBRYS
100
AcDbPolyline
 90
        4
 70
     0
 43
0.0
 10
1441.38012497067
 20
362.6236702723872
 42
0.0186324019486548
 10
1438.011755598564
 20
374.3187818906117
 42
0.0582629403736403
 10
1436.352255730482
 20
377.8986160895474
 42
0.0146402521923566
 10
1434.567847748898
 20
380.6236702723872
  0
LWPOLYLINE
  5
5CCE
330
1F
100
AcDbEntity
  8
STAVBA OBRYS
100
AcDbPolyline
 90
        8
 70
     0
 43
0.0
 10
1423.196859614025
 20
362.6236702723872
 42
0.0217273703039143
 10
1420.999189353515
 20
367.6593606098649
 42
0.0882970623535771
 10
1419.361967433422
 20
369.8997296606648
 42
0.0171636441953577
 10
1416.548603371564
 20
372.4136470159101
 42
0.0157521173632038
 10
1413.309748534528
 20
374.9451430684166
 42
0.0073640874174249
 10
1408.676099178207
 20
378.2335444941527
 42
0.0194185739168057
 10
1406.85405585853
 20
379.3851134934338
 42
0.0229547400386702
 10
1404.468597794516
 20
380.6236702723872
  0
LWPOLYLINE
  5
5CCF
330
1F
100
AcDbEntity
  8
STAVBA OBRYS
100
AcDbPolyline
 90
        6
 70
     0
 43
0.0
 10
1432.569663621827
 20
362.6236702723872
 42
0.0121757200102759
 10
1431.199673908166
 20
367.2955876048545
 42
0.0457786284636091
 10
1429.99165101855
 20
370.1441979877309
 42
0.0295006114745606
 10
1427.575590564251
 20
374.0710972011329
 42
0.0258674098621065
 10
1424.342915250287
 20
378.2168772798868
 42
0.0093759062953949
 10
1422.17710307063
 20
380.6236702723872
  0
LWPOLYLINE
  5
5CD0
330
1F
100
AcDbEntity
  8
STAVBA OBRYS
100
AcDbPolyline
 90
        3
 70
     0
 43
0.0
 10
1410.446331849918
 20
362.6236702723872
 10
1424.238379776558
 20
369.524741835874
 10
1432.405484425683
 20
377.7060435369676
  0
LWPOLYLINE
  5
5CD1
330
1F
100
AcDbEntity
  8
STAVBA OBRYS
100
AcDbPolyline
 90
        4
 70
     0
 43
0.0
 10
1426.775739782075
 20
362.1228398416387
 10
1446.771992214068
 20
371.3388688921586
 10
1463.549882785286
 20
374.0460131548497
 10
1466.813494032991
 20
374.1763145192198
  0
HATCH
  5
5CD2
330
1F
100
AcDbEntity
  8
nášlap_vrstvy
100
AcDbHatch
 10
0.0
 20
0.0
 30
0.0
210
0.0
220
0.0
230
1.0
  2
SOLID
 70
     1
 71
     0
 91
        1
 92
        7
 72
     0
 73
     1
 93
        4
 10
1463.13271173451
 20
409.8813360852732
 10
1451.311845379594
 20
409.8813360852732
 10
1451.311845379594
 20
408.3813360852732
 10
1463.132711734514
 20
408.3813360852732
 97
        0
 75
     0
 76
     1
 47
0.1901250437635136
 98
        3
 10
1477.254456866605
 20
408.9976136205791
 10
1459.086361452934
 20
408.9025502827484
 10
1457.088825358322
 20
409.1877402962404
  0
LWPOLYLINE
  5
5CD3
330
1F
100
AcDbEntity
  8
nášlap_vrstvy
100
AcDbPolyline
 90
        4
 70
     1
 43
0.0
 10
1463.13271173451
 20
409.8813360852732
 10
1451.311845379594
 20
409.8813360852732
 10
1451.311845379594
 20
408.3813360852732
 10
1463.13271173451
 20
408.3813360852732
  0
INSERT
  5
5CD4
330
1F
100
AcDbEntity
  8
POPIS
100
AcDbBlockReference
  2
E_PUNKT
 10
1440.234496419748
 20
409.203683222659
 30
0.0
 50
270.0
  0
POLYLINE
  5
5CD5
330
1F
100
AcDbEntity
  8
nášlap_vrstvy
100
AcDb2dPolyline
 66
     1
 10
0.0
 20
0.0
 30
0.0
  0
VERTEX
  5
5CD6
330
5CD5
100
AcDbEntity
  8
nášlap_vrstvy
100
AcDbVertex
100
AcDb2dVertex
 10
1501.708564211211
 20
415.2592264787531
 30
0.0
 42
-0.0094186890201653
  0
VERTEX
  5
5CD7
330
5CD5
100
AcDbEntity
  8
nášlap_vrstvy
100
AcDbVertex
100
AcDb2dVertex
 10
1502.055362774085
 20
415.4178993495211
 30
0.0
 42
-0.0322692699774654
  0
VERTEX
  5
5CD8
330
5CD5
100
AcDbEntity
  8
nášlap_vrstvy
100
AcDbVertex
100
AcDb2dVertex
 10
1504.946716955176
 20
416.4594228509217
 30
0.0
 42
-0.0276160659512937
  0
VERTEX
  5
5CD9
330
5CD5
100
AcDbEntity
  8
nášlap_vrstvy
100
AcDbVertex
100
AcDb2dVertex
 10
1505.802293393463
 20
416.6561582798663
 30
0.0
 42
-0.0126891984598699
  0
VERTEX
  5
5CDA
330
5CD5
100
AcDbEntity
  8
nášlap_vrstvy
100
AcDbVertex
100
AcDb2dVertex
 10
1506.725461789254
 20
416.7913606694078
 30
0.0
  0
SEQEND
  5
5CDB
330
5CD5
100
AcDbEntity
  8
nášlap_vrstvy
  0
POLYLINE
  5
5CDC
330
1F
100
AcDbEntity
  8
nášlap_vrstvy
100
AcDb2dPolyline
 66
     1
 10
0.0
 20
0.0
 30
0.0
  0
VERTEX
  5
5CDD
330
5CDC
100
AcDbEntity
  8
nášlap_vrstvy
100
AcDbVertex
100
AcDb2dVertex
 10
1512.994059322995
 20
415.2592264787531
 30
0.0
 42
0.0094186890201653
  0
VERTEX
  5
5CDE
330
5CDC
100
AcDbEntity
  8
nášlap_vrstvy
100
AcDbVertex
100
AcDb2dVertex
 10
1512.647260760121
 20
415.4178993495211
 30
0.0
 42
0.0322692699774654
  0
VERTEX
  5
5CDF
330
5CDC
100
AcDbEntity
  8
nášlap_vrstvy
100
AcDbVertex
100
AcDb2dVertex
 10
1509.75590657903
 20
416.4594228509217
 30
0.0
 42
0.0276160659512937
  0
VERTEX
  5
5CE0
330
5CDC
100
AcDbEntity
  8
nášlap_vrstvy
100
AcDbVertex
100
AcDb2dVertex
 10
1508.900330140743
 20
416.6561582798663
 30
0.0
 42
0.0126891984598699
  0
VERTEX
  5
5CE1
330
5CDC
100
AcDbEntity
  8
nášlap_vrstvy
100
AcDbVertex
100
AcDb2dVertex
 10
1507.977161744951
 20
416.7913606694078
 30
0.0
  0
SEQEND
  5
5CE2
330
5CDC
100
AcDbEntity
  8
nášlap_vrstvy
  0
LWPOLYLINE
  5
5CE3
330
1F
100
AcDbEntity
  8
nášlap_vrstvy
100
AcDbPolyline
 90
        4
 70
     1
 43
0.0
 10
1510.41617715418
 20
409.8813360852732
 10
1498.595310799265
 20
409.8813360852732
 10
1498.595310799265
 20
408.3813360852732
 10
1510.41617715418
 20
408.3813360852732
  0
HATCH
  5
5CE4
330
1F
100
AcDbEntity
  8
nášlap_vrstvy
100
AcDbHatch
 10
0.0
 20
0.0
 30
0.0
210
0.0
220
0.0
230
1.0
  2
SOLID
 70
     1
 71
     0
 91
        1
 92
        7
 72
     0
 73
     1
 93
        4
 10
1510.416177154184
 20
409.8813360852732
 10
1498.595310799265
 20
409.8813360852732
 10
1498.595310799265
 20
408.3813360852732
 10
1510.416177154184
 20
408.3813360852732
 97
        0
 75
     0
 76
     1
 47
0.1901250437635136
 98
        1
 10
1503.274208178434
 20
409.4729303097342
  0
HATCH
  5
5CE5
330
1F
100
AcDbEntity
  8
nášlap_vrstvy
100
AcDbHatch
 10
0.0
 20
0.0
 30
0.0
210
0.0
220
0.0
230
1.0
  2
SOLID
 70
     1
 71
     0
 91
        1
 92
        7
 72
     0
 73
     1
 93
        4
 10
1486.774444444349
 20
409.8813360852732
 10
1474.953578089433
 20
409.8813360852732
 10
1474.953578089429
 20
408.3813360852732
 10
1486.774444444349
 20
408.3813360852732
 97
        0
 75
     0
 76
     1
 47
0.1901250437635136
 98
        1
 10
1479.632475468603
 20
409.4729303097342
  0
LWPOLYLINE
  5
5CE6
330
1F
100
AcDbEntity
  8
nášlap_vrstvy
100
AcDbPolyline
 90
        4
 70
     1
 43
0.0
 10
1486.774444444349
 20
409.8813360852732
 10
1474.953578089429
 20
409.8813360852732
 10
1474.953578089429
 20
408.3813360852732
 10
1486.774444444349
 20
408.3813360852732
  0
INSERT
  5
5CE7
330
1F
100
AcDbEntity
  8
POPIS
100
AcDbBlockReference
  2
E_PUNKT
 10
1520.455546169011
 20
397.1995776930275
 30
0.0
 50
270.0
  0
LINE
  5
5CE8
330
1F
100
AcDbEntity
  8
SPOJOVACÍ
  6
DASHED
100
AcDbLine
 10
1447.416983411764
 20
408.381336085273
 30
0.0
 11
1447.416983411764
 21
407.2054078440762
 31
0.0
  0
LINE
  5
5CE9
330
1F
100
AcDbEntity
  8
SPOJOVACÍ
  6
DASHED
100
AcDbLine
 10
1446.715984329319
 20
406.8754186789504
 30
0.0
 11
1447.416983411764
 21
407.2054078440762
 31
0.0
  0
LINE
  5
5CEA
330
1F
100
AcDbEntity
  8
SPOJOVACÍ
  6
DASHED
100
AcDbLine
 10
1445.503593196598
 20
405.9756968387175
 30
0.0
 11
1446.715984329319
 21
406.8754186789504
 31
0.0
  0
LINE
  5
5CEB
330
1F
100
AcDbEntity
  8
SPOJOVACÍ
  6
DASHED
100
AcDbLine
 10
1444.564673748013
 20
404.7924760194766
 30
0.0
 11
1445.503593196598
 21
405.9756968387175
 31
0.0
  0
LINE
  5
5CEC
330
1F
100
AcDbEntity
  8
SPOJOVACÍ
  6
DASHED
100
AcDbLine
 10
1443.963947615848
 20
403.4068861539674
 30
0.0
 11
1444.564673748013
 21
404.7924760194766
 31
0.0
  0
LINE
  5
5CED
330
1F
100
AcDbEntity
  8
SPOJOVACÍ
  6
DASHED
100
AcDbLine
 10
1443.741523982782
 20
401.9137307596067
 30
0.0
 11
1443.963947615848
 21
403.4068861539674
 31
0.0
  0
LINE
  5
5CEE
330
1F
100
AcDbEntity
  8
SPOJOVACÍ
  6
DASHED
100
AcDbLine
 10
1443.741523982782
 20
401.9137307596086
 30
0.0
 11
1443.741523982782
 21
399.699679545127
 31
0.0
  0
LINE
  5
5CEF
330
1F
100
AcDbEntity
  8
SPOJOVACÍ
  6
DASHED
100
AcDbLine
 10
1440.437074466841
 20
400.8107892949576
 30
0.0
 11
1444.400590739242
 21
399.4780706219573
 31
0.0
  0
LINE
  5
5CF0
330
1F
100
AcDbEntity
  8
SPOJOVACÍ
  6
DASHED
100
AcDbLine
 10
1444.770689082768
 20
399.2638511361712
 30
0.0
 11
1444.400590739242
 21
399.4780706219573
 31
0.0
  0
LINE
  5
5CF1
330
1F
100
AcDbEntity
  8
SPOJOVACÍ
  6
DASHED
100
AcDbLine
 10
1444.770689082768
 20
399.2638511361712
 30
0.0
 11
1444.400590739242
 21
398.8937527905056
 31
0.0
  0
LINE
  5
5CF2
330
1F
100
AcDbEntity
  8
SPOJOVACÍ
  6
DASHED
100
AcDbLine
 10
1440.437074466841
 20
400.2264714637769
 30
0.0
 11
1444.400590739242
 21
398.8937527905056
 31
0.0
  0
LINE
  5
5CF3
330
1F
100
AcDbEntity
  8
SPOJOVACÍ
  6
DASHED
100
AcDbLine
 10
1443.741523982782
 20
399.1207342882537
 30
0.0
 11
1443.741523982782
 21
396.6521965543254
 31
0.0
  0
LINE
  5
5CF4
330
1F
100
AcDbEntity
  8
SPOJOVACÍ
  6
DASHED
100
AcDbLine
 10
1440.437074466841
 20
397.7681414915061
 30
0.0
 11
1444.400590739242
 21
396.4354228185058
 31
0.0
  0
LINE
  5
5CF5
330
1F
100
AcDbEntity
  8
SPOJOVACÍ
  6
DASHED
100
AcDbLine
 10
1444.770689082768
 20
396.2212033327198
 30
0.0
 11
1444.400590739242
 21
396.4354228185058
 31
0.0
  0
LINE
  5
5CF6
330
1F
100
AcDbEntity
  8
SPOJOVACÍ
  6
DASHED
100
AcDbLine
 10
1444.770689082768
 20
396.2212033327198
 30
0.0
 11
1444.400590739242
 21
395.8511049870542
 31
0.0
  0
LINE
  5
5CF7
330
1F
100
AcDbEntity
  8
SPOJOVACÍ
  6
DASHED
100
AcDbLine
 10
1440.437074466841
 20
397.1838236603255
 30
0.0
 11
1444.400590739242
 21
395.8511049870542
 31
0.0
  0
LINE
  5
5CF8
330
1F
100
AcDbEntity
  8
SPOJOVACÍ
  6
DASHED
100
AcDbLine
 10
1443.741523982782
 20
396.0780864848022
 30
0.0
 11
1443.741523982782
 21
393.6095487508739
 31
0.0
  0
LINE
  5
5CF9
330
1F
100
AcDbEntity
  8
SPOJOVACÍ
  6
DASHED
100
AcDbLine
 10
1440.437074466841
 20
394.7098164927358
 30
0.0
 11
1444.400590739242
 21
393.3780093916523
 31
0.0
  0
LINE
  5
5CFA
330
1F
100
AcDbEntity
  8
SPOJOVACÍ
  6
DASHED
100
AcDbLine
 10
1444.770689082768
 20
393.1637899058662
 30
0.0
 11
1444.400590739242
 21
393.3780093916523
 31
0.0
  0
LINE
  5
5CFB
330
1F
100
AcDbEntity
  8
SPOJOVACÍ
  6
DASHED
100
AcDbLine
 10
1444.770689082768
 20
393.1637899058662
 30
0.0
 11
1444.400590739242
 21
392.7936915604716
 31
0.0
  0
LINE
  5
5CFC
330
1F
100
AcDbEntity
  8
SPOJOVACÍ
  6
DASHED
100
AcDbLine
 10
1440.437074466841
 20
394.1254986612841
 30
0.0
 11
1444.400590739242
 21
392.7936915604716
 31
0.0
  0
LINE
  5
5CFD
330
1F
100
AcDbEntity
  8
SPOJOVACÍ
  6
DASHED
100
AcDbLine
 10
1443.741523982782
 20
393.0252309194222
 30
0.0
 11
1443.741523982782
 21
390.5475774628105
 31
0.0
  0
LINE
  5
5CFE
330
1F
100
AcDbEntity
  8
SPOJOVACÍ
  6
DASHED
100
AcDbLine
 10
1440.437074466841
 20
391.6680802614721
 30
0.0
 11
1444.400590739242
 21
390.3353615884718
 31
0.0
  0
LINE
  5
5CFF
330
1F
100
AcDbEntity
  8
SPOJOVACÍ
  6
DASHED
100
AcDbLine
 10
1444.770689082768
 20
390.1211421026857
 30
0.0
 11
1444.400590739242
 21
390.3353615884718
 31
0.0
  0
LINE
  5
5D00
330
1F
100
AcDbEntity
  8
SPOJOVACÍ
  6
DASHED
100
AcDbLine
 10
1444.770689082768
 20
390.1211421026857
 30
0.0
 11
1444.400590739242
 21
389.7510437570201
 31
0.0
  0
LINE
  5
5D01
330
1F
100
AcDbEntity
  8
SPOJOVACÍ
  6
DASHED
100
AcDbLine
 10
1440.437074466841
 20
391.0837624302914
 30
0.0
 11
1444.400590739242
 21
389.7510437570201
 31
0.0
  0
LINE
  5
5D02
330
1F
100
AcDbEntity
  8
SPOJOVACÍ
  6
DASHED
100
AcDbLine
 10
1443.741523982782
 20
389.9780252547682
 30
0.0
 11
1443.741523982782
 21
387.5094875208399
 31
0.0
  0
LINE
  5
5D03
330
1F
100
AcDbEntity
  8
SPOJOVACÍ
  6
DASHED
100
AcDbLine
 10
1440.437074466841
 20
388.6097552627018
 30
0.0
 11
1444.400590739242
 21
387.2779481616182
 31
0.0
  0
LINE
  5
5D04
330
1F
100
AcDbEntity
  8
SPOJOVACÍ
  6
DASHED
100
AcDbLine
 10
1444.770689082768
 20
387.0637286758321
 30
0.0
 11
1444.400590739242
 21
387.2779481616182
 31
0.0
  0
LINE
  5
5D05
330
1F
100
AcDbEntity
  8
SPOJOVACÍ
  6
DASHED
100
AcDbLine
 10
1440.066976119037
 20
397.3971315736528
 30
0.0
 11
1440.437074466841
 21
397.1838236603255
 31
0.0
  0
LINE
  5
5D06
330
1F
100
AcDbEntity
  8
SPOJOVACÍ
  6
DASHED
100
AcDbLine
 10
1440.066976119037
 20
397.3971315736528
 30
0.0
 11
1440.437074466841
 21
397.7681414915061
 31
0.0
  0
LINE
  5
5D07
330
1F
100
AcDbEntity
  8
SPOJOVACÍ
  6
DASHED
100
AcDbLine
 10
1441.096141223301
 20
400.015898267013
 30
0.0
 11
1441.096141223301
 21
397.5473605330846
 31
0.0
  0
LINE
  5
5D08
330
1F
100
AcDbEntity
  8
SPOJOVACÍ
  6
DASHED
100
AcDbLine
 10
1440.066976119037
 20
400.4397793771042
 30
0.0
 11
1440.437074466841
 21
400.2264714637769
 31
0.0
  0
LINE
  5
5D09
330
1F
100
AcDbEntity
  8
SPOJOVACÍ
  6
DASHED
100
AcDbLine
 10
1440.066976119037
 20
400.4397793771042
 30
0.0
 11
1440.437074466841
 21
400.8107892949576
 31
0.0
  0
LINE
  5
5D0A
330
1F
100
AcDbEntity
  8
SPOJOVACÍ
  6
DASHED
100
AcDbLine
 10
1441.063780407159
 20
402.2993258339368
 30
0.0
 11
1441.096141223301
 21
400.5891803717897
 31
0.0
  0
LINE
  5
5D0B
330
1F
100
AcDbEntity
  8
SPOJOVACÍ
  6
DASHED
100
AcDbLine
 10
1441.031419591018
 20
402.6849209082667
 30
0.0
 11
1441.096141223301
 21
401.9137307596067
 31
0.0
  0
LINE
  5
5D0C
330
1F
100
AcDbEntity
  8
SPOJOVACÍ
  6
DASHED
100
AcDbLine
 10
1440.612096344004
 20
404.1361439779759
 30
0.0
 11
1441.031419591018
 21
402.6849209082667
 31
0.0
  0
LINE
  5
5D0D
330
1F
100
AcDbEntity
  8
SPOJOVACÍ
  6
DASHED
100
AcDbLine
 10
1439.831790474273
 20
405.4287534707075
 30
0.0
 11
1440.612096344004
 21
404.1361439779759
 31
0.0
  0
LINE
  5
5D0E
330
1F
100
AcDbEntity
  8
SPOJOVACÍ
  6
DASHED
100
AcDbLine
 10
1438.743373171921
 20
406.4761500203315
 30
0.0
 11
1439.831790474273
 21
405.4287534707075
 31
0.0
  0
LINE
  5
5D0F
330
1F
100
AcDbEntity
  8
SPOJOVACÍ
  6
DASHED
100
AcDbLine
 10
1437.420681790041
 20
407.2054078440762
 30
0.0
 11
1438.743373171921
 21
406.4761500203315
 31
0.0
  0
LINE
  5
5D10
330
1F
100
AcDbEntity
  8
SPOJOVACÍ
  6
DASHED
100
AcDbLine
 10
1437.420681790041
 20
408.381336085273
 30
0.0
 11
1437.420681790041
 21
407.2054078440762
 31
0.0
  0
LINE
  5
5D11
330
1F
100
AcDbEntity
  8
SPOJOVACÍ
  6
DASHED
100
AcDbLine
 10
1440.066976119037
 20
388.2396569170361
 30
0.0
 11
1440.437074466841
 21
388.0254374312501
 31
0.0
  0
LINE
  5
5D12
330
1F
100
AcDbEntity
  8
SPOJOVACÍ
  6
DASHED
100
AcDbLine
 10
1440.066976119037
 20
388.2396569170361
 30
0.0
 11
1440.437074466841
 21
388.6097552627018
 31
0.0
  0
LINE
  5
5D13
330
1F
100
AcDbEntity
  8
SPOJOVACÍ
  6
DASHED
100
AcDbLine
 10
1441.096141223301
 20
390.8731892335274
 30
0.0
 11
1441.096141223301
 21
388.4046514995991
 31
0.0
  0
LINE
  5
5D14
330
1F
100
AcDbEntity
  8
SPOJOVACÍ
  6
DASHED
100
AcDbLine
 10
1440.066976119037
 20
391.2970703436187
 30
0.0
 11
1440.437074466841
 21
391.0837624302914
 31
0.0
  0
LINE
  5
5D15
330
1F
100
AcDbEntity
  8
SPOJOVACÍ
  6
DASHED
100
AcDbLine
 10
1440.066976119037
 20
391.2970703436187
 30
0.0
 11
1440.437074466841
 21
391.6680802614721
 31
0.0
  0
LINE
  5
5D16
330
1F
100
AcDbEntity
  8
SPOJOVACÍ
  6
DASHED
100
AcDbLine
 10
1441.096141223301
 20
393.9131023201446
 30
0.0
 11
1441.096141223301
 21
391.4427414415697
 31
0.0
  0
LINE
  5
5D17
330
1F
100
AcDbEntity
  8
SPOJOVACÍ
  6
DASHED
100
AcDbLine
 10
1440.066976119037
 20
394.3397181470702
 30
0.0
 11
1440.437074466841
 21
394.1254986612841
 31
0.0
  0
LINE
  5
5D18
330
1F
100
AcDbEntity
  8
SPOJOVACÍ
  6
DASHED
100
AcDbLine
 10
1440.066976119037
 20
394.3397181470702
 30
0.0
 11
1440.437074466841
 21
394.7098164927358
 31
0.0
  0
LINE
  5
5D19
330
1F
100
AcDbEntity
  8
SPOJOVACÍ
  6
DASHED
100
AcDbLine
 10
1441.096141223301
 20
396.9732504635615
 30
0.0
 11
1441.096141223301
 21
394.5047127296331
 31
0.0
  0
LINE
  5
5D1A
330
1F
100
AcDbEntity
  8
SPOJOVACÍ
  6
DASHED
100
AcDbLine
 10
1437.420681790041
 20
408.381336085273
 30
0.0
 11
1447.416983411764
 21
408.381336085273
 31
0.0
  0
LINE
  5
5D1B
330
1F
100
AcDbEntity
  8
SPOJOVACÍ
  6
DASHED
100
AcDbLine
 10
1437.420681790041
 20
407.2054078440762
 30
0.0
 11
1447.416983411764
 21
407.2054078440762
 31
0.0
  0
LINE
  5
5D1C
330
1F
100
AcDbEntity
  8
SPOJOVACÍ
  6
DASHED
100
AcDbLine
 10
1440.066976119037
 20
388.2396569170361
 30
0.0
 11
1444.770689082768
 21
387.0637286758321
 31
0.0
  0
LINE
  5
5D1D
330
1F
100
AcDbEntity
  8
SPOJOVACÍ
  6
DASHED
100
AcDbLine
 10
1440.066976119037
 20
391.2970703436187
 30
0.0
 11
1444.770689082768
 21
390.1211421026857
 31
0.0
  0
LINE
  5
5D1E
330
1F
100
AcDbEntity
  8
SPOJOVACÍ
  6
DASHED
100
AcDbLine
 10
1440.066976119037
 20
394.3397181470702
 30
0.0
 11
1444.770689082768
 21
393.1637899058662
 31
0.0
  0
LINE
  5
5D1F
330
1F
100
AcDbEntity
  8
SPOJOVACÍ
  6
DASHED
100
AcDbLine
 10
1440.066976119037
 20
397.3971315736528
 30
0.0
 11
1444.770689082768
 21
396.2212033327198
 31
0.0
  0
LINE
  5
5D20
330
1F
100
AcDbEntity
  8
SPOJOVACÍ
  6
DASHED
100
AcDbLine
 10
1440.066976119037
 20
400.4397793771042
 30
0.0
 11
1444.770689082768
 21
399.2638511361712
 31
0.0
  0
LWPOLYLINE
  5
5D21
330
1F
100
AcDbEntity
  8
nášlap_vrstvy
100
AcDbPolyline
 90
        2
 70
     0
 43
0.0
 10
1429.444970363467
 20
415.2592264787531
 10
1431.915075820602
 20
416.4951832140909
  0
HATCH
  5
5D22
330
1F
100
AcDbEntity
  8
nášlap_vrstvy
100
AcDbHatch
 10
0.0
 20
0.0
 30
0.0
210
0.0
220
0.0
230
1.0
  2
SOLID
 70
     1
 71
     0
 91
        1
 92
        7
 72
     0
 73
     1
 93
        4
 10
1420.60429707092
 20
409.8813360852732
 10
1408.783430716005
 20
409.8813360852732
 10
1408.783430716001
 20
408.3813360852732
 10
1420.60429707092
 20
408.3813360852732
 97
        0
 75
     0
 76
     1
 47
0.1901250437635136
 98
        1
 10
1413.462328095175
 20
409.4729303097342
  0
LWPOLYLINE
  5
5D23
330
1F
100
AcDbEntity
  8
nášlap_vrstvy
100
AcDbPolyline
 90
        4
 70
     1
 43
0.0
 10
1420.60429707092
 20
409.8813360852732
 10
1408.783430716001
 20
409.8813360852732
 10
1408.783430716001
 20
408.3813360852732
 10
1420.60429707092
 20
408.3813360852732
  0
LINE
  5
5D24
330
1F
100
AcDbEntity
  8
CETRIS
100
AcDbLine
 10
1419.494496846513
 20
408.381336085273
 30
0.0
 11
1419.494496846513
 21
400.3813360852729
 31
0.0
  0
LINE
  5
5D25
330
1F
100
AcDbEntity
  8
CETRIS
100
AcDbLine
 10
1419.494496846513
 20
400.3813360852729
 30
0.0
 11
1409.494496846513
 21
400.3813360852729
 31
0.0
  0
LINE
  5
5D26
330
1F
100
AcDbEntity
  8
CETRIS
100
AcDbLine
 10
1409.494496846513
 20
400.3813360852729
 30
0.0
 11
1409.494496846513
 21
392.381336085273
 31
0.0
  0
LINE
  5
5D27
330
1F
100
AcDbEntity
  8
CETRIS
100
AcDbLine
 10
1409.494496846513
 20
392.381336085273
 30
0.0
 11
1419.494496846513
 21
392.381336085273
 31
0.0
  0
LWPOLYLINE
  5
5D28
330
1F
100
AcDbEntity
  8
nášlap_vrstvy
100
AcDbPolyline
 90
        2
 70
     0
 43
0.0
 10
1435.257653170738
 20
415.2592264787531
 10
1432.787547713604
 20
416.4951832140909
  0
HATCH
  5
5D29
330
1F
100
AcDbEntity
  8
nášlap_vrstvy
100
AcDbHatch
 10
0.0
 20
0.0
 30
0.0
210
0.0
220
0.0
230
1.0
  2
SOLID
 70
     1
 71
     0
 91
        1
 92
        7
 72
     0
 73
     1
 93
        4
 10
1444.246029780756
 20
409.8813360852732
 10
1432.425163425836
 20
409.8813360852732
 10
1432.425163425836
 20
408.3813360852732
 10
1444.246029780756
 20
408.3813360852732
 97
        0
 75
     0
 76
     1
 47
0.1901250437635136
 98
        1
 10
1437.104060805006
 20
409.4729303097342
  0
LWPOLYLINE
  5
5D2A
330
1F
100
AcDbEntity
  8
nášlap_vrstvy
100
AcDbPolyline
 90
        4
 70
     1
 43
0.0
 10
1444.246029780752
 20
409.8813360852732
 10
1432.425163425836
 20
409.8813360852732
 10
1432.425163425836
 20
408.3813360852732
 10
1444.246029780752
 20
408.3813360852732
  0
LINE
  5
5D2B
330
1F
100
AcDbEntity
  8
SPOJOVACÍ
  6
DASHED
100
AcDbLine
 10
1441.680459057156
 20
372.7411050146149
 30
0.0
 11
1441.964869605406
 21
370.4667321764666
 31
0.0
  0
LINE
  5
5D2C
330
1F
100
AcDbEntity
  8
SPOJOVACÍ
  6
DASHED
100
AcDbLine
 10
1442.836332708888
 20
370.16864804085
 30
0.0
 11
1443.098865524633
 21
372.2707337181347
 31
0.0
  0
LINE
  5
5D2D
330
1F
100
AcDbEntity
  8
SPOJOVACÍ
  6
DASHED
100
AcDbLine
 10
1442.418832600903
 20
366.8313819242814
 30
0.0
 11
1442.766141642409
 21
369.6107658055245
 31
0.0
  0
LINE
  5
5D2E
330
1F
100
AcDbEntity
  8
SPOJOVACÍ
  6
DASHED
100
AcDbLine
 10
1442.040530106082
 20
369.8587134657302
 30
0.0
 11
1442.418832600903
 21
366.8313819242814
 31
0.0
  0
LINE
  5
5D2F
330
1F
100
AcDbEntity
  8
SPOJOVACÍ
  6
DASHED
100
AcDbLine
 10
1441.422484101815
 20
370.1431240169188
 30
0.0
 11
1441.792582445342
 21
369.92890453114
 31
0.0
  0
LINE
  5
5D30
330
1F
100
AcDbEntity
  8
SPOJOVACÍ
  6
DASHED
100
AcDbLine
 10
1441.422484101815
 20
370.1431240169188
 30
0.0
 11
1441.792582445342
 21
370.5132223625844
 31
0.0
  0
LINE
  5
5D31
330
1F
100
AcDbEntity
  8
SPOJOVACÍ
  6
DASHED
100
AcDbLine
 10
1443.533685500443
 20
369.8386588754603
 30
0.0
 11
1443.163587156916
 21
369.467648957607
 31
0.0
  0
LINE
  5
5D32
330
1F
100
AcDbEntity
  8
SPOJOVACÍ
  6
DASHED
100
AcDbLine
 10
1443.533685500443
 20
369.8386588754603
 30
0.0
 11
1443.163587156916
 21
370.0519667890514
 31
0.0
  0
LINE
  5
5D33
330
1F
100
AcDbEntity
  8
SPOJOVACÍ
  6
DASHED
100
AcDbLine
 10
1441.792582445342
 20
369.92890453114
 30
0.0
 11
1443.163587156916
 21
369.467648957607
 31
0.0
  0
LINE
  5
5D34
330
1F
100
AcDbEntity
  8
SPOJOVACÍ
  6
DASHED
100
AcDbLine
 10
1441.792582445342
 20
370.5132223625844
 30
0.0
 11
1443.163587156916
 21
370.0519667890514
 31
0.0
  0
LINE
  5
5D35
330
1F
100
AcDbEntity
  8
SPOJOVACÍ
  6
DASHED
100
AcDbLine
 10
1441.422484101815
 20
370.1431240169188
 30
0.0
 11
1443.533685500443
 21
369.8386588754603
 31
0.0
  0
LINE
  5
5D36
330
1F
100
AcDbEntity
  8
SPOJOVACÍ
  6
DASHED
100
AcDbLine
 10
1441.096141223301
 20
384.7601855247305
 30
0.0
 11
1441.096141223301
 21
382.2825320681188
 31
0.0
  0
LINE
  5
5D37
330
1F
100
AcDbEntity
  8
SPOJOVACÍ
  6
DASHED
100
AcDbLine
 10
1443.741523982782
 20
383.8650215459713
 30
0.0
 11
1443.741523982782
 21
381.3946606673964
 31
0.0
  0
LINE
  5
5D38
330
1F
100
AcDbEntity
  8
SPOJOVACÍ
  6
DASHED
100
AcDbLine
 10
1441.096141223301
 20
381.6900100861787
 30
0.0
 11
1441.096141223301
 21
379.2223839244381
 31
0.0
  0
LINE
  5
5D39
330
1F
100
AcDbEntity
  8
SPOJOVACÍ
  6
DASHED
100
AcDbLine
 10
1441.096141223301
 20
378.6380660929864
 30
0.0
 11
1441.096141223301
 21
377.4156476659356
 31
0.0
  0
LINE
  5
5D3A
330
1F
100
AcDbEntity
  8
SPOJOVACÍ
  6
DASHED
100
AcDbLine
 10
1443.741523982782
 20
380.8057849747422
 30
0.0
 11
1443.741523982782
 21
378.3372472408139
 31
0.0
  0
LINE
  5
5D3B
330
1F
100
AcDbEntity
  8
SPOJOVACÍ
  6
DASHED
100
AcDbLine
 10
1443.741523982782
 20
377.7456368310615
 30
0.0
 11
1443.741523982782
 21
377.4156476659356
 31
0.0
  0
LINE
  5
5D3C
330
1F
100
AcDbEntity
  8
SPOJOVACÍ
  6
DASHED
100
AcDbLine
 10
1441.096141223301
 20
377.4156476659356
 30
0.0
 11
1441.24290435997
 21
376.242454141566
 31
0.0
  0
LINE
  5
5D3D
330
1F
100
AcDbEntity
  8
SPOJOVACÍ
  6
DASHED
100
AcDbLine
 10
1441.318564860645
 20
375.6344354308296
 30
0.0
 11
1441.602975413174
 21
373.3591510204862
 31
0.0
  0
LINE
  5
5D3E
330
1F
100
AcDbEntity
  8
SPOJOVACÍ
  6
DASHED
100
AcDbLine
 10
1443.169056586834
 20
372.8313506702945
 30
0.0
 11
1443.430677833065
 21
374.9252321970909
 31
0.0
  0
LINE
  5
5D3F
330
1F
100
AcDbEntity
  8
SPOJOVACÍ
  6
DASHED
100
AcDbLine
 10
1443.500868899544
 20
375.4840260048752
 30
0.0
 11
1443.741523982782
 21
377.4156476659356
 31
0.0
  0
LINE
  5
5D40
330
1F
100
AcDbEntity
  8
SPOJOVACÍ
  6
DASHED
100
AcDbLine
 10
1440.315835353569
 20
376.051023962884
 30
0.0
 11
1440.686845270888
 21
375.8368044770979
 31
0.0
  0
LINE
  5
5D41
330
1F
100
AcDbEntity
  8
SPOJOVACÍ
  6
DASHED
100
AcDbLine
 10
1440.315835353569
 20
376.051023962884
 30
0.0
 11
1440.686845270888
 21
376.4211223085496
 31
0.0
  0
LINE
  5
5D42
330
1F
100
AcDbEntity
  8
SPOJOVACÍ
  6
DASHED
100
AcDbLine
 10
1444.358658413257
 20
375.0975193582255
 30
0.0
 11
1443.988560069731
 21
374.7265094401011
 31
0.0
  0
LINE
  5
5D43
330
1F
100
AcDbEntity
  8
SPOJOVACÍ
  6
DASHED
100
AcDbLine
 10
1444.358658413257
 20
375.0975193582255
 30
0.0
 11
1443.988560069731
 21
375.3108272715528
 31
0.0
  0
LINE
  5
5D44
330
1F
100
AcDbEntity
  8
SPOJOVACÍ
  6
DASHED
100
AcDbLine
 10
1440.686845270888
 20
375.8368044770979
 30
0.0
 11
1443.988560069731
 21
374.7265094401011
 31
0.0
  0
LINE
  5
5D45
330
1F
100
AcDbEntity
  8
SPOJOVACÍ
  6
DASHED
100
AcDbLine
 10
1440.686845270888
 20
376.4211223085496
 30
0.0
 11
1443.988560069731
 21
375.3108272715528
 31
0.0
  0
LINE
  5
5D46
330
1F
100
AcDbEntity
  8
SPOJOVACÍ
  6
DASHED
100
AcDbLine
 10
1440.315835353569
 20
376.051023962884
 30
0.0
 11
1444.358658413257
 21
375.0975193582255
 31
0.0
  0
LINE
  5
5D47
330
1F
100
AcDbEntity
  8
SPOJOVACÍ
  6
DASHED
100
AcDbLine
 10
1440.869159725553
 20
373.096618203672
 30
0.0
 11
1441.239258073358
 21
372.8833102903447
 31
0.0
  0
LINE
  5
5D48
330
1F
100
AcDbEntity
  8
SPOJOVACÍ
  6
DASHED
100
AcDbLine
 10
1440.869159725553
 20
373.096618203672
 30
0.0
 11
1441.239258073358
 21
373.4676281217964
 31
0.0
  0
LINE
  5
5D49
330
1F
100
AcDbEntity
  8
SPOJOVACÍ
  6
DASHED
100
AcDbLine
 10
1443.922926863655
 20
372.4758374812374
 30
0.0
 11
1443.552828520129
 21
372.1048275633841
 31
0.0
  0
LINE
  5
5D4A
330
1F
100
AcDbEntity
  8
SPOJOVACÍ
  6
DASHED
100
AcDbLine
 10
1443.922926863655
 20
372.4758374812374
 30
0.0
 11
1443.552828520129
 21
372.6891453945647
 31
0.0
  0
LINE
  5
5D4B
330
1F
100
AcDbEntity
  8
SPOJOVACÍ
  6
DASHED
100
AcDbLine
 10
1441.239258073358
 20
372.8833102903447
 30
0.0
 11
1443.552828520129
 21
372.1048275633841
 31
0.0
  0
LINE
  5
5D4C
330
1F
100
AcDbEntity
  8
SPOJOVACÍ
  6
DASHED
100
AcDbLine
 10
1441.239258073358
 20
373.4676281217964
 30
0.0
 11
1443.552828520129
 21
372.6891453945647
 31
0.0
  0
LINE
  5
5D4D
330
1F
100
AcDbEntity
  8
SPOJOVACÍ
  6
DASHED
100
AcDbLine
 10
1440.869159725553
 20
373.096618203672
 30
0.0
 11
1443.922926863655
 21
372.4758374812374
 31
0.0
  0
LINE
  5
5D4E
330
1F
100
AcDbEntity
  8
SPOJOVACÍ
  6
DASHED
100
AcDbLine
 10
1440.066976119037
 20
382.1248300635927
 30
0.0
 11
1444.770689082768
 21
380.9489018226597
 31
0.0
  0
LINE
  5
5D4F
330
1F
100
AcDbEntity
  8
SPOJOVACÍ
  6
DASHED
100
AcDbLine
 10
1440.066976119037
 20
382.1248300635927
 30
0.0
 11
1440.437074466841
 21
381.9106105778139
 31
0.0
  0
LINE
  5
5D50
330
1F
100
AcDbEntity
  8
SPOJOVACÍ
  6
DASHED
100
AcDbLine
 10
1440.066976119037
 20
382.1248300635927
 30
0.0
 11
1440.437074466841
 21
382.4949284092583
 31
0.0
  0
LINE
  5
5D51
330
1F
100
AcDbEntity
  8
SPOJOVACÍ
  6
DASHED
100
AcDbLine
 10
1444.770689082768
 20
380.9489018226597
 30
0.0
 11
1444.400590739242
 21
380.5778919048064
 31
0.0
  0
LINE
  5
5D52
330
1F
100
AcDbEntity
  8
SPOJOVACÍ
  6
DASHED
100
AcDbLine
 10
1444.770689082768
 20
380.9489018226597
 30
0.0
 11
1444.400590739242
 21
381.162209735987
 31
0.0
  0
LINE
  5
5D53
330
1F
100
AcDbEntity
  8
SPOJOVACÍ
  6
DASHED
100
AcDbLine
 10
1440.437074466841
 20
381.9106105778139
 30
0.0
 11
1444.400590739242
 21
380.5778919048064
 31
0.0
  0
LINE
  5
5D54
330
1F
100
AcDbEntity
  8
SPOJOVACÍ
  6
DASHED
100
AcDbLine
 10
1440.437074466841
 20
382.4949284092583
 30
0.0
 11
1444.400590739242
 21
381.162209735987
 31
0.0
  0
LINE
  5
5D55
330
1F
100
AcDbEntity
  8
SPOJOVACÍ
  6
DASHED
100
AcDbLine
 10
1440.066976119037
 20
379.0665050645514
 30
0.0
 11
1444.770689082768
 21
377.8905768236183
 31
0.0
  0
LINE
  5
5D56
330
1F
100
AcDbEntity
  8
SPOJOVACÍ
  6
DASHED
100
AcDbLine
 10
1440.066976119037
 20
379.0665050645514
 30
0.0
 11
1440.437074466841
 21
378.8531971512241
 31
0.0
  0
LINE
  5
5D57
330
1F
100
AcDbEntity
  8
SPOJOVACÍ
  6
DASHED
100
AcDbLine
 10
1440.066976119037
 20
379.0665050645514
 30
0.0
 11
1440.437074466841
 21
379.4375149826758
 31
0.0
  0
LINE
  5
5D58
330
1F
100
AcDbEntity
  8
SPOJOVACÍ
  6
DASHED
100
AcDbLine
 10
1444.770689082768
 20
377.8905768236183
 30
0.0
 11
1444.400590739242
 21
377.5204784779528
 31
0.0
  0
LINE
  5
5D59
330
1F
100
AcDbEntity
  8
SPOJOVACÍ
  6
DASHED
100
AcDbLine
 10
1444.770689082768
 20
377.8905768236183
 30
0.0
 11
1444.400590739242
 21
378.1047963094045
 31
0.0
  0
LINE
  5
5D5A
330
1F
100
AcDbEntity
  8
SPOJOVACÍ
  6
DASHED
100
AcDbLine
 10
1440.437074466841
 20
378.8531971512241
 30
0.0
 11
1444.400590739242
 21
377.5204784779528
 31
0.0
  0
LINE
  5
5D5B
330
1F
100
AcDbEntity
  8
SPOJOVACÍ
  6
DASHED
100
AcDbLine
 10
1440.437074466841
 20
379.4375149826758
 30
0.0
 11
1444.400590739242
 21
378.1047963094045
 31
0.0
  0
LINE
  5
5D5C
330
1F
100
AcDbEntity
  8
SPOJOVACÍ
  6
DASHED
100
AcDbLine
 10
1440.437074466841
 20
385.5523418358482
 30
0.0
 11
1444.400590739242
 21
384.2196231628406
 31
0.0
  0
LINE
  5
5D5D
330
1F
100
AcDbEntity
  8
SPOJOVACÍ
  6
DASHED
100
AcDbLine
 10
1440.437074466841
 20
384.9680240043965
 30
0.0
 11
1444.400590739242
 21
383.6353053313962
 31
0.0
  0
LINE
  5
5D5E
330
1F
100
AcDbEntity
  8
SPOJOVACÍ
  6
DASHED
100
AcDbLine
 10
1440.066976119037
 20
385.1822434901825
 30
0.0
 11
1440.437074466841
 21
384.9680240043965
 31
0.0
  0
LINE
  5
5D5F
330
1F
100
AcDbEntity
  8
SPOJOVACÍ
  6
DASHED
100
AcDbLine
 10
1440.066976119037
 20
385.1822434901825
 30
0.0
 11
1440.437074466841
 21
385.5523418358482
 31
0.0
  0
LINE
  5
5D60
330
1F
100
AcDbEntity
  8
SPOJOVACÍ
  6
DASHED
100
AcDbLine
 10
1440.066976119037
 20
385.1822434901825
 30
0.0
 11
1444.770689082768
 21
384.0063152492496
 31
0.0
  0
LINE
  5
5D61
330
1F
100
AcDbEntity
  8
SPOJOVACÍ
  6
DASHED
100
AcDbLine
 10
1444.770689082768
 20
384.0063152492496
 30
0.0
 11
1444.400590739242
 21
383.6353053313962
 31
0.0
  0
LINE
  5
5D62
330
1F
100
AcDbEntity
  8
SPOJOVACÍ
  6
DASHED
100
AcDbLine
 10
1444.770689082768
 20
384.0063152492496
 30
0.0
 11
1444.400590739242
 21
384.2196231628406
 31
0.0
  0
LINE
  5
5D63
330
1F
100
AcDbEntity
  8
CETRIS
100
AcDbLine
 10
1419.494496846513
 20
392.381336085273
 30
0.0
 11
1419.494496846513
 21
384.381336085273
 31
0.0
  0
LINE
  5
5D64
330
1F
100
AcDbEntity
  8
SPOJOVACÍ
  6
DASHED
100
AcDbLine
 10
1444.770689082768
 20
387.0637286758321
 30
0.0
 11
1444.400590739242
 21
386.6936303304376
 31
0.0
  0
LINE
  5
5D65
330
1F
100
AcDbEntity
  8
SPOJOVACÍ
  6
DASHED
100
AcDbLine
 10
1440.437074466841
 20
388.0254374312501
 30
0.0
 11
1444.400590739242
 21
386.6936303304376
 31
0.0
  0
LINE
  5
5D66
330
1F
100
AcDbEntity
  8
SPOJOVACÍ
  6
DASHED
100
AcDbLine
 10
1443.741523982782
 20
386.9251696893882
 30
0.0
 11
1443.741523982782
 21
384.4475162327765
 31
0.0
  0
LINE
  5
5D67
330
1F
100
AcDbEntity
  8
SPOJOVACÍ
  6
DASHED
100
AcDbLine
 10
1441.096141223301
 20
387.8130410901105
 30
0.0
 11
1441.096141223301
 21
385.3426802115357
 31
0.0
  0
LWPOLYLINE
  5
5D68
330
1F
100
AcDbEntity
  8
nášlap_vrstvy
100
AcDbPolyline
 90
        4
 70
     1
 43
0.0
 10
1534.057909864019
 20
409.8813360852732
 10
1522.2370435091
 20
409.8813360852732
 10
1522.2370435091
 20
408.3813360852732
 10
1534.057909864019
 20
408.3813360852732
  0
HATCH
  5
5D69
330
1F
100
AcDbEntity
  8
nášlap_vrstvy
100
AcDbHatch
 10
0.0
 20
0.0
 30
0.0
210
0.0
220
0.0
230
1.0
  2
SOLID
 70
     1
 71
     0
 91
        1
 92
        7
 72
     0
 73
     1
 93
        4
 10
1534.057909864019
 20
409.8813360852732
 10
1522.237043509103
 20
409.8813360852732
 10
1522.2370435091
 20
408.3813360852732
 10
1534.057909864019
 20
408.3813360852732
 97
        0
 75
     0
 76
     1
 47
0.1901250437635136
 98
        1
 10
1526.915940888273
 20
409.4729303097342
  0
POLYLINE
  5
5D6A
330
1F
100
AcDbEntity
  8
STAVBA OBRYS
100
AcDb2dPolyline
 66
     1
 10
0.0
 20
0.0
 30
0.0
  0
VERTEX
  5
5D6B
330
5D6A
100
AcDbEntity
  8
STAVBA OBRYS
100
AcDbVertex
100
AcDb2dVertex
 10
1695.455913803868
 20
362.6236702723872
 30
0.0
 42
-0.0094186890201653
  0
VERTEX
  5
5D6C
330
5D6A
100
AcDbEntity
  8
STAVBA OBRYS
100
AcDbVertex
100
AcDb2dVertex
 10
1695.802712366742
 20
362.7823431431552
 30
0.0
 42
-0.0322692699774654
  0
VERTEX
  5
5D6D
330
5D6A
100
AcDbEntity
  8
STAVBA OBRYS
100
AcDbVertex
100
AcDb2dVertex
 10
1698.694066547832
 20
363.8238666445559
 30
0.0
 42
-0.0276160659512937
  0
VERTEX
  5
5D6E
330
5D6A
100
AcDbEntity
  8
STAVBA OBRYS
100
AcDbVertex
100
AcDb2dVertex
 10
1699.54964298612
 20
364.0206020735003
 30
0.0
 42
-0.0126891984598699
  0
VERTEX
  5
5D6F
330
5D6A
100
AcDbEntity
  8
STAVBA OBRYS
100
AcDbVertex
100
AcDb2dVertex
 10
1700.472811381911
 20
364.1558044630419
 30
0.0
  0
SEQEND
  5
5D70
330
5D6A
100
AcDbEntity
  8
STAVBA OBRYS
  0
LINE
  5
5D71
330
1F
100
AcDbEntity
  8
STAVBA OBRYS
100
AcDbLine
 10
1700.623788040521
 20
380.6236702723863
 30
0.0
 11
1700.623788040521
 21
362.6236702723872
 31
0.0
  0
LWPOLYLINE
  5
5D72
330
1F
100
AcDbEntity
  8
STAVBA OBRYS
100
AcDbPolyline
 90
        6
 70
     0
 43
0.0
 10
1668.677912459214
 20
362.6236702723872
 42
-0.0121757200102759
 10
1670.047902172875
 20
367.2955876048545
 42
-0.0457786284636091
 10
1671.255925062491
 20
370.1441979877309
 42
-0.0295006114745606
 10
1673.67198551679
 20
374.0710972011329
 42
-0.0258674098621065
 10
1676.904660830754
 20
378.2168772798868
 42
-0.0093759062953949
 10
1679.070473010412
 20
380.6236702723872
  0
LWPOLYLINE
  5
5D73
330
1F
100
AcDbEntity
  8
STAVBA OBRYS
100
AcDbPolyline
 90
        3
 70
     0
 43
0.0
 10
1690.801244231123
 20
362.6236702723872
 10
1677.009196304483
 20
369.524741835874
 10
1668.842091655359
 20
377.7060435369676
  0
LWPOLYLINE
  5
5D74
330
1F
100
AcDbEntity
  8
STAVBA OBRYS
100
AcDbPolyline
 90
        8
 70
     0
 43
0.0
 10
1678.050716467016
 20
362.6236702723872
 42
-0.0217273703039143
 10
1680.248386727526
 20
367.6593606098649
 42
-0.0882970623535771
 10
1681.885608647619
 20
369.8997296606648
 42
-0.0171636441953577
 10
1684.698972709477
 20
372.4136470159101
 42
-0.0157521173632038
 10
1687.937827546513
 20
374.9451430684166
 42
-0.0073640874174249
 10
1692.571476902835
 20
378.2335444941527
 42
-0.0194185739168057
 10
1694.393520222511
 20
379.3851134934338
 42
-0.0229547400386702
 10
1696.778978286526
 20
380.6236702723872
  0
POLYLINE
  5
5D75
330
1F
100
AcDbEntity
  8
STAVBA OBRYS
100
AcDb2dPolyline
 66
     1
 10
0.0
 20
0.0
 30
0.0
  0
VERTEX
  5
5D76
330
5D75
100
AcDbEntity
  8
STAVBA OBRYS
100
AcDbVertex
100
AcDb2dVertex
 10
1686.402767854332
 20
362.6236702723872
 30
0.0
 42
-0.0502247168465557
  0
VERTEX
  5
5D77
330
5D75
100
AcDbEntity
  8
STAVBA OBRYS
100
AcDbVertex
100
AcDb2dVertex
 10
1688.001815030497
 20
364.63114094511
 30
0.0
 42
-0.0274923553235744
  0
VERTEX
  5
5D78
330
5D75
100
AcDbEntity
  8
STAVBA OBRYS
100
AcDbVertex
100
AcDb2dVertex
 10
1690.59912076105
 20
367.0162162682481
 30
0.0
 42
-0.0255412025538677
  0
VERTEX
  5
5D79
330
5D75
100
AcDbEntity
  8
STAVBA OBRYS
100
AcDbVertex
100
AcDb2dVertex
 10
1693.65055079876
 20
369.2729299452639
 30
0.0
 42
-0.0272796991712396
  0
VERTEX
  5
5D7A
330
5D75
100
AcDbEntity
  8
STAVBA OBRYS
100
AcDbVertex
100
AcDb2dVertex
 10
1697.763549951946
 20
371.6892658269298
 30
0.0
 42
-0.056967459841729
  0
VERTEX
  5
5D7B
330
5D75
100
AcDbEntity
  8
STAVBA OBRYS
100
AcDbVertex
100
AcDb2dVertex
 10
1699.904497232678
 20
372.5020016621292
 30
0.0
 42
-0.0373408083348504
  0
VERTEX
  5
5D7C
330
5D75
100
AcDbEntity
  8
STAVBA OBRYS
100
AcDbVertex
100
AcDb2dVertex
 10
1700.126851608151
 20
372.5411672030768
 30
0.0
 42
-0.0052305969362967
  0
VERTEX
  5
5D7D
330
5D75
100
AcDbEntity
  8
STAVBA OBRYS
100
AcDbVertex
100
AcDb2dVertex
 10
1700.472811381911
 20
372.5721241699811
 30
0.0
  0
SEQEND
  5
5D7E
330
5D75
100
AcDbEntity
  8
STAVBA OBRYS
  0
LWPOLYLINE
  5
5D7F
330
1F
100
AcDbEntity
  8
STAVBA OBRYS
100
AcDbPolyline
 90
        4
 70
     0
 43
0.0
 10
1659.867451110371
 20
362.6236702723872
 42
-0.0186324019486548
 10
1663.235820482478
 20
374.3187818906117
 42
-0.0582629403736403
 10
1664.895320350559
 20
377.8986160895474
 42
-0.0146402521923566
 10
1666.679728332143
 20
380.6236702723872
  0
HATCH
  5
5D80
330
1F
100
AcDbEntity
  8
izolace
100
AcDbHatch
 10
0.0
 20
0.0
 30
0.0
210
0.0
220
0.0
230
1.0
  2
SOLID
 70
     1
 71
     0
 91
        1
 92
        7
 72
     0
 73
     1
 93
        4
 10
1622.100174947056
 20
383.6236702723867
 10
1598.458442237221
 20
383.6236702723867
 10
1598.458442237217
 20
380.6236702723868
 10
1622.100174947056
 20
380.6236702723868
 97
        0
 75
     0
 76
     1
 47
0.1901250437635136
 98
        1
 10
1607.816236995561
 20
382.8068587213069
  0
LWPOLYLINE
  5
5D81
330
1F
100
AcDbEntity
  8
STAVBA OBRYS
100
AcDbPolyline
 90
        3
 70
     0
 43
0.0
 10
1628.265170998713
 20
362.6236702723872
 42
-0.0052038508054843
 10
1631.463567938696
 20
379.0274967543846
 42
-0.0065712046643719
 10
1631.81399370846
 20
380.6236702723872
  0
LWPOLYLINE
  5
5D82
330
1F
100
AcDbEntity
  8
STAVBA OBRYS
100
AcDbPolyline
 90
        4
 70
     0
 43
0.0
 10
1639.717708861681
 20
362.6236702723872
 42
-0.0334776267545482
 10
1640.154986656388
 20
366.670645201124
 42
-0.0091133963862869
 10
1642.632590981306
 20
379.3623749865837
 42
-0.007828075361276
 10
1642.923490116464
 20
380.6236702723872
  0
LWPOLYLINE
  5
5D83
330
1F
100
AcDbEntity
  8
STAVBA OBRYS
100
AcDbPolyline
 90
        5
 70
     0
 43
0.0
 10
1649.961847236475
 20
362.6236702723872
 42
-0.0133579731639958
 10
1650.348657725503
 20
365.1414725599424
 42
-0.0072443097182286
 10
1652.468654672961
 20
375.9523634548495
 42
-0.0219777111230329
 10
1653.374767174945
 20
379.470476710685
 42
-0.0092752982622242
 10
1653.749994136892
 20
380.6236702723872
  0
LWPOLYLINE
  5
5D84
330
1F
100
AcDbEntity
  8
STAVBA OBRYS
100
AcDbPolyline
 90
        5
 70
     0
 43
0.0
 10
1607.859963477014
 20
362.6236702723872
 42
-0.0133579731639958
 10
1608.246773966043
 20
365.1414725599424
 42
-0.0072443097182286
 10
1610.3667709135
 20
375.9523634548495
 42
-0.0219777111230329
 10
1611.272883415484
 20
379.470476710685
 42
-0.0092752982622242
 10
1611.648110377432
 20
380.6236702723872
  0
LWPOLYLINE
  5
5D85
330
1F
100
AcDbEntity
  8
STAVBA OBRYS
100
AcDbPolyline
 90
        4
 70
     0
 43
0.0
 10
1617.765567350911
 20
362.6236702723872
 42
-0.0186324019486548
 10
1621.133936723018
 20
374.3187818906117
 42
-0.0582629403736403
 10
1622.793436591099
 20
377.8986160895474
 42
-0.0146402521923566
 10
1624.577844572683
 20
380.6236702723872
  0
LWPOLYLINE
  5
5D86
330
1F
100
AcDbEntity
  8
izolace
100
AcDbPolyline
 90
        4
 70
     1
 43
0.0
 10
1669.383640366723
 20
383.6236702723867
 10
1645.741907656888
 20
383.6236702723867
 10
1645.741907656888
 20
380.6236702723868
 10
1669.383640366723
 20
380.6236702723868
  0
HATCH
  5
5D87
330
1F
100
AcDbEntity
  8
izolace
100
AcDbHatch
 10
0.0
 20
0.0
 30
0.0
210
0.0
220
0.0
230
1.0
  2
SOLID
 70
     1
 71
     0
 91
        1
 92
        7
 72
     0
 73
     1
 93
        4
 10
1669.383640366727
 20
383.6236702723867
 10
1645.741907656891
 20
383.6236702723867
 10
1645.741907656888
 20
380.6236702723868
 10
1669.383640366727
 20
380.6236702723868
 97
        0
 75
     0
 76
     1
 47
0.1901250437635136
 98
        1
 10
1655.099702415231
 20
382.8068587213069
  0
LWPOLYLINE
  5
5D88
330
1F
100
AcDbEntity
  8
STAVBA OBRYS
100
AcDbPolyline
 90
        4
 70
     0
 43
0.0
 10
1674.471836298966
 20
362.1228398416387
 10
1654.475583866974
 20
371.3388688921586
 10
1637.697693295755
 20
374.0460131548497
 10
1634.43408204805
 20
374.1763145192198
  0
LWPOLYLINE
  5
5D89
330
1F
100
AcDbEntity
  8
STAVBA OBRYS
100
AcDbPolyline
 90
        5
 70
     0
 43
0.0
 10
1577.71295462054
 20
362.6236702723872
 42
-0.0133579731639958
 10
1578.099765109568
 20
365.1414725599424
 42
-0.0072443097182286
 10
1580.219762057026
 20
375.9523634548495
 42
-0.0219777111230329
 10
1581.12587455901
 20
379.470476710685
 42
-0.0092752982622242
 10
1581.501101520957
 20
380.6236702723872
  0
LWPOLYLINE
  5
5D8A
330
1F
100
AcDbEntity
  8
STAVBA OBRYS
100
AcDbPolyline
 90
        4
 70
     0
 43
0.0
 10
1567.468816245746
 20
362.6236702723872
 42
-0.0334776267545482
 10
1567.906094040453
 20
366.670645201124
 42
-0.0091133963862869
 10
1570.383698365371
 20
379.3623749865837
 42
-0.007828075361276
 10
1570.674597500529
 20
380.6236702723872
  0
LWPOLYLINE
  5
5D8B
330
1F
100
AcDbEntity
  8
STAVBA OBRYS
100
AcDbPolyline
 90
        3
 70
     0
 43
0.0
 10
1586.163287239253
 20
362.6236702723872
 42
-0.0052038508054843
 10
1589.361684179236
 20
379.0274967543846
 42
-0.0065712046643719
 10
1589.712109949
 20
380.6236702723872
  0
LWPOLYLINE
  5
5D8C
330
1F
100
AcDbEntity
  8
STAVBA OBRYS
100
AcDbPolyline
 90
        4
 70
     0
 43
0.0
 10
1602.222943683031
 20
362.1228398416387
 10
1582.226691251038
 20
371.3388688921586
 10
1565.44880067982
 20
374.0460131548497
 10
1562.185189432115
 20
374.1763145192198
  0
LWPOLYLINE
  5
5D8D
330
1F
100
AcDbEntity
  8
STAVBA OBRYS
100
AcDbPolyline
 90
        4
 70
     0
 43
0.0
 10
1597.615825102221
 20
362.6236702723872
 42
-0.0334776267545482
 10
1598.053102896927
 20
366.670645201124
 42
-0.0091133963862869
 10
1600.530707221846
 20
379.3623749865837
 42
-0.007828075361276
 10
1600.821606357003
 20
380.6236702723872
  0
LWPOLYLINE
  5
5D8E
330
1F
100
AcDbEntity
  8
STAVBA OBRYS
100
AcDbPolyline
 90
        4
 70
     0
 43
0.0
 10
1632.369952539506
 20
362.1228398416387
 10
1612.373700107514
 20
371.3388688921586
 10
1595.595809536295
 20
374.0460131548497
 10
1592.33219828859
 20
374.1763145192198
  0
LWPOLYLINE
  5
5D8F
330
1F
100
AcDbEntity
  8
STAVBA OBRYS
100
AcDbPolyline
 90
        3
 70
     0
 43
0.0
 10
1556.016278382778
 20
362.6236702723872
 42
-0.0052038508054843
 10
1559.214675322761
 20
379.0274967543846
 42
-0.0065712046643719
 10
1559.565101092525
 20
380.6236702723872
  0
LWPOLYLINE
  5
5D90
330
1F
100
AcDbEntity
  8
nášlap_vrstvy
100
AcDbPolyline
 90
        4
 70
     1
 43
0.0
 10
1652.266573413192
 20
409.8813360852732
 10
1640.445707058276
 20
409.8813360852732
 10
1640.445707058276
 20
408.3813360852732
 10
1652.266573413192
 20
408.3813360852732
  0
HATCH
  5
5D91
330
1F
100
AcDbEntity
  8
nášlap_vrstvy
100
AcDbHatch
 10
0.0
 20
0.0
 30
0.0
210
0.0
220
0.0
230
1.0
  2
SOLID
 70
     1
 71
     0
 91
        1
 92
        7
 72
     0
 73
     1
 93
        4
 10
1652.266573413195
 20
409.8813360852732
 10
1640.445707058276
 20
409.8813360852732
 10
1640.445707058276
 20
408.3813360852732
 10
1652.266573413195
 20
408.3813360852732
 97
        0
 75
     0
 76
     1
 47
0.1901250437635136
 98
        1
 10
1645.124604437446
 20
409.4729303097342
  0
POLYLINE
  5
5D92
330
1F
100
AcDbEntity
  8
nášlap_vrstvy
100
AcDb2dPolyline
 66
     1
 10
0.0
 20
0.0
 30
0.0
  0
VERTEX
  5
5D93
330
5D92
100
AcDbEntity
  8
nášlap_vrstvy
100
AcDbVertex
100
AcDb2dVertex
 10
1651.708564211211
 20
415.2592264787531
 30
0.0
 42
-0.0094186890201653
  0
VERTEX
  5
5D94
330
5D92
100
AcDbEntity
  8
nášlap_vrstvy
100
AcDbVertex
100
AcDb2dVertex
 10
1652.055362774085
 20
415.4178993495211
 30
0.0
 42
-0.0322692699774654
  0
VERTEX
  5
5D95
330
5D92
100
AcDbEntity
  8
nášlap_vrstvy
100
AcDbVertex
100
AcDb2dVertex
 10
1654.946716955175
 20
416.4594228509217
 30
0.0
 42
-0.0276160659512937
  0
VERTEX
  5
5D96
330
5D92
100
AcDbEntity
  8
nášlap_vrstvy
100
AcDbVertex
100
AcDb2dVertex
 10
1655.802293393463
 20
416.6561582798663
 30
0.0
 42
-0.0126891984598699
  0
VERTEX
  5
5D97
330
5D92
100
AcDbEntity
  8
nášlap_vrstvy
100
AcDbVertex
100
AcDb2dVertex
 10
1656.725461789254
 20
416.7913606694078
 30
0.0
  0
SEQEND
  5
5D98
330
5D92
100
AcDbEntity
  8
nášlap_vrstvy
  0
POLYLINE
  5
5D99
330
1F
100
AcDbEntity
  8
nášlap_vrstvy
100
AcDb2dPolyline
 66
     1
 10
0.0
 20
0.0
 30
0.0
  0
VERTEX
  5
5D9A
330
5D99
100
AcDbEntity
  8
nášlap_vrstvy
100
AcDbVertex
100
AcDb2dVertex
 10
1662.994059322995
 20
415.2592264787531
 30
0.0
 42
0.0094186890201653
  0
VERTEX
  5
5D9B
330
5D99
100
AcDbEntity
  8
nášlap_vrstvy
100
AcDbVertex
100
AcDb2dVertex
 10
1662.647260760121
 20
415.4178993495211
 30
0.0
 42
0.0322692699774654
  0
VERTEX
  5
5D9C
330
5D99
100
AcDbEntity
  8
nášlap_vrstvy
100
AcDbVertex
100
AcDb2dVertex
 10
1659.75590657903
 20
416.4594228509217
 30
0.0
 42
0.0276160659512937
  0
VERTEX
  5
5D9D
330
5D99
100
AcDbEntity
  8
nášlap_vrstvy
100
AcDbVertex
100
AcDb2dVertex
 10
1658.900330140743
 20
416.6561582798663
 30
0.0
 42
0.0126891984598699
  0
VERTEX
  5
5D9E
330
5D99
100
AcDbEntity
  8
nášlap_vrstvy
100
AcDbVertex
100
AcDb2dVertex
 10
1657.977161744952
 20
416.7913606694078
 30
0.0
  0
SEQEND
  5
5D9F
330
5D99
100
AcDbEntity
  8
nášlap_vrstvy
  0
LWPOLYLINE
  5
5DA0
330
1F
100
AcDbEntity
  8
nášlap_vrstvy
100
AcDbPolyline
 90
        4
 70
     1
 43
0.0
 10
1675.90830612303
 20
409.8813360852732
 10
1664.087439768111
 20
409.8813360852732
 10
1664.087439768111
 20
408.3813360852732
 10
1675.90830612303
 20
408.3813360852732
  0
HATCH
  5
5DA1
330
1F
100
AcDbEntity
  8
nášlap_vrstvy
100
AcDbHatch
 10
0.0
 20
0.0
 30
0.0
210
0.0
220
0.0
230
1.0
  2
SOLID
 70
     1
 71
     0
 91
        1
 92
        7
 72
     0
 73
     1
 93
        4
 10
1675.90830612303
 20
409.8813360852732
 10
1664.087439768115
 20
409.8813360852732
 10
1664.087439768111
 20
408.3813360852732
 10
1675.90830612303
 20
408.3813360852732
 97
        0
 75
     0
 76
     1
 47
0.1901250437635136
 98
        1
 10
1668.766337147285
 20
409.4729303097342
  0
HATCH
  5
5DA2
330
1F
100
AcDbEntity
  8
nášlap_vrstvy
100
AcDbHatch
 10
0.0
 20
0.0
 30
0.0
210
0.0
220
0.0
230
1.0
  2
SOLID
 70
     1
 71
     0
 91
        1
 92
        7
 72
     0
 73
     1
 93
        4
 10
1699.550038832866
 20
409.8813360852732
 10
1687.729172477946
 20
409.8813360852732
 10
1687.729172477946
 20
408.3813360852732
 10
1699.550038832866
 20
408.3813360852732
 97
        0
 75
     0
 76
     1
 47
0.1901250437635136
 98
        1
 10
1692.408069857116
 20
409.4729303097342
  0
LWPOLYLINE
  5
5DA3
330
1F
100
AcDbEntity
  8
nášlap_vrstvy
100
AcDbPolyline
 90
        2
 70
     0
 43
0.0
 10
1579.444970363467
 20
415.2592264787531
 10
1581.915075820601
 20
416.4951832140909
  0
LWPOLYLINE
  5
5DA4
330
1F
100
AcDbEntity
  8
nášlap_vrstvy
100
AcDbPolyline
 90
        4
 70
     1
 43
0.0
 10
1581.34137528369
 20
409.8813360852732
 10
1569.52050892877
 20
409.8813360852732
 10
1569.52050892877
 20
408.3813360852732
 10
1581.34137528369
 20
408.3813360852732
  0
HATCH
  5
5DA5
330
1F
100
AcDbEntity
  8
nášlap_vrstvy
100
AcDbHatch
 10
0.0
 20
0.0
 30
0.0
210
0.0
220
0.0
230
1.0
  2
SOLID
 70
     1
 71
     0
 91
        1
 92
        7
 72
     0
 73
     1
 93
        4
 10
1581.34137528369
 20
409.8813360852732
 10
1569.520508928774
 20
409.8813360852732
 10
1569.52050892877
 20
408.3813360852732
 10
1581.34137528369
 20
408.3813360852732
 97
        0
 75
     0
 76
     1
 47
0.1901250437635136
 98
        1
 10
1574.199406307944
 20
409.4729303097342
  0
LWPOLYLINE
  5
5DA6
330
1F
100
AcDbEntity
  8
nášlap_vrstvy
100
AcDbPolyline
 90
        2
 70
     0
 43
0.0
 10
1585.257653170738
 20
415.2592264787531
 10
1582.787547713604
 20
416.4951832140909
  0
LWPOLYLINE
  5
5DA7
330
1F
100
AcDbEntity
  8
nášlap_vrstvy
100
AcDbPolyline
 90
        4
 70
     1
 43
0.0
 10
1604.983107993521
 20
409.8813360852732
 10
1593.162241638605
 20
409.8813360852732
 10
1593.162241638605
 20
408.3813360852732
 10
1604.983107993521
 20
408.3813360852732
  0
HATCH
  5
5DA8
330
1F
100
AcDbEntity
  8
nášlap_vrstvy
100
AcDbHatch
 10
0.0
 20
0.0
 30
0.0
210
0.0
220
0.0
230
1.0
  2
SOLID
 70
     1
 71
     0
 91
        1
 92
        7
 72
     0
 73
     1
 93
        4
 10
1604.983107993525
 20
409.8813360852732
 10
1593.162241638605
 20
409.8813360852732
 10
1593.162241638605
 20
408.3813360852732
 10
1604.983107993525
 20
408.3813360852732
 97
        0
 75
     0
 76
     1
 47
0.1901250437635136
 98
        1
 10
1597.841139017775
 20
409.4729303097342
  0
LWPOLYLINE
  5
5DA9
330
1F
100
AcDbEntity
  8
nášlap_vrstvy
100
AcDbPolyline
 90
        4
 70
     1
 43
0.0
 10
1628.62484070336
 20
409.8813360852732
 10
1616.803974348441
 20
409.8813360852732
 10
1616.803974348441
 20
408.3813360852732
 10
1628.62484070336
 20
408.3813360852732
  0
HATCH
  5
5DAA
330
1F
100
AcDbEntity
  8
nášlap_vrstvy
100
AcDbHatch
 10
0.0
 20
0.0
 30
0.0
210
0.0
220
0.0
230
1.0
  2
SOLID
 70
     1
 71
     0
 91
        1
 92
        7
 72
     0
 73
     1
 93
        4
 10
1628.62484070336
 20
409.8813360852732
 10
1616.803974348444
 20
409.8813360852732
 10
1616.803974348441
 20
408.3813360852732
 10
1628.62484070336
 20
408.3813360852732
 97
        0
 75
     0
 76
     1
 47
0.1901250437635136
 98
        1
 10
1621.482871727614
 20
409.4729303097342
  0
INSERT
  5
5DAB
330
1F
100
AcDbEntity
  8
POPIS
100
AcDbBlockReference
  2
E_PUNKT
 10
1644.648031811528
 20
307.1989968626517
 30
0.0
 50
270.0
  0
INSERT
  5
5DAC
330
1F
100
AcDbEntity
  8
POPIS
100
AcDbBlockReference
  2
E_PUNKT
 10
1595.559516347243
 20
371.0740798215852
 30
0.0
 50
270.0
  0
LWPOLYLINE
  5
5DAD
330
1F
100
AcDbEntity
  8
nášlap_vrstvy
100
AcDbPolyline
 90
        3
 70
     0
 43
0.0
 10
1436.822729323649
 20
427.2592264787531
 42
-0.00139912452586
 10
1437.716218346039
 20
431.6630529607505
 42
-0.0065712046643719
 10
1438.066644115803
 20
433.2592264787531
  0
LINE
  5
5DAE
330
1F
100
AcDbEntity
  8
nášlap_vrstvy
100
AcDbLine
 10
1498.915075820602
 20
427.2592264787531
 30
0.0
 11
1498.915075820602
 21
421.2592264787531
 31
0.0
  0
LINE
  5
5DAF
330
1F
100
AcDbEntity
  8
nášlap_vrstvy
100
AcDbLine
 10
1500.169727071876
 20
426.4383114146653
 30
0.0
 11
1500.169727071876
 21
422.0939237021744
 31
0.0
  0
LINE
  5
5DB0
330
1F
100
AcDbEntity
  8
nášlap_vrstvy
100
AcDbLine
 10
1498.915075820598
 20
421.2592264787531
 30
0.0
 11
1506.915075820602
 21
421.2592264787531
 31
0.0
  0
LINE
  5
5DB1
330
1F
100
AcDbEntity
  8
nášlap_vrstvy
100
AcDbLine
 10
1500.169727071876
 20
422.0939237021744
 30
0.0
 11
1507.826185086345
 21
422.0939237021744
 31
0.0
  0
LINE
  5
5DB2
330
1F
100
AcDbEntity
  8
nášlap_vrstvy
100
AcDbLine
 10
1506.915075820602
 20
427.2592264787531
 30
0.0
 11
1498.915075820598
 21
427.2592264787531
 31
0.0
  0
LINE
  5
5DB3
330
1F
100
AcDbEntity
  8
nášlap_vrstvy
100
AcDbLine
 10
1506.915075820602
 20
433.2592264787531
 30
0.0
 11
1506.915075820602
 21
427.2592264787531
 31
0.0
  0
LINE
  5
5DB4
330
1F
100
AcDbEntity
  8
nášlap_vrstvy
100
AcDbLine
 10
1507.826185086338
 20
426.4383114146653
 30
0.0
 11
1500.169727071876
 21
426.4383114146653
 31
0.0
  0
LINE
  5
5DB5
330
1F
100
AcDbEntity
  8
nášlap_vrstvy
100
AcDbLine
 10
1507.826185086342
 20
433.2592264787531
 30
0.0
 11
1507.826185086338
 21
426.4383114146653
 31
0.0
  0
LINE
  5
5DB6
330
1F
100
AcDbEntity
  8
nášlap_vrstvy
100
AcDbLine
 10
1425.169727071876
 20
426.4383114146653
 30
0.0
 11
1425.169727071876
 21
422.0939237021744
 31
0.0
  0
LINE
  5
5DB7
330
1F
100
AcDbEntity
  8
nášlap_vrstvy
100
AcDbLine
 10
1423.915075820602
 20
427.2592264787531
 30
0.0
 11
1423.915075820602
 21
421.2592264787531
 31
0.0
  0
LINE
  5
5DB8
330
1F
100
AcDbEntity
  8
nášlap_vrstvy
100
AcDbLine
 10
1425.169727071876
 20
422.0939237021744
 30
0.0
 11
1432.826185086345
 21
422.0939237021744
 31
0.0
  0
LINE
  5
5DB9
330
1F
100
AcDbEntity
  8
nášlap_vrstvy
100
AcDbLine
 10
1423.915075820598
 20
421.2592264787531
 30
0.0
 11
1431.915075820602
 21
421.2592264787531
 31
0.0
  0
LINE
  5
5DBA
330
1F
100
AcDbEntity
  8
nášlap_vrstvy
100
AcDbLine
 10
1432.826185086342
 20
433.2592264787531
 30
0.0
 11
1432.826185086338
 21
426.4383114146653
 31
0.0
  0
LINE
  5
5DBB
330
1F
100
AcDbEntity
  8
nášlap_vrstvy
100
AcDbLine
 10
1432.826185086338
 20
426.4383114146653
 30
0.0
 11
1425.169727071876
 21
426.4383114146653
 31
0.0
  0
LWPOLYLINE
  5
5DBC
330
1F
100
AcDbEntity
  8
nášlap_vrstvy
100
AcDbPolyline
 90
        3
 70
     0
 43
0.0
 10
1427.879894210557
 20
427.2592264787531
 42
0.00139912452586
 10
1426.986405188167
 20
431.6630529607505
 42
0.0065712046643719
 10
1426.635979418403
 20
433.2592264787531
  0
LINE
  5
5DBD
330
1F
100
AcDbEntity
  8
nášlap_vrstvy
100
AcDbLine
 10
1431.915075820602
 20
433.2592264787531
 30
0.0
 11
1431.915075820602
 21
427.2592264787531
 31
0.0
  0
LINE
  5
5DBE
330
1F
100
AcDbEntity
  8
nášlap_vrstvy
100
AcDbLine
 10
1431.915075820602
 20
427.2592264787531
 30
0.0
 11
1423.915075820598
 21
427.2592264787531
 31
0.0
  0
TEXT
  5
5DBF
330
1F
100
AcDbEntity
  8
POPIS
100
AcDbText
 10
1423.365893818816
 20
510.7664900982986
 30
0.0
 40
25.0
  1
05
 41
0.85
  7
SIMPLEX7
100
AcDbText
  0
TEXT
  5
5DC0
330
1F
100
AcDbEntity
  8
POPIS
100
AcDbText
 10
1503.58694356808
 20
510.7664900982986
 30
0.0
 40
25.0
  1
06
 41
0.85
  7
SIMPLEX7
100
AcDbText
  0
LINE
  5
5DC1
330
1F
100
AcDbEntity
  8
nášlap_vrstvy
100
AcDbLine
 10
1648.915075820601
 20
427.2592264787531
 30
0.0
 11
1648.915075820601
 21
421.2592264787531
 31
0.0
  0
LINE
  5
5DC2
330
1F
100
AcDbEntity
  8
nášlap_vrstvy
100
AcDbLine
 10
1650.169727071876
 20
426.4383114146653
 30
0.0
 11
1650.169727071876
 21
422.0939237021744
 31
0.0
  0
LINE
  5
5DC3
330
1F
100
AcDbEntity
  8
nášlap_vrstvy
100
AcDbLine
 10
1648.915075820598
 20
421.2592264787531
 30
0.0
 11
1656.915075820602
 21
421.2592264787531
 31
0.0
  0
LINE
  5
5DC4
330
1F
100
AcDbEntity
  8
nášlap_vrstvy
100
AcDbLine
 10
1650.169727071876
 20
422.0939237021744
 30
0.0
 11
1657.826185086346
 21
422.0939237021744
 31
0.0
  0
LINE
  5
5DC5
330
1F
100
AcDbEntity
  8
nášlap_vrstvy
100
AcDbLine
 10
1656.915075820602
 20
427.2592264787531
 30
0.0
 11
1648.915075820598
 21
427.2592264787531
 31
0.0
  0
LINE
  5
5DC6
330
1F
100
AcDbEntity
  8
nášlap_vrstvy
100
AcDbLine
 10
1656.915075820602
 20
433.2592264787531
 30
0.0
 11
1656.915075820602
 21
427.2592264787531
 31
0.0
  0
LINE
  5
5DC7
330
1F
100
AcDbEntity
  8
nášlap_vrstvy
100
AcDbLine
 10
1657.826185086338
 20
426.4383114146653
 30
0.0
 11
1650.169727071876
 21
426.4383114146653
 31
0.0
  0
LINE
  5
5DC8
330
1F
100
AcDbEntity
  8
nášlap_vrstvy
100
AcDbLine
 10
1657.826185086342
 20
433.2592264787531
 30
0.0
 11
1657.826185086338
 21
426.4383114146653
 31
0.0
  0
TEXT
  5
5DC9
330
1F
100
AcDbEntity
  8
POPIS
100
AcDbText
 10
1578.690913746312
 20
510.7664900982986
 30
0.0
 40
25.0
  1
07
 41
0.85
  7
SIMPLEX7
100
AcDbText
  0
LINE
  5
5DCA
330
1F
100
AcDbEntity
  8
nášlap_vrstvy
100
AcDbLine
 10
1582.826185086338
 20
426.4383114146653
 30
0.0
 11
1575.169727071876
 21
426.4383114146653
 31
0.0
  0
LINE
  5
5DCB
330
1F
100
AcDbEntity
  8
nášlap_vrstvy
100
AcDbLine
 10
1575.169727071876
 20
422.0939237021744
 30
0.0
 11
1582.826185086346
 21
422.0939237021744
 31
0.0
  0
LINE
  5
5DCC
330
1F
100
AcDbEntity
  8
nášlap_vrstvy
100
AcDbLine
 10
1573.915075820598
 20
421.2592264787531
 30
0.0
 11
1581.915075820601
 21
421.2592264787531
 31
0.0
  0
LINE
  5
5DCD
330
1F
100
AcDbEntity
  8
nášlap_vrstvy
100
AcDbLine
 10
1581.915075820601
 20
427.2592264787531
 30
0.0
 11
1573.915075820598
 21
427.2592264787531
 31
0.0
  0
LINE
  5
5DCE
330
1F
100
AcDbEntity
  8
nášlap_vrstvy
100
AcDbLine
 10
1575.169727071876
 20
426.4383114146653
 30
0.0
 11
1575.169727071876
 21
422.0939237021744
 31
0.0
  0
LINE
  5
5DCF
330
1F
100
AcDbEntity
  8
nášlap_vrstvy
100
AcDbLine
 10
1573.915075820601
 20
427.2592264787531
 30
0.0
 11
1573.915075820601
 21
421.2592264787531
 31
0.0
  0
LWPOLYLINE
  5
5DD0
330
1F
100
AcDbEntity
  8
nášlap_vrstvy
100
AcDbPolyline
 90
        3
 70
     0
 43
0.0
 10
1577.879894210557
 20
427.2592264787531
 42
0.00139912452586
 10
1576.986405188167
 20
431.6630529607505
 42
0.0065712046643719
 10
1576.635979418403
 20
433.2592264787531
  0
LINE
  5
5DD1
330
1F
100
AcDbEntity
  8
nášlap_vrstvy
100
AcDbLine
 10
1582.826185086342
 20
433.2592264787531
 30
0.0
 11
1582.826185086338
 21
426.4383114146653
 31
0.0
  0
LWPOLYLINE
  5
5DD2
330
1F
100
AcDbEntity
  8
nášlap_vrstvy
100
AcDbPolyline
 90
        3
 70
     0
 43
0.0
 10
1586.822729323649
 20
427.2592264787531
 42
-0.00139912452586
 10
1587.716218346039
 20
431.6630529607505
 42
-0.0065712046643719
 10
1588.066644115803
 20
433.2592264787531
  0
LINE
  5
5DD3
330
1F
100
AcDbEntity
  8
nášlap_vrstvy
100
AcDbLine
 10
1581.915075820601
 20
433.2592264787531
 30
0.0
 11
1581.915075820601
 21
427.2592264787531
 31
0.0
  0
TEXT
  5
5DD4
330
1F
100
AcDbEntity
  8
POPIS
100
AcDbText
 10
1627.779429210597
 20
510.7664900982986
 30
0.0
 40
25.0
  1
09
 41
0.85
  7
SIMPLEX7
100
AcDbText
  0
LWPOLYLINE
  5
5DD5
330
1F
100
AcDbEntity
  8
nášlap_vrstvy
100
AcDbPolyline
 90
        4
 70
     0
 43
0.0
 10
1766.120101517714
 20
415.2592264787531
 42
-0.0186324019486548
 10
1769.488470889821
 20
426.9543380969776
 42
-0.0582629403736403
 10
1771.147970757902
 20
430.5341722959133
 42
-0.0146402521923566
 10
1772.932378739486
 20
433.2592264787531
  0
LWPOLYLINE
  5
5DD6
330
1F
100
AcDbEntity
  8
nášlap_vrstvy
100
AcDbPolyline
 90
        5
 70
     0
 43
0.0
 10
1756.214497643818
 20
415.2592264787531
 42
-0.0133579731639958
 10
1756.601308132846
 20
417.7770287663084
 42
-0.0072443097182286
 10
1758.721305080304
 20
428.5879196612154
 42
-0.0219777111230329
 10
1759.627417582287
 20
432.1060329170509
 42
-0.0092752982622242
 10
1760.002644544234
 20
433.2592264787531
  0
LWPOLYLINE
  5
5DD7
330
1F
100
AcDbEntity
  8
nášlap_vrstvy
100
AcDbPolyline
 90
        6
 70
     0
 43
0.0
 10
1774.930562866557
 20
415.2592264787531
 42
-0.0121757200102759
 10
1776.300552580218
 20
419.9311438112204
 42
-0.0457786284636091
 10
1777.508575469834
 20
422.7797541940967
 42
-0.0295006114745606
 10
1779.924635924133
 20
426.7066534074988
 42
-0.0258674098621065
 10
1783.157311238098
 20
430.8524334862527
 42
-0.0093759062953949
 10
1785.323123417755
 20
433.2592264787531
  0
LWPOLYLINE
  5
5DD8
330
1F
100
AcDbEntity
  8
nášlap_vrstvy
100
AcDbPolyline
 90
        8
 70
     0
 43
0.0
 10
1784.303366874359
 20
415.2592264787531
 42
-0.0217273703039138
 10
1786.501037134869
 20
420.2949168162308
 42
-0.0882970623535771
 10
1788.138259054962
 20
422.5352858670308
 42
-0.0171636441953577
 10
1790.95162311682
 20
425.0492032222759
 42
-0.0157521173632038
 10
1794.190477953856
 20
427.5806992747825
 42
-0.0073640874174249
 10
1798.824127310178
 20
430.8691007005186
 42
-0.0194185739168057
 10
1800.646170629854
 20
432.0206696997997
 42
-0.005261063072611
 10
1801.182785271041
 20
432.3238506794918
 42
-0.005261063072611
  0
LWPOLYLINE
  5
5DD9
330
1F
100
AcDbEntity
  8
nášlap_vrstvy
100
AcDbPolyline
 90
        3
 70
     0
 43
0.0
 10
1797.053894638466
 20
415.2592264787531
 10
1783.261846711827
 20
422.1602980422399
 10
1775.094742062702
 20
430.3415997433335
  0
LWPOLYLINE
  5
5DDA
330
1F
100
AcDbEntity
  8
nášlap_vrstvy
100
AcDbPolyline
 90
        3
 70
     0
 43
0.0
 10
1734.876324019977
 20
415.2592264787531
 42
-0.0327520985396081
 10
1735.579862281451
 20
420.9113204249665
 42
-0.0020140331156959
 10
1736.822729323649
 20
427.2592264787531
 42
-0.0001103000883317
  0
LWPOLYLINE
  5
5DDB
330
1F
100
AcDbEntity
  8
nášlap_vrstvy
100
AcDbPolyline
 90
        4
 70
     0
 43
0.0
 10
1745.970359269024
 20
415.2592264787531
 42
-0.0334776267545482
 10
1746.40763706373
 20
419.3062014074898
 42
-0.0091133963862869
 10
1748.885241388649
 20
431.9979311929496
 42
-0.007828075361276
 10
1749.176140523807
 20
433.2592264787531
  0
LWPOLYLINE
  5
5DDC
330
1F
100
AcDbEntity
  8
nášlap_vrstvy
100
AcDbPolyline
 90
        4
 70
     0
 43
0.0
 10
1779.637822193428
 20
415.2592264787531
 10
1760.728234274316
 20
423.9744250985244
 10
1743.950343703098
 20
426.6815693612157
 10
1732.826185086338
 20
427.1257071384257
  0
LINE
  5
5DDD
330
1F
100
AcDbEntity
  8
nášlap_vrstvy
100
AcDbLine
 10
1732.826185086346
 20
422.0939237021744
 30
0.0
 11
1732.826185086346
 21
415.2592264787531
 31
0.0
  0
LINE
  5
5DDE
330
1F
100
AcDbEntity
  8
nášlap_vrstvy
100
AcDbLine
 10
1731.915075820602
 20
421.2592264787531
 30
0.0
 11
1731.915075820602
 21
415.2592264787531
 31
0.0
  0
LWPOLYLINE
  5
5DDF
330
1F
100
AcDbEntity
  8
nášlap_vrstvy
100
AcDbPolyline
 90
        3
 70
     0
 43
0.0
 10
1729.826299514229
 20
415.2592264787531
 42
0.0327520985396081
 10
1729.122761252755
 20
420.9113204249665
 42
0.0001103000883317
 10
1729.05601855
 20
421.2592264787531
 42
0.0001103000883317
  0
POLYLINE
  5
5DE0
330
1F
100
AcDbEntity
  8
nášlap_vrstvy
100
AcDb2dPolyline
 66
     1
 10
0.0
 20
0.0
 30
0.0
  0
VERTEX
  5
5DE1
330
5DE0
100
AcDbEntity
  8
nášlap_vrstvy
100
AcDbVertex
100
AcDb2dVertex
 10
1792.655418261675
 20
415.2592264787531
 30
0.0
 42
-0.0502247168465557
  0
VERTEX
  5
5DE2
330
5DE0
100
AcDbEntity
  8
nášlap_vrstvy
100
AcDbVertex
100
AcDb2dVertex
 10
1794.25446543784
 20
417.2666971514758
 30
0.0
 42
-0.0274923553235744
  0
VERTEX
  5
5DE3
330
5DE0
100
AcDbEntity
  8
nášlap_vrstvy
100
AcDbVertex
100
AcDb2dVertex
 10
1796.851771168393
 20
419.651772474614
 30
0.0
 42
-0.0178170165843964
  0
VERTEX
  5
5DE4
330
5DE0
100
AcDbEntity
  8
nášlap_vrstvy
100
AcDbVertex
100
AcDb2dVertex
 10
1798.956529681487
 20
421.2592264787531
 30
0.0
 42
-0.0272796991712396
  0
SEQEND
  5
5DE5
330
5DE0
100
AcDbEntity
  8
nášlap_vrstvy
  0
TEXT
  5
5DE6
330
1F
100
AcDbEntity
  8
POPIS
100
AcDbText
 10
1856.937959905292
 20
405.897745574201
 30
0.0
 40
25.0
  1
05
 41
0.85
  7
SIMPLEX7
100
AcDbText
  0
LWPOLYLINE
  5
5DE7
330
1F
100
AcDbEntity
  8
nášlap_vrstvy
100
AcDbPolyline
 90
        5
 70
     0
 43
0.0
 10
1708.488125890388
 20
415.2592264787531
 42
0.0133579731639958
 10
1708.10131540136
 20
417.7770287663084
 42
0.0072443097182286
 10
1705.981318453902
 20
428.5879196612154
 42
0.0219777111230329
 10
1705.075205951918
 20
432.1060329170509
 42
0.0092752982622242
 10
1704.699978989971
 20
433.2592264787531
  0
LWPOLYLINE
  5
5DE8
330
1F
100
AcDbEntity
  8
nášlap_vrstvy
100
AcDbPolyline
 90
        4
 70
     0
 43
0.0
 10
1718.732264265182
 20
415.2592264787531
 42
0.0334776267545482
 10
1718.294986470475
 20
419.3062014074898
 42
0.0091133963862869
 10
1715.817382145557
 20
431.9979311929496
 42
0.007828075361276
 10
1715.526483010399
 20
433.2592264787531
  0
LWPOLYLINE
  5
5DE9
330
1F
100
AcDbEntity
  8
STAVBA OBRYS
100
AcDbPolyline
 90
        4
 70
     0
 43
0.0
 10
1761.52986721936
 20
362.6236702723872
 42
0.0334776267545482
 10
1761.092589424654
 20
366.670645201124
 42
0.0091133963862869
 10
1758.614985099735
 20
379.3623749865837
 42
0.007828075361276
 10
1758.324085964578
 20
380.6236702723872
  0
LWPOLYLINE
  5
5DEA
330
1F
100
AcDbEntity
  8
STAVBA OBRYS
100
AcDbPolyline
 90
        3
 70
     0
 43
0.0
 10
1772.982405082328
 20
362.6236702723872
 42
0.0052038508054843
 10
1769.784008142346
 20
379.0274967543846
 42
0.0065712046643719
 10
1769.433582372581
 20
380.6236702723872
  0
LWPOLYLINE
  5
5DEB
330
1F
100
AcDbEntity
  8
STAVBA OBRYS
100
AcDbPolyline
 90
        3
 70
     0
 43
0.0
 10
1768.877623541535
 20
362.1228398416387
 10
1788.873875973528
 20
371.3388688921586
 10
1803.024548835622
 20
373.6221066263199
  0
LWPOLYLINE
  5
5DEC
330
1F
100
AcDbEntity
  8
STAVBA OBRYS
100
AcDbPolyline
 90
        2
 70
     0
 43
0.0
 10
1799.02463239801
 20
362.1228398416387
 10
1804.556552609107
 20
364.6724344491294
  0
LWPOLYLINE
  5
5DED
330
1F
100
AcDbEntity
  8
STAVBA OBRYS
100
AcDbPolyline
 90
        4
 70
     0
 43
0.0
 10
1783.482008730131
 20
362.6236702723872
 42
0.0186324019486548
 10
1780.113639358024
 20
374.3187818906117
 42
0.0582629403736403
 10
1778.454139489943
 20
377.8986160895474
 42
0.0146402521923566
 10
1776.669731508359
 20
380.6236702723872
  0
LWPOLYLINE
  5
5DEE
330
1F
100
AcDbEntity
  8
STAVBA OBRYS
100
AcDbPolyline
 90
        5
 70
     0
 43
0.0
 10
1793.387612604027
 20
362.6236702723872
 42
0.0133579731639958
 10
1793.000802114999
 20
365.1414725599424
 42
0.0072443097182286
 10
1790.880805167541
 20
375.9523634548495
 42
0.0219777111230329
 10
1789.974692665557
 20
379.470476710685
 42
0.0092752982622242
 10
1789.59946570361
 20
380.6236702723872
  0
LWPOLYLINE
  5
5DEF
330
1F
100
AcDbEntity
  8
STAVBA OBRYS
100
AcDbPolyline
 90
        4
 70
     0
 43
0.0
 10
1803.63175097882
 20
362.6236702723872
 42
0.0334776267545482
 10
1803.194473184114
 20
366.670645201124
 42
0.0091133963862869
 10
1800.716868859196
 20
379.3623749865837
 42
0.007828075361276
 10
1800.425969724038
 20
380.6236702723872
  0
LWPOLYLINE
  5
5DF0
330
1F
100
AcDbEntity
  8
STAVBA OBRYS
100
AcDbPolyline
 90
        5
 70
     0
 43
0.0
 10
1751.285728844567
 20
362.6236702723872
 42
0.0133579731639958
 10
1750.898918355539
 20
365.1414725599424
 42
0.0072443097182286
 10
1748.778921408081
 20
375.9523634548495
 42
0.0219777111230329
 10
1747.872808906097
 20
379.470476710685
 42
0.0092752982622242
 10
1747.49758194415
 20
380.6236702723872
  0
LWPOLYLINE
  5
5DF1
330
1F
100
AcDbEntity
  8
STAVBA OBRYS
100
AcDbPolyline
 90
        4
 70
     0
 43
0.0
 10
1741.38012497067
 20
362.6236702723872
 42
0.0186324019486548
 10
1738.011755598563
 20
374.3187818906117
 42
0.0582629403736403
 10
1736.352255730483
 20
377.8986160895474
 42
0.0146402521923566
 10
1734.567847748898
 20
380.6236702723872
  0
LWPOLYLINE
  5
5DF2
330
1F
100
AcDbEntity
  8
izolace
100
AcDbPolyline
 90
        4
 70
     1
 43
0.0
 10
1763.950571206064
 20
383.6236702723867
 10
1740.308838496228
 20
383.6236702723867
 10
1740.308838496228
 20
380.6236702723868
 10
1763.950571206064
 20
380.6236702723868
  0
HATCH
  5
5DF3
330
1F
100
AcDbEntity
  8
izolace
100
AcDbHatch
 10
0.0
 20
0.0
 30
0.0
210
0.0
220
0.0
230
1.0
  2
SOLID
 70
     1
 71
     0
 91
        1
 92
        7
 72
     0
 73
     1
 93
        4
 10
1763.950571206067
 20
383.6236702723867
 10
1740.308838496232
 20
383.6236702723867
 10
1740.308838496228
 20
380.6236702723868
 10
1763.950571206067
 20
380.6236702723868
 97
        0
 75
     0
 76
     1
 47
0.1901250437635136
 98
        1
 10
1749.666633254572
 20
382.8068587213069
  0
LWPOLYLINE
  5
5DF4
330
1F
100
AcDbEntity
  8
STAVBA OBRYS
100
AcDbPolyline
 90
        4
 70
     0
 43
0.0
 10
1726.775739782075
 20
362.1228398416387
 10
1746.771992214068
 20
371.3388688921586
 10
1763.549882785286
 20
374.0460131548497
 10
1766.813494032991
 20
374.1763145192198
  0
LWPOLYLINE
  5
5DF5
330
1F
100
AcDbEntity
  8
STAVBA OBRYS
100
AcDbPolyline
 90
        6
 70
     0
 43
0.0
 10
1732.569663621827
 20
362.6236702723872
 42
0.0121757200102759
 10
1731.199673908166
 20
367.2955876048545
 42
0.0457786284636091
 10
1729.99165101855
 20
370.1441979877309
 42
0.0295006114745606
 10
1727.575590564251
 20
374.0710972011329
 42
0.0258674098621065
 10
1724.342915250287
 20
378.2168772798868
 42
0.0093759062953949
 10
1722.17710307063
 20
380.6236702723872
  0
LWPOLYLINE
  5
5DF6
330
1F
100
AcDbEntity
  8
STAVBA OBRYS
100
AcDbPolyline
 90
        3
 70
     0
 43
0.0
 10
1710.446331849919
 20
362.6236702723872
 10
1724.238379776558
 20
369.524741835874
 10
1732.405484425683
 20
377.7060435369676
  0
LWPOLYLINE
  5
5DF7
330
1F
100
AcDbEntity
  8
STAVBA OBRYS
100
AcDbPolyline
 90
        8
 70
     0
 43
0.0
 10
1723.196859614025
 20
362.6236702723872
 42
0.0217273703039143
 10
1720.999189353515
 20
367.6593606098649
 42
0.0882970623535771
 10
1719.361967433422
 20
369.8997296606648
 42
0.0171636441953577
 10
1716.548603371564
 20
372.4136470159101
 42
0.0157521173632038
 10
1713.309748534528
 20
374.9451430684166
 42
0.0073640874174249
 10
1708.676099178207
 20
378.2335444941527
 42
0.0194185739168057
 10
1706.85405585853
 20
379.3851134934338
 42
0.0229547400386702
 10
1704.468597794516
 20
380.6236702723872
  0
HATCH
  5
5DF8
330
1F
100
AcDbEntity
  8
nášlap_vrstvy
100
AcDbHatch
 10
0.0
 20
0.0
 30
0.0
210
0.0
220
0.0
230
1.0
  2
SOLID
 70
     1
 71
     0
 91
        1
 92
        7
 72
     0
 73
     1
 93
        4
 10
1770.475236962371
 20
409.8813360852732
 10
1758.654370607455
 20
409.8813360852732
 10
1758.654370607452
 20
408.3813360852732
 10
1770.475236962371
 20
408.3813360852732
 97
        0
 75
     0
 76
     1
 47
0.1901250437635136
 98
        1
 10
1763.333267986625
 20
409.4729303097342
  0
LWPOLYLINE
  5
5DF9
330
1F
100
AcDbEntity
  8
nášlap_vrstvy
100
AcDbPolyline
 90
        2
 70
     0
 43
0.0
 10
1735.257653170738
 20
415.2592264787531
 10
1732.787547713604
 20
416.4951832140909
  0
LWPOLYLINE
  5
5DFA
330
1F
100
AcDbEntity
  8
nášlap_vrstvy
100
AcDbPolyline
 90
        2
 70
     0
 43
0.0
 10
1729.444970363467
 20
415.2592264787531
 10
1731.915075820602
 20
416.4951832140909
  0
LWPOLYLINE
  5
5DFB
330
1F
100
AcDbEntity
  8
nášlap_vrstvy
100
AcDbPolyline
 90
        4
 70
     1
 43
0.0
 10
1746.833504252532
 20
409.8813360852732
 10
1735.012637897617
 20
409.8813360852732
 10
1735.012637897617
 20
408.3813360852732
 10
1746.833504252532
 20
408.3813360852732
  0
HATCH
  5
5DFC
330
1F
100
AcDbEntity
  8
nášlap_vrstvy
100
AcDbHatch
 10
0.0
 20
0.0
 30
0.0
210
0.0
220
0.0
230
1.0
  2
SOLID
 70
     1
 71
     0
 91
        1
 92
        7
 72
     0
 73
     1
 93
        4
 10
1746.833504252536
 20
409.8813360852732
 10
1735.012637897617
 20
409.8813360852732
 10
1735.012637897617
 20
408.3813360852732
 10
1746.833504252536
 20
408.3813360852732
 97
        0
 75
     0
 76
     1
 47
0.1901250437635136
 98
        1
 10
1739.691535276786
 20
409.4729303097342
  0
HATCH
  5
5DFD
330
1F
100
AcDbEntity
  8
nášlap_vrstvy
100
AcDbHatch
 10
0.0
 20
0.0
 30
0.0
210
0.0
220
0.0
230
1.0
  2
SOLID
 70
     1
 71
     0
 91
        1
 92
        7
 72
     0
 73
     1
 93
        4
 10
1794.116969672206
 20
409.8813360852732
 10
1782.296103317287
 20
409.8813360852732
 10
1782.296103317287
 20
408.3813360852732
 10
1794.116969672206
 20
408.3813360852732
 97
        0
 75
     0
 76
     1
 47
0.1901250437635136
 98
        1
 10
1786.975000696457
 20
409.4729303097342
  0
LINE
  5
5DFE
330
1F
100
AcDbEntity
  8
SPOJOVACÍ
  6
DASHED
100
AcDbLine
 10
1726.780763996678
 20
408.381336085273
 30
0.0
 11
1726.780763996678
 21
407.2054078440762
 31
0.0
  0
LWPOLYLINE
  5
5DFF
330
1F
100
AcDbEntity
  8
nášlap_vrstvy
100
AcDbPolyline
 90
        4
 70
     1
 43
0.0
 10
1723.191771542701
 20
409.8813360852732
 10
1711.370905187782
 20
409.8813360852732
 10
1711.370905187782
 20
408.3813360852732
 10
1723.191771542701
 20
408.3813360852732
  0
HATCH
  5
5E00
330
1F
100
AcDbEntity
  8
nášlap_vrstvy
100
AcDbHatch
 10
0.0
 20
0.0
 30
0.0
210
0.0
220
0.0
230
1.0
  2
SOLID
 70
     1
 71
     0
 91
        1
 92
        7
 72
     0
 73
     1
 93
        4
 10
1723.191771542701
 20
409.8813360852732
 10
1711.370905187785
 20
409.8813360852732
 10
1711.370905187782
 20
408.3813360852732
 10
1723.191771542701
 20
408.3813360852732
 97
        0
 75
     0
 76
     1
 47
0.1901250437635136
 98
        1
 10
1716.049802566955
 20
409.4729303097342
  0
LINE
  5
5E01
330
1F
100
AcDbEntity
  8
SPOJOVACÍ
  6
DASHED
100
AcDbLine
 10
1718.107153756835
 20
406.4761500203315
 30
0.0
 11
1719.195571059187
 21
405.4287534707075
 31
0.0
  0
LINE
  5
5E02
330
1F
100
AcDbEntity
  8
SPOJOVACÍ
  6
DASHED
100
AcDbLine
 10
1716.784462374955
 20
407.2054078440762
 30
0.0
 11
1718.107153756835
 21
406.4761500203315
 31
0.0
  0
LINE
  5
5E03
330
1F
100
AcDbEntity
  8
SPOJOVACÍ
  6
DASHED
100
AcDbLine
 10
1724.867373781512
 20
405.9756968387175
 30
0.0
 11
1726.079764914233
 21
406.8754186789504
 31
0.0
  0
LINE
  5
5E04
330
1F
100
AcDbEntity
  8
SPOJOVACÍ
  6
DASHED
100
AcDbLine
 10
1719.800855051755
 20
400.2264714637769
 30
0.0
 11
1723.764371324156
 21
398.8937527905056
 31
0.0
  0
LINE
  5
5E05
330
1F
100
AcDbEntity
  8
SPOJOVACÍ
  6
DASHED
100
AcDbLine
 10
1719.430756703951
 20
400.4397793771042
 30
0.0
 11
1719.800855051755
 21
400.2264714637769
 31
0.0
  0
LINE
  5
5E06
330
1F
100
AcDbEntity
  8
SPOJOVACÍ
  6
DASHED
100
AcDbLine
 10
1719.430756703951
 20
400.4397793771042
 30
0.0
 11
1719.800855051755
 21
400.8107892949576
 31
0.0
  0
LINE
  5
5E07
330
1F
100
AcDbEntity
  8
SPOJOVACÍ
  6
DASHED
100
AcDbLine
 10
1719.800855051755
 20
400.8107892949576
 30
0.0
 11
1723.764371324156
 21
399.4780706219573
 31
0.0
  0
LINE
  5
5E08
330
1F
100
AcDbEntity
  8
SPOJOVACÍ
  6
DASHED
100
AcDbLine
 10
1720.427560992074
 20
402.2993258339368
 30
0.0
 11
1720.459921808215
 21
400.5891803717897
 31
0.0
  0
LINE
  5
5E09
330
1F
100
AcDbEntity
  8
SPOJOVACÍ
  6
DASHED
100
AcDbLine
 10
1720.395200175932
 20
402.6849209082667
 30
0.0
 11
1720.459921808215
 21
401.9137307596067
 31
0.0
  0
LINE
  5
5E0A
330
1F
100
AcDbEntity
  8
SPOJOVACÍ
  6
DASHED
100
AcDbLine
 10
1719.975876928918
 20
404.1361439779759
 30
0.0
 11
1720.395200175932
 21
402.6849209082667
 31
0.0
  0
LINE
  5
5E0B
330
1F
100
AcDbEntity
  8
SPOJOVACÍ
  6
DASHED
100
AcDbLine
 10
1719.195571059187
 20
405.4287534707075
 30
0.0
 11
1719.975876928918
 21
404.1361439779759
 31
0.0
  0
LINE
  5
5E0C
330
1F
100
AcDbEntity
  8
SPOJOVACÍ
  6
DASHED
100
AcDbLine
 10
1719.430756703951
 20
388.2396569170361
 30
0.0
 11
1719.800855051755
 21
388.0254374312501
 31
0.0
  0
LINE
  5
5E0D
330
1F
100
AcDbEntity
  8
SPOJOVACÍ
  6
DASHED
100
AcDbLine
 10
1719.430756703951
 20
388.2396569170361
 30
0.0
 11
1719.800855051755
 21
388.6097552627018
 31
0.0
  0
LINE
  5
5E0E
330
1F
100
AcDbEntity
  8
SPOJOVACÍ
  6
DASHED
100
AcDbLine
 10
1719.800855051755
 20
388.6097552627018
 30
0.0
 11
1723.764371324156
 21
387.2779481616182
 31
0.0
  0
LINE
  5
5E0F
330
1F
100
AcDbEntity
  8
SPOJOVACÍ
  6
DASHED
100
AcDbLine
 10
1720.459921808215
 20
390.8731892335274
 30
0.0
 11
1720.459921808215
 21
388.4046514995991
 31
0.0
  0
LINE
  5
5E10
330
1F
100
AcDbEntity
  8
SPOJOVACÍ
  6
DASHED
100
AcDbLine
 10
1719.800855051755
 20
391.0837624302914
 30
0.0
 11
1723.764371324156
 21
389.7510437570201
 31
0.0
  0
LINE
  5
5E11
330
1F
100
AcDbEntity
  8
SPOJOVACÍ
  6
DASHED
100
AcDbLine
 10
1719.430756703951
 20
391.2970703436187
 30
0.0
 11
1719.800855051755
 21
391.0837624302914
 31
0.0
  0
LINE
  5
5E12
330
1F
100
AcDbEntity
  8
SPOJOVACÍ
  6
DASHED
100
AcDbLine
 10
1719.430756703951
 20
391.2970703436187
 30
0.0
 11
1719.800855051755
 21
391.6680802614721
 31
0.0
  0
LINE
  5
5E13
330
1F
100
AcDbEntity
  8
SPOJOVACÍ
  6
DASHED
100
AcDbLine
 10
1719.800855051755
 20
391.6680802614721
 30
0.0
 11
1723.764371324156
 21
390.3353615884718
 31
0.0
  0
LINE
  5
5E14
330
1F
100
AcDbEntity
  8
SPOJOVACÍ
  6
DASHED
100
AcDbLine
 10
1720.459921808215
 20
393.9131023201446
 30
0.0
 11
1720.459921808215
 21
391.4427414415697
 31
0.0
  0
LINE
  5
5E15
330
1F
100
AcDbEntity
  8
SPOJOVACÍ
  6
DASHED
100
AcDbLine
 10
1719.800855051755
 20
394.1254986612841
 30
0.0
 11
1723.764371324156
 21
392.7936915604716
 31
0.0
  0
LINE
  5
5E16
330
1F
100
AcDbEntity
  8
SPOJOVACÍ
  6
DASHED
100
AcDbLine
 10
1719.430756703951
 20
394.3397181470702
 30
0.0
 11
1719.800855051755
 21
394.1254986612841
 31
0.0
  0
LINE
  5
5E17
330
1F
100
AcDbEntity
  8
SPOJOVACÍ
  6
DASHED
100
AcDbLine
 10
1719.430756703951
 20
394.3397181470702
 30
0.0
 11
1719.800855051755
 21
394.7098164927358
 31
0.0
  0
LINE
  5
5E18
330
1F
100
AcDbEntity
  8
SPOJOVACÍ
  6
DASHED
100
AcDbLine
 10
1719.800855051755
 20
394.7098164927358
 30
0.0
 11
1723.764371324156
 21
393.3780093916523
 31
0.0
  0
LINE
  5
5E19
330
1F
100
AcDbEntity
  8
SPOJOVACÍ
  6
DASHED
100
AcDbLine
 10
1720.459921808215
 20
396.9732504635615
 30
0.0
 11
1720.459921808215
 21
394.5047127296331
 31
0.0
  0
LINE
  5
5E1A
330
1F
100
AcDbEntity
  8
SPOJOVACÍ
  6
DASHED
100
AcDbLine
 10
1719.800855051755
 20
397.1838236603255
 30
0.0
 11
1723.764371324156
 21
395.8511049870542
 31
0.0
  0
LINE
  5
5E1B
330
1F
100
AcDbEntity
  8
SPOJOVACÍ
  6
DASHED
100
AcDbLine
 10
1719.430756703951
 20
397.3971315736528
 30
0.0
 11
1719.800855051755
 21
397.1838236603255
 31
0.0
  0
LINE
  5
5E1C
330
1F
100
AcDbEntity
  8
SPOJOVACÍ
  6
DASHED
100
AcDbLine
 10
1719.430756703951
 20
397.3971315736528
 30
0.0
 11
1719.800855051755
 21
397.7681414915061
 31
0.0
  0
LINE
  5
5E1D
330
1F
100
AcDbEntity
  8
SPOJOVACÍ
  6
DASHED
100
AcDbLine
 10
1719.800855051755
 20
397.7681414915061
 30
0.0
 11
1723.764371324156
 21
396.4354228185058
 31
0.0
  0
LINE
  5
5E1E
330
1F
100
AcDbEntity
  8
SPOJOVACÍ
  6
DASHED
100
AcDbLine
 10
1720.459921808215
 20
400.015898267013
 30
0.0
 11
1720.459921808215
 21
397.5473605330846
 31
0.0
  0
LINE
  5
5E1F
330
1F
100
AcDbEntity
  8
SPOJOVACÍ
  6
DASHED
100
AcDbLine
 10
1723.928454332927
 20
404.7924760194766
 30
0.0
 11
1724.867373781512
 21
405.9756968387175
 31
0.0
  0
LINE
  5
5E20
330
1F
100
AcDbEntity
  8
SPOJOVACÍ
  6
DASHED
100
AcDbLine
 10
1723.327728200762
 20
403.4068861539674
 30
0.0
 11
1723.928454332927
 21
404.7924760194766
 31
0.0
  0
LINE
  5
5E21
330
1F
100
AcDbEntity
  8
SPOJOVACÍ
  6
DASHED
100
AcDbLine
 10
1723.105304567696
 20
401.9137307596067
 30
0.0
 11
1723.327728200762
 21
403.4068861539674
 31
0.0
  0
LINE
  5
5E22
330
1F
100
AcDbEntity
  8
SPOJOVACÍ
  6
DASHED
100
AcDbLine
 10
1723.105304567696
 20
401.9137307596086
 30
0.0
 11
1723.105304567696
 21
399.699679545127
 31
0.0
  0
LINE
  5
5E23
330
1F
100
AcDbEntity
  8
SPOJOVACÍ
  6
DASHED
100
AcDbLine
 10
1724.134469667682
 20
399.2638511361712
 30
0.0
 11
1723.764371324156
 21
399.4780706219573
 31
0.0
  0
LINE
  5
5E24
330
1F
100
AcDbEntity
  8
SPOJOVACÍ
  6
DASHED
100
AcDbLine
 10
1724.134469667682
 20
399.2638511361712
 30
0.0
 11
1723.764371324156
 21
398.8937527905056
 31
0.0
  0
LINE
  5
5E25
330
1F
100
AcDbEntity
  8
SPOJOVACÍ
  6
DASHED
100
AcDbLine
 10
1723.105304567696
 20
399.1207342882537
 30
0.0
 11
1723.105304567696
 21
396.6521965543254
 31
0.0
  0
LINE
  5
5E26
330
1F
100
AcDbEntity
  8
SPOJOVACÍ
  6
DASHED
100
AcDbLine
 10
1724.134469667682
 20
396.2212033327198
 30
0.0
 11
1723.764371324156
 21
396.4354228185058
 31
0.0
  0
LINE
  5
5E27
330
1F
100
AcDbEntity
  8
SPOJOVACÍ
  6
DASHED
100
AcDbLine
 10
1724.134469667682
 20
396.2212033327198
 30
0.0
 11
1723.764371324156
 21
395.8511049870542
 31
0.0
  0
LINE
  5
5E28
330
1F
100
AcDbEntity
  8
SPOJOVACÍ
  6
DASHED
100
AcDbLine
 10
1723.105304567696
 20
396.0780864848022
 30
0.0
 11
1723.105304567696
 21
393.6095487508739
 31
0.0
  0
LINE
  5
5E29
330
1F
100
AcDbEntity
  8
SPOJOVACÍ
  6
DASHED
100
AcDbLine
 10
1724.134469667682
 20
393.1637899058662
 30
0.0
 11
1723.764371324156
 21
393.3780093916523
 31
0.0
  0
LINE
  5
5E2A
330
1F
100
AcDbEntity
  8
SPOJOVACÍ
  6
DASHED
100
AcDbLine
 10
1724.134469667682
 20
393.1637899058662
 30
0.0
 11
1723.764371324156
 21
392.7936915604716
 31
0.0
  0
LINE
  5
5E2B
330
1F
100
AcDbEntity
  8
SPOJOVACÍ
  6
DASHED
100
AcDbLine
 10
1723.105304567696
 20
393.0252309194222
 30
0.0
 11
1723.105304567696
 21
390.5475774628105
 31
0.0
  0
LINE
  5
5E2C
330
1F
100
AcDbEntity
  8
SPOJOVACÍ
  6
DASHED
100
AcDbLine
 10
1724.134469667682
 20
390.1211421026857
 30
0.0
 11
1723.764371324156
 21
390.3353615884718
 31
0.0
  0
LINE
  5
5E2D
330
1F
100
AcDbEntity
  8
SPOJOVACÍ
  6
DASHED
100
AcDbLine
 10
1724.134469667682
 20
390.1211421026857
 30
0.0
 11
1723.764371324156
 21
389.7510437570201
 31
0.0
  0
LINE
  5
5E2E
330
1F
100
AcDbEntity
  8
SPOJOVACÍ
  6
DASHED
100
AcDbLine
 10
1723.105304567696
 20
389.9780252547682
 30
0.0
 11
1723.105304567696
 21
387.5094875208399
 31
0.0
  0
LINE
  5
5E2F
330
1F
100
AcDbEntity
  8
SPOJOVACÍ
  6
DASHED
100
AcDbLine
 10
1724.134469667682
 20
387.0637286758321
 30
0.0
 11
1723.764371324156
 21
387.2779481616182
 31
0.0
  0
LINE
  5
5E30
330
1F
100
AcDbEntity
  8
SPOJOVACÍ
  6
DASHED
100
AcDbLine
 10
1719.430756703951
 20
388.2396569170361
 30
0.0
 11
1724.134469667682
 21
387.0637286758321
 31
0.0
  0
LINE
  5
5E31
330
1F
100
AcDbEntity
  8
SPOJOVACÍ
  6
DASHED
100
AcDbLine
 10
1719.430756703951
 20
391.2970703436187
 30
0.0
 11
1724.134469667682
 21
390.1211421026857
 31
0.0
  0
LINE
  5
5E32
330
1F
100
AcDbEntity
  8
SPOJOVACÍ
  6
DASHED
100
AcDbLine
 10
1719.430756703951
 20
394.3397181470702
 30
0.0
 11
1724.134469667682
 21
393.1637899058662
 31
0.0
  0
LINE
  5
5E33
330
1F
100
AcDbEntity
  8
SPOJOVACÍ
  6
DASHED
100
AcDbLine
 10
1719.430756703951
 20
397.3971315736528
 30
0.0
 11
1724.134469667682
 21
396.2212033327198
 31
0.0
  0
LINE
  5
5E34
330
1F
100
AcDbEntity
  8
SPOJOVACÍ
  6
DASHED
100
AcDbLine
 10
1719.430756703951
 20
400.4397793771042
 30
0.0
 11
1724.134469667682
 21
399.2638511361712
 31
0.0
  0
LINE
  5
5E35
330
1F
100
AcDbEntity
  8
SPOJOVACÍ
  6
DASHED
100
AcDbLine
 10
1716.784462374955
 20
408.381336085273
 30
0.0
 11
1716.784462374955
 21
407.2054078440762
 31
0.0
  0
LINE
  5
5E36
330
1F
100
AcDbEntity
  8
SPOJOVACÍ
  6
DASHED
100
AcDbLine
 10
1721.044239642069
 20
372.7411050146149
 30
0.0
 11
1721.32865019032
 21
370.4667321764666
 31
0.0
  0
LINE
  5
5E37
330
1F
100
AcDbEntity
  8
SPOJOVACÍ
  6
DASHED
100
AcDbLine
 10
1722.200113293802
 20
370.16864804085
 30
0.0
 11
1722.462646109547
 21
372.2707337181347
 31
0.0
  0
LINE
  5
5E38
330
1F
100
AcDbEntity
  8
SPOJOVACÍ
  6
DASHED
100
AcDbLine
 10
1721.782613185817
 20
366.8313819242814
 30
0.0
 11
1722.129922227323
 21
369.6107658055245
 31
0.0
  0
LINE
  5
5E39
330
1F
100
AcDbEntity
  8
SPOJOVACÍ
  6
DASHED
100
AcDbLine
 10
1721.404310690996
 20
369.8587134657302
 30
0.0
 11
1721.782613185817
 21
366.8313819242814
 31
0.0
  0
LINE
  5
5E3A
330
1F
100
AcDbEntity
  8
SPOJOVACÍ
  6
DASHED
100
AcDbLine
 10
1720.786264686729
 20
370.1431240169188
 30
0.0
 11
1721.156363030255
 21
369.92890453114
 31
0.0
  0
LINE
  5
5E3B
330
1F
100
AcDbEntity
  8
SPOJOVACÍ
  6
DASHED
100
AcDbLine
 10
1720.786264686729
 20
370.1431240169188
 30
0.0
 11
1721.156363030255
 21
370.5132223625844
 31
0.0
  0
LINE
  5
5E3C
330
1F
100
AcDbEntity
  8
SPOJOVACÍ
  6
DASHED
100
AcDbLine
 10
1722.897466085357
 20
369.8386588754603
 30
0.0
 11
1722.52736774183
 21
369.467648957607
 31
0.0
  0
LINE
  5
5E3D
330
1F
100
AcDbEntity
  8
SPOJOVACÍ
  6
DASHED
100
AcDbLine
 10
1722.897466085357
 20
369.8386588754603
 30
0.0
 11
1722.52736774183
 21
370.0519667890514
 31
0.0
  0
LINE
  5
5E3E
330
1F
100
AcDbEntity
  8
SPOJOVACÍ
  6
DASHED
100
AcDbLine
 10
1721.156363030255
 20
369.92890453114
 30
0.0
 11
1722.52736774183
 21
369.467648957607
 31
0.0
  0
LINE
  5
5E3F
330
1F
100
AcDbEntity
  8
SPOJOVACÍ
  6
DASHED
100
AcDbLine
 10
1721.156363030255
 20
370.5132223625844
 30
0.0
 11
1722.52736774183
 21
370.0519667890514
 31
0.0
  0
LINE
  5
5E40
330
1F
100
AcDbEntity
  8
SPOJOVACÍ
  6
DASHED
100
AcDbLine
 10
1720.786264686729
 20
370.1431240169188
 30
0.0
 11
1722.897466085357
 21
369.8386588754603
 31
0.0
  0
LINE
  5
5E41
330
1F
100
AcDbEntity
  8
SPOJOVACÍ
  6
DASHED
100
AcDbLine
 10
1720.459921808215
 20
384.7601855247305
 30
0.0
 11
1720.459921808215
 21
382.2825320681188
 31
0.0
  0
LINE
  5
5E42
330
1F
100
AcDbEntity
  8
SPOJOVACÍ
  6
DASHED
100
AcDbLine
 10
1719.800855051755
 20
384.9680240043965
 30
0.0
 11
1723.764371324156
 21
383.6353053313962
 31
0.0
  0
LINE
  5
5E43
330
1F
100
AcDbEntity
  8
SPOJOVACÍ
  6
DASHED
100
AcDbLine
 10
1719.430756703951
 20
385.1822434901825
 30
0.0
 11
1719.800855051755
 21
384.9680240043965
 31
0.0
  0
LINE
  5
5E44
330
1F
100
AcDbEntity
  8
SPOJOVACÍ
  6
DASHED
100
AcDbLine
 10
1719.430756703951
 20
385.1822434901825
 30
0.0
 11
1719.800855051755
 21
385.5523418358482
 31
0.0
  0
LINE
  5
5E45
330
1F
100
AcDbEntity
  8
SPOJOVACÍ
  6
DASHED
100
AcDbLine
 10
1719.800855051755
 20
385.5523418358482
 30
0.0
 11
1723.764371324156
 21
384.2196231628406
 31
0.0
  0
LINE
  5
5E46
330
1F
100
AcDbEntity
  8
SPOJOVACÍ
  6
DASHED
100
AcDbLine
 10
1719.430756703951
 20
385.1822434901825
 30
0.0
 11
1724.134469667682
 21
384.0063152492496
 31
0.0
  0
LINE
  5
5E47
330
1F
100
AcDbEntity
  8
SPOJOVACÍ
  6
DASHED
100
AcDbLine
 10
1723.105304567696
 20
383.8650215459713
 30
0.0
 11
1723.105304567696
 21
381.3946606673964
 31
0.0
  0
LINE
  5
5E48
330
1F
100
AcDbEntity
  8
SPOJOVACÍ
  6
DASHED
100
AcDbLine
 10
1720.459921808215
 20
381.6900100861787
 30
0.0
 11
1720.459921808215
 21
379.2223839244381
 31
0.0
  0
LINE
  5
5E49
330
1F
100
AcDbEntity
  8
SPOJOVACÍ
  6
DASHED
100
AcDbLine
 10
1720.459921808215
 20
378.6380660929864
 30
0.0
 11
1720.459921808215
 21
377.4156476659356
 31
0.0
  0
LINE
  5
5E4A
330
1F
100
AcDbEntity
  8
SPOJOVACÍ
  6
DASHED
100
AcDbLine
 10
1723.105304567696
 20
380.8057849747422
 30
0.0
 11
1723.105304567696
 21
378.3372472408139
 31
0.0
  0
LINE
  5
5E4B
330
1F
100
AcDbEntity
  8
SPOJOVACÍ
  6
DASHED
100
AcDbLine
 10
1723.105304567696
 20
377.7456368310615
 30
0.0
 11
1723.105304567696
 21
377.4156476659356
 31
0.0
  0
LINE
  5
5E4C
330
1F
100
AcDbEntity
  8
SPOJOVACÍ
  6
DASHED
100
AcDbLine
 10
1720.459921808215
 20
377.4156476659356
 30
0.0
 11
1720.606684944884
 21
376.242454141566
 31
0.0
  0
LINE
  5
5E4D
330
1F
100
AcDbEntity
  8
SPOJOVACÍ
  6
DASHED
100
AcDbLine
 10
1720.682345445559
 20
375.6344354308296
 30
0.0
 11
1720.966755998088
 21
373.3591510204862
 31
0.0
  0
LINE
  5
5E4E
330
1F
100
AcDbEntity
  8
SPOJOVACÍ
  6
DASHED
100
AcDbLine
 10
1722.532837171748
 20
372.8313506702945
 30
0.0
 11
1722.794458417979
 21
374.9252321970909
 31
0.0
  0
LINE
  5
5E4F
330
1F
100
AcDbEntity
  8
SPOJOVACÍ
  6
DASHED
100
AcDbLine
 10
1722.864649484458
 20
375.4840260048752
 30
0.0
 11
1723.105304567696
 21
377.4156476659356
 31
0.0
  0
LINE
  5
5E50
330
1F
100
AcDbEntity
  8
SPOJOVACÍ
  6
DASHED
100
AcDbLine
 10
1719.679615938483
 20
376.051023962884
 30
0.0
 11
1720.050625855802
 21
375.8368044770979
 31
0.0
  0
LINE
  5
5E51
330
1F
100
AcDbEntity
  8
SPOJOVACÍ
  6
DASHED
100
AcDbLine
 10
1719.679615938483
 20
376.051023962884
 30
0.0
 11
1720.050625855802
 21
376.4211223085496
 31
0.0
  0
LINE
  5
5E52
330
1F
100
AcDbEntity
  8
SPOJOVACÍ
  6
DASHED
100
AcDbLine
 10
1723.722438998171
 20
375.0975193582255
 30
0.0
 11
1723.352340654645
 21
374.7265094401011
 31
0.0
  0
LINE
  5
5E53
330
1F
100
AcDbEntity
  8
SPOJOVACÍ
  6
DASHED
100
AcDbLine
 10
1723.722438998171
 20
375.0975193582255
 30
0.0
 11
1723.352340654645
 21
375.3108272715528
 31
0.0
  0
LINE
  5
5E54
330
1F
100
AcDbEntity
  8
SPOJOVACÍ
  6
DASHED
100
AcDbLine
 10
1720.050625855802
 20
375.8368044770979
 30
0.0
 11
1723.352340654645
 21
374.7265094401011
 31
0.0
  0
LINE
  5
5E55
330
1F
100
AcDbEntity
  8
SPOJOVACÍ
  6
DASHED
100
AcDbLine
 10
1720.050625855802
 20
376.4211223085496
 30
0.0
 11
1723.352340654645
 21
375.3108272715528
 31
0.0
  0
LINE
  5
5E56
330
1F
100
AcDbEntity
  8
SPOJOVACÍ
  6
DASHED
100
AcDbLine
 10
1719.679615938483
 20
376.051023962884
 30
0.0
 11
1723.722438998171
 21
375.0975193582255
 31
0.0
  0
LINE
  5
5E57
330
1F
100
AcDbEntity
  8
SPOJOVACÍ
  6
DASHED
100
AcDbLine
 10
1720.232940310467
 20
373.096618203672
 30
0.0
 11
1720.603038658272
 21
372.8833102903447
 31
0.0
  0
LINE
  5
5E58
330
1F
100
AcDbEntity
  8
SPOJOVACÍ
  6
DASHED
100
AcDbLine
 10
1720.232940310467
 20
373.096618203672
 30
0.0
 11
1720.603038658272
 21
373.4676281217964
 31
0.0
  0
LINE
  5
5E59
330
1F
100
AcDbEntity
  8
SPOJOVACÍ
  6
DASHED
100
AcDbLine
 10
1723.286707448569
 20
372.4758374812374
 30
0.0
 11
1722.916609105043
 21
372.1048275633841
 31
0.0
  0
LINE
  5
5E5A
330
1F
100
AcDbEntity
  8
SPOJOVACÍ
  6
DASHED
100
AcDbLine
 10
1723.286707448569
 20
372.4758374812374
 30
0.0
 11
1722.916609105043
 21
372.6891453945647
 31
0.0
  0
LINE
  5
5E5B
330
1F
100
AcDbEntity
  8
SPOJOVACÍ
  6
DASHED
100
AcDbLine
 10
1720.603038658272
 20
372.8833102903447
 30
0.0
 11
1722.916609105043
 21
372.1048275633841
 31
0.0
  0
LINE
  5
5E5C
330
1F
100
AcDbEntity
  8
SPOJOVACÍ
  6
DASHED
100
AcDbLine
 10
1720.603038658272
 20
373.4676281217964
 30
0.0
 11
1722.916609105043
 21
372.6891453945647
 31
0.0
  0
LINE
  5
5E5D
330
1F
100
AcDbEntity
  8
SPOJOVACÍ
  6
DASHED
100
AcDbLine
 10
1720.232940310467
 20
373.096618203672
 30
0.0
 11
1723.286707448569
 21
372.4758374812374
 31
0.0
  0
LINE
  5
5E5E
330
1F
100
AcDbEntity
  8
SPOJOVACÍ
  6
DASHED
100
AcDbLine
 10
1724.134469667682
 20
384.0063152492496
 30
0.0
 11
1723.764371324156
 21
383.6353053313962
 31
0.0
  0
LINE
  5
5E5F
330
1F
100
AcDbEntity
  8
SPOJOVACÍ
  6
DASHED
100
AcDbLine
 10
1724.134469667682
 20
384.0063152492496
 30
0.0
 11
1723.764371324156
 21
384.2196231628406
 31
0.0
  0
LINE
  5
5E60
330
1F
100
AcDbEntity
  8
SPOJOVACÍ
  6
DASHED
100
AcDbLine
 10
1719.430756703951
 20
382.1248300635927
 30
0.0
 11
1724.134469667682
 21
380.9489018226597
 31
0.0
  0
LINE
  5
5E61
330
1F
100
AcDbEntity
  8
SPOJOVACÍ
  6
DASHED
100
AcDbLine
 10
1719.430756703951
 20
382.1248300635927
 30
0.0
 11
1719.800855051755
 21
381.9106105778139
 31
0.0
  0
LINE
  5
5E62
330
1F
100
AcDbEntity
  8
SPOJOVACÍ
  6
DASHED
100
AcDbLine
 10
1719.430756703951
 20
382.1248300635927
 30
0.0
 11
1719.800855051755
 21
382.4949284092583
 31
0.0
  0
LINE
  5
5E63
330
1F
100
AcDbEntity
  8
SPOJOVACÍ
  6
DASHED
100
AcDbLine
 10
1724.134469667682
 20
380.9489018226597
 30
0.0
 11
1723.764371324156
 21
380.5778919048064
 31
0.0
  0
LINE
  5
5E64
330
1F
100
AcDbEntity
  8
SPOJOVACÍ
  6
DASHED
100
AcDbLine
 10
1724.134469667682
 20
380.9489018226597
 30
0.0
 11
1723.764371324156
 21
381.162209735987
 31
0.0
  0
LINE
  5
5E65
330
1F
100
AcDbEntity
  8
SPOJOVACÍ
  6
DASHED
100
AcDbLine
 10
1719.800855051755
 20
381.9106105778139
 30
0.0
 11
1723.764371324156
 21
380.5778919048064
 31
0.0
  0
LINE
  5
5E66
330
1F
100
AcDbEntity
  8
SPOJOVACÍ
  6
DASHED
100
AcDbLine
 10
1719.800855051755
 20
382.4949284092583
 30
0.0
 11
1723.764371324156
 21
381.162209735987
 31
0.0
  0
LINE
  5
5E67
330
1F
100
AcDbEntity
  8
SPOJOVACÍ
  6
DASHED
100
AcDbLine
 10
1719.430756703951
 20
379.0665050645514
 30
0.0
 11
1724.134469667682
 21
377.8905768236183
 31
0.0
  0
LINE
  5
5E68
330
1F
100
AcDbEntity
  8
SPOJOVACÍ
  6
DASHED
100
AcDbLine
 10
1719.430756703951
 20
379.0665050645514
 30
0.0
 11
1719.800855051755
 21
378.8531971512241
 31
0.0
  0
LINE
  5
5E69
330
1F
100
AcDbEntity
  8
SPOJOVACÍ
  6
DASHED
100
AcDbLine
 10
1719.430756703951
 20
379.0665050645514
 30
0.0
 11
1719.800855051755
 21
379.4375149826758
 31
0.0
  0
LINE
  5
5E6A
330
1F
100
AcDbEntity
  8
SPOJOVACÍ
  6
DASHED
100
AcDbLine
 10
1724.134469667682
 20
377.8905768236183
 30
0.0
 11
1723.764371324156
 21
377.5204784779528
 31
0.0
  0
LINE
  5
5E6B
330
1F
100
AcDbEntity
  8
SPOJOVACÍ
  6
DASHED
100
AcDbLine
 10
1724.134469667682
 20
377.8905768236183
 30
0.0
 11
1723.764371324156
 21
378.1047963094045
 31
0.0
  0
LINE
  5
5E6C
330
1F
100
AcDbEntity
  8
SPOJOVACÍ
  6
DASHED
100
AcDbLine
 10
1719.800855051755
 20
378.8531971512241
 30
0.0
 11
1723.764371324156
 21
377.5204784779528
 31
0.0
  0
LINE
  5
5E6D
330
1F
100
AcDbEntity
  8
SPOJOVACÍ
  6
DASHED
100
AcDbLine
 10
1719.800855051755
 20
379.4375149826758
 30
0.0
 11
1723.764371324156
 21
378.1047963094045
 31
0.0
  0
LINE
  5
5E6E
330
1F
100
AcDbEntity
  8
SPOJOVACÍ
  6
DASHED
100
AcDbLine
 10
1720.459921808215
 20
387.8130410901105
 30
0.0
 11
1720.459921808215
 21
385.3426802115357
 31
0.0
  0
LINE
  5
5E6F
330
1F
100
AcDbEntity
  8
SPOJOVACÍ
  6
DASHED
100
AcDbLine
 10
1719.800855051755
 20
388.0254374312501
 30
0.0
 11
1723.764371324156
 21
386.6936303304376
 31
0.0
  0
LINE
  5
5E70
330
1F
100
AcDbEntity
  8
SPOJOVACÍ
  6
DASHED
100
AcDbLine
 10
1724.134469667682
 20
387.0637286758321
 30
0.0
 11
1723.764371324156
 21
386.6936303304376
 31
0.0
  0
LINE
  5
5E71
330
1F
100
AcDbEntity
  8
SPOJOVACÍ
  6
DASHED
100
AcDbLine
 10
1723.105304567696
 20
386.9251696893882
 30
0.0
 11
1723.105304567696
 21
384.4475162327765
 31
0.0
  0
LINE
  5
5E72
330
1F
100
AcDbEntity
  8
SPOJOVACÍ
  6
DASHED
100
AcDbLine
 10
1726.079764914233
 20
406.8754186789504
 30
0.0
 11
1726.780763996678
 21
407.2054078440762
 31
0.0
  0
LINE
  5
5E73
330
1F
100
AcDbEntity
  8
SPOJOVACÍ
  6
DASHED
100
AcDbLine
 10
1716.784462374955
 20
408.381336085273
 30
0.0
 11
1726.780763996678
 21
408.381336085273
 31
0.0
  0
LINE
  5
5E74
330
1F
100
AcDbEntity
  8
SPOJOVACÍ
  6
DASHED
100
AcDbLine
 10
1716.784462374955
 20
407.2054078440762
 30
0.0
 11
1726.780763996678
 21
407.2054078440762
 31
0.0
  0
TEXT
  5
5E75
330
1F
100
AcDbEntity
  8
POPIS
100
AcDbText
 10
1858.249253616726
 20
334.9173214174793
 30
0.0
 40
25.0
  1
07
 41
0.85
  7
SIMPLEX7
100
AcDbText
  0
TEXT
  5
5E76
330
1F
100
AcDbEntity
  8
POPIS
100
AcDbText
 10
1858.249253616726
 20
300.5877333578123
 30
0.0
 40
25.0
  1
08
 41
0.85
  7
SIMPLEX7
100
AcDbText
  0
TEXT
  5
5E77
330
1F
100
AcDbEntity
  8
POPIS
100
AcDbText
 10
1857.820730905325
 20
370.9588148508523
 30
0.0
 40
25.0
  1
06
 41
0.85
  7
SIMPLEX7
100
AcDbText
  0
TEXT
  5
5E78
330
1F
100
AcDbEntity
  8
POPIS
100
AcDbText
 10
1858.249253616726
 20
266.9447665850843
 30
0.0
 40
25.0
  1
09
 41
0.85
  7
SIMPLEX7
100
AcDbText
  0
LINE
  5
5E79
330
1F
100
AcDbEntity
  8
nášlap_vrstvy
100
AcDbLine
 10
1798.915075820602
 20
427.2592264787531
 30
0.0
 11
1798.915075820602
 21
421.2592264787531
 31
0.0
  0
LINE
  5
5E7A
330
1F
100
AcDbEntity
  8
nášlap_vrstvy
100
AcDbLine
 10
1800.169727071876
 20
426.4383114146653
 30
0.0
 11
1800.169727071876
 21
422.0939237021744
 31
0.0
  0
LINE
  5
5E7B
330
1F
100
AcDbEntity
  8
nášlap_vrstvy
100
AcDbLine
 10
1798.915075820598
 20
421.2592264787531
 30
0.0
 11
1801.182785271038
 21
421.2592264787531
 31
0.0
  0
LINE
  5
5E7C
330
1F
100
AcDbEntity
  8
nášlap_vrstvy
100
AcDbLine
 10
1800.169727071876
 20
422.0939237021744
 30
0.0
 11
1801.182785271041
 21
422.0939237021744
 31
0.0
  0
LINE
  5
5E7D
330
1F
100
AcDbEntity
  8
nášlap_vrstvy
100
AcDbLine
 10
1732.826185086342
 20
433.2592264787531
 30
0.0
 11
1732.826185086338
 21
426.4383114146653
 31
0.0
  0
LWPOLYLINE
  5
5E7E
330
1F
100
AcDbEntity
  8
nášlap_vrstvy
100
AcDbPolyline
 90
        3
 70
     0
 43
0.0
 10
1736.822729323649
 20
427.2592264787531
 42
-0.00139912452586
 10
1737.716218346039
 20
431.6630529607505
 42
-0.0065712046643719
 10
1738.066644115803
 20
433.2592264787531
  0
LINE
  5
5E7F
330
1F
100
AcDbEntity
  8
nášlap_vrstvy
100
AcDbLine
 10
1731.915075820602
 20
433.2592264787531
 30
0.0
 11
1731.915075820602
 21
427.2592264787531
 31
0.0
  0
LINE
  5
5E80
330
1F
100
AcDbEntity
  8
nášlap_vrstvy
100
AcDbLine
 10
1801.182785271038
 20
427.2592264787522
 30
0.0
 11
1798.915075820598
 21
427.2592264787531
 31
0.0
  0
LINE
  5
5E81
330
1F
100
AcDbEntity
  8
nášlap_vrstvy
100
AcDbLine
 10
1801.182785271038
 20
426.4383114146644
 30
0.0
 11
1800.169727071876
 21
426.4383114146653
 31
0.0
  0
LINE
  5
5E82
330
1F
100
AcDbEntity
  8
nášlap_vrstvy
100
AcDbLine
 10
1725.169727071876
 20
426.4383114146653
 30
0.0
 11
1725.169727071876
 21
422.0939237021744
 31
0.0
  0
LINE
  5
5E83
330
1F
100
AcDbEntity
  8
nášlap_vrstvy
100
AcDbLine
 10
1723.915075820602
 20
427.2592264787531
 30
0.0
 11
1723.915075820602
 21
421.2592264787531
 31
0.0
  0
LINE
  5
5E84
330
1F
100
AcDbEntity
  8
nášlap_vrstvy
100
AcDbLine
 10
1725.169727071876
 20
422.0939237021744
 30
0.0
 11
1732.826185086346
 21
422.0939237021744
 31
0.0
  0
LINE
  5
5E85
330
1F
100
AcDbEntity
  8
nášlap_vrstvy
100
AcDbLine
 10
1723.915075820598
 20
421.2592264787531
 30
0.0
 11
1731.915075820602
 21
421.2592264787531
 31
0.0
  0
LINE
  5
5E86
330
1F
100
AcDbEntity
  8
nášlap_vrstvy
100
AcDbLine
 10
1732.826185086338
 20
426.4383114146653
 30
0.0
 11
1725.169727071876
 21
426.4383114146653
 31
0.0
  0
LWPOLYLINE
  5
5E87
330
1F
100
AcDbEntity
  8
nášlap_vrstvy
100
AcDbPolyline
 90
        3
 70
     0
 43
0.0
 10
1727.879894210557
 20
427.2592264787531
 42
0.00139912452586
 10
1726.986405188167
 20
431.6630529607505
 42
0.0065712046643719
 10
1726.635979418403
 20
433.2592264787531
  0
LINE
  5
5E88
330
1F
100
AcDbEntity
  8
nášlap_vrstvy
100
AcDbLine
 10
1731.915075820602
 20
427.2592264787531
 30
0.0
 11
1723.915075820598
 21
427.2592264787531
 31
0.0
  0
TEXT
  5
5E89
330
1F
100
AcDbEntity
  8
POPIS
100
AcDbText
 10
1856.937959905292
 20
444.3563866894278
 30
0.0
 40
25.0
  1
04
 41
0.85
  7
SIMPLEX7
100
AcDbText
  0
TEXT
  5
5E8A
330
1F
100
AcDbEntity
  8
POPIS
100
AcDbText
 10
1856.937959905292
 20
516.0319683778893
 30
0.0
 40
25.0
  1
02
 41
0.85
  7
SIMPLEX7
100
AcDbText
  0
TEXT
  5
5E8B
330
1F
100
AcDbEntity
  8
POPIS
100
AcDbText
 10
1856.937959905292
 20
481.19192669232
 30
0.0
 40
25.0
  1
03
 41
0.85
  7
SIMPLEX7
100
AcDbText
  0
TEXT
  5
5E8C
330
1F
100
AcDbEntity
  8
POPIS
100
AcDbText
 10
1856.937959905292
 20
551.4361295960521
 30
0.0
 40
25.0
  1
01
 41
0.85
  7
SIMPLEX7
100
AcDbText
  0
TEXT
  5
5E90
330
1F
100
AcDbEntity
  8
POPIS
100
AcDbText
 10
2202.414751219947
 20
389.0229059216153
 30
0.0
 40
8.399999999999998
  1
R
 41
0.85
  7
SIMPLEX7
100
AcDbText
  0
CIRCLE
  5
5E91
330
1F
100
AcDbEntity
  8
POPIS
100
AcDbCircle
 10
2205.746071558575
 20
392.9046479431081
 30
0.0
 40
7.795592338044182
  0
ENDSEC
  0
SECTION
  2
OBJECTS
  0
DICTIONARY
  5
C
330
0
100
AcDbDictionary
281
     1
  3
ACAD_GROUP
350
D
  3
ACAD_LAYOUT
350
1A
  3
ACAD_MLINESTYLE
350
17
  3
ACAD_PLOTSETTINGS
350
19
  3
ACAD_PLOTSTYLENAME
350
E
  3
AcDbVariableDictionary
350
5ECE
  0
DICTIONARY
  5
D
102
{ACAD_REACTORS
330
C
102
}
330
C
100
AcDbDictionary
281
     1
  0
DICTIONARY
  5
1A
102
{ACAD_REACTORS
330
C
102
}
330
C
100
AcDbDictionary
281
     1
  3
Model
350
22
  3
Rozvržení1
350
1E
  3
Rozvržení2
350
26
  0
DICTIONARY
  5
17
102
{ACAD_REACTORS
330
C
102
}
330
C
100
AcDbDictionary
281
     1
  3
Standard
350
18
  0
DICTIONARY
  5
19
102
{ACAD_REACTORS
330
C
102
}
330
C
100
AcDbDictionary
281
     1
  0
ACDBDICTIONARYWDFLT
  5
E
102
{ACAD_REACTORS
330
C
102
}
330
C
100
AcDbDictionary
281
     1
  3
Normal
350
F
100
AcDbDictionaryWithDefault
340
F
  0
DICTIONARY
  5
5ECE
102
{ACAD_REACTORS
330
C
102
}
330
C
100
AcDbDictionary
281
     1
  3
DIMASSOC
350
5ECF
  0
LAYOUT
  5
22
102
{ACAD_REACTORS
330
1A
102
}
330
1A
100
AcDbPlotSettings
  1

  2
HP DeskJet 690C
  4

  6

 40
0.0
 41
0.0
 42
0.0
 43
0.0
 44
0.0
 45
0.0
 46
0.0
 47
0.0
 48
0.0
 49
0.0
140
0.0
141
0.0
142
1.0
143
1.0
 70
  1712
 72
     0
 73
     0
 74
     0
  7
monochrome.ctb
 75
     0
147
1.0
148
0.0
149
0.0
100
AcDbLayout
  1
Model
 70
     1
 71
     0
 10
0.0
 20
0.0
 11
12.0
 21
9.0
 12
0.0
 22
0.0
 32
0.0
 14
0.0
 24
0.0
 34
0.0
 15
0.0
 25
0.0
 35
0.0
146
0.0
 13
0.0
 23
0.0
 33
0.0
 16
1.0
 26
0.0
 36
0.0
 17
0.0
 27
1.0
 37
0.0
 76
     0
330
1F
  0
LAYOUT
  5
1E
102
{ACAD_REACTORS
330
1A
102
}
330
1A
100
AcDbPlotSettings
  1

  2
HP DeskJet 690C
  4

  6

 40
0.0
 41
0.0
 42
0.0
 43
0.0
 44
0.0
 45
0.0
 46
0.0
 47
0.0
 48
0.0
 49
0.0
140
0.0
141
0.0
142
1.0
143
1.0
 70
   688
 72
     0
 73
     0
 74
     5
  7
monochrome.ctb
 75
    16
147
1.0
148
0.0
149
0.0
100
AcDbLayout
  1
Rozvržení1
 70
     1
 71
     1
 10
0.0
 20
0.0
 11
420.0
 21
297.0
 12
0.0
 22
0.0
 32
0.0
 14
1.000000000000000E+20
 24
1.000000000000000E+20
 34
1.000000000000000E+20
 15
-1.000000000000000E+20
 25
-1.000000000000000E+20
 35
-1.000000000000000E+20
146
0.0
 13
0.0
 23
0.0
 33
0.0
 16
1.0
 26
0.0
 36
0.0
 17
0.0
 27
1.0
 37
0.0
 76
     0
330
1B
  0
LAYOUT
  5
26
102
{ACAD_REACTORS
330
1A
102
}
330
1A
100
AcDbPlotSettings
  1

  2
HP DeskJet 690C
  4

  6

 40
0.0
 41
0.0
 42
0.0
 43
0.0
 44
0.0
 45
0.0
 46
0.0
 47
0.0
 48
0.0
 49
0.0
140
0.0
141
0.0
142
1.0
143
1.0
 70
   688
 72
     0
 73
     0
 74
     5
  7
monochrome.ctb
 75
    16
147
1.0
148
0.0
149
0.0
100
AcDbLayout
  1
Rozvržení2
 70
     1
 71
     2
 10
0.0
 20
0.0
 11
12.0
 21
9.0
 12
0.0
 22
0.0
 32
0.0
 14
0.0
 24
0.0
 34
0.0
 15
0.0
 25
0.0
 35
0.0
146
0.0
 13
0.0
 23
0.0
 33
0.0
 16
1.0
 26
0.0
 36
0.0
 17
0.0
 27
1.0
 37
0.0
 76
     0
330
23
  0
MLINESTYLE
  5
18
102
{ACAD_REACTORS
330
17
102
}
330
17
100
AcDbMlineStyle
  2
STANDARD
 70
     0
  3

 62
   256
 51
90.0
 52
90.0
 71
     2
 49
0.5
 62
   256
  6
BYLAYER
 49
-0.5
 62
   256
  6
BYLAYER
  0
ACDBPLACEHOLDER
  5
F
102
{ACAD_REACTORS
330
E
102
}
330
E
  0
DICTIONARYVAR
  5
5ECF
102
{ACAD_REACTORS
330
5ECE
102
}
330
5ECE
100
DictionaryVariables
280
     0
  1
1
  0
ENDSEC
  0
EOF
