  0
SECTION
  2
HEADER
  9
$ACADVER
  1
AC1015
  9
$ACADMAINTVER
 70
    13
  9
$DWGCODEPAGE
  3
ANSI_1250
  9
$INSBASE
 10
0.0
 20
0.0
 30
0.0
  9
$EXTMIN
 10
-142.739239291972
 20
-258.4815704463885
 30
0.0
  9
$EXTMAX
 10
2473.069086173907
 20
827.4492352963473
 30
0.0
  9
$LIMMIN
 10
0.0
 20
0.0
  9
$LIMMAX
 10
420.0
 20
297.0
  9
$ORTHOMODE
 70
     1
  9
$REGENMODE
 70
     1
  9
$FILLMODE
 70
     1
  9
$QTEXTMODE
 70
     0
  9
$MIRRTEXT
 70
     1
  9
$LTSCALE
 40
1.0
  9
$ATTMODE
 70
     1
  9
$TEXTSIZE
 40
2.5
  9
$TRACEWID
 40
1.0
  9
$TEXTSTYLE
  7
Standard
  9
$CLAYER
  8
0
  9
$CELTYPE
  6
ByLayer
  9
$CECOLOR
 62
   256
  9
$CELTSCALE
 40
1.0
  9
$DISPSILH
 70
     0
  9
$DIMSCALE
 40
1.0
  9
$DIMASZ
 40
2.5
  9
$DIMEXO
 40
0.625
  9
$DIMDLI
 40
3.75
  9
$DIMRND
 40
0.0
  9
$DIMDLE
 40
0.0
  9
$DIMEXE
 40
1.25
  9
$DIMTP
 40
0.0
  9
$DIMTM
 40
0.0
  9
$DIMTXT
 40
2.5
  9
$DIMCEN
 40
2.5
  9
$DIMTSZ
 40
0.0
  9
$DIMTOL
 70
     0
  9
$DIMLIM
 70
     0
  9
$DIMTIH
 70
     0
  9
$DIMTOH
 70
     0
  9
$DIMSE1
 70
     0
  9
$DIMSE2
 70
     0
  9
$DIMTAD
 70
     1
  9
$DIMZIN
 70
     8
  9
$DIMBLK
  1

  9
$DIMASO
 70
     1
  9
$DIMSHO
 70
     1
  9
$DIMPOST
  1

  9
$DIMAPOST
  1

  9
$DIMALT
 70
     0
  9
$DIMALTD
 70
     3
  9
$DIMALTF
 40
0.03937007874016
  9
$DIMLFAC
 40
1.0
  9
$DIMTOFL
 70
     1
  9
$DIMTVP
 40
0.0
  9
$DIMTIX
 70
     0
  9
$DIMSOXD
 70
     0
  9
$DIMSAH
 70
     0
  9
$DIMBLK1
  1

  9
$DIMBLK2
  1

  9
$DIMSTYLE
  2
ISO-25
  9
$DIMCLRD
 70
     0
  9
$DIMCLRE
 70
     0
  9
$DIMCLRT
 70
     0
  9
$DIMTFAC
 40
1.0
  9
$DIMGAP
 40
0.625
  9
$DIMJUST
 70
     0
  9
$DIMSD1
 70
     0
  9
$DIMSD2
 70
     0
  9
$DIMTOLJ
 70
     0
  9
$DIMTZIN
 70
     8
  9
$DIMALTZ
 70
     0
  9
$DIMALTTZ
 70
     0
  9
$DIMUPT
 70
     0
  9
$DIMDEC
 70
     2
  9
$DIMTDEC
 70
     2
  9
$DIMALTU
 70
     2
  9
$DIMALTTD
 70
     3
  9
$DIMTXSTY
  7
Standard
  9
$DIMAUNIT
 70
     0
  9
$DIMADEC
 70
     0
  9
$DIMALTRND
 40
0.0
  9
$DIMAZIN
 70
     0
  9
$DIMDSEP
 70
    44
  9
$DIMATFIT
 70
     3
  9
$DIMFRAC
 70
     0
  9
$DIMLDRBLK
  1

  9
$DIMLUNIT
 70
     2
  9
$DIMLWD
 70
    -2
  9
$DIMLWE
 70
    -2
  9
$DIMTMOVE
 70
     0
  9
$LUNITS
 70
     2
  9
$LUPREC
 70
     4
  9
$SKETCHINC
 40
1.0
  9
$FILLETRAD
 40
10.0
  9
$AUNITS
 70
     0
  9
$AUPREC
 70
     0
  9
$MENU
  1
.
  9
$ELEVATION
 40
0.0
  9
$PELEVATION
 40
0.0
  9
$THICKNESS
 40
0.0
  9
$LIMCHECK
 70
     0
  9
$CHAMFERA
 40
10.0
  9
$CHAMFERB
 40
10.0
  9
$CHAMFERC
 40
20.0
  9
$CHAMFERD
 40
0.0
  9
$SKPOLY
 70
     0
  9
$TDCREATE
 40
2452332.468649768
  9
$TDUCREATE
 40
2452332.426983101
  9
$TDUPDATE
 40
2455595.842007558
  9
$TDUUPDATE
 40
2455595.800340891
  9
$TDINDWG
 40
0.0465045139
  9
$TDUSRTIMER
 40
0.0465019676
  9
$USRTIMER
 70
     1
  9
$ANGBASE
 50
0.0
  9
$ANGDIR
 70
     0
  9
$PDMODE
 70
     0
  9
$PDSIZE
 40
0.0
  9
$PLINEWID
 40
0.0
  9
$SPLFRAME
 70
     0
  9
$SPLINETYPE
 70
     6
  9
$SPLINESEGS
 70
     8
  9
$HANDSEED
  5
4FA1
  9
$SURFTAB1
 70
     6
  9
$SURFTAB2
 70
     6
  9
$SURFTYPE
 70
     6
  9
$SURFU
 70
     6
  9
$SURFV
 70
     6
  9
$UCSBASE
  2

  9
$UCSNAME
  2

  9
$UCSORG
 10
0.0
 20
0.0
 30
0.0
  9
$UCSXDIR
 10
1.0
 20
0.0
 30
0.0
  9
$UCSYDIR
 10
0.0
 20
1.0
 30
0.0
  9
$UCSORTHOREF
  2

  9
$UCSORTHOVIEW
 70
     0
  9
$UCSORGTOP
 10
0.0
 20
0.0
 30
0.0
  9
$UCSORGBOTTOM
 10
0.0
 20
0.0
 30
0.0
  9
$UCSORGLEFT
 10
0.0
 20
0.0
 30
0.0
  9
$UCSORGRIGHT
 10
0.0
 20
0.0
 30
0.0
  9
$UCSORGFRONT
 10
0.0
 20
0.0
 30
0.0
  9
$UCSORGBACK
 10
0.0
 20
0.0
 30
0.0
  9
$PUCSBASE
  2

  9
$PUCSNAME
  2

  9
$PUCSORG
 10
0.0
 20
0.0
 30
0.0
  9
$PUCSXDIR
 10
1.0
 20
0.0
 30
0.0
  9
$PUCSYDIR
 10
0.0
 20
1.0
 30
0.0
  9
$PUCSORTHOREF
  2

  9
$PUCSORTHOVIEW
 70
     0
  9
$PUCSORGTOP
 10
0.0
 20
0.0
 30
0.0
  9
$PUCSORGBOTTOM
 10
0.0
 20
0.0
 30
0.0
  9
$PUCSORGLEFT
 10
0.0
 20
0.0
 30
0.0
  9
$PUCSORGRIGHT
 10
0.0
 20
0.0
 30
0.0
  9
$PUCSORGFRONT
 10
0.0
 20
0.0
 30
0.0
  9
$PUCSORGBACK
 10
0.0
 20
0.0
 30
0.0
  9
$USERI1
 70
     0
  9
$USERI2
 70
     0
  9
$USERI3
 70
     0
  9
$USERI4
 70
     0
  9
$USERI5
 70
     0
  9
$USERR1
 40
0.0
  9
$USERR2
 40
0.0
  9
$USERR3
 40
0.0
  9
$USERR4
 40
0.0
  9
$USERR5
 40
0.0
  9
$WORLDVIEW
 70
     1
  9
$SHADEDGE
 70
     3
  9
$SHADEDIF
 70
    70
  9
$TILEMODE
 70
     1
  9
$MAXACTVP
 70
    64
  9
$PINSBASE
 10
0.0
 20
0.0
 30
0.0
  9
$PLIMCHECK
 70
     0
  9
$PEXTMIN
 10
1.000000000000000E+20
 20
1.000000000000000E+20
 30
1.000000000000000E+20
  9
$PEXTMAX
 10
-1.000000000000000E+20
 20
-1.000000000000000E+20
 30
-1.000000000000000E+20
  9
$PLIMMIN
 10
0.0
 20
0.0
  9
$PLIMMAX
 10
420.0
 20
297.0
  9
$UNITMODE
 70
     0
  9
$VISRETAIN
 70
     1
  9
$PLINEGEN
 70
     0
  9
$PSLTSCALE
 70
     1
  9
$TREEDEPTH
 70
  3020
  9
$CMLSTYLE
  2
Standard
  9
$CMLJUST
 70
     0
  9
$CMLSCALE
 40
20.0
  9
$PROXYGRAPHICS
 70
     1
  9
$MEASUREMENT
 70
     1
  9
$CELWEIGHT
370
    -1
  9
$ENDCAPS
280
     0
  9
$JOINSTYLE
280
     0
  9
$LWDISPLAY
290
     0
  9
$INSUNITS
 70
     4
  9
$HYPERLINKBASE
  1

  9
$STYLESHEET
  1

  9
$XEDIT
290
     1
  9
$CEPSNTYPE
380
     0
  9
$PSTYLEMODE
290
     1
  9
$FINGERPRINTGUID
  2
{A3477950-F6EC-44A0-8776-592C40033ABE}
  9
$VERSIONGUID
  2
{B7C4FAEE-00A7-4BE7-AEB8-0BC0D9C8C96A}
  9
$EXTNAMES
290
     1
  9
$PSVPSCALE
 40
0.0
  9
$OLESTARTUP
290
     0
  0
ENDSEC
  0
SECTION
  2
CLASSES
  0
CLASS
  1
ACDBDICTIONARYWDFLT
  2
AcDbDictionaryWithDefault
  3
AutoCAD 2000
 90
        0
280
     0
281
     0
  0
CLASS
  1
ACDBPLACEHOLDER
  2
AcDbPlaceHolder
  3
AutoCAD 2000
 90
        0
280
     0
281
     0
  0
CLASS
  1
LAYOUT
  2
AcDbLayout
  3
AutoCAD 2000
 90
        0
280
     0
281
     0
  0
CLASS
  1
DICTIONARYVAR
  2
AcDbDictionaryVar
  3
AutoCAD 2000
 90
        0
280
     0
281
     0
  0
ENDSEC
  0
SECTION
  2
TABLES
  0
TABLE
  2
VPORT
  5
8
330
0
100
AcDbSymbolTable
 70
     2
  0
VPORT
  5
4FA0
330
8
100
AcDbSymbolTableRecord
100
AcDbViewportTableRecord
  2
*Active
 70
     0
 10
0.0
 20
0.0
 11
1.0
 21
1.0
 12
1610.852255090665
 22
426.8983906359159
 13
0.0
 23
0.0
 14
10.0
 24
10.0
 15
10.0
 25
10.0
 16
0.0
 26
0.0
 36
1.0
 17
0.0
 27
0.0
 37
0.0
 40
794.0187503271975
 41
2.229559748427672
 42
50.0
 43
0.0
 44
0.0
 50
0.0
 51
0.0
 71
     0
 72
   100
 73
     1
 74
     3
 75
     0
 76
     0
 77
     0
 78
     0
281
     0
 65
     1
110
0.0
120
0.0
130
0.0
111
1.0
121
0.0
131
0.0
112
0.0
122
1.0
132
0.0
 79
     0
146
0.0
  0
ENDTAB
  0
TABLE
  2
LTYPE
  5
5
330
0
100
AcDbSymbolTable
 70
     4
  0
LTYPE
  5
14
330
5
100
AcDbSymbolTableRecord
100
AcDbLinetypeTableRecord
  2
ByBlock
 70
     0
  3

 72
    65
 73
     0
 40
0.0
  0
LTYPE
  5
15
330
5
100
AcDbSymbolTableRecord
100
AcDbLinetypeTableRecord
  2
ByLayer
 70
     0
  3

 72
    65
 73
     0
 40
0.0
  0
LTYPE
  5
16
330
5
100
AcDbSymbolTableRecord
100
AcDbLinetypeTableRecord
  2
Continuous
 70
     0
  3
Solid line
 72
    65
 73
     0
 40
0.0
  0
LTYPE
  5
48D9
330
5
100
AcDbSymbolTableRecord
100
AcDbLinetypeTableRecord
  2
DASHED
 70
     0
  3
Dashed __ __ __ __ __ __ __ __ __ __ __ __ __ _
 72
    65
 73
     2
 40
19.04999999999999
 49
12.7
 74
     0
 49
-6.349999999999999
 74
     0
  0
LTYPE
  5
48DA
330
5
100
AcDbSymbolTableRecord
100
AcDbLinetypeTableRecord
  2
CIKCAK
 70
     0
  3
Cik-cak /\/\/\/\/\/\/\/\/\/\/\/\/\/\/\/\/\/\/\/
 72
    65
 73
     4
 40
20.32254
 49
0.00254
 74
     0
 49
-5.08
 74
     4
 75
   131
340
48E3
 46
5.08
 50
0.0
 44
-5.08
 45
0.0
 49
-10.16
 74
     4
 75
   131
340
48E3
 46
5.08
 50
180.0
 44
5.08
 45
0.0
 49
-5.08
 74
     0
  0
LTYPE
  5
48DB
330
5
100
AcDbSymbolTableRecord
100
AcDbLinetypeTableRecord
  2
IZOLACE
 70
     0
  3
Izolace SSSSSSSSSSSSSSSSSSSSSSSSSSSSSSSSSSSSSSS
 72
    65
 73
     4
 40
10.16253999999999
 49
0.00254
 74
     0
 49
-2.54
 74
     4
 75
   134
340
48E3
 46
2.54
 50
0.0
 44
-2.54
 45
0.0
 49
-5.08
 74
     4
 75
   134
340
48E3
 46
2.54
 50
180.0
 44
2.54
 45
0.0
 49
-2.54
 74
     0
  0
ENDTAB
  0
TABLE
  2
LAYER
  5
2
330
0
100
AcDbSymbolTable
 70
     7
  0
LAYER
  5
10
330
2
100
AcDbSymbolTableRecord
100
AcDbLayerTableRecord
  2
0
 70
     0
 62
     7
  6
Continuous
370
    -3
390
F
  0
LAYER
  5
48DC
330
2
100
AcDbSymbolTableRecord
100
AcDbLayerTableRecord
  2
POPIS
 70
     0
 62
    30
  6
Continuous
370
    -3
390
F
  0
LAYER
  5
48DD
330
2
100
AcDbSymbolTableRecord
100
AcDbLayerTableRecord
  2
SPOJOVACÍ
 70
     0
 62
   180
  6
Continuous
370
    -3
390
F
  0
LAYER
  5
48DE
330
2
100
AcDbSymbolTableRecord
100
AcDbLayerTableRecord
  2
CETRIS
 70
     0
 62
     1
  6
Continuous
370
    -3
390
F
  0
LAYER
  5
48DF
330
2
100
AcDbSymbolTableRecord
100
AcDbLayerTableRecord
  2
izolace
 70
     0
 62
    33
  6
Continuous
370
    -3
390
F
  0
LAYER
  5
48E0
330
2
100
AcDbSymbolTableRecord
100
AcDbLayerTableRecord
  2
nášlap_vrstvy
 70
     0
 62
    73
  6
Continuous
370
    -3
390
F
  0
LAYER
  5
48E1
330
2
100
AcDbSymbolTableRecord
100
AcDbLayerTableRecord
  2
STAVBA OBRYS
 70
     0
 62
     6
  6
Continuous
370
    -3
390
F
  0
ENDTAB
  0
TABLE
  2
STYLE
  5
3
330
0
100
AcDbSymbolTable
 70
     3
  0
STYLE
  5
11
330
3
100
AcDbSymbolTableRecord
100
AcDbTextStyleTableRecord
  2
Standard
 70
     0
 40
0.0
 41
1.0
 50
0.0
 71
     0
 42
2.5
  3
txt
  4

  0
STYLE
  5
48E2
330
3
100
AcDbSymbolTableRecord
100
AcDbTextStyleTableRecord
  2
SIMPLEX7
 70
     0
 40
0.0
 41
0.85
 50
0.0
 71
     0
 42
102.0
  3
ARIAL.TTF
  4

1001
ACAD
1000
Arial CE
1071
    60962
  0
STYLE
  5
48E3
330
3
100
AcDbSymbolTableRecord
100
AcDbTextStyleTableRecord
  2

 70
     1
 40
0.0
 41
1.0
 50
0.0
 71
     0
 42
2.5
  3
ltypeshp.shx
  4

  0
ENDTAB
  0
TABLE
  2
VIEW
  5
6
330
0
100
AcDbSymbolTable
 70
     0
  0
ENDTAB
  0
TABLE
  2
UCS
  5
7
330
0
100
AcDbSymbolTable
 70
     0
  0
ENDTAB
  0
TABLE
  2
APPID
  5
9
330
0
100
AcDbSymbolTable
 70
     1
  0
APPID
  5
12
330
9
100
AcDbSymbolTableRecord
100
AcDbRegAppTableRecord
  2
ACAD
 70
     0
  0
ENDTAB
  0
TABLE
  2
DIMSTYLE
  5
A
330
0
100
AcDbSymbolTable
 70
     1
100
AcDbDimStyleTable
 71
     0
  0
DIMSTYLE
105
27
330
A
100
AcDbSymbolTableRecord
100
AcDbDimStyleTableRecord
  2
ISO-25
 70
     0
 41
2.5
 42
0.625
 43
3.75
 44
1.25
 73
     0
 74
     0
 77
     1
 78
     8
140
2.5
141
2.5
143
0.03937007874016
147
0.625
171
     3
172
     1
271
     2
272
     2
274
     3
278
    44
283
     0
284
     8
340
11
  0
ENDTAB
  0
TABLE
  2
BLOCK_RECORD
  5
1
330
0
100
AcDbSymbolTable
 70
     2
  0
BLOCK_RECORD
  5
1F
330
1
100
AcDbSymbolTableRecord
100
AcDbBlockTableRecord
  2
*Model_Space
340
22
  0
BLOCK_RECORD
  5
1B
330
1
100
AcDbSymbolTableRecord
100
AcDbBlockTableRecord
  2
*Paper_Space
340
1E
  0
BLOCK_RECORD
  5
23
330
1
100
AcDbSymbolTableRecord
100
AcDbBlockTableRecord
  2
*Paper_Space0
340
26
  0
BLOCK_RECORD
  5
48D5
330
1
100
AcDbSymbolTableRecord
100
AcDbBlockTableRecord
  2
E_PUNKT
340
0
102
{BLKREFS
331
4C59
331
4CDA
331
4D87
331
4D8C
331
4DF0
331
4DF5
331
4DF6
331
4E99
331
4E9A
102
}
  0
ENDTAB
  0
ENDSEC
  0
SECTION
  2
BLOCKS
  0
BLOCK
  5
20
330
1F
100
AcDbEntity
  8
0
100
AcDbBlockBegin
  2
*Model_Space
 70
     0
 10
0.0
 20
0.0
 30
0.0
  3
*Model_Space
  1

  0
ENDBLK
  5
21
330
1F
100
AcDbEntity
  8
0
100
AcDbBlockEnd
  0
BLOCK
  5
1C
330
1B
100
AcDbEntity
 67
     1
  8
0
100
AcDbBlockBegin
  2
*Paper_Space
 70
     0
 10
0.0
 20
0.0
 30
0.0
  3
*Paper_Space
  1

  0
ENDBLK
  5
1D
330
1B
100
AcDbEntity
 67
     1
  8
0
100
AcDbBlockEnd
  0
BLOCK
  5
24
330
23
100
AcDbEntity
  8
0
100
AcDbBlockBegin
  2
*Paper_Space0
 70
     0
 10
0.0
 20
0.0
 30
0.0
  3
*Paper_Space0
  1

  0
ENDBLK
  5
25
330
23
100
AcDbEntity
  8
0
100
AcDbBlockEnd
  0
BLOCK
  5
48D7
330
48D5
100
AcDbEntity
  8
0
100
AcDbBlockBegin
  2
E_PUNKT
 70
     0
 10
0.0
 20
0.0
 30
0.0
  3
E_PUNKT
  1

  0
LWPOLYLINE
  5
48D6
330
48D5
100
AcDbEntity
  8
POPIS
100
AcDbPolyline
 90
        2
 70
     1
 43
2.5
 10
1.27761037562675
 20
0.0290683308725193
 42
-1.0
 10
-1.222389624373249
 20
0.0290683308725193
 42
-1.0
  0
ENDBLK
  5
48D8
330
48D5
100
AcDbEntity
  8
0
100
AcDbBlockEnd
  0
ENDSEC
  0
SECTION
  2
ENTITIES
  0
LINE
  5
4C1F
330
1F
100
AcDbEntity
  8
STAVBA OBRYS
100
AcDbLine
 10
1128.51421868252
 20
374.5557463682024
 30
0.0
 11
1953.506911953784
 21
374.5557463682017
 31
0.0
  0
POLYLINE
  5
4C20
330
1F
100
AcDbEntity
  8
STAVBA OBRYS
100
AcDb2dPolyline
 66
     1
 10
0.0
 20
0.0
 30
0.0
  0
VERTEX
  5
4C21
330
4C20
100
AcDbEntity
  8
STAVBA OBRYS
100
AcDbVertex
100
AcDb2dVertex
 10
1547.929672310057
 20
374.5557463682024
 30
0.0
 42
-0.0094186890201653
  0
VERTEX
  5
4C22
330
4C20
100
AcDbEntity
  8
STAVBA OBRYS
100
AcDbVertex
100
AcDb2dVertex
 10
1548.276470872931
 20
374.7144192389704
 30
0.0
 42
-0.0322692699774654
  0
VERTEX
  5
4C23
330
4C20
100
AcDbEntity
  8
STAVBA OBRYS
100
AcDbVertex
100
AcDb2dVertex
 10
1551.167825054021
 20
375.7559427403711
 30
0.0
 42
-0.0276160659512937
  0
VERTEX
  5
4C24
330
4C20
100
AcDbEntity
  8
STAVBA OBRYS
100
AcDbVertex
100
AcDb2dVertex
 10
1552.023401492309
 20
375.9526781693156
 30
0.0
 42
-0.0126891984598699
  0
VERTEX
  5
4C25
330
4C20
100
AcDbEntity
  8
STAVBA OBRYS
100
AcDbVertex
100
AcDb2dVertex
 10
1552.9465698881
 20
376.0878805588571
 30
0.0
  0
SEQEND
  5
4C26
330
4C20
100
AcDbEntity
  8
STAVBA OBRYS
  0
LWPOLYLINE
  5
4C27
330
1F
100
AcDbEntity
  8
STAVBA OBRYS
100
AcDbPolyline
 90
        8
 70
     0
 43
0.0
 10
1530.524474973205
 20
374.5557463682024
 42
-0.0217273703039143
 10
1532.722145233715
 20
379.5914367056801
 42
-0.0882970623535771
 10
1534.359367153808
 20
381.83180575648
 42
-0.0171636441953577
 10
1537.172731215666
 20
384.3457231117253
 42
-0.0157521173632038
 10
1540.411586052702
 20
386.8772191642318
 42
-0.0073640874174249
 10
1545.045235409024
 20
390.1656205899679
 42
-0.0194185739168057
 10
1546.8672787287
 20
391.3171895892491
 42
-0.0229547400386702
 10
1549.252736792715
 20
392.5557463682024
  0
POLYLINE
  5
4C28
330
1F
100
AcDbEntity
  8
STAVBA OBRYS
100
AcDb2dPolyline
 66
     1
 10
0.0
 20
0.0
 30
0.0
  0
VERTEX
  5
4C29
330
4C28
100
AcDbEntity
  8
STAVBA OBRYS
100
AcDbVertex
100
AcDb2dVertex
 10
1538.876526360521
 20
374.5557463682024
 30
0.0
 42
-0.0502247168465557
  0
VERTEX
  5
4C2A
330
4C28
100
AcDbEntity
  8
STAVBA OBRYS
100
AcDbVertex
100
AcDb2dVertex
 10
1540.475573536686
 20
376.5632170409252
 30
0.0
 42
-0.0274923553235744
  0
VERTEX
  5
4C2B
330
4C28
100
AcDbEntity
  8
STAVBA OBRYS
100
AcDbVertex
100
AcDb2dVertex
 10
1543.072879267239
 20
378.9482923640633
 30
0.0
 42
-0.0255412025538677
  0
VERTEX
  5
4C2C
330
4C28
100
AcDbEntity
  8
STAVBA OBRYS
100
AcDbVertex
100
AcDb2dVertex
 10
1546.124309304949
 20
381.2050060410791
 30
0.0
 42
-0.0272796991712396
  0
VERTEX
  5
4C2D
330
4C28
100
AcDbEntity
  8
STAVBA OBRYS
100
AcDbVertex
100
AcDb2dVertex
 10
1550.237308458135
 20
383.621341922745
 30
0.0
 42
-0.056967459841729
  0
VERTEX
  5
4C2E
330
4C28
100
AcDbEntity
  8
STAVBA OBRYS
100
AcDbVertex
100
AcDb2dVertex
 10
1552.378255738866
 20
384.4340777579444
 30
0.0
 42
-0.0373408083348504
  0
VERTEX
  5
4C2F
330
4C28
100
AcDbEntity
  8
STAVBA OBRYS
100
AcDbVertex
100
AcDb2dVertex
 10
1552.60061011434
 20
384.473243298892
 30
0.0
 42
-0.0052305969362967
  0
VERTEX
  5
4C30
330
4C28
100
AcDbEntity
  8
STAVBA OBRYS
100
AcDbVertex
100
AcDb2dVertex
 10
1552.9465698881
 20
384.5042002657963
 30
0.0
  0
SEQEND
  5
4C31
330
4C28
100
AcDbEntity
  8
STAVBA OBRYS
  0
LWPOLYLINE
  5
4C32
330
1F
100
AcDbEntity
  8
izolace
100
AcDbPolyline
 90
        4
 70
     0
 43
0.0
 10
1952.954704684008
 20
392.5557463682019
 10
1278.097546546702
 20
392.5557463682019
 10
1278.097546546702
 20
395.555746368202
 10
1952.862670139045
 20
395.555746368202
  0
LINE
  5
4C33
330
1F
100
AcDbEntity
  8
STAVBA OBRYS
100
AcDbLine
 10
1253.09754654671
 20
392.5557463682024
 30
0.0
 11
1952.954704684009
 21
392.5557463682024
 31
0.0
  0
TEXT
  5
4C34
330
1F
100
AcDbEntity
  8
POPIS
100
AcDbText
 10
1536.90799285485
 20
522.6985661941129
 30
0.0
 40
25.0
  1
04
 41
0.85
  7
SIMPLEX7
100
AcDbText
  0
LINE
  5
4C35
330
1F
100
AcDbEntity
  8
SPOJOVACÍ
  6
DASHED
100
AcDbLine
 10
1547.640161794525
 20
417.9077729345318
 30
0.0
 11
1548.852552927247
 21
418.8074947747646
 31
0.0
  0
LINE
  5
4C36
330
1F
100
AcDbEntity
  8
SPOJOVACÍ
  6
DASHED
100
AcDbLine
 10
1539.557250387969
 20
420.3134121810872
 30
0.0
 11
1549.553552009691
 21
420.3134121810872
 31
0.0
  0
LINE
  5
4C37
330
1F
100
AcDbEntity
  8
SPOJOVACÍ
  6
DASHED
100
AcDbLine
 10
1539.557250387969
 20
419.1374839398905
 30
0.0
 11
1549.553552009691
 21
419.1374839398905
 31
0.0
  0
LWPOLYLINE
  5
4C38
330
1F
100
AcDbEntity
  8
nášlap_vrstvy
100
AcDbPolyline
 90
        4
 70
     1
 43
0.0
 10
1602.96848643816
 20
420.3134121810875
 10
1253.09754654671
 20
420.3134121810875
 10
1253.09754654671
 20
421.8134121810875
 10
1602.96848643816
 20
421.8134121810875
  0
HATCH
  5
4C39
330
1F
100
AcDbEntity
  8
CETRIS
100
AcDbHatch
 10
0.0
 20
0.0
 30
0.0
210
0.0
220
0.0
230
1.0
  2
ANSI31
 70
     0
 71
     0
 91
        3
 92
        7
 72
     1
 73
     1
 93
       42
 10
1571.151137905079
 20
404.3134121810872
 42
0.0
 10
1561.151137905079
 20
404.3134121810872
 42
0.0
 10
1561.151137905079
 20
412.3134121810872
 42
0.0
 10
1571.151137905079
 20
412.3134121810872
 42
0.0
 10
1571.151137905079
 20
420.3134121810872
 42
0.0
 10
1549.553552009691
 20
420.3134121810872
 42
0.0
 10
1549.553552009691
 20
419.1374839398905
 42
0.0
 10
1548.852552927251
 20
418.8074947747664
 42
0.0
 10
1547.640161794525
 20
417.9077729345336
 42
0.0
 10
1546.701242345941
 20
416.7245521152909
 42
0.0
 10
1546.100516213776
 20
415.3389622497835
 42
0.0
 10
1545.87809258071
 20
413.8458068554237
 42
0.0
 10
1545.87809258071
 20
413.5551698013842
 42
-0.1200842046796913
 10
1545.87809258071
 20
412.9632839006482
 42
0.0
 10
1545.87809258071
 20
411.6317556409414
 42
0.0
 10
1546.537159337175
 20
411.4101467177707
 42
0.0
 10
1546.907257680696
 20
411.1959272319856
 42
0.0
 10
1546.53715933717
 20
410.8258288863209
 42
0.0
 10
1545.87809258071
 20
411.0474378095333
 42
0.0
 10
1545.87809258071
 20
408.589107837488
 42
0.0
 10
1546.537159337168
 20
408.367498914322
 42
0.0
 10
1546.907257680696
 20
408.1532794285341
 42
0.0
 10
1546.53715933717
 20
407.7831810828684
 42
0.0
 10
1545.87809258071
 20
408.0047900060828
 42
0.0
 10
1545.87809258071
 20
405.5315428314044
 42
0.0
 10
1546.537159337173
 20
405.3100854874639
 42
0.0
 10
1546.907257680696
 20
405.0958660016796
 42
0.0
 10
1546.53715933717
 20
404.7257676562859
 42
0.0
 10
1545.87809258071
 20
404.9472250001791
 42
0.0
 10
1545.87809258071
 20
402.4890466074549
 42
0.0
 10
1546.537159337173
 20
402.2674376842834
 42
0.0
 10
1546.907257680696
 20
402.0532181985
 42
0.0
 10
1546.53715933717
 20
401.6831198528344
 42
0.0
 10
1545.87809258071
 20
401.9047287760478
 42
0.0
 10
1545.87809258071
 20
399.4314816013712
 42
0.0
 10
1546.537159337173
 20
399.2100242574334
 42
0.0
 10
1546.907257680696
 20
398.9958047716455
 42
0.0
 10
1546.53715933717
 20
398.6257064262528
 42
0.0
 10
1545.87809258071
 20
398.8471637701451
 42
0.0
 10
1545.87809258071
 20
396.3733081818237
 42
0.0
 10
1546.05622377853
 20
396.3134121810864
 42
0.0
 10
1571.151137905079
 20
396.3134121810864
 42
0.0
 97
        0
 92
        7
 72
     1
 73
     1
 93
       83
 10
1543.232709821229
 20
405.8361174132052
 42
0.0
 10
1542.573643064769
 20
406.0575747570984
 42
0.0
 10
1542.203544716964
 20
406.2717942428845
 42
0.0
 10
1542.573643064769
 20
406.6418925885501
 42
0.0
 10
1543.232709821229
 20
406.4204352446114
 42
0.0
 10
1543.232709821229
 20
408.8942908329255
 42
0.0
 10
1542.573643064769
 20
409.1158997561406
 42
0.0
 10
1542.203544716964
 20
409.329207669467
 42
0.0
 10
1542.573643064769
 20
409.7002175873195
 42
0.0
 10
1543.232709821229
 20
409.4786086641508
 42
0.0
 10
1543.232709821229
 20
411.9369386363779
 42
0.0
 10
1542.573643064762
 20
412.1585475595931
 42
0.0
 10
1542.203544716964
 20
412.3718554729185
 42
0.0
 10
1542.573643064769
 20
412.7428653907728
 42
0.0
 10
1543.232709821229
 20
412.521256467604
 42
0.0
 10
1543.200349005087
 20
414.2314019297465
 42
0.0
 10
1543.167988188946
 20
414.6169970040737
 42
0.0
 10
1542.748664941932
 20
416.0682200737902
 42
0.0
 10
1541.968359072199
 20
417.3608295665218
 42
0.0
 10
1540.879941769852
 20
418.408226116143
 42
0.0
 10
1539.557250387969
 20
419.1374839398896
 42
0.0
 10
1539.557250387969
 20
420.3134121810872
 42
0.0
 10
1495.575115190252
 20
420.3134121810872
 42
0.0
 10
1495.575115190252
 20
399.8681147453954
 42
-1.0
 10
1495.57511519025
 20
397.3681147453954
 42
-1.0
 10
1495.575115190252
 20
399.8681147453954
 42
0.0
 10
1495.575115190252
 20
420.3134121810881
 42
0.0
 10
1448.692800376085
 20
420.3134121810891
 42
0.0
 10
1448.692800376085
 20
411.5092268510162
 42
-1.0
 10
1448.692800376083
 20
409.0092268510162
 42
-1.0
 10
1448.692800376085
 20
411.5092268510162
 42
0.0
 10
1448.692800376085
 20
420.3134121810872
 42
0.0
 10
1299.658401042334
 20
420.3134121810872
 42
0.0
 10
1299.658401042336
 20
419.1374839398905
 42
0.0
 10
1298.957401959894
 20
418.8074947747664
 42
0.0
 10
1297.745010827172
 20
417.9077729345327
 42
0.0
 10
1296.806091378583
 20
416.72455211529
 42
0.0
 10
1296.205365246422
 20
415.3389622497817
 42
0.0
 10
1295.982941613355
 20
413.8458068554183
 42
0.0
 10
1295.982941613353
 20
411.6317556409404
 42
0.0
 10
1296.642008369816
 20
411.4101467177707
 42
0.0
 10
1297.012106713341
 20
411.1959272319865
 42
0.0
 10
1296.642008369815
 20
410.82582888632
 42
0.0
 10
1295.982941613355
 20
411.0474378095342
 42
0.0
 10
1295.982941613355
 20
408.5891078374872
 42
0.0
 10
1296.642008369816
 20
408.3674989143193
 42
0.0
 10
1297.012106713343
 20
408.153279428535
 42
0.0
 10
1296.642008369813
 20
407.7831810828684
 42
0.0
 10
1295.982941613357
 20
408.0047900060818
 42
0.0
 10
1295.982941613355
 20
405.5315428314044
 42
0.0
 10
1296.642008369813
 20
405.3100854874684
 42
0.0
 10
1297.012106713343
 20
405.0958660016805
 42
0.0
 10
1296.642008369815
 20
404.7257676562868
 42
0.0
 10
1295.982941613355
 20
404.9472250001801
 42
0.0
 10
1295.982941613355
 20
402.4890466074531
 42
0.0
 10
1296.642008369809
 20
402.2674376842888
 42
0.0
 10
1297.012106713341
 20
402.0532181984991
 42
0.0
 10
1296.642008369813
 20
401.6831198528335
 42
0.0
 10
1295.982941613357
 20
401.9047287760478
 42
0.0
 10
1295.982941613355
 20
399.4314816013703
 42
0.0
 10
1296.642008369822
 20
399.2100242574316
 42
0.0
 10
1297.012106713343
 20
398.9958047716473
 42
0.0
 10
1296.642008369813
 20
398.6257064262519
 42
0.0
 10
1295.982941613355
 20
398.8471637701433
 42
0.0
 10
1295.982941613355
 20
396.3733081818255
 42
0.0
 10
1296.161072811176
 20
396.3134121810864
 42
0.0
 10
1318.097546546702
 20
396.3134121810864
 42
0.0
 10
1543.232709821229
 20
396.3134121810864
 42
0.0
 10
1543.232709821229
 20
396.678491177042
 42
0.0
 10
1542.573643064765
 20
396.9001001002071
 42
0.0
 10
1542.203544716964
 20
397.1143195859978
 42
0.0
 10
1542.573643064769
 20
397.4844179316616
 42
0.0
 10
1543.232709821229
 20
397.2628090084928
 42
0.0
 10
1543.232709821229
 20
399.736056183172
 42
0.0
 10
1542.573643064765
 20
399.9575135270662
 42
0.0
 10
1542.203544716964
 20
400.1717330128496
 42
0.0
 10
1542.573643064769
 20
400.5418313585161
 42
0.0
 10
1543.232709821229
 20
400.3203740145782
 42
0.0
 10
1543.232709821229
 20
402.7942296028915
 42
0.0
 10
1542.573643064767
 20
403.0158385261057
 42
0.0
 10
1542.203544716964
 20
403.229146439433
 42
0.0
 10
1542.573643064769
 20
403.6001563572864
 42
0.0
 10
1543.232709821229
 20
403.3785474341194
 42
0.0
 97
        0
 92
        7
 72
     0
 73
     1
 93
       40
 10
1293.337558853872
 20
402.7942296028924
 10
1292.678492097416
 20
403.0158385261066
 10
1292.308393749609
 20
403.229146439433
 10
1292.678492097412
 20
403.6001563572864
 10
1293.337558853873
 20
403.3785474341176
 10
1293.337558853873
 20
405.8361174132061
 10
1292.678492097421
 20
406.0575747570957
 10
1292.308393749609
 20
406.2717942428845
 10
1292.678492097414
 20
406.6418925885501
 10
1293.337558853873
 20
406.4204352446114
 10
1293.337558853873
 20
408.8942908329264
 10
1292.67849209741
 20
409.1158997561398
 10
1292.308393749611
 20
409.329207669467
 10
1292.678492097412
 20
409.7002175873195
 10
1293.337558853873
 20
409.4786086641508
 10
1293.337558853873
 20
411.936938636377
 10
1292.678492097416
 20
412.1585475595885
 10
1292.308393749609
 20
412.3718554729176
 10
1292.678492097414
 20
412.7428653907728
 10
1293.337558853873
 20
412.521256467605
 10
1293.305198037734
 20
414.2314019297356
 10
1293.272837221592
 20
414.616997004081
 10
1292.853513974575
 20
416.0682200737902
 10
1292.073208104847
 20
417.360829566519
 10
1290.984790802495
 20
418.408226116143
 10
1289.662099420614
 20
419.1374839398905
 10
1289.662099420614
 20
420.3134121810872
 10
1268.097546546701
 20
420.3134121810872
 10
1268.097546546702
 20
396.3134121810864
 10
1293.337558853873
 20
396.3134121810864
 10
1293.337558853872
 20
396.6784911770411
 10
1292.678492097414
 20
396.900100100208
 10
1292.308393749609
 20
397.1143195859959
 10
1292.678492097414
 20
397.4844179316625
 10
1293.337558853873
 20
397.2628090084928
 10
1293.337558853873
 20
399.736056183172
 10
1292.678492097412
 20
399.9575135270644
 10
1292.308393749609
 20
400.1717330128496
 10
1292.678492097414
 20
400.5418313585161
 10
1293.337558853873
 20
400.3203740145782
 97
        0
 75
     0
 76
     1
 52
0.0
 41
1.0
 77
     0
 78
     1
 53
45.0
 43
-3938.065144607678
 44
-4738.254491330354
 45
-2.245064030267287
 46
2.245064030267288
 79
     0
 47
0.7293997082383822
 98
        3
 10
1553.686425567141
 20
403.062531735046
 10
1517.923888854998
 20
403.7919384917769
 10
1285.102509894702
 20
400.8743450146686
  0
LINE
  5
4C3A
330
1F
100
AcDbEntity
  8
nášlap_vrstvy
100
AcDbLine
 10
1253.097546546706
 20
426.691054547958
 30
0.0
 11
1952.839426329608
 21
426.6910545479644
 31
0.0
  0
LINE
  5
4C3B
330
1F
100
AcDbEntity
  8
nášlap_vrstvy
  6
CIKCAK
 48
0.2
100
AcDbLine
 10
1283.749249187957
 20
429.0004070286526
 30
0.0
 11
1952.839426329608
 21
429.0004070286526
 31
0.0
  0
LINE
  5
4C3C
330
1F
100
AcDbEntity
  8
nášlap_vrstvy
100
AcDbLine
 10
1253.097546546706
 20
424.1510729472387
 30
0.0
 11
1952.839426329608
 21
424.1510729472451
 31
0.0
  0
LINE
  5
4C3D
330
1F
100
AcDbEntity
  8
CETRIS
100
AcDbLine
 10
1268.097546546706
 20
420.3134121810875
 30
0.0
 11
1952.839426329608
 21
420.3134121810875
 31
0.0
  0
LINE
  5
4C3E
330
1F
100
AcDbEntity
  8
STAVBA OBRYS
100
AcDbLine
 10
1952.839426329608
 20
374.555746368202
 30
0.0
 11
1253.097546546706
 21
374.555746368202
 31
0.0
  0
LWPOLYLINE
  5
4C3F
330
1F
100
AcDbEntity
  8
CETRIS
100
AcDbPolyline
 90
        4
 70
     0
 43
0.0
 10
1952.839426329603
 20
396.3134121810873
 10
1268.097546546702
 20
396.3134121810873
 10
1268.097546546702
 20
396.3134121810864
 10
1268.097546546702
 20
420.3134121810872
  0
LINE
  5
4C40
330
1F
100
AcDbEntity
  8
CETRIS
100
AcDbLine
 10
1268.097546546702
 20
420.3134121810872
 30
0.0
 11
1952.839426329603
 21
420.3134121810872
 31
0.0
  0
HATCH
  5
4C41
330
1F
100
AcDbEntity
  8
STAVBA OBRYS
100
AcDbHatch
 10
0.0
 20
0.0
 30
0.0
210
0.0
220
0.0
230
1.0
  2
AR-CONC
 70
     0
 71
     0
 91
        1
 92
        7
 72
     0
 73
     1
 93
        6
 10
1952.839426329608
 20
254.5557463682019
 10
1243.097546546713
 20
254.5557463682029
 10
1243.097546546706
 20
66.31299954060011
 10
1253.097546546702
 20
66.79925147529718
 10
1253.09754654671
 20
244.5557463682019
 10
1952.839426329608
 20
244.5557463682019
 97
        0
 75
     0
 76
     1
 52
90.0
 41
0.1
 77
     0
 78
    13
 53
140.0
 43
-26444.29392057948
 44
3301.274976362995
 45
1.593908553890309
 46
18.2184668996004
 79
     2
 49
1.905
 49
-20.955
 53
85.00000000000001
 43
-26444.29392057948
 44
3301.274976362995
 45
-19.10566428821799
 46
-3.524282597566697
 79
     2
 49
1.524
 49
-16.764
 53
190.4509999999999
 43
-26444.16109557948
 44
3302.793176362995
 45
-17.51166878202918
 46
14.69425016659592
 79
     2
 49
1.619
 49
-17.809
 53
136.1841999999999
 43
-26449.37392057948
 44
3301.274976362995
 45
4.204232793272717
 46
27.10790408921299
 79
     2
 49
2.857499999999999
 49
-31.4325
 53
186.6355999999999
 43
-26449.02357057949
 44
3303.533966362995
 45
-24.74255558900492
 46
23.74042344662371
 79
     2
 49
2.4285
 49
-26.7135
 53
81.18400000000004
 43
-26449.37392057948
 44
3301.274976362995
 45
-24.74251178605976
 46
23.74046058139339
 79
     2
 49
2.286
 49
-25.146
 53
111.0
 43
-26448.10392057948
 44
3303.814976362995
 45
10.22655185167625
 46
15.16148798353833
 79
     2
 49
1.905
 49
-20.955
 53
56.00000000000004
 43
-26448.10392057948
 44
3303.814976362995
 45
-18.41879661223192
 46
6.180202834764708
 79
     2
 49
1.524
 49
-16.764
 53
161.4514
 43
-26447.25171057948
 44
3305.078426362994
 45
-8.192285771605742
 46
21.34164907701245
 79
     2
 49
1.618999999999997
 49
-17.80899999999995
 53
127.5
 43
-26444.29392057948
 44
3301.274976362995
 45
-8.455503887315311
 46
0.3088603250591822
 79
     6
 49
0.0
 49
-16.5608
 49
0.0
 49
-17.018
 49
0.0
 49
-16.8275
 53
97.49999999999985
 43
-26444.29392057948
 44
3301.274976362995
 45
-10.01805748181195
 46
6.681966251030575
 79
     6
 49
0.0
 49
-9.702799999999998
 49
0.0
 49
-16.17979999999999
 49
0.0
 49
-6.413499999999999
 53
57.5
 43
-26444.29392057948
 44
3295.610776362995
 45
0.5728743992673473
 46
13.55905951668713
 79
     6
 49
0.0
 49
-6.35
 49
0.0
 49
-19.812
 49
0.0
 49
-26.289
 53
47.5
 43
-26444.29392057948
 44
3293.070776362994
 45
-2.5426491033333
 46
14.8129181386018
 79
     6
 49
0.0
 49
-8.255
 49
0.0
 49
-13.1572
 49
0.0
 49
-18.669
 47
1.255134839913078
 98
        1
 10
1426.695894958561
 20
250.8835727875742
  0
LINE
  5
4C42
330
1F
100
AcDbEntity
  8
STAVBA OBRYS
100
AcDbLine
 10
1253.097546546706
 20
244.5557463682019
 30
0.0
 11
1952.839426329608
 21
244.5557463682019
 31
0.0
  0
LINE
  5
4C43
330
1F
100
AcDbEntity
  8
STAVBA OBRYS
100
AcDbLine
 10
1243.09754654671
 20
254.5557463682019
 30
0.0
 11
1952.839426329608
 21
254.5557463682019
 31
0.0
  0
TEXT
  5
4C44
330
1F
100
AcDbEntity
  8
POPIS
100
AcDbText
 10
984.7546971133677
 20
764.21594743823
 30
0.0
 40
50.0
  1
Podlahová krytina - PVC, koberec
 41
0.85
  7
SIMPLEX7
100
AcDbText
  0
LINE
  5
4C45
330
1F
100
AcDbEntity
  8
STAVBA OBRYS
100
AcDbLine
 10
1004.016950718211
 20
374.5557463682029
 30
0.0
 11
1952.839426329608
 21
374.555746368202
 31
0.0
  0
LINE
  5
4C46
330
1F
100
AcDbEntity
  8
STAVBA OBRYS
100
AcDbLine
 10
1243.09754654671
 20
254.5557463682019
 30
0.0
 11
1243.09754654671
 21
66.79925147529718
 31
0.0
  0
LINE
  5
4C47
330
1F
100
AcDbEntity
  8
STAVBA OBRYS
100
AcDbLine
 10
1253.097546546706
 20
244.5557463682019
 30
0.0
 11
1253.097546546706
 21
66.79925147529718
 31
0.0
  0
LINE
  5
4C48
330
1F
100
AcDbEntity
  8
STAVBA OBRYS
100
AcDbLine
 10
1004.016950718215
 20
54.20140737887447
 30
0.0
 11
1004.016950718211
 21
649.9766263699488
 31
0.0
  0
LINE
  5
4C49
330
1F
100
AcDbEntity
  8
STAVBA OBRYS
100
AcDbLine
 10
994.0169507182153
 20
54.20140737887447
 30
0.0
 11
994.0169507182117
 21
649.9766263699488
 31
0.0
  0
HATCH
  5
4C4A
330
1F
100
AcDbEntity
  8
STAVBA OBRYS
100
AcDbHatch
 10
0.0
 20
0.0
 30
0.0
210
0.0
220
0.0
230
1.0
  2
AR-CONC
 70
     0
 71
     0
 91
        2
 92
        7
 72
     0
 73
     1
 93
        4
 10
1253.09754654671
 20
649.9766263699515
 10
1243.09754654671
 20
649.9766263699515
 10
1243.09754654671
 20
401.9871750861478
 10
1253.09754654671
 20
397.105115791955
 97
        0
 92
        7
 72
     0
 73
     1
 93
        4
 10
1004.016950718215
 20
649.9766263699488
 10
994.0169507182117
 20
649.9766263699479
 10
994.0169507182153
 20
54.20140737887447
 10
1004.016950718215
 20
54.68765931357245
 97
        0
 75
     0
 76
     1
 52
90.0
 41
0.1
 77
     0
 78
    13
 53
140.0
 43
-26444.29392057948
 44
3301.274976362995
 45
1.593908553890309
 46
18.2184668996004
 79
     2
 49
1.905
 49
-20.955
 53
85.00000000000001
 43
-26444.29392057948
 44
3301.274976362995
 45
-19.10566428821799
 46
-3.524282597566697
 79
     2
 49
1.524
 49
-16.764
 53
190.4509999999999
 43
-26444.16109557948
 44
3302.793176362995
 45
-17.51166878202918
 46
14.69425016659592
 79
     2
 49
1.619
 49
-17.809
 53
136.1841999999999
 43
-26449.37392057948
 44
3301.274976362995
 45
4.204232793272717
 46
27.10790408921299
 79
     2
 49
2.857499999999999
 49
-31.4325
 53
186.6355999999999
 43
-26449.02357057949
 44
3303.533966362995
 45
-24.74255558900492
 46
23.74042344662371
 79
     2
 49
2.4285
 49
-26.7135
 53
81.18400000000004
 43
-26449.37392057948
 44
3301.274976362995
 45
-24.74251178605976
 46
23.74046058139339
 79
     2
 49
2.286
 49
-25.146
 53
111.0
 43
-26448.10392057948
 44
3303.814976362995
 45
10.22655185167625
 46
15.16148798353833
 79
     2
 49
1.905
 49
-20.955
 53
56.00000000000004
 43
-26448.10392057948
 44
3303.814976362995
 45
-18.41879661223192
 46
6.180202834764708
 79
     2
 49
1.524
 49
-16.764
 53
161.4514
 43
-26447.25171057948
 44
3305.078426362994
 45
-8.192285771605742
 46
21.34164907701245
 79
     2
 49
1.618999999999997
 49
-17.80899999999995
 53
127.5
 43
-26444.29392057948
 44
3301.274976362995
 45
-8.455503887315311
 46
0.3088603250591822
 79
     6
 49
0.0
 49
-16.5608
 49
0.0
 49
-17.018
 49
0.0
 49
-16.8275
 53
97.49999999999985
 43
-26444.29392057948
 44
3301.274976362995
 45
-10.01805748181195
 46
6.681966251030575
 79
     6
 49
0.0
 49
-9.702799999999998
 49
0.0
 49
-16.17979999999999
 49
0.0
 49
-6.413499999999999
 53
57.5
 43
-26444.29392057948
 44
3295.610776362995
 45
0.5728743992673473
 46
13.55905951668713
 79
     6
 49
0.0
 49
-6.35
 49
0.0
 49
-19.812
 49
0.0
 49
-26.289
 53
47.5
 43
-26444.29392057948
 44
3293.070776362994
 45
-2.5426491033333
 46
14.8129181386018
 79
     6
 49
0.0
 49
-8.255
 49
0.0
 49
-13.1572
 49
0.0
 49
-18.669
 47
1.255134839913078
 98
        2
 10
1246.980168322407
 20
498.5445706772592
 10
999.566752988453
 20
447.0840310098942
  0
HATCH
  5
4C4B
330
1F
100
AcDbEntity
  8
STAVBA OBRYS
100
AcDbHatch
 10
0.0
 20
0.0
 30
0.0
210
0.0
220
0.0
230
1.0
  2
BRICK
 70
     0
 71
     0
 91
        3
 92
        7
 72
     0
 73
     1
 93
        4
 10
1243.09754654671
 20
649.9766263699515
 10
1004.016950718215
 20
649.9766263699488
 10
1004.016950718215
 20
374.5557463682038
 10
1243.097546546717
 20
374.5557463682038
 97
        0
 92
        7
 72
     0
 73
     1
 93
        4
 10
1243.09754654671
 20
160.9440562836938
 10
1004.016950718215
 20
160.9440562836956
 10
1004.016950718215
 20
54.68765931357336
 10
1243.097546546713
 20
66.31299954059921
 97
        0
 92
       24
 93
        4
 72
     1
 10
1141.961342042243
 20
411.3650233668498
 11
1182.792771100911
 21
411.3650233668498
 72
     1
 10
1182.792771100911
 20
411.3650233668498
 11
1182.792771100911
 21
449.6579974459767
 72
     1
 10
1182.792771100911
 20
449.6579974459767
 11
1141.961342042243
 21
449.6579974459767
 72
     1
 10
1141.961342042243
 20
449.6579974459767
 11
1141.961342042243
 21
411.3650233668507
 97
        0
 75
     0
 76
     1
 52
0.0
 41
10.0
 77
     0
 78
     3
 53
0.0
 43
-26444.29392057948
 44
3301.274976362995
 45
0.0
 46
63.5
 79
     0
 53
90.0
 43
-26444.29392057948
 44
3301.274976362995
 45
-127.0
 46
0.0000000000000078
 79
     2
 49
63.5
 49
-63.5
 53
90.0
 43
-26380.79392057948
 44
3301.274976362995
 45
-127.0
 46
0.0000000000000078
 79
     2
 49
-63.5
 49
63.5
 47
3.017070218097292
 98
        2
 10
1167.205618853303
 20
506.6757971557784
 10
1137.016381467322
 20
111.4395962990896
  0
TEXT
  5
4C50
330
1F
100
AcDbEntity
  8
POPIS
100
AcDbText
 10
984.7546971133677
 20
709.5912044124291
 30
0.0
 40
35.0
  1
SVISLÝ ŘEZ
 41
0.85
  7
SIMPLEX7
100
AcDbText
  0
HATCH
  5
4C51
330
1F
100
AcDbEntity
  8
STAVBA OBRYS
100
AcDbHatch
 10
0.0
 20
0.0
 30
0.0
210
0.0
220
0.0
230
1.0
  2
AR-CONC
 70
     0
 71
     0
 91
        1
 92
        7
 72
     0
 73
     1
 93
        5
 10
1243.09754654671
 20
374.5557463682029
 10
1253.097546546706
 20
374.5557463682029
 10
1253.097546546706
 20
377.5557463682019
 10
1253.09754654671
 20
397.1051157919586
 10
1243.09754654671
 20
401.987175086147
 97
        0
 75
     0
 76
     1
 52
90.0
 41
0.1
 77
     0
 78
    13
 53
140.0
 43
-26444.29392057948
 44
3301.274976362995
 45
1.593908553890309
 46
18.2184668996004
 79
     2
 49
1.905
 49
-20.955
 53
85.00000000000001
 43
-26444.29392057948
 44
3301.274976362995
 45
-19.10566428821799
 46
-3.524282597566697
 79
     2
 49
1.524
 49
-16.764
 53
190.4509999999999
 43
-26444.16109557948
 44
3302.793176362995
 45
-17.51166878202918
 46
14.69425016659592
 79
     2
 49
1.619
 49
-17.809
 53
136.1841999999999
 43
-26449.37392057948
 44
3301.274976362995
 45
4.204232793272717
 46
27.10790408921299
 79
     2
 49
2.857499999999999
 49
-31.4325
 53
186.6355999999999
 43
-26449.02357057949
 44
3303.533966362995
 45
-24.74255558900492
 46
23.74042344662371
 79
     2
 49
2.4285
 49
-26.7135
 53
81.18400000000004
 43
-26449.37392057948
 44
3301.274976362995
 45
-24.74251178605976
 46
23.74046058139339
 79
     2
 49
2.286
 49
-25.146
 53
111.0
 43
-26448.10392057948
 44
3303.814976362995
 45
10.22655185167625
 46
15.16148798353833
 79
     2
 49
1.905
 49
-20.955
 53
56.00000000000004
 43
-26448.10392057948
 44
3303.814976362995
 45
-18.41879661223192
 46
6.180202834764708
 79
     2
 49
1.524
 49
-16.764
 53
161.4514
 43
-26447.25171057948
 44
3305.078426362994
 45
-8.192285771605742
 46
21.34164907701245
 79
     2
 49
1.618999999999997
 49
-17.80899999999995
 53
127.5
 43
-26444.29392057948
 44
3301.274976362995
 45
-8.455503887315311
 46
0.3088603250591822
 79
     6
 49
0.0
 49
-16.5608
 49
0.0
 49
-17.018
 49
0.0
 49
-16.8275
 53
97.49999999999985
 43
-26444.29392057948
 44
3301.274976362995
 45
-10.01805748181195
 46
6.681966251030575
 79
     6
 49
0.0
 49
-9.702799999999998
 49
0.0
 49
-16.17979999999999
 49
0.0
 49
-6.413499999999999
 53
57.5
 43
-26444.29392057948
 44
3295.610776362995
 45
0.5728743992673473
 46
13.55905951668713
 79
     6
 49
0.0
 49
-6.35
 49
0.0
 49
-19.812
 49
0.0
 49
-26.289
 53
47.5
 43
-26444.29392057948
 44
3293.070776362994
 45
-2.5426491033333
 46
14.8129181386018
 79
     6
 49
0.0
 49
-8.255
 49
0.0
 49
-13.1572
 49
0.0
 49
-18.669
 47
0.415434097446913
 98
        1
 10
1245.683029930304
 20
382.4558557679705
  0
LINE
  5
4C52
330
1F
100
AcDbEntity
  8
POPIS
100
AcDbLine
 10
1257.671589783277
 20
394.8720407624445
 30
0.0
 11
1186.55190032419
 21
429.593094854816
 31
0.0
  0
TEXT
  5
4C53
330
1F
100
AcDbEntity
  8
POPIS
100
AcDbText
 10
1148.343504388766
 20
418.1735158634386
 30
0.0
 40
25.0
  1
08
 41
0.85
  7
SIMPLEX7
100
AcDbText
  0
LINE
  5
4C54
330
1F
100
AcDbEntity
  8
STAVBA OBRYS
100
AcDbLine
 10
1243.09754654671
 20
374.555746368202
 30
0.0
 11
1243.097546546706
 21
649.9766263699515
 31
0.0
  0
LINE
  5
4C55
330
1F
100
AcDbEntity
  8
STAVBA OBRYS
100
AcDbLine
 10
1243.09754654671
 20
160.9440562836938
 30
0.0
 11
1004.016950718215
 21
160.9440562836929
 31
0.0
  0
LINE
  5
4C56
330
1F
100
AcDbEntity
  8
STAVBA OBRYS
100
AcDbLine
 10
1047.718162750338
 20
160.9440562836938
 30
0.0
 11
1047.718162750338
 21
374.555746368202
 31
0.0
  0
LINE
  5
4C57
330
1F
100
AcDbEntity
  8
izolace
  6
IZOLACE
 48
2.1
100
AcDbLine
 10
1026.39766482298
 20
160.9440562836938
 30
0.0
 11
1026.39766482298
 21
374.555746368202
 31
0.0
  0
LINE
  5
4C58
330
1F
100
AcDbEntity
  8
POPIS
100
AcDbLine
 10
1509.120136839225
 20
513.8492051213892
 30
0.0
 11
1509.120136839223
 21
425.5465412852066
 31
0.0
  0
INSERT
  5
4C59
330
1F
100
AcDbEntity
  8
POPIS
100
AcDbBlockReference
  2
E_PUNKT
 10
1509.091068508351
 20
425.5741516608335
 30
0.0
 50
270.0
  0
LINE
  5
4C5A
330
1F
100
AcDbEntity
  8
STAVBA OBRYS
100
AcDbLine
 10
1253.09754654671
 20
374.555746368202
 30
0.0
 11
1253.097546546706
 21
649.9766263699515
 31
0.0
  0
HATCH
  5
4C5B
330
1F
100
AcDbEntity
  8
nášlap_vrstvy
100
AcDbHatch
 10
0.0
 20
0.0
 30
0.0
210
0.0
220
0.0
230
1.0
  2
SOLID
 70
     1
 71
     0
 91
        1
 92
        7
 72
     0
 73
     1
 93
        4
 10
1406.76880916064
 20
421.8134121810875
 10
1394.947942805721
 20
421.8134121810875
 10
1394.947942805721
 20
420.3134121810875
 10
1406.76880916064
 20
420.3134121810875
 97
        0
 75
     0
 76
     1
 47
0.1901250437635136
 98
        1
 10
1399.626840184891
 20
421.4050064055475
  0
LWPOLYLINE
  5
4C5C
330
1F
100
AcDbEntity
  8
nášlap_vrstvy
100
AcDbPolyline
 90
        4
 70
     1
 43
0.0
 10
1406.768809160636
 20
421.8134121810875
 10
1394.947942805721
 20
421.8134121810875
 10
1394.947942805721
 20
420.3134121810875
 10
1406.768809160636
 20
420.3134121810875
  0
LINE
  5
4C5D
330
1F
100
AcDbEntity
  8
STAVBA OBRYS
100
AcDbLine
 10
1252.280429099087
 20
374.555746368202
 30
0.0
 11
1463.708108990927
 21
374.555746368202
 31
0.0
  0
LWPOLYLINE
  5
4C5E
330
1F
100
AcDbEntity
  8
STAVBA OBRYS
100
AcDbPolyline
 90
        3
 70
     0
 43
0.0
 10
1397.705056204452
 20
374.5557463682024
 42
0.0052038508054843
 10
1394.506659264469
 20
390.9595728501998
 42
0.0065712046643719
 10
1394.156233494705
 20
392.5557463682024
  0
LWPOLYLINE
  5
4C5F
330
1F
100
AcDbEntity
  8
STAVBA OBRYS
100
AcDbPolyline
 90
        4
 70
     0
 43
0.0
 10
1314.003625725549
 20
374.5557463682024
 42
0.0334776267545482
 10
1313.566347930843
 20
378.6027212969392
 42
0.0091133963862869
 10
1311.088743605924
 20
391.2944510823989
 42
0.007828075361276
 10
1310.797844470767
 20
392.5557463682024
  0
LWPOLYLINE
  5
4C60
330
1F
100
AcDbEntity
  8
STAVBA OBRYS
100
AcDbPolyline
 90
        5
 70
     0
 43
0.0
 10
1303.759487350756
 20
374.5557463682024
 42
0.0133579731639958
 10
1303.372676861727
 20
377.0735486557577
 42
0.0072443097182286
 10
1301.252679914269
 20
387.8844395506647
 42
0.0219777111230329
 10
1300.346567412286
 20
391.4025528065002
 42
0.0092752982622242
 10
1299.971340450339
 20
392.5557463682024
  0
HATCH
  5
4C61
330
1F
100
AcDbEntity
  8
izolace
100
AcDbHatch
 10
0.0
 20
0.0
 30
0.0
210
0.0
220
0.0
230
1.0
  2
SOLID
 70
     1
 71
     0
 91
        1
 92
        7
 72
     0
 73
     1
 93
        4
 10
1301.739279256538
 20
395.555746368202
 10
1278.097546546706
 20
395.555746368202
 10
1278.097546546702
 20
392.5557463682019
 10
1301.739279256541
 20
392.5557463682019
 97
        0
 75
     0
 76
     1
 47
0.1901250437635136
 98
        3
 10
1329.982769520725
 20
393.7883014388138
 10
1293.646578693385
 20
393.5981747631525
 10
1289.651506504157
 20
394.1685547901364
  0
HATCH
  5
4C62
330
1F
100
AcDbEntity
  8
izolace
100
AcDbHatch
 10
0.0
 20
0.0
 30
0.0
210
0.0
220
0.0
230
1.0
  2
SOLID
 70
     1
 71
     0
 91
        1
 92
        7
 72
     0
 73
     1
 93
        4
 10
1349.022744676211
 20
395.555746368202
 10
1325.381011966376
 20
395.555746368202
 10
1325.381011966373
 20
392.5557463682019
 10
1349.022744676211
 20
392.5557463682019
 97
        0
 75
     0
 76
     1
 47
0.1901250437635136
 98
        1
 10
1334.738806724716
 20
394.7389348171221
  0
LWPOLYLINE
  5
4C63
330
1F
100
AcDbEntity
  8
izolace
100
AcDbPolyline
 90
        4
 70
     1
 43
0.0
 10
1396.306210095878
 20
395.555746368202
 10
1372.664477386043
 20
395.555746368202
 10
1372.664477386043
 20
392.5557463682019
 10
1396.306210095878
 20
392.5557463682019
  0
HATCH
  5
4C64
330
1F
100
AcDbEntity
  8
izolace
100
AcDbHatch
 10
0.0
 20
0.0
 30
0.0
210
0.0
220
0.0
230
1.0
  2
SOLID
 70
     1
 71
     0
 91
        1
 92
        7
 72
     0
 73
     1
 93
        4
 10
1396.306210095882
 20
395.555746368202
 10
1372.664477386047
 20
395.555746368202
 10
1372.664477386043
 20
392.5557463682019
 10
1396.306210095882
 20
392.5557463682019
 97
        0
 75
     0
 76
     1
 47
0.1901250437635136
 98
        1
 10
1382.022272144387
 20
394.7389348171221
  0
LWPOLYLINE
  5
4C65
330
1F
100
AcDbEntity
  8
STAVBA OBRYS
100
AcDbPolyline
 90
        4
 70
     0
 43
0.0
 10
1386.252518341484
 20
374.5557463682024
 42
0.0334776267545482
 10
1385.815240546778
 20
378.6027212969392
 42
0.0091133963862869
 10
1383.337636221859
 20
391.2944510823989
 42
0.007828075361276
 10
1383.046737086701
 20
392.5557463682024
  0
LWPOLYLINE
  5
4C66
330
1F
100
AcDbEntity
  8
STAVBA OBRYS
100
AcDbPolyline
 90
        3
 70
     0
 43
0.0
 10
1367.558047347977
 20
374.5557463682024
 42
0.0052038508054843
 10
1364.359650407995
 20
390.9595728501998
 42
0.0065712046643719
 10
1364.00922463823
 20
392.5557463682024
  0
LWPOLYLINE
  5
4C67
330
1F
100
AcDbEntity
  8
STAVBA OBRYS
100
AcDbPolyline
 90
        4
 70
     0
 43
0.0
 10
1356.10550948501
 20
374.5557463682024
 42
0.0334776267545482
 10
1355.668231690303
 20
378.6027212969392
 42
0.0091133963862869
 10
1353.190627365385
 20
391.2944510823989
 42
0.007828075361276
 10
1352.899728230227
 20
392.5557463682024
  0
LWPOLYLINE
  5
4C68
330
1F
100
AcDbEntity
  8
STAVBA OBRYS
100
AcDbPolyline
 90
        4
 70
     0
 43
0.0
 10
1335.95576723632
 20
374.5557463682024
 42
0.0186324019486548
 10
1332.587397864213
 20
386.2508579864269
 42
0.0582629403736403
 10
1330.927897996131
 20
389.8306921853626
 42
0.0146402521923566
 10
1329.143490014547
 20
392.5557463682024
  0
LWPOLYLINE
  5
4C69
330
1F
100
AcDbEntity
  8
STAVBA OBRYS
100
AcDbPolyline
 90
        5
 70
     0
 43
0.0
 10
1345.861371110216
 20
374.5557463682024
 42
0.0133579731639958
 10
1345.474560621188
 20
377.0735486557577
 42
0.0072443097182286
 10
1343.35456367373
 20
387.8844395506647
 42
0.0219777111230329
 10
1342.448451171746
 20
391.4025528065002
 42
0.0092752982622242
 10
1342.073224209799
 20
392.5557463682024
  0
LWPOLYLINE
  5
4C6A
330
1F
100
AcDbEntity
  8
STAVBA OBRYS
100
AcDbPolyline
 90
        5
 70
     0
 43
0.0
 10
1376.00837996669
 20
374.5557463682024
 42
0.0133579731639958
 10
1375.621569477663
 20
377.0735486557577
 42
0.0072443097182286
 10
1373.501572530204
 20
387.8844395506647
 42
0.0219777111230329
 10
1372.595460028221
 20
391.4025528065002
 42
0.0092752982622242
 10
1372.220233066274
 20
392.5557463682024
  0
LWPOLYLINE
  5
4C6B
330
1F
100
AcDbEntity
  8
STAVBA OBRYS
100
AcDbPolyline
 90
        4
 70
     0
 43
0.0
 10
1351.498390904199
 20
374.0549159374539
 10
1371.494643336192
 20
383.2709449879738
 10
1388.27253390741
 20
385.978089250665
 10
1391.536145155115
 20
386.1083906150351
  0
LWPOLYLINE
  5
4C6C
330
1F
100
AcDbEntity
  8
STAVBA OBRYS
100
AcDbPolyline
 90
        3
 70
     0
 43
0.0
 10
1325.456163588517
 20
374.5557463682024
 42
0.0052038508054843
 10
1322.257766648535
 20
390.9595728501998
 42
0.0065712046643719
 10
1321.90734087877
 20
392.5557463682024
  0
LWPOLYLINE
  5
4C6D
330
1F
100
AcDbEntity
  8
STAVBA OBRYS
100
AcDbPolyline
 90
        4
 70
     0
 43
0.0
 10
1321.351382047724
 20
374.0549159374539
 10
1341.347634479717
 20
383.2709449879738
 10
1358.125525050935
 20
385.978089250665
 10
1361.38913629864
 20
386.1083906150351
  0
POLYLINE
  5
4C6E
330
1F
100
AcDbEntity
  8
STAVBA OBRYS
100
AcDb2dPolyline
 66
     1
 10
0.0
 20
0.0
 30
0.0
  0
VERTEX
  5
4C6F
330
4C6E
100
AcDbEntity
  8
STAVBA OBRYS
100
AcDbVertex
100
AcDb2dVertex
 10
1258.265420783363
 20
374.5557463682024
 30
0.0
 42
0.0094186890201653
  0
VERTEX
  5
4C70
330
4C6E
100
AcDbEntity
  8
STAVBA OBRYS
100
AcDbVertex
100
AcDb2dVertex
 10
1257.918622220489
 20
374.7144192389704
 30
0.0
 42
0.0322692699774654
  0
VERTEX
  5
4C71
330
4C6E
100
AcDbEntity
  8
STAVBA OBRYS
100
AcDbVertex
100
AcDb2dVertex
 10
1255.027268039398
 20
375.7559427403711
 30
0.0
 42
0.0276160659512937
  0
VERTEX
  5
4C72
330
4C6E
100
AcDbEntity
  8
STAVBA OBRYS
100
AcDbVertex
100
AcDb2dVertex
 10
1254.17169160111
 20
375.9526781693156
 30
0.0
 42
0.0126891984598699
  0
VERTEX
  5
4C73
330
4C6E
100
AcDbEntity
  8
STAVBA OBRYS
100
AcDbVertex
100
AcDb2dVertex
 10
1253.248523205319
 20
376.0878805588571
 30
0.0
  0
SEQEND
  5
4C74
330
4C6E
100
AcDbEntity
  8
STAVBA OBRYS
  0
LWPOLYLINE
  5
4C75
330
1F
100
AcDbEntity
  8
STAVBA OBRYS
100
AcDbPolyline
 90
        4
 70
     0
 43
0.0
 10
1279.249498288264
 20
374.0549159374539
 10
1299.245750720257
 20
383.2709449879738
 10
1316.023641291475
 20
385.978089250665
 10
1319.28725253918
 20
386.1083906150351
  0
POLYLINE
  5
4C76
330
1F
100
AcDbEntity
  8
STAVBA OBRYS
100
AcDb2dPolyline
 66
     1
 10
0.0
 20
0.0
 30
0.0
  0
VERTEX
  5
4C77
330
4C76
100
AcDbEntity
  8
STAVBA OBRYS
100
AcDbVertex
100
AcDb2dVertex
 10
1267.318566732899
 20
374.5557463682024
 30
0.0
 42
0.0502247168465557
  0
VERTEX
  5
4C78
330
4C76
100
AcDbEntity
  8
STAVBA OBRYS
100
AcDbVertex
100
AcDb2dVertex
 10
1265.719519556733
 20
376.5632170409252
 30
0.0
 42
0.0274923553235744
  0
VERTEX
  5
4C79
330
4C76
100
AcDbEntity
  8
STAVBA OBRYS
100
AcDbVertex
100
AcDb2dVertex
 10
1263.122213826181
 20
378.9482923640633
 30
0.0
 42
0.0255412025538677
  0
VERTEX
  5
4C7A
330
4C76
100
AcDbEntity
  8
STAVBA OBRYS
100
AcDbVertex
100
AcDb2dVertex
 10
1260.07078378847
 20
381.2050060410791
 30
0.0
 42
0.0272796991712396
  0
VERTEX
  5
4C7B
330
4C76
100
AcDbEntity
  8
STAVBA OBRYS
100
AcDbVertex
100
AcDb2dVertex
 10
1255.957784635285
 20
383.621341922745
 30
0.0
 42
0.056967459841729
  0
VERTEX
  5
4C7C
330
4C76
100
AcDbEntity
  8
STAVBA OBRYS
100
AcDbVertex
100
AcDb2dVertex
 10
1253.816837354553
 20
384.4340777579444
 30
0.0
 42
0.0373408083348504
  0
VERTEX
  5
4C7D
330
4C76
100
AcDbEntity
  8
STAVBA OBRYS
100
AcDbVertex
100
AcDb2dVertex
 10
1253.594482979079
 20
384.473243298892
 30
0.0
 42
0.0052305969362967
  0
VERTEX
  5
4C7E
330
4C76
100
AcDbEntity
  8
STAVBA OBRYS
100
AcDbVertex
100
AcDb2dVertex
 10
1253.248523205319
 20
384.5042002657963
 30
0.0
  0
SEQEND
  5
4C7F
330
4C76
100
AcDbEntity
  8
STAVBA OBRYS
  0
LWPOLYLINE
  5
4C80
330
1F
100
AcDbEntity
  8
STAVBA OBRYS
100
AcDbPolyline
 90
        8
 70
     0
 43
0.0
 10
1275.670618120214
 20
374.5557463682024
 42
0.0217273703039143
 10
1273.472947859704
 20
379.5914367056801
 42
0.0882970623535771
 10
1271.835725939611
 20
381.83180575648
 42
0.0171636441953577
 10
1269.022361877753
 20
384.3457231117253
 42
0.0157521173632038
 10
1265.783507040717
 20
386.8772191642318
 42
0.0073640874174249
 10
1261.149857684396
 20
390.1656205899679
 42
0.0194185739168057
 10
1259.327814364719
 20
391.3171895892491
 42
0.0229547400386702
 10
1256.942356300704
 20
392.5557463682024
  0
LWPOLYLINE
  5
4C81
330
1F
100
AcDbEntity
  8
STAVBA OBRYS
100
AcDbPolyline
 90
        3
 70
     0
 43
0.0
 10
1262.920090356107
 20
374.5557463682024
 10
1276.712138282747
 20
381.4568179316892
 10
1284.879242931872
 20
389.6381196327828
  0
LWPOLYLINE
  5
4C82
330
1F
100
AcDbEntity
  8
STAVBA OBRYS
100
AcDbPolyline
 90
        6
 70
     0
 43
0.0
 10
1285.043422128016
 20
374.5557463682024
 42
0.0121757200102759
 10
1283.673432414355
 20
379.2276637006697
 42
0.0457786284636091
 10
1282.465409524739
 20
382.076274083546
 42
0.0295006114745606
 10
1280.04934907044
 20
386.0031732969481
 42
0.0258674098621065
 10
1276.816673756476
 20
390.148953375702
 42
0.0093759062953949
 10
1274.650861576819
 20
392.5557463682024
  0
LWPOLYLINE
  5
4C83
330
1F
100
AcDbEntity
  8
STAVBA OBRYS
100
AcDbPolyline
 90
        4
 70
     0
 43
0.0
 10
1293.853883476859
 20
374.5557463682024
 42
0.0186324019486548
 10
1290.485514104752
 20
386.2508579864269
 42
0.0582629403736403
 10
1288.826014236671
 20
389.8306921853626
 42
0.0146402521923566
 10
1287.041606255087
 20
392.5557463682024
  0
HATCH
  5
4C84
330
1F
100
AcDbEntity
  8
STAVBA OBRYS
100
AcDbHatch
 10
0.0
 20
0.0
 30
0.0
210
0.0
220
0.0
230
1.0
  2
AR-CONC
 70
     0
 71
     0
 91
        1
 92
        7
 72
     0
 73
     1
 93
        5
 10
1253.09754654671
 20
371.5557463682024
 10
1263.097546546706
 20
371.5557463682024
 10
1263.097546546706
 20
374.5557463682015
 10
1263.09754654671
 20
394.1051157919581
 10
1253.09754654671
 20
398.9871750861465
 97
        0
 75
     0
 76
     1
 52
90.0
 41
0.1
 77
     0
 78
    13
 53
140.0
 43
-26434.29392057948
 44
3298.274976362995
 45
1.593908553890309
 46
18.2184668996004
 79
     2
 49
1.905
 49
-20.955
 53
85.00000000000001
 43
-26434.29392057948
 44
3298.274976362995
 45
-19.10566428821799
 46
-3.524282597566697
 79
     2
 49
1.524
 49
-16.764
 53
190.4509999999999
 43
-26434.16109557948
 44
3299.793176362995
 45
-17.51166878202918
 46
14.69425016659592
 79
     2
 49
1.619
 49
-17.809
 53
136.1841999999999
 43
-26439.37392057948
 44
3298.274976362995
 45
4.204232793272717
 46
27.10790408921299
 79
     2
 49
2.857499999999999
 49
-31.4325
 53
186.6355999999999
 43
-26439.02357057948
 44
3300.533966362994
 45
-24.74255558900492
 46
23.74042344662371
 79
     2
 49
2.4285
 49
-26.7135
 53
81.18400000000004
 43
-26439.37392057948
 44
3298.274976362995
 45
-24.74251178605976
 46
23.74046058139339
 79
     2
 49
2.286
 49
-25.146
 53
111.0
 43
-26438.10392057948
 44
3300.814976362994
 45
10.22655185167625
 46
15.16148798353833
 79
     2
 49
1.905
 49
-20.955
 53
56.00000000000004
 43
-26438.10392057948
 44
3300.814976362994
 45
-18.41879661223192
 46
6.180202834764708
 79
     2
 49
1.524
 49
-16.764
 53
161.4514
 43
-26437.25171057949
 44
3302.078426362994
 45
-8.192285771605742
 46
21.34164907701245
 79
     2
 49
1.618999999999997
 49
-17.80899999999995
 53
127.5
 43
-26434.29392057948
 44
3298.274976362995
 45
-8.455503887315311
 46
0.3088603250591822
 79
     6
 49
0.0
 49
-16.5608
 49
0.0
 49
-17.018
 49
0.0
 49
-16.8275
 53
97.49999999999985
 43
-26434.29392057948
 44
3298.274976362995
 45
-10.01805748181195
 46
6.681966251030575
 79
     6
 49
0.0
 49
-9.702799999999998
 49
0.0
 49
-16.17979999999999
 49
0.0
 49
-6.413499999999999
 53
57.5
 43
-26434.29392057948
 44
3292.610776362994
 45
0.5728743992673473
 46
13.55905951668713
 79
     6
 49
0.0
 49
-6.35
 49
0.0
 49
-19.812
 49
0.0
 49
-26.289
 53
47.5
 43
-26434.29392057948
 44
3290.070776362994
 45
-2.5426491033333
 46
14.8129181386018
 79
     6
 49
0.0
 49
-8.255
 49
0.0
 49
-13.1572
 49
0.0
 49
-18.669
 47
0.415434097446913
 98
        1
 10
1255.683029930304
 20
379.45585576797
  0
HATCH
  5
4C85
330
1F
100
AcDbEntity
  8
nášlap_vrstvy
100
AcDbHatch
 10
0.0
 20
0.0
 30
0.0
210
0.0
220
0.0
230
1.0
  2
SOLID
 70
     1
 71
     0
 91
        1
 92
        7
 72
     0
 73
     1
 93
        4
 10
1359.48534374097
 20
421.8134121810875
 10
1347.66447738605
 20
421.8134121810875
 10
1347.66447738605
 20
420.3134121810875
 10
1359.48534374097
 20
420.3134121810875
 97
        0
 75
     0
 76
     1
 47
0.1901250437635136
 98
        1
 10
1352.34337476522
 20
421.4050064055475
  0
LWPOLYLINE
  5
4C86
330
1F
100
AcDbEntity
  8
nášlap_vrstvy
100
AcDbPolyline
 90
        4
 70
     1
 43
0.0
 10
1359.485343740966
 20
421.8134121810875
 10
1347.66447738605
 20
421.8134121810875
 10
1347.66447738605
 20
420.3134121810875
 10
1359.485343740966
 20
420.3134121810875
  0
HATCH
  5
4C87
330
1F
100
AcDbEntity
  8
nášlap_vrstvy
100
AcDbHatch
 10
0.0
 20
0.0
 30
0.0
210
0.0
220
0.0
230
1.0
  2
SOLID
 70
     1
 71
     0
 91
        1
 92
        7
 72
     0
 73
     1
 93
        4
 10
1383.127076450805
 20
421.8134121810875
 10
1371.306210095889
 20
421.8134121810875
 10
1371.306210095886
 20
420.3134121810875
 10
1383.127076450805
 20
420.3134121810875
 97
        0
 75
     0
 76
     1
 47
0.1901250437635136
 98
        1
 10
1375.985107475059
 20
421.4050064055475
  0
LWPOLYLINE
  5
4C88
330
1F
100
AcDbEntity
  8
nášlap_vrstvy
100
AcDbPolyline
 90
        4
 70
     1
 43
0.0
 10
1383.127076450805
 20
421.8134121810875
 10
1371.306210095886
 20
421.8134121810875
 10
1371.306210095886
 20
420.3134121810875
 10
1383.127076450805
 20
420.3134121810875
  0
HATCH
  5
4C89
330
1F
100
AcDbEntity
  8
nášlap_vrstvy
100
AcDbHatch
 10
0.0
 20
0.0
 30
0.0
210
0.0
220
0.0
230
1.0
  2
SOLID
 70
     1
 71
     0
 91
        1
 92
        7
 72
     0
 73
     1
 93
        4
 10
1312.201878321299
 20
421.8134121810875
 10
1300.38101196638
 20
421.8134121810875
 10
1300.38101196638
 20
420.3134121810875
 10
1312.201878321299
 20
420.3134121810875
 97
        0
 75
     0
 76
     1
 47
0.1901250437635136
 98
        1
 10
1305.05990934555
 20
421.4050064055475
  0
LWPOLYLINE
  5
4C8A
330
1F
100
AcDbEntity
  8
nášlap_vrstvy
100
AcDbPolyline
 90
        4
 70
     1
 43
0.0
 10
1312.201878321296
 20
421.8134121810875
 10
1300.38101196638
 20
421.8134121810875
 10
1300.38101196638
 20
420.3134121810875
 10
1312.201878321296
 20
420.3134121810875
  0
LWPOLYLINE
  5
4C8B
330
1F
100
AcDbEntity
  8
nášlap_vrstvy
100
AcDbPolyline
 90
        4
 70
     1
 43
0.0
 10
1264.918412901625
 20
421.8134121810875
 10
1253.09754654671
 20
421.8134121810875
 10
1253.09754654671
 20
420.3134121810875
 10
1264.918412901625
 20
420.3134121810875
  0
HATCH
  5
4C8C
330
1F
100
AcDbEntity
  8
nášlap_vrstvy
100
AcDbHatch
 10
0.0
 20
0.0
 30
0.0
210
0.0
220
0.0
230
1.0
  2
SOLID
 70
     1
 71
     0
 91
        1
 92
        7
 72
     0
 73
     1
 93
        4
 10
1264.918412901625
 20
421.8134121810875
 10
1253.09754654671
 20
421.8134121810875
 10
1253.09754654671
 20
420.3134121810875
 10
1264.918412901629
 20
420.3134121810875
 97
        0
 75
     0
 76
     1
 47
0.1901250437635136
 98
        3
 10
1279.040158033721
 20
420.9296897163934
 10
1260.872062620049
 20
420.8346263785627
 10
1258.874526525437
 20
421.1198163920547
  0
LWPOLYLINE
  5
4C8D
330
1F
100
AcDbEntity
  8
nášlap_vrstvy
100
AcDbPolyline
 90
        4
 70
     1
 43
0.0
 10
1288.560145611464
 20
421.8134121810875
 10
1276.739279256545
 20
421.8134121810875
 10
1276.739279256545
 20
420.3134121810875
 10
1288.560145611464
 20
420.3134121810875
  0
HATCH
  5
4C8E
330
1F
100
AcDbEntity
  8
nášlap_vrstvy
100
AcDbHatch
 10
0.0
 20
0.0
 30
0.0
210
0.0
220
0.0
230
1.0
  2
SOLID
 70
     1
 71
     0
 91
        1
 92
        7
 72
     0
 73
     1
 93
        4
 10
1288.560145611464
 20
421.8134121810875
 10
1276.739279256548
 20
421.8134121810875
 10
1276.739279256545
 20
420.3134121810875
 10
1288.560145611464
 20
420.3134121810875
 97
        0
 75
     0
 76
     1
 47
0.1901250437635136
 98
        1
 10
1281.418176635718
 20
421.4050064055475
  0
LINE
  5
4C8F
330
1F
100
AcDbEntity
  8
SPOJOVACÍ
  6
DASHED
100
AcDbLine
 10
1293.337558853873
 20
396.6922616205448
 30
0.0
 11
1293.337558853873
 21
394.2146081639331
 31
0.0
  0
LINE
  5
4C90
330
1F
100
AcDbEntity
  8
SPOJOVACÍ
  6
DASHED
100
AcDbLine
 10
1292.678492097414
 20
394.4270045050726
 30
0.0
 11
1296.642008369815
 21
393.0942858318013
 31
0.0
  0
LINE
  5
4C91
330
1F
100
AcDbEntity
  8
SPOJOVACÍ
  6
DASHED
100
AcDbLine
 10
1297.012106713341
 20
392.880977918474
 30
0.0
 11
1296.642008369815
 21
393.0942858318013
 31
0.0
  0
LINE
  5
4C92
330
1F
100
AcDbEntity
  8
SPOJOVACÍ
  6
DASHED
100
AcDbLine
 10
1292.308393749609
 20
394.056906159407
 30
0.0
 11
1292.678492097414
 21
394.4270045050726
 31
0.0
  0
LINE
  5
4C93
330
1F
100
AcDbEntity
  8
SPOJOVACÍ
  6
DASHED
100
AcDbLine
 10
1292.308393749609
 20
394.056906159407
 30
0.0
 11
1292.678492097414
 21
393.8426866736282
 31
0.0
  0
LINE
  5
4C94
330
1F
100
AcDbEntity
  8
SPOJOVACÍ
  6
DASHED
100
AcDbLine
 10
1292.308393749609
 20
394.056906159407
 30
0.0
 11
1297.012106713341
 21
392.880977918474
 31
0.0
  0
LINE
  5
4C95
330
1F
100
AcDbEntity
  8
SPOJOVACÍ
  6
DASHED
100
AcDbLine
 10
1295.982941613355
 20
395.7970976417856
 30
0.0
 11
1295.982941613355
 21
393.3267367632107
 31
0.0
  0
LINE
  5
4C96
330
1F
100
AcDbEntity
  8
SPOJOVACÍ
  6
DASHED
100
AcDbLine
 10
1299.658401042336
 20
420.3134121810872
 30
0.0
 11
1299.658401042336
 21
419.1374839398905
 31
0.0
  0
LINE
  5
4C97
330
1F
100
AcDbEntity
  8
SPOJOVACÍ
  6
DASHED
100
AcDbLine
 10
1298.957401959892
 20
418.8074947747646
 30
0.0
 11
1299.658401042336
 21
419.1374839398905
 31
0.0
  0
LINE
  5
4C98
330
1F
100
AcDbEntity
  8
SPOJOVACÍ
  6
DASHED
100
AcDbLine
 10
1297.74501082717
 20
417.9077729345318
 30
0.0
 11
1298.957401959892
 21
418.8074947747646
 31
0.0
  0
LINE
  5
4C99
330
1F
100
AcDbEntity
  8
SPOJOVACÍ
  6
DASHED
100
AcDbLine
 10
1296.806091378585
 20
416.7245521152909
 30
0.0
 11
1297.74501082717
 21
417.9077729345318
 31
0.0
  0
LINE
  5
4C9A
330
1F
100
AcDbEntity
  8
SPOJOVACÍ
  6
DASHED
100
AcDbLine
 10
1296.205365246421
 20
415.3389622497817
 30
0.0
 11
1296.806091378585
 21
416.7245521152909
 31
0.0
  0
LINE
  5
4C9B
330
1F
100
AcDbEntity
  8
SPOJOVACÍ
  6
DASHED
100
AcDbLine
 10
1295.982941613355
 20
413.8458068554211
 30
0.0
 11
1296.205365246421
 21
415.3389622497817
 31
0.0
  0
LINE
  5
4C9C
330
1F
100
AcDbEntity
  8
SPOJOVACÍ
  6
DASHED
100
AcDbLine
 10
1295.982941613355
 20
413.8458068554228
 30
0.0
 11
1295.982941613355
 21
411.6317556409414
 31
0.0
  0
LINE
  5
4C9D
330
1F
100
AcDbEntity
  8
SPOJOVACÍ
  6
DASHED
100
AcDbLine
 10
1292.678492097414
 20
412.7428653907719
 30
0.0
 11
1296.642008369815
 21
411.4101467177716
 31
0.0
  0
LINE
  5
4C9E
330
1F
100
AcDbEntity
  8
SPOJOVACÍ
  6
DASHED
100
AcDbLine
 10
1297.012106713341
 20
411.1959272319856
 30
0.0
 11
1296.642008369815
 21
411.4101467177716
 31
0.0
  0
LINE
  5
4C9F
330
1F
100
AcDbEntity
  8
SPOJOVACÍ
  6
DASHED
100
AcDbLine
 10
1297.012106713341
 20
411.1959272319856
 30
0.0
 11
1296.642008369815
 21
410.82582888632
 31
0.0
  0
LINE
  5
4CA0
330
1F
100
AcDbEntity
  8
SPOJOVACÍ
  6
DASHED
100
AcDbLine
 10
1292.678492097414
 20
412.1585475595912
 30
0.0
 11
1296.642008369815
 21
410.82582888632
 31
0.0
  0
LINE
  5
4CA1
330
1F
100
AcDbEntity
  8
SPOJOVACÍ
  6
DASHED
100
AcDbLine
 10
1295.982941613355
 20
411.052810384068
 30
0.0
 11
1295.982941613355
 21
408.5842726501397
 31
0.0
  0
LINE
  5
4CA2
330
1F
100
AcDbEntity
  8
SPOJOVACÍ
  6
DASHED
100
AcDbLine
 10
1292.678492097414
 20
409.7002175873204
 30
0.0
 11
1296.642008369815
 21
408.3674989143202
 31
0.0
  0
LINE
  5
4CA3
330
1F
100
AcDbEntity
  8
SPOJOVACÍ
  6
DASHED
100
AcDbLine
 10
1297.012106713341
 20
408.1532794285341
 30
0.0
 11
1296.642008369815
 21
408.3674989143202
 31
0.0
  0
LINE
  5
4CA4
330
1F
100
AcDbEntity
  8
SPOJOVACÍ
  6
DASHED
100
AcDbLine
 10
1297.012106713341
 20
408.1532794285341
 30
0.0
 11
1296.642008369815
 21
407.7831810828684
 31
0.0
  0
LINE
  5
4CA5
330
1F
100
AcDbEntity
  8
SPOJOVACÍ
  6
DASHED
100
AcDbLine
 10
1292.678492097414
 20
409.1158997561398
 30
0.0
 11
1296.642008369815
 21
407.7831810828684
 31
0.0
  0
LINE
  5
4CA6
330
1F
100
AcDbEntity
  8
SPOJOVACÍ
  6
DASHED
100
AcDbLine
 10
1295.982941613355
 20
408.0101625806165
 30
0.0
 11
1295.982941613355
 21
405.5416248466882
 31
0.0
  0
LINE
  5
4CA7
330
1F
100
AcDbEntity
  8
SPOJOVACÍ
  6
DASHED
100
AcDbLine
 10
1292.678492097414
 20
406.6418925885501
 30
0.0
 11
1296.642008369815
 21
405.3100854874665
 31
0.0
  0
LINE
  5
4CA8
330
1F
100
AcDbEntity
  8
SPOJOVACÍ
  6
DASHED
100
AcDbLine
 10
1297.012106713341
 20
405.0958660016805
 30
0.0
 11
1296.642008369815
 21
405.3100854874665
 31
0.0
  0
LINE
  5
4CA9
330
1F
100
AcDbEntity
  8
SPOJOVACÍ
  6
DASHED
100
AcDbLine
 10
1297.012106713341
 20
405.0958660016805
 30
0.0
 11
1296.642008369815
 21
404.7257676562859
 31
0.0
  0
LINE
  5
4CAA
330
1F
100
AcDbEntity
  8
SPOJOVACÍ
  6
DASHED
100
AcDbLine
 10
1292.678492097414
 20
406.0575747570984
 30
0.0
 11
1296.642008369815
 21
404.7257676562859
 31
0.0
  0
LINE
  5
4CAB
330
1F
100
AcDbEntity
  8
SPOJOVACÍ
  6
DASHED
100
AcDbLine
 10
1295.982941613355
 20
404.9573070152365
 30
0.0
 11
1295.982941613355
 21
402.4796535586248
 31
0.0
  0
LINE
  5
4CAC
330
1F
100
AcDbEntity
  8
SPOJOVACÍ
  6
DASHED
100
AcDbLine
 10
1292.678492097414
 20
403.6001563572864
 30
0.0
 11
1296.642008369815
 21
402.2674376842862
 31
0.0
  0
LINE
  5
4CAD
330
1F
100
AcDbEntity
  8
SPOJOVACÍ
  6
DASHED
100
AcDbLine
 10
1297.012106713341
 20
402.0532181985
 30
0.0
 11
1296.642008369815
 21
402.2674376842862
 31
0.0
  0
LINE
  5
4CAE
330
1F
100
AcDbEntity
  8
SPOJOVACÍ
  6
DASHED
100
AcDbLine
 10
1297.012106713341
 20
402.0532181985
 30
0.0
 11
1296.642008369815
 21
401.6831198528344
 31
0.0
  0
LINE
  5
4CAF
330
1F
100
AcDbEntity
  8
SPOJOVACÍ
  6
DASHED
100
AcDbLine
 10
1292.678492097414
 20
403.0158385261057
 30
0.0
 11
1296.642008369815
 21
401.6831198528344
 31
0.0
  0
LINE
  5
4CB0
330
1F
100
AcDbEntity
  8
SPOJOVACÍ
  6
DASHED
100
AcDbLine
 10
1295.982941613355
 20
401.9101013505824
 30
0.0
 11
1295.982941613355
 21
399.4415636166542
 31
0.0
  0
LINE
  5
4CB1
330
1F
100
AcDbEntity
  8
SPOJOVACÍ
  6
DASHED
100
AcDbLine
 10
1292.678492097414
 20
400.5418313585161
 30
0.0
 11
1296.642008369815
 21
399.2100242574325
 31
0.0
  0
LINE
  5
4CB2
330
1F
100
AcDbEntity
  8
SPOJOVACÍ
  6
DASHED
100
AcDbLine
 10
1297.012106713341
 20
398.9958047716464
 30
0.0
 11
1296.642008369815
 21
399.2100242574325
 31
0.0
  0
LINE
  5
4CB3
330
1F
100
AcDbEntity
  8
SPOJOVACÍ
  6
DASHED
100
AcDbLine
 10
1297.012106713341
 20
398.9958047716464
 30
0.0
 11
1296.642008369815
 21
398.6257064262519
 31
0.0
  0
LINE
  5
4CB4
330
1F
100
AcDbEntity
  8
SPOJOVACÍ
  6
DASHED
100
AcDbLine
 10
1292.678492097414
 20
399.9575135270644
 30
0.0
 11
1296.642008369815
 21
398.6257064262519
 31
0.0
  0
LINE
  5
4CB5
330
1F
100
AcDbEntity
  8
SPOJOVACÍ
  6
DASHED
100
AcDbLine
 10
1295.982941613355
 20
398.8572457852025
 30
0.0
 11
1295.982941613355
 21
396.3795923285907
 31
0.0
  0
LINE
  5
4CB6
330
1F
100
AcDbEntity
  8
SPOJOVACÍ
  6
DASHED
100
AcDbLine
 10
1292.678492097414
 20
397.4844179316625
 30
0.0
 11
1296.642008369815
 21
396.1516992586549
 31
0.0
  0
LINE
  5
4CB7
330
1F
100
AcDbEntity
  8
SPOJOVACÍ
  6
DASHED
100
AcDbLine
 10
1292.308393749609
 20
403.229146439433
 30
0.0
 11
1292.678492097414
 21
403.0158385261057
 31
0.0
  0
LINE
  5
4CB8
330
1F
100
AcDbEntity
  8
SPOJOVACÍ
  6
DASHED
100
AcDbLine
 10
1292.308393749609
 20
403.229146439433
 30
0.0
 11
1292.678492097414
 21
403.6001563572864
 31
0.0
  0
LINE
  5
4CB9
330
1F
100
AcDbEntity
  8
SPOJOVACÍ
  6
DASHED
100
AcDbLine
 10
1293.337558853873
 20
405.8451784159589
 30
0.0
 11
1293.337558853873
 21
403.374817537384
 31
0.0
  0
LINE
  5
4CBA
330
1F
100
AcDbEntity
  8
SPOJOVACÍ
  6
DASHED
100
AcDbLine
 10
1292.308393749609
 20
406.2717942428845
 30
0.0
 11
1292.678492097414
 21
406.0575747570984
 31
0.0
  0
LINE
  5
4CBB
330
1F
100
AcDbEntity
  8
SPOJOVACÍ
  6
DASHED
100
AcDbLine
 10
1292.308393749609
 20
406.2717942428845
 30
0.0
 11
1292.678492097414
 21
406.6418925885501
 31
0.0
  0
LINE
  5
4CBC
330
1F
100
AcDbEntity
  8
SPOJOVACÍ
  6
DASHED
100
AcDbLine
 10
1293.337558853873
 20
408.9053265593758
 30
0.0
 11
1293.337558853873
 21
406.4367888254475
 31
0.0
  0
LINE
  5
4CBD
330
1F
100
AcDbEntity
  8
SPOJOVACÍ
  6
DASHED
100
AcDbLine
 10
1292.308393749609
 20
409.329207669467
 30
0.0
 11
1292.678492097414
 21
409.1158997561398
 31
0.0
  0
LINE
  5
4CBE
330
1F
100
AcDbEntity
  8
SPOJOVACÍ
  6
DASHED
100
AcDbLine
 10
1292.308393749609
 20
409.329207669467
 30
0.0
 11
1292.678492097414
 21
409.7002175873204
 31
0.0
  0
LINE
  5
4CBF
330
1F
100
AcDbEntity
  8
SPOJOVACÍ
  6
DASHED
100
AcDbLine
 10
1293.337558853873
 20
411.9479743628272
 30
0.0
 11
1293.337558853873
 21
409.4794366288989
 31
0.0
  0
LINE
  5
4CC0
330
1F
100
AcDbEntity
  8
SPOJOVACÍ
  6
DASHED
100
AcDbLine
 10
1292.308393749609
 20
412.3718554729185
 30
0.0
 11
1292.678492097414
 21
412.1585475595912
 31
0.0
  0
LINE
  5
4CC1
330
1F
100
AcDbEntity
  8
SPOJOVACÍ
  6
DASHED
100
AcDbLine
 10
1292.308393749609
 20
412.3718554729185
 30
0.0
 11
1292.678492097414
 21
412.7428653907719
 31
0.0
  0
LINE
  5
4CC2
330
1F
100
AcDbEntity
  8
SPOJOVACÍ
  6
DASHED
100
AcDbLine
 10
1293.305198037732
 20
414.231401929751
 30
0.0
 11
1293.337558853873
 21
412.521256467604
 31
0.0
  0
LINE
  5
4CC3
330
1F
100
AcDbEntity
  8
SPOJOVACÍ
  6
DASHED
100
AcDbLine
 10
1293.27283722159
 20
414.616997004081
 30
0.0
 11
1293.337558853873
 21
413.8458068554211
 31
0.0
  0
LINE
  5
4CC4
330
1F
100
AcDbEntity
  8
SPOJOVACÍ
  6
DASHED
100
AcDbLine
 10
1292.853513974577
 20
416.0682200737902
 30
0.0
 11
1293.27283722159
 21
414.616997004081
 31
0.0
  0
LINE
  5
4CC5
330
1F
100
AcDbEntity
  8
SPOJOVACÍ
  6
DASHED
100
AcDbLine
 10
1292.073208104845
 20
417.3608295665218
 30
0.0
 11
1292.853513974577
 21
416.0682200737902
 31
0.0
  0
LINE
  5
4CC6
330
1F
100
AcDbEntity
  8
SPOJOVACÍ
  6
DASHED
100
AcDbLine
 10
1290.984790802494
 20
418.4082261161457
 30
0.0
 11
1292.073208104845
 21
417.3608295665218
 31
0.0
  0
LINE
  5
4CC7
330
1F
100
AcDbEntity
  8
SPOJOVACÍ
  6
DASHED
100
AcDbLine
 10
1289.662099420614
 20
419.1374839398905
 30
0.0
 11
1290.984790802494
 21
418.4082261161457
 31
0.0
  0
LINE
  5
4CC8
330
1F
100
AcDbEntity
  8
SPOJOVACÍ
  6
DASHED
100
AcDbLine
 10
1289.662099420614
 20
420.3134121810872
 30
0.0
 11
1289.662099420614
 21
419.1374839398905
 31
0.0
  0
LINE
  5
4CC9
330
1F
100
AcDbEntity
  8
SPOJOVACÍ
  6
DASHED
100
AcDbLine
 10
1292.678492097414
 20
396.9001001002108
 30
0.0
 11
1296.642008369815
 21
395.5673814272105
 31
0.0
  0
LINE
  5
4CCA
330
1F
100
AcDbEntity
  8
SPOJOVACÍ
  6
DASHED
100
AcDbLine
 10
1292.308393749609
 20
397.1143195859969
 30
0.0
 11
1292.678492097414
 21
396.9001001002108
 31
0.0
  0
LINE
  5
4CCB
330
1F
100
AcDbEntity
  8
SPOJOVACÍ
  6
DASHED
100
AcDbLine
 10
1292.308393749609
 20
397.1143195859969
 30
0.0
 11
1292.678492097414
 21
397.4844179316625
 31
0.0
  0
LINE
  5
4CCC
330
1F
100
AcDbEntity
  8
SPOJOVACÍ
  6
DASHED
100
AcDbLine
 10
1293.337558853873
 20
399.7451171859248
 30
0.0
 11
1293.337558853873
 21
397.27475630735
 31
0.0
  0
LINE
  5
4CCD
330
1F
100
AcDbEntity
  8
SPOJOVACÍ
  6
DASHED
100
AcDbLine
 10
1292.308393749609
 20
400.1717330128505
 30
0.0
 11
1292.678492097414
 21
399.9575135270644
 31
0.0
  0
LINE
  5
4CCE
330
1F
100
AcDbEntity
  8
SPOJOVACÍ
  6
DASHED
100
AcDbLine
 10
1292.308393749609
 20
400.1717330128505
 30
0.0
 11
1292.678492097414
 21
400.5418313585161
 31
0.0
  0
LINE
  5
4CCF
330
1F
100
AcDbEntity
  8
SPOJOVACÍ
  6
DASHED
100
AcDbLine
 10
1293.337558853873
 20
402.8052653293417
 30
0.0
 11
1293.337558853873
 21
400.3367275954134
 31
0.0
  0
LINE
  5
4CD0
330
1F
100
AcDbEntity
  8
SPOJOVACÍ
  6
DASHED
100
AcDbLine
 10
1289.662099420614
 20
419.1374839398905
 30
0.0
 11
1299.658401042336
 21
419.1374839398905
 31
0.0
  0
LINE
  5
4CD1
330
1F
100
AcDbEntity
  8
SPOJOVACÍ
  6
DASHED
100
AcDbLine
 10
1292.308393749609
 20
412.3718554729185
 30
0.0
 11
1297.012106713341
 21
411.1959272319856
 31
0.0
  0
LINE
  5
4CD2
330
1F
100
AcDbEntity
  8
SPOJOVACÍ
  6
DASHED
100
AcDbLine
 10
1292.308393749609
 20
409.329207669467
 30
0.0
 11
1297.012106713341
 21
408.1532794285341
 31
0.0
  0
LINE
  5
4CD3
330
1F
100
AcDbEntity
  8
SPOJOVACÍ
  6
DASHED
100
AcDbLine
 10
1292.308393749609
 20
406.2717942428845
 30
0.0
 11
1297.012106713341
 21
405.0958660016805
 31
0.0
  0
LINE
  5
4CD4
330
1F
100
AcDbEntity
  8
SPOJOVACÍ
  6
DASHED
100
AcDbLine
 10
1297.012106713341
 20
395.9383913450638
 30
0.0
 11
1296.642008369815
 21
396.1516992586549
 31
0.0
  0
LINE
  5
4CD5
330
1F
100
AcDbEntity
  8
SPOJOVACÍ
  6
DASHED
100
AcDbLine
 10
1297.012106713341
 20
395.9383913450638
 30
0.0
 11
1296.642008369815
 21
395.5673814272105
 31
0.0
  0
LINE
  5
4CD6
330
1F
100
AcDbEntity
  8
SPOJOVACÍ
  6
DASHED
100
AcDbLine
 10
1292.308393749609
 20
403.229146439433
 30
0.0
 11
1297.012106713341
 21
402.0532181985
 31
0.0
  0
LINE
  5
4CD7
330
1F
100
AcDbEntity
  8
SPOJOVACÍ
  6
DASHED
100
AcDbLine
 10
1292.308393749609
 20
397.1143195859969
 30
0.0
 11
1297.012106713341
 21
395.9383913450638
 31
0.0
  0
LINE
  5
4CD8
330
1F
100
AcDbEntity
  8
SPOJOVACÍ
  6
DASHED
100
AcDbLine
 10
1292.308393749609
 20
400.1717330128505
 30
0.0
 11
1297.012106713341
 21
398.9958047716464
 31
0.0
  0
LINE
  5
4CD9
330
1F
100
AcDbEntity
  8
SPOJOVACÍ
  6
DASHED
100
AcDbLine
 10
1289.662099420614
 20
420.3134121810872
 30
0.0
 11
1299.658401042336
 21
420.3134121810872
 31
0.0
  0
INSERT
  5
4CDA
330
1F
100
AcDbEntity
  8
POPIS
100
AcDbBlockReference
  2
E_PUNKT
 10
1257.53956667256
 20
394.9534776345493
 30
0.0
 50
270.0
  0
LINE
  5
4CDB
330
1F
100
AcDbEntity
  8
STAVBA OBRYS
100
AcDbLine
 10
1253.097546546706
 20
374.555746368202
 30
0.0
 11
1253.097546546706
 21
377.5557463682019
 31
0.0
  0
LINE
  5
4CDC
330
1F
100
AcDbEntity
  8
SPOJOVACÍ
  6
DASHED
100
AcDbLine
 10
1295.077750339461
 20
382.1007241366643
 30
0.0
 11
1295.340283155205
 21
384.2028098139491
 31
0.0
  0
LINE
  5
4CDD
330
1F
100
AcDbEntity
  8
SPOJOVACÍ
  6
DASHED
100
AcDbLine
 10
1293.921876687728
 20
384.6731811104292
 30
0.0
 11
1294.206287235979
 21
382.3988082722809
 31
0.0
  0
LINE
  5
4CDE
330
1F
100
AcDbEntity
  8
SPOJOVACÍ
  6
DASHED
100
AcDbLine
 10
1293.663901732387
 20
382.0752001127331
 30
0.0
 11
1295.775103131015
 21
381.7707349712747
 31
0.0
  0
LINE
  5
4CDF
330
1F
100
AcDbEntity
  8
SPOJOVACÍ
  6
DASHED
100
AcDbLine
 10
1294.034000075914
 20
382.4452984583987
 30
0.0
 11
1295.405004787488
 21
381.9840428848657
 31
0.0
  0
LINE
  5
4CE0
330
1F
100
AcDbEntity
  8
SPOJOVACÍ
  6
DASHED
100
AcDbLine
 10
1294.034000075914
 20
381.8609806269543
 30
0.0
 11
1295.405004787488
 21
381.3997250534213
 31
0.0
  0
LINE
  5
4CE1
330
1F
100
AcDbEntity
  8
SPOJOVACÍ
  6
DASHED
100
AcDbLine
 10
1295.775103131015
 20
381.7707349712747
 30
0.0
 11
1295.405004787488
 21
381.9840428848657
 31
0.0
  0
LINE
  5
4CE2
330
1F
100
AcDbEntity
  8
SPOJOVACÍ
  6
DASHED
100
AcDbLine
 10
1295.775103131015
 20
381.7707349712747
 30
0.0
 11
1295.405004787488
 21
381.3997250534213
 31
0.0
  0
LINE
  5
4CE3
330
1F
100
AcDbEntity
  8
SPOJOVACÍ
  6
DASHED
100
AcDbLine
 10
1293.663901732387
 20
382.0752001127331
 30
0.0
 11
1294.034000075914
 21
382.4452984583987
 31
0.0
  0
LINE
  5
4CE4
330
1F
100
AcDbEntity
  8
SPOJOVACÍ
  6
DASHED
100
AcDbLine
 10
1293.663901732387
 20
382.0752001127331
 30
0.0
 11
1294.034000075914
 21
381.8609806269543
 31
0.0
  0
LINE
  5
4CE5
330
1F
100
AcDbEntity
  8
SPOJOVACÍ
  6
DASHED
100
AcDbLine
 10
1294.281947736654
 20
381.7907895615445
 30
0.0
 11
1294.660250231475
 21
378.7634580200957
 31
0.0
  0
LINE
  5
4CE6
330
1F
100
AcDbEntity
  8
SPOJOVACÍ
  6
DASHED
100
AcDbLine
 10
1294.660250231475
 20
378.7634580200957
 30
0.0
 11
1295.007559272981
 21
381.5428419013388
 31
0.0
  0
LINE
  5
4CE7
330
1F
100
AcDbEntity
  8
SPOJOVACÍ
  6
DASHED
100
AcDbLine
 10
1292.678492097414
 20
391.36959107849
 30
0.0
 11
1296.642008369815
 21
390.0368724052187
 31
0.0
  0
LINE
  5
4CE8
330
1F
100
AcDbEntity
  8
SPOJOVACÍ
  6
DASHED
100
AcDbLine
 10
1292.678492097414
 20
390.7852732470384
 30
0.0
 11
1296.642008369815
 21
389.452554573767
 31
0.0
  0
LINE
  5
4CE9
330
1F
100
AcDbEntity
  8
SPOJOVACÍ
  6
DASHED
100
AcDbLine
 10
1297.012106713341
 20
389.8226529194327
 30
0.0
 11
1296.642008369815
 21
390.0368724052187
 31
0.0
  0
LINE
  5
4CEA
330
1F
100
AcDbEntity
  8
SPOJOVACÍ
  6
DASHED
100
AcDbLine
 10
1297.012106713341
 20
389.8226529194327
 30
0.0
 11
1296.642008369815
 21
389.452554573767
 31
0.0
  0
LINE
  5
4CEB
330
1F
100
AcDbEntity
  8
SPOJOVACÍ
  6
DASHED
100
AcDbLine
 10
1292.308393749609
 20
390.9985811603656
 30
0.0
 11
1292.678492097414
 21
391.36959107849
 31
0.0
  0
LINE
  5
4CEC
330
1F
100
AcDbEntity
  8
SPOJOVACÍ
  6
DASHED
100
AcDbLine
 10
1292.308393749609
 20
390.9985811603656
 30
0.0
 11
1292.678492097414
 21
390.7852732470384
 31
0.0
  0
LINE
  5
4CED
330
1F
100
AcDbEntity
  8
SPOJOVACÍ
  6
DASHED
100
AcDbLine
 10
1292.308393749609
 20
390.9985811603656
 30
0.0
 11
1297.012106713341
 21
389.8226529194327
 31
0.0
  0
LINE
  5
4CEE
330
1F
100
AcDbEntity
  8
SPOJOVACÍ
  6
DASHED
100
AcDbLine
 10
1293.110577356126
 20
385.0286942994863
 30
0.0
 11
1296.164344494228
 21
384.4079135770517
 31
0.0
  0
LINE
  5
4CEF
330
1F
100
AcDbEntity
  8
SPOJOVACÍ
  6
DASHED
100
AcDbLine
 10
1293.48067570393
 20
385.3997042176107
 30
0.0
 11
1295.794246150701
 21
384.621221490379
 31
0.0
  0
LINE
  5
4CF0
330
1F
100
AcDbEntity
  8
SPOJOVACÍ
  6
DASHED
100
AcDbLine
 10
1293.48067570393
 20
384.815386386159
 30
0.0
 11
1295.794246150701
 21
384.0369036591983
 31
0.0
  0
LINE
  5
4CF1
330
1F
100
AcDbEntity
  8
SPOJOVACÍ
  6
DASHED
100
AcDbLine
 10
1296.164344494228
 20
384.4079135770517
 30
0.0
 11
1295.794246150701
 21
384.621221490379
 31
0.0
  0
LINE
  5
4CF2
330
1F
100
AcDbEntity
  8
SPOJOVACÍ
  6
DASHED
100
AcDbLine
 10
1296.164344494228
 20
384.4079135770517
 30
0.0
 11
1295.794246150701
 21
384.0369036591983
 31
0.0
  0
LINE
  5
4CF3
330
1F
100
AcDbEntity
  8
SPOJOVACÍ
  6
DASHED
100
AcDbLine
 10
1293.110577356126
 20
385.0286942994863
 30
0.0
 11
1293.48067570393
 21
385.3997042176107
 31
0.0
  0
LINE
  5
4CF4
330
1F
100
AcDbEntity
  8
SPOJOVACÍ
  6
DASHED
100
AcDbLine
 10
1293.110577356126
 20
385.0286942994863
 30
0.0
 11
1293.48067570393
 21
384.815386386159
 31
0.0
  0
LINE
  5
4CF5
330
1F
100
AcDbEntity
  8
SPOJOVACÍ
  6
DASHED
100
AcDbLine
 10
1292.557252984142
 20
387.9831000586983
 30
0.0
 11
1296.60007604383
 21
387.0295954540398
 31
0.0
  0
LINE
  5
4CF6
330
1F
100
AcDbEntity
  8
SPOJOVACÍ
  6
DASHED
100
AcDbLine
 10
1292.92826290146
 20
388.3531984043639
 30
0.0
 11
1296.229977700303
 21
387.2429033673671
 31
0.0
  0
LINE
  5
4CF7
330
1F
100
AcDbEntity
  8
SPOJOVACÍ
  6
DASHED
100
AcDbLine
 10
1292.92826290146
 20
387.7688805729123
 30
0.0
 11
1296.229977700303
 21
386.6585855359154
 31
0.0
  0
LINE
  5
4CF8
330
1F
100
AcDbEntity
  8
SPOJOVACÍ
  6
DASHED
100
AcDbLine
 10
1296.60007604383
 20
387.0295954540398
 30
0.0
 11
1296.229977700303
 21
387.2429033673671
 31
0.0
  0
LINE
  5
4CF9
330
1F
100
AcDbEntity
  8
SPOJOVACÍ
  6
DASHED
100
AcDbLine
 10
1296.60007604383
 20
387.0295954540398
 30
0.0
 11
1296.229977700303
 21
386.6585855359154
 31
0.0
  0
LINE
  5
4CFA
330
1F
100
AcDbEntity
  8
SPOJOVACÍ
  6
DASHED
100
AcDbLine
 10
1292.557252984142
 20
387.9831000586983
 30
0.0
 11
1292.92826290146
 21
388.3531984043639
 31
0.0
  0
LINE
  5
4CFB
330
1F
100
AcDbEntity
  8
SPOJOVACÍ
  6
DASHED
100
AcDbLine
 10
1292.557252984142
 20
387.9831000586983
 30
0.0
 11
1292.92826290146
 21
387.7688805729123
 31
0.0
  0
LINE
  5
4CFC
330
1F
100
AcDbEntity
  8
SPOJOVACÍ
  6
DASHED
100
AcDbLine
 10
1295.742286530116
 20
387.4161021006895
 30
0.0
 11
1295.982941613355
 21
389.34772376175
 31
0.0
  0
LINE
  5
4CFD
330
1F
100
AcDbEntity
  8
SPOJOVACÍ
  6
DASHED
100
AcDbLine
 10
1295.410474217406
 20
384.7634267661088
 30
0.0
 11
1295.672095463637
 21
386.8573082929052
 31
0.0
  0
LINE
  5
4CFE
330
1F
100
AcDbEntity
  8
SPOJOVACÍ
  6
DASHED
100
AcDbLine
 10
1293.559982491218
 20
387.5665115266439
 30
0.0
 11
1293.844393043747
 21
385.2912271163005
 31
0.0
  0
LINE
  5
4CFF
330
1F
100
AcDbEntity
  8
SPOJOVACÍ
  6
DASHED
100
AcDbLine
 10
1293.337558853873
 20
389.34772376175
 30
0.0
 11
1293.484321990542
 21
388.1745302373802
 31
0.0
  0
LINE
  5
4D00
330
1F
100
AcDbEntity
  8
SPOJOVACÍ
  6
DASHED
100
AcDbLine
 10
1295.982941613355
 20
389.6777129268759
 30
0.0
 11
1295.982941613355
 21
389.34772376175
 31
0.0
  0
LINE
  5
4D01
330
1F
100
AcDbEntity
  8
SPOJOVACÍ
  6
DASHED
100
AcDbLine
 10
1293.337558853873
 20
390.5701421888008
 30
0.0
 11
1293.337558853873
 21
389.34772376175
 31
0.0
  0
LWPOLYLINE
  5
4D02
330
1F
100
AcDbEntity
  8
izolace
100
AcDbPolyline
 90
        4
 70
     1
 43
0.0
 10
1253.097546546706
 20
420.3134121810875
 10
1268.097546546706
 20
420.3134121810875
 10
1268.097546546706
 20
392.5557463682024
 10
1253.09754654671
 20
392.5557463682024
  0
LINE
  5
4D03
330
1F
100
AcDbEntity
  8
izolace
  6
IZOLACE
 48
0.7
100
AcDbLine
 10
1260.597546546706
 20
420.3134121810875
 30
0.0
 11
1260.597546546708
 21
392.5557463682024
 31
0.0
  0
LINE
  5
4D04
330
1F
100
AcDbEntity
  8
SPOJOVACÍ
  6
DASHED
100
AcDbLine
 10
1292.678492097414
 20
393.8426866736282
 30
0.0
 11
1296.642008369815
 21
392.5099680006206
 31
0.0
  0
LINE
  5
4D05
330
1F
100
AcDbEntity
  8
SPOJOVACÍ
  6
DASHED
100
AcDbLine
 10
1297.012106713341
 20
392.880977918474
 30
0.0
 11
1296.642008369815
 21
392.5099680006206
 31
0.0
  0
LINE
  5
4D06
330
1F
100
AcDbEntity
  8
SPOJOVACÍ
  6
DASHED
100
AcDbLine
 10
1295.982941613355
 20
392.7378610705565
 30
0.0
 11
1295.982941613355
 21
390.2693233366282
 31
0.0
  0
LINE
  5
4D07
330
1F
100
AcDbEntity
  8
SPOJOVACÍ
  6
DASHED
100
AcDbLine
 10
1293.337558853873
 20
393.622086181993
 30
0.0
 11
1293.337558853873
 21
391.1544600202525
 31
0.0
  0
HATCH
  5
4D08
330
1F
100
AcDbEntity
  8
nášlap_vrstvy
100
AcDbHatch
 10
0.0
 20
0.0
 30
0.0
210
0.0
220
0.0
230
1.0
  2
SOLID
 70
     1
 71
     0
 91
        1
 92
        7
 72
     0
 73
     1
 93
        4
 10
1335.843611031135
 20
421.8134121810875
 10
1324.022744676219
 20
421.8134121810875
 10
1324.022744676215
 20
420.3134121810875
 10
1335.843611031135
 20
420.3134121810875
 97
        0
 75
     0
 76
     1
 47
0.1901250437635136
 98
        1
 10
1328.701642055389
 20
421.4050064055475
  0
LWPOLYLINE
  5
4D09
330
1F
100
AcDbEntity
  8
nášlap_vrstvy
100
AcDbPolyline
 90
        4
 70
     1
 43
0.0
 10
1335.843611031135
 20
421.8134121810875
 10
1324.022744676215
 20
421.8134121810875
 10
1324.022744676215
 20
420.3134121810875
 10
1335.843611031135
 20
420.3134121810875
  0
LWPOLYLINE
  5
4D0A
330
1F
100
AcDbEntity
  8
izolace
100
AcDbPolyline
 90
        4
 70
     1
 43
0.0
 10
1490.873140935219
 20
395.555746368202
 10
1467.231408225384
 20
395.555746368202
 10
1467.231408225384
 20
392.5557463682019
 10
1490.873140935219
 20
392.5557463682019
  0
HATCH
  5
4D0B
330
1F
100
AcDbEntity
  8
izolace
100
AcDbHatch
 10
0.0
 20
0.0
 30
0.0
210
0.0
220
0.0
230
1.0
  2
SOLID
 70
     1
 71
     0
 91
        1
 92
        7
 72
     0
 73
     1
 93
        4
 10
1490.873140935223
 20
395.555746368202
 10
1467.231408225387
 20
395.555746368202
 10
1467.231408225384
 20
392.5557463682019
 10
1490.873140935223
 20
392.5557463682019
 97
        0
 75
     0
 76
     1
 47
0.1901250437635136
 98
        1
 10
1476.589202983728
 20
394.7389348171221
  0
LWPOLYLINE
  5
4D0C
330
1F
100
AcDbEntity
  8
izolace
100
AcDbPolyline
 90
        4
 70
     1
 43
0.0
 10
1443.589675515549
 20
395.555746368202
 10
1419.947942805714
 20
395.555746368202
 10
1419.947942805714
 20
392.5557463682019
 10
1443.589675515549
 20
392.5557463682019
  0
HATCH
  5
4D0D
330
1F
100
AcDbEntity
  8
izolace
100
AcDbHatch
 10
0.0
 20
0.0
 30
0.0
210
0.0
220
0.0
230
1.0
  2
SOLID
 70
     1
 71
     0
 91
        1
 92
        7
 72
     0
 73
     1
 93
        4
 10
1443.589675515552
 20
395.555746368202
 10
1419.947942805717
 20
395.555746368202
 10
1419.947942805714
 20
392.5557463682019
 10
1443.589675515552
 20
392.5557463682019
 97
        0
 75
     0
 76
     1
 47
0.1901250437635136
 98
        1
 10
1429.305737564057
 20
394.7389348171221
  0
LWPOLYLINE
  5
4D0E
330
1F
100
AcDbEntity
  8
STAVBA OBRYS
100
AcDbPolyline
 90
        4
 70
     0
 43
0.0
 10
1492.19146736787
 20
374.5557463682024
 42
-0.0334776267545482
 10
1492.628745162576
 20
378.6027212969392
 42
-0.0091133963862869
 10
1495.106349487495
 20
391.2944510823989
 42
-0.007828075361276
 10
1495.397248622653
 20
392.5557463682024
  0
LWPOLYLINE
  5
4D0F
330
1F
100
AcDbEntity
  8
STAVBA OBRYS
100
AcDbPolyline
 90
        5
 70
     0
 43
0.0
 10
1502.435605742664
 20
374.5557463682024
 42
-0.0133579731639958
 10
1502.822416231691
 20
377.0735486557577
 42
-0.0072443097182286
 10
1504.94241317915
 20
387.8844395506647
 42
-0.0219777111230329
 10
1505.848525681133
 20
391.4025528065002
 42
-0.0092752982622242
 10
1506.22375264308
 20
392.5557463682024
  0
LWPOLYLINE
  5
4D10
330
1F
100
AcDbEntity
  8
STAVBA OBRYS
100
AcDbPolyline
 90
        4
 70
     0
 43
0.0
 10
1450.08958360841
 20
374.5557463682024
 42
-0.0334776267545482
 10
1450.526861403116
 20
378.6027212969392
 42
-0.0091133963862869
 10
1453.004465728035
 20
391.2944510823989
 42
-0.007828075361276
 10
1453.295364863192
 20
392.5557463682024
  0
LWPOLYLINE
  5
4D11
330
1F
100
AcDbEntity
  8
STAVBA OBRYS
100
AcDbPolyline
 90
        5
 70
     0
 43
0.0
 10
1460.333721983204
 20
374.5557463682024
 42
-0.0133579731639958
 10
1460.720532472231
 20
377.0735486557577
 42
-0.0072443097182286
 10
1462.84052941969
 20
387.8844395506647
 42
-0.0219777111230329
 10
1463.746641921673
 20
391.4025528065002
 42
-0.0092752982622242
 10
1464.12186888362
 20
392.5557463682024
  0
LWPOLYLINE
  5
4D12
330
1F
100
AcDbEntity
  8
STAVBA OBRYS
100
AcDbPolyline
 90
        5
 70
     0
 43
0.0
 10
1430.186713126729
 20
374.5557463682024
 42
-0.0133579731639958
 10
1430.573523615757
 20
377.0735486557577
 42
-0.0072443097182286
 10
1432.693520563215
 20
387.8844395506647
 42
-0.0219777111230329
 10
1433.599633065198
 20
391.4025528065002
 42
-0.0092752982622242
 10
1433.974860027146
 20
392.5557463682024
  0
LWPOLYLINE
  5
4D13
330
1F
100
AcDbEntity
  8
STAVBA OBRYS
100
AcDbPolyline
 90
        3
 70
     0
 43
0.0
 10
1438.637045745442
 20
374.5557463682024
 42
-0.0052038508054843
 10
1441.835442685424
 20
390.9595728501998
 42
-0.0065712046643719
 10
1442.185868455188
 20
392.5557463682024
  0
LWPOLYLINE
  5
4D14
330
1F
100
AcDbEntity
  8
STAVBA OBRYS
100
AcDbPolyline
 90
        4
 70
     0
 43
0.0
 10
1470.2393258571
 20
374.5557463682024
 42
-0.0186324019486548
 10
1473.607695229206
 20
386.2508579864269
 42
-0.0582629403736403
 10
1475.267195097288
 20
389.8306921853626
 42
-0.0146402521923566
 10
1477.051603078872
 20
392.5557463682024
  0
LWPOLYLINE
  5
4D15
330
1F
100
AcDbEntity
  8
STAVBA OBRYS
100
AcDbPolyline
 90
        4
 70
     0
 43
0.0
 10
1484.843711045695
 20
374.0549159374539
 10
1464.847458613702
 20
383.2709449879738
 10
1448.069568042484
 20
385.978089250665
 10
1444.805956794779
 20
386.1083906150351
  0
LWPOLYLINE
  5
4D16
330
1F
100
AcDbEntity
  8
STAVBA OBRYS
100
AcDbPolyline
 90
        3
 70
     0
 43
0.0
 10
1480.738929504902
 20
374.5557463682024
 42
-0.0052038508054843
 10
1483.937326444885
 20
390.9595728501998
 42
-0.0065712046643719
 10
1484.287752214649
 20
392.5557463682024
  0
LINE
  5
4D17
330
1F
100
AcDbEntity
  8
STAVBA OBRYS
100
AcDbLine
 10
1403.097546546709
 20
392.5557463682015
 30
0.0
 11
1403.097546546709
 21
374.5557463682024
 31
0.0
  0
LWPOLYLINE
  5
4D18
330
1F
100
AcDbEntity
  8
STAVBA OBRYS
100
AcDbPolyline
 90
        3
 70
     0
 43
0.0
 10
1408.490036888967
 20
374.5557463682024
 42
-0.0052038508054843
 10
1411.68843382895
 20
390.9595728501998
 42
-0.0065712046643719
 10
1412.038859598714
 20
392.5557463682024
  0
LWPOLYLINE
  5
4D19
330
1F
100
AcDbEntity
  8
STAVBA OBRYS
100
AcDbPolyline
 90
        4
 70
     0
 43
0.0
 10
1454.69670218922
 20
374.0549159374539
 10
1434.700449757228
 20
383.2709449879738
 10
1417.922559186009
 20
385.978089250665
 10
1414.658947938304
 20
386.1083906150351
  0
LWPOLYLINE
  5
4D1A
330
1F
100
AcDbEntity
  8
STAVBA OBRYS
100
AcDbPolyline
 90
        4
 70
     0
 43
0.0
 10
1419.942574751935
 20
374.5557463682024
 42
-0.0334776267545482
 10
1420.379852546641
 20
378.6027212969392
 42
-0.0091133963862869
 10
1422.85745687156
 20
391.2944510823989
 42
-0.007828075361276
 10
1423.148356006718
 20
392.5557463682024
  0
LWPOLYLINE
  5
4D1B
330
1F
100
AcDbEntity
  8
STAVBA OBRYS
100
AcDbPolyline
 90
        6
 70
     0
 43
0.0
 10
1521.151670965403
 20
374.5557463682024
 42
-0.0121757200102759
 10
1522.521660679064
 20
379.2276637006697
 42
-0.0457786284636091
 10
1523.72968356868
 20
382.076274083546
 42
-0.0295006114745606
 10
1526.145744022979
 20
386.0031732969481
 42
-0.0258674098621065
 10
1529.378419336944
 20
390.148953375702
 42
-0.0093759062953949
 10
1531.5442315166
 20
392.5557463682024
  0
LWPOLYLINE
  5
4D1C
330
1F
100
AcDbEntity
  8
STAVBA OBRYS
100
AcDbPolyline
 90
        3
 70
     0
 43
0.0
 10
1543.275002737312
 20
374.5557463682024
 10
1529.482954810672
 20
381.4568179316892
 10
1521.315850161548
 20
389.6381196327828
  0
LWPOLYLINE
  5
4D1D
330
1F
100
AcDbEntity
  8
STAVBA OBRYS
100
AcDbPolyline
 90
        4
 70
     0
 43
0.0
 10
1512.34120961656
 20
374.5557463682024
 42
-0.0186324019486548
 10
1515.709578988667
 20
386.2508579864269
 42
-0.0582629403736403
 10
1517.369078856748
 20
389.8306921853626
 42
-0.0146402521923566
 10
1519.153486838332
 20
392.5557463682024
  0
LWPOLYLINE
  5
4D1E
330
1F
100
AcDbEntity
  8
STAVBA OBRYS
100
AcDbPolyline
 90
        4
 70
     0
 43
0.0
 10
1526.945594805155
 20
374.0549159374539
 10
1506.949342373163
 20
383.2709449879738
 10
1490.171451801944
 20
385.978089250665
 10
1486.907840554239
 20
386.1083906150351
  0
LWPOLYLINE
  5
4D1F
330
1F
100
AcDbEntity
  8
izolace
100
AcDbPolyline
 90
        4
 70
     1
 43
0.0
 10
1538.156606354889
 20
395.555746368202
 10
1514.514873645054
 20
395.555746368202
 10
1514.514873645054
 20
392.5557463682019
 10
1538.156606354889
 20
392.5557463682019
  0
HATCH
  5
4D20
330
1F
100
AcDbEntity
  8
izolace
100
AcDbHatch
 10
0.0
 20
0.0
 30
0.0
210
0.0
220
0.0
230
1.0
  2
SOLID
 70
     1
 71
     0
 91
        1
 92
        7
 72
     0
 73
     1
 93
        4
 10
1538.156606354893
 20
395.555746368202
 10
1514.514873645058
 20
395.555746368202
 10
1514.514873645054
 20
392.5557463682019
 10
1538.156606354893
 20
392.5557463682019
 97
        0
 75
     0
 76
     1
 47
0.1901250437635136
 98
        1
 10
1523.872668403398
 20
394.7389348171221
  0
HATCH
  5
4D21
330
1F
100
AcDbEntity
  8
nášlap_vrstvy
100
AcDbHatch
 10
0.0
 20
0.0
 30
0.0
210
0.0
220
0.0
230
1.0
  2
SOLID
 70
     1
 71
     0
 91
        1
 92
        7
 72
     0
 73
     1
 93
        4
 10
1548.619205419651
 20
421.8134121810875
 10
1536.798339064732
 20
421.8134121810875
 10
1536.798339064732
 20
420.3134121810875
 10
1548.619205419651
 20
420.3134121810875
 97
        0
 75
     0
 76
     1
 47
0.1901250437635136
 98
        1
 10
1541.477236443902
 20
421.4050064055475
  0
LINE
  5
4D22
330
1F
100
AcDbEntity
  8
SPOJOVACÍ
  6
DASHED
100
AcDbLine
 10
1543.232709821229
 20
396.6922616205448
 30
0.0
 11
1543.232709821229
 21
394.2146081639331
 31
0.0
  0
LINE
  5
4D23
330
1F
100
AcDbEntity
  8
SPOJOVACÍ
  6
DASHED
100
AcDbLine
 10
1545.87809258071
 20
395.7970976417856
 30
0.0
 11
1545.87809258071
 21
393.3267367632107
 31
0.0
  0
LINE
  5
4D24
330
1F
100
AcDbEntity
  8
SPOJOVACÍ
  6
DASHED
100
AcDbLine
 10
1546.907257680696
 20
392.880977918474
 30
0.0
 11
1546.53715933717
 21
393.0942858318013
 31
0.0
  0
LINE
  5
4D25
330
1F
100
AcDbEntity
  8
SPOJOVACÍ
  6
DASHED
100
AcDbLine
 10
1542.573643064769
 20
394.4270045050726
 30
0.0
 11
1546.53715933717
 21
393.0942858318013
 31
0.0
  0
LINE
  5
4D26
330
1F
100
AcDbEntity
  8
SPOJOVACÍ
  6
DASHED
100
AcDbLine
 10
1546.907257680696
 20
411.1959272319856
 30
0.0
 11
1546.53715933717
 21
410.82582888632
 31
0.0
  0
LINE
  5
4D27
330
1F
100
AcDbEntity
  8
SPOJOVACÍ
  6
DASHED
100
AcDbLine
 10
1542.573643064769
 20
412.1585475595912
 30
0.0
 11
1546.53715933717
 21
410.82582888632
 31
0.0
  0
LINE
  5
4D28
330
1F
100
AcDbEntity
  8
SPOJOVACÍ
  6
DASHED
100
AcDbLine
 10
1545.87809258071
 20
411.052810384068
 30
0.0
 11
1545.87809258071
 21
408.5842726501397
 31
0.0
  0
LINE
  5
4D29
330
1F
100
AcDbEntity
  8
SPOJOVACÍ
  6
DASHED
100
AcDbLine
 10
1542.573643064769
 20
409.7002175873204
 30
0.0
 11
1546.53715933717
 21
408.3674989143202
 31
0.0
  0
LINE
  5
4D2A
330
1F
100
AcDbEntity
  8
SPOJOVACÍ
  6
DASHED
100
AcDbLine
 10
1546.907257680696
 20
408.1532794285341
 30
0.0
 11
1546.53715933717
 21
408.3674989143202
 31
0.0
  0
LINE
  5
4D2B
330
1F
100
AcDbEntity
  8
SPOJOVACÍ
  6
DASHED
100
AcDbLine
 10
1546.907257680696
 20
408.1532794285341
 30
0.0
 11
1546.53715933717
 21
407.7831810828684
 31
0.0
  0
LINE
  5
4D2C
330
1F
100
AcDbEntity
  8
SPOJOVACÍ
  6
DASHED
100
AcDbLine
 10
1542.573643064769
 20
409.1158997561398
 30
0.0
 11
1546.53715933717
 21
407.7831810828684
 31
0.0
  0
LINE
  5
4D2D
330
1F
100
AcDbEntity
  8
SPOJOVACÍ
  6
DASHED
100
AcDbLine
 10
1545.87809258071
 20
408.0101625806165
 30
0.0
 11
1545.87809258071
 21
405.5416248466882
 31
0.0
  0
LINE
  5
4D2E
330
1F
100
AcDbEntity
  8
SPOJOVACÍ
  6
DASHED
100
AcDbLine
 10
1542.573643064769
 20
406.6418925885501
 30
0.0
 11
1546.53715933717
 21
405.3100854874665
 31
0.0
  0
LINE
  5
4D2F
330
1F
100
AcDbEntity
  8
SPOJOVACÍ
  6
DASHED
100
AcDbLine
 10
1546.907257680696
 20
405.0958660016805
 30
0.0
 11
1546.53715933717
 21
405.3100854874665
 31
0.0
  0
LINE
  5
4D30
330
1F
100
AcDbEntity
  8
SPOJOVACÍ
  6
DASHED
100
AcDbLine
 10
1546.907257680696
 20
405.0958660016805
 30
0.0
 11
1546.53715933717
 21
404.7257676562859
 31
0.0
  0
LINE
  5
4D31
330
1F
100
AcDbEntity
  8
SPOJOVACÍ
  6
DASHED
100
AcDbLine
 10
1542.573643064769
 20
406.0575747570984
 30
0.0
 11
1546.53715933717
 21
404.7257676562859
 31
0.0
  0
LINE
  5
4D32
330
1F
100
AcDbEntity
  8
SPOJOVACÍ
  6
DASHED
100
AcDbLine
 10
1545.87809258071
 20
404.9573070152365
 30
0.0
 11
1545.87809258071
 21
402.4796535586248
 31
0.0
  0
LINE
  5
4D33
330
1F
100
AcDbEntity
  8
SPOJOVACÍ
  6
DASHED
100
AcDbLine
 10
1542.573643064769
 20
403.6001563572864
 30
0.0
 11
1546.53715933717
 21
402.2674376842862
 31
0.0
  0
LINE
  5
4D34
330
1F
100
AcDbEntity
  8
SPOJOVACÍ
  6
DASHED
100
AcDbLine
 10
1546.907257680696
 20
402.0532181985
 30
0.0
 11
1546.53715933717
 21
402.2674376842862
 31
0.0
  0
LINE
  5
4D35
330
1F
100
AcDbEntity
  8
SPOJOVACÍ
  6
DASHED
100
AcDbLine
 10
1546.907257680696
 20
402.0532181985
 30
0.0
 11
1546.53715933717
 21
401.6831198528344
 31
0.0
  0
LINE
  5
4D36
330
1F
100
AcDbEntity
  8
SPOJOVACÍ
  6
DASHED
100
AcDbLine
 10
1542.573643064769
 20
403.0158385261057
 30
0.0
 11
1546.53715933717
 21
401.6831198528344
 31
0.0
  0
LINE
  5
4D37
330
1F
100
AcDbEntity
  8
SPOJOVACÍ
  6
DASHED
100
AcDbLine
 10
1545.87809258071
 20
401.9101013505824
 30
0.0
 11
1545.87809258071
 21
399.4415636166542
 31
0.0
  0
LINE
  5
4D38
330
1F
100
AcDbEntity
  8
SPOJOVACÍ
  6
DASHED
100
AcDbLine
 10
1542.573643064769
 20
400.5418313585161
 30
0.0
 11
1546.53715933717
 21
399.2100242574325
 31
0.0
  0
LINE
  5
4D39
330
1F
100
AcDbEntity
  8
SPOJOVACÍ
  6
DASHED
100
AcDbLine
 10
1546.907257680696
 20
398.9958047716464
 30
0.0
 11
1546.53715933717
 21
399.2100242574325
 31
0.0
  0
LINE
  5
4D3A
330
1F
100
AcDbEntity
  8
SPOJOVACÍ
  6
DASHED
100
AcDbLine
 10
1546.907257680696
 20
398.9958047716464
 30
0.0
 11
1546.53715933717
 21
398.6257064262519
 31
0.0
  0
LINE
  5
4D3B
330
1F
100
AcDbEntity
  8
SPOJOVACÍ
  6
DASHED
100
AcDbLine
 10
1542.573643064769
 20
399.9575135270644
 30
0.0
 11
1546.53715933717
 21
398.6257064262519
 31
0.0
  0
LINE
  5
4D3C
330
1F
100
AcDbEntity
  8
SPOJOVACÍ
  6
DASHED
100
AcDbLine
 10
1545.87809258071
 20
398.8572457852025
 30
0.0
 11
1545.87809258071
 21
396.3795923285907
 31
0.0
  0
LINE
  5
4D3D
330
1F
100
AcDbEntity
  8
SPOJOVACÍ
  6
DASHED
100
AcDbLine
 10
1542.573643064769
 20
397.4844179316625
 30
0.0
 11
1546.53715933717
 21
396.1516992586549
 31
0.0
  0
LINE
  5
4D3E
330
1F
100
AcDbEntity
  8
SPOJOVACÍ
  6
DASHED
100
AcDbLine
 10
1543.232709821229
 20
408.9053265593758
 30
0.0
 11
1543.232709821229
 21
406.4367888254475
 31
0.0
  0
LINE
  5
4D3F
330
1F
100
AcDbEntity
  8
SPOJOVACÍ
  6
DASHED
100
AcDbLine
 10
1543.232709821229
 20
411.9479743628272
 30
0.0
 11
1543.232709821229
 21
409.4794366288989
 31
0.0
  0
LINE
  5
4D40
330
1F
100
AcDbEntity
  8
SPOJOVACÍ
  6
DASHED
100
AcDbLine
 10
1542.573643064769
 20
396.9001001002108
 30
0.0
 11
1546.53715933717
 21
395.5673814272105
 31
0.0
  0
LINE
  5
4D41
330
1F
100
AcDbEntity
  8
SPOJOVACÍ
  6
DASHED
100
AcDbLine
 10
1543.232709821229
 20
399.7451171859248
 30
0.0
 11
1543.232709821229
 21
397.27475630735
 31
0.0
  0
LINE
  5
4D42
330
1F
100
AcDbEntity
  8
SPOJOVACÍ
  6
DASHED
100
AcDbLine
 10
1543.232709821229
 20
402.8052653293417
 30
0.0
 11
1543.232709821229
 21
400.3367275954134
 31
0.0
  0
LINE
  5
4D43
330
1F
100
AcDbEntity
  8
SPOJOVACÍ
  6
DASHED
100
AcDbLine
 10
1543.232709821229
 20
405.8451784159589
 30
0.0
 11
1543.232709821229
 21
403.374817537384
 31
0.0
  0
LINE
  5
4D44
330
1F
100
AcDbEntity
  8
SPOJOVACÍ
  6
DASHED
100
AcDbLine
 10
1546.907257680696
 20
395.9383913450638
 30
0.0
 11
1546.53715933717
 21
395.5673814272105
 31
0.0
  0
LINE
  5
4D45
330
1F
100
AcDbEntity
  8
SPOJOVACÍ
  6
DASHED
100
AcDbLine
 10
1546.907257680696
 20
395.9383913450638
 30
0.0
 11
1546.53715933717
 21
396.1516992586549
 31
0.0
  0
LINE
  5
4D46
330
1F
100
AcDbEntity
  8
SPOJOVACÍ
  6
DASHED
100
AcDbLine
 10
1546.701242345941
 20
416.7245521152909
 30
0.0
 11
1547.640161794525
 21
417.9077729345318
 31
0.0
  0
LINE
  5
4D47
330
1F
100
AcDbEntity
  8
SPOJOVACÍ
  6
DASHED
100
AcDbLine
 10
1546.100516213776
 20
415.3389622497817
 30
0.0
 11
1546.701242345941
 21
416.7245521152909
 31
0.0
  0
LINE
  5
4D48
330
1F
100
AcDbEntity
  8
SPOJOVACÍ
  6
DASHED
100
AcDbLine
 10
1545.87809258071
 20
413.8458068554211
 30
0.0
 11
1546.100516213776
 21
415.3389622497817
 31
0.0
  0
LINE
  5
4D49
330
1F
100
AcDbEntity
  8
SPOJOVACÍ
  6
DASHED
100
AcDbLine
 10
1545.87809258071
 20
413.8458068554228
 30
0.0
 11
1545.87809258071
 21
411.6317556409414
 31
0.0
  0
LINE
  5
4D4A
330
1F
100
AcDbEntity
  8
SPOJOVACÍ
  6
DASHED
100
AcDbLine
 10
1542.573643064769
 20
412.7428653907719
 30
0.0
 11
1546.53715933717
 21
411.4101467177716
 31
0.0
  0
LINE
  5
4D4B
330
1F
100
AcDbEntity
  8
SPOJOVACÍ
  6
DASHED
100
AcDbLine
 10
1546.907257680696
 20
411.1959272319856
 30
0.0
 11
1546.53715933717
 21
411.4101467177716
 31
0.0
  0
LINE
  5
4D4C
330
1F
100
AcDbEntity
  8
SPOJOVACÍ
  6
DASHED
100
AcDbLine
 10
1542.203544716964
 20
412.3718554729185
 30
0.0
 11
1542.573643064769
 21
412.1585475595912
 31
0.0
  0
LINE
  5
4D4D
330
1F
100
AcDbEntity
  8
SPOJOVACÍ
  6
DASHED
100
AcDbLine
 10
1542.203544716964
 20
412.3718554729185
 30
0.0
 11
1542.573643064769
 21
412.7428653907719
 31
0.0
  0
LINE
  5
4D4E
330
1F
100
AcDbEntity
  8
SPOJOVACÍ
  6
DASHED
100
AcDbLine
 10
1543.200349005087
 20
414.231401929751
 30
0.0
 11
1543.232709821229
 21
412.521256467604
 31
0.0
  0
LINE
  5
4D4F
330
1F
100
AcDbEntity
  8
SPOJOVACÍ
  6
DASHED
100
AcDbLine
 10
1543.167988188946
 20
414.616997004081
 30
0.0
 11
1543.232709821229
 21
413.8458068554211
 31
0.0
  0
LINE
  5
4D50
330
1F
100
AcDbEntity
  8
SPOJOVACÍ
  6
DASHED
100
AcDbLine
 10
1542.748664941932
 20
416.0682200737902
 30
0.0
 11
1543.167988188946
 21
414.616997004081
 31
0.0
  0
LINE
  5
4D51
330
1F
100
AcDbEntity
  8
SPOJOVACÍ
  6
DASHED
100
AcDbLine
 10
1541.9683590722
 20
417.3608295665218
 30
0.0
 11
1542.748664941932
 21
416.0682200737902
 31
0.0
  0
LINE
  5
4D52
330
1F
100
AcDbEntity
  8
SPOJOVACÍ
  6
DASHED
100
AcDbLine
 10
1540.879941769849
 20
418.4082261161457
 30
0.0
 11
1541.9683590722
 21
417.3608295665218
 31
0.0
  0
LINE
  5
4D53
330
1F
100
AcDbEntity
  8
SPOJOVACÍ
  6
DASHED
100
AcDbLine
 10
1542.203544716964
 20
412.3718554729185
 30
0.0
 11
1546.907257680696
 21
411.1959272319856
 31
0.0
  0
LINE
  5
4D54
330
1F
100
AcDbEntity
  8
SPOJOVACÍ
  6
DASHED
100
AcDbLine
 10
1539.557250387969
 20
420.3134121810872
 30
0.0
 11
1539.557250387969
 21
419.1374839398905
 31
0.0
  0
LINE
  5
4D55
330
1F
100
AcDbEntity
  8
SPOJOVACÍ
  6
DASHED
100
AcDbLine
 10
1539.557250387969
 20
419.1374839398905
 30
0.0
 11
1540.879941769849
 21
418.4082261161457
 31
0.0
  0
LINE
  5
4D56
330
1F
100
AcDbEntity
  8
SPOJOVACÍ
  6
DASHED
100
AcDbLine
 10
1543.817027655083
 20
384.6731811104292
 30
0.0
 11
1544.101438203334
 21
382.3988082722809
 31
0.0
  0
LINE
  5
4D57
330
1F
100
AcDbEntity
  8
SPOJOVACÍ
  6
DASHED
100
AcDbLine
 10
1544.972901306816
 20
382.1007241366643
 30
0.0
 11
1545.23543412256
 21
384.2028098139491
 31
0.0
  0
LINE
  5
4D58
330
1F
100
AcDbEntity
  8
SPOJOVACÍ
  6
DASHED
100
AcDbLine
 10
1544.55540119883
 20
378.7634580200957
 30
0.0
 11
1544.902710240337
 21
381.5428419013388
 31
0.0
  0
LINE
  5
4D59
330
1F
100
AcDbEntity
  8
SPOJOVACÍ
  6
DASHED
100
AcDbLine
 10
1544.177098704009
 20
381.7907895615445
 30
0.0
 11
1544.55540119883
 21
378.7634580200957
 31
0.0
  0
LINE
  5
4D5A
330
1F
100
AcDbEntity
  8
SPOJOVACÍ
  6
DASHED
100
AcDbLine
 10
1543.559052699743
 20
382.0752001127331
 30
0.0
 11
1543.929151043269
 21
381.8609806269543
 31
0.0
  0
LINE
  5
4D5B
330
1F
100
AcDbEntity
  8
SPOJOVACÍ
  6
DASHED
100
AcDbLine
 10
1543.559052699743
 20
382.0752001127331
 30
0.0
 11
1543.929151043269
 21
382.4452984583987
 31
0.0
  0
LINE
  5
4D5C
330
1F
100
AcDbEntity
  8
SPOJOVACÍ
  6
DASHED
100
AcDbLine
 10
1545.67025409837
 20
381.7707349712747
 30
0.0
 11
1545.300155754844
 21
381.3997250534213
 31
0.0
  0
LINE
  5
4D5D
330
1F
100
AcDbEntity
  8
SPOJOVACÍ
  6
DASHED
100
AcDbLine
 10
1545.67025409837
 20
381.7707349712747
 30
0.0
 11
1545.300155754844
 21
381.9840428848657
 31
0.0
  0
LINE
  5
4D5E
330
1F
100
AcDbEntity
  8
SPOJOVACÍ
  6
DASHED
100
AcDbLine
 10
1543.929151043269
 20
381.8609806269543
 30
0.0
 11
1545.300155754844
 21
381.3997250534213
 31
0.0
  0
LINE
  5
4D5F
330
1F
100
AcDbEntity
  8
SPOJOVACÍ
  6
DASHED
100
AcDbLine
 10
1543.929151043269
 20
382.4452984583987
 30
0.0
 11
1545.300155754844
 21
381.9840428848657
 31
0.0
  0
LINE
  5
4D60
330
1F
100
AcDbEntity
  8
SPOJOVACÍ
  6
DASHED
100
AcDbLine
 10
1543.559052699743
 20
382.0752001127331
 30
0.0
 11
1545.67025409837
 21
381.7707349712747
 31
0.0
  0
LINE
  5
4D61
330
1F
100
AcDbEntity
  8
SPOJOVACÍ
  6
DASHED
100
AcDbLine
 10
1543.232709821229
 20
390.5701421888008
 30
0.0
 11
1543.232709821229
 21
389.34772376175
 31
0.0
  0
LINE
  5
4D62
330
1F
100
AcDbEntity
  8
SPOJOVACÍ
  6
DASHED
100
AcDbLine
 10
1545.87809258071
 20
389.6777129268759
 30
0.0
 11
1545.87809258071
 21
389.34772376175
 31
0.0
  0
LINE
  5
4D63
330
1F
100
AcDbEntity
  8
SPOJOVACÍ
  6
DASHED
100
AcDbLine
 10
1543.232709821229
 20
389.34772376175
 30
0.0
 11
1543.379472957897
 21
388.1745302373802
 31
0.0
  0
LINE
  5
4D64
330
1F
100
AcDbEntity
  8
SPOJOVACÍ
  6
DASHED
100
AcDbLine
 10
1543.455133458573
 20
387.5665115266439
 30
0.0
 11
1543.739544011102
 21
385.2912271163005
 31
0.0
  0
LINE
  5
4D65
330
1F
100
AcDbEntity
  8
SPOJOVACÍ
  6
DASHED
100
AcDbLine
 10
1545.305625184762
 20
384.7634267661088
 30
0.0
 11
1545.567246430993
 21
386.8573082929052
 31
0.0
  0
LINE
  5
4D66
330
1F
100
AcDbEntity
  8
SPOJOVACÍ
  6
DASHED
100
AcDbLine
 10
1545.637437497472
 20
387.4161021006895
 30
0.0
 11
1545.87809258071
 21
389.34772376175
 31
0.0
  0
LINE
  5
4D67
330
1F
100
AcDbEntity
  8
SPOJOVACÍ
  6
DASHED
100
AcDbLine
 10
1542.452403951497
 20
387.9831000586983
 30
0.0
 11
1542.823413868815
 21
387.7688805729123
 31
0.0
  0
LINE
  5
4D68
330
1F
100
AcDbEntity
  8
SPOJOVACÍ
  6
DASHED
100
AcDbLine
 10
1542.452403951497
 20
387.9831000586983
 30
0.0
 11
1542.823413868815
 21
388.3531984043639
 31
0.0
  0
LINE
  5
4D69
330
1F
100
AcDbEntity
  8
SPOJOVACÍ
  6
DASHED
100
AcDbLine
 10
1546.495227011185
 20
387.0295954540398
 30
0.0
 11
1546.125128667658
 21
386.6585855359154
 31
0.0
  0
LINE
  5
4D6A
330
1F
100
AcDbEntity
  8
SPOJOVACÍ
  6
DASHED
100
AcDbLine
 10
1546.495227011185
 20
387.0295954540398
 30
0.0
 11
1546.125128667658
 21
387.2429033673671
 31
0.0
  0
LINE
  5
4D6B
330
1F
100
AcDbEntity
  8
SPOJOVACÍ
  6
DASHED
100
AcDbLine
 10
1542.823413868815
 20
387.7688805729123
 30
0.0
 11
1546.125128667658
 21
386.6585855359154
 31
0.0
  0
LINE
  5
4D6C
330
1F
100
AcDbEntity
  8
SPOJOVACÍ
  6
DASHED
100
AcDbLine
 10
1542.823413868815
 20
388.3531984043639
 30
0.0
 11
1546.125128667658
 21
387.2429033673671
 31
0.0
  0
LINE
  5
4D6D
330
1F
100
AcDbEntity
  8
SPOJOVACÍ
  6
DASHED
100
AcDbLine
 10
1542.452403951497
 20
387.9831000586983
 30
0.0
 11
1546.495227011185
 21
387.0295954540398
 31
0.0
  0
LINE
  5
4D6E
330
1F
100
AcDbEntity
  8
SPOJOVACÍ
  6
DASHED
100
AcDbLine
 10
1543.005728323481
 20
385.0286942994863
 30
0.0
 11
1543.375826671285
 21
384.815386386159
 31
0.0
  0
LINE
  5
4D6F
330
1F
100
AcDbEntity
  8
SPOJOVACÍ
  6
DASHED
100
AcDbLine
 10
1543.005728323481
 20
385.0286942994863
 30
0.0
 11
1543.375826671285
 21
385.3997042176107
 31
0.0
  0
LINE
  5
4D70
330
1F
100
AcDbEntity
  8
SPOJOVACÍ
  6
DASHED
100
AcDbLine
 10
1546.059495461583
 20
384.4079135770517
 30
0.0
 11
1545.689397118057
 21
384.0369036591983
 31
0.0
  0
LINE
  5
4D71
330
1F
100
AcDbEntity
  8
SPOJOVACÍ
  6
DASHED
100
AcDbLine
 10
1546.059495461583
 20
384.4079135770517
 30
0.0
 11
1545.689397118057
 21
384.621221490379
 31
0.0
  0
LINE
  5
4D72
330
1F
100
AcDbEntity
  8
SPOJOVACÍ
  6
DASHED
100
AcDbLine
 10
1543.375826671285
 20
384.815386386159
 30
0.0
 11
1545.689397118057
 21
384.0369036591983
 31
0.0
  0
LINE
  5
4D73
330
1F
100
AcDbEntity
  8
SPOJOVACÍ
  6
DASHED
100
AcDbLine
 10
1543.375826671285
 20
385.3997042176107
 30
0.0
 11
1545.689397118057
 21
384.621221490379
 31
0.0
  0
LINE
  5
4D74
330
1F
100
AcDbEntity
  8
SPOJOVACÍ
  6
DASHED
100
AcDbLine
 10
1543.005728323481
 20
385.0286942994863
 30
0.0
 11
1546.059495461583
 21
384.4079135770517
 31
0.0
  0
LINE
  5
4D75
330
1F
100
AcDbEntity
  8
SPOJOVACÍ
  6
DASHED
100
AcDbLine
 10
1546.907257680696
 20
389.8226529194327
 30
0.0
 11
1546.53715933717
 21
389.452554573767
 31
0.0
  0
LINE
  5
4D76
330
1F
100
AcDbEntity
  8
SPOJOVACÍ
  6
DASHED
100
AcDbLine
 10
1546.907257680696
 20
389.8226529194327
 30
0.0
 11
1546.53715933717
 21
390.0368724052187
 31
0.0
  0
LINE
  5
4D77
330
1F
100
AcDbEntity
  8
SPOJOVACÍ
  6
DASHED
100
AcDbLine
 10
1542.573643064769
 20
390.7852732470384
 30
0.0
 11
1546.53715933717
 21
389.452554573767
 31
0.0
  0
LINE
  5
4D78
330
1F
100
AcDbEntity
  8
SPOJOVACÍ
  6
DASHED
100
AcDbLine
 10
1542.573643064769
 20
391.36959107849
 30
0.0
 11
1546.53715933717
 21
390.0368724052187
 31
0.0
  0
LINE
  5
4D79
330
1F
100
AcDbEntity
  8
SPOJOVACÍ
  6
DASHED
100
AcDbLine
 10
1543.232709821229
 20
393.622086181993
 30
0.0
 11
1543.232709821229
 21
391.1544600202525
 31
0.0
  0
LINE
  5
4D7A
330
1F
100
AcDbEntity
  8
SPOJOVACÍ
  6
DASHED
100
AcDbLine
 10
1545.87809258071
 20
392.7378610705565
 30
0.0
 11
1545.87809258071
 21
390.2693233366282
 31
0.0
  0
LINE
  5
4D7B
330
1F
100
AcDbEntity
  8
SPOJOVACÍ
  6
DASHED
100
AcDbLine
 10
1546.907257680696
 20
392.880977918474
 30
0.0
 11
1546.53715933717
 21
392.5099680006206
 31
0.0
  0
LINE
  5
4D7C
330
1F
100
AcDbEntity
  8
SPOJOVACÍ
  6
DASHED
100
AcDbLine
 10
1542.573643064769
 20
393.8426866736282
 30
0.0
 11
1546.53715933717
 21
392.5099680006206
 31
0.0
  0
HATCH
  5
4D7D
330
1F
100
AcDbEntity
  8
nášlap_vrstvy
100
AcDbHatch
 10
0.0
 20
0.0
 30
0.0
210
0.0
220
0.0
230
1.0
  2
SOLID
 70
     1
 71
     0
 91
        1
 92
        7
 72
     0
 73
     1
 93
        4
 10
1501.335739999981
 20
421.8134121810875
 10
1489.514873645062
 20
421.8134121810875
 10
1489.514873645062
 20
420.3134121810875
 10
1501.335739999981
 20
420.3134121810875
 97
        0
 75
     0
 76
     1
 47
0.1901250437635136
 98
        1
 10
1494.193771024232
 20
421.4050064055475
  0
HATCH
  5
4D7E
330
1F
100
AcDbEntity
  8
nášlap_vrstvy
100
AcDbHatch
 10
0.0
 20
0.0
 30
0.0
210
0.0
220
0.0
230
1.0
  2
SOLID
 70
     1
 71
     0
 91
        1
 92
        7
 72
     0
 73
     1
 93
        4
 10
1454.052274580311
 20
421.8134121810875
 10
1442.231408225391
 20
421.8134121810875
 10
1442.231408225391
 20
420.3134121810875
 10
1454.052274580311
 20
420.3134121810875
 97
        0
 75
     0
 76
     1
 47
0.1901250437635136
 98
        1
 10
1446.910305604561
 20
421.4050064055475
  0
LWPOLYLINE
  5
4D7F
330
1F
100
AcDbEntity
  8
nášlap_vrstvy
100
AcDbPolyline
 90
        4
 70
     1
 43
0.0
 10
1454.052274580307
 20
421.8134121810875
 10
1442.231408225391
 20
421.8134121810875
 10
1442.231408225391
 20
420.3134121810875
 10
1454.052274580307
 20
420.3134121810875
  0
HATCH
  5
4D80
330
1F
100
AcDbEntity
  8
nášlap_vrstvy
100
AcDbHatch
 10
0.0
 20
0.0
 30
0.0
210
0.0
220
0.0
230
1.0
  2
SOLID
 70
     1
 71
     0
 91
        1
 92
        7
 72
     0
 73
     1
 93
        4
 10
1477.694007290146
 20
421.8134121810875
 10
1465.87314093523
 20
421.8134121810875
 10
1465.873140935226
 20
420.3134121810875
 10
1477.694007290146
 20
420.3134121810875
 97
        0
 75
     0
 76
     1
 47
0.1901250437635136
 98
        1
 10
1470.5520383144
 20
421.4050064055475
  0
LWPOLYLINE
  5
4D81
330
1F
100
AcDbEntity
  8
nášlap_vrstvy
100
AcDbPolyline
 90
        4
 70
     1
 43
0.0
 10
1477.694007290146
 20
421.8134121810875
 10
1465.873140935226
 20
421.8134121810875
 10
1465.873140935226
 20
420.3134121810875
 10
1477.694007290146
 20
420.3134121810875
  0
HATCH
  5
4D82
330
1F
100
AcDbEntity
  8
nášlap_vrstvy
100
AcDbHatch
 10
0.0
 20
0.0
 30
0.0
210
0.0
220
0.0
230
1.0
  2
SOLID
 70
     1
 71
     0
 91
        1
 92
        7
 72
     0
 73
     1
 93
        4
 10
1430.410541870475
 20
421.8134121810875
 10
1418.589675515559
 20
421.8134121810875
 10
1418.589675515556
 20
420.3134121810875
 10
1430.410541870475
 20
420.3134121810875
 97
        0
 75
     0
 76
     1
 47
0.1901250437635136
 98
        1
 10
1423.26857289473
 20
421.4050064055475
  0
LWPOLYLINE
  5
4D83
330
1F
100
AcDbEntity
  8
nášlap_vrstvy
100
AcDbPolyline
 90
        4
 70
     1
 43
0.0
 10
1430.410541870475
 20
421.8134121810875
 10
1418.589675515556
 20
421.8134121810875
 10
1418.589675515556
 20
420.3134121810875
 10
1430.410541870475
 20
420.3134121810875
  0
HATCH
  5
4D84
330
1F
100
AcDbEntity
  8
nášlap_vrstvy
100
AcDbHatch
 10
0.0
 20
0.0
 30
0.0
210
0.0
220
0.0
230
1.0
  2
SOLID
 70
     1
 71
     0
 91
        1
 92
        7
 72
     0
 73
     1
 93
        4
 10
1524.977472709816
 20
421.8134121810875
 10
1513.1566063549
 20
421.8134121810875
 10
1513.156606354897
 20
420.3134121810875
 10
1524.977472709816
 20
420.3134121810875
 97
        0
 75
     0
 76
     1
 47
0.1901250437635136
 98
        1
 10
1517.83550373407
 20
421.4050064055475
  0
LWPOLYLINE
  5
4D85
330
1F
100
AcDbEntity
  8
nášlap_vrstvy
100
AcDbPolyline
 90
        4
 70
     1
 43
0.0
 10
1524.977472709816
 20
421.8134121810875
 10
1513.156606354897
 20
421.8134121810875
 10
1513.156606354897
 20
420.3134121810875
 10
1524.977472709816
 20
420.3134121810875
  0
TEXT
  5
4D86
330
1F
100
AcDbEntity
  8
POPIS
100
AcDbText
 10
1366.716988618148
 20
522.6985661941129
 30
0.0
 40
25.0
  1
02
 41
0.85
  7
SIMPLEX7
100
AcDbText
  0
INSERT
  5
4D87
330
1F
100
AcDbEntity
  8
POPIS
100
AcDbBlockReference
  2
E_PUNKT
 10
1385.470445406864
 20
430.4854651626677
 30
0.0
 50
270.0
  0
LINE
  5
4D88
330
1F
100
AcDbEntity
  8
POPIS
100
AcDbLine
 10
1385.512582029861
 20
513.8492051213892
 30
0.0
 11
1385.499513737736
 21
430.4578547870408
 31
0.0
  0
LINE
  5
4D89
330
1F
100
AcDbEntity
  8
nášlap_vrstvy
100
AcDbLine
 10
1283.749249187957
 20
428.3822326560333
 30
0.0
 11
1283.749249187957
 21
430.3822326560333
 31
0.0
  0
LINE
  5
4D8A
330
1F
100
AcDbEntity
  8
nášlap_vrstvy
100
AcDbLine
 10
1253.749249187957
 20
458.3822326560333
 30
0.0
 11
1253.749249187957
 21
428.3822326560333
 31
0.0
  0
LINE
  5
4D8B
330
1F
100
AcDbEntity
  8
nášlap_vrstvy
100
AcDbLine
 10
1253.749249187957
 20
428.3822326560333
 30
0.0
 11
1283.749249187957
 21
428.3822326560333
 31
0.0
  0
INSERT
  5
4D8C
330
1F
100
AcDbEntity
  8
POPIS
100
AcDbBlockReference
  2
E_PUNKT
 10
1257.083306397879
 20
441.9345504598545
 30
0.0
 50
270.0
  0
LINE
  5
4D8D
330
1F
100
AcDbEntity
  8
nášlap_vrstvy
100
AcDbLine
 10
1255.749249187957
 20
458.3822326560333
 30
0.0
 11
1253.749249187957
 21
458.3822326560333
 31
0.0
  0
LINE
  5
4D8E
330
1F
100
AcDbEntity
  8
nášlap_vrstvy
100
AcDbLine
 10
1255.749249187957
 20
430.3822326560333
 30
0.0
 11
1255.749249187957
 21
458.3822326560333
 31
0.0
  0
LINE
  5
4D8F
330
1F
100
AcDbEntity
  8
nášlap_vrstvy
100
AcDbLine
 10
1283.749249187957
 20
430.3822326560333
 30
0.0
 11
1255.749249187957
 21
430.3822326560333
 31
0.0
  0
LINE
  5
4D90
330
1F
100
AcDbEntity
  8
POPIS
100
AcDbLine
 10
1257.112374728752
 20
441.9069400842276
 30
0.0
 11
1333.320422024918
 21
513.8492051213892
 31
0.0
  0
TEXT
  5
4D91
330
1F
100
AcDbEntity
  8
POPIS
100
AcDbText
 10
1318.475938103228
 20
522.6985661941129
 30
0.0
 40
25.0
  1
01
 41
0.85
  7
SIMPLEX7
100
AcDbText
  0
TEXT
  5
4D92
330
1F
100
AcDbEntity
  8
POPIS
100
AcDbText
 10
1490.324543427513
 20
522.6985661941129
 30
0.0
 40
25.0
  1
03
 41
0.85
  7
SIMPLEX7
100
AcDbText
  0
TEXT
  5
4D9E
330
1F
100
AcDbEntity
  8
POPIS
100
AcDbText
 10
2062.9383041236
 20
563.3515008196722
 30
0.0
 40
25.0
  1
Rohová lišta
 41
0.7
  7
SIMPLEX7
100
AcDbText
  0
TEXT
  5
4D9F
330
1F
100
AcDbEntity
  8
POPIS
100
AcDbText
 10
2062.9383041236
 20
280.5997057972311
 30
0.0
 40
25.0
  1
Stropní konstrukce
 41
0.7
  7
SIMPLEX7
100
AcDbText
  0
TEXT
  5
4DA0
330
1F
100
AcDbEntity
  8
POPIS
100
AcDbText
 10
2062.9383041236
 20
419.4375826714262
 30
0.0
 40
25.0
  1
Penetrace 
 41
0.7
  7
SIMPLEX7
100
AcDbText
  0
TEXT
  5
4DA1
330
1F
100
AcDbEntity
  8
POPIS
100
AcDbText
 10
2062.9383041236
 20
454.8417438895889
 30
0.0
 40
25.0
  1
Nivelační stěrka 
 41
0.7
  7
SIMPLEX7
100
AcDbText
  0
TEXT
  5
4DA2
330
1F
100
AcDbEntity
  8
POPIS
100
AcDbText
 10
2061.377408138437
 20
347.3712653487676
 30
0.0
 40
25.0
  1
Stávající dřevěná podlaha
 41
0.7
  7
SIMPLEX7
100
AcDbText
  0
TEXT
  5
4DA3
330
1F
100
AcDbEntity
  8
POPIS
100
AcDbText
 10
2062.9383041236
 20
526.3417138962217
 30
0.0
 40
25.0
  1
PVC, koberec
 41
0.7
  7
SIMPLEX7
100
AcDbText
  0
TEXT
  5
4DA4
330
1F
100
AcDbEntity
  8
POPIS
100
AcDbText
 10
2062.9383041236
 20
312.3828661829723
 30
0.0
 40
25.0
  1
Dilatační spára tl. 15 mm
 41
0.7
  7
SIMPLEX7
100
AcDbText
  0
TEXT
  5
4DA5
330
1F
100
AcDbEntity
  8
POPIS
100
AcDbText
 10
2062.9383041236
 20
489.7467022805943
 30
0.0
 40
25.0
  1
Disperzní lepidlo 
 41
0.7
  7
SIMPLEX7
100
AcDbText
  0
TEXT
  5
4DA6
330
1F
100
AcDbEntity
  8
POPIS
100
AcDbText
 10
2061.377408138437
 20
381.2565368880535
 30
0.0
 40
25.0
  1
Podlahová deska CETRIS   PD (PDB)
 41
0.7
  7
SIMPLEX7
100
AcDbText
  0
LWPOLYLINE
  5
4DA7
330
1F
100
AcDbEntity
  8
izolace
100
AcDbPolyline
 90
        4
 70
     1
 43
0.0
 10
1869.140864292582
 20
395.555746368202
 10
1845.499131582747
 20
395.555746368202
 10
1845.499131582747
 20
392.5557463682019
 10
1869.140864292582
 20
392.5557463682019
  0
HATCH
  5
4DA8
330
1F
100
AcDbEntity
  8
izolace
100
AcDbHatch
 10
0.0
 20
0.0
 30
0.0
210
0.0
220
0.0
230
1.0
  2
SOLID
 70
     1
 71
     0
 91
        1
 92
        7
 72
     0
 73
     1
 93
        4
 10
1869.140864292586
 20
395.555746368202
 10
1845.499131582751
 20
395.555746368202
 10
1845.499131582747
 20
392.5557463682019
 10
1869.140864292586
 20
392.5557463682019
 97
        0
 75
     0
 76
     1
 47
0.1901250437635136
 98
        1
 10
1854.85692634109
 20
394.7389348171221
  0
POLYLINE
  5
4DA9
330
1F
100
AcDbEntity
  8
STAVBA OBRYS
100
AcDb2dPolyline
 66
     1
 10
0.0
 20
0.0
 30
0.0
  0
VERTEX
  5
4DAA
330
4DA9
100
AcDbEntity
  8
STAVBA OBRYS
100
AcDbVertex
100
AcDb2dVertex
 10
1847.929672310057
 20
374.5557463682024
 30
0.0
 42
-0.0094186890201653
  0
VERTEX
  5
4DAB
330
4DA9
100
AcDbEntity
  8
STAVBA OBRYS
100
AcDbVertex
100
AcDb2dVertex
 10
1848.276470872931
 20
374.7144192389704
 30
0.0
 42
-0.0322692699774654
  0
VERTEX
  5
4DAC
330
4DA9
100
AcDbEntity
  8
STAVBA OBRYS
100
AcDbVertex
100
AcDb2dVertex
 10
1851.167825054021
 20
375.7559427403711
 30
0.0
 42
-0.0276160659512937
  0
VERTEX
  5
4DAD
330
4DA9
100
AcDbEntity
  8
STAVBA OBRYS
100
AcDbVertex
100
AcDb2dVertex
 10
1852.023401492309
 20
375.9526781693156
 30
0.0
 42
-0.0126891984598699
  0
VERTEX
  5
4DAE
330
4DA9
100
AcDbEntity
  8
STAVBA OBRYS
100
AcDbVertex
100
AcDb2dVertex
 10
1852.9465698881
 20
376.0878805588571
 30
0.0
  0
SEQEND
  5
4DAF
330
4DA9
100
AcDbEntity
  8
STAVBA OBRYS
  0
LWPOLYLINE
  5
4DB0
330
1F
100
AcDbEntity
  8
STAVBA OBRYS
100
AcDbPolyline
 90
        8
 70
     0
 43
0.0
 10
1830.524474973205
 20
374.5557463682024
 42
-0.0217273703039143
 10
1832.722145233715
 20
379.5914367056801
 42
-0.0882970623535771
 10
1834.359367153808
 20
381.83180575648
 42
-0.0171636441953577
 10
1837.172731215666
 20
384.3457231117253
 42
-0.0157521173632038
 10
1840.411586052702
 20
386.8772191642318
 42
-0.0073640874174249
 10
1845.045235409023
 20
390.1656205899679
 42
-0.0194185739168057
 10
1846.8672787287
 20
391.3171895892491
 42
-0.0229547400386702
 10
1849.252736792714
 20
392.5557463682024
  0
POLYLINE
  5
4DB1
330
1F
100
AcDbEntity
  8
STAVBA OBRYS
100
AcDb2dPolyline
 66
     1
 10
0.0
 20
0.0
 30
0.0
  0
VERTEX
  5
4DB2
330
4DB1
100
AcDbEntity
  8
STAVBA OBRYS
100
AcDbVertex
100
AcDb2dVertex
 10
1838.876526360521
 20
374.5557463682024
 30
0.0
 42
-0.0502247168465557
  0
VERTEX
  5
4DB3
330
4DB1
100
AcDbEntity
  8
STAVBA OBRYS
100
AcDbVertex
100
AcDb2dVertex
 10
1840.475573536686
 20
376.5632170409252
 30
0.0
 42
-0.0274923553235744
  0
VERTEX
  5
4DB4
330
4DB1
100
AcDbEntity
  8
STAVBA OBRYS
100
AcDbVertex
100
AcDb2dVertex
 10
1843.072879267239
 20
378.9482923640633
 30
0.0
 42
-0.0255412025538677
  0
VERTEX
  5
4DB5
330
4DB1
100
AcDbEntity
  8
STAVBA OBRYS
100
AcDbVertex
100
AcDb2dVertex
 10
1846.124309304949
 20
381.2050060410791
 30
0.0
 42
-0.0272796991712396
  0
VERTEX
  5
4DB6
330
4DB1
100
AcDbEntity
  8
STAVBA OBRYS
100
AcDbVertex
100
AcDb2dVertex
 10
1850.237308458135
 20
383.621341922745
 30
0.0
 42
-0.056967459841729
  0
VERTEX
  5
4DB7
330
4DB1
100
AcDbEntity
  8
STAVBA OBRYS
100
AcDbVertex
100
AcDb2dVertex
 10
1852.378255738866
 20
384.4340777579444
 30
0.0
 42
-0.0373408083348504
  0
VERTEX
  5
4DB8
330
4DB1
100
AcDbEntity
  8
STAVBA OBRYS
100
AcDbVertex
100
AcDb2dVertex
 10
1852.60061011434
 20
384.473243298892
 30
0.0
 42
-0.0052305969362967
  0
VERTEX
  5
4DB9
330
4DB1
100
AcDbEntity
  8
STAVBA OBRYS
100
AcDbVertex
100
AcDb2dVertex
 10
1852.9465698881
 20
384.5042002657963
 30
0.0
  0
SEQEND
  5
4DBA
330
4DB1
100
AcDbEntity
  8
STAVBA OBRYS
  0
HATCH
  5
4DBB
330
1F
100
AcDbEntity
  8
nášlap_vrstvy
100
AcDbHatch
 10
0.0
 20
0.0
 30
0.0
210
0.0
220
0.0
230
1.0
  2
SOLID
 70
     1
 71
     0
 91
        1
 92
        7
 72
     0
 73
     1
 93
        4
 10
1851.206679891432
 20
421.8134121810875
 10
1839.385813536512
 20
421.8134121810875
 10
1839.385813536512
 20
420.3134121810875
 10
1851.206679891432
 20
420.3134121810875
 97
        0
 75
     0
 76
     1
 47
0.1901250437635136
 98
        1
 10
1844.064710915682
 20
421.4050064055475
  0
LWPOLYLINE
  5
4DBC
330
1F
100
AcDbEntity
  8
nášlap_vrstvy
100
AcDbPolyline
 90
        4
 70
     1
 43
0.0
 10
1952.839426329611
 20
420.3134121810875
 10
1602.96848643816
 20
420.3134121810875
 10
1602.96848643816
 20
421.8134121810875
 10
1952.839426329611
 20
421.8134121810875
  0
HATCH
  5
4DBD
330
1F
100
AcDbEntity
  8
CETRIS
100
AcDbHatch
 10
0.0
 20
0.0
 30
0.0
210
0.0
220
0.0
230
1.0
  2
ANSI31
 70
     0
 71
     0
 91
        6
 92
        7
 72
     0
 73
     1
 93
       37
 10
1700.362910922514
 20
420.3134121810872
 10
1599.07362447033
 20
420.3134121810872
 10
1599.073624470328
 20
419.1374839398905
 10
1598.372625387887
 20
418.8074947747637
 10
1597.160234255166
 20
417.9077729345318
 10
1596.221314806579
 20
416.72455211529
 10
1595.620588674416
 20
415.3389622497835
 10
1595.398165041348
 20
413.8458068554256
 10
1595.398165041348
 20
411.6317556409404
 10
1596.05723179781
 20
411.4101467177716
 10
1596.427330141336
 20
411.1959272319856
 10
1596.05723179781
 20
410.8258288863217
 10
1595.398165041348
 20
411.0474378095351
 10
1595.398165041348
 20
408.5891078374889
 10
1596.057231797814
 20
408.3674989143202
 10
1596.427330141336
 20
408.1532794285341
 10
1596.057231797808
 20
407.7831810828684
 10
1595.398165041348
 20
408.0047900060828
 10
1595.398165041348
 20
405.5315428314052
 10
1596.057231797803
 20
405.3100854874684
 10
1596.427330141336
 20
405.0958660016805
 10
1596.057231797808
 20
404.7257676562868
 10
1595.39816504135
 20
404.9472250001801
 10
1595.39816504135
 20
402.4890466074558
 10
1596.057231797806
 20
402.2674376842852
 10
1596.427330141334
 20
402.0532181985009
 10
1596.057231797808
 20
401.6831198528353
 10
1595.398165041348
 20
401.9047287760496
 10
1595.398165041348
 20
399.4314816013712
 10
1596.05723179781
 20
399.2100242574316
 10
1596.427330141334
 20
398.9958047716455
 10
1596.057231797808
 20
398.625706426251
 10
1595.39816504135
 20
398.8471637701451
 10
1595.398165041348
 20
396.3733081818255
 10
1595.576296239172
 20
396.3134121810864
 10
1621.151137905079
 20
396.3134121810864
 10
1700.362910922512
 20
396.3134121810873
 97
        0
 92
        7
 72
     0
 73
     1
 93
       44
 10
1592.752782281867
 20
408.8942908329264
 10
1592.093715525404
 20
409.1158997561398
 10
1591.723617177605
 20
409.329207669467
 10
1592.093715525408
 20
409.7002175873204
 10
1592.752782281867
 20
409.4786086641525
 10
1592.752782281867
 20
411.9369386363779
 10
1592.093715525404
 20
412.1585475595912
 10
1591.723617177601
 20
412.3718554729185
 10
1592.093715525408
 20
412.7428653907728
 10
1592.752782281867
 20
412.521256467605
 10
1592.720421465724
 20
414.2314019297356
 10
1592.688060649584
 20
414.6169970040765
 10
1592.268737402572
 20
416.0682200737875
 10
1591.488431532837
 20
417.3608295665236
 10
1590.400014230485
 20
418.4082261161485
 10
1589.077322848607
 20
419.1374839398914
 10
1589.077322848607
 20
420.3134121810872
 10
1571.151137905079
 20
420.3134121810872
 10
1571.151137905079
 20
412.3134121810872
 10
1561.151137905079
 20
412.3134121810872
 10
1561.151137905079
 20
404.3134121810872
 10
1571.151137905079
 20
404.3134121810872
 10
1571.151137905077
 20
396.3134121810864
 10
1592.752782281865
 20
396.3134121810864
 10
1592.752782281867
 20
396.678491177042
 10
1592.093715525411
 20
396.9001001002098
 10
1591.723617177601
 20
397.1143195859978
 10
1592.093715525409
 20
397.4844179316616
 10
1592.752782281867
 20
397.2628090084946
 10
1592.752782281867
 20
399.736056183173
 10
1592.093715525415
 20
399.9575135270617
 10
1591.723617177603
 20
400.1717330128514
 10
1592.093715525406
 20
400.5418313585161
 10
1592.752782281867
 20
400.3203740145782
 10
1592.752782281865
 20
402.7942296028915
 10
1592.093715525406
 20
403.0158385261057
 10
1591.723617177603
 20
403.2291464394321
 10
1592.093715525409
 20
403.6001563572864
 10
1592.752782281867
 20
403.3785474341194
 10
1592.752782281867
 20
405.8361174132061
 10
1592.093715525409
 20
406.0575747570975
 10
1591.723617177603
 20
406.2717942428845
 10
1592.093715525408
 20
406.6418925885501
 10
1592.752782281867
 20
406.4204352446123
 97
        0
 92
        7
 72
     0
 73
     1
 93
        4
 10
1747.245225736679
 20
420.3134121810881
 10
1700.362910922512
 20
420.3134121810881
 10
1700.36291092251
 20
396.3134121810873
 10
1747.245225736679
 20
396.3134121810881
 97
        0
 92
        7
 72
     0
 73
     1
 93
        4
 10
1796.333741200967
 20
420.3134121810881
 10
1747.245225736679
 20
420.3134121810881
 10
1747.245225736679
 20
396.3134121810864
 10
1796.333741200967
 20
396.3134121810864
 97
        0
 92
        7
 72
     0
 73
     1
 93
       40
 10
1872.116562866779
 20
411.9369386363779
 10
1871.45749611032
 20
412.1585475595922
 10
1871.087397762518
 20
412.3718554729195
 10
1871.457496110321
 20
412.7428653907728
 10
1872.116562866781
 20
412.521256467605
 10
1872.084202050637
 20
414.2314019297456
 10
1872.0518412345
 20
414.6169970040847
 10
1871.632517987483
 20
416.0682200737902
 10
1870.852212117751
 20
417.3608295665254
 10
1869.763794815407
 20
418.408226116144
 10
1868.441103433521
 20
419.1374839398905
 10
1868.441103433521
 20
420.3134121810872
 10
1796.333741200968
 20
420.3134121810863
 10
1796.333741200967
 20
396.3134121810873
 10
1872.116562866781
 20
396.3134121810873
 10
1872.116562866781
 20
396.678491177042
 10
1871.457496110316
 20
396.9001001002117
 10
1871.087397762517
 20
397.1143195859969
 10
1871.457496110321
 20
397.4844179316633
 10
1872.116562866781
 20
397.2628090084946
 10
1872.116562866781
 20
399.736056183172
 10
1871.457496110323
 20
399.9575135270625
 10
1871.087397762517
 20
400.1717330128514
 10
1871.457496110321
 20
400.5418313585169
 10
1872.116562866781
 20
400.3203740145791
 10
1872.116562866781
 20
402.7942296028933
 10
1871.457496110323
 20
403.015838526103
 10
1871.087397762515
 20
403.229146439433
 10
1871.457496110321
 20
403.6001563572873
 10
1872.116562866781
 20
403.3785474341194
 10
1872.116562866781
 20
405.8361174132052
 10
1871.457496110332
 20
406.0575747570966
 10
1871.087397762517
 20
406.2717942428836
 10
1871.457496110323
 20
406.6418925885511
 10
1872.116562866781
 20
406.420435244615
 10
1872.116562866781
 20
408.8942908329264
 10
1871.45749611032
 20
409.115899756138
 10
1871.087397762517
 20
409.3292076694679
 10
1871.457496110323
 20
409.7002175873204
 10
1872.116562866781
 20
409.4786086641534
 97
        0
 92
        7
 72
     0
 73
     1
 93
       37
 10
1952.839426329603
 20
420.3134121810872
 10
1878.437405055244
 20
420.3134121810872
 10
1878.437405055244
 20
419.1374839398905
 10
1877.736405972801
 20
418.8074947747674
 10
1876.52401484008
 20
417.9077729345318
 10
1875.585095391491
 20
416.7245521152882
 10
1874.98436925933
 20
415.3389622497781
 10
1874.761945626262
 20
413.8458068554292
 10
1874.761945626262
 20
411.6317556409404
 10
1875.42101238272
 20
411.4101467177716
 10
1875.791110726247
 20
411.1959272319856
 10
1875.421012382724
 20
410.82582888632
 10
1874.761945626262
 20
411.0474378095333
 10
1874.761945626261
 20
408.589107837488
 10
1875.421012382724
 20
408.3674989143183
 10
1875.791110726247
 20
408.153279428535
 10
1875.421012382722
 20
407.7831810828684
 10
1874.761945626262
 20
408.0047900060828
 10
1874.761945626262
 20
405.5315428314052
 10
1875.42101238272
 20
405.3100854874684
 10
1875.791110726249
 20
405.0958660016814
 10
1875.421012382722
 20
404.7257676562859
 10
1874.761945626262
 20
404.9472250001791
 10
1874.761945626262
 20
402.489046607454
 10
1875.421012382722
 20
402.267437684287
 10
1875.791110726247
 20
402.0532181985
 10
1875.421012382722
 20
401.6831198528353
 10
1874.761945626262
 20
401.9047287760496
 10
1874.761945626262
 20
399.4314816013712
 10
1875.421012382727
 20
399.2100242574316
 10
1875.791110726249
 20
398.9958047716455
 10
1875.42101238272
 20
398.6257064262519
 10
1874.761945626261
 20
398.8471637701433
 10
1874.761945626262
 20
396.3733081818246
 10
1874.940076824083
 20
396.3134121810864
 10
1899.204729263457
 20
396.3134121810864
 10
1952.839426329603
 20
396.3134121810881
 97
        0
 75
     0
 76
     1
 52
90.0
 41
1.0
 77
     0
 78
     1
 53
135.0
 43
-3938.065144607678
 44
-4738.254491330354
 45
-2.245064030267288
 46
-2.245064030267287
 79
     0
 47
0.7293997082383822
 98
        6
 10
1657.324792641126
 20
406.7095319688852
 10
1579.96096429181
 20
407.4389387256197
 10
1709.143976178121
 20
409.6271422209066
 10
1790.157075902297
 20
409.6271422209066
 10
1812.052505964576
 20
411.8153289412804
 10
1889.416362626306
 20
411.8153289412804
  0
LINE
  5
4DBE
330
1F
100
AcDbEntity
  8
POPIS
100
AcDbLine
 10
1796.333741200968
 20
513.8492051213892
 30
0.0
 11
1796.333741200968
 21
319.1034625828382
 31
0.0
  0
LINE
  5
4DBF
330
1F
100
AcDbEntity
  8
POPIS
100
AcDbLine
 10
1747.245225736683
 20
513.8492051213892
 30
0.0
 11
1747.245225736681
 21
384.0292130504425
 31
0.0
  0
LINE
  5
4DC0
330
1F
100
AcDbEntity
  8
POPIS
100
AcDbLine
 10
1672.141255558451
 20
513.8492051213892
 30
0.0
 11
1672.141255558449
 21
407.3774620566731
 31
0.0
  0
LINE
  5
4DC1
330
1F
100
AcDbEntity
  8
POPIS
100
AcDbLine
 10
1607.858212777411
 20
513.8492051213892
 30
0.0
 11
1607.858212777409
 21
421.1081489428473
 31
0.0
  0
LINE
  5
4DC2
330
1F
100
AcDbEntity
  8
POPIS
100
AcDbLine
 10
1555.703586266562
 20
513.8492051213892
 30
0.0
 11
1555.70358626656
 21
423.1215700833275
 31
0.0
  0
LWPOLYLINE
  5
4DC3
330
1F
100
AcDbEntity
  8
nášlap_vrstvy
100
AcDbPolyline
 90
        4
 70
     1
 43
0.0
 10
1709.639859612324
 20
421.8134121810875
 10
1697.818993257408
 20
421.8134121810875
 10
1697.818993257408
 20
420.3134121810875
 10
1709.639859612324
 20
420.3134121810875
  0
HATCH
  5
4DC4
330
1F
100
AcDbEntity
  8
nášlap_vrstvy
100
AcDbHatch
 10
0.0
 20
0.0
 30
0.0
210
0.0
220
0.0
230
1.0
  2
SOLID
 70
     1
 71
     0
 91
        1
 92
        7
 72
     0
 73
     1
 93
        4
 10
1709.639859612328
 20
421.8134121810875
 10
1697.818993257408
 20
421.8134121810875
 10
1697.818993257408
 20
420.3134121810875
 10
1709.639859612328
 20
420.3134121810875
 97
        0
 75
     0
 76
     1
 47
0.1901250437635136
 98
        1
 10
1702.497890636578
 20
421.4050064055475
  0
LWPOLYLINE
  5
4DC5
330
1F
100
AcDbEntity
  8
izolace
100
AcDbPolyline
 90
        4
 70
     1
 43
0.0
 10
1680.007002613901
 20
395.555746368202
 10
1656.365269904066
 20
395.555746368202
 10
1656.365269904066
 20
392.5557463682019
 10
1680.007002613901
 20
392.5557463682019
  0
HATCH
  5
4DC6
330
1F
100
AcDbEntity
  8
izolace
100
AcDbHatch
 10
0.0
 20
0.0
 30
0.0
210
0.0
220
0.0
230
1.0
  2
SOLID
 70
     1
 71
     0
 91
        1
 92
        7
 72
     0
 73
     1
 93
        4
 10
1680.007002613904
 20
395.555746368202
 10
1656.365269904069
 20
395.555746368202
 10
1656.365269904066
 20
392.5557463682019
 10
1680.007002613904
 20
392.5557463682019
 97
        0
 75
     0
 76
     1
 47
0.1901250437635136
 98
        1
 10
1665.723064662409
 20
394.7389348171221
  0
LWPOLYLINE
  5
4DC7
330
1F
100
AcDbEntity
  8
STAVBA OBRYS
100
AcDbPolyline
 90
        4
 70
     0
 43
0.0
 10
1686.252518341484
 20
374.5557463682024
 42
0.0334776267545482
 10
1685.815240546778
 20
378.6027212969392
 42
0.0091133963862869
 10
1683.337636221859
 20
391.2944510823989
 42
0.007828075361276
 10
1683.046737086701
 20
392.5557463682024
  0
LWPOLYLINE
  5
4DC8
330
1F
100
AcDbEntity
  8
STAVBA OBRYS
100
AcDbPolyline
 90
        3
 70
     0
 43
0.0
 10
1697.705056204452
 20
374.5557463682024
 42
0.0052038508054843
 10
1694.50665926447
 20
390.9595728501998
 42
0.0065712046643719
 10
1694.156233494705
 20
392.5557463682024
  0
LWPOLYLINE
  5
4DC9
330
1F
100
AcDbEntity
  8
STAVBA OBRYS
100
AcDbPolyline
 90
        5
 70
     0
 43
0.0
 10
1645.861371110216
 20
374.5557463682024
 42
0.0133579731639958
 10
1645.474560621188
 20
377.0735486557577
 42
0.0072443097182286
 10
1643.35456367373
 20
387.8844395506647
 42
0.0219777111230329
 10
1642.448451171746
 20
391.4025528065002
 42
0.0092752982622242
 10
1642.073224209799
 20
392.5557463682024
  0
LWPOLYLINE
  5
4DCA
330
1F
100
AcDbEntity
  8
STAVBA OBRYS
100
AcDbPolyline
 90
        4
 70
     0
 43
0.0
 10
1656.105509485009
 20
374.5557463682024
 42
0.0334776267545482
 10
1655.668231690303
 20
378.6027212969392
 42
0.0091133963862869
 10
1653.190627365384
 20
391.2944510823989
 42
0.007828075361276
 10
1652.899728230227
 20
392.5557463682024
  0
LWPOLYLINE
  5
4DCB
330
1F
100
AcDbEntity
  8
STAVBA OBRYS
100
AcDbPolyline
 90
        3
 70
     0
 43
0.0
 10
1667.558047347977
 20
374.5557463682024
 42
0.0052038508054843
 10
1664.359650407995
 20
390.9595728501998
 42
0.0065712046643719
 10
1664.00922463823
 20
392.5557463682024
  0
LWPOLYLINE
  5
4DCC
330
1F
100
AcDbEntity
  8
STAVBA OBRYS
100
AcDbPolyline
 90
        5
 70
     0
 43
0.0
 10
1676.00837996669
 20
374.5557463682024
 42
0.0133579731639958
 10
1675.621569477662
 20
377.0735486557577
 42
0.0072443097182286
 10
1673.501572530204
 20
387.8844395506647
 42
0.0219777111230329
 10
1672.595460028221
 20
391.4025528065002
 42
0.0092752982622242
 10
1672.220233066274
 20
392.5557463682024
  0
LWPOLYLINE
  5
4DCD
330
1F
100
AcDbEntity
  8
STAVBA OBRYS
100
AcDbPolyline
 90
        4
 70
     0
 43
0.0
 10
1651.498390904199
 20
374.0549159374539
 10
1671.494643336192
 20
383.2709449879738
 10
1688.27253390741
 20
385.978089250665
 10
1691.536145155115
 20
386.1083906150351
  0
LWPOLYLINE
  5
4DCE
330
1F
100
AcDbEntity
  8
STAVBA OBRYS
100
AcDbPolyline
 90
        5
 70
     0
 43
0.0
 10
1603.759487350756
 20
374.5557463682024
 42
0.0133579731639958
 10
1603.372676861728
 20
377.0735486557577
 42
0.0072443097182286
 10
1601.252679914269
 20
387.8844395506647
 42
0.0219777111230329
 10
1600.346567412286
 20
391.4025528065002
 42
0.0092752982622242
 10
1599.971340450339
 20
392.5557463682024
  0
LWPOLYLINE
  5
4DCF
330
1F
100
AcDbEntity
  8
STAVBA OBRYS
100
AcDbPolyline
 90
        4
 70
     0
 43
0.0
 10
1635.955767236319
 20
374.5557463682024
 42
0.0186324019486548
 10
1632.587397864212
 20
386.2508579864269
 42
0.0582629403736403
 10
1630.927897996132
 20
389.8306921853626
 42
0.0146402521923566
 10
1629.143490014548
 20
392.5557463682024
  0
LWPOLYLINE
  5
4DD0
330
1F
100
AcDbEntity
  8
STAVBA OBRYS
100
AcDbPolyline
 90
        4
 70
     0
 43
0.0
 10
1621.351382047724
 20
374.0549159374539
 10
1641.347634479717
 20
383.2709449879738
 10
1658.125525050935
 20
385.978089250665
 10
1661.38913629864
 20
386.1083906150351
  0
LWPOLYLINE
  5
4DD1
330
1F
100
AcDbEntity
  8
STAVBA OBRYS
100
AcDbPolyline
 90
        3
 70
     0
 43
0.0
 10
1625.456163588517
 20
374.5557463682024
 42
0.0052038508054843
 10
1622.257766648535
 20
390.9595728501998
 42
0.0065712046643719
 10
1621.90734087877
 20
392.5557463682024
  0
LWPOLYLINE
  5
4DD2
330
1F
100
AcDbEntity
  8
STAVBA OBRYS
100
AcDbPolyline
 90
        4
 70
     0
 43
0.0
 10
1614.003625725549
 20
374.5557463682024
 42
0.0334776267545482
 10
1613.566347930843
 20
378.6027212969392
 42
0.0091133963862869
 10
1611.088743605924
 20
391.2944510823989
 42
0.007828075361276
 10
1610.797844470766
 20
392.5557463682024
  0
LWPOLYLINE
  5
4DD3
330
1F
100
AcDbEntity
  8
izolace
100
AcDbPolyline
 90
        4
 70
     1
 43
0.0
 10
1632.72353719423
 20
395.555746368202
 10
1609.081804484395
 20
395.555746368202
 10
1609.081804484395
 20
392.5557463682019
 10
1632.72353719423
 20
392.5557463682019
  0
HATCH
  5
4DD4
330
1F
100
AcDbEntity
  8
izolace
100
AcDbHatch
 10
0.0
 20
0.0
 30
0.0
210
0.0
220
0.0
230
1.0
  2
SOLID
 70
     1
 71
     0
 91
        1
 92
        7
 72
     0
 73
     1
 93
        4
 10
1632.723537194234
 20
395.555746368202
 10
1609.081804484399
 20
395.555746368202
 10
1609.081804484395
 20
392.5557463682019
 10
1632.723537194234
 20
392.5557463682019
 97
        0
 75
     0
 76
     1
 47
0.1901250437635136
 98
        1
 10
1618.439599242739
 20
394.7389348171221
  0
LWPOLYLINE
  5
4DD5
330
1F
100
AcDbEntity
  8
izolace
100
AcDbPolyline
 90
        4
 70
     1
 43
0.0
 10
1585.44007177456
 20
395.555746368202
 10
1561.798339064725
 20
395.555746368202
 10
1561.798339064725
 20
392.5557463682019
 10
1585.44007177456
 20
392.5557463682019
  0
HATCH
  5
4DD6
330
1F
100
AcDbEntity
  8
izolace
100
AcDbHatch
 10
0.0
 20
0.0
 30
0.0
210
0.0
220
0.0
230
1.0
  2
SOLID
 70
     1
 71
     0
 91
        1
 92
        7
 72
     0
 73
     1
 93
        4
 10
1585.440071774564
 20
395.555746368202
 10
1561.798339064728
 20
395.555746368202
 10
1561.798339064725
 20
392.5557463682019
 10
1585.440071774564
 20
392.5557463682019
 97
        0
 75
     0
 76
     1
 47
0.1901250437635136
 98
        1
 10
1571.156133823068
 20
394.7389348171221
  0
LWPOLYLINE
  5
4DD7
330
1F
100
AcDbEntity
  8
STAVBA OBRYS
100
AcDbPolyline
 90
        4
 70
     0
 43
0.0
 10
1593.853883476859
 20
374.5557463682024
 42
0.0186324019486548
 10
1590.485514104752
 20
386.2508579864269
 42
0.0582629403736403
 10
1588.826014236671
 20
389.8306921853626
 42
0.0146402521923566
 10
1587.041606255087
 20
392.5557463682024
  0
POLYLINE
  5
4DD8
330
1F
100
AcDbEntity
  8
STAVBA OBRYS
100
AcDb2dPolyline
 66
     1
 10
0.0
 20
0.0
 30
0.0
  0
VERTEX
  5
4DD9
330
4DD8
100
AcDbEntity
  8
STAVBA OBRYS
100
AcDbVertex
100
AcDb2dVertex
 10
1567.318566732899
 20
374.5557463682024
 30
0.0
 42
0.0502247168465557
  0
VERTEX
  5
4DDA
330
4DD8
100
AcDbEntity
  8
STAVBA OBRYS
100
AcDbVertex
100
AcDb2dVertex
 10
1565.719519556733
 20
376.5632170409252
 30
0.0
 42
0.0274923553235744
  0
VERTEX
  5
4DDB
330
4DD8
100
AcDbEntity
  8
STAVBA OBRYS
100
AcDbVertex
100
AcDb2dVertex
 10
1563.122213826181
 20
378.9482923640633
 30
0.0
 42
0.0255412025538677
  0
VERTEX
  5
4DDC
330
4DD8
100
AcDbEntity
  8
STAVBA OBRYS
100
AcDbVertex
100
AcDb2dVertex
 10
1560.07078378847
 20
381.2050060410791
 30
0.0
 42
0.0272796991712396
  0
VERTEX
  5
4DDD
330
4DD8
100
AcDbEntity
  8
STAVBA OBRYS
100
AcDbVertex
100
AcDb2dVertex
 10
1555.957784635285
 20
383.621341922745
 30
0.0
 42
0.056967459841729
  0
VERTEX
  5
4DDE
330
4DD8
100
AcDbEntity
  8
STAVBA OBRYS
100
AcDbVertex
100
AcDb2dVertex
 10
1553.816837354553
 20
384.4340777579444
 30
0.0
 42
0.0373408083348504
  0
VERTEX
  5
4DDF
330
4DD8
100
AcDbEntity
  8
STAVBA OBRYS
100
AcDbVertex
100
AcDb2dVertex
 10
1553.594482979079
 20
384.473243298892
 30
0.0
 42
0.0052305969362967
  0
VERTEX
  5
4DE0
330
4DD8
100
AcDbEntity
  8
STAVBA OBRYS
100
AcDbVertex
100
AcDb2dVertex
 10
1553.248523205319
 20
384.5042002657963
 30
0.0
  0
SEQEND
  5
4DE1
330
4DD8
100
AcDbEntity
  8
STAVBA OBRYS
  0
LWPOLYLINE
  5
4DE2
330
1F
100
AcDbEntity
  8
STAVBA OBRYS
100
AcDbPolyline
 90
        8
 70
     0
 43
0.0
 10
1575.670618120214
 20
374.5557463682024
 42
0.0217273703039143
 10
1573.472947859704
 20
379.5914367056801
 42
0.0882970623535771
 10
1571.835725939611
 20
381.83180575648
 42
0.0171636441953577
 10
1569.022361877753
 20
384.3457231117253
 42
0.0157521173632038
 10
1565.783507040717
 20
386.8772191642318
 42
0.0073640874174249
 10
1561.149857684396
 20
390.1656205899679
 42
0.0194185739168057
 10
1559.327814364719
 20
391.3171895892491
 42
0.0229547400386702
 10
1556.942356300704
 20
392.5557463682024
  0
LWPOLYLINE
  5
4DE3
330
1F
100
AcDbEntity
  8
STAVBA OBRYS
100
AcDbPolyline
 90
        6
 70
     0
 43
0.0
 10
1585.043422128016
 20
374.5557463682024
 42
0.0121757200102759
 10
1583.673432414355
 20
379.2276637006697
 42
0.0457786284636091
 10
1582.465409524739
 20
382.076274083546
 42
0.0295006114745606
 10
1580.04934907044
 20
386.0031732969481
 42
0.0258674098621065
 10
1576.816673756476
 20
390.148953375702
 42
0.0093759062953949
 10
1574.650861576818
 20
392.5557463682024
  0
LWPOLYLINE
  5
4DE4
330
1F
100
AcDbEntity
  8
STAVBA OBRYS
100
AcDbPolyline
 90
        3
 70
     0
 43
0.0
 10
1562.920090356107
 20
374.5557463682024
 10
1576.712138282747
 20
381.4568179316892
 10
1584.879242931871
 20
389.6381196327828
  0
LWPOLYLINE
  5
4DE5
330
1F
100
AcDbEntity
  8
STAVBA OBRYS
100
AcDbPolyline
 90
        4
 70
     0
 43
0.0
 10
1579.249498288264
 20
374.0549159374539
 10
1599.245750720257
 20
383.2709449879738
 10
1616.023641291475
 20
385.978089250665
 10
1619.28725253918
 20
386.1083906150351
  0
LINE
  5
4DE6
330
1F
100
AcDbEntity
  8
STAVBA OBRYS
100
AcDbLine
 10
1553.09754654671
 20
392.5557463682015
 30
0.0
 11
1553.09754654671
 21
374.5557463682024
 31
0.0
  0
POLYLINE
  5
4DE7
330
1F
100
AcDbEntity
  8
STAVBA OBRYS
100
AcDb2dPolyline
 66
     1
 10
0.0
 20
0.0
 30
0.0
  0
VERTEX
  5
4DE8
330
4DE7
100
AcDbEntity
  8
STAVBA OBRYS
100
AcDbVertex
100
AcDb2dVertex
 10
1558.265420783363
 20
374.5557463682024
 30
0.0
 42
0.0094186890201653
  0
VERTEX
  5
4DE9
330
4DE7
100
AcDbEntity
  8
STAVBA OBRYS
100
AcDbVertex
100
AcDb2dVertex
 10
1557.918622220489
 20
374.7144192389704
 30
0.0
 42
0.0322692699774654
  0
VERTEX
  5
4DEA
330
4DE7
100
AcDbEntity
  8
STAVBA OBRYS
100
AcDbVertex
100
AcDb2dVertex
 10
1555.027268039398
 20
375.7559427403711
 30
0.0
 42
0.0276160659512937
  0
VERTEX
  5
4DEB
330
4DE7
100
AcDbEntity
  8
STAVBA OBRYS
100
AcDbVertex
100
AcDb2dVertex
 10
1554.17169160111
 20
375.9526781693156
 30
0.0
 42
0.0126891984598699
  0
VERTEX
  5
4DEC
330
4DE7
100
AcDbEntity
  8
STAVBA OBRYS
100
AcDbVertex
100
AcDb2dVertex
 10
1553.248523205319
 20
376.0878805588571
 30
0.0
  0
SEQEND
  5
4DED
330
4DE7
100
AcDbEntity
  8
STAVBA OBRYS
  0
LWPOLYLINE
  5
4DEE
330
1F
100
AcDbEntity
  8
nášlap_vrstvy
100
AcDbPolyline
 90
        4
 70
     1
 43
0.0
 10
1685.998126902492
 20
421.8134121810875
 10
1674.177260547573
 20
421.8134121810875
 10
1674.177260547573
 20
420.3134121810875
 10
1685.998126902492
 20
420.3134121810875
  0
HATCH
  5
4DEF
330
1F
100
AcDbEntity
  8
nášlap_vrstvy
100
AcDbHatch
 10
0.0
 20
0.0
 30
0.0
210
0.0
220
0.0
230
1.0
  2
SOLID
 70
     1
 71
     0
 91
        1
 92
        7
 72
     0
 73
     1
 93
        4
 10
1685.998126902492
 20
421.8134121810875
 10
1674.177260547577
 20
421.8134121810875
 10
1674.177260547573
 20
420.3134121810875
 10
1685.998126902492
 20
420.3134121810875
 97
        0
 75
     0
 76
     1
 47
0.1901250437635136
 98
        1
 10
1678.856157926747
 20
421.4050064055475
  0
INSERT
  5
4DF0
330
1F
100
AcDbEntity
  8
POPIS
100
AcDbBlockReference
  2
E_PUNKT
 10
1672.112187227576
 20
407.4050724323
 30
0.0
 50
270.0
  0
LWPOLYLINE
  5
4DF1
330
1F
100
AcDbEntity
  8
nášlap_vrstvy
100
AcDbPolyline
 90
        4
 70
     1
 43
0.0
 10
1662.072818212746
 20
421.8134121810875
 10
1650.251951857831
 20
421.8134121810875
 10
1650.251951857831
 20
420.3134121810875
 10
1662.072818212746
 20
420.3134121810875
  0
HATCH
  5
4DF2
330
1F
100
AcDbEntity
  8
nášlap_vrstvy
100
AcDbHatch
 10
0.0
 20
0.0
 30
0.0
210
0.0
220
0.0
230
1.0
  2
SOLID
 70
     1
 71
     0
 91
        1
 92
        7
 72
     0
 73
     1
 93
        4
 10
1662.07281821275
 20
421.8134121810875
 10
1650.251951857831
 20
421.8134121810875
 10
1650.251951857831
 20
420.3134121810875
 10
1662.07281821275
 20
420.3134121810875
 97
        0
 75
     0
 76
     1
 47
0.1901250437635136
 98
        1
 10
1654.930849237
 20
421.4050064055475
  0
HATCH
  5
4DF3
330
1F
100
AcDbEntity
  8
nášlap_vrstvy
100
AcDbHatch
 10
0.0
 20
0.0
 30
0.0
210
0.0
220
0.0
230
1.0
  2
SOLID
 70
     1
 71
     0
 91
        1
 92
        7
 72
     0
 73
     1
 93
        4
 10
1638.431085502915
 20
421.8134121810875
 10
1626.610219147999
 20
421.8134121810875
 10
1626.610219147996
 20
420.3134121810875
 10
1638.431085502915
 20
420.3134121810875
 97
        0
 75
     0
 76
     1
 47
0.1901250437635136
 98
        1
 10
1631.289116527169
 20
421.4050064055475
  0
LWPOLYLINE
  5
4DF4
330
1F
100
AcDbEntity
  8
nášlap_vrstvy
100
AcDbPolyline
 90
        4
 70
     1
 43
0.0
 10
1638.431085502915
 20
421.8134121810875
 10
1626.610219147996
 20
421.8134121810875
 10
1626.610219147996
 20
420.3134121810875
 10
1638.431085502915
 20
420.3134121810875
  0
INSERT
  5
4DF5
330
1F
100
AcDbEntity
  8
POPIS
100
AcDbBlockReference
  2
E_PUNKT
 10
1555.674517935688
 20
423.1491804589544
 30
0.0
 50
270.0
  0
INSERT
  5
4DF6
330
1F
100
AcDbEntity
  8
POPIS
100
AcDbBlockReference
  2
E_PUNKT
 10
1607.829144446536
 20
421.1357593184742
 30
0.0
 50
270.0
  0
HATCH
  5
4DF7
330
1F
100
AcDbEntity
  8
nášlap_vrstvy
100
AcDbHatch
 10
0.0
 20
0.0
 30
0.0
210
0.0
220
0.0
230
1.0
  2
SOLID
 70
     1
 71
     0
 91
        1
 92
        7
 72
     0
 73
     1
 93
        4
 10
1614.789352793076
 20
421.8134121810875
 10
1602.96848643816
 20
421.8134121810875
 10
1602.96848643816
 20
420.3134121810875
 10
1614.78935279308
 20
420.3134121810875
 97
        0
 75
     0
 76
     1
 47
0.1901250437635136
 98
        3
 10
1628.911097925171
 20
420.9296897163934
 10
1610.7430025115
 20
420.8346263785627
 10
1608.745466416888
 20
421.1198163920547
  0
LWPOLYLINE
  5
4DF8
330
1F
100
AcDbEntity
  8
nášlap_vrstvy
100
AcDbPolyline
 90
        4
 70
     1
 43
0.0
 10
1614.789352793076
 20
421.8134121810875
 10
1602.96848643816
 20
421.8134121810875
 10
1602.96848643816
 20
420.3134121810875
 10
1614.789352793076
 20
420.3134121810875
  0
HATCH
  5
4DF9
330
1F
100
AcDbEntity
  8
nášlap_vrstvy
100
AcDbHatch
 10
0.0
 20
0.0
 30
0.0
210
0.0
220
0.0
230
1.0
  2
SOLID
 70
     1
 71
     0
 91
        1
 92
        7
 72
     0
 73
     1
 93
        4
 10
1572.260938129486
 20
421.8134121810875
 10
1560.440071774571
 20
421.8134121810875
 10
1560.440071774567
 20
420.3134121810875
 10
1572.260938129486
 20
420.3134121810875
 97
        0
 75
     0
 76
     1
 47
0.1901250437635136
 98
        1
 10
1565.118969153741
 20
421.4050064055475
  0
LWPOLYLINE
  5
4DFA
330
1F
100
AcDbEntity
  8
nášlap_vrstvy
100
AcDbPolyline
 90
        4
 70
     1
 43
0.0
 10
1572.260938129486
 20
421.8134121810875
 10
1560.440071774567
 20
421.8134121810875
 10
1560.440071774567
 20
420.3134121810875
 10
1572.260938129486
 20
420.3134121810875
  0
HATCH
  5
4DFB
330
1F
100
AcDbEntity
  8
nášlap_vrstvy
100
AcDbHatch
 10
0.0
 20
0.0
 30
0.0
210
0.0
220
0.0
230
1.0
  2
SOLID
 70
     1
 71
     0
 91
        1
 92
        7
 72
     0
 73
     1
 93
        4
 10
1595.902670839322
 20
421.8134121810875
 10
1584.081804484402
 20
421.8134121810875
 10
1584.081804484402
 20
420.3134121810875
 10
1595.902670839322
 20
420.3134121810875
 97
        0
 75
     0
 76
     1
 47
0.1901250437635136
 98
        1
 10
1588.760701863572
 20
421.4050064055475
  0
LWPOLYLINE
  5
4DFC
330
1F
100
AcDbEntity
  8
nášlap_vrstvy
100
AcDbPolyline
 90
        4
 70
     1
 43
0.0
 10
1595.902670839318
 20
421.8134121810875
 10
1584.081804484402
 20
421.8134121810875
 10
1584.081804484402
 20
420.3134121810875
 10
1595.902670839318
 20
420.3134121810875
  0
LINE
  5
4DFD
330
1F
100
AcDbEntity
  8
SPOJOVACÍ
  6
DASHED
100
AcDbLine
 10
1592.752782281867
 20
396.6922616205448
 30
0.0
 11
1592.752782281867
 21
394.2146081639331
 31
0.0
  0
LINE
  5
4DFE
330
1F
100
AcDbEntity
  8
SPOJOVACÍ
  6
DASHED
100
AcDbLine
 10
1595.398165041348
 20
395.7970976417856
 30
0.0
 11
1595.398165041348
 21
393.3267367632107
 31
0.0
  0
LINE
  5
4DFF
330
1F
100
AcDbEntity
  8
SPOJOVACÍ
  6
DASHED
100
AcDbLine
 10
1591.723617177603
 20
394.056906159407
 30
0.0
 11
1596.427330141334
 21
392.880977918474
 31
0.0
  0
LINE
  5
4E00
330
1F
100
AcDbEntity
  8
SPOJOVACÍ
  6
DASHED
100
AcDbLine
 10
1591.723617177603
 20
394.056906159407
 30
0.0
 11
1592.093715525408
 21
393.8426866736282
 31
0.0
  0
LINE
  5
4E01
330
1F
100
AcDbEntity
  8
SPOJOVACÍ
  6
DASHED
100
AcDbLine
 10
1591.723617177603
 20
394.056906159407
 30
0.0
 11
1592.093715525408
 21
394.4270045050726
 31
0.0
  0
LINE
  5
4E02
330
1F
100
AcDbEntity
  8
SPOJOVACÍ
  6
DASHED
100
AcDbLine
 10
1596.427330141334
 20
392.880977918474
 30
0.0
 11
1596.057231797808
 21
393.0942858318013
 31
0.0
  0
LINE
  5
4E03
330
1F
100
AcDbEntity
  8
SPOJOVACÍ
  6
DASHED
100
AcDbLine
 10
1592.093715525408
 20
394.4270045050726
 30
0.0
 11
1596.057231797808
 21
393.0942858318013
 31
0.0
  0
LINE
  5
4E04
330
1F
100
AcDbEntity
  8
SPOJOVACÍ
  6
DASHED
100
AcDbLine
 10
1549.553552009691
 20
420.3134121810872
 30
0.0
 11
1549.553552009691
 21
419.1374839398905
 31
0.0
  0
LINE
  5
4E05
330
1F
100
AcDbEntity
  8
SPOJOVACÍ
  6
DASHED
100
AcDbLine
 10
1548.852552927247
 20
418.8074947747646
 30
0.0
 11
1549.553552009691
 21
419.1374839398905
 31
0.0
  0
LINE
  5
4E06
330
1F
100
AcDbEntity
  8
CETRIS
100
AcDbLine
 10
1571.151137905079
 20
420.3134121810872
 30
0.0
 11
1571.151137905079
 21
412.3134121810872
 31
0.0
  0
LINE
  5
4E07
330
1F
100
AcDbEntity
  8
CETRIS
100
AcDbLine
 10
1571.151137905079
 20
412.3134121810872
 30
0.0
 11
1561.151137905079
 21
412.3134121810872
 31
0.0
  0
LINE
  5
4E08
330
1F
100
AcDbEntity
  8
CETRIS
100
AcDbLine
 10
1561.151137905079
 20
412.3134121810872
 30
0.0
 11
1561.151137905079
 21
404.3134121810872
 31
0.0
  0
LINE
  5
4E09
330
1F
100
AcDbEntity
  8
CETRIS
100
AcDbLine
 10
1561.151137905079
 20
404.3134121810872
 30
0.0
 11
1571.151137905079
 21
404.3134121810872
 31
0.0
  0
LINE
  5
4E0A
330
1F
100
AcDbEntity
  8
CETRIS
100
AcDbLine
 10
1571.151137905079
 20
404.3134121810872
 30
0.0
 11
1571.151137905079
 21
396.3134121810873
 31
0.0
  0
LINE
  5
4E0B
330
1F
100
AcDbEntity
  8
SPOJOVACÍ
  6
DASHED
100
AcDbLine
 10
1599.07362447033
 20
420.3134121810872
 30
0.0
 11
1599.07362447033
 21
419.1374839398905
 31
0.0
  0
LINE
  5
4E0C
330
1F
100
AcDbEntity
  8
SPOJOVACÍ
  6
DASHED
100
AcDbLine
 10
1598.372625387885
 20
418.8074947747646
 30
0.0
 11
1599.07362447033
 21
419.1374839398905
 31
0.0
  0
LINE
  5
4E0D
330
1F
100
AcDbEntity
  8
SPOJOVACÍ
  6
DASHED
100
AcDbLine
 10
1597.160234255164
 20
417.9077729345318
 30
0.0
 11
1598.372625387885
 21
418.8074947747646
 31
0.0
  0
LINE
  5
4E0E
330
1F
100
AcDbEntity
  8
SPOJOVACÍ
  6
DASHED
100
AcDbLine
 10
1596.221314806579
 20
416.7245521152909
 30
0.0
 11
1597.160234255164
 21
417.9077729345318
 31
0.0
  0
LINE
  5
4E0F
330
1F
100
AcDbEntity
  8
SPOJOVACÍ
  6
DASHED
100
AcDbLine
 10
1595.620588674414
 20
415.3389622497817
 30
0.0
 11
1596.221314806579
 21
416.7245521152909
 31
0.0
  0
LINE
  5
4E10
330
1F
100
AcDbEntity
  8
SPOJOVACÍ
  6
DASHED
100
AcDbLine
 10
1595.398165041348
 20
413.8458068554211
 30
0.0
 11
1595.620588674414
 21
415.3389622497817
 31
0.0
  0
LINE
  5
4E11
330
1F
100
AcDbEntity
  8
SPOJOVACÍ
  6
DASHED
100
AcDbLine
 10
1595.398165041348
 20
413.8458068554228
 30
0.0
 11
1595.398165041348
 21
411.6317556409414
 31
0.0
  0
LINE
  5
4E12
330
1F
100
AcDbEntity
  8
SPOJOVACÍ
  6
DASHED
100
AcDbLine
 10
1592.093715525408
 20
412.7428653907719
 30
0.0
 11
1596.057231797808
 21
411.4101467177716
 31
0.0
  0
LINE
  5
4E13
330
1F
100
AcDbEntity
  8
SPOJOVACÍ
  6
DASHED
100
AcDbLine
 10
1596.427330141334
 20
411.1959272319856
 30
0.0
 11
1596.057231797808
 21
411.4101467177716
 31
0.0
  0
LINE
  5
4E14
330
1F
100
AcDbEntity
  8
SPOJOVACÍ
  6
DASHED
100
AcDbLine
 10
1596.427330141334
 20
411.1959272319856
 30
0.0
 11
1596.057231797808
 21
410.82582888632
 31
0.0
  0
LINE
  5
4E15
330
1F
100
AcDbEntity
  8
SPOJOVACÍ
  6
DASHED
100
AcDbLine
 10
1592.093715525408
 20
412.1585475595912
 30
0.0
 11
1596.057231797808
 21
410.82582888632
 31
0.0
  0
LINE
  5
4E16
330
1F
100
AcDbEntity
  8
SPOJOVACÍ
  6
DASHED
100
AcDbLine
 10
1595.398165041348
 20
411.052810384068
 30
0.0
 11
1595.398165041348
 21
408.5842726501397
 31
0.0
  0
LINE
  5
4E17
330
1F
100
AcDbEntity
  8
SPOJOVACÍ
  6
DASHED
100
AcDbLine
 10
1592.093715525408
 20
409.7002175873204
 30
0.0
 11
1596.057231797808
 21
408.3674989143202
 31
0.0
  0
LINE
  5
4E18
330
1F
100
AcDbEntity
  8
SPOJOVACÍ
  6
DASHED
100
AcDbLine
 10
1596.427330141334
 20
408.1532794285341
 30
0.0
 11
1596.057231797808
 21
408.3674989143202
 31
0.0
  0
LINE
  5
4E19
330
1F
100
AcDbEntity
  8
SPOJOVACÍ
  6
DASHED
100
AcDbLine
 10
1596.427330141334
 20
408.1532794285341
 30
0.0
 11
1596.057231797808
 21
407.7831810828684
 31
0.0
  0
LINE
  5
4E1A
330
1F
100
AcDbEntity
  8
SPOJOVACÍ
  6
DASHED
100
AcDbLine
 10
1592.093715525408
 20
409.1158997561398
 30
0.0
 11
1596.057231797808
 21
407.7831810828684
 31
0.0
  0
LINE
  5
4E1B
330
1F
100
AcDbEntity
  8
SPOJOVACÍ
  6
DASHED
100
AcDbLine
 10
1595.398165041348
 20
408.0101625806165
 30
0.0
 11
1595.398165041348
 21
405.5416248466882
 31
0.0
  0
LINE
  5
4E1C
330
1F
100
AcDbEntity
  8
SPOJOVACÍ
  6
DASHED
100
AcDbLine
 10
1592.093715525408
 20
406.6418925885501
 30
0.0
 11
1596.057231797808
 21
405.3100854874665
 31
0.0
  0
LINE
  5
4E1D
330
1F
100
AcDbEntity
  8
SPOJOVACÍ
  6
DASHED
100
AcDbLine
 10
1596.427330141334
 20
405.0958660016805
 30
0.0
 11
1596.057231797808
 21
405.3100854874665
 31
0.0
  0
LINE
  5
4E1E
330
1F
100
AcDbEntity
  8
SPOJOVACÍ
  6
DASHED
100
AcDbLine
 10
1596.427330141334
 20
405.0958660016805
 30
0.0
 11
1596.057231797808
 21
404.7257676562859
 31
0.0
  0
LINE
  5
4E1F
330
1F
100
AcDbEntity
  8
SPOJOVACÍ
  6
DASHED
100
AcDbLine
 10
1592.093715525408
 20
406.0575747570984
 30
0.0
 11
1596.057231797808
 21
404.7257676562859
 31
0.0
  0
LINE
  5
4E20
330
1F
100
AcDbEntity
  8
SPOJOVACÍ
  6
DASHED
100
AcDbLine
 10
1595.398165041348
 20
404.9573070152365
 30
0.0
 11
1595.398165041348
 21
402.4796535586248
 31
0.0
  0
LINE
  5
4E21
330
1F
100
AcDbEntity
  8
SPOJOVACÍ
  6
DASHED
100
AcDbLine
 10
1592.093715525408
 20
403.6001563572864
 30
0.0
 11
1596.057231797808
 21
402.2674376842862
 31
0.0
  0
LINE
  5
4E22
330
1F
100
AcDbEntity
  8
SPOJOVACÍ
  6
DASHED
100
AcDbLine
 10
1596.427330141334
 20
402.0532181985
 30
0.0
 11
1596.057231797808
 21
402.2674376842862
 31
0.0
  0
LINE
  5
4E23
330
1F
100
AcDbEntity
  8
SPOJOVACÍ
  6
DASHED
100
AcDbLine
 10
1596.427330141334
 20
402.0532181985
 30
0.0
 11
1596.057231797808
 21
401.6831198528344
 31
0.0
  0
LINE
  5
4E24
330
1F
100
AcDbEntity
  8
SPOJOVACÍ
  6
DASHED
100
AcDbLine
 10
1592.093715525408
 20
403.0158385261057
 30
0.0
 11
1596.057231797808
 21
401.6831198528344
 31
0.0
  0
LINE
  5
4E25
330
1F
100
AcDbEntity
  8
SPOJOVACÍ
  6
DASHED
100
AcDbLine
 10
1595.398165041348
 20
401.9101013505824
 30
0.0
 11
1595.398165041348
 21
399.4415636166542
 31
0.0
  0
LINE
  5
4E26
330
1F
100
AcDbEntity
  8
SPOJOVACÍ
  6
DASHED
100
AcDbLine
 10
1592.093715525408
 20
400.5418313585161
 30
0.0
 11
1596.057231797808
 21
399.2100242574325
 31
0.0
  0
LINE
  5
4E27
330
1F
100
AcDbEntity
  8
SPOJOVACÍ
  6
DASHED
100
AcDbLine
 10
1596.427330141334
 20
398.9958047716464
 30
0.0
 11
1596.057231797808
 21
399.2100242574325
 31
0.0
  0
LINE
  5
4E28
330
1F
100
AcDbEntity
  8
SPOJOVACÍ
  6
DASHED
100
AcDbLine
 10
1596.427330141334
 20
398.9958047716464
 30
0.0
 11
1596.057231797808
 21
398.6257064262519
 31
0.0
  0
LINE
  5
4E29
330
1F
100
AcDbEntity
  8
SPOJOVACÍ
  6
DASHED
100
AcDbLine
 10
1592.093715525408
 20
399.9575135270644
 30
0.0
 11
1596.057231797808
 21
398.6257064262519
 31
0.0
  0
LINE
  5
4E2A
330
1F
100
AcDbEntity
  8
SPOJOVACÍ
  6
DASHED
100
AcDbLine
 10
1595.398165041348
 20
398.8572457852025
 30
0.0
 11
1595.398165041348
 21
396.3795923285907
 31
0.0
  0
LINE
  5
4E2B
330
1F
100
AcDbEntity
  8
SPOJOVACÍ
  6
DASHED
100
AcDbLine
 10
1592.093715525408
 20
397.4844179316625
 30
0.0
 11
1596.057231797808
 21
396.1516992586549
 31
0.0
  0
LINE
  5
4E2C
330
1F
100
AcDbEntity
  8
SPOJOVACÍ
  6
DASHED
100
AcDbLine
 10
1591.723617177603
 20
409.329207669467
 30
0.0
 11
1592.093715525408
 21
409.1158997561398
 31
0.0
  0
LINE
  5
4E2D
330
1F
100
AcDbEntity
  8
SPOJOVACÍ
  6
DASHED
100
AcDbLine
 10
1591.723617177603
 20
409.329207669467
 30
0.0
 11
1592.093715525408
 21
409.7002175873204
 31
0.0
  0
LINE
  5
4E2E
330
1F
100
AcDbEntity
  8
SPOJOVACÍ
  6
DASHED
100
AcDbLine
 10
1592.752782281867
 20
411.9479743628272
 30
0.0
 11
1592.752782281867
 21
409.4794366288989
 31
0.0
  0
LINE
  5
4E2F
330
1F
100
AcDbEntity
  8
SPOJOVACÍ
  6
DASHED
100
AcDbLine
 10
1591.723617177603
 20
412.3718554729185
 30
0.0
 11
1592.093715525408
 21
412.1585475595912
 31
0.0
  0
LINE
  5
4E30
330
1F
100
AcDbEntity
  8
SPOJOVACÍ
  6
DASHED
100
AcDbLine
 10
1591.723617177603
 20
412.3718554729185
 30
0.0
 11
1592.093715525408
 21
412.7428653907719
 31
0.0
  0
LINE
  5
4E31
330
1F
100
AcDbEntity
  8
SPOJOVACÍ
  6
DASHED
100
AcDbLine
 10
1592.720421465726
 20
414.231401929751
 30
0.0
 11
1592.752782281867
 21
412.521256467604
 31
0.0
  0
LINE
  5
4E32
330
1F
100
AcDbEntity
  8
SPOJOVACÍ
  6
DASHED
100
AcDbLine
 10
1592.688060649584
 20
414.616997004081
 30
0.0
 11
1592.752782281867
 21
413.8458068554211
 31
0.0
  0
LINE
  5
4E33
330
1F
100
AcDbEntity
  8
SPOJOVACÍ
  6
DASHED
100
AcDbLine
 10
1592.26873740257
 20
416.0682200737902
 30
0.0
 11
1592.688060649584
 21
414.616997004081
 31
0.0
  0
LINE
  5
4E34
330
1F
100
AcDbEntity
  8
SPOJOVACÍ
  6
DASHED
100
AcDbLine
 10
1591.488431532839
 20
417.3608295665218
 30
0.0
 11
1592.26873740257
 21
416.0682200737902
 31
0.0
  0
LINE
  5
4E35
330
1F
100
AcDbEntity
  8
SPOJOVACÍ
  6
DASHED
100
AcDbLine
 10
1590.400014230487
 20
418.4082261161457
 30
0.0
 11
1591.488431532839
 21
417.3608295665218
 31
0.0
  0
LINE
  5
4E36
330
1F
100
AcDbEntity
  8
SPOJOVACÍ
  6
DASHED
100
AcDbLine
 10
1589.077322848607
 20
419.1374839398905
 30
0.0
 11
1590.400014230487
 21
418.4082261161457
 31
0.0
  0
LINE
  5
4E37
330
1F
100
AcDbEntity
  8
SPOJOVACÍ
  6
DASHED
100
AcDbLine
 10
1589.077322848607
 20
420.3134121810872
 30
0.0
 11
1589.077322848607
 21
419.1374839398905
 31
0.0
  0
LINE
  5
4E38
330
1F
100
AcDbEntity
  8
SPOJOVACÍ
  6
DASHED
100
AcDbLine
 10
1592.093715525408
 20
396.9001001002108
 30
0.0
 11
1596.057231797808
 21
395.5673814272105
 31
0.0
  0
LINE
  5
4E39
330
1F
100
AcDbEntity
  8
SPOJOVACÍ
  6
DASHED
100
AcDbLine
 10
1591.723617177603
 20
397.1143195859969
 30
0.0
 11
1592.093715525408
 21
396.9001001002108
 31
0.0
  0
LINE
  5
4E3A
330
1F
100
AcDbEntity
  8
SPOJOVACÍ
  6
DASHED
100
AcDbLine
 10
1591.723617177603
 20
397.1143195859969
 30
0.0
 11
1592.093715525408
 21
397.4844179316625
 31
0.0
  0
LINE
  5
4E3B
330
1F
100
AcDbEntity
  8
SPOJOVACÍ
  6
DASHED
100
AcDbLine
 10
1592.752782281867
 20
399.7451171859248
 30
0.0
 11
1592.752782281867
 21
397.27475630735
 31
0.0
  0
LINE
  5
4E3C
330
1F
100
AcDbEntity
  8
SPOJOVACÍ
  6
DASHED
100
AcDbLine
 10
1591.723617177603
 20
400.1717330128505
 30
0.0
 11
1592.093715525408
 21
399.9575135270644
 31
0.0
  0
LINE
  5
4E3D
330
1F
100
AcDbEntity
  8
SPOJOVACÍ
  6
DASHED
100
AcDbLine
 10
1591.723617177603
 20
400.1717330128505
 30
0.0
 11
1592.093715525408
 21
400.5418313585161
 31
0.0
  0
LINE
  5
4E3E
330
1F
100
AcDbEntity
  8
SPOJOVACÍ
  6
DASHED
100
AcDbLine
 10
1592.752782281867
 20
402.8052653293417
 30
0.0
 11
1592.752782281867
 21
400.3367275954134
 31
0.0
  0
LINE
  5
4E3F
330
1F
100
AcDbEntity
  8
SPOJOVACÍ
  6
DASHED
100
AcDbLine
 10
1591.723617177603
 20
403.229146439433
 30
0.0
 11
1592.093715525408
 21
403.0158385261057
 31
0.0
  0
LINE
  5
4E40
330
1F
100
AcDbEntity
  8
SPOJOVACÍ
  6
DASHED
100
AcDbLine
 10
1591.723617177603
 20
403.229146439433
 30
0.0
 11
1592.093715525408
 21
403.6001563572864
 31
0.0
  0
LINE
  5
4E41
330
1F
100
AcDbEntity
  8
SPOJOVACÍ
  6
DASHED
100
AcDbLine
 10
1592.752782281867
 20
405.8451784159589
 30
0.0
 11
1592.752782281867
 21
403.374817537384
 31
0.0
  0
LINE
  5
4E42
330
1F
100
AcDbEntity
  8
SPOJOVACÍ
  6
DASHED
100
AcDbLine
 10
1591.723617177603
 20
406.2717942428845
 30
0.0
 11
1592.093715525408
 21
406.0575747570984
 31
0.0
  0
LINE
  5
4E43
330
1F
100
AcDbEntity
  8
SPOJOVACÍ
  6
DASHED
100
AcDbLine
 10
1591.723617177603
 20
406.2717942428845
 30
0.0
 11
1592.093715525408
 21
406.6418925885501
 31
0.0
  0
LINE
  5
4E44
330
1F
100
AcDbEntity
  8
SPOJOVACÍ
  6
DASHED
100
AcDbLine
 10
1592.752782281867
 20
408.9053265593758
 30
0.0
 11
1592.752782281867
 21
406.4367888254475
 31
0.0
  0
LINE
  5
4E45
330
1F
100
AcDbEntity
  8
SPOJOVACÍ
  6
DASHED
100
AcDbLine
 10
1589.077322848607
 20
420.3134121810872
 30
0.0
 11
1599.07362447033
 21
420.3134121810872
 31
0.0
  0
LINE
  5
4E46
330
1F
100
AcDbEntity
  8
SPOJOVACÍ
  6
DASHED
100
AcDbLine
 10
1589.077322848607
 20
419.1374839398905
 30
0.0
 11
1599.07362447033
 21
419.1374839398905
 31
0.0
  0
LINE
  5
4E47
330
1F
100
AcDbEntity
  8
SPOJOVACÍ
  6
DASHED
100
AcDbLine
 10
1591.723617177603
 20
400.1717330128505
 30
0.0
 11
1596.427330141334
 21
398.9958047716464
 31
0.0
  0
LINE
  5
4E48
330
1F
100
AcDbEntity
  8
SPOJOVACÍ
  6
DASHED
100
AcDbLine
 10
1591.723617177603
 20
397.1143195859969
 30
0.0
 11
1596.427330141334
 21
395.9383913450638
 31
0.0
  0
LINE
  5
4E49
330
1F
100
AcDbEntity
  8
SPOJOVACÍ
  6
DASHED
100
AcDbLine
 10
1591.723617177603
 20
403.229146439433
 30
0.0
 11
1596.427330141334
 21
402.0532181985
 31
0.0
  0
LINE
  5
4E4A
330
1F
100
AcDbEntity
  8
SPOJOVACÍ
  6
DASHED
100
AcDbLine
 10
1596.427330141334
 20
395.9383913450638
 30
0.0
 11
1596.057231797808
 21
395.5673814272105
 31
0.0
  0
LINE
  5
4E4B
330
1F
100
AcDbEntity
  8
SPOJOVACÍ
  6
DASHED
100
AcDbLine
 10
1596.427330141334
 20
395.9383913450638
 30
0.0
 11
1596.057231797808
 21
396.1516992586549
 31
0.0
  0
LINE
  5
4E4C
330
1F
100
AcDbEntity
  8
SPOJOVACÍ
  6
DASHED
100
AcDbLine
 10
1591.723617177603
 20
406.2717942428845
 30
0.0
 11
1596.427330141334
 21
405.0958660016805
 31
0.0
  0
LINE
  5
4E4D
330
1F
100
AcDbEntity
  8
SPOJOVACÍ
  6
DASHED
100
AcDbLine
 10
1591.723617177603
 20
409.329207669467
 30
0.0
 11
1596.427330141334
 21
408.1532794285341
 31
0.0
  0
LINE
  5
4E4E
330
1F
100
AcDbEntity
  8
SPOJOVACÍ
  6
DASHED
100
AcDbLine
 10
1591.723617177603
 20
412.3718554729185
 30
0.0
 11
1596.427330141334
 21
411.1959272319856
 31
0.0
  0
LINE
  5
4E4F
330
1F
100
AcDbEntity
  8
SPOJOVACÍ
  6
DASHED
100
AcDbLine
 10
1593.337100115722
 20
384.6731811104292
 30
0.0
 11
1593.621510663973
 21
382.3988082722809
 31
0.0
  0
LINE
  5
4E50
330
1F
100
AcDbEntity
  8
SPOJOVACÍ
  6
DASHED
100
AcDbLine
 10
1594.492973767454
 20
382.1007241366643
 30
0.0
 11
1594.755506583199
 21
384.2028098139491
 31
0.0
  0
LINE
  5
4E51
330
1F
100
AcDbEntity
  8
SPOJOVACÍ
  6
DASHED
100
AcDbLine
 10
1594.075473659469
 20
378.7634580200957
 30
0.0
 11
1594.422782700975
 21
381.5428419013388
 31
0.0
  0
LINE
  5
4E52
330
1F
100
AcDbEntity
  8
SPOJOVACÍ
  6
DASHED
100
AcDbLine
 10
1593.697171164648
 20
381.7907895615445
 30
0.0
 11
1594.075473659469
 21
378.7634580200957
 31
0.0
  0
LINE
  5
4E53
330
1F
100
AcDbEntity
  8
SPOJOVACÍ
  6
DASHED
100
AcDbLine
 10
1593.079125160381
 20
382.0752001127331
 30
0.0
 11
1593.449223503907
 21
381.8609806269543
 31
0.0
  0
LINE
  5
4E54
330
1F
100
AcDbEntity
  8
SPOJOVACÍ
  6
DASHED
100
AcDbLine
 10
1593.079125160381
 20
382.0752001127331
 30
0.0
 11
1593.449223503907
 21
382.4452984583987
 31
0.0
  0
LINE
  5
4E55
330
1F
100
AcDbEntity
  8
SPOJOVACÍ
  6
DASHED
100
AcDbLine
 10
1595.190326559009
 20
381.7707349712747
 30
0.0
 11
1594.820228215482
 21
381.3997250534213
 31
0.0
  0
LINE
  5
4E56
330
1F
100
AcDbEntity
  8
SPOJOVACÍ
  6
DASHED
100
AcDbLine
 10
1595.190326559009
 20
381.7707349712747
 30
0.0
 11
1594.820228215482
 21
381.9840428848657
 31
0.0
  0
LINE
  5
4E57
330
1F
100
AcDbEntity
  8
SPOJOVACÍ
  6
DASHED
100
AcDbLine
 10
1593.449223503907
 20
381.8609806269543
 30
0.0
 11
1594.820228215482
 21
381.3997250534213
 31
0.0
  0
LINE
  5
4E58
330
1F
100
AcDbEntity
  8
SPOJOVACÍ
  6
DASHED
100
AcDbLine
 10
1593.449223503907
 20
382.4452984583987
 30
0.0
 11
1594.820228215482
 21
381.9840428848657
 31
0.0
  0
LINE
  5
4E59
330
1F
100
AcDbEntity
  8
SPOJOVACÍ
  6
DASHED
100
AcDbLine
 10
1593.079125160381
 20
382.0752001127331
 30
0.0
 11
1595.190326559009
 21
381.7707349712747
 31
0.0
  0
LINE
  5
4E5A
330
1F
100
AcDbEntity
  8
SPOJOVACÍ
  6
DASHED
100
AcDbLine
 10
1592.752782281867
 20
390.5701421888008
 30
0.0
 11
1592.752782281867
 21
389.34772376175
 31
0.0
  0
LINE
  5
4E5B
330
1F
100
AcDbEntity
  8
SPOJOVACÍ
  6
DASHED
100
AcDbLine
 10
1595.398165041348
 20
389.6777129268759
 30
0.0
 11
1595.398165041348
 21
389.34772376175
 31
0.0
  0
LINE
  5
4E5C
330
1F
100
AcDbEntity
  8
SPOJOVACÍ
  6
DASHED
100
AcDbLine
 10
1592.752782281867
 20
389.34772376175
 30
0.0
 11
1592.899545418536
 21
388.1745302373802
 31
0.0
  0
LINE
  5
4E5D
330
1F
100
AcDbEntity
  8
SPOJOVACÍ
  6
DASHED
100
AcDbLine
 10
1592.975205919211
 20
387.5665115266439
 30
0.0
 11
1593.25961647174
 21
385.2912271163005
 31
0.0
  0
LINE
  5
4E5E
330
1F
100
AcDbEntity
  8
SPOJOVACÍ
  6
DASHED
100
AcDbLine
 10
1594.8256976454
 20
384.7634267661088
 30
0.0
 11
1595.087318891631
 21
386.8573082929052
 31
0.0
  0
LINE
  5
4E5F
330
1F
100
AcDbEntity
  8
SPOJOVACÍ
  6
DASHED
100
AcDbLine
 10
1595.15750995811
 20
387.4161021006895
 30
0.0
 11
1595.398165041348
 21
389.34772376175
 31
0.0
  0
LINE
  5
4E60
330
1F
100
AcDbEntity
  8
SPOJOVACÍ
  6
DASHED
100
AcDbLine
 10
1591.972476412135
 20
387.9831000586983
 30
0.0
 11
1592.343486329454
 21
387.7688805729123
 31
0.0
  0
LINE
  5
4E61
330
1F
100
AcDbEntity
  8
SPOJOVACÍ
  6
DASHED
100
AcDbLine
 10
1591.972476412135
 20
387.9831000586983
 30
0.0
 11
1592.343486329454
 21
388.3531984043639
 31
0.0
  0
LINE
  5
4E62
330
1F
100
AcDbEntity
  8
SPOJOVACÍ
  6
DASHED
100
AcDbLine
 10
1596.015299471823
 20
387.0295954540398
 30
0.0
 11
1595.645201128297
 21
386.6585855359154
 31
0.0
  0
LINE
  5
4E63
330
1F
100
AcDbEntity
  8
SPOJOVACÍ
  6
DASHED
100
AcDbLine
 10
1596.015299471823
 20
387.0295954540398
 30
0.0
 11
1595.645201128297
 21
387.2429033673671
 31
0.0
  0
LINE
  5
4E64
330
1F
100
AcDbEntity
  8
SPOJOVACÍ
  6
DASHED
100
AcDbLine
 10
1592.343486329454
 20
387.7688805729123
 30
0.0
 11
1595.645201128297
 21
386.6585855359154
 31
0.0
  0
LINE
  5
4E65
330
1F
100
AcDbEntity
  8
SPOJOVACÍ
  6
DASHED
100
AcDbLine
 10
1592.343486329454
 20
388.3531984043639
 30
0.0
 11
1595.645201128297
 21
387.2429033673671
 31
0.0
  0
LINE
  5
4E66
330
1F
100
AcDbEntity
  8
SPOJOVACÍ
  6
DASHED
100
AcDbLine
 10
1591.972476412135
 20
387.9831000586983
 30
0.0
 11
1596.015299471823
 21
387.0295954540398
 31
0.0
  0
LINE
  5
4E67
330
1F
100
AcDbEntity
  8
SPOJOVACÍ
  6
DASHED
100
AcDbLine
 10
1592.525800784119
 20
385.0286942994863
 30
0.0
 11
1592.895899131924
 21
384.815386386159
 31
0.0
  0
LINE
  5
4E68
330
1F
100
AcDbEntity
  8
SPOJOVACÍ
  6
DASHED
100
AcDbLine
 10
1592.525800784119
 20
385.0286942994863
 30
0.0
 11
1592.895899131924
 21
385.3997042176107
 31
0.0
  0
LINE
  5
4E69
330
1F
100
AcDbEntity
  8
SPOJOVACÍ
  6
DASHED
100
AcDbLine
 10
1595.579567922221
 20
384.4079135770517
 30
0.0
 11
1595.209469578695
 21
384.0369036591983
 31
0.0
  0
LINE
  5
4E6A
330
1F
100
AcDbEntity
  8
SPOJOVACÍ
  6
DASHED
100
AcDbLine
 10
1595.579567922221
 20
384.4079135770517
 30
0.0
 11
1595.209469578695
 21
384.621221490379
 31
0.0
  0
LINE
  5
4E6B
330
1F
100
AcDbEntity
  8
SPOJOVACÍ
  6
DASHED
100
AcDbLine
 10
1592.895899131924
 20
384.815386386159
 30
0.0
 11
1595.209469578695
 21
384.0369036591983
 31
0.0
  0
LINE
  5
4E6C
330
1F
100
AcDbEntity
  8
SPOJOVACÍ
  6
DASHED
100
AcDbLine
 10
1592.895899131924
 20
385.3997042176107
 30
0.0
 11
1595.209469578695
 21
384.621221490379
 31
0.0
  0
LINE
  5
4E6D
330
1F
100
AcDbEntity
  8
SPOJOVACÍ
  6
DASHED
100
AcDbLine
 10
1592.525800784119
 20
385.0286942994863
 30
0.0
 11
1595.579567922221
 21
384.4079135770517
 31
0.0
  0
LINE
  5
4E6E
330
1F
100
AcDbEntity
  8
SPOJOVACÍ
  6
DASHED
100
AcDbLine
 10
1591.723617177603
 20
390.9985811603656
 30
0.0
 11
1596.427330141334
 21
389.8226529194327
 31
0.0
  0
LINE
  5
4E6F
330
1F
100
AcDbEntity
  8
SPOJOVACÍ
  6
DASHED
100
AcDbLine
 10
1591.723617177603
 20
390.9985811603656
 30
0.0
 11
1592.093715525408
 21
390.7852732470384
 31
0.0
  0
LINE
  5
4E70
330
1F
100
AcDbEntity
  8
SPOJOVACÍ
  6
DASHED
100
AcDbLine
 10
1591.723617177603
 20
390.9985811603656
 30
0.0
 11
1592.093715525408
 21
391.36959107849
 31
0.0
  0
LINE
  5
4E71
330
1F
100
AcDbEntity
  8
SPOJOVACÍ
  6
DASHED
100
AcDbLine
 10
1596.427330141334
 20
389.8226529194327
 30
0.0
 11
1596.057231797808
 21
389.452554573767
 31
0.0
  0
LINE
  5
4E72
330
1F
100
AcDbEntity
  8
SPOJOVACÍ
  6
DASHED
100
AcDbLine
 10
1596.427330141334
 20
389.8226529194327
 30
0.0
 11
1596.057231797808
 21
390.0368724052187
 31
0.0
  0
LINE
  5
4E73
330
1F
100
AcDbEntity
  8
SPOJOVACÍ
  6
DASHED
100
AcDbLine
 10
1592.093715525408
 20
390.7852732470384
 30
0.0
 11
1596.057231797808
 21
389.452554573767
 31
0.0
  0
LINE
  5
4E74
330
1F
100
AcDbEntity
  8
SPOJOVACÍ
  6
DASHED
100
AcDbLine
 10
1592.093715525408
 20
391.36959107849
 30
0.0
 11
1596.057231797808
 21
390.0368724052187
 31
0.0
  0
LINE
  5
4E75
330
1F
100
AcDbEntity
  8
SPOJOVACÍ
  6
DASHED
100
AcDbLine
 10
1592.752782281867
 20
393.622086181993
 30
0.0
 11
1592.752782281867
 21
391.1544600202525
 31
0.0
  0
LINE
  5
4E76
330
1F
100
AcDbEntity
  8
SPOJOVACÍ
  6
DASHED
100
AcDbLine
 10
1595.398165041348
 20
392.7378610705565
 30
0.0
 11
1595.398165041348
 21
390.2693233366282
 31
0.0
  0
LINE
  5
4E77
330
1F
100
AcDbEntity
  8
SPOJOVACÍ
  6
DASHED
100
AcDbLine
 10
1596.427330141334
 20
392.880977918474
 30
0.0
 11
1596.057231797808
 21
392.5099680006206
 31
0.0
  0
LINE
  5
4E78
330
1F
100
AcDbEntity
  8
SPOJOVACÍ
  6
DASHED
100
AcDbLine
 10
1592.093715525408
 20
393.8426866736282
 30
0.0
 11
1596.057231797808
 21
392.5099680006206
 31
0.0
  0
LWPOLYLINE
  5
4E79
330
1F
100
AcDbEntity
  8
STAVBA OBRYS
100
AcDbPolyline
 90
        6
 70
     0
 43
0.0
 10
1821.151670965403
 20
374.5557463682024
 42
-0.0121757200102759
 10
1822.521660679064
 20
379.2276637006697
 42
-0.0457786284636091
 10
1823.72968356868
 20
382.076274083546
 42
-0.0295006114745606
 10
1826.145744022979
 20
386.0031732969481
 42
-0.0258674098621065
 10
1829.378419336944
 20
390.148953375702
 42
-0.0093759062953949
 10
1831.5442315166
 20
392.5557463682024
  0
LWPOLYLINE
  5
4E7A
330
1F
100
AcDbEntity
  8
STAVBA OBRYS
100
AcDbPolyline
 90
        3
 70
     0
 43
0.0
 10
1843.275002737312
 20
374.5557463682024
 10
1829.482954810672
 20
381.4568179316892
 10
1821.315850161548
 20
389.6381196327828
  0
LWPOLYLINE
  5
4E7B
330
1F
100
AcDbEntity
  8
STAVBA OBRYS
100
AcDbPolyline
 90
        4
 70
     0
 43
0.0
 10
1812.34120961656
 20
374.5557463682024
 42
-0.0186324019486548
 10
1815.709578988667
 20
386.2508579864269
 42
-0.0582629403736403
 10
1817.369078856748
 20
389.8306921853626
 42
-0.0146402521923566
 10
1819.153486838332
 20
392.5557463682024
  0
HATCH
  5
4E7C
330
1F
100
AcDbEntity
  8
izolace
100
AcDbHatch
 10
0.0
 20
0.0
 30
0.0
210
0.0
220
0.0
230
1.0
  2
SOLID
 70
     1
 71
     0
 91
        1
 92
        7
 72
     0
 73
     1
 93
        4
 10
1774.573933453245
 20
395.555746368202
 10
1750.93220074341
 20
395.555746368202
 10
1750.932200743406
 20
392.5557463682019
 10
1774.573933453245
 20
392.5557463682019
 97
        0
 75
     0
 76
     1
 47
0.1901250437635136
 98
        1
 10
1760.28999550175
 20
394.7389348171221
  0
LWPOLYLINE
  5
4E7D
330
1F
100
AcDbEntity
  8
STAVBA OBRYS
100
AcDbPolyline
 90
        3
 70
     0
 43
0.0
 10
1780.738929504902
 20
374.5557463682024
 42
-0.0052038508054843
 10
1783.937326444885
 20
390.9595728501998
 42
-0.0065712046643719
 10
1784.287752214649
 20
392.5557463682024
  0
LWPOLYLINE
  5
4E7E
330
1F
100
AcDbEntity
  8
STAVBA OBRYS
100
AcDbPolyline
 90
        4
 70
     0
 43
0.0
 10
1792.19146736787
 20
374.5557463682024
 42
-0.0334776267545482
 10
1792.628745162576
 20
378.6027212969392
 42
-0.0091133963862869
 10
1795.106349487495
 20
391.2944510823989
 42
-0.007828075361276
 10
1795.397248622653
 20
392.5557463682024
  0
LWPOLYLINE
  5
4E7F
330
1F
100
AcDbEntity
  8
STAVBA OBRYS
100
AcDbPolyline
 90
        5
 70
     0
 43
0.0
 10
1802.435605742664
 20
374.5557463682024
 42
-0.0133579731639958
 10
1802.822416231692
 20
377.0735486557577
 42
-0.0072443097182286
 10
1804.94241317915
 20
387.8844395506647
 42
-0.0219777111230329
 10
1805.848525681133
 20
391.4025528065002
 42
-0.0092752982622242
 10
1806.223752643081
 20
392.5557463682024
  0
LWPOLYLINE
  5
4E80
330
1F
100
AcDbEntity
  8
STAVBA OBRYS
100
AcDbPolyline
 90
        5
 70
     0
 43
0.0
 10
1760.333721983204
 20
374.5557463682024
 42
-0.0133579731639958
 10
1760.720532472231
 20
377.0735486557577
 42
-0.0072443097182286
 10
1762.84052941969
 20
387.8844395506647
 42
-0.0219777111230329
 10
1763.746641921673
 20
391.4025528065002
 42
-0.0092752982622242
 10
1764.12186888362
 20
392.5557463682024
  0
LWPOLYLINE
  5
4E81
330
1F
100
AcDbEntity
  8
STAVBA OBRYS
100
AcDbPolyline
 90
        4
 70
     0
 43
0.0
 10
1770.2393258571
 20
374.5557463682024
 42
-0.0186324019486548
 10
1773.607695229206
 20
386.2508579864269
 42
-0.0582629403736403
 10
1775.267195097288
 20
389.8306921853626
 42
-0.0146402521923566
 10
1777.051603078872
 20
392.5557463682024
  0
LWPOLYLINE
  5
4E82
330
1F
100
AcDbEntity
  8
izolace
100
AcDbPolyline
 90
        4
 70
     1
 43
0.0
 10
1821.857398872912
 20
395.555746368202
 10
1798.215666163077
 20
395.555746368202
 10
1798.215666163077
 20
392.5557463682019
 10
1821.857398872912
 20
392.5557463682019
  0
HATCH
  5
4E83
330
1F
100
AcDbEntity
  8
izolace
100
AcDbHatch
 10
0.0
 20
0.0
 30
0.0
210
0.0
220
0.0
230
1.0
  2
SOLID
 70
     1
 71
     0
 91
        1
 92
        7
 72
     0
 73
     1
 93
        4
 10
1821.857398872915
 20
395.555746368202
 10
1798.21566616308
 20
395.555746368202
 10
1798.215666163077
 20
392.5557463682019
 10
1821.857398872915
 20
392.5557463682019
 97
        0
 75
     0
 76
     1
 47
0.1901250437635136
 98
        1
 10
1807.57346092142
 20
394.7389348171221
  0
LWPOLYLINE
  5
4E84
330
1F
100
AcDbEntity
  8
STAVBA OBRYS
100
AcDbPolyline
 90
        4
 70
     0
 43
0.0
 10
1826.945594805155
 20
374.0549159374539
 10
1806.949342373163
 20
383.2709449879738
 10
1790.171451801944
 20
385.978089250665
 10
1786.907840554239
 20
386.1083906150351
  0
LWPOLYLINE
  5
4E85
330
1F
100
AcDbEntity
  8
STAVBA OBRYS
100
AcDbPolyline
 90
        5
 70
     0
 43
0.0
 10
1730.186713126729
 20
374.5557463682024
 42
-0.0133579731639958
 10
1730.573523615757
 20
377.0735486557577
 42
-0.0072443097182286
 10
1732.693520563215
 20
387.8844395506647
 42
-0.0219777111230329
 10
1733.599633065198
 20
391.4025528065002
 42
-0.0092752982622242
 10
1733.974860027146
 20
392.5557463682024
  0
LWPOLYLINE
  5
4E86
330
1F
100
AcDbEntity
  8
STAVBA OBRYS
100
AcDbPolyline
 90
        4
 70
     0
 43
0.0
 10
1719.942574751935
 20
374.5557463682024
 42
-0.0334776267545482
 10
1720.379852546641
 20
378.6027212969392
 42
-0.0091133963862869
 10
1722.85745687156
 20
391.2944510823989
 42
-0.007828075361276
 10
1723.148356006718
 20
392.5557463682024
  0
LWPOLYLINE
  5
4E87
330
1F
100
AcDbEntity
  8
STAVBA OBRYS
100
AcDbPolyline
 90
        3
 70
     0
 43
0.0
 10
1738.637045745442
 20
374.5557463682024
 42
-0.0052038508054843
 10
1741.835442685424
 20
390.9595728501998
 42
-0.0065712046643719
 10
1742.185868455188
 20
392.5557463682024
  0
LWPOLYLINE
  5
4E88
330
1F
100
AcDbEntity
  8
STAVBA OBRYS
100
AcDbPolyline
 90
        4
 70
     0
 43
0.0
 10
1754.69670218922
 20
374.0549159374539
 10
1734.700449757228
 20
383.2709449879738
 10
1717.922559186009
 20
385.978089250665
 10
1714.658947938304
 20
386.1083906150351
  0
LWPOLYLINE
  5
4E89
330
1F
100
AcDbEntity
  8
STAVBA OBRYS
100
AcDbPolyline
 90
        4
 70
     0
 43
0.0
 10
1750.08958360841
 20
374.5557463682024
 42
-0.0334776267545482
 10
1750.526861403116
 20
378.6027212969392
 42
-0.0091133963862869
 10
1753.004465728035
 20
391.2944510823989
 42
-0.007828075361276
 10
1753.295364863192
 20
392.5557463682024
  0
LWPOLYLINE
  5
4E8A
330
1F
100
AcDbEntity
  8
STAVBA OBRYS
100
AcDbPolyline
 90
        4
 70
     0
 43
0.0
 10
1784.843711045695
 20
374.0549159374539
 10
1764.847458613702
 20
383.2709449879738
 10
1748.069568042484
 20
385.978089250665
 10
1744.805956794779
 20
386.1083906150351
  0
LWPOLYLINE
  5
4E8B
330
1F
100
AcDbEntity
  8
STAVBA OBRYS
100
AcDbPolyline
 90
        3
 70
     0
 43
0.0
 10
1708.490036888967
 20
374.5557463682024
 42
-0.0052038508054843
 10
1711.68843382895
 20
390.9595728501998
 42
-0.0065712046643719
 10
1712.038859598714
 20
392.5557463682024
  0
LINE
  5
4E8C
330
1F
100
AcDbEntity
  8
STAVBA OBRYS
100
AcDbLine
 10
1703.09754654671
 20
392.5557463682015
 30
0.0
 11
1703.09754654671
 21
374.5557463682024
 31
0.0
  0
LWPOLYLINE
  5
4E8D
330
1F
100
AcDbEntity
  8
STAVBA OBRYS
100
AcDbPolyline
 90
        4
 70
     1
 43
0.0
 10
1727.290468033571
 20
395.555746368202
 10
1703.648735323736
 20
395.555746368202
 10
1703.648735323736
 20
392.5557463682019
 10
1727.290468033571
 20
392.5557463682019
  0
HATCH
  5
4E8E
330
1F
100
AcDbEntity
  8
izolace
100
AcDbHatch
 10
0.0
 20
0.0
 30
0.0
210
0.0
220
0.0
230
1.0
  2
SOLID
 70
     1
 71
     0
 91
        1
 92
        7
 72
     0
 73
     1
 93
        4
 10
1727.290468033575
 20
395.555746368202
 10
1703.648735323739
 20
395.555746368202
 10
1703.648735323736
 20
392.5557463682019
 10
1727.290468033575
 20
392.5557463682019
 97
        0
 75
     0
 76
     1
 47
0.1901250437635136
 98
        1
 10
1713.00653008208
 20
394.7389348171221
  0
LWPOLYLINE
  5
4E8F
330
1F
100
AcDbEntity
  8
nášlap_vrstvy
100
AcDbPolyline
 90
        4
 70
     1
 43
0.0
 10
1756.923325031995
 20
421.8134121810875
 10
1745.102458677079
 20
421.8134121810875
 10
1745.102458677079
 20
420.3134121810875
 10
1756.923325031995
 20
420.3134121810875
  0
HATCH
  5
4E90
330
1F
100
AcDbEntity
  8
nášlap_vrstvy
100
AcDbHatch
 10
0.0
 20
0.0
 30
0.0
210
0.0
220
0.0
230
1.0
  2
SOLID
 70
     1
 71
     0
 91
        1
 92
        7
 72
     0
 73
     1
 93
        4
 10
1756.923325031998
 20
421.8134121810875
 10
1745.102458677079
 20
421.8134121810875
 10
1745.102458677079
 20
420.3134121810875
 10
1756.923325031998
 20
420.3134121810875
 97
        0
 75
     0
 76
     1
 47
0.1901250437635136
 98
        1
 10
1749.781356056249
 20
421.4050064055475
  0
LWPOLYLINE
  5
4E91
330
1F
100
AcDbEntity
  8
nášlap_vrstvy
100
AcDbPolyline
 90
        4
 70
     1
 43
0.0
 10
1733.281592322163
 20
421.8134121810875
 10
1721.460725967244
 20
421.8134121810875
 10
1721.460725967244
 20
420.3134121810875
 10
1733.281592322163
 20
420.3134121810875
  0
HATCH
  5
4E92
330
1F
100
AcDbEntity
  8
nášlap_vrstvy
100
AcDbHatch
 10
0.0
 20
0.0
 30
0.0
210
0.0
220
0.0
230
1.0
  2
SOLID
 70
     1
 71
     0
 91
        1
 92
        7
 72
     0
 73
     1
 93
        4
 10
1733.281592322163
 20
421.8134121810875
 10
1721.460725967247
 20
421.8134121810875
 10
1721.460725967244
 20
420.3134121810875
 10
1733.281592322163
 20
420.3134121810875
 97
        0
 75
     0
 76
     1
 47
0.1901250437635136
 98
        1
 10
1726.139623346417
 20
421.4050064055475
  0
LWPOLYLINE
  5
4E93
330
1F
100
AcDbEntity
  8
STAVBA OBRYS
100
AcDbPolyline
 90
        4
 70
     1
 43
0.0
 10
1804.206790451665
 20
421.8134121810875
 10
1792.385924096749
 20
421.8134121810875
 10
1792.385924096749
 20
420.3134121810875
 10
1804.206790451665
 20
420.3134121810875
  0
HATCH
  5
4E94
330
1F
100
AcDbEntity
  8
nášlap_vrstvy
100
AcDbHatch
 10
0.0
 20
0.0
 30
0.0
210
0.0
220
0.0
230
1.0
  2
SOLID
 70
     1
 71
     0
 91
        1
 92
        7
 72
     0
 73
     1
 93
        4
 10
1804.206790451669
 20
421.8134121810875
 10
1792.385924096749
 20
421.8134121810875
 10
1792.385924096749
 20
420.3134121810875
 10
1804.206790451669
 20
420.3134121810875
 97
        0
 75
     0
 76
     1
 47
0.1901250437635136
 98
        1
 10
1797.064821475919
 20
421.4050064055475
  0
LWPOLYLINE
  5
4E95
330
1F
100
AcDbEntity
  8
nášlap_vrstvy
100
AcDbPolyline
 90
        4
 70
     1
 43
0.0
 10
1780.565057741833
 20
421.8134121810875
 10
1768.744191386914
 20
421.8134121810875
 10
1768.744191386914
 20
420.3134121810875
 10
1780.565057741833
 20
420.3134121810875
  0
HATCH
  5
4E96
330
1F
100
AcDbEntity
  8
nášlap_vrstvy
100
AcDbHatch
 10
0.0
 20
0.0
 30
0.0
210
0.0
220
0.0
230
1.0
  2
SOLID
 70
     1
 71
     0
 91
        1
 92
        7
 72
     0
 73
     1
 93
        4
 10
1780.565057741833
 20
421.8134121810875
 10
1768.744191386917
 20
421.8134121810875
 10
1768.744191386914
 20
420.3134121810875
 10
1780.565057741833
 20
420.3134121810875
 97
        0
 75
     0
 76
     1
 47
0.1901250437635136
 98
        1
 10
1773.423088766088
 20
421.4050064055475
  0
LWPOLYLINE
  5
4E97
330
1F
100
AcDbEntity
  8
nášlap_vrstvy
100
AcDbPolyline
 90
        4
 70
     1
 43
0.0
 10
1827.848523161503
 20
421.8134121810875
 10
1816.027656806584
 20
421.8134121810875
 10
1816.027656806584
 20
420.3134121810875
 10
1827.848523161503
 20
420.3134121810875
  0
HATCH
  5
4E98
330
1F
100
AcDbEntity
  8
nášlap_vrstvy
100
AcDbHatch
 10
0.0
 20
0.0
 30
0.0
210
0.0
220
0.0
230
1.0
  2
SOLID
 70
     1
 71
     0
 91
        1
 92
        7
 72
     0
 73
     1
 93
        4
 10
1827.848523161503
 20
421.8134121810875
 10
1816.027656806588
 20
421.8134121810875
 10
1816.027656806584
 20
420.3134121810875
 10
1827.848523161503
 20
420.3134121810875
 97
        0
 75
     0
 76
     1
 47
0.1901250437635136
 98
        1
 10
1820.706554185758
 20
421.4050064055475
  0
INSERT
  5
4E99
330
1F
100
AcDbEntity
  8
POPIS
100
AcDbBlockReference
  2
E_PUNKT
 10
1796.304672870094
 20
319.1310729584651
 30
0.0
 50
270.0
  0
INSERT
  5
4E9A
330
1F
100
AcDbEntity
  8
POPIS
100
AcDbBlockReference
  2
E_PUNKT
 10
1747.216157405809
 20
384.0568234260694
 30
0.0
 50
270.0
  0
TEXT
  5
4E9B
330
1F
100
AcDbEntity
  8
POPIS
100
AcDbText
 10
1655.243584626646
 20
522.6985661941129
 30
0.0
 40
25.0
  1
06
 41
0.85
  7
SIMPLEX7
100
AcDbText
  0
TEXT
  5
4E9C
330
1F
100
AcDbEntity
  8
POPIS
100
AcDbText
 10
1590.960541845605
 20
522.6985661941129
 30
0.0
 40
25.0
  1
05
 41
0.85
  7
SIMPLEX7
100
AcDbText
  0
TEXT
  5
4E9D
330
1F
100
AcDbEntity
  8
POPIS
100
AcDbText
 10
1730.347554804878
 20
522.6985661941129
 30
0.0
 40
25.0
  1
07
 41
0.85
  7
SIMPLEX7
100
AcDbText
  0
TEXT
  5
4E9E
330
1F
100
AcDbEntity
  8
POPIS
100
AcDbText
 10
1779.436070269163
 20
522.6985661941129
 30
0.0
 40
25.0
  1
09
 41
0.85
  7
SIMPLEX7
100
AcDbText
  0
TEXT
  5
4E9F
330
1F
100
AcDbEntity
  8
POPIS
100
AcDbText
 10
2008.594600963858
 20
418.6282012627255
 30
0.0
 40
25.0
  1
05
 41
0.85
  7
SIMPLEX7
100
AcDbText
  0
LWPOLYLINE
  5
4EA0
330
1F
100
AcDbEntity
  8
STAVBA OBRYS
100
AcDbPolyline
 90
        4
 70
     0
 43
0.0
 10
1914.003625725549
 20
374.5557463682024
 42
0.0334776267545482
 10
1913.566347930843
 20
378.6027212969392
 42
0.0091133963862869
 10
1911.088743605924
 20
391.2944510823989
 42
0.007828075361276
 10
1910.797844470766
 20
392.5557463682024
  0
LWPOLYLINE
  5
4EA1
330
1F
100
AcDbEntity
  8
STAVBA OBRYS
100
AcDbPolyline
 90
        3
 70
     0
 43
0.0
 10
1925.456163588517
 20
374.5557463682024
 42
0.0052038508054843
 10
1922.257766648534
 20
390.9595728501998
 42
0.0065712046643719
 10
1921.90734087877
 20
392.5557463682024
  0
LWPOLYLINE
  5
4EA2
330
1F
100
AcDbEntity
  8
STAVBA OBRYS
100
AcDbPolyline
 90
        3
 70
     0
 43
0.0
 10
1921.351382047724
 20
374.0549159374539
 10
1941.347634479717
 20
383.2709449879738
 10
1953.180970701051
 20
385.1802760879771
  0
LWPOLYLINE
  5
4EA3
330
1F
100
AcDbEntity
  8
STAVBA OBRYS
100
AcDbPolyline
 90
        2
 70
     0
 43
0.0
 10
1951.498390904199
 20
374.0549159374539
 10
1953.494059365119
 20
374.9746952097753
  0
LWPOLYLINE
  5
4EA4
330
1F
100
AcDbEntity
  8
STAVBA OBRYS
100
AcDbPolyline
 90
        4
 70
     0
 43
0.0
 10
1935.955767236319
 20
374.5557463682024
 42
0.0186324019486548
 10
1932.587397864213
 20
386.2508579864269
 42
0.0582629403736403
 10
1930.927897996132
 20
389.8306921853626
 42
0.0146402521923566
 10
1929.143490014547
 20
392.5557463682024
  0
LWPOLYLINE
  5
4EA5
330
1F
100
AcDbEntity
  8
STAVBA OBRYS
100
AcDbPolyline
 90
        5
 70
     0
 43
0.0
 10
1945.861371110216
 20
374.5557463682024
 42
0.0133579731639958
 10
1945.474560621188
 20
377.0735486557577
 42
0.0072443097182286
 10
1943.35456367373
 20
387.8844395506647
 42
0.0219777111230329
 10
1942.448451171746
 20
391.4025528065002
 42
0.0092752982622242
 10
1942.073224209799
 20
392.5557463682024
  0
LWPOLYLINE
  5
4EA6
330
1F
100
AcDbEntity
  8
STAVBA OBRYS
100
AcDbPolyline
 90
        2
 70
     0
 43
0.0
 10
1952.962619110471
 20
392.2977641138098
 42
0.0016057743491716
 10
1952.899728230227
 20
392.5557463682024
  0
LWPOLYLINE
  5
4EA7
330
1F
100
AcDbEntity
  8
STAVBA OBRYS
100
AcDbPolyline
 90
        5
 70
     0
 43
0.0
 10
1903.759487350756
 20
374.5557463682024
 42
0.0133579731639958
 10
1903.372676861728
 20
377.0735486557577
 42
0.0072443097182286
 10
1901.252679914269
 20
387.8844395506647
 42
0.0219777111230329
 10
1900.346567412286
 20
391.4025528065002
 42
0.0092752982622242
 10
1899.971340450339
 20
392.5557463682024
  0
LWPOLYLINE
  5
4EA8
330
1F
100
AcDbEntity
  8
STAVBA OBRYS
100
AcDbPolyline
 90
        4
 70
     0
 43
0.0
 10
1893.853883476859
 20
374.5557463682024
 42
0.0186324019486548
 10
1890.485514104753
 20
386.2508579864269
 42
0.0582629403736403
 10
1888.826014236672
 20
389.8306921853626
 42
0.0146402521923566
 10
1887.041606255087
 20
392.5557463682024
  0
LWPOLYLINE
  5
4EA9
330
1F
100
AcDbEntity
  8
izolace
100
AcDbPolyline
 90
        4
 70
     1
 43
0.0
 10
1916.424329712253
 20
395.555746368202
 10
1892.782597002417
 20
395.555746368202
 10
1892.782597002417
 20
392.5557463682019
 10
1916.424329712253
 20
392.5557463682019
  0
HATCH
  5
4EAA
330
1F
100
AcDbEntity
  8
izolace
100
AcDbHatch
 10
0.0
 20
0.0
 30
0.0
210
0.0
220
0.0
230
1.0
  2
SOLID
 70
     1
 71
     0
 91
        1
 92
        7
 72
     0
 73
     1
 93
        4
 10
1916.424329712256
 20
395.555746368202
 10
1892.782597002421
 20
395.555746368202
 10
1892.782597002417
 20
392.5557463682019
 10
1916.424329712256
 20
392.5557463682019
 97
        0
 75
     0
 76
     1
 47
0.1901250437635136
 98
        1
 10
1902.140391760761
 20
394.7389348171221
  0
LWPOLYLINE
  5
4EAB
330
1F
100
AcDbEntity
  8
STAVBA OBRYS
100
AcDbPolyline
 90
        4
 70
     0
 43
0.0
 10
1879.249498288264
 20
374.0549159374539
 10
1899.245750720257
 20
383.2709449879738
 10
1916.023641291475
 20
385.978089250665
 10
1919.28725253918
 20
386.1083906150351
  0
LWPOLYLINE
  5
4EAC
330
1F
100
AcDbEntity
  8
STAVBA OBRYS
100
AcDbPolyline
 90
        6
 70
     0
 43
0.0
 10
1885.043422128016
 20
374.5557463682024
 42
0.0121757200102759
 10
1883.673432414355
 20
379.2276637006697
 42
0.0457786284636091
 10
1882.465409524739
 20
382.076274083546
 42
0.0295006114745606
 10
1880.04934907044
 20
386.0031732969481
 42
0.0258674098621065
 10
1876.816673756476
 20
390.148953375702
 42
0.0093759062953949
 10
1874.650861576818
 20
392.5557463682024
  0
LWPOLYLINE
  5
4EAD
330
1F
100
AcDbEntity
  8
STAVBA OBRYS
100
AcDbPolyline
 90
        3
 70
     0
 43
0.0
 10
1862.920090356107
 20
374.5557463682024
 10
1876.712138282747
 20
381.4568179316892
 10
1884.879242931872
 20
389.6381196327828
  0
POLYLINE
  5
4EAE
330
1F
100
AcDbEntity
  8
STAVBA OBRYS
100
AcDb2dPolyline
 66
     1
 10
0.0
 20
0.0
 30
0.0
  0
VERTEX
  5
4EAF
330
4EAE
100
AcDbEntity
  8
STAVBA OBRYS
100
AcDbVertex
100
AcDb2dVertex
 10
1858.265420783363
 20
374.5557463682024
 30
0.0
 42
0.0094186890201653
  0
VERTEX
  5
4EB0
330
4EAE
100
AcDbEntity
  8
STAVBA OBRYS
100
AcDbVertex
100
AcDb2dVertex
 10
1857.918622220489
 20
374.7144192389704
 30
0.0
 42
0.0322692699774654
  0
VERTEX
  5
4EB1
330
4EAE
100
AcDbEntity
  8
STAVBA OBRYS
100
AcDbVertex
100
AcDb2dVertex
 10
1855.027268039398
 20
375.7559427403711
 30
0.0
 42
0.0276160659512937
  0
VERTEX
  5
4EB2
330
4EAE
100
AcDbEntity
  8
STAVBA OBRYS
100
AcDbVertex
100
AcDb2dVertex
 10
1854.171691601111
 20
375.9526781693156
 30
0.0
 42
0.0126891984598699
  0
VERTEX
  5
4EB3
330
4EAE
100
AcDbEntity
  8
STAVBA OBRYS
100
AcDbVertex
100
AcDb2dVertex
 10
1853.248523205319
 20
376.0878805588571
 30
0.0
  0
SEQEND
  5
4EB4
330
4EAE
100
AcDbEntity
  8
STAVBA OBRYS
  0
POLYLINE
  5
4EB5
330
1F
100
AcDbEntity
  8
STAVBA OBRYS
100
AcDb2dPolyline
 66
     1
 10
0.0
 20
0.0
 30
0.0
  0
VERTEX
  5
4EB6
330
4EB5
100
AcDbEntity
  8
STAVBA OBRYS
100
AcDbVertex
100
AcDb2dVertex
 10
1867.318566732899
 20
374.5557463682024
 30
0.0
 42
0.0502247168465557
  0
VERTEX
  5
4EB7
330
4EB5
100
AcDbEntity
  8
STAVBA OBRYS
100
AcDbVertex
100
AcDb2dVertex
 10
1865.719519556733
 20
376.5632170409252
 30
0.0
 42
0.0274923553235744
  0
VERTEX
  5
4EB8
330
4EB5
100
AcDbEntity
  8
STAVBA OBRYS
100
AcDbVertex
100
AcDb2dVertex
 10
1863.122213826181
 20
378.9482923640633
 30
0.0
 42
0.0255412025538677
  0
VERTEX
  5
4EB9
330
4EB5
100
AcDbEntity
  8
STAVBA OBRYS
100
AcDbVertex
100
AcDb2dVertex
 10
1860.07078378847
 20
381.2050060410791
 30
0.0
 42
0.0272796991712396
  0
VERTEX
  5
4EBA
330
4EB5
100
AcDbEntity
  8
STAVBA OBRYS
100
AcDbVertex
100
AcDb2dVertex
 10
1855.957784635284
 20
383.621341922745
 30
0.0
 42
0.056967459841729
  0
VERTEX
  5
4EBB
330
4EB5
100
AcDbEntity
  8
STAVBA OBRYS
100
AcDbVertex
100
AcDb2dVertex
 10
1853.816837354553
 20
384.4340777579444
 30
0.0
 42
0.0373408083348504
  0
VERTEX
  5
4EBC
330
4EB5
100
AcDbEntity
  8
STAVBA OBRYS
100
AcDbVertex
100
AcDb2dVertex
 10
1853.594482979079
 20
384.473243298892
 30
0.0
 42
0.0052305969362967
  0
VERTEX
  5
4EBD
330
4EB5
100
AcDbEntity
  8
STAVBA OBRYS
100
AcDbVertex
100
AcDb2dVertex
 10
1853.248523205319
 20
384.5042002657963
 30
0.0
  0
SEQEND
  5
4EBE
330
4EB5
100
AcDbEntity
  8
STAVBA OBRYS
  0
LINE
  5
4EBF
330
1F
100
AcDbEntity
  8
STAVBA OBRYS
100
AcDbLine
 10
1853.09754654671
 20
392.5557463682015
 30
0.0
 11
1853.09754654671
 21
374.5557463682024
 31
0.0
  0
LWPOLYLINE
  5
4EC0
330
1F
100
AcDbEntity
  8
STAVBA OBRYS
100
AcDbPolyline
 90
        8
 70
     0
 43
0.0
 10
1875.670618120214
 20
374.5557463682024
 42
0.0217273703039143
 10
1873.472947859704
 20
379.5914367056801
 42
0.0882970623535771
 10
1871.835725939611
 20
381.83180575648
 42
0.0171636441953577
 10
1869.022361877753
 20
384.3457231117253
 42
0.0157521173632038
 10
1865.783507040717
 20
386.8772191642318
 42
0.0073640874174249
 10
1861.149857684396
 20
390.1656205899679
 42
0.0194185739168057
 10
1859.327814364719
 20
391.3171895892491
 42
0.0229547400386702
 10
1856.942356300704
 20
392.5557463682024
  0
HATCH
  5
4EC1
330
1F
100
AcDbEntity
  8
nášlap_vrstvy
100
AcDbHatch
 10
0.0
 20
0.0
 30
0.0
210
0.0
220
0.0
230
1.0
  2
SOLID
 70
     1
 71
     0
 91
        1
 92
        7
 72
     0
 73
     1
 93
        4
 10
1945.773610730772
 20
421.8134121810875
 10
1933.952744375853
 20
421.8134121810875
 10
1933.952744375853
 20
420.3134121810875
 10
1945.773610730772
 20
420.3134121810875
 97
        0
 75
     0
 76
     1
 47
0.1901250437635136
 98
        1
 10
1938.631641755023
 20
421.4050064055475
  0
LWPOLYLINE
  5
4EC2
330
1F
100
AcDbEntity
  8
nášlap_vrstvy
100
AcDbPolyline
 90
        4
 70
     1
 43
0.0
 10
1874.848412601267
 20
421.8134121810875
 10
1863.027546246348
 20
421.8134121810875
 10
1863.027546246348
 20
420.3134121810875
 10
1874.848412601267
 20
420.3134121810875
  0
HATCH
  5
4EC3
330
1F
100
AcDbEntity
  8
nášlap_vrstvy
100
AcDbHatch
 10
0.0
 20
0.0
 30
0.0
210
0.0
220
0.0
230
1.0
  2
SOLID
 70
     1
 71
     0
 91
        1
 92
        7
 72
     0
 73
     1
 93
        4
 10
1874.848412601267
 20
421.8134121810875
 10
1863.027546246351
 20
421.8134121810875
 10
1863.027546246348
 20
420.3134121810875
 10
1874.848412601267
 20
420.3134121810875
 97
        0
 75
     0
 76
     1
 47
0.1901250437635136
 98
        1
 10
1867.706443625521
 20
421.4050064055475
  0
LWPOLYLINE
  5
4EC4
330
1F
100
AcDbEntity
  8
nášlap_vrstvy
100
AcDbPolyline
 90
        4
 70
     1
 43
0.0
 10
1898.490145311098
 20
421.8134121810875
 10
1886.669278956183
 20
421.8134121810875
 10
1886.669278956183
 20
420.3134121810875
 10
1898.490145311098
 20
420.3134121810875
  0
HATCH
  5
4EC5
330
1F
100
AcDbEntity
  8
nášlap_vrstvy
100
AcDbHatch
 10
0.0
 20
0.0
 30
0.0
210
0.0
220
0.0
230
1.0
  2
SOLID
 70
     1
 71
     0
 91
        1
 92
        7
 72
     0
 73
     1
 93
        4
 10
1898.490145311102
 20
421.8134121810875
 10
1886.669278956183
 20
421.8134121810875
 10
1886.669278956183
 20
420.3134121810875
 10
1898.490145311102
 20
420.3134121810875
 97
        0
 75
     0
 76
     1
 47
0.1901250437635136
 98
        1
 10
1891.348176335353
 20
421.4050064055475
  0
LINE
  5
4EC6
330
1F
100
AcDbEntity
  8
SPOJOVACÍ
  6
DASHED
100
AcDbLine
 10
1869.763794815401
 20
418.4082261161457
 30
0.0
 11
1870.852212117753
 21
417.3608295665218
 31
0.0
  0
LINE
  5
4EC7
330
1F
100
AcDbEntity
  8
SPOJOVACÍ
  6
DASHED
100
AcDbLine
 10
1868.441103433521
 20
419.1374839398905
 30
0.0
 11
1869.763794815401
 21
418.4082261161457
 31
0.0
  0
LINE
  5
4EC8
330
1F
100
AcDbEntity
  8
SPOJOVACÍ
  6
DASHED
100
AcDbLine
 10
1877.736405972799
 20
418.8074947747646
 30
0.0
 11
1878.437405055244
 21
419.1374839398905
 31
0.0
  0
LINE
  5
4EC9
330
1F
100
AcDbEntity
  8
SPOJOVACÍ
  6
DASHED
100
AcDbLine
 10
1876.524014840078
 20
417.9077729345318
 30
0.0
 11
1877.736405972799
 21
418.8074947747646
 31
0.0
  0
LINE
  5
4ECA
330
1F
100
AcDbEntity
  8
SPOJOVACÍ
  6
DASHED
100
AcDbLine
 10
1871.457496110321
 20
412.1585475595912
 30
0.0
 11
1875.421012382722
 21
410.82582888632
 31
0.0
  0
LINE
  5
4ECB
330
1F
100
AcDbEntity
  8
SPOJOVACÍ
  6
DASHED
100
AcDbLine
 10
1871.087397762517
 20
412.3718554729185
 30
0.0
 11
1871.457496110321
 21
412.1585475595912
 31
0.0
  0
LINE
  5
4ECC
330
1F
100
AcDbEntity
  8
SPOJOVACÍ
  6
DASHED
100
AcDbLine
 10
1871.087397762517
 20
412.3718554729185
 30
0.0
 11
1871.457496110321
 21
412.7428653907719
 31
0.0
  0
LINE
  5
4ECD
330
1F
100
AcDbEntity
  8
SPOJOVACÍ
  6
DASHED
100
AcDbLine
 10
1871.457496110321
 20
412.7428653907719
 30
0.0
 11
1875.421012382722
 21
411.4101467177716
 31
0.0
  0
LINE
  5
4ECE
330
1F
100
AcDbEntity
  8
SPOJOVACÍ
  6
DASHED
100
AcDbLine
 10
1872.08420205064
 20
414.231401929751
 30
0.0
 11
1872.116562866781
 21
412.521256467604
 31
0.0
  0
LINE
  5
4ECF
330
1F
100
AcDbEntity
  8
SPOJOVACÍ
  6
DASHED
100
AcDbLine
 10
1872.051841234498
 20
414.616997004081
 30
0.0
 11
1872.116562866781
 21
413.8458068554211
 31
0.0
  0
LINE
  5
4ED0
330
1F
100
AcDbEntity
  8
SPOJOVACÍ
  6
DASHED
100
AcDbLine
 10
1871.632517987484
 20
416.0682200737902
 30
0.0
 11
1872.051841234498
 21
414.616997004081
 31
0.0
  0
LINE
  5
4ED1
330
1F
100
AcDbEntity
  8
SPOJOVACÍ
  6
DASHED
100
AcDbLine
 10
1870.852212117753
 20
417.3608295665218
 30
0.0
 11
1871.632517987484
 21
416.0682200737902
 31
0.0
  0
LINE
  5
4ED2
330
1F
100
AcDbEntity
  8
SPOJOVACÍ
  6
DASHED
100
AcDbLine
 10
1872.116562866781
 20
396.6922616205448
 30
0.0
 11
1872.116562866781
 21
394.2146081639331
 31
0.0
  0
LINE
  5
4ED3
330
1F
100
AcDbEntity
  8
SPOJOVACÍ
  6
DASHED
100
AcDbLine
 10
1871.457496110321
 20
396.9001001002108
 30
0.0
 11
1875.421012382722
 21
395.5673814272105
 31
0.0
  0
LINE
  5
4ED4
330
1F
100
AcDbEntity
  8
SPOJOVACÍ
  6
DASHED
100
AcDbLine
 10
1871.087397762517
 20
397.1143195859969
 30
0.0
 11
1871.457496110321
 21
396.9001001002108
 31
0.0
  0
LINE
  5
4ED5
330
1F
100
AcDbEntity
  8
SPOJOVACÍ
  6
DASHED
100
AcDbLine
 10
1871.087397762517
 20
397.1143195859969
 30
0.0
 11
1871.457496110321
 21
397.4844179316625
 31
0.0
  0
LINE
  5
4ED6
330
1F
100
AcDbEntity
  8
SPOJOVACÍ
  6
DASHED
100
AcDbLine
 10
1871.457496110321
 20
397.4844179316625
 30
0.0
 11
1875.421012382722
 21
396.1516992586549
 31
0.0
  0
LINE
  5
4ED7
330
1F
100
AcDbEntity
  8
SPOJOVACÍ
  6
DASHED
100
AcDbLine
 10
1872.116562866781
 20
399.7451171859248
 30
0.0
 11
1872.116562866781
 21
397.27475630735
 31
0.0
  0
LINE
  5
4ED8
330
1F
100
AcDbEntity
  8
SPOJOVACÍ
  6
DASHED
100
AcDbLine
 10
1871.457496110321
 20
399.9575135270644
 30
0.0
 11
1875.421012382722
 21
398.6257064262519
 31
0.0
  0
LINE
  5
4ED9
330
1F
100
AcDbEntity
  8
SPOJOVACÍ
  6
DASHED
100
AcDbLine
 10
1871.087397762517
 20
400.1717330128505
 30
0.0
 11
1871.457496110321
 21
399.9575135270644
 31
0.0
  0
LINE
  5
4EDA
330
1F
100
AcDbEntity
  8
SPOJOVACÍ
  6
DASHED
100
AcDbLine
 10
1871.087397762517
 20
400.1717330128505
 30
0.0
 11
1871.457496110321
 21
400.5418313585161
 31
0.0
  0
LINE
  5
4EDB
330
1F
100
AcDbEntity
  8
SPOJOVACÍ
  6
DASHED
100
AcDbLine
 10
1871.457496110321
 20
400.5418313585161
 30
0.0
 11
1875.421012382722
 21
399.2100242574325
 31
0.0
  0
LINE
  5
4EDC
330
1F
100
AcDbEntity
  8
SPOJOVACÍ
  6
DASHED
100
AcDbLine
 10
1872.116562866781
 20
402.8052653293417
 30
0.0
 11
1872.116562866781
 21
400.3367275954134
 31
0.0
  0
LINE
  5
4EDD
330
1F
100
AcDbEntity
  8
SPOJOVACÍ
  6
DASHED
100
AcDbLine
 10
1871.457496110321
 20
403.0158385261057
 30
0.0
 11
1875.421012382722
 21
401.6831198528344
 31
0.0
  0
LINE
  5
4EDE
330
1F
100
AcDbEntity
  8
SPOJOVACÍ
  6
DASHED
100
AcDbLine
 10
1871.087397762517
 20
403.229146439433
 30
0.0
 11
1871.457496110321
 21
403.0158385261057
 31
0.0
  0
LINE
  5
4EDF
330
1F
100
AcDbEntity
  8
SPOJOVACÍ
  6
DASHED
100
AcDbLine
 10
1871.087397762517
 20
403.229146439433
 30
0.0
 11
1871.457496110321
 21
403.6001563572864
 31
0.0
  0
LINE
  5
4EE0
330
1F
100
AcDbEntity
  8
SPOJOVACÍ
  6
DASHED
100
AcDbLine
 10
1871.457496110321
 20
403.6001563572864
 30
0.0
 11
1875.421012382722
 21
402.2674376842862
 31
0.0
  0
LINE
  5
4EE1
330
1F
100
AcDbEntity
  8
SPOJOVACÍ
  6
DASHED
100
AcDbLine
 10
1872.116562866781
 20
405.8451784159589
 30
0.0
 11
1872.116562866781
 21
403.374817537384
 31
0.0
  0
LINE
  5
4EE2
330
1F
100
AcDbEntity
  8
SPOJOVACÍ
  6
DASHED
100
AcDbLine
 10
1871.457496110321
 20
406.0575747570984
 30
0.0
 11
1875.421012382722
 21
404.7257676562859
 31
0.0
  0
LINE
  5
4EE3
330
1F
100
AcDbEntity
  8
SPOJOVACÍ
  6
DASHED
100
AcDbLine
 10
1871.087397762517
 20
406.2717942428845
 30
0.0
 11
1871.457496110321
 21
406.0575747570984
 31
0.0
  0
LINE
  5
4EE4
330
1F
100
AcDbEntity
  8
SPOJOVACÍ
  6
DASHED
100
AcDbLine
 10
1871.087397762517
 20
406.2717942428845
 30
0.0
 11
1871.457496110321
 21
406.6418925885501
 31
0.0
  0
LINE
  5
4EE5
330
1F
100
AcDbEntity
  8
SPOJOVACÍ
  6
DASHED
100
AcDbLine
 10
1871.457496110321
 20
406.6418925885501
 30
0.0
 11
1875.421012382722
 21
405.3100854874665
 31
0.0
  0
LINE
  5
4EE6
330
1F
100
AcDbEntity
  8
SPOJOVACÍ
  6
DASHED
100
AcDbLine
 10
1872.116562866781
 20
408.9053265593758
 30
0.0
 11
1872.116562866781
 21
406.4367888254475
 31
0.0
  0
LINE
  5
4EE7
330
1F
100
AcDbEntity
  8
SPOJOVACÍ
  6
DASHED
100
AcDbLine
 10
1871.457496110321
 20
409.1158997561398
 30
0.0
 11
1875.421012382722
 21
407.7831810828684
 31
0.0
  0
LINE
  5
4EE8
330
1F
100
AcDbEntity
  8
SPOJOVACÍ
  6
DASHED
100
AcDbLine
 10
1871.087397762517
 20
409.329207669467
 30
0.0
 11
1871.457496110321
 21
409.1158997561398
 31
0.0
  0
LINE
  5
4EE9
330
1F
100
AcDbEntity
  8
SPOJOVACÍ
  6
DASHED
100
AcDbLine
 10
1871.087397762517
 20
409.329207669467
 30
0.0
 11
1871.457496110321
 21
409.7002175873204
 31
0.0
  0
LINE
  5
4EEA
330
1F
100
AcDbEntity
  8
SPOJOVACÍ
  6
DASHED
100
AcDbLine
 10
1871.457496110321
 20
409.7002175873204
 30
0.0
 11
1875.421012382722
 21
408.3674989143202
 31
0.0
  0
LINE
  5
4EEB
330
1F
100
AcDbEntity
  8
SPOJOVACÍ
  6
DASHED
100
AcDbLine
 10
1872.116562866781
 20
411.9479743628272
 30
0.0
 11
1872.116562866781
 21
409.4794366288989
 31
0.0
  0
LINE
  5
4EEC
330
1F
100
AcDbEntity
  8
SPOJOVACÍ
  6
DASHED
100
AcDbLine
 10
1875.585095391493
 20
416.7245521152909
 30
0.0
 11
1876.524014840078
 21
417.9077729345318
 31
0.0
  0
LINE
  5
4EED
330
1F
100
AcDbEntity
  8
SPOJOVACÍ
  6
DASHED
100
AcDbLine
 10
1874.984369259328
 20
415.3389622497817
 30
0.0
 11
1875.585095391493
 21
416.7245521152909
 31
0.0
  0
LINE
  5
4EEE
330
1F
100
AcDbEntity
  8
SPOJOVACÍ
  6
DASHED
100
AcDbLine
 10
1874.761945626262
 20
413.8458068554211
 30
0.0
 11
1874.984369259328
 21
415.3389622497817
 31
0.0
  0
LINE
  5
4EEF
330
1F
100
AcDbEntity
  8
SPOJOVACÍ
  6
DASHED
100
AcDbLine
 10
1874.761945626262
 20
413.8458068554228
 30
0.0
 11
1874.761945626262
 21
411.6317556409414
 31
0.0
  0
LINE
  5
4EF0
330
1F
100
AcDbEntity
  8
SPOJOVACÍ
  6
DASHED
100
AcDbLine
 10
1875.791110726249
 20
411.1959272319856
 30
0.0
 11
1875.421012382722
 21
411.4101467177716
 31
0.0
  0
LINE
  5
4EF1
330
1F
100
AcDbEntity
  8
SPOJOVACÍ
  6
DASHED
100
AcDbLine
 10
1875.791110726249
 20
411.1959272319856
 30
0.0
 11
1875.421012382722
 21
410.82582888632
 31
0.0
  0
LINE
  5
4EF2
330
1F
100
AcDbEntity
  8
SPOJOVACÍ
  6
DASHED
100
AcDbLine
 10
1874.761945626262
 20
411.052810384068
 30
0.0
 11
1874.761945626262
 21
408.5842726501397
 31
0.0
  0
LINE
  5
4EF3
330
1F
100
AcDbEntity
  8
SPOJOVACÍ
  6
DASHED
100
AcDbLine
 10
1875.791110726249
 20
408.1532794285341
 30
0.0
 11
1875.421012382722
 21
408.3674989143202
 31
0.0
  0
LINE
  5
4EF4
330
1F
100
AcDbEntity
  8
SPOJOVACÍ
  6
DASHED
100
AcDbLine
 10
1875.791110726249
 20
408.1532794285341
 30
0.0
 11
1875.421012382722
 21
407.7831810828684
 31
0.0
  0
LINE
  5
4EF5
330
1F
100
AcDbEntity
  8
SPOJOVACÍ
  6
DASHED
100
AcDbLine
 10
1874.761945626262
 20
408.0101625806165
 30
0.0
 11
1874.761945626262
 21
405.5416248466882
 31
0.0
  0
LINE
  5
4EF6
330
1F
100
AcDbEntity
  8
SPOJOVACÍ
  6
DASHED
100
AcDbLine
 10
1875.791110726249
 20
405.0958660016805
 30
0.0
 11
1875.421012382722
 21
405.3100854874665
 31
0.0
  0
LINE
  5
4EF7
330
1F
100
AcDbEntity
  8
SPOJOVACÍ
  6
DASHED
100
AcDbLine
 10
1875.791110726249
 20
405.0958660016805
 30
0.0
 11
1875.421012382722
 21
404.7257676562859
 31
0.0
  0
LINE
  5
4EF8
330
1F
100
AcDbEntity
  8
SPOJOVACÍ
  6
DASHED
100
AcDbLine
 10
1874.761945626262
 20
404.9573070152365
 30
0.0
 11
1874.761945626262
 21
402.4796535586248
 31
0.0
  0
LINE
  5
4EF9
330
1F
100
AcDbEntity
  8
SPOJOVACÍ
  6
DASHED
100
AcDbLine
 10
1875.791110726249
 20
402.0532181985
 30
0.0
 11
1875.421012382722
 21
402.2674376842862
 31
0.0
  0
LINE
  5
4EFA
330
1F
100
AcDbEntity
  8
SPOJOVACÍ
  6
DASHED
100
AcDbLine
 10
1875.791110726249
 20
402.0532181985
 30
0.0
 11
1875.421012382722
 21
401.6831198528344
 31
0.0
  0
LINE
  5
4EFB
330
1F
100
AcDbEntity
  8
SPOJOVACÍ
  6
DASHED
100
AcDbLine
 10
1874.761945626262
 20
401.9101013505824
 30
0.0
 11
1874.761945626262
 21
399.4415636166542
 31
0.0
  0
LINE
  5
4EFC
330
1F
100
AcDbEntity
  8
SPOJOVACÍ
  6
DASHED
100
AcDbLine
 10
1875.791110726249
 20
398.9958047716464
 30
0.0
 11
1875.421012382722
 21
399.2100242574325
 31
0.0
  0
LINE
  5
4EFD
330
1F
100
AcDbEntity
  8
SPOJOVACÍ
  6
DASHED
100
AcDbLine
 10
1875.791110726249
 20
398.9958047716464
 30
0.0
 11
1875.421012382722
 21
398.6257064262519
 31
0.0
  0
LINE
  5
4EFE
330
1F
100
AcDbEntity
  8
SPOJOVACÍ
  6
DASHED
100
AcDbLine
 10
1874.761945626262
 20
398.8572457852025
 30
0.0
 11
1874.761945626262
 21
396.3795923285907
 31
0.0
  0
LINE
  5
4EFF
330
1F
100
AcDbEntity
  8
SPOJOVACÍ
  6
DASHED
100
AcDbLine
 10
1871.087397762517
 20
400.1717330128505
 30
0.0
 11
1875.791110726249
 21
398.9958047716464
 31
0.0
  0
LINE
  5
4F00
330
1F
100
AcDbEntity
  8
SPOJOVACÍ
  6
DASHED
100
AcDbLine
 10
1871.087397762517
 20
397.1143195859969
 30
0.0
 11
1875.791110726249
 21
395.9383913450638
 31
0.0
  0
LINE
  5
4F01
330
1F
100
AcDbEntity
  8
SPOJOVACÍ
  6
DASHED
100
AcDbLine
 10
1874.761945626262
 20
395.7970976417856
 30
0.0
 11
1874.761945626262
 21
393.3267367632107
 31
0.0
  0
LINE
  5
4F02
330
1F
100
AcDbEntity
  8
SPOJOVACÍ
  6
DASHED
100
AcDbLine
 10
1871.087397762517
 20
403.229146439433
 30
0.0
 11
1875.791110726249
 21
402.0532181985
 31
0.0
  0
LINE
  5
4F03
330
1F
100
AcDbEntity
  8
SPOJOVACÍ
  6
DASHED
100
AcDbLine
 10
1875.791110726249
 20
395.9383913450638
 30
0.0
 11
1875.421012382722
 21
395.5673814272105
 31
0.0
  0
LINE
  5
4F04
330
1F
100
AcDbEntity
  8
SPOJOVACÍ
  6
DASHED
100
AcDbLine
 10
1875.791110726249
 20
395.9383913450638
 30
0.0
 11
1875.421012382722
 21
396.1516992586549
 31
0.0
  0
LINE
  5
4F05
330
1F
100
AcDbEntity
  8
SPOJOVACÍ
  6
DASHED
100
AcDbLine
 10
1871.087397762517
 20
394.056906159407
 30
0.0
 11
1875.791110726249
 21
392.880977918474
 31
0.0
  0
LINE
  5
4F06
330
1F
100
AcDbEntity
  8
SPOJOVACÍ
  6
DASHED
100
AcDbLine
 10
1871.087397762517
 20
394.056906159407
 30
0.0
 11
1871.457496110321
 21
393.8426866736282
 31
0.0
  0
LINE
  5
4F07
330
1F
100
AcDbEntity
  8
SPOJOVACÍ
  6
DASHED
100
AcDbLine
 10
1871.087397762517
 20
394.056906159407
 30
0.0
 11
1871.457496110321
 21
394.4270045050726
 31
0.0
  0
LINE
  5
4F08
330
1F
100
AcDbEntity
  8
SPOJOVACÍ
  6
DASHED
100
AcDbLine
 10
1875.791110726249
 20
392.880977918474
 30
0.0
 11
1875.421012382722
 21
393.0942858318013
 31
0.0
  0
LINE
  5
4F09
330
1F
100
AcDbEntity
  8
SPOJOVACÍ
  6
DASHED
100
AcDbLine
 10
1871.457496110321
 20
394.4270045050726
 30
0.0
 11
1875.421012382722
 21
393.0942858318013
 31
0.0
  0
LINE
  5
4F0A
330
1F
100
AcDbEntity
  8
SPOJOVACÍ
  6
DASHED
100
AcDbLine
 10
1871.087397762517
 20
406.2717942428845
 30
0.0
 11
1875.791110726249
 21
405.0958660016805
 31
0.0
  0
LINE
  5
4F0B
330
1F
100
AcDbEntity
  8
SPOJOVACÍ
  6
DASHED
100
AcDbLine
 10
1871.087397762517
 20
409.329207669467
 30
0.0
 11
1875.791110726249
 21
408.1532794285341
 31
0.0
  0
LINE
  5
4F0C
330
1F
100
AcDbEntity
  8
SPOJOVACÍ
  6
DASHED
100
AcDbLine
 10
1871.087397762517
 20
412.3718554729185
 30
0.0
 11
1875.791110726249
 21
411.1959272319856
 31
0.0
  0
LINE
  5
4F0D
330
1F
100
AcDbEntity
  8
SPOJOVACÍ
  6
DASHED
100
AcDbLine
 10
1868.441103433521
 20
420.3134121810872
 30
0.0
 11
1868.441103433521
 21
419.1374839398905
 31
0.0
  0
LINE
  5
4F0E
330
1F
100
AcDbEntity
  8
SPOJOVACÍ
  6
DASHED
100
AcDbLine
 10
1878.437405055244
 20
420.3134121810872
 30
0.0
 11
1878.437405055244
 21
419.1374839398905
 31
0.0
  0
LINE
  5
4F0F
330
1F
100
AcDbEntity
  8
SPOJOVACÍ
  6
DASHED
100
AcDbLine
 10
1868.441103433521
 20
420.3134121810872
 30
0.0
 11
1878.437405055244
 21
420.3134121810872
 31
0.0
  0
LINE
  5
4F10
330
1F
100
AcDbEntity
  8
SPOJOVACÍ
  6
DASHED
100
AcDbLine
 10
1868.441103433521
 20
419.1374839398905
 30
0.0
 11
1878.437405055244
 21
419.1374839398905
 31
0.0
  0
LINE
  5
4F11
330
1F
100
AcDbEntity
  8
SPOJOVACÍ
  6
DASHED
100
AcDbLine
 10
1872.700880700636
 20
384.6731811104292
 30
0.0
 11
1872.985291248887
 21
382.3988082722809
 31
0.0
  0
LINE
  5
4F12
330
1F
100
AcDbEntity
  8
SPOJOVACÍ
  6
DASHED
100
AcDbLine
 10
1873.856754352368
 20
382.1007241366643
 30
0.0
 11
1874.119287168113
 21
384.2028098139491
 31
0.0
  0
LINE
  5
4F13
330
1F
100
AcDbEntity
  8
SPOJOVACÍ
  6
DASHED
100
AcDbLine
 10
1873.439254244383
 20
378.7634580200957
 30
0.0
 11
1873.786563285889
 21
381.5428419013388
 31
0.0
  0
LINE
  5
4F14
330
1F
100
AcDbEntity
  8
SPOJOVACÍ
  6
DASHED
100
AcDbLine
 10
1873.060951749562
 20
381.7907895615445
 30
0.0
 11
1873.439254244383
 21
378.7634580200957
 31
0.0
  0
LINE
  5
4F15
330
1F
100
AcDbEntity
  8
SPOJOVACÍ
  6
DASHED
100
AcDbLine
 10
1872.442905745295
 20
382.0752001127331
 30
0.0
 11
1872.813004088821
 21
381.8609806269543
 31
0.0
  0
LINE
  5
4F16
330
1F
100
AcDbEntity
  8
SPOJOVACÍ
  6
DASHED
100
AcDbLine
 10
1872.442905745295
 20
382.0752001127331
 30
0.0
 11
1872.813004088821
 21
382.4452984583987
 31
0.0
  0
LINE
  5
4F17
330
1F
100
AcDbEntity
  8
SPOJOVACÍ
  6
DASHED
100
AcDbLine
 10
1874.554107143923
 20
381.7707349712747
 30
0.0
 11
1874.184008800396
 21
381.3997250534213
 31
0.0
  0
LINE
  5
4F18
330
1F
100
AcDbEntity
  8
SPOJOVACÍ
  6
DASHED
100
AcDbLine
 10
1874.554107143923
 20
381.7707349712747
 30
0.0
 11
1874.184008800396
 21
381.9840428848657
 31
0.0
  0
LINE
  5
4F19
330
1F
100
AcDbEntity
  8
SPOJOVACÍ
  6
DASHED
100
AcDbLine
 10
1872.813004088821
 20
381.8609806269543
 30
0.0
 11
1874.184008800396
 21
381.3997250534213
 31
0.0
  0
LINE
  5
4F1A
330
1F
100
AcDbEntity
  8
SPOJOVACÍ
  6
DASHED
100
AcDbLine
 10
1872.813004088821
 20
382.4452984583987
 30
0.0
 11
1874.184008800396
 21
381.9840428848657
 31
0.0
  0
LINE
  5
4F1B
330
1F
100
AcDbEntity
  8
SPOJOVACÍ
  6
DASHED
100
AcDbLine
 10
1872.442905745295
 20
382.0752001127331
 30
0.0
 11
1874.554107143923
 21
381.7707349712747
 31
0.0
  0
LINE
  5
4F1C
330
1F
100
AcDbEntity
  8
SPOJOVACÍ
  6
DASHED
100
AcDbLine
 10
1872.116562866781
 20
390.5701421888008
 30
0.0
 11
1872.116562866781
 21
389.34772376175
 31
0.0
  0
LINE
  5
4F1D
330
1F
100
AcDbEntity
  8
SPOJOVACÍ
  6
DASHED
100
AcDbLine
 10
1874.761945626262
 20
389.6777129268759
 30
0.0
 11
1874.761945626262
 21
389.34772376175
 31
0.0
  0
LINE
  5
4F1E
330
1F
100
AcDbEntity
  8
SPOJOVACÍ
  6
DASHED
100
AcDbLine
 10
1872.116562866781
 20
389.34772376175
 30
0.0
 11
1872.26332600345
 21
388.1745302373802
 31
0.0
  0
LINE
  5
4F1F
330
1F
100
AcDbEntity
  8
SPOJOVACÍ
  6
DASHED
100
AcDbLine
 10
1872.338986504125
 20
387.5665115266439
 30
0.0
 11
1872.623397056654
 21
385.2912271163005
 31
0.0
  0
LINE
  5
4F20
330
1F
100
AcDbEntity
  8
SPOJOVACÍ
  6
DASHED
100
AcDbLine
 10
1874.189478230314
 20
384.7634267661088
 30
0.0
 11
1874.451099476545
 21
386.8573082929052
 31
0.0
  0
LINE
  5
4F21
330
1F
100
AcDbEntity
  8
SPOJOVACÍ
  6
DASHED
100
AcDbLine
 10
1874.521290543024
 20
387.4161021006895
 30
0.0
 11
1874.761945626262
 21
389.34772376175
 31
0.0
  0
LINE
  5
4F22
330
1F
100
AcDbEntity
  8
SPOJOVACÍ
  6
DASHED
100
AcDbLine
 10
1871.336256997049
 20
387.9831000586983
 30
0.0
 11
1871.707266914368
 21
387.7688805729123
 31
0.0
  0
LINE
  5
4F23
330
1F
100
AcDbEntity
  8
SPOJOVACÍ
  6
DASHED
100
AcDbLine
 10
1871.336256997049
 20
387.9831000586983
 30
0.0
 11
1871.707266914368
 21
388.3531984043639
 31
0.0
  0
LINE
  5
4F24
330
1F
100
AcDbEntity
  8
SPOJOVACÍ
  6
DASHED
100
AcDbLine
 10
1875.379080056737
 20
387.0295954540398
 30
0.0
 11
1875.008981713211
 21
386.6585855359154
 31
0.0
  0
LINE
  5
4F25
330
1F
100
AcDbEntity
  8
SPOJOVACÍ
  6
DASHED
100
AcDbLine
 10
1875.379080056737
 20
387.0295954540398
 30
0.0
 11
1875.008981713211
 21
387.2429033673671
 31
0.0
  0
LINE
  5
4F26
330
1F
100
AcDbEntity
  8
SPOJOVACÍ
  6
DASHED
100
AcDbLine
 10
1871.707266914368
 20
387.7688805729123
 30
0.0
 11
1875.008981713211
 21
386.6585855359154
 31
0.0
  0
LINE
  5
4F27
330
1F
100
AcDbEntity
  8
SPOJOVACÍ
  6
DASHED
100
AcDbLine
 10
1871.707266914368
 20
388.3531984043639
 30
0.0
 11
1875.008981713211
 21
387.2429033673671
 31
0.0
  0
LINE
  5
4F28
330
1F
100
AcDbEntity
  8
SPOJOVACÍ
  6
DASHED
100
AcDbLine
 10
1871.336256997049
 20
387.9831000586983
 30
0.0
 11
1875.379080056737
 21
387.0295954540398
 31
0.0
  0
LINE
  5
4F29
330
1F
100
AcDbEntity
  8
SPOJOVACÍ
  6
DASHED
100
AcDbLine
 10
1871.889581369033
 20
385.0286942994863
 30
0.0
 11
1872.259679716838
 21
384.815386386159
 31
0.0
  0
LINE
  5
4F2A
330
1F
100
AcDbEntity
  8
SPOJOVACÍ
  6
DASHED
100
AcDbLine
 10
1871.889581369033
 20
385.0286942994863
 30
0.0
 11
1872.259679716838
 21
385.3997042176107
 31
0.0
  0
LINE
  5
4F2B
330
1F
100
AcDbEntity
  8
SPOJOVACÍ
  6
DASHED
100
AcDbLine
 10
1874.943348507136
 20
384.4079135770517
 30
0.0
 11
1874.573250163609
 21
384.0369036591983
 31
0.0
  0
LINE
  5
4F2C
330
1F
100
AcDbEntity
  8
SPOJOVACÍ
  6
DASHED
100
AcDbLine
 10
1874.943348507136
 20
384.4079135770517
 30
0.0
 11
1874.573250163609
 21
384.621221490379
 31
0.0
  0
LINE
  5
4F2D
330
1F
100
AcDbEntity
  8
SPOJOVACÍ
  6
DASHED
100
AcDbLine
 10
1872.259679716838
 20
384.815386386159
 30
0.0
 11
1874.573250163609
 21
384.0369036591983
 31
0.0
  0
LINE
  5
4F2E
330
1F
100
AcDbEntity
  8
SPOJOVACÍ
  6
DASHED
100
AcDbLine
 10
1872.259679716838
 20
385.3997042176107
 30
0.0
 11
1874.573250163609
 21
384.621221490379
 31
0.0
  0
LINE
  5
4F2F
330
1F
100
AcDbEntity
  8
SPOJOVACÍ
  6
DASHED
100
AcDbLine
 10
1871.889581369033
 20
385.0286942994863
 30
0.0
 11
1874.943348507136
 21
384.4079135770517
 31
0.0
  0
LINE
  5
4F30
330
1F
100
AcDbEntity
  8
SPOJOVACÍ
  6
DASHED
100
AcDbLine
 10
1871.087397762517
 20
390.9985811603656
 30
0.0
 11
1875.791110726249
 21
389.8226529194327
 31
0.0
  0
LINE
  5
4F31
330
1F
100
AcDbEntity
  8
SPOJOVACÍ
  6
DASHED
100
AcDbLine
 10
1871.087397762517
 20
390.9985811603656
 30
0.0
 11
1871.457496110321
 21
390.7852732470384
 31
0.0
  0
LINE
  5
4F32
330
1F
100
AcDbEntity
  8
SPOJOVACÍ
  6
DASHED
100
AcDbLine
 10
1871.087397762517
 20
390.9985811603656
 30
0.0
 11
1871.457496110321
 21
391.36959107849
 31
0.0
  0
LINE
  5
4F33
330
1F
100
AcDbEntity
  8
SPOJOVACÍ
  6
DASHED
100
AcDbLine
 10
1875.791110726249
 20
389.8226529194327
 30
0.0
 11
1875.421012382722
 21
389.452554573767
 31
0.0
  0
LINE
  5
4F34
330
1F
100
AcDbEntity
  8
SPOJOVACÍ
  6
DASHED
100
AcDbLine
 10
1875.791110726249
 20
389.8226529194327
 30
0.0
 11
1875.421012382722
 21
390.0368724052187
 31
0.0
  0
LINE
  5
4F35
330
1F
100
AcDbEntity
  8
SPOJOVACÍ
  6
DASHED
100
AcDbLine
 10
1871.457496110321
 20
390.7852732470384
 30
0.0
 11
1875.421012382722
 21
389.452554573767
 31
0.0
  0
LINE
  5
4F36
330
1F
100
AcDbEntity
  8
SPOJOVACÍ
  6
DASHED
100
AcDbLine
 10
1871.457496110321
 20
391.36959107849
 30
0.0
 11
1875.421012382722
 21
390.0368724052187
 31
0.0
  0
LINE
  5
4F37
330
1F
100
AcDbEntity
  8
SPOJOVACÍ
  6
DASHED
100
AcDbLine
 10
1872.116562866781
 20
393.622086181993
 30
0.0
 11
1872.116562866781
 21
391.1544600202525
 31
0.0
  0
LINE
  5
4F38
330
1F
100
AcDbEntity
  8
SPOJOVACÍ
  6
DASHED
100
AcDbLine
 10
1874.761945626262
 20
392.7378610705565
 30
0.0
 11
1874.761945626262
 21
390.2693233366282
 31
0.0
  0
LINE
  5
4F39
330
1F
100
AcDbEntity
  8
SPOJOVACÍ
  6
DASHED
100
AcDbLine
 10
1875.791110726249
 20
392.880977918474
 30
0.0
 11
1875.421012382722
 21
392.5099680006206
 31
0.0
  0
LINE
  5
4F3A
330
1F
100
AcDbEntity
  8
SPOJOVACÍ
  6
DASHED
100
AcDbLine
 10
1871.457496110321
 20
393.8426866736282
 30
0.0
 11
1875.421012382722
 21
392.5099680006206
 31
0.0
  0
HATCH
  5
4F3B
330
1F
100
AcDbEntity
  8
nášlap_vrstvy
100
AcDbHatch
 10
0.0
 20
0.0
 30
0.0
210
0.0
220
0.0
230
1.0
  2
SOLID
 70
     1
 71
     0
 91
        1
 92
        7
 72
     0
 73
     1
 93
        4
 10
1922.131878020937
 20
421.8134121810875
 10
1910.311011666022
 20
421.8134121810875
 10
1910.311011666018
 20
420.3134121810875
 10
1922.131878020937
 20
420.3134121810875
 97
        0
 75
     0
 76
     1
 47
0.1901250437635136
 98
        1
 10
1914.989909045191
 20
421.4050064055475
  0
TEXT
  5
4F3C
330
1F
100
AcDbEntity
  8
POPIS
100
AcDbText
 10
2009.477371963891
 20
311.7274392383918
 30
0.0
 40
25.0
  1
08
 41
0.85
  7
SIMPLEX7
100
AcDbText
  0
TEXT
  5
4F3D
330
1F
100
AcDbEntity
  8
POPIS
100
AcDbText
 10
2008.594600963858
 20
346.6663699617405
 30
0.0
 40
25.0
  1
07
 41
0.85
  7
SIMPLEX7
100
AcDbText
  0
TEXT
  5
4F3E
330
1F
100
AcDbEntity
  8
POPIS
100
AcDbText
 10
2008.594600963858
 20
381.7926612598333
 30
0.0
 40
25.0
  1
06
 41
0.85
  7
SIMPLEX7
100
AcDbText
  0
TEXT
  5
4F3F
330
1F
100
AcDbEntity
  8
POPIS
100
AcDbText
 10
2009.477371963891
 20
279.9685326357634
 30
0.0
 40
25.0
  1
09
 41
0.85
  7
SIMPLEX7
100
AcDbText
  0
TEXT
  5
4F40
330
1F
100
AcDbEntity
  8
POPIS
100
AcDbText
 10
2008.594600963858
 20
563.3515008196722
 30
0.0
 40
25.0
  1
01
 41
0.85
  7
SIMPLEX7
100
AcDbText
  0
TEXT
  5
4F41
330
1F
100
AcDbEntity
  8
POPIS
100
AcDbText
 10
2008.594600963858
 20
453.4682429482948
 30
0.0
 40
25.0
  1
04
 41
0.85
  7
SIMPLEX7
100
AcDbText
  0
TEXT
  5
4F42
330
1F
100
AcDbEntity
  8
POPIS
100
AcDbText
 10
2008.594600963858
 20
488.8724041664576
 30
0.0
 40
25.0
  1
03
 41
0.85
  7
SIMPLEX7
100
AcDbText
  0
TEXT
  5
4F43
330
1F
100
AcDbEntity
  8
POPIS
100
AcDbText
 10
2008.594600963858
 20
526.7564892040448
 30
0.0
 40
25.0
  1
02
 41
0.85
  7
SIMPLEX7
100
AcDbText
  0
CIRCLE
  5
4F44
330
1F
100
AcDbEntity
  8
POPIS
100
AcDbCircle
 10
2356.183767090081
 20
403.2817485733802
 30
0.0
 40
7.795592338044182
  0
TEXT
  5
4F45
330
1F
100
AcDbEntity
  8
POPIS
100
AcDbText
 10
2352.852446751453
 20
399.4000065518875
 30
0.0
 40
8.399999999999998
  1
R
 41
0.85
  7
SIMPLEX7
100
AcDbText
  0
ENDSEC
  0
SECTION
  2
OBJECTS
  0
DICTIONARY
  5
C
330
0
100
AcDbDictionary
281
     1
  3
ACAD_GROUP
350
D
  3
ACAD_LAYOUT
350
1A
  3
ACAD_MLINESTYLE
350
17
  3
ACAD_PLOTSETTINGS
350
19
  3
ACAD_PLOTSTYLENAME
350
E
  3
AcDbVariableDictionary
350
4F9E
  0
DICTIONARY
  5
D
102
{ACAD_REACTORS
330
C
102
}
330
C
100
AcDbDictionary
281
     1
  0
DICTIONARY
  5
1A
102
{ACAD_REACTORS
330
C
102
}
330
C
100
AcDbDictionary
281
     1
  3
Model
350
22
  3
Rozvržení1
350
1E
  3
Rozvržení2
350
26
  0
DICTIONARY
  5
17
102
{ACAD_REACTORS
330
C
102
}
330
C
100
AcDbDictionary
281
     1
  3
Standard
350
18
  0
DICTIONARY
  5
19
102
{ACAD_REACTORS
330
C
102
}
330
C
100
AcDbDictionary
281
     1
  0
ACDBDICTIONARYWDFLT
  5
E
102
{ACAD_REACTORS
330
C
102
}
330
C
100
AcDbDictionary
281
     1
  3
Normal
350
F
100
AcDbDictionaryWithDefault
340
F
  0
DICTIONARY
  5
4F9E
102
{ACAD_REACTORS
330
C
102
}
330
C
100
AcDbDictionary
281
     1
  3
DIMASSOC
350
4F9F
  0
LAYOUT
  5
22
102
{ACAD_REACTORS
330
1A
102
}
330
1A
100
AcDbPlotSettings
  1

  2
HP DeskJet 690C
  4

  6

 40
0.0
 41
0.0
 42
0.0
 43
0.0
 44
0.0
 45
0.0
 46
0.0
 47
0.0
 48
0.0
 49
0.0
140
0.0
141
0.0
142
1.0
143
1.0
 70
  1712
 72
     0
 73
     0
 74
     0
  7
monochrome.ctb
 75
     0
147
1.0
148
0.0
149
0.0
100
AcDbLayout
  1
Model
 70
     1
 71
     0
 10
0.0
 20
0.0
 11
12.0
 21
9.0
 12
0.0
 22
0.0
 32
0.0
 14
0.0
 24
0.0
 34
0.0
 15
0.0
 25
0.0
 35
0.0
146
0.0
 13
0.0
 23
0.0
 33
0.0
 16
1.0
 26
0.0
 36
0.0
 17
0.0
 27
1.0
 37
0.0
 76
     0
330
1F
  0
LAYOUT
  5
1E
102
{ACAD_REACTORS
330
1A
102
}
330
1A
100
AcDbPlotSettings
  1

  2
HP DeskJet 690C
  4

  6

 40
0.0
 41
0.0
 42
0.0
 43
0.0
 44
0.0
 45
0.0
 46
0.0
 47
0.0
 48
0.0
 49
0.0
140
0.0
141
0.0
142
1.0
143
1.0
 70
   688
 72
     0
 73
     0
 74
     5
  7
monochrome.ctb
 75
    16
147
1.0
148
0.0
149
0.0
100
AcDbLayout
  1
Rozvržení1
 70
     1
 71
     1
 10
0.0
 20
0.0
 11
420.0
 21
297.0
 12
0.0
 22
0.0
 32
0.0
 14
1.000000000000000E+20
 24
1.000000000000000E+20
 34
1.000000000000000E+20
 15
-1.000000000000000E+20
 25
-1.000000000000000E+20
 35
-1.000000000000000E+20
146
0.0
 13
0.0
 23
0.0
 33
0.0
 16
1.0
 26
0.0
 36
0.0
 17
0.0
 27
1.0
 37
0.0
 76
     0
330
1B
  0
LAYOUT
  5
26
102
{ACAD_REACTORS
330
1A
102
}
330
1A
100
AcDbPlotSettings
  1

  2
HP DeskJet 690C
  4

  6

 40
0.0
 41
0.0
 42
0.0
 43
0.0
 44
0.0
 45
0.0
 46
0.0
 47
0.0
 48
0.0
 49
0.0
140
0.0
141
0.0
142
1.0
143
1.0
 70
   688
 72
     0
 73
     0
 74
     5
  7
monochrome.ctb
 75
    16
147
1.0
148
0.0
149
0.0
100
AcDbLayout
  1
Rozvržení2
 70
     1
 71
     2
 10
0.0
 20
0.0
 11
12.0
 21
9.0
 12
0.0
 22
0.0
 32
0.0
 14
0.0
 24
0.0
 34
0.0
 15
0.0
 25
0.0
 35
0.0
146
0.0
 13
0.0
 23
0.0
 33
0.0
 16
1.0
 26
0.0
 36
0.0
 17
0.0
 27
1.0
 37
0.0
 76
     0
330
23
  0
MLINESTYLE
  5
18
102
{ACAD_REACTORS
330
17
102
}
330
17
100
AcDbMlineStyle
  2
STANDARD
 70
     0
  3

 62
   256
 51
90.0
 52
90.0
 71
     2
 49
0.5
 62
   256
  6
BYLAYER
 49
-0.5
 62
   256
  6
BYLAYER
  0
ACDBPLACEHOLDER
  5
F
102
{ACAD_REACTORS
330
E
102
}
330
E
  0
DICTIONARYVAR
  5
4F9F
102
{ACAD_REACTORS
330
4F9E
102
}
330
4F9E
100
DictionaryVariables
280
     0
  1
1
  0
ENDSEC
  0
EOF
