  0
SECTION
  2
HEADER
  9
$ACADVER
  1
AC1015
  9
$ACADMAINTVER
 70
    13
  9
$DWGCODEPAGE
  3
ANSI_1250
  9
$INSBASE
 10
0.0
 20
0.0
 30
0.0
  9
$EXTMIN
 10
-118.2666800760077
 20
-366.1089127499587
 30
0.0
  9
$EXTMAX
 10
2429.664213541368
 20
883.0841059257679
 30
0.0
  9
$LIMMIN
 10
0.0
 20
0.0
  9
$LIMMAX
 10
420.0
 20
297.0
  9
$ORTHOMODE
 70
     0
  9
$REGENMODE
 70
     1
  9
$FILLMODE
 70
     1
  9
$QTEXTMODE
 70
     0
  9
$MIRRTEXT
 70
     1
  9
$LTSCALE
 40
1.0
  9
$ATTMODE
 70
     1
  9
$TEXTSIZE
 40
2.5
  9
$TRACEWID
 40
1.0
  9
$TEXTSTYLE
  7
Standard
  9
$CLAYER
  8
0
  9
$CELTYPE
  6
ByLayer
  9
$CECOLOR
 62
   256
  9
$CELTSCALE
 40
1.0
  9
$DISPSILH
 70
     0
  9
$DIMSCALE
 40
1.0
  9
$DIMASZ
 40
2.5
  9
$DIMEXO
 40
0.625
  9
$DIMDLI
 40
3.75
  9
$DIMRND
 40
0.0
  9
$DIMDLE
 40
0.0
  9
$DIMEXE
 40
1.25
  9
$DIMTP
 40
0.0
  9
$DIMTM
 40
0.0
  9
$DIMTXT
 40
2.5
  9
$DIMCEN
 40
2.5
  9
$DIMTSZ
 40
0.0
  9
$DIMTOL
 70
     0
  9
$DIMLIM
 70
     0
  9
$DIMTIH
 70
     0
  9
$DIMTOH
 70
     0
  9
$DIMSE1
 70
     0
  9
$DIMSE2
 70
     0
  9
$DIMTAD
 70
     1
  9
$DIMZIN
 70
     8
  9
$DIMBLK
  1

  9
$DIMASO
 70
     1
  9
$DIMSHO
 70
     1
  9
$DIMPOST
  1

  9
$DIMAPOST
  1

  9
$DIMALT
 70
     0
  9
$DIMALTD
 70
     3
  9
$DIMALTF
 40
0.03937007874016
  9
$DIMLFAC
 40
1.0
  9
$DIMTOFL
 70
     1
  9
$DIMTVP
 40
0.0
  9
$DIMTIX
 70
     0
  9
$DIMSOXD
 70
     0
  9
$DIMSAH
 70
     0
  9
$DIMBLK1
  1

  9
$DIMBLK2
  1

  9
$DIMSTYLE
  2
ISO-25
  9
$DIMCLRD
 70
     0
  9
$DIMCLRE
 70
     0
  9
$DIMCLRT
 70
     0
  9
$DIMTFAC
 40
1.0
  9
$DIMGAP
 40
0.625
  9
$DIMJUST
 70
     0
  9
$DIMSD1
 70
     0
  9
$DIMSD2
 70
     0
  9
$DIMTOLJ
 70
     0
  9
$DIMTZIN
 70
     8
  9
$DIMALTZ
 70
     0
  9
$DIMALTTZ
 70
     0
  9
$DIMUPT
 70
     0
  9
$DIMDEC
 70
     2
  9
$DIMTDEC
 70
     2
  9
$DIMALTU
 70
     2
  9
$DIMALTTD
 70
     3
  9
$DIMTXSTY
  7
Standard
  9
$DIMAUNIT
 70
     0
  9
$DIMADEC
 70
     0
  9
$DIMALTRND
 40
0.0
  9
$DIMAZIN
 70
     0
  9
$DIMDSEP
 70
    44
  9
$DIMATFIT
 70
     3
  9
$DIMFRAC
 70
     0
  9
$DIMLDRBLK
  1

  9
$DIMLUNIT
 70
     2
  9
$DIMLWD
 70
    -2
  9
$DIMLWE
 70
    -2
  9
$DIMTMOVE
 70
     0
  9
$LUNITS
 70
     2
  9
$LUPREC
 70
     4
  9
$SKETCHINC
 40
1.0
  9
$FILLETRAD
 40
10.0
  9
$AUNITS
 70
     0
  9
$AUPREC
 70
     0
  9
$MENU
  1
.
  9
$ELEVATION
 40
0.0
  9
$PELEVATION
 40
0.0
  9
$THICKNESS
 40
0.0
  9
$LIMCHECK
 70
     0
  9
$CHAMFERA
 40
10.0
  9
$CHAMFERB
 40
10.0
  9
$CHAMFERC
 40
20.0
  9
$CHAMFERD
 40
0.0
  9
$SKPOLY
 70
     0
  9
$TDCREATE
 40
2452332.468649768
  9
$TDUCREATE
 40
2452332.426983101
  9
$TDUPDATE
 40
2455595.841152523
  9
$TDUUPDATE
 40
2455595.799485856
  9
$TDINDWG
 40
0.0384947454
  9
$TDUSRTIMER
 40
0.0384921991
  9
$USRTIMER
 70
     1
  9
$ANGBASE
 50
0.0
  9
$ANGDIR
 70
     0
  9
$PDMODE
 70
     0
  9
$PDSIZE
 40
0.0
  9
$PLINEWID
 40
0.0
  9
$SPLFRAME
 70
     0
  9
$SPLINETYPE
 70
     6
  9
$SPLINESEGS
 70
     8
  9
$HANDSEED
  5
4957
  9
$SURFTAB1
 70
     6
  9
$SURFTAB2
 70
     6
  9
$SURFTYPE
 70
     6
  9
$SURFU
 70
     6
  9
$SURFV
 70
     6
  9
$UCSBASE
  2

  9
$UCSNAME
  2

  9
$UCSORG
 10
0.0
 20
0.0
 30
0.0
  9
$UCSXDIR
 10
1.0
 20
0.0
 30
0.0
  9
$UCSYDIR
 10
0.0
 20
1.0
 30
0.0
  9
$UCSORTHOREF
  2

  9
$UCSORTHOVIEW
 70
     0
  9
$UCSORGTOP
 10
0.0
 20
0.0
 30
0.0
  9
$UCSORGBOTTOM
 10
0.0
 20
0.0
 30
0.0
  9
$UCSORGLEFT
 10
0.0
 20
0.0
 30
0.0
  9
$UCSORGRIGHT
 10
0.0
 20
0.0
 30
0.0
  9
$UCSORGFRONT
 10
0.0
 20
0.0
 30
0.0
  9
$UCSORGBACK
 10
0.0
 20
0.0
 30
0.0
  9
$PUCSBASE
  2

  9
$PUCSNAME
  2

  9
$PUCSORG
 10
0.0
 20
0.0
 30
0.0
  9
$PUCSXDIR
 10
1.0
 20
0.0
 30
0.0
  9
$PUCSYDIR
 10
0.0
 20
1.0
 30
0.0
  9
$PUCSORTHOREF
  2

  9
$PUCSORTHOVIEW
 70
     0
  9
$PUCSORGTOP
 10
0.0
 20
0.0
 30
0.0
  9
$PUCSORGBOTTOM
 10
0.0
 20
0.0
 30
0.0
  9
$PUCSORGLEFT
 10
0.0
 20
0.0
 30
0.0
  9
$PUCSORGRIGHT
 10
0.0
 20
0.0
 30
0.0
  9
$PUCSORGFRONT
 10
0.0
 20
0.0
 30
0.0
  9
$PUCSORGBACK
 10
0.0
 20
0.0
 30
0.0
  9
$USERI1
 70
     0
  9
$USERI2
 70
     0
  9
$USERI3
 70
     0
  9
$USERI4
 70
     0
  9
$USERI5
 70
     0
  9
$USERR1
 40
0.0
  9
$USERR2
 40
0.0
  9
$USERR3
 40
0.0
  9
$USERR4
 40
0.0
  9
$USERR5
 40
0.0
  9
$WORLDVIEW
 70
     1
  9
$SHADEDGE
 70
     3
  9
$SHADEDIF
 70
    70
  9
$TILEMODE
 70
     1
  9
$MAXACTVP
 70
    64
  9
$PINSBASE
 10
0.0
 20
0.0
 30
0.0
  9
$PLIMCHECK
 70
     0
  9
$PEXTMIN
 10
1.000000000000000E+20
 20
1.000000000000000E+20
 30
1.000000000000000E+20
  9
$PEXTMAX
 10
-1.000000000000000E+20
 20
-1.000000000000000E+20
 30
-1.000000000000000E+20
  9
$PLIMMIN
 10
0.0
 20
0.0
  9
$PLIMMAX
 10
420.0
 20
297.0
  9
$UNITMODE
 70
     0
  9
$VISRETAIN
 70
     1
  9
$PLINEGEN
 70
     0
  9
$PSLTSCALE
 70
     1
  9
$TREEDEPTH
 70
  3020
  9
$CMLSTYLE
  2
Standard
  9
$CMLJUST
 70
     0
  9
$CMLSCALE
 40
20.0
  9
$PROXYGRAPHICS
 70
     1
  9
$MEASUREMENT
 70
     1
  9
$CELWEIGHT
370
    -1
  9
$ENDCAPS
280
     0
  9
$JOINSTYLE
280
     0
  9
$LWDISPLAY
290
     0
  9
$INSUNITS
 70
     4
  9
$HYPERLINKBASE
  1

  9
$STYLESHEET
  1

  9
$XEDIT
290
     1
  9
$CEPSNTYPE
380
     0
  9
$PSTYLEMODE
290
     1
  9
$FINGERPRINTGUID
  2
{A3477950-F6EC-44A0-8776-592C40033ABE}
  9
$VERSIONGUID
  2
{126F2264-8096-4DF9-BDD5-1EDF116F38D0}
  9
$EXTNAMES
290
     1
  9
$PSVPSCALE
 40
0.0
  9
$OLESTARTUP
290
     0
  0
ENDSEC
  0
SECTION
  2
CLASSES
  0
CLASS
  1
ACDBDICTIONARYWDFLT
  2
AcDbDictionaryWithDefault
  3
AutoCAD 2000
 90
        0
280
     0
281
     0
  0
CLASS
  1
ACDBPLACEHOLDER
  2
AcDbPlaceHolder
  3
AutoCAD 2000
 90
        0
280
     0
281
     0
  0
CLASS
  1
LAYOUT
  2
AcDbLayout
  3
AutoCAD 2000
 90
        0
280
     0
281
     0
  0
CLASS
  1
DICTIONARYVAR
  2
AcDbDictionaryVar
  3
AutoCAD 2000
 90
        0
280
     0
281
     0
  0
ENDSEC
  0
SECTION
  2
TABLES
  0
TABLE
  2
VPORT
  5
8
330
0
100
AcDbSymbolTable
 70
     2
  0
VPORT
  5
4956
330
8
100
AcDbSymbolTableRecord
100
AcDbViewportTableRecord
  2
*Active
 70
     0
 10
0.0
 20
0.0
 11
1.0
 21
1.0
 12
1541.385522558088
 22
333.91930947534
 13
0.0
 23
0.0
 14
10.0
 24
10.0
 15
10.0
 25
10.0
 16
0.0
 26
0.0
 36
1.0
 17
0.0
 27
0.0
 37
0.0
 40
822.8974237929559
 41
2.229559748427672
 42
50.0
 43
0.0
 44
0.0
 50
0.0
 51
0.0
 71
     0
 72
   100
 73
     1
 74
     3
 75
     0
 76
     0
 77
     0
 78
     0
281
     0
 65
     1
110
0.0
120
0.0
130
0.0
111
1.0
121
0.0
131
0.0
112
0.0
122
1.0
132
0.0
 79
     0
146
0.0
  0
ENDTAB
  0
TABLE
  2
LTYPE
  5
5
330
0
100
AcDbSymbolTable
 70
     3
  0
LTYPE
  5
14
330
5
100
AcDbSymbolTableRecord
100
AcDbLinetypeTableRecord
  2
ByBlock
 70
     0
  3

 72
    65
 73
     0
 40
0.0
  0
LTYPE
  5
15
330
5
100
AcDbSymbolTableRecord
100
AcDbLinetypeTableRecord
  2
ByLayer
 70
     0
  3

 72
    65
 73
     0
 40
0.0
  0
LTYPE
  5
16
330
5
100
AcDbSymbolTableRecord
100
AcDbLinetypeTableRecord
  2
Continuous
 70
     0
  3
Solid line
 72
    65
 73
     0
 40
0.0
  0
LTYPE
  5
4242
330
5
100
AcDbSymbolTableRecord
100
AcDbLinetypeTableRecord
  2
DASHED
 70
     0
  3
Dashed __ __ __ __ __ __ __ __ __ __ __ __ __ _
 72
    65
 73
     2
 40
19.04999999999999
 49
12.7
 74
     0
 49
-6.349999999999999
 74
     0
  0
LTYPE
  5
4243
330
5
100
AcDbSymbolTableRecord
100
AcDbLinetypeTableRecord
  2
IZOLACE
 70
     0
  3
Izolace SSSSSSSSSSSSSSSSSSSSSSSSSSSSSSSSSSSSSSS
 72
    65
 73
     4
 40
10.16253999999999
 49
0.00254
 74
     0
 49
-2.54
 74
     4
 75
   134
340
424B
 46
2.54
 50
0.0
 44
-2.54
 45
0.0
 49
-5.08
 74
     4
 75
   134
340
424B
 46
2.54
 50
180.0
 44
2.54
 45
0.0
 49
-2.54
 74
     0
  0
ENDTAB
  0
TABLE
  2
LAYER
  5
2
330
0
100
AcDbSymbolTable
 70
     7
  0
LAYER
  5
10
330
2
100
AcDbSymbolTableRecord
100
AcDbLayerTableRecord
  2
0
 70
     0
 62
     7
  6
Continuous
370
    -3
390
F
  0
LAYER
  5
4244
330
2
100
AcDbSymbolTableRecord
100
AcDbLayerTableRecord
  2
POPIS
 70
     0
 62
    30
  6
Continuous
370
    -3
390
F
  0
LAYER
  5
4245
330
2
100
AcDbSymbolTableRecord
100
AcDbLayerTableRecord
  2
SPOJOVACÍ
 70
     0
 62
   180
  6
Continuous
370
    -3
390
F
  0
LAYER
  5
4246
330
2
100
AcDbSymbolTableRecord
100
AcDbLayerTableRecord
  2
CETRIS
 70
     0
 62
     1
  6
Continuous
370
    -3
390
F
  0
LAYER
  5
4247
330
2
100
AcDbSymbolTableRecord
100
AcDbLayerTableRecord
  2
izolace
 70
     0
 62
    33
  6
Continuous
370
    -3
390
F
  0
LAYER
  5
4248
330
2
100
AcDbSymbolTableRecord
100
AcDbLayerTableRecord
  2
nášlap_vrstvy
 70
     0
 62
    73
  6
Continuous
370
    -3
390
F
  0
LAYER
  5
4249
330
2
100
AcDbSymbolTableRecord
100
AcDbLayerTableRecord
  2
STAVBA OBRYS
 70
     0
 62
     6
  6
Continuous
370
    -3
390
F
  0
ENDTAB
  0
TABLE
  2
STYLE
  5
3
330
0
100
AcDbSymbolTable
 70
     3
  0
STYLE
  5
11
330
3
100
AcDbSymbolTableRecord
100
AcDbTextStyleTableRecord
  2
Standard
 70
     0
 40
0.0
 41
1.0
 50
0.0
 71
     0
 42
2.5
  3
txt
  4

  0
STYLE
  5
424A
330
3
100
AcDbSymbolTableRecord
100
AcDbTextStyleTableRecord
  2
SIMPLEX7
 70
     0
 40
0.0
 41
0.85
 50
0.0
 71
     0
 42
102.0
  3
ARIAL.TTF
  4

1001
ACAD
1000
Arial CE
1071
    60962
  0
STYLE
  5
424B
330
3
100
AcDbSymbolTableRecord
100
AcDbTextStyleTableRecord
  2

 70
     1
 40
0.0
 41
1.0
 50
0.0
 71
     0
 42
2.5
  3
ltypeshp.shx
  4

  0
ENDTAB
  0
TABLE
  2
VIEW
  5
6
330
0
100
AcDbSymbolTable
 70
     0
  0
ENDTAB
  0
TABLE
  2
UCS
  5
7
330
0
100
AcDbSymbolTable
 70
     0
  0
ENDTAB
  0
TABLE
  2
APPID
  5
9
330
0
100
AcDbSymbolTable
 70
     1
  0
APPID
  5
12
330
9
100
AcDbSymbolTableRecord
100
AcDbRegAppTableRecord
  2
ACAD
 70
     0
  0
ENDTAB
  0
TABLE
  2
DIMSTYLE
  5
A
330
0
100
AcDbSymbolTable
 70
     1
100
AcDbDimStyleTable
 71
     0
  0
DIMSTYLE
105
27
330
A
100
AcDbSymbolTableRecord
100
AcDbDimStyleTableRecord
  2
ISO-25
 70
     0
 41
2.5
 42
0.625
 43
3.75
 44
1.25
 73
     0
 74
     0
 77
     1
 78
     8
140
2.5
141
2.5
143
0.03937007874016
147
0.625
171
     3
172
     1
271
     2
272
     2
274
     3
278
    44
283
     0
284
     8
340
11
  0
ENDTAB
  0
TABLE
  2
BLOCK_RECORD
  5
1
330
0
100
AcDbSymbolTable
 70
     2
  0
BLOCK_RECORD
  5
1F
330
1
100
AcDbSymbolTableRecord
100
AcDbBlockTableRecord
  2
*Model_Space
340
22
  0
BLOCK_RECORD
  5
1B
330
1
100
AcDbSymbolTableRecord
100
AcDbBlockTableRecord
  2
*Paper_Space
340
1E
  0
BLOCK_RECORD
  5
23
330
1
100
AcDbSymbolTableRecord
100
AcDbBlockTableRecord
  2
*Paper_Space0
340
26
  0
BLOCK_RECORD
  5
423E
330
1
100
AcDbSymbolTableRecord
100
AcDbBlockTableRecord
  2
E_PUNKT
340
0
102
{BLKREFS
331
4743
331
4773
331
477C
331
477F
331
4824
331
4603
331
4678
331
467E
331
470B
102
}
  0
ENDTAB
  0
ENDSEC
  0
SECTION
  2
BLOCKS
  0
BLOCK
  5
20
330
1F
100
AcDbEntity
  8
0
100
AcDbBlockBegin
  2
*Model_Space
 70
     0
 10
0.0
 20
0.0
 30
0.0
  3
*Model_Space
  1

  0
ENDBLK
  5
21
330
1F
100
AcDbEntity
  8
0
100
AcDbBlockEnd
  0
BLOCK
  5
1C
330
1B
100
AcDbEntity
 67
     1
  8
0
100
AcDbBlockBegin
  2
*Paper_Space
 70
     0
 10
0.0
 20
0.0
 30
0.0
  3
*Paper_Space
  1

  0
ENDBLK
  5
1D
330
1B
100
AcDbEntity
 67
     1
  8
0
100
AcDbBlockEnd
  0
BLOCK
  5
24
330
23
100
AcDbEntity
  8
0
100
AcDbBlockBegin
  2
*Paper_Space0
 70
     0
 10
0.0
 20
0.0
 30
0.0
  3
*Paper_Space0
  1

  0
ENDBLK
  5
25
330
23
100
AcDbEntity
  8
0
100
AcDbBlockEnd
  0
BLOCK
  5
4240
330
423E
100
AcDbEntity
  8
0
100
AcDbBlockBegin
  2
E_PUNKT
 70
     0
 10
0.0
 20
0.0
 30
0.0
  3
E_PUNKT
  1

  0
LWPOLYLINE
  5
423F
330
423E
100
AcDbEntity
  8
POPIS
100
AcDbPolyline
 90
        2
 70
     1
 43
2.5
 10
1.27761037562675
 20
0.0290683308725193
 42
-1.0
 10
-1.222389624373249
 20
0.0290683308725193
 42
-1.0
  0
ENDBLK
  5
4241
330
423E
100
AcDbEntity
  8
0
100
AcDbBlockEnd
  0
ENDSEC
  0
SECTION
  2
ENTITIES
  0
LINE
  5
459B
330
1F
100
AcDbEntity
  8
STAVBA OBRYS
100
AcDbLine
 10
996.6811240075188
 20
267.6420599373793
 30
0.0
 11
1821.673817278781
 21
267.6420599373784
 31
0.0
  0
POLYLINE
  5
459C
330
1F
100
AcDbEntity
  8
STAVBA OBRYS
100
AcDb2dPolyline
 66
     1
 10
0.0
 20
0.0
 30
0.0
  0
VERTEX
  5
459D
330
459C
100
AcDbEntity
  8
STAVBA OBRYS
100
AcDbVertex
100
AcDb2dVertex
 10
1416.096577635055
 20
267.6420599373793
 30
0.0
 42
-0.0094186890201653
  0
VERTEX
  5
459E
330
459C
100
AcDbEntity
  8
STAVBA OBRYS
100
AcDbVertex
100
AcDb2dVertex
 10
1416.443376197929
 20
267.8007328081473
 30
0.0
 42
-0.0322692699774654
  0
VERTEX
  5
459F
330
459C
100
AcDbEntity
  8
STAVBA OBRYS
100
AcDbVertex
100
AcDb2dVertex
 10
1419.33473037902
 20
268.8422563095479
 30
0.0
 42
-0.0276160659512937
  0
VERTEX
  5
45A0
330
459C
100
AcDbEntity
  8
STAVBA OBRYS
100
AcDbVertex
100
AcDb2dVertex
 10
1420.190306817307
 20
269.0389917384925
 30
0.0
 42
-0.0126891984598699
  0
VERTEX
  5
45A1
330
459C
100
AcDbEntity
  8
STAVBA OBRYS
100
AcDbVertex
100
AcDb2dVertex
 10
1421.113475213098
 20
269.174194128034
 30
0.0
  0
SEQEND
  5
45A2
330
459C
100
AcDbEntity
  8
STAVBA OBRYS
  0
LWPOLYLINE
  5
45A3
330
1F
100
AcDbEntity
  8
STAVBA OBRYS
100
AcDbPolyline
 90
        8
 70
     0
 43
0.0
 10
1398.691380298203
 20
267.6420599373793
 42
-0.0217273703039143
 10
1400.889050558713
 20
272.677750274857
 42
-0.0882970623535771
 10
1402.526272478806
 20
274.9181193256569
 42
-0.0171636441953577
 10
1405.339636540664
 20
277.4320366809021
 42
-0.0157521173632038
 10
1408.5784913777
 20
279.9635327334087
 42
-0.0073640874174249
 10
1413.212140734022
 20
283.2519341591448
 42
-0.0194185739168057
 10
1415.034184053698
 20
284.4035031584259
 42
-0.0229547400386702
 10
1417.419642117713
 20
285.6420599373793
  0
POLYLINE
  5
45A4
330
1F
100
AcDbEntity
  8
STAVBA OBRYS
100
AcDb2dPolyline
 66
     1
 10
0.0
 20
0.0
 30
0.0
  0
VERTEX
  5
45A5
330
45A4
100
AcDbEntity
  8
STAVBA OBRYS
100
AcDbVertex
100
AcDb2dVertex
 10
1407.043431685519
 20
267.6420599373793
 30
0.0
 42
-0.0502247168465557
  0
VERTEX
  5
45A6
330
45A4
100
AcDbEntity
  8
STAVBA OBRYS
100
AcDbVertex
100
AcDb2dVertex
 10
1408.642478861684
 20
269.6495306101021
 30
0.0
 42
-0.0274923553235744
  0
VERTEX
  5
45A7
330
45A4
100
AcDbEntity
  8
STAVBA OBRYS
100
AcDbVertex
100
AcDb2dVertex
 10
1411.239784592237
 20
272.0346059332402
 30
0.0
 42
-0.0255412025538677
  0
VERTEX
  5
45A8
330
45A4
100
AcDbEntity
  8
STAVBA OBRYS
100
AcDbVertex
100
AcDb2dVertex
 10
1414.291214629948
 20
274.291319610256
 30
0.0
 42
-0.0272796991712396
  0
VERTEX
  5
45A9
330
45A4
100
AcDbEntity
  8
STAVBA OBRYS
100
AcDbVertex
100
AcDb2dVertex
 10
1418.404213783133
 20
276.7076554919219
 30
0.0
 42
-0.056967459841729
  0
VERTEX
  5
45AA
330
45A4
100
AcDbEntity
  8
STAVBA OBRYS
100
AcDbVertex
100
AcDb2dVertex
 10
1420.545161063865
 20
277.5203913271213
 30
0.0
 42
-0.0373408083348504
  0
VERTEX
  5
45AB
330
45A4
100
AcDbEntity
  8
STAVBA OBRYS
100
AcDbVertex
100
AcDb2dVertex
 10
1420.767515439338
 20
277.5595568680689
 30
0.0
 42
-0.0052305969362967
  0
VERTEX
  5
45AC
330
45A4
100
AcDbEntity
  8
STAVBA OBRYS
100
AcDbVertex
100
AcDb2dVertex
 10
1421.113475213098
 20
277.5905138349732
 30
0.0
  0
SEQEND
  5
45AD
330
45A4
100
AcDbEntity
  8
STAVBA OBRYS
  0
LWPOLYLINE
  5
45AE
330
1F
100
AcDbEntity
  8
izolace
100
AcDbPolyline
 90
        4
 70
     0
 43
0.0
 10
1821.121610009006
 20
285.6420599373788
 10
1146.264451871701
 20
285.6420599373788
 10
1146.264451871701
 20
288.6420599373788
 10
1821.029575464043
 20
288.6420599373788
  0
LINE
  5
45AF
330
1F
100
AcDbEntity
  8
STAVBA OBRYS
100
AcDbLine
 10
1121.264451871708
 20
285.6420599373793
 30
0.0
 11
1821.121610009006
 21
285.6420599373788
 31
0.0
  0
TEXT
  5
45B0
330
1F
100
AcDbEntity
  8
POPIS
100
AcDbText
 10
852.9216024383661
 20
681.2297479903861
 30
0.0
 40
50.0
  1
Podlahová krytina - keramická dlažba
 41
0.85
  7
SIMPLEX7
100
AcDbText
  0
LINE
  5
45B1
330
1F
100
AcDbEntity
  8
SPOJOVACÍ
  6
DASHED
100
AcDbLine
 10
1407.724155712967
 20
312.2237975090685
 30
0.0
 11
1417.72045733469
 21
312.2237975090685
 31
0.0
  0
LINE
  5
45B2
330
1F
100
AcDbEntity
  8
SPOJOVACÍ
  6
DASHED
100
AcDbLine
 10
1407.724155712967
 20
313.3997257502652
 30
0.0
 11
1417.72045733469
 21
313.3997257502652
 31
0.0
  0
LINE
  5
45B3
330
1F
100
AcDbEntity
  8
SPOJOVACÍ
  6
DASHED
100
AcDbLine
 10
1415.807067119524
 20
310.9940865037098
 30
0.0
 11
1417.019458252245
 21
311.8938083439426
 31
0.0
  0
LWPOLYLINE
  5
45B4
330
1F
100
AcDbEntity
  8
nášlap_vrstvy
100
AcDbPolyline
 90
        4
 70
     1
 43
0.0
 10
1385.636332087515
 20
318.7605979264442
 10
1510.636332087515
 20
318.7605979264442
 10
1510.636332087515
 20
325.0105979264442
 10
1385.636332087515
 20
325.0105979264442
  0
LWPOLYLINE
  5
45B5
330
1F
100
AcDbEntity
  8
nášlap_vrstvy
100
AcDbPolyline
 90
        4
 70
     1
 43
0.0
 10
1471.135391763159
 20
313.3997257502648
 10
1121.264451871708
 20
313.3997257502648
 10
1121.264451871708
 20
314.8997257502648
 10
1471.135391763159
 20
314.8997257502648
  0
HATCH
  5
45B6
330
1F
100
AcDbEntity
  8
CETRIS
100
AcDbHatch
 10
0.0
 20
0.0
 30
0.0
210
0.0
220
0.0
230
1.0
  2
ANSI31
 70
     0
 71
     0
 91
        3
 92
        7
 72
     1
 73
     1
 93
       42
 10
1439.318043230078
 20
297.3997257502653
 42
0.0
 10
1429.318043230078
 20
297.3997257502653
 42
0.0
 10
1429.318043230078
 20
305.3997257502653
 42
0.0
 10
1439.318043230078
 20
305.3997257502653
 42
0.0
 10
1439.318043230078
 20
313.3997257502652
 42
0.0
 10
1417.72045733469
 20
313.3997257502652
 42
0.0
 10
1417.72045733469
 20
312.2237975090685
 42
0.0
 10
1417.019458252249
 20
311.8938083439445
 42
0.0
 10
1415.807067119524
 20
310.9940865037116
 42
0.0
 10
1414.868147670939
 20
309.810865684469
 42
0.0
 10
1414.267421538774
 20
308.4252758189615
 42
0.0
 10
1414.044997905708
 20
306.9321204246018
 42
0.0
 10
1414.044997905708
 20
306.6414833705623
 42
-0.1200842046796913
 10
1414.044997905708
 20
306.0495974698262
 42
0.0
 10
1414.044997905708
 20
304.7180692101193
 42
0.0
 10
1414.704064662173
 20
304.4964602869487
 42
0.0
 10
1415.074163005694
 20
304.2822408011636
 42
0.0
 10
1414.704064662168
 20
303.9121424554989
 42
0.0
 10
1414.044997905708
 20
304.1337513787113
 42
0.0
 10
1414.044997905708
 20
301.675421406666
 42
0.0
 10
1414.704064662166
 20
301.4538124835
 42
0.0
 10
1415.074163005694
 20
301.2395929977121
 42
0.0
 10
1414.704064662168
 20
300.8694946520465
 42
0.0
 10
1414.044997905708
 20
301.0911035752607
 42
0.0
 10
1414.044997905708
 20
298.6178564005824
 42
0.0
 10
1414.704064662172
 20
298.3963990566418
 42
0.0
 10
1415.074163005694
 20
298.1821795708576
 42
0.0
 10
1414.704064662168
 20
297.8120812254639
 42
0.0
 10
1414.044997905708
 20
298.0335385693571
 42
0.0
 10
1414.044997905708
 20
295.5753601766329
 42
0.0
 10
1414.704064662172
 20
295.3537512534614
 42
0.0
 10
1415.074163005694
 20
295.139531767678
 42
0.0
 10
1414.704064662168
 20
294.7694334220124
 42
0.0
 10
1414.044997905708
 20
294.9910423452258
 42
0.0
 10
1414.044997905708
 20
292.5177951705492
 42
0.0
 10
1414.704064662172
 20
292.2963378266114
 42
0.0
 10
1415.074163005694
 20
292.0821183408235
 42
0.0
 10
1414.704064662168
 20
291.7120199954307
 42
0.0
 10
1414.044997905708
 20
291.9334773393231
 42
0.0
 10
1414.044997905708
 20
289.4596217510017
 42
0.0
 10
1414.223129103528
 20
289.3997257502643
 42
0.0
 10
1439.318043230078
 20
289.3997257502643
 42
0.0
 97
        0
 92
        7
 72
     1
 73
     1
 93
       83
 10
1411.399615146227
 20
298.9224309823832
 42
0.0
 10
1410.740548389767
 20
299.1438883262764
 42
0.0
 10
1410.370450041962
 20
299.3581078120625
 42
0.0
 10
1410.740548389767
 20
299.7282061577281
 42
0.0
 10
1411.399615146227
 20
299.5067488137894
 42
0.0
 10
1411.399615146227
 20
301.9806044021035
 42
0.0
 10
1410.740548389767
 20
302.2022133253187
 42
0.0
 10
1410.370450041962
 20
302.4155212386451
 42
0.0
 10
1410.740548389767
 20
302.7865311564975
 42
0.0
 10
1411.399615146227
 20
302.5649222333287
 42
0.0
 10
1411.399615146227
 20
305.0232522055559
 42
0.0
 10
1410.74054838976
 20
305.2448611287711
 42
0.0
 10
1410.370450041962
 20
305.4581690420965
 42
0.0
 10
1410.740548389767
 20
305.8291789599508
 42
0.0
 10
1411.399615146227
 20
305.607570036782
 42
0.0
 10
1411.367254330085
 20
307.3177154989245
 42
0.0
 10
1411.334893513944
 20
307.7033105732518
 42
0.0
 10
1410.91557026693
 20
309.1545336429682
 42
0.0
 10
1410.135264397197
 20
310.4471431356998
 42
0.0
 10
1409.046847094851
 20
311.494539685321
 42
0.0
 10
1407.724155712967
 20
312.2237975090676
 42
0.0
 10
1407.724155712967
 20
313.3997257502652
 42
0.0
 10
1363.74202051525
 20
313.3997257502652
 42
0.0
 10
1363.74202051525
 20
292.9544283145734
 42
-1.0
 10
1363.742020515248
 20
290.4544283145734
 42
-1.0
 10
1363.74202051525
 20
292.9544283145734
 42
0.0
 10
1363.74202051525
 20
313.3997257502662
 42
0.0
 10
1316.859705701083
 20
313.3997257502671
 42
0.0
 10
1316.859705701083
 20
304.5955404201942
 42
-1.0
 10
1316.859705701081
 20
302.0955404201942
 42
-1.0
 10
1316.859705701083
 20
304.5955404201942
 42
0.0
 10
1316.859705701083
 20
313.3997257502652
 42
0.0
 10
1167.825306367333
 20
313.3997257502652
 42
0.0
 10
1167.825306367334
 20
312.2237975090685
 42
0.0
 10
1167.124307284892
 20
311.8938083439445
 42
0.0
 10
1165.91191615217
 20
310.9940865037107
 42
0.0
 10
1164.972996703582
 20
309.810865684468
 42
0.0
 10
1164.372270571421
 20
308.4252758189597
 42
0.0
 10
1164.149846938353
 20
306.9321204245963
 42
0.0
 10
1164.149846938351
 20
304.7180692101184
 42
0.0
 10
1164.808913694814
 20
304.4964602869487
 42
0.0
 10
1165.179012038339
 20
304.2822408011645
 42
0.0
 10
1164.808913694813
 20
303.9121424554979
 42
0.0
 10
1164.149846938353
 20
304.1337513787122
 42
0.0
 10
1164.149846938353
 20
301.6754214066651
 42
0.0
 10
1164.808913694814
 20
301.4538124834972
 42
0.0
 10
1165.179012038341
 20
301.239592997713
 42
0.0
 10
1164.808913694811
 20
300.8694946520465
 42
0.0
 10
1164.149846938355
 20
301.0911035752598
 42
0.0
 10
1164.149846938353
 20
298.6178564005824
 42
0.0
 10
1164.808913694811
 20
298.3963990566464
 42
0.0
 10
1165.179012038341
 20
298.1821795708585
 42
0.0
 10
1164.808913694813
 20
297.8120812254648
 42
0.0
 10
1164.149846938353
 20
298.033538569358
 42
0.0
 10
1164.149846938353
 20
295.5753601766311
 42
0.0
 10
1164.808913694807
 20
295.3537512534669
 42
0.0
 10
1165.179012038339
 20
295.1395317676771
 42
0.0
 10
1164.808913694811
 20
294.7694334220115
 42
0.0
 10
1164.149846938355
 20
294.9910423452258
 42
0.0
 10
1164.149846938353
 20
292.5177951705483
 42
0.0
 10
1164.80891369482
 20
292.2963378266096
 42
0.0
 10
1165.179012038341
 20
292.0821183408254
 42
0.0
 10
1164.808913694811
 20
291.7120199954299
 42
0.0
 10
1164.149846938353
 20
291.9334773393213
 42
0.0
 10
1164.149846938353
 20
289.4596217510035
 42
0.0
 10
1164.327978136174
 20
289.3997257502643
 42
0.0
 10
1186.2644518717
 20
289.3997257502643
 42
0.0
 10
1411.399615146227
 20
289.3997257502643
 42
0.0
 10
1411.399615146227
 20
289.76480474622
 42
0.0
 10
1410.740548389764
 20
289.9864136693851
 42
0.0
 10
1410.370450041962
 20
290.2006331551758
 42
0.0
 10
1410.740548389767
 20
290.5707315008395
 42
0.0
 10
1411.399615146227
 20
290.3491225776708
 42
0.0
 10
1411.399615146227
 20
292.82236975235
 42
0.0
 10
1410.740548389764
 20
293.0438270962442
 42
0.0
 10
1410.370450041962
 20
293.2580465820275
 42
0.0
 10
1410.740548389767
 20
293.6281449276941
 42
0.0
 10
1411.399615146227
 20
293.4066875837562
 42
0.0
 10
1411.399615146227
 20
295.8805431720695
 42
0.0
 10
1410.740548389765
 20
296.1021520952837
 42
0.0
 10
1410.370450041962
 20
296.315460008611
 42
0.0
 10
1410.740548389767
 20
296.6864699264644
 42
0.0
 10
1411.399615146227
 20
296.4648610032974
 42
0.0
 97
        0
 92
        7
 72
     0
 73
     1
 93
       40
 10
1161.50446417887
 20
295.8805431720704
 10
1160.845397422414
 20
296.1021520952846
 10
1160.475299074607
 20
296.315460008611
 10
1160.84539742241
 20
296.6864699264644
 10
1161.504464178872
 20
296.4648610032956
 10
1161.504464178872
 20
298.9224309823841
 10
1160.845397422419
 20
299.1438883262737
 10
1160.475299074607
 20
299.3581078120625
 10
1160.845397422412
 20
299.7282061577281
 10
1161.504464178872
 20
299.5067488137894
 10
1161.504464178872
 20
301.9806044021044
 10
1160.845397422408
 20
302.2022133253178
 10
1160.475299074609
 20
302.4155212386451
 10
1160.84539742241
 20
302.7865311564975
 10
1161.504464178872
 20
302.5649222333287
 10
1161.504464178872
 20
305.023252205555
 10
1160.845397422414
 20
305.2448611287665
 10
1160.475299074607
 20
305.4581690420956
 10
1160.845397422412
 20
305.8291789599508
 10
1161.504464178872
 20
305.6075700367829
 10
1161.472103362732
 20
307.3177154989136
 10
1161.43974254659
 20
307.7033105732591
 10
1161.020419299573
 20
309.1545336429682
 10
1160.240113429845
 20
310.4471431356971
 10
1159.151696127494
 20
311.494539685321
 10
1157.829004745612
 20
312.2237975090685
 10
1157.829004745612
 20
313.3997257502652
 10
1136.264451871699
 20
313.3997257502652
 10
1136.2644518717
 20
289.3997257502643
 10
1161.504464178872
 20
289.3997257502643
 10
1161.50446417887
 20
289.7648047462191
 10
1160.845397422412
 20
289.986413669386
 10
1160.475299074607
 20
290.2006331551739
 10
1160.845397422412
 20
290.5707315008405
 10
1161.504464178872
 20
290.3491225776708
 10
1161.504464178872
 20
292.82236975235
 10
1160.84539742241
 20
293.0438270962424
 10
1160.475299074607
 20
293.2580465820275
 10
1160.845397422412
 20
293.6281449276941
 10
1161.504464178872
 20
293.4066875837562
 97
        0
 75
     0
 76
     1
 52
0.0
 41
1.0
 77
     0
 78
     1
 53
45.0
 43
-4069.89823928268
 44
-4845.168177761176
 45
-2.245064030267287
 46
2.245064030267288
 79
     0
 47
0.7293997082383822
 98
        3
 10
1421.853330892139
 20
296.148845304224
 10
1386.090794179996
 20
296.8782520609549
 10
1153.2694152197
 20
293.9606585838466
  0
HATCH
  5
45B7
330
1F
100
AcDbEntity
  8
STAVBA OBRYS
100
AcDbHatch
 10
0.0
 20
0.0
 30
0.0
210
0.0
220
0.0
230
1.0
  2
AR-CONC
 70
     0
 71
     0
 91
        1
 92
        7
 72
     0
 73
     1
 93
        6
 10
1821.006331654605
 20
147.6420599373793
 10
1111.264451871711
 20
147.6420599373802
 10
1111.264451871704
 20
-40.60068689022256
 10
1121.2644518717
 20
-40.11443495552549
 10
1121.264451871708
 20
137.6420599373793
 10
1821.006331654605
 20
137.6420599373793
 97
        0
 75
     0
 76
     1
 52
90.0
 41
0.1
 77
     0
 78
    13
 53
140.0
 43
-26576.12701525448
 44
3194.361289932172
 45
1.593908553890309
 46
18.2184668996004
 79
     2
 49
1.905
 49
-20.955
 53
85.00000000000001
 43
-26576.12701525448
 44
3194.361289932172
 45
-19.10566428821799
 46
-3.524282597566697
 79
     2
 49
1.524
 49
-16.764
 53
190.4509999999999
 43
-26575.99419025448
 44
3195.879489932173
 45
-17.51166878202918
 46
14.69425016659592
 79
     2
 49
1.619
 49
-17.809
 53
136.1841999999999
 43
-26581.20701525448
 44
3194.361289932172
 45
4.204232793272717
 46
27.10790408921299
 79
     2
 49
2.857499999999999
 49
-31.4325
 53
186.6355999999999
 43
-26580.85666525448
 44
3196.620279932172
 45
-24.74255558900492
 46
23.74042344662371
 79
     2
 49
2.4285
 49
-26.7135
 53
81.18400000000004
 43
-26581.20701525448
 44
3194.361289932172
 45
-24.74251178605976
 46
23.74046058139339
 79
     2
 49
2.286
 49
-25.146
 53
111.0
 43
-26579.93701525448
 44
3196.901289932172
 45
10.22655185167625
 46
15.16148798353833
 79
     2
 49
1.905
 49
-20.955
 53
56.00000000000004
 43
-26579.93701525448
 44
3196.901289932172
 45
-18.41879661223192
 46
6.180202834764708
 79
     2
 49
1.524
 49
-16.764
 53
161.4514
 43
-26579.08480525448
 44
3198.164739932172
 45
-8.192285771605742
 46
21.34164907701245
 79
     2
 49
1.618999999999997
 49
-17.80899999999995
 53
127.5
 43
-26576.12701525448
 44
3194.361289932172
 45
-8.455503887315311
 46
0.3088603250591822
 79
     6
 49
0.0
 49
-16.5608
 49
0.0
 49
-17.018
 49
0.0
 49
-16.8275
 53
97.49999999999985
 43
-26576.12701525448
 44
3194.361289932172
 45
-10.01805748181195
 46
6.681966251030575
 79
     6
 49
0.0
 49
-9.702799999999998
 49
0.0
 49
-16.17979999999999
 49
0.0
 49
-6.413499999999999
 53
57.5
 43
-26576.12701525448
 44
3188.697089932172
 45
0.5728743992673473
 46
13.55905951668713
 79
     6
 49
0.0
 49
-6.35
 49
0.0
 49
-19.812
 49
0.0
 49
-26.289
 53
47.5
 43
-26576.12701525448
 44
3186.157089932172
 45
-2.5426491033333
 46
14.8129181386018
 79
     6
 49
0.0
 49
-8.255
 49
0.0
 49
-13.1572
 49
0.0
 49
-18.669
 47
1.255134839913078
 98
        1
 10
1294.862800283559
 20
143.9698863567516
  0
LINE
  5
45B8
330
1F
100
AcDbEntity
  8
CETRIS
100
AcDbLine
 10
1136.264451871704
 20
313.3997257502648
 30
0.0
 11
1821.006331654605
 21
313.3997257502648
 31
0.0
  0
LINE
  5
45B9
330
1F
100
AcDbEntity
  8
STAVBA OBRYS
100
AcDbLine
 10
1111.264451871708
 20
147.6420599373793
 30
0.0
 11
1821.006331654605
 21
147.6420599373793
 31
0.0
  0
LINE
  5
45BA
330
1F
100
AcDbEntity
  8
STAVBA OBRYS
100
AcDbLine
 10
1121.264451871704
 20
137.6420599373793
 30
0.0
 11
1821.006331654605
 21
137.6420599373793
 31
0.0
  0
LWPOLYLINE
  5
45BB
330
1F
100
AcDbEntity
  8
CETRIS
100
AcDbPolyline
 90
        4
 70
     0
 43
0.0
 10
1821.006331654602
 20
289.3997257502653
 10
1136.2644518717
 20
289.3997257502653
 10
1136.2644518717
 20
289.3997257502643
 10
1136.2644518717
 20
313.3997257502652
  0
LINE
  5
45BC
330
1F
100
AcDbEntity
  8
CETRIS
100
AcDbLine
 10
1136.2644518717
 20
313.3997257502652
 30
0.0
 11
1821.006331654602
 21
313.3997257502652
 31
0.0
  0
HATCH
  5
45BD
330
1F
100
AcDbEntity
  8
nášlap_vrstvy
100
AcDbHatch
 10
0.0
 20
0.0
 30
0.0
210
0.0
220
0.0
230
1.0
  2
AR-CONC
 70
     0
 71
     0
 91
        5
 92
        7
 72
     0
 73
     1
 93
        7
 10
1664.500646525968
 20
318.7605979264442
 10
1664.500646525968
 20
314.8997257502648
 10
1672.090119796756
 20
314.8997257502648
 10
1821.006331654609
 20
314.8997257502648
 10
1821.006331654605
 20
318.7605979264442
 10
1774.562101826397
 20
318.7605979264442
 10
1769.920178580103
 20
318.7605979264442
 97
        0
 92
        7
 72
     0
 73
     1
 93
        7
 10
1615.412131061679
 20
318.7605979264442
 10
1615.412131061681
 20
314.8997257502648
 10
1624.806654377085
 20
314.8997257502648
 10
1664.500646525967
 20
314.8997257502648
 10
1664.500646525967
 20
318.7605979264442
 10
1644.920178580103
 20
318.7605979264442
 10
1640.278255333809
 20
318.7605979264442
 97
        0
 92
        7
 72
     0
 73
     1
 93
        4
 10
1540.308160883449
 20
318.7605979264442
 10
1540.308160883447
 20
314.8997257502648
 10
1615.412131061679
 20
314.8997257502648
 10
1615.412131061679
 20
318.7605979264442
 97
        0
 92
        7
 72
     1
 73
     1
 93
        8
 10
1476.025118102408
 20
318.7605979264442
 42
0.0
 10
1476.025118102408
 20
315.4444625120248
 42
-0.2477181387930647
 10
1477.057156747414
 20
314.8997257502648
 42
0.0
 10
1482.956258118074
 20
314.8997257502648
 42
0.0
 10
1540.308160883451
 20
314.8997257502648
 42
0.0
 10
1540.308160883451
 20
318.7605979264442
 42
0.0
 10
1515.278255333809
 20
318.7605979264442
 42
0.0
 10
1510.636332087515
 20
318.7605979264442
 42
0.0
 97
        0
 92
        7
 72
     1
 73
     1
 93
       14
 10
1385.636332087515
 20
318.7605979264442
 42
0.0
 10
1126.352485594927
 20
318.7605979264442
 42
0.0
 10
1126.352485594927
 20
325.0105979264209
 42
0.0
 10
1126.427926975539
 20
327.8565067816877
 42
0.0
 10
1126.427926975539
 20
334.9634034309317
 42
-1.007553482924964
 10
1126.427926975541
 20
337.4633326487227
 42
0.0
 10
1126.427926975541
 20
367.853537095894
 42
0.0
 10
1121.264451871706
 20
367.8535370958949
 42
0.0
 10
1121.264451871708
 20
314.8997257502648
 42
0.0
 10
1133.085318226623
 20
314.8997257502648
 42
0.0
 10
1471.135391763159
 20
314.8997257502648
 42
0.0
 10
1474.993079457399
 20
314.8997257502648
 42
-0.2477181387936438
 10
1476.025118102408
 20
315.4444625120248
 42
0.0
 10
1476.025118102408
 20
318.7605979264442
 42
0.0
 97
        0
 75
     0
 76
     1
 52
90.0
 41
0.1
 77
     0
 78
    13
 53
140.0
 43
-5559.736316699058
 44
706.8269594496889
 45
1.593908553890309
 46
18.2184668996004
 79
     2
 49
1.905
 49
-20.955
 53
85.00000000000001
 43
-5559.736316699058
 44
706.8269594496889
 45
-19.10566428821799
 46
-3.524282597566697
 79
     2
 49
1.524
 49
-16.764
 53
190.4509999999999
 43
-5559.603491699058
 44
708.3451594496889
 45
-17.51166878202918
 46
14.69425016659592
 79
     2
 49
1.619
 49
-17.809
 53
136.1841999999999
 43
-5564.816316699058
 44
706.8269594496889
 45
4.204232793272717
 46
27.10790408921299
 79
     2
 49
2.857499999999999
 49
-31.4325
 53
186.6355999999999
 43
-5564.465966699058
 44
709.0859494496889
 45
-24.74255558900492
 46
23.74042344662371
 79
     2
 49
2.4285
 49
-26.7135
 53
81.18400000000004
 43
-5564.816316699058
 44
706.8269594496889
 45
-24.74251178605976
 46
23.74046058139339
 79
     2
 49
2.286
 49
-25.146
 53
111.0
 43
-5563.546316699058
 44
709.3669594496889
 45
10.22655185167625
 46
15.16148798353833
 79
     2
 49
1.905
 49
-20.955
 53
56.00000000000004
 43
-5563.546316699058
 44
709.3669594496889
 45
-18.41879661223192
 46
6.180202834764708
 79
     2
 49
1.524
 49
-16.764
 53
161.4514
 43
-5562.694106699058
 44
710.6304094496888
 45
-8.192285771605742
 46
21.34164907701245
 79
     2
 49
1.618999999999999
 49
-17.80899999999998
 53
127.5
 43
-5559.736316699058
 44
706.8269594496889
 45
-8.455503887315311
 46
0.3088603250591822
 79
     6
 49
0.0
 49
-16.5608
 49
0.0
 49
-17.018
 49
0.0
 49
-16.8275
 53
97.49999999999996
 43
-5559.736316699058
 44
706.8269594496889
 45
-10.01805748181195
 46
6.681966251030575
 79
     6
 49
0.0
 49
-9.702799999999999
 49
0.0
 49
-16.1798
 49
0.0
 49
-6.4135
 53
57.5
 43
-5559.736316699058
 44
701.1627594496887
 45
0.5728743992673473
 46
13.55905951668713
 79
     6
 49
0.0
 49
-6.35
 49
0.0
 49
-19.812
 49
0.0
 49
-26.289
 53
47.5
 43
-5559.736316699058
 44
698.6227594496888
 45
-2.5426491033333
 46
14.8129181386018
 79
     6
 49
0.0
 49
-8.255
 49
0.0
 49
-13.1572
 49
0.0
 49
-18.669
 47
0.7604686790100845
 98
        5
 10
1722.561977086207
 20
317.0124269565041
 10
1627.451476651335
 20
317.0124269565041
 10
1600.059662419662
 20
317.0124269565041
 10
1496.579453461436
 20
317.0124269565041
 10
1439.513164443208
 20
317.0124269565041
  0
LINE
  5
45BE
330
1F
100
AcDbEntity
  8
STAVBA OBRYS
100
AcDbLine
 10
872.18385604321
 20
267.6420599373802
 30
0.0
 11
1821.006331654605
 21
267.6420599373793
 31
0.0
  0
TEXT
  5
45BF
330
1F
100
AcDbEntity
  8
POPIS
100
AcDbText
 10
1405.074898179848
 20
415.7848797632903
 30
0.0
 40
25.0
  1
04
 41
0.85
  7
SIMPLEX7
100
AcDbText
  0
LINE
  5
45C2
330
1F
100
AcDbEntity
  8
STAVBA OBRYS
100
AcDbLine
 10
1121.264451871704
 20
137.6420599373793
 30
0.0
 11
1121.264451871704
 21
-40.11443495552543
 31
0.0
  0
LINE
  5
45C3
330
1F
100
AcDbEntity
  8
STAVBA OBRYS
100
AcDbLine
 10
1111.264451871708
 20
147.6420599373793
 30
0.0
 11
1111.264451871708
 21
-40.11443495552543
 31
0.0
  0
LINE
  5
45C4
330
1F
100
AcDbEntity
  8
STAVBA OBRYS
100
AcDbLine
 10
862.1838560432136
 20
-52.71227905194814
 30
0.0
 11
862.1838560432099
 21
543.0629399391261
 31
0.0
  0
LINE
  5
45C5
330
1F
100
AcDbEntity
  8
STAVBA OBRYS
100
AcDbLine
 10
872.1838560432136
 20
-52.71227905194814
 30
0.0
 11
872.18385604321
 21
543.0629399391261
 31
0.0
  0
HATCH
  5
45C6
330
1F
100
AcDbEntity
  8
STAVBA OBRYS
100
AcDbHatch
 10
0.0
 20
0.0
 30
0.0
210
0.0
220
0.0
230
1.0
  2
BRICK
 70
     0
 71
     0
 91
        3
 92
        7
 72
     0
 73
     1
 93
        4
 10
1111.264451871708
 20
543.0629399391289
 10
872.1838560432136
 20
543.0629399391261
 10
872.1838560432136
 20
267.6420599373811
 10
1111.264451871715
 20
267.6420599373811
 97
        0
 92
        7
 72
     0
 73
     1
 93
        4
 10
1111.264451871708
 20
54.03036985287116
 10
872.1838560432136
 20
54.03036985287298
 10
872.1838560432136
 20
-52.2260271172492
 10
1111.264451871711
 20
-40.60068689022346
 97
        0
 92
       24
 93
        4
 72
     1
 10
1010.128247367241
 20
304.4513369360271
 11
1050.959676425909
 21
304.4513369360271
 72
     1
 10
1050.959676425909
 20
304.4513369360271
 11
1050.959676425909
 21
342.7443110151541
 72
     1
 10
1050.959676425909
 20
342.7443110151541
 11
1010.128247367241
 21
342.7443110151541
 72
     1
 10
1010.128247367241
 20
342.7443110151541
 11
1010.128247367241
 21
304.4513369360281
 97
        0
 75
     0
 76
     1
 52
0.0
 41
10.0
 77
     0
 78
     3
 53
0.0
 43
-26576.12701525448
 44
3194.361289932172
 45
0.0
 46
63.5
 79
     0
 53
90.0
 43
-26576.12701525448
 44
3194.361289932172
 45
-127.0
 46
0.0000000000000078
 79
     2
 49
63.5
 49
-63.5
 53
90.0
 43
-26512.62701525448
 44
3194.361289932172
 45
-127.0
 46
0.0000000000000078
 79
     2
 49
-63.5
 49
63.5
 47
3.017070218097292
 98
        2
 10
1035.372524178301
 20
399.7621107249558
 10
1005.18328679232
 20
4.525909868266978
  0
HATCH
  5
45C7
330
1F
100
AcDbEntity
  8
STAVBA OBRYS
100
AcDbHatch
 10
0.0
 20
0.0
 30
0.0
210
0.0
220
0.0
230
1.0
  2
AR-CONC
 70
     0
 71
     0
 91
        2
 92
        7
 72
     0
 73
     1
 93
        4
 10
1121.264451871708
 20
543.0629399391289
 10
1111.264451871708
 20
543.0629399391289
 10
1111.264451871708
 20
295.0734886553252
 10
1121.264451871708
 20
290.1914293611323
 97
        0
 92
        7
 72
     0
 73
     1
 93
        4
 10
872.1838560432136
 20
543.0629399391261
 10
862.1838560432099
 20
543.0629399391253
 10
862.1838560432136
 20
-52.71227905194809
 10
872.1838560432136
 20
-52.22602711725011
 97
        0
 75
     0
 76
     1
 52
90.0
 41
0.1
 77
     0
 78
    13
 53
140.0
 43
-26576.12701525448
 44
3194.361289932172
 45
1.593908553890309
 46
18.2184668996004
 79
     2
 49
1.905
 49
-20.955
 53
85.00000000000001
 43
-26576.12701525448
 44
3194.361289932172
 45
-19.10566428821799
 46
-3.524282597566697
 79
     2
 49
1.524
 49
-16.764
 53
190.4509999999999
 43
-26575.99419025448
 44
3195.879489932173
 45
-17.51166878202918
 46
14.69425016659592
 79
     2
 49
1.619
 49
-17.809
 53
136.1841999999999
 43
-26581.20701525448
 44
3194.361289932172
 45
4.204232793272717
 46
27.10790408921299
 79
     2
 49
2.857499999999999
 49
-31.4325
 53
186.6355999999999
 43
-26580.85666525448
 44
3196.620279932172
 45
-24.74255558900492
 46
23.74042344662371
 79
     2
 49
2.4285
 49
-26.7135
 53
81.18400000000004
 43
-26581.20701525448
 44
3194.361289932172
 45
-24.74251178605976
 46
23.74046058139339
 79
     2
 49
2.286
 49
-25.146
 53
111.0
 43
-26579.93701525448
 44
3196.901289932172
 45
10.22655185167625
 46
15.16148798353833
 79
     2
 49
1.905
 49
-20.955
 53
56.00000000000004
 43
-26579.93701525448
 44
3196.901289932172
 45
-18.41879661223192
 46
6.180202834764708
 79
     2
 49
1.524
 49
-16.764
 53
161.4514
 43
-26579.08480525448
 44
3198.164739932172
 45
-8.192285771605742
 46
21.34164907701245
 79
     2
 49
1.618999999999997
 49
-17.80899999999995
 53
127.5
 43
-26576.12701525448
 44
3194.361289932172
 45
-8.455503887315311
 46
0.3088603250591822
 79
     6
 49
0.0
 49
-16.5608
 49
0.0
 49
-17.018
 49
0.0
 49
-16.8275
 53
97.49999999999985
 43
-26576.12701525448
 44
3194.361289932172
 45
-10.01805748181195
 46
6.681966251030575
 79
     6
 49
0.0
 49
-9.702799999999998
 49
0.0
 49
-16.17979999999999
 49
0.0
 49
-6.413499999999999
 53
57.5
 43
-26576.12701525448
 44
3188.697089932172
 45
0.5728743992673473
 46
13.55905951668713
 79
     6
 49
0.0
 49
-6.35
 49
0.0
 49
-19.812
 49
0.0
 49
-26.289
 53
47.5
 43
-26576.12701525448
 44
3186.157089932172
 45
-2.5426491033333
 46
14.8129181386018
 79
     6
 49
0.0
 49
-8.255
 49
0.0
 49
-13.1572
 49
0.0
 49
-18.669
 47
1.255134839913078
 98
        2
 10
1115.147073647406
 20
391.6308842464366
 10
867.7336583134513
 20
340.1703445790714
  0
LINE
  5
45CB
330
1F
100
AcDbEntity
  8
STAVBA OBRYS
100
AcDbLine
 10
1121.264451871708
 20
267.6420599373793
 30
0.0
 11
1121.264451871704
 21
543.0629399391289
 31
0.0
  0
LINE
  5
45CC
330
1F
100
AcDbEntity
  8
STAVBA OBRYS
100
AcDbLine
 10
1111.264451871708
 20
267.6420599373793
 30
0.0
 11
1111.264451871704
 21
543.0629399391289
 31
0.0
  0
HATCH
  5
45CD
330
1F
100
AcDbEntity
  8
STAVBA OBRYS
100
AcDbHatch
 10
0.0
 20
0.0
 30
0.0
210
0.0
220
0.0
230
1.0
  2
AR-CONC
 70
     0
 71
     0
 91
        1
 92
        7
 72
     0
 73
     1
 93
        5
 10
1111.264451871708
 20
267.6420599373793
 10
1121.2644518717
 20
267.6420599373793
 10
1121.264451871704
 20
270.6420599373793
 10
1121.264451871708
 20
290.1914293611314
 10
1111.2644518717
 20
295.0734886553243
 97
        0
 75
     0
 76
     1
 52
90.0
 41
0.1
 77
     0
 78
    13
 53
140.0
 43
-26576.12701525448
 44
3194.361289932172
 45
1.593908553890309
 46
18.2184668996004
 79
     2
 49
1.905
 49
-20.955
 53
85.00000000000001
 43
-26576.12701525448
 44
3194.361289932172
 45
-19.10566428821799
 46
-3.524282597566697
 79
     2
 49
1.524
 49
-16.764
 53
190.4509999999999
 43
-26575.99419025448
 44
3195.879489932173
 45
-17.51166878202918
 46
14.69425016659592
 79
     2
 49
1.619
 49
-17.809
 53
136.1841999999999
 43
-26581.20701525448
 44
3194.361289932172
 45
4.204232793272717
 46
27.10790408921299
 79
     2
 49
2.857499999999999
 49
-31.4325
 53
186.6355999999999
 43
-26580.85666525448
 44
3196.620279932172
 45
-24.74255558900492
 46
23.74042344662371
 79
     2
 49
2.4285
 49
-26.7135
 53
81.18400000000004
 43
-26581.20701525448
 44
3194.361289932172
 45
-24.74251178605976
 46
23.74046058139339
 79
     2
 49
2.286
 49
-25.146
 53
111.0
 43
-26579.93701525448
 44
3196.901289932172
 45
10.22655185167625
 46
15.16148798353833
 79
     2
 49
1.905
 49
-20.955
 53
56.00000000000004
 43
-26579.93701525448
 44
3196.901289932172
 45
-18.41879661223192
 46
6.180202834764708
 79
     2
 49
1.524
 49
-16.764
 53
161.4514
 43
-26579.08480525448
 44
3198.164739932172
 45
-8.192285771605742
 46
21.34164907701245
 79
     2
 49
1.618999999999997
 49
-17.80899999999995
 53
127.5
 43
-26576.12701525448
 44
3194.361289932172
 45
-8.455503887315311
 46
0.3088603250591822
 79
     6
 49
0.0
 49
-16.5608
 49
0.0
 49
-17.018
 49
0.0
 49
-16.8275
 53
97.49999999999985
 43
-26576.12701525448
 44
3194.361289932172
 45
-10.01805748181195
 46
6.681966251030575
 79
     6
 49
0.0
 49
-9.702799999999998
 49
0.0
 49
-16.17979999999999
 49
0.0
 49
-6.413499999999999
 53
57.5
 43
-26576.12701525448
 44
3188.697089932172
 45
0.5728743992673473
 46
13.55905951668713
 79
     6
 49
0.0
 49
-6.35
 49
0.0
 49
-19.812
 49
0.0
 49
-26.289
 53
47.5
 43
-26576.12701525448
 44
3186.157089932172
 45
-2.5426491033333
 46
14.8129181386018
 79
     6
 49
0.0
 49
-8.255
 49
0.0
 49
-13.1572
 49
0.0
 49
-18.669
 47
0.415434097446913
 98
        1
 10
1113.849935255302
 20
275.5421693371478
  0
LINE
  5
45CE
330
1F
100
AcDbEntity
  8
POPIS
100
AcDbLine
 10
1125.838495108275
 20
287.9583543316218
 30
0.0
 11
1054.718805649188
 21
322.6794084239934
 31
0.0
  0
LINE
  5
45CF
330
1F
100
AcDbEntity
  8
STAVBA OBRYS
100
AcDbLine
 10
915.8850680753369
 20
54.03036985287122
 30
0.0
 11
915.8850680753369
 21
267.6420599373793
 31
0.0
  0
LINE
  5
45D0
330
1F
100
AcDbEntity
  8
izolace
  6
IZOLACE
 48
2.1
100
AcDbLine
 10
894.564570147979
 20
54.03036985287122
 30
0.0
 11
894.564570147979
 21
267.6420599373793
 31
0.0
  0
LINE
  5
45D1
330
1F
100
AcDbEntity
  8
STAVBA OBRYS
100
AcDbLine
 10
1111.264451871708
 20
54.03036985287122
 30
0.0
 11
872.1838560432136
 21
54.0303698528703
 31
0.0
  0
TEXT
  5
45D2
330
1F
100
AcDbEntity
  8
POPIS
100
AcDbText
 10
1016.510409713764
 20
311.2598294326159
 30
0.0
 40
25.0
  1
08
 41
0.85
  7
SIMPLEX7
100
AcDbText
  0
LWPOLYLINE
  5
45D3
330
1F
100
AcDbEntity
  8
nášlap_vrstvy
100
AcDbPolyline
 90
        4
 70
     1
 43
0.0
 10
1274.935714485635
 20
314.8997257502648
 10
1263.114848130719
 20
314.8997257502648
 10
1263.114848130719
 20
313.3997257502648
 10
1274.935714485635
 20
313.3997257502648
  0
HATCH
  5
45D4
330
1F
100
AcDbEntity
  8
nášlap_vrstvy
100
AcDbHatch
 10
0.0
 20
0.0
 30
0.0
210
0.0
220
0.0
230
1.0
  2
SOLID
 70
     1
 71
     0
 91
        1
 92
        7
 72
     0
 73
     1
 93
        4
 10
1274.935714485638
 20
314.8997257502648
 10
1263.114848130719
 20
314.8997257502648
 10
1263.114848130719
 20
313.3997257502648
 10
1274.935714485638
 20
313.3997257502648
 97
        0
 75
     0
 76
     1
 47
0.1901250437635136
 98
        1
 10
1267.793745509889
 20
314.4913199747249
  0
LWPOLYLINE
  5
45D5
330
1F
100
AcDbEntity
  8
nášlap_vrstvy
100
AcDbPolyline
 90
        4
 70
     1
 43
0.0
 10
1255.994408841221
 20
318.7605979264442
 10
1380.994408841221
 20
318.7605979264442
 10
1380.994408841221
 20
325.0105979264442
 10
1255.994408841221
 20
325.0105979264442
  0
LINE
  5
45D6
330
1F
100
AcDbEntity
  8
STAVBA OBRYS
100
AcDbLine
 10
1120.447334424085
 20
267.6420599373793
 30
0.0
 11
1331.875014315925
 21
267.6420599373793
 31
0.0
  0
LINE
  5
45D7
330
1F
100
AcDbEntity
  8
nášlap_vrstvy
100
AcDbLine
 10
1387.050540697264
 20
318.7605979264442
 30
0.0
 11
1126.352485594927
 21
318.7605979264442
 31
0.0
  0
TEXT
  5
45D8
330
1F
100
AcDbEntity
  8
POPIS
100
AcDbText
 10
1234.883893943146
 20
415.7848797632903
 30
0.0
 40
25.0
  1
02
 41
0.85
  7
SIMPLEX7
100
AcDbText
  0
LWPOLYLINE
  5
45D9
330
1F
100
AcDbEntity
  8
STAVBA OBRYS
100
AcDbPolyline
 90
        3
 70
     0
 43
0.0
 10
1265.87196152945
 20
267.6420599373793
 42
0.0052038508054843
 10
1262.673564589468
 20
284.0458864193767
 42
0.0065712046643719
 10
1262.323138819704
 20
285.6420599373793
  0
LWPOLYLINE
  5
45DA
330
1F
100
AcDbEntity
  8
STAVBA OBRYS
100
AcDbPolyline
 90
        4
 70
     0
 43
0.0
 10
1182.170531050547
 20
267.6420599373793
 42
0.0334776267545482
 10
1181.733253255841
 20
271.689034866116
 42
0.0091133963862869
 10
1179.255648930922
 20
284.3807646515758
 42
0.007828075361276
 10
1178.964749795765
 20
285.6420599373793
  0
LWPOLYLINE
  5
45DB
330
1F
100
AcDbEntity
  8
STAVBA OBRYS
100
AcDbPolyline
 90
        5
 70
     0
 43
0.0
 10
1171.926392675754
 20
267.6420599373793
 42
0.0133579731639958
 10
1171.539582186726
 20
270.1598622249345
 42
0.0072443097182286
 10
1169.419585239267
 20
280.9707531198416
 42
0.0219777111230329
 10
1168.513472737284
 20
284.4888663756771
 42
0.0092752982622242
 10
1168.138245775337
 20
285.6420599373793
  0
HATCH
  5
45DC
330
1F
100
AcDbEntity
  8
izolace
100
AcDbHatch
 10
0.0
 20
0.0
 30
0.0
210
0.0
220
0.0
230
1.0
  2
SOLID
 70
     1
 71
     0
 91
        1
 92
        7
 72
     0
 73
     1
 93
        4
 10
1169.906184581536
 20
288.6420599373788
 10
1146.264451871704
 20
288.6420599373788
 10
1146.264451871701
 20
285.6420599373788
 10
1169.906184581539
 20
285.6420599373788
 97
        0
 75
     0
 76
     1
 47
0.1901250437635136
 98
        3
 10
1198.149674845723
 20
286.8746150079907
 10
1161.813484018383
 20
286.6844883323294
 10
1157.818411829155
 20
287.2548683593133
  0
HATCH
  5
45DD
330
1F
100
AcDbEntity
  8
izolace
100
AcDbHatch
 10
0.0
 20
0.0
 30
0.0
210
0.0
220
0.0
230
1.0
  2
SOLID
 70
     1
 71
     0
 91
        1
 92
        7
 72
     0
 73
     1
 93
        4
 10
1217.18965000121
 20
288.6420599373788
 10
1193.547917291374
 20
288.6420599373788
 10
1193.547917291371
 20
285.6420599373788
 10
1217.18965000121
 20
285.6420599373788
 97
        0
 75
     0
 76
     1
 47
0.1901250437635136
 98
        1
 10
1202.905712049714
 20
287.825248386299
  0
LWPOLYLINE
  5
45DE
330
1F
100
AcDbEntity
  8
izolace
100
AcDbPolyline
 90
        4
 70
     1
 43
0.0
 10
1264.473115420877
 20
288.6420599373788
 10
1240.831382711041
 20
288.6420599373788
 10
1240.831382711041
 20
285.6420599373788
 10
1264.473115420877
 20
285.6420599373788
  0
HATCH
  5
45DF
330
1F
100
AcDbEntity
  8
izolace
100
AcDbHatch
 10
0.0
 20
0.0
 30
0.0
210
0.0
220
0.0
230
1.0
  2
SOLID
 70
     1
 71
     0
 91
        1
 92
        7
 72
     0
 73
     1
 93
        4
 10
1264.47311542088
 20
288.6420599373788
 10
1240.831382711045
 20
288.6420599373788
 10
1240.831382711041
 20
285.6420599373788
 10
1264.47311542088
 20
285.6420599373788
 97
        0
 75
     0
 76
     1
 47
0.1901250437635136
 98
        1
 10
1250.189177469385
 20
287.825248386299
  0
LWPOLYLINE
  5
45E0
330
1F
100
AcDbEntity
  8
STAVBA OBRYS
100
AcDbPolyline
 90
        4
 70
     0
 43
0.0
 10
1254.419423666482
 20
267.6420599373793
 42
0.0334776267545482
 10
1253.982145871776
 20
271.689034866116
 42
0.0091133963862869
 10
1251.504541546857
 20
284.3807646515758
 42
0.007828075361276
 10
1251.2136424117
 20
285.6420599373793
  0
LWPOLYLINE
  5
45E1
330
1F
100
AcDbEntity
  8
STAVBA OBRYS
100
AcDbPolyline
 90
        3
 70
     0
 43
0.0
 10
1235.724952672976
 20
267.6420599373793
 42
0.0052038508054843
 10
1232.526555732993
 20
284.0458864193767
 42
0.0065712046643719
 10
1232.176129963229
 20
285.6420599373793
  0
LWPOLYLINE
  5
45E2
330
1F
100
AcDbEntity
  8
STAVBA OBRYS
100
AcDbPolyline
 90
        4
 70
     0
 43
0.0
 10
1224.272414810008
 20
267.6420599373793
 42
0.0334776267545482
 10
1223.835137015301
 20
271.689034866116
 42
0.0091133963862869
 10
1221.357532690383
 20
284.3807646515758
 42
0.007828075361276
 10
1221.066633555225
 20
285.6420599373793
  0
LWPOLYLINE
  5
45E3
330
1F
100
AcDbEntity
  8
STAVBA OBRYS
100
AcDbPolyline
 90
        4
 70
     0
 43
0.0
 10
1204.122672561318
 20
267.6420599373793
 42
0.0186324019486548
 10
1200.754303189211
 20
279.3371715556038
 42
0.0582629403736403
 10
1199.094803321129
 20
282.9170057545395
 42
0.0146402521923566
 10
1197.310395339546
 20
285.6420599373793
  0
LWPOLYLINE
  5
45E4
330
1F
100
AcDbEntity
  8
STAVBA OBRYS
100
AcDbPolyline
 90
        5
 70
     0
 43
0.0
 10
1214.028276435214
 20
267.6420599373793
 42
0.0133579731639958
 10
1213.641465946186
 20
270.1598622249345
 42
0.0072443097182286
 10
1211.521468998728
 20
280.9707531198416
 42
0.0219777111230329
 10
1210.615356496744
 20
284.4888663756771
 42
0.0092752982622242
 10
1210.240129534797
 20
285.6420599373793
  0
LWPOLYLINE
  5
45E5
330
1F
100
AcDbEntity
  8
STAVBA OBRYS
100
AcDbPolyline
 90
        5
 70
     0
 43
0.0
 10
1244.175285291689
 20
267.6420599373793
 42
0.0133579731639958
 10
1243.788474802661
 20
270.1598622249345
 42
0.0072443097182286
 10
1241.668477855202
 20
280.9707531198416
 42
0.0219777111230329
 10
1240.762365353219
 20
284.4888663756771
 42
0.0092752982622242
 10
1240.387138391272
 20
285.6420599373793
  0
LWPOLYLINE
  5
45E6
330
1F
100
AcDbEntity
  8
STAVBA OBRYS
100
AcDbPolyline
 90
        4
 70
     0
 43
0.0
 10
1219.665296229197
 20
267.1412295066308
 10
1239.66154866119
 20
276.3572585571507
 10
1256.439439232408
 20
279.0644028198418
 10
1259.703050480113
 20
279.1947041842119
  0
LWPOLYLINE
  5
45E7
330
1F
100
AcDbEntity
  8
STAVBA OBRYS
100
AcDbPolyline
 90
        3
 70
     0
 43
0.0
 10
1193.623068913515
 20
267.6420599373793
 42
0.0052038508054843
 10
1190.424671973533
 20
284.0458864193767
 42
0.0065712046643719
 10
1190.074246203769
 20
285.6420599373793
  0
LWPOLYLINE
  5
45E8
330
1F
100
AcDbEntity
  8
STAVBA OBRYS
100
AcDbPolyline
 90
        4
 70
     0
 43
0.0
 10
1189.518287372723
 20
267.1412295066308
 10
1209.514539804715
 20
276.3572585571507
 10
1226.292430375933
 20
279.0644028198418
 10
1229.556041623638
 20
279.1947041842119
  0
POLYLINE
  5
45E9
330
1F
100
AcDbEntity
  8
STAVBA OBRYS
100
AcDb2dPolyline
 66
     1
 10
0.0
 20
0.0
 30
0.0
  0
VERTEX
  5
45EA
330
45E9
100
AcDbEntity
  8
STAVBA OBRYS
100
AcDbVertex
100
AcDb2dVertex
 10
1126.432326108361
 20
267.6420599373793
 30
0.0
 42
0.0094186890201653
  0
VERTEX
  5
45EB
330
45E9
100
AcDbEntity
  8
STAVBA OBRYS
100
AcDbVertex
100
AcDb2dVertex
 10
1126.085527545487
 20
267.8007328081473
 30
0.0
 42
0.0322692699774654
  0
VERTEX
  5
45EC
330
45E9
100
AcDbEntity
  8
STAVBA OBRYS
100
AcDbVertex
100
AcDb2dVertex
 10
1123.194173364396
 20
268.8422563095479
 30
0.0
 42
0.0276160659512937
  0
VERTEX
  5
45ED
330
45E9
100
AcDbEntity
  8
STAVBA OBRYS
100
AcDbVertex
100
AcDb2dVertex
 10
1122.338596926109
 20
269.0389917384925
 30
0.0
 42
0.0126891984598699
  0
VERTEX
  5
45EE
330
45E9
100
AcDbEntity
  8
STAVBA OBRYS
100
AcDbVertex
100
AcDb2dVertex
 10
1121.415428530317
 20
269.174194128034
 30
0.0
  0
SEQEND
  5
45EF
330
45E9
100
AcDbEntity
  8
STAVBA OBRYS
  0
LWPOLYLINE
  5
45F0
330
1F
100
AcDbEntity
  8
STAVBA OBRYS
100
AcDbPolyline
 90
        4
 70
     0
 43
0.0
 10
1147.416403613262
 20
267.1412295066308
 10
1167.412656045255
 20
276.3572585571507
 10
1184.190546616473
 20
279.0644028198418
 10
1187.454157864178
 20
279.1947041842119
  0
POLYLINE
  5
45F1
330
1F
100
AcDbEntity
  8
STAVBA OBRYS
100
AcDb2dPolyline
 66
     1
 10
0.0
 20
0.0
 30
0.0
  0
VERTEX
  5
45F2
330
45F1
100
AcDbEntity
  8
STAVBA OBRYS
100
AcDbVertex
100
AcDb2dVertex
 10
1135.485472057897
 20
267.6420599373793
 30
0.0
 42
0.0502247168465557
  0
VERTEX
  5
45F3
330
45F1
100
AcDbEntity
  8
STAVBA OBRYS
100
AcDbVertex
100
AcDb2dVertex
 10
1133.886424881731
 20
269.6495306101021
 30
0.0
 42
0.0274923553235744
  0
VERTEX
  5
45F4
330
45F1
100
AcDbEntity
  8
STAVBA OBRYS
100
AcDbVertex
100
AcDb2dVertex
 10
1131.289119151179
 20
272.0346059332402
 30
0.0
 42
0.0255412025538677
  0
VERTEX
  5
45F5
330
45F1
100
AcDbEntity
  8
STAVBA OBRYS
100
AcDbVertex
100
AcDb2dVertex
 10
1128.237689113468
 20
274.291319610256
 30
0.0
 42
0.0272796991712396
  0
VERTEX
  5
45F6
330
45F1
100
AcDbEntity
  8
STAVBA OBRYS
100
AcDbVertex
100
AcDb2dVertex
 10
1124.124689960283
 20
276.7076554919219
 30
0.0
 42
0.056967459841729
  0
VERTEX
  5
45F7
330
45F1
100
AcDbEntity
  8
STAVBA OBRYS
100
AcDbVertex
100
AcDb2dVertex
 10
1121.983742679551
 20
277.5203913271213
 30
0.0
 42
0.0373408083348504
  0
VERTEX
  5
45F8
330
45F1
100
AcDbEntity
  8
STAVBA OBRYS
100
AcDbVertex
100
AcDb2dVertex
 10
1121.761388304077
 20
277.5595568680689
 30
0.0
 42
0.0052305969362967
  0
VERTEX
  5
45F9
330
45F1
100
AcDbEntity
  8
STAVBA OBRYS
100
AcDbVertex
100
AcDb2dVertex
 10
1121.415428530317
 20
277.5905138349732
 30
0.0
  0
SEQEND
  5
45FA
330
45F1
100
AcDbEntity
  8
STAVBA OBRYS
  0
LWPOLYLINE
  5
45FB
330
1F
100
AcDbEntity
  8
STAVBA OBRYS
100
AcDbPolyline
 90
        8
 70
     0
 43
0.0
 10
1143.837523445212
 20
267.6420599373793
 42
0.0217273703039143
 10
1141.639853184702
 20
272.677750274857
 42
0.0882970623535771
 10
1140.002631264609
 20
274.9181193256569
 42
0.0171636441953577
 10
1137.189267202751
 20
277.4320366809021
 42
0.0157521173632038
 10
1133.950412365715
 20
279.9635327334087
 42
0.0073640874174249
 10
1129.316763009394
 20
283.2519341591448
 42
0.0194185739168057
 10
1127.494719689717
 20
284.4035031584259
 42
0.0229547400386702
 10
1125.109261625703
 20
285.6420599373793
  0
LWPOLYLINE
  5
45FC
330
1F
100
AcDbEntity
  8
STAVBA OBRYS
100
AcDbPolyline
 90
        3
 70
     0
 43
0.0
 10
1131.086995681106
 20
267.6420599373793
 10
1144.879043607745
 20
274.543131500866
 10
1153.04614825687
 20
282.7244332019597
  0
LWPOLYLINE
  5
45FD
330
1F
100
AcDbEntity
  8
STAVBA OBRYS
100
AcDbPolyline
 90
        6
 70
     0
 43
0.0
 10
1153.210327453014
 20
267.6420599373793
 42
0.0121757200102759
 10
1151.840337739353
 20
272.3139772698465
 42
0.0457786284636091
 10
1150.632314849737
 20
275.1625876527229
 42
0.0295006114745606
 10
1148.216254395438
 20
279.089486866125
 42
0.0258674098621065
 10
1144.983579081474
 20
283.2352669448789
 42
0.0093759062953949
 10
1142.817766901817
 20
285.6420599373793
  0
LWPOLYLINE
  5
45FE
330
1F
100
AcDbEntity
  8
STAVBA OBRYS
100
AcDbPolyline
 90
        4
 70
     0
 43
0.0
 10
1162.020788801857
 20
267.6420599373793
 42
0.0186324019486548
 10
1158.652419429751
 20
279.3371715556038
 42
0.0582629403736403
 10
1156.992919561669
 20
282.9170057545395
 42
0.0146402521923566
 10
1155.208511580085
 20
285.6420599373793
  0
HATCH
  5
45FF
330
1F
100
AcDbEntity
  8
STAVBA OBRYS
100
AcDbHatch
 10
0.0
 20
0.0
 30
0.0
210
0.0
220
0.0
230
1.0
  2
AR-CONC
 70
     0
 71
     0
 91
        1
 92
        7
 72
     0
 73
     1
 93
        5
 10
1121.264451871708
 20
264.6420599373793
 10
1131.264451871704
 20
264.6420599373793
 10
1131.264451871704
 20
267.6420599373784
 10
1131.264451871708
 20
287.191429361135
 10
1121.264451871708
 20
292.0734886553233
 97
        0
 75
     0
 76
     1
 52
90.0
 41
0.1
 77
     0
 78
    13
 53
140.0
 43
-26566.12701525448
 44
3191.361289932171
 45
1.593908553890309
 46
18.2184668996004
 79
     2
 49
1.905
 49
-20.955
 53
85.00000000000001
 43
-26566.12701525448
 44
3191.361289932171
 45
-19.10566428821799
 46
-3.524282597566697
 79
     2
 49
1.524
 49
-16.764
 53
190.4509999999999
 43
-26565.99419025448
 44
3192.879489932171
 45
-17.51166878202918
 46
14.69425016659592
 79
     2
 49
1.619
 49
-17.809
 53
136.1841999999999
 43
-26571.20701525448
 44
3191.361289932171
 45
4.204232793272717
 46
27.10790408921299
 79
     2
 49
2.857499999999999
 49
-31.4325
 53
186.6355999999999
 43
-26570.85666525448
 44
3193.620279932171
 45
-24.74255558900492
 46
23.74042344662371
 79
     2
 49
2.4285
 49
-26.7135
 53
81.18400000000004
 43
-26571.20701525448
 44
3191.361289932171
 45
-24.74251178605976
 46
23.74046058139339
 79
     2
 49
2.286
 49
-25.146
 53
111.0
 43
-26569.93701525448
 44
3193.901289932171
 45
10.22655185167625
 46
15.16148798353833
 79
     2
 49
1.905
 49
-20.955
 53
56.00000000000004
 43
-26569.93701525448
 44
3193.901289932171
 45
-18.41879661223192
 46
6.180202834764708
 79
     2
 49
1.524
 49
-16.764
 53
161.4514
 43
-26569.08480525448
 44
3195.164739932171
 45
-8.192285771605742
 46
21.34164907701245
 79
     2
 49
1.618999999999997
 49
-17.80899999999995
 53
127.5
 43
-26566.12701525448
 44
3191.361289932171
 45
-8.455503887315311
 46
0.3088603250591822
 79
     6
 49
0.0
 49
-16.5608
 49
0.0
 49
-17.018
 49
0.0
 49
-16.8275
 53
97.49999999999985
 43
-26566.12701525448
 44
3191.361289932171
 45
-10.01805748181195
 46
6.681966251030575
 79
     6
 49
0.0
 49
-9.702799999999998
 49
0.0
 49
-16.17979999999999
 49
0.0
 49
-6.413499999999999
 53
57.5
 43
-26566.12701525448
 44
3185.697089932171
 45
0.5728743992673473
 46
13.55905951668713
 79
     6
 49
0.0
 49
-6.35
 49
0.0
 49
-19.812
 49
0.0
 49
-26.289
 53
47.5
 43
-26566.12701525448
 44
3183.157089932171
 45
-2.5426491033333
 46
14.8129181386018
 79
     6
 49
0.0
 49
-8.255
 49
0.0
 49
-13.1572
 49
0.0
 49
-18.669
 47
0.415434097446913
 98
        1
 10
1123.849935255303
 20
272.5421693371469
  0
LWPOLYLINE
  5
4600
330
1F
100
AcDbEntity
  8
nášlap_vrstvy
100
AcDbPolyline
 90
        4
 70
     1
 43
0.0
 10
1227.652249065964
 20
314.8997257502648
 10
1215.831382711049
 20
314.8997257502648
 10
1215.831382711049
 20
313.3997257502648
 10
1227.652249065964
 20
313.3997257502648
  0
HATCH
  5
4601
330
1F
100
AcDbEntity
  8
nášlap_vrstvy
100
AcDbHatch
 10
0.0
 20
0.0
 30
0.0
210
0.0
220
0.0
230
1.0
  2
SOLID
 70
     1
 71
     0
 91
        1
 92
        7
 72
     0
 73
     1
 93
        4
 10
1227.652249065968
 20
314.8997257502648
 10
1215.831382711049
 20
314.8997257502648
 10
1215.831382711049
 20
313.3997257502648
 10
1227.652249065968
 20
313.3997257502648
 97
        0
 75
     0
 76
     1
 47
0.1901250437635136
 98
        1
 10
1220.510280090219
 20
314.4913199747249
  0
LINE
  5
4602
330
1F
100
AcDbEntity
  8
POPIS
100
AcDbLine
 10
1253.679487354859
 20
407.0297192738546
 30
0.0
 11
1253.679487354859
 21
320.2811287020719
 31
0.0
  0
INSERT
  5
4603
330
1F
100
AcDbEntity
  8
POPIS
100
AcDbBlockReference
  2
E_PUNKT
 10
1253.637350731862
 20
322.1395111925145
 30
0.0
 50
270.0
  0
LWPOLYLINE
  5
4604
330
1F
100
AcDbEntity
  8
nášlap_vrstvy
100
AcDbPolyline
 90
        4
 70
     1
 43
0.0
 10
1251.293981775803
 20
314.8997257502648
 10
1239.473115420884
 20
314.8997257502648
 10
1239.473115420884
 20
313.3997257502648
 10
1251.293981775803
 20
313.3997257502648
  0
HATCH
  5
4605
330
1F
100
AcDbEntity
  8
nášlap_vrstvy
100
AcDbHatch
 10
0.0
 20
0.0
 30
0.0
210
0.0
220
0.0
230
1.0
  2
SOLID
 70
     1
 71
     0
 91
        1
 92
        7
 72
     0
 73
     1
 93
        4
 10
1251.293981775803
 20
314.8997257502648
 10
1239.473115420888
 20
314.8997257502648
 10
1239.473115420884
 20
313.3997257502648
 10
1251.293981775803
 20
313.3997257502648
 97
        0
 75
     0
 76
     1
 47
0.1901250437635136
 98
        1
 10
1244.152012800057
 20
314.4913199747249
  0
LINE
  5
4606
330
1F
100
AcDbEntity
  8
nášlap_vrstvy
100
AcDbLine
 10
1255.994408841225
 20
325.0105979264442
 30
0.0
 11
1251.352485594927
 21
325.0105979264442
 31
0.0
  0
LINE
  5
4607
330
1F
100
AcDbEntity
  8
nášlap_vrstvy
100
AcDbLine
 10
1251.005284702616
 20
325.0105979264442
 30
0.0
 11
1251.005284702616
 21
318.7605979264442
 31
0.0
  0
LWPOLYLINE
  5
4608
330
1F
100
AcDbEntity
  8
nášlap_vrstvy
100
AcDbPolyline
 90
        4
 70
     1
 43
0.0
 10
1180.368783646294
 20
314.8997257502648
 10
1168.547917291378
 20
314.8997257502648
 10
1168.547917291378
 20
313.3997257502648
 10
1180.368783646294
 20
313.3997257502648
  0
HATCH
  5
4609
330
1F
100
AcDbEntity
  8
nášlap_vrstvy
100
AcDbHatch
 10
0.0
 20
0.0
 30
0.0
210
0.0
220
0.0
230
1.0
  2
SOLID
 70
     1
 71
     0
 91
        1
 92
        7
 72
     0
 73
     1
 93
        4
 10
1180.368783646298
 20
314.8997257502648
 10
1168.547917291378
 20
314.8997257502648
 10
1168.547917291378
 20
313.3997257502648
 10
1180.368783646298
 20
313.3997257502648
 97
        0
 75
     0
 76
     1
 47
0.1901250437635136
 98
        1
 10
1173.226814670548
 20
314.4913199747249
  0
HATCH
  5
460A
330
1F
100
AcDbEntity
  8
nášlap_vrstvy
100
AcDbHatch
 10
0.0
 20
0.0
 30
0.0
210
0.0
220
0.0
230
1.0
  2
SOLID
 70
     1
 71
     0
 91
        1
 92
        7
 72
     0
 73
     1
 93
        4
 10
1133.085318226623
 20
314.8997257502648
 10
1121.264451871708
 20
314.8997257502648
 10
1121.264451871708
 20
313.3997257502648
 10
1133.085318226627
 20
313.3997257502648
 97
        0
 75
     0
 76
     1
 47
0.1901250437635136
 98
        3
 10
1147.207063358719
 20
314.0160032855707
 10
1129.038967945047
 20
313.9209399477401
 10
1127.041431850435
 20
314.206129961232
  0
LWPOLYLINE
  5
460B
330
1F
100
AcDbEntity
  8
nášlap_vrstvy
100
AcDbPolyline
 90
        4
 70
     1
 43
0.0
 10
1133.085318226623
 20
314.8997257502648
 10
1121.264451871708
 20
314.8997257502648
 10
1121.264451871708
 20
313.3997257502648
 10
1133.085318226623
 20
313.3997257502648
  0
HATCH
  5
460C
330
1F
100
AcDbEntity
  8
nášlap_vrstvy
100
AcDbHatch
 10
0.0
 20
0.0
 30
0.0
210
0.0
220
0.0
230
1.0
  2
SOLID
 70
     1
 71
     0
 91
        1
 92
        7
 72
     0
 73
     1
 93
        4
 10
1156.727050936462
 20
314.8997257502648
 10
1144.906184581546
 20
314.8997257502648
 10
1144.906184581543
 20
313.3997257502648
 10
1156.727050936462
 20
313.3997257502648
 97
        0
 75
     0
 76
     1
 47
0.1901250437635136
 98
        1
 10
1149.585081960716
 20
314.4913199747249
  0
LWPOLYLINE
  5
460D
330
1F
100
AcDbEntity
  8
nášlap_vrstvy
100
AcDbPolyline
 90
        4
 70
     1
 43
0.0
 10
1156.727050936462
 20
314.8997257502648
 10
1144.906184581543
 20
314.8997257502648
 10
1144.906184581543
 20
313.3997257502648
 10
1156.727050936462
 20
313.3997257502648
  0
LINE
  5
460E
330
1F
100
AcDbEntity
  8
SPOJOVACÍ
  6
DASHED
100
AcDbLine
 10
1157.829004745612
 20
313.3997257502652
 30
0.0
 11
1167.825306367334
 21
313.3997257502652
 31
0.0
  0
LINE
  5
460F
330
1F
100
AcDbEntity
  8
SPOJOVACÍ
  6
DASHED
100
AcDbLine
 10
1160.475299074607
 20
293.2580465820285
 30
0.0
 11
1165.179012038339
 21
292.0821183408244
 31
0.0
  0
LINE
  5
4610
330
1F
100
AcDbEntity
  8
SPOJOVACÍ
  6
DASHED
100
AcDbLine
 10
1160.475299074607
 20
290.2006331551749
 30
0.0
 11
1165.179012038339
 21
289.0247049142418
 31
0.0
  0
LINE
  5
4611
330
1F
100
AcDbEntity
  8
SPOJOVACÍ
  6
DASHED
100
AcDbLine
 10
1164.149846938353
 20
288.8834112109636
 30
0.0
 11
1164.149846938353
 21
286.4130503323887
 31
0.0
  0
LINE
  5
4612
330
1F
100
AcDbEntity
  8
SPOJOVACÍ
  6
DASHED
100
AcDbLine
 10
1161.504464178872
 20
286.708399751171
 30
0.0
 11
1161.504464178872
 21
284.2407735894304
 31
0.0
  0
LINE
  5
4613
330
1F
100
AcDbEntity
  8
SPOJOVACÍ
  6
DASHED
100
AcDbLine
 10
1161.504464178872
 20
283.6564557579787
 30
0.0
 11
1161.504464178872
 21
282.4340373309279
 31
0.0
  0
LINE
  5
4614
330
1F
100
AcDbEntity
  8
SPOJOVACÍ
  6
DASHED
100
AcDbLine
 10
1164.149846938353
 20
285.8241746397345
 30
0.0
 11
1164.149846938353
 21
283.3556369058062
 31
0.0
  0
LINE
  5
4615
330
1F
100
AcDbEntity
  8
SPOJOVACÍ
  6
DASHED
100
AcDbLine
 10
1164.149846938353
 20
282.7640264960539
 30
0.0
 11
1164.149846938353
 21
282.4340373309279
 31
0.0
  0
LINE
  5
4616
330
1F
100
AcDbEntity
  8
SPOJOVACÍ
  6
DASHED
100
AcDbLine
 10
1161.504464178872
 20
282.4340373309279
 30
0.0
 11
1161.65122731554
 21
281.2608438065582
 31
0.0
  0
LINE
  5
4617
330
1F
100
AcDbEntity
  8
SPOJOVACÍ
  6
DASHED
100
AcDbLine
 10
1161.726887816216
 20
280.6528250958219
 30
0.0
 11
1162.011298368745
 21
278.3775406854785
 31
0.0
  0
LINE
  5
4618
330
1F
100
AcDbEntity
  8
SPOJOVACÍ
  6
DASHED
100
AcDbLine
 10
1163.577379542405
 20
277.8497403352868
 30
0.0
 11
1163.839000788635
 21
279.9436218620832
 31
0.0
  0
LINE
  5
4619
330
1F
100
AcDbEntity
  8
SPOJOVACÍ
  6
DASHED
100
AcDbLine
 10
1163.909191855114
 20
280.5024156698674
 30
0.0
 11
1164.149846938353
 21
282.4340373309279
 31
0.0
  0
LINE
  5
461A
330
1F
100
AcDbEntity
  8
SPOJOVACÍ
  6
DASHED
100
AcDbLine
 10
1160.475299074607
 20
296.315460008611
 30
0.0
 11
1165.179012038339
 21
295.139531767678
 31
0.0
  0
LINE
  5
461B
330
1F
100
AcDbEntity
  8
SPOJOVACÍ
  6
DASHED
100
AcDbLine
 10
1160.72415830914
 20
281.0694136278763
 30
0.0
 11
1161.095168226458
 21
280.8551941420903
 31
0.0
  0
LINE
  5
461C
330
1F
100
AcDbEntity
  8
SPOJOVACÍ
  6
DASHED
100
AcDbLine
 10
1160.72415830914
 20
281.0694136278763
 30
0.0
 11
1161.095168226458
 21
281.439511973542
 31
0.0
  0
LINE
  5
461D
330
1F
100
AcDbEntity
  8
SPOJOVACÍ
  6
DASHED
100
AcDbLine
 10
1164.766981368828
 20
280.1159090232178
 30
0.0
 11
1164.396883025301
 21
279.7448991050934
 31
0.0
  0
LINE
  5
461E
330
1F
100
AcDbEntity
  8
SPOJOVACÍ
  6
DASHED
100
AcDbLine
 10
1164.766981368828
 20
280.1159090232178
 30
0.0
 11
1164.396883025301
 21
280.3292169365451
 31
0.0
  0
LINE
  5
461F
330
1F
100
AcDbEntity
  8
SPOJOVACÍ
  6
DASHED
100
AcDbLine
 10
1161.095168226458
 20
280.8551941420903
 30
0.0
 11
1164.396883025301
 21
279.7448991050934
 31
0.0
  0
LINE
  5
4620
330
1F
100
AcDbEntity
  8
SPOJOVACÍ
  6
DASHED
100
AcDbLine
 10
1161.095168226458
 20
281.439511973542
 30
0.0
 11
1164.396883025301
 21
280.3292169365451
 31
0.0
  0
LINE
  5
4621
330
1F
100
AcDbEntity
  8
SPOJOVACÍ
  6
DASHED
100
AcDbLine
 10
1160.72415830914
 20
281.0694136278763
 30
0.0
 11
1164.766981368828
 21
280.1159090232178
 31
0.0
  0
LINE
  5
4622
330
1F
100
AcDbEntity
  8
SPOJOVACÍ
  6
DASHED
100
AcDbLine
 10
1161.277482681124
 20
278.1150078686643
 30
0.0
 11
1161.647581028928
 21
277.901699955337
 31
0.0
  0
LINE
  5
4623
330
1F
100
AcDbEntity
  8
SPOJOVACÍ
  6
DASHED
100
AcDbLine
 10
1161.277482681124
 20
278.1150078686643
 30
0.0
 11
1161.647581028928
 21
278.4860177867887
 31
0.0
  0
LINE
  5
4624
330
1F
100
AcDbEntity
  8
SPOJOVACÍ
  6
DASHED
100
AcDbLine
 10
1164.331249819226
 20
277.4942271462297
 30
0.0
 11
1163.9611514757
 21
277.1232172283764
 31
0.0
  0
LINE
  5
4625
330
1F
100
AcDbEntity
  8
SPOJOVACÍ
  6
DASHED
100
AcDbLine
 10
1164.331249819226
 20
277.4942271462297
 30
0.0
 11
1163.9611514757
 21
277.707535059557
 31
0.0
  0
LINE
  5
4626
330
1F
100
AcDbEntity
  8
SPOJOVACÍ
  6
DASHED
100
AcDbLine
 10
1161.647581028928
 20
277.901699955337
 30
0.0
 11
1163.9611514757
 21
277.1232172283764
 31
0.0
  0
LINE
  5
4627
330
1F
100
AcDbEntity
  8
SPOJOVACÍ
  6
DASHED
100
AcDbLine
 10
1161.647581028928
 20
278.4860177867887
 30
0.0
 11
1163.9611514757
 21
277.707535059557
 31
0.0
  0
LINE
  5
4628
330
1F
100
AcDbEntity
  8
SPOJOVACÍ
  6
DASHED
100
AcDbLine
 10
1161.277482681124
 20
278.1150078686643
 30
0.0
 11
1164.331249819226
 21
277.4942271462297
 31
0.0
  0
LINE
  5
4629
330
1F
100
AcDbEntity
  8
SPOJOVACÍ
  6
DASHED
100
AcDbLine
 10
1165.179012038339
 20
289.0247049142418
 30
0.0
 11
1164.808913694813
 21
288.6536949963885
 31
0.0
  0
LINE
  5
462A
330
1F
100
AcDbEntity
  8
SPOJOVACÍ
  6
DASHED
100
AcDbLine
 10
1165.179012038339
 20
289.0247049142418
 30
0.0
 11
1164.808913694813
 21
289.2380128278329
 31
0.0
  0
LINE
  5
462B
330
1F
100
AcDbEntity
  8
SPOJOVACÍ
  6
DASHED
100
AcDbLine
 10
1160.475299074607
 20
287.143219728585
 30
0.0
 11
1165.179012038339
 21
285.967291487652
 31
0.0
  0
LINE
  5
462C
330
1F
100
AcDbEntity
  8
SPOJOVACÍ
  6
DASHED
100
AcDbLine
 10
1160.475299074607
 20
287.143219728585
 30
0.0
 11
1160.845397422412
 21
286.9290002428062
 31
0.0
  0
LINE
  5
462D
330
1F
100
AcDbEntity
  8
SPOJOVACÍ
  6
DASHED
100
AcDbLine
 10
1160.475299074607
 20
287.143219728585
 30
0.0
 11
1160.845397422412
 21
287.5133180742506
 31
0.0
  0
LINE
  5
462E
330
1F
100
AcDbEntity
  8
SPOJOVACÍ
  6
DASHED
100
AcDbLine
 10
1165.179012038339
 20
285.967291487652
 30
0.0
 11
1164.808913694813
 21
285.5962815697986
 31
0.0
  0
LINE
  5
462F
330
1F
100
AcDbEntity
  8
SPOJOVACÍ
  6
DASHED
100
AcDbLine
 10
1165.179012038339
 20
285.967291487652
 30
0.0
 11
1164.808913694813
 21
286.1805994009793
 31
0.0
  0
LINE
  5
4630
330
1F
100
AcDbEntity
  8
SPOJOVACÍ
  6
DASHED
100
AcDbLine
 10
1160.845397422412
 20
286.9290002428062
 30
0.0
 11
1164.808913694813
 21
285.5962815697986
 31
0.0
  0
LINE
  5
4631
330
1F
100
AcDbEntity
  8
SPOJOVACÍ
  6
DASHED
100
AcDbLine
 10
1160.845397422412
 20
287.5133180742506
 30
0.0
 11
1164.808913694813
 21
286.1805994009793
 31
0.0
  0
LINE
  5
4632
330
1F
100
AcDbEntity
  8
SPOJOVACÍ
  6
DASHED
100
AcDbLine
 10
1160.475299074607
 20
284.0848947295437
 30
0.0
 11
1165.179012038339
 21
282.9089664886107
 31
0.0
  0
LINE
  5
4633
330
1F
100
AcDbEntity
  8
SPOJOVACÍ
  6
DASHED
100
AcDbLine
 10
1160.475299074607
 20
284.0848947295437
 30
0.0
 11
1160.845397422412
 21
283.8715868162164
 31
0.0
  0
LINE
  5
4634
330
1F
100
AcDbEntity
  8
SPOJOVACÍ
  6
DASHED
100
AcDbLine
 10
1160.475299074607
 20
284.0848947295437
 30
0.0
 11
1160.845397422412
 21
284.455904647668
 31
0.0
  0
LINE
  5
4635
330
1F
100
AcDbEntity
  8
SPOJOVACÍ
  6
DASHED
100
AcDbLine
 10
1165.179012038339
 20
282.9089664886107
 30
0.0
 11
1164.808913694813
 21
282.538868142945
 31
0.0
  0
LINE
  5
4636
330
1F
100
AcDbEntity
  8
SPOJOVACÍ
  6
DASHED
100
AcDbLine
 10
1165.179012038339
 20
282.9089664886107
 30
0.0
 11
1164.808913694813
 21
283.1231859743967
 31
0.0
  0
LINE
  5
4637
330
1F
100
AcDbEntity
  8
SPOJOVACÍ
  6
DASHED
100
AcDbLine
 10
1160.845397422412
 20
283.8715868162164
 30
0.0
 11
1164.808913694813
 21
282.538868142945
 31
0.0
  0
LINE
  5
4638
330
1F
100
AcDbEntity
  8
SPOJOVACÍ
  6
DASHED
100
AcDbLine
 10
1160.845397422412
 20
284.455904647668
 30
0.0
 11
1164.808913694813
 21
283.1231859743967
 31
0.0
  0
LINE
  5
4639
330
1F
100
AcDbEntity
  8
SPOJOVACÍ
  6
DASHED
100
AcDbLine
 10
1160.475299074607
 20
299.3581078120625
 30
0.0
 11
1165.179012038339
 21
298.1821795708585
 31
0.0
  0
LINE
  5
463A
330
1F
100
AcDbEntity
  8
SPOJOVACÍ
  6
DASHED
100
AcDbLine
 10
1160.475299074607
 20
302.4155212386451
 30
0.0
 11
1165.179012038339
 21
301.2395929977121
 31
0.0
  0
LINE
  5
463B
330
1F
100
AcDbEntity
  8
SPOJOVACÍ
  6
DASHED
100
AcDbLine
 10
1160.475299074607
 20
305.4581690420965
 30
0.0
 11
1165.179012038339
 21
304.2822408011636
 31
0.0
  0
LINE
  5
463C
330
1F
100
AcDbEntity
  8
SPOJOVACÍ
  6
DASHED
100
AcDbLine
 10
1157.829004745612
 20
312.2237975090685
 30
0.0
 11
1167.825306367334
 21
312.2237975090685
 31
0.0
  0
LINE
  5
463D
330
1F
100
AcDbEntity
  8
SPOJOVACÍ
  6
DASHED
100
AcDbLine
 10
1161.504464178872
 20
295.8915788985197
 30
0.0
 11
1161.504464178872
 21
293.4230411645914
 31
0.0
  0
LINE
  5
463E
330
1F
100
AcDbEntity
  8
SPOJOVACÍ
  6
DASHED
100
AcDbLine
 10
1160.475299074607
 20
293.2580465820285
 30
0.0
 11
1160.845397422412
 21
293.6281449276941
 31
0.0
  0
LINE
  5
463F
330
1F
100
AcDbEntity
  8
SPOJOVACÍ
  6
DASHED
100
AcDbLine
 10
1160.475299074607
 20
293.2580465820285
 30
0.0
 11
1160.845397422412
 21
293.0438270962424
 31
0.0
  0
LINE
  5
4640
330
1F
100
AcDbEntity
  8
SPOJOVACÍ
  6
DASHED
100
AcDbLine
 10
1161.504464178872
 20
292.8314307551028
 30
0.0
 11
1161.504464178872
 21
290.361069876528
 31
0.0
  0
LINE
  5
4641
330
1F
100
AcDbEntity
  8
SPOJOVACÍ
  6
DASHED
100
AcDbLine
 10
1160.475299074607
 20
290.2006331551749
 30
0.0
 11
1160.845397422412
 21
290.5707315008405
 31
0.0
  0
LINE
  5
4642
330
1F
100
AcDbEntity
  8
SPOJOVACÍ
  6
DASHED
100
AcDbLine
 10
1160.475299074607
 20
290.2006331551749
 30
0.0
 11
1160.845397422412
 21
289.9864136693888
 31
0.0
  0
LINE
  5
4643
330
1F
100
AcDbEntity
  8
SPOJOVACÍ
  6
DASHED
100
AcDbLine
 10
1160.845397422412
 20
289.9864136693888
 30
0.0
 11
1164.808913694813
 21
288.6536949963885
 31
0.0
  0
LINE
  5
4644
330
1F
100
AcDbEntity
  8
SPOJOVACÍ
  6
DASHED
100
AcDbLine
 10
1161.504464178872
 20
289.7785751897228
 30
0.0
 11
1161.504464178872
 21
287.3009217331111
 31
0.0
  0
LINE
  5
4645
330
1F
100
AcDbEntity
  8
SPOJOVACÍ
  6
DASHED
100
AcDbLine
 10
1157.829004745612
 20
313.3997257502652
 30
0.0
 11
1157.829004745612
 21
312.2237975090685
 31
0.0
  0
LINE
  5
4646
330
1F
100
AcDbEntity
  8
SPOJOVACÍ
  6
DASHED
100
AcDbLine
 10
1157.829004745612
 20
312.2237975090685
 30
0.0
 11
1159.151696127492
 21
311.4945396853237
 31
0.0
  0
LINE
  5
4647
330
1F
100
AcDbEntity
  8
SPOJOVACÍ
  6
DASHED
100
AcDbLine
 10
1159.151696127492
 20
311.4945396853237
 30
0.0
 11
1160.240113429843
 21
310.4471431356998
 31
0.0
  0
LINE
  5
4648
330
1F
100
AcDbEntity
  8
SPOJOVACÍ
  6
DASHED
100
AcDbLine
 10
1160.240113429843
 20
310.4471431356998
 30
0.0
 11
1161.020419299575
 21
309.1545336429682
 31
0.0
  0
LINE
  5
4649
330
1F
100
AcDbEntity
  8
SPOJOVACÍ
  6
DASHED
100
AcDbLine
 10
1161.020419299575
 20
309.1545336429682
 30
0.0
 11
1161.439742546588
 21
307.7033105732591
 31
0.0
  0
LINE
  5
464A
330
1F
100
AcDbEntity
  8
SPOJOVACÍ
  6
DASHED
100
AcDbLine
 10
1161.439742546588
 20
307.7033105732591
 30
0.0
 11
1161.504464178872
 21
306.932120424599
 31
0.0
  0
LINE
  5
464B
330
1F
100
AcDbEntity
  8
SPOJOVACÍ
  6
DASHED
100
AcDbLine
 10
1161.47210336273
 20
307.3177154989291
 30
0.0
 11
1161.504464178872
 21
305.607570036782
 31
0.0
  0
LINE
  5
464C
330
1F
100
AcDbEntity
  8
SPOJOVACÍ
  6
DASHED
100
AcDbLine
 10
1160.475299074607
 20
305.4581690420965
 30
0.0
 11
1160.845397422412
 21
305.8291789599499
 31
0.0
  0
LINE
  5
464D
330
1F
100
AcDbEntity
  8
SPOJOVACÍ
  6
DASHED
100
AcDbLine
 10
1160.475299074607
 20
305.4581690420965
 30
0.0
 11
1160.845397422412
 21
305.2448611287692
 31
0.0
  0
LINE
  5
464E
330
1F
100
AcDbEntity
  8
SPOJOVACÍ
  6
DASHED
100
AcDbLine
 10
1161.504464178872
 20
305.0342879320052
 30
0.0
 11
1161.504464178872
 21
302.5657501980769
 31
0.0
  0
LINE
  5
464F
330
1F
100
AcDbEntity
  8
SPOJOVACÍ
  6
DASHED
100
AcDbLine
 10
1160.475299074607
 20
302.4155212386451
 30
0.0
 11
1160.845397422412
 21
302.7865311564984
 31
0.0
  0
LINE
  5
4650
330
1F
100
AcDbEntity
  8
SPOJOVACÍ
  6
DASHED
100
AcDbLine
 10
1160.475299074607
 20
302.4155212386451
 30
0.0
 11
1160.845397422412
 21
302.2022133253178
 31
0.0
  0
LINE
  5
4651
330
1F
100
AcDbEntity
  8
SPOJOVACÍ
  6
DASHED
100
AcDbLine
 10
1161.504464178872
 20
301.9916401285537
 30
0.0
 11
1161.504464178872
 21
299.5231023946254
 31
0.0
  0
LINE
  5
4652
330
1F
100
AcDbEntity
  8
SPOJOVACÍ
  6
DASHED
100
AcDbLine
 10
1160.475299074607
 20
299.3581078120625
 30
0.0
 11
1160.845397422412
 21
299.7282061577281
 31
0.0
  0
LINE
  5
4653
330
1F
100
AcDbEntity
  8
SPOJOVACÍ
  6
DASHED
100
AcDbLine
 10
1160.475299074607
 20
299.3581078120625
 30
0.0
 11
1160.845397422412
 21
299.1438883262764
 31
0.0
  0
LINE
  5
4654
330
1F
100
AcDbEntity
  8
SPOJOVACÍ
  6
DASHED
100
AcDbLine
 10
1161.504464178872
 20
298.9314919851369
 30
0.0
 11
1161.504464178872
 21
296.461131106562
 31
0.0
  0
LINE
  5
4655
330
1F
100
AcDbEntity
  8
SPOJOVACÍ
  6
DASHED
100
AcDbLine
 10
1160.475299074607
 20
296.315460008611
 30
0.0
 11
1160.845397422412
 21
296.6864699264644
 31
0.0
  0
LINE
  5
4656
330
1F
100
AcDbEntity
  8
SPOJOVACÍ
  6
DASHED
100
AcDbLine
 10
1160.475299074607
 20
296.315460008611
 30
0.0
 11
1160.845397422412
 21
296.1021520952837
 31
0.0
  0
LINE
  5
4657
330
1F
100
AcDbEntity
  8
SPOJOVACÍ
  6
DASHED
100
AcDbLine
 10
1160.845397422412
 20
290.5707315008405
 30
0.0
 11
1164.808913694813
 21
289.2380128278329
 31
0.0
  0
LINE
  5
4658
330
1F
100
AcDbEntity
  8
SPOJOVACÍ
  6
DASHED
100
AcDbLine
 10
1164.149846938353
 20
291.9435593543805
 30
0.0
 11
1164.149846938353
 21
289.4659058977687
 31
0.0
  0
LINE
  5
4659
330
1F
100
AcDbEntity
  8
SPOJOVACÍ
  6
DASHED
100
AcDbLine
 10
1160.845397422412
 20
293.0438270962424
 30
0.0
 11
1164.808913694813
 21
291.7120199954299
 31
0.0
  0
LINE
  5
465A
330
1F
100
AcDbEntity
  8
SPOJOVACÍ
  6
DASHED
100
AcDbLine
 10
1165.179012038339
 20
292.0821183408244
 30
0.0
 11
1164.808913694813
 21
291.7120199954299
 31
0.0
  0
LINE
  5
465B
330
1F
100
AcDbEntity
  8
SPOJOVACÍ
  6
DASHED
100
AcDbLine
 10
1165.179012038339
 20
292.0821183408244
 30
0.0
 11
1164.808913694813
 21
292.2963378266105
 31
0.0
  0
LINE
  5
465C
330
1F
100
AcDbEntity
  8
SPOJOVACÍ
  6
DASHED
100
AcDbLine
 10
1160.845397422412
 20
293.6281449276941
 30
0.0
 11
1164.808913694813
 21
292.2963378266105
 31
0.0
  0
LINE
  5
465D
330
1F
100
AcDbEntity
  8
SPOJOVACÍ
  6
DASHED
100
AcDbLine
 10
1164.149846938353
 20
294.9964149197605
 30
0.0
 11
1164.149846938353
 21
292.5278771858322
 31
0.0
  0
LINE
  5
465E
330
1F
100
AcDbEntity
  8
SPOJOVACÍ
  6
DASHED
100
AcDbLine
 10
1160.845397422412
 20
296.1021520952837
 30
0.0
 11
1164.808913694813
 21
294.7694334220124
 31
0.0
  0
LINE
  5
465F
330
1F
100
AcDbEntity
  8
SPOJOVACÍ
  6
DASHED
100
AcDbLine
 10
1165.179012038339
 20
295.139531767678
 30
0.0
 11
1164.808913694813
 21
294.7694334220124
 31
0.0
  0
LINE
  5
4660
330
1F
100
AcDbEntity
  8
SPOJOVACÍ
  6
DASHED
100
AcDbLine
 10
1165.179012038339
 20
295.139531767678
 30
0.0
 11
1164.808913694813
 21
295.3537512534641
 31
0.0
  0
LINE
  5
4661
330
1F
100
AcDbEntity
  8
SPOJOVACÍ
  6
DASHED
100
AcDbLine
 10
1160.845397422412
 20
296.6864699264644
 30
0.0
 11
1164.808913694813
 21
295.3537512534641
 31
0.0
  0
LINE
  5
4662
330
1F
100
AcDbEntity
  8
SPOJOVACÍ
  6
DASHED
100
AcDbLine
 10
1164.149846938353
 20
298.0436205844145
 30
0.0
 11
1164.149846938353
 21
295.5659671278028
 31
0.0
  0
LINE
  5
4663
330
1F
100
AcDbEntity
  8
SPOJOVACÍ
  6
DASHED
100
AcDbLine
 10
1160.845397422412
 20
299.1438883262764
 30
0.0
 11
1164.808913694813
 21
297.8120812254639
 31
0.0
  0
LINE
  5
4664
330
1F
100
AcDbEntity
  8
SPOJOVACÍ
  6
DASHED
100
AcDbLine
 10
1165.179012038339
 20
298.1821795708585
 30
0.0
 11
1164.808913694813
 21
297.8120812254639
 31
0.0
  0
LINE
  5
4665
330
1F
100
AcDbEntity
  8
SPOJOVACÍ
  6
DASHED
100
AcDbLine
 10
1165.179012038339
 20
298.1821795708585
 30
0.0
 11
1164.808913694813
 21
298.3963990566446
 31
0.0
  0
LINE
  5
4666
330
1F
100
AcDbEntity
  8
SPOJOVACÍ
  6
DASHED
100
AcDbLine
 10
1160.845397422412
 20
299.7282061577281
 30
0.0
 11
1164.808913694813
 21
298.3963990566446
 31
0.0
  0
LINE
  5
4667
330
1F
100
AcDbEntity
  8
SPOJOVACÍ
  6
DASHED
100
AcDbLine
 10
1164.149846938353
 20
301.0964761497945
 30
0.0
 11
1164.149846938353
 21
298.6279384158662
 31
0.0
  0
LINE
  5
4668
330
1F
100
AcDbEntity
  8
SPOJOVACÍ
  6
DASHED
100
AcDbLine
 10
1160.845397422412
 20
302.2022133253178
 30
0.0
 11
1164.808913694813
 21
300.8694946520465
 31
0.0
  0
LINE
  5
4669
330
1F
100
AcDbEntity
  8
SPOJOVACÍ
  6
DASHED
100
AcDbLine
 10
1165.179012038339
 20
301.2395929977121
 30
0.0
 11
1164.808913694813
 21
300.8694946520465
 31
0.0
  0
LINE
  5
466A
330
1F
100
AcDbEntity
  8
SPOJOVACÍ
  6
DASHED
100
AcDbLine
 10
1165.179012038339
 20
301.2395929977121
 30
0.0
 11
1164.808913694813
 21
301.4538124834982
 31
0.0
  0
LINE
  5
466B
330
1F
100
AcDbEntity
  8
SPOJOVACÍ
  6
DASHED
100
AcDbLine
 10
1160.845397422412
 20
302.7865311564984
 30
0.0
 11
1164.808913694813
 21
301.4538124834982
 31
0.0
  0
LINE
  5
466C
330
1F
100
AcDbEntity
  8
SPOJOVACÍ
  6
DASHED
100
AcDbLine
 10
1164.149846938353
 20
304.139123953246
 30
0.0
 11
1164.149846938353
 21
301.6705862193177
 31
0.0
  0
LINE
  5
466D
330
1F
100
AcDbEntity
  8
SPOJOVACÍ
  6
DASHED
100
AcDbLine
 10
1160.845397422412
 20
305.2448611287692
 30
0.0
 11
1164.808913694813
 21
303.9121424554979
 31
0.0
  0
LINE
  5
466E
330
1F
100
AcDbEntity
  8
SPOJOVACÍ
  6
DASHED
100
AcDbLine
 10
1165.179012038339
 20
304.2822408011636
 30
0.0
 11
1164.808913694813
 21
303.9121424554979
 31
0.0
  0
LINE
  5
466F
330
1F
100
AcDbEntity
  8
SPOJOVACÍ
  6
DASHED
100
AcDbLine
 10
1165.179012038339
 20
304.2822408011636
 30
0.0
 11
1164.808913694813
 21
304.4964602869496
 31
0.0
  0
LINE
  5
4670
330
1F
100
AcDbEntity
  8
SPOJOVACÍ
  6
DASHED
100
AcDbLine
 10
1160.845397422412
 20
305.8291789599499
 30
0.0
 11
1164.808913694813
 21
304.4964602869496
 31
0.0
  0
LINE
  5
4671
330
1F
100
AcDbEntity
  8
SPOJOVACÍ
  6
DASHED
100
AcDbLine
 10
1164.149846938353
 20
306.9321204246008
 30
0.0
 11
1164.149846938353
 21
304.7180692101193
 31
0.0
  0
LINE
  5
4672
330
1F
100
AcDbEntity
  8
SPOJOVACÍ
  6
DASHED
100
AcDbLine
 10
1164.149846938353
 20
306.932120424599
 30
0.0
 11
1164.372270571419
 21
308.4252758189597
 31
0.0
  0
LINE
  5
4673
330
1F
100
AcDbEntity
  8
SPOJOVACÍ
  6
DASHED
100
AcDbLine
 10
1164.372270571419
 20
308.4252758189597
 30
0.0
 11
1164.972996703584
 21
309.810865684469
 31
0.0
  0
LINE
  5
4674
330
1F
100
AcDbEntity
  8
SPOJOVACÍ
  6
DASHED
100
AcDbLine
 10
1164.972996703584
 20
309.810865684469
 30
0.0
 11
1165.911916152168
 21
310.9940865037098
 31
0.0
  0
LINE
  5
4675
330
1F
100
AcDbEntity
  8
SPOJOVACÍ
  6
DASHED
100
AcDbLine
 10
1165.911916152168
 20
310.9940865037098
 30
0.0
 11
1167.12430728489
 21
311.8938083439426
 31
0.0
  0
LINE
  5
4676
330
1F
100
AcDbEntity
  8
SPOJOVACÍ
  6
DASHED
100
AcDbLine
 10
1167.12430728489
 20
311.8938083439426
 30
0.0
 11
1167.825306367334
 21
312.2237975090685
 31
0.0
  0
LINE
  5
4677
330
1F
100
AcDbEntity
  8
SPOJOVACÍ
  6
DASHED
100
AcDbLine
 10
1167.825306367334
 20
313.3997257502652
 30
0.0
 11
1167.825306367334
 21
312.2237975090685
 31
0.0
  0
INSERT
  5
4678
330
1F
100
AcDbEntity
  8
POPIS
100
AcDbBlockReference
  2
E_PUNKT
 10
1129.678304912029
 20
345.0064574557388
 30
0.0
 50
270.0
  0
LWPOLYLINE
  5
4679
330
1F
100
AcDbEntity
  8
nášlap_vrstvy
100
AcDbPolyline
 90
        4
 70
     1
 43
0.0
 10
1126.427926975541
 20
330.4428029765392
 10
1132.734332631988
 20
330.4428029765392
 10
1132.734332631988
 20
367.853537095894
 10
1126.427926975541
 20
367.853537095894
  0
LINE
  5
467A
330
1F
100
AcDbEntity
  8
nášlap_vrstvy
100
AcDbLine
 10
1126.427926975541
 20
367.853537095894
 30
0.0
 11
1121.264451871704
 21
367.8535370958949
 31
0.0
  0
HATCH
  5
467B
330
1F
100
AcDbEntity
  8
nášlap_vrstvy
100
AcDbHatch
 10
0.0
 20
0.0
 30
0.0
210
0.0
220
0.0
230
1.0
  2
SOLID
 70
     1
 71
     0
 91
        3
 92
        7
 72
     0
 73
     1
 93
        6
 10
1125.698395268029
 20
341.7364382905231
 10
1124.033418076713
 20
341.7364382905231
 10
1124.033418076713
 20
328.2565040646733
 10
1126.397564092176
 20
328.2565040646733
 10
1126.427926975541
 20
330.4428029765392
 10
1125.698395268029
 20
330.4428029765392
 97
        0
 92
        7
 72
     1
 73
     1
 93
        8
 10
1132.734332631988
 20
330.4428029765392
 42
0.0
 10
1126.427926975541
 20
330.4428029765392
 42
0.0
 10
1126.397564092178
 20
328.2565040646733
 42
0.0
 10
1131.063174466349
 20
328.2565040646733
 42
0.2569302424632091
 10
1136.210996672544
 20
323.2724800224025
 42
0.0
 10
1136.210996672544
 20
318.7605979264442
 42
0.0
 10
1138.166537682078
 20
318.7605979264442
 42
0.0
 10
1138.166537682078
 20
325.0105979264487
 42
-0.4142135623730951
 97
        0
 92
        7
 72
     0
 73
     1
 93
        6
 10
1149.328325959006
 20
318.1065075995467
 10
1138.166537682078
 20
318.1065075995467
 10
1138.166537682078
 20
318.7605979264442
 10
1136.210996672544
 20
318.7605979264442
 10
1136.210996672544
 20
316.4415304082305
 10
1149.328325959006
 20
316.4415304082305
 97
        0
 75
     0
 76
     1
 47
0.0418313123855871
 98
        3
 10
1124.793993062343
 20
335.6775577216178
 10
1129.39794137721
 20
328.9426986461295
 10
1138.103625125026
 20
317.0626047783445
  0
LINE
  5
467C
330
1F
100
AcDbEntity
  8
nášlap_vrstvy
100
AcDbLine
 10
1126.352485594927
 20
325.0105979264442
 30
0.0
 11
1126.352485594927
 21
318.7605979264442
 31
0.0
  0
LINE
  5
467D
330
1F
100
AcDbEntity
  8
nášlap_vrstvy
100
AcDbLine
 10
1126.427926975541
 20
330.4428029765392
 30
0.0
 11
1126.352485594927
 21
325.0105979264442
 31
0.0
  0
INSERT
  5
467E
330
1F
100
AcDbEntity
  8
POPIS
100
AcDbBlockReference
  2
E_PUNKT
 10
1125.706471997559
 20
288.0397912037267
 30
0.0
 50
270.0
  0
LINE
  5
467F
330
1F
100
AcDbEntity
  8
SPOJOVACÍ
  6
DASHED
100
AcDbLine
 10
1162.827155556473
 20
271.8497715892737
 30
0.0
 11
1163.17446459798
 21
274.6291554705168
 31
0.0
  0
LINE
  5
4680
330
1F
100
AcDbEntity
  8
SPOJOVACÍ
  6
DASHED
100
AcDbLine
 10
1162.448853061653
 20
274.8771031307225
 30
0.0
 11
1162.827155556473
 21
271.8497715892737
 31
0.0
  0
LINE
  5
4681
330
1F
100
AcDbEntity
  8
SPOJOVACÍ
  6
DASHED
100
AcDbLine
 10
1161.830807057386
 20
275.1615136819111
 30
0.0
 11
1162.200905400912
 21
274.9472941961323
 31
0.0
  0
LINE
  5
4682
330
1F
100
AcDbEntity
  8
SPOJOVACÍ
  6
DASHED
100
AcDbLine
 10
1161.830807057386
 20
275.1615136819111
 30
0.0
 11
1162.200905400912
 21
275.5316120275767
 31
0.0
  0
LINE
  5
4683
330
1F
100
AcDbEntity
  8
SPOJOVACÍ
  6
DASHED
100
AcDbLine
 10
1163.942008456013
 20
274.8570485404527
 30
0.0
 11
1163.571910112487
 21
274.4860386225993
 31
0.0
  0
LINE
  5
4684
330
1F
100
AcDbEntity
  8
SPOJOVACÍ
  6
DASHED
100
AcDbLine
 10
1163.942008456013
 20
274.8570485404527
 30
0.0
 11
1163.571910112487
 21
275.0703564540437
 31
0.0
  0
LINE
  5
4685
330
1F
100
AcDbEntity
  8
SPOJOVACÍ
  6
DASHED
100
AcDbLine
 10
1162.200905400912
 20
274.9472941961323
 30
0.0
 11
1163.571910112487
 21
274.4860386225993
 31
0.0
  0
LINE
  5
4686
330
1F
100
AcDbEntity
  8
SPOJOVACÍ
  6
DASHED
100
AcDbLine
 10
1162.200905400912
 20
275.5316120275767
 30
0.0
 11
1163.571910112487
 21
275.0703564540437
 31
0.0
  0
LINE
  5
4687
330
1F
100
AcDbEntity
  8
SPOJOVACÍ
  6
DASHED
100
AcDbLine
 10
1161.830807057386
 20
275.1615136819111
 30
0.0
 11
1163.942008456013
 21
274.8570485404527
 31
0.0
  0
LINE
  5
4688
330
1F
100
AcDbEntity
  8
izolace
  6
IZOLACE
 48
0.7
100
AcDbLine
 10
1128.764451871704
 20
313.3997257502648
 30
0.0
 11
1128.764451871704
 21
285.6420599373793
 31
0.0
  0
LWPOLYLINE
  5
4689
330
1F
100
AcDbEntity
  8
izolace
100
AcDbPolyline
 90
        4
 70
     1
 43
0.0
 10
1121.264451871704
 20
313.3997257502648
 10
1136.2644518717
 20
313.3997257502648
 10
1136.264451871704
 20
285.6420599373793
 10
1121.264451871708
 20
285.6420599373793
  0
LINE
  5
468A
330
1F
100
AcDbEntity
  8
SPOJOVACÍ
  6
DASHED
100
AcDbLine
 10
1162.088782012726
 20
277.7594946796072
 30
0.0
 11
1162.373192560977
 21
275.4851218414589
 31
0.0
  0
LINE
  5
468B
330
1F
100
AcDbEntity
  8
SPOJOVACÍ
  6
DASHED
100
AcDbLine
 10
1163.244655664459
 20
275.1870377058423
 30
0.0
 11
1163.507188480203
 21
277.2891233831271
 31
0.0
  0
LWPOLYLINE
  5
468C
330
1F
100
AcDbEntity
  8
nášlap_vrstvy
100
AcDbPolyline
 90
        4
 70
     1
 43
0.0
 10
1204.010516356133
 20
314.8997257502648
 10
1192.189650001213
 20
314.8997257502648
 10
1192.189650001213
 20
313.3997257502648
 10
1204.010516356133
 20
313.3997257502648
  0
HATCH
  5
468D
330
1F
100
AcDbEntity
  8
nášlap_vrstvy
100
AcDbHatch
 10
0.0
 20
0.0
 30
0.0
210
0.0
220
0.0
230
1.0
  2
SOLID
 70
     1
 71
     0
 91
        1
 92
        7
 72
     0
 73
     1
 93
        4
 10
1204.010516356133
 20
314.8997257502648
 10
1192.189650001217
 20
314.8997257502648
 10
1192.189650001213
 20
313.3997257502648
 10
1204.010516356133
 20
313.3997257502648
 97
        0
 75
     0
 76
     1
 47
0.1901250437635136
 98
        1
 10
1196.868547380387
 20
314.4913199747249
  0
LINE
  5
468E
330
1F
100
AcDbEntity
  8
POPIS
100
AcDbLine
 10
1129.707373242901
 20
344.978847080112
 30
0.0
 11
1201.487327349916
 21
406.9355186905665
 31
0.0
  0
LINE
  5
468F
330
1F
100
AcDbEntity
  8
nášlap_vrstvy
100
AcDbLine
 10
1251.352485594927
 20
325.0105979264442
 30
0.0
 11
1138.166537682078
 21
325.0105979264487
 31
0.0
  0
TEXT
  5
4690
330
1F
100
AcDbEntity
  8
POPIS
100
AcDbText
 10
1186.642843428226
 20
415.7848797632903
 30
0.0
 40
25.0
  1
01
 41
0.85
  7
SIMPLEX7
100
AcDbText
  0
LWPOLYLINE
  5
4691
330
1F
100
AcDbEntity
  8
izolace
100
AcDbPolyline
 90
        4
 70
     1
 43
0.0
 10
1359.040046260217
 20
288.6420599373788
 10
1335.398313550382
 20
288.6420599373788
 10
1335.398313550382
 20
285.6420599373788
 10
1359.040046260217
 20
285.6420599373788
  0
HATCH
  5
4692
330
1F
100
AcDbEntity
  8
izolace
100
AcDbHatch
 10
0.0
 20
0.0
 30
0.0
210
0.0
220
0.0
230
1.0
  2
SOLID
 70
     1
 71
     0
 91
        1
 92
        7
 72
     0
 73
     1
 93
        4
 10
1359.040046260221
 20
288.6420599373788
 10
1335.398313550386
 20
288.6420599373788
 10
1335.398313550382
 20
285.6420599373788
 10
1359.040046260221
 20
285.6420599373788
 97
        0
 75
     0
 76
     1
 47
0.1901250437635136
 98
        1
 10
1344.756108308726
 20
287.825248386299
  0
LWPOLYLINE
  5
4693
330
1F
100
AcDbEntity
  8
izolace
100
AcDbPolyline
 90
        4
 70
     1
 43
0.0
 10
1311.756580840547
 20
288.6420599373788
 10
1288.114848130712
 20
288.6420599373788
 10
1288.114848130712
 20
285.6420599373788
 10
1311.756580840547
 20
285.6420599373788
  0
HATCH
  5
4694
330
1F
100
AcDbEntity
  8
izolace
100
AcDbHatch
 10
0.0
 20
0.0
 30
0.0
210
0.0
220
0.0
230
1.0
  2
SOLID
 70
     1
 71
     0
 91
        1
 92
        7
 72
     0
 73
     1
 93
        4
 10
1311.75658084055
 20
288.6420599373788
 10
1288.114848130715
 20
288.6420599373788
 10
1288.114848130712
 20
285.6420599373788
 10
1311.75658084055
 20
285.6420599373788
 97
        0
 75
     0
 76
     1
 47
0.1901250437635136
 98
        1
 10
1297.472642889055
 20
287.825248386299
  0
LWPOLYLINE
  5
4695
330
1F
100
AcDbEntity
  8
STAVBA OBRYS
100
AcDbPolyline
 90
        4
 70
     0
 43
0.0
 10
1360.358372692868
 20
267.6420599373793
 42
-0.0334776267545482
 10
1360.795650487575
 20
271.689034866116
 42
-0.0091133963862869
 10
1363.273254812493
 20
284.3807646515758
 42
-0.007828075361276
 10
1363.564153947651
 20
285.6420599373793
  0
LWPOLYLINE
  5
4696
330
1F
100
AcDbEntity
  8
STAVBA OBRYS
100
AcDbPolyline
 90
        5
 70
     0
 43
0.0
 10
1370.602511067662
 20
267.6420599373793
 42
-0.0133579731639958
 10
1370.98932155669
 20
270.1598622249345
 42
-0.0072443097182286
 10
1373.109318504148
 20
280.9707531198416
 42
-0.0219777111230329
 10
1374.015431006132
 20
284.4888663756771
 42
-0.0092752982622242
 10
1374.390657968079
 20
285.6420599373793
  0
LWPOLYLINE
  5
4697
330
1F
100
AcDbEntity
  8
STAVBA OBRYS
100
AcDbPolyline
 90
        4
 70
     0
 43
0.0
 10
1318.256488933408
 20
267.6420599373793
 42
-0.0334776267545482
 10
1318.693766728114
 20
271.689034866116
 42
-0.0091133963862869
 10
1321.171371053033
 20
284.3807646515758
 42
-0.007828075361276
 10
1321.462270188191
 20
285.6420599373793
  0
LWPOLYLINE
  5
4698
330
1F
100
AcDbEntity
  8
STAVBA OBRYS
100
AcDbPolyline
 90
        5
 70
     0
 43
0.0
 10
1328.500627308202
 20
267.6420599373793
 42
-0.0133579731639958
 10
1328.88743779723
 20
270.1598622249345
 42
-0.0072443097182286
 10
1331.007434744688
 20
280.9707531198416
 42
-0.0219777111230329
 10
1331.913547246671
 20
284.4888663756771
 42
-0.0092752982622242
 10
1332.288774208619
 20
285.6420599373793
  0
LWPOLYLINE
  5
4699
330
1F
100
AcDbEntity
  8
STAVBA OBRYS
100
AcDbPolyline
 90
        5
 70
     0
 43
0.0
 10
1298.353618451727
 20
267.6420599373793
 42
-0.0133579731639958
 10
1298.740428940755
 20
270.1598622249345
 42
-0.0072443097182286
 10
1300.860425888213
 20
280.9707531198416
 42
-0.0219777111230329
 10
1301.766538390197
 20
284.4888663756771
 42
-0.0092752982622242
 10
1302.141765352144
 20
285.6420599373793
  0
LWPOLYLINE
  5
469A
330
1F
100
AcDbEntity
  8
STAVBA OBRYS
100
AcDbPolyline
 90
        3
 70
     0
 43
0.0
 10
1306.80395107044
 20
267.6420599373793
 42
-0.0052038508054843
 10
1310.002348010423
 20
284.0458864193767
 42
-0.0065712046643719
 10
1310.352773780187
 20
285.6420599373793
  0
LWPOLYLINE
  5
469B
330
1F
100
AcDbEntity
  8
STAVBA OBRYS
100
AcDbPolyline
 90
        4
 70
     0
 43
0.0
 10
1338.406231182098
 20
267.6420599373793
 42
-0.0186324019486548
 10
1341.774600554205
 20
279.3371715556038
 42
-0.0582629403736403
 10
1343.434100422286
 20
282.9170057545395
 42
-0.0146402521923566
 10
1345.21850840387
 20
285.6420599373793
  0
LWPOLYLINE
  5
469C
330
1F
100
AcDbEntity
  8
STAVBA OBRYS
100
AcDbPolyline
 90
        4
 70
     0
 43
0.0
 10
1353.010616370693
 20
267.1412295066308
 10
1333.0143639387
 20
276.3572585571507
 10
1316.236473367482
 20
279.0644028198418
 10
1312.972862119777
 20
279.1947041842119
  0
LWPOLYLINE
  5
469D
330
1F
100
AcDbEntity
  8
STAVBA OBRYS
100
AcDbPolyline
 90
        3
 70
     0
 43
0.0
 10
1348.9058348299
 20
267.6420599373793
 42
-0.0052038508054843
 10
1352.104231769883
 20
284.0458864193767
 42
-0.0065712046643719
 10
1352.454657539647
 20
285.6420599373793
  0
LINE
  5
469E
330
1F
100
AcDbEntity
  8
STAVBA OBRYS
100
AcDbLine
 10
1271.264451871708
 20
285.6420599373783
 30
0.0
 11
1271.264451871708
 21
267.6420599373793
 31
0.0
  0
LWPOLYLINE
  5
469F
330
1F
100
AcDbEntity
  8
STAVBA OBRYS
100
AcDbPolyline
 90
        3
 70
     0
 43
0.0
 10
1276.656942213965
 20
267.6420599373793
 42
-0.0052038508054843
 10
1279.855339153948
 20
284.0458864193767
 42
-0.0065712046643719
 10
1280.205764923712
 20
285.6420599373793
  0
LWPOLYLINE
  5
46A0
330
1F
100
AcDbEntity
  8
STAVBA OBRYS
100
AcDbPolyline
 90
        4
 70
     0
 43
0.0
 10
1322.863607514218
 20
267.1412295066308
 10
1302.867355082226
 20
276.3572585571507
 10
1286.089464511007
 20
279.0644028198418
 10
1282.825853263303
 20
279.1947041842119
  0
LWPOLYLINE
  5
46A1
330
1F
100
AcDbEntity
  8
STAVBA OBRYS
100
AcDbPolyline
 90
        4
 70
     0
 43
0.0
 10
1288.109480076933
 20
267.6420599373793
 42
-0.0334776267545482
 10
1288.54675787164
 20
271.689034866116
 42
-0.0091133963862869
 10
1291.024362196558
 20
284.3807646515758
 42
-0.007828075361276
 10
1291.315261331716
 20
285.6420599373793
  0
LWPOLYLINE
  5
46A2
330
1F
100
AcDbEntity
  8
STAVBA OBRYS
100
AcDbPolyline
 90
        6
 70
     0
 43
0.0
 10
1389.318576290401
 20
267.6420599373793
 42
-0.0121757200102759
 10
1390.688566004062
 20
272.3139772698465
 42
-0.0457786284636091
 10
1391.896588893678
 20
275.1625876527229
 42
-0.0295006114745606
 10
1394.312649347978
 20
279.089486866125
 42
-0.0258674098621065
 10
1397.545324661942
 20
283.2352669448789
 42
-0.0093759062953949
 10
1399.711136841599
 20
285.6420599373793
  0
LWPOLYLINE
  5
46A3
330
1F
100
AcDbEntity
  8
STAVBA OBRYS
100
AcDbPolyline
 90
        3
 70
     0
 43
0.0
 10
1411.44190806231
 20
267.6420599373793
 10
1397.649860135671
 20
274.543131500866
 10
1389.482755486546
 20
282.7244332019597
  0
LWPOLYLINE
  5
46A4
330
1F
100
AcDbEntity
  8
STAVBA OBRYS
100
AcDbPolyline
 90
        4
 70
     0
 43
0.0
 10
1380.508114941558
 20
267.6420599373793
 42
-0.0186324019486548
 10
1383.876484313665
 20
279.3371715556038
 42
-0.0582629403736403
 10
1385.535984181746
 20
282.9170057545395
 42
-0.0146402521923566
 10
1387.32039216333
 20
285.6420599373793
  0
LWPOLYLINE
  5
46A5
330
1F
100
AcDbEntity
  8
STAVBA OBRYS
100
AcDbPolyline
 90
        4
 70
     0
 43
0.0
 10
1395.112500130153
 20
267.1412295066308
 10
1375.116247698161
 20
276.3572585571507
 10
1358.338357126942
 20
279.0644028198418
 10
1355.074745879237
 20
279.1947041842119
  0
LWPOLYLINE
  5
46A6
330
1F
100
AcDbEntity
  8
izolace
100
AcDbPolyline
 90
        4
 70
     1
 43
0.0
 10
1406.323511679888
 20
288.6420599373788
 10
1382.681778970052
 20
288.6420599373788
 10
1382.681778970052
 20
285.6420599373788
 10
1406.323511679888
 20
285.6420599373788
  0
HATCH
  5
46A7
330
1F
100
AcDbEntity
  8
izolace
100
AcDbHatch
 10
0.0
 20
0.0
 30
0.0
210
0.0
220
0.0
230
1.0
  2
SOLID
 70
     1
 71
     0
 91
        1
 92
        7
 72
     0
 73
     1
 93
        4
 10
1406.323511679891
 20
288.6420599373788
 10
1382.681778970056
 20
288.6420599373788
 10
1382.681778970052
 20
285.6420599373788
 10
1406.323511679891
 20
285.6420599373788
 97
        0
 75
     0
 76
     1
 47
0.1901250437635136
 98
        1
 10
1392.039573728396
 20
287.825248386299
  0
LWPOLYLINE
  5
46A8
330
1F
100
AcDbEntity
  8
nášlap_vrstvy
100
AcDbPolyline
 90
        4
 70
     1
 43
0.0
 10
1416.786110744646
 20
314.8997257502648
 10
1404.96524438973
 20
314.8997257502648
 10
1404.96524438973
 20
313.3997257502648
 10
1416.786110744646
 20
313.3997257502648
  0
HATCH
  5
46A9
330
1F
100
AcDbEntity
  8
nášlap_vrstvy
100
AcDbHatch
 10
0.0
 20
0.0
 30
0.0
210
0.0
220
0.0
230
1.0
  2
SOLID
 70
     1
 71
     0
 91
        1
 92
        7
 72
     0
 73
     1
 93
        4
 10
1416.786110744649
 20
314.8997257502648
 10
1404.96524438973
 20
314.8997257502648
 10
1404.96524438973
 20
313.3997257502648
 10
1416.786110744649
 20
313.3997257502648
 97
        0
 75
     0
 76
     1
 47
0.1901250437635136
 98
        1
 10
1409.6441417689
 20
314.4913199747249
  0
LINE
  5
46AA
330
1F
100
AcDbEntity
  8
SPOJOVACÍ
  6
DASHED
100
AcDbLine
 10
1407.724155712967
 20
312.2237975090685
 30
0.0
 11
1409.046847094847
 21
311.4945396853237
 31
0.0
  0
LINE
  5
46AB
330
1F
100
AcDbEntity
  8
SPOJOVACÍ
  6
DASHED
100
AcDbLine
 10
1407.724155712967
 20
313.3997257502652
 30
0.0
 11
1407.724155712967
 21
312.2237975090685
 31
0.0
  0
LINE
  5
46AC
330
1F
100
AcDbEntity
  8
SPOJOVACÍ
  6
DASHED
100
AcDbLine
 10
1410.370450041962
 20
305.4581690420965
 30
0.0
 11
1415.074163005694
 21
304.2822408011636
 31
0.0
  0
LINE
  5
46AD
330
1F
100
AcDbEntity
  8
SPOJOVACÍ
  6
DASHED
100
AcDbLine
 10
1409.046847094847
 20
311.4945396853237
 30
0.0
 11
1410.135264397198
 21
310.4471431356998
 31
0.0
  0
LINE
  5
46AE
330
1F
100
AcDbEntity
  8
SPOJOVACÍ
  6
DASHED
100
AcDbLine
 10
1410.135264397198
 20
310.4471431356998
 30
0.0
 11
1410.91557026693
 21
309.1545336429682
 31
0.0
  0
LINE
  5
46AF
330
1F
100
AcDbEntity
  8
SPOJOVACÍ
  6
DASHED
100
AcDbLine
 10
1410.91557026693
 20
309.1545336429682
 30
0.0
 11
1411.334893513944
 21
307.7033105732591
 31
0.0
  0
LINE
  5
46B0
330
1F
100
AcDbEntity
  8
SPOJOVACÍ
  6
DASHED
100
AcDbLine
 10
1411.334893513944
 20
307.7033105732591
 30
0.0
 11
1411.399615146227
 21
306.932120424599
 31
0.0
  0
LINE
  5
46B1
330
1F
100
AcDbEntity
  8
SPOJOVACÍ
  6
DASHED
100
AcDbLine
 10
1411.367254330085
 20
307.3177154989291
 30
0.0
 11
1411.399615146227
 21
305.607570036782
 31
0.0
  0
LINE
  5
46B2
330
1F
100
AcDbEntity
  8
SPOJOVACÍ
  6
DASHED
100
AcDbLine
 10
1410.370450041962
 20
305.4581690420965
 30
0.0
 11
1410.740548389767
 21
305.8291789599499
 31
0.0
  0
LINE
  5
46B3
330
1F
100
AcDbEntity
  8
SPOJOVACÍ
  6
DASHED
100
AcDbLine
 10
1410.370450041962
 20
305.4581690420965
 30
0.0
 11
1410.740548389767
 21
305.2448611287692
 31
0.0
  0
LINE
  5
46B4
330
1F
100
AcDbEntity
  8
SPOJOVACÍ
  6
DASHED
100
AcDbLine
 10
1415.074163005694
 20
304.2822408011636
 30
0.0
 11
1414.704064662168
 21
304.4964602869496
 31
0.0
  0
LINE
  5
46B5
330
1F
100
AcDbEntity
  8
SPOJOVACÍ
  6
DASHED
100
AcDbLine
 10
1410.740548389767
 20
305.8291789599499
 30
0.0
 11
1414.704064662168
 21
304.4964602869496
 31
0.0
  0
LINE
  5
46B6
330
1F
100
AcDbEntity
  8
SPOJOVACÍ
  6
DASHED
100
AcDbLine
 10
1414.044997905708
 20
306.9321204246008
 30
0.0
 11
1414.044997905708
 21
304.7180692101193
 31
0.0
  0
LINE
  5
46B7
330
1F
100
AcDbEntity
  8
SPOJOVACÍ
  6
DASHED
100
AcDbLine
 10
1414.044997905708
 20
306.932120424599
 30
0.0
 11
1414.267421538774
 21
308.4252758189597
 31
0.0
  0
LINE
  5
46B8
330
1F
100
AcDbEntity
  8
SPOJOVACÍ
  6
DASHED
100
AcDbLine
 10
1414.267421538774
 20
308.4252758189597
 30
0.0
 11
1414.868147670939
 21
309.810865684469
 31
0.0
  0
LINE
  5
46B9
330
1F
100
AcDbEntity
  8
SPOJOVACÍ
  6
DASHED
100
AcDbLine
 10
1414.868147670939
 20
309.810865684469
 30
0.0
 11
1415.807067119524
 21
310.9940865037098
 31
0.0
  0
LINE
  5
46BA
330
1F
100
AcDbEntity
  8
SPOJOVACÍ
  6
DASHED
100
AcDbLine
 10
1410.740548389767
 20
284.455904647668
 30
0.0
 11
1414.704064662168
 21
283.1231859743967
 31
0.0
  0
LINE
  5
46BB
330
1F
100
AcDbEntity
  8
SPOJOVACÍ
  6
DASHED
100
AcDbLine
 10
1410.740548389767
 20
283.8715868162164
 30
0.0
 11
1414.704064662168
 21
282.538868142945
 31
0.0
  0
LINE
  5
46BC
330
1F
100
AcDbEntity
  8
SPOJOVACÍ
  6
DASHED
100
AcDbLine
 10
1415.074163005694
 20
282.9089664886107
 30
0.0
 11
1414.704064662168
 21
283.1231859743967
 31
0.0
  0
LINE
  5
46BD
330
1F
100
AcDbEntity
  8
SPOJOVACÍ
  6
DASHED
100
AcDbLine
 10
1415.074163005694
 20
282.9089664886107
 30
0.0
 11
1414.704064662168
 21
282.538868142945
 31
0.0
  0
LINE
  5
46BE
330
1F
100
AcDbEntity
  8
SPOJOVACÍ
  6
DASHED
100
AcDbLine
 10
1410.740548389767
 20
287.5133180742506
 30
0.0
 11
1414.704064662168
 21
286.1805994009793
 31
0.0
  0
LINE
  5
46BF
330
1F
100
AcDbEntity
  8
SPOJOVACÍ
  6
DASHED
100
AcDbLine
 10
1410.740548389767
 20
286.9290002428062
 30
0.0
 11
1414.704064662168
 21
285.5962815697986
 31
0.0
  0
LINE
  5
46C0
330
1F
100
AcDbEntity
  8
SPOJOVACÍ
  6
DASHED
100
AcDbLine
 10
1415.074163005694
 20
285.967291487652
 30
0.0
 11
1414.704064662168
 21
286.1805994009793
 31
0.0
  0
LINE
  5
46C1
330
1F
100
AcDbEntity
  8
SPOJOVACÍ
  6
DASHED
100
AcDbLine
 10
1415.074163005694
 20
285.967291487652
 30
0.0
 11
1414.704064662168
 21
285.5962815697986
 31
0.0
  0
LINE
  5
46C2
330
1F
100
AcDbEntity
  8
SPOJOVACÍ
  6
DASHED
100
AcDbLine
 10
1415.074163005694
 20
289.0247049142418
 30
0.0
 11
1414.704064662168
 21
289.2380128278329
 31
0.0
  0
LINE
  5
46C3
330
1F
100
AcDbEntity
  8
SPOJOVACÍ
  6
DASHED
100
AcDbLine
 10
1415.074163005694
 20
289.0247049142418
 30
0.0
 11
1414.704064662168
 21
288.6536949963885
 31
0.0
  0
LINE
  5
46C4
330
1F
100
AcDbEntity
  8
SPOJOVACÍ
  6
DASHED
100
AcDbLine
 10
1411.172633648479
 20
278.1150078686643
 30
0.0
 11
1414.226400786581
 21
277.4942271462297
 31
0.0
  0
LINE
  5
46C5
330
1F
100
AcDbEntity
  8
SPOJOVACÍ
  6
DASHED
100
AcDbLine
 10
1411.542731996283
 20
278.4860177867887
 30
0.0
 11
1413.856302443055
 21
277.707535059557
 31
0.0
  0
LINE
  5
46C6
330
1F
100
AcDbEntity
  8
SPOJOVACÍ
  6
DASHED
100
AcDbLine
 10
1411.542731996283
 20
277.901699955337
 30
0.0
 11
1413.856302443055
 21
277.1232172283764
 31
0.0
  0
LINE
  5
46C7
330
1F
100
AcDbEntity
  8
SPOJOVACÍ
  6
DASHED
100
AcDbLine
 10
1414.226400786581
 20
277.4942271462297
 30
0.0
 11
1413.856302443055
 21
277.707535059557
 31
0.0
  0
LINE
  5
46C8
330
1F
100
AcDbEntity
  8
SPOJOVACÍ
  6
DASHED
100
AcDbLine
 10
1414.226400786581
 20
277.4942271462297
 30
0.0
 11
1413.856302443055
 21
277.1232172283764
 31
0.0
  0
LINE
  5
46C9
330
1F
100
AcDbEntity
  8
SPOJOVACÍ
  6
DASHED
100
AcDbLine
 10
1411.172633648479
 20
278.1150078686643
 30
0.0
 11
1411.542731996283
 21
278.4860177867887
 31
0.0
  0
LINE
  5
46CA
330
1F
100
AcDbEntity
  8
SPOJOVACÍ
  6
DASHED
100
AcDbLine
 10
1411.172633648479
 20
278.1150078686643
 30
0.0
 11
1411.542731996283
 21
277.901699955337
 31
0.0
  0
LINE
  5
46CB
330
1F
100
AcDbEntity
  8
SPOJOVACÍ
  6
DASHED
100
AcDbLine
 10
1410.619309276495
 20
281.0694136278763
 30
0.0
 11
1414.662132336183
 21
280.1159090232178
 31
0.0
  0
LINE
  5
46CC
330
1F
100
AcDbEntity
  8
SPOJOVACÍ
  6
DASHED
100
AcDbLine
 10
1410.990319193814
 20
281.439511973542
 30
0.0
 11
1414.292033992657
 21
280.3292169365451
 31
0.0
  0
LINE
  5
46CD
330
1F
100
AcDbEntity
  8
SPOJOVACÍ
  6
DASHED
100
AcDbLine
 10
1410.990319193814
 20
280.8551941420903
 30
0.0
 11
1414.292033992657
 21
279.7448991050934
 31
0.0
  0
LINE
  5
46CE
330
1F
100
AcDbEntity
  8
SPOJOVACÍ
  6
DASHED
100
AcDbLine
 10
1414.662132336183
 20
280.1159090232178
 30
0.0
 11
1414.292033992657
 21
280.3292169365451
 31
0.0
  0
LINE
  5
46CF
330
1F
100
AcDbEntity
  8
SPOJOVACÍ
  6
DASHED
100
AcDbLine
 10
1414.662132336183
 20
280.1159090232178
 30
0.0
 11
1414.292033992657
 21
279.7448991050934
 31
0.0
  0
LINE
  5
46D0
330
1F
100
AcDbEntity
  8
SPOJOVACÍ
  6
DASHED
100
AcDbLine
 10
1410.619309276495
 20
281.0694136278763
 30
0.0
 11
1410.990319193814
 21
281.439511973542
 31
0.0
  0
LINE
  5
46D1
330
1F
100
AcDbEntity
  8
SPOJOVACÍ
  6
DASHED
100
AcDbLine
 10
1410.619309276495
 20
281.0694136278763
 30
0.0
 11
1410.990319193814
 21
280.8551941420903
 31
0.0
  0
LINE
  5
46D2
330
1F
100
AcDbEntity
  8
SPOJOVACÍ
  6
DASHED
100
AcDbLine
 10
1413.80434282247
 20
280.5024156698674
 30
0.0
 11
1414.044997905708
 21
282.4340373309279
 31
0.0
  0
LINE
  5
46D3
330
1F
100
AcDbEntity
  8
SPOJOVACÍ
  6
DASHED
100
AcDbLine
 10
1413.47253050976
 20
277.8497403352868
 30
0.0
 11
1413.734151755991
 21
279.9436218620832
 31
0.0
  0
LINE
  5
46D4
330
1F
100
AcDbEntity
  8
SPOJOVACÍ
  6
DASHED
100
AcDbLine
 10
1411.622038783571
 20
280.6528250958219
 30
0.0
 11
1411.9064493361
 21
278.3775406854785
 31
0.0
  0
LINE
  5
46D5
330
1F
100
AcDbEntity
  8
SPOJOVACÍ
  6
DASHED
100
AcDbLine
 10
1411.399615146227
 20
282.4340373309279
 30
0.0
 11
1411.546378282896
 21
281.2608438065582
 31
0.0
  0
LINE
  5
46D6
330
1F
100
AcDbEntity
  8
SPOJOVACÍ
  6
DASHED
100
AcDbLine
 10
1414.044997905708
 20
282.7640264960539
 30
0.0
 11
1414.044997905708
 21
282.4340373309279
 31
0.0
  0
LINE
  5
46D7
330
1F
100
AcDbEntity
  8
SPOJOVACÍ
  6
DASHED
100
AcDbLine
 10
1414.044997905708
 20
285.8241746397345
 30
0.0
 11
1414.044997905708
 21
283.3556369058062
 31
0.0
  0
LINE
  5
46D8
330
1F
100
AcDbEntity
  8
SPOJOVACÍ
  6
DASHED
100
AcDbLine
 10
1411.399615146227
 20
283.6564557579787
 30
0.0
 11
1411.399615146227
 21
282.4340373309279
 31
0.0
  0
LINE
  5
46D9
330
1F
100
AcDbEntity
  8
SPOJOVACÍ
  6
DASHED
100
AcDbLine
 10
1411.399615146227
 20
286.708399751171
 30
0.0
 11
1411.399615146227
 21
284.2407735894304
 31
0.0
  0
LINE
  5
46DA
330
1F
100
AcDbEntity
  8
SPOJOVACÍ
  6
DASHED
100
AcDbLine
 10
1414.044997905708
 20
288.8834112109636
 30
0.0
 11
1414.044997905708
 21
286.4130503323887
 31
0.0
  0
LINE
  5
46DB
330
1F
100
AcDbEntity
  8
SPOJOVACÍ
  6
DASHED
100
AcDbLine
 10
1411.399615146227
 20
298.9314919851369
 30
0.0
 11
1411.399615146227
 21
296.461131106562
 31
0.0
  0
LINE
  5
46DC
330
1F
100
AcDbEntity
  8
SPOJOVACÍ
  6
DASHED
100
AcDbLine
 10
1411.399615146227
 20
295.8915788985197
 30
0.0
 11
1411.399615146227
 21
293.4230411645914
 31
0.0
  0
LINE
  5
46DD
330
1F
100
AcDbEntity
  8
SPOJOVACÍ
  6
DASHED
100
AcDbLine
 10
1411.399615146227
 20
292.8314307551028
 30
0.0
 11
1411.399615146227
 21
290.361069876528
 31
0.0
  0
LINE
  5
46DE
330
1F
100
AcDbEntity
  8
SPOJOVACÍ
  6
DASHED
100
AcDbLine
 10
1410.740548389767
 20
289.9864136693888
 30
0.0
 11
1414.704064662168
 21
288.6536949963885
 31
0.0
  0
LINE
  5
46DF
330
1F
100
AcDbEntity
  8
SPOJOVACÍ
  6
DASHED
100
AcDbLine
 10
1411.399615146227
 20
289.7785751897228
 30
0.0
 11
1411.399615146227
 21
287.3009217331111
 31
0.0
  0
LINE
  5
46E0
330
1F
100
AcDbEntity
  8
SPOJOVACÍ
  6
DASHED
100
AcDbLine
 10
1411.399615146227
 20
305.0342879320052
 30
0.0
 11
1411.399615146227
 21
302.5657501980769
 31
0.0
  0
LINE
  5
46E1
330
1F
100
AcDbEntity
  8
SPOJOVACÍ
  6
DASHED
100
AcDbLine
 10
1411.399615146227
 20
301.9916401285537
 30
0.0
 11
1411.399615146227
 21
299.5231023946254
 31
0.0
  0
LINE
  5
46E2
330
1F
100
AcDbEntity
  8
SPOJOVACÍ
  6
DASHED
100
AcDbLine
 10
1410.740548389767
 20
290.5707315008405
 30
0.0
 11
1414.704064662168
 21
289.2380128278329
 31
0.0
  0
LINE
  5
46E3
330
1F
100
AcDbEntity
  8
SPOJOVACÍ
  6
DASHED
100
AcDbLine
 10
1414.044997905708
 20
291.9435593543805
 30
0.0
 11
1414.044997905708
 21
289.4659058977687
 31
0.0
  0
LINE
  5
46E4
330
1F
100
AcDbEntity
  8
SPOJOVACÍ
  6
DASHED
100
AcDbLine
 10
1410.740548389767
 20
293.0438270962424
 30
0.0
 11
1414.704064662168
 21
291.7120199954299
 31
0.0
  0
LINE
  5
46E5
330
1F
100
AcDbEntity
  8
SPOJOVACÍ
  6
DASHED
100
AcDbLine
 10
1415.074163005694
 20
292.0821183408244
 30
0.0
 11
1414.704064662168
 21
291.7120199954299
 31
0.0
  0
LINE
  5
46E6
330
1F
100
AcDbEntity
  8
SPOJOVACÍ
  6
DASHED
100
AcDbLine
 10
1415.074163005694
 20
292.0821183408244
 30
0.0
 11
1414.704064662168
 21
292.2963378266105
 31
0.0
  0
LINE
  5
46E7
330
1F
100
AcDbEntity
  8
SPOJOVACÍ
  6
DASHED
100
AcDbLine
 10
1410.740548389767
 20
293.6281449276941
 30
0.0
 11
1414.704064662168
 21
292.2963378266105
 31
0.0
  0
LINE
  5
46E8
330
1F
100
AcDbEntity
  8
SPOJOVACÍ
  6
DASHED
100
AcDbLine
 10
1414.044997905708
 20
294.9964149197605
 30
0.0
 11
1414.044997905708
 21
292.5278771858322
 31
0.0
  0
LINE
  5
46E9
330
1F
100
AcDbEntity
  8
SPOJOVACÍ
  6
DASHED
100
AcDbLine
 10
1410.740548389767
 20
296.1021520952837
 30
0.0
 11
1414.704064662168
 21
294.7694334220124
 31
0.0
  0
LINE
  5
46EA
330
1F
100
AcDbEntity
  8
SPOJOVACÍ
  6
DASHED
100
AcDbLine
 10
1415.074163005694
 20
295.139531767678
 30
0.0
 11
1414.704064662168
 21
294.7694334220124
 31
0.0
  0
LINE
  5
46EB
330
1F
100
AcDbEntity
  8
SPOJOVACÍ
  6
DASHED
100
AcDbLine
 10
1415.074163005694
 20
295.139531767678
 30
0.0
 11
1414.704064662168
 21
295.3537512534641
 31
0.0
  0
LINE
  5
46EC
330
1F
100
AcDbEntity
  8
SPOJOVACÍ
  6
DASHED
100
AcDbLine
 10
1410.740548389767
 20
296.6864699264644
 30
0.0
 11
1414.704064662168
 21
295.3537512534641
 31
0.0
  0
LINE
  5
46ED
330
1F
100
AcDbEntity
  8
SPOJOVACÍ
  6
DASHED
100
AcDbLine
 10
1414.044997905708
 20
298.0436205844145
 30
0.0
 11
1414.044997905708
 21
295.5659671278028
 31
0.0
  0
LINE
  5
46EE
330
1F
100
AcDbEntity
  8
SPOJOVACÍ
  6
DASHED
100
AcDbLine
 10
1410.740548389767
 20
299.1438883262764
 30
0.0
 11
1414.704064662168
 21
297.8120812254639
 31
0.0
  0
LINE
  5
46EF
330
1F
100
AcDbEntity
  8
SPOJOVACÍ
  6
DASHED
100
AcDbLine
 10
1415.074163005694
 20
298.1821795708585
 30
0.0
 11
1414.704064662168
 21
297.8120812254639
 31
0.0
  0
LINE
  5
46F0
330
1F
100
AcDbEntity
  8
SPOJOVACÍ
  6
DASHED
100
AcDbLine
 10
1415.074163005694
 20
298.1821795708585
 30
0.0
 11
1414.704064662168
 21
298.3963990566446
 31
0.0
  0
LINE
  5
46F1
330
1F
100
AcDbEntity
  8
SPOJOVACÍ
  6
DASHED
100
AcDbLine
 10
1410.740548389767
 20
299.7282061577281
 30
0.0
 11
1414.704064662168
 21
298.3963990566446
 31
0.0
  0
LINE
  5
46F2
330
1F
100
AcDbEntity
  8
SPOJOVACÍ
  6
DASHED
100
AcDbLine
 10
1414.044997905708
 20
301.0964761497945
 30
0.0
 11
1414.044997905708
 21
298.6279384158662
 31
0.0
  0
LINE
  5
46F3
330
1F
100
AcDbEntity
  8
SPOJOVACÍ
  6
DASHED
100
AcDbLine
 10
1410.740548389767
 20
302.2022133253178
 30
0.0
 11
1414.704064662168
 21
300.8694946520465
 31
0.0
  0
LINE
  5
46F4
330
1F
100
AcDbEntity
  8
SPOJOVACÍ
  6
DASHED
100
AcDbLine
 10
1415.074163005694
 20
301.2395929977121
 30
0.0
 11
1414.704064662168
 21
300.8694946520465
 31
0.0
  0
LINE
  5
46F5
330
1F
100
AcDbEntity
  8
SPOJOVACÍ
  6
DASHED
100
AcDbLine
 10
1415.074163005694
 20
301.2395929977121
 30
0.0
 11
1414.704064662168
 21
301.4538124834982
 31
0.0
  0
LINE
  5
46F6
330
1F
100
AcDbEntity
  8
SPOJOVACÍ
  6
DASHED
100
AcDbLine
 10
1410.740548389767
 20
302.7865311564984
 30
0.0
 11
1414.704064662168
 21
301.4538124834982
 31
0.0
  0
LINE
  5
46F7
330
1F
100
AcDbEntity
  8
SPOJOVACÍ
  6
DASHED
100
AcDbLine
 10
1414.044997905708
 20
304.139123953246
 30
0.0
 11
1414.044997905708
 21
301.6705862193177
 31
0.0
  0
LINE
  5
46F8
330
1F
100
AcDbEntity
  8
SPOJOVACÍ
  6
DASHED
100
AcDbLine
 10
1410.740548389767
 20
305.2448611287692
 30
0.0
 11
1414.704064662168
 21
303.9121424554979
 31
0.0
  0
LINE
  5
46F9
330
1F
100
AcDbEntity
  8
SPOJOVACÍ
  6
DASHED
100
AcDbLine
 10
1415.074163005694
 20
304.2822408011636
 30
0.0
 11
1414.704064662168
 21
303.9121424554979
 31
0.0
  0
LINE
  5
46FA
330
1F
100
AcDbEntity
  8
SPOJOVACÍ
  6
DASHED
100
AcDbLine
 10
1411.725958024741
 20
275.1615136819111
 30
0.0
 11
1413.837159423368
 21
274.8570485404527
 31
0.0
  0
LINE
  5
46FB
330
1F
100
AcDbEntity
  8
SPOJOVACÍ
  6
DASHED
100
AcDbLine
 10
1412.096056368267
 20
275.5316120275767
 30
0.0
 11
1413.467061079842
 21
275.0703564540437
 31
0.0
  0
LINE
  5
46FC
330
1F
100
AcDbEntity
  8
SPOJOVACÍ
  6
DASHED
100
AcDbLine
 10
1412.096056368267
 20
274.9472941961323
 30
0.0
 11
1413.467061079842
 21
274.4860386225993
 31
0.0
  0
LINE
  5
46FD
330
1F
100
AcDbEntity
  8
SPOJOVACÍ
  6
DASHED
100
AcDbLine
 10
1413.837159423368
 20
274.8570485404527
 30
0.0
 11
1413.467061079842
 21
275.0703564540437
 31
0.0
  0
LINE
  5
46FE
330
1F
100
AcDbEntity
  8
SPOJOVACÍ
  6
DASHED
100
AcDbLine
 10
1413.837159423368
 20
274.8570485404527
 30
0.0
 11
1413.467061079842
 21
274.4860386225993
 31
0.0
  0
LINE
  5
46FF
330
1F
100
AcDbEntity
  8
SPOJOVACÍ
  6
DASHED
100
AcDbLine
 10
1411.725958024741
 20
275.1615136819111
 30
0.0
 11
1412.096056368267
 21
275.5316120275767
 31
0.0
  0
LINE
  5
4700
330
1F
100
AcDbEntity
  8
SPOJOVACÍ
  6
DASHED
100
AcDbLine
 10
1411.725958024741
 20
275.1615136819111
 30
0.0
 11
1412.096056368267
 21
274.9472941961323
 31
0.0
  0
LINE
  5
4701
330
1F
100
AcDbEntity
  8
SPOJOVACÍ
  6
DASHED
100
AcDbLine
 10
1412.344004029008
 20
274.8771031307225
 30
0.0
 11
1412.722306523829
 21
271.8497715892737
 31
0.0
  0
LINE
  5
4702
330
1F
100
AcDbEntity
  8
SPOJOVACÍ
  6
DASHED
100
AcDbLine
 10
1412.722306523829
 20
271.8497715892737
 30
0.0
 11
1413.069615565335
 21
274.6291554705168
 31
0.0
  0
LINE
  5
4703
330
1F
100
AcDbEntity
  8
SPOJOVACÍ
  6
DASHED
100
AcDbLine
 10
1413.139806631814
 20
275.1870377058423
 30
0.0
 11
1413.402339447559
 21
277.2891233831271
 31
0.0
  0
LINE
  5
4704
330
1F
100
AcDbEntity
  8
SPOJOVACÍ
  6
DASHED
100
AcDbLine
 10
1411.983932980081
 20
277.7594946796072
 30
0.0
 11
1412.268343528332
 21
275.4851218414589
 31
0.0
  0
HATCH
  5
4705
330
1F
100
AcDbEntity
  8
nášlap_vrstvy
100
AcDbHatch
 10
0.0
 20
0.0
 30
0.0
210
0.0
220
0.0
230
1.0
  2
SOLID
 70
     1
 71
     0
 91
        1
 92
        7
 72
     0
 73
     1
 93
        4
 10
1369.502645324979
 20
314.8997257502648
 10
1357.68177897006
 20
314.8997257502648
 10
1357.68177897006
 20
313.3997257502648
 10
1369.502645324979
 20
313.3997257502648
 97
        0
 75
     0
 76
     1
 47
0.1901250437635136
 98
        1
 10
1362.36067634923
 20
314.4913199747249
  0
LWPOLYLINE
  5
4706
330
1F
100
AcDbEntity
  8
nášlap_vrstvy
100
AcDbPolyline
 90
        4
 70
     1
 43
0.0
 10
1322.219179905305
 20
314.8997257502648
 10
1310.398313550389
 20
314.8997257502648
 10
1310.398313550389
 20
313.3997257502648
 10
1322.219179905305
 20
313.3997257502648
  0
HATCH
  5
4707
330
1F
100
AcDbEntity
  8
nášlap_vrstvy
100
AcDbHatch
 10
0.0
 20
0.0
 30
0.0
210
0.0
220
0.0
230
1.0
  2
SOLID
 70
     1
 71
     0
 91
        1
 92
        7
 72
     0
 73
     1
 93
        4
 10
1322.219179905309
 20
314.8997257502648
 10
1310.398313550389
 20
314.8997257502648
 10
1310.398313550389
 20
313.3997257502648
 10
1322.219179905309
 20
313.3997257502648
 97
        0
 75
     0
 76
     1
 47
0.1901250437635136
 98
        1
 10
1315.077210929559
 20
314.4913199747249
  0
LWPOLYLINE
  5
4708
330
1F
100
AcDbEntity
  8
nášlap_vrstvy
100
AcDbPolyline
 90
        4
 70
     1
 43
0.0
 10
1345.860912615144
 20
314.8997257502648
 10
1334.040046260224
 20
314.8997257502648
 10
1334.040046260224
 20
313.3997257502648
 10
1345.860912615144
 20
313.3997257502648
  0
HATCH
  5
4709
330
1F
100
AcDbEntity
  8
nášlap_vrstvy
100
AcDbHatch
 10
0.0
 20
0.0
 30
0.0
210
0.0
220
0.0
230
1.0
  2
SOLID
 70
     1
 71
     0
 91
        1
 92
        7
 72
     0
 73
     1
 93
        4
 10
1345.860912615144
 20
314.8997257502648
 10
1334.040046260228
 20
314.8997257502648
 10
1334.040046260224
 20
313.3997257502648
 10
1345.860912615144
 20
313.3997257502648
 97
        0
 75
     0
 76
     1
 47
0.1901250437635136
 98
        1
 10
1338.718943639398
 20
314.4913199747249
  0
LINE
  5
470A
330
1F
100
AcDbEntity
  8
POPIS
100
AcDbLine
 10
1366.080207404471
 20
406.9355186905665
 30
0.0
 11
1366.080207404469
 21
322.1119008168878
 31
0.0
  0
INSERT
  5
470B
330
1F
100
AcDbEntity
  8
POPIS
100
AcDbBlockReference
  2
E_PUNKT
 10
1366.051139073597
 20
322.1395111925145
 30
0.0
 50
270.0
  0
LINE
  5
470C
330
1F
100
AcDbEntity
  8
nášlap_vrstvy
100
AcDbLine
 10
1385.636332087519
 20
325.0105979264442
 30
0.0
 11
1380.994408841221
 21
325.0105979264442
 31
0.0
  0
LWPOLYLINE
  5
470D
330
1F
100
AcDbEntity
  8
nášlap_vrstvy
100
AcDbPolyline
 90
        4
 70
     1
 43
0.0
 10
1298.577447195474
 20
314.8997257502648
 10
1286.756580840554
 20
314.8997257502648
 10
1286.756580840554
 20
313.3997257502648
 10
1298.577447195474
 20
313.3997257502648
  0
HATCH
  5
470E
330
1F
100
AcDbEntity
  8
nášlap_vrstvy
100
AcDbHatch
 10
0.0
 20
0.0
 30
0.0
210
0.0
220
0.0
230
1.0
  2
SOLID
 70
     1
 71
     0
 91
        1
 92
        7
 72
     0
 73
     1
 93
        4
 10
1298.577447195474
 20
314.8997257502648
 10
1286.756580840558
 20
314.8997257502648
 10
1286.756580840554
 20
313.3997257502648
 10
1298.577447195474
 20
313.3997257502648
 97
        0
 75
     0
 76
     1
 47
0.1901250437635136
 98
        1
 10
1291.435478219728
 20
314.4913199747249
  0
LWPOLYLINE
  5
470F
330
1F
100
AcDbEntity
  8
nášlap_vrstvy
100
AcDbPolyline
 90
        4
 70
     1
 43
0.0
 10
1393.144378034814
 20
314.8997257502648
 10
1381.323511679895
 20
314.8997257502648
 10
1381.323511679895
 20
313.3997257502648
 10
1393.144378034814
 20
313.3997257502648
  0
HATCH
  5
4710
330
1F
100
AcDbEntity
  8
nášlap_vrstvy
100
AcDbHatch
 10
0.0
 20
0.0
 30
0.0
210
0.0
220
0.0
230
1.0
  2
SOLID
 70
     1
 71
     0
 91
        1
 92
        7
 72
     0
 73
     1
 93
        4
 10
1393.144378034814
 20
314.8997257502648
 10
1381.323511679899
 20
314.8997257502648
 10
1381.323511679895
 20
313.3997257502648
 10
1393.144378034814
 20
313.3997257502648
 97
        0
 75
     0
 76
     1
 47
0.1901250437635136
 98
        1
 10
1386.002409059069
 20
314.4913199747249
  0
TEXT
  5
4711
330
1F
100
AcDbEntity
  8
POPIS
100
AcDbText
 10
1347.284613992759
 20
415.7848797632903
 30
0.0
 40
25.0
  1
03
 41
0.85
  7
SIMPLEX7
100
AcDbText
  0
TEXT
  5
4712
330
1F
100
AcDbEntity
  8
POPIS
100
AcDbText
 10
852.9216024383661
 20
626.6050049645853
 30
0.0
 40
35.0
  1
SVISLÝ ŘEZ
 41
0.85
  7
SIMPLEX7
100
AcDbText
  0
TEXT
  5
4720
330
1F
100
AcDbEntity
  8
POPIS
100
AcDbText
 10
1930.707665680735
 20
310.0031947547301
 30
0.0
 40
25.0
  1
nutno přidat hydroizolaci
 41
0.7
  7
SIMPLEX7
100
AcDbText
  0
TEXT
  5
4721
330
1F
100
AcDbEntity
  8
POPIS
100
AcDbText
 10
1930.707665680735
 20
345.7608314479236
 30
0.0
 40
25.0
  1
Lepící tmel (do prostor namáhaných vodou
 41
0.7
  7
SIMPLEX7
100
AcDbText
  0
TEXT
  5
4722
330
1F
100
AcDbEntity
  8
POPIS
100
AcDbText
 10
1931.105209448598
 20
456.4378143888496
 30
0.0
 40
25.0
  1
Keramický soklík (profil Schlűter DILEX-HKW)
 41
0.7
  7
SIMPLEX7
100
AcDbText
  0
TEXT
  5
4723
330
1F
100
AcDbEntity
  8
POPIS
100
AcDbText
 10
1931.105209448598
 20
203.2210673053084
 30
0.0
 40
25.0
  1
Stávající dřevěná podlaha
 41
0.7
  7
SIMPLEX7
100
AcDbText
  0
TEXT
  5
4724
330
1F
100
AcDbEntity
  8
POPIS
100
AcDbText
 10
1931.105209448598
 20
382.1242345653825
 30
0.0
 40
25.0
  1
Keramická dlažba
 41
0.7
  7
SIMPLEX7
100
AcDbText
  0
TEXT
  5
4725
330
1F
100
AcDbEntity
  8
POPIS
100
AcDbText
 10
1931.105209448598
 20
136.8398355900042
 30
0.0
 40
25.0
  1
Stropní konstrukce
 41
0.7
  7
SIMPLEX7
100
AcDbText
  0
TEXT
  5
4726
330
1F
100
AcDbEntity
  8
POPIS
100
AcDbText
 10
1931.105209448598
 20
272.510500062757
 30
0.0
 40
25.0
  1
Penetrace 
 41
0.7
  7
SIMPLEX7
100
AcDbText
  0
TEXT
  5
4727
330
1F
100
AcDbEntity
  8
POPIS
100
AcDbText
 10
1931.105209448598
 20
237.1063388445942
 30
0.0
 40
25.0
  1
Podlahová deska CETRIS    PD (PDB)
 41
0.7
  7
SIMPLEX7
100
AcDbText
  0
TEXT
  5
4728
330
1F
100
AcDbEntity
  8
POPIS
100
AcDbText
 10
1931.105209448598
 20
169.7748313264016
 30
0.0
 40
25.0
  1
Dilatační spára tl. 15 mm
 41
0.7
  7
SIMPLEX7
100
AcDbText
  0
TEXT
  5
4729
330
1F
100
AcDbEntity
  8
POPIS
100
AcDbText
 10
1931.105209448598
 20
419.8428027732222
 30
0.0
 40
25.0
  1
Spárovací tmel 
 41
0.7
  7
SIMPLEX7
100
AcDbText
  0
LWPOLYLINE
  5
472A
330
1F
100
AcDbEntity
  8
izolace
100
AcDbPolyline
 90
        4
 70
     1
 43
0.0
 10
1737.30776961758
 20
288.6420599373788
 10
1713.666036907745
 20
288.6420599373788
 10
1713.666036907745
 20
285.6420599373788
 10
1737.30776961758
 20
285.6420599373788
  0
HATCH
  5
472B
330
1F
100
AcDbEntity
  8
izolace
100
AcDbHatch
 10
0.0
 20
0.0
 30
0.0
210
0.0
220
0.0
230
1.0
  2
SOLID
 70
     1
 71
     0
 91
        1
 92
        7
 72
     0
 73
     1
 93
        4
 10
1737.307769617584
 20
288.6420599373788
 10
1713.666036907749
 20
288.6420599373788
 10
1713.666036907745
 20
285.6420599373788
 10
1737.307769617584
 20
285.6420599373788
 97
        0
 75
     0
 76
     1
 47
0.1901250437635136
 98
        1
 10
1723.023831666089
 20
287.825248386299
  0
POLYLINE
  5
472C
330
1F
100
AcDbEntity
  8
STAVBA OBRYS
100
AcDb2dPolyline
 66
     1
 10
0.0
 20
0.0
 30
0.0
  0
VERTEX
  5
472D
330
472C
100
AcDbEntity
  8
STAVBA OBRYS
100
AcDbVertex
100
AcDb2dVertex
 10
1716.096577635055
 20
267.6420599373793
 30
0.0
 42
-0.0094186890201653
  0
VERTEX
  5
472E
330
472C
100
AcDbEntity
  8
STAVBA OBRYS
100
AcDbVertex
100
AcDb2dVertex
 10
1716.443376197929
 20
267.8007328081473
 30
0.0
 42
-0.0322692699774654
  0
VERTEX
  5
472F
330
472C
100
AcDbEntity
  8
STAVBA OBRYS
100
AcDbVertex
100
AcDb2dVertex
 10
1719.33473037902
 20
268.8422563095479
 30
0.0
 42
-0.0276160659512937
  0
VERTEX
  5
4730
330
472C
100
AcDbEntity
  8
STAVBA OBRYS
100
AcDbVertex
100
AcDb2dVertex
 10
1720.190306817307
 20
269.0389917384925
 30
0.0
 42
-0.0126891984598699
  0
VERTEX
  5
4731
330
472C
100
AcDbEntity
  8
STAVBA OBRYS
100
AcDbVertex
100
AcDb2dVertex
 10
1721.113475213098
 20
269.174194128034
 30
0.0
  0
SEQEND
  5
4732
330
472C
100
AcDbEntity
  8
STAVBA OBRYS
  0
LWPOLYLINE
  5
4733
330
1F
100
AcDbEntity
  8
STAVBA OBRYS
100
AcDbPolyline
 90
        8
 70
     0
 43
0.0
 10
1698.691380298203
 20
267.6420599373793
 42
-0.0217273703039143
 10
1700.889050558713
 20
272.677750274857
 42
-0.0882970623535771
 10
1702.526272478806
 20
274.9181193256569
 42
-0.0171636441953577
 10
1705.339636540664
 20
277.4320366809021
 42
-0.0157521173632038
 10
1708.5784913777
 20
279.9635327334087
 42
-0.0073640874174249
 10
1713.212140734022
 20
283.2519341591448
 42
-0.0194185739168057
 10
1715.034184053698
 20
284.4035031584259
 42
-0.0229547400386702
 10
1717.419642117713
 20
285.6420599373793
  0
POLYLINE
  5
4734
330
1F
100
AcDbEntity
  8
STAVBA OBRYS
100
AcDb2dPolyline
 66
     1
 10
0.0
 20
0.0
 30
0.0
  0
VERTEX
  5
4735
330
4734
100
AcDbEntity
  8
STAVBA OBRYS
100
AcDbVertex
100
AcDb2dVertex
 10
1707.043431685519
 20
267.6420599373793
 30
0.0
 42
-0.0502247168465557
  0
VERTEX
  5
4736
330
4734
100
AcDbEntity
  8
STAVBA OBRYS
100
AcDbVertex
100
AcDb2dVertex
 10
1708.642478861684
 20
269.6495306101021
 30
0.0
 42
-0.0274923553235744
  0
VERTEX
  5
4737
330
4734
100
AcDbEntity
  8
STAVBA OBRYS
100
AcDbVertex
100
AcDb2dVertex
 10
1711.239784592237
 20
272.0346059332402
 30
0.0
 42
-0.0255412025538677
  0
VERTEX
  5
4738
330
4734
100
AcDbEntity
  8
STAVBA OBRYS
100
AcDbVertex
100
AcDb2dVertex
 10
1714.291214629948
 20
274.291319610256
 30
0.0
 42
-0.0272796991712396
  0
VERTEX
  5
4739
330
4734
100
AcDbEntity
  8
STAVBA OBRYS
100
AcDbVertex
100
AcDb2dVertex
 10
1718.404213783133
 20
276.7076554919219
 30
0.0
 42
-0.056967459841729
  0
VERTEX
  5
473A
330
4734
100
AcDbEntity
  8
STAVBA OBRYS
100
AcDbVertex
100
AcDb2dVertex
 10
1720.545161063865
 20
277.5203913271213
 30
0.0
 42
-0.0373408083348504
  0
VERTEX
  5
473B
330
4734
100
AcDbEntity
  8
STAVBA OBRYS
100
AcDbVertex
100
AcDb2dVertex
 10
1720.767515439338
 20
277.5595568680689
 30
0.0
 42
-0.0052305969362967
  0
VERTEX
  5
473C
330
4734
100
AcDbEntity
  8
STAVBA OBRYS
100
AcDbVertex
100
AcDb2dVertex
 10
1721.113475213098
 20
277.5905138349732
 30
0.0
  0
SEQEND
  5
473D
330
4734
100
AcDbEntity
  8
STAVBA OBRYS
  0
HATCH
  5
473E
330
1F
100
AcDbEntity
  8
nášlap_vrstvy
100
AcDbHatch
 10
0.0
 20
0.0
 30
0.0
210
0.0
220
0.0
230
1.0
  2
SOLID
 70
     1
 71
     0
 91
        1
 92
        7
 72
     0
 73
     1
 93
        4
 10
1719.37358521643
 20
314.8997257502648
 10
1707.55271886151
 20
314.8997257502648
 10
1707.55271886151
 20
313.3997257502648
 10
1719.37358521643
 20
313.3997257502648
 97
        0
 75
     0
 76
     1
 47
0.1901250437635136
 98
        1
 10
1712.23161624068
 20
314.4913199747249
  0
LWPOLYLINE
  5
473F
330
1F
100
AcDbEntity
  8
nášlap_vrstvy
100
AcDbPolyline
 90
        4
 70
     1
 43
0.0
 10
1644.920178580103
 20
318.7605979264442
 10
1769.920178580103
 20
318.7605979264442
 10
1769.920178580103
 20
325.0105979264442
 10
1644.920178580103
 20
325.0105979264442
  0
LWPOLYLINE
  5
4740
330
1F
100
AcDbEntity
  8
nášlap_vrstvy
100
AcDbPolyline
 90
        4
 70
     1
 43
0.0
 10
1821.006331654609
 20
313.3997257502648
 10
1471.135391763159
 20
313.3997257502648
 10
1471.135391763159
 20
314.8997257502648
 10
1821.006331654609
 20
314.8997257502648
  0
HATCH
  5
4741
330
1F
100
AcDbEntity
  8
CETRIS
100
AcDbHatch
 10
0.0
 20
0.0
 30
0.0
210
0.0
220
0.0
230
1.0
  2
ANSI31
 70
     0
 71
     0
 91
        6
 92
        7
 72
     0
 73
     1
 93
       37
 10
1568.529816247512
 20
313.3997257502652
 10
1467.240529795328
 20
313.3997257502652
 10
1467.240529795326
 20
312.2237975090685
 10
1466.539530712886
 20
311.8938083439417
 10
1465.327139580164
 20
310.9940865037098
 10
1464.388220131577
 20
309.810865684468
 10
1463.787493999414
 20
308.4252758189615
 10
1463.565070366347
 20
306.9321204246036
 10
1463.565070366347
 20
304.7180692101184
 10
1464.224137122808
 20
304.4964602869496
 10
1464.594235466335
 20
304.2822408011636
 10
1464.224137122808
 20
303.9121424554998
 10
1463.565070366347
 20
304.1337513787131
 10
1463.565070366347
 20
301.6754214066669
 10
1464.224137122812
 20
301.4538124834982
 10
1464.594235466335
 20
301.2395929977121
 10
1464.224137122806
 20
300.8694946520465
 10
1463.565070366347
 20
301.0911035752607
 10
1463.565070366347
 20
298.6178564005833
 10
1464.224137122801
 20
298.3963990566464
 10
1464.594235466335
 20
298.1821795708585
 10
1464.224137122806
 20
297.8120812254648
 10
1463.565070366349
 20
298.033538569358
 10
1463.565070366349
 20
295.5753601766338
 10
1464.224137122805
 20
295.3537512534632
 10
1464.594235466333
 20
295.1395317676789
 10
1464.224137122806
 20
294.7694334220134
 10
1463.565070366347
 20
294.9910423452276
 10
1463.565070366347
 20
292.5177951705492
 10
1464.224137122808
 20
292.2963378266096
 10
1464.594235466333
 20
292.0821183408235
 10
1464.224137122806
 20
291.7120199954289
 10
1463.565070366349
 20
291.9334773393231
 10
1463.565070366347
 20
289.4596217510035
 10
1463.743201564169
 20
289.3997257502643
 10
1489.318043230078
 20
289.3997257502643
 10
1568.52981624751
 20
289.3997257502653
 97
        0
 92
        7
 72
     0
 73
     1
 93
       44
 10
1460.919687606865
 20
301.9806044021044
 10
1460.260620850402
 20
302.2022133253178
 10
1459.890522502603
 20
302.4155212386451
 10
1460.260620850406
 20
302.7865311564984
 10
1460.919687606865
 20
302.5649222333306
 10
1460.919687606865
 20
305.0232522055559
 10
1460.260620850402
 20
305.2448611287692
 10
1459.890522502599
 20
305.4581690420965
 10
1460.260620850406
 20
305.8291789599508
 10
1460.919687606865
 20
305.6075700367829
 10
1460.887326790722
 20
307.3177154989136
 10
1460.854965974582
 20
307.7033105732545
 10
1460.435642727571
 20
309.1545336429655
 10
1459.655336857835
 20
310.4471431357016
 10
1458.566919555484
 20
311.4945396853265
 10
1457.244228173605
 20
312.2237975090694
 10
1457.244228173605
 20
313.3997257502652
 10
1439.318043230078
 20
313.3997257502652
 10
1439.318043230078
 20
305.3997257502653
 10
1429.318043230078
 20
305.3997257502653
 10
1429.318043230078
 20
297.3997257502653
 10
1439.318043230078
 20
297.3997257502653
 10
1439.318043230076
 20
289.3997257502643
 10
1460.919687606863
 20
289.3997257502643
 10
1460.919687606865
 20
289.76480474622
 10
1460.260620850409
 20
289.9864136693878
 10
1459.890522502599
 20
290.2006331551758
 10
1460.260620850407
 20
290.5707315008395
 10
1460.919687606865
 20
290.3491225776726
 10
1460.919687606865
 20
292.822369752351
 10
1460.260620850413
 20
293.0438270962397
 10
1459.890522502601
 20
293.2580465820294
 10
1460.260620850404
 20
293.6281449276941
 10
1460.919687606865
 20
293.4066875837562
 10
1460.919687606863
 20
295.8805431720695
 10
1460.260620850404
 20
296.1021520952837
 10
1459.890522502601
 20
296.3154600086101
 10
1460.260620850407
 20
296.6864699264644
 10
1460.919687606865
 20
296.4648610032974
 10
1460.919687606865
 20
298.9224309823841
 10
1460.260620850407
 20
299.1438883262755
 10
1459.890522502601
 20
299.3581078120625
 10
1460.260620850406
 20
299.7282061577281
 10
1460.919687606865
 20
299.5067488137903
 97
        0
 92
        7
 72
     0
 73
     1
 93
        4
 10
1615.412131061677
 20
313.3997257502662
 10
1568.52981624751
 20
313.3997257502662
 10
1568.529816247508
 20
289.3997257502653
 10
1615.412131061677
 20
289.3997257502661
 97
        0
 92
        7
 72
     0
 73
     1
 93
        4
 10
1664.500646525965
 20
313.3997257502662
 10
1615.412131061677
 20
313.3997257502662
 10
1615.412131061677
 20
289.3997257502643
 10
1664.500646525965
 20
289.3997257502643
 97
        0
 92
        7
 72
     0
 73
     1
 93
       40
 10
1740.283468191777
 20
305.0232522055559
 10
1739.624401435318
 20
305.2448611287701
 10
1739.254303087517
 20
305.4581690420974
 10
1739.62440143532
 20
305.8291789599508
 10
1740.283468191779
 20
305.6075700367829
 10
1740.251107375636
 20
307.3177154989236
 10
1740.218746559498
 20
307.7033105732627
 10
1739.799423312481
 20
309.1545336429682
 10
1739.019117442749
 20
310.4471431357034
 10
1737.930700140405
 20
311.4945396853219
 10
1736.60800875852
 20
312.2237975090685
 10
1736.60800875852
 20
313.3997257502652
 10
1664.500646525967
 20
313.3997257502644
 10
1664.500646525965
 20
289.3997257502653
 10
1740.283468191779
 20
289.3997257502653
 10
1740.283468191779
 20
289.76480474622
 10
1739.624401435314
 20
289.9864136693897
 10
1739.254303087515
 20
290.2006331551749
 10
1739.62440143532
 20
290.5707315008413
 10
1740.283468191779
 20
290.3491225776726
 10
1740.283468191779
 20
292.82236975235
 10
1739.624401435321
 20
293.0438270962405
 10
1739.254303087515
 20
293.2580465820294
 10
1739.62440143532
 20
293.628144927695
 10
1740.283468191779
 20
293.4066875837572
 10
1740.283468191779
 20
295.8805431720713
 10
1739.624401435321
 20
296.102152095281
 10
1739.254303087513
 20
296.315460008611
 10
1739.62440143532
 20
296.6864699264653
 10
1740.283468191779
 20
296.4648610032974
 10
1740.283468191779
 20
298.9224309823832
 10
1739.62440143533
 20
299.1438883262746
 10
1739.254303087515
 20
299.3581078120616
 10
1739.624401435321
 20
299.728206157729
 10
1740.283468191779
 20
299.506748813793
 10
1740.283468191779
 20
301.9806044021044
 10
1739.624401435318
 20
302.2022133253159
 10
1739.254303087515
 20
302.415521238646
 10
1739.624401435321
 20
302.7865311564984
 10
1740.283468191779
 20
302.5649222333315
 97
        0
 92
        7
 72
     0
 73
     1
 93
       37
 10
1821.006331654602
 20
313.3997257502652
 10
1746.604310380242
 20
313.3997257502652
 10
1746.604310380242
 20
312.2237975090685
 10
1745.9033112978
 20
311.8938083439454
 10
1744.690920165077
 20
310.9940865037098
 10
1743.752000716489
 20
309.8108656844662
 10
1743.151274584328
 20
308.4252758189561
 10
1742.928850951261
 20
306.9321204246072
 10
1742.928850951261
 20
304.7180692101184
 10
1743.587917707719
 20
304.4964602869496
 10
1743.958016051245
 20
304.2822408011636
 10
1743.587917707722
 20
303.9121424554979
 10
1742.928850951261
 20
304.1337513787113
 10
1742.928850951259
 20
301.675421406666
 10
1743.587917707722
 20
301.4538124834964
 10
1743.958016051245
 20
301.239592997713
 10
1743.58791770772
 20
300.8694946520465
 10
1742.928850951261
 20
301.0911035752607
 10
1742.928850951261
 20
298.6178564005833
 10
1743.587917707719
 20
298.3963990566464
 10
1743.958016051247
 20
298.1821795708594
 10
1743.58791770772
 20
297.8120812254639
 10
1742.928850951261
 20
298.0335385693571
 10
1742.928850951261
 20
295.575360176632
 10
1743.58791770772
 20
295.3537512534651
 10
1743.958016051245
 20
295.139531767678
 10
1743.58791770772
 20
294.7694334220134
 10
1742.928850951261
 20
294.9910423452276
 10
1742.928850951261
 20
292.5177951705492
 10
1743.587917707726
 20
292.2963378266096
 10
1743.958016051247
 20
292.0821183408235
 10
1743.587917707719
 20
291.7120199954299
 10
1742.928850951259
 20
291.9334773393213
 10
1742.928850951261
 20
289.4596217510026
 10
1743.106982149082
 20
289.3997257502643
 10
1767.371634588455
 20
289.3997257502643
 10
1821.006331654602
 20
289.3997257502661
 97
        0
 75
     0
 76
     1
 52
90.0
 41
1.0
 77
     0
 78
     1
 53
135.0
 43
-4069.89823928268
 44
-4845.168177761176
 45
-2.245064030267288
 46
-2.245064030267287
 79
     0
 47
0.7293997082383822
 98
        6
 10
1525.491697966125
 20
299.7958455380632
 10
1448.127869616808
 20
300.5252522947977
 10
1577.310881503119
 20
302.7134557900846
 10
1658.323981227295
 20
302.7134557900846
 10
1680.219411289574
 20
304.9016425104584
 10
1757.583267951304
 20
304.9016425104584
  0
LINE
  5
4742
330
1F
100
AcDbEntity
  8
POPIS
100
AcDbLine
 10
1664.500646525967
 20
406.9355186905665
 30
0.0
 11
1664.500646525967
 21
212.1897761520155
 31
0.0
  0
INSERT
  5
4743
330
1F
100
AcDbEntity
  8
POPIS
100
AcDbBlockReference
  2
E_PUNKT
 10
1664.471578195092
 20
212.2173865276424
 30
0.0
 50
270.0
  0
HATCH
  5
4744
330
1F
100
AcDbEntity
  8
nášlap_vrstvy
100
AcDbHatch
 10
0.0
 20
0.0
 30
0.0
210
0.0
220
0.0
230
1.0
  2
SOLID
 70
     1
 71
     0
 91
        1
 92
        7
 72
     0
 73
     1
 93
        4
 10
1577.523188957419
 20
314.8997257502648
 10
1565.702322602499
 20
314.8997257502648
 10
1565.702322602499
 20
313.3997257502648
 10
1577.523188957419
 20
313.3997257502648
 97
        0
 75
     0
 76
     1
 47
0.1901250437635136
 98
        1
 10
1570.381219981669
 20
314.4913199747249
  0
LWPOLYLINE
  5
4745
330
1F
100
AcDbEntity
  8
nášlap_vrstvy
100
AcDbPolyline
 90
        4
 70
     1
 43
0.0
 10
1577.523188957415
 20
314.8997257502648
 10
1565.702322602499
 20
314.8997257502648
 10
1565.702322602499
 20
313.3997257502648
 10
1577.523188957415
 20
313.3997257502648
  0
LWPOLYLINE
  5
4746
330
1F
100
AcDbEntity
  8
nášlap_vrstvy
100
AcDbPolyline
 90
        4
 70
     1
 43
0.0
 10
1515.278255333809
 20
318.7605979264442
 10
1640.278255333809
 20
318.7605979264442
 10
1640.278255333809
 20
325.0105979264442
 10
1515.278255333809
 20
325.0105979264442
  0
LWPOLYLINE
  5
4747
330
1F
100
AcDbEntity
  8
izolace
100
AcDbPolyline
 90
        4
 70
     1
 43
0.0
 10
1548.173907938899
 20
288.6420599373788
 10
1524.532175229064
 20
288.6420599373788
 10
1524.532175229064
 20
285.6420599373788
 10
1548.173907938899
 20
285.6420599373788
  0
HATCH
  5
4748
330
1F
100
AcDbEntity
  8
izolace
100
AcDbHatch
 10
0.0
 20
0.0
 30
0.0
210
0.0
220
0.0
230
1.0
  2
SOLID
 70
     1
 71
     0
 91
        1
 92
        7
 72
     0
 73
     1
 93
        4
 10
1548.173907938902
 20
288.6420599373788
 10
1524.532175229067
 20
288.6420599373788
 10
1524.532175229064
 20
285.6420599373788
 10
1548.173907938902
 20
285.6420599373788
 97
        0
 75
     0
 76
     1
 47
0.1901250437635136
 98
        1
 10
1533.889969987407
 20
287.825248386299
  0
LWPOLYLINE
  5
4749
330
1F
100
AcDbEntity
  8
STAVBA OBRYS
100
AcDbPolyline
 90
        4
 70
     0
 43
0.0
 10
1554.419423666482
 20
267.6420599373793
 42
0.0334776267545482
 10
1553.982145871776
 20
271.689034866116
 42
0.0091133963862869
 10
1551.504541546858
 20
284.3807646515758
 42
0.007828075361276
 10
1551.2136424117
 20
285.6420599373793
  0
LWPOLYLINE
  5
474A
330
1F
100
AcDbEntity
  8
STAVBA OBRYS
100
AcDbPolyline
 90
        3
 70
     0
 43
0.0
 10
1565.87196152945
 20
267.6420599373793
 42
0.0052038508054843
 10
1562.673564589468
 20
284.0458864193767
 42
0.0065712046643719
 10
1562.323138819704
 20
285.6420599373793
  0
LWPOLYLINE
  5
474B
330
1F
100
AcDbEntity
  8
STAVBA OBRYS
100
AcDbPolyline
 90
        5
 70
     0
 43
0.0
 10
1514.028276435214
 20
267.6420599373793
 42
0.0133579731639958
 10
1513.641465946186
 20
270.1598622249345
 42
0.0072443097182286
 10
1511.521468998728
 20
280.9707531198416
 42
0.0219777111230329
 10
1510.615356496744
 20
284.4888663756771
 42
0.0092752982622242
 10
1510.240129534797
 20
285.6420599373793
  0
LWPOLYLINE
  5
474C
330
1F
100
AcDbEntity
  8
STAVBA OBRYS
100
AcDbPolyline
 90
        4
 70
     0
 43
0.0
 10
1524.272414810008
 20
267.6420599373793
 42
0.0334776267545482
 10
1523.835137015301
 20
271.689034866116
 42
0.0091133963862869
 10
1521.357532690383
 20
284.3807646515758
 42
0.007828075361276
 10
1521.066633555225
 20
285.6420599373793
  0
LWPOLYLINE
  5
474D
330
1F
100
AcDbEntity
  8
STAVBA OBRYS
100
AcDbPolyline
 90
        3
 70
     0
 43
0.0
 10
1535.724952672976
 20
267.6420599373793
 42
0.0052038508054843
 10
1532.526555732993
 20
284.0458864193767
 42
0.0065712046643719
 10
1532.176129963229
 20
285.6420599373793
  0
LWPOLYLINE
  5
474E
330
1F
100
AcDbEntity
  8
STAVBA OBRYS
100
AcDbPolyline
 90
        5
 70
     0
 43
0.0
 10
1544.175285291689
 20
267.6420599373793
 42
0.0133579731639958
 10
1543.788474802661
 20
270.1598622249345
 42
0.0072443097182286
 10
1541.668477855203
 20
280.9707531198416
 42
0.0219777111230329
 10
1540.762365353219
 20
284.4888663756771
 42
0.0092752982622242
 10
1540.387138391272
 20
285.6420599373793
  0
LWPOLYLINE
  5
474F
330
1F
100
AcDbEntity
  8
STAVBA OBRYS
100
AcDbPolyline
 90
        4
 70
     0
 43
0.0
 10
1519.665296229197
 20
267.1412295066308
 10
1539.66154866119
 20
276.3572585571507
 10
1556.439439232408
 20
279.0644028198418
 10
1559.703050480113
 20
279.1947041842119
  0
LWPOLYLINE
  5
4750
330
1F
100
AcDbEntity
  8
STAVBA OBRYS
100
AcDbPolyline
 90
        5
 70
     0
 43
0.0
 10
1471.926392675754
 20
267.6420599373793
 42
0.0133579731639958
 10
1471.539582186726
 20
270.1598622249345
 42
0.0072443097182286
 10
1469.419585239267
 20
280.9707531198416
 42
0.0219777111230329
 10
1468.513472737284
 20
284.4888663756771
 42
0.0092752982622242
 10
1468.138245775337
 20
285.6420599373793
  0
LWPOLYLINE
  5
4751
330
1F
100
AcDbEntity
  8
STAVBA OBRYS
100
AcDbPolyline
 90
        4
 70
     0
 43
0.0
 10
1504.122672561318
 20
267.6420599373793
 42
0.0186324019486548
 10
1500.754303189211
 20
279.3371715556038
 42
0.0582629403736403
 10
1499.094803321129
 20
282.9170057545395
 42
0.0146402521923566
 10
1497.310395339546
 20
285.6420599373793
  0
LWPOLYLINE
  5
4752
330
1F
100
AcDbEntity
  8
STAVBA OBRYS
100
AcDbPolyline
 90
        4
 70
     0
 43
0.0
 10
1489.518287372723
 20
267.1412295066308
 10
1509.514539804715
 20
276.3572585571507
 10
1526.292430375933
 20
279.0644028198418
 10
1529.556041623638
 20
279.1947041842119
  0
LWPOLYLINE
  5
4753
330
1F
100
AcDbEntity
  8
STAVBA OBRYS
100
AcDbPolyline
 90
        3
 70
     0
 43
0.0
 10
1493.623068913515
 20
267.6420599373793
 42
0.0052038508054843
 10
1490.424671973533
 20
284.0458864193767
 42
0.0065712046643719
 10
1490.074246203769
 20
285.6420599373793
  0
LWPOLYLINE
  5
4754
330
1F
100
AcDbEntity
  8
STAVBA OBRYS
100
AcDbPolyline
 90
        4
 70
     0
 43
0.0
 10
1482.170531050547
 20
267.6420599373793
 42
0.0334776267545482
 10
1481.733253255841
 20
271.689034866116
 42
0.0091133963862869
 10
1479.255648930922
 20
284.3807646515758
 42
0.007828075361276
 10
1478.964749795765
 20
285.6420599373793
  0
LWPOLYLINE
  5
4755
330
1F
100
AcDbEntity
  8
izolace
100
AcDbPolyline
 90
        4
 70
     1
 43
0.0
 10
1500.890442519228
 20
288.6420599373788
 10
1477.248709809393
 20
288.6420599373788
 10
1477.248709809393
 20
285.6420599373788
 10
1500.890442519228
 20
285.6420599373788
  0
HATCH
  5
4756
330
1F
100
AcDbEntity
  8
izolace
100
AcDbHatch
 10
0.0
 20
0.0
 30
0.0
210
0.0
220
0.0
230
1.0
  2
SOLID
 70
     1
 71
     0
 91
        1
 92
        7
 72
     0
 73
     1
 93
        4
 10
1500.890442519232
 20
288.6420599373788
 10
1477.248709809397
 20
288.6420599373788
 10
1477.248709809393
 20
285.6420599373788
 10
1500.890442519232
 20
285.6420599373788
 97
        0
 75
     0
 76
     1
 47
0.1901250437635136
 98
        1
 10
1486.606504567737
 20
287.825248386299
  0
LWPOLYLINE
  5
4757
330
1F
100
AcDbEntity
  8
izolace
100
AcDbPolyline
 90
        4
 70
     1
 43
0.0
 10
1453.606977099558
 20
288.6420599373788
 10
1429.965244389723
 20
288.6420599373788
 10
1429.965244389723
 20
285.6420599373788
 10
1453.606977099558
 20
285.6420599373788
  0
HATCH
  5
4758
330
1F
100
AcDbEntity
  8
izolace
100
AcDbHatch
 10
0.0
 20
0.0
 30
0.0
210
0.0
220
0.0
230
1.0
  2
SOLID
 70
     1
 71
     0
 91
        1
 92
        7
 72
     0
 73
     1
 93
        4
 10
1453.606977099562
 20
288.6420599373788
 10
1429.965244389727
 20
288.6420599373788
 10
1429.965244389723
 20
285.6420599373788
 10
1453.606977099562
 20
285.6420599373788
 97
        0
 75
     0
 76
     1
 47
0.1901250437635136
 98
        1
 10
1439.323039148066
 20
287.825248386299
  0
LWPOLYLINE
  5
4759
330
1F
100
AcDbEntity
  8
STAVBA OBRYS
100
AcDbPolyline
 90
        4
 70
     0
 43
0.0
 10
1462.020788801857
 20
267.6420599373793
 42
0.0186324019486548
 10
1458.652419429751
 20
279.3371715556038
 42
0.0582629403736403
 10
1456.992919561669
 20
282.9170057545395
 42
0.0146402521923566
 10
1455.208511580085
 20
285.6420599373793
  0
POLYLINE
  5
475A
330
1F
100
AcDbEntity
  8
STAVBA OBRYS
100
AcDb2dPolyline
 66
     1
 10
0.0
 20
0.0
 30
0.0
  0
VERTEX
  5
475B
330
475A
100
AcDbEntity
  8
STAVBA OBRYS
100
AcDbVertex
100
AcDb2dVertex
 10
1435.485472057897
 20
267.6420599373793
 30
0.0
 42
0.0502247168465557
  0
VERTEX
  5
475C
330
475A
100
AcDbEntity
  8
STAVBA OBRYS
100
AcDbVertex
100
AcDb2dVertex
 10
1433.886424881731
 20
269.6495306101021
 30
0.0
 42
0.0274923553235744
  0
VERTEX
  5
475D
330
475A
100
AcDbEntity
  8
STAVBA OBRYS
100
AcDbVertex
100
AcDb2dVertex
 10
1431.289119151179
 20
272.0346059332402
 30
0.0
 42
0.0255412025538677
  0
VERTEX
  5
475E
330
475A
100
AcDbEntity
  8
STAVBA OBRYS
100
AcDbVertex
100
AcDb2dVertex
 10
1428.237689113468
 20
274.291319610256
 30
0.0
 42
0.0272796991712396
  0
VERTEX
  5
475F
330
475A
100
AcDbEntity
  8
STAVBA OBRYS
100
AcDbVertex
100
AcDb2dVertex
 10
1424.124689960283
 20
276.7076554919219
 30
0.0
 42
0.056967459841729
  0
VERTEX
  5
4760
330
475A
100
AcDbEntity
  8
STAVBA OBRYS
100
AcDbVertex
100
AcDb2dVertex
 10
1421.983742679551
 20
277.5203913271213
 30
0.0
 42
0.0373408083348504
  0
VERTEX
  5
4761
330
475A
100
AcDbEntity
  8
STAVBA OBRYS
100
AcDbVertex
100
AcDb2dVertex
 10
1421.761388304077
 20
277.5595568680689
 30
0.0
 42
0.0052305969362967
  0
VERTEX
  5
4762
330
475A
100
AcDbEntity
  8
STAVBA OBRYS
100
AcDbVertex
100
AcDb2dVertex
 10
1421.415428530317
 20
277.5905138349732
 30
0.0
  0
SEQEND
  5
4763
330
475A
100
AcDbEntity
  8
STAVBA OBRYS
  0
LWPOLYLINE
  5
4764
330
1F
100
AcDbEntity
  8
STAVBA OBRYS
100
AcDbPolyline
 90
        8
 70
     0
 43
0.0
 10
1443.837523445212
 20
267.6420599373793
 42
0.0217273703039143
 10
1441.639853184702
 20
272.677750274857
 42
0.0882970623535771
 10
1440.002631264609
 20
274.9181193256569
 42
0.0171636441953577
 10
1437.189267202751
 20
277.4320366809021
 42
0.0157521173632038
 10
1433.950412365715
 20
279.9635327334087
 42
0.0073640874174249
 10
1429.316763009394
 20
283.2519341591448
 42
0.0194185739168057
 10
1427.494719689717
 20
284.4035031584259
 42
0.0229547400386702
 10
1425.109261625703
 20
285.6420599373793
  0
LWPOLYLINE
  5
4765
330
1F
100
AcDbEntity
  8
STAVBA OBRYS
100
AcDbPolyline
 90
        6
 70
     0
 43
0.0
 10
1453.210327453014
 20
267.6420599373793
 42
0.0121757200102759
 10
1451.840337739353
 20
272.3139772698465
 42
0.0457786284636091
 10
1450.632314849737
 20
275.1625876527229
 42
0.0295006114745606
 10
1448.216254395438
 20
279.089486866125
 42
0.0258674098621065
 10
1444.983579081474
 20
283.2352669448789
 42
0.0093759062953949
 10
1442.817766901817
 20
285.6420599373793
  0
LWPOLYLINE
  5
4766
330
1F
100
AcDbEntity
  8
STAVBA OBRYS
100
AcDbPolyline
 90
        3
 70
     0
 43
0.0
 10
1431.086995681106
 20
267.6420599373793
 10
1444.879043607745
 20
274.543131500866
 10
1453.04614825687
 20
282.7244332019597
  0
LWPOLYLINE
  5
4767
330
1F
100
AcDbEntity
  8
STAVBA OBRYS
100
AcDbPolyline
 90
        4
 70
     0
 43
0.0
 10
1447.416403613262
 20
267.1412295066308
 10
1467.412656045255
 20
276.3572585571507
 10
1484.190546616473
 20
279.0644028198418
 10
1487.454157864178
 20
279.1947041842119
  0
LINE
  5
4768
330
1F
100
AcDbEntity
  8
STAVBA OBRYS
100
AcDbLine
 10
1421.264451871708
 20
285.6420599373783
 30
0.0
 11
1421.264451871708
 21
267.6420599373793
 31
0.0
  0
POLYLINE
  5
4769
330
1F
100
AcDbEntity
  8
STAVBA OBRYS
100
AcDb2dPolyline
 66
     1
 10
0.0
 20
0.0
 30
0.0
  0
VERTEX
  5
476A
330
4769
100
AcDbEntity
  8
STAVBA OBRYS
100
AcDbVertex
100
AcDb2dVertex
 10
1426.432326108361
 20
267.6420599373793
 30
0.0
 42
0.0094186890201653
  0
VERTEX
  5
476B
330
4769
100
AcDbEntity
  8
STAVBA OBRYS
100
AcDbVertex
100
AcDb2dVertex
 10
1426.085527545487
 20
267.8007328081473
 30
0.0
 42
0.0322692699774654
  0
VERTEX
  5
476C
330
4769
100
AcDbEntity
  8
STAVBA OBRYS
100
AcDbVertex
100
AcDb2dVertex
 10
1423.194173364396
 20
268.8422563095479
 30
0.0
 42
0.0276160659512937
  0
VERTEX
  5
476D
330
4769
100
AcDbEntity
  8
STAVBA OBRYS
100
AcDbVertex
100
AcDb2dVertex
 10
1422.338596926109
 20
269.0389917384925
 30
0.0
 42
0.0126891984598699
  0
VERTEX
  5
476E
330
4769
100
AcDbEntity
  8
STAVBA OBRYS
100
AcDbVertex
100
AcDb2dVertex
 10
1421.415428530317
 20
269.174194128034
 30
0.0
  0
SEQEND
  5
476F
330
4769
100
AcDbEntity
  8
STAVBA OBRYS
  0
LINE
  5
4770
330
1F
100
AcDbEntity
  8
POPIS
100
AcDbLine
 10
1540.308160883449
 20
406.9355186905665
 30
0.0
 11
1540.308160883447
 21
301.181222132125
 31
0.0
  0
HATCH
  5
4771
330
1F
100
AcDbEntity
  8
nášlap_vrstvy
100
AcDbHatch
 10
0.0
 20
0.0
 30
0.0
210
0.0
220
0.0
230
1.0
  2
SOLID
 70
     1
 71
     0
 91
        1
 92
        7
 72
     0
 73
     1
 93
        4
 10
1553.881456247584
 20
314.8997257502648
 10
1542.060589892668
 20
314.8997257502648
 10
1542.060589892664
 20
313.3997257502648
 10
1553.881456247584
 20
313.3997257502648
 97
        0
 75
     0
 76
     1
 47
0.1901250437635136
 98
        1
 10
1546.739487271838
 20
314.4913199747249
  0
LWPOLYLINE
  5
4772
330
1F
100
AcDbEntity
  8
nášlap_vrstvy
100
AcDbPolyline
 90
        4
 70
     1
 43
0.0
 10
1553.881456247584
 20
314.8997257502648
 10
1542.060589892664
 20
314.8997257502648
 10
1542.060589892664
 20
313.3997257502648
 10
1553.881456247584
 20
313.3997257502648
  0
INSERT
  5
4773
330
1F
100
AcDbEntity
  8
POPIS
100
AcDbBlockReference
  2
E_PUNKT
 10
1540.279092552575
 20
301.2088325077517
 30
0.0
 50
270.0
  0
LWPOLYLINE
  5
4774
330
1F
100
AcDbEntity
  8
nášlap_vrstvy
100
AcDbPolyline
 90
        4
 70
     1
 43
0.0
 10
1507.430049944052
 20
314.8997257502654
 10
1495.609183589133
 20
314.8997257502654
 10
1495.609183589133
 20
313.3997257502654
 10
1507.430049944052
 20
313.3997257502654
  0
HATCH
  5
4775
330
1F
100
AcDbEntity
  8
nášlap_vrstvy
100
AcDbHatch
 10
0.0
 20
0.0
 30
0.0
210
0.0
220
0.0
230
1.0
  2
SOLID
 70
     1
 71
     0
 91
        1
 92
        7
 72
     0
 73
     1
 93
        4
 10
1507.430049944052
 20
314.8997257502654
 10
1495.609183589136
 20
314.8997257502654
 10
1495.609183589133
 20
313.3997257502654
 10
1507.430049944052
 20
313.3997257502654
 97
        0
 75
     0
 76
     1
 47
0.1901250437635136
 98
        1
 10
1500.288080968307
 20
314.4913199747255
  0
HATCH
  5
4776
330
1F
100
AcDbEntity
  8
nášlap_vrstvy
100
AcDbHatch
 10
0.0
 20
0.0
 30
0.0
210
0.0
220
0.0
230
1.0
  2
SOLID
 70
     1
 71
     0
 91
        1
 92
        7
 72
     0
 73
     1
 93
        4
 10
1530.239723537748
 20
314.8997257502648
 10
1518.418857182829
 20
314.8997257502648
 10
1518.418857182829
 20
313.3997257502648
 10
1530.239723537748
 20
313.3997257502648
 97
        0
 75
     0
 76
     1
 47
0.1901250437635136
 98
        1
 10
1523.097754561999
 20
314.4913199747249
  0
LWPOLYLINE
  5
4777
330
1F
100
AcDbEntity
  8
nášlap_vrstvy
100
AcDbPolyline
 90
        4
 70
     1
 43
0.0
 10
1530.239723537745
 20
314.8997257502648
 10
1518.418857182829
 20
314.8997257502648
 10
1518.418857182829
 20
313.3997257502648
 10
1530.239723537745
 20
313.3997257502648
  0
LINE
  5
4778
330
1F
100
AcDbEntity
  8
nášlap_vrstvy
100
AcDbLine
 10
1515.278255333809
 20
318.7605979264442
 30
0.0
 11
1510.636332087515
 21
318.7605979264442
 31
0.0
  0
LINE
  5
4779
330
1F
100
AcDbEntity
  8
nášlap_vrstvy
100
AcDbLine
 10
1515.278255333813
 20
325.0105979264442
 30
0.0
 11
1510.636332087515
 21
325.0105979264442
 31
0.0
  0
LINE
  5
477A
330
1F
100
AcDbEntity
  8
POPIS
100
AcDbLine
 10
1423.87049159156
 20
406.9355186905665
 30
0.0
 11
1423.870491591558
 21
317.0107536624799
 31
0.0
  0
LINE
  5
477B
330
1F
100
AcDbEntity
  8
POPIS
100
AcDbLine
 10
1476.025118102408
 20
406.9355186905665
 30
0.0
 11
1476.025118102407
 21
314.1944625120248
 31
0.0
  0
INSERT
  5
477C
330
1F
100
AcDbEntity
  8
POPIS
100
AcDbBlockReference
  2
E_PUNKT
 10
1423.841423260686
 20
317.0383640381066
 30
0.0
 50
270.0
  0
LWPOLYLINE
  5
477D
330
1F
100
AcDbEntity
  8
nášlap_vrstvy
100
AcDbPolyline
 90
        4
 70
     1
 43
0.0
 10
1482.956258118074
 20
314.8997257502648
 10
1471.135391763159
 20
314.8997257502648
 10
1471.135391763159
 20
313.3997257502648
 10
1482.956258118074
 20
313.3997257502648
  0
HATCH
  5
477E
330
1F
100
AcDbEntity
  8
nášlap_vrstvy
100
AcDbHatch
 10
0.0
 20
0.0
 30
0.0
210
0.0
220
0.0
230
1.0
  2
SOLID
 70
     1
 71
     0
 91
        1
 92
        7
 72
     0
 73
     1
 93
        4
 10
1482.956258118074
 20
314.8997257502648
 10
1471.135391763159
 20
314.8997257502648
 10
1471.135391763159
 20
313.3997257502648
 10
1482.956258118078
 20
313.3997257502648
 97
        0
 75
     0
 76
     1
 47
0.1901250437635136
 98
        3
 10
1497.07800325017
 20
314.0160032855707
 10
1478.909907836498
 20
313.9209399477401
 10
1476.912371741886
 20
314.206129961232
  0
INSERT
  5
477F
330
1F
100
AcDbEntity
  8
POPIS
100
AcDbBlockReference
  2
E_PUNKT
 10
1475.996049771534
 20
314.2220728876515
 30
0.0
 50
270.0
  0
LWPOLYLINE
  5
4780
330
1F
100
AcDbEntity
  8
nášlap_vrstvy
100
AcDbPolyline
 90
        4
 70
     1
 43
0.0
 10
1464.069576164316
 20
314.8997257502648
 10
1452.248709809401
 20
314.8997257502648
 10
1452.248709809401
 20
313.3997257502648
 10
1464.069576164316
 20
313.3997257502648
  0
HATCH
  5
4781
330
1F
100
AcDbEntity
  8
nášlap_vrstvy
100
AcDbHatch
 10
0.0
 20
0.0
 30
0.0
210
0.0
220
0.0
230
1.0
  2
SOLID
 70
     1
 71
     0
 91
        1
 92
        7
 72
     0
 73
     1
 93
        4
 10
1464.06957616432
 20
314.8997257502648
 10
1452.248709809401
 20
314.8997257502648
 10
1452.248709809401
 20
313.3997257502648
 10
1464.06957616432
 20
313.3997257502648
 97
        0
 75
     0
 76
     1
 47
0.1901250437635136
 98
        1
 10
1456.92760718857
 20
314.4913199747249
  0
LWPOLYLINE
  5
4782
330
1F
100
AcDbEntity
  8
nášlap_vrstvy
100
AcDbPolyline
 90
        4
 70
     1
 43
0.0
 10
1440.427843454485
 20
314.8997257502648
 10
1428.606977099565
 20
314.8997257502648
 10
1428.606977099565
 20
313.3997257502648
 10
1440.427843454485
 20
313.3997257502648
  0
HATCH
  5
4783
330
1F
100
AcDbEntity
  8
nášlap_vrstvy
100
AcDbHatch
 10
0.0
 20
0.0
 30
0.0
210
0.0
220
0.0
230
1.0
  2
SOLID
 70
     1
 71
     0
 91
        1
 92
        7
 72
     0
 73
     1
 93
        4
 10
1440.427843454485
 20
314.8997257502648
 10
1428.606977099569
 20
314.8997257502648
 10
1428.606977099565
 20
313.3997257502648
 10
1440.427843454485
 20
313.3997257502648
 97
        0
 75
     0
 76
     1
 47
0.1901250437635136
 98
        1
 10
1433.285874478739
 20
314.4913199747249
  0
LINE
  5
4784
330
1F
100
AcDbEntity
  8
SPOJOVACÍ
  6
DASHED
100
AcDbLine
 10
1459.890522502601
 20
305.4581690420965
 30
0.0
 11
1464.594235466333
 21
304.2822408011636
 31
0.0
  0
LINE
  5
4785
330
1F
100
AcDbEntity
  8
SPOJOVACÍ
  6
DASHED
100
AcDbLine
 10
1459.890522502601
 20
302.4155212386451
 30
0.0
 11
1464.594235466333
 21
301.2395929977121
 31
0.0
  0
LINE
  5
4786
330
1F
100
AcDbEntity
  8
SPOJOVACÍ
  6
DASHED
100
AcDbLine
 10
1459.890522502601
 20
299.3581078120625
 30
0.0
 11
1464.594235466333
 21
298.1821795708585
 31
0.0
  0
LINE
  5
4787
330
1F
100
AcDbEntity
  8
SPOJOVACÍ
  6
DASHED
100
AcDbLine
 10
1460.260620850406
 20
284.455904647668
 30
0.0
 11
1464.224137122806
 21
283.1231859743967
 31
0.0
  0
LINE
  5
4788
330
1F
100
AcDbEntity
  8
SPOJOVACÍ
  6
DASHED
100
AcDbLine
 10
1460.260620850406
 20
283.8715868162164
 30
0.0
 11
1464.224137122806
 21
282.538868142945
 31
0.0
  0
LINE
  5
4789
330
1F
100
AcDbEntity
  8
SPOJOVACÍ
  6
DASHED
100
AcDbLine
 10
1464.594235466333
 20
282.9089664886107
 30
0.0
 11
1464.224137122806
 21
283.1231859743967
 31
0.0
  0
LINE
  5
478A
330
1F
100
AcDbEntity
  8
SPOJOVACÍ
  6
DASHED
100
AcDbLine
 10
1464.594235466333
 20
282.9089664886107
 30
0.0
 11
1464.224137122806
 21
282.538868142945
 31
0.0
  0
LINE
  5
478B
330
1F
100
AcDbEntity
  8
SPOJOVACÍ
  6
DASHED
100
AcDbLine
 10
1459.890522502601
 20
284.0848947295437
 30
0.0
 11
1460.260620850406
 21
284.455904647668
 31
0.0
  0
LINE
  5
478C
330
1F
100
AcDbEntity
  8
SPOJOVACÍ
  6
DASHED
100
AcDbLine
 10
1459.890522502601
 20
284.0848947295437
 30
0.0
 11
1460.260620850406
 21
283.8715868162164
 31
0.0
  0
LINE
  5
478D
330
1F
100
AcDbEntity
  8
SPOJOVACÍ
  6
DASHED
100
AcDbLine
 10
1459.890522502601
 20
284.0848947295437
 30
0.0
 11
1464.594235466333
 21
282.9089664886107
 31
0.0
  0
LINE
  5
478E
330
1F
100
AcDbEntity
  8
SPOJOVACÍ
  6
DASHED
100
AcDbLine
 10
1460.260620850406
 20
287.5133180742506
 30
0.0
 11
1464.224137122806
 21
286.1805994009793
 31
0.0
  0
LINE
  5
478F
330
1F
100
AcDbEntity
  8
SPOJOVACÍ
  6
DASHED
100
AcDbLine
 10
1460.260620850406
 20
286.9290002428062
 30
0.0
 11
1464.224137122806
 21
285.5962815697986
 31
0.0
  0
LINE
  5
4790
330
1F
100
AcDbEntity
  8
SPOJOVACÍ
  6
DASHED
100
AcDbLine
 10
1464.594235466333
 20
285.967291487652
 30
0.0
 11
1464.224137122806
 21
286.1805994009793
 31
0.0
  0
LINE
  5
4791
330
1F
100
AcDbEntity
  8
SPOJOVACÍ
  6
DASHED
100
AcDbLine
 10
1464.594235466333
 20
285.967291487652
 30
0.0
 11
1464.224137122806
 21
285.5962815697986
 31
0.0
  0
LINE
  5
4792
330
1F
100
AcDbEntity
  8
SPOJOVACÍ
  6
DASHED
100
AcDbLine
 10
1459.890522502601
 20
287.143219728585
 30
0.0
 11
1460.260620850406
 21
287.5133180742506
 31
0.0
  0
LINE
  5
4793
330
1F
100
AcDbEntity
  8
SPOJOVACÍ
  6
DASHED
100
AcDbLine
 10
1459.890522502601
 20
287.143219728585
 30
0.0
 11
1460.260620850406
 21
286.9290002428062
 31
0.0
  0
LINE
  5
4794
330
1F
100
AcDbEntity
  8
SPOJOVACÍ
  6
DASHED
100
AcDbLine
 10
1459.890522502601
 20
287.143219728585
 30
0.0
 11
1464.594235466333
 21
285.967291487652
 31
0.0
  0
LINE
  5
4795
330
1F
100
AcDbEntity
  8
SPOJOVACÍ
  6
DASHED
100
AcDbLine
 10
1464.594235466333
 20
289.0247049142418
 30
0.0
 11
1464.224137122806
 21
289.2380128278329
 31
0.0
  0
LINE
  5
4796
330
1F
100
AcDbEntity
  8
SPOJOVACÍ
  6
DASHED
100
AcDbLine
 10
1464.594235466333
 20
289.0247049142418
 30
0.0
 11
1464.224137122806
 21
288.6536949963885
 31
0.0
  0
LINE
  5
4797
330
1F
100
AcDbEntity
  8
SPOJOVACÍ
  6
DASHED
100
AcDbLine
 10
1460.692706109117
 20
278.1150078686643
 30
0.0
 11
1463.74647324722
 21
277.4942271462297
 31
0.0
  0
LINE
  5
4798
330
1F
100
AcDbEntity
  8
SPOJOVACÍ
  6
DASHED
100
AcDbLine
 10
1461.062804456922
 20
278.4860177867887
 30
0.0
 11
1463.376374903693
 21
277.707535059557
 31
0.0
  0
LINE
  5
4799
330
1F
100
AcDbEntity
  8
SPOJOVACÍ
  6
DASHED
100
AcDbLine
 10
1461.062804456922
 20
277.901699955337
 30
0.0
 11
1463.376374903693
 21
277.1232172283764
 31
0.0
  0
LINE
  5
479A
330
1F
100
AcDbEntity
  8
SPOJOVACÍ
  6
DASHED
100
AcDbLine
 10
1463.74647324722
 20
277.4942271462297
 30
0.0
 11
1463.376374903693
 21
277.707535059557
 31
0.0
  0
LINE
  5
479B
330
1F
100
AcDbEntity
  8
SPOJOVACÍ
  6
DASHED
100
AcDbLine
 10
1463.74647324722
 20
277.4942271462297
 30
0.0
 11
1463.376374903693
 21
277.1232172283764
 31
0.0
  0
LINE
  5
479C
330
1F
100
AcDbEntity
  8
SPOJOVACÍ
  6
DASHED
100
AcDbLine
 10
1460.692706109117
 20
278.1150078686643
 30
0.0
 11
1461.062804456922
 21
278.4860177867887
 31
0.0
  0
LINE
  5
479D
330
1F
100
AcDbEntity
  8
SPOJOVACÍ
  6
DASHED
100
AcDbLine
 10
1460.692706109117
 20
278.1150078686643
 30
0.0
 11
1461.062804456922
 21
277.901699955337
 31
0.0
  0
LINE
  5
479E
330
1F
100
AcDbEntity
  8
SPOJOVACÍ
  6
DASHED
100
AcDbLine
 10
1460.139381737134
 20
281.0694136278763
 30
0.0
 11
1464.182204796822
 21
280.1159090232178
 31
0.0
  0
LINE
  5
479F
330
1F
100
AcDbEntity
  8
SPOJOVACÍ
  6
DASHED
100
AcDbLine
 10
1460.510391654452
 20
281.439511973542
 30
0.0
 11
1463.812106453295
 21
280.3292169365451
 31
0.0
  0
LINE
  5
47A0
330
1F
100
AcDbEntity
  8
SPOJOVACÍ
  6
DASHED
100
AcDbLine
 10
1460.510391654452
 20
280.8551941420903
 30
0.0
 11
1463.812106453295
 21
279.7448991050934
 31
0.0
  0
LINE
  5
47A1
330
1F
100
AcDbEntity
  8
SPOJOVACÍ
  6
DASHED
100
AcDbLine
 10
1464.182204796822
 20
280.1159090232178
 30
0.0
 11
1463.812106453295
 21
280.3292169365451
 31
0.0
  0
LINE
  5
47A2
330
1F
100
AcDbEntity
  8
SPOJOVACÍ
  6
DASHED
100
AcDbLine
 10
1464.182204796822
 20
280.1159090232178
 30
0.0
 11
1463.812106453295
 21
279.7448991050934
 31
0.0
  0
LINE
  5
47A3
330
1F
100
AcDbEntity
  8
SPOJOVACÍ
  6
DASHED
100
AcDbLine
 10
1460.139381737134
 20
281.0694136278763
 30
0.0
 11
1460.510391654452
 21
281.439511973542
 31
0.0
  0
LINE
  5
47A4
330
1F
100
AcDbEntity
  8
SPOJOVACÍ
  6
DASHED
100
AcDbLine
 10
1460.139381737134
 20
281.0694136278763
 30
0.0
 11
1460.510391654452
 21
280.8551941420903
 31
0.0
  0
LINE
  5
47A5
330
1F
100
AcDbEntity
  8
SPOJOVACÍ
  6
DASHED
100
AcDbLine
 10
1459.890522502601
 20
296.315460008611
 30
0.0
 11
1464.594235466333
 21
295.139531767678
 31
0.0
  0
LINE
  5
47A6
330
1F
100
AcDbEntity
  8
SPOJOVACÍ
  6
DASHED
100
AcDbLine
 10
1463.324415283108
 20
280.5024156698674
 30
0.0
 11
1463.565070366347
 21
282.4340373309279
 31
0.0
  0
LINE
  5
47A7
330
1F
100
AcDbEntity
  8
SPOJOVACÍ
  6
DASHED
100
AcDbLine
 10
1462.992602970398
 20
277.8497403352868
 30
0.0
 11
1463.254224216629
 21
279.9436218620832
 31
0.0
  0
LINE
  5
47A8
330
1F
100
AcDbEntity
  8
SPOJOVACÍ
  6
DASHED
100
AcDbLine
 10
1461.142111244209
 20
280.6528250958219
 30
0.0
 11
1461.426521796738
 21
278.3775406854785
 31
0.0
  0
LINE
  5
47A9
330
1F
100
AcDbEntity
  8
SPOJOVACÍ
  6
DASHED
100
AcDbLine
 10
1460.919687606865
 20
282.4340373309279
 30
0.0
 11
1461.066450743534
 21
281.2608438065582
 31
0.0
  0
LINE
  5
47AA
330
1F
100
AcDbEntity
  8
SPOJOVACÍ
  6
DASHED
100
AcDbLine
 10
1463.565070366347
 20
282.7640264960539
 30
0.0
 11
1463.565070366347
 21
282.4340373309279
 31
0.0
  0
LINE
  5
47AB
330
1F
100
AcDbEntity
  8
SPOJOVACÍ
  6
DASHED
100
AcDbLine
 10
1463.565070366347
 20
285.8241746397345
 30
0.0
 11
1463.565070366347
 21
283.3556369058062
 31
0.0
  0
LINE
  5
47AC
330
1F
100
AcDbEntity
  8
SPOJOVACÍ
  6
DASHED
100
AcDbLine
 10
1460.919687606865
 20
283.6564557579787
 30
0.0
 11
1460.919687606865
 21
282.4340373309279
 31
0.0
  0
LINE
  5
47AD
330
1F
100
AcDbEntity
  8
SPOJOVACÍ
  6
DASHED
100
AcDbLine
 10
1460.919687606865
 20
286.708399751171
 30
0.0
 11
1460.919687606865
 21
284.2407735894304
 31
0.0
  0
LINE
  5
47AE
330
1F
100
AcDbEntity
  8
SPOJOVACÍ
  6
DASHED
100
AcDbLine
 10
1463.565070366347
 20
288.8834112109636
 30
0.0
 11
1463.565070366347
 21
286.4130503323887
 31
0.0
  0
LINE
  5
47AF
330
1F
100
AcDbEntity
  8
SPOJOVACÍ
  6
DASHED
100
AcDbLine
 10
1459.890522502601
 20
290.2006331551749
 30
0.0
 11
1464.594235466333
 21
289.0247049142418
 31
0.0
  0
LINE
  5
47B0
330
1F
100
AcDbEntity
  8
SPOJOVACÍ
  6
DASHED
100
AcDbLine
 10
1459.890522502601
 20
293.2580465820285
 30
0.0
 11
1464.594235466333
 21
292.0821183408244
 31
0.0
  0
LINE
  5
47B1
330
1F
100
AcDbEntity
  8
SPOJOVACÍ
  6
DASHED
100
AcDbLine
 10
1457.244228173605
 20
312.2237975090685
 30
0.0
 11
1467.240529795328
 21
312.2237975090685
 31
0.0
  0
LINE
  5
47B2
330
1F
100
AcDbEntity
  8
SPOJOVACÍ
  6
DASHED
100
AcDbLine
 10
1457.244228173605
 20
313.3997257502652
 30
0.0
 11
1467.240529795328
 21
313.3997257502652
 31
0.0
  0
LINE
  5
47B3
330
1F
100
AcDbEntity
  8
SPOJOVACÍ
  6
DASHED
100
AcDbLine
 10
1417.019458252245
 20
311.8938083439426
 30
0.0
 11
1417.72045733469
 21
312.2237975090685
 31
0.0
  0
LINE
  5
47B4
330
1F
100
AcDbEntity
  8
SPOJOVACÍ
  6
DASHED
100
AcDbLine
 10
1417.72045733469
 20
313.3997257502652
 30
0.0
 11
1417.72045733469
 21
312.2237975090685
 31
0.0
  0
LINE
  5
47B5
330
1F
100
AcDbEntity
  8
SPOJOVACÍ
  6
DASHED
100
AcDbLine
 10
1460.919687606865
 20
301.9916401285537
 30
0.0
 11
1460.919687606865
 21
299.5231023946254
 31
0.0
  0
LINE
  5
47B6
330
1F
100
AcDbEntity
  8
SPOJOVACÍ
  6
DASHED
100
AcDbLine
 10
1459.890522502601
 20
299.3581078120625
 30
0.0
 11
1460.260620850406
 21
299.7282061577281
 31
0.0
  0
LINE
  5
47B7
330
1F
100
AcDbEntity
  8
SPOJOVACÍ
  6
DASHED
100
AcDbLine
 10
1459.890522502601
 20
299.3581078120625
 30
0.0
 11
1460.260620850406
 21
299.1438883262764
 31
0.0
  0
LINE
  5
47B8
330
1F
100
AcDbEntity
  8
SPOJOVACÍ
  6
DASHED
100
AcDbLine
 10
1460.919687606865
 20
298.9314919851369
 30
0.0
 11
1460.919687606865
 21
296.461131106562
 31
0.0
  0
LINE
  5
47B9
330
1F
100
AcDbEntity
  8
SPOJOVACÍ
  6
DASHED
100
AcDbLine
 10
1459.890522502601
 20
296.315460008611
 30
0.0
 11
1460.260620850406
 21
296.6864699264644
 31
0.0
  0
LINE
  5
47BA
330
1F
100
AcDbEntity
  8
SPOJOVACÍ
  6
DASHED
100
AcDbLine
 10
1459.890522502601
 20
296.315460008611
 30
0.0
 11
1460.260620850406
 21
296.1021520952837
 31
0.0
  0
LINE
  5
47BB
330
1F
100
AcDbEntity
  8
SPOJOVACÍ
  6
DASHED
100
AcDbLine
 10
1460.919687606865
 20
295.8915788985197
 30
0.0
 11
1460.919687606865
 21
293.4230411645914
 31
0.0
  0
LINE
  5
47BC
330
1F
100
AcDbEntity
  8
SPOJOVACÍ
  6
DASHED
100
AcDbLine
 10
1459.890522502601
 20
293.2580465820285
 30
0.0
 11
1460.260620850406
 21
293.6281449276941
 31
0.0
  0
LINE
  5
47BD
330
1F
100
AcDbEntity
  8
SPOJOVACÍ
  6
DASHED
100
AcDbLine
 10
1459.890522502601
 20
293.2580465820285
 30
0.0
 11
1460.260620850406
 21
293.0438270962424
 31
0.0
  0
LINE
  5
47BE
330
1F
100
AcDbEntity
  8
SPOJOVACÍ
  6
DASHED
100
AcDbLine
 10
1460.919687606865
 20
292.8314307551028
 30
0.0
 11
1460.919687606865
 21
290.361069876528
 31
0.0
  0
LINE
  5
47BF
330
1F
100
AcDbEntity
  8
SPOJOVACÍ
  6
DASHED
100
AcDbLine
 10
1459.890522502601
 20
290.2006331551749
 30
0.0
 11
1460.260620850406
 21
290.5707315008405
 31
0.0
  0
LINE
  5
47C0
330
1F
100
AcDbEntity
  8
SPOJOVACÍ
  6
DASHED
100
AcDbLine
 10
1459.890522502601
 20
290.2006331551749
 30
0.0
 11
1460.260620850406
 21
289.9864136693888
 31
0.0
  0
LINE
  5
47C1
330
1F
100
AcDbEntity
  8
SPOJOVACÍ
  6
DASHED
100
AcDbLine
 10
1460.260620850406
 20
289.9864136693888
 30
0.0
 11
1464.224137122806
 21
288.6536949963885
 31
0.0
  0
LINE
  5
47C2
330
1F
100
AcDbEntity
  8
SPOJOVACÍ
  6
DASHED
100
AcDbLine
 10
1460.919687606865
 20
289.7785751897228
 30
0.0
 11
1460.919687606865
 21
287.3009217331111
 31
0.0
  0
LINE
  5
47C3
330
1F
100
AcDbEntity
  8
CETRIS
100
AcDbLine
 10
1439.318043230078
 20
297.3997257502653
 30
0.0
 11
1439.318043230078
 21
289.3997257502653
 31
0.0
  0
LINE
  5
47C4
330
1F
100
AcDbEntity
  8
CETRIS
100
AcDbLine
 10
1429.318043230078
 20
297.3997257502653
 30
0.0
 11
1439.318043230078
 21
297.3997257502653
 31
0.0
  0
LINE
  5
47C5
330
1F
100
AcDbEntity
  8
CETRIS
100
AcDbLine
 10
1429.318043230078
 20
305.3997257502653
 30
0.0
 11
1429.318043230078
 21
297.3997257502653
 31
0.0
  0
LINE
  5
47C6
330
1F
100
AcDbEntity
  8
CETRIS
100
AcDbLine
 10
1439.318043230078
 20
305.3997257502653
 30
0.0
 11
1429.318043230078
 21
305.3997257502653
 31
0.0
  0
LINE
  5
47C7
330
1F
100
AcDbEntity
  8
CETRIS
100
AcDbLine
 10
1439.318043230078
 20
313.3997257502652
 30
0.0
 11
1439.318043230078
 21
305.3997257502653
 31
0.0
  0
LINE
  5
47C8
330
1F
100
AcDbEntity
  8
SPOJOVACÍ
  6
DASHED
100
AcDbLine
 10
1457.244228173605
 20
313.3997257502652
 30
0.0
 11
1457.244228173605
 21
312.2237975090685
 31
0.0
  0
LINE
  5
47C9
330
1F
100
AcDbEntity
  8
SPOJOVACÍ
  6
DASHED
100
AcDbLine
 10
1457.244228173605
 20
312.2237975090685
 30
0.0
 11
1458.566919555486
 21
311.4945396853237
 31
0.0
  0
LINE
  5
47CA
330
1F
100
AcDbEntity
  8
SPOJOVACÍ
  6
DASHED
100
AcDbLine
 10
1458.566919555486
 20
311.4945396853237
 30
0.0
 11
1459.655336857837
 21
310.4471431356998
 31
0.0
  0
LINE
  5
47CB
330
1F
100
AcDbEntity
  8
SPOJOVACÍ
  6
DASHED
100
AcDbLine
 10
1459.655336857837
 20
310.4471431356998
 30
0.0
 11
1460.435642727569
 21
309.1545336429682
 31
0.0
  0
LINE
  5
47CC
330
1F
100
AcDbEntity
  8
SPOJOVACÍ
  6
DASHED
100
AcDbLine
 10
1460.435642727569
 20
309.1545336429682
 30
0.0
 11
1460.854965974582
 21
307.7033105732591
 31
0.0
  0
LINE
  5
47CD
330
1F
100
AcDbEntity
  8
SPOJOVACÍ
  6
DASHED
100
AcDbLine
 10
1460.854965974582
 20
307.7033105732591
 30
0.0
 11
1460.919687606865
 21
306.932120424599
 31
0.0
  0
LINE
  5
47CE
330
1F
100
AcDbEntity
  8
SPOJOVACÍ
  6
DASHED
100
AcDbLine
 10
1460.887326790724
 20
307.3177154989291
 30
0.0
 11
1460.919687606865
 21
305.607570036782
 31
0.0
  0
LINE
  5
47CF
330
1F
100
AcDbEntity
  8
SPOJOVACÍ
  6
DASHED
100
AcDbLine
 10
1459.890522502601
 20
305.4581690420965
 30
0.0
 11
1460.260620850406
 21
305.8291789599499
 31
0.0
  0
LINE
  5
47D0
330
1F
100
AcDbEntity
  8
SPOJOVACÍ
  6
DASHED
100
AcDbLine
 10
1459.890522502601
 20
305.4581690420965
 30
0.0
 11
1460.260620850406
 21
305.2448611287692
 31
0.0
  0
LINE
  5
47D1
330
1F
100
AcDbEntity
  8
SPOJOVACÍ
  6
DASHED
100
AcDbLine
 10
1460.919687606865
 20
305.0342879320052
 30
0.0
 11
1460.919687606865
 21
302.5657501980769
 31
0.0
  0
LINE
  5
47D2
330
1F
100
AcDbEntity
  8
SPOJOVACÍ
  6
DASHED
100
AcDbLine
 10
1459.890522502601
 20
302.4155212386451
 30
0.0
 11
1460.260620850406
 21
302.7865311564984
 31
0.0
  0
LINE
  5
47D3
330
1F
100
AcDbEntity
  8
SPOJOVACÍ
  6
DASHED
100
AcDbLine
 10
1459.890522502601
 20
302.4155212386451
 30
0.0
 11
1460.260620850406
 21
302.2022133253178
 31
0.0
  0
LINE
  5
47D4
330
1F
100
AcDbEntity
  8
SPOJOVACÍ
  6
DASHED
100
AcDbLine
 10
1460.260620850406
 20
290.5707315008405
 30
0.0
 11
1464.224137122806
 21
289.2380128278329
 31
0.0
  0
LINE
  5
47D5
330
1F
100
AcDbEntity
  8
SPOJOVACÍ
  6
DASHED
100
AcDbLine
 10
1463.565070366347
 20
291.9435593543805
 30
0.0
 11
1463.565070366347
 21
289.4659058977687
 31
0.0
  0
LINE
  5
47D6
330
1F
100
AcDbEntity
  8
SPOJOVACÍ
  6
DASHED
100
AcDbLine
 10
1460.260620850406
 20
293.0438270962424
 30
0.0
 11
1464.224137122806
 21
291.7120199954299
 31
0.0
  0
LINE
  5
47D7
330
1F
100
AcDbEntity
  8
SPOJOVACÍ
  6
DASHED
100
AcDbLine
 10
1464.594235466333
 20
292.0821183408244
 30
0.0
 11
1464.224137122806
 21
291.7120199954299
 31
0.0
  0
LINE
  5
47D8
330
1F
100
AcDbEntity
  8
SPOJOVACÍ
  6
DASHED
100
AcDbLine
 10
1464.594235466333
 20
292.0821183408244
 30
0.0
 11
1464.224137122806
 21
292.2963378266105
 31
0.0
  0
LINE
  5
47D9
330
1F
100
AcDbEntity
  8
SPOJOVACÍ
  6
DASHED
100
AcDbLine
 10
1460.260620850406
 20
293.6281449276941
 30
0.0
 11
1464.224137122806
 21
292.2963378266105
 31
0.0
  0
LINE
  5
47DA
330
1F
100
AcDbEntity
  8
SPOJOVACÍ
  6
DASHED
100
AcDbLine
 10
1463.565070366347
 20
294.9964149197605
 30
0.0
 11
1463.565070366347
 21
292.5278771858322
 31
0.0
  0
LINE
  5
47DB
330
1F
100
AcDbEntity
  8
SPOJOVACÍ
  6
DASHED
100
AcDbLine
 10
1460.260620850406
 20
296.1021520952837
 30
0.0
 11
1464.224137122806
 21
294.7694334220124
 31
0.0
  0
LINE
  5
47DC
330
1F
100
AcDbEntity
  8
SPOJOVACÍ
  6
DASHED
100
AcDbLine
 10
1464.594235466333
 20
295.139531767678
 30
0.0
 11
1464.224137122806
 21
294.7694334220124
 31
0.0
  0
LINE
  5
47DD
330
1F
100
AcDbEntity
  8
SPOJOVACÍ
  6
DASHED
100
AcDbLine
 10
1464.594235466333
 20
295.139531767678
 30
0.0
 11
1464.224137122806
 21
295.3537512534641
 31
0.0
  0
LINE
  5
47DE
330
1F
100
AcDbEntity
  8
SPOJOVACÍ
  6
DASHED
100
AcDbLine
 10
1460.260620850406
 20
296.6864699264644
 30
0.0
 11
1464.224137122806
 21
295.3537512534641
 31
0.0
  0
LINE
  5
47DF
330
1F
100
AcDbEntity
  8
SPOJOVACÍ
  6
DASHED
100
AcDbLine
 10
1463.565070366347
 20
298.0436205844145
 30
0.0
 11
1463.565070366347
 21
295.5659671278028
 31
0.0
  0
LINE
  5
47E0
330
1F
100
AcDbEntity
  8
SPOJOVACÍ
  6
DASHED
100
AcDbLine
 10
1460.260620850406
 20
299.1438883262764
 30
0.0
 11
1464.224137122806
 21
297.8120812254639
 31
0.0
  0
LINE
  5
47E1
330
1F
100
AcDbEntity
  8
SPOJOVACÍ
  6
DASHED
100
AcDbLine
 10
1464.594235466333
 20
298.1821795708585
 30
0.0
 11
1464.224137122806
 21
297.8120812254639
 31
0.0
  0
LINE
  5
47E2
330
1F
100
AcDbEntity
  8
SPOJOVACÍ
  6
DASHED
100
AcDbLine
 10
1464.594235466333
 20
298.1821795708585
 30
0.0
 11
1464.224137122806
 21
298.3963990566446
 31
0.0
  0
LINE
  5
47E3
330
1F
100
AcDbEntity
  8
SPOJOVACÍ
  6
DASHED
100
AcDbLine
 10
1460.260620850406
 20
299.7282061577281
 30
0.0
 11
1464.224137122806
 21
298.3963990566446
 31
0.0
  0
LINE
  5
47E4
330
1F
100
AcDbEntity
  8
SPOJOVACÍ
  6
DASHED
100
AcDbLine
 10
1463.565070366347
 20
301.0964761497945
 30
0.0
 11
1463.565070366347
 21
298.6279384158662
 31
0.0
  0
LINE
  5
47E5
330
1F
100
AcDbEntity
  8
SPOJOVACÍ
  6
DASHED
100
AcDbLine
 10
1460.260620850406
 20
302.2022133253178
 30
0.0
 11
1464.224137122806
 21
300.8694946520465
 31
0.0
  0
LINE
  5
47E6
330
1F
100
AcDbEntity
  8
SPOJOVACÍ
  6
DASHED
100
AcDbLine
 10
1464.594235466333
 20
301.2395929977121
 30
0.0
 11
1464.224137122806
 21
300.8694946520465
 31
0.0
  0
LINE
  5
47E7
330
1F
100
AcDbEntity
  8
SPOJOVACÍ
  6
DASHED
100
AcDbLine
 10
1464.594235466333
 20
301.2395929977121
 30
0.0
 11
1464.224137122806
 21
301.4538124834982
 31
0.0
  0
LINE
  5
47E8
330
1F
100
AcDbEntity
  8
SPOJOVACÍ
  6
DASHED
100
AcDbLine
 10
1460.260620850406
 20
302.7865311564984
 30
0.0
 11
1464.224137122806
 21
301.4538124834982
 31
0.0
  0
LINE
  5
47E9
330
1F
100
AcDbEntity
  8
SPOJOVACÍ
  6
DASHED
100
AcDbLine
 10
1463.565070366347
 20
304.139123953246
 30
0.0
 11
1463.565070366347
 21
301.6705862193177
 31
0.0
  0
LINE
  5
47EA
330
1F
100
AcDbEntity
  8
SPOJOVACÍ
  6
DASHED
100
AcDbLine
 10
1460.260620850406
 20
305.2448611287692
 30
0.0
 11
1464.224137122806
 21
303.9121424554979
 31
0.0
  0
LINE
  5
47EB
330
1F
100
AcDbEntity
  8
SPOJOVACÍ
  6
DASHED
100
AcDbLine
 10
1464.594235466333
 20
304.2822408011636
 30
0.0
 11
1464.224137122806
 21
303.9121424554979
 31
0.0
  0
LINE
  5
47EC
330
1F
100
AcDbEntity
  8
SPOJOVACÍ
  6
DASHED
100
AcDbLine
 10
1464.594235466333
 20
304.2822408011636
 30
0.0
 11
1464.224137122806
 21
304.4964602869496
 31
0.0
  0
LINE
  5
47ED
330
1F
100
AcDbEntity
  8
SPOJOVACÍ
  6
DASHED
100
AcDbLine
 10
1460.260620850406
 20
305.8291789599499
 30
0.0
 11
1464.224137122806
 21
304.4964602869496
 31
0.0
  0
LINE
  5
47EE
330
1F
100
AcDbEntity
  8
SPOJOVACÍ
  6
DASHED
100
AcDbLine
 10
1463.565070366347
 20
306.9321204246008
 30
0.0
 11
1463.565070366347
 21
304.7180692101193
 31
0.0
  0
LINE
  5
47EF
330
1F
100
AcDbEntity
  8
SPOJOVACÍ
  6
DASHED
100
AcDbLine
 10
1463.565070366347
 20
306.932120424599
 30
0.0
 11
1463.787493999412
 21
308.4252758189597
 31
0.0
  0
LINE
  5
47F0
330
1F
100
AcDbEntity
  8
SPOJOVACÍ
  6
DASHED
100
AcDbLine
 10
1463.787493999412
 20
308.4252758189597
 30
0.0
 11
1464.388220131577
 21
309.810865684469
 31
0.0
  0
LINE
  5
47F1
330
1F
100
AcDbEntity
  8
SPOJOVACÍ
  6
DASHED
100
AcDbLine
 10
1464.388220131577
 20
309.810865684469
 30
0.0
 11
1465.327139580162
 21
310.9940865037098
 31
0.0
  0
LINE
  5
47F2
330
1F
100
AcDbEntity
  8
SPOJOVACÍ
  6
DASHED
100
AcDbLine
 10
1465.327139580162
 20
310.9940865037098
 30
0.0
 11
1466.539530712884
 21
311.8938083439426
 31
0.0
  0
LINE
  5
47F3
330
1F
100
AcDbEntity
  8
SPOJOVACÍ
  6
DASHED
100
AcDbLine
 10
1466.539530712884
 20
311.8938083439426
 30
0.0
 11
1467.240529795328
 21
312.2237975090685
 31
0.0
  0
LINE
  5
47F4
330
1F
100
AcDbEntity
  8
SPOJOVACÍ
  6
DASHED
100
AcDbLine
 10
1467.240529795328
 20
313.3997257502652
 30
0.0
 11
1467.240529795328
 21
312.2237975090685
 31
0.0
  0
LINE
  5
47F5
330
1F
100
AcDbEntity
  8
SPOJOVACÍ
  6
DASHED
100
AcDbLine
 10
1461.246030485379
 20
275.1615136819111
 30
0.0
 11
1463.357231884007
 21
274.8570485404527
 31
0.0
  0
LINE
  5
47F6
330
1F
100
AcDbEntity
  8
SPOJOVACÍ
  6
DASHED
100
AcDbLine
 10
1461.616128828906
 20
275.5316120275767
 30
0.0
 11
1462.98713354048
 21
275.0703564540437
 31
0.0
  0
LINE
  5
47F7
330
1F
100
AcDbEntity
  8
SPOJOVACÍ
  6
DASHED
100
AcDbLine
 10
1461.616128828906
 20
274.9472941961323
 30
0.0
 11
1462.98713354048
 21
274.4860386225993
 31
0.0
  0
LINE
  5
47F8
330
1F
100
AcDbEntity
  8
SPOJOVACÍ
  6
DASHED
100
AcDbLine
 10
1463.357231884007
 20
274.8570485404527
 30
0.0
 11
1462.98713354048
 21
275.0703564540437
 31
0.0
  0
LINE
  5
47F9
330
1F
100
AcDbEntity
  8
SPOJOVACÍ
  6
DASHED
100
AcDbLine
 10
1463.357231884007
 20
274.8570485404527
 30
0.0
 11
1462.98713354048
 21
274.4860386225993
 31
0.0
  0
LINE
  5
47FA
330
1F
100
AcDbEntity
  8
SPOJOVACÍ
  6
DASHED
100
AcDbLine
 10
1461.246030485379
 20
275.1615136819111
 30
0.0
 11
1461.616128828906
 21
275.5316120275767
 31
0.0
  0
LINE
  5
47FB
330
1F
100
AcDbEntity
  8
SPOJOVACÍ
  6
DASHED
100
AcDbLine
 10
1461.246030485379
 20
275.1615136819111
 30
0.0
 11
1461.616128828906
 21
274.9472941961323
 31
0.0
  0
LINE
  5
47FC
330
1F
100
AcDbEntity
  8
SPOJOVACÍ
  6
DASHED
100
AcDbLine
 10
1461.864076489646
 20
274.8771031307225
 30
0.0
 11
1462.242378984467
 21
271.8497715892737
 31
0.0
  0
LINE
  5
47FD
330
1F
100
AcDbEntity
  8
SPOJOVACÍ
  6
DASHED
100
AcDbLine
 10
1462.242378984467
 20
271.8497715892737
 30
0.0
 11
1462.589688025973
 21
274.6291554705168
 31
0.0
  0
LINE
  5
47FE
330
1F
100
AcDbEntity
  8
SPOJOVACÍ
  6
DASHED
100
AcDbLine
 10
1462.659879092452
 20
275.1870377058423
 30
0.0
 11
1462.922411908197
 21
277.2891233831271
 31
0.0
  0
LINE
  5
47FF
330
1F
100
AcDbEntity
  8
SPOJOVACÍ
  6
DASHED
100
AcDbLine
 10
1461.50400544072
 20
277.7594946796072
 30
0.0
 11
1461.788415988971
 21
275.4851218414589
 31
0.0
  0
TEXT
  5
4800
330
1F
100
AcDbEntity
  8
POPIS
100
AcDbText
 10
1459.127447170604
 20
415.7848797632903
 30
0.0
 40
25.0
  1
05
 41
0.85
  7
SIMPLEX7
100
AcDbText
  0
TEXT
  5
4801
330
1F
100
AcDbEntity
  8
POPIS
100
AcDbText
 10
1523.410489951644
 20
415.7848797632903
 30
0.0
 40
25.0
  1
06
 41
0.85
  7
SIMPLEX7
100
AcDbText
  0
LWPOLYLINE
  5
4802
330
1F
100
AcDbEntity
  8
STAVBA OBRYS
100
AcDbPolyline
 90
        6
 70
     0
 43
0.0
 10
1689.318576290401
 20
267.6420599373793
 42
-0.0121757200102759
 10
1690.688566004062
 20
272.3139772698465
 42
-0.0457786284636091
 10
1691.896588893678
 20
275.1625876527229
 42
-0.0295006114745606
 10
1694.312649347977
 20
279.089486866125
 42
-0.0258674098621065
 10
1697.545324661942
 20
283.2352669448789
 42
-0.0093759062953949
 10
1699.711136841599
 20
285.6420599373793
  0
LWPOLYLINE
  5
4803
330
1F
100
AcDbEntity
  8
STAVBA OBRYS
100
AcDbPolyline
 90
        3
 70
     0
 43
0.0
 10
1711.44190806231
 20
267.6420599373793
 10
1697.649860135671
 20
274.543131500866
 10
1689.482755486546
 20
282.7244332019597
  0
LWPOLYLINE
  5
4804
330
1F
100
AcDbEntity
  8
STAVBA OBRYS
100
AcDbPolyline
 90
        4
 70
     0
 43
0.0
 10
1680.508114941558
 20
267.6420599373793
 42
-0.0186324019486548
 10
1683.876484313665
 20
279.3371715556038
 42
-0.0582629403736403
 10
1685.535984181746
 20
282.9170057545395
 42
-0.0146402521923566
 10
1687.32039216333
 20
285.6420599373793
  0
HATCH
  5
4805
330
1F
100
AcDbEntity
  8
izolace
100
AcDbHatch
 10
0.0
 20
0.0
 30
0.0
210
0.0
220
0.0
230
1.0
  2
SOLID
 70
     1
 71
     0
 91
        1
 92
        7
 72
     0
 73
     1
 93
        4
 10
1642.740838778243
 20
288.6420599373788
 10
1619.099106068408
 20
288.6420599373788
 10
1619.099106068405
 20
285.6420599373788
 10
1642.740838778243
 20
285.6420599373788
 97
        0
 75
     0
 76
     1
 47
0.1901250437635136
 98
        1
 10
1628.456900826748
 20
287.825248386299
  0
LWPOLYLINE
  5
4806
330
1F
100
AcDbEntity
  8
STAVBA OBRYS
100
AcDbPolyline
 90
        3
 70
     0
 43
0.0
 10
1648.9058348299
 20
267.6420599373793
 42
-0.0052038508054843
 10
1652.104231769883
 20
284.0458864193767
 42
-0.0065712046643719
 10
1652.454657539647
 20
285.6420599373793
  0
LWPOLYLINE
  5
4807
330
1F
100
AcDbEntity
  8
STAVBA OBRYS
100
AcDbPolyline
 90
        4
 70
     0
 43
0.0
 10
1660.358372692868
 20
267.6420599373793
 42
-0.0334776267545482
 10
1660.795650487574
 20
271.689034866116
 42
-0.0091133963862869
 10
1663.273254812493
 20
284.3807646515758
 42
-0.007828075361276
 10
1663.564153947651
 20
285.6420599373793
  0
LWPOLYLINE
  5
4808
330
1F
100
AcDbEntity
  8
STAVBA OBRYS
100
AcDbPolyline
 90
        5
 70
     0
 43
0.0
 10
1670.602511067662
 20
267.6420599373793
 42
-0.0133579731639958
 10
1670.98932155669
 20
270.1598622249345
 42
-0.0072443097182286
 10
1673.109318504148
 20
280.9707531198416
 42
-0.0219777111230329
 10
1674.015431006131
 20
284.4888663756771
 42
-0.0092752982622242
 10
1674.390657968078
 20
285.6420599373793
  0
LWPOLYLINE
  5
4809
330
1F
100
AcDbEntity
  8
STAVBA OBRYS
100
AcDbPolyline
 90
        5
 70
     0
 43
0.0
 10
1628.500627308201
 20
267.6420599373793
 42
-0.0133579731639958
 10
1628.88743779723
 20
270.1598622249345
 42
-0.0072443097182286
 10
1631.007434744688
 20
280.9707531198416
 42
-0.0219777111230329
 10
1631.913547246671
 20
284.4888663756771
 42
-0.0092752982622242
 10
1632.288774208618
 20
285.6420599373793
  0
LWPOLYLINE
  5
480A
330
1F
100
AcDbEntity
  8
STAVBA OBRYS
100
AcDbPolyline
 90
        4
 70
     0
 43
0.0
 10
1638.406231182098
 20
267.6420599373793
 42
-0.0186324019486548
 10
1641.774600554205
 20
279.3371715556038
 42
-0.0582629403736403
 10
1643.434100422286
 20
282.9170057545395
 42
-0.0146402521923566
 10
1645.21850840387
 20
285.6420599373793
  0
LWPOLYLINE
  5
480B
330
1F
100
AcDbEntity
  8
izolace
100
AcDbPolyline
 90
        4
 70
     1
 43
0.0
 10
1690.02430419791
 20
288.6420599373788
 10
1666.382571488075
 20
288.6420599373788
 10
1666.382571488075
 20
285.6420599373788
 10
1690.02430419791
 20
285.6420599373788
  0
HATCH
  5
480C
330
1F
100
AcDbEntity
  8
izolace
100
AcDbHatch
 10
0.0
 20
0.0
 30
0.0
210
0.0
220
0.0
230
1.0
  2
SOLID
 70
     1
 71
     0
 91
        1
 92
        7
 72
     0
 73
     1
 93
        4
 10
1690.024304197914
 20
288.6420599373788
 10
1666.382571488079
 20
288.6420599373788
 10
1666.382571488075
 20
285.6420599373788
 10
1690.024304197914
 20
285.6420599373788
 97
        0
 75
     0
 76
     1
 47
0.1901250437635136
 98
        1
 10
1675.740366246419
 20
287.825248386299
  0
LWPOLYLINE
  5
480D
330
1F
100
AcDbEntity
  8
STAVBA OBRYS
100
AcDbPolyline
 90
        4
 70
     0
 43
0.0
 10
1695.112500130153
 20
267.1412295066308
 10
1675.116247698161
 20
276.3572585571507
 10
1658.338357126942
 20
279.0644028198418
 10
1655.074745879238
 20
279.1947041842119
  0
LWPOLYLINE
  5
480E
330
1F
100
AcDbEntity
  8
STAVBA OBRYS
100
AcDbPolyline
 90
        5
 70
     0
 43
0.0
 10
1598.353618451727
 20
267.6420599373793
 42
-0.0133579731639958
 10
1598.740428940755
 20
270.1598622249345
 42
-0.0072443097182286
 10
1600.860425888213
 20
280.9707531198416
 42
-0.0219777111230329
 10
1601.766538390197
 20
284.4888663756771
 42
-0.0092752982622242
 10
1602.141765352144
 20
285.6420599373793
  0
LWPOLYLINE
  5
480F
330
1F
100
AcDbEntity
  8
STAVBA OBRYS
100
AcDbPolyline
 90
        4
 70
     0
 43
0.0
 10
1588.109480076933
 20
267.6420599373793
 42
-0.0334776267545482
 10
1588.54675787164
 20
271.689034866116
 42
-0.0091133963862869
 10
1591.024362196558
 20
284.3807646515758
 42
-0.007828075361276
 10
1591.315261331716
 20
285.6420599373793
  0
LWPOLYLINE
  5
4810
330
1F
100
AcDbEntity
  8
STAVBA OBRYS
100
AcDbPolyline
 90
        3
 70
     0
 43
0.0
 10
1606.80395107044
 20
267.6420599373793
 42
-0.0052038508054843
 10
1610.002348010423
 20
284.0458864193767
 42
-0.0065712046643719
 10
1610.352773780187
 20
285.6420599373793
  0
LWPOLYLINE
  5
4811
330
1F
100
AcDbEntity
  8
STAVBA OBRYS
100
AcDbPolyline
 90
        4
 70
     0
 43
0.0
 10
1622.863607514218
 20
267.1412295066308
 10
1602.867355082226
 20
276.3572585571507
 10
1586.089464511007
 20
279.0644028198418
 10
1582.825853263303
 20
279.1947041842119
  0
LWPOLYLINE
  5
4812
330
1F
100
AcDbEntity
  8
STAVBA OBRYS
100
AcDbPolyline
 90
        4
 70
     0
 43
0.0
 10
1618.256488933408
 20
267.6420599373793
 42
-0.0334776267545482
 10
1618.693766728114
 20
271.689034866116
 42
-0.0091133963862869
 10
1621.171371053033
 20
284.3807646515758
 42
-0.007828075361276
 10
1621.462270188191
 20
285.6420599373793
  0
LWPOLYLINE
  5
4813
330
1F
100
AcDbEntity
  8
STAVBA OBRYS
100
AcDbPolyline
 90
        4
 70
     0
 43
0.0
 10
1653.010616370693
 20
267.1412295066308
 10
1633.014363938701
 20
276.3572585571507
 10
1616.236473367482
 20
279.0644028198418
 10
1612.972862119777
 20
279.1947041842119
  0
LWPOLYLINE
  5
4814
330
1F
100
AcDbEntity
  8
STAVBA OBRYS
100
AcDbPolyline
 90
        3
 70
     0
 43
0.0
 10
1576.656942213965
 20
267.6420599373793
 42
-0.0052038508054843
 10
1579.855339153948
 20
284.0458864193767
 42
-0.0065712046643719
 10
1580.205764923712
 20
285.6420599373793
  0
LINE
  5
4815
330
1F
100
AcDbEntity
  8
STAVBA OBRYS
100
AcDbLine
 10
1571.264451871708
 20
285.6420599373783
 30
0.0
 11
1571.264451871708
 21
267.6420599373793
 31
0.0
  0
LWPOLYLINE
  5
4816
330
1F
100
AcDbEntity
  8
STAVBA OBRYS
100
AcDbPolyline
 90
        4
 70
     1
 43
0.0
 10
1595.457373358569
 20
288.6420599373788
 10
1571.815640648734
 20
288.6420599373788
 10
1571.815640648734
 20
285.6420599373788
 10
1595.457373358569
 20
285.6420599373788
  0
HATCH
  5
4817
330
1F
100
AcDbEntity
  8
izolace
100
AcDbHatch
 10
0.0
 20
0.0
 30
0.0
210
0.0
220
0.0
230
1.0
  2
SOLID
 70
     1
 71
     0
 91
        1
 92
        7
 72
     0
 73
     1
 93
        4
 10
1595.457373358573
 20
288.6420599373788
 10
1571.815640648738
 20
288.6420599373788
 10
1571.815640648734
 20
285.6420599373788
 10
1595.457373358573
 20
285.6420599373788
 97
        0
 75
     0
 76
     1
 47
0.1901250437635136
 98
        1
 10
1581.173435407078
 20
287.825248386299
  0
HATCH
  5
4818
330
1F
100
AcDbEntity
  8
nášlap_vrstvy
100
AcDbHatch
 10
0.0
 20
0.0
 30
0.0
210
0.0
220
0.0
230
1.0
  2
SOLID
 70
     1
 71
     0
 91
        1
 92
        7
 72
     0
 73
     1
 93
        4
 10
1624.806654377089
 20
314.8997257502648
 10
1612.98578802217
 20
314.8997257502648
 10
1612.98578802217
 20
313.3997257502648
 10
1624.806654377089
 20
313.3997257502648
 97
        0
 75
     0
 76
     1
 47
0.1901250437635136
 98
        1
 10
1617.664685401339
 20
314.4913199747249
  0
LWPOLYLINE
  5
4819
330
1F
100
AcDbEntity
  8
nášlap_vrstvy
100
AcDbPolyline
 90
        4
 70
     1
 43
0.0
 10
1624.806654377085
 20
314.8997257502648
 10
1612.98578802217
 20
314.8997257502648
 10
1612.98578802217
 20
313.3997257502648
 10
1624.806654377085
 20
313.3997257502648
  0
HATCH
  5
481A
330
1F
100
AcDbEntity
  8
nášlap_vrstvy
100
AcDbHatch
 10
0.0
 20
0.0
 30
0.0
210
0.0
220
0.0
230
1.0
  2
SOLID
 70
     1
 71
     0
 91
        1
 92
        7
 72
     0
 73
     1
 93
        4
 10
1601.164921667254
 20
314.8997257502648
 10
1589.344055312338
 20
314.8997257502648
 10
1589.344055312334
 20
313.3997257502648
 10
1601.164921667254
 20
313.3997257502648
 97
        0
 75
     0
 76
     1
 47
0.1901250437635136
 98
        1
 10
1594.022952691508
 20
314.4913199747249
  0
LWPOLYLINE
  5
481B
330
1F
100
AcDbEntity
  8
nášlap_vrstvy
100
AcDbPolyline
 90
        4
 70
     1
 43
0.0
 10
1601.164921667254
 20
314.8997257502648
 10
1589.344055312334
 20
314.8997257502648
 10
1589.344055312334
 20
313.3997257502648
 10
1601.164921667254
 20
313.3997257502648
  0
HATCH
  5
481C
330
1F
100
AcDbEntity
  8
nášlap_vrstvy
100
AcDbHatch
 10
0.0
 20
0.0
 30
0.0
210
0.0
220
0.0
230
1.0
  2
SOLID
 70
     1
 71
     0
 91
        1
 92
        7
 72
     0
 73
     1
 93
        4
 10
1672.090119796759
 20
314.8997257502648
 10
1660.26925344184
 20
314.8997257502648
 10
1660.26925344184
 20
313.3997257502648
 10
1672.090119796759
 20
313.3997257502648
 97
        0
 75
     0
 76
     1
 47
0.1901250437635136
 98
        1
 10
1664.94815082101
 20
314.4913199747249
  0
LWPOLYLINE
  5
481D
330
1F
100
AcDbEntity
  8
nášlap_vrstvy
100
AcDbPolyline
 90
        4
 70
     1
 43
0.0
 10
1672.090119796756
 20
314.8997257502648
 10
1660.26925344184
 20
314.8997257502648
 10
1660.26925344184
 20
313.3997257502648
 10
1672.090119796756
 20
313.3997257502648
  0
HATCH
  5
481E
330
1F
100
AcDbEntity
  8
nášlap_vrstvy
100
AcDbHatch
 10
0.0
 20
0.0
 30
0.0
210
0.0
220
0.0
230
1.0
  2
SOLID
 70
     1
 71
     0
 91
        1
 92
        7
 72
     0
 73
     1
 93
        4
 10
1648.448387086924
 20
314.8997257502648
 10
1636.627520732009
 20
314.8997257502648
 10
1636.627520732005
 20
313.3997257502648
 10
1648.448387086924
 20
313.3997257502648
 97
        0
 75
     0
 76
     1
 47
0.1901250437635136
 98
        1
 10
1641.306418111178
 20
314.4913199747249
  0
LWPOLYLINE
  5
481F
330
1F
100
AcDbEntity
  8
nášlap_vrstvy
100
AcDbPolyline
 90
        4
 70
     1
 43
0.0
 10
1648.448387086924
 20
314.8997257502648
 10
1636.627520732005
 20
314.8997257502648
 10
1636.627520732005
 20
313.3997257502648
 10
1648.448387086924
 20
313.3997257502648
  0
LINE
  5
4820
330
1F
100
AcDbEntity
  8
nášlap_vrstvy
100
AcDbLine
 10
1644.920178580103
 20
318.7605979264442
 30
0.0
 11
1640.278255333809
 21
318.7605979264442
 31
0.0
  0
LINE
  5
4821
330
1F
100
AcDbEntity
  8
nášlap_vrstvy
100
AcDbLine
 10
1644.920178580107
 20
325.0105979264442
 30
0.0
 11
1640.278255333809
 21
325.0105979264442
 31
0.0
  0
HATCH
  5
4822
330
1F
100
AcDbEntity
  8
nášlap_vrstvy
100
AcDbHatch
 10
0.0
 20
0.0
 30
0.0
210
0.0
220
0.0
230
1.0
  2
SOLID
 70
     1
 71
     0
 91
        1
 92
        7
 72
     0
 73
     1
 93
        4
 10
1695.731852506595
 20
314.8997257502648
 10
1683.910986151679
 20
314.8997257502648
 10
1683.910986151675
 20
313.3997257502648
 10
1695.731852506595
 20
313.3997257502648
 97
        0
 75
     0
 76
     1
 47
0.1901250437635136
 98
        1
 10
1688.589883530849
 20
314.4913199747249
  0
LWPOLYLINE
  5
4823
330
1F
100
AcDbEntity
  8
nášlap_vrstvy
100
AcDbPolyline
 90
        4
 70
     1
 43
0.0
 10
1695.731852506595
 20
314.8997257502648
 10
1683.910986151675
 20
314.8997257502648
 10
1683.910986151675
 20
313.3997257502648
 10
1695.731852506595
 20
313.3997257502648
  0
INSERT
  5
4824
330
1F
100
AcDbEntity
  8
POPIS
100
AcDbBlockReference
  2
E_PUNKT
 10
1615.383062730807
 20
286.2901839038083
 30
0.0
 50
270.0
  0
LINE
  5
4825
330
1F
100
AcDbEntity
  8
POPIS
100
AcDbLine
 10
1615.412131061681
 20
406.9355186905665
 30
0.0
 11
1615.412131061681
 21
285.0125735281815
 31
0.0
  0
TEXT
  5
4826
330
1F
100
AcDbEntity
  8
POPIS
100
AcDbText
 10
1598.514460129876
 20
415.7848797632903
 30
0.0
 40
25.0
  1
07
 41
0.85
  7
SIMPLEX7
100
AcDbText
  0
TEXT
  5
4827
330
1F
100
AcDbEntity
  8
POPIS
100
AcDbText
 10
1647.602975594162
 20
415.7848797632903
 30
0.0
 40
25.0
  1
09
 41
0.85
  7
SIMPLEX7
100
AcDbText
  0
TEXT
  5
4828
330
1F
100
AcDbEntity
  8
POPIS
100
AcDbText
 10
1876.761506288856
 20
236.765210333018
 30
0.0
 40
25.0
  1
06
 41
0.85
  7
SIMPLEX7
100
AcDbText
  0
TEXT
  5
4829
330
1F
100
AcDbEntity
  8
POPIS
100
AcDbText
 10
1876.761506288856
 20
202.51181779382
 30
0.0
 40
25.0
  1
07
 41
0.85
  7
SIMPLEX7
100
AcDbText
  0
TEXT
  5
482A
330
1F
100
AcDbEntity
  8
POPIS
100
AcDbText
 10
1877.644277288889
 20
137.1542965991645
 30
0.0
 40
25.0
  1
09
 41
0.85
  7
SIMPLEX7
100
AcDbText
  0
TEXT
  5
482B
330
1F
100
AcDbEntity
  8
POPIS
100
AcDbText
 10
1877.644277288889
 20
170.089292335562
 30
0.0
 40
25.0
  1
08
 41
0.85
  7
SIMPLEX7
100
AcDbText
  0
LWPOLYLINE
  5
482C
330
1F
100
AcDbEntity
  8
STAVBA OBRYS
100
AcDbPolyline
 90
        4
 70
     0
 43
0.0
 10
1782.170531050548
 20
267.6420599373793
 42
0.0334776267545482
 10
1781.733253255841
 20
271.689034866116
 42
0.0091133963862869
 10
1779.255648930923
 20
284.3807646515758
 42
0.007828075361276
 10
1778.964749795765
 20
285.6420599373793
  0
LWPOLYLINE
  5
482D
330
1F
100
AcDbEntity
  8
STAVBA OBRYS
100
AcDbPolyline
 90
        3
 70
     0
 43
0.0
 10
1793.623068913515
 20
267.6420599373793
 42
0.0052038508054843
 10
1790.424671973533
 20
284.0458864193767
 42
0.0065712046643719
 10
1790.074246203769
 20
285.6420599373793
  0
LWPOLYLINE
  5
482E
330
1F
100
AcDbEntity
  8
STAVBA OBRYS
100
AcDbPolyline
 90
        3
 70
     0
 43
0.0
 10
1789.518287372723
 20
267.1412295066308
 10
1809.514539804715
 20
276.3572585571507
 10
1821.347876026049
 20
278.266589657154
  0
LWPOLYLINE
  5
482F
330
1F
100
AcDbEntity
  8
STAVBA OBRYS
100
AcDbPolyline
 90
        2
 70
     0
 43
0.0
 10
1819.665296229197
 20
267.1412295066308
 10
1821.660964690118
 20
268.0610087789522
  0
LWPOLYLINE
  5
4830
330
1F
100
AcDbEntity
  8
STAVBA OBRYS
100
AcDbPolyline
 90
        4
 70
     0
 43
0.0
 10
1804.122672561318
 20
267.6420599373793
 42
0.0186324019486548
 10
1800.754303189211
 20
279.3371715556038
 42
0.0582629403736403
 10
1799.094803321129
 20
282.9170057545395
 42
0.0146402521923566
 10
1797.310395339545
 20
285.6420599373793
  0
LWPOLYLINE
  5
4831
330
1F
100
AcDbEntity
  8
STAVBA OBRYS
100
AcDbPolyline
 90
        5
 70
     0
 43
0.0
 10
1814.028276435214
 20
267.6420599373793
 42
0.0133579731639958
 10
1813.641465946186
 20
270.1598622249345
 42
0.0072443097182286
 10
1811.521468998727
 20
280.9707531198416
 42
0.0219777111230329
 10
1810.615356496744
 20
284.4888663756771
 42
0.0092752982622242
 10
1810.240129534797
 20
285.6420599373793
  0
LWPOLYLINE
  5
4832
330
1F
100
AcDbEntity
  8
STAVBA OBRYS
100
AcDbPolyline
 90
        2
 70
     0
 43
0.0
 10
1821.129524435469
 20
285.3840776829875
 42
0.0016057743491666
 10
1821.066633555225
 20
285.6420599373793
  0
LWPOLYLINE
  5
4833
330
1F
100
AcDbEntity
  8
STAVBA OBRYS
100
AcDbPolyline
 90
        5
 70
     0
 43
0.0
 10
1771.926392675754
 20
267.6420599373793
 42
0.0133579731639958
 10
1771.539582186726
 20
270.1598622249345
 42
0.0072443097182286
 10
1769.419585239267
 20
280.9707531198416
 42
0.0219777111230329
 10
1768.513472737284
 20
284.4888663756771
 42
0.0092752982622242
 10
1768.138245775337
 20
285.6420599373793
  0
LWPOLYLINE
  5
4834
330
1F
100
AcDbEntity
  8
STAVBA OBRYS
100
AcDbPolyline
 90
        4
 70
     0
 43
0.0
 10
1762.020788801858
 20
267.6420599373793
 42
0.0186324019486548
 10
1758.652419429751
 20
279.3371715556038
 42
0.0582629403736403
 10
1756.992919561669
 20
282.9170057545395
 42
0.0146402521923566
 10
1755.208511580085
 20
285.6420599373793
  0
LWPOLYLINE
  5
4835
330
1F
100
AcDbEntity
  8
izolace
100
AcDbPolyline
 90
        4
 70
     1
 43
0.0
 10
1784.591235037251
 20
288.6420599373788
 10
1760.949502327416
 20
288.6420599373788
 10
1760.949502327416
 20
285.6420599373788
 10
1784.591235037251
 20
285.6420599373788
  0
HATCH
  5
4836
330
1F
100
AcDbEntity
  8
izolace
100
AcDbHatch
 10
0.0
 20
0.0
 30
0.0
210
0.0
220
0.0
230
1.0
  2
SOLID
 70
     1
 71
     0
 91
        1
 92
        7
 72
     0
 73
     1
 93
        4
 10
1784.591235037254
 20
288.6420599373788
 10
1760.949502327419
 20
288.6420599373788
 10
1760.949502327416
 20
285.6420599373788
 10
1784.591235037254
 20
285.6420599373788
 97
        0
 75
     0
 76
     1
 47
0.1901250437635136
 98
        1
 10
1770.307297085759
 20
287.825248386299
  0
LWPOLYLINE
  5
4837
330
1F
100
AcDbEntity
  8
STAVBA OBRYS
100
AcDbPolyline
 90
        4
 70
     0
 43
0.0
 10
1747.416403613262
 20
267.1412295066308
 10
1767.412656045255
 20
276.3572585571507
 10
1784.190546616474
 20
279.0644028198418
 10
1787.454157864178
 20
279.1947041842119
  0
LWPOLYLINE
  5
4838
330
1F
100
AcDbEntity
  8
STAVBA OBRYS
100
AcDbPolyline
 90
        6
 70
     0
 43
0.0
 10
1753.210327453014
 20
267.6420599373793
 42
0.0121757200102759
 10
1751.840337739353
 20
272.3139772698465
 42
0.0457786284636091
 10
1750.632314849737
 20
275.1625876527229
 42
0.0295006114745606
 10
1748.216254395438
 20
279.089486866125
 42
0.0258674098621065
 10
1744.983579081474
 20
283.2352669448789
 42
0.0093759062953949
 10
1742.817766901817
 20
285.6420599373793
  0
LWPOLYLINE
  5
4839
330
1F
100
AcDbEntity
  8
STAVBA OBRYS
100
AcDbPolyline
 90
        3
 70
     0
 43
0.0
 10
1731.086995681106
 20
267.6420599373793
 10
1744.879043607745
 20
274.543131500866
 10
1753.04614825687
 20
282.7244332019597
  0
POLYLINE
  5
483A
330
1F
100
AcDbEntity
  8
STAVBA OBRYS
100
AcDb2dPolyline
 66
     1
 10
0.0
 20
0.0
 30
0.0
  0
VERTEX
  5
483B
330
483A
100
AcDbEntity
  8
STAVBA OBRYS
100
AcDbVertex
100
AcDb2dVertex
 10
1726.432326108361
 20
267.6420599373793
 30
0.0
 42
0.0094186890201653
  0
VERTEX
  5
483C
330
483A
100
AcDbEntity
  8
STAVBA OBRYS
100
AcDbVertex
100
AcDb2dVertex
 10
1726.085527545487
 20
267.8007328081473
 30
0.0
 42
0.0322692699774654
  0
VERTEX
  5
483D
330
483A
100
AcDbEntity
  8
STAVBA OBRYS
100
AcDbVertex
100
AcDb2dVertex
 10
1723.194173364396
 20
268.8422563095479
 30
0.0
 42
0.0276160659512937
  0
VERTEX
  5
483E
330
483A
100
AcDbEntity
  8
STAVBA OBRYS
100
AcDbVertex
100
AcDb2dVertex
 10
1722.338596926109
 20
269.0389917384925
 30
0.0
 42
0.0126891984598699
  0
VERTEX
  5
483F
330
483A
100
AcDbEntity
  8
STAVBA OBRYS
100
AcDbVertex
100
AcDb2dVertex
 10
1721.415428530317
 20
269.174194128034
 30
0.0
  0
SEQEND
  5
4840
330
483A
100
AcDbEntity
  8
STAVBA OBRYS
  0
POLYLINE
  5
4841
330
1F
100
AcDbEntity
  8
STAVBA OBRYS
100
AcDb2dPolyline
 66
     1
 10
0.0
 20
0.0
 30
0.0
  0
VERTEX
  5
4842
330
4841
100
AcDbEntity
  8
STAVBA OBRYS
100
AcDbVertex
100
AcDb2dVertex
 10
1735.485472057897
 20
267.6420599373793
 30
0.0
 42
0.0502247168465557
  0
VERTEX
  5
4843
330
4841
100
AcDbEntity
  8
STAVBA OBRYS
100
AcDbVertex
100
AcDb2dVertex
 10
1733.886424881732
 20
269.6495306101021
 30
0.0
 42
0.0274923553235744
  0
VERTEX
  5
4844
330
4841
100
AcDbEntity
  8
STAVBA OBRYS
100
AcDbVertex
100
AcDb2dVertex
 10
1731.289119151179
 20
272.0346059332402
 30
0.0
 42
0.0255412025538677
  0
VERTEX
  5
4845
330
4841
100
AcDbEntity
  8
STAVBA OBRYS
100
AcDbVertex
100
AcDb2dVertex
 10
1728.237689113468
 20
274.291319610256
 30
0.0
 42
0.0272796991712396
  0
VERTEX
  5
4846
330
4841
100
AcDbEntity
  8
STAVBA OBRYS
100
AcDbVertex
100
AcDb2dVertex
 10
1724.124689960283
 20
276.7076554919219
 30
0.0
 42
0.056967459841729
  0
VERTEX
  5
4847
330
4841
100
AcDbEntity
  8
STAVBA OBRYS
100
AcDbVertex
100
AcDb2dVertex
 10
1721.983742679551
 20
277.5203913271213
 30
0.0
 42
0.0373408083348504
  0
VERTEX
  5
4848
330
4841
100
AcDbEntity
  8
STAVBA OBRYS
100
AcDbVertex
100
AcDb2dVertex
 10
1721.761388304078
 20
277.5595568680689
 30
0.0
 42
0.0052305969362967
  0
VERTEX
  5
4849
330
4841
100
AcDbEntity
  8
STAVBA OBRYS
100
AcDbVertex
100
AcDb2dVertex
 10
1721.415428530317
 20
277.5905138349732
 30
0.0
  0
SEQEND
  5
484A
330
4841
100
AcDbEntity
  8
STAVBA OBRYS
  0
LINE
  5
484B
330
1F
100
AcDbEntity
  8
STAVBA OBRYS
100
AcDbLine
 10
1721.264451871708
 20
285.6420599373783
 30
0.0
 11
1721.264451871708
 21
267.6420599373793
 31
0.0
  0
LWPOLYLINE
  5
484C
330
1F
100
AcDbEntity
  8
STAVBA OBRYS
100
AcDbPolyline
 90
        8
 70
     0
 43
0.0
 10
1743.837523445212
 20
267.6420599373793
 42
0.0217273703039143
 10
1741.639853184703
 20
272.677750274857
 42
0.0882970623535771
 10
1740.002631264609
 20
274.9181193256569
 42
0.0171636441953577
 10
1737.189267202751
 20
277.4320366809021
 42
0.0157521173632038
 10
1733.950412365715
 20
279.9635327334087
 42
0.0073640874174249
 10
1729.316763009394
 20
283.2519341591448
 42
0.0194185739168057
 10
1727.494719689717
 20
284.4035031584259
 42
0.0229547400386702
 10
1725.109261625703
 20
285.6420599373793
  0
HATCH
  5
484D
330
1F
100
AcDbEntity
  8
nášlap_vrstvy
100
AcDbHatch
 10
0.0
 20
0.0
 30
0.0
210
0.0
220
0.0
230
1.0
  2
SOLID
 70
     1
 71
     0
 91
        1
 92
        7
 72
     0
 73
     1
 93
        4
 10
1813.940516055771
 20
314.8997257502648
 10
1802.119649700851
 20
314.8997257502648
 10
1802.119649700851
 20
313.3997257502648
 10
1813.940516055771
 20
313.3997257502648
 97
        0
 75
     0
 76
     1
 47
0.1901250437635136
 98
        1
 10
1806.798547080021
 20
314.4913199747249
  0
LINE
  5
484E
330
1F
100
AcDbEntity
  8
nášlap_vrstvy
100
AcDbLine
 10
1821.006331654605
 20
318.7605979264442
 30
0.0
 11
1821.006331654609
 21
314.8997257502648
 31
0.0
  0
HATCH
  5
484F
330
1F
100
AcDbEntity
  8
nášlap_vrstvy
100
AcDbHatch
 10
0.0
 20
0.0
 30
0.0
210
0.0
220
0.0
230
1.0
  2
SOLID
 70
     1
 71
     0
 91
        1
 92
        7
 72
     0
 73
     1
 93
        4
 10
1743.015317926265
 20
314.8997257502648
 10
1731.194451571349
 20
314.8997257502648
 10
1731.194451571345
 20
313.3997257502648
 10
1743.015317926265
 20
313.3997257502648
 97
        0
 75
     0
 76
     1
 47
0.1901250437635136
 98
        1
 10
1735.873348950519
 20
314.4913199747249
  0
LWPOLYLINE
  5
4850
330
1F
100
AcDbEntity
  8
nášlap_vrstvy
100
AcDbPolyline
 90
        4
 70
     1
 43
0.0
 10
1743.015317926265
 20
314.8997257502648
 10
1731.194451571345
 20
314.8997257502648
 10
1731.194451571345
 20
313.3997257502648
 10
1743.015317926265
 20
313.3997257502648
  0
HATCH
  5
4851
330
1F
100
AcDbEntity
  8
nášlap_vrstvy
100
AcDbHatch
 10
0.0
 20
0.0
 30
0.0
210
0.0
220
0.0
230
1.0
  2
SOLID
 70
     1
 71
     0
 91
        1
 92
        7
 72
     0
 73
     1
 93
        4
 10
1766.657050636101
 20
314.8997257502648
 10
1754.836184281181
 20
314.8997257502648
 10
1754.836184281181
 20
313.3997257502648
 10
1766.657050636101
 20
313.3997257502648
 97
        0
 75
     0
 76
     1
 47
0.1901250437635136
 98
        1
 10
1759.515081660351
 20
314.4913199747249
  0
LWPOLYLINE
  5
4852
330
1F
100
AcDbEntity
  8
nášlap_vrstvy
100
AcDbPolyline
 90
        4
 70
     1
 43
0.0
 10
1766.657050636097
 20
314.8997257502648
 10
1754.836184281181
 20
314.8997257502648
 10
1754.836184281181
 20
313.3997257502648
 10
1766.657050636097
 20
313.3997257502648
  0
LINE
  5
4853
330
1F
100
AcDbEntity
  8
nášlap_vrstvy
100
AcDbLine
 10
1774.562101826397
 20
318.7605979264442
 30
0.0
 11
1769.920178580103
 21
318.7605979264442
 31
0.0
  0
LINE
  5
4854
330
1F
100
AcDbEntity
  8
nášlap_vrstvy
100
AcDbLine
 10
1774.562101826401
 20
325.0105979264442
 30
0.0
 11
1769.920178580103
 21
325.0105979264442
 31
0.0
  0
LINE
  5
4855
330
1F
100
AcDbEntity
  8
SPOJOVACÍ
  6
DASHED
100
AcDbLine
 10
1757.829004745616
 20
313.3997257502648
 30
0.0
 11
1767.825306367338
 21
313.3997257502648
 31
0.0
  0
LINE
  5
4856
330
1F
100
AcDbEntity
  8
SPOJOVACÍ
  6
DASHED
100
AcDbLine
 10
1739.254303087515
 20
305.4581690420965
 30
0.0
 11
1743.958016051247
 21
304.2822408011636
 31
0.0
  0
LINE
  5
4857
330
1F
100
AcDbEntity
  8
SPOJOVACÍ
  6
DASHED
100
AcDbLine
 10
1739.254303087515
 20
302.4155212386451
 30
0.0
 11
1743.958016051247
 21
301.2395929977121
 31
0.0
  0
LINE
  5
4858
330
1F
100
AcDbEntity
  8
SPOJOVACÍ
  6
DASHED
100
AcDbLine
 10
1739.254303087515
 20
299.3581078120625
 30
0.0
 11
1743.958016051247
 21
298.1821795708585
 31
0.0
  0
LINE
  5
4859
330
1F
100
AcDbEntity
  8
SPOJOVACÍ
  6
DASHED
100
AcDbLine
 10
1739.62440143532
 20
284.455904647668
 30
0.0
 11
1743.58791770772
 21
283.1231859743967
 31
0.0
  0
LINE
  5
485A
330
1F
100
AcDbEntity
  8
SPOJOVACÍ
  6
DASHED
100
AcDbLine
 10
1739.62440143532
 20
283.8715868162164
 30
0.0
 11
1743.58791770772
 21
282.538868142945
 31
0.0
  0
LINE
  5
485B
330
1F
100
AcDbEntity
  8
SPOJOVACÍ
  6
DASHED
100
AcDbLine
 10
1743.958016051247
 20
282.9089664886107
 30
0.0
 11
1743.58791770772
 21
283.1231859743967
 31
0.0
  0
LINE
  5
485C
330
1F
100
AcDbEntity
  8
SPOJOVACÍ
  6
DASHED
100
AcDbLine
 10
1743.958016051247
 20
282.9089664886107
 30
0.0
 11
1743.58791770772
 21
282.538868142945
 31
0.0
  0
LINE
  5
485D
330
1F
100
AcDbEntity
  8
SPOJOVACÍ
  6
DASHED
100
AcDbLine
 10
1739.254303087515
 20
284.0848947295437
 30
0.0
 11
1739.62440143532
 21
284.455904647668
 31
0.0
  0
LINE
  5
485E
330
1F
100
AcDbEntity
  8
SPOJOVACÍ
  6
DASHED
100
AcDbLine
 10
1739.254303087515
 20
284.0848947295437
 30
0.0
 11
1739.62440143532
 21
283.8715868162164
 31
0.0
  0
LINE
  5
485F
330
1F
100
AcDbEntity
  8
SPOJOVACÍ
  6
DASHED
100
AcDbLine
 10
1739.254303087515
 20
284.0848947295437
 30
0.0
 11
1743.958016051247
 21
282.9089664886107
 31
0.0
  0
LINE
  5
4860
330
1F
100
AcDbEntity
  8
SPOJOVACÍ
  6
DASHED
100
AcDbLine
 10
1739.62440143532
 20
287.5133180742506
 30
0.0
 11
1743.58791770772
 21
286.1805994009793
 31
0.0
  0
LINE
  5
4861
330
1F
100
AcDbEntity
  8
SPOJOVACÍ
  6
DASHED
100
AcDbLine
 10
1739.62440143532
 20
286.9290002428062
 30
0.0
 11
1743.58791770772
 21
285.5962815697986
 31
0.0
  0
LINE
  5
4862
330
1F
100
AcDbEntity
  8
SPOJOVACÍ
  6
DASHED
100
AcDbLine
 10
1743.958016051247
 20
285.967291487652
 30
0.0
 11
1743.58791770772
 21
286.1805994009793
 31
0.0
  0
LINE
  5
4863
330
1F
100
AcDbEntity
  8
SPOJOVACÍ
  6
DASHED
100
AcDbLine
 10
1743.958016051247
 20
285.967291487652
 30
0.0
 11
1743.58791770772
 21
285.5962815697986
 31
0.0
  0
LINE
  5
4864
330
1F
100
AcDbEntity
  8
SPOJOVACÍ
  6
DASHED
100
AcDbLine
 10
1739.254303087515
 20
287.143219728585
 30
0.0
 11
1739.62440143532
 21
287.5133180742506
 31
0.0
  0
LINE
  5
4865
330
1F
100
AcDbEntity
  8
SPOJOVACÍ
  6
DASHED
100
AcDbLine
 10
1739.254303087515
 20
287.143219728585
 30
0.0
 11
1739.62440143532
 21
286.9290002428062
 31
0.0
  0
LINE
  5
4866
330
1F
100
AcDbEntity
  8
SPOJOVACÍ
  6
DASHED
100
AcDbLine
 10
1739.254303087515
 20
287.143219728585
 30
0.0
 11
1743.958016051247
 21
285.967291487652
 31
0.0
  0
LINE
  5
4867
330
1F
100
AcDbEntity
  8
SPOJOVACÍ
  6
DASHED
100
AcDbLine
 10
1743.958016051247
 20
289.0247049142418
 30
0.0
 11
1743.58791770772
 21
289.2380128278329
 31
0.0
  0
LINE
  5
4868
330
1F
100
AcDbEntity
  8
SPOJOVACÍ
  6
DASHED
100
AcDbLine
 10
1743.958016051247
 20
289.0247049142418
 30
0.0
 11
1743.58791770772
 21
288.6536949963885
 31
0.0
  0
LINE
  5
4869
330
1F
100
AcDbEntity
  8
SPOJOVACÍ
  6
DASHED
100
AcDbLine
 10
1740.056486694031
 20
278.1150078686643
 30
0.0
 11
1743.110253832134
 21
277.4942271462297
 31
0.0
  0
LINE
  5
486A
330
1F
100
AcDbEntity
  8
SPOJOVACÍ
  6
DASHED
100
AcDbLine
 10
1740.426585041836
 20
278.4860177867887
 30
0.0
 11
1742.740155488607
 21
277.707535059557
 31
0.0
  0
LINE
  5
486B
330
1F
100
AcDbEntity
  8
SPOJOVACÍ
  6
DASHED
100
AcDbLine
 10
1740.426585041836
 20
277.901699955337
 30
0.0
 11
1742.740155488607
 21
277.1232172283764
 31
0.0
  0
LINE
  5
486C
330
1F
100
AcDbEntity
  8
SPOJOVACÍ
  6
DASHED
100
AcDbLine
 10
1743.110253832134
 20
277.4942271462297
 30
0.0
 11
1742.740155488607
 21
277.707535059557
 31
0.0
  0
LINE
  5
486D
330
1F
100
AcDbEntity
  8
SPOJOVACÍ
  6
DASHED
100
AcDbLine
 10
1743.110253832134
 20
277.4942271462297
 30
0.0
 11
1742.740155488607
 21
277.1232172283764
 31
0.0
  0
LINE
  5
486E
330
1F
100
AcDbEntity
  8
SPOJOVACÍ
  6
DASHED
100
AcDbLine
 10
1740.056486694031
 20
278.1150078686643
 30
0.0
 11
1740.426585041836
 21
278.4860177867887
 31
0.0
  0
LINE
  5
486F
330
1F
100
AcDbEntity
  8
SPOJOVACÍ
  6
DASHED
100
AcDbLine
 10
1740.056486694031
 20
278.1150078686643
 30
0.0
 11
1740.426585041836
 21
277.901699955337
 31
0.0
  0
LINE
  5
4870
330
1F
100
AcDbEntity
  8
SPOJOVACÍ
  6
DASHED
100
AcDbLine
 10
1739.503162322048
 20
281.0694136278763
 30
0.0
 11
1743.545985381736
 21
280.1159090232178
 31
0.0
  0
LINE
  5
4871
330
1F
100
AcDbEntity
  8
SPOJOVACÍ
  6
DASHED
100
AcDbLine
 10
1739.874172239366
 20
281.439511973542
 30
0.0
 11
1743.175887038209
 21
280.3292169365451
 31
0.0
  0
LINE
  5
4872
330
1F
100
AcDbEntity
  8
SPOJOVACÍ
  6
DASHED
100
AcDbLine
 10
1739.874172239366
 20
280.8551941420903
 30
0.0
 11
1743.175887038209
 21
279.7448991050934
 31
0.0
  0
LINE
  5
4873
330
1F
100
AcDbEntity
  8
SPOJOVACÍ
  6
DASHED
100
AcDbLine
 10
1743.545985381736
 20
280.1159090232178
 30
0.0
 11
1743.175887038209
 21
280.3292169365451
 31
0.0
  0
LINE
  5
4874
330
1F
100
AcDbEntity
  8
SPOJOVACÍ
  6
DASHED
100
AcDbLine
 10
1743.545985381736
 20
280.1159090232178
 30
0.0
 11
1743.175887038209
 21
279.7448991050934
 31
0.0
  0
LINE
  5
4875
330
1F
100
AcDbEntity
  8
SPOJOVACÍ
  6
DASHED
100
AcDbLine
 10
1739.503162322048
 20
281.0694136278763
 30
0.0
 11
1739.874172239366
 21
281.439511973542
 31
0.0
  0
LINE
  5
4876
330
1F
100
AcDbEntity
  8
SPOJOVACÍ
  6
DASHED
100
AcDbLine
 10
1739.503162322048
 20
281.0694136278763
 30
0.0
 11
1739.874172239366
 21
280.8551941420903
 31
0.0
  0
LINE
  5
4877
330
1F
100
AcDbEntity
  8
SPOJOVACÍ
  6
DASHED
100
AcDbLine
 10
1739.254303087515
 20
296.315460008611
 30
0.0
 11
1743.958016051247
 21
295.139531767678
 31
0.0
  0
LINE
  5
4878
330
1F
100
AcDbEntity
  8
SPOJOVACÍ
  6
DASHED
100
AcDbLine
 10
1742.688195868022
 20
280.5024156698674
 30
0.0
 11
1742.928850951261
 21
282.4340373309279
 31
0.0
  0
LINE
  5
4879
330
1F
100
AcDbEntity
  8
SPOJOVACÍ
  6
DASHED
100
AcDbLine
 10
1742.356383555312
 20
277.8497403352868
 30
0.0
 11
1742.618004801543
 21
279.9436218620832
 31
0.0
  0
LINE
  5
487A
330
1F
100
AcDbEntity
  8
SPOJOVACÍ
  6
DASHED
100
AcDbLine
 10
1740.505891829123
 20
280.6528250958219
 30
0.0
 11
1740.790302381652
 21
278.3775406854785
 31
0.0
  0
LINE
  5
487B
330
1F
100
AcDbEntity
  8
SPOJOVACÍ
  6
DASHED
100
AcDbLine
 10
1740.283468191779
 20
282.4340373309279
 30
0.0
 11
1740.430231328448
 21
281.2608438065582
 31
0.0
  0
LINE
  5
487C
330
1F
100
AcDbEntity
  8
SPOJOVACÍ
  6
DASHED
100
AcDbLine
 10
1742.928850951261
 20
282.7640264960539
 30
0.0
 11
1742.928850951261
 21
282.4340373309279
 31
0.0
  0
LINE
  5
487D
330
1F
100
AcDbEntity
  8
SPOJOVACÍ
  6
DASHED
100
AcDbLine
 10
1742.928850951261
 20
285.8241746397345
 30
0.0
 11
1742.928850951261
 21
283.3556369058062
 31
0.0
  0
LINE
  5
487E
330
1F
100
AcDbEntity
  8
SPOJOVACÍ
  6
DASHED
100
AcDbLine
 10
1740.283468191779
 20
283.6564557579787
 30
0.0
 11
1740.283468191779
 21
282.4340373309279
 31
0.0
  0
LINE
  5
487F
330
1F
100
AcDbEntity
  8
SPOJOVACÍ
  6
DASHED
100
AcDbLine
 10
1740.283468191779
 20
286.708399751171
 30
0.0
 11
1740.283468191779
 21
284.2407735894304
 31
0.0
  0
LINE
  5
4880
330
1F
100
AcDbEntity
  8
SPOJOVACÍ
  6
DASHED
100
AcDbLine
 10
1742.928850951261
 20
288.8834112109636
 30
0.0
 11
1742.928850951261
 21
286.4130503323887
 31
0.0
  0
LINE
  5
4881
330
1F
100
AcDbEntity
  8
SPOJOVACÍ
  6
DASHED
100
AcDbLine
 10
1739.254303087515
 20
290.2006331551749
 30
0.0
 11
1743.958016051247
 21
289.0247049142418
 31
0.0
  0
LINE
  5
4882
330
1F
100
AcDbEntity
  8
SPOJOVACÍ
  6
DASHED
100
AcDbLine
 10
1739.254303087515
 20
293.2580465820285
 30
0.0
 11
1743.958016051247
 21
292.0821183408244
 31
0.0
  0
LINE
  5
4883
330
1F
100
AcDbEntity
  8
SPOJOVACÍ
  6
DASHED
100
AcDbLine
 10
1742.928850951261
 20
291.9435593543805
 30
0.0
 11
1742.928850951261
 21
289.4659058977687
 31
0.0
  0
LINE
  5
4884
330
1F
100
AcDbEntity
  8
SPOJOVACÍ
  6
DASHED
100
AcDbLine
 10
1743.958016051247
 20
292.0821183408244
 30
0.0
 11
1743.58791770772
 21
291.7120199954299
 31
0.0
  0
LINE
  5
4885
330
1F
100
AcDbEntity
  8
SPOJOVACÍ
  6
DASHED
100
AcDbLine
 10
1743.958016051247
 20
292.0821183408244
 30
0.0
 11
1743.58791770772
 21
292.2963378266105
 31
0.0
  0
LINE
  5
4886
330
1F
100
AcDbEntity
  8
SPOJOVACÍ
  6
DASHED
100
AcDbLine
 10
1742.928850951261
 20
294.9964149197605
 30
0.0
 11
1742.928850951261
 21
292.5278771858322
 31
0.0
  0
LINE
  5
4887
330
1F
100
AcDbEntity
  8
SPOJOVACÍ
  6
DASHED
100
AcDbLine
 10
1743.958016051247
 20
295.139531767678
 30
0.0
 11
1743.58791770772
 21
294.7694334220124
 31
0.0
  0
LINE
  5
4888
330
1F
100
AcDbEntity
  8
SPOJOVACÍ
  6
DASHED
100
AcDbLine
 10
1743.958016051247
 20
295.139531767678
 30
0.0
 11
1743.58791770772
 21
295.3537512534641
 31
0.0
  0
LINE
  5
4889
330
1F
100
AcDbEntity
  8
SPOJOVACÍ
  6
DASHED
100
AcDbLine
 10
1742.928850951261
 20
298.0436205844145
 30
0.0
 11
1742.928850951261
 21
295.5659671278028
 31
0.0
  0
LINE
  5
488A
330
1F
100
AcDbEntity
  8
SPOJOVACÍ
  6
DASHED
100
AcDbLine
 10
1743.958016051247
 20
298.1821795708585
 30
0.0
 11
1743.58791770772
 21
297.8120812254639
 31
0.0
  0
LINE
  5
488B
330
1F
100
AcDbEntity
  8
SPOJOVACÍ
  6
DASHED
100
AcDbLine
 10
1743.958016051247
 20
298.1821795708585
 30
0.0
 11
1743.58791770772
 21
298.3963990566446
 31
0.0
  0
LINE
  5
488C
330
1F
100
AcDbEntity
  8
SPOJOVACÍ
  6
DASHED
100
AcDbLine
 10
1742.928850951261
 20
301.0964761497945
 30
0.0
 11
1742.928850951261
 21
298.6279384158662
 31
0.0
  0
LINE
  5
488D
330
1F
100
AcDbEntity
  8
SPOJOVACÍ
  6
DASHED
100
AcDbLine
 10
1743.958016051247
 20
301.2395929977121
 30
0.0
 11
1743.58791770772
 21
300.8694946520465
 31
0.0
  0
LINE
  5
488E
330
1F
100
AcDbEntity
  8
SPOJOVACÍ
  6
DASHED
100
AcDbLine
 10
1743.958016051247
 20
301.2395929977121
 30
0.0
 11
1743.58791770772
 21
301.4538124834982
 31
0.0
  0
LINE
  5
488F
330
1F
100
AcDbEntity
  8
SPOJOVACÍ
  6
DASHED
100
AcDbLine
 10
1742.928850951261
 20
304.139123953246
 30
0.0
 11
1742.928850951261
 21
301.6705862193177
 31
0.0
  0
LINE
  5
4890
330
1F
100
AcDbEntity
  8
SPOJOVACÍ
  6
DASHED
100
AcDbLine
 10
1743.958016051247
 20
304.2822408011636
 30
0.0
 11
1743.58791770772
 21
303.9121424554979
 31
0.0
  0
LINE
  5
4891
330
1F
100
AcDbEntity
  8
SPOJOVACÍ
  6
DASHED
100
AcDbLine
 10
1743.958016051247
 20
304.2822408011636
 30
0.0
 11
1743.58791770772
 21
304.4964602869496
 31
0.0
  0
LINE
  5
4892
330
1F
100
AcDbEntity
  8
SPOJOVACÍ
  6
DASHED
100
AcDbLine
 10
1742.928850951261
 20
306.9321204246008
 30
0.0
 11
1742.928850951261
 21
304.7180692101193
 31
0.0
  0
LINE
  5
4893
330
1F
100
AcDbEntity
  8
SPOJOVACÍ
  6
DASHED
100
AcDbLine
 10
1742.928850951261
 20
306.932120424599
 30
0.0
 11
1743.151274584326
 21
308.4252758189597
 31
0.0
  0
LINE
  5
4894
330
1F
100
AcDbEntity
  8
SPOJOVACÍ
  6
DASHED
100
AcDbLine
 10
1743.151274584326
 20
308.4252758189597
 30
0.0
 11
1743.752000716491
 21
309.810865684469
 31
0.0
  0
LINE
  5
4895
330
1F
100
AcDbEntity
  8
SPOJOVACÍ
  6
DASHED
100
AcDbLine
 10
1743.752000716491
 20
309.810865684469
 30
0.0
 11
1744.690920165076
 21
310.9940865037098
 31
0.0
  0
LINE
  5
4896
330
1F
100
AcDbEntity
  8
SPOJOVACÍ
  6
DASHED
100
AcDbLine
 10
1740.283468191779
 20
305.0342879320052
 30
0.0
 11
1740.283468191779
 21
302.5657501980769
 31
0.0
  0
LINE
  5
4897
330
1F
100
AcDbEntity
  8
SPOJOVACÍ
  6
DASHED
100
AcDbLine
 10
1739.62440143532
 20
302.7865311564984
 30
0.0
 11
1743.58791770772
 21
301.4538124834982
 31
0.0
  0
LINE
  5
4898
330
1F
100
AcDbEntity
  8
SPOJOVACÍ
  6
DASHED
100
AcDbLine
 10
1739.254303087515
 20
302.4155212386451
 30
0.0
 11
1739.62440143532
 21
302.7865311564984
 31
0.0
  0
LINE
  5
4899
330
1F
100
AcDbEntity
  8
SPOJOVACÍ
  6
DASHED
100
AcDbLine
 10
1739.254303087515
 20
302.4155212386451
 30
0.0
 11
1739.62440143532
 21
302.2022133253178
 31
0.0
  0
LINE
  5
489A
330
1F
100
AcDbEntity
  8
SPOJOVACÍ
  6
DASHED
100
AcDbLine
 10
1739.62440143532
 20
302.2022133253178
 30
0.0
 11
1743.58791770772
 21
300.8694946520465
 31
0.0
  0
LINE
  5
489B
330
1F
100
AcDbEntity
  8
SPOJOVACÍ
  6
DASHED
100
AcDbLine
 10
1740.283468191779
 20
301.9916401285537
 30
0.0
 11
1740.283468191779
 21
299.5231023946254
 31
0.0
  0
LINE
  5
489C
330
1F
100
AcDbEntity
  8
SPOJOVACÍ
  6
DASHED
100
AcDbLine
 10
1739.62440143532
 20
299.7282061577281
 30
0.0
 11
1743.58791770772
 21
298.3963990566446
 31
0.0
  0
LINE
  5
489D
330
1F
100
AcDbEntity
  8
SPOJOVACÍ
  6
DASHED
100
AcDbLine
 10
1739.254303087515
 20
299.3581078120625
 30
0.0
 11
1739.62440143532
 21
299.7282061577281
 31
0.0
  0
LINE
  5
489E
330
1F
100
AcDbEntity
  8
SPOJOVACÍ
  6
DASHED
100
AcDbLine
 10
1739.254303087515
 20
299.3581078120625
 30
0.0
 11
1739.62440143532
 21
299.1438883262764
 31
0.0
  0
LINE
  5
489F
330
1F
100
AcDbEntity
  8
SPOJOVACÍ
  6
DASHED
100
AcDbLine
 10
1739.62440143532
 20
299.1438883262764
 30
0.0
 11
1743.58791770772
 21
297.8120812254639
 31
0.0
  0
LINE
  5
48A0
330
1F
100
AcDbEntity
  8
SPOJOVACÍ
  6
DASHED
100
AcDbLine
 10
1740.283468191779
 20
298.9314919851369
 30
0.0
 11
1740.283468191779
 21
296.461131106562
 31
0.0
  0
LINE
  5
48A1
330
1F
100
AcDbEntity
  8
SPOJOVACÍ
  6
DASHED
100
AcDbLine
 10
1739.62440143532
 20
296.6864699264644
 30
0.0
 11
1743.58791770772
 21
295.3537512534641
 31
0.0
  0
LINE
  5
48A2
330
1F
100
AcDbEntity
  8
SPOJOVACÍ
  6
DASHED
100
AcDbLine
 10
1739.254303087515
 20
296.315460008611
 30
0.0
 11
1739.62440143532
 21
296.6864699264644
 31
0.0
  0
LINE
  5
48A3
330
1F
100
AcDbEntity
  8
SPOJOVACÍ
  6
DASHED
100
AcDbLine
 10
1739.254303087515
 20
296.315460008611
 30
0.0
 11
1739.62440143532
 21
296.1021520952837
 31
0.0
  0
LINE
  5
48A4
330
1F
100
AcDbEntity
  8
SPOJOVACÍ
  6
DASHED
100
AcDbLine
 10
1739.62440143532
 20
296.1021520952837
 30
0.0
 11
1743.58791770772
 21
294.7694334220124
 31
0.0
  0
LINE
  5
48A5
330
1F
100
AcDbEntity
  8
SPOJOVACÍ
  6
DASHED
100
AcDbLine
 10
1740.283468191779
 20
295.8915788985197
 30
0.0
 11
1740.283468191779
 21
293.4230411645914
 31
0.0
  0
LINE
  5
48A6
330
1F
100
AcDbEntity
  8
SPOJOVACÍ
  6
DASHED
100
AcDbLine
 10
1739.62440143532
 20
293.6281449276941
 30
0.0
 11
1743.58791770772
 21
292.2963378266105
 31
0.0
  0
LINE
  5
48A7
330
1F
100
AcDbEntity
  8
SPOJOVACÍ
  6
DASHED
100
AcDbLine
 10
1739.254303087515
 20
293.2580465820285
 30
0.0
 11
1739.62440143532
 21
293.6281449276941
 31
0.0
  0
LINE
  5
48A8
330
1F
100
AcDbEntity
  8
SPOJOVACÍ
  6
DASHED
100
AcDbLine
 10
1739.254303087515
 20
293.2580465820285
 30
0.0
 11
1739.62440143532
 21
293.0438270962424
 31
0.0
  0
LINE
  5
48A9
330
1F
100
AcDbEntity
  8
SPOJOVACÍ
  6
DASHED
100
AcDbLine
 10
1739.62440143532
 20
293.0438270962424
 30
0.0
 11
1743.58791770772
 21
291.7120199954299
 31
0.0
  0
LINE
  5
48AA
330
1F
100
AcDbEntity
  8
SPOJOVACÍ
  6
DASHED
100
AcDbLine
 10
1740.283468191779
 20
292.8314307551028
 30
0.0
 11
1740.283468191779
 21
290.361069876528
 31
0.0
  0
LINE
  5
48AB
330
1F
100
AcDbEntity
  8
SPOJOVACÍ
  6
DASHED
100
AcDbLine
 10
1739.62440143532
 20
290.5707315008405
 30
0.0
 11
1743.58791770772
 21
289.2380128278329
 31
0.0
  0
LINE
  5
48AC
330
1F
100
AcDbEntity
  8
SPOJOVACÍ
  6
DASHED
100
AcDbLine
 10
1739.254303087515
 20
290.2006331551749
 30
0.0
 11
1739.62440143532
 21
290.5707315008405
 31
0.0
  0
LINE
  5
48AD
330
1F
100
AcDbEntity
  8
SPOJOVACÍ
  6
DASHED
100
AcDbLine
 10
1739.254303087515
 20
290.2006331551749
 30
0.0
 11
1739.62440143532
 21
289.9864136693888
 31
0.0
  0
LINE
  5
48AE
330
1F
100
AcDbEntity
  8
SPOJOVACÍ
  6
DASHED
100
AcDbLine
 10
1739.62440143532
 20
289.9864136693888
 30
0.0
 11
1743.58791770772
 21
288.6536949963885
 31
0.0
  0
LINE
  5
48AF
330
1F
100
AcDbEntity
  8
SPOJOVACÍ
  6
DASHED
100
AcDbLine
 10
1740.283468191779
 20
289.7785751897228
 30
0.0
 11
1740.283468191779
 21
287.3009217331111
 31
0.0
  0
LINE
  5
48B0
330
1F
100
AcDbEntity
  8
SPOJOVACÍ
  6
DASHED
100
AcDbLine
 10
1739.019117442751
 20
310.4471431356998
 30
0.0
 11
1739.799423312483
 21
309.1545336429682
 31
0.0
  0
LINE
  5
48B1
330
1F
100
AcDbEntity
  8
SPOJOVACÍ
  6
DASHED
100
AcDbLine
 10
1739.799423312483
 20
309.1545336429682
 30
0.0
 11
1740.218746559496
 21
307.7033105732591
 31
0.0
  0
LINE
  5
48B2
330
1F
100
AcDbEntity
  8
SPOJOVACÍ
  6
DASHED
100
AcDbLine
 10
1740.218746559496
 20
307.7033105732591
 30
0.0
 11
1740.283468191779
 21
306.932120424599
 31
0.0
  0
LINE
  5
48B3
330
1F
100
AcDbEntity
  8
SPOJOVACÍ
  6
DASHED
100
AcDbLine
 10
1740.251107375637
 20
307.3177154989291
 30
0.0
 11
1740.283468191779
 21
305.607570036782
 31
0.0
  0
LINE
  5
48B4
330
1F
100
AcDbEntity
  8
SPOJOVACÍ
  6
DASHED
100
AcDbLine
 10
1739.62440143532
 20
305.8291789599499
 30
0.0
 11
1743.58791770772
 21
304.4964602869496
 31
0.0
  0
LINE
  5
48B5
330
1F
100
AcDbEntity
  8
SPOJOVACÍ
  6
DASHED
100
AcDbLine
 10
1739.254303087515
 20
305.4581690420965
 30
0.0
 11
1739.62440143532
 21
305.8291789599499
 31
0.0
  0
LINE
  5
48B6
330
1F
100
AcDbEntity
  8
SPOJOVACÍ
  6
DASHED
100
AcDbLine
 10
1739.254303087515
 20
305.4581690420965
 30
0.0
 11
1739.62440143532
 21
305.2448611287692
 31
0.0
  0
LINE
  5
48B7
330
1F
100
AcDbEntity
  8
SPOJOVACÍ
  6
DASHED
100
AcDbLine
 10
1739.62440143532
 20
305.2448611287692
 30
0.0
 11
1743.58791770772
 21
303.9121424554979
 31
0.0
  0
LINE
  5
48B8
330
1F
100
AcDbEntity
  8
SPOJOVACÍ
  6
DASHED
100
AcDbLine
 10
1736.60800875852
 20
312.2237975090685
 30
0.0
 11
1746.604310380242
 21
312.2237975090685
 31
0.0
  0
LINE
  5
48B9
330
1F
100
AcDbEntity
  8
SPOJOVACÍ
  6
DASHED
100
AcDbLine
 10
1736.60800875852
 20
313.3997257502652
 30
0.0
 11
1746.604310380242
 21
313.3997257502652
 31
0.0
  0
LINE
  5
48BA
330
1F
100
AcDbEntity
  8
SPOJOVACÍ
  6
DASHED
100
AcDbLine
 10
1744.690920165076
 20
310.9940865037098
 30
0.0
 11
1745.903311297798
 21
311.8938083439426
 31
0.0
  0
LINE
  5
48BB
330
1F
100
AcDbEntity
  8
SPOJOVACÍ
  6
DASHED
100
AcDbLine
 10
1745.903311297798
 20
311.8938083439426
 30
0.0
 11
1746.604310380242
 21
312.2237975090685
 31
0.0
  0
LINE
  5
48BC
330
1F
100
AcDbEntity
  8
SPOJOVACÍ
  6
DASHED
100
AcDbLine
 10
1746.604310380242
 20
313.3997257502652
 30
0.0
 11
1746.604310380242
 21
312.2237975090685
 31
0.0
  0
LINE
  5
48BD
330
1F
100
AcDbEntity
  8
SPOJOVACÍ
  6
DASHED
100
AcDbLine
 10
1736.60800875852
 20
313.3997257502652
 30
0.0
 11
1736.60800875852
 21
312.2237975090685
 31
0.0
  0
LINE
  5
48BE
330
1F
100
AcDbEntity
  8
SPOJOVACÍ
  6
DASHED
100
AcDbLine
 10
1736.60800875852
 20
312.2237975090685
 30
0.0
 11
1737.930700140399
 21
311.4945396853237
 31
0.0
  0
LINE
  5
48BF
330
1F
100
AcDbEntity
  8
SPOJOVACÍ
  6
DASHED
100
AcDbLine
 10
1737.930700140399
 20
311.4945396853237
 30
0.0
 11
1739.019117442751
 21
310.4471431356998
 31
0.0
  0
LINE
  5
48C0
330
1F
100
AcDbEntity
  8
SPOJOVACÍ
  6
DASHED
100
AcDbLine
 10
1740.609811070293
 20
275.1615136819111
 30
0.0
 11
1742.721012468921
 21
274.8570485404527
 31
0.0
  0
LINE
  5
48C1
330
1F
100
AcDbEntity
  8
SPOJOVACÍ
  6
DASHED
100
AcDbLine
 10
1740.97990941382
 20
275.5316120275767
 30
0.0
 11
1742.350914125395
 21
275.0703564540437
 31
0.0
  0
LINE
  5
48C2
330
1F
100
AcDbEntity
  8
SPOJOVACÍ
  6
DASHED
100
AcDbLine
 10
1740.97990941382
 20
274.9472941961323
 30
0.0
 11
1742.350914125395
 21
274.4860386225993
 31
0.0
  0
LINE
  5
48C3
330
1F
100
AcDbEntity
  8
SPOJOVACÍ
  6
DASHED
100
AcDbLine
 10
1742.721012468921
 20
274.8570485404527
 30
0.0
 11
1742.350914125395
 21
275.0703564540437
 31
0.0
  0
LINE
  5
48C4
330
1F
100
AcDbEntity
  8
SPOJOVACÍ
  6
DASHED
100
AcDbLine
 10
1742.721012468921
 20
274.8570485404527
 30
0.0
 11
1742.350914125395
 21
274.4860386225993
 31
0.0
  0
LINE
  5
48C5
330
1F
100
AcDbEntity
  8
SPOJOVACÍ
  6
DASHED
100
AcDbLine
 10
1740.609811070293
 20
275.1615136819111
 30
0.0
 11
1740.97990941382
 21
275.5316120275767
 31
0.0
  0
LINE
  5
48C6
330
1F
100
AcDbEntity
  8
SPOJOVACÍ
  6
DASHED
100
AcDbLine
 10
1740.609811070293
 20
275.1615136819111
 30
0.0
 11
1740.97990941382
 21
274.9472941961323
 31
0.0
  0
LINE
  5
48C7
330
1F
100
AcDbEntity
  8
SPOJOVACÍ
  6
DASHED
100
AcDbLine
 10
1741.22785707456
 20
274.8771031307225
 30
0.0
 11
1741.606159569381
 21
271.8497715892737
 31
0.0
  0
LINE
  5
48C8
330
1F
100
AcDbEntity
  8
SPOJOVACÍ
  6
DASHED
100
AcDbLine
 10
1741.606159569381
 20
271.8497715892737
 30
0.0
 11
1741.953468610887
 21
274.6291554705168
 31
0.0
  0
LINE
  5
48C9
330
1F
100
AcDbEntity
  8
SPOJOVACÍ
  6
DASHED
100
AcDbLine
 10
1742.023659677367
 20
275.1870377058423
 30
0.0
 11
1742.286192493111
 21
277.2891233831271
 31
0.0
  0
LINE
  5
48CA
330
1F
100
AcDbEntity
  8
SPOJOVACÍ
  6
DASHED
100
AcDbLine
 10
1740.867786025634
 20
277.7594946796072
 30
0.0
 11
1741.152196573884
 21
275.4851218414589
 31
0.0
  0
LWPOLYLINE
  5
48CB
330
1F
100
AcDbEntity
  8
nášlap_vrstvy
100
AcDbPolyline
 90
        4
 70
     0
 43
0.0
 10
1821.006331654605
 20
325.0105979264442
 10
1774.562101826397
 20
325.0105979264442
 10
1774.562101826397
 20
318.7605979264442
 10
1821.006331654605
 20
318.7605979264442
  0
HATCH
  5
48CC
330
1F
100
AcDbEntity
  8
nášlap_vrstvy
100
AcDbHatch
 10
0.0
 20
0.0
 30
0.0
210
0.0
220
0.0
230
1.0
  2
SOLID
 70
     1
 71
     0
 91
        1
 92
        7
 72
     0
 73
     1
 93
        4
 10
1790.298783345936
 20
314.8997257502648
 10
1778.47791699102
 20
314.8997257502648
 10
1778.477916991016
 20
313.3997257502648
 10
1790.298783345936
 20
313.3997257502648
 97
        0
 75
     0
 76
     1
 47
0.1901250437635136
 98
        1
 10
1783.15681437019
 20
314.4913199747249
  0
TEXT
  5
48CD
330
1F
100
AcDbEntity
  8
POPIS
100
AcDbText
 10
1876.761506288856
 20
456.4378143888496
 30
0.0
 40
25.0
  1
01
 41
0.85
  7
SIMPLEX7
100
AcDbText
  0
TEXT
  5
48CE
330
1F
100
AcDbEntity
  8
POPIS
100
AcDbText
 10
1876.761506288856
 20
346.5545565174722
 30
0.0
 40
25.0
  1
04
 41
0.85
  7
SIMPLEX7
100
AcDbText
  0
TEXT
  5
48CF
330
1F
100
AcDbEntity
  8
POPIS
100
AcDbText
 10
1876.761506288856
 20
381.9587177356349
 30
0.0
 40
25.0
  1
03
 41
0.85
  7
SIMPLEX7
100
AcDbText
  0
TEXT
  5
48D0
330
1F
100
AcDbEntity
  8
POPIS
100
AcDbText
 10
1876.761506288856
 20
273.6007503359102
 30
0.0
 40
25.0
  1
05
 41
0.85
  7
SIMPLEX7
100
AcDbText
  0
TEXT
  5
48D1
330
1F
100
AcDbEntity
  8
POPIS
100
AcDbText
 10
1876.761506288856
 20
419.8428027732222
 30
0.0
 40
25.0
  1
02
 41
0.85
  7
SIMPLEX7
100
AcDbText
  0
CIRCLE
  5
48D2
330
1F
100
AcDbEntity
  8
POPIS
100
AcDbCircle
 10
2225.911568400242
 20
259.1315505299209
 30
0.0
 40
7.795592338044182
  0
TEXT
  5
48D3
330
1F
100
AcDbEntity
  8
POPIS
100
AcDbText
 10
2222.580248061615
 20
255.2498085084282
 30
0.0
 40
8.399999999999998
  1
R
 41
0.85
  7
SIMPLEX7
100
AcDbText
  0
ENDSEC
  0
SECTION
  2
OBJECTS
  0
DICTIONARY
  5
C
330
0
100
AcDbDictionary
281
     1
  3
ACAD_GROUP
350
D
  3
ACAD_LAYOUT
350
1A
  3
ACAD_MLINESTYLE
350
17
  3
ACAD_PLOTSETTINGS
350
19
  3
ACAD_PLOTSTYLENAME
350
E
  3
AcDbVariableDictionary
350
4954
  0
DICTIONARY
  5
D
102
{ACAD_REACTORS
330
C
102
}
330
C
100
AcDbDictionary
281
     1
  0
DICTIONARY
  5
1A
102
{ACAD_REACTORS
330
C
102
}
330
C
100
AcDbDictionary
281
     1
  3
Model
350
22
  3
Rozvržení1
350
1E
  3
Rozvržení2
350
26
  0
DICTIONARY
  5
17
102
{ACAD_REACTORS
330
C
102
}
330
C
100
AcDbDictionary
281
     1
  3
Standard
350
18
  0
DICTIONARY
  5
19
102
{ACAD_REACTORS
330
C
102
}
330
C
100
AcDbDictionary
281
     1
  0
ACDBDICTIONARYWDFLT
  5
E
102
{ACAD_REACTORS
330
C
102
}
330
C
100
AcDbDictionary
281
     1
  3
Normal
350
F
100
AcDbDictionaryWithDefault
340
F
  0
DICTIONARY
  5
4954
102
{ACAD_REACTORS
330
C
102
}
330
C
100
AcDbDictionary
281
     1
  3
DIMASSOC
350
4955
  0
LAYOUT
  5
22
102
{ACAD_REACTORS
330
1A
102
}
330
1A
100
AcDbPlotSettings
  1

  2
HP DeskJet 690C
  4

  6

 40
0.0
 41
0.0
 42
0.0
 43
0.0
 44
0.0
 45
0.0
 46
0.0
 47
0.0
 48
0.0
 49
0.0
140
0.0
141
0.0
142
1.0
143
1.0
 70
  1712
 72
     0
 73
     0
 74
     0
  7
monochrome.ctb
 75
     0
147
1.0
148
0.0
149
0.0
100
AcDbLayout
  1
Model
 70
     1
 71
     0
 10
0.0
 20
0.0
 11
12.0
 21
9.0
 12
0.0
 22
0.0
 32
0.0
 14
0.0
 24
0.0
 34
0.0
 15
0.0
 25
0.0
 35
0.0
146
0.0
 13
0.0
 23
0.0
 33
0.0
 16
1.0
 26
0.0
 36
0.0
 17
0.0
 27
1.0
 37
0.0
 76
     0
330
1F
  0
LAYOUT
  5
1E
102
{ACAD_REACTORS
330
1A
102
}
330
1A
100
AcDbPlotSettings
  1

  2
HP DeskJet 690C
  4

  6

 40
0.0
 41
0.0
 42
0.0
 43
0.0
 44
0.0
 45
0.0
 46
0.0
 47
0.0
 48
0.0
 49
0.0
140
0.0
141
0.0
142
1.0
143
1.0
 70
   688
 72
     0
 73
     0
 74
     5
  7
monochrome.ctb
 75
    16
147
1.0
148
0.0
149
0.0
100
AcDbLayout
  1
Rozvržení1
 70
     1
 71
     1
 10
0.0
 20
0.0
 11
420.0
 21
297.0
 12
0.0
 22
0.0
 32
0.0
 14
1.000000000000000E+20
 24
1.000000000000000E+20
 34
1.000000000000000E+20
 15
-1.000000000000000E+20
 25
-1.000000000000000E+20
 35
-1.000000000000000E+20
146
0.0
 13
0.0
 23
0.0
 33
0.0
 16
1.0
 26
0.0
 36
0.0
 17
0.0
 27
1.0
 37
0.0
 76
     0
330
1B
  0
LAYOUT
  5
26
102
{ACAD_REACTORS
330
1A
102
}
330
1A
100
AcDbPlotSettings
  1

  2
HP DeskJet 690C
  4

  6

 40
0.0
 41
0.0
 42
0.0
 43
0.0
 44
0.0
 45
0.0
 46
0.0
 47
0.0
 48
0.0
 49
0.0
140
0.0
141
0.0
142
1.0
143
1.0
 70
   688
 72
     0
 73
     0
 74
     5
  7
monochrome.ctb
 75
    16
147
1.0
148
0.0
149
0.0
100
AcDbLayout
  1
Rozvržení2
 70
     1
 71
     2
 10
0.0
 20
0.0
 11
12.0
 21
9.0
 12
0.0
 22
0.0
 32
0.0
 14
0.0
 24
0.0
 34
0.0
 15
0.0
 25
0.0
 35
0.0
146
0.0
 13
0.0
 23
0.0
 33
0.0
 16
1.0
 26
0.0
 36
0.0
 17
0.0
 27
1.0
 37
0.0
 76
     0
330
23
  0
MLINESTYLE
  5
18
102
{ACAD_REACTORS
330
17
102
}
330
17
100
AcDbMlineStyle
  2
STANDARD
 70
     0
  3

 62
   256
 51
90.0
 52
90.0
 71
     2
 49
0.5
 62
   256
  6
BYLAYER
 49
-0.5
 62
   256
  6
BYLAYER
  0
ACDBPLACEHOLDER
  5
F
102
{ACAD_REACTORS
330
E
102
}
330
E
  0
DICTIONARYVAR
  5
4955
102
{ACAD_REACTORS
330
4954
102
}
330
4954
100
DictionaryVariables
280
     0
  1
1
  0
ENDSEC
  0
EOF
