  0
SECTION
  2
HEADER
  9
$ACADVER
  1
AC1015
  9
$ACADMAINTVER
 70
    10
  9
$DWGCODEPAGE
  3
ANSI_1250
  9
$INSBASE
 10
0.0
 20
0.0
 30
0.0
  9
$EXTMIN
 10
-381.820167177173
 20
-291.1819744800386
 30
0.0
  9
$EXTMAX
 10
1121.032100257574
 20
512.96000320656
 30
0.0
  9
$LIMMIN
 10
0.0
 20
0.0
  9
$LIMMAX
 10
420.0
 20
297.0
  9
$ORTHOMODE
 70
     1
  9
$REGENMODE
 70
     1
  9
$FILLMODE
 70
     1
  9
$QTEXTMODE
 70
     0
  9
$MIRRTEXT
 70
     1
  9
$LTSCALE
 40
1.0
  9
$ATTMODE
 70
     1
  9
$TEXTSIZE
 40
2.5
  9
$TRACEWID
 40
1.0
  9
$TEXTSTYLE
  7
Standard
  9
$CLAYER
  8
0
  9
$CELTYPE
  6
ByLayer
  9
$CECOLOR
 62
   256
  9
$CELTSCALE
 40
1.0
  9
$DISPSILH
 70
     0
  9
$DIMSCALE
 40
1.0
  9
$DIMASZ
 40
2.5
  9
$DIMEXO
 40
0.625
  9
$DIMDLI
 40
3.75
  9
$DIMRND
 40
0.0
  9
$DIMDLE
 40
0.0
  9
$DIMEXE
 40
1.25
  9
$DIMTP
 40
0.0
  9
$DIMTM
 40
0.0
  9
$DIMTXT
 40
2.5
  9
$DIMCEN
 40
2.5
  9
$DIMTSZ
 40
0.0
  9
$DIMTOL
 70
     0
  9
$DIMLIM
 70
     0
  9
$DIMTIH
 70
     0
  9
$DIMTOH
 70
     0
  9
$DIMSE1
 70
     0
  9
$DIMSE2
 70
     0
  9
$DIMTAD
 70
     1
  9
$DIMZIN
 70
     8
  9
$DIMBLK
  1

  9
$DIMASO
 70
     1
  9
$DIMSHO
 70
     1
  9
$DIMPOST
  1

  9
$DIMAPOST
  1

  9
$DIMALT
 70
     0
  9
$DIMALTD
 70
     3
  9
$DIMALTF
 40
0.03937007874016
  9
$DIMLFAC
 40
1.0
  9
$DIMTOFL
 70
     1
  9
$DIMTVP
 40
0.0
  9
$DIMTIX
 70
     0
  9
$DIMSOXD
 70
     0
  9
$DIMSAH
 70
     0
  9
$DIMBLK1
  1

  9
$DIMBLK2
  1

  9
$DIMSTYLE
  2
ISO-25
  9
$DIMCLRD
 70
     0
  9
$DIMCLRE
 70
     0
  9
$DIMCLRT
 70
     0
  9
$DIMTFAC
 40
1.0
  9
$DIMGAP
 40
0.625
  9
$DIMJUST
 70
     0
  9
$DIMSD1
 70
     0
  9
$DIMSD2
 70
     0
  9
$DIMTOLJ
 70
     0
  9
$DIMTZIN
 70
     8
  9
$DIMALTZ
 70
     0
  9
$DIMALTTZ
 70
     0
  9
$DIMUPT
 70
     0
  9
$DIMDEC
 70
     2
  9
$DIMTDEC
 70
     2
  9
$DIMALTU
 70
     2
  9
$DIMALTTD
 70
     3
  9
$DIMTXSTY
  7
Standard
  9
$DIMAUNIT
 70
     0
  9
$DIMADEC
 70
     0
  9
$DIMALTRND
 40
0.0
  9
$DIMAZIN
 70
     0
  9
$DIMDSEP
 70
    44
  9
$DIMATFIT
 70
     3
  9
$DIMFRAC
 70
     0
  9
$DIMLDRBLK
  1

  9
$DIMLUNIT
 70
     2
  9
$DIMLWD
 70
    -2
  9
$DIMLWE
 70
    -2
  9
$DIMTMOVE
 70
     0
  9
$LUNITS
 70
     2
  9
$LUPREC
 70
     4
  9
$SKETCHINC
 40
1.0
  9
$FILLETRAD
 40
10.0
  9
$AUNITS
 70
     0
  9
$AUPREC
 70
     0
  9
$MENU
  1
.
  9
$ELEVATION
 40
0.0
  9
$PELEVATION
 40
0.0
  9
$THICKNESS
 40
0.0
  9
$LIMCHECK
 70
     0
  9
$CHAMFERA
 40
10.0
  9
$CHAMFERB
 40
10.0
  9
$CHAMFERC
 40
20.0
  9
$CHAMFERD
 40
0.0
  9
$SKPOLY
 70
     0
  9
$TDCREATE
 40
2452332.468649768
  9
$TDUCREATE
 40
2452332.426983101
  9
$TDUPDATE
 40
2452653.397879224
  9
$TDUUPDATE
 40
2452653.356212557
  9
$TDINDWG
 40
0.0267090856
  9
$TDUSRTIMER
 40
0.0267065394
  9
$USRTIMER
 70
     1
  9
$ANGBASE
 50
0.0
  9
$ANGDIR
 70
     0
  9
$PDMODE
 70
     0
  9
$PDSIZE
 40
0.0
  9
$PLINEWID
 40
0.0
  9
$SPLFRAME
 70
     0
  9
$SPLINETYPE
 70
     6
  9
$SPLINESEGS
 70
     8
  9
$HANDSEED
  5
1B8C
  9
$SURFTAB1
 70
     6
  9
$SURFTAB2
 70
     6
  9
$SURFTYPE
 70
     6
  9
$SURFU
 70
     6
  9
$SURFV
 70
     6
  9
$UCSBASE
  2

  9
$UCSNAME
  2

  9
$UCSORG
 10
0.0
 20
0.0
 30
0.0
  9
$UCSXDIR
 10
1.0
 20
0.0
 30
0.0
  9
$UCSYDIR
 10
0.0
 20
1.0
 30
0.0
  9
$UCSORTHOREF
  2

  9
$UCSORTHOVIEW
 70
     0
  9
$UCSORGTOP
 10
0.0
 20
0.0
 30
0.0
  9
$UCSORGBOTTOM
 10
0.0
 20
0.0
 30
0.0
  9
$UCSORGLEFT
 10
0.0
 20
0.0
 30
0.0
  9
$UCSORGRIGHT
 10
0.0
 20
0.0
 30
0.0
  9
$UCSORGFRONT
 10
0.0
 20
0.0
 30
0.0
  9
$UCSORGBACK
 10
0.0
 20
0.0
 30
0.0
  9
$PUCSBASE
  2

  9
$PUCSNAME
  2

  9
$PUCSORG
 10
0.0
 20
0.0
 30
0.0
  9
$PUCSXDIR
 10
1.0
 20
0.0
 30
0.0
  9
$PUCSYDIR
 10
0.0
 20
1.0
 30
0.0
  9
$PUCSORTHOREF
  2

  9
$PUCSORTHOVIEW
 70
     0
  9
$PUCSORGTOP
 10
0.0
 20
0.0
 30
0.0
  9
$PUCSORGBOTTOM
 10
0.0
 20
0.0
 30
0.0
  9
$PUCSORGLEFT
 10
0.0
 20
0.0
 30
0.0
  9
$PUCSORGRIGHT
 10
0.0
 20
0.0
 30
0.0
  9
$PUCSORGFRONT
 10
0.0
 20
0.0
 30
0.0
  9
$PUCSORGBACK
 10
0.0
 20
0.0
 30
0.0
  9
$USERI1
 70
     0
  9
$USERI2
 70
     0
  9
$USERI3
 70
     0
  9
$USERI4
 70
     0
  9
$USERI5
 70
     0
  9
$USERR1
 40
0.0
  9
$USERR2
 40
0.0
  9
$USERR3
 40
0.0
  9
$USERR4
 40
0.0
  9
$USERR5
 40
0.0
  9
$WORLDVIEW
 70
     1
  9
$SHADEDGE
 70
     3
  9
$SHADEDIF
 70
    70
  9
$TILEMODE
 70
     1
  9
$MAXACTVP
 70
    64
  9
$PINSBASE
 10
0.0
 20
0.0
 30
0.0
  9
$PLIMCHECK
 70
     0
  9
$PEXTMIN
 10
1.000000000000000E+20
 20
1.000000000000000E+20
 30
1.000000000000000E+20
  9
$PEXTMAX
 10
-1.000000000000000E+20
 20
-1.000000000000000E+20
 30
-1.000000000000000E+20
  9
$PLIMMIN
 10
0.0
 20
0.0
  9
$PLIMMAX
 10
420.0
 20
297.0
  9
$UNITMODE
 70
     0
  9
$VISRETAIN
 70
     1
  9
$PLINEGEN
 70
     0
  9
$PSLTSCALE
 70
     1
  9
$TREEDEPTH
 70
  3020
  9
$CMLSTYLE
  2
Standard
  9
$CMLJUST
 70
     0
  9
$CMLSCALE
 40
20.0
  9
$PROXYGRAPHICS
 70
     1
  9
$MEASUREMENT
 70
     1
  9
$CELWEIGHT
370
    -1
  9
$ENDCAPS
280
     0
  9
$JOINSTYLE
280
     0
  9
$LWDISPLAY
290
     0
  9
$INSUNITS
 70
     4
  9
$HYPERLINKBASE
  1

  9
$STYLESHEET
  1

  9
$XEDIT
290
     1
  9
$CEPSNTYPE
380
     0
  9
$PSTYLEMODE
290
     1
  9
$FINGERPRINTGUID
  2
{A3477950-F6EC-44A0-8776-592C40033ABE}
  9
$VERSIONGUID
  2
{FA30D164-6F18-41C7-847A-38EE0163D699}
  9
$EXTNAMES
290
     1
  9
$PSVPSCALE
 40
0.0
  9
$OLESTARTUP
290
     0
  0
ENDSEC
  0
SECTION
  2
CLASSES
  0
CLASS
  1
ACDBDICTIONARYWDFLT
  2
AcDbDictionaryWithDefault
  3
AutoCAD 2000
 90
        0
280
     0
281
     0
  0
CLASS
  1
ACDBPLACEHOLDER
  2
AcDbPlaceHolder
  3
AutoCAD 2000
 90
        0
280
     0
281
     0
  0
CLASS
  1
LAYOUT
  2
AcDbLayout
  3
AutoCAD 2000
 90
        0
280
     0
281
     0
  0
ENDSEC
  0
SECTION
  2
TABLES
  0
TABLE
  2
VPORT
  5
8
330
0
100
AcDbSymbolTable
 70
     3
  0
VPORT
  5
1B8B
330
8
100
AcDbSymbolTableRecord
100
AcDbViewportTableRecord
  2
*Active
 70
     0
 10
0.0
 20
0.0
 11
1.0
 21
1.0
 12
359.3952429618705
 22
107.1892427111225
 13
0.0
 23
0.0
 14
10.0
 24
10.0
 15
10.0
 25
10.0
 16
0.0
 26
0.0
 36
1.0
 17
0.0
 27
0.0
 37
0.0
 40
802.0456804357383
 41
1.950592885375494
 42
50.0
 43
0.0
 44
0.0
 50
0.0
 51
0.0
 71
     0
 72
   100
 73
     1
 74
     3
 75
     0
 76
     0
 77
     0
 78
     0
281
     0
 65
     1
110
0.0
120
0.0
130
0.0
111
1.0
121
0.0
131
0.0
112
0.0
122
1.0
132
0.0
 79
     0
146
0.0
  0
ENDTAB
  0
TABLE
  2
LTYPE
  5
5
330
0
100
AcDbSymbolTable
 70
     3
  0
LTYPE
  5
14
330
5
100
AcDbSymbolTableRecord
100
AcDbLinetypeTableRecord
  2
ByBlock
 70
     0
  3

 72
    65
 73
     0
 40
0.0
  0
LTYPE
  5
15
330
5
100
AcDbSymbolTableRecord
100
AcDbLinetypeTableRecord
  2
ByLayer
 70
     0
  3

 72
    65
 73
     0
 40
0.0
  0
LTYPE
  5
16
330
5
100
AcDbSymbolTableRecord
100
AcDbLinetypeTableRecord
  2
Continuous
 70
     0
  3
Solid line
 72
    65
 73
     0
 40
0.0
  0
LTYPE
  5
14C0
330
5
100
AcDbSymbolTableRecord
100
AcDbLinetypeTableRecord
  2
DASHED
 70
     0
  3
Dashed __ __ __ __ __ __ __ __ __ __ __ __ __ _
 72
    65
 73
     2
 40
19.04999999999999
 49
12.7
 74
     0
 49
-6.349999999999999
 74
     0
  0
LTYPE
  5
14C1
330
5
100
AcDbSymbolTableRecord
100
AcDbLinetypeTableRecord
  2
IZOLACE
 70
     0
  3
Izolace SSSSSSSSSSSSSSSSSSSSSSSSSSSSSSSSSSSSSSS
 72
    65
 73
     4
 40
10.16253999999999
 49
0.00254
 74
     0
 49
-2.54
 74
     4
 75
   134
340
14C9
 46
2.54
 50
0.0
 44
-2.54
 45
0.0
 49
-5.08
 74
     4
 75
   134
340
14C9
 46
2.54
 50
180.0
 44
2.54
 45
0.0
 49
-2.54
 74
     0
  0
ENDTAB
  0
TABLE
  2
LAYER
  5
2
330
0
100
AcDbSymbolTable
 70
     7
  0
LAYER
  5
10
330
2
100
AcDbSymbolTableRecord
100
AcDbLayerTableRecord
  2
0
 70
     0
 62
     7
  6
Continuous
370
    -3
390
F
  0
LAYER
  5
14C2
330
2
100
AcDbSymbolTableRecord
100
AcDbLayerTableRecord
  2
POPIS
 70
     0
 62
    30
  6
Continuous
370
    -3
390
F
  0
LAYER
  5
14C3
330
2
100
AcDbSymbolTableRecord
100
AcDbLayerTableRecord
  2
SPOJOVACÍ
 70
     0
 62
   180
  6
Continuous
370
    -3
390
F
  0
LAYER
  5
14C4
330
2
100
AcDbSymbolTableRecord
100
AcDbLayerTableRecord
  2
CETRIS
 70
     0
 62
     1
  6
Continuous
370
    -3
390
F
  0
LAYER
  5
14C5
330
2
100
AcDbSymbolTableRecord
100
AcDbLayerTableRecord
  2
izolace
 70
     0
 62
    33
  6
Continuous
370
    -3
390
F
  0
LAYER
  5
14C6
330
2
100
AcDbSymbolTableRecord
100
AcDbLayerTableRecord
  2
nášlap_vrstvy
 70
     0
 62
    73
  6
Continuous
370
    -3
390
F
  0
LAYER
  5
14C7
330
2
100
AcDbSymbolTableRecord
100
AcDbLayerTableRecord
  2
STAVBA OBRYS
 70
     0
 62
     6
  6
Continuous
370
    -3
390
F
  0
ENDTAB
  0
TABLE
  2
STYLE
  5
3
330
0
100
AcDbSymbolTable
 70
     3
  0
STYLE
  5
11
330
3
100
AcDbSymbolTableRecord
100
AcDbTextStyleTableRecord
  2
Standard
 70
     0
 40
0.0
 41
1.0
 50
0.0
 71
     0
 42
2.5
  3
txt
  4

  0
STYLE
  5
14C8
330
3
100
AcDbSymbolTableRecord
100
AcDbTextStyleTableRecord
  2
SIMPLEX7
 70
     0
 40
0.0
 41
0.85
 50
0.0
 71
     0
 42
102.0
  3

  4

1001
ACAD
1000
Arial CE
1071
    60962
  0
STYLE
  5
14C9
330
3
100
AcDbSymbolTableRecord
100
AcDbTextStyleTableRecord
  2

 70
     1
 40
0.0
 41
1.0
 50
0.0
 71
     0
 42
2.5
  3
ltypeshp.shx
  4

  0
ENDTAB
  0
TABLE
  2
VIEW
  5
6
330
0
100
AcDbSymbolTable
 70
     0
  0
ENDTAB
  0
TABLE
  2
UCS
  5
7
330
0
100
AcDbSymbolTable
 70
     0
  0
ENDTAB
  0
TABLE
  2
APPID
  5
9
330
0
100
AcDbSymbolTable
 70
     1
  0
APPID
  5
12
330
9
100
AcDbSymbolTableRecord
100
AcDbRegAppTableRecord
  2
ACAD
 70
     0
  0
ENDTAB
  0
TABLE
  2
DIMSTYLE
  5
A
330
0
100
AcDbSymbolTable
 70
     1
100
AcDbDimStyleTable
 71
     0
  0
DIMSTYLE
105
27
330
A
100
AcDbSymbolTableRecord
100
AcDbDimStyleTableRecord
  2
ISO-25
 70
     0
 41
2.5
 42
0.625
 43
3.75
 44
1.25
 73
     0
 74
     0
 77
     1
 78
     8
140
2.5
141
2.5
143
0.03937007874016
147
0.625
171
     3
172
     1
271
     2
272
     2
274
     3
278
    44
283
     0
284
     8
340
11
  0
ENDTAB
  0
TABLE
  2
BLOCK_RECORD
  5
1
330
0
100
AcDbSymbolTable
 70
     2
  0
BLOCK_RECORD
  5
1F
330
1
100
AcDbSymbolTableRecord
100
AcDbBlockTableRecord
  2
*Model_Space
340
22
  0
BLOCK_RECORD
  5
1B
330
1
100
AcDbSymbolTableRecord
100
AcDbBlockTableRecord
  2
*Paper_Space
340
1E
  0
BLOCK_RECORD
  5
23
330
1
100
AcDbSymbolTableRecord
100
AcDbBlockTableRecord
  2
*Paper_Space0
340
26
  0
BLOCK_RECORD
  5
14BC
330
1
100
AcDbSymbolTableRecord
100
AcDbBlockTableRecord
  2
E_PUNKT
340
0
102
{BLKREFS
331
1A77
331
1A7A
331
1AB6
331
1AE2
331
1870
331
18AA
331
18AB
331
19F4
331
19F8
331
1B89
102
}
  0
ENDTAB
  0
ENDSEC
  0
SECTION
  2
BLOCKS
  0
BLOCK
  5
20
330
1F
100
AcDbEntity
  8
0
100
AcDbBlockBegin
  2
*Model_Space
 70
     0
 10
0.0
 20
0.0
 30
0.0
  3
*Model_Space
  1

  0
ENDBLK
  5
21
330
1F
100
AcDbEntity
  8
0
100
AcDbBlockEnd
  0
BLOCK
  5
1C
330
1B
100
AcDbEntity
 67
     1
  8
0
100
AcDbBlockBegin
  2
*Paper_Space
 70
     0
 10
0.0
 20
0.0
 30
0.0
  3
*Paper_Space
  1

  0
ENDBLK
  5
1D
330
1B
100
AcDbEntity
 67
     1
  8
0
100
AcDbBlockEnd
  0
BLOCK
  5
24
330
23
100
AcDbEntity
  8
0
100
AcDbBlockBegin
  2
*Paper_Space0
 70
     0
 10
0.0
 20
0.0
 30
0.0
  3
*Paper_Space0
  1

  0
ENDBLK
  5
25
330
23
100
AcDbEntity
  8
0
100
AcDbBlockEnd
  0
BLOCK
  5
14BE
330
14BC
100
AcDbEntity
  8
0
100
AcDbBlockBegin
  2
E_PUNKT
 70
     0
 10
0.0
 20
0.0
 30
0.0
  3
E_PUNKT
  1

  0
LWPOLYLINE
  5
14BD
330
14BC
100
AcDbEntity
  8
POPIS
100
AcDbPolyline
 90
        2
 70
     1
 43
2.5
 10
1.27761037562675
 20
0.0290683308725193
 42
-1.0
 10
-1.222389624373249
 20
0.0290683308725193
 42
-1.0
  0
ENDBLK
  5
14BF
330
14BC
100
AcDbEntity
  8
0
100
AcDbBlockEnd
  0
ENDSEC
  0
SECTION
  2
ENTITIES
  0
TEXT
  5
1822
330
1F
100
AcDbEntity
  8
POPIS
100
AcDbText
 10
-377.0835066861549
 20
449.7267153484426
 30
0.0
 40
50.0
  1
Vzorový řez - podlahové desky na nosnících
 41
0.85
  7
SIMPLEX7
100
AcDbText
  0
LINE
  5
1823
330
1F
100
AcDbEntity
  8
izolace
100
AcDbLine
 10
-57.59954781092381
 20
45.2326576866617
 30
0.0
 11
145.3140200097037
 21
45.2326576866617
 31
0.0
  0
LINE
  5
1824
330
1F
100
AcDbEntity
  8
izolace
100
AcDbLine
 10
-57.59954781092381
 20
75.87211972169098
 30
0.0
 11
145.3140200097037
 21
75.87211972169098
 31
0.0
  0
HATCH
  5
1825
330
1F
100
AcDbEntity
  8
CETRIS
100
AcDbHatch
 10
0.0
 20
0.0
 30
0.0
210
0.0
220
0.0
230
1.0
  2
ANSI31
 70
     0
 71
     0
 91
        3
 92
        7
 72
     1
 73
     1
 93
       42
 10
195.3140200097037
 20
91.57452041286523
 42
0.0
 10
185.3140200097037
 20
91.57452041286523
 42
0.0
 10
185.3140200097037
 20
99.57452041286524
 42
0.0
 10
195.3140200097037
 20
99.57452041286524
 42
0.0
 10
195.3140200097037
 20
107.5745204128652
 42
0.0
 10
173.7164341143158
 20
107.5745204128652
 42
0.0
 10
173.7164341143167
 20
106.3985921716684
 42
0.0
 10
173.015435031874
 20
106.0686030065444
 42
0.0
 10
171.8030438991505
 20
105.1688811663116
 42
0.0
 10
170.8641244505648
 20
103.9856603470689
 42
0.0
 10
170.2633983184001
 20
102.6000704815615
 42
0.0
 10
170.0409746853343
 20
101.1069150872017
 42
0.0
 10
170.0409746853343
 20
100.8162780331622
 42
-0.1200842046796913
 10
170.0409746853343
 20
100.2243921324261
 42
0.0
 10
170.0409746853343
 20
98.89286387271932
 42
0.0
 10
170.7000414417995
 20
98.67125494954871
 42
0.0
 10
171.0701397853214
 20
98.45703546376354
 42
0.0
 10
170.7000414417949
 20
98.08693711809883
 42
0.0
 10
170.0409746853343
 20
98.30854604131127
 42
0.0
 10
170.0409746853343
 20
95.85021606926602
 42
0.0
 10
170.7000414417922
 20
95.62860714609996
 42
0.0
 10
171.0701397853205
 20
95.41438766031205
 42
0.0
 10
170.7000414417931
 20
95.04428931464644
 42
0.0
 10
170.0409746853343
 20
95.26589823786071
 42
0.0
 10
170.0409746853343
 20
92.79265106318234
 42
0.0
 10
170.7000414417967
 20
92.57119371924181
 42
0.0
 10
171.0701397853205
 20
92.35697423345754
 42
0.0
 10
170.700041441794
 20
91.98687588806388
 42
0.0
 10
170.0409746853343
 20
92.2083332319571
 42
0.0
 10
170.0409746853334
 20
89.75015483923289
 42
0.0
 10
170.7000414417976
 20
89.52854591606138
 42
0.0
 10
171.0701397853214
 20
89.31432643027802
 42
0.0
 10
170.7000414417949
 20
88.94422808461241
 42
0.0
 10
170.0409746853343
 20
89.16583700782576
 42
0.0
 10
170.0409746853343
 20
86.69258983314922
 42
0.0
 10
170.7000414417986
 20
86.47113248921142
 42
0.0
 10
171.0701397853196
 20
86.25691300342351
 42
0.0
 10
170.700041441794
 20
85.88681465803075
 42
0.0
 10
170.0409746853343
 20
86.10827200192307
 42
0.0
 10
170.0409746853334
 20
83.63441641360168
 42
0.0
 10
170.2191058831527
 20
83.57452041286434
 42
0.0
 10
195.3140200097037
 20
83.57452041286434
 42
0.0
 97
        0
 92
        7
 72
     1
 73
     1
 93
       83
 10
167.3955919258529
 20
93.09722564498315
 42
0.0
 10
166.7365251693923
 20
93.3186829888764
 42
0.0
 10
166.3664268215885
 20
93.53290247466247
 42
0.0
 10
166.7365251693923
 20
93.90300082032808
 42
0.0
 10
167.3955919258538
 20
93.68154347638938
 42
0.0
 10
167.395591925852
 20
96.15539906470349
 42
0.0
 10
166.7365251693933
 20
96.37700798791867
 42
0.0
 10
166.3664268215885
 20
96.59031590124506
 42
0.0
 10
166.7365251693923
 20
96.96132581909751
 42
0.0
 10
167.3955919258538
 20
96.73971689592873
 42
0.0
 10
167.3955919258529
 20
99.19804686815588
 42
0.0
 10
166.7365251693851
 20
99.41965579137104
 42
0.0
 10
166.3664268215876
 20
99.63296370469652
 42
0.0
 10
166.7365251693942
 20
100.0039736225508
 42
0.0
 10
167.3955919258538
 20
99.78236469938202
 42
0.0
 10
167.3632311097104
 20
101.4925101615244
 42
0.0
 10
167.3308702935706
 20
101.8781052358517
 42
0.0
 10
166.9115470465554
 20
103.3293283055682
 42
0.0
 10
166.1312411768227
 20
104.6219377982997
 42
0.0
 10
165.0428238744758
 20
105.669334347921
 42
0.0
 10
163.7201324925941
 20
106.3985921716675
 42
0.0
 10
163.7201324925932
 20
107.5745204128652
 42
0.0
 10
119.7379972948762
 20
107.5745204128652
 42
0.0
 10
119.7379972948762
 20
87.12922297717341
 42
-1.0
 10
119.7379972948743
 20
84.62922297717341
 42
-1.0
 10
119.7379972948762
 20
87.12922297717341
 42
0.0
 10
119.7379972948762
 20
107.5745204128661
 42
0.0
 10
72.85568248070887
 20
107.574520412867
 42
0.0
 10
72.85568248070887
 20
98.77033508279419
 42
-1.0
 10
72.85568248070706
 20
96.27033508279419
 42
-1.0
 10
72.85568248070887
 20
98.77033508279419
 42
0.0
 10
72.85568248070887
 20
107.5745204128652
 42
0.0
 10
-76.17871685304033
 20
107.5745204128652
 42
0.0
 10
-76.17871685303942
 20
106.3985921716684
 42
0.0
 10
-76.87971593548116
 20
106.0686030065444
 42
0.0
 10
-78.09210706820374
 20
105.1688811663107
 42
0.0
 10
-79.03102651679216
 20
103.9856603470679
 42
0.0
 10
-79.63175264895415
 20
102.6000704815596
 42
0.0
 10
-79.85417628202083
 20
101.1069150871962
 42
0.0
 10
-79.85417628202174
 20
98.89286387271841
 42
0.0
 10
-79.19510952555845
 20
98.67125494954871
 42
0.0
 10
-78.8250111820347
 20
98.45703546376444
 42
0.0
 10
-79.19510952556118
 20
98.08693711809793
 42
0.0
 10
-79.85417628202083
 20
98.30854604131218
 42
0.0
 10
-79.85417628202083
 20
95.85021606926511
 42
0.0
 10
-79.19510952555936
 20
95.62860714609724
 42
0.0
 10
-78.82501118203379
 20
95.41438766031296
 42
0.0
 10
-79.19510952556208
 20
95.04428931464644
 42
0.0
 10
-79.85417628201992
 20
95.26589823785981
 42
0.0
 10
-79.85417628202083
 20
92.79265106318234
 42
0.0
 10
-79.19510952556208
 20
92.57119371924636
 42
0.0
 10
-78.82501118203379
 20
92.35697423345845
 42
0.0
 10
-79.19510952556118
 20
91.98687588806478
 42
0.0
 10
-79.85417628202083
 20
92.20833323195803
 42
0.0
 10
-79.85417628202083
 20
89.75015483923106
 42
0.0
 10
-79.19510952556663
 20
89.52854591606683
 42
0.0
 10
-78.8250111820347
 20
89.3143264302771
 42
0.0
 10
-79.19510952556208
 20
88.94422808461149
 42
0.0
 10
-79.85417628201992
 20
89.16583700782576
 42
0.0
 10
-79.85417628202083
 20
86.69258983314831
 42
0.0
 10
-79.1951095255539
 20
86.47113248920959
 42
0.0
 10
-78.82501118203379
 20
86.25691300342532
 42
0.0
 10
-79.19510952556208
 20
85.88681465802983
 42
0.0
 10
-79.85417628202083
 20
86.10827200192124
 42
0.0
 10
-79.85417628202083
 20
83.63441641360351
 42
0.0
 10
-79.67604508420061
 20
83.57452041286434
 42
0.0
 10
-57.73957134867339
 20
83.57452041286434
 42
0.0
 10
167.395591925852
 20
83.57452041286434
 42
0.0
 10
167.395591925852
 20
83.93959940881996
 42
0.0
 10
166.7365251693905
 20
84.1612083319851
 42
0.0
 10
166.3664268215885
 20
84.37542781777574
 42
0.0
 10
166.7365251693933
 20
84.74552616343954
 42
0.0
 10
167.3955919258529
 20
84.52391724027075
 42
0.0
 10
167.3955919258529
 20
86.99716441495002
 42
0.0
 10
166.7365251693896
 20
87.21862175884416
 42
0.0
 10
166.3664268215876
 20
87.43284124462752
 42
0.0
 10
166.7365251693933
 20
87.80293959029405
 42
0.0
 10
167.3955919258529
 20
87.58148224635624
 42
0.0
 10
167.3955919258529
 20
90.05533783466944
 42
0.0
 10
166.7365251693914
 20
90.27694675788371
 42
0.0
 10
166.3664268215885
 20
90.49025467121101
 42
0.0
 10
166.7365251693933
 20
90.86126458906438
 42
0.0
 10
167.3955919258529
 20
90.63965566589741
 42
0.0
 97
        0
 92
        7
 72
     0
 73
     1
 93
       40
 10
-82.49955904150317
 20
90.05533783467035
 10
-83.15862579796009
 20
90.27694675788461
 10
-83.52872414576665
 20
90.49025467121101
 10
-83.15862579796283
 20
90.86126458906438
 10
-82.49955904150226
 20
90.63965566589558
 10
-82.49955904150226
 20
93.09722564498406
 10
-83.15862579795464
 20
93.31868298887366
 10
-83.52872414576665
 20
93.53290247466247
 10
-83.15862579796192
 20
93.90300082032808
 10
-82.49955904150226
 20
93.68154347638938
 10
-82.49955904150226
 20
96.1553990647044
 10
-83.15862579796556
 20
96.37700798791776
 10
-83.52872414576575
 20
96.59031590124506
 10
-83.15862579796283
 20
96.96132581909751
 10
-82.49955904150226
 20
96.73971689592873
 10
-82.49955904150226
 20
99.19804686815496
 10
-83.15862579795918
 20
99.41965579136649
 10
-83.52872414576665
 20
99.63296370469562
 10
-83.15862579796192
 20
100.0039736225508
 10
-82.49955904150226
 20
99.78236469938293
 10
-82.53191985764294
 20
101.4925101615135
 10
-82.56428067378454
 20
101.878105235859
 10
-82.98360392079974
 20
103.3293283055682
 10
-83.76390979052883
 20
104.621937798297
 10
-84.85232709287936
 20
105.669334347921
 10
-86.17501847476194
 20
106.3985921716684
 10
-86.17501847476194
 20
107.5745204128652
 10
-107.7395713486743
 20
107.5745204128652
 10
-107.7395713486734
 20
83.57452041286434
 10
-82.49955904150226
 20
83.57452041286434
 10
-82.49955904150317
 20
83.93959940881904
 10
-83.15862579796192
 20
84.16120833198602
 10
-83.52872414576665
 20
84.37542781777393
 10
-83.15862579796192
 20
84.74552616344045
 10
-82.49955904150226
 20
84.52391724027075
 10
-82.49955904150226
 20
86.99716441495002
 10
-83.15862579796283
 20
87.21862175884234
 10
-83.52872414576665
 20
87.43284124462752
 10
-83.15862579796192
 20
87.80293959029405
 10
-82.49955904150226
 20
87.58148224635624
 97
        0
 75
     0
 76
     1
 52
0.0
 41
1.0
 77
     0
 78
     1
 53
45.0
 43
-5313.902262503054
 44
-5050.993383098576
 45
-2.245064030267287
 46
2.245064030267288
 79
     0
 47
0.7293997082383822
 98
        3
 10
177.8493076717655
 20
90.32363996682397
 10
142.0867709596219
 20
91.05304672355487
 10
-90.73460800067403
 20
88.13545324644655
  0
LINE
  5
1826
330
1F
100
AcDbEntity
  8
izolace
  6
IZOLACE
 48
1.5
100
AcDbLine
 10
-57.73957134867339
 20
60.57452041286524
 30
0.0
 11
145.3140200097037
 21
60.57452041286524
 31
0.0
  0
LINE
  5
1827
330
1F
100
AcDbEntity
  8
STAVBA OBRYS
100
AcDbLine
 10
-257.3228992128582
 20
37.57452041286706
 30
0.0
 11
577.0023084342279
 21
37.57452041286615
 31
0.0
  0
LINE
  5
1828
330
1F
100
AcDbEntity
  8
STAVBA OBRYS
100
AcDbLine
 10
-132.7395713486697
 20
-103.4254795871338
 30
0.0
 11
577.0023084342279
 21
-103.4254795871338
 31
0.0
  0
HATCH
  5
1829
330
1F
100
AcDbEntity
  8
STAVBA OBRYS
100
AcDbHatch
 10
0.0
 20
0.0
 30
0.0
210
0.0
220
0.0
230
1.0
  2
AR-CONC
 70
     0
 71
     0
 91
        1
 92
        7
 72
     0
 73
     1
 93
        6
 10
577.0023084342279
 20
-103.4254795871338
 10
-132.7395713486661
 20
-103.4254795871329
 10
-132.7395713486734
 20
-291.6682264147357
 10
-122.739571348677
 20
-291.1819744800386
 10
-122.7395713486697
 20
-113.4254795871338
 10
577.0023084342279
 20
-113.4254795871338
 97
        0
 75
     0
 76
     1
 52
90.0
 41
0.1
 77
     0
 78
    13
 53
140.0
 43
-27820.13103847486
 44
2943.293750407659
 45
1.593908553890309
 46
18.2184668996004
 79
     2
 49
1.905
 49
-20.955
 53
85.00000000000001
 43
-27820.13103847486
 44
2943.293750407659
 45
-19.10566428821799
 46
-3.524282597566697
 79
     2
 49
1.524
 49
-16.764
 53
190.4509999999999
 43
-27819.99821347486
 44
2944.811950407659
 45
-17.51166878202918
 46
14.69425016659592
 79
     2
 49
1.619
 49
-17.809
 53
136.1841999999999
 43
-27825.21103847486
 44
2943.293750407659
 45
4.204232793272717
 46
27.10790408921299
 79
     2
 49
2.857499999999999
 49
-31.4325
 53
186.6355999999999
 43
-27824.86068847486
 44
2945.552740407659
 45
-24.74255558900492
 46
23.74042344662371
 79
     2
 49
2.4285
 49
-26.7135
 53
81.18400000000004
 43
-27825.21103847486
 44
2943.293750407659
 45
-24.74251178605976
 46
23.74046058139339
 79
     2
 49
2.286
 49
-25.146
 53
111.0
 43
-27823.94103847486
 44
2945.833750407659
 45
10.22655185167625
 46
15.16148798353833
 79
     2
 49
1.905
 49
-20.955
 53
56.00000000000004
 43
-27823.94103847486
 44
2945.833750407659
 45
-18.41879661223192
 46
6.180202834764708
 79
     2
 49
1.524
 49
-16.764
 53
161.4514
 43
-27823.08882847486
 44
2947.097200407659
 45
-8.192285771605742
 46
21.34164907701245
 79
     2
 49
1.618999999999997
 49
-17.80899999999996
 53
127.5
 43
-27820.13103847486
 44
2943.293750407659
 45
-8.455503887315311
 46
0.3088603250591822
 79
     6
 49
0.0
 49
-16.5608
 49
0.0
 49
-17.018
 49
0.0
 49
-16.8275
 53
97.49999999999987
 43
-27820.13103847486
 44
2943.293750407659
 45
-10.01805748181195
 46
6.681966251030575
 79
     6
 49
0.0
 49
-9.702799999999998
 49
0.0
 49
-16.17979999999999
 49
0.0
 49
-6.413499999999999
 53
57.5
 43
-27820.13103847486
 44
2937.629550407658
 45
0.5728743992673473
 46
13.55905951668713
 79
     6
 49
0.0
 49
-6.35
 49
0.0
 49
-19.812
 49
0.0
 49
-26.289
 53
47.5
 43
-27820.13103847486
 44
2935.089550407658
 45
-2.5426491033333
 46
14.8129181386018
 79
     6
 49
0.0
 49
-8.255
 49
0.0
 49
-13.1572
 49
0.0
 49
-18.669
 47
1.255134839913078
 98
        1
 10
50.85877706318171
 20
-107.0976531677615
  0
TEXT
  5
182A
330
1F
100
AcDbEntity
  8
POPIS
100
AcDbText
 10
1.905462558148087
 20
185.7173402387761
 30
0.0
 40
25.0
  1
02
 41
0.85
  7
SIMPLEX7
100
AcDbText
  0
LINE
  5
182B
330
1F
100
AcDbEntity
  8
STAVBA OBRYS
100
AcDbLine
 10
-122.7395713486733
 20
-113.4254795871338
 30
0.0
 11
577.0023084342279
 21
-113.4254795871338
 31
0.0
  0
LINE
  5
182C
330
1F
100
AcDbEntity
  8
STAVBA OBRYS
100
AcDbLine
 10
-132.7395713486697
 20
-85.42547958713385
 30
0.0
 11
577.0023084342279
 21
-85.42547958713385
 31
0.0
  0
LWPOLYLINE
  5
182D
330
1F
100
AcDbEntity
  8
nášlap_vrstvy
100
AcDbPolyline
 90
        4
 70
     1
 43
0.0
 10
-119.5697084480856
 20
110.1174343387247
 10
577.0189556429937
 20
110.1174343387247
 10
577.0189556429937
 20
114.4559233646723
 10
-119.5697084480856
 20
114.4559233646723
  0
LINE
  5
182E
330
1F
100
AcDbEntity
  8
CETRIS
100
AcDbLine
 10
-107.7395713486734
 20
107.5745204128652
 30
0.0
 11
577.0023084342279
 21
107.5745204128652
 31
0.0
  0
LWPOLYLINE
  5
182F
330
1F
100
AcDbEntity
  8
CETRIS
100
AcDbPolyline
 90
        4
 70
     0
 43
0.0
 10
577.0023084342279
 20
83.57452041286524
 10
-107.7395713486734
 20
83.57452041286524
 10
-107.7395713486734
 20
83.57452041286434
 10
-107.7395713486734
 20
107.5745204128652
  0
LWPOLYLINE
  5
1830
330
1F
100
AcDbEntity
  8
STAVBA OBRYS
100
AcDbPolyline
 90
        4
 70
     1
 43
0.0
 10
-132.7395713486697
 20
-98.80805773364683
 10
-328.314821657192
 20
-98.80805773364683
 10
-328.314821657192
 20
-226.3453542032466
 10
-132.7395713486697
 20
-226.3453542032466
  0
HATCH
  5
1831
330
1F
100
AcDbEntity
  8
STAVBA OBRYS
100
AcDbHatch
 10
0.0
 20
0.0
 30
0.0
210
0.0
220
0.0
230
1.0
  2
AR-CONC
 70
     0
 71
     0
 91
        2
 92
        7
 72
     0
 73
     1
 93
        4
 10
-122.7395713486697
 20
309.9954004146157
 10
-132.7395713486697
 20
309.9954004146157
 10
-132.7395713486697
 20
62.00594913081204
 10
-122.7395713486697
 20
57.12388983661913
 97
        0
 92
        7
 72
     0
 73
     1
 93
        4
 10
-371.8201671771643
 20
309.9954004146129
 10
-381.8201671771679
 20
309.995400414612
 10
-381.8201671771642
 20
-285.7798185764613
 10
-371.8201671771643
 20
-285.2935666417634
 97
        0
 75
     0
 76
     1
 52
90.0
 41
0.1
 77
     0
 78
    13
 53
140.0
 43
-27820.13103847486
 44
2961.293750407659
 45
1.593908553890309
 46
18.2184668996004
 79
     2
 49
1.905
 49
-20.955
 53
85.00000000000001
 43
-27820.13103847486
 44
2961.293750407659
 45
-19.10566428821799
 46
-3.524282597566697
 79
     2
 49
1.524
 49
-16.764
 53
190.4509999999999
 43
-27819.99821347486
 44
2962.811950407659
 45
-17.51166878202918
 46
14.69425016659592
 79
     2
 49
1.619
 49
-17.809
 53
136.1841999999999
 43
-27825.21103847486
 44
2961.293750407659
 45
4.204232793272717
 46
27.10790408921299
 79
     2
 49
2.857499999999999
 49
-31.4325
 53
186.6355999999999
 43
-27824.86068847486
 44
2963.552740407659
 45
-24.74255558900492
 46
23.74042344662371
 79
     2
 49
2.4285
 49
-26.7135
 53
81.18400000000004
 43
-27825.21103847486
 44
2961.293750407659
 45
-24.74251178605976
 46
23.74046058139339
 79
     2
 49
2.286
 49
-25.146
 53
111.0
 43
-27823.94103847486
 44
2963.833750407658
 45
10.22655185167625
 46
15.16148798353833
 79
     2
 49
1.905
 49
-20.955
 53
56.00000000000004
 43
-27823.94103847486
 44
2963.833750407658
 45
-18.41879661223192
 46
6.180202834764708
 79
     2
 49
1.524
 49
-16.764
 53
161.4514
 43
-27823.08882847486
 44
2965.097200407659
 45
-8.192285771605742
 46
21.34164907701245
 79
     2
 49
1.618999999999998
 49
-17.80899999999997
 53
127.5
 43
-27820.13103847486
 44
2961.293750407659
 45
-8.455503887315311
 46
0.3088603250591822
 79
     6
 49
0.0
 49
-16.5608
 49
0.0
 49
-17.018
 49
0.0
 49
-16.8275
 53
97.49999999999991
 43
-27820.13103847486
 44
2961.293750407659
 45
-10.01805748181195
 46
6.681966251030575
 79
     6
 49
0.0
 49
-9.702799999999999
 49
0.0
 49
-16.1798
 49
0.0
 49
-6.4135
 53
57.5
 43
-27820.13103847486
 44
2955.629550407659
 45
0.5728743992673473
 46
13.55905951668713
 79
     6
 49
0.0
 49
-6.35
 49
0.0
 49
-19.812
 49
0.0
 49
-26.289
 53
47.5
 43
-27820.13103847486
 44
2953.089550407659
 45
-2.5426491033333
 46
14.8129181386018
 79
     6
 49
0.0
 49
-8.255
 49
0.0
 49
-13.1572
 49
0.0
 49
-18.669
 47
1.255134839913078
 98
        2
 10
-128.8569495729719
 20
158.5633447219233
 10
-376.2703649069266
 20
107.1028050545583
  0
LINE
  5
1832
330
1F
100
AcDbEntity
  8
STAVBA OBRYS
  6
IZOLACE
 48
2.1
100
AcDbLine
 10
-349.4394530723988
 20
-226.3453542032457
 30
0.0
 11
-349.4394530723988
 21
34.57452041286614
 31
0.0
  0
LINE
  5
1833
330
1F
100
AcDbEntity
  8
STAVBA OBRYS
100
AcDbLine
 10
-132.7395713486697
 20
-85.42547958713385
 30
0.0
 11
-132.7395713486706
 21
-290.9734619171322
 31
0.0
  0
LINE
  5
1834
330
1F
100
AcDbEntity
  8
STAVBA OBRYS
100
AcDbLine
 10
-371.8201671771643
 20
-285.7798185764613
 30
0.0
 11
-371.8201671771679
 21
309.9954004146129
 31
0.0
  0
LINE
  5
1835
330
1F
100
AcDbEntity
  8
STAVBA OBRYS
100
AcDbLine
 10
-381.8201671771642
 20
-285.7798185764613
 30
0.0
 11
-381.8201671771679
 21
309.9954004146129
 31
0.0
  0
LINE
  5
1836
330
1F
100
AcDbEntity
  8
STAVBA OBRYS
100
AcDbLine
 10
-122.7395713486733
 20
-113.4254795871338
 30
0.0
 11
-122.7395713486733
 21
-291.1819744800386
 31
0.0
  0
HATCH
  5
1837
330
1F
100
AcDbEntity
  8
STAVBA OBRYS
100
AcDbHatch
 10
0.0
 20
0.0
 30
0.0
210
0.0
220
0.0
230
1.0
  2
BRICK
 70
     0
 71
     0
 91
        1
 92
        7
 72
     0
 73
     1
 93
        5
 10
-132.7395713486697
 20
-226.3453542032466
 10
-328.314821657192
 20
-226.3453542032466
 10
-371.8201671771643
 20
-226.3453542032457
 10
-371.8201671771643
 20
-285.9883311393696
 10
-132.7395713486697
 20
-290.9734619171322
 97
        0
 75
     0
 76
     1
 52
0.0
 41
10.0
 77
     0
 78
     3
 53
0.0
 43
-5313.902262503054
 44
-5053.993383098575
 45
0.0
 46
63.5
 79
     0
 53
90.0
 43
-5313.902262503054
 44
-5053.993383098575
 45
-127.0
 46
0.0000000000000078
 79
     2
 49
63.5
 49
-63.5
 53
90.0
 43
-5250.402262503054
 44
-5053.993383098575
 45
-127.0
 46
0.0000000000000078
 79
     2
 49
-63.5
 49
63.5
 47
1.09952506830799
 98
        1
 10
-236.6240841036036
 20
-253.5095796456762
  0
LINE
  5
1838
330
1F
100
AcDbEntity
  8
STAVBA OBRYS
100
AcDbLine
 10
-371.8201671771643
 20
-226.3453542032457
 30
0.0
 11
-328.314821657192
 21
-226.3453542032457
 31
0.0
  0
HATCH
  5
1839
330
1F
100
AcDbEntity
  8
STAVBA OBRYS
100
AcDbHatch
 10
0.0
 20
0.0
 30
0.0
210
0.0
220
0.0
230
1.0
  2
BRICK
 70
     0
 71
     0
 91
        2
 92
        7
 72
     0
 73
     1
 93
       10
 10
-132.7395713486734
 20
309.9954004146157
 10
-371.8201671771679
 20
309.995400414612
 10
-371.8201671771652
 20
37.57452041286796
 10
-328.118955145041
 20
37.57452041286796
 10
-328.1189551450401
 20
-98.80805773364683
 10
-297.8975262631623
 20
-98.80805773364683
 10
-297.8975262631641
 20
-85.42547958713385
 10
-257.3228992128591
 20
-85.42547958713385
 10
-257.3228992128591
 20
37.57452041286706
 10
-132.7395713486688
 20
37.57452041286796
 97
        0
 92
       24
 93
        4
 72
     1
 10
-233.8757758531341
 20
71.38379741151402
 11
-193.0443467944709
 21
71.38379741151402
 72
     1
 10
-193.0443467944709
 20
71.38379741151402
 11
-193.0443467944709
 21
109.67677149064
 72
     1
 10
-193.0443467944709
 20
109.67677149064
 11
-233.8757758531341
 21
109.67677149064
 72
     1
 10
-233.8757758531341
 20
109.67677149064
 11
-233.8757758531341
 21
71.38379741151402
 97
        0
 75
     0
 76
     1
 52
0.0
 41
10.0
 77
     0
 78
     3
 53
0.0
 43
-5313.902262503054
 44
-5053.993383098575
 45
0.0
 46
63.5
 79
     0
 53
90.0
 43
-5313.902262503054
 44
-5053.993383098575
 45
-127.0
 46
0.0000000000000078
 79
     2
 49
63.5
 49
-63.5
 53
90.0
 43
-5250.402262503054
 44
-5053.993383098575
 45
-127.0
 46
0.0000000000000078
 79
     2
 49
-63.5
 49
63.5
 47
2.134607673210243
 98
        1
 10
-253.41243143389
 20
200.312455362321
  0
LWPOLYLINE
  5
183A
330
1F
100
AcDbEntity
  8
STAVBA OBRYS
100
AcDbPolyline
 90
        4
 70
     1
 43
0.0
 10
-132.7395713486697
 20
-85.42547958713385
 10
-297.8975262631633
 20
-85.42547958713385
 10
-297.8975262631633
 20
-98.80805773364683
 10
-132.7395713486697
 20
-98.80805773364683
  0
LINE
  5
183B
330
1F
100
AcDbEntity
  8
STAVBA OBRYS
100
AcDbLine
 10
-328.118955145041
 20
-179.037169671642
 30
0.0
 11
-328.118955145041
 21
37.57452041286706
 31
0.0
  0
LINE
  5
183C
330
1F
100
AcDbEntity
  8
STAVBA OBRYS
100
AcDbLine
 10
-371.8201671771679
 20
37.57452041286706
 30
0.0
 11
-328.118955145041
 21
37.57452041286796
 31
0.0
  0
LWPOLYLINE
  5
183D
330
1F
100
AcDbEntity
  8
STAVBA OBRYS
100
AcDbPolyline
 90
        6
 70
     0
 43
0.0
 10
-66.2060128864963
 20
80.57452041286524
 42
-0.0128837512779301
 10
-66.49080484672083
 20
77.24135559111892
 42
-0.0351641677647434
 10
-67.11856456824387
 20
73.63764613677995
 42
-0.0187319685742942
 10
-70.50258044923464
 20
61.87940879463713
 42
-0.0582629403736403
 10
-72.16208031731582
 20
58.29957459570505
 42
-0.1129599987265478
 10
-89.53762216902521
 20
40.57452041286524
 42
-0.1129599987265478
  0
LWPOLYLINE
  5
183E
330
1F
100
AcDbEntity
  8
STAVBA OBRYS
100
AcDbPolyline
 90
        4
 70
     0
 43
0.0
 10
-57.73957134867339
 20
70.3746902419598
 42
-0.0067884601454759
 10
-59.73541463971776
 20
60.2458272303993
 42
-0.0219777111230329
 10
-60.6415271417012
 20
56.72771397456381
 42
-0.0757738131361498
 10
-73.92262499792138
 20
40.57452041286524
  0
LWPOLYLINE
  5
183F
330
1F
100
AcDbEntity
  8
STAVBA OBRYS
100
AcDbPolyline
 90
        8
 70
     0
 43
0.0
 10
-74.83022826653757
 20
80.57452041286524
 42
-0.0120721047703132
 10
-74.89921095657553
 20
78.84063227412116
 42
-0.044358077361292
 10
-75.29483869124885
 20
76.14483225570438
 42
-0.0188067511131767
 10
-77.3146621396321
 20
68.90260308039796
 42
-0.0457786284636091
 10
-78.52268502924778
 20
66.05399269751797
 42
-0.0295006114745606
 10
-80.93874548354722
 20
62.1270934841159
 42
-0.0258674098621065
 10
-84.17142079751135
 20
57.98131340536201
 42
-0.2409478365688615
 10
-107.7395713486715
 20
43.55676596038847
 42
-0.0884720560394402
  0
LWPOLYLINE
  5
1840
330
1F
100
AcDbEntity
  8
STAVBA OBRYS
100
AcDbPolyline
 90
        4
 70
     1
 43
0.0
 10
-107.7395713486734
 20
40.57452041286524
 10
-57.73957134867339
 20
40.57452041286524
 10
-57.73957134867339
 20
80.57452041286524
 10
-107.7395713486734
 20
80.57452041286524
  0
LWPOLYLINE
  5
1841
330
1F
100
AcDbEntity
  8
STAVBA OBRYS
100
AcDbPolyline
 90
        4
 70
     1
 43
0.0
 10
-107.7395713486734
 20
107.5745204128652
 10
-122.7395713486697
 20
107.5745204128652
 10
-122.7395713486697
 20
40.57452041286524
 10
-107.7395713486734
 20
40.57452041286524
  0
HATCH
  5
1842
330
1F
100
AcDbEntity
  8
STAVBA OBRYS
100
AcDbHatch
 10
0.0
 20
0.0
 30
0.0
210
0.0
220
0.0
230
1.0
  2
AR-CONC
 70
     0
 71
     0
 91
        1
 92
        7
 72
     0
 73
     1
 93
        5
 10
-132.7395713486697
 20
37.57452041286615
 10
-122.7395713486733
 20
37.57452041286615
 10
-122.7395713486733
 20
40.57452041286524
 10
-122.7395713486697
 20
60.12388983662185
 10
-132.7395713486697
 20
65.00594913081022
 97
        0
 75
     0
 76
     1
 52
90.0
 41
0.1
 77
     0
 78
    13
 53
140.0
 43
-27820.13103847486
 44
2964.293750407658
 45
1.593908553890309
 46
18.2184668996004
 79
     2
 49
1.905
 49
-20.955
 53
85.00000000000001
 43
-27820.13103847486
 44
2964.293750407658
 45
-19.10566428821799
 46
-3.524282597566697
 79
     2
 49
1.524
 49
-16.764
 53
190.4509999999999
 43
-27819.99821347486
 44
2965.811950407658
 45
-17.51166878202918
 46
14.69425016659592
 79
     2
 49
1.619
 49
-17.809
 53
136.1841999999999
 43
-27825.21103847486
 44
2964.293750407658
 45
4.204232793272717
 46
27.10790408921299
 79
     2
 49
2.857499999999999
 49
-31.4325
 53
186.6355999999999
 43
-27824.86068847486
 44
2966.552740407658
 45
-24.74255558900492
 46
23.74042344662371
 79
     2
 49
2.4285
 49
-26.7135
 53
81.18400000000004
 43
-27825.21103847486
 44
2964.293750407658
 45
-24.74251178605976
 46
23.74046058139339
 79
     2
 49
2.286
 49
-25.146
 53
111.0
 43
-27823.94103847486
 44
2966.833750407658
 45
10.22655185167625
 46
15.16148798353833
 79
     2
 49
1.905
 49
-20.955
 53
56.00000000000004
 43
-27823.94103847486
 44
2966.833750407658
 45
-18.41879661223192
 46
6.180202834764708
 79
     2
 49
1.524
 49
-16.764
 53
161.4514
 43
-27823.08882847486
 44
2968.097200407658
 45
-8.192285771605742
 46
21.34164907701245
 79
     2
 49
1.618999999999998
 49
-17.80899999999997
 53
127.5
 43
-27820.13103847486
 44
2964.293750407658
 45
-8.455503887315311
 46
0.3088603250591822
 79
     6
 49
0.0
 49
-16.5608
 49
0.0
 49
-17.018
 49
0.0
 49
-16.8275
 53
97.49999999999992
 43
-27820.13103847486
 44
2964.293750407658
 45
-10.01805748181195
 46
6.681966251030575
 79
     6
 49
0.0
 49
-9.702799999999999
 49
0.0
 49
-16.1798
 49
0.0
 49
-6.4135
 53
57.5
 43
-27820.13103847486
 44
2958.629550407658
 45
0.5728743992673473
 46
13.55905951668713
 79
     6
 49
0.0
 49
-6.35
 49
0.0
 49
-19.812
 49
0.0
 49
-26.289
 53
47.5
 43
-27820.13103847486
 44
2956.089550407657
 45
-2.5426491033333
 46
14.8129181386018
 79
     6
 49
0.0
 49
-8.255
 49
0.0
 49
-13.1572
 49
0.0
 49
-18.669
 47
0.415434097446913
 98
        1
 10
-130.154087965075
 20
45.47462981263379
  0
LINE
  5
1843
330
1F
100
AcDbEntity
  8
STAVBA OBRYS
100
AcDbLine
 10
-132.7395713486697
 20
37.57452041286706
 30
0.0
 11
-132.7395713486734
 21
309.9954004146157
 31
0.0
  0
LINE
  5
1844
330
1F
100
AcDbEntity
  8
STAVBA OBRYS
100
AcDbLine
 10
-122.7395713486697
 20
37.57452041286706
 30
0.0
 11
-122.7395713486733
 21
309.9954004146157
 31
0.0
  0
LINE
  5
1845
330
1F
100
AcDbEntity
  8
STAVBA OBRYS
  6
IZOLACE
 48
0.7
100
AcDbLine
 10
-115.2395713486715
 20
107.5745204128652
 30
0.0
 11
-115.2395713486733
 21
40.57452041286524
 31
0.0
  0
LWPOLYLINE
  5
1846
330
1F
100
AcDbEntity
  8
STAVBA OBRYS
100
AcDbPolyline
 90
        8
 70
     0
 43
0.0
 10
-110.1664997751653
 20
-103.4254795871338
 42
0.0217273703039143
 10
-112.3641700356751
 20
-98.38978924965614
 42
0.0882970623535771
 10
-114.0013919557681
 20
-96.14942019885621
 42
0.0171636441953577
 10
-116.8147560176261
 20
-93.635502843611
 42
0.0157521173632038
 10
-120.0536108546624
 20
-91.10400679110444
 42
0.0073640874174249
 10
-124.6872602109837
 20
-87.81560536536835
 42
0.0194185739168057
 10
-126.5093035306602
 20
-86.6640363660872
 42
0.0229547400386702
 10
-128.8947615946748
 20
-85.42547958713385
  0
POLYLINE
  5
1847
330
1F
100
AcDbEntity
  8
STAVBA OBRYS
100
AcDb2dPolyline
 66
     1
 10
0.0
 20
0.0
 30
0.0
  0
VERTEX
  5
1848
330
1847
100
AcDbEntity
  8
STAVBA OBRYS
100
AcDbVertex
100
AcDb2dVertex
 10
-118.5185511624807
 20
-103.4254795871338
 30
0.0
 42
0.0502247168465557
  0
VERTEX
  5
1849
330
1847
100
AcDbEntity
  8
STAVBA OBRYS
100
AcDbVertex
100
AcDb2dVertex
 10
-120.1175983386459
 20
-101.418008914411
 30
0.0
 42
0.0274923553235744
  0
VERTEX
  5
184A
330
1847
100
AcDbEntity
  8
STAVBA OBRYS
100
AcDbVertex
100
AcDb2dVertex
 10
-122.7149040691987
 20
-99.03293359127292
 30
0.0
 42
0.0255412025538677
  0
VERTEX
  5
184B
330
1847
100
AcDbEntity
  8
STAVBA OBRYS
100
AcDbVertex
100
AcDb2dVertex
 10
-125.7663341069095
 20
-96.77621991425713
 30
0.0
 42
0.0272796991712396
  0
VERTEX
  5
184C
330
1847
100
AcDbEntity
  8
STAVBA OBRYS
100
AcDbVertex
100
AcDb2dVertex
 10
-129.8793332600947
 20
-94.35988403259125
 30
0.0
 42
0.056967459841729
  0
VERTEX
  5
184D
330
1847
100
AcDbEntity
  8
STAVBA OBRYS
100
AcDbVertex
100
AcDb2dVertex
 10
-132.0202805408265
 20
-93.54714819739184
 30
0.0
 42
0.0373408083348504
  0
VERTEX
  5
184E
330
1847
100
AcDbEntity
  8
STAVBA OBRYS
100
AcDbVertex
100
AcDb2dVertex
 10
-132.2426349163
 20
-93.50798265644426
 30
0.0
 42
0.0052305969362967
  0
VERTEX
  5
184F
330
1847
100
AcDbEntity
  8
STAVBA OBRYS
100
AcDbVertex
100
AcDb2dVertex
 10
-132.5885946900601
 20
-93.47702568953991
 30
0.0
  0
SEQEND
  5
1850
330
1847
100
AcDbEntity
  8
STAVBA OBRYS
  0
POLYLINE
  5
1851
330
1F
100
AcDbEntity
  8
STAVBA OBRYS
100
AcDb2dPolyline
 66
     1
 10
0.0
 20
0.0
 30
0.0
  0
VERTEX
  5
1852
330
1851
100
AcDbEntity
  8
STAVBA OBRYS
100
AcDbVertex
100
AcDb2dVertex
 10
-127.5716971120167
 20
-103.4254795871338
 30
0.0
 42
0.0094186890201653
  0
VERTEX
  5
1853
330
1851
100
AcDbEntity
  8
STAVBA OBRYS
100
AcDbVertex
100
AcDb2dVertex
 10
-127.9184956748907
 20
-103.2668067163658
 30
0.0
 42
0.0322692699774654
  0
VERTEX
  5
1854
330
1851
100
AcDbEntity
  8
STAVBA OBRYS
100
AcDbVertex
100
AcDb2dVertex
 10
-130.8098498559814
 20
-102.2252832149652
 30
0.0
 42
0.0276160659512937
  0
VERTEX
  5
1855
330
1851
100
AcDbEntity
  8
STAVBA OBRYS
100
AcDbVertex
100
AcDb2dVertex
 10
-131.6654262942687
 20
-102.0285477860206
 30
0.0
 42
0.0126891984598699
  0
VERTEX
  5
1856
330
1851
100
AcDbEntity
  8
STAVBA OBRYS
100
AcDbVertex
100
AcDb2dVertex
 10
-132.5885946900601
 20
-101.8933453964791
 30
0.0
  0
SEQEND
  5
1857
330
1851
100
AcDbEntity
  8
STAVBA OBRYS
  0
LINE
  5
1858
330
1F
100
AcDbEntity
  8
STAVBA OBRYS
100
AcDbLine
 10
-257.3228992128591
 20
-85.42547958713385
 30
0.0
 11
-257.3228992128591
 21
37.57452041286706
 31
0.0
  0
LINE
  5
1859
330
1F
100
AcDbEntity
  8
STAVBA OBRYS
100
AcDbLine
 10
-132.7395713486697
 20
-85.42547958713385
 30
0.0
 11
-257.3228992128591
 21
-85.42547958713385
 31
0.0
  0
LWPOLYLINE
  5
185A
330
1F
100
AcDbEntity
  8
STAVBA OBRYS
100
AcDbPolyline
 90
        3
 70
     0
 43
0.0
 10
22.65291899358783
 20
-103.4254795871338
 42
-0.0052038508054843
 10
25.85131593357039
 20
-87.02165310513647
 42
-0.0065712046643719
 10
26.2017417033345
 20
-85.42547958713385
  0
LWPOLYLINE
  5
185B
330
1F
100
AcDbEntity
  8
STAVBA OBRYS
100
AcDbPolyline
 90
        3
 70
     0
 43
0.0
 10
11.86793830907265
 20
-103.4254795871338
 42
0.0052038508054843
 10
8.669541369090097
 20
-87.02165310513647
 42
0.0065712046643719
 10
8.319115599325982
 20
-85.42547958713385
  0
LWPOLYLINE
  5
185C
330
1F
100
AcDbEntity
  8
STAVBA OBRYS
100
AcDbPolyline
 90
        5
 70
     0
 43
0.0
 10
-9.828737928688838
 20
-103.4254795871338
 42
0.0133579731639958
 10
-10.21554841771683
 20
-100.9076772995786
 42
0.0072443097182286
 10
-12.3355453651751
 20
-90.09678640467155
 42
0.0219777111230329
 10
-13.24165786715855
 20
-86.57867314883606
 42
0.0092752982622242
 10
-13.61688482910574
 20
-85.42547958713385
  0
LWPOLYLINE
  5
185D
330
1F
100
AcDbEntity
  8
STAVBA OBRYS
100
AcDbPolyline
 90
        4
 70
     0
 43
0.0
 10
0.4154004461048544
 20
-103.4254795871338
 42
0.0334776267545482
 10
-0.0218773486016062
 20
-99.3785046583971
 42
0.0091133963862869
 10
-2.499481673520108
 20
-86.68677487293734
 42
0.007828075361276
 10
-2.790380808677923
 20
-85.42547958713385
  0
LWPOLYLINE
  5
185E
330
1F
100
AcDbEntity
  8
STAVBA OBRYS
100
AcDbPolyline
 90
        4
 70
     0
 43
0.0
 10
-34.33872699118035
 20
-103.9263100178823
 10
-14.34247455918773
 20
-94.71028096736246
 10
2.435416012030714
 20
-92.0031367046713
 10
5.699027259735544
 20
-91.8728353403012
  0
LWPOLYLINE
  5
185F
330
1F
100
AcDbEntity
  8
STAVBA OBRYS
100
AcDbPolyline
 90
        5
 70
     0
 43
0.0
 10
-39.97574678516355
 20
-103.4254795871338
 42
0.0133579731639958
 10
-40.36255727419154
 20
-100.9076772995786
 42
0.0072443097182286
 10
-42.48255422164982
 20
-90.09678640467155
 42
0.0219777111230329
 10
-43.38866672363326
 20
-86.57867314883606
 42
0.0092752982622242
 10
-43.76389368558045
 20
-85.42547958713385
  0
LWPOLYLINE
  5
1860
330
1F
100
AcDbEntity
  8
STAVBA OBRYS
100
AcDbPolyline
 90
        4
 70
     0
 43
0.0
 10
-64.48573584765506
 20
-103.9263100178823
 10
-44.48948341566245
 20
-94.71028096736246
 10
-27.71159284444399
 20
-92.0031367046713
 10
-24.44798159673917
 20
-91.8728353403012
  0
LWPOLYLINE
  5
1861
330
1F
100
AcDbEntity
  8
STAVBA OBRYS
100
AcDbPolyline
 90
        4
 70
     0
 43
0.0
 10
-49.88135065905987
 20
-103.4254795871338
 42
0.0186324019486548
 10
-53.2497200311667
 20
-91.73036796890938
 42
0.0582629403736403
 10
-54.90921989924789
 20
-88.15053376997367
 42
0.0146402521923566
 10
-56.69362788083197
 20
-85.42547958713385
  0
LWPOLYLINE
  5
1862
330
1F
100
AcDbEntity
  8
STAVBA OBRYS
100
AcDbPolyline
 90
        4
 70
     0
 43
0.0
 10
-29.73160841036985
 20
-103.4254795871338
 42
0.0334776267545482
 10
-30.16888620507632
 20
-99.3785046583971
 42
0.0091133963862869
 10
-32.64649052999482
 20
-86.68677487293734
 42
0.007828075361276
 10
-32.93738966515263
 20
-85.42547958713385
  0
LWPOLYLINE
  5
1863
330
1F
100
AcDbEntity
  8
STAVBA OBRYS
100
AcDbPolyline
 90
        3
 70
     0
 43
0.0
 10
-18.27907054740205
 20
-103.4254795871338
 42
0.0052038508054843
 10
-21.47746748738461
 20
-87.02165310513647
 42
0.0065712046643719
 10
-21.82789325714872
 20
-85.42547958713385
  0
LWPOLYLINE
  5
1864
330
1F
100
AcDbEntity
  8
STAVBA OBRYS
100
AcDbPolyline
 90
        3
 70
     0
 43
0.0
 10
-60.38095430686223
 20
-103.4254795871338
 42
0.0052038508054843
 10
-63.57935124684479
 20
-87.02165310513647
 42
0.0065712046643719
 10
-63.92977701660891
 20
-85.42547958713385
  0
LWPOLYLINE
  5
1865
330
1F
100
AcDbEntity
  8
STAVBA OBRYS
100
AcDbPolyline
 90
        4
 70
     0
 43
0.0
 10
-71.83349216983003
 20
-103.4254795871338
 42
0.0334776267545482
 10
-72.2707699645365
 20
-99.3785046583971
 42
0.0091133963862869
 10
-74.748374289455
 20
-86.68677487293734
 42
0.007828075361276
 10
-75.03927342461281
 20
-85.42547958713385
  0
LWPOLYLINE
  5
1866
330
1F
100
AcDbEntity
  8
STAVBA OBRYS
100
AcDbPolyline
 90
        6
 70
     0
 43
0.0
 10
-100.7936957673631
 20
-103.4254795871338
 42
0.0121757200102759
 10
-102.1636854810243
 20
-98.75356225466658
 42
0.0457786284636091
 10
-103.37170837064
 20
-95.90495187179021
 42
0.0295006114745606
 10
-105.7877688249394
 20
-91.97805265838814
 42
0.0258674098621065
 10
-109.0204441389035
 20
-87.83227257963426
 42
0.0093759062953949
 10
-111.1862563185608
 20
-85.42547958713385
  0
LWPOLYLINE
  5
1867
330
1F
100
AcDbEntity
  8
STAVBA OBRYS
100
AcDbPolyline
 90
        3
 70
     0
 43
0.0
 10
-122.917027539272
 20
-103.4254795871338
 10
-109.1249796126325
 20
-96.52440802364708
 10
-100.9578749635078
 20
-88.34310632255347
  0
LWPOLYLINE
  5
1868
330
1F
100
AcDbEntity
  8
STAVBA OBRYS
100
AcDbPolyline
 90
        4
 70
     0
 43
0.0
 10
-91.98323441852005
 20
-103.4254795871338
 42
0.0186324019486548
 10
-95.35160379062688
 20
-91.73036796890938
 42
0.0582629403736403
 10
-97.01110365870807
 20
-88.15053376997367
 42
0.0146402521923566
 10
-98.79551164029216
 20
-85.42547958713385
  0
LWPOLYLINE
  5
1869
330
1F
100
AcDbEntity
  8
STAVBA OBRYS
100
AcDbPolyline
 90
        4
 70
     0
 43
0.0
 10
-106.5876196071152
 20
-103.9263100178823
 10
-86.59136717512263
 20
-94.71028096736246
 10
-69.81347660390418
 20
-92.0031367046713
 10
-66.54986535619935
 20
-91.8728353403012
  0
LWPOLYLINE
  5
186A
330
1F
100
AcDbEntity
  8
STAVBA OBRYS
100
AcDbPolyline
 90
        5
 70
     0
 43
0.0
 10
-82.07763054462374
 20
-103.4254795871338
 42
0.0133579731639958
 10
-82.46444103365172
 20
-100.9076772995786
 42
0.0072443097182286
 10
-84.58443798111
 20
-90.09678640467155
 42
0.0219777111230329
 10
-85.49055048309345
 20
-86.57867314883606
 42
0.0092752982622242
 10
-85.86577744504063
 20
-85.42547958713385
  0
LINE
  5
186B
330
1F
100
AcDbEntity
  8
STAVBA OBRYS
100
AcDbLine
 10
17.26042865133024
 20
-85.42547958713475
 30
0.0
 11
17.26042865133024
 21
-103.4254795871338
 31
0.0
  0
LWPOLYLINE
  5
186C
330
1F
100
AcDbEntity
  8
STAVBA OBRYS
100
AcDbPolyline
 90
        2
 70
     0
 43
0.0
 10
-57.73957134867339
 20
42.29508897582218
 42
-0.0063891037323949
 10
-58.99963951681491
 20
40.57452041286524
  0
LWPOLYLINE
  5
186D
330
1F
100
AcDbEntity
  8
STAVBA OBRYS
100
AcDbPolyline
 90
        2
 70
     0
 43
0.0
 10
-60.5254243567964
 20
49.57155036374115
 10
-57.73957134867339
 20
48.17760429592908
  0
LINE
  5
186E
330
1F
100
AcDbEntity
  8
POPIS
100
AcDbLine
 10
-118.1655281121023
 20
57.89081480710774
 30
0.0
 11
-189.285217571189
 21
92.6118688994793
 31
0.0
  0
TEXT
  5
186F
330
1F
100
AcDbEntity
  8
POPIS
100
AcDbText
 10
-227.4936135066131
 20
81.19228990810189
 30
0.0
 40
25.0
  1
08
 41
0.85
  7
SIMPLEX7
100
AcDbText
  0
INSERT
  5
1870
330
1F
100
AcDbEntity
  8
POPIS
100
AcDbBlockReference
  2
E_PUNKT
 10
-118.9070521165743
 20
125.8808657883755
 30
0.0
 50
270.0
  0
POLYLINE
  5
1871
330
1F
100
AcDbEntity
  8
STAVBA OBRYS
100
AcDb2dPolyline
 66
     1
 10
0.0
 20
0.0
 30
0.0
  0
VERTEX
  5
1872
330
1871
100
AcDbEntity
  8
STAVBA OBRYS
100
AcDbVertex
100
AcDb2dVertex
 10
-97.87511653447143
 20
80.57452041286342
 30
0.0
 42
-0.0064239028828688
  0
VERTEX
  5
1873
330
1871
100
AcDbEntity
  8
STAVBA OBRYS
100
AcDbVertex
100
AcDb2dVertex
 10
-97.91398497465195
 20
80.35540675351331
 30
0.0
 42
-0.0832048017309575
  0
VERTEX
  5
1874
330
1871
100
AcDbEntity
  8
STAVBA OBRYS
100
AcDbVertex
100
AcDb2dVertex
 10
-98.69816757733349
 20
78.0251931738585
 30
0.0
 42
-0.0336767237692336
  0
VERTEX
  5
1875
330
1871
100
AcDbEntity
  8
STAVBA OBRYS
100
AcDbVertex
100
AcDb2dVertex
 10
-100.4009841362552
 20
75.29691865439781
 30
0.0
 42
-0.0844635135812105
  0
VERTEX
  5
1876
330
1871
100
AcDbEntity
  8
STAVBA OBRYS
100
AcDbVertex
100
AcDb2dVertex
 10
-101.320793896148
 20
74.39249704940266
 30
0.0
 42
-0.0495829410719565
  0
VERTEX
  5
1877
330
1871
100
AcDbEntity
  8
STAVBA OBRYS
100
AcDbVertex
100
AcDb2dVertex
 10
-103.0694723335021
 20
73.41584754208998
 30
0.0
 42
-0.0322692699774654
  0
VERTEX
  5
1878
330
1871
100
AcDbEntity
  8
STAVBA OBRYS
100
AcDbVertex
100
AcDb2dVertex
 10
-105.9608265145928
 20
72.37432404068932
 30
0.0
 42
-0.0276160659512937
  0
VERTEX
  5
1879
330
1871
100
AcDbEntity
  8
STAVBA OBRYS
100
AcDbVertex
100
AcDb2dVertex
 10
-106.8164029528801
 20
72.1775886117448
 30
0.0
 42
-0.0126891984598699
  0
VERTEX
  5
187A
330
1871
100
AcDbEntity
  8
STAVBA OBRYS
100
AcDbVertex
100
AcDb2dVertex
 10
-107.7395713486715
 20
72.04238622220327
 30
0.0
  0
SEQEND
  5
187B
330
1871
100
AcDbEntity
  8
STAVBA OBRYS
  0
LWPOLYLINE
  5
187C
330
1F
100
AcDbEntity
  8
STAVBA OBRYS
100
AcDbPolyline
 90
        7
 70
     0
 43
0.0
 10
-103.2248028689886
 20
80.57452041286524
 42
-0.0203924744732807
 10
-104.1268868533974
 20
79.56139038371111
 42
-0.0273961979096945
 10
-104.9767512035927
 20
78.77321400968503
 42
-0.0243529190212958
 10
-106.1398716960124
 20
77.8994546650174
 42
-0.0398020282482987
 10
-106.9148302335728
 20
77.45982592157088
 42
-0.104168275620852
 10
-107.3012413699128
 20
77.36980946139374
 42
-0.007272956268647
 10
-107.7395713486715
 20
77.351356110099
 42
-0.007272956268647
  0
POLYLINE
  5
187D
330
1F
100
AcDbEntity
  8
STAVBA OBRYS
100
AcDb2dPolyline
 66
     1
 10
0.0
 20
0.0
 30
0.0
  0
VERTEX
  5
187E
330
187D
100
AcDbEntity
  8
STAVBA OBRYS
100
AcDbVertex
100
AcDb2dVertex
 10
-90.64706551373308
 20
80.57452041286342
 30
0.0
 42
-0.0072417954699014
  0
VERTEX
  5
187F
330
187D
100
AcDbEntity
  8
STAVBA OBRYS
100
AcDbVertex
100
AcDb2dVertex
 10
-90.70263588157684
 20
80.16311520158888
 30
0.0
 42
-0.0707158694326265
  0
VERTEX
  5
1880
330
187D
100
AcDbEntity
  8
STAVBA OBRYS
100
AcDbVertex
100
AcDb2dVertex
 10
-91.23376239799688
 20
78.2270117489952
 30
0.0
 42
-0.033952657250207
  0
VERTEX
  5
1881
330
187D
100
AcDbEntity
  8
STAVBA OBRYS
100
AcDbVertex
100
AcDb2dVertex
 10
-93.48241823740535
 20
73.87397402382157
 30
0.0
 42
-0.0571374688189033
  0
VERTEX
  5
1882
330
187D
100
AcDbEntity
  8
STAVBA OBRYS
100
AcDbVertex
100
AcDb2dVertex
 10
-95.26857499725736
 20
71.56704974013519
 30
0.0
 42
-0.0274923553235744
  0
VERTEX
  5
1883
330
187D
100
AcDbEntity
  8
STAVBA OBRYS
100
AcDbVertex
100
AcDb2dVertex
 10
-97.86588072781013
 20
69.18197441700067
 30
0.0
 42
-0.0255412025538677
  0
VERTEX
  5
1884
330
187D
100
AcDbEntity
  8
STAVBA OBRYS
100
AcDbVertex
100
AcDb2dVertex
 10
-100.9173107655209
 20
66.92526073998124
 30
0.0
 42
-0.0272796991712396
  0
VERTEX
  5
1885
330
187D
100
AcDbEntity
  8
STAVBA OBRYS
100
AcDbVertex
100
AcDb2dVertex
 10
-105.0303099187061
 20
64.508924858319
 30
0.0
 42
-0.056967459841729
  0
VERTEX
  5
1886
330
187D
100
AcDbEntity
  8
STAVBA OBRYS
100
AcDbVertex
100
AcDb2dVertex
 10
-107.1712571994379
 20
63.69618902311959
 30
0.0
 42
-0.0373408083348504
  0
VERTEX
  5
1887
330
187D
100
AcDbEntity
  8
STAVBA OBRYS
100
AcDbVertex
100
AcDb2dVertex
 10
-107.3936115749114
 20
63.65702348216837
 30
0.0
 42
-0.0052305969362967
  0
VERTEX
  5
1888
330
187D
100
AcDbEntity
  8
STAVBA OBRYS
100
AcDbVertex
100
AcDb2dVertex
 10
-107.7395713486715
 20
63.62606651526403
 30
0.0
  0
SEQEND
  5
1889
330
187D
100
AcDbEntity
  8
STAVBA OBRYS
  0
LWPOLYLINE
  5
188A
330
1F
100
AcDbEntity
  8
STAVBA OBRYS
100
AcDbPolyline
 90
        3
 70
     0
 43
0.0
 10
-81.738596265723
 20
74.07535084361007
 10
-61.74234383373039
 20
64.8593217930902
 10
-57.74240620001581
 20
64.21392431774802
  0
LWPOLYLINE
  5
188B
330
1F
100
AcDbEntity
  8
STAVBA OBRYS
100
AcDbPolyline
 90
       10
 70
     0
 43
0.0
 10
-83.69728749004787
 20
80.57452041286524
 42
-0.0168162630274194
 10
-83.83231306911183
 20
78.88348226074595
 42
-0.0575155827655532
 10
-84.51234534945468
 20
75.78385760002857
 42
-0.0310289133982999
 10
-87.51514669428287
 20
68.53883007538389
 42
-0.0882970623535771
 10
-89.15236861437586
 20
66.29846102458396
 42
-0.0171636441953577
 10
-91.96573267623387
 20
63.78454366933874
 42
-0.0157521173632038
 10
-95.20458751327021
 20
61.25304761683219
 42
-0.0073640874174249
 10
-99.83823686959148
 20
57.9646461910961
 42
-0.0194185739168057
 10
-101.660280189268
 20
56.81307719181496
 42
-0.0567960585128809
 10
-107.7395713486715
 20
54.16121298643884
 42
-0.0229547400386702
  0
LWPOLYLINE
  5
188C
330
1F
100
AcDbEntity
  8
STAVBA OBRYS
100
AcDbPolyline
 90
        3
 70
     0
 43
0.0
 10
-101.031173890968
 20
75.05718971734677
 10
-84.27595627124025
 20
66.67344884937847
 10
-76.10885162211559
 20
58.49214714828121
  0
HATCH
  5
188D
330
1F
100
AcDbEntity
  8
izolace
100
AcDbHatch
 10
0.0
 20
0.0
 30
0.0
210
0.0
220
0.0
230
1.0
  2
SOLID
 70
     1
 71
     0
 91
       10
 92
        7
 72
     0
 73
     1
 93
        4
 10
-57.73957134867339
 20
83.57452041286434
 10
-61.66399235609276
 20
83.57452041286434
 10
-61.66399235609276
 20
80.57452041286524
 10
-57.73957134867339
 20
80.57452041286524
 97
        0
 92
        7
 72
     0
 73
     1
 93
        9
 10
-74.10593725786236
 20
83.57452041286434
 10
-79.50279651524613
 20
83.57452041286434
 10
-79.19510952555754
 20
83.4711324892096
 10
-78.82501118203379
 20
83.25691300342441
 10
-79.19510952556118
 20
82.88681465803074
 10
-79.85417628202083
 20
83.10827200192397
 10
-79.85417628202083
 20
80.6344164136026
 10
-79.67604508420151
 20
80.57452041286524
 10
-74.10593725786327
 20
80.57452041286524
 97
        0
 92
        7
 72
     0
 73
     1
 93
        9
 10
-82.49955904150226
 20
83.57452041286434
 10
-87.9218550716672
 20
83.57452041286434
 10
-87.9218550716672
 20
80.57452041286524
 10
-82.49955904150226
 20
80.57452041286524
 10
-82.49955904150226
 20
80.93959940881905
 10
-83.15862579795737
 20
81.16120833198783
 10
-83.52872414576665
 20
81.37542781777574
 10
-83.15862579796192
 20
81.74552616344135
 10
-82.49955904150226
 20
81.52391724027166
 97
        0
 92
        7
 72
     0
 73
     1
 93
        5
 10
-79.85417628202083
 20
83.10827200192306
 10
-81.24175197719649
 20
83.57452041286434
 10
-82.49955904150136
 20
83.57452041286434
 10
-82.49955904150136
 20
81.52391724027074
 10
-79.85417628202083
 20
80.63441641360169
 97
        0
 92
        7
 72
     0
 73
     1
 93
        4
 10
-80.09544081950151
 20
83.57452041286434
 10
-81.24175197719466
 20
83.57452041286524
 10
-79.19510952556118
 20
82.88681465802893
 10
-78.8250111820347
 20
83.25691300342441
 97
        0
 92
       23
 72
     0
 73
     1
 93
        4
 10
-79.5027965152434
 20
83.57452041286434
 10
-80.09544081950696
 20
83.57452041286434
 10
-78.8250111820347
 20
83.2569130034226
 10
-79.195109525563
 20
83.47113248921141
 97
        0
 92
        7
 72
     0
 73
     1
 93
        4
 10
-83.15862579796101
 20
81.74552616343953
 10
-83.52872414576575
 20
81.37542781777483
 10
-80.32509452612918
 20
80.57452041286524
 10
-79.67604508420425
 20
80.57452041286524
 97
        0
 92
        7
 72
     0
 73
     1
 93
        4
 10
-83.5287241457703
 20
81.37542781777666
 10
-83.15862579795828
 20
81.16120833198875
 10
-81.41381111097542
 20
80.57452041286524
 10
-80.32509452612828
 20
80.57452041286524
 97
        0
 92
       23
 72
     0
 73
     1
 93
        3
 10
-82.49955904150226
 20
80.93959940881996
 10
-82.49955904150226
 20
80.57452041286524
 10
-81.41381111098178
 20
80.57452041286524
 97
        0
 92
        7
 72
     0
 73
     1
 93
        4
 10
-101.4080465664986
 20
83.57452041286434
 10
-107.7395713486734
 20
83.57452041286434
 10
-107.7395713486734
 20
80.57452041286524
 10
-101.4080465664977
 20
80.57452041286614
 97
        0
 75
     0
 76
     1
 47
0.0980096762587744
 98
       10
 10
-60.03081933670762
 20
82.69296699999904
 10
-75.83361709956659
 20
81.94091411103727
 10
-84.95958430903044
 20
81.97751697068452
 10
-81.41566340926363
 20
81.92217653348052
 10
-80.04811741414812
 20
83.27710301220941
 10
-79.48673896209436
 20
83.49314711367696
 10
-81.79606894092501
 20
81.09366359214618
 10
-81.5578200164731
 20
80.78227088653875
 10
-82.21761240333433
 20
80.74563447706532
 10
-105.2632057819522
 20
81.81656168272821
  0
LWPOLYLINE
  5
188E
330
1F
100
AcDbEntity
  8
izolace
100
AcDbPolyline
 90
        4
 70
     1
 43
0.0
 10
-57.73957134867339
 20
80.57452041286524
 10
-107.7395713486734
 20
80.57452041286524
 10
-107.7395713486734
 20
83.57452041286434
 10
-57.73957134867339
 20
83.57452041286434
  0
LINE
  5
188F
330
1F
100
AcDbEntity
  8
SPOJOVACÍ
  6
DASHED
100
AcDbLine
 10
-83.15862579796192
 20
100.0039736225498
 30
0.0
 11
-79.19510952556118
 21
98.67125494954962
 31
0.0
  0
LINE
  5
1890
330
1F
100
AcDbEntity
  8
SPOJOVACÍ
  6
DASHED
100
AcDbLine
 10
-83.15862579796192
 20
99.41965579136923
 30
0.0
 11
-79.19510952556118
 21
98.08693711809793
 31
0.0
  0
LINE
  5
1891
330
1F
100
AcDbEntity
  8
SPOJOVACÍ
  6
DASHED
100
AcDbLine
 10
-78.8250111820347
 20
98.45703546376354
 30
0.0
 11
-79.19510952556118
 21
98.67125494954962
 31
0.0
  0
LINE
  5
1892
330
1F
100
AcDbEntity
  8
SPOJOVACÍ
  6
DASHED
100
AcDbLine
 10
-78.8250111820347
 20
98.45703546376354
 30
0.0
 11
-79.19510952556118
 21
98.08693711809793
 31
0.0
  0
LINE
  5
1893
330
1F
100
AcDbEntity
  8
SPOJOVACÍ
  6
DASHED
100
AcDbLine
 10
-83.52872414576665
 20
99.63296370469652
 30
0.0
 11
-83.15862579796192
 21
100.0039736225498
 31
0.0
  0
LINE
  5
1894
330
1F
100
AcDbEntity
  8
SPOJOVACÍ
  6
DASHED
100
AcDbLine
 10
-83.52872414576665
 20
99.63296370469652
 30
0.0
 11
-83.15862579796192
 21
99.41965579136923
 31
0.0
  0
LINE
  5
1895
330
1F
100
AcDbEntity
  8
SPOJOVACÍ
  6
DASHED
100
AcDbLine
 10
-83.52872414576665
 20
99.63296370469652
 30
0.0
 11
-78.8250111820347
 21
98.45703546376354
 31
0.0
  0
LINE
  5
1896
330
1F
100
AcDbEntity
  8
SPOJOVACÍ
  6
DASHED
100
AcDbLine
 10
-79.85417628202083
 20
98.31391861584599
 30
0.0
 11
-79.85417628202083
 21
95.84538088191767
 31
0.0
  0
LINE
  5
1897
330
1F
100
AcDbEntity
  8
SPOJOVACÍ
  6
DASHED
100
AcDbLine
 10
-82.49955904150226
 20
99.20908259460521
 30
0.0
 11
-82.49955904150226
 21
96.74054486067689
 31
0.0
  0
LINE
  5
1898
330
1F
100
AcDbEntity
  8
SPOJOVACÍ
  6
DASHED
100
AcDbLine
 10
-79.85417628202083
 20
92.21841524701449
 30
0.0
 11
-79.85417628202083
 21
89.74076179040276
 31
0.0
  0
LINE
  5
1899
330
1F
100
AcDbEntity
  8
SPOJOVACÍ
  6
DASHED
100
AcDbLine
 10
-82.49955904150226
 20
93.10628664773686
 30
0.0
 11
-82.49955904150226
 21
90.63592576916198
 31
0.0
  0
LINE
  5
189A
330
1F
100
AcDbEntity
  8
SPOJOVACÍ
  6
DASHED
100
AcDbLine
 10
-82.49955904150226
 20
96.16643479115374
 30
0.0
 11
-82.49955904150226
 21
93.69789705722542
 31
0.0
  0
LINE
  5
189B
330
1F
100
AcDbEntity
  8
SPOJOVACÍ
  6
DASHED
100
AcDbLine
 10
-79.85417628202083
 20
95.2712708123945
 30
0.0
 11
-79.85417628202083
 21
92.80273307846618
 31
0.0
  0
LINE
  5
189C
330
1F
100
AcDbEntity
  8
SPOJOVACÍ
  6
DASHED
100
AcDbLine
 10
-83.52872414576665
 20
96.59031590124506
 30
0.0
 11
-78.8250111820347
 21
95.41438766031205
 31
0.0
  0
LINE
  5
189D
330
1F
100
AcDbEntity
  8
SPOJOVACÍ
  6
DASHED
100
AcDbLine
 10
-83.52872414576665
 20
96.59031590124506
 30
0.0
 11
-83.15862579796192
 21
96.37700798791776
 31
0.0
  0
LINE
  5
189E
330
1F
100
AcDbEntity
  8
SPOJOVACÍ
  6
DASHED
100
AcDbLine
 10
-83.52872414576665
 20
96.59031590124506
 30
0.0
 11
-83.15862579796192
 21
96.96132581909843
 31
0.0
  0
LINE
  5
189F
330
1F
100
AcDbEntity
  8
SPOJOVACÍ
  6
DASHED
100
AcDbLine
 10
-78.8250111820347
 20
95.41438766031205
 30
0.0
 11
-79.19510952556118
 21
95.04428931464644
 31
0.0
  0
LINE
  5
18A0
330
1F
100
AcDbEntity
  8
SPOJOVACÍ
  6
DASHED
100
AcDbLine
 10
-78.8250111820347
 20
95.41438766031205
 30
0.0
 11
-79.19510952556118
 21
95.62860714609815
 31
0.0
  0
LINE
  5
18A1
330
1F
100
AcDbEntity
  8
SPOJOVACÍ
  6
DASHED
100
AcDbLine
 10
-83.15862579796192
 20
96.37700798791776
 30
0.0
 11
-79.19510952556118
 21
95.04428931464644
 31
0.0
  0
LINE
  5
18A2
330
1F
100
AcDbEntity
  8
SPOJOVACÍ
  6
DASHED
100
AcDbLine
 10
-83.15862579796192
 20
96.96132581909843
 30
0.0
 11
-79.19510952556118
 21
95.62860714609815
 31
0.0
  0
LINE
  5
18A3
330
1F
100
AcDbEntity
  8
SPOJOVACÍ
  6
DASHED
100
AcDbLine
 10
-83.52872414576665
 20
93.53290247466247
 30
0.0
 11
-78.8250111820347
 21
92.35697423345845
 31
0.0
  0
LINE
  5
18A4
330
1F
100
AcDbEntity
  8
SPOJOVACÍ
  6
DASHED
100
AcDbLine
 10
-83.52872414576665
 20
93.53290247466247
 30
0.0
 11
-83.15862579796192
 21
93.3186829888764
 31
0.0
  0
LINE
  5
18A5
330
1F
100
AcDbEntity
  8
SPOJOVACÍ
  6
DASHED
100
AcDbLine
 10
-83.52872414576665
 20
93.53290247466247
 30
0.0
 11
-83.15862579796192
 21
93.90300082032808
 31
0.0
  0
LINE
  5
18A6
330
1F
100
AcDbEntity
  8
SPOJOVACÍ
  6
DASHED
100
AcDbLine
 10
-78.8250111820347
 20
92.35697423345845
 30
0.0
 11
-79.19510952556118
 21
91.98687588806388
 31
0.0
  0
LINE
  5
18A7
330
1F
100
AcDbEntity
  8
SPOJOVACÍ
  6
DASHED
100
AcDbLine
 10
-78.8250111820347
 20
92.35697423345845
 30
0.0
 11
-79.19510952556118
 21
92.57119371924455
 31
0.0
  0
LINE
  5
18A8
330
1F
100
AcDbEntity
  8
SPOJOVACÍ
  6
DASHED
100
AcDbLine
 10
-83.15862579796192
 20
93.3186829888764
 30
0.0
 11
-79.19510952556118
 21
91.98687588806388
 31
0.0
  0
LINE
  5
18A9
330
1F
100
AcDbEntity
  8
SPOJOVACÍ
  6
DASHED
100
AcDbLine
 10
-83.15862579796192
 20
93.90300082032808
 30
0.0
 11
-79.19510952556118
 21
92.57119371924455
 31
0.0
  0
INSERT
  5
18AA
330
1F
100
AcDbEntity
  8
POPIS
100
AcDbBlockReference
  2
E_PUNKT
 10
-118.2975512228189
 20
57.9722516792126
 30
0.0
 50
270.0
  0
INSERT
  5
18AB
330
1F
100
AcDbEntity
  8
POPIS
100
AcDbBlockReference
  2
E_PUNKT
 10
20.6719876389867
 20
111.4835337402992
 30
0.0
 50
270.0
  0
LINE
  5
18AC
330
1F
100
AcDbEntity
  8
POPIS
100
AcDbLine
 10
20.7010559698607
 20
176.8679791660524
 30
0.0
 11
20.7010559698607
 21
111.4559233646723
 31
0.0
  0
LINE
  5
18AD
330
1F
100
AcDbEntity
  8
POPIS
100
AcDbLine
 10
-118.2092094500297
 20
126.6165404851181
 30
0.0
 11
-42.5166958704616
 21
176.8679791660524
 31
0.0
  0
TEXT
  5
18AE
330
1F
100
AcDbEntity
  8
POPIS
100
AcDbText
 10
-57.36117979215157
 20
185.7173402387761
 30
0.0
 40
25.0
  1
01
 41
0.85
  7
SIMPLEX7
100
AcDbText
  0
LINE
  5
18AF
330
1F
100
AcDbEntity
  8
nášlap_vrstvy
100
AcDbLine
 10
-95.17027421117779
 20
118.0970728656902
 30
0.0
 11
-91.97382330833022
 21
114.9006219628463
 31
0.0
  0
LINE
  5
18B0
330
1F
100
AcDbEntity
  8
nášlap_vrstvy
100
AcDbLine
 10
-121.9738233083302
 20
144.9006219628463
 30
0.0
 11
-118.2092094500297
 21
141.136008104544
 31
0.0
  0
LINE
  5
18B1
330
1F
100
AcDbEntity
  8
nášlap_vrstvy
100
AcDbLine
 10
-118.2092094500297
 20
141.1360081045468
 30
0.0
 11
-118.2092094500297
 21
118.0970728656902
 31
0.0
  0
LINE
  5
18B2
330
1F
100
AcDbEntity
  8
nášlap_vrstvy
100
AcDbLine
 10
-121.9738233083302
 20
114.9006219628463
 30
0.0
 11
-121.9738233083302
 21
144.9006219628463
 31
0.0
  0
LINE
  5
18B3
330
1F
100
AcDbEntity
  8
nášlap_vrstvy
100
AcDbLine
 10
-95.17027421117779
 20
118.0970728656902
 30
0.0
 11
-118.2092094500297
 21
118.0970728656902
 31
0.0
  0
LINE
  5
18B4
330
1F
100
AcDbEntity
  8
nášlap_vrstvy
100
AcDbLine
 10
-121.9738233083302
 20
114.9006219628463
 30
0.0
 11
-91.97382330833022
 21
114.9006219628463
 31
0.0
  0
LINE
  5
18B5
330
1F
100
AcDbEntity
  8
SPOJOVACÍ
  6
DASHED
100
AcDbLine
 10
-79.03102651679034
 20
103.9856603470689
 30
0.0
 11
-78.09210706820556
 21
105.1688811663098
 31
0.0
  0
LINE
  5
18B6
330
1F
100
AcDbEntity
  8
SPOJOVACÍ
  6
DASHED
100
AcDbLine
 10
-79.63175264895506
 20
102.6000704815596
 30
0.0
 11
-79.03102651679034
 21
103.9856603470689
 31
0.0
  0
LINE
  5
18B7
330
1F
100
AcDbEntity
  8
SPOJOVACÍ
  6
DASHED
100
AcDbLine
 10
-79.85417628202083
 20
101.106915087199
 30
0.0
 11
-79.63175264895506
 21
102.6000704815596
 31
0.0
  0
LINE
  5
18B8
330
1F
100
AcDbEntity
  8
SPOJOVACÍ
  6
DASHED
100
AcDbLine
 10
-76.17871685303942
 20
107.5745204128652
 30
0.0
 11
-76.17871685303942
 21
106.3985921716684
 31
0.0
  0
LINE
  5
18B9
330
1F
100
AcDbEntity
  8
SPOJOVACÍ
  6
DASHED
100
AcDbLine
 10
-86.17501847476194
 20
107.5745204128652
 30
0.0
 11
-76.17871685303942
 21
107.5745204128652
 31
0.0
  0
LINE
  5
18BA
330
1F
100
AcDbEntity
  8
SPOJOVACÍ
  6
DASHED
100
AcDbLine
 10
-86.17501847476194
 20
107.5745204128652
 30
0.0
 11
-86.17501847476194
 21
106.3985921716684
 31
0.0
  0
LINE
  5
18BB
330
1F
100
AcDbEntity
  8
SPOJOVACÍ
  6
DASHED
100
AcDbLine
 10
-86.17501847476194
 20
106.3985921716684
 30
0.0
 11
-76.17871685303942
 21
106.3985921716684
 31
0.0
  0
LINE
  5
18BC
330
1F
100
AcDbEntity
  8
SPOJOVACÍ
  6
DASHED
100
AcDbLine
 10
-76.87971593548389
 20
106.0686030065426
 30
0.0
 11
-76.17871685303942
 21
106.3985921716684
 31
0.0
  0
LINE
  5
18BD
330
1F
100
AcDbEntity
  8
SPOJOVACÍ
  6
DASHED
100
AcDbLine
 10
-78.09210706820556
 20
105.1688811663098
 30
0.0
 11
-76.87971593548389
 21
106.0686030065426
 31
0.0
  0
LINE
  5
18BE
330
1F
100
AcDbEntity
  8
SPOJOVACÍ
  6
DASHED
100
AcDbLine
 10
-82.56428067378545
 20
101.878105235859
 30
0.0
 11
-82.49955904150226
 21
101.106915087199
 31
0.0
  0
LINE
  5
18BF
330
1F
100
AcDbEntity
  8
SPOJOVACÍ
  6
DASHED
100
AcDbLine
 10
-82.98360392079883
 20
103.3293283055682
 30
0.0
 11
-82.56428067378545
 21
101.878105235859
 31
0.0
  0
LINE
  5
18C0
330
1F
100
AcDbEntity
  8
SPOJOVACÍ
  6
DASHED
100
AcDbLine
 10
-83.76390979053065
 20
104.6219377982997
 30
0.0
 11
-82.98360392079883
 21
103.3293283055682
 31
0.0
  0
LINE
  5
18C1
330
1F
100
AcDbEntity
  8
SPOJOVACÍ
  6
DASHED
100
AcDbLine
 10
-84.8523270928821
 20
105.6693343479237
 30
0.0
 11
-83.76390979053065
 21
104.6219377982997
 31
0.0
  0
LINE
  5
18C2
330
1F
100
AcDbEntity
  8
SPOJOVACÍ
  6
DASHED
100
AcDbLine
 10
-86.17501847476194
 20
106.3985921716684
 30
0.0
 11
-84.8523270928821
 21
105.6693343479237
 31
0.0
  0
LINE
  5
18C3
330
1F
100
AcDbEntity
  8
SPOJOVACÍ
  6
DASHED
100
AcDbLine
 10
-79.85417628202083
 20
101.1069150872008
 30
0.0
 11
-79.85417628202083
 21
98.89286387271932
 31
0.0
  0
LINE
  5
18C4
330
1F
100
AcDbEntity
  8
SPOJOVACÍ
  6
DASHED
100
AcDbLine
 10
-82.53191985764386
 20
101.492510161529
 30
0.0
 11
-82.49955904150226
 21
99.78236469938202
 31
0.0
  0
LINE
  5
18C5
330
1F
100
AcDbEntity
  8
SPOJOVACÍ
  6
DASHED
100
AcDbLine
 10
-82.49955904150226
 20
90.06637356111969
 30
0.0
 11
-82.49955904150226
 21
87.59783582719137
 31
0.0
  0
LINE
  5
18C6
330
1F
100
AcDbEntity
  8
SPOJOVACÍ
  6
DASHED
100
AcDbLine
 10
-82.49955904150226
 20
87.00622541770281
 30
0.0
 11
-82.49955904150226
 21
84.53586453912794
 31
0.0
  0
LINE
  5
18C7
330
1F
100
AcDbEntity
  8
SPOJOVACÍ
  6
DASHED
100
AcDbLine
 10
-82.49955904150226
 20
83.9533698523228
 30
0.0
 11
-82.49955904150226
 21
81.47571639571106
 31
0.0
  0
LINE
  5
18C8
330
1F
100
AcDbEntity
  8
SPOJOVACÍ
  6
DASHED
100
AcDbLine
 10
-79.85417628202083
 20
89.17120958236045
 30
0.0
 11
-79.85417628202083
 21
86.70267184843215
 31
0.0
  0
LINE
  5
18C9
330
1F
100
AcDbEntity
  8
SPOJOVACÍ
  6
DASHED
100
AcDbLine
 10
-79.85417628202083
 20
86.11835401698044
 30
0.0
 11
-79.85417628202083
 21
83.64070056036871
 31
0.0
  0
LINE
  5
18CA
330
1F
100
AcDbEntity
  8
SPOJOVACÍ
  6
DASHED
100
AcDbLine
 10
-79.85417628202083
 20
83.05820587356356
 30
0.0
 11
-79.85417628202083
 21
80.58784499498869
 31
0.0
  0
LINE
  5
18CB
330
1F
100
AcDbEntity
  8
SPOJOVACÍ
  6
DASHED
100
AcDbLine
 10
-82.49955904150226
 20
80.88319441377098
 30
0.0
 11
-82.49955904150226
 21
78.41556825203042
 31
0.0
  0
LINE
  5
18CC
330
1F
100
AcDbEntity
  8
SPOJOVACÍ
  6
DASHED
100
AcDbLine
 10
-82.49955904150226
 20
77.83125042057872
 30
0.0
 11
-82.49955904150226
 21
76.60883199352793
 31
0.0
  0
LINE
  5
18CD
330
1F
100
AcDbEntity
  8
SPOJOVACÍ
  6
DASHED
100
AcDbLine
 10
-79.85417628202083
 20
79.99896930233444
 30
0.0
 11
-79.85417628202083
 21
77.53043156840613
 31
0.0
  0
LINE
  5
18CE
330
1F
100
AcDbEntity
  8
SPOJOVACÍ
  6
DASHED
100
AcDbLine
 10
-79.85417628202083
 20
76.93882115865381
 30
0.0
 11
-79.85417628202083
 21
76.60883199352793
 31
0.0
  0
LINE
  5
18CF
330
1F
100
AcDbEntity
  8
SPOJOVACÍ
  6
DASHED
100
AcDbLine
 10
-82.49955904150226
 20
76.60883199352793
 30
0.0
 11
-82.35279590483367
 21
75.43563846915822
 31
0.0
  0
LINE
  5
18D0
330
1F
100
AcDbEntity
  8
SPOJOVACÍ
  6
DASHED
100
AcDbLine
 10
-81.17686766390068
 20
66.02456625187369
 30
0.0
 11
-80.8295586223943
 21
68.80395013311681
 31
0.0
  0
LINE
  5
18D1
330
1F
100
AcDbEntity
  8
SPOJOVACÍ
  6
DASHED
100
AcDbLine
 10
-82.27713540415823
 20
74.82761975842186
 30
0.0
 11
-81.99272485162907
 21
72.55233534807849
 31
0.0
  0
LINE
  5
18D2
330
1F
100
AcDbEntity
  8
SPOJOVACÍ
  6
DASHED
100
AcDbLine
 10
-81.91524120764768
 20
71.93428934220719
 30
0.0
 11
-81.63083065939678
 21
69.65991650405886
 31
0.0
  0
LINE
  5
18D3
330
1F
100
AcDbEntity
  8
SPOJOVACÍ
  6
DASHED
100
AcDbLine
 10
-81.55517015872135
 20
69.0518977933225
 30
0.0
 11
-81.17686766390068
 21
66.02456625187369
 31
0.0
  0
LINE
  5
18D4
330
1F
100
AcDbEntity
  8
SPOJOVACÍ
  6
DASHED
100
AcDbLine
 10
-80.75936755591499
 20
69.36183236844226
 30
0.0
 11
-80.49683474017035
 21
71.46391804572704
 31
0.0
  0
LINE
  5
18D5
330
1F
100
AcDbEntity
  8
SPOJOVACÍ
  6
DASHED
100
AcDbLine
 10
-80.4266436779693
 20
72.0245349978868
 30
0.0
 11
-80.16502243173851
 21
74.1184165246832
 31
0.0
  0
LINE
  5
18D6
330
1F
100
AcDbEntity
  8
SPOJOVACÍ
  6
DASHED
100
AcDbLine
 10
-80.0948313652592
 20
74.67721033246744
 30
0.0
 11
-79.85417628202083
 21
76.60883199352793
 31
0.0
  0
LINE
  5
18D7
330
1F
100
AcDbEntity
  8
SPOJOVACÍ
  6
DASHED
100
AcDbLine
 10
-83.52872414576665
 20
90.49025467121101
 30
0.0
 11
-78.8250111820347
 21
89.31432643027802
 31
0.0
  0
LINE
  5
18D8
330
1F
100
AcDbEntity
  8
SPOJOVACÍ
  6
DASHED
100
AcDbLine
 10
-83.52872414576665
 20
90.49025467121101
 30
0.0
 11
-83.15862579796192
 21
90.27694675788371
 31
0.0
  0
LINE
  5
18D9
330
1F
100
AcDbEntity
  8
SPOJOVACÍ
  6
DASHED
100
AcDbLine
 10
-83.52872414576665
 20
90.49025467121101
 30
0.0
 11
-83.15862579796192
 21
90.86126458906438
 31
0.0
  0
LINE
  5
18DA
330
1F
100
AcDbEntity
  8
SPOJOVACÍ
  6
DASHED
100
AcDbLine
 10
-78.8250111820347
 20
89.31432643027802
 30
0.0
 11
-79.19510952556118
 21
88.94422808461241
 31
0.0
  0
LINE
  5
18DB
330
1F
100
AcDbEntity
  8
SPOJOVACÍ
  6
DASHED
100
AcDbLine
 10
-78.8250111820347
 20
89.31432643027802
 30
0.0
 11
-79.19510952556118
 21
89.5285459160641
 31
0.0
  0
LINE
  5
18DC
330
1F
100
AcDbEntity
  8
SPOJOVACÍ
  6
DASHED
100
AcDbLine
 10
-83.15862579796192
 20
90.27694675788371
 30
0.0
 11
-79.19510952556118
 21
88.94422808461241
 31
0.0
  0
LINE
  5
18DD
330
1F
100
AcDbEntity
  8
SPOJOVACÍ
  6
DASHED
100
AcDbLine
 10
-83.15862579796192
 20
90.86126458906438
 30
0.0
 11
-79.19510952556118
 21
89.5285459160641
 31
0.0
  0
LINE
  5
18DE
330
1F
100
AcDbEntity
  8
SPOJOVACÍ
  6
DASHED
100
AcDbLine
 10
-83.52872414576665
 20
87.43284124462844
 30
0.0
 11
-78.8250111820347
 21
86.25691300342442
 31
0.0
  0
LINE
  5
18DF
330
1F
100
AcDbEntity
  8
SPOJOVACÍ
  6
DASHED
100
AcDbLine
 10
-83.52872414576665
 20
87.43284124462844
 30
0.0
 11
-83.15862579796192
 21
87.21862175884234
 31
0.0
  0
LINE
  5
18E0
330
1F
100
AcDbEntity
  8
SPOJOVACÍ
  6
DASHED
100
AcDbLine
 10
-83.52872414576665
 20
87.43284124462844
 30
0.0
 11
-83.15862579796192
 21
87.80293959029405
 31
0.0
  0
LINE
  5
18E1
330
1F
100
AcDbEntity
  8
SPOJOVACÍ
  6
DASHED
100
AcDbLine
 10
-78.8250111820347
 20
86.25691300342442
 30
0.0
 11
-79.19510952556118
 21
85.88681465802983
 31
0.0
  0
LINE
  5
18E2
330
1F
100
AcDbEntity
  8
SPOJOVACÍ
  6
DASHED
100
AcDbLine
 10
-78.8250111820347
 20
86.25691300342442
 30
0.0
 11
-79.19510952556118
 21
86.4711324892105
 31
0.0
  0
LINE
  5
18E3
330
1F
100
AcDbEntity
  8
SPOJOVACÍ
  6
DASHED
100
AcDbLine
 10
-83.15862579796192
 20
87.21862175884234
 30
0.0
 11
-79.19510952556118
 21
85.88681465802983
 31
0.0
  0
LINE
  5
18E4
330
1F
100
AcDbEntity
  8
SPOJOVACÍ
  6
DASHED
100
AcDbLine
 10
-83.15862579796192
 20
87.80293959029405
 30
0.0
 11
-79.19510952556118
 21
86.4711324892105
 31
0.0
  0
LINE
  5
18E5
330
1F
100
AcDbEntity
  8
SPOJOVACÍ
  6
DASHED
100
AcDbLine
 10
-83.27986491123409
 20
75.24420829047631
 30
0.0
 11
-82.90885499391549
 21
75.02998880469021
 31
0.0
  0
LINE
  5
18E6
330
1F
100
AcDbEntity
  8
SPOJOVACÍ
  6
DASHED
100
AcDbLine
 10
-83.27986491123409
 20
75.24420829047631
 30
0.0
 11
-82.90885499391549
 21
75.61430663614192
 31
0.0
  0
LINE
  5
18E7
330
1F
100
AcDbEntity
  8
SPOJOVACÍ
  6
DASHED
100
AcDbLine
 10
-79.23704185154599
 20
74.29070368581779
 30
0.0
 11
-79.60714019507247
 21
73.91969376769338
 31
0.0
  0
LINE
  5
18E8
330
1F
100
AcDbEntity
  8
SPOJOVACÍ
  6
DASHED
100
AcDbLine
 10
-79.23704185154599
 20
74.29070368581779
 30
0.0
 11
-79.60714019507247
 21
74.50401159914509
 31
0.0
  0
LINE
  5
18E9
330
1F
100
AcDbEntity
  8
SPOJOVACÍ
  6
DASHED
100
AcDbLine
 10
-82.90885499391549
 20
75.02998880469021
 30
0.0
 11
-79.60714019507247
 21
73.91969376769338
 31
0.0
  0
LINE
  5
18EA
330
1F
100
AcDbEntity
  8
SPOJOVACÍ
  6
DASHED
100
AcDbLine
 10
-82.90885499391549
 20
75.61430663614192
 30
0.0
 11
-79.60714019507247
 21
74.50401159914509
 31
0.0
  0
LINE
  5
18EB
330
1F
100
AcDbEntity
  8
SPOJOVACÍ
  6
DASHED
100
AcDbLine
 10
-83.27986491123409
 20
75.24420829047631
 30
0.0
 11
-79.23704185154599
 21
74.29070368581779
 31
0.0
  0
LINE
  5
18EC
330
1F
100
AcDbEntity
  8
SPOJOVACÍ
  6
DASHED
100
AcDbLine
 10
-82.72654053925032
 20
72.28980253126429
 30
0.0
 11
-82.35644219144559
 21
72.07649461793699
 31
0.0
  0
LINE
  5
18ED
330
1F
100
AcDbEntity
  8
SPOJOVACÍ
  6
DASHED
100
AcDbLine
 10
-82.72654053925032
 20
72.28980253126429
 30
0.0
 11
-82.35644219144559
 21
72.66081244938868
 31
0.0
  0
LINE
  5
18EE
330
1F
100
AcDbEntity
  8
SPOJOVACÍ
  6
DASHED
100
AcDbLine
 10
-79.67277340114776
 20
71.66902180882971
 30
0.0
 11
-80.04287174467425
 21
71.29801189097634
 31
0.0
  0
LINE
  5
18EF
330
1F
100
AcDbEntity
  8
SPOJOVACÍ
  6
DASHED
100
AcDbLine
 10
-79.67277340114776
 20
71.66902180882971
 30
0.0
 11
-80.04287174467425
 21
71.88232972215701
 31
0.0
  0
LINE
  5
18F0
330
1F
100
AcDbEntity
  8
SPOJOVACÍ
  6
DASHED
100
AcDbLine
 10
-82.35644219144559
 20
72.07649461793699
 30
0.0
 11
-80.04287174467425
 21
71.29801189097634
 31
0.0
  0
LINE
  5
18F1
330
1F
100
AcDbEntity
  8
SPOJOVACÍ
  6
DASHED
100
AcDbLine
 10
-82.35644219144559
 20
72.66081244938868
 30
0.0
 11
-80.04287174467425
 21
71.88232972215701
 31
0.0
  0
LINE
  5
18F2
330
1F
100
AcDbEntity
  8
SPOJOVACÍ
  6
DASHED
100
AcDbLine
 10
-82.72654053925032
 20
72.28980253126429
 30
0.0
 11
-79.67277340114776
 21
71.66902180882971
 31
0.0
  0
LINE
  5
18F3
330
1F
100
AcDbEntity
  8
SPOJOVACÍ
  6
DASHED
100
AcDbLine
 10
-82.1732161629883
 20
69.33630834451105
 30
0.0
 11
-81.80311781946182
 21
69.12208885873224
 31
0.0
  0
LINE
  5
18F4
330
1F
100
AcDbEntity
  8
SPOJOVACÍ
  6
DASHED
100
AcDbLine
 10
-82.1732161629883
 20
69.33630834451105
 30
0.0
 11
-81.80311781946182
 21
69.70640669017666
 31
0.0
  0
LINE
  5
18F5
330
1F
100
AcDbEntity
  8
SPOJOVACÍ
  6
DASHED
100
AcDbLine
 10
-80.0620147643607
 20
69.03184320305263
 30
0.0
 11
-80.43211310788718
 21
68.66083328519926
 31
0.0
  0
LINE
  5
18F6
330
1F
100
AcDbEntity
  8
SPOJOVACÍ
  6
DASHED
100
AcDbLine
 10
-80.0620147643607
 20
69.03184320305263
 30
0.0
 11
-80.43211310788718
 21
69.24515111664368
 31
0.0
  0
LINE
  5
18F7
330
1F
100
AcDbEntity
  8
SPOJOVACÍ
  6
DASHED
100
AcDbLine
 10
-81.80311781946182
 20
69.12208885873224
 30
0.0
 11
-80.43211310788718
 21
68.66083328519926
 31
0.0
  0
LINE
  5
18F8
330
1F
100
AcDbEntity
  8
SPOJOVACÍ
  6
DASHED
100
AcDbLine
 10
-81.80311781946182
 20
69.70640669017666
 30
0.0
 11
-80.43211310788718
 21
69.24515111664368
 31
0.0
  0
LINE
  5
18F9
330
1F
100
AcDbEntity
  8
SPOJOVACÍ
  6
DASHED
100
AcDbLine
 10
-82.1732161629883
 20
69.33630834451105
 30
0.0
 11
-80.0620147643607
 21
69.03184320305263
 31
0.0
  0
LINE
  5
18FA
330
1F
100
AcDbEntity
  8
SPOJOVACÍ
  6
DASHED
100
AcDbLine
 10
-83.52872414576665
 20
84.37542781777484
 30
0.0
 11
-78.8250111820347
 21
83.19949957684185
 31
0.0
  0
LINE
  5
18FB
330
1F
100
AcDbEntity
  8
SPOJOVACÍ
  6
DASHED
100
AcDbLine
 10
-83.52872414576665
 20
84.37542781777484
 30
0.0
 11
-83.15862579796192
 21
84.16120833198874
 31
0.0
  0
LINE
  5
18FC
330
1F
100
AcDbEntity
  8
SPOJOVACÍ
  6
DASHED
100
AcDbLine
 10
-83.52872414576665
 20
84.37542781777484
 30
0.0
 11
-83.15862579796192
 21
84.74552616344045
 31
0.0
  0
LINE
  5
18FD
330
1F
100
AcDbEntity
  8
SPOJOVACÍ
  6
DASHED
100
AcDbLine
 10
-78.8250111820347
 20
83.19949957684185
 30
0.0
 11
-79.19510952556118
 21
82.82848965898848
 31
0.0
  0
LINE
  5
18FE
330
1F
100
AcDbEntity
  8
SPOJOVACÍ
  6
DASHED
100
AcDbLine
 10
-78.8250111820347
 20
83.19949957684185
 30
0.0
 11
-79.19510952556118
 21
83.4128074904329
 31
0.0
  0
LINE
  5
18FF
330
1F
100
AcDbEntity
  8
SPOJOVACÍ
  6
DASHED
100
AcDbLine
 10
-83.15862579796192
 20
84.16120833198874
 30
0.0
 11
-79.19510952556118
 21
82.82848965898848
 31
0.0
  0
LINE
  5
1900
330
1F
100
AcDbEntity
  8
SPOJOVACÍ
  6
DASHED
100
AcDbLine
 10
-83.15862579796192
 20
84.74552616344045
 30
0.0
 11
-79.19510952556118
 21
83.4128074904329
 31
0.0
  0
LINE
  5
1901
330
1F
100
AcDbEntity
  8
SPOJOVACÍ
  6
DASHED
100
AcDbLine
 10
-83.52872414576665
 20
81.31801439118499
 30
0.0
 11
-78.8250111820347
 21
80.142086150252
 31
0.0
  0
LINE
  5
1902
330
1F
100
AcDbEntity
  8
SPOJOVACÍ
  6
DASHED
100
AcDbLine
 10
-83.52872414576665
 20
81.31801439118499
 30
0.0
 11
-83.15862579796192
 21
81.10379490540617
 31
0.0
  0
LINE
  5
1903
330
1F
100
AcDbEntity
  8
SPOJOVACÍ
  6
DASHED
100
AcDbLine
 10
-83.52872414576665
 20
81.31801439118499
 30
0.0
 11
-83.15862579796192
 21
81.6881127368506
 31
0.0
  0
LINE
  5
1904
330
1F
100
AcDbEntity
  8
SPOJOVACÍ
  6
DASHED
100
AcDbLine
 10
-78.8250111820347
 20
80.142086150252
 30
0.0
 11
-79.19510952556118
 21
79.77107623239863
 31
0.0
  0
LINE
  5
1905
330
1F
100
AcDbEntity
  8
SPOJOVACÍ
  6
DASHED
100
AcDbLine
 10
-78.8250111820347
 20
80.142086150252
 30
0.0
 11
-79.19510952556118
 21
80.3553940635793
 31
0.0
  0
LINE
  5
1906
330
1F
100
AcDbEntity
  8
SPOJOVACÍ
  6
DASHED
100
AcDbLine
 10
-83.15862579796192
 20
81.10379490540617
 30
0.0
 11
-79.19510952556118
 21
79.77107623239863
 31
0.0
  0
LINE
  5
1907
330
1F
100
AcDbEntity
  8
SPOJOVACÍ
  6
DASHED
100
AcDbLine
 10
-83.15862579796192
 20
81.6881127368506
 30
0.0
 11
-79.19510952556118
 21
80.3553940635793
 31
0.0
  0
LINE
  5
1908
330
1F
100
AcDbEntity
  8
SPOJOVACÍ
  6
DASHED
100
AcDbLine
 10
-83.52872414576665
 20
78.25968939214362
 30
0.0
 11
-78.8250111820347
 21
77.08376115121064
 31
0.0
  0
LINE
  5
1909
330
1F
100
AcDbEntity
  8
SPOJOVACÍ
  6
DASHED
100
AcDbLine
 10
-83.52872414576665
 20
78.25968939214362
 30
0.0
 11
-83.15862579796192
 21
78.04638147881632
 31
0.0
  0
LINE
  5
190A
330
1F
100
AcDbEntity
  8
SPOJOVACÍ
  6
DASHED
100
AcDbLine
 10
-83.52872414576665
 20
78.25968939214362
 30
0.0
 11
-83.15862579796192
 21
78.63069931026803
 31
0.0
  0
LINE
  5
190B
330
1F
100
AcDbEntity
  8
SPOJOVACÍ
  6
DASHED
100
AcDbLine
 10
-78.8250111820347
 20
77.08376115121064
 30
0.0
 11
-79.19510952556118
 21
76.71366280554503
 31
0.0
  0
LINE
  5
190C
330
1F
100
AcDbEntity
  8
SPOJOVACÍ
  6
DASHED
100
AcDbLine
 10
-78.8250111820347
 20
77.08376115121064
 30
0.0
 11
-79.19510952556118
 21
77.29798063699672
 31
0.0
  0
LINE
  5
190D
330
1F
100
AcDbEntity
  8
SPOJOVACÍ
  6
DASHED
100
AcDbLine
 10
-83.15862579796192
 20
78.04638147881632
 30
0.0
 11
-79.19510952556118
 21
76.71366280554503
 31
0.0
  0
LINE
  5
190E
330
1F
100
AcDbEntity
  8
SPOJOVACÍ
  6
DASHED
100
AcDbLine
 10
-83.15862579796192
 20
78.63069931026803
 30
0.0
 11
-79.19510952556118
 21
77.29798063699672
 31
0.0
  0
LINE
  5
190F
330
1F
100
AcDbEntity
  8
izolace
100
AcDbLine
 10
245.3140200097037
 20
45.2326576866617
 30
0.0
 11
473.3676113680809
 21
45.2326576866617
 31
0.0
  0
LINE
  5
1910
330
1F
100
AcDbEntity
  8
izolace
100
AcDbLine
 10
245.3140200097037
 20
75.87211972169098
 30
0.0
 11
473.3676113680809
 21
75.87211972169098
 31
0.0
  0
HATCH
  5
1911
330
1F
100
AcDbEntity
  8
CETRIS
100
AcDbHatch
 10
0.0
 20
0.0
 30
0.0
210
0.0
220
0.0
230
1.0
  2
ANSI31
 70
     0
 71
     0
 91
        6
 92
        7
 72
     0
 73
     1
 93
       37
 10
324.5257930271369
 20
107.5745204128652
 10
223.2365065749541
 20
107.5745204128652
 10
223.2365065749533
 20
106.3985921716684
 10
222.5355074925106
 20
106.0686030065417
 10
221.3231163597898
 20
105.1688811663098
 10
220.3841969112033
 20
103.9856603470679
 10
219.7834707790395
 20
102.6000704815615
 10
219.5610471459727
 20
101.1069150872035
 10
219.5610471459727
 20
98.89286387271841
 10
220.2201139024333
 20
98.67125494954962
 10
220.5902122459598
 20
98.45703546376354
 10
220.2201139024333
 20
98.08693711809974
 10
219.5610471459727
 20
98.3085460413131
 10
219.5610471459727
 20
95.85021606926693
 10
220.2201139024369
 20
95.62860714609815
 10
220.5902122459598
 20
95.41438766031205
 10
220.2201139024324
 20
95.04428931464644
 10
219.5610471459727
 20
95.26589823786071
 10
219.5610471459727
 20
92.79265106318325
 10
220.220113902426
 20
92.57119371924636
 10
220.5902122459598
 20
92.35697423345845
 10
220.2201139024324
 20
91.98687588806478
 10
219.5610471459736
 20
92.20833323195803
 10
219.5610471459736
 20
89.7501548392338
 10
220.2201139024306
 20
89.52854591606319
 10
220.5902122459589
 20
89.31432643027893
 10
220.2201139024324
 20
88.94422808461332
 10
219.5610471459727
 20
89.16583700782757
 10
219.5610471459727
 20
86.69258983314922
 10
220.2201139024342
 20
86.47113248920959
 10
220.5902122459589
 20
86.25691300342351
 10
220.2201139024324
 20
85.88681465802892
 10
219.5610471459736
 20
86.10827200192307
 10
219.5610471459727
 20
83.63441641360351
 10
219.7391783437957
 20
83.57452041286434
 10
245.3140200097037
 20
83.57452041286434
 10
324.525793027136
 20
83.57452041286524
 97
        0
 92
        7
 72
     0
 73
     1
 93
       44
 10
216.9156643864913
 20
96.1553990647044
 10
216.256597630028
 20
96.37700798791776
 10
215.8864992822278
 20
96.59031590124506
 10
216.2565976300317
 20
96.96132581909843
 10
216.9156643864913
 20
96.73971689593054
 10
216.9156643864913
 20
99.19804686815588
 10
216.256597630028
 20
99.41965579136923
 10
215.886499282226
 20
99.63296370469652
 10
216.2565976300317
 20
100.0039736225508
 10
216.9156643864913
 20
99.78236469938293
 10
216.8833035703488
 20
101.4925101615135
 10
216.8509427542081
 20
101.8781052358544
 10
216.4316195071957
 20
103.3293283055654
 10
215.6513136374611
 20
104.6219377983015
 10
214.5628963351106
 20
105.6693343479264
 10
213.2402049532316
 20
106.3985921716694
 10
213.2402049532316
 20
107.5745204128652
 10
195.3140200097037
 20
107.5745204128652
 10
195.3140200097037
 20
99.57452041286524
 10
185.3140200097037
 20
99.57452041286524
 10
185.3140200097037
 20
91.57452041286523
 10
195.3140200097037
 20
91.57452041286523
 10
195.3140200097028
 20
83.57452041286434
 10
216.9156643864904
 20
83.57452041286434
 10
216.9156643864913
 20
83.93959940881996
 10
216.2565976300353
 20
84.16120833198784
 10
215.886499282226
 20
84.37542781777574
 10
216.2565976300326
 20
84.74552616343954
 10
216.9156643864913
 20
84.52391724027256
 10
216.9156643864913
 20
86.99716441495093
 10
216.2565976300389
 20
87.21862175883961
 10
215.8864992822269
 20
87.43284124462935
 10
216.2565976300308
 20
87.80293959029405
 10
216.9156643864913
 20
87.58148224635624
 10
216.9156643864904
 20
90.05533783466944
 10
216.2565976300308
 20
90.27694675788371
 10
215.8864992822269
 20
90.4902546712101
 10
216.2565976300326
 20
90.86126458906438
 10
216.9156643864913
 20
90.63965566589741
 10
216.9156643864913
 20
93.09722564498406
 10
216.2565976300344
 20
93.31868298887547
 10
215.8864992822269
 20
93.53290247466247
 10
216.2565976300317
 20
93.90300082032808
 10
216.9156643864913
 20
93.68154347639029
 97
        0
 92
        7
 72
     0
 73
     1
 93
        4
 10
371.4081078413034
 20
107.5745204128661
 10
324.525793027136
 20
107.5745204128661
 10
324.5257930271351
 20
83.57452041286524
 10
371.4081078413034
 20
83.57452041286615
 97
        0
 92
        7
 72
     0
 73
     1
 93
        4
 10
420.4966233055917
 20
107.5745204128661
 10
371.4081078413034
 20
107.5745204128661
 10
371.4081078413034
 20
83.57452041286434
 10
420.4966233055917
 20
83.57452041286434
 97
        0
 92
        7
 72
     0
 73
     1
 93
       40
 10
496.2794449714043
 20
99.19804686815588
 10
495.6203782149446
 20
99.41965579137013
 10
495.2502798671417
 20
99.63296370469743
 10
495.6203782149456
 20
100.0039736225508
 10
496.2794449714052
 20
99.78236469938293
 10
496.2470841552628
 20
101.4925101615235
 10
496.2147233391229
 20
101.8781052358626
 10
495.7954000921069
 20
103.3293283055682
 10
495.015094222375
 20
104.6219377983033
 10
493.9266769200308
 20
105.6693343479218
 10
492.6039855381455
 20
106.3985921716684
 10
492.6039855381455
 20
107.5745204128652
 10
420.4966233055926
 20
107.5745204128643
 10
420.4966233055917
 20
83.57452041286524
 10
496.2794449714052
 20
83.57452041286524
 10
496.2794449714052
 20
83.93959940881996
 10
495.6203782149392
 20
84.16120833198965
 10
495.2502798671408
 20
84.37542781777484
 10
495.6203782149456
 20
84.74552616344135
 10
496.2794449714052
 20
84.52391724027256
 10
496.2794449714052
 20
86.99716441495002
 10
495.6203782149474
 20
87.21862175884053
 10
495.2502798671408
 20
87.43284124462935
 10
495.6203782149456
 20
87.80293959029496
 10
496.2794449714052
 20
87.58148224635716
 10
496.2794449714052
 20
90.05533783467127
 10
495.6203782149465
 20
90.27694675788097
 10
495.25027986714
 20
90.49025467121101
 10
495.6203782149456
 20
90.86126458906528
 10
496.2794449714052
 20
90.63965566589741
 10
496.2794449714052
 20
93.09722564498315
 10
495.6203782149565
 20
93.31868298887457
 10
495.2502798671408
 20
93.53290247466157
 10
495.6203782149465
 20
93.90300082032899
 10
496.2794449714052
 20
93.68154347639302
 10
496.2794449714052
 20
96.1553990647044
 10
495.6203782149446
 20
96.37700798791593
 10
495.2502798671408
 20
96.59031590124596
 10
495.6203782149465
 20
96.96132581909843
 10
496.2794449714052
 20
96.73971689593145
 97
        0
 92
        7
 72
     0
 73
     1
 93
       37
 10
577.0023084342279
 20
107.5745204128652
 10
502.6002871598681
 20
107.5745204128652
 10
502.6002871598681
 20
106.3985921716684
 10
501.8992880774264
 20
106.0686030065453
 10
500.6868969447029
 20
105.1688811663098
 10
499.7479774961163
 20
103.9856603470661
 10
499.1472513639534
 20
102.600070481556
 10
498.9248277308867
 20
101.1069150872071
 10
498.9248277308867
 20
98.89286387271841
 10
499.5838944873436
 20
98.67125494954962
 10
499.9539928308719
 20
98.45703546376354
 10
499.5838944873472
 20
98.08693711809793
 10
498.9248277308867
 20
98.30854604131127
 10
498.9248277308858
 20
95.85021606926602
 10
499.5838944873472
 20
95.62860714609632
 10
499.9539928308719
 20
95.41438766031296
 10
499.5838944873463
 20
95.04428931464644
 10
498.9248277308867
 20
95.26589823786071
 10
498.9248277308867
 20
92.79265106318325
 10
499.5838944873445
 20
92.57119371924636
 10
499.9539928308728
 20
92.35697423345937
 10
499.5838944873463
 20
91.98687588806388
 10
498.9248277308867
 20
92.2083332319571
 10
498.9248277308867
 20
89.75015483923199
 10
499.5838944873463
 20
89.528545916065
 10
499.9539928308719
 20
89.31432643027802
 10
499.5838944873463
 20
88.94422808461332
 10
498.9248277308867
 20
89.16583700782757
 10
498.9248277308867
 20
86.69258983314922
 10
499.5838944873518
 20
86.47113248920959
 10
499.9539928308728
 20
86.25691300342351
 10
499.5838944873454
 20
85.88681465802983
 10
498.9248277308858
 20
86.10827200192124
 10
498.9248277308867
 20
83.63441641360259
 10
499.1029589287069
 20
83.57452041286434
 10
523.3676113680809
 20
83.57452041286434
 10
577.0023084342279
 20
83.57452041286615
 97
        0
 75
     0
 76
     1
 52
90.0
 41
1.0
 77
     0
 78
     1
 53
135.0
 43
-5313.902262503054
 44
-5050.993383098576
 45
-2.245064030267288
 46
-2.245064030267287
 79
     0
 47
0.7293997082383822
 98
        6
 10
281.4876747457507
 20
93.97064020066318
 10
204.1238463964342
 20
94.70004695739772
 10
333.3068582827451
 20
96.88825045268458
 10
414.3199580069209
 20
96.88825045268458
 10
436.2153880692
 20
99.07643717305838
 10
513.5792447309301
 20
99.07643717305838
  0
LINE
  5
1912
330
1F
100
AcDbEntity
  8
izolace
  6
IZOLACE
 48
1.5
100
AcDbLine
 10
245.3140200097037
 20
60.57452041286524
 30
0.0
 11
473.3676113680809
 21
60.57452041286524
 31
0.0
  0
LWPOLYLINE
  5
1913
330
1F
100
AcDbEntity
  8
STAVBA OBRYS
100
AcDbPolyline
 90
        6
 70
     0
 43
0.0
 10
186.8475784718808
 20
80.57452041286524
 42
-0.0128837512779301
 10
186.5627865116563
 20
77.24135559111892
 42
-0.0351641677647434
 10
185.9350267901332
 20
73.63764613677995
 42
-0.0187319685742942
 10
182.5510109091425
 20
61.87940879463713
 42
-0.0582629403736403
 10
180.8915110410613
 20
58.29957459570505
 42
-0.1129599987265478
 10
163.5159691893519
 20
40.57452041286524
 42
-0.1129599987265478
  0
LWPOLYLINE
  5
1914
330
1F
100
AcDbEntity
  8
STAVBA OBRYS
100
AcDbPolyline
 90
        4
 70
     0
 43
0.0
 10
197.0373080758851
 20
80.57452041286524
 42
-0.0135911980674876
 10
193.3181767186594
 20
60.2458272303993
 42
-0.0219777111230329
 10
192.4120642166759
 20
56.72771397456381
 42
-0.0757738131361498
 10
179.1309663604557
 20
40.57452041286524
 42
-0.0757738131361498
  0
LWPOLYLINE
  5
1915
330
1F
100
AcDbEntity
  8
STAVBA OBRYS
100
AcDbPolyline
 90
        8
 70
     0
 43
0.0
 10
178.2233630918395
 20
80.57452041286524
 42
-0.0120721047703132
 10
178.1543804018016
 20
78.84063227412116
 42
-0.044358077361292
 10
177.7587526671283
 20
76.14483225570438
 42
-0.0188067511131767
 10
175.738929218745
 20
68.90260308039796
 42
-0.0457786284636091
 10
174.5309063291293
 20
66.05399269751797
 42
-0.0295006114745606
 10
172.1148458748299
 20
62.1270934841159
 42
-0.0258674098621065
 10
168.8821705608658
 20
57.98131340536201
 42
-0.2409478365688615
 10
145.3140200097055
 20
43.55676596038847
 42
-0.0884720560394402
  0
LWPOLYLINE
  5
1916
330
1F
100
AcDbEntity
  8
STAVBA OBRYS
100
AcDbPolyline
 90
        4
 70
     0
 43
0.0
 10
222.7048332997852
 20
80.49777088993868
 42
-0.0135911980674875
 10
217.1261362639467
 20
50.00473111623978
 42
-0.0219777111230329
 10
215.7669675109697
 20
44.72756123248655
 42
-0.0117780509051499
 10
213.1607552083975
 20
40.57452041286524
 42
-0.0117780509051499
  0
LWPOLYLINE
  5
1917
330
1F
100
AcDbEntity
  8
STAVBA OBRYS
100
AcDbPolyline
 90
        6
 70
     0
 43
0.0
 10
207.4202388937825
 20
80.49777088993868
 42
-0.0128837512779301
 10
206.9930509534439
 20
75.4980236573192
 42
-0.0351641677647434
 10
206.0514113711593
 20
70.09245947581075
 42
-0.0187319685742942
 10
200.9753875496731
 20
52.45510346259653
 42
-0.0582629403736403
 10
198.4861377475514
 20
47.08535216419841
 42
-0.0236084222362755
 10
194.0539518415622
 20
40.57452041286524
 42
-0.0236084222362755
  0
LWPOLYLINE
  5
1918
330
1F
100
AcDbEntity
  8
STAVBA OBRYS
100
AcDbPolyline
 90
        3
 70
     0
 43
0.0
 10
237.8908407913383
 20
80.57452041286524
 42
-0.0146172580335466
 10
231.8024233106749
 20
46.90527979027229
 42
-0.0212216680259171
 10
230.1820948011369
 20
40.57452041286524
 42
-0.0212216680259171
  0
LWPOLYLINE
  5
1919
330
1F
100
AcDbEntity
  8
STAVBA OBRYS
100
AcDbPolyline
 90
        4
 70
     1
 43
0.0
 10
145.3140200097037
 20
40.57452041286524
 10
245.3140200097037
 20
40.57452041286524
 10
245.3140200097037
 20
80.57452041286524
 10
145.3140200097037
 20
80.57452041286524
  0
LWPOLYLINE
  5
191A
330
1F
100
AcDbEntity
  8
STAVBA OBRYS
100
AcDbPolyline
 90
        8
 70
     0
 43
0.0
 10
189.8335002248346
 20
-103.4254795871338
 42
0.0217273703039143
 10
187.6358299643248
 20
-98.38978924965614
 42
0.0882970623535771
 10
185.9986080442318
 20
-96.14942019885621
 42
0.0171636441953577
 10
183.1852439823738
 20
-93.635502843611
 42
0.0157521173632038
 10
179.9463891453375
 20
-91.10400679110444
 42
0.0073640874174249
 10
175.3127397890162
 20
-87.81560536536835
 42
0.0194185739168057
 10
173.4906964693396
 20
-86.6640363660872
 42
0.0229547400386702
 10
171.1052384053251
 20
-85.42547958713385
  0
POLYLINE
  5
191B
330
1F
100
AcDbEntity
  8
STAVBA OBRYS
100
AcDb2dPolyline
 66
     1
 10
0.0
 20
0.0
 30
0.0
  0
VERTEX
  5
191C
330
191B
100
AcDbEntity
  8
STAVBA OBRYS
100
AcDbVertex
100
AcDb2dVertex
 10
181.4814488375192
 20
-103.4254795871338
 30
0.0
 42
0.0502247168465557
  0
VERTEX
  5
191D
330
191B
100
AcDbEntity
  8
STAVBA OBRYS
100
AcDbVertex
100
AcDb2dVertex
 10
179.882401661354
 20
-101.418008914411
 30
0.0
 42
0.0274923553235744
  0
VERTEX
  5
191E
330
191B
100
AcDbEntity
  8
STAVBA OBRYS
100
AcDbVertex
100
AcDb2dVertex
 10
177.2850959308012
 20
-99.03293359127292
 30
0.0
 42
0.0255412025538677
  0
VERTEX
  5
191F
330
191B
100
AcDbEntity
  8
STAVBA OBRYS
100
AcDbVertex
100
AcDb2dVertex
 10
174.2336658930904
 20
-96.77621991425713
 30
0.0
 42
0.0272796991712396
  0
VERTEX
  5
1920
330
191B
100
AcDbEntity
  8
STAVBA OBRYS
100
AcDbVertex
100
AcDb2dVertex
 10
170.1206667399052
 20
-94.35988403259125
 30
0.0
 42
0.056967459841729
  0
VERTEX
  5
1921
330
191B
100
AcDbEntity
  8
STAVBA OBRYS
100
AcDbVertex
100
AcDb2dVertex
 10
167.9797194591734
 20
-93.54714819739184
 30
0.0
 42
0.0373408083348504
  0
VERTEX
  5
1922
330
191B
100
AcDbEntity
  8
STAVBA OBRYS
100
AcDbVertex
100
AcDb2dVertex
 10
167.7573650836999
 20
-93.50798265644426
 30
0.0
 42
0.0052305969362967
  0
VERTEX
  5
1923
330
191B
100
AcDbEntity
  8
STAVBA OBRYS
100
AcDbVertex
100
AcDb2dVertex
 10
167.4114053099398
 20
-93.47702568953991
 30
0.0
  0
SEQEND
  5
1924
330
191B
100
AcDbEntity
  8
STAVBA OBRYS
  0
POLYLINE
  5
1925
330
1F
100
AcDbEntity
  8
STAVBA OBRYS
100
AcDb2dPolyline
 66
     1
 10
0.0
 20
0.0
 30
0.0
  0
VERTEX
  5
1926
330
1925
100
AcDbEntity
  8
STAVBA OBRYS
100
AcDbVertex
100
AcDb2dVertex
 10
172.4283028879832
 20
-103.4254795871338
 30
0.0
 42
0.0094186890201653
  0
VERTEX
  5
1927
330
1925
100
AcDbEntity
  8
STAVBA OBRYS
100
AcDbVertex
100
AcDb2dVertex
 10
172.0815043251092
 20
-103.2668067163658
 30
0.0
 42
0.0322692699774654
  0
VERTEX
  5
1928
330
1925
100
AcDbEntity
  8
STAVBA OBRYS
100
AcDbVertex
100
AcDb2dVertex
 10
169.1901501440185
 20
-102.2252832149652
 30
0.0
 42
0.0276160659512937
  0
VERTEX
  5
1929
330
1925
100
AcDbEntity
  8
STAVBA OBRYS
100
AcDbVertex
100
AcDb2dVertex
 10
168.3345737057312
 20
-102.0285477860206
 30
0.0
 42
0.0126891984598699
  0
VERTEX
  5
192A
330
1925
100
AcDbEntity
  8
STAVBA OBRYS
100
AcDbVertex
100
AcDb2dVertex
 10
167.4114053099398
 20
-101.8933453964791
 30
0.0
  0
SEQEND
  5
192B
330
1925
100
AcDbEntity
  8
STAVBA OBRYS
  0
POLYLINE
  5
192C
330
1F
100
AcDbEntity
  8
STAVBA OBRYS
100
AcDb2dPolyline
 66
     1
 10
0.0
 20
0.0
 30
0.0
  0
VERTEX
  5
192D
330
192C
100
AcDbEntity
  8
STAVBA OBRYS
100
AcDbVertex
100
AcDb2dVertex
 10
162.0925544146772
 20
-103.4254795871338
 30
0.0
 42
-0.0094186890201653
  0
VERTEX
  5
192E
330
192C
100
AcDbEntity
  8
STAVBA OBRYS
100
AcDbVertex
100
AcDb2dVertex
 10
162.4393529775512
 20
-103.2668067163658
 30
0.0
 42
-0.0322692699774654
  0
VERTEX
  5
192F
330
192C
100
AcDbEntity
  8
STAVBA OBRYS
100
AcDbVertex
100
AcDb2dVertex
 10
165.330707158642
 20
-102.2252832149652
 30
0.0
 42
-0.0276160659512937
  0
VERTEX
  5
1930
330
192C
100
AcDbEntity
  8
STAVBA OBRYS
100
AcDbVertex
100
AcDb2dVertex
 10
166.1862835969292
 20
-102.0285477860206
 30
0.0
 42
-0.0126891984598699
  0
VERTEX
  5
1931
330
192C
100
AcDbEntity
  8
STAVBA OBRYS
100
AcDbVertex
100
AcDb2dVertex
 10
167.1094519927206
 20
-101.8933453964791
 30
0.0
  0
SEQEND
  5
1932
330
192C
100
AcDbEntity
  8
STAVBA OBRYS
  0
LWPOLYLINE
  5
1933
330
1F
100
AcDbEntity
  8
STAVBA OBRYS
100
AcDbPolyline
 90
        3
 70
     0
 43
0.0
 10
52.79992785006254
 20
-103.4254795871338
 42
-0.0052038508054843
 10
55.9983247900451
 20
-87.02165310513647
 42
-0.0065712046643719
 10
56.34875055980922
 20
-85.42547958713385
  0
LWPOLYLINE
  5
1934
330
1F
100
AcDbEntity
  8
STAVBA OBRYS
100
AcDbPolyline
 90
        4
 70
     0
 43
0.0
 10
34.10545685655563
 20
-103.4254795871338
 42
-0.0334776267545482
 10
34.54273465126209
 20
-99.3785046583971
 42
-0.0091133963862869
 10
37.0203389761806
 20
-86.68677487293734
 42
-0.007828075361276
 10
37.31123811133841
 20
-85.42547958713385
  0
LWPOLYLINE
  5
1935
330
1F
100
AcDbEntity
  8
STAVBA OBRYS
100
AcDbPolyline
 90
        5
 70
     0
 43
0.0
 10
44.34959523134932
 20
-103.4254795871338
 42
-0.0133579731639958
 10
44.73640572037732
 20
-100.9076772995786
 42
-0.0072443097182286
 10
46.85640266783559
 20
-90.09678640467155
 42
-0.0219777111230329
 10
47.76251516981903
 20
-86.57867314883606
 42
-0.0092752982622242
 10
48.13774213176623
 20
-85.42547958713385
  0
LWPOLYLINE
  5
1936
330
1F
100
AcDbEntity
  8
STAVBA OBRYS
100
AcDbPolyline
 90
        5
 70
     0
 43
0.0
 10
116.5984878472842
 20
-103.4254795871338
 42
-0.0133579731639958
 10
116.9852983363122
 20
-100.9076772995786
 42
-0.0072443097182286
 10
119.1052952837704
 20
-90.09678640467155
 42
-0.0219777111230329
 10
120.0114077857539
 20
-86.57867314883606
 42
-0.0092752982622242
 10
120.3866347477011
 20
-85.42547958713385
  0
LWPOLYLINE
  5
1937
330
1F
100
AcDbEntity
  8
STAVBA OBRYS
100
AcDbPolyline
 90
        4
 70
     0
 43
0.0
 10
141.1084769097757
 20
-103.9263100178823
 10
121.1122244777831
 20
-94.71028096736246
 10
104.3343339065646
 20
-92.0031367046713
 10
101.0707226588598
 20
-91.8728353403012
  0
LWPOLYLINE
  5
1938
330
1F
100
AcDbEntity
  8
STAVBA OBRYS
100
AcDbPolyline
 90
        4
 70
     0
 43
0.0
 10
126.5040917211805
 20
-103.4254795871338
 42
-0.0186324019486548
 10
129.8724610932873
 20
-91.73036796890938
 42
-0.0582629403736403
 10
131.5319609613685
 20
-88.15053376997367
 42
-0.0146402521923566
 10
133.3163689429526
 20
-85.42547958713385
  0
POLYLINE
  5
1939
330
1F
100
AcDbEntity
  8
STAVBA OBRYS
100
AcDb2dPolyline
 66
     1
 10
0.0
 20
0.0
 30
0.0
  0
VERTEX
  5
193A
330
1939
100
AcDbEntity
  8
STAVBA OBRYS
100
AcDbVertex
100
AcDb2dVertex
 10
153.0394084651412
 20
-103.4254795871338
 30
0.0
 42
-0.0502247168465557
  0
VERTEX
  5
193B
330
1939
100
AcDbEntity
  8
STAVBA OBRYS
100
AcDbVertex
100
AcDb2dVertex
 10
154.6384556413064
 20
-101.418008914411
 30
0.0
 42
-0.0274923553235744
  0
VERTEX
  5
193C
330
1939
100
AcDbEntity
  8
STAVBA OBRYS
100
AcDbVertex
100
AcDb2dVertex
 10
157.2357613718592
 20
-99.03293359127292
 30
0.0
 42
-0.0255412025538677
  0
VERTEX
  5
193D
330
1939
100
AcDbEntity
  8
STAVBA OBRYS
100
AcDbVertex
100
AcDb2dVertex
 10
160.28719140957
 20
-96.77621991425713
 30
0.0
 42
-0.0272796991712396
  0
VERTEX
  5
193E
330
1939
100
AcDbEntity
  8
STAVBA OBRYS
100
AcDbVertex
100
AcDb2dVertex
 10
164.4001905627552
 20
-94.35988403259125
 30
0.0
 42
-0.056967459841729
  0
VERTEX
  5
193F
330
1939
100
AcDbEntity
  8
STAVBA OBRYS
100
AcDbVertex
100
AcDb2dVertex
 10
166.541137843487
 20
-93.54714819739184
 30
0.0
 42
-0.0373408083348504
  0
VERTEX
  5
1940
330
1939
100
AcDbEntity
  8
STAVBA OBRYS
100
AcDbVertex
100
AcDb2dVertex
 10
166.7634922189605
 20
-93.50798265644426
 30
0.0
 42
-0.0052305969362967
  0
VERTEX
  5
1941
330
1939
100
AcDbEntity
  8
STAVBA OBRYS
100
AcDbVertex
100
AcDb2dVertex
 10
167.1094519927206
 20
-93.47702568953991
 30
0.0
  0
SEQEND
  5
1942
330
1939
100
AcDbEntity
  8
STAVBA OBRYS
  0
LWPOLYLINE
  5
1943
330
1F
100
AcDbEntity
  8
STAVBA OBRYS
100
AcDbPolyline
 90
        8
 70
     0
 43
0.0
 10
144.6873570778258
 20
-103.4254795871338
 42
-0.0217273703039143
 10
146.8850273383355
 20
-98.38978924965614
 42
-0.0882970623535771
 10
148.5222492584285
 20
-96.14942019885621
 42
-0.0171636441953577
 10
151.3356133202865
 20
-93.635502843611
 42
-0.0157521173632038
 10
154.5744681573229
 20
-91.10400679110444
 42
-0.0073640874174249
 10
159.2081175136442
 20
-87.81560536536835
 42
-0.0194185739168057
 10
161.0301608333208
 20
-86.6640363660872
 42
-0.0229547400386702
 10
163.4156188973353
 20
-85.42547958713385
  0
LWPOLYLINE
  5
1944
330
1F
100
AcDbEntity
  8
STAVBA OBRYS
100
AcDbPolyline
 90
        3
 70
     0
 43
0.0
 10
157.4378848419324
 20
-103.4254795871338
 10
143.645836915293
 20
-96.52440802364708
 10
135.4787322661683
 20
-88.34310632255347
  0
LWPOLYLINE
  5
1945
330
1F
100
AcDbEntity
  8
STAVBA OBRYS
100
AcDbPolyline
 90
        6
 70
     0
 43
0.0
 10
135.3145530700236
 20
-103.4254795871338
 42
-0.0121757200102759
 10
136.6845427836848
 20
-98.75356225466658
 42
-0.0457786284636091
 10
137.8925656733005
 20
-95.90495187179021
 42
-0.0295006114745606
 10
140.3086261275999
 20
-91.97805265838814
 42
-0.0258674098621065
 10
143.541301441564
 20
-87.83227257963426
 42
-0.0093759062953949
 10
145.7071136212213
 20
-85.42547958713385
  0
LWPOLYLINE
  5
1946
330
1F
100
AcDbEntity
  8
STAVBA OBRYS
100
AcDbPolyline
 90
        4
 70
     0
 43
0.0
 10
106.3543494724905
 20
-103.4254795871338
 42
-0.0334776267545482
 10
106.7916272671969
 20
-99.3785046583971
 42
-0.0091133963862869
 10
109.2692315921155
 20
-86.68677487293734
 42
-0.007828075361276
 10
109.5601307272733
 20
-85.42547958713385
  0
LWPOLYLINE
  5
1947
330
1F
100
AcDbEntity
  8
STAVBA OBRYS
100
AcDbPolyline
 90
        3
 70
     0
 43
0.0
 10
94.90181160952273
 20
-103.4254795871338
 42
-0.0052038508054843
 10
98.10020854950529
 20
-87.02165310513647
 42
-0.0065712046643719
 10
98.4506343192694
 20
-85.42547958713385
  0
LWPOLYLINE
  5
1948
330
1F
100
AcDbEntity
  8
STAVBA OBRYS
100
AcDbPolyline
 90
        4
 70
     0
 43
0.0
 10
84.40220796172036
 20
-103.4254795871338
 42
-0.0186324019486548
 10
87.77057733382719
 20
-91.73036796890938
 42
-0.0582629403736403
 10
89.43007720190838
 20
-88.15053376997367
 42
-0.0146402521923566
 10
91.21448518349245
 20
-85.42547958713385
  0
LWPOLYLINE
  5
1949
330
1F
100
AcDbEntity
  8
STAVBA OBRYS
100
AcDbPolyline
 90
        5
 70
     0
 43
0.0
 10
74.49660408782404
 20
-103.4254795871338
 42
-0.0133579731639958
 10
74.88341457685203
 20
-100.9076772995786
 42
-0.0072443097182286
 10
77.00341152431031
 20
-90.09678640467155
 42
-0.0219777111230329
 10
77.90952402629375
 20
-86.57867314883606
 42
-0.0092752982622242
 10
78.28475098824094
 20
-85.42547958713385
  0
LWPOLYLINE
  5
194A
330
1F
100
AcDbEntity
  8
STAVBA OBRYS
100
AcDbPolyline
 90
        4
 70
     0
 43
0.0
 10
64.25246571303034
 20
-103.4254795871338
 42
-0.0334776267545482
 10
64.68974350773681
 20
-99.3785046583971
 42
-0.0091133963862869
 10
67.16734783265531
 20
-86.68677487293734
 42
-0.007828075361276
 10
67.45824696781312
 20
-85.42547958713385
  0
LWPOLYLINE
  5
194B
330
1F
100
AcDbEntity
  8
STAVBA OBRYS
100
AcDbPolyline
 90
        4
 70
     0
 43
0.0
 10
99.00659315031555
 20
-103.9263100178823
 10
79.01034071832294
 20
-94.71028096736246
 10
62.23245014710449
 20
-92.0031367046713
 10
58.96883889939966
 20
-91.8728353403012
  0
LWPOLYLINE
  5
194C
330
1F
100
AcDbEntity
  8
STAVBA OBRYS
100
AcDbPolyline
 90
        4
 70
     0
 43
0.0
 10
68.85958429384084
 20
-103.9263100178823
 10
48.86333186184822
 20
-94.71028096736246
 10
32.08544129062977
 20
-92.0031367046713
 10
28.82183004292494
 20
-91.8728353403012
  0
LINE
  5
194D
330
1F
100
AcDbEntity
  8
STAVBA OBRYS
100
AcDbLine
 10
167.2604286513302
 20
-85.42547958713475
 30
0.0
 11
167.2604286513302
 21
-103.4254795871338
 31
0.0
  0
LWPOLYLINE
  5
194E
330
1F
100
AcDbEntity
  8
STAVBA OBRYS
100
AcDbPolyline
 90
        3
 70
     0
 43
0.0
 10
322.6529189935878
 20
-103.4254795871338
 42
-0.0052038508054843
 10
325.8513159335703
 20
-87.02165310513647
 42
-0.0065712046643719
 10
326.2017417033344
 20
-85.42547958713385
  0
LWPOLYLINE
  5
194F
330
1F
100
AcDbEntity
  8
STAVBA OBRYS
100
AcDbPolyline
 90
        3
 70
     0
 43
0.0
 10
239.6190456931377
 20
-103.4254795871338
 42
0.0052038508054843
 10
236.4206487531552
 20
-87.02165310513647
 42
0.0065712046643719
 10
236.070222983391
 20
-85.42547958713385
  0
LWPOLYLINE
  5
1950
330
1F
100
AcDbEntity
  8
STAVBA OBRYS
100
AcDbPolyline
 90
        4
 70
     0
 43
0.0
 10
228.1665078301699
 20
-103.4254795871338
 42
0.0334776267545482
 10
227.7292300354635
 20
-99.3785046583971
 42
0.0091133963862869
 10
225.251625710545
 20
-86.68677487293734
 42
0.007828075361276
 10
224.9607265753871
 20
-85.42547958713385
  0
LWPOLYLINE
  5
1951
330
1F
100
AcDbEntity
  8
STAVBA OBRYS
100
AcDbPolyline
 90
        6
 70
     0
 43
0.0
 10
199.2063042326368
 20
-103.4254795871338
 42
0.0121757200102759
 10
197.8363145189756
 20
-98.75356225466658
 42
0.0457786284636091
 10
196.6282916293599
 20
-95.90495187179021
 42
0.0295006114745606
 10
194.2122311750605
 20
-91.97805265838814
 42
0.0258674098621065
 10
190.9795558610964
 20
-87.83227257963426
 42
0.0093759062953949
 10
188.8137436814391
 20
-85.42547958713385
  0
LWPOLYLINE
  5
1952
330
1F
100
AcDbEntity
  8
STAVBA OBRYS
100
AcDbPolyline
 90
        3
 70
     0
 43
0.0
 10
177.0829724607279
 20
-103.4254795871338
 10
190.8750203873674
 20
-96.52440802364708
 10
199.0421250364921
 20
-88.34310632255347
  0
LWPOLYLINE
  5
1953
330
1F
100
AcDbEntity
  8
STAVBA OBRYS
100
AcDbPolyline
 90
        4
 70
     0
 43
0.0
 10
208.0167655814799
 20
-103.4254795871338
 42
0.0186324019486548
 10
204.6483962093731
 20
-91.73036796890938
 42
0.0582629403736403
 10
202.9888963412919
 20
-88.15053376997367
 42
0.0146402521923566
 10
201.2044883597078
 20
-85.42547958713385
  0
LWPOLYLINE
  5
1954
330
1F
100
AcDbEntity
  8
STAVBA OBRYS
100
AcDbPolyline
 90
        4
 70
     0
 43
0.0
 10
193.4123803928847
 20
-103.9263100178823
 10
213.4086328248773
 20
-94.71028096736246
 10
230.1865233960958
 20
-92.0031367046713
 10
233.4501346438006
 20
-91.8728353403012
  0
LWPOLYLINE
  5
1955
330
1F
100
AcDbEntity
  8
STAVBA OBRYS
100
AcDbPolyline
 90
        5
 70
     0
 43
0.0
 10
217.9223694553762
 20
-103.4254795871338
 42
0.0133579731639958
 10
217.5355589663482
 20
-100.9076772995786
 42
0.0072443097182286
 10
215.41556201889
 20
-90.09678640467155
 42
0.0219777111230329
 10
214.5094495169065
 20
-86.57867314883606
 42
0.0092752982622242
 10
214.1342225549593
 20
-85.42547958713385
  0
LWPOLYLINE
  5
1956
330
1F
100
AcDbEntity
  8
STAVBA OBRYS
100
AcDbPolyline
 90
        3
 70
     0
 43
0.0
 10
311.8679383090726
 20
-103.4254795871338
 42
0.0052038508054843
 10
308.66954136909
 20
-87.02165310513647
 42
0.0065712046643719
 10
308.3191155993259
 20
-85.42547958713385
  0
LWPOLYLINE
  5
1957
330
1F
100
AcDbEntity
  8
STAVBA OBRYS
100
AcDbPolyline
 90
        5
 70
     0
 43
0.0
 10
290.1712620713111
 20
-103.4254795871338
 42
0.0133579731639958
 10
289.7844515822831
 20
-100.9076772995786
 42
0.0072443097182286
 10
287.6644546348249
 20
-90.09678640467155
 42
0.0219777111230329
 10
286.7583421328414
 20
-86.57867314883606
 42
0.0092752982622242
 10
286.3831151708942
 20
-85.42547958713385
  0
LWPOLYLINE
  5
1958
330
1F
100
AcDbEntity
  8
STAVBA OBRYS
100
AcDbPolyline
 90
        4
 70
     0
 43
0.0
 10
300.4154004461048
 20
-103.4254795871338
 42
0.0334776267545482
 10
299.9781226513984
 20
-99.3785046583971
 42
0.0091133963862869
 10
297.5005183264798
 20
-86.68677487293734
 42
0.007828075361276
 10
297.209619191322
 20
-85.42547958713385
  0
LWPOLYLINE
  5
1959
330
1F
100
AcDbEntity
  8
STAVBA OBRYS
100
AcDbPolyline
 90
        3
 70
     0
 43
0.0
 10
281.7209294525979
 20
-103.4254795871338
 42
0.0052038508054843
 10
278.5225325126154
 20
-87.02165310513647
 42
0.0065712046643719
 10
278.1721067428512
 20
-85.42547958713385
  0
LWPOLYLINE
  5
195A
330
1F
100
AcDbEntity
  8
STAVBA OBRYS
100
AcDbPolyline
 90
        4
 70
     0
 43
0.0
 10
265.6612730088196
 20
-103.9263100178823
 10
285.6575254408122
 20
-94.71028096736246
 10
302.4354160120307
 20
-92.0031367046713
 10
305.6990272597355
 20
-91.8728353403012
  0
LWPOLYLINE
  5
195B
330
1F
100
AcDbEntity
  8
STAVBA OBRYS
100
AcDbPolyline
 90
        4
 70
     0
 43
0.0
 10
235.5142641523449
 20
-103.9263100178823
 10
255.5105165843375
 20
-94.71028096736246
 10
272.288407155556
 20
-92.0031367046713
 10
275.5520184032608
 20
-91.8728353403012
  0
LWPOLYLINE
  5
195C
330
1F
100
AcDbEntity
  8
STAVBA OBRYS
100
AcDbPolyline
 90
        4
 70
     0
 43
0.0
 10
270.2683915896301
 20
-103.4254795871338
 42
0.0334776267545482
 10
269.8311137949236
 20
-99.3785046583971
 42
0.0091133963862869
 10
267.3535094700052
 20
-86.68677487293734
 42
0.007828075361276
 10
267.0626103348473
 20
-85.42547958713385
  0
LWPOLYLINE
  5
195D
330
1F
100
AcDbEntity
  8
STAVBA OBRYS
100
AcDbPolyline
 90
        5
 70
     0
 43
0.0
 10
260.0242532148364
 20
-103.4254795871338
 42
0.0133579731639958
 10
259.6374427258084
 20
-100.9076772995786
 42
0.0072443097182286
 10
257.5174457783501
 20
-90.09678640467155
 42
0.0219777111230329
 10
256.6113332763667
 20
-86.57867314883606
 42
0.0092752982622242
 10
256.2361063144195
 20
-85.42547958713385
  0
LWPOLYLINE
  5
195E
330
1F
100
AcDbEntity
  8
STAVBA OBRYS
100
AcDbPolyline
 90
        4
 70
     0
 43
0.0
 10
250.1186493409401
 20
-103.4254795871338
 42
0.0186324019486548
 10
246.7502799688332
 20
-91.73036796890938
 42
0.0582629403736403
 10
245.0907801007521
 20
-88.15053376997367
 42
0.0146402521923566
 10
243.306372119168
 20
-85.42547958713385
  0
LINE
  5
195F
330
1F
100
AcDbEntity
  8
STAVBA OBRYS
100
AcDbLine
 10
317.2604286513302
 20
-85.42547958713475
 30
0.0
 11
317.2604286513302
 21
-103.4254795871338
 31
0.0
  0
LWPOLYLINE
  5
1960
330
1F
100
AcDbEntity
  8
STAVBA OBRYS
100
AcDbPolyline
 90
        3
 70
     0
 43
0.0
 10
192.5281670015807
 20
49.57155036374115
 10
209.2833846213085
 20
41.18780949577285
 10
209.8956094607371
 20
40.57452041286524
  0
LWPOLYLINE
  5
1961
330
1F
100
AcDbEntity
  8
STAVBA OBRYS
100
AcDbPolyline
 90
        3
 70
     0
 43
0.0
 10
171.3149950926541
 20
74.07535084361007
 10
191.3112475246467
 20
64.8593217930902
 10
195.3111851583613
 20
64.21392431774802
  0
LWPOLYLINE
  5
1962
330
1F
100
AcDbEntity
  8
STAVBA OBRYS
100
AcDbPolyline
 90
        3
 70
     0
 43
0.0
 10
152.0224174674091
 20
75.05718971734677
 10
168.7776350871368
 20
66.67344884937847
 10
176.9447397362615
 20
58.49214714828121
  0
LWPOLYLINE
  5
1963
330
1F
100
AcDbEntity
  8
izolace
100
AcDbPolyline
 90
        4
 70
     1
 43
0.0
 10
195.3140200097037
 20
80.57452041286524
 10
145.3140200097037
 20
80.57452041286524
 10
145.3140200097037
 20
83.57452041286434
 10
195.3140200097037
 20
83.57452041286434
  0
HATCH
  5
1964
330
1F
100
AcDbEntity
  8
izolace
100
AcDbHatch
 10
0.0
 20
0.0
 30
0.0
210
0.0
220
0.0
230
1.0
  2
SOLID
 70
     1
 71
     0
 91
       10
 92
        7
 72
     0
 73
     1
 93
        4
 10
195.3140200097037
 20
83.57452041286434
 10
191.3895990022844
 20
83.57452041286434
 10
191.3895990022844
 20
80.57452041286524
 10
195.3140200097037
 20
80.57452041286524
 97
        0
 92
        7
 72
     0
 73
     1
 93
        9
 10
178.9476541005148
 20
83.57452041286434
 10
173.550794843131
 20
83.57452041286434
 10
173.8584818328196
 20
83.4711324892096
 10
174.2285801763433
 20
83.25691300342441
 10
173.8584818328159
 20
82.88681465803074
 10
173.1994150763563
 20
83.10827200192397
 10
173.1994150763563
 20
80.6344164136026
 10
173.3775462741756
 20
80.57452041286524
 10
178.9476541005138
 20
80.57452041286524
 97
        0
 92
        7
 72
     0
 73
     1
 93
        9
 10
170.5540323168748
 20
83.57452041286434
 10
165.1317362867099
 20
83.57452041286434
 10
165.1317362867099
 20
80.57452041286524
 10
170.5540323168748
 20
80.57452041286524
 10
170.5540323168748
 20
80.93959940881905
 10
169.8949655604197
 20
81.16120833198783
 10
169.5248672126105
 20
81.37542781777574
 10
169.8949655604152
 20
81.74552616344135
 10
170.5540323168748
 20
81.52391724027166
 97
        0
 92
        7
 72
     0
 73
     1
 93
        5
 10
173.1994150763563
 20
83.10827200192306
 10
171.8118393811806
 20
83.57452041286434
 10
170.5540323168758
 20
83.57452041286434
 10
170.5540323168758
 20
81.52391724027074
 10
173.1994150763563
 20
80.63441641360169
 97
        0
 92
        7
 72
     0
 73
     1
 93
        4
 10
172.9581505388756
 20
83.57452041286434
 10
171.8118393811824
 20
83.57452041286524
 10
173.8584818328159
 20
82.88681465802893
 10
174.2285801763424
 20
83.25691300342441
 97
        0
 92
       23
 72
     0
 73
     1
 93
        4
 10
173.5507948431337
 20
83.57452041286434
 10
172.9581505388702
 20
83.57452041286434
 10
174.2285801763424
 20
83.2569130034226
 10
173.8584818328141
 20
83.47113248921141
 97
        0
 92
        7
 72
     0
 73
     1
 93
        4
 10
169.8949655604161
 20
81.74552616343953
 10
169.5248672126114
 20
81.37542781777483
 10
172.7284968322479
 20
80.57452041286524
 10
173.3775462741729
 20
80.57452041286524
 97
        0
 92
        7
 72
     0
 73
     1
 93
        4
 10
169.5248672126068
 20
81.37542781777666
 10
169.8949655604188
 20
81.16120833198875
 10
171.6397802474017
 20
80.57452041286524
 10
172.7284968322488
 20
80.57452041286524
 97
        0
 92
       23
 72
     0
 73
     1
 93
        3
 10
170.5540323168748
 20
80.93959940881996
 10
170.5540323168748
 20
80.57452041286524
 10
171.6397802473953
 20
80.57452041286524
 97
        0
 92
        7
 72
     0
 73
     1
 93
        4
 10
151.6455447918784
 20
83.57452041286434
 10
145.3140200097037
 20
83.57452041286434
 10
145.3140200097037
 20
80.57452041286524
 10
151.6455447918793
 20
80.57452041286614
 97
        0
 75
     0
 76
     1
 47
0.0980096762587744
 98
       10
 10
193.0227720216695
 20
82.69296699999904
 10
177.2199742588105
 20
81.94091411103727
 10
168.0940070493467
 20
81.97751697068452
 10
171.6379279491135
 20
81.92217653348052
 10
173.005473944229
 20
83.27710301220941
 10
173.5668523962828
 20
83.49314711367696
 10
171.2575224174521
 20
81.09366359214618
 10
171.495771341904
 20
80.78227088653875
 10
170.8359789550428
 20
80.74563447706532
 10
147.7903855764249
 20
81.81656168272821
  0
LINE
  5
1965
330
1F
100
AcDbEntity
  8
SPOJOVACÍ
  6
DASHED
100
AcDbLine
 10
163.7201324925932
 20
107.5745204128652
 30
0.0
 11
173.7164341143158
 21
107.5745204128652
 31
0.0
  0
LINE
  5
1966
330
1F
100
AcDbEntity
  8
SPOJOVACÍ
  6
DASHED
100
AcDbLine
 10
173.7164341143158
 20
107.5745204128652
 30
0.0
 11
173.7164341143158
 21
106.3985921716684
 31
0.0
  0
LINE
  5
1967
330
1F
100
AcDbEntity
  8
SPOJOVACÍ
  6
DASHED
100
AcDbLine
 10
173.0154350318713
 20
106.0686030065426
 30
0.0
 11
173.7164341143158
 21
106.3985921716684
 31
0.0
  0
LINE
  5
1968
330
1F
100
AcDbEntity
  8
SPOJOVACÍ
  6
DASHED
100
AcDbLine
 10
163.7201324925932
 20
106.3985921716684
 30
0.0
 11
173.7164341143158
 21
106.3985921716684
 31
0.0
  0
LINE
  5
1969
330
1F
100
AcDbEntity
  8
SPOJOVACÍ
  6
DASHED
100
AcDbLine
 10
167.3955919258529
 20
87.00622541770281
 30
0.0
 11
167.3955919258529
 21
84.53586453912794
 31
0.0
  0
LINE
  5
196A
330
1F
100
AcDbEntity
  8
SPOJOVACÍ
  6
DASHED
100
AcDbLine
 10
166.7365251693933
 20
87.21862175884234
 30
0.0
 11
170.700041441794
 21
85.88681465802983
 31
0.0
  0
LINE
  5
196B
330
1F
100
AcDbEntity
  8
SPOJOVACÍ
  6
DASHED
100
AcDbLine
 10
166.3664268215885
 20
87.43284124462844
 30
0.0
 11
166.7365251693933
 21
87.21862175884234
 31
0.0
  0
LINE
  5
196C
330
1F
100
AcDbEntity
  8
SPOJOVACÍ
  6
DASHED
100
AcDbLine
 10
166.3664268215885
 20
87.43284124462844
 30
0.0
 11
166.7365251693933
 21
87.80293959029405
 31
0.0
  0
LINE
  5
196D
330
1F
100
AcDbEntity
  8
SPOJOVACÍ
  6
DASHED
100
AcDbLine
 10
166.7365251693933
 20
87.80293959029405
 30
0.0
 11
170.700041441794
 21
86.4711324892105
 31
0.0
  0
LINE
  5
196E
330
1F
100
AcDbEntity
  8
SPOJOVACÍ
  6
DASHED
100
AcDbLine
 10
167.3955919258529
 20
90.06637356111969
 30
0.0
 11
167.3955919258529
 21
87.59783582719137
 31
0.0
  0
LINE
  5
196F
330
1F
100
AcDbEntity
  8
SPOJOVACÍ
  6
DASHED
100
AcDbLine
 10
166.7365251693933
 20
90.27694675788371
 30
0.0
 11
170.700041441794
 21
88.94422808461241
 31
0.0
  0
LINE
  5
1970
330
1F
100
AcDbEntity
  8
SPOJOVACÍ
  6
DASHED
100
AcDbLine
 10
166.3664268215885
 20
90.49025467121101
 30
0.0
 11
166.7365251693933
 21
90.27694675788371
 31
0.0
  0
LINE
  5
1971
330
1F
100
AcDbEntity
  8
SPOJOVACÍ
  6
DASHED
100
AcDbLine
 10
166.3664268215885
 20
90.49025467121101
 30
0.0
 11
166.7365251693933
 21
90.86126458906438
 31
0.0
  0
LINE
  5
1972
330
1F
100
AcDbEntity
  8
SPOJOVACÍ
  6
DASHED
100
AcDbLine
 10
166.7365251693933
 20
90.86126458906438
 30
0.0
 11
170.700041441794
 21
89.5285459160641
 31
0.0
  0
LINE
  5
1973
330
1F
100
AcDbEntity
  8
SPOJOVACÍ
  6
DASHED
100
AcDbLine
 10
167.3955919258529
 20
93.10628664773686
 30
0.0
 11
167.3955919258529
 21
90.63592576916198
 31
0.0
  0
LINE
  5
1974
330
1F
100
AcDbEntity
  8
SPOJOVACÍ
  6
DASHED
100
AcDbLine
 10
166.7365251693933
 20
93.3186829888764
 30
0.0
 11
170.700041441794
 21
91.98687588806388
 31
0.0
  0
LINE
  5
1975
330
1F
100
AcDbEntity
  8
SPOJOVACÍ
  6
DASHED
100
AcDbLine
 10
166.3664268215885
 20
93.53290247466247
 30
0.0
 11
166.7365251693933
 21
93.3186829888764
 31
0.0
  0
LINE
  5
1976
330
1F
100
AcDbEntity
  8
SPOJOVACÍ
  6
DASHED
100
AcDbLine
 10
166.3664268215885
 20
93.53290247466247
 30
0.0
 11
166.7365251693933
 21
93.90300082032808
 31
0.0
  0
LINE
  5
1977
330
1F
100
AcDbEntity
  8
SPOJOVACÍ
  6
DASHED
100
AcDbLine
 10
166.7365251693933
 20
93.90300082032808
 30
0.0
 11
170.700041441794
 21
92.57119371924455
 31
0.0
  0
LINE
  5
1978
330
1F
100
AcDbEntity
  8
SPOJOVACÍ
  6
DASHED
100
AcDbLine
 10
167.3955919258529
 20
96.16643479115374
 30
0.0
 11
167.3955919258529
 21
93.69789705722542
 31
0.0
  0
LINE
  5
1979
330
1F
100
AcDbEntity
  8
SPOJOVACÍ
  6
DASHED
100
AcDbLine
 10
166.7365251693933
 20
96.37700798791776
 30
0.0
 11
170.700041441794
 21
95.04428931464644
 31
0.0
  0
LINE
  5
197A
330
1F
100
AcDbEntity
  8
SPOJOVACÍ
  6
DASHED
100
AcDbLine
 10
166.3664268215885
 20
96.59031590124506
 30
0.0
 11
166.7365251693933
 21
96.37700798791776
 31
0.0
  0
LINE
  5
197B
330
1F
100
AcDbEntity
  8
SPOJOVACÍ
  6
DASHED
100
AcDbLine
 10
166.3664268215885
 20
96.59031590124506
 30
0.0
 11
166.7365251693933
 21
96.96132581909843
 31
0.0
  0
LINE
  5
197C
330
1F
100
AcDbEntity
  8
SPOJOVACÍ
  6
DASHED
100
AcDbLine
 10
166.7365251693933
 20
96.96132581909843
 30
0.0
 11
170.700041441794
 21
95.62860714609815
 31
0.0
  0
LINE
  5
197D
330
1F
100
AcDbEntity
  8
SPOJOVACÍ
  6
DASHED
100
AcDbLine
 10
167.3955919258529
 20
99.20908259460521
 30
0.0
 11
167.3955919258529
 21
96.74054486067689
 31
0.0
  0
LINE
  5
197E
330
1F
100
AcDbEntity
  8
SPOJOVACÍ
  6
DASHED
100
AcDbLine
 10
166.7365251693933
 20
99.41965579136923
 30
0.0
 11
170.700041441794
 21
98.08693711809793
 31
0.0
  0
LINE
  5
197F
330
1F
100
AcDbEntity
  8
SPOJOVACÍ
  6
DASHED
100
AcDbLine
 10
166.3664268215885
 20
99.63296370469652
 30
0.0
 11
166.7365251693933
 21
99.41965579136923
 31
0.0
  0
LINE
  5
1980
330
1F
100
AcDbEntity
  8
SPOJOVACÍ
  6
DASHED
100
AcDbLine
 10
166.3664268215885
 20
99.63296370469652
 30
0.0
 11
166.7365251693933
 21
100.0039736225498
 31
0.0
  0
LINE
  5
1981
330
1F
100
AcDbEntity
  8
SPOJOVACÍ
  6
DASHED
100
AcDbLine
 10
166.7365251693933
 20
100.0039736225498
 30
0.0
 11
170.700041441794
 21
98.67125494954962
 31
0.0
  0
LINE
  5
1982
330
1F
100
AcDbEntity
  8
SPOJOVACÍ
  6
DASHED
100
AcDbLine
 10
167.3632311097113
 20
101.492510161529
 30
0.0
 11
167.3955919258529
 21
99.78236469938202
 31
0.0
  0
LINE
  5
1983
330
1F
100
AcDbEntity
  8
SPOJOVACÍ
  6
DASHED
100
AcDbLine
 10
167.3308702935697
 20
101.878105235859
 30
0.0
 11
167.3955919258529
 21
101.106915087199
 31
0.0
  0
LINE
  5
1984
330
1F
100
AcDbEntity
  8
SPOJOVACÍ
  6
DASHED
100
AcDbLine
 10
166.9115470465563
 20
103.3293283055682
 30
0.0
 11
167.3308702935697
 21
101.878105235859
 31
0.0
  0
LINE
  5
1985
330
1F
100
AcDbEntity
  8
SPOJOVACÍ
  6
DASHED
100
AcDbLine
 10
166.1312411768245
 20
104.6219377982997
 30
0.0
 11
166.9115470465563
 21
103.3293283055682
 31
0.0
  0
LINE
  5
1986
330
1F
100
AcDbEntity
  8
SPOJOVACÍ
  6
DASHED
100
AcDbLine
 10
165.0428238744731
 20
105.6693343479237
 30
0.0
 11
166.1312411768245
 21
104.6219377982997
 31
0.0
  0
LINE
  5
1987
330
1F
100
AcDbEntity
  8
SPOJOVACÍ
  6
DASHED
100
AcDbLine
 10
163.7201324925932
 20
106.3985921716684
 30
0.0
 11
165.0428238744731
 21
105.6693343479237
 31
0.0
  0
LINE
  5
1988
330
1F
100
AcDbEntity
  8
SPOJOVACÍ
  6
DASHED
100
AcDbLine
 10
163.7201324925932
 20
107.5745204128652
 30
0.0
 11
163.7201324925932
 21
106.3985921716684
 31
0.0
  0
LINE
  5
1989
330
1F
100
AcDbEntity
  8
SPOJOVACÍ
  6
DASHED
100
AcDbLine
 10
171.8030438991496
 20
105.1688811663098
 30
0.0
 11
173.0154350318713
 21
106.0686030065426
 31
0.0
  0
LINE
  5
198A
330
1F
100
AcDbEntity
  8
SPOJOVACÍ
  6
DASHED
100
AcDbLine
 10
170.8641244505648
 20
103.9856603470689
 30
0.0
 11
171.8030438991496
 21
105.1688811663098
 31
0.0
  0
LINE
  5
198B
330
1F
100
AcDbEntity
  8
SPOJOVACÍ
  6
DASHED
100
AcDbLine
 10
170.2633983184001
 20
102.6000704815596
 30
0.0
 11
170.8641244505648
 21
103.9856603470689
 31
0.0
  0
LINE
  5
198C
330
1F
100
AcDbEntity
  8
SPOJOVACÍ
  6
DASHED
100
AcDbLine
 10
170.0409746853343
 20
101.106915087199
 30
0.0
 11
170.2633983184001
 21
102.6000704815596
 31
0.0
  0
LINE
  5
198D
330
1F
100
AcDbEntity
  8
SPOJOVACÍ
  6
DASHED
100
AcDbLine
 10
170.0409746853343
 20
101.1069150872008
 30
0.0
 11
170.0409746853343
 21
98.89286387271932
 31
0.0
  0
LINE
  5
198E
330
1F
100
AcDbEntity
  8
SPOJOVACÍ
  6
DASHED
100
AcDbLine
 10
171.0701397853205
 20
98.45703546376354
 30
0.0
 11
170.700041441794
 21
98.67125494954962
 31
0.0
  0
LINE
  5
198F
330
1F
100
AcDbEntity
  8
SPOJOVACÍ
  6
DASHED
100
AcDbLine
 10
171.0701397853205
 20
98.45703546376354
 30
0.0
 11
170.700041441794
 21
98.08693711809793
 31
0.0
  0
LINE
  5
1990
330
1F
100
AcDbEntity
  8
SPOJOVACÍ
  6
DASHED
100
AcDbLine
 10
170.0409746853343
 20
98.31391861584599
 30
0.0
 11
170.0409746853343
 21
95.84538088191767
 31
0.0
  0
LINE
  5
1991
330
1F
100
AcDbEntity
  8
SPOJOVACÍ
  6
DASHED
100
AcDbLine
 10
171.0701397853205
 20
95.41438766031205
 30
0.0
 11
170.700041441794
 21
95.62860714609815
 31
0.0
  0
LINE
  5
1992
330
1F
100
AcDbEntity
  8
SPOJOVACÍ
  6
DASHED
100
AcDbLine
 10
171.0701397853205
 20
95.41438766031205
 30
0.0
 11
170.700041441794
 21
95.04428931464644
 31
0.0
  0
LINE
  5
1993
330
1F
100
AcDbEntity
  8
SPOJOVACÍ
  6
DASHED
100
AcDbLine
 10
170.0409746853343
 20
95.2712708123945
 30
0.0
 11
170.0409746853343
 21
92.80273307846618
 31
0.0
  0
LINE
  5
1994
330
1F
100
AcDbEntity
  8
SPOJOVACÍ
  6
DASHED
100
AcDbLine
 10
171.0701397853205
 20
92.35697423345845
 30
0.0
 11
170.700041441794
 21
92.57119371924455
 31
0.0
  0
LINE
  5
1995
330
1F
100
AcDbEntity
  8
SPOJOVACÍ
  6
DASHED
100
AcDbLine
 10
171.0701397853205
 20
92.35697423345845
 30
0.0
 11
170.700041441794
 21
91.98687588806388
 31
0.0
  0
LINE
  5
1996
330
1F
100
AcDbEntity
  8
SPOJOVACÍ
  6
DASHED
100
AcDbLine
 10
170.0409746853343
 20
92.21841524701449
 30
0.0
 11
170.0409746853343
 21
89.74076179040276
 31
0.0
  0
LINE
  5
1997
330
1F
100
AcDbEntity
  8
SPOJOVACÍ
  6
DASHED
100
AcDbLine
 10
171.0701397853205
 20
89.31432643027802
 30
0.0
 11
170.700041441794
 21
89.5285459160641
 31
0.0
  0
LINE
  5
1998
330
1F
100
AcDbEntity
  8
SPOJOVACÍ
  6
DASHED
100
AcDbLine
 10
171.0701397853205
 20
89.31432643027802
 30
0.0
 11
170.700041441794
 21
88.94422808461241
 31
0.0
  0
LINE
  5
1999
330
1F
100
AcDbEntity
  8
SPOJOVACÍ
  6
DASHED
100
AcDbLine
 10
170.0409746853343
 20
89.17120958236045
 30
0.0
 11
170.0409746853343
 21
86.70267184843215
 31
0.0
  0
LINE
  5
199A
330
1F
100
AcDbEntity
  8
SPOJOVACÍ
  6
DASHED
100
AcDbLine
 10
171.0701397853205
 20
86.25691300342442
 30
0.0
 11
170.700041441794
 21
86.4711324892105
 31
0.0
  0
LINE
  5
199B
330
1F
100
AcDbEntity
  8
SPOJOVACÍ
  6
DASHED
100
AcDbLine
 10
171.0701397853205
 20
86.25691300342442
 30
0.0
 11
170.700041441794
 21
85.88681465802983
 31
0.0
  0
LINE
  5
199C
330
1F
100
AcDbEntity
  8
SPOJOVACÍ
  6
DASHED
100
AcDbLine
 10
170.0409746853343
 20
86.11835401698044
 30
0.0
 11
170.0409746853343
 21
83.64070056036871
 31
0.0
  0
LINE
  5
199D
330
1F
100
AcDbEntity
  8
SPOJOVACÍ
  6
DASHED
100
AcDbLine
 10
166.7365251693933
 20
84.74552616344045
 30
0.0
 11
170.700041441794
 21
83.4128074904329
 31
0.0
  0
LINE
  5
199E
330
1F
100
AcDbEntity
  8
SPOJOVACÍ
  6
DASHED
100
AcDbLine
 10
167.3955919258529
 20
83.9533698523228
 30
0.0
 11
167.3955919258529
 21
81.47571639571106
 31
0.0
  0
LINE
  5
199F
330
1F
100
AcDbEntity
  8
SPOJOVACÍ
  6
DASHED
100
AcDbLine
 10
166.7365251693933
 20
84.16120833198874
 30
0.0
 11
170.700041441794
 21
82.82848965898848
 31
0.0
  0
LINE
  5
19A0
330
1F
100
AcDbEntity
  8
SPOJOVACÍ
  6
DASHED
100
AcDbLine
 10
166.3664268215885
 20
84.37542781777484
 30
0.0
 11
166.7365251693933
 21
84.16120833198874
 31
0.0
  0
LINE
  5
19A1
330
1F
100
AcDbEntity
  8
SPOJOVACÍ
  6
DASHED
100
AcDbLine
 10
166.3664268215885
 20
84.37542781777484
 30
0.0
 11
166.7365251693933
 21
84.74552616344045
 31
0.0
  0
LINE
  5
19A2
330
1F
100
AcDbEntity
  8
SPOJOVACÍ
  6
DASHED
100
AcDbLine
 10
166.3664268215885
 20
87.43284124462844
 30
0.0
 11
171.0701397853205
 21
86.25691300342442
 31
0.0
  0
LINE
  5
19A3
330
1F
100
AcDbEntity
  8
SPOJOVACÍ
  6
DASHED
100
AcDbLine
 10
166.3664268215885
 20
84.37542781777484
 30
0.0
 11
171.0701397853205
 21
83.19949957684185
 31
0.0
  0
LINE
  5
19A4
330
1F
100
AcDbEntity
  8
SPOJOVACÍ
  6
DASHED
100
AcDbLine
 10
170.0409746853343
 20
83.05820587356356
 30
0.0
 11
170.0409746853343
 21
80.58784499498869
 31
0.0
  0
LINE
  5
19A5
330
1F
100
AcDbEntity
  8
SPOJOVACÍ
  6
DASHED
100
AcDbLine
 10
167.3955919258529
 20
80.88319441377098
 30
0.0
 11
167.3955919258529
 21
78.41556825203042
 31
0.0
  0
LINE
  5
19A6
330
1F
100
AcDbEntity
  8
SPOJOVACÍ
  6
DASHED
100
AcDbLine
 10
167.3955919258529
 20
77.83125042057872
 30
0.0
 11
167.3955919258529
 21
76.60883199352793
 31
0.0
  0
LINE
  5
19A7
330
1F
100
AcDbEntity
  8
SPOJOVACÍ
  6
DASHED
100
AcDbLine
 10
170.0409746853343
 20
79.99896930233444
 30
0.0
 11
170.0409746853343
 21
77.53043156840613
 31
0.0
  0
LINE
  5
19A8
330
1F
100
AcDbEntity
  8
SPOJOVACÍ
  6
DASHED
100
AcDbLine
 10
170.0409746853343
 20
76.93882115865381
 30
0.0
 11
170.0409746853343
 21
76.60883199352793
 31
0.0
  0
LINE
  5
19A9
330
1F
100
AcDbEntity
  8
SPOJOVACÍ
  6
DASHED
100
AcDbLine
 10
167.3955919258529
 20
76.60883199352793
 30
0.0
 11
167.5423550625215
 21
75.43563846915822
 31
0.0
  0
LINE
  5
19AA
330
1F
100
AcDbEntity
  8
SPOJOVACÍ
  6
DASHED
100
AcDbLine
 10
168.7182833034545
 20
66.02456625187369
 30
0.0
 11
169.0655923449609
 21
68.80395013311681
 31
0.0
  0
LINE
  5
19AB
330
1F
100
AcDbEntity
  8
SPOJOVACÍ
  6
DASHED
100
AcDbLine
 10
167.6180155631969
 20
74.82761975842186
 30
0.0
 11
167.9024261157261
 21
72.55233534807849
 31
0.0
  0
LINE
  5
19AC
330
1F
100
AcDbEntity
  8
SPOJOVACÍ
  6
DASHED
100
AcDbLine
 10
167.9799097597075
 20
71.93428934220719
 30
0.0
 11
168.2643203079584
 21
69.65991650405886
 31
0.0
  0
LINE
  5
19AD
330
1F
100
AcDbEntity
  8
SPOJOVACÍ
  6
DASHED
100
AcDbLine
 10
168.3399808086338
 20
69.0518977933225
 30
0.0
 11
168.7182833034545
 21
66.02456625187369
 31
0.0
  0
LINE
  5
19AE
330
1F
100
AcDbEntity
  8
SPOJOVACÍ
  6
DASHED
100
AcDbLine
 10
169.1357834114402
 20
69.36183236844226
 30
0.0
 11
169.3983162271848
 21
71.46391804572704
 31
0.0
  0
LINE
  5
19AF
330
1F
100
AcDbEntity
  8
SPOJOVACÍ
  6
DASHED
100
AcDbLine
 10
169.4685072893859
 20
72.0245349978868
 30
0.0
 11
169.7301285356167
 21
74.1184165246832
 31
0.0
  0
LINE
  5
19B0
330
1F
100
AcDbEntity
  8
SPOJOVACÍ
  6
DASHED
100
AcDbLine
 10
169.800319602096
 20
74.67721033246744
 30
0.0
 11
170.0409746853343
 21
76.60883199352793
 31
0.0
  0
LINE
  5
19B1
330
1F
100
AcDbEntity
  8
SPOJOVACÍ
  6
DASHED
100
AcDbLine
 10
166.3664268215885
 20
90.49025467121101
 30
0.0
 11
171.0701397853205
 21
89.31432643027802
 31
0.0
  0
LINE
  5
19B2
330
1F
100
AcDbEntity
  8
SPOJOVACÍ
  6
DASHED
100
AcDbLine
 10
166.6152860561211
 20
75.24420829047631
 30
0.0
 11
166.9862959734397
 21
75.02998880469021
 31
0.0
  0
LINE
  5
19B3
330
1F
100
AcDbEntity
  8
SPOJOVACÍ
  6
DASHED
100
AcDbLine
 10
166.6152860561211
 20
75.24420829047631
 30
0.0
 11
166.9862959734397
 21
75.61430663614192
 31
0.0
  0
LINE
  5
19B4
330
1F
100
AcDbEntity
  8
SPOJOVACÍ
  6
DASHED
100
AcDbLine
 10
170.6581091158092
 20
74.29070368581779
 30
0.0
 11
170.2880107722827
 21
73.91969376769338
 31
0.0
  0
LINE
  5
19B5
330
1F
100
AcDbEntity
  8
SPOJOVACÍ
  6
DASHED
100
AcDbLine
 10
170.6581091158092
 20
74.29070368581779
 30
0.0
 11
170.2880107722827
 21
74.50401159914509
 31
0.0
  0
LINE
  5
19B6
330
1F
100
AcDbEntity
  8
SPOJOVACÍ
  6
DASHED
100
AcDbLine
 10
166.9862959734397
 20
75.02998880469021
 30
0.0
 11
170.2880107722827
 21
73.91969376769338
 31
0.0
  0
LINE
  5
19B7
330
1F
100
AcDbEntity
  8
SPOJOVACÍ
  6
DASHED
100
AcDbLine
 10
166.9862959734397
 20
75.61430663614192
 30
0.0
 11
170.2880107722827
 21
74.50401159914509
 31
0.0
  0
LINE
  5
19B8
330
1F
100
AcDbEntity
  8
SPOJOVACÍ
  6
DASHED
100
AcDbLine
 10
166.6152860561211
 20
75.24420829047631
 30
0.0
 11
170.6581091158092
 21
74.29070368581779
 31
0.0
  0
LINE
  5
19B9
330
1F
100
AcDbEntity
  8
SPOJOVACÍ
  6
DASHED
100
AcDbLine
 10
167.1686104281048
 20
72.28980253126429
 30
0.0
 11
167.5387087759096
 21
72.07649461793699
 31
0.0
  0
LINE
  5
19BA
330
1F
100
AcDbEntity
  8
SPOJOVACÍ
  6
DASHED
100
AcDbLine
 10
167.1686104281048
 20
72.28980253126429
 30
0.0
 11
167.5387087759096
 21
72.66081244938868
 31
0.0
  0
LINE
  5
19BB
330
1F
100
AcDbEntity
  8
SPOJOVACÍ
  6
DASHED
100
AcDbLine
 10
170.2223775662074
 20
71.66902180882971
 30
0.0
 11
169.8522792226809
 21
71.29801189097634
 31
0.0
  0
LINE
  5
19BC
330
1F
100
AcDbEntity
  8
SPOJOVACÍ
  6
DASHED
100
AcDbLine
 10
170.2223775662074
 20
71.66902180882971
 30
0.0
 11
169.8522792226809
 21
71.88232972215701
 31
0.0
  0
LINE
  5
19BD
330
1F
100
AcDbEntity
  8
SPOJOVACÍ
  6
DASHED
100
AcDbLine
 10
167.5387087759096
 20
72.07649461793699
 30
0.0
 11
169.8522792226809
 21
71.29801189097634
 31
0.0
  0
LINE
  5
19BE
330
1F
100
AcDbEntity
  8
SPOJOVACÍ
  6
DASHED
100
AcDbLine
 10
167.5387087759096
 20
72.66081244938868
 30
0.0
 11
169.8522792226809
 21
71.88232972215701
 31
0.0
  0
LINE
  5
19BF
330
1F
100
AcDbEntity
  8
SPOJOVACÍ
  6
DASHED
100
AcDbLine
 10
167.1686104281048
 20
72.28980253126429
 30
0.0
 11
170.2223775662074
 21
71.66902180882971
 31
0.0
  0
LINE
  5
19C0
330
1F
100
AcDbEntity
  8
SPOJOVACÍ
  6
DASHED
100
AcDbLine
 10
167.7219348043669
 20
69.33630834451105
 30
0.0
 11
168.0920331478934
 21
69.12208885873224
 31
0.0
  0
LINE
  5
19C1
330
1F
100
AcDbEntity
  8
SPOJOVACÍ
  6
DASHED
100
AcDbLine
 10
167.7219348043669
 20
69.33630834451105
 30
0.0
 11
168.0920331478934
 21
69.70640669017666
 31
0.0
  0
LINE
  5
19C2
330
1F
100
AcDbEntity
  8
SPOJOVACÍ
  6
DASHED
100
AcDbLine
 10
169.8331362029945
 20
69.03184320305263
 30
0.0
 11
169.463037859468
 21
68.66083328519926
 31
0.0
  0
LINE
  5
19C3
330
1F
100
AcDbEntity
  8
SPOJOVACÍ
  6
DASHED
100
AcDbLine
 10
169.8331362029945
 20
69.03184320305263
 30
0.0
 11
169.463037859468
 21
69.24515111664368
 31
0.0
  0
LINE
  5
19C4
330
1F
100
AcDbEntity
  8
SPOJOVACÍ
  6
DASHED
100
AcDbLine
 10
168.0920331478934
 20
69.12208885873224
 30
0.0
 11
169.463037859468
 21
68.66083328519926
 31
0.0
  0
LINE
  5
19C5
330
1F
100
AcDbEntity
  8
SPOJOVACÍ
  6
DASHED
100
AcDbLine
 10
168.0920331478934
 20
69.70640669017666
 30
0.0
 11
169.463037859468
 21
69.24515111664368
 31
0.0
  0
LINE
  5
19C6
330
1F
100
AcDbEntity
  8
SPOJOVACÍ
  6
DASHED
100
AcDbLine
 10
167.7219348043669
 20
69.33630834451105
 30
0.0
 11
169.8331362029945
 21
69.03184320305263
 31
0.0
  0
LINE
  5
19C7
330
1F
100
AcDbEntity
  8
SPOJOVACÍ
  6
DASHED
100
AcDbLine
 10
171.0701397853205
 20
83.19949957684185
 30
0.0
 11
170.700041441794
 21
82.82848965898848
 31
0.0
  0
LINE
  5
19C8
330
1F
100
AcDbEntity
  8
SPOJOVACÍ
  6
DASHED
100
AcDbLine
 10
171.0701397853205
 20
83.19949957684185
 30
0.0
 11
170.700041441794
 21
83.4128074904329
 31
0.0
  0
LINE
  5
19C9
330
1F
100
AcDbEntity
  8
SPOJOVACÍ
  6
DASHED
100
AcDbLine
 10
166.3664268215885
 20
81.31801439118499
 30
0.0
 11
171.0701397853205
 21
80.142086150252
 31
0.0
  0
LINE
  5
19CA
330
1F
100
AcDbEntity
  8
SPOJOVACÍ
  6
DASHED
100
AcDbLine
 10
166.3664268215885
 20
81.31801439118499
 30
0.0
 11
166.7365251693933
 21
81.10379490540617
 31
0.0
  0
LINE
  5
19CB
330
1F
100
AcDbEntity
  8
SPOJOVACÍ
  6
DASHED
100
AcDbLine
 10
166.3664268215885
 20
81.31801439118499
 30
0.0
 11
166.7365251693933
 21
81.6881127368506
 31
0.0
  0
LINE
  5
19CC
330
1F
100
AcDbEntity
  8
SPOJOVACÍ
  6
DASHED
100
AcDbLine
 10
171.0701397853205
 20
80.142086150252
 30
0.0
 11
170.700041441794
 21
79.77107623239863
 31
0.0
  0
LINE
  5
19CD
330
1F
100
AcDbEntity
  8
SPOJOVACÍ
  6
DASHED
100
AcDbLine
 10
171.0701397853205
 20
80.142086150252
 30
0.0
 11
170.700041441794
 21
80.3553940635793
 31
0.0
  0
LINE
  5
19CE
330
1F
100
AcDbEntity
  8
SPOJOVACÍ
  6
DASHED
100
AcDbLine
 10
166.7365251693933
 20
81.10379490540617
 30
0.0
 11
170.700041441794
 21
79.77107623239863
 31
0.0
  0
LINE
  5
19CF
330
1F
100
AcDbEntity
  8
SPOJOVACÍ
  6
DASHED
100
AcDbLine
 10
166.7365251693933
 20
81.6881127368506
 30
0.0
 11
170.700041441794
 21
80.3553940635793
 31
0.0
  0
LINE
  5
19D0
330
1F
100
AcDbEntity
  8
SPOJOVACÍ
  6
DASHED
100
AcDbLine
 10
166.3664268215885
 20
78.25968939214362
 30
0.0
 11
171.0701397853205
 21
77.08376115121064
 31
0.0
  0
LINE
  5
19D1
330
1F
100
AcDbEntity
  8
SPOJOVACÍ
  6
DASHED
100
AcDbLine
 10
166.3664268215885
 20
78.25968939214362
 30
0.0
 11
166.7365251693933
 21
78.04638147881632
 31
0.0
  0
LINE
  5
19D2
330
1F
100
AcDbEntity
  8
SPOJOVACÍ
  6
DASHED
100
AcDbLine
 10
166.3664268215885
 20
78.25968939214362
 30
0.0
 11
166.7365251693933
 21
78.63069931026803
 31
0.0
  0
LINE
  5
19D3
330
1F
100
AcDbEntity
  8
SPOJOVACÍ
  6
DASHED
100
AcDbLine
 10
171.0701397853205
 20
77.08376115121064
 30
0.0
 11
170.700041441794
 21
76.71366280554503
 31
0.0
  0
LINE
  5
19D4
330
1F
100
AcDbEntity
  8
SPOJOVACÍ
  6
DASHED
100
AcDbLine
 10
171.0701397853205
 20
77.08376115121064
 30
0.0
 11
170.700041441794
 21
77.29798063699672
 31
0.0
  0
LINE
  5
19D5
330
1F
100
AcDbEntity
  8
SPOJOVACÍ
  6
DASHED
100
AcDbLine
 10
166.7365251693933
 20
78.04638147881632
 30
0.0
 11
170.700041441794
 21
76.71366280554503
 31
0.0
  0
LINE
  5
19D6
330
1F
100
AcDbEntity
  8
SPOJOVACÍ
  6
DASHED
100
AcDbLine
 10
166.7365251693933
 20
78.63069931026803
 30
0.0
 11
170.700041441794
 21
77.29798063699672
 31
0.0
  0
LINE
  5
19D7
330
1F
100
AcDbEntity
  8
SPOJOVACÍ
  6
DASHED
100
AcDbLine
 10
166.3664268215885
 20
93.53290247466247
 30
0.0
 11
171.0701397853205
 21
92.35697423345845
 31
0.0
  0
LINE
  5
19D8
330
1F
100
AcDbEntity
  8
SPOJOVACÍ
  6
DASHED
100
AcDbLine
 10
166.3664268215885
 20
96.59031590124506
 30
0.0
 11
171.0701397853205
 21
95.41438766031205
 31
0.0
  0
LINE
  5
19D9
330
1F
100
AcDbEntity
  8
SPOJOVACÍ
  6
DASHED
100
AcDbLine
 10
166.3664268215885
 20
99.63296370469652
 30
0.0
 11
171.0701397853205
 21
98.45703546376354
 31
0.0
  0
POLYLINE
  5
19DA
330
1F
100
AcDbEntity
  8
STAVBA OBRYS
100
AcDb2dPolyline
 66
     1
 10
0.0
 20
0.0
 30
0.0
  0
VERTEX
  5
19DB
330
19DA
100
AcDbEntity
  8
STAVBA OBRYS
100
AcDbVertex
100
AcDb2dVertex
 10
162.406525844644
 20
80.57452041286342
 30
0.0
 42
-0.0072417954699014
  0
VERTEX
  5
19DC
330
19DA
100
AcDbEntity
  8
STAVBA OBRYS
100
AcDbVertex
100
AcDb2dVertex
 10
162.3509554768003
 20
80.16311520158888
 30
0.0
 42
-0.0707158694326265
  0
VERTEX
  5
19DD
330
19DA
100
AcDbEntity
  8
STAVBA OBRYS
100
AcDbVertex
100
AcDb2dVertex
 10
161.8198289603802
 20
78.2270117489952
 30
0.0
 42
-0.033952657250207
  0
VERTEX
  5
19DE
330
19DA
100
AcDbEntity
  8
STAVBA OBRYS
100
AcDbVertex
100
AcDb2dVertex
 10
159.5711731209718
 20
73.87397402382157
 30
0.0
 42
-0.0571374688189033
  0
VERTEX
  5
19DF
330
19DA
100
AcDbEntity
  8
STAVBA OBRYS
100
AcDbVertex
100
AcDb2dVertex
 10
157.7850163611198
 20
71.56704974013519
 30
0.0
 42
-0.0274923553235744
  0
VERTEX
  5
19E0
330
19DA
100
AcDbEntity
  8
STAVBA OBRYS
100
AcDbVertex
100
AcDb2dVertex
 10
155.187710630567
 20
69.18197441700067
 30
0.0
 42
-0.0255412025538677
  0
VERTEX
  5
19E1
330
19DA
100
AcDbEntity
  8
STAVBA OBRYS
100
AcDbVertex
100
AcDb2dVertex
 10
152.1362805928562
 20
66.92526073998124
 30
0.0
 42
-0.0272796991712396
  0
VERTEX
  5
19E2
330
19DA
100
AcDbEntity
  8
STAVBA OBRYS
100
AcDbVertex
100
AcDb2dVertex
 10
148.023281439671
 20
64.508924858319
 30
0.0
 42
-0.056967459841729
  0
VERTEX
  5
19E3
330
19DA
100
AcDbEntity
  8
STAVBA OBRYS
100
AcDbVertex
100
AcDb2dVertex
 10
145.8823341589392
 20
63.69618902311959
 30
0.0
 42
-0.0373408083348504
  0
VERTEX
  5
19E4
330
19DA
100
AcDbEntity
  8
STAVBA OBRYS
100
AcDbVertex
100
AcDb2dVertex
 10
145.6599797834656
 20
63.65702348216837
 30
0.0
 42
-0.0052305969362967
  0
VERTEX
  5
19E5
330
19DA
100
AcDbEntity
  8
STAVBA OBRYS
100
AcDbVertex
100
AcDb2dVertex
 10
145.3140200097055
 20
63.62606651526403
 30
0.0
  0
SEQEND
  5
19E6
330
19DA
100
AcDbEntity
  8
STAVBA OBRYS
  0
POLYLINE
  5
19E7
330
1F
100
AcDbEntity
  8
STAVBA OBRYS
100
AcDb2dPolyline
 66
     1
 10
0.0
 20
0.0
 30
0.0
  0
VERTEX
  5
19E8
330
19E7
100
AcDbEntity
  8
STAVBA OBRYS
100
AcDbVertex
100
AcDb2dVertex
 10
155.1784748239057
 20
80.57452041286342
 30
0.0
 42
-0.0064239028828688
  0
VERTEX
  5
19E9
330
19E7
100
AcDbEntity
  8
STAVBA OBRYS
100
AcDbVertex
100
AcDb2dVertex
 10
155.1396063837252
 20
80.35540675351331
 30
0.0
 42
-0.0832048017309575
  0
VERTEX
  5
19EA
330
19E7
100
AcDbEntity
  8
STAVBA OBRYS
100
AcDbVertex
100
AcDb2dVertex
 10
154.3554237810436
 20
78.0251931738585
 30
0.0
 42
-0.0336767237692336
  0
VERTEX
  5
19EB
330
19E7
100
AcDbEntity
  8
STAVBA OBRYS
100
AcDbVertex
100
AcDb2dVertex
 10
152.6526072221219
 20
75.29691865439781
 30
0.0
 42
-0.0844635135812105
  0
VERTEX
  5
19EC
330
19E7
100
AcDbEntity
  8
STAVBA OBRYS
100
AcDbVertex
100
AcDb2dVertex
 10
151.7327974622291
 20
74.39249704940266
 30
0.0
 42
-0.0495829410719565
  0
VERTEX
  5
19ED
330
19E7
100
AcDbEntity
  8
STAVBA OBRYS
100
AcDbVertex
100
AcDb2dVertex
 10
149.9841190248749
 20
73.41584754208998
 30
0.0
 42
-0.0322692699774654
  0
VERTEX
  5
19EE
330
19E7
100
AcDbEntity
  8
STAVBA OBRYS
100
AcDbVertex
100
AcDb2dVertex
 10
147.0927648437842
 20
72.37432404068932
 30
0.0
 42
-0.0276160659512937
  0
VERTEX
  5
19EF
330
19E7
100
AcDbEntity
  8
STAVBA OBRYS
100
AcDbVertex
100
AcDb2dVertex
 10
146.237188405497
 20
72.1775886117448
 30
0.0
 42
-0.0126891984598699
  0
VERTEX
  5
19F0
330
19E7
100
AcDbEntity
  8
STAVBA OBRYS
100
AcDbVertex
100
AcDb2dVertex
 10
145.3140200097055
 20
72.04238622220327
 30
0.0
  0
SEQEND
  5
19F1
330
19E7
100
AcDbEntity
  8
STAVBA OBRYS
  0
LWPOLYLINE
  5
19F2
330
1F
100
AcDbEntity
  8
STAVBA OBRYS
100
AcDbPolyline
 90
       10
 70
     0
 43
0.0
 10
169.3563038683292
 20
80.57452041286524
 42
-0.0168162630274194
 10
169.2212782892653
 20
78.88348226074595
 42
-0.0575155827655532
 10
168.5412460089224
 20
75.78385760002857
 42
-0.0310289133982999
 10
165.5384446640943
 20
68.53883007538389
 42
-0.0882970623535771
 10
163.9012227440012
 20
66.29846102458396
 42
-0.0171636441953577
 10
161.0878586821432
 20
63.78454366933874
 42
-0.0157521173632038
 10
157.8490038451069
 20
61.25304761683219
 42
-0.0073640874174249
 10
153.2153544887856
 20
57.9646461910961
 42
-0.0194185739168057
 10
151.393311169109
 20
56.81307719181496
 42
-0.0567960585128809
 10
145.3140200097055
 20
54.16121298643884
 42
-0.0229547400386702
  0
LWPOLYLINE
  5
19F3
330
1F
100
AcDbEntity
  8
STAVBA OBRYS
100
AcDbPolyline
 90
        7
 70
     0
 43
0.0
 10
149.8287884893885
 20
80.57452041286524
 42
-0.0203924744732807
 10
148.9267045049797
 20
79.56139038371111
 42
-0.0273961979096945
 10
148.0768401547844
 20
78.77321400968503
 42
-0.0243529190212958
 10
146.9137196623647
 20
77.8994546650174
 42
-0.0398020282482987
 10
146.1387611248043
 20
77.45982592157088
 42
-0.104168275620852
 10
145.7523499884642
 20
77.36980946139374
 42
-0.007272956268647
 10
145.3140200097055
 20
77.351356110099
 42
-0.007272956268647
  0
INSERT
  5
19F4
330
1F
100
AcDbEntity
  8
POPIS
100
AcDbBlockReference
  2
E_PUNKT
 10
97.58718500714497
 20
94.3703132043729
 30
0.0
 50
270.0
  0
TEXT
  5
19F5
330
1F
100
AcDbEntity
  8
POPIS
100
AcDbText
 10
80.71858240621407
 20
185.7173402387761
 30
0.0
 40
25.0
  1
03
 41
0.85
  7
SIMPLEX7
100
AcDbText
  0
LINE
  5
19F6
330
1F
100
AcDbEntity
  8
POPIS
100
AcDbLine
 10
97.61625333801896
 20
176.8679791660524
 30
0.0
 11
97.61625333801896
 21
91.11744911042206
 31
0.0
  0
TEXT
  5
19F7
330
1F
100
AcDbEntity
  8
POPIS
100
AcDbText
 10
140.6795743103681
 20
185.7173402387761
 30
0.0
 40
25.0
  1
04
 41
0.85
  7
SIMPLEX7
100
AcDbText
  0
INSERT
  5
19F8
330
1F
100
AcDbEntity
  8
POPIS
100
AcDbBlockReference
  2
E_PUNKT
 10
168.5240833333478
 20
97.54794545842106
 30
0.0
 50
270.0
  0
LINE
  5
19F9
330
1F
100
AcDbEntity
  8
POPIS
100
AcDbLine
 10
168.5531516642219
 20
176.8679791660524
 30
0.0
 11
168.5531516642219
 21
97.52033508279419
 31
0.0
  0
LINE
  5
19FA
330
1F
100
AcDbEntity
  8
SPOJOVACÍ
  6
DASHED
100
AcDbLine
 10
213.2402049532316
 20
107.5745204128652
 30
0.0
 11
223.2365065749541
 21
107.5745204128652
 31
0.0
  0
LINE
  5
19FB
330
1F
100
AcDbEntity
  8
SPOJOVACÍ
  6
DASHED
100
AcDbLine
 10
223.2365065749541
 20
107.5745204128652
 30
0.0
 11
223.2365065749541
 21
106.3985921716684
 31
0.0
  0
LINE
  5
19FC
330
1F
100
AcDbEntity
  8
SPOJOVACÍ
  6
DASHED
100
AcDbLine
 10
222.5355074925097
 20
106.0686030065426
 30
0.0
 11
223.2365065749541
 21
106.3985921716684
 31
0.0
  0
LINE
  5
19FD
330
1F
100
AcDbEntity
  8
SPOJOVACÍ
  6
DASHED
100
AcDbLine
 10
213.2402049532316
 20
106.3985921716684
 30
0.0
 11
223.2365065749541
 21
106.3985921716684
 31
0.0
  0
LINE
  5
19FE
330
1F
100
AcDbEntity
  8
SPOJOVACÍ
  6
DASHED
100
AcDbLine
 10
216.9156643864913
 20
87.00622541770281
 30
0.0
 11
216.9156643864913
 21
84.53586453912794
 31
0.0
  0
LINE
  5
19FF
330
1F
100
AcDbEntity
  8
SPOJOVACÍ
  6
DASHED
100
AcDbLine
 10
216.2565976300317
 20
87.21862175884234
 30
0.0
 11
220.2201139024324
 21
85.88681465802983
 31
0.0
  0
LINE
  5
1A00
330
1F
100
AcDbEntity
  8
SPOJOVACÍ
  6
DASHED
100
AcDbLine
 10
215.8864992822269
 20
87.43284124462844
 30
0.0
 11
216.2565976300317
 21
87.21862175884234
 31
0.0
  0
LINE
  5
1A01
330
1F
100
AcDbEntity
  8
SPOJOVACÍ
  6
DASHED
100
AcDbLine
 10
215.8864992822269
 20
87.43284124462844
 30
0.0
 11
216.2565976300317
 21
87.80293959029405
 31
0.0
  0
LINE
  5
1A02
330
1F
100
AcDbEntity
  8
SPOJOVACÍ
  6
DASHED
100
AcDbLine
 10
216.2565976300317
 20
87.80293959029405
 30
0.0
 11
220.2201139024324
 21
86.4711324892105
 31
0.0
  0
LINE
  5
1A03
330
1F
100
AcDbEntity
  8
SPOJOVACÍ
  6
DASHED
100
AcDbLine
 10
216.9156643864913
 20
90.06637356111969
 30
0.0
 11
216.9156643864913
 21
87.59783582719137
 31
0.0
  0
LINE
  5
1A04
330
1F
100
AcDbEntity
  8
SPOJOVACÍ
  6
DASHED
100
AcDbLine
 10
216.2565976300317
 20
90.27694675788371
 30
0.0
 11
220.2201139024324
 21
88.94422808461241
 31
0.0
  0
LINE
  5
1A05
330
1F
100
AcDbEntity
  8
SPOJOVACÍ
  6
DASHED
100
AcDbLine
 10
215.8864992822269
 20
90.49025467121101
 30
0.0
 11
216.2565976300317
 21
90.27694675788371
 31
0.0
  0
LINE
  5
1A06
330
1F
100
AcDbEntity
  8
SPOJOVACÍ
  6
DASHED
100
AcDbLine
 10
215.8864992822269
 20
90.49025467121101
 30
0.0
 11
216.2565976300317
 21
90.86126458906438
 31
0.0
  0
LINE
  5
1A07
330
1F
100
AcDbEntity
  8
SPOJOVACÍ
  6
DASHED
100
AcDbLine
 10
216.2565976300317
 20
90.86126458906438
 30
0.0
 11
220.2201139024324
 21
89.5285459160641
 31
0.0
  0
LINE
  5
1A08
330
1F
100
AcDbEntity
  8
SPOJOVACÍ
  6
DASHED
100
AcDbLine
 10
216.9156643864913
 20
93.10628664773686
 30
0.0
 11
216.9156643864913
 21
90.63592576916198
 31
0.0
  0
LINE
  5
1A09
330
1F
100
AcDbEntity
  8
SPOJOVACÍ
  6
DASHED
100
AcDbLine
 10
216.2565976300317
 20
93.3186829888764
 30
0.0
 11
220.2201139024324
 21
91.98687588806388
 31
0.0
  0
LINE
  5
1A0A
330
1F
100
AcDbEntity
  8
SPOJOVACÍ
  6
DASHED
100
AcDbLine
 10
215.8864992822269
 20
93.53290247466247
 30
0.0
 11
216.2565976300317
 21
93.3186829888764
 31
0.0
  0
LINE
  5
1A0B
330
1F
100
AcDbEntity
  8
SPOJOVACÍ
  6
DASHED
100
AcDbLine
 10
215.8864992822269
 20
93.53290247466247
 30
0.0
 11
216.2565976300317
 21
93.90300082032808
 31
0.0
  0
LINE
  5
1A0C
330
1F
100
AcDbEntity
  8
SPOJOVACÍ
  6
DASHED
100
AcDbLine
 10
216.2565976300317
 20
93.90300082032808
 30
0.0
 11
220.2201139024324
 21
92.57119371924455
 31
0.0
  0
LINE
  5
1A0D
330
1F
100
AcDbEntity
  8
SPOJOVACÍ
  6
DASHED
100
AcDbLine
 10
216.9156643864913
 20
96.16643479115374
 30
0.0
 11
216.9156643864913
 21
93.69789705722542
 31
0.0
  0
LINE
  5
1A0E
330
1F
100
AcDbEntity
  8
SPOJOVACÍ
  6
DASHED
100
AcDbLine
 10
216.2565976300317
 20
96.37700798791776
 30
0.0
 11
220.2201139024324
 21
95.04428931464644
 31
0.0
  0
LINE
  5
1A0F
330
1F
100
AcDbEntity
  8
SPOJOVACÍ
  6
DASHED
100
AcDbLine
 10
215.8864992822269
 20
96.59031590124506
 30
0.0
 11
216.2565976300317
 21
96.37700798791776
 31
0.0
  0
LINE
  5
1A10
330
1F
100
AcDbEntity
  8
SPOJOVACÍ
  6
DASHED
100
AcDbLine
 10
215.8864992822269
 20
96.59031590124506
 30
0.0
 11
216.2565976300317
 21
96.96132581909843
 31
0.0
  0
LINE
  5
1A11
330
1F
100
AcDbEntity
  8
SPOJOVACÍ
  6
DASHED
100
AcDbLine
 10
216.2565976300317
 20
96.96132581909843
 30
0.0
 11
220.2201139024324
 21
95.62860714609815
 31
0.0
  0
LINE
  5
1A12
330
1F
100
AcDbEntity
  8
SPOJOVACÍ
  6
DASHED
100
AcDbLine
 10
216.9156643864913
 20
99.20908259460521
 30
0.0
 11
216.9156643864913
 21
96.74054486067689
 31
0.0
  0
LINE
  5
1A13
330
1F
100
AcDbEntity
  8
SPOJOVACÍ
  6
DASHED
100
AcDbLine
 10
216.2565976300317
 20
99.41965579136923
 30
0.0
 11
220.2201139024324
 21
98.08693711809793
 31
0.0
  0
LINE
  5
1A14
330
1F
100
AcDbEntity
  8
SPOJOVACÍ
  6
DASHED
100
AcDbLine
 10
215.8864992822269
 20
99.63296370469652
 30
0.0
 11
216.2565976300317
 21
99.41965579136923
 31
0.0
  0
LINE
  5
1A15
330
1F
100
AcDbEntity
  8
SPOJOVACÍ
  6
DASHED
100
AcDbLine
 10
215.8864992822269
 20
99.63296370469652
 30
0.0
 11
216.2565976300317
 21
100.0039736225498
 31
0.0
  0
LINE
  5
1A16
330
1F
100
AcDbEntity
  8
SPOJOVACÍ
  6
DASHED
100
AcDbLine
 10
216.2565976300317
 20
100.0039736225498
 30
0.0
 11
220.2201139024324
 21
98.67125494954962
 31
0.0
  0
LINE
  5
1A17
330
1F
100
AcDbEntity
  8
SPOJOVACÍ
  6
DASHED
100
AcDbLine
 10
216.8833035703497
 20
101.492510161529
 30
0.0
 11
216.9156643864913
 21
99.78236469938202
 31
0.0
  0
LINE
  5
1A18
330
1F
100
AcDbEntity
  8
SPOJOVACÍ
  6
DASHED
100
AcDbLine
 10
216.8509427542081
 20
101.878105235859
 30
0.0
 11
216.9156643864913
 21
101.106915087199
 31
0.0
  0
LINE
  5
1A19
330
1F
100
AcDbEntity
  8
SPOJOVACÍ
  6
DASHED
100
AcDbLine
 10
216.4316195071947
 20
103.3293283055682
 30
0.0
 11
216.8509427542081
 21
101.878105235859
 31
0.0
  0
LINE
  5
1A1A
330
1F
100
AcDbEntity
  8
SPOJOVACÍ
  6
DASHED
100
AcDbLine
 10
215.6513136374629
 20
104.6219377982997
 30
0.0
 11
216.4316195071947
 21
103.3293283055682
 31
0.0
  0
LINE
  5
1A1B
330
1F
100
AcDbEntity
  8
SPOJOVACÍ
  6
DASHED
100
AcDbLine
 10
214.5628963351115
 20
105.6693343479237
 30
0.0
 11
215.6513136374629
 21
104.6219377982997
 31
0.0
  0
LINE
  5
1A1C
330
1F
100
AcDbEntity
  8
SPOJOVACÍ
  6
DASHED
100
AcDbLine
 10
213.2402049532316
 20
106.3985921716684
 30
0.0
 11
214.5628963351115
 21
105.6693343479237
 31
0.0
  0
LINE
  5
1A1D
330
1F
100
AcDbEntity
  8
SPOJOVACÍ
  6
DASHED
100
AcDbLine
 10
213.2402049532316
 20
107.5745204128652
 30
0.0
 11
213.2402049532316
 21
106.3985921716684
 31
0.0
  0
LINE
  5
1A1E
330
1F
100
AcDbEntity
  8
SPOJOVACÍ
  6
DASHED
100
AcDbLine
 10
221.323116359788
 20
105.1688811663098
 30
0.0
 11
222.5355074925097
 21
106.0686030065426
 31
0.0
  0
LINE
  5
1A1F
330
1F
100
AcDbEntity
  8
SPOJOVACÍ
  6
DASHED
100
AcDbLine
 10
220.3841969112033
 20
103.9856603470689
 30
0.0
 11
221.323116359788
 21
105.1688811663098
 31
0.0
  0
LINE
  5
1A20
330
1F
100
AcDbEntity
  8
SPOJOVACÍ
  6
DASHED
100
AcDbLine
 10
219.7834707790385
 20
102.6000704815596
 30
0.0
 11
220.3841969112033
 21
103.9856603470689
 31
0.0
  0
LINE
  5
1A21
330
1F
100
AcDbEntity
  8
SPOJOVACÍ
  6
DASHED
100
AcDbLine
 10
219.5610471459727
 20
101.106915087199
 30
0.0
 11
219.7834707790385
 21
102.6000704815596
 31
0.0
  0
LINE
  5
1A22
330
1F
100
AcDbEntity
  8
SPOJOVACÍ
  6
DASHED
100
AcDbLine
 10
219.5610471459727
 20
101.1069150872008
 30
0.0
 11
219.5610471459727
 21
98.89286387271932
 31
0.0
  0
LINE
  5
1A23
330
1F
100
AcDbEntity
  8
SPOJOVACÍ
  6
DASHED
100
AcDbLine
 10
220.5902122459589
 20
98.45703546376354
 30
0.0
 11
220.2201139024324
 21
98.67125494954962
 31
0.0
  0
LINE
  5
1A24
330
1F
100
AcDbEntity
  8
SPOJOVACÍ
  6
DASHED
100
AcDbLine
 10
220.5902122459589
 20
98.45703546376354
 30
0.0
 11
220.2201139024324
 21
98.08693711809793
 31
0.0
  0
LINE
  5
1A25
330
1F
100
AcDbEntity
  8
SPOJOVACÍ
  6
DASHED
100
AcDbLine
 10
219.5610471459727
 20
98.31391861584599
 30
0.0
 11
219.5610471459727
 21
95.84538088191767
 31
0.0
  0
LINE
  5
1A26
330
1F
100
AcDbEntity
  8
SPOJOVACÍ
  6
DASHED
100
AcDbLine
 10
220.5902122459589
 20
95.41438766031205
 30
0.0
 11
220.2201139024324
 21
95.62860714609815
 31
0.0
  0
LINE
  5
1A27
330
1F
100
AcDbEntity
  8
SPOJOVACÍ
  6
DASHED
100
AcDbLine
 10
220.5902122459589
 20
95.41438766031205
 30
0.0
 11
220.2201139024324
 21
95.04428931464644
 31
0.0
  0
LINE
  5
1A28
330
1F
100
AcDbEntity
  8
SPOJOVACÍ
  6
DASHED
100
AcDbLine
 10
219.5610471459727
 20
95.2712708123945
 30
0.0
 11
219.5610471459727
 21
92.80273307846618
 31
0.0
  0
LINE
  5
1A29
330
1F
100
AcDbEntity
  8
SPOJOVACÍ
  6
DASHED
100
AcDbLine
 10
220.5902122459589
 20
92.35697423345845
 30
0.0
 11
220.2201139024324
 21
92.57119371924455
 31
0.0
  0
LINE
  5
1A2A
330
1F
100
AcDbEntity
  8
SPOJOVACÍ
  6
DASHED
100
AcDbLine
 10
220.5902122459589
 20
92.35697423345845
 30
0.0
 11
220.2201139024324
 21
91.98687588806388
 31
0.0
  0
LINE
  5
1A2B
330
1F
100
AcDbEntity
  8
SPOJOVACÍ
  6
DASHED
100
AcDbLine
 10
219.5610471459727
 20
92.21841524701449
 30
0.0
 11
219.5610471459727
 21
89.74076179040276
 31
0.0
  0
LINE
  5
1A2C
330
1F
100
AcDbEntity
  8
SPOJOVACÍ
  6
DASHED
100
AcDbLine
 10
220.5902122459589
 20
89.31432643027802
 30
0.0
 11
220.2201139024324
 21
89.5285459160641
 31
0.0
  0
LINE
  5
1A2D
330
1F
100
AcDbEntity
  8
SPOJOVACÍ
  6
DASHED
100
AcDbLine
 10
220.5902122459589
 20
89.31432643027802
 30
0.0
 11
220.2201139024324
 21
88.94422808461241
 31
0.0
  0
LINE
  5
1A2E
330
1F
100
AcDbEntity
  8
SPOJOVACÍ
  6
DASHED
100
AcDbLine
 10
219.5610471459727
 20
89.17120958236045
 30
0.0
 11
219.5610471459727
 21
86.70267184843215
 31
0.0
  0
LINE
  5
1A2F
330
1F
100
AcDbEntity
  8
SPOJOVACÍ
  6
DASHED
100
AcDbLine
 10
220.5902122459589
 20
86.25691300342442
 30
0.0
 11
220.2201139024324
 21
86.4711324892105
 31
0.0
  0
LINE
  5
1A30
330
1F
100
AcDbEntity
  8
SPOJOVACÍ
  6
DASHED
100
AcDbLine
 10
220.5902122459589
 20
86.25691300342442
 30
0.0
 11
220.2201139024324
 21
85.88681465802983
 31
0.0
  0
LINE
  5
1A31
330
1F
100
AcDbEntity
  8
SPOJOVACÍ
  6
DASHED
100
AcDbLine
 10
219.5610471459727
 20
86.11835401698044
 30
0.0
 11
219.5610471459727
 21
83.64070056036871
 31
0.0
  0
LINE
  5
1A32
330
1F
100
AcDbEntity
  8
SPOJOVACÍ
  6
DASHED
100
AcDbLine
 10
216.2565976300317
 20
84.74552616344045
 30
0.0
 11
220.2201139024324
 21
83.4128074904329
 31
0.0
  0
LINE
  5
1A33
330
1F
100
AcDbEntity
  8
SPOJOVACÍ
  6
DASHED
100
AcDbLine
 10
216.9156643864913
 20
83.9533698523228
 30
0.0
 11
216.9156643864913
 21
81.47571639571106
 31
0.0
  0
LINE
  5
1A34
330
1F
100
AcDbEntity
  8
SPOJOVACÍ
  6
DASHED
100
AcDbLine
 10
216.2565976300317
 20
84.16120833198874
 30
0.0
 11
220.2201139024324
 21
82.82848965898848
 31
0.0
  0
LINE
  5
1A35
330
1F
100
AcDbEntity
  8
SPOJOVACÍ
  6
DASHED
100
AcDbLine
 10
215.8864992822269
 20
84.37542781777484
 30
0.0
 11
216.2565976300317
 21
84.16120833198874
 31
0.0
  0
LINE
  5
1A36
330
1F
100
AcDbEntity
  8
SPOJOVACÍ
  6
DASHED
100
AcDbLine
 10
215.8864992822269
 20
84.37542781777484
 30
0.0
 11
216.2565976300317
 21
84.74552616344045
 31
0.0
  0
LINE
  5
1A37
330
1F
100
AcDbEntity
  8
SPOJOVACÍ
  6
DASHED
100
AcDbLine
 10
215.8864992822269
 20
87.43284124462844
 30
0.0
 11
220.5902122459589
 21
86.25691300342442
 31
0.0
  0
LINE
  5
1A38
330
1F
100
AcDbEntity
  8
SPOJOVACÍ
  6
DASHED
100
AcDbLine
 10
215.8864992822269
 20
84.37542781777484
 30
0.0
 11
220.5902122459589
 21
83.19949957684185
 31
0.0
  0
LINE
  5
1A39
330
1F
100
AcDbEntity
  8
SPOJOVACÍ
  6
DASHED
100
AcDbLine
 10
219.5610471459727
 20
83.05820587356356
 30
0.0
 11
219.5610471459727
 21
80.58784499498869
 31
0.0
  0
LINE
  5
1A3A
330
1F
100
AcDbEntity
  8
SPOJOVACÍ
  6
DASHED
100
AcDbLine
 10
216.9156643864913
 20
80.88319441377098
 30
0.0
 11
216.9156643864913
 21
78.41556825203042
 31
0.0
  0
LINE
  5
1A3B
330
1F
100
AcDbEntity
  8
SPOJOVACÍ
  6
DASHED
100
AcDbLine
 10
216.9156643864913
 20
77.83125042057872
 30
0.0
 11
216.9156643864913
 21
76.60883199352793
 31
0.0
  0
LINE
  5
1A3C
330
1F
100
AcDbEntity
  8
SPOJOVACÍ
  6
DASHED
100
AcDbLine
 10
219.5610471459727
 20
79.99896930233444
 30
0.0
 11
219.5610471459727
 21
77.53043156840613
 31
0.0
  0
LINE
  5
1A3D
330
1F
100
AcDbEntity
  8
SPOJOVACÍ
  6
DASHED
100
AcDbLine
 10
219.5610471459727
 20
76.93882115865381
 30
0.0
 11
219.5610471459727
 21
76.60883199352793
 31
0.0
  0
LINE
  5
1A3E
330
1F
100
AcDbEntity
  8
SPOJOVACÍ
  6
DASHED
100
AcDbLine
 10
216.9156643864913
 20
76.60883199352793
 30
0.0
 11
217.0624275231599
 21
75.43563846915822
 31
0.0
  0
LINE
  5
1A3F
330
1F
100
AcDbEntity
  8
SPOJOVACÍ
  6
DASHED
100
AcDbLine
 10
218.2383557640929
 20
66.02456625187369
 30
0.0
 11
218.5856648055993
 21
68.80395013311681
 31
0.0
  0
LINE
  5
1A40
330
1F
100
AcDbEntity
  8
SPOJOVACÍ
  6
DASHED
100
AcDbLine
 10
217.1380880238353
 20
74.82761975842186
 30
0.0
 11
217.4224985763645
 21
72.55233534807849
 31
0.0
  0
LINE
  5
1A41
330
1F
100
AcDbEntity
  8
SPOJOVACÍ
  6
DASHED
100
AcDbLine
 10
217.4999822203459
 20
71.93428934220719
 30
0.0
 11
217.7843927685968
 21
69.65991650405886
 31
0.0
  0
LINE
  5
1A42
330
1F
100
AcDbEntity
  8
SPOJOVACÍ
  6
DASHED
100
AcDbLine
 10
217.8600532692722
 20
69.0518977933225
 30
0.0
 11
218.2383557640929
 21
66.02456625187369
 31
0.0
  0
LINE
  5
1A43
330
1F
100
AcDbEntity
  8
SPOJOVACÍ
  6
DASHED
100
AcDbLine
 10
218.6558558720786
 20
69.36183236844226
 30
0.0
 11
218.9183886878232
 21
71.46391804572704
 31
0.0
  0
LINE
  5
1A44
330
1F
100
AcDbEntity
  8
SPOJOVACÍ
  6
DASHED
100
AcDbLine
 10
218.9885797500243
 20
72.0245349978868
 30
0.0
 11
219.250200996255
 21
74.1184165246832
 31
0.0
  0
LINE
  5
1A45
330
1F
100
AcDbEntity
  8
SPOJOVACÍ
  6
DASHED
100
AcDbLine
 10
219.3203920627344
 20
74.67721033246744
 30
0.0
 11
219.5610471459727
 21
76.60883199352793
 31
0.0
  0
LINE
  5
1A46
330
1F
100
AcDbEntity
  8
SPOJOVACÍ
  6
DASHED
100
AcDbLine
 10
215.8864992822269
 20
90.49025467121101
 30
0.0
 11
220.5902122459589
 21
89.31432643027802
 31
0.0
  0
LINE
  5
1A47
330
1F
100
AcDbEntity
  8
SPOJOVACÍ
  6
DASHED
100
AcDbLine
 10
216.1353585167595
 20
75.24420829047631
 30
0.0
 11
216.5063684340781
 21
75.02998880469021
 31
0.0
  0
LINE
  5
1A48
330
1F
100
AcDbEntity
  8
SPOJOVACÍ
  6
DASHED
100
AcDbLine
 10
216.1353585167595
 20
75.24420829047631
 30
0.0
 11
216.5063684340781
 21
75.61430663614192
 31
0.0
  0
LINE
  5
1A49
330
1F
100
AcDbEntity
  8
SPOJOVACÍ
  6
DASHED
100
AcDbLine
 10
220.1781815764476
 20
74.29070368581779
 30
0.0
 11
219.8080832329211
 21
73.91969376769338
 31
0.0
  0
LINE
  5
1A4A
330
1F
100
AcDbEntity
  8
SPOJOVACÍ
  6
DASHED
100
AcDbLine
 10
220.1781815764476
 20
74.29070368581779
 30
0.0
 11
219.8080832329211
 21
74.50401159914509
 31
0.0
  0
LINE
  5
1A4B
330
1F
100
AcDbEntity
  8
SPOJOVACÍ
  6
DASHED
100
AcDbLine
 10
216.5063684340781
 20
75.02998880469021
 30
0.0
 11
219.8080832329211
 21
73.91969376769338
 31
0.0
  0
LINE
  5
1A4C
330
1F
100
AcDbEntity
  8
SPOJOVACÍ
  6
DASHED
100
AcDbLine
 10
216.5063684340781
 20
75.61430663614192
 30
0.0
 11
219.8080832329211
 21
74.50401159914509
 31
0.0
  0
LINE
  5
1A4D
330
1F
100
AcDbEntity
  8
SPOJOVACÍ
  6
DASHED
100
AcDbLine
 10
216.1353585167595
 20
75.24420829047631
 30
0.0
 11
220.1781815764476
 21
74.29070368581779
 31
0.0
  0
LINE
  5
1A4E
330
1F
100
AcDbEntity
  8
SPOJOVACÍ
  6
DASHED
100
AcDbLine
 10
216.6886828887433
 20
72.28980253126429
 30
0.0
 11
217.058781236548
 21
72.07649461793699
 31
0.0
  0
LINE
  5
1A4F
330
1F
100
AcDbEntity
  8
SPOJOVACÍ
  6
DASHED
100
AcDbLine
 10
216.6886828887433
 20
72.28980253126429
 30
0.0
 11
217.058781236548
 21
72.66081244938868
 31
0.0
  0
LINE
  5
1A50
330
1F
100
AcDbEntity
  8
SPOJOVACÍ
  6
DASHED
100
AcDbLine
 10
219.7424500268458
 20
71.66902180882971
 30
0.0
 11
219.3723516833193
 21
71.29801189097634
 31
0.0
  0
LINE
  5
1A51
330
1F
100
AcDbEntity
  8
SPOJOVACÍ
  6
DASHED
100
AcDbLine
 10
219.7424500268458
 20
71.66902180882971
 30
0.0
 11
219.3723516833193
 21
71.88232972215701
 31
0.0
  0
LINE
  5
1A52
330
1F
100
AcDbEntity
  8
SPOJOVACÍ
  6
DASHED
100
AcDbLine
 10
217.058781236548
 20
72.07649461793699
 30
0.0
 11
219.3723516833193
 21
71.29801189097634
 31
0.0
  0
LINE
  5
1A53
330
1F
100
AcDbEntity
  8
SPOJOVACÍ
  6
DASHED
100
AcDbLine
 10
217.058781236548
 20
72.66081244938868
 30
0.0
 11
219.3723516833193
 21
71.88232972215701
 31
0.0
  0
LINE
  5
1A54
330
1F
100
AcDbEntity
  8
SPOJOVACÍ
  6
DASHED
100
AcDbLine
 10
216.6886828887433
 20
72.28980253126429
 30
0.0
 11
219.7424500268458
 21
71.66902180882971
 31
0.0
  0
LINE
  5
1A55
330
1F
100
AcDbEntity
  8
SPOJOVACÍ
  6
DASHED
100
AcDbLine
 10
217.2420072650053
 20
69.33630834451105
 30
0.0
 11
217.6121056085317
 21
69.12208885873224
 31
0.0
  0
LINE
  5
1A56
330
1F
100
AcDbEntity
  8
SPOJOVACÍ
  6
DASHED
100
AcDbLine
 10
217.2420072650053
 20
69.33630834451105
 30
0.0
 11
217.6121056085317
 21
69.70640669017666
 31
0.0
  0
LINE
  5
1A57
330
1F
100
AcDbEntity
  8
SPOJOVACÍ
  6
DASHED
100
AcDbLine
 10
219.3532086636329
 20
69.03184320305263
 30
0.0
 11
218.9831103201064
 21
68.66083328519926
 31
0.0
  0
LINE
  5
1A58
330
1F
100
AcDbEntity
  8
SPOJOVACÍ
  6
DASHED
100
AcDbLine
 10
219.3532086636329
 20
69.03184320305263
 30
0.0
 11
218.9831103201064
 21
69.24515111664368
 31
0.0
  0
LINE
  5
1A59
330
1F
100
AcDbEntity
  8
SPOJOVACÍ
  6
DASHED
100
AcDbLine
 10
217.6121056085317
 20
69.12208885873224
 30
0.0
 11
218.9831103201064
 21
68.66083328519926
 31
0.0
  0
LINE
  5
1A5A
330
1F
100
AcDbEntity
  8
SPOJOVACÍ
  6
DASHED
100
AcDbLine
 10
217.6121056085317
 20
69.70640669017666
 30
0.0
 11
218.9831103201064
 21
69.24515111664368
 31
0.0
  0
LINE
  5
1A5B
330
1F
100
AcDbEntity
  8
SPOJOVACÍ
  6
DASHED
100
AcDbLine
 10
217.2420072650053
 20
69.33630834451105
 30
0.0
 11
219.3532086636329
 21
69.03184320305263
 31
0.0
  0
LINE
  5
1A5C
330
1F
100
AcDbEntity
  8
SPOJOVACÍ
  6
DASHED
100
AcDbLine
 10
220.5902122459589
 20
83.19949957684185
 30
0.0
 11
220.2201139024324
 21
82.82848965898848
 31
0.0
  0
LINE
  5
1A5D
330
1F
100
AcDbEntity
  8
SPOJOVACÍ
  6
DASHED
100
AcDbLine
 10
220.5902122459589
 20
83.19949957684185
 30
0.0
 11
220.2201139024324
 21
83.4128074904329
 31
0.0
  0
LINE
  5
1A5E
330
1F
100
AcDbEntity
  8
SPOJOVACÍ
  6
DASHED
100
AcDbLine
 10
215.8864992822269
 20
81.31801439118499
 30
0.0
 11
220.5902122459589
 21
80.142086150252
 31
0.0
  0
LINE
  5
1A5F
330
1F
100
AcDbEntity
  8
SPOJOVACÍ
  6
DASHED
100
AcDbLine
 10
215.8864992822269
 20
81.31801439118499
 30
0.0
 11
216.2565976300317
 21
81.10379490540617
 31
0.0
  0
LINE
  5
1A60
330
1F
100
AcDbEntity
  8
SPOJOVACÍ
  6
DASHED
100
AcDbLine
 10
215.8864992822269
 20
81.31801439118499
 30
0.0
 11
216.2565976300317
 21
81.6881127368506
 31
0.0
  0
LINE
  5
1A61
330
1F
100
AcDbEntity
  8
SPOJOVACÍ
  6
DASHED
100
AcDbLine
 10
220.5902122459589
 20
80.142086150252
 30
0.0
 11
220.2201139024324
 21
79.77107623239863
 31
0.0
  0
LINE
  5
1A62
330
1F
100
AcDbEntity
  8
SPOJOVACÍ
  6
DASHED
100
AcDbLine
 10
220.5902122459589
 20
80.142086150252
 30
0.0
 11
220.2201139024324
 21
80.3553940635793
 31
0.0
  0
LINE
  5
1A63
330
1F
100
AcDbEntity
  8
SPOJOVACÍ
  6
DASHED
100
AcDbLine
 10
216.2565976300317
 20
81.10379490540617
 30
0.0
 11
220.2201139024324
 21
79.77107623239863
 31
0.0
  0
LINE
  5
1A64
330
1F
100
AcDbEntity
  8
SPOJOVACÍ
  6
DASHED
100
AcDbLine
 10
216.2565976300317
 20
81.6881127368506
 30
0.0
 11
220.2201139024324
 21
80.3553940635793
 31
0.0
  0
LINE
  5
1A65
330
1F
100
AcDbEntity
  8
SPOJOVACÍ
  6
DASHED
100
AcDbLine
 10
215.8864992822269
 20
78.25968939214362
 30
0.0
 11
220.5902122459589
 21
77.08376115121064
 31
0.0
  0
LINE
  5
1A66
330
1F
100
AcDbEntity
  8
SPOJOVACÍ
  6
DASHED
100
AcDbLine
 10
215.8864992822269
 20
78.25968939214362
 30
0.0
 11
216.2565976300317
 21
78.04638147881632
 31
0.0
  0
LINE
  5
1A67
330
1F
100
AcDbEntity
  8
SPOJOVACÍ
  6
DASHED
100
AcDbLine
 10
215.8864992822269
 20
78.25968939214362
 30
0.0
 11
216.2565976300317
 21
78.63069931026803
 31
0.0
  0
LINE
  5
1A68
330
1F
100
AcDbEntity
  8
SPOJOVACÍ
  6
DASHED
100
AcDbLine
 10
220.5902122459589
 20
77.08376115121064
 30
0.0
 11
220.2201139024324
 21
76.71366280554503
 31
0.0
  0
LINE
  5
1A69
330
1F
100
AcDbEntity
  8
SPOJOVACÍ
  6
DASHED
100
AcDbLine
 10
220.5902122459589
 20
77.08376115121064
 30
0.0
 11
220.2201139024324
 21
77.29798063699672
 31
0.0
  0
LINE
  5
1A6A
330
1F
100
AcDbEntity
  8
SPOJOVACÍ
  6
DASHED
100
AcDbLine
 10
216.2565976300317
 20
78.04638147881632
 30
0.0
 11
220.2201139024324
 21
76.71366280554503
 31
0.0
  0
LINE
  5
1A6B
330
1F
100
AcDbEntity
  8
SPOJOVACÍ
  6
DASHED
100
AcDbLine
 10
216.2565976300317
 20
78.63069931026803
 30
0.0
 11
220.2201139024324
 21
77.29798063699672
 31
0.0
  0
LINE
  5
1A6C
330
1F
100
AcDbEntity
  8
SPOJOVACÍ
  6
DASHED
100
AcDbLine
 10
215.8864992822269
 20
93.53290247466247
 30
0.0
 11
220.5902122459589
 21
92.35697423345845
 31
0.0
  0
LINE
  5
1A6D
330
1F
100
AcDbEntity
  8
SPOJOVACÍ
  6
DASHED
100
AcDbLine
 10
215.8864992822269
 20
96.59031590124506
 30
0.0
 11
220.5902122459589
 21
95.41438766031205
 31
0.0
  0
LINE
  5
1A6E
330
1F
100
AcDbEntity
  8
SPOJOVACÍ
  6
DASHED
100
AcDbLine
 10
215.8864992822269
 20
99.63296370469652
 30
0.0
 11
220.5902122459589
 21
98.45703546376354
 31
0.0
  0
LWPOLYLINE
  5
1A6F
330
1F
100
AcDbEntity
  8
STAVBA OBRYS
100
AcDbPolyline
 90
        3
 70
     0
 43
0.0
 10
223.3717955524931
 20
63.23610325511435
 10
243.3680479844857
 20
54.02007420459449
 10
245.3140200097037
 20
53.70608795101452
  0
HATCH
  5
1A70
330
1F
100
AcDbEntity
  8
izolace
100
AcDbHatch
 10
0.0
 20
0.0
 30
0.0
210
0.0
220
0.0
230
1.0
  2
SOLID
 70
     1
 71
     0
 91
       10
 92
        7
 72
     0
 73
     1
 93
        4
 10
245.3140200097037
 20
83.57452041286434
 10
241.3895990022843
 20
83.57452041286434
 10
241.3895990022843
 20
80.57452041286524
 10
245.3140200097037
 20
80.57452041286524
 97
        0
 92
        7
 72
     0
 73
     1
 93
        9
 10
228.9476541005147
 20
83.57452041286434
 10
223.550794843131
 20
83.57452041286434
 10
223.8584818328196
 20
83.4711324892096
 10
224.2285801763433
 20
83.25691300342441
 10
223.8584818328159
 20
82.88681465803074
 10
223.1994150763563
 20
83.10827200192397
 10
223.1994150763563
 20
80.6344164136026
 10
223.3775462741756
 20
80.57452041286524
 10
228.9476541005138
 20
80.57452041286524
 97
        0
 92
        7
 72
     0
 73
     1
 93
        9
 10
220.5540323168749
 20
83.57452041286434
 10
215.1317362867099
 20
83.57452041286434
 10
215.1317362867099
 20
80.57452041286524
 10
220.5540323168749
 20
80.57452041286524
 10
220.5540323168749
 20
80.93959940881905
 10
219.8949655604197
 20
81.16120833198783
 10
219.5248672126104
 20
81.37542781777574
 10
219.8949655604152
 20
81.74552616344135
 10
220.5540323168749
 20
81.52391724027166
 97
        0
 92
        7
 72
     0
 73
     1
 93
        5
 10
223.1994150763563
 20
83.10827200192306
 10
221.8118393811806
 20
83.57452041286434
 10
220.5540323168758
 20
83.57452041286434
 10
220.5540323168758
 20
81.52391724027074
 10
223.1994150763563
 20
80.63441641360169
 97
        0
 92
        7
 72
     0
 73
     1
 93
        4
 10
222.9581505388756
 20
83.57452041286434
 10
221.8118393811824
 20
83.57452041286524
 10
223.8584818328159
 20
82.88681465802893
 10
224.2285801763424
 20
83.25691300342441
 97
        0
 92
       23
 72
     0
 73
     1
 93
        4
 10
223.5507948431337
 20
83.57452041286434
 10
222.9581505388702
 20
83.57452041286434
 10
224.2285801763424
 20
83.2569130034226
 10
223.8584818328141
 20
83.47113248921141
 97
        0
 92
        7
 72
     0
 73
     1
 93
        4
 10
219.8949655604161
 20
81.74552616343953
 10
219.5248672126114
 20
81.37542781777483
 10
222.7284968322479
 20
80.57452041286524
 10
223.3775462741729
 20
80.57452041286524
 97
        0
 92
        7
 72
     0
 73
     1
 93
        4
 10
219.5248672126068
 20
81.37542781777666
 10
219.8949655604188
 20
81.16120833198875
 10
221.6397802474017
 20
80.57452041286524
 10
222.7284968322488
 20
80.57452041286524
 97
        0
 92
       23
 72
     0
 73
     1
 93
        3
 10
220.5540323168749
 20
80.93959940881996
 10
220.5540323168749
 20
80.57452041286524
 10
221.6397802473953
 20
80.57452041286524
 97
        0
 92
        7
 72
     0
 73
     1
 93
        4
 10
201.6455447918784
 20
83.57452041286434
 10
195.3140200097037
 20
83.57452041286434
 10
195.3140200097037
 20
80.57452041286524
 10
201.6455447918793
 20
80.57452041286614
 97
        0
 75
     0
 76
     1
 47
0.0980096762587744
 98
       10
 10
243.0227720216695
 20
82.69296699999904
 10
227.2199742588105
 20
81.94091411103727
 10
218.0940070493467
 20
81.97751697068452
 10
221.6379279491135
 20
81.92217653348052
 10
223.005473944229
 20
83.27710301220941
 10
223.5668523962828
 20
83.49314711367696
 10
221.2575224174521
 20
81.09366359214618
 10
221.495771341904
 20
80.78227088653875
 10
220.8359789550428
 20
80.74563447706532
 10
197.7903855764249
 20
81.81656168272821
  0
LWPOLYLINE
  5
1A71
330
1F
100
AcDbEntity
  8
izolace
100
AcDbPolyline
 90
        4
 70
     1
 43
0.0
 10
245.3140200097037
 20
80.57452041286524
 10
195.3140200097037
 20
80.57452041286524
 10
195.3140200097037
 20
83.57452041286434
 10
245.3140200097037
 20
83.57452041286434
  0
LINE
  5
1A72
330
1F
100
AcDbEntity
  8
CETRIS
100
AcDbLine
 10
195.3140200097037
 20
91.57452041286523
 30
0.0
 11
195.3140200097037
 21
83.57452041286524
 31
0.0
  0
LINE
  5
1A73
330
1F
100
AcDbEntity
  8
CETRIS
100
AcDbLine
 10
185.3140200097037
 20
91.57452041286523
 30
0.0
 11
195.3140200097037
 21
91.57452041286523
 31
0.0
  0
LINE
  5
1A74
330
1F
100
AcDbEntity
  8
CETRIS
100
AcDbLine
 10
185.3140200097037
 20
99.57452041286524
 30
0.0
 11
185.3140200097037
 21
91.57452041286523
 31
0.0
  0
LINE
  5
1A75
330
1F
100
AcDbEntity
  8
CETRIS
100
AcDbLine
 10
195.3140200097037
 20
99.57452041286524
 30
0.0
 11
185.3140200097037
 21
99.57452041286524
 31
0.0
  0
LINE
  5
1A76
330
1F
100
AcDbEntity
  8
CETRIS
100
AcDbLine
 10
195.3140200097037
 20
107.5745204128652
 30
0.0
 11
195.3140200097037
 21
99.57452041286524
 31
0.0
  0
INSERT
  5
1A77
330
1F
100
AcDbEntity
  8
POPIS
100
AcDbBlockReference
  2
E_PUNKT
 10
235.3563482661371
 20
62.7922029027186
 30
0.0
 50
270.0
  0
LINE
  5
1A78
330
1F
100
AcDbEntity
  8
POPIS
100
AcDbLine
 10
235.3854165970075
 20
176.8679791660524
 30
0.0
 11
235.3854165970075
 21
62.76459252709173
 31
0.0
  0
TEXT
  5
1A79
330
1F
100
AcDbEntity
  8
POPIS
100
AcDbText
 10
228.8381761074375
 20
185.7173402387761
 30
0.0
 40
25.0
  1
06
 41
0.85
  7
SIMPLEX7
100
AcDbText
  0
INSERT
  5
1A7A
330
1F
100
AcDbEntity
  8
POPIS
100
AcDbBlockReference
  2
E_PUNKT
 10
196.7756398999259
 20
82.54260720077672
 30
0.0
 50
270.0
  0
LINE
  5
1A7B
330
1F
100
AcDbEntity
  8
POPIS
100
AcDbLine
 10
196.8047082307999
 20
176.8679791660524
 30
0.0
 11
196.8047082307999
 21
83.76499682514987
 31
0.0
  0
TEXT
  5
1A7C
330
1F
100
AcDbEntity
  8
POPIS
100
AcDbText
 10
185.2528061563058
 20
185.7173402387761
 30
0.0
 40
25.0
  1
05
 41
0.85
  7
SIMPLEX7
100
AcDbText
  0
LWPOLYLINE
  5
1A7D
330
1F
100
AcDbEntity
  8
STAVBA OBRYS
100
AcDbPolyline
 90
        8
 70
     0
 43
0.0
 10
506.2769544502167
 20
80.57452041286524
 42
-0.0120721047703132
 10
506.2079717601788
 20
78.84063227412116
 42
-0.044358077361292
 10
505.8123440255054
 20
76.14483225570438
 42
-0.0188067511131767
 10
503.7925205771222
 20
68.90260308039796
 42
-0.0457786284636091
 10
502.5844976875065
 20
66.05399269751797
 42
-0.0295006114745606
 10
500.168437233207
 20
62.1270934841159
 42
-0.0258674098621065
 10
496.9357619192429
 20
57.98131340536201
 42
-0.2409478365688615
 10
473.3676113680827
 20
43.55676596038847
 42
-0.0884720560394402
  0
LWPOLYLINE
  5
1A7E
330
1F
100
AcDbEntity
  8
STAVBA OBRYS
100
AcDbPolyline
 90
        6
 70
     0
 43
0.0
 10
514.9011698302579
 20
80.57452041286524
 42
-0.0128837512779301
 10
514.6163778700334
 20
77.24135559111892
 42
-0.0351641677647434
 10
513.9886181485104
 20
73.63764613677995
 42
-0.0187319685742942
 10
510.6046022675196
 20
61.87940879463713
 42
-0.0582629403736403
 10
508.9451023994384
 20
58.29957459570505
 42
-0.1129599987265478
 10
491.569560547729
 20
40.57452041286524
 42
-0.1129599987265478
  0
LWPOLYLINE
  5
1A7F
330
1F
100
AcDbEntity
  8
STAVBA OBRYS
100
AcDbPolyline
 90
        4
 70
     0
 43
0.0
 10
523.3676113680809
 20
70.3746902419598
 42
-0.0067884601454759
 10
521.3717680770365
 20
60.2458272303993
 42
-0.0219777111230329
 10
520.465655575053
 20
56.72771397456381
 42
-0.0757738131361498
 10
507.1845577188329
 20
40.57452041286524
  0
LWPOLYLINE
  5
1A80
330
1F
100
AcDbEntity
  8
STAVBA OBRYS
100
AcDbPolyline
 90
        4
 70
     1
 43
0.0
 10
473.3676113680809
 20
40.57452041286524
 10
523.3676113680809
 20
40.57452041286524
 10
523.3676113680809
 20
80.57452041286524
 10
473.3676113680809
 20
80.57452041286524
  0
LINE
  5
1A81
330
1F
100
AcDbEntity
  8
POPIS
100
AcDbLine
 10
420.4966233055926
 20
176.8679791660524
 30
0.0
 11
420.4966233055926
 21
-17.87776337249852
 31
0.0
  0
LWPOLYLINE
  5
1A82
330
1F
100
AcDbEntity
  8
STAVBA OBRYS
100
AcDbPolyline
 90
        8
 70
     0
 43
0.0
 10
489.8335002248346
 20
-103.4254795871338
 42
0.0217273703039143
 10
487.6358299643249
 20
-98.38978924965614
 42
0.0882970623535771
 10
485.9986080442318
 20
-96.14942019885621
 42
0.0171636441953577
 10
483.1852439823738
 20
-93.635502843611
 42
0.0157521173632038
 10
479.9463891453375
 20
-91.10400679110444
 42
0.0073640874174249
 10
475.3127397890162
 20
-87.81560536536835
 42
0.0194185739168057
 10
473.4906964693396
 20
-86.6640363660872
 42
0.0229547400386702
 10
471.1052384053251
 20
-85.42547958713385
  0
POLYLINE
  5
1A83
330
1F
100
AcDbEntity
  8
STAVBA OBRYS
100
AcDb2dPolyline
 66
     1
 10
0.0
 20
0.0
 30
0.0
  0
VERTEX
  5
1A84
330
1A83
100
AcDbEntity
  8
STAVBA OBRYS
100
AcDbVertex
100
AcDb2dVertex
 10
481.4814488375191
 20
-103.4254795871338
 30
0.0
 42
0.0502247168465557
  0
VERTEX
  5
1A85
330
1A83
100
AcDbEntity
  8
STAVBA OBRYS
100
AcDbVertex
100
AcDb2dVertex
 10
479.882401661354
 20
-101.418008914411
 30
0.0
 42
0.0274923553235744
  0
VERTEX
  5
1A86
330
1A83
100
AcDbEntity
  8
STAVBA OBRYS
100
AcDbVertex
100
AcDb2dVertex
 10
477.2850959308012
 20
-99.03293359127292
 30
0.0
 42
0.0255412025538677
  0
VERTEX
  5
1A87
330
1A83
100
AcDbEntity
  8
STAVBA OBRYS
100
AcDbVertex
100
AcDb2dVertex
 10
474.2336658930904
 20
-96.77621991425713
 30
0.0
 42
0.0272796991712396
  0
VERTEX
  5
1A88
330
1A83
100
AcDbEntity
  8
STAVBA OBRYS
100
AcDbVertex
100
AcDb2dVertex
 10
470.1206667399052
 20
-94.35988403259125
 30
0.0
 42
0.056967459841729
  0
VERTEX
  5
1A89
330
1A83
100
AcDbEntity
  8
STAVBA OBRYS
100
AcDbVertex
100
AcDb2dVertex
 10
467.9797194591734
 20
-93.54714819739184
 30
0.0
 42
0.0373408083348504
  0
VERTEX
  5
1A8A
330
1A83
100
AcDbEntity
  8
STAVBA OBRYS
100
AcDbVertex
100
AcDb2dVertex
 10
467.7573650836999
 20
-93.50798265644426
 30
0.0
 42
0.0052305969362967
  0
VERTEX
  5
1A8B
330
1A83
100
AcDbEntity
  8
STAVBA OBRYS
100
AcDbVertex
100
AcDb2dVertex
 10
467.4114053099398
 20
-93.47702568953991
 30
0.0
  0
SEQEND
  5
1A8C
330
1A83
100
AcDbEntity
  8
STAVBA OBRYS
  0
POLYLINE
  5
1A8D
330
1F
100
AcDbEntity
  8
STAVBA OBRYS
100
AcDb2dPolyline
 66
     1
 10
0.0
 20
0.0
 30
0.0
  0
VERTEX
  5
1A8E
330
1A8D
100
AcDbEntity
  8
STAVBA OBRYS
100
AcDbVertex
100
AcDb2dVertex
 10
472.4283028879832
 20
-103.4254795871338
 30
0.0
 42
0.0094186890201653
  0
VERTEX
  5
1A8F
330
1A8D
100
AcDbEntity
  8
STAVBA OBRYS
100
AcDbVertex
100
AcDb2dVertex
 10
472.0815043251092
 20
-103.2668067163658
 30
0.0
 42
0.0322692699774654
  0
VERTEX
  5
1A90
330
1A8D
100
AcDbEntity
  8
STAVBA OBRYS
100
AcDbVertex
100
AcDb2dVertex
 10
469.1901501440185
 20
-102.2252832149652
 30
0.0
 42
0.0276160659512937
  0
VERTEX
  5
1A91
330
1A8D
100
AcDbEntity
  8
STAVBA OBRYS
100
AcDbVertex
100
AcDb2dVertex
 10
468.3345737057313
 20
-102.0285477860206
 30
0.0
 42
0.0126891984598699
  0
VERTEX
  5
1A92
330
1A8D
100
AcDbEntity
  8
STAVBA OBRYS
100
AcDbVertex
100
AcDb2dVertex
 10
467.4114053099398
 20
-101.8933453964791
 30
0.0
  0
SEQEND
  5
1A93
330
1A8D
100
AcDbEntity
  8
STAVBA OBRYS
  0
POLYLINE
  5
1A94
330
1F
100
AcDbEntity
  8
STAVBA OBRYS
100
AcDb2dPolyline
 66
     1
 10
0.0
 20
0.0
 30
0.0
  0
VERTEX
  5
1A95
330
1A94
100
AcDbEntity
  8
STAVBA OBRYS
100
AcDbVertex
100
AcDb2dVertex
 10
462.0925544146772
 20
-103.4254795871338
 30
0.0
 42
-0.0094186890201653
  0
VERTEX
  5
1A96
330
1A94
100
AcDbEntity
  8
STAVBA OBRYS
100
AcDbVertex
100
AcDb2dVertex
 10
462.4393529775512
 20
-103.2668067163658
 30
0.0
 42
-0.0322692699774654
  0
VERTEX
  5
1A97
330
1A94
100
AcDbEntity
  8
STAVBA OBRYS
100
AcDbVertex
100
AcDb2dVertex
 10
465.330707158642
 20
-102.2252832149652
 30
0.0
 42
-0.0276160659512937
  0
VERTEX
  5
1A98
330
1A94
100
AcDbEntity
  8
STAVBA OBRYS
100
AcDbVertex
100
AcDb2dVertex
 10
466.1862835969292
 20
-102.0285477860206
 30
0.0
 42
-0.0126891984598699
  0
VERTEX
  5
1A99
330
1A94
100
AcDbEntity
  8
STAVBA OBRYS
100
AcDbVertex
100
AcDb2dVertex
 10
467.1094519927207
 20
-101.8933453964791
 30
0.0
  0
SEQEND
  5
1A9A
330
1A94
100
AcDbEntity
  8
STAVBA OBRYS
  0
LWPOLYLINE
  5
1A9B
330
1F
100
AcDbEntity
  8
STAVBA OBRYS
100
AcDbPolyline
 90
        4
 70
     0
 43
0.0
 10
384.4022079617203
 20
-103.4254795871338
 42
-0.0186324019486548
 10
387.7705773338271
 20
-91.73036796890938
 42
-0.0582629403736403
 10
389.4300772019083
 20
-88.15053376997367
 42
-0.0146402521923566
 10
391.2144851834924
 20
-85.42547958713385
  0
LWPOLYLINE
  5
1A9C
330
1F
100
AcDbEntity
  8
STAVBA OBRYS
100
AcDbPolyline
 90
        5
 70
     0
 43
0.0
 10
374.496604087824
 20
-103.4254795871338
 42
-0.0133579731639958
 10
374.883414576852
 20
-100.9076772995786
 42
-0.0072443097182286
 10
377.0034115243102
 20
-90.09678640467155
 42
-0.0219777111230329
 10
377.9095240262937
 20
-86.57867314883606
 42
-0.0092752982622242
 10
378.2847509882409
 20
-85.42547958713385
  0
LWPOLYLINE
  5
1A9D
330
1F
100
AcDbEntity
  8
STAVBA OBRYS
100
AcDbPolyline
 90
        4
 70
     0
 43
0.0
 10
364.2524657130303
 20
-103.4254795871338
 42
-0.0334776267545482
 10
364.6897435077367
 20
-99.3785046583971
 42
-0.0091133963862869
 10
367.1673478326553
 20
-86.68677487293734
 42
-0.007828075361276
 10
367.4582469678131
 20
-85.42547958713385
  0
LWPOLYLINE
  5
1A9E
330
1F
100
AcDbEntity
  8
STAVBA OBRYS
100
AcDbPolyline
 90
        4
 70
     0
 43
0.0
 10
399.0065931503155
 20
-103.9263100178823
 10
379.0103407183229
 20
-94.71028096736246
 10
362.2324501471045
 20
-92.0031367046713
 10
358.9688388993996
 20
-91.8728353403012
  0
LWPOLYLINE
  5
1A9F
330
1F
100
AcDbEntity
  8
STAVBA OBRYS
100
AcDbPolyline
 90
        4
 70
     0
 43
0.0
 10
368.8595842938408
 20
-103.9263100178823
 10
348.8633318618482
 20
-94.71028096736246
 10
332.0854412906297
 20
-92.0031367046713
 10
328.8218300429249
 20
-91.8728353403012
  0
LWPOLYLINE
  5
1AA0
330
1F
100
AcDbEntity
  8
STAVBA OBRYS
100
AcDbPolyline
 90
        3
 70
     0
 43
0.0
 10
352.7999278500625
 20
-103.4254795871338
 42
-0.0052038508054843
 10
355.9983247900451
 20
-87.02165310513647
 42
-0.0065712046643719
 10
356.3487505598092
 20
-85.42547958713385
  0
LWPOLYLINE
  5
1AA1
330
1F
100
AcDbEntity
  8
STAVBA OBRYS
100
AcDbPolyline
 90
        4
 70
     0
 43
0.0
 10
334.1054568565556
 20
-103.4254795871338
 42
-0.0334776267545482
 10
334.5427346512621
 20
-99.3785046583971
 42
-0.0091133963862869
 10
337.0203389761806
 20
-86.68677487293734
 42
-0.007828075361276
 10
337.3112381113384
 20
-85.42547958713385
  0
LWPOLYLINE
  5
1AA2
330
1F
100
AcDbEntity
  8
STAVBA OBRYS
100
AcDbPolyline
 90
        5
 70
     0
 43
0.0
 10
344.3495952313493
 20
-103.4254795871338
 42
-0.0133579731639958
 10
344.7364057203773
 20
-100.9076772995786
 42
-0.0072443097182286
 10
346.8564026678356
 20
-90.09678640467155
 42
-0.0219777111230329
 10
347.762515169819
 20
-86.57867314883606
 42
-0.0092752982622242
 10
348.1377421317662
 20
-85.42547958713385
  0
LWPOLYLINE
  5
1AA3
330
1F
100
AcDbEntity
  8
STAVBA OBRYS
100
AcDbPolyline
 90
        5
 70
     0
 43
0.0
 10
416.5984878472841
 20
-103.4254795871338
 42
-0.0133579731639958
 10
416.9852983363122
 20
-100.9076772995786
 42
-0.0072443097182286
 10
419.1052952837704
 20
-90.09678640467155
 42
-0.0219777111230329
 10
420.0114077857539
 20
-86.57867314883606
 42
-0.0092752982622242
 10
420.3866347477011
 20
-85.42547958713385
  0
LWPOLYLINE
  5
1AA4
330
1F
100
AcDbEntity
  8
STAVBA OBRYS
100
AcDbPolyline
 90
        4
 70
     0
 43
0.0
 10
441.1084769097757
 20
-103.9263100178823
 10
421.1122244777831
 20
-94.71028096736246
 10
404.3343339065646
 20
-92.0031367046713
 10
401.0707226588598
 20
-91.8728353403012
  0
LWPOLYLINE
  5
1AA5
330
1F
100
AcDbEntity
  8
STAVBA OBRYS
100
AcDbPolyline
 90
        4
 70
     0
 43
0.0
 10
426.5040917211805
 20
-103.4254795871338
 42
-0.0186324019486548
 10
429.8724610932874
 20
-91.73036796890938
 42
-0.0582629403736403
 10
431.5319609613685
 20
-88.15053376997367
 42
-0.0146402521923566
 10
433.3163689429526
 20
-85.42547958713385
  0
POLYLINE
  5
1AA6
330
1F
100
AcDbEntity
  8
STAVBA OBRYS
100
AcDb2dPolyline
 66
     1
 10
0.0
 20
0.0
 30
0.0
  0
VERTEX
  5
1AA7
330
1AA6
100
AcDbEntity
  8
STAVBA OBRYS
100
AcDbVertex
100
AcDb2dVertex
 10
453.0394084651412
 20
-103.4254795871338
 30
0.0
 42
-0.0502247168465557
  0
VERTEX
  5
1AA8
330
1AA6
100
AcDbEntity
  8
STAVBA OBRYS
100
AcDbVertex
100
AcDb2dVertex
 10
454.6384556413064
 20
-101.418008914411
 30
0.0
 42
-0.0274923553235744
  0
VERTEX
  5
1AA9
330
1AA6
100
AcDbEntity
  8
STAVBA OBRYS
100
AcDbVertex
100
AcDb2dVertex
 10
457.2357613718592
 20
-99.03293359127292
 30
0.0
 42
-0.0255412025538677
  0
VERTEX
  5
1AAA
330
1AA6
100
AcDbEntity
  8
STAVBA OBRYS
100
AcDbVertex
100
AcDb2dVertex
 10
460.2871914095699
 20
-96.77621991425713
 30
0.0
 42
-0.0272796991712396
  0
VERTEX
  5
1AAB
330
1AA6
100
AcDbEntity
  8
STAVBA OBRYS
100
AcDbVertex
100
AcDb2dVertex
 10
464.4001905627552
 20
-94.35988403259125
 30
0.0
 42
-0.056967459841729
  0
VERTEX
  5
1AAC
330
1AA6
100
AcDbEntity
  8
STAVBA OBRYS
100
AcDbVertex
100
AcDb2dVertex
 10
466.541137843487
 20
-93.54714819739184
 30
0.0
 42
-0.0373408083348504
  0
VERTEX
  5
1AAD
330
1AA6
100
AcDbEntity
  8
STAVBA OBRYS
100
AcDbVertex
100
AcDb2dVertex
 10
466.7634922189605
 20
-93.50798265644426
 30
0.0
 42
-0.0052305969362967
  0
VERTEX
  5
1AAE
330
1AA6
100
AcDbEntity
  8
STAVBA OBRYS
100
AcDbVertex
100
AcDb2dVertex
 10
467.1094519927207
 20
-93.47702568953991
 30
0.0
  0
SEQEND
  5
1AAF
330
1AA6
100
AcDbEntity
  8
STAVBA OBRYS
  0
LWPOLYLINE
  5
1AB0
330
1F
100
AcDbEntity
  8
STAVBA OBRYS
100
AcDbPolyline
 90
        8
 70
     0
 43
0.0
 10
444.6873570778258
 20
-103.4254795871338
 42
-0.0217273703039143
 10
446.8850273383355
 20
-98.38978924965614
 42
-0.0882970623535771
 10
448.5222492584285
 20
-96.14942019885621
 42
-0.0171636441953577
 10
451.3356133202866
 20
-93.635502843611
 42
-0.0157521173632038
 10
454.5744681573229
 20
-91.10400679110444
 42
-0.0073640874174249
 10
459.2081175136441
 20
-87.81560536536835
 42
-0.0194185739168057
 10
461.0301608333208
 20
-86.6640363660872
 42
-0.0229547400386702
 10
463.4156188973353
 20
-85.42547958713385
  0
LWPOLYLINE
  5
1AB1
330
1F
100
AcDbEntity
  8
STAVBA OBRYS
100
AcDbPolyline
 90
        3
 70
     0
 43
0.0
 10
457.4378848419325
 20
-103.4254795871338
 10
443.6458369152929
 20
-96.52440802364708
 10
435.4787322661683
 20
-88.34310632255347
  0
LWPOLYLINE
  5
1AB2
330
1F
100
AcDbEntity
  8
STAVBA OBRYS
100
AcDbPolyline
 90
        6
 70
     0
 43
0.0
 10
435.3145530700236
 20
-103.4254795871338
 42
-0.0121757200102759
 10
436.6845427836848
 20
-98.75356225466658
 42
-0.0457786284636091
 10
437.8925656733005
 20
-95.90495187179021
 42
-0.0295006114745606
 10
440.3086261276
 20
-91.97805265838814
 42
-0.0258674098621065
 10
443.541301441564
 20
-87.83227257963426
 42
-0.0093759062953949
 10
445.7071136212213
 20
-85.42547958713385
  0
LWPOLYLINE
  5
1AB3
330
1F
100
AcDbEntity
  8
STAVBA OBRYS
100
AcDbPolyline
 90
        4
 70
     0
 43
0.0
 10
406.3543494724905
 20
-103.4254795871338
 42
-0.0334776267545482
 10
406.7916272671969
 20
-99.3785046583971
 42
-0.0091133963862869
 10
409.2692315921154
 20
-86.68677487293734
 42
-0.007828075361276
 10
409.5601307272732
 20
-85.42547958713385
  0
LWPOLYLINE
  5
1AB4
330
1F
100
AcDbEntity
  8
STAVBA OBRYS
100
AcDbPolyline
 90
        3
 70
     0
 43
0.0
 10
394.9018116095227
 20
-103.4254795871338
 42
-0.0052038508054843
 10
398.1002085495052
 20
-87.02165310513647
 42
-0.0065712046643719
 10
398.4506343192693
 20
-85.42547958713385
  0
LINE
  5
1AB5
330
1F
100
AcDbEntity
  8
STAVBA OBRYS
100
AcDbLine
 10
467.2604286513302
 20
-85.42547958713475
 30
0.0
 11
467.2604286513302
 21
-103.4254795871338
 31
0.0
  0
INSERT
  5
1AB6
330
1F
100
AcDbEntity
  8
POPIS
100
AcDbBlockReference
  2
E_PUNKT
 10
420.4675549747149
 20
-17.85015299687165
 30
0.0
 50
270.0
  0
LWPOLYLINE
  5
1AB7
330
1F
100
AcDbEntity
  8
STAVBA OBRYS
100
AcDbPolyline
 90
        3
 70
     0
 43
0.0
 10
539.6190456931377
 20
-100.4254795871347
 42
0.0052038508054843
 10
536.4206487531552
 20
-84.02165310513737
 42
0.0065712046643719
 10
536.070222983391
 20
-82.42547958713476
  0
LWPOLYLINE
  5
1AB8
330
1F
100
AcDbEntity
  8
STAVBA OBRYS
100
AcDbPolyline
 90
        4
 70
     0
 43
0.0
 10
528.1665078301699
 20
-100.4254795871347
 42
0.0334776267545482
 10
527.7292300354635
 20
-96.37850465839802
 42
0.0091133963862869
 10
525.2516257105449
 20
-83.68677487293826
 42
0.007828075361276
 10
524.9607265753872
 20
-82.42547958713476
  0
LWPOLYLINE
  5
1AB9
330
1F
100
AcDbEntity
  8
STAVBA OBRYS
100
AcDbPolyline
 90
        6
 70
     0
 43
0.0
 10
499.2063042326368
 20
-100.4254795871347
 42
0.0121757200102759
 10
497.8363145189756
 20
-95.75356225466748
 42
0.0457786284636091
 10
496.6282916293599
 20
-92.90495187179113
 42
0.0295006114745606
 10
494.2122311750605
 20
-88.97805265838906
 42
0.0258674098621065
 10
490.9795558610964
 20
-84.83227257963518
 42
0.0093759062953949
 10
488.8137436814392
 20
-82.42547958713476
  0
LWPOLYLINE
  5
1ABA
330
1F
100
AcDbEntity
  8
STAVBA OBRYS
100
AcDbPolyline
 90
        3
 70
     0
 43
0.0
 10
477.0829724607279
 20
-103.4254795871338
 10
490.8750203873674
 20
-96.52440802364708
 10
499.0421250364922
 20
-88.34310632255347
  0
LWPOLYLINE
  5
1ABB
330
1F
100
AcDbEntity
  8
STAVBA OBRYS
100
AcDbPolyline
 90
        4
 70
     0
 43
0.0
 10
508.0167655814799
 20
-100.4254795871347
 42
0.0186324019486548
 10
504.6483962093731
 20
-88.73036796891028
 42
0.0582629403736403
 10
502.9888963412919
 20
-85.15053376997457
 42
0.0146402521923566
 10
501.2044883597078
 20
-82.42547958713476
  0
LWPOLYLINE
  5
1ABC
330
1F
100
AcDbEntity
  8
STAVBA OBRYS
100
AcDbPolyline
 90
        4
 70
     0
 43
0.0
 10
493.4123803928847
 20
-100.9263100178832
 10
513.4086328248773
 20
-91.71028096736336
 10
530.1865233960958
 20
-89.00313670467221
 10
533.4501346438006
 20
-88.87283534030212
  0
LWPOLYLINE
  5
1ABD
330
1F
100
AcDbEntity
  8
STAVBA OBRYS
100
AcDbPolyline
 90
        5
 70
     0
 43
0.0
 10
517.9223694553762
 20
-100.4254795871347
 42
0.0133579731639958
 10
517.5355589663483
 20
-97.90767729957952
 42
0.0072443097182286
 10
515.41556201889
 20
-87.09678640467245
 42
0.0219777111230329
 10
514.5094495169066
 20
-83.57867314883696
 42
0.0092752982622242
 10
514.1342225549593
 20
-82.42547958713476
  0
LWPOLYLINE
  5
1ABE
330
1F
100
AcDbEntity
  8
STAVBA OBRYS
100
AcDbPolyline
 90
        2
 70
     0
 43
0.0
 10
565.6612730088196
 20
-100.9263100178832
 10
577.0023084342279
 20
-95.6993650041104
  0
LWPOLYLINE
  5
1ABF
330
1F
100
AcDbEntity
  8
STAVBA OBRYS
100
AcDbPolyline
 90
        4
 70
     0
 43
0.0
 10
535.5142641523449
 20
-100.9263100178832
 10
555.5105165843375
 20
-91.71028096736336
 10
572.288407155556
 20
-89.00313670467221
 10
575.5520184032608
 20
-88.87283534030212
  0
LWPOLYLINE
  5
1AC0
330
1F
100
AcDbEntity
  8
STAVBA OBRYS
100
AcDbPolyline
 90
        4
 70
     0
 43
0.0
 10
570.2683915896301
 20
-100.4254795871347
 42
0.0334776267545482
 10
569.8311137949237
 20
-96.37850465839802
 42
0.0091133963862869
 10
567.3535094700051
 20
-83.68677487293826
 42
0.007828075361276
 10
567.0626103348474
 20
-82.42547958713476
  0
LWPOLYLINE
  5
1AC1
330
1F
100
AcDbEntity
  8
STAVBA OBRYS
100
AcDbPolyline
 90
        5
 70
     0
 43
0.0
 10
560.0242532148364
 20
-100.4254795871347
 42
0.0133579731639958
 10
559.6374427258084
 20
-97.90767729957952
 42
0.0072443097182286
 10
557.5174457783502
 20
-87.09678640467245
 42
0.0219777111230329
 10
556.6113332763667
 20
-83.57867314883696
 42
0.0092752982622242
 10
556.2361063144195
 20
-82.42547958713476
  0
LWPOLYLINE
  5
1AC2
330
1F
100
AcDbEntity
  8
STAVBA OBRYS
100
AcDbPolyline
 90
        4
 70
     0
 43
0.0
 10
550.1186493409401
 20
-100.4254795871347
 42
0.0186324019486548
 10
546.7502799688332
 20
-88.73036796891028
 42
0.0582629403736403
 10
545.0907801007521
 20
-85.15053376997457
 42
0.0146402521923566
 10
543.306372119168
 20
-82.42547958713476
  0
LINE
  5
1AC3
330
1F
100
AcDbEntity
  8
izolace
100
AcDbLine
 10
523.3676113680809
 20
45.2326576866617
 30
0.0
 11
577.0023084342279
 21
45.2326576866617
 31
0.0
  0
LWPOLYLINE
  5
1AC4
330
1F
100
AcDbEntity
  8
STAVBA OBRYS
100
AcDbPolyline
 90
        2
 70
     0
 43
0.0
 10
523.3676113680809
 20
42.29508897582218
 42
-0.0063891037323949
 10
522.1075431999394
 20
40.57452041286524
  0
LWPOLYLINE
  5
1AC5
330
1F
100
AcDbEntity
  8
STAVBA OBRYS
100
AcDbPolyline
 90
        2
 70
     0
 43
0.0
 10
520.5817583599579
 20
49.57155036374115
 10
523.3676113680809
 20
48.17760429592908
  0
LWPOLYLINE
  5
1AC6
330
1F
100
AcDbEntity
  8
STAVBA OBRYS
100
AcDbPolyline
 90
        7
 70
     0
 43
0.0
 10
477.8823798477657
 20
80.57452041286524
 42
-0.0203924744732807
 10
476.9802958633569
 20
79.56139038371111
 42
-0.0273961979096945
 10
476.1304315131616
 20
78.77321400968503
 42
-0.0243529190212958
 10
474.9673110207419
 20
77.8994546650174
 42
-0.0398020282482987
 10
474.1923524831815
 20
77.45982592157088
 42
-0.104168275620852
 10
473.8059413468414
 20
77.36980946139374
 42
-0.007272956268647
 10
473.3676113680827
 20
77.351356110099
 42
-0.007272956268647
  0
POLYLINE
  5
1AC7
330
1F
100
AcDbEntity
  8
STAVBA OBRYS
100
AcDb2dPolyline
 66
     1
 10
0.0
 20
0.0
 30
0.0
  0
VERTEX
  5
1AC8
330
1AC7
100
AcDbEntity
  8
STAVBA OBRYS
100
AcDbVertex
100
AcDb2dVertex
 10
483.2320661822828
 20
80.57452041286342
 30
0.0
 42
-0.0064239028828688
  0
VERTEX
  5
1AC9
330
1AC7
100
AcDbEntity
  8
STAVBA OBRYS
100
AcDbVertex
100
AcDb2dVertex
 10
483.1931977421024
 20
80.35540675351331
 30
0.0
 42
-0.0832048017309575
  0
VERTEX
  5
1ACA
330
1AC7
100
AcDbEntity
  8
STAVBA OBRYS
100
AcDbVertex
100
AcDb2dVertex
 10
482.4090151394208
 20
78.0251931738585
 30
0.0
 42
-0.0336767237692336
  0
VERTEX
  5
1ACB
330
1AC7
100
AcDbEntity
  8
STAVBA OBRYS
100
AcDbVertex
100
AcDb2dVertex
 10
480.706198580499
 20
75.29691865439781
 30
0.0
 42
-0.0844635135812105
  0
VERTEX
  5
1ACC
330
1AC7
100
AcDbEntity
  8
STAVBA OBRYS
100
AcDbVertex
100
AcDb2dVertex
 10
479.7863888206062
 20
74.39249704940266
 30
0.0
 42
-0.0495829410719565
  0
VERTEX
  5
1ACD
330
1AC7
100
AcDbEntity
  8
STAVBA OBRYS
100
AcDbVertex
100
AcDb2dVertex
 10
478.0377103832521
 20
73.41584754208998
 30
0.0
 42
-0.0322692699774654
  0
VERTEX
  5
1ACE
330
1AC7
100
AcDbEntity
  8
STAVBA OBRYS
100
AcDbVertex
100
AcDb2dVertex
 10
475.1463562021614
 20
72.37432404068932
 30
0.0
 42
-0.0276160659512937
  0
VERTEX
  5
1ACF
330
1AC7
100
AcDbEntity
  8
STAVBA OBRYS
100
AcDbVertex
100
AcDb2dVertex
 10
474.2907797638742
 20
72.1775886117448
 30
0.0
 42
-0.0126891984598699
  0
VERTEX
  5
1AD0
330
1AC7
100
AcDbEntity
  8
STAVBA OBRYS
100
AcDbVertex
100
AcDb2dVertex
 10
473.3676113680827
 20
72.04238622220327
 30
0.0
  0
SEQEND
  5
1AD1
330
1AC7
100
AcDbEntity
  8
STAVBA OBRYS
  0
LWPOLYLINE
  5
1AD2
330
1F
100
AcDbEntity
  8
STAVBA OBRYS
100
AcDbPolyline
 90
       10
 70
     0
 43
0.0
 10
497.4098952267064
 20
80.57452041286524
 42
-0.0168162630274194
 10
497.2748696476425
 20
78.88348226074595
 42
-0.0575155827655532
 10
496.5948373672996
 20
75.78385760002857
 42
-0.0310289133982999
 10
493.5920360224714
 20
68.53883007538389
 42
-0.0882970623535771
 10
491.9548141023784
 20
66.29846102458396
 42
-0.0171636441953577
 10
489.1414500405204
 20
63.78454366933874
 42
-0.0157521173632038
 10
485.9025952034841
 20
61.25304761683219
 42
-0.0073640874174249
 10
481.2689458471628
 20
57.9646461910961
 42
-0.0194185739168057
 10
479.4469025274862
 20
56.81307719181496
 42
-0.0567960585128809
 10
473.3676113680827
 20
54.16121298643884
 42
-0.0229547400386702
  0
POLYLINE
  5
1AD3
330
1F
100
AcDbEntity
  8
STAVBA OBRYS
100
AcDb2dPolyline
 66
     1
 10
0.0
 20
0.0
 30
0.0
  0
VERTEX
  5
1AD4
330
1AD3
100
AcDbEntity
  8
STAVBA OBRYS
100
AcDbVertex
100
AcDb2dVertex
 10
490.4601172030212
 20
80.57452041286342
 30
0.0
 42
-0.0072417954699014
  0
VERTEX
  5
1AD5
330
1AD3
100
AcDbEntity
  8
STAVBA OBRYS
100
AcDbVertex
100
AcDb2dVertex
 10
490.4045468351775
 20
80.16311520158888
 30
0.0
 42
-0.0707158694326265
  0
VERTEX
  5
1AD6
330
1AD3
100
AcDbEntity
  8
STAVBA OBRYS
100
AcDbVertex
100
AcDb2dVertex
 10
489.8734203187574
 20
78.2270117489952
 30
0.0
 42
-0.033952657250207
  0
VERTEX
  5
1AD7
330
1AD3
100
AcDbEntity
  8
STAVBA OBRYS
100
AcDbVertex
100
AcDb2dVertex
 10
487.6247644793489
 20
73.87397402382157
 30
0.0
 42
-0.0571374688189033
  0
VERTEX
  5
1AD8
330
1AD3
100
AcDbEntity
  8
STAVBA OBRYS
100
AcDbVertex
100
AcDb2dVertex
 10
485.8386077194969
 20
71.56704974013519
 30
0.0
 42
-0.0274923553235744
  0
VERTEX
  5
1AD9
330
1AD3
100
AcDbEntity
  8
STAVBA OBRYS
100
AcDbVertex
100
AcDb2dVertex
 10
483.2413019889441
 20
69.18197441700067
 30
0.0
 42
-0.0255412025538677
  0
VERTEX
  5
1ADA
330
1AD3
100
AcDbEntity
  8
STAVBA OBRYS
100
AcDbVertex
100
AcDb2dVertex
 10
480.1898719512333
 20
66.92526073998124
 30
0.0
 42
-0.0272796991712396
  0
VERTEX
  5
1ADB
330
1AD3
100
AcDbEntity
  8
STAVBA OBRYS
100
AcDbVertex
100
AcDb2dVertex
 10
476.0768727980481
 20
64.508924858319
 30
0.0
 42
-0.056967459841729
  0
VERTEX
  5
1ADC
330
1AD3
100
AcDbEntity
  8
STAVBA OBRYS
100
AcDbVertex
100
AcDb2dVertex
 10
473.9359255173163
 20
63.69618902311959
 30
0.0
 42
-0.0373408083348504
  0
VERTEX
  5
1ADD
330
1AD3
100
AcDbEntity
  8
STAVBA OBRYS
100
AcDbVertex
100
AcDb2dVertex
 10
473.7135711418428
 20
63.65702348216837
 30
0.0
 42
-0.0052305969362967
  0
VERTEX
  5
1ADE
330
1AD3
100
AcDbEntity
  8
STAVBA OBRYS
100
AcDbVertex
100
AcDb2dVertex
 10
473.3676113680827
 20
63.62606651526403
 30
0.0
  0
SEQEND
  5
1ADF
330
1AD3
100
AcDbEntity
  8
STAVBA OBRYS
  0
LWPOLYLINE
  5
1AE0
330
1F
100
AcDbEntity
  8
izolace
100
AcDbPolyline
 90
        4
 70
     1
 43
0.0
 10
523.3676113680809
 20
80.57452041286524
 10
473.3676113680809
 20
80.57452041286524
 10
473.3676113680809
 20
83.57452041286434
 10
523.3676113680809
 20
83.57452041286434
  0
HATCH
  5
1AE1
330
1F
100
AcDbEntity
  8
izolace
100
AcDbHatch
 10
0.0
 20
0.0
 30
0.0
210
0.0
220
0.0
230
1.0
  2
SOLID
 70
     1
 71
     0
 91
       10
 92
        7
 72
     0
 73
     1
 93
        4
 10
523.3676113680809
 20
83.57452041286434
 10
519.4431903606615
 20
83.57452041286434
 10
519.4431903606615
 20
80.57452041286524
 10
523.3676113680809
 20
80.57452041286524
 97
        0
 92
        7
 72
     0
 73
     1
 93
        9
 10
507.0012454588919
 20
83.57452041286434
 10
501.6043862015082
 20
83.57452041286434
 10
501.9120731911967
 20
83.4711324892096
 10
502.2821715347205
 20
83.25691300342441
 10
501.9120731911931
 20
82.88681465803074
 10
501.2530064347335
 20
83.10827200192397
 10
501.2530064347335
 20
80.6344164136026
 10
501.4311376325528
 20
80.57452041286524
 10
507.001245458891
 20
80.57452041286524
 97
        0
 92
        7
 72
     0
 73
     1
 93
        9
 10
498.607623675252
 20
83.57452041286434
 10
493.1853276450871
 20
83.57452041286434
 10
493.1853276450871
 20
80.57452041286524
 10
498.607623675252
 20
80.57452041286524
 10
498.607623675252
 20
80.93959940881905
 10
497.948556918797
 20
81.16120833198783
 10
497.5784585709877
 20
81.37542781777574
 10
497.9485569187923
 20
81.74552616344135
 10
498.607623675252
 20
81.52391724027166
 97
        0
 92
        7
 72
     0
 73
     1
 93
        5
 10
501.2530064347335
 20
83.10827200192306
 10
499.8654307395578
 20
83.57452041286434
 10
498.607623675253
 20
83.57452041286434
 10
498.607623675253
 20
81.52391724027074
 10
501.2530064347335
 20
80.63441641360169
 97
        0
 92
        7
 72
     0
 73
     1
 93
        4
 10
501.0117418972527
 20
83.57452041286434
 10
499.8654307395596
 20
83.57452041286524
 10
501.9120731911931
 20
82.88681465802893
 10
502.2821715347196
 20
83.25691300342441
 97
        0
 92
       23
 72
     0
 73
     1
 93
        4
 10
501.6043862015108
 20
83.57452041286434
 10
501.0117418972473
 20
83.57452041286434
 10
502.2821715347196
 20
83.2569130034226
 10
501.9120731911913
 20
83.47113248921141
 97
        0
 92
        7
 72
     0
 73
     1
 93
        4
 10
497.9485569187933
 20
81.74552616343953
 10
497.5784585709885
 20
81.37542781777483
 10
500.7820881906251
 20
80.57452041286524
 10
501.43113763255
 20
80.57452041286524
 97
        0
 92
        7
 72
     0
 73
     1
 93
        4
 10
497.578458570984
 20
81.37542781777666
 10
497.948556918796
 20
81.16120833198875
 10
499.6933716057789
 20
80.57452041286524
 10
500.782088190626
 20
80.57452041286524
 97
        0
 92
       23
 72
     0
 73
     1
 93
        3
 10
498.607623675252
 20
80.93959940881996
 10
498.607623675252
 20
80.57452041286524
 10
499.6933716057725
 20
80.57452041286524
 97
        0
 92
        7
 72
     0
 73
     1
 93
        4
 10
479.6991361502556
 20
83.57452041286434
 10
473.3676113680809
 20
83.57452041286434
 10
473.3676113680809
 20
80.57452041286524
 10
479.6991361502565
 20
80.57452041286614
 97
        0
 75
     0
 76
     1
 47
0.0980096762587744
 98
       10
 10
521.0763633800467
 20
82.69296699999904
 10
505.2735656171877
 20
81.94091411103727
 10
496.1475984077238
 20
81.97751697068452
 10
499.6915193074906
 20
81.92217653348052
 10
501.0590653026062
 20
83.27710301220941
 10
501.6204437546599
 20
83.49314711367696
 10
499.3111137758293
 20
81.09366359214618
 10
499.5493627002812
 20
80.78227088653875
 10
498.88957031342
 20
80.74563447706532
 10
475.843976934802
 20
81.81656168272821
  0
INSERT
  5
1AE2
330
1F
100
AcDbEntity
  8
POPIS
100
AcDbBlockReference
  2
E_PUNKT
 10
371.379039510433
 20
60.40028163748229
 30
0.0
 50
270.0
  0
LINE
  5
1AE3
330
1F
100
AcDbEntity
  8
POPIS
100
AcDbLine
 10
371.4081078413034
 20
176.8679791660524
 30
0.0
 11
371.4081078413034
 21
59.12267126185543
 31
0.0
  0
TEXT
  5
1AE4
330
1F
100
AcDbEntity
  8
POPIS
100
AcDbText
 10
354.5104369094948
 20
185.7173402387761
 30
0.0
 40
25.0
  1
07
 41
0.85
  7
SIMPLEX7
100
AcDbText
  0
TEXT
  5
1AE5
330
1F
100
AcDbEntity
  8
POPIS
100
AcDbText
 10
403.598952373784
 20
185.7173402387761
 30
0.0
 40
25.0
  1
09
 41
0.85
  7
SIMPLEX7
100
AcDbText
  0
LINE
  5
1AE6
330
1F
100
AcDbEntity
  8
izolace
100
AcDbLine
 10
523.3676113680809
 20
75.87211972169098
 30
0.0
 11
577.0023084342279
 21
75.87211972169098
 31
0.0
  0
LINE
  5
1AE7
330
1F
100
AcDbEntity
  8
SPOJOVACÍ
  6
DASHED
100
AcDbLine
 10
492.6039855381455
 20
107.5745204128652
 30
0.0
 11
502.6002871598681
 21
107.5745204128652
 31
0.0
  0
LINE
  5
1AE8
330
1F
100
AcDbEntity
  8
SPOJOVACÍ
  6
DASHED
100
AcDbLine
 10
502.6002871598681
 20
107.5745204128652
 30
0.0
 11
502.6002871598681
 21
106.3985921716684
 31
0.0
  0
LINE
  5
1AE9
330
1F
100
AcDbEntity
  8
SPOJOVACÍ
  6
DASHED
100
AcDbLine
 10
501.8992880774236
 20
106.0686030065426
 30
0.0
 11
502.6002871598681
 21
106.3985921716684
 31
0.0
  0
LINE
  5
1AEA
330
1F
100
AcDbEntity
  8
SPOJOVACÍ
  6
DASHED
100
AcDbLine
 10
492.6039855381455
 20
106.3985921716684
 30
0.0
 11
502.6002871598681
 21
106.3985921716684
 31
0.0
  0
LINE
  5
1AEB
330
1F
100
AcDbEntity
  8
SPOJOVACÍ
  6
DASHED
100
AcDbLine
 10
496.2794449714052
 20
87.00622541770281
 30
0.0
 11
496.2794449714052
 21
84.53586453912794
 31
0.0
  0
LINE
  5
1AEC
330
1F
100
AcDbEntity
  8
SPOJOVACÍ
  6
DASHED
100
AcDbLine
 10
495.6203782149456
 20
87.21862175884234
 30
0.0
 11
499.5838944873463
 21
85.88681465802983
 31
0.0
  0
LINE
  5
1AED
330
1F
100
AcDbEntity
  8
SPOJOVACÍ
  6
DASHED
100
AcDbLine
 10
495.2502798671408
 20
87.43284124462844
 30
0.0
 11
495.6203782149456
 21
87.21862175884234
 31
0.0
  0
LINE
  5
1AEE
330
1F
100
AcDbEntity
  8
SPOJOVACÍ
  6
DASHED
100
AcDbLine
 10
495.2502798671408
 20
87.43284124462844
 30
0.0
 11
495.6203782149456
 21
87.80293959029405
 31
0.0
  0
LINE
  5
1AEF
330
1F
100
AcDbEntity
  8
SPOJOVACÍ
  6
DASHED
100
AcDbLine
 10
495.6203782149456
 20
87.80293959029405
 30
0.0
 11
499.5838944873463
 21
86.4711324892105
 31
0.0
  0
LINE
  5
1AF0
330
1F
100
AcDbEntity
  8
SPOJOVACÍ
  6
DASHED
100
AcDbLine
 10
496.2794449714052
 20
90.06637356111969
 30
0.0
 11
496.2794449714052
 21
87.59783582719137
 31
0.0
  0
LINE
  5
1AF1
330
1F
100
AcDbEntity
  8
SPOJOVACÍ
  6
DASHED
100
AcDbLine
 10
495.6203782149456
 20
90.27694675788371
 30
0.0
 11
499.5838944873463
 21
88.94422808461241
 31
0.0
  0
LINE
  5
1AF2
330
1F
100
AcDbEntity
  8
SPOJOVACÍ
  6
DASHED
100
AcDbLine
 10
495.2502798671408
 20
90.49025467121101
 30
0.0
 11
495.6203782149456
 21
90.27694675788371
 31
0.0
  0
LINE
  5
1AF3
330
1F
100
AcDbEntity
  8
SPOJOVACÍ
  6
DASHED
100
AcDbLine
 10
495.2502798671408
 20
90.49025467121101
 30
0.0
 11
495.6203782149456
 21
90.86126458906438
 31
0.0
  0
LINE
  5
1AF4
330
1F
100
AcDbEntity
  8
SPOJOVACÍ
  6
DASHED
100
AcDbLine
 10
495.6203782149456
 20
90.86126458906438
 30
0.0
 11
499.5838944873463
 21
89.5285459160641
 31
0.0
  0
LINE
  5
1AF5
330
1F
100
AcDbEntity
  8
SPOJOVACÍ
  6
DASHED
100
AcDbLine
 10
496.2794449714052
 20
93.10628664773686
 30
0.0
 11
496.2794449714052
 21
90.63592576916198
 31
0.0
  0
LINE
  5
1AF6
330
1F
100
AcDbEntity
  8
SPOJOVACÍ
  6
DASHED
100
AcDbLine
 10
495.6203782149456
 20
93.3186829888764
 30
0.0
 11
499.5838944873463
 21
91.98687588806388
 31
0.0
  0
LINE
  5
1AF7
330
1F
100
AcDbEntity
  8
SPOJOVACÍ
  6
DASHED
100
AcDbLine
 10
495.2502798671408
 20
93.53290247466247
 30
0.0
 11
495.6203782149456
 21
93.3186829888764
 31
0.0
  0
LINE
  5
1AF8
330
1F
100
AcDbEntity
  8
SPOJOVACÍ
  6
DASHED
100
AcDbLine
 10
495.2502798671408
 20
93.53290247466247
 30
0.0
 11
495.6203782149456
 21
93.90300082032808
 31
0.0
  0
LINE
  5
1AF9
330
1F
100
AcDbEntity
  8
SPOJOVACÍ
  6
DASHED
100
AcDbLine
 10
495.6203782149456
 20
93.90300082032808
 30
0.0
 11
499.5838944873463
 21
92.57119371924455
 31
0.0
  0
LINE
  5
1AFA
330
1F
100
AcDbEntity
  8
SPOJOVACÍ
  6
DASHED
100
AcDbLine
 10
496.2794449714052
 20
96.16643479115374
 30
0.0
 11
496.2794449714052
 21
93.69789705722542
 31
0.0
  0
LINE
  5
1AFB
330
1F
100
AcDbEntity
  8
SPOJOVACÍ
  6
DASHED
100
AcDbLine
 10
495.6203782149456
 20
96.37700798791776
 30
0.0
 11
499.5838944873463
 21
95.04428931464644
 31
0.0
  0
LINE
  5
1AFC
330
1F
100
AcDbEntity
  8
SPOJOVACÍ
  6
DASHED
100
AcDbLine
 10
495.2502798671408
 20
96.59031590124506
 30
0.0
 11
495.6203782149456
 21
96.37700798791776
 31
0.0
  0
LINE
  5
1AFD
330
1F
100
AcDbEntity
  8
SPOJOVACÍ
  6
DASHED
100
AcDbLine
 10
495.2502798671408
 20
96.59031590124506
 30
0.0
 11
495.6203782149456
 21
96.96132581909843
 31
0.0
  0
LINE
  5
1AFE
330
1F
100
AcDbEntity
  8
SPOJOVACÍ
  6
DASHED
100
AcDbLine
 10
495.6203782149456
 20
96.96132581909843
 30
0.0
 11
499.5838944873463
 21
95.62860714609815
 31
0.0
  0
LINE
  5
1AFF
330
1F
100
AcDbEntity
  8
SPOJOVACÍ
  6
DASHED
100
AcDbLine
 10
496.2794449714052
 20
99.20908259460521
 30
0.0
 11
496.2794449714052
 21
96.74054486067689
 31
0.0
  0
LINE
  5
1B00
330
1F
100
AcDbEntity
  8
SPOJOVACÍ
  6
DASHED
100
AcDbLine
 10
495.6203782149456
 20
99.41965579136923
 30
0.0
 11
499.5838944873463
 21
98.08693711809793
 31
0.0
  0
LINE
  5
1B01
330
1F
100
AcDbEntity
  8
SPOJOVACÍ
  6
DASHED
100
AcDbLine
 10
495.2502798671408
 20
99.63296370469652
 30
0.0
 11
495.6203782149456
 21
99.41965579136923
 31
0.0
  0
LINE
  5
1B02
330
1F
100
AcDbEntity
  8
SPOJOVACÍ
  6
DASHED
100
AcDbLine
 10
495.2502798671408
 20
99.63296370469652
 30
0.0
 11
495.6203782149456
 21
100.0039736225498
 31
0.0
  0
LINE
  5
1B03
330
1F
100
AcDbEntity
  8
SPOJOVACÍ
  6
DASHED
100
AcDbLine
 10
495.6203782149456
 20
100.0039736225498
 30
0.0
 11
499.5838944873463
 21
98.67125494954962
 31
0.0
  0
LINE
  5
1B04
330
1F
100
AcDbEntity
  8
SPOJOVACÍ
  6
DASHED
100
AcDbLine
 10
496.2470841552637
 20
101.492510161529
 30
0.0
 11
496.2794449714052
 21
99.78236469938202
 31
0.0
  0
LINE
  5
1B05
330
1F
100
AcDbEntity
  8
SPOJOVACÍ
  6
DASHED
100
AcDbLine
 10
496.214723339122
 20
101.878105235859
 30
0.0
 11
496.2794449714052
 21
101.106915087199
 31
0.0
  0
LINE
  5
1B06
330
1F
100
AcDbEntity
  8
SPOJOVACÍ
  6
DASHED
100
AcDbLine
 10
495.7954000921087
 20
103.3293283055682
 30
0.0
 11
496.214723339122
 21
101.878105235859
 31
0.0
  0
LINE
  5
1B07
330
1F
100
AcDbEntity
  8
SPOJOVACÍ
  6
DASHED
100
AcDbLine
 10
495.0150942223769
 20
104.6219377982997
 30
0.0
 11
495.7954000921087
 21
103.3293283055682
 31
0.0
  0
LINE
  5
1B08
330
1F
100
AcDbEntity
  8
SPOJOVACÍ
  6
DASHED
100
AcDbLine
 10
493.9266769200254
 20
105.6693343479237
 30
0.0
 11
495.0150942223769
 21
104.6219377982997
 31
0.0
  0
LINE
  5
1B09
330
1F
100
AcDbEntity
  8
SPOJOVACÍ
  6
DASHED
100
AcDbLine
 10
492.6039855381455
 20
106.3985921716684
 30
0.0
 11
493.9266769200254
 21
105.6693343479237
 31
0.0
  0
LINE
  5
1B0A
330
1F
100
AcDbEntity
  8
SPOJOVACÍ
  6
DASHED
100
AcDbLine
 10
492.6039855381455
 20
107.5745204128652
 30
0.0
 11
492.6039855381455
 21
106.3985921716684
 31
0.0
  0
LINE
  5
1B0B
330
1F
100
AcDbEntity
  8
SPOJOVACÍ
  6
DASHED
100
AcDbLine
 10
500.6868969447019
 20
105.1688811663098
 30
0.0
 11
501.8992880774236
 21
106.0686030065426
 31
0.0
  0
LINE
  5
1B0C
330
1F
100
AcDbEntity
  8
SPOJOVACÍ
  6
DASHED
100
AcDbLine
 10
499.7479774961171
 20
103.9856603470689
 30
0.0
 11
500.6868969447019
 21
105.1688811663098
 31
0.0
  0
LINE
  5
1B0D
330
1F
100
AcDbEntity
  8
SPOJOVACÍ
  6
DASHED
100
AcDbLine
 10
499.1472513639524
 20
102.6000704815596
 30
0.0
 11
499.7479774961171
 21
103.9856603470689
 31
0.0
  0
LINE
  5
1B0E
330
1F
100
AcDbEntity
  8
SPOJOVACÍ
  6
DASHED
100
AcDbLine
 10
498.9248277308867
 20
101.106915087199
 30
0.0
 11
499.1472513639524
 21
102.6000704815596
 31
0.0
  0
LINE
  5
1B0F
330
1F
100
AcDbEntity
  8
SPOJOVACÍ
  6
DASHED
100
AcDbLine
 10
498.9248277308867
 20
101.1069150872008
 30
0.0
 11
498.9248277308867
 21
98.89286387271932
 31
0.0
  0
LINE
  5
1B10
330
1F
100
AcDbEntity
  8
SPOJOVACÍ
  6
DASHED
100
AcDbLine
 10
499.9539928308728
 20
98.45703546376354
 30
0.0
 11
499.5838944873463
 21
98.67125494954962
 31
0.0
  0
LINE
  5
1B11
330
1F
100
AcDbEntity
  8
SPOJOVACÍ
  6
DASHED
100
AcDbLine
 10
499.9539928308728
 20
98.45703546376354
 30
0.0
 11
499.5838944873463
 21
98.08693711809793
 31
0.0
  0
LINE
  5
1B12
330
1F
100
AcDbEntity
  8
SPOJOVACÍ
  6
DASHED
100
AcDbLine
 10
498.9248277308867
 20
98.31391861584599
 30
0.0
 11
498.9248277308867
 21
95.84538088191767
 31
0.0
  0
LINE
  5
1B13
330
1F
100
AcDbEntity
  8
SPOJOVACÍ
  6
DASHED
100
AcDbLine
 10
499.9539928308728
 20
95.41438766031205
 30
0.0
 11
499.5838944873463
 21
95.62860714609815
 31
0.0
  0
LINE
  5
1B14
330
1F
100
AcDbEntity
  8
SPOJOVACÍ
  6
DASHED
100
AcDbLine
 10
499.9539928308728
 20
95.41438766031205
 30
0.0
 11
499.5838944873463
 21
95.04428931464644
 31
0.0
  0
LINE
  5
1B15
330
1F
100
AcDbEntity
  8
SPOJOVACÍ
  6
DASHED
100
AcDbLine
 10
498.9248277308867
 20
95.2712708123945
 30
0.0
 11
498.9248277308867
 21
92.80273307846618
 31
0.0
  0
LINE
  5
1B16
330
1F
100
AcDbEntity
  8
SPOJOVACÍ
  6
DASHED
100
AcDbLine
 10
499.9539928308728
 20
92.35697423345845
 30
0.0
 11
499.5838944873463
 21
92.57119371924455
 31
0.0
  0
LINE
  5
1B17
330
1F
100
AcDbEntity
  8
SPOJOVACÍ
  6
DASHED
100
AcDbLine
 10
499.9539928308728
 20
92.35697423345845
 30
0.0
 11
499.5838944873463
 21
91.98687588806388
 31
0.0
  0
LINE
  5
1B18
330
1F
100
AcDbEntity
  8
SPOJOVACÍ
  6
DASHED
100
AcDbLine
 10
498.9248277308867
 20
92.21841524701449
 30
0.0
 11
498.9248277308867
 21
89.74076179040276
 31
0.0
  0
LINE
  5
1B19
330
1F
100
AcDbEntity
  8
SPOJOVACÍ
  6
DASHED
100
AcDbLine
 10
499.9539928308728
 20
89.31432643027802
 30
0.0
 11
499.5838944873463
 21
89.5285459160641
 31
0.0
  0
LINE
  5
1B1A
330
1F
100
AcDbEntity
  8
SPOJOVACÍ
  6
DASHED
100
AcDbLine
 10
499.9539928308728
 20
89.31432643027802
 30
0.0
 11
499.5838944873463
 21
88.94422808461241
 31
0.0
  0
LINE
  5
1B1B
330
1F
100
AcDbEntity
  8
SPOJOVACÍ
  6
DASHED
100
AcDbLine
 10
498.9248277308867
 20
89.17120958236045
 30
0.0
 11
498.9248277308867
 21
86.70267184843215
 31
0.0
  0
LINE
  5
1B1C
330
1F
100
AcDbEntity
  8
SPOJOVACÍ
  6
DASHED
100
AcDbLine
 10
499.9539928308728
 20
86.25691300342442
 30
0.0
 11
499.5838944873463
 21
86.4711324892105
 31
0.0
  0
LINE
  5
1B1D
330
1F
100
AcDbEntity
  8
SPOJOVACÍ
  6
DASHED
100
AcDbLine
 10
499.9539928308728
 20
86.25691300342442
 30
0.0
 11
499.5838944873463
 21
85.88681465802983
 31
0.0
  0
LINE
  5
1B1E
330
1F
100
AcDbEntity
  8
SPOJOVACÍ
  6
DASHED
100
AcDbLine
 10
498.9248277308867
 20
86.11835401698044
 30
0.0
 11
498.9248277308867
 21
83.64070056036871
 31
0.0
  0
LINE
  5
1B1F
330
1F
100
AcDbEntity
  8
SPOJOVACÍ
  6
DASHED
100
AcDbLine
 10
495.6203782149456
 20
84.74552616344045
 30
0.0
 11
499.5838944873463
 21
83.4128074904329
 31
0.0
  0
LINE
  5
1B20
330
1F
100
AcDbEntity
  8
SPOJOVACÍ
  6
DASHED
100
AcDbLine
 10
496.2794449714052
 20
83.9533698523228
 30
0.0
 11
496.2794449714052
 21
81.47571639571106
 31
0.0
  0
LINE
  5
1B21
330
1F
100
AcDbEntity
  8
SPOJOVACÍ
  6
DASHED
100
AcDbLine
 10
495.6203782149456
 20
84.16120833198874
 30
0.0
 11
499.5838944873463
 21
82.82848965898848
 31
0.0
  0
LINE
  5
1B22
330
1F
100
AcDbEntity
  8
SPOJOVACÍ
  6
DASHED
100
AcDbLine
 10
495.2502798671408
 20
84.37542781777484
 30
0.0
 11
495.6203782149456
 21
84.16120833198874
 31
0.0
  0
LINE
  5
1B23
330
1F
100
AcDbEntity
  8
SPOJOVACÍ
  6
DASHED
100
AcDbLine
 10
495.2502798671408
 20
84.37542781777484
 30
0.0
 11
495.6203782149456
 21
84.74552616344045
 31
0.0
  0
LINE
  5
1B24
330
1F
100
AcDbEntity
  8
SPOJOVACÍ
  6
DASHED
100
AcDbLine
 10
495.2502798671408
 20
87.43284124462844
 30
0.0
 11
499.9539928308728
 21
86.25691300342442
 31
0.0
  0
LINE
  5
1B25
330
1F
100
AcDbEntity
  8
SPOJOVACÍ
  6
DASHED
100
AcDbLine
 10
495.2502798671408
 20
84.37542781777484
 30
0.0
 11
499.9539928308728
 21
83.19949957684185
 31
0.0
  0
LINE
  5
1B26
330
1F
100
AcDbEntity
  8
SPOJOVACÍ
  6
DASHED
100
AcDbLine
 10
498.9248277308867
 20
83.05820587356356
 30
0.0
 11
498.9248277308867
 21
80.58784499498869
 31
0.0
  0
LINE
  5
1B27
330
1F
100
AcDbEntity
  8
SPOJOVACÍ
  6
DASHED
100
AcDbLine
 10
496.2794449714052
 20
80.88319441377098
 30
0.0
 11
496.2794449714052
 21
78.41556825203042
 31
0.0
  0
LINE
  5
1B28
330
1F
100
AcDbEntity
  8
SPOJOVACÍ
  6
DASHED
100
AcDbLine
 10
496.2794449714052
 20
77.83125042057872
 30
0.0
 11
496.2794449714052
 21
76.60883199352793
 31
0.0
  0
LINE
  5
1B29
330
1F
100
AcDbEntity
  8
SPOJOVACÍ
  6
DASHED
100
AcDbLine
 10
498.9248277308867
 20
79.99896930233444
 30
0.0
 11
498.9248277308867
 21
77.53043156840613
 31
0.0
  0
LINE
  5
1B2A
330
1F
100
AcDbEntity
  8
SPOJOVACÍ
  6
DASHED
100
AcDbLine
 10
498.9248277308867
 20
76.93882115865381
 30
0.0
 11
498.9248277308867
 21
76.60883199352793
 31
0.0
  0
LINE
  5
1B2B
330
1F
100
AcDbEntity
  8
SPOJOVACÍ
  6
DASHED
100
AcDbLine
 10
496.2794449714052
 20
76.60883199352793
 30
0.0
 11
496.4262081080739
 21
75.43563846915822
 31
0.0
  0
LINE
  5
1B2C
330
1F
100
AcDbEntity
  8
SPOJOVACÍ
  6
DASHED
100
AcDbLine
 10
497.6021363490068
 20
66.02456625187369
 30
0.0
 11
497.9494453905132
 21
68.80395013311681
 31
0.0
  0
LINE
  5
1B2D
330
1F
100
AcDbEntity
  8
SPOJOVACÍ
  6
DASHED
100
AcDbLine
 10
496.5018686087493
 20
74.82761975842186
 30
0.0
 11
496.7862791612784
 21
72.55233534807849
 31
0.0
  0
LINE
  5
1B2E
330
1F
100
AcDbEntity
  8
SPOJOVACÍ
  6
DASHED
100
AcDbLine
 10
496.8637628052598
 20
71.93428934220719
 30
0.0
 11
497.1481733535107
 21
69.65991650405886
 31
0.0
  0
LINE
  5
1B2F
330
1F
100
AcDbEntity
  8
SPOJOVACÍ
  6
DASHED
100
AcDbLine
 10
497.2238338541862
 20
69.0518977933225
 30
0.0
 11
497.6021363490068
 21
66.02456625187369
 31
0.0
  0
LINE
  5
1B30
330
1F
100
AcDbEntity
  8
SPOJOVACÍ
  6
DASHED
100
AcDbLine
 10
498.0196364569925
 20
69.36183236844226
 30
0.0
 11
498.2821692727371
 21
71.46391804572704
 31
0.0
  0
LINE
  5
1B31
330
1F
100
AcDbEntity
  8
SPOJOVACÍ
  6
DASHED
100
AcDbLine
 10
498.3523603349381
 20
72.0245349978868
 30
0.0
 11
498.6139815811689
 21
74.1184165246832
 31
0.0
  0
LINE
  5
1B32
330
1F
100
AcDbEntity
  8
SPOJOVACÍ
  6
DASHED
100
AcDbLine
 10
498.6841726476483
 20
74.67721033246744
 30
0.0
 11
498.9248277308867
 21
76.60883199352793
 31
0.0
  0
LINE
  5
1B33
330
1F
100
AcDbEntity
  8
SPOJOVACÍ
  6
DASHED
100
AcDbLine
 10
495.2502798671408
 20
90.49025467121101
 30
0.0
 11
499.9539928308728
 21
89.31432643027802
 31
0.0
  0
LINE
  5
1B34
330
1F
100
AcDbEntity
  8
SPOJOVACÍ
  6
DASHED
100
AcDbLine
 10
495.4991391016734
 20
75.24420829047631
 30
0.0
 11
495.870149018992
 21
75.02998880469021
 31
0.0
  0
LINE
  5
1B35
330
1F
100
AcDbEntity
  8
SPOJOVACÍ
  6
DASHED
100
AcDbLine
 10
495.4991391016734
 20
75.24420829047631
 30
0.0
 11
495.870149018992
 21
75.61430663614192
 31
0.0
  0
LINE
  5
1B36
330
1F
100
AcDbEntity
  8
SPOJOVACÍ
  6
DASHED
100
AcDbLine
 10
499.5419621613615
 20
74.29070368581779
 30
0.0
 11
499.171863817835
 21
73.91969376769338
 31
0.0
  0
LINE
  5
1B37
330
1F
100
AcDbEntity
  8
SPOJOVACÍ
  6
DASHED
100
AcDbLine
 10
499.5419621613615
 20
74.29070368581779
 30
0.0
 11
499.171863817835
 21
74.50401159914509
 31
0.0
  0
LINE
  5
1B38
330
1F
100
AcDbEntity
  8
SPOJOVACÍ
  6
DASHED
100
AcDbLine
 10
495.870149018992
 20
75.02998880469021
 30
0.0
 11
499.171863817835
 21
73.91969376769338
 31
0.0
  0
LINE
  5
1B39
330
1F
100
AcDbEntity
  8
SPOJOVACÍ
  6
DASHED
100
AcDbLine
 10
495.870149018992
 20
75.61430663614192
 30
0.0
 11
499.171863817835
 21
74.50401159914509
 31
0.0
  0
LINE
  5
1B3A
330
1F
100
AcDbEntity
  8
SPOJOVACÍ
  6
DASHED
100
AcDbLine
 10
495.4991391016734
 20
75.24420829047631
 30
0.0
 11
499.5419621613615
 21
74.29070368581779
 31
0.0
  0
LINE
  5
1B3B
330
1F
100
AcDbEntity
  8
SPOJOVACÍ
  6
DASHED
100
AcDbLine
 10
496.0524634736572
 20
72.28980253126429
 30
0.0
 11
496.4225618214619
 21
72.07649461793699
 31
0.0
  0
LINE
  5
1B3C
330
1F
100
AcDbEntity
  8
SPOJOVACÍ
  6
DASHED
100
AcDbLine
 10
496.0524634736572
 20
72.28980253126429
 30
0.0
 11
496.4225618214619
 21
72.66081244938868
 31
0.0
  0
LINE
  5
1B3D
330
1F
100
AcDbEntity
  8
SPOJOVACÍ
  6
DASHED
100
AcDbLine
 10
499.1062306117597
 20
71.66902180882971
 30
0.0
 11
498.7361322682333
 21
71.29801189097634
 31
0.0
  0
LINE
  5
1B3E
330
1F
100
AcDbEntity
  8
SPOJOVACÍ
  6
DASHED
100
AcDbLine
 10
499.1062306117597
 20
71.66902180882971
 30
0.0
 11
498.7361322682333
 21
71.88232972215701
 31
0.0
  0
LINE
  5
1B3F
330
1F
100
AcDbEntity
  8
SPOJOVACÍ
  6
DASHED
100
AcDbLine
 10
496.4225618214619
 20
72.07649461793699
 30
0.0
 11
498.7361322682333
 21
71.29801189097634
 31
0.0
  0
LINE
  5
1B40
330
1F
100
AcDbEntity
  8
SPOJOVACÍ
  6
DASHED
100
AcDbLine
 10
496.4225618214619
 20
72.66081244938868
 30
0.0
 11
498.7361322682333
 21
71.88232972215701
 31
0.0
  0
LINE
  5
1B41
330
1F
100
AcDbEntity
  8
SPOJOVACÍ
  6
DASHED
100
AcDbLine
 10
496.0524634736572
 20
72.28980253126429
 30
0.0
 11
499.1062306117597
 21
71.66902180882971
 31
0.0
  0
LINE
  5
1B42
330
1F
100
AcDbEntity
  8
SPOJOVACÍ
  6
DASHED
100
AcDbLine
 10
496.6057878499192
 20
69.33630834451105
 30
0.0
 11
496.9758861934457
 21
69.12208885873224
 31
0.0
  0
LINE
  5
1B43
330
1F
100
AcDbEntity
  8
SPOJOVACÍ
  6
DASHED
100
AcDbLine
 10
496.6057878499192
 20
69.33630834451105
 30
0.0
 11
496.9758861934457
 21
69.70640669017666
 31
0.0
  0
LINE
  5
1B44
330
1F
100
AcDbEntity
  8
SPOJOVACÍ
  6
DASHED
100
AcDbLine
 10
498.7169892485468
 20
69.03184320305263
 30
0.0
 11
498.3468909050203
 21
68.66083328519926
 31
0.0
  0
LINE
  5
1B45
330
1F
100
AcDbEntity
  8
SPOJOVACÍ
  6
DASHED
100
AcDbLine
 10
498.7169892485468
 20
69.03184320305263
 30
0.0
 11
498.3468909050203
 21
69.24515111664368
 31
0.0
  0
LINE
  5
1B46
330
1F
100
AcDbEntity
  8
SPOJOVACÍ
  6
DASHED
100
AcDbLine
 10
496.9758861934457
 20
69.12208885873224
 30
0.0
 11
498.3468909050203
 21
68.66083328519926
 31
0.0
  0
LINE
  5
1B47
330
1F
100
AcDbEntity
  8
SPOJOVACÍ
  6
DASHED
100
AcDbLine
 10
496.9758861934457
 20
69.70640669017666
 30
0.0
 11
498.3468909050203
 21
69.24515111664368
 31
0.0
  0
LINE
  5
1B48
330
1F
100
AcDbEntity
  8
SPOJOVACÍ
  6
DASHED
100
AcDbLine
 10
496.6057878499192
 20
69.33630834451105
 30
0.0
 11
498.7169892485468
 21
69.03184320305263
 31
0.0
  0
LINE
  5
1B49
330
1F
100
AcDbEntity
  8
SPOJOVACÍ
  6
DASHED
100
AcDbLine
 10
499.9539928308728
 20
83.19949957684185
 30
0.0
 11
499.5838944873463
 21
82.82848965898848
 31
0.0
  0
LINE
  5
1B4A
330
1F
100
AcDbEntity
  8
SPOJOVACÍ
  6
DASHED
100
AcDbLine
 10
499.9539928308728
 20
83.19949957684185
 30
0.0
 11
499.5838944873463
 21
83.4128074904329
 31
0.0
  0
LINE
  5
1B4B
330
1F
100
AcDbEntity
  8
SPOJOVACÍ
  6
DASHED
100
AcDbLine
 10
495.2502798671408
 20
81.31801439118499
 30
0.0
 11
499.9539928308728
 21
80.142086150252
 31
0.0
  0
LINE
  5
1B4C
330
1F
100
AcDbEntity
  8
SPOJOVACÍ
  6
DASHED
100
AcDbLine
 10
495.2502798671408
 20
81.31801439118499
 30
0.0
 11
495.6203782149456
 21
81.10379490540617
 31
0.0
  0
LINE
  5
1B4D
330
1F
100
AcDbEntity
  8
SPOJOVACÍ
  6
DASHED
100
AcDbLine
 10
495.2502798671408
 20
81.31801439118499
 30
0.0
 11
495.6203782149456
 21
81.6881127368506
 31
0.0
  0
LINE
  5
1B4E
330
1F
100
AcDbEntity
  8
SPOJOVACÍ
  6
DASHED
100
AcDbLine
 10
499.9539928308728
 20
80.142086150252
 30
0.0
 11
499.5838944873463
 21
79.77107623239863
 31
0.0
  0
LINE
  5
1B4F
330
1F
100
AcDbEntity
  8
SPOJOVACÍ
  6
DASHED
100
AcDbLine
 10
499.9539928308728
 20
80.142086150252
 30
0.0
 11
499.5838944873463
 21
80.3553940635793
 31
0.0
  0
LINE
  5
1B50
330
1F
100
AcDbEntity
  8
SPOJOVACÍ
  6
DASHED
100
AcDbLine
 10
495.6203782149456
 20
81.10379490540617
 30
0.0
 11
499.5838944873463
 21
79.77107623239863
 31
0.0
  0
LINE
  5
1B51
330
1F
100
AcDbEntity
  8
SPOJOVACÍ
  6
DASHED
100
AcDbLine
 10
495.6203782149456
 20
81.6881127368506
 30
0.0
 11
499.5838944873463
 21
80.3553940635793
 31
0.0
  0
LINE
  5
1B52
330
1F
100
AcDbEntity
  8
SPOJOVACÍ
  6
DASHED
100
AcDbLine
 10
495.2502798671408
 20
78.25968939214362
 30
0.0
 11
499.9539928308728
 21
77.08376115121064
 31
0.0
  0
LINE
  5
1B53
330
1F
100
AcDbEntity
  8
SPOJOVACÍ
  6
DASHED
100
AcDbLine
 10
495.2502798671408
 20
78.25968939214362
 30
0.0
 11
495.6203782149456
 21
78.04638147881632
 31
0.0
  0
LINE
  5
1B54
330
1F
100
AcDbEntity
  8
SPOJOVACÍ
  6
DASHED
100
AcDbLine
 10
495.2502798671408
 20
78.25968939214362
 30
0.0
 11
495.6203782149456
 21
78.63069931026803
 31
0.0
  0
LINE
  5
1B55
330
1F
100
AcDbEntity
  8
SPOJOVACÍ
  6
DASHED
100
AcDbLine
 10
499.9539928308728
 20
77.08376115121064
 30
0.0
 11
499.5838944873463
 21
76.71366280554503
 31
0.0
  0
LINE
  5
1B56
330
1F
100
AcDbEntity
  8
SPOJOVACÍ
  6
DASHED
100
AcDbLine
 10
499.9539928308728
 20
77.08376115121064
 30
0.0
 11
499.5838944873463
 21
77.29798063699672
 31
0.0
  0
LINE
  5
1B57
330
1F
100
AcDbEntity
  8
SPOJOVACÍ
  6
DASHED
100
AcDbLine
 10
495.6203782149456
 20
78.04638147881632
 30
0.0
 11
499.5838944873463
 21
76.71366280554503
 31
0.0
  0
LINE
  5
1B58
330
1F
100
AcDbEntity
  8
SPOJOVACÍ
  6
DASHED
100
AcDbLine
 10
495.6203782149456
 20
78.63069931026803
 30
0.0
 11
499.5838944873463
 21
77.29798063699672
 31
0.0
  0
LINE
  5
1B59
330
1F
100
AcDbEntity
  8
SPOJOVACÍ
  6
DASHED
100
AcDbLine
 10
495.2502798671408
 20
93.53290247466247
 30
0.0
 11
499.9539928308728
 21
92.35697423345845
 31
0.0
  0
LINE
  5
1B5A
330
1F
100
AcDbEntity
  8
SPOJOVACÍ
  6
DASHED
100
AcDbLine
 10
495.2502798671408
 20
96.59031590124506
 30
0.0
 11
499.9539928308728
 21
95.41438766031205
 31
0.0
  0
LINE
  5
1B5B
330
1F
100
AcDbEntity
  8
SPOJOVACÍ
  6
DASHED
100
AcDbLine
 10
495.2502798671408
 20
99.63296370469652
 30
0.0
 11
499.9539928308728
 21
98.45703546376354
 31
0.0
  0
LWPOLYLINE
  5
1B5C
330
1F
100
AcDbEntity
  8
STAVBA OBRYS
100
AcDbPolyline
 90
        3
 70
     0
 43
0.0
 10
480.0760088257862
 20
75.05718971734677
 10
496.831226445514
 20
66.67344884937847
 10
504.9983310946386
 20
58.49214714828121
  0
LWPOLYLINE
  5
1B5D
330
1F
100
AcDbEntity
  8
STAVBA OBRYS
100
AcDbPolyline
 90
        3
 70
     0
 43
0.0
 10
499.3685864510313
 20
74.07535084361007
 10
519.3648388830239
 20
64.8593217930902
 10
523.3647765167384
 20
64.21392431774802
  0
LINE
  5
1B5E
330
1F
100
AcDbEntity
  8
izolace
  6
IZOLACE
 48
1.5
100
AcDbLine
 10
523.3676113680809
 20
60.57452041286524
 30
0.0
 11
577.684145295048
 21
60.57452041286524
 31
0.0
  0
TEXT
  5
1B5F
330
1F
100
AcDbEntity
  8
POPIS
100
AcDbText
 10
-377.0835066861549
 20
395.1019723226418
 30
0.0
 40
35.0
  1
SVISLÝ ŘEZ
 41
0.85
  7
SIMPLEX7
100
AcDbText
  0
TEXT
  5
1B60
330
1F
100
AcDbEntity
  8
POPIS
100
AcDbText
 10
702.5481302712174
 20
308.6875118353873
 30
0.0
 40
25.0
  1
Rohová lišta
 41
0.7
  7
SIMPLEX7
100
AcDbText
  0
TEXT
  5
1B61
330
1F
100
AcDbEntity
  8
POPIS
100
AcDbText
 10
648.2044271114752
 20
308.6875118353873
 30
0.0
 40
25.0
  1
01
 41
0.85
  7
SIMPLEX7
100
AcDbText
  0
TEXT
  5
1B62
330
1F
100
AcDbEntity
  8
POPIS
100
AcDbText
 10
702.5481302712174
 20
197.7789203962929
 30
0.0
 40
25.0
  1
Vrut Bűhnen 4,2x45(55) mm
 41
0.7
  7
SIMPLEX7
100
AcDbText
  0
TEXT
  5
1B63
330
1F
100
AcDbEntity
  8
POPIS
100
AcDbText
 10
702.5481302712174
 20
57.70375939123005
 30
0.0
 40
25.0
  1
Dilatační spára tl. 15 mm
 41
0.7
  7
SIMPLEX7
100
AcDbText
  0
TEXT
  5
1B64
330
1F
100
AcDbEntity
  8
POPIS
100
AcDbText
 10
702.5481302712174
 20
163.8287321515708
 30
0.0
 40
25.0
  1
Zvukoizolační podložka
 41
0.7
  7
SIMPLEX7
100
AcDbText
  0
TEXT
  5
1B65
330
1F
100
AcDbEntity
  8
POPIS
100
AcDbText
 10
702.5481302712174
 20
234.3739320119202
 30
0.0
 40
25.0
  1
Podlahová deska CETRIS    PD (PDB)
 41
0.7
  7
SIMPLEX7
100
AcDbText
  0
TEXT
  5
1B66
330
1F
100
AcDbEntity
  8
POPIS
100
AcDbText
 10
702.5481302712174
 20
25.94485278860156
 30
0.0
 40
25.0
  1
Stropní konstrukce
 41
0.7
  7
SIMPLEX7
100
AcDbText
  0
TEXT
  5
1B67
330
1F
100
AcDbEntity
  8
POPIS
100
AcDbText
 10
649.0871981115084
 20
26.25931379776193
 30
0.0
 40
25.0
  1
09
 41
0.85
  7
SIMPLEX7
100
AcDbText
  0
TEXT
  5
1B68
330
1F
100
AcDbEntity
  8
POPIS
100
AcDbText
 10
649.0871981115084
 20
58.01822040039041
 30
0.0
 40
25.0
  1
08
 41
0.85
  7
SIMPLEX7
100
AcDbText
  0
TEXT
  5
1B69
330
1F
100
AcDbEntity
  8
POPIS
100
AcDbText
 10
702.5481302712174
 20
272.09250021976
 30
0.0
 40
25.0
  1
Nášlapná vrstva
 41
0.7
  7
SIMPLEX7
100
AcDbText
  0
TEXT
  5
1B6A
330
1F
100
AcDbEntity
  8
POPIS
100
AcDbText
 10
702.5481302712174
 20
128.4245709334081
 30
0.0
 40
25.0
  1
Dřevěný nosník
 41
0.7
  7
SIMPLEX7
100
AcDbText
  0
TEXT
  5
1B6B
330
1F
100
AcDbEntity
  8
POPIS
100
AcDbText
 10
702.5481302712174
 20
94.53929939412228
 30
0.0
 40
25.0
  1
Tepelná izolace
 41
0.7
  7
SIMPLEX7
100
AcDbText
  0
TEXT
  5
1B6C
330
1F
100
AcDbEntity
  8
POPIS
100
AcDbText
 10
648.2044271114752
 20
93.83004988263383
 30
0.0
 40
25.0
  1
07
 41
0.85
  7
SIMPLEX7
100
AcDbText
  0
TEXT
  5
1B6D
330
1F
100
AcDbEntity
  8
POPIS
100
AcDbText
 10
648.2044271114752
 20
128.0834424218319
 30
0.0
 40
25.0
  1
06
 41
0.85
  7
SIMPLEX7
100
AcDbText
  0
TEXT
  5
1B6E
330
1F
100
AcDbEntity
  8
POPIS
100
AcDbText
 10
648.2044271114752
 20
198.80425396401
 30
0.0
 40
25.0
  1
04
 41
0.85
  7
SIMPLEX7
100
AcDbText
  0
TEXT
  5
1B6F
330
1F
100
AcDbEntity
  8
POPIS
100
AcDbText
 10
648.2044271114752
 20
234.2084151821727
 30
0.0
 40
25.0
  1
03
 41
0.85
  7
SIMPLEX7
100
AcDbText
  0
TEXT
  5
1B70
330
1F
100
AcDbEntity
  8
POPIS
100
AcDbText
 10
648.2044271114752
 20
272.09250021976
 30
0.0
 40
25.0
  1
02
 41
0.85
  7
SIMPLEX7
100
AcDbText
  0
TEXT
  5
1B71
330
1F
100
AcDbEntity
  8
POPIS
100
AcDbText
 10
648.2044271114752
 20
164.9189824247241
 30
0.0
 40
25.0
  1
05
 41
0.85
  7
SIMPLEX7
100
AcDbText
  0
TEXT
  5
1B72
330
1F
100
AcDbEntity
  8
POPIS
100
AcDbText
 10
990.0864143055166
 20
261.0684833504365
 30
0.0
 40
9.600000000000001
  1
R
 41
0.85
  7
SIMPLEX7
100
AcDbText
  0
CIRCLE
  5
1B73
330
1F
100
AcDbEntity
  8
POPIS
100
AcDbCircle
 10
993.8936375496664
 20
265.5047599464269
 30
0.0
 40
8.909248386336209
  0
LWPOLYLINE
  5
1B7A
330
1F
100
AcDbEntity
  8
izolace
100
AcDbPolyline
 90
        4
 70
     1
 43
0.0
 10
-57.73957134867339
 20
37.57452041286524
 10
-107.7395713486734
 20
37.57452041286524
 10
-107.7395713486734
 20
40.57452041286433
 10
-57.73957134867339
 20
40.57452041286433
  0
HATCH
  5
1B7B
330
1F
100
AcDbEntity
  8
izolace
100
AcDbHatch
 10
0.0
 20
0.0
 30
0.0
210
0.0
220
0.0
230
1.0
  2
SOLID
 70
     1
 71
     0
 91
       10
 92
        7
 72
     0
 73
     1
 93
        4
 10
-57.73957134867339
 20
40.57452041286433
 10
-61.66399235609276
 20
40.57452041286433
 10
-61.66399235609276
 20
37.57452041286524
 10
-57.73957134867339
 20
37.57452041286524
 97
        0
 92
        7
 72
     0
 73
     1
 93
        9
 10
-74.10593725786236
 20
40.57452041286433
 10
-79.50279651524613
 20
40.57452041286433
 10
-79.19510952555754
 20
40.47113248920959
 10
-78.82501118203379
 20
40.25691300342441
 10
-79.19510952556118
 20
39.88681465803074
 10
-79.85417628202083
 20
40.10827200192397
 10
-79.85417628202083
 20
37.63441641360259
 10
-79.67604508420151
 20
37.57452041286524
 10
-74.10593725786327
 20
37.57452041286524
 97
        0
 92
        7
 72
     0
 73
     1
 93
        9
 10
-82.49955904150226
 20
40.57452041286433
 10
-87.9218550716672
 20
40.57452041286433
 10
-87.9218550716672
 20
37.57452041286524
 10
-82.49955904150226
 20
37.57452041286524
 10
-82.49955904150226
 20
37.93959940881904
 10
-83.15862579795737
 20
38.16120833198784
 10
-83.52872414576665
 20
38.37542781777574
 10
-83.15862579796192
 20
38.74552616344135
 10
-82.49955904150226
 20
38.52391724027166
 97
        0
 92
        7
 72
     0
 73
     1
 93
        5
 10
-79.85417628202083
 20
40.10827200192307
 10
-81.24175197719649
 20
40.57452041286433
 10
-82.49955904150136
 20
40.57452041286433
 10
-82.49955904150136
 20
38.52391724027075
 10
-79.85417628202083
 20
37.63441641360168
 97
        0
 92
        7
 72
     0
 73
     1
 93
        4
 10
-80.09544081950151
 20
40.57452041286433
 10
-81.24175197719466
 20
40.57452041286524
 10
-79.19510952556118
 20
39.88681465802892
 10
-78.8250111820347
 20
40.25691300342441
 97
        0
 92
       23
 72
     0
 73
     1
 93
        4
 10
-79.5027965152434
 20
40.57452041286433
 10
-80.09544081950696
 20
40.57452041286433
 10
-78.8250111820347
 20
40.25691300342259
 10
-79.195109525563
 20
40.47113248921141
 97
        0
 92
        7
 72
     0
 73
     1
 93
        4
 10
-83.15862579796101
 20
38.74552616343953
 10
-83.52872414576575
 20
38.37542781777483
 10
-80.32509452612918
 20
37.57452041286524
 10
-79.67604508420425
 20
37.57452041286524
 97
        0
 92
        7
 72
     0
 73
     1
 93
        4
 10
-83.5287241457703
 20
38.37542781777665
 10
-83.15862579795828
 20
38.16120833198874
 10
-81.41381111097542
 20
37.57452041286524
 10
-80.32509452612828
 20
37.57452041286524
 97
        0
 92
       23
 72
     0
 73
     1
 93
        3
 10
-82.49955904150226
 20
37.93959940881995
 10
-82.49955904150226
 20
37.57452041286524
 10
-81.41381111098178
 20
37.57452041286524
 97
        0
 92
        7
 72
     0
 73
     1
 93
        4
 10
-101.4080465664986
 20
40.57452041286433
 10
-107.7395713486734
 20
40.57452041286433
 10
-107.7395713486734
 20
37.57452041286524
 10
-101.4080465664977
 20
37.57452041286615
 97
        0
 75
     0
 76
     1
 47
0.0980096762587744
 98
       10
 10
-60.03081933670762
 20
39.69296699999904
 10
-75.83361709956659
 20
38.94091411103727
 10
-84.95958430903044
 20
38.97751697068452
 10
-81.41566340926363
 20
38.92217653348052
 10
-80.04811741414812
 20
40.27710301220941
 10
-79.48673896209436
 20
40.49314711367697
 10
-81.79606894092501
 20
38.09366359214618
 10
-81.5578200164731
 20
37.78227088653875
 10
-82.21761240333433
 20
37.74563447706532
 10
-105.2632057819522
 20
38.81656168272821
  0
LWPOLYLINE
  5
1B7C
330
1F
100
AcDbEntity
  8
izolace
100
AcDbPolyline
 90
        4
 70
     1
 43
0.0
 10
245.3140200097037
 20
37.57452041286524
 10
195.3140200097037
 20
37.57452041286524
 10
195.3140200097037
 20
40.57452041286433
 10
245.3140200097037
 20
40.57452041286433
  0
HATCH
  5
1B7D
330
1F
100
AcDbEntity
  8
izolace
100
AcDbHatch
 10
0.0
 20
0.0
 30
0.0
210
0.0
220
0.0
230
1.0
  2
SOLID
 70
     1
 71
     0
 91
       10
 92
        7
 72
     0
 73
     1
 93
        4
 10
245.3140200097037
 20
40.57452041286433
 10
241.3895990022843
 20
40.57452041286433
 10
241.3895990022843
 20
37.57452041286524
 10
245.3140200097037
 20
37.57452041286524
 97
        0
 92
        7
 72
     0
 73
     1
 93
        9
 10
228.9476541005147
 20
40.57452041286433
 10
223.550794843131
 20
40.57452041286433
 10
223.8584818328196
 20
40.47113248920959
 10
224.2285801763433
 20
40.25691300342441
 10
223.8584818328159
 20
39.88681465803074
 10
223.1994150763563
 20
40.10827200192397
 10
223.1994150763563
 20
37.63441641360259
 10
223.3775462741756
 20
37.57452041286524
 10
228.9476541005138
 20
37.57452041286524
 97
        0
 92
        7
 72
     0
 73
     1
 93
        9
 10
220.5540323168749
 20
40.57452041286433
 10
215.1317362867099
 20
40.57452041286433
 10
215.1317362867099
 20
37.57452041286524
 10
220.5540323168749
 20
37.57452041286524
 10
220.5540323168749
 20
37.93959940881904
 10
219.8949655604197
 20
38.16120833198784
 10
219.5248672126104
 20
38.37542781777574
 10
219.8949655604152
 20
38.74552616344135
 10
220.5540323168749
 20
38.52391724027166
 97
        0
 92
        7
 72
     0
 73
     1
 93
        5
 10
223.1994150763563
 20
40.10827200192307
 10
221.8118393811806
 20
40.57452041286433
 10
220.5540323168758
 20
40.57452041286433
 10
220.5540323168758
 20
38.52391724027075
 10
223.1994150763563
 20
37.63441641360168
 97
        0
 92
        7
 72
     0
 73
     1
 93
        4
 10
222.9581505388756
 20
40.57452041286433
 10
221.8118393811824
 20
40.57452041286524
 10
223.8584818328159
 20
39.88681465802892
 10
224.2285801763424
 20
40.25691300342441
 97
        0
 92
       23
 72
     0
 73
     1
 93
        4
 10
223.5507948431337
 20
40.57452041286433
 10
222.9581505388702
 20
40.57452041286433
 10
224.2285801763424
 20
40.25691300342259
 10
223.8584818328141
 20
40.47113248921141
 97
        0
 92
        7
 72
     0
 73
     1
 93
        4
 10
219.8949655604161
 20
38.74552616343953
 10
219.5248672126114
 20
38.37542781777483
 10
222.7284968322479
 20
37.57452041286524
 10
223.3775462741729
 20
37.57452041286524
 97
        0
 92
        7
 72
     0
 73
     1
 93
        4
 10
219.5248672126068
 20
38.37542781777665
 10
219.8949655604188
 20
38.16120833198874
 10
221.6397802474017
 20
37.57452041286524
 10
222.7284968322488
 20
37.57452041286524
 97
        0
 92
       23
 72
     0
 73
     1
 93
        3
 10
220.5540323168749
 20
37.93959940881995
 10
220.5540323168749
 20
37.57452041286524
 10
221.6397802473953
 20
37.57452041286524
 97
        0
 92
        7
 72
     0
 73
     1
 93
        4
 10
201.6455447918784
 20
40.57452041286433
 10
195.3140200097037
 20
40.57452041286433
 10
195.3140200097037
 20
37.57452041286524
 10
201.6455447918793
 20
37.57452041286615
 97
        0
 75
     0
 76
     1
 47
0.0980096762587744
 98
       10
 10
243.0227720216695
 20
39.69296699999904
 10
227.2199742588105
 20
38.94091411103727
 10
218.0940070493467
 20
38.97751697068452
 10
221.6379279491135
 20
38.92217653348052
 10
223.005473944229
 20
40.27710301220941
 10
223.5668523962828
 20
40.49314711367697
 10
221.2575224174521
 20
38.09366359214618
 10
221.495771341904
 20
37.78227088653875
 10
220.8359789550428
 20
37.74563447706532
 10
197.7903855764249
 20
38.81656168272821
  0
HATCH
  5
1B7E
330
1F
100
AcDbEntity
  8
izolace
100
AcDbHatch
 10
0.0
 20
0.0
 30
0.0
210
0.0
220
0.0
230
1.0
  2
SOLID
 70
     1
 71
     0
 91
       10
 92
        7
 72
     0
 73
     1
 93
        4
 10
195.3140200097037
 20
40.57452041286433
 10
191.3895990022844
 20
40.57452041286433
 10
191.3895990022844
 20
37.57452041286524
 10
195.3140200097037
 20
37.57452041286524
 97
        0
 92
        7
 72
     0
 73
     1
 93
        9
 10
178.9476541005148
 20
40.57452041286433
 10
173.550794843131
 20
40.57452041286433
 10
173.8584818328196
 20
40.47113248920959
 10
174.2285801763433
 20
40.25691300342441
 10
173.8584818328159
 20
39.88681465803074
 10
173.1994150763563
 20
40.10827200192397
 10
173.1994150763563
 20
37.63441641360259
 10
173.3775462741756
 20
37.57452041286524
 10
178.9476541005138
 20
37.57452041286524
 97
        0
 92
        7
 72
     0
 73
     1
 93
        9
 10
170.5540323168748
 20
40.57452041286433
 10
165.1317362867099
 20
40.57452041286433
 10
165.1317362867099
 20
37.57452041286524
 10
170.5540323168748
 20
37.57452041286524
 10
170.5540323168748
 20
37.93959940881904
 10
169.8949655604197
 20
38.16120833198784
 10
169.5248672126105
 20
38.37542781777574
 10
169.8949655604152
 20
38.74552616344135
 10
170.5540323168748
 20
38.52391724027166
 97
        0
 92
        7
 72
     0
 73
     1
 93
        5
 10
173.1994150763563
 20
40.10827200192307
 10
171.8118393811806
 20
40.57452041286433
 10
170.5540323168758
 20
40.57452041286433
 10
170.5540323168758
 20
38.52391724027075
 10
173.1994150763563
 20
37.63441641360168
 97
        0
 92
        7
 72
     0
 73
     1
 93
        4
 10
172.9581505388756
 20
40.57452041286433
 10
171.8118393811824
 20
40.57452041286524
 10
173.8584818328159
 20
39.88681465802892
 10
174.2285801763424
 20
40.25691300342441
 97
        0
 92
       23
 72
     0
 73
     1
 93
        4
 10
173.5507948431337
 20
40.57452041286433
 10
172.9581505388702
 20
40.57452041286433
 10
174.2285801763424
 20
40.25691300342259
 10
173.8584818328141
 20
40.47113248921141
 97
        0
 92
        7
 72
     0
 73
     1
 93
        4
 10
169.8949655604161
 20
38.74552616343953
 10
169.5248672126114
 20
38.37542781777483
 10
172.7284968322479
 20
37.57452041286524
 10
173.3775462741729
 20
37.57452041286524
 97
        0
 92
        7
 72
     0
 73
     1
 93
        4
 10
169.5248672126068
 20
38.37542781777665
 10
169.8949655604188
 20
38.16120833198874
 10
171.6397802474017
 20
37.57452041286524
 10
172.7284968322488
 20
37.57452041286524
 97
        0
 92
       23
 72
     0
 73
     1
 93
        3
 10
170.5540323168748
 20
37.93959940881995
 10
170.5540323168748
 20
37.57452041286524
 10
171.6397802473953
 20
37.57452041286524
 97
        0
 92
        7
 72
     0
 73
     1
 93
        4
 10
151.6455447918784
 20
40.57452041286433
 10
145.3140200097037
 20
40.57452041286433
 10
145.3140200097037
 20
37.57452041286524
 10
151.6455447918793
 20
37.57452041286615
 97
        0
 75
     0
 76
     1
 47
0.0980096762587744
 98
       10
 10
193.0227720216695
 20
39.69296699999904
 10
177.2199742588105
 20
38.94091411103727
 10
168.0940070493467
 20
38.97751697068452
 10
171.6379279491135
 20
38.92217653348052
 10
173.005473944229
 20
40.27710301220941
 10
173.5668523962828
 20
40.49314711367697
 10
171.2575224174521
 20
38.09366359214618
 10
171.495771341904
 20
37.78227088653875
 10
170.8359789550428
 20
37.74563447706532
 10
147.7903855764249
 20
38.81656168272821
  0
LINE
  5
1B7F
330
1F
100
AcDbEntity
  8
SPOJOVACÍ
  6
DASHED
100
AcDbLine
 10
170.0409746853343
 20
40.05820587356356
 30
0.0
 11
170.0409746853343
 21
37.5878449949887
 31
0.0
  0
LINE
  5
1B80
330
1F
100
AcDbEntity
  8
SPOJOVACÍ
  6
DASHED
100
AcDbLine
 10
166.3664268215885
 20
38.31801439118498
 30
0.0
 11
166.7365251693933
 21
38.68811273685059
 31
0.0
  0
LINE
  5
1B81
330
1F
100
AcDbEntity
  8
SPOJOVACÍ
  6
DASHED
100
AcDbLine
 10
166.3664268215885
 20
38.31801439118498
 30
0.0
 11
166.7365251693933
 21
38.10379490540617
 31
0.0
  0
LINE
  5
1B82
330
1F
100
AcDbEntity
  8
SPOJOVACÍ
  6
DASHED
100
AcDbLine
 10
171.0701397853205
 20
40.19949957684184
 30
0.0
 11
170.700041441794
 21
40.4128074904329
 31
0.0
  0
LINE
  5
1B83
330
1F
100
AcDbEntity
  8
SPOJOVACÍ
  6
DASHED
100
AcDbLine
 10
171.0701397853205
 20
40.19949957684184
 30
0.0
 11
170.700041441794
 21
39.82848965898847
 31
0.0
  0
LWPOLYLINE
  5
1B84
330
1F
100
AcDbEntity
  8
izolace
100
AcDbPolyline
 90
        4
 70
     1
 43
0.0
 10
195.3140200097037
 20
37.57452041286524
 10
145.3140200097037
 20
37.57452041286524
 10
145.3140200097037
 20
40.57452041286433
 10
195.3140200097037
 20
40.57452041286433
  0
HATCH
  5
1B85
330
1F
100
AcDbEntity
  8
izolace
100
AcDbHatch
 10
0.0
 20
0.0
 30
0.0
210
0.0
220
0.0
230
1.0
  2
SOLID
 70
     1
 71
     0
 91
       10
 92
        7
 72
     0
 73
     1
 93
        4
 10
523.3676113680809
 20
40.57452041286433
 10
519.4431903606615
 20
40.57452041286433
 10
519.4431903606615
 20
37.57452041286524
 10
523.3676113680809
 20
37.57452041286524
 97
        0
 92
        7
 72
     0
 73
     1
 93
        9
 10
507.0012454588919
 20
40.57452041286433
 10
501.6043862015082
 20
40.57452041286433
 10
501.9120731911967
 20
40.47113248920959
 10
502.2821715347205
 20
40.25691300342441
 10
501.9120731911931
 20
39.88681465803074
 10
501.2530064347335
 20
40.10827200192397
 10
501.2530064347335
 20
37.63441641360259
 10
501.4311376325528
 20
37.57452041286524
 10
507.001245458891
 20
37.57452041286524
 97
        0
 92
        7
 72
     0
 73
     1
 93
        9
 10
498.607623675252
 20
40.57452041286433
 10
493.1853276450871
 20
40.57452041286433
 10
493.1853276450871
 20
37.57452041286524
 10
498.607623675252
 20
37.57452041286524
 10
498.607623675252
 20
37.93959940881904
 10
497.948556918797
 20
38.16120833198784
 10
497.5784585709877
 20
38.37542781777574
 10
497.9485569187923
 20
38.74552616344135
 10
498.607623675252
 20
38.52391724027166
 97
        0
 92
        7
 72
     0
 73
     1
 93
        5
 10
501.2530064347335
 20
40.10827200192307
 10
499.8654307395578
 20
40.57452041286433
 10
498.607623675253
 20
40.57452041286433
 10
498.607623675253
 20
38.52391724027075
 10
501.2530064347335
 20
37.63441641360168
 97
        0
 92
        7
 72
     0
 73
     1
 93
        4
 10
501.0117418972527
 20
40.57452041286433
 10
499.8654307395596
 20
40.57452041286524
 10
501.9120731911931
 20
39.88681465802892
 10
502.2821715347196
 20
40.25691300342441
 97
        0
 92
       23
 72
     0
 73
     1
 93
        4
 10
501.6043862015108
 20
40.57452041286433
 10
501.0117418972473
 20
40.57452041286433
 10
502.2821715347196
 20
40.25691300342259
 10
501.9120731911913
 20
40.47113248921141
 97
        0
 92
        7
 72
     0
 73
     1
 93
        4
 10
497.9485569187933
 20
38.74552616343953
 10
497.5784585709885
 20
38.37542781777483
 10
500.7820881906251
 20
37.57452041286524
 10
501.43113763255
 20
37.57452041286524
 97
        0
 92
        7
 72
     0
 73
     1
 93
        4
 10
497.578458570984
 20
38.37542781777665
 10
497.948556918796
 20
38.16120833198874
 10
499.6933716057789
 20
37.57452041286524
 10
500.782088190626
 20
37.57452041286524
 97
        0
 92
       23
 72
     0
 73
     1
 93
        3
 10
498.607623675252
 20
37.93959940881995
 10
498.607623675252
 20
37.57452041286524
 10
499.6933716057725
 20
37.57452041286524
 97
        0
 92
        7
 72
     0
 73
     1
 93
        4
 10
479.6991361502556
 20
40.57452041286433
 10
473.3676113680809
 20
40.57452041286433
 10
473.3676113680809
 20
37.57452041286524
 10
479.6991361502565
 20
37.57452041286615
 97
        0
 75
     0
 76
     1
 47
0.0980096762587744
 98
       10
 10
521.0763633800467
 20
39.69296699999904
 10
505.2735656171877
 20
38.94091411103727
 10
496.1475984077238
 20
38.97751697068452
 10
499.6915193074906
 20
38.92217653348052
 10
501.0590653026062
 20
40.27710301220941
 10
501.6204437546599
 20
40.49314711367697
 10
499.3111137758293
 20
38.09366359214618
 10
499.5493627002812
 20
37.78227088653875
 10
498.88957031342
 20
37.74563447706532
 10
475.843976934802
 20
38.81656168272821
  0
LWPOLYLINE
  5
1B86
330
1F
100
AcDbEntity
  8
izolace
100
AcDbPolyline
 90
        4
 70
     1
 43
0.0
 10
523.3676113680809
 20
37.57452041286524
 10
473.3676113680809
 20
37.57452041286524
 10
473.3676113680809
 20
40.57452041286433
 10
523.3676113680809
 20
40.57452041286433
  0
LINE
  5
1B87
330
1F
100
AcDbEntity
  8
POPIS
100
AcDbLine
 10
513.6921530209502
 20
176.8679791660524
 30
0.0
 11
513.6921530209502
 21
39.91563401215108
 31
0.0
  0
TEXT
  5
1B88
330
1F
100
AcDbEntity
  8
POPIS
100
AcDbText
 10
502.140250946456
 20
185.7173402387761
 30
0.0
 40
25.0
  1
05
 41
0.85
  7
SIMPLEX7
100
AcDbText
  0
INSERT
  5
1B89
330
1F
100
AcDbEntity
  8
POPIS
100
AcDbBlockReference
  2
E_PUNKT
 10
513.6630846900762
 20
38.69324438777785
 30
0.0
 50
270.0
  0
ENDSEC
  0
SECTION
  2
OBJECTS
  0
DICTIONARY
  5
C
330
0
100
AcDbDictionary
281
     1
  3
ACAD_GROUP
350
D
  3
ACAD_LAYOUT
350
1A
  3
ACAD_MLINESTYLE
350
17
  3
ACAD_PLOTSETTINGS
350
19
  3
ACAD_PLOTSTYLENAME
350
E
  0
DICTIONARY
  5
D
102
{ACAD_REACTORS
330
C
102
}
330
C
100
AcDbDictionary
281
     1
  0
DICTIONARY
  5
1A
102
{ACAD_REACTORS
330
C
102
}
330
C
100
AcDbDictionary
281
     1
  3
Model
350
22
  3
Rozvržení1
350
1E
  3
Rozvržení2
350
26
  0
DICTIONARY
  5
17
102
{ACAD_REACTORS
330
C
102
}
330
C
100
AcDbDictionary
281
     1
  3
Standard
350
18
  0
DICTIONARY
  5
19
102
{ACAD_REACTORS
330
C
102
}
330
C
100
AcDbDictionary
281
     1
  0
ACDBDICTIONARYWDFLT
  5
E
102
{ACAD_REACTORS
330
C
102
}
330
C
100
AcDbDictionary
281
     1
  3
Normal
350
F
100
AcDbDictionaryWithDefault
340
F
  0
LAYOUT
  5
22
102
{ACAD_REACTORS
330
1A
102
}
330
1A
100
AcDbPlotSettings
  1

  2
HP DeskJet 690C
  4

  6

 40
0.0
 41
0.0
 42
0.0
 43
0.0
 44
0.0
 45
0.0
 46
0.0
 47
0.0
 48
0.0
 49
0.0
140
0.0
141
0.0
142
1.0
143
1.0
 70
  1712
 72
     0
 73
     0
 74
     0
  7
monochrome.ctb
 75
     0
147
1.0
148
0.0
149
0.0
100
AcDbLayout
  1
Model
 70
     1
 71
     0
 10
0.0
 20
0.0
 11
12.0
 21
9.0
 12
0.0
 22
0.0
 32
0.0
 14
0.0
 24
0.0
 34
0.0
 15
0.0
 25
0.0
 35
0.0
146
0.0
 13
0.0
 23
0.0
 33
0.0
 16
1.0
 26
0.0
 36
0.0
 17
0.0
 27
1.0
 37
0.0
 76
     0
330
1F
  0
LAYOUT
  5
1E
102
{ACAD_REACTORS
330
1A
102
}
330
1A
100
AcDbPlotSettings
  1

  2
HP DeskJet 690C
  4

  6

 40
0.0
 41
0.0
 42
0.0
 43
0.0
 44
0.0
 45
0.0
 46
0.0
 47
0.0
 48
0.0
 49
0.0
140
0.0
141
0.0
142
1.0
143
1.0
 70
   688
 72
     0
 73
     0
 74
     5
  7
monochrome.ctb
 75
    16
147
1.0
148
0.0
149
0.0
100
AcDbLayout
  1
Rozvržení1
 70
     1
 71
     1
 10
0.0
 20
0.0
 11
420.0
 21
297.0
 12
0.0
 22
0.0
 32
0.0
 14
1.000000000000000E+20
 24
1.000000000000000E+20
 34
1.000000000000000E+20
 15
-1.000000000000000E+20
 25
-1.000000000000000E+20
 35
-1.000000000000000E+20
146
0.0
 13
0.0
 23
0.0
 33
0.0
 16
1.0
 26
0.0
 36
0.0
 17
0.0
 27
1.0
 37
0.0
 76
     0
330
1B
  0
LAYOUT
  5
26
102
{ACAD_REACTORS
330
1A
102
}
330
1A
100
AcDbPlotSettings
  1

  2
HP DeskJet 690C
  4

  6

 40
0.0
 41
0.0
 42
0.0
 43
0.0
 44
0.0
 45
0.0
 46
0.0
 47
0.0
 48
0.0
 49
0.0
140
0.0
141
0.0
142
1.0
143
1.0
 70
   688
 72
     0
 73
     0
 74
     5
  7
monochrome.ctb
 75
    16
147
1.0
148
0.0
149
0.0
100
AcDbLayout
  1
Rozvržení2
 70
     1
 71
     2
 10
0.0
 20
0.0
 11
12.0
 21
9.0
 12
0.0
 22
0.0
 32
0.0
 14
0.0
 24
0.0
 34
0.0
 15
0.0
 25
0.0
 35
0.0
146
0.0
 13
0.0
 23
0.0
 33
0.0
 16
1.0
 26
0.0
 36
0.0
 17
0.0
 27
1.0
 37
0.0
 76
     0
330
23
  0
MLINESTYLE
  5
18
102
{ACAD_REACTORS
330
17
102
}
330
17
100
AcDbMlineStyle
  2
STANDARD
 70
     0
  3

 62
   256
 51
90.0
 52
90.0
 71
     2
 49
0.5
 62
   256
  6
BYLAYER
 49
-0.5
 62
   256
  6
BYLAYER
  0
ACDBPLACEHOLDER
  5
F
102
{ACAD_REACTORS
330
E
102
}
330
E
  0
ENDSEC
  0
EOF
