  0
SECTION
  2
HEADER
  9
$ACADVER
  1
AC1015
  9
$ACADMAINTVER
 70
    14
  9
$DWGCODEPAGE
  3
ANSI_1250
  9
$INSBASE
 10
0.0
 20
0.0
 30
0.0
  9
$EXTMIN
 10
-402.9077504334663
 20
-278.3820432898237
 30
-0.0015258207003583
  9
$EXTMAX
 10
3055.168252434478
 20
572.2298651695314
 30
0.0000000349246037
  9
$LIMMIN
 10
0.0
 20
0.0
  9
$LIMMAX
 10
420.0
 20
297.0
  9
$ORTHOMODE
 70
     1
  9
$REGENMODE
 70
     1
  9
$FILLMODE
 70
     1
  9
$QTEXTMODE
 70
     0
  9
$MIRRTEXT
 70
     1
  9
$LTSCALE
 40
1.0
  9
$ATTMODE
 70
     1
  9
$TEXTSIZE
 40
2.5
  9
$TRACEWID
 40
1.0
  9
$TEXTSTYLE
  7
Standard
  9
$CLAYER
  8
0
  9
$CELTYPE
  6
ByLayer
  9
$CECOLOR
 62
   256
  9
$CELTSCALE
 40
1.0
  9
$DISPSILH
 70
     0
  9
$DIMSCALE
 40
1.0
  9
$DIMASZ
 40
2.5
  9
$DIMEXO
 40
0.625
  9
$DIMDLI
 40
3.75
  9
$DIMRND
 40
0.0
  9
$DIMDLE
 40
0.0
  9
$DIMEXE
 40
1.25
  9
$DIMTP
 40
0.0
  9
$DIMTM
 40
0.0
  9
$DIMTXT
 40
2.5
  9
$DIMCEN
 40
2.5
  9
$DIMTSZ
 40
0.0
  9
$DIMTOL
 70
     0
  9
$DIMLIM
 70
     0
  9
$DIMTIH
 70
     0
  9
$DIMTOH
 70
     0
  9
$DIMSE1
 70
     0
  9
$DIMSE2
 70
     0
  9
$DIMTAD
 70
     1
  9
$DIMZIN
 70
     8
  9
$DIMBLK
  1

  9
$DIMASO
 70
     1
  9
$DIMSHO
 70
     1
  9
$DIMPOST
  1

  9
$DIMAPOST
  1

  9
$DIMALT
 70
     0
  9
$DIMALTD
 70
     3
  9
$DIMALTF
 40
0.03937007874016
  9
$DIMLFAC
 40
1.0
  9
$DIMTOFL
 70
     1
  9
$DIMTVP
 40
0.0
  9
$DIMTIX
 70
     0
  9
$DIMSOXD
 70
     0
  9
$DIMSAH
 70
     0
  9
$DIMBLK1
  1

  9
$DIMBLK2
  1

  9
$DIMSTYLE
  2
ISO-25
  9
$DIMCLRD
 70
     0
  9
$DIMCLRE
 70
     0
  9
$DIMCLRT
 70
     0
  9
$DIMTFAC
 40
1.0
  9
$DIMGAP
 40
0.625
  9
$DIMJUST
 70
     0
  9
$DIMSD1
 70
     0
  9
$DIMSD2
 70
     0
  9
$DIMTOLJ
 70
     0
  9
$DIMTZIN
 70
     8
  9
$DIMALTZ
 70
     0
  9
$DIMALTTZ
 70
     0
  9
$DIMUPT
 70
     0
  9
$DIMDEC
 70
     2
  9
$DIMTDEC
 70
     2
  9
$DIMALTU
 70
     2
  9
$DIMALTTD
 70
     3
  9
$DIMTXSTY
  7
Standard
  9
$DIMAUNIT
 70
     0
  9
$DIMADEC
 70
     0
  9
$DIMALTRND
 40
0.0
  9
$DIMAZIN
 70
     0
  9
$DIMDSEP
 70
    44
  9
$DIMATFIT
 70
     3
  9
$DIMFRAC
 70
     0
  9
$DIMLDRBLK
  1

  9
$DIMLUNIT
 70
     2
  9
$DIMLWD
 70
    -2
  9
$DIMLWE
 70
    -2
  9
$DIMTMOVE
 70
     0
  9
$LUNITS
 70
     2
  9
$LUPREC
 70
     4
  9
$SKETCHINC
 40
1.0
  9
$FILLETRAD
 40
10.0
  9
$AUNITS
 70
     0
  9
$AUPREC
 70
     0
  9
$MENU
  1
.
  9
$ELEVATION
 40
0.0
  9
$PELEVATION
 40
0.0
  9
$THICKNESS
 40
0.0
  9
$LIMCHECK
 70
     0
  9
$CHAMFERA
 40
10.0
  9
$CHAMFERB
 40
10.0
  9
$CHAMFERC
 40
20.0
  9
$CHAMFERD
 40
0.0
  9
$SKPOLY
 70
     0
  9
$TDCREATE
 40
2452332.468649768
  9
$TDUCREATE
 40
2452332.426983101
  9
$TDUPDATE
 40
2455595.597256585
  9
$TDUUPDATE
 40
2455595.555589919
  9
$TDINDWG
 40
0.0311293056
  9
$TDUSRTIMER
 40
0.0311267593
  9
$USRTIMER
 70
     1
  9
$ANGBASE
 50
0.0
  9
$ANGDIR
 70
     0
  9
$PDMODE
 70
     0
  9
$PDSIZE
 40
0.0
  9
$PLINEWID
 40
0.0
  9
$SPLFRAME
 70
     0
  9
$SPLINETYPE
 70
     6
  9
$SPLINESEGS
 70
     8
  9
$HANDSEED
  5
14DE
  9
$SURFTAB1
 70
     6
  9
$SURFTAB2
 70
     6
  9
$SURFTYPE
 70
     6
  9
$SURFU
 70
     6
  9
$SURFV
 70
     6
  9
$UCSBASE
  2

  9
$UCSNAME
  2

  9
$UCSORG
 10
0.0
 20
0.0
 30
0.0
  9
$UCSXDIR
 10
1.0
 20
0.0
 30
0.0
  9
$UCSYDIR
 10
0.0
 20
1.0
 30
0.0
  9
$UCSORTHOREF
  2

  9
$UCSORTHOVIEW
 70
     0
  9
$UCSORGTOP
 10
0.0
 20
0.0
 30
0.0
  9
$UCSORGBOTTOM
 10
0.0
 20
0.0
 30
0.0
  9
$UCSORGLEFT
 10
0.0
 20
0.0
 30
0.0
  9
$UCSORGRIGHT
 10
0.0
 20
0.0
 30
0.0
  9
$UCSORGFRONT
 10
0.0
 20
0.0
 30
0.0
  9
$UCSORGBACK
 10
0.0
 20
0.0
 30
0.0
  9
$PUCSBASE
  2

  9
$PUCSNAME
  2

  9
$PUCSORG
 10
0.0
 20
0.0
 30
0.0
  9
$PUCSXDIR
 10
1.0
 20
0.0
 30
0.0
  9
$PUCSYDIR
 10
0.0
 20
1.0
 30
0.0
  9
$PUCSORTHOREF
  2

  9
$PUCSORTHOVIEW
 70
     0
  9
$PUCSORGTOP
 10
0.0
 20
0.0
 30
0.0
  9
$PUCSORGBOTTOM
 10
0.0
 20
0.0
 30
0.0
  9
$PUCSORGLEFT
 10
0.0
 20
0.0
 30
0.0
  9
$PUCSORGRIGHT
 10
0.0
 20
0.0
 30
0.0
  9
$PUCSORGFRONT
 10
0.0
 20
0.0
 30
0.0
  9
$PUCSORGBACK
 10
0.0
 20
0.0
 30
0.0
  9
$USERI1
 70
     0
  9
$USERI2
 70
     0
  9
$USERI3
 70
     0
  9
$USERI4
 70
     0
  9
$USERI5
 70
     0
  9
$USERR1
 40
0.0
  9
$USERR2
 40
0.0
  9
$USERR3
 40
0.0
  9
$USERR4
 40
0.0
  9
$USERR5
 40
0.0
  9
$WORLDVIEW
 70
     1
  9
$SHADEDGE
 70
     3
  9
$SHADEDIF
 70
    70
  9
$TILEMODE
 70
     1
  9
$MAXACTVP
 70
    64
  9
$PINSBASE
 10
0.0
 20
0.0
 30
0.0
  9
$PLIMCHECK
 70
     0
  9
$PEXTMIN
 10
1.000000000000000E+20
 20
1.000000000000000E+20
 30
1.000000000000000E+20
  9
$PEXTMAX
 10
-1.000000000000000E+20
 20
-1.000000000000000E+20
 30
-1.000000000000000E+20
  9
$PLIMMIN
 10
0.0
 20
0.0
  9
$PLIMMAX
 10
420.0
 20
297.0
  9
$UNITMODE
 70
     0
  9
$VISRETAIN
 70
     1
  9
$PLINEGEN
 70
     0
  9
$PSLTSCALE
 70
     1
  9
$TREEDEPTH
 70
  3020
  9
$CMLSTYLE
  2
Standard
  9
$CMLJUST
 70
     0
  9
$CMLSCALE
 40
20.0
  9
$PROXYGRAPHICS
 70
     1
  9
$MEASUREMENT
 70
     1
  9
$CELWEIGHT
370
    -1
  9
$ENDCAPS
280
     0
  9
$JOINSTYLE
280
     0
  9
$LWDISPLAY
290
     0
  9
$INSUNITS
 70
     4
  9
$HYPERLINKBASE
  1

  9
$STYLESHEET
  1

  9
$XEDIT
290
     1
  9
$CEPSNTYPE
380
     0
  9
$PSTYLEMODE
290
     1
  9
$FINGERPRINTGUID
  2
{A3477950-F6EC-44A0-8776-592C40033ABE}
  9
$VERSIONGUID
  2
{EA0A9638-C06C-4121-9AEB-396976445571}
  9
$EXTNAMES
290
     1
  9
$PSVPSCALE
 40
0.0
  9
$OLESTARTUP
290
     0
  0
ENDSEC
  0
SECTION
  2
CLASSES
  0
CLASS
  1
ACDBDICTIONARYWDFLT
  2
AcDbDictionaryWithDefault
  3
AutoCAD 2000
 90
        0
280
     0
281
     0
  0
CLASS
  1
ACDBPLACEHOLDER
  2
AcDbPlaceHolder
  3
AutoCAD 2000
 90
        0
280
     0
281
     0
  0
CLASS
  1
LAYOUT
  2
AcDbLayout
  3
AutoCAD 2000
 90
        0
280
     0
281
     0
  0
CLASS
  1
DICTIONARYVAR
  2
AcDbDictionaryVar
  3
AutoCAD 2000
 90
        0
280
     0
281
     0
  0
ENDSEC
  0
SECTION
  2
TABLES
  0
TABLE
  2
VPORT
  5
8
330
0
100
AcDbSymbolTable
 70
     2
  0
VPORT
  5
14DD
330
8
100
AcDbSymbolTableRecord
100
AcDbViewportTableRecord
  2
*Active
 70
     0
 10
0.0
 20
0.0
 11
1.0
 21
1.0
 12
2190.484891175164
 22
160.9659423137236
 13
0.0
 23
0.0
 14
10.0
 24
10.0
 15
10.0
 25
10.0
 16
0.0
 26
0.0
 36
1.0
 17
0.0
 27
0.0
 37
0.0
 40
864.0201276501247
 41
2.031862745098039
 42
50.0
 43
0.0
 44
0.0
 50
0.0
 51
0.0
 71
     0
 72
   100
 73
     1
 74
     3
 75
     0
 76
     0
 77
     0
 78
     0
281
     0
 65
     1
110
0.0
120
0.0
130
0.0
111
1.0
121
0.0
131
0.0
112
0.0
122
1.0
132
0.0
 79
     0
146
0.0
  0
ENDTAB
  0
TABLE
  2
LTYPE
  5
5
330
0
100
AcDbSymbolTable
 70
     3
  0
LTYPE
  5
14
330
5
100
AcDbSymbolTableRecord
100
AcDbLinetypeTableRecord
  2
ByBlock
 70
     0
  3

 72
    65
 73
     0
 40
0.0
  0
LTYPE
  5
15
330
5
100
AcDbSymbolTableRecord
100
AcDbLinetypeTableRecord
  2
ByLayer
 70
     0
  3

 72
    65
 73
     0
 40
0.0
  0
LTYPE
  5
16
330
5
100
AcDbSymbolTableRecord
100
AcDbLinetypeTableRecord
  2
Continuous
 70
     0
  3
Solid line
 72
    65
 73
     0
 40
0.0
  0
LTYPE
  5
DC9
330
5
100
AcDbSymbolTableRecord
100
AcDbLinetypeTableRecord
  2
DASHED
 70
     0
  3
Dashed __ __ __ __ __ __ __ __ __ __ __ __ __ _
 72
    65
 73
     2
 40
19.04999999999999
 49
12.7
 74
     0
 49
-6.349999999999999
 74
     0
  0
LTYPE
  5
DCA
330
5
100
AcDbSymbolTableRecord
100
AcDbLinetypeTableRecord
  2
IZOLACE
 70
     0
  3
Izolace SSSSSSSSSSSSSSSSSSSSSSSSSSSSSSSSSSSSSSS
 72
    65
 73
     4
 40
10.16253999999999
 49
0.00254
 74
     0
 49
-2.54
 74
     4
 75
   134
340
DD2
 46
2.54
 50
0.0
 44
-2.54
 45
0.0
 49
-5.08
 74
     4
 75
   134
340
DD2
 46
2.54
 50
180.0
 44
2.54
 45
0.0
 49
-2.54
 74
     0
  0
ENDTAB
  0
TABLE
  2
LAYER
  5
2
330
0
100
AcDbSymbolTable
 70
     7
  0
LAYER
  5
10
330
2
100
AcDbSymbolTableRecord
100
AcDbLayerTableRecord
  2
0
 70
     0
 62
     7
  6
Continuous
370
    -3
390
F
  0
LAYER
  5
DCB
330
2
100
AcDbSymbolTableRecord
100
AcDbLayerTableRecord
  2
POPIS
 70
     0
 62
    30
  6
Continuous
370
    -3
390
F
  0
LAYER
  5
DCC
330
2
100
AcDbSymbolTableRecord
100
AcDbLayerTableRecord
  2
SPOJOVACÍ
 70
     0
 62
   180
  6
Continuous
370
    -3
390
F
  0
LAYER
  5
DCD
330
2
100
AcDbSymbolTableRecord
100
AcDbLayerTableRecord
  2
CETRIS
 70
     0
 62
     1
  6
Continuous
370
    -3
390
F
  0
LAYER
  5
DCE
330
2
100
AcDbSymbolTableRecord
100
AcDbLayerTableRecord
  2
izolace
 70
     0
 62
    33
  6
Continuous
370
    -3
390
F
  0
LAYER
  5
DCF
330
2
100
AcDbSymbolTableRecord
100
AcDbLayerTableRecord
  2
nášlap_vrstvy
 70
     0
 62
    73
  6
Continuous
370
    -3
390
F
  0
LAYER
  5
DD0
330
2
100
AcDbSymbolTableRecord
100
AcDbLayerTableRecord
  2
STAVBA OBRYS
 70
     0
 62
     6
  6
Continuous
370
    -3
390
F
  0
ENDTAB
  0
TABLE
  2
STYLE
  5
3
330
0
100
AcDbSymbolTable
 70
     3
  0
STYLE
  5
11
330
3
100
AcDbSymbolTableRecord
100
AcDbTextStyleTableRecord
  2
Standard
 70
     0
 40
0.0
 41
1.0
 50
0.0
 71
     0
 42
2.5
  3
txt
  4

  0
STYLE
  5
DD1
330
3
100
AcDbSymbolTableRecord
100
AcDbTextStyleTableRecord
  2
SIMPLEX7
 70
     0
 40
0.0
 41
0.85
 50
0.0
 71
     0
 42
102.0
  3
ARIAL.TTF
  4

1001
ACAD
1000
Arial CE
1071
    60962
  0
STYLE
  5
DD2
330
3
100
AcDbSymbolTableRecord
100
AcDbTextStyleTableRecord
  2

 70
     1
 40
0.0
 41
1.0
 50
0.0
 71
     0
 42
2.5
  3
ltypeshp.shx
  4

  0
ENDTAB
  0
TABLE
  2
VIEW
  5
6
330
0
100
AcDbSymbolTable
 70
     0
  0
ENDTAB
  0
TABLE
  2
UCS
  5
7
330
0
100
AcDbSymbolTable
 70
     0
  0
ENDTAB
  0
TABLE
  2
APPID
  5
9
330
0
100
AcDbSymbolTable
 70
     1
  0
APPID
  5
12
330
9
100
AcDbSymbolTableRecord
100
AcDbRegAppTableRecord
  2
ACAD
 70
     0
  0
ENDTAB
  0
TABLE
  2
DIMSTYLE
  5
A
330
0
100
AcDbSymbolTable
 70
     1
100
AcDbDimStyleTable
 71
     0
  0
DIMSTYLE
105
27
330
A
100
AcDbSymbolTableRecord
100
AcDbDimStyleTableRecord
  2
ISO-25
 70
     0
 41
2.5
 42
0.625
 43
3.75
 44
1.25
 73
     0
 74
     0
 77
     1
 78
     8
140
2.5
141
2.5
143
0.03937007874016
147
0.625
171
     3
172
     1
271
     2
272
     2
274
     3
278
    44
283
     0
284
     8
340
11
  0
ENDTAB
  0
TABLE
  2
BLOCK_RECORD
  5
1
330
0
100
AcDbSymbolTable
 70
     2
  0
BLOCK_RECORD
  5
1F
330
1
100
AcDbSymbolTableRecord
100
AcDbBlockTableRecord
  2
*Model_Space
340
22
  0
BLOCK_RECORD
  5
1B
330
1
100
AcDbSymbolTableRecord
100
AcDbBlockTableRecord
  2
*Paper_Space
340
1E
  0
BLOCK_RECORD
  5
23
330
1
100
AcDbSymbolTableRecord
100
AcDbBlockTableRecord
  2
*Paper_Space0
340
26
  0
BLOCK_RECORD
  5
DC5
330
1
100
AcDbSymbolTableRecord
100
AcDbBlockTableRecord
  2
E_PUNKT
340
0
102
{BLKREFS
331
117B
331
11ED
331
11EE
331
12E5
331
1372
331
1374
331
13D4
331
13D5
102
}
  0
ENDTAB
  0
ENDSEC
  0
SECTION
  2
BLOCKS
  0
BLOCK
  5
20
330
1F
100
AcDbEntity
  8
0
100
AcDbBlockBegin
  2
*Model_Space
 70
     0
 10
0.0
 20
0.0
 30
0.0
  3
*Model_Space
  1

  0
ENDBLK
  5
21
330
1F
100
AcDbEntity
  8
0
100
AcDbBlockEnd
  0
BLOCK
  5
1C
330
1B
100
AcDbEntity
 67
     1
  8
0
100
AcDbBlockBegin
  2
*Paper_Space
 70
     0
 10
0.0
 20
0.0
 30
0.0
  3
*Paper_Space
  1

  0
ENDBLK
  5
1D
330
1B
100
AcDbEntity
 67
     1
  8
0
100
AcDbBlockEnd
  0
BLOCK
  5
24
330
23
100
AcDbEntity
  8
0
100
AcDbBlockBegin
  2
*Paper_Space0
 70
     0
 10
0.0
 20
0.0
 30
0.0
  3
*Paper_Space0
  1

  0
ENDBLK
  5
25
330
23
100
AcDbEntity
  8
0
100
AcDbBlockEnd
  0
BLOCK
  5
DC7
330
DC5
100
AcDbEntity
  8
0
100
AcDbBlockBegin
  2
E_PUNKT
 70
     0
 10
0.0
 20
0.0
 30
0.0
  3
E_PUNKT
  1

  0
LWPOLYLINE
  5
DC6
330
DC5
100
AcDbEntity
  8
POPIS
100
AcDbPolyline
 90
        2
 70
     1
 43
2.5
 10
1.27761037562675
 20
0.0290683308725193
 42
-1.0
 10
-1.222389624373249
 20
0.0290683308725193
 42
-1.0
  0
ENDBLK
  5
DC8
330
DC5
100
AcDbEntity
  8
0
100
AcDbBlockEnd
  0
ENDSEC
  0
SECTION
  2
ENTITIES
  0
TEXT
  5
114F
330
1F
100
AcDbEntity
  8
POPIS
100
AcDbText
 10
1607.794322891412
 20
508.9692638804929
 30
0.0
 40
50.0
  1
Podlahová krytina - dřevěné parkety lepené
 41
0.85
  7
SIMPLEX7
100
AcDbText
  0
TEXT
  5
1154
330
1F
100
AcDbEntity
  8
POPIS
100
AcDbText
 10
1991.458739216771
 20
267.4518826363757
 30
0.0
 40
25.0
  1
02
 41
0.85
  7
SIMPLEX7
100
AcDbText
  0
LWPOLYLINE
  5
1155
330
1F
100
AcDbEntity
  8
nášlap_vrstvy
100
AcDbPolyline
 90
        4
 70
     1
 43
0.0
 10
2226.008112216205
 20
186.3090628104648
 10
1876.137172324754
 20
186.3090628104648
 10
1876.137172324754
 20
187.8090628104648
 10
2226.008112216205
 20
187.8090628104648
  0
LINE
  5
1156
330
1F
100
AcDbEntity
  8
STAVBA OBRYS
100
AcDbLine
 10
1875.320054877131
 20
119.3090628104648
 30
0.0
 11
2086.747734768971
 21
119.3090628104648
 31
0.0
  0
LINE
  5
1157
330
1F
100
AcDbEntity
  8
STAVBA OBRYS
100
AcDbLine
 10
1627.056576496256
 20
119.3090628104648
 30
0.0
 11
2575.879052107652
 21
119.3090628104648
 31
0.0
  0
LINE
  5
1158
330
1F
100
AcDbEntity
  8
CETRIS
100
AcDbLine
 10
1891.13717232475
 20
186.3090628104648
 30
0.0
 11
2575.879052107652
 21
186.3090628104648
 31
0.0
  0
LINE
  5
1159
330
1F
100
AcDbEntity
  8
CETRIS
100
AcDbLine
 10
1891.13717232475
 20
162.3090628104648
 30
0.0
 11
2575.879052107652
 21
162.3090628104648
 31
0.0
  0
LINE
  5
115A
330
1F
100
AcDbEntity
  8
izolace
  6
IZOLACE
 48
1.9
100
AcDbLine
 10
1891.13717232475
 20
142.3090628104648
 30
0.0
 11
2575.879052107652
 21
142.3090628104648
 31
0.0
  0
LINE
  5
115B
330
1F
100
AcDbEntity
  8
CETRIS
100
AcDbLine
 10
1891.13717232475
 20
174.3090628104648
 30
0.0
 11
2575.879052107652
 21
174.3090628104648
 31
0.0
  0
LINE
  5
115C
330
1F
100
AcDbEntity
  8
STAVBA OBRYS
100
AcDbLine
 10
1866.137172324754
 20
-0.6909371895351342
 30
0.0
 11
2575.879052107652
 21
-0.6909371895351342
 31
0.0
  0
LINE
  5
115D
330
1F
100
AcDbEntity
  8
STAVBA OBRYS
100
AcDbLine
 10
1876.13717232475
 20
-10.69093718953513
 30
0.0
 11
2575.879052107652
 21
-10.69093718953513
 31
0.0
  0
HATCH
  5
115E
330
1F
100
AcDbEntity
  8
CETRIS
100
AcDbHatch
 10
0.0
 20
0.0
 30
0.0
210
0.0
220
0.0
230
1.0
  2
ANSI31
 70
     0
 71
     0
 91
        1
 92
        1
 93
        4
 72
     1
 10
2575.879052107652
 20
186.3090628104648
 11
2575.879052107652
 21
174.3090628104648
 72
     1
 10
2575.879052107652
 20
174.3090628104648
 11
1891.13717232475
 21
174.3090628104648
 72
     1
 10
1891.13717232475
 20
174.3090628104648
 11
1891.13717232475
 21
186.3090628104648
 72
     1
 10
1891.13717232475
 20
186.3090628104648
 11
2575.879052107652
 21
186.3090628104648
 97
        0
 75
     0
 76
     1
 52
0.0
 41
1.0
 77
     0
 78
     1
 53
45.0
 43
-23267.3821378176
 44
3277.797283458053
 45
-2.245064030267287
 46
2.245064030267288
 79
     0
 98
        1
 10
-23267.3821378176
 20
3277.797283458053
  0
HATCH
  5
115F
330
1F
100
AcDbEntity
  8
CETRIS
100
AcDbHatch
 10
0.0
 20
0.0
 30
0.0
210
0.0
220
0.0
230
1.0
  2
ANSI31
 70
     0
 71
     0
 91
        1
 92
        1
 93
        4
 72
     1
 10
2575.879052107652
 20
174.3090628104648
 11
2575.879052107652
 21
162.3090628104648
 72
     1
 10
2575.879052107652
 20
162.3090628104648
 11
1891.13717232475
 21
162.3090628104648
 72
     1
 10
1891.13717232475
 20
162.3090628104648
 11
1891.13717232475
 21
174.3090628104648
 72
     1
 10
1891.13717232475
 20
174.3090628104648
 11
2575.879052107652
 21
174.3090628104648
 97
        0
 75
     0
 76
     1
 52
90.0
 41
1.0
 77
     0
 78
     1
 53
135.0
 43
-23267.3821378176
 44
3277.797283458053
 45
-2.245064030267288
 46
-2.245064030267287
 79
     0
 98
        1
 10
-23267.3821378176
 20
3277.797283458053
  0
LWPOLYLINE
  5
1160
330
1F
100
AcDbEntity
  8
STAVBA OBRYS
100
AcDbPolyline
 90
        4
 70
     1
 43
0.0
 10
2575.879052107652
 20
119.3090628104648
 10
1876.13717232475
 20
119.3090628104648
 10
1876.13717232475
 20
122.3090628104648
 10
2575.879052107652
 20
122.3090628104648
  0
HATCH
  5
1161
330
1F
100
AcDbEntity
  8
STAVBA OBRYS
100
AcDbHatch
 10
0.0
 20
0.0
 30
0.0
210
0.0
220
0.0
230
1.0
  2
ANSI35
 70
     0
 71
     0
 91
        1
 92
        7
 72
     1
 73
     1
 93
       13
 10
2575.879052107652
 20
119.3090628104648
 42
0.0
 10
2419.373366979013
 20
119.3090628104648
 42
0.0
 10
2419.373366979013
 20
65.1067790251011
 42
-1.0
 10
2419.373366979013
 20
62.6067790251011
 42
-1.0
 10
2419.373366979013
 20
65.1067790251011
 42
0.0
 10
2419.373366979016
 20
119.3090628104648
 42
0.0
 10
2396.255291941125
 20
119.3090628104648
 42
0.0
 10
1876.13717232475
 20
119.3090628104648
 42
0.0
 10
1670.757788528383
 20
119.3090628104648
 42
0.0
 10
1670.757788528379
 20
-94.30262727404329
 42
0.0
 10
1866.137172324754
 20
-94.30262727404329
 42
0.0
 10
1866.137172324758
 20
-0.6909371895351342
 42
0.0
 10
2575.879052107655
 20
-0.6909371895351342
 42
0.0
 97
        0
 75
     0
 76
     1
 52
0.0
 41
3.0
 77
     0
 78
     2
 53
45.0
 43
-25821.25429480143
 44
3046.028292805257
 45
-13.47038418160372
 46
13.47038418160373
 79
     0
 53
45.0
 43
-25807.78390480144
 44
3046.028292805257
 45
-13.47038418160372
 46
13.47038418160373
 79
     4
 49
23.8125
 49
-4.762499999999999
 49
0.0
 49
-4.762499999999999
 47
3.017070218097292
 98
        1
 10
1907.983248159922
 20
49.2853987484807
  0
HATCH
  5
1162
330
1F
100
AcDbEntity
  8
STAVBA OBRYS
100
AcDbHatch
 10
0.0
 20
0.0
 30
0.0
210
0.0
220
0.0
230
1.0
  2
AR-CONC
 70
     0
 71
     0
 91
        1
 92
        7
 72
     0
 73
     1
 93
        6
 10
2575.879052107652
 20
-0.6909371895351342
 10
1866.137172324758
 20
-0.6909371895351342
 10
1866.137172324751
 20
-188.933684017137
 10
1876.137172324747
 20
-188.4474320824399
 10
1876.137172324754
 20
-10.69093718953513
 10
2575.879052107652
 20
-10.69093718953513
 97
        0
 75
     0
 76
     1
 52
90.0
 41
0.1
 77
     0
 78
    13
 53
140.0
 43
-25821.25429480143
 44
3046.028292805257
 45
1.593908553890309
 46
18.2184668996004
 79
     2
 49
1.905
 49
-20.955
 53
85.00000000000001
 43
-25821.25429480143
 44
3046.028292805257
 45
-19.10566428821799
 46
-3.524282597566697
 79
     2
 49
1.524
 49
-16.764
 53
190.4509999999999
 43
-25821.12146980144
 44
3047.546492805258
 45
-17.51166878202918
 46
14.69425016659592
 79
     2
 49
1.619
 49
-17.809
 53
136.1841999999999
 43
-25826.33429480143
 44
3046.028292805257
 45
4.204232793272717
 46
27.10790408921299
 79
     2
 49
2.857499999999999
 49
-31.4325
 53
186.6355999999999
 43
-25825.98394480144
 44
3048.287282805258
 45
-24.74255558900492
 46
23.74042344662371
 79
     2
 49
2.4285
 49
-26.7135
 53
81.18400000000004
 43
-25826.33429480143
 44
3046.028292805257
 45
-24.74251178605976
 46
23.74046058139339
 79
     2
 49
2.286
 49
-25.146
 53
111.0
 43
-25825.06429480143
 44
3048.568292805257
 45
10.22655185167625
 46
15.16148798353833
 79
     2
 49
1.905
 49
-20.955
 53
56.00000000000004
 43
-25825.06429480143
 44
3048.568292805257
 45
-18.41879661223192
 46
6.180202834764708
 79
     2
 49
1.524
 49
-16.764
 53
161.4514
 43
-25824.21208480143
 44
3049.831742805257
 45
-8.192285771605742
 46
21.34164907701245
 79
     2
 49
1.618999999999997
 49
-17.80899999999995
 53
127.5
 43
-25821.25429480143
 44
3046.028292805257
 45
-8.455503887315311
 46
0.3088603250591822
 79
     6
 49
0.0
 49
-16.5608
 49
0.0
 49
-17.018
 49
0.0
 49
-16.8275
 53
97.49999999999985
 43
-25821.25429480143
 44
3046.028292805257
 45
-10.01805748181195
 46
6.681966251030575
 79
     6
 49
0.0
 49
-9.702799999999998
 49
0.0
 49
-16.17979999999999
 49
0.0
 49
-6.413499999999999
 53
57.5
 43
-25821.25429480143
 44
3040.364092805257
 45
0.5728743992673473
 46
13.55905951668713
 79
     6
 49
0.0
 49
-6.35
 49
0.0
 49
-19.812
 49
0.0
 49
-26.289
 53
47.5
 43
-25821.25429480143
 44
3037.824092805257
 45
-2.5426491033333
 46
14.8129181386018
 79
     6
 49
0.0
 49
-8.255
 49
0.0
 49
-13.1572
 49
0.0
 49
-18.669
 47
1.255134839913078
 98
        1
 10
2049.735520736605
 20
-4.363110770162847
  0
LWPOLYLINE
  5
1163
330
1F
100
AcDbEntity
  8
nášlap_vrstvy
100
AcDbPolyline
 90
        4
 70
     0
 43
0.0
 10
2008.674403664507
 20
192.6861227731962
 10
2028.670656096499
 20
201.9021518237161
 10
2045.448546667718
 20
204.6092960864072
 10
2048.712157915423
 20
204.7395974507774
  0
LWPOLYLINE
  5
1164
330
1F
100
AcDbEntity
  8
nášlap_vrstvy
100
AcDbPolyline
 90
        4
 70
     0
 43
0.0
 10
2023.278788853102
 20
193.1869532039447
 42
0.0186324019486548
 10
2019.910419480996
 20
204.8820648221692
 42
0.0582629403736403
 10
2018.250919612914
 20
208.4618990211049
 42
0.0146402521923566
 10
2016.46651163133
 20
211.1869532039447
  0
LINE
  5
1165
330
1F
100
AcDbEntity
  8
nášlap_vrstvy
100
AcDbLine
 10
1878.02167455999
 20
193.1869532039447
 30
0.0
 11
2575.879052107652
 21
193.1869532039438
 31
0.0
  0
LINE
  5
1166
330
1F
100
AcDbEntity
  8
nášlap_vrstvy
100
AcDbLine
 10
1878.021674559986
 20
211.1869532039447
 30
0.0
 11
2575.879052107648
 21
211.1869532039438
 31
0.0
  0
LINE
  5
1167
330
1F
100
AcDbEntity
  8
nášlap_vrstvy
100
AcDbLine
 10
1876.13717232475
 20
190.146723576616
 30
0.0
 11
2575.879052107652
 21
190.1467235766224
 31
0.0
  0
LINE
  5
1168
330
1F
100
AcDbEntity
  8
STAVBA OBRYS
100
AcDbLine
 10
1876.137172324754
 20
119.3090628104648
 30
0.0
 11
1876.13717232475
 21
394.7299428122144
 31
0.0
  0
LINE
  5
1169
330
1F
100
AcDbEntity
  8
STAVBA OBRYS
100
AcDbLine
 10
1617.05657649626
 20
-201.0452761788626
 30
0.0
 11
1617.056576496256
 21
394.7299428122116
 31
0.0
  0
LINE
  5
116A
330
1F
100
AcDbEntity
  8
STAVBA OBRYS
100
AcDbLine
 10
1627.056576496259
 20
-201.0452761788626
 30
0.0
 11
1627.056576496256
 21
394.7299428122116
 31
0.0
  0
LINE
  5
116B
330
1F
100
AcDbEntity
  8
STAVBA OBRYS
100
AcDbLine
 10
1866.137172324754
 20
119.3090628104648
 30
0.0
 11
1866.137172324751
 21
394.7299428122144
 31
0.0
  0
TEXT
  5
116C
330
1F
100
AcDbEntity
  8
POPIS
100
AcDbText
 10
1941.515563881272
 20
267.4518826363757
 30
0.0
 40
25.0
  1
01
 41
0.85
  7
SIMPLEX7
100
AcDbText
  0
HATCH
  5
116D
330
1F
100
AcDbEntity
  8
STAVBA OBRYS
100
AcDbHatch
 10
0.0
 20
0.0
 30
0.0
210
0.0
220
0.0
230
1.0
  2
BRICK
 70
     0
 71
     0
 91
        3
 92
        7
 72
     0
 73
     1
 93
        4
 10
1866.137172324754
 20
394.7299428122144
 10
1627.056576496259
 20
394.7299428122116
 10
1627.056576496259
 20
119.3090628104666
 10
1866.137172324761
 20
119.3090628104666
 97
        0
 92
        7
 72
     0
 73
     1
 93
        4
 10
1866.137172324754
 20
-94.30262727404329
 10
1627.056576496259
 20
-94.30262727404146
 10
1627.056576496259
 20
-200.5590242441637
 10
1866.137172324758
 20
-188.9336840171388
 97
        0
 92
       24
 93
        4
 72
     1
 10
1765.000967820288
 20
156.1183398091118
 11
1805.832396878956
 21
156.1183398091118
 72
     1
 10
1805.832396878956
 20
156.1183398091118
 11
1805.832396878956
 21
194.4113138882387
 72
     1
 10
1805.832396878956
 20
194.4113138882396
 11
1765.000967820288
 21
194.4113138882396
 72
     1
 10
1765.000967820288
 20
194.4113138882396
 11
1765.000967820288
 21
156.1183398091136
 97
        0
 75
     0
 76
     1
 52
0.0
 41
10.0
 77
     0
 78
     3
 53
0.0
 43
-25821.25429480143
 44
3046.028292805257
 45
0.0
 46
63.5
 79
     0
 53
90.0
 43
-25821.25429480143
 44
3046.028292805257
 45
-127.0
 46
0.0000000000000078
 79
     2
 49
63.5
 49
-63.5
 53
90.0
 43
-25757.75429480144
 44
3046.028292805257
 45
-127.0
 46
0.0000000000000078
 79
     2
 49
-63.5
 49
63.5
 47
3.017070218097292
 98
        2
 10
1790.245244631347
 20
251.4291135980413
 10
1760.056007245366
 20
-143.8070872586474
  0
HATCH
  5
116E
330
1F
100
AcDbEntity
  8
STAVBA OBRYS
100
AcDbHatch
 10
0.0
 20
0.0
 30
0.0
210
0.0
220
0.0
230
1.0
  2
AR-CONC
 70
     0
 71
     0
 91
        2
 92
        7
 72
     0
 73
     1
 93
        4
 10
1876.137172324754
 20
394.7299428122144
 10
1866.137172324754
 20
394.7299428122144
 10
1866.137172324754
 20
146.7404915284107
 10
1876.137172324754
 20
141.8584322342169
 97
        0
 92
        7
 72
     0
 73
     1
 93
        4
 10
1627.056576496259
 20
394.7299428122116
 10
1617.056576496256
 20
394.7299428122107
 10
1617.05657649626
 20
-201.0452761788626
 10
1627.056576496259
 20
-200.5590242441655
 97
        0
 75
     0
 76
     1
 52
90.0
 41
0.1
 77
     0
 78
    13
 53
140.0
 43
-25821.25429480143
 44
3046.028292805257
 45
1.593908553890309
 46
18.2184668996004
 79
     2
 49
1.905
 49
-20.955
 53
85.00000000000001
 43
-25821.25429480143
 44
3046.028292805257
 45
-19.10566428821799
 46
-3.524282597566697
 79
     2
 49
1.524
 49
-16.764
 53
190.4509999999999
 43
-25821.12146980144
 44
3047.546492805258
 45
-17.51166878202918
 46
14.69425016659592
 79
     2
 49
1.619
 49
-17.809
 53
136.1841999999999
 43
-25826.33429480143
 44
3046.028292805257
 45
4.204232793272717
 46
27.10790408921299
 79
     2
 49
2.857499999999999
 49
-31.4325
 53
186.6355999999999
 43
-25825.98394480144
 44
3048.287282805258
 45
-24.74255558900492
 46
23.74042344662371
 79
     2
 49
2.4285
 49
-26.7135
 53
81.18400000000004
 43
-25826.33429480143
 44
3046.028292805257
 45
-24.74251178605976
 46
23.74046058139339
 79
     2
 49
2.286
 49
-25.146
 53
111.0
 43
-25825.06429480143
 44
3048.568292805257
 45
10.22655185167625
 46
15.16148798353833
 79
     2
 49
1.905
 49
-20.955
 53
56.00000000000004
 43
-25825.06429480143
 44
3048.568292805257
 45
-18.41879661223192
 46
6.180202834764708
 79
     2
 49
1.524
 49
-16.764
 53
161.4514
 43
-25824.21208480143
 44
3049.831742805257
 45
-8.192285771605742
 46
21.34164907701245
 79
     2
 49
1.618999999999997
 49
-17.80899999999995
 53
127.5
 43
-25821.25429480143
 44
3046.028292805257
 45
-8.455503887315311
 46
0.3088603250591822
 79
     6
 49
0.0
 49
-16.5608
 49
0.0
 49
-17.018
 49
0.0
 49
-16.8275
 53
97.49999999999985
 43
-25821.25429480143
 44
3046.028292805257
 45
-10.01805748181195
 46
6.681966251030575
 79
     6
 49
0.0
 49
-9.702799999999998
 49
0.0
 49
-16.17979999999999
 49
0.0
 49
-6.413499999999999
 53
57.5
 43
-25821.25429480143
 44
3040.364092805257
 45
0.5728743992673473
 46
13.55905951668713
 79
     6
 49
0.0
 49
-6.35
 49
0.0
 49
-19.812
 49
0.0
 49
-26.289
 53
47.5
 43
-25821.25429480143
 44
3037.824092805257
 45
-2.5426491033333
 46
14.8129181386018
 79
     6
 49
0.0
 49
-8.255
 49
0.0
 49
-13.1572
 49
0.0
 49
-18.669
 47
1.255134839913078
 98
        2
 10
1870.019794100452
 20
243.2978871195221
 10
1622.606378766497
 20
191.837347452157
  0
LINE
  5
116F
330
1F
100
AcDbEntity
  8
STAVBA OBRYS
100
AcDbLine
 10
1866.137172324754
 20
-94.30262727404329
 30
0.0
 11
1627.056576496259
 21
-94.30262727404329
 31
0.0
  0
LINE
  5
1170
330
1F
100
AcDbEntity
  8
STAVBA OBRYS
100
AcDbLine
 10
1670.757788528383
 20
-94.30262727404329
 30
0.0
 11
1670.757788528383
 21
119.3090628104648
 31
0.0
  0
LINE
  5
1171
330
1F
100
AcDbEntity
  8
izolace
  6
IZOLACE
 48
2.1
100
AcDbLine
 10
1649.437290601025
 20
-94.30262727404329
 30
0.0
 11
1649.437290601025
 21
119.3090628104648
 31
0.0
  0
LINE
  5
1172
330
1F
100
AcDbEntity
  8
STAVBA OBRYS
100
AcDbLine
 10
1866.137172324754
 20
-0.6909371895351342
 30
0.0
 11
1866.137172324754
 21
-188.4474320824399
 31
0.0
  0
LINE
  5
1173
330
1F
100
AcDbEntity
  8
STAVBA OBRYS
100
AcDbLine
 10
1876.13717232475
 20
-10.69093718953513
 30
0.0
 11
1876.13717232475
 21
-188.4474320824399
 31
0.0
  0
LINE
  5
1174
330
1F
100
AcDbEntity
  8
POPIS
100
AcDbLine
 10
1884.853728351666
 20
139.6791837011862
 30
0.0
 11
1809.591526102235
 21
174.3464112970789
 31
0.0
  0
HATCH
  5
1175
330
1F
100
AcDbEntity
  8
STAVBA OBRYS
100
AcDbHatch
 10
0.0
 20
0.0
 30
0.0
210
0.0
220
0.0
230
1.0
  2
AR-CONC
 70
     0
 71
     0
 91
        1
 92
        7
 72
     0
 73
     1
 93
        5
 10
1866.137172324754
 20
119.3090628104648
 10
1876.13717232475
 20
119.3090628104648
 10
1876.13717232475
 20
122.3090628104648
 10
1876.137172324747
 20
141.8584322342214
 10
1866.137172324746
 20
146.7404915284098
 97
        0
 75
     0
 76
     1
 52
90.0
 41
0.1
 77
     0
 78
    13
 53
140.0
 43
-25821.25429480143
 44
3046.028292805257
 45
1.593908553890309
 46
18.2184668996004
 79
     2
 49
1.905
 49
-20.955
 53
85.00000000000001
 43
-25821.25429480143
 44
3046.028292805257
 45
-19.10566428821799
 46
-3.524282597566697
 79
     2
 49
1.524
 49
-16.764
 53
190.4509999999999
 43
-25821.12146980144
 44
3047.546492805258
 45
-17.51166878202918
 46
14.69425016659592
 79
     2
 49
1.619
 49
-17.809
 53
136.1841999999999
 43
-25826.33429480143
 44
3046.028292805257
 45
4.204232793272717
 46
27.10790408921299
 79
     2
 49
2.857499999999999
 49
-31.4325
 53
186.6355999999999
 43
-25825.98394480144
 44
3048.287282805258
 45
-24.74255558900492
 46
23.74042344662371
 79
     2
 49
2.4285
 49
-26.7135
 53
81.18400000000004
 43
-25826.33429480143
 44
3046.028292805257
 45
-24.74251178605976
 46
23.74046058139339
 79
     2
 49
2.286
 49
-25.146
 53
111.0
 43
-25825.06429480143
 44
3048.568292805257
 45
10.22655185167625
 46
15.16148798353833
 79
     2
 49
1.905
 49
-20.955
 53
56.00000000000004
 43
-25825.06429480143
 44
3048.568292805257
 45
-18.41879661223192
 46
6.180202834764708
 79
     2
 49
1.524
 49
-16.764
 53
161.4514
 43
-25824.21208480143
 44
3049.831742805257
 45
-8.192285771605742
 46
21.34164907701245
 79
     2
 49
1.618999999999997
 49
-17.80899999999995
 53
127.5
 43
-25821.25429480143
 44
3046.028292805257
 45
-8.455503887315311
 46
0.3088603250591822
 79
     6
 49
0.0
 49
-16.5608
 49
0.0
 49
-17.018
 49
0.0
 49
-16.8275
 53
97.49999999999985
 43
-25821.25429480143
 44
3046.028292805257
 45
-10.01805748181195
 46
6.681966251030575
 79
     6
 49
0.0
 49
-9.702799999999998
 49
0.0
 49
-16.17979999999999
 49
0.0
 49
-6.413499999999999
 53
57.5
 43
-25821.25429480143
 44
3040.364092805257
 45
0.5728743992673473
 46
13.55905951668713
 79
     6
 49
0.0
 49
-6.35
 49
0.0
 49
-19.812
 49
0.0
 49
-26.289
 53
47.5
 43
-25821.25429480143
 44
3037.824092805257
 45
-2.5426491033333
 46
14.8129181386018
 79
     6
 49
0.0
 49
-8.255
 49
0.0
 49
-13.1572
 49
0.0
 49
-18.669
 47
0.415434097446913
 98
        1
 10
1868.722655708349
 20
127.2091722102334
  0
TEXT
  5
1176
330
1F
100
AcDbEntity
  8
POPIS
100
AcDbText
 10
1771.383130166811
 20
162.9268323057015
 30
0.0
 40
25.0
  1
07
 41
0.85
  7
SIMPLEX7
100
AcDbText
  0
LINE
  5
1177
330
1F
100
AcDbEntity
  8
izolace
  6
IZOLACE
 48
0.6
100
AcDbLine
 10
1885.138022979605
 20
186.3090628104653
 30
0.0
 11
1885.138022979605
 21
122.3090628104653
 31
0.0
  0
HATCH
  5
1178
330
1F
100
AcDbEntity
  8
izolace
100
AcDbHatch
 10
0.0
 20
0.0
 30
0.0
210
0.0
220
0.0
230
1.0
  2
SOLID
 70
     1
 71
     0
 91
        1
 92
        7
 72
     0
 73
     1
 93
        4
 10
1876.137172324754
 20
142.950795520305
 10
1876.137172324754
 20
119.3090628104698
 10
1879.137172324754
 20
119.3090628104662
 10
1879.137172324754
 20
142.950795520305
 97
        0
 75
     0
 76
     1
 47
0.1901250437635136
 98
        1
 10
1876.953983875834
 20
128.6668575688097
  0
LWPOLYLINE
  5
1179
330
1F
100
AcDbEntity
  8
izolace
100
AcDbPolyline
 90
        4
 70
     1
 43
0.0
 10
1876.137172324754
 20
119.3090628104662
 10
1879.137172324754
 20
119.3090628104662
 10
1879.137172324754
 20
187.8090628104648
 10
1876.137172324754
 20
187.8090628104648
  0
HATCH
  5
117A
330
1F
100
AcDbEntity
  8
izolace
100
AcDbHatch
 10
0.0
 20
0.0
 30
0.0
210
0.0
220
0.0
230
1.0
  2
SOLID
 70
     1
 71
     0
 91
        1
 92
        7
 72
     0
 73
     1
 93
        4
 10
1876.137172324754
 20
187.8169341545588
 10
1876.137172324754
 20
164.1752014447235
 10
1879.137172324754
 20
164.1752014447199
 10
1879.137172324754
 20
187.8169341545588
 97
        0
 75
     0
 76
     1
 47
0.1901250437635136
 98
        1
 10
1876.953983875834
 20
173.5329962030634
  0
INSERT
  5
117B
330
1F
100
AcDbEntity
  8
POPIS
100
AcDbBlockReference
  2
E_PUNKT
 10
2010.225264297609
 20
201.2468922982473
 30
0.0
 50
270.0
  0
LINE
  5
117C
330
1F
100
AcDbEntity
  8
POPIS
100
AcDbLine
 10
2010.254332628483
 20
258.602521563652
 30
0.0
 11
2010.254332628483
 21
203.4760685822159
 31
0.0
  0
LWPOLYLINE
  5
117D
330
1F
100
AcDbEntity
  8
nášlap_vrstvy
100
AcDbPolyline
 90
        4
 70
     1
 43
0.0
 10
2006.16670222885
 20
187.8090628104648
 10
1994.34583587393
 20
187.8090628104648
 10
1994.34583587393
 20
186.3090628104648
 10
2006.16670222885
 20
186.3090628104648
  0
HATCH
  5
117E
330
1F
100
AcDbEntity
  8
nášlap_vrstvy
100
AcDbHatch
 10
0.0
 20
0.0
 30
0.0
210
0.0
220
0.0
230
1.0
  2
SOLID
 70
     1
 71
     0
 91
        1
 92
        7
 72
     0
 73
     1
 93
        4
 10
2006.16670222885
 20
187.8090628104648
 10
1994.345835873934
 20
187.8090628104648
 10
1994.34583587393
 20
186.3090628104648
 10
2006.16670222885
 20
186.3090628104648
 97
        0
 75
     0
 76
     1
 47
0.1901250437635136
 98
        1
 10
1999.024733253104
 20
187.4006570349258
  0
LWPOLYLINE
  5
117F
330
1F
100
AcDbEntity
  8
nášlap_vrstvy
100
AcDbPolyline
 90
        4
 70
     1
 43
0.0
 10
1982.52496951901
 20
187.8090628104648
 10
1970.704103164095
 20
187.8090628104648
 10
1970.704103164095
 20
186.3090628104648
 10
1982.52496951901
 20
186.3090628104648
  0
HATCH
  5
1180
330
1F
100
AcDbEntity
  8
nášlap_vrstvy
100
AcDbHatch
 10
0.0
 20
0.0
 30
0.0
210
0.0
220
0.0
230
1.0
  2
SOLID
 70
     1
 71
     0
 91
        1
 92
        7
 72
     0
 73
     1
 93
        4
 10
1982.524969519014
 20
187.8090628104648
 10
1970.704103164095
 20
187.8090628104648
 10
1970.704103164095
 20
186.3090628104648
 10
1982.524969519014
 20
186.3090628104648
 97
        0
 75
     0
 76
     1
 47
0.1901250437635136
 98
        1
 10
1975.383000543265
 20
187.4006570349258
  0
LWPOLYLINE
  5
1181
330
1F
100
AcDbEntity
  8
nášlap_vrstvy
100
AcDbPolyline
 90
        4
 70
     1
 43
0.0
 10
1958.883236809179
 20
187.8090628104648
 10
1947.06237045426
 20
187.8090628104648
 10
1947.06237045426
 20
186.3090628104648
 10
1958.883236809179
 20
186.3090628104648
  0
HATCH
  5
1182
330
1F
100
AcDbEntity
  8
nášlap_vrstvy
100
AcDbHatch
 10
0.0
 20
0.0
 30
0.0
210
0.0
220
0.0
230
1.0
  2
SOLID
 70
     1
 71
     0
 91
        1
 92
        7
 72
     0
 73
     1
 93
        4
 10
1958.883236809179
 20
187.8090628104648
 10
1947.062370454263
 20
187.8090628104648
 10
1947.06237045426
 20
186.3090628104648
 10
1958.883236809179
 20
186.3090628104648
 97
        0
 75
     0
 76
     1
 47
0.1901250437635136
 98
        1
 10
1951.741267833433
 20
187.4006570349258
  0
LWPOLYLINE
  5
1183
330
1F
100
AcDbEntity
  8
nášlap_vrstvy
100
AcDbPolyline
 90
        4
 70
     1
 43
0.0
 10
1935.24150409934
 20
187.8090628104648
 10
1923.420637744424
 20
187.8090628104648
 10
1923.420637744424
 20
186.3090628104648
 10
1935.24150409934
 20
186.3090628104648
  0
HATCH
  5
1184
330
1F
100
AcDbEntity
  8
nášlap_vrstvy
100
AcDbHatch
 10
0.0
 20
0.0
 30
0.0
210
0.0
220
0.0
230
1.0
  2
SOLID
 70
     1
 71
     0
 91
        1
 92
        7
 72
     0
 73
     1
 93
        4
 10
1935.241504099344
 20
187.8090628104648
 10
1923.420637744424
 20
187.8090628104648
 10
1923.420637744424
 20
186.3090628104648
 10
1935.241504099344
 20
186.3090628104648
 97
        0
 75
     0
 76
     1
 47
0.1901250437635136
 98
        1
 10
1928.099535123594
 20
187.4006570349258
  0
HATCH
  5
1185
330
1F
100
AcDbEntity
  8
nášlap_vrstvy
100
AcDbHatch
 10
0.0
 20
0.0
 30
0.0
210
0.0
220
0.0
230
1.0
  2
SOLID
 70
     1
 71
     0
 91
        1
 92
        7
 72
     0
 73
     1
 93
        4
 10
1911.599771389509
 20
187.8090628104648
 10
1899.778905034593
 20
187.8090628104648
 10
1899.778905034589
 20
186.3090628104648
 10
1911.599771389509
 20
186.3090628104648
 97
        0
 75
     0
 76
     1
 47
0.1901250437635136
 98
        1
 10
1904.457802413763
 20
187.4006570349258
  0
HATCH
  5
1186
330
1F
100
AcDbEntity
  8
nášlap_vrstvy
100
AcDbHatch
 10
0.0
 20
0.0
 30
0.0
210
0.0
220
0.0
230
1.0
  2
SOLID
 70
     1
 71
     0
 91
        1
 92
        7
 72
     0
 73
     1
 93
        4
 10
1887.95803867967
 20
187.8090628104648
 10
1876.137172324754
 20
187.8090628104648
 10
1876.137172324754
 20
186.3090628104648
 10
1887.958038679673
 20
186.3090628104648
 97
        0
 75
     0
 76
     1
 47
0.1901250437635136
 98
        3
 10
1902.079783811765
 20
186.9253403457707
 10
1883.911688398093
 20
186.8302770079401
 10
1881.914152303481
 20
187.115467021432
  0
LWPOLYLINE
  5
1187
330
1F
100
AcDbEntity
  8
nášlap_vrstvy
100
AcDbPolyline
 90
        4
 70
     1
 43
0.0
 10
1911.599771389509
 20
187.8090628104648
 10
1899.778905034589
 20
187.8090628104648
 10
1899.778905034589
 20
186.3090628104648
 10
1911.599771389509
 20
186.3090628104648
  0
LWPOLYLINE
  5
1188
330
1F
100
AcDbEntity
  8
nášlap_vrstvy
100
AcDbPolyline
 90
        4
 70
     1
 43
0.0
 10
1887.95803867967
 20
187.8090628104648
 10
1876.137172324754
 20
187.8090628104648
 10
1876.137172324754
 20
186.3090628104648
 10
1887.95803867967
 20
186.3090628104648
  0
LWPOLYLINE
  5
1189
330
1F
100
AcDbEntity
  8
izolace
100
AcDbPolyline
 90
        4
 70
     1
 43
0.0
 10
1876.13717232475
 20
186.3090628104648
 10
1891.13717232475
 20
186.3090628104648
 10
1891.13717232475
 20
122.3090628104648
 10
1876.13717232475
 20
122.3090628104648
  0
LINE
  5
118A
330
1F
100
AcDbEntity
  8
SPOJOVACÍ
  6
DASHED
100
AcDbLine
 10
1915.718117875462
 20
163.8652417078676
 30
0.0
 11
1919.681634147863
 21
162.5325230345963
 31
0.0
  0
LINE
  5
118B
330
1F
100
AcDbEntity
  8
SPOJOVACÍ
  6
DASHED
100
AcDbLine
 10
1915.718117875462
 20
163.2809238764159
 30
0.0
 11
1919.681634147863
 21
161.9482052031446
 31
0.0
  0
LINE
  5
118C
330
1F
100
AcDbEntity
  8
SPOJOVACÍ
  6
DASHED
100
AcDbLine
 10
1920.051732491389
 20
162.3183035488102
 30
0.0
 11
1919.681634147863
 21
162.5325230345963
 31
0.0
  0
LINE
  5
118D
330
1F
100
AcDbEntity
  8
SPOJOVACÍ
  6
DASHED
100
AcDbLine
 10
1920.051732491389
 20
162.3183035488102
 30
0.0
 11
1919.681634147863
 21
161.9482052031446
 31
0.0
  0
LINE
  5
118E
330
1F
100
AcDbEntity
  8
SPOJOVACÍ
  6
DASHED
100
AcDbLine
 10
1915.348019527657
 20
163.4942317897432
 30
0.0
 11
1915.718117875462
 21
163.8652417078676
 31
0.0
  0
LINE
  5
118F
330
1F
100
AcDbEntity
  8
SPOJOVACÍ
  6
DASHED
100
AcDbLine
 10
1915.348019527657
 20
163.4942317897432
 30
0.0
 11
1915.718117875462
 21
163.2809238764159
 31
0.0
  0
LINE
  5
1190
330
1F
100
AcDbEntity
  8
SPOJOVACÍ
  6
DASHED
100
AcDbLine
 10
1915.348019527657
 20
163.4942317897432
 30
0.0
 11
1920.051732491389
 21
162.3183035488102
 31
0.0
  0
LINE
  5
1191
330
1F
100
AcDbEntity
  8
SPOJOVACÍ
  6
DASHED
100
AcDbLine
 10
1915.718117875462
 20
166.9226551344502
 30
0.0
 11
1919.681634147863
 21
165.5899364611789
 31
0.0
  0
LINE
  5
1192
330
1F
100
AcDbEntity
  8
SPOJOVACÍ
  6
DASHED
100
AcDbLine
 10
1915.718117875462
 20
166.3383373030058
 30
0.0
 11
1919.681634147863
 21
165.0056186299982
 31
0.0
  0
LINE
  5
1193
330
1F
100
AcDbEntity
  8
SPOJOVACÍ
  6
DASHED
100
AcDbLine
 10
1920.051732491389
 20
165.3766285478516
 30
0.0
 11
1919.681634147863
 21
165.5899364611789
 31
0.0
  0
LINE
  5
1194
330
1F
100
AcDbEntity
  8
SPOJOVACÍ
  6
DASHED
100
AcDbLine
 10
1920.051732491389
 20
165.3766285478516
 30
0.0
 11
1919.681634147863
 21
165.0056186299982
 31
0.0
  0
LINE
  5
1195
330
1F
100
AcDbEntity
  8
SPOJOVACÍ
  6
DASHED
100
AcDbLine
 10
1915.348019527657
 20
166.5525567887846
 30
0.0
 11
1915.718117875462
 21
166.9226551344502
 31
0.0
  0
LINE
  5
1196
330
1F
100
AcDbEntity
  8
SPOJOVACÍ
  6
DASHED
100
AcDbLine
 10
1915.348019527657
 20
166.5525567887846
 30
0.0
 11
1915.718117875462
 21
166.3383373030058
 31
0.0
  0
LINE
  5
1197
330
1F
100
AcDbEntity
  8
SPOJOVACÍ
  6
DASHED
100
AcDbLine
 10
1915.348019527657
 20
166.5525567887846
 30
0.0
 11
1920.051732491389
 21
165.3766285478516
 31
0.0
  0
LINE
  5
1198
330
1F
100
AcDbEntity
  8
SPOJOVACÍ
  6
DASHED
100
AcDbLine
 10
1915.718117875462
 20
169.98006856104
 30
0.0
 11
1919.681634147863
 21
168.6473498880325
 31
0.0
  0
LINE
  5
1199
330
1F
100
AcDbEntity
  8
SPOJOVACÍ
  6
DASHED
100
AcDbLine
 10
1915.718117875462
 20
169.3957507295883
 30
0.0
 11
1919.681634147863
 21
168.0630320565881
 31
0.0
  0
LINE
  5
119A
330
1F
100
AcDbEntity
  8
SPOJOVACÍ
  6
DASHED
100
AcDbLine
 10
1920.051732491389
 20
168.4340419744414
 30
0.0
 11
1919.681634147863
 21
168.6473498880325
 31
0.0
  0
LINE
  5
119B
330
1F
100
AcDbEntity
  8
SPOJOVACÍ
  6
DASHED
100
AcDbLine
 10
1920.051732491389
 20
168.4340419744414
 30
0.0
 11
1919.681634147863
 21
168.0630320565881
 31
0.0
  0
LINE
  5
119C
330
1F
100
AcDbEntity
  8
SPOJOVACÍ
  6
DASHED
100
AcDbLine
 10
1915.348019527657
 20
169.6099702153744
 30
0.0
 11
1915.718117875462
 21
169.98006856104
 31
0.0
  0
LINE
  5
119D
330
1F
100
AcDbEntity
  8
SPOJOVACÍ
  6
DASHED
100
AcDbLine
 10
1915.348019527657
 20
169.6099702153744
 30
0.0
 11
1915.718117875462
 21
169.3957507295883
 31
0.0
  0
LINE
  5
119E
330
1F
100
AcDbEntity
  8
SPOJOVACÍ
  6
DASHED
100
AcDbLine
 10
1915.348019527657
 20
169.6099702153744
 30
0.0
 11
1920.051732491389
 21
168.4340419744414
 31
0.0
  0
LINE
  5
119F
330
1F
100
AcDbEntity
  8
SPOJOVACÍ
  6
DASHED
100
AcDbLine
 10
1916.703527510435
 20
154.5708507421106
 30
0.0
 11
1918.814728909063
 21
154.2663856006522
 31
0.0
  0
LINE
  5
11A0
330
1F
100
AcDbEntity
  8
SPOJOVACÍ
  6
DASHED
100
AcDbLine
 10
1917.073625853962
 20
154.9409490877762
 30
0.0
 11
1918.444630565537
 21
154.4796935142433
 31
0.0
  0
LINE
  5
11A1
330
1F
100
AcDbEntity
  8
SPOJOVACÍ
  6
DASHED
100
AcDbLine
 10
1917.073625853962
 20
154.3566312563318
 30
0.0
 11
1918.444630565537
 21
153.8953756827988
 31
0.0
  0
LINE
  5
11A2
330
1F
100
AcDbEntity
  8
SPOJOVACÍ
  6
DASHED
100
AcDbLine
 10
1918.814728909063
 20
154.2663856006522
 30
0.0
 11
1918.444630565537
 21
154.4796935142433
 31
0.0
  0
LINE
  5
11A3
330
1F
100
AcDbEntity
  8
SPOJOVACÍ
  6
DASHED
100
AcDbLine
 10
1918.814728909063
 20
154.2663856006522
 30
0.0
 11
1918.444630565537
 21
153.8953756827988
 31
0.0
  0
LINE
  5
11A4
330
1F
100
AcDbEntity
  8
SPOJOVACÍ
  6
DASHED
100
AcDbLine
 10
1916.703527510435
 20
154.5708507421106
 30
0.0
 11
1917.073625853962
 21
154.9409490877762
 31
0.0
  0
LINE
  5
11A5
330
1F
100
AcDbEntity
  8
SPOJOVACÍ
  6
DASHED
100
AcDbLine
 10
1916.703527510435
 20
154.5708507421106
 30
0.0
 11
1917.073625853962
 21
154.3566312563318
 31
0.0
  0
LINE
  5
11A6
330
1F
100
AcDbEntity
  8
SPOJOVACÍ
  6
DASHED
100
AcDbLine
 10
1916.150203134173
 20
157.5243449288639
 30
0.0
 11
1919.203970272276
 21
156.9035642064293
 31
0.0
  0
LINE
  5
11A7
330
1F
100
AcDbEntity
  8
SPOJOVACÍ
  6
DASHED
100
AcDbLine
 10
1916.520301481978
 20
157.8953548469883
 30
0.0
 11
1918.83387192875
 21
157.1168721197566
 31
0.0
  0
LINE
  5
11A8
330
1F
100
AcDbEntity
  8
SPOJOVACÍ
  6
DASHED
100
AcDbLine
 10
1916.520301481978
 20
157.3110370155366
 30
0.0
 11
1918.83387192875
 21
156.5325542885759
 31
0.0
  0
LINE
  5
11A9
330
1F
100
AcDbEntity
  8
SPOJOVACÍ
  6
DASHED
100
AcDbLine
 10
1919.203970272276
 20
156.9035642064293
 30
0.0
 11
1918.83387192875
 21
157.1168721197566
 31
0.0
  0
LINE
  5
11AA
330
1F
100
AcDbEntity
  8
SPOJOVACÍ
  6
DASHED
100
AcDbLine
 10
1919.203970272276
 20
156.9035642064293
 30
0.0
 11
1918.83387192875
 21
156.5325542885759
 31
0.0
  0
LINE
  5
11AB
330
1F
100
AcDbEntity
  8
SPOJOVACÍ
  6
DASHED
100
AcDbLine
 10
1916.150203134173
 20
157.5243449288639
 30
0.0
 11
1916.520301481978
 21
157.8953548469883
 31
0.0
  0
LINE
  5
11AC
330
1F
100
AcDbEntity
  8
SPOJOVACÍ
  6
DASHED
100
AcDbLine
 10
1916.150203134173
 20
157.5243449288639
 30
0.0
 11
1916.520301481978
 21
157.3110370155366
 31
0.0
  0
LINE
  5
11AD
330
1F
100
AcDbEntity
  8
SPOJOVACÍ
  6
DASHED
100
AcDbLine
 10
1915.59687876219
 20
160.4787506880759
 30
0.0
 11
1919.639701821878
 21
159.5252460834174
 31
0.0
  0
LINE
  5
11AE
330
1F
100
AcDbEntity
  8
SPOJOVACÍ
  6
DASHED
100
AcDbLine
 10
1915.967888679508
 20
160.8488490337415
 30
0.0
 11
1919.269603478351
 21
159.7385539967447
 31
0.0
  0
LINE
  5
11AF
330
1F
100
AcDbEntity
  8
SPOJOVACÍ
  6
DASHED
100
AcDbLine
 10
1915.967888679508
 20
160.2645312022898
 30
0.0
 11
1919.269603478351
 21
159.154236165293
 31
0.0
  0
LINE
  5
11B0
330
1F
100
AcDbEntity
  8
SPOJOVACÍ
  6
DASHED
100
AcDbLine
 10
1919.639701821878
 20
159.5252460834174
 30
0.0
 11
1919.269603478351
 21
159.7385539967447
 31
0.0
  0
LINE
  5
11B1
330
1F
100
AcDbEntity
  8
SPOJOVACÍ
  6
DASHED
100
AcDbLine
 10
1919.639701821878
 20
159.5252460834174
 30
0.0
 11
1919.269603478351
 21
159.154236165293
 31
0.0
  0
LINE
  5
11B2
330
1F
100
AcDbEntity
  8
SPOJOVACÍ
  6
DASHED
100
AcDbLine
 10
1915.59687876219
 20
160.4787506880759
 30
0.0
 11
1915.967888679508
 21
160.8488490337415
 31
0.0
  0
LINE
  5
11B3
330
1F
100
AcDbEntity
  8
SPOJOVACÍ
  6
DASHED
100
AcDbLine
 10
1915.59687876219
 20
160.4787506880759
 30
0.0
 11
1915.967888679508
 21
160.2645312022898
 31
0.0
  0
LINE
  5
11B4
330
1F
100
AcDbEntity
  8
SPOJOVACÍ
  6
DASHED
100
AcDbLine
 10
1915.718117875462
 20
173.0374819878936
 30
0.0
 11
1919.681634147863
 21
171.7056748868101
 31
0.0
  0
LINE
  5
11B5
330
1F
100
AcDbEntity
  8
SPOJOVACÍ
  6
DASHED
100
AcDbLine
 10
1915.718117875462
 20
172.4531641564419
 30
0.0
 11
1919.681634147863
 21
171.1213570556294
 31
0.0
  0
LINE
  5
11B6
330
1F
100
AcDbEntity
  8
SPOJOVACÍ
  6
DASHED
100
AcDbLine
 10
1920.051732491389
 20
171.491455401024
 30
0.0
 11
1919.681634147863
 21
171.7056748868101
 31
0.0
  0
LINE
  5
11B7
330
1F
100
AcDbEntity
  8
SPOJOVACÍ
  6
DASHED
100
AcDbLine
 10
1920.051732491389
 20
171.491455401024
 30
0.0
 11
1919.681634147863
 21
171.1213570556294
 31
0.0
  0
LINE
  5
11B8
330
1F
100
AcDbEntity
  8
SPOJOVACÍ
  6
DASHED
100
AcDbLine
 10
1915.348019527657
 20
172.667383642228
 30
0.0
 11
1915.718117875462
 21
173.0374819878936
 31
0.0
  0
LINE
  5
11B9
330
1F
100
AcDbEntity
  8
SPOJOVACÍ
  6
DASHED
100
AcDbLine
 10
1915.348019527657
 20
172.667383642228
 30
0.0
 11
1915.718117875462
 21
172.4531641564419
 31
0.0
  0
LINE
  5
11BA
330
1F
100
AcDbEntity
  8
SPOJOVACÍ
  6
DASHED
100
AcDbLine
 10
1915.348019527657
 20
172.667383642228
 30
0.0
 11
1920.051732491389
 21
171.491455401024
 31
0.0
  0
LINE
  5
11BB
330
1F
100
AcDbEntity
  8
SPOJOVACÍ
  6
DASHED
100
AcDbLine
 10
1915.718117875462
 20
176.095806986664
 30
0.0
 11
1919.681634147863
 21
174.7630883136637
 31
0.0
  0
LINE
  5
11BC
330
1F
100
AcDbEntity
  8
SPOJOVACÍ
  6
DASHED
100
AcDbLine
 10
1915.718117875462
 20
175.5114891554833
 30
0.0
 11
1919.681634147863
 21
174.178770482212
 31
0.0
  0
LINE
  5
11BD
330
1F
100
AcDbEntity
  8
SPOJOVACÍ
  6
DASHED
100
AcDbLine
 10
1920.051732491389
 20
174.5488688278776
 30
0.0
 11
1919.681634147863
 21
174.7630883136637
 31
0.0
  0
LINE
  5
11BE
330
1F
100
AcDbEntity
  8
SPOJOVACÍ
  6
DASHED
100
AcDbLine
 10
1920.051732491389
 20
174.5488688278776
 30
0.0
 11
1919.681634147863
 21
174.178770482212
 31
0.0
  0
LINE
  5
11BF
330
1F
100
AcDbEntity
  8
SPOJOVACÍ
  6
DASHED
100
AcDbLine
 10
1915.348019527657
 20
175.7247970688106
 30
0.0
 11
1915.718117875462
 21
176.095806986664
 31
0.0
  0
LINE
  5
11C0
330
1F
100
AcDbEntity
  8
SPOJOVACÍ
  6
DASHED
100
AcDbLine
 10
1915.348019527657
 20
175.7247970688106
 30
0.0
 11
1915.718117875462
 21
175.5114891554833
 31
0.0
  0
LINE
  5
11C1
330
1F
100
AcDbEntity
  8
SPOJOVACÍ
  6
DASHED
100
AcDbLine
 10
1915.348019527657
 20
175.7247970688106
 30
0.0
 11
1920.051732491389
 21
174.5488688278776
 31
0.0
  0
LINE
  5
11C2
330
1F
100
AcDbEntity
  8
SPOJOVACÍ
  6
DASHED
100
AcDbLine
 10
1918.781912308165
 20
159.911752730067
 30
0.0
 11
1919.022567391403
 21
161.8433743911275
 31
0.0
  0
LINE
  5
11C3
330
1F
100
AcDbEntity
  8
SPOJOVACÍ
  6
DASHED
100
AcDbLine
 10
1918.450099995454
 20
157.2590773954864
 30
0.0
 11
1918.711721241685
 21
159.3529589222828
 31
0.0
  0
LINE
  5
11C4
330
1F
100
AcDbEntity
  8
SPOJOVACÍ
  6
DASHED
100
AcDbLine
 10
1918.117376117509
 20
154.5963747660418
 30
0.0
 11
1918.379908933253
 21
156.6984604433266
 31
0.0
  0
LINE
  5
11C5
330
1F
100
AcDbEntity
  8
SPOJOVACÍ
  6
DASHED
100
AcDbLine
 10
1917.321573514702
 20
154.2864401909221
 30
0.0
 11
1917.699876009523
 21
151.2591086494733
 31
0.0
  0
LINE
  5
11C6
330
1F
100
AcDbEntity
  8
SPOJOVACÍ
  6
DASHED
100
AcDbLine
 10
1916.961502465776
 20
157.1688317398068
 30
0.0
 11
1917.245913014027
 21
154.8944589016584
 31
0.0
  0
LINE
  5
11C7
330
1F
100
AcDbEntity
  8
SPOJOVACÍ
  6
DASHED
100
AcDbLine
 10
1916.599608269265
 20
160.0621621560214
 30
0.0
 11
1916.884018821795
 21
157.7868777456781
 31
0.0
  0
LINE
  5
11C8
330
1F
100
AcDbEntity
  8
SPOJOVACÍ
  6
DASHED
100
AcDbLine
 10
1917.699876009523
 20
151.2591086494733
 30
0.0
 11
1918.047185051029
 21
154.0384925307164
 31
0.0
  0
LINE
  5
11C9
330
1F
100
AcDbEntity
  8
SPOJOVACÍ
  6
DASHED
100
AcDbLine
 10
1916.377184631921
 20
161.8433743911275
 30
0.0
 11
1916.52394776859
 21
160.6701808667578
 31
0.0
  0
LINE
  5
11CA
330
1F
100
AcDbEntity
  8
SPOJOVACÍ
  6
DASHED
100
AcDbLine
 10
1919.022567391403
 20
162.1733635562534
 30
0.0
 11
1919.022567391403
 21
161.8433743911275
 31
0.0
  0
LINE
  5
11CB
330
1F
100
AcDbEntity
  8
SPOJOVACÍ
  6
DASHED
100
AcDbLine
 10
1919.022567391403
 20
165.233511699934
 30
0.0
 11
1919.022567391403
 21
162.7649739660057
 31
0.0
  0
LINE
  5
11CC
330
1F
100
AcDbEntity
  8
SPOJOVACÍ
  6
DASHED
100
AcDbLine
 10
1916.377184631921
 20
163.0657928181783
 30
0.0
 11
1916.377184631921
 21
161.8433743911275
 31
0.0
  0
LINE
  5
11CD
330
1F
100
AcDbEntity
  8
SPOJOVACÍ
  6
DASHED
100
AcDbLine
 10
1916.377184631921
 20
166.1177368113706
 30
0.0
 11
1916.377184631921
 21
163.65011064963
 31
0.0
  0
LINE
  5
11CE
330
1F
100
AcDbEntity
  8
SPOJOVACÍ
  6
DASHED
100
AcDbLine
 10
1919.022567391403
 20
168.2927482711631
 30
0.0
 11
1919.022567391403
 21
165.8223873925883
 31
0.0
  0
LINE
  5
11CF
330
1F
100
AcDbEntity
  8
SPOJOVACÍ
  6
DASHED
100
AcDbLine
 10
1919.022567391403
 20
171.35289641458
 30
0.0
 11
1919.022567391403
 21
168.8752429579683
 31
0.0
  0
LINE
  5
11D0
330
1F
100
AcDbEntity
  8
SPOJOVACÍ
  6
DASHED
100
AcDbLine
 10
1919.022567391403
 20
174.40575197996
 30
0.0
 11
1919.022567391403
 21
171.9372142460317
 31
0.0
  0
LINE
  5
11D1
330
1F
100
AcDbEntity
  8
SPOJOVACÍ
  6
DASHED
100
AcDbLine
 10
1916.377184631921
 20
169.1879122499224
 30
0.0
 11
1916.377184631921
 21
166.7102587933106
 31
0.0
  0
LINE
  5
11D2
330
1F
100
AcDbEntity
  8
SPOJOVACÍ
  6
DASHED
100
AcDbLine
 10
1916.377184631921
 20
172.2407678153024
 30
0.0
 11
1916.377184631921
 21
169.7704069367275
 31
0.0
  0
LINE
  5
11D3
330
1F
100
AcDbEntity
  8
SPOJOVACÍ
  6
DASHED
100
AcDbLine
 10
1916.377184631921
 20
175.3009159587193
 30
0.0
 11
1916.377184631921
 21
172.832378224791
 31
0.0
  0
LINE
  5
11D4
330
1F
100
AcDbEntity
  8
SPOJOVACÍ
  6
DASHED
100
AcDbLine
 10
1916.377184631921
 20
179.8414574847986
 30
0.0
 11
1916.377184631921
 21
175.8843222177122
 31
0.0
  0
LINE
  5
11D5
330
1F
100
AcDbEntity
  8
SPOJOVACÍ
  6
DASHED
100
AcDbLine
 10
1919.022567391403
 20
179.8414574847986
 30
0.0
 11
1919.022567391403
 21
174.9973623894486
 31
0.0
  0
LINE
  5
11D6
330
1F
100
AcDbEntity
  8
SPOJOVACÍ
  6
DASHED
100
AcDbLine
 10
1912.701725198662
 20
185.1331345692681
 30
0.0
 11
1914.024416580542
 21
184.4038767455233
 31
0.0
  0
LINE
  5
11D7
330
1F
100
AcDbEntity
  8
SPOJOVACÍ
  6
DASHED
100
AcDbLine
 10
1914.024416580542
 20
184.4038767455233
 30
0.0
 11
1915.112833882893
 21
183.3564801958994
 31
0.0
  0
LINE
  5
11D8
330
1F
100
AcDbEntity
  8
SPOJOVACÍ
  6
DASHED
100
AcDbLine
 10
1915.112833882893
 20
183.3564801958994
 30
0.0
 11
1915.893139752625
 21
182.0638707031678
 31
0.0
  0
LINE
  5
11D9
330
1F
100
AcDbEntity
  8
SPOJOVACÍ
  6
DASHED
100
AcDbLine
 10
1915.893139752625
 20
182.0638707031678
 30
0.0
 11
1916.312462999638
 21
180.6126476334586
 31
0.0
  0
LINE
  5
11DA
330
1F
100
AcDbEntity
  8
SPOJOVACÍ
  6
DASHED
100
AcDbLine
 10
1916.312462999638
 20
180.6126476334586
 30
0.0
 11
1916.377184631921
 21
179.8414574847986
 31
0.0
  0
LINE
  5
11DB
330
1F
100
AcDbEntity
  8
SPOJOVACÍ
  6
DASHED
100
AcDbLine
 10
1920.784636605218
 20
183.9034235639094
 30
0.0
 11
1921.99702773794
 21
184.8031454041422
 31
0.0
  0
LINE
  5
11DC
330
1F
100
AcDbEntity
  8
SPOJOVACÍ
  6
DASHED
100
AcDbLine
 10
1921.99702773794
 20
184.8031454041422
 30
0.0
 11
1922.698026820384
 21
185.1331345692681
 31
0.0
  0
LINE
  5
11DD
330
1F
100
AcDbEntity
  8
SPOJOVACÍ
  6
DASHED
100
AcDbLine
 10
1912.701725198662
 20
185.1331345692681
 30
0.0
 11
1922.698026820384
 21
185.1331345692681
 31
0.0
  0
LINE
  5
11DE
330
1F
100
AcDbEntity
  8
SPOJOVACÍ
  6
DASHED
100
AcDbLine
 10
1912.701725198662
 20
186.3090628104648
 30
0.0
 11
1912.701725198662
 21
185.1331345692681
 31
0.0
  0
LINE
  5
11DF
330
1F
100
AcDbEntity
  8
SPOJOVACÍ
  6
DASHED
100
AcDbLine
 10
1912.701725198662
 20
186.3090628104648
 30
0.0
 11
1922.698026820384
 21
186.3090628104648
 31
0.0
  0
LINE
  5
11E0
330
1F
100
AcDbEntity
  8
SPOJOVACÍ
  6
DASHED
100
AcDbLine
 10
1922.698026820384
 20
186.3090628104648
 30
0.0
 11
1922.698026820384
 21
185.1331345692681
 31
0.0
  0
LINE
  5
11E1
330
1F
100
AcDbEntity
  8
SPOJOVACÍ
  6
DASHED
100
AcDbLine
 10
1919.022567391403
 20
179.8414574847986
 30
0.0
 11
1919.244991024469
 21
181.3346128791593
 31
0.0
  0
LINE
  5
11E2
330
1F
100
AcDbEntity
  8
SPOJOVACÍ
  6
DASHED
100
AcDbLine
 10
1919.244991024469
 20
181.3346128791593
 30
0.0
 11
1919.845717156634
 21
182.7202027446685
 31
0.0
  0
LINE
  5
11E3
330
1F
100
AcDbEntity
  8
SPOJOVACÍ
  6
DASHED
100
AcDbLine
 10
1919.845717156634
 20
182.7202027446685
 30
0.0
 11
1920.784636605218
 21
183.9034235639094
 31
0.0
  0
LINE
  5
11E4
330
1F
100
AcDbEntity
  8
CETRIS
100
AcDbLine
 10
1891.13717232475
 20
186.3090628104648
 30
0.0
 11
1891.13717232475
 21
174.3090628104648
 31
0.0
  0
LINE
  5
11E5
330
1F
100
AcDbEntity
  8
CETRIS
100
AcDbLine
 10
1891.13717232475
 20
174.3090628104648
 30
0.0
 11
1891.13717232475
 21
162.3090628104648
 31
0.0
  0
LWPOLYLINE
  5
11E6
330
1F
100
AcDbEntity
  8
STAVBA OBRYS
100
AcDbPolyline
 90
        4
 70
     1
 43
0.0
 10
1899.778905034585
 20
122.3090628104648
 10
1876.13717232475
 20
122.3090628104648
 10
1876.13717232475
 20
119.3090628104648
 10
1899.778905034585
 20
119.3090628104648
  0
LWPOLYLINE
  5
11E7
330
1F
100
AcDbEntity
  8
STAVBA OBRYS
100
AcDbPolyline
 90
        4
 70
     1
 43
0.0
 10
1947.062370454256
 20
122.3090628104648
 10
1923.420637744421
 20
122.3090628104648
 10
1923.420637744421
 20
119.3090628104648
 10
1947.062370454256
 20
119.3090628104648
  0
HATCH
  5
11E8
330
1F
100
AcDbEntity
  8
STAVBA OBRYS
100
AcDbHatch
 10
0.0
 20
0.0
 30
0.0
210
0.0
220
0.0
230
1.0
  2
SOLID
 70
     1
 71
     0
 91
        1
 92
        7
 72
     0
 73
     1
 93
        4
 10
1899.778905034585
 20
122.3090628104648
 10
1876.137172324754
 20
122.3090628104648
 10
1876.13717232475
 20
119.3090628104648
 10
1899.778905034589
 20
119.3090628104648
 97
        0
 75
     0
 76
     1
 47
0.1901250437635136
 98
        3
 10
1928.022395298773
 20
120.5416178810767
 10
1891.686204471433
 20
120.3514912054154
 10
1887.691132282205
 20
120.9218712323993
  0
HATCH
  5
11E9
330
1F
100
AcDbEntity
  8
STAVBA OBRYS
100
AcDbHatch
 10
0.0
 20
0.0
 30
0.0
210
0.0
220
0.0
230
1.0
  2
SOLID
 70
     1
 71
     0
 91
        1
 92
        7
 72
     0
 73
     1
 93
        4
 10
1947.06237045426
 20
122.3090628104648
 10
1923.420637744424
 20
122.3090628104648
 10
1923.420637744421
 20
119.3090628104648
 10
1947.06237045426
 20
119.3090628104648
 97
        0
 75
     0
 76
     1
 47
0.1901250437635136
 98
        1
 10
1932.778432502764
 20
121.492251259385
  0
HATCH
  5
11EA
330
1F
100
AcDbEntity
  8
STAVBA OBRYS
100
AcDbHatch
 10
0.0
 20
0.0
 30
0.0
210
0.0
220
0.0
230
1.0
  2
SOLID
 70
     1
 71
     0
 91
        1
 92
        7
 72
     0
 73
     1
 93
        4
 10
1994.34583587393
 20
122.3090628104648
 10
1970.704103164095
 20
122.3090628104648
 10
1970.704103164091
 20
119.3090628104648
 10
1994.34583587393
 20
119.3090628104648
 97
        0
 75
     0
 76
     1
 47
0.1901250437635136
 98
        1
 10
1980.061897922435
 20
121.492251259385
  0
LWPOLYLINE
  5
11EB
330
1F
100
AcDbEntity
  8
STAVBA OBRYS
100
AcDbPolyline
 90
        4
 70
     1
 43
0.0
 10
1994.345835873926
 20
122.3090628104648
 10
1970.704103164091
 20
122.3090628104648
 10
1970.704103164091
 20
119.3090628104648
 10
1994.345835873926
 20
119.3090628104648
  0
LINE
  5
11EC
330
1F
100
AcDbEntity
  8
POPIS
100
AcDbLine
 10
1885.502828254157
 20
219.9323044685545
 30
0.0
 11
1956.360047802962
 21
258.602521563652
 31
0.0
  0
INSERT
  5
11ED
330
1F
100
AcDbEntity
  8
POPIS
100
AcDbBlockReference
  2
E_PUNKT
 10
1884.824660020793
 20
139.7067940768131
 30
0.0
 50
270.0
  0
INSERT
  5
11EE
330
1F
100
AcDbEntity
  8
POPIS
100
AcDbBlockReference
  2
E_PUNKT
 10
1885.529444465916
 20
220.0026016987606
 30
0.0
 50
270.0
  0
LWPOLYLINE
  5
11EF
330
1F
100
AcDbEntity
  8
nášlap_vrstvy
100
AcDbPolyline
 90
        2
 70
     0
 43
0.0
 10
1904.141237200078
 20
193.1869532039438
 10
1906.611342657212
 20
194.4229099392826
  0
LWPOLYLINE
  5
11F0
330
1F
100
AcDbEntity
  8
nášlap_vrstvy
100
AcDbPolyline
 90
        3
 70
     0
 43
0.0
 10
1904.522566350839
 20
193.1869532039447
 42
0.0327520985396081
 10
1903.819028089365
 20
198.8390471501581
 42
0.0001103000883317
 10
1903.75228538661
 20
199.1869532039447
 42
0.0001103000883317
  0
LWPOLYLINE
  5
11F1
330
1F
100
AcDbEntity
  8
nášlap_vrstvy
100
AcDbPolyline
 90
        4
 70
     0
 43
0.0
 10
1878.02167455999
 20
201.6030441427112
 10
1878.670656096499
 20
201.9021518237161
 10
1895.448546667718
 20
204.6092960864072
 10
1898.712157915423
 20
204.7395974507774
  0
LWPOLYLINE
  5
11F2
330
1F
100
AcDbEntity
  8
nášlap_vrstvy
100
AcDbPolyline
 90
        5
 70
     0
 43
0.0
 10
1883.184392726999
 20
193.1869532039447
 42
0.0133579731639958
 10
1882.79758223797
 20
195.7047554915
 42
0.0072443097182286
 10
1880.677585290512
 20
206.515646386407
 42
0.0219777111230329
 10
1879.771472788529
 20
210.0337596422425
 42
0.0092752982622242
 10
1879.396245826582
 20
211.1869532039447
  0
LWPOLYLINE
  5
11F3
330
1F
100
AcDbEntity
  8
nášlap_vrstvy
100
AcDbPolyline
 90
        4
 70
     0
 43
0.0
 10
1893.428531101792
 20
193.1869532039447
 42
0.0334776267545482
 10
1892.991253307086
 20
197.2339281326815
 42
0.0091133963862869
 10
1890.513648982167
 20
209.9256579181412
 42
0.007828075361276
 10
1890.222749847009
 20
211.1869532039447
  0
LWPOLYLINE
  5
11F4
330
1F
100
AcDbEntity
  8
nášlap_vrstvy
100
AcDbPolyline
 90
        3
 70
     0
 43
0.0
 10
1902.576161047167
 20
205.1869532039447
 42
0.00139912452586
 10
1901.682672024777
 20
209.5907796859421
 42
0.0065712046643719
 10
1901.332246255013
 20
211.1869532039447
  0
POLYLINE
  5
11F5
330
1F
100
AcDbEntity
  8
nášlap_vrstvy
100
AcDb2dPolyline
 66
     1
 10
0.0
 20
0.0
 30
0.0
  0
VERTEX
  5
11F6
330
11F5
100
AcDbEntity
  8
nášlap_vrstvy
100
AcDbVertex
100
AcDb2dVertex
 10
1967.351685098285
 20
193.1869532039447
 30
0.0
 42
-0.0502247168465557
  0
VERTEX
  5
11F7
330
11F5
100
AcDbEntity
  8
nášlap_vrstvy
100
AcDbVertex
100
AcDb2dVertex
 10
1968.95073227445
 20
195.1944238766675
 30
0.0
 42
-0.0274923553235744
  0
VERTEX
  5
11F8
330
11F5
100
AcDbEntity
  8
nášlap_vrstvy
100
AcDbVertex
100
AcDb2dVertex
 10
1971.548038005003
 20
197.5794991998057
 30
0.0
 42
-0.0178170165843964
  0
VERTEX
  5
11F9
330
11F5
100
AcDbEntity
  8
nášlap_vrstvy
100
AcDbVertex
100
AcDb2dVertex
 10
1973.652796518098
 20
199.1869532039447
 30
0.0
 42
-0.0272796991712396
  0
SEQEND
  5
11FA
330
11F5
100
AcDbEntity
  8
nášlap_vrstvy
  0
LWPOLYLINE
  5
11FB
330
1F
100
AcDbEntity
  8
nášlap_vrstvy
100
AcDbPolyline
 90
        2
 70
     0
 43
0.0
 10
1909.953920007349
 20
193.1869532039447
 10
1907.483814550214
 20
194.4229099392826
  0
LWPOLYLINE
  5
11FC
330
1F
100
AcDbEntity
  8
nášlap_vrstvy
100
AcDbPolyline
 90
        3
 70
     0
 43
0.0
 10
1909.572590856587
 20
193.1869532039447
 42
-0.0327520985396081
 10
1910.276129118062
 20
198.8390471501581
 42
-0.0020140331156959
 10
1911.518996160259
 20
205.1869532039447
 42
-0.0001103000883317
  0
LWPOLYLINE
  5
11FD
330
1F
100
AcDbEntity
  8
nášlap_vrstvy
100
AcDbPolyline
 90
        3
 70
     0
 43
0.0
 10
1911.518996160259
 20
205.1869532039447
 42
-0.00139912452586
 10
1912.412485182649
 20
209.5907796859421
 42
-0.0065712046643719
 10
1912.762910952413
 20
211.1869532039447
  0
POLYLINE
  5
11FE
330
1F
100
AcDbEntity
  8
nášlap_vrstvy
100
AcDb2dPolyline
 66
     1
 10
0.0
 20
0.0
 30
0.0
  0
VERTEX
  5
11FF
330
11FE
100
AcDbEntity
  8
nášlap_vrstvy
100
AcDbVertex
100
AcDb2dVertex
 10
1976.404831047821
 20
193.1869532039447
 30
0.0
 42
-0.0094186890201653
  0
VERTEX
  5
1200
330
11FE
100
AcDbEntity
  8
nášlap_vrstvy
100
AcDbVertex
100
AcDb2dVertex
 10
1976.751629610695
 20
193.3456260747127
 30
0.0
 42
-0.0322692699774654
  0
VERTEX
  5
1201
330
11FE
100
AcDbEntity
  8
nášlap_vrstvy
100
AcDbVertex
100
AcDb2dVertex
 10
1979.642983791786
 20
194.3871495761134
 30
0.0
 42
-0.0276160659512937
  0
VERTEX
  5
1202
330
11FE
100
AcDbEntity
  8
nášlap_vrstvy
100
AcDbVertex
100
AcDb2dVertex
 10
1980.498560230073
 20
194.5838850050579
 30
0.0
 42
-0.0126891984598699
  0
VERTEX
  5
1203
330
11FE
100
AcDbEntity
  8
nášlap_vrstvy
100
AcDbVertex
100
AcDb2dVertex
 10
1981.421728625864
 20
194.7190873945994
 30
0.0
  0
SEQEND
  5
1204
330
11FE
100
AcDbEntity
  8
nášlap_vrstvy
  0
LWPOLYLINE
  5
1205
330
1F
100
AcDbEntity
  8
nášlap_vrstvy
100
AcDbPolyline
 90
        4
 70
     0
 43
0.0
 10
1940.816368354324
 20
193.1869532039447
 42
-0.0186324019486548
 10
1944.184737726431
 20
204.8820648221692
 42
-0.0582629403736403
 10
1945.844237594513
 20
208.4618990211049
 42
-0.0146402521923566
 10
1947.628645576097
 20
211.1869532039447
  0
LWPOLYLINE
  5
1206
330
1F
100
AcDbEntity
  8
nášlap_vrstvy
100
AcDbPolyline
 90
        4
 70
     0
 43
0.0
 10
1954.334089030039
 20
193.1869532039447
 10
1935.424501110927
 20
201.9021518237161
 10
1918.646610539709
 20
204.6092960864072
 10
1907.522451922949
 20
205.0534338636173
  0
LWPOLYLINE
  5
1207
330
1F
100
AcDbEntity
  8
nášlap_vrstvy
100
AcDbPolyline
 90
        5
 70
     0
 43
0.0
 10
1930.910764480428
 20
193.1869532039447
 42
-0.0133579731639958
 10
1931.297574969456
 20
195.7047554915
 42
-0.0072443097182286
 10
1933.417571916915
 20
206.515646386407
 42
-0.0219777111230329
 10
1934.323684418898
 20
210.0337596422425
 42
-0.0092752982622242
 10
1934.698911380845
 20
211.1869532039447
  0
LWPOLYLINE
  5
1208
330
1F
100
AcDbEntity
  8
nášlap_vrstvy
100
AcDbPolyline
 90
        6
 70
     0
 43
0.0
 10
1949.626829703167
 20
193.1869532039447
 42
-0.0121757200102759
 10
1950.996819416829
 20
197.858870536412
 42
-0.0457786284636091
 10
1952.204842306444
 20
200.7074809192884
 42
-0.0295006114745606
 10
1954.620902760744
 20
204.6343801326904
 42
-0.0258674098621065
 10
1957.853578074708
 20
208.7801602114443
 42
-0.0093759062953949
 10
1960.019390254365
 20
211.1869532039447
  0
LWPOLYLINE
  5
1209
330
1F
100
AcDbEntity
  8
nášlap_vrstvy
100
AcDbPolyline
 90
        8
 70
     0
 43
0.0
 10
1958.99963371097
 20
193.1869532039447
 42
-0.0217273703039143
 10
1961.197303971479
 20
198.2226435414224
 42
-0.0882970623535771
 10
1962.834525891572
 20
200.4630125922224
 42
-0.0171636441953577
 10
1965.647889953431
 20
202.9769299474676
 42
-0.0157521173632038
 10
1968.886744790467
 20
205.5084259999741
 42
-0.0073640874174249
 10
1973.520394146788
 20
208.7968274257102
 42
-0.0194185739168057
 10
1975.342437466465
 20
209.9483964249914
 42
-0.0229547400386702
 10
1977.727895530479
 20
211.1869532039447
  0
LWPOLYLINE
  5
120A
330
1F
100
AcDbEntity
  8
nášlap_vrstvy
100
AcDbPolyline
 90
        3
 70
     0
 43
0.0
 10
1971.750161475076
 20
193.1869532039447
 10
1957.958113548437
 20
200.0880247674315
 10
1949.791008899312
 20
208.2693264685251
  0
LWPOLYLINE
  5
120B
330
1F
100
AcDbEntity
  8
nášlap_vrstvy
100
AcDbPolyline
 90
        4
 70
     0
 43
0.0
 10
1920.666626105634
 20
193.1869532039447
 42
-0.0334776267545482
 10
1921.103903900341
 20
197.2339281326815
 42
-0.0091133963862869
 10
1923.581508225259
 20
209.9256579181412
 42
-0.007828075361276
 10
1923.872407360417
 20
211.1869532039447
  0
POLYLINE
  5
120C
330
1F
100
AcDbEntity
  8
nášlap_vrstvy
100
AcDb2dPolyline
 66
     1
 10
0.0
 20
0.0
 30
0.0
  0
VERTEX
  5
120D
330
120C
100
AcDbEntity
  8
nášlap_vrstvy
100
AcDbVertex
100
AcDb2dVertex
 10
1996.743472109141
 20
193.1869532039447
 30
0.0
 42
0.0502247168465557
  0
VERTEX
  5
120E
330
120C
100
AcDbEntity
  8
nášlap_vrstvy
100
AcDbVertex
100
AcDb2dVertex
 10
1995.144424932976
 20
195.1944238766675
 30
0.0
 42
0.0274923553235744
  0
VERTEX
  5
120F
330
120C
100
AcDbEntity
  8
nášlap_vrstvy
100
AcDbVertex
100
AcDb2dVertex
 10
1992.547119202423
 20
197.5794991998057
 30
0.0
 42
0.0255412025538677
  0
VERTEX
  5
1210
330
120C
100
AcDbEntity
  8
nášlap_vrstvy
100
AcDbVertex
100
AcDb2dVertex
 10
1989.495689164712
 20
199.8362128768214
 30
0.0
 42
0.0272796991712396
  0
VERTEX
  5
1211
330
120C
100
AcDbEntity
  8
nášlap_vrstvy
100
AcDbVertex
100
AcDb2dVertex
 10
1985.382690011527
 20
202.2525487584873
 30
0.0
 42
0.056967459841729
  0
VERTEX
  5
1212
330
120C
100
AcDbEntity
  8
nášlap_vrstvy
100
AcDbVertex
100
AcDb2dVertex
 10
1983.241742730795
 20
203.0652845936868
 30
0.0
 42
0.0373408083348504
  0
VERTEX
  5
1213
330
120C
100
AcDbEntity
  8
nášlap_vrstvy
100
AcDbVertex
100
AcDb2dVertex
 10
1983.019388355322
 20
203.1044501346343
 30
0.0
 42
0.0052305969362967
  0
VERTEX
  5
1214
330
120C
100
AcDbEntity
  8
nášlap_vrstvy
100
AcDbVertex
100
AcDb2dVertex
 10
1982.673428581562
 20
203.1354071015387
 30
0.0
  0
SEQEND
  5
1215
330
120C
100
AcDbEntity
  8
nášlap_vrstvy
  0
POLYLINE
  5
1216
330
1F
100
AcDbEntity
  8
nášlap_vrstvy
100
AcDb2dPolyline
 66
     1
 10
0.0
 20
0.0
 30
0.0
  0
VERTEX
  5
1217
330
1216
100
AcDbEntity
  8
nášlap_vrstvy
100
AcDbVertex
100
AcDb2dVertex
 10
1987.690326159605
 20
193.1869532039447
 30
0.0
 42
0.0094186890201653
  0
VERTEX
  5
1218
330
1216
100
AcDbEntity
  8
nášlap_vrstvy
100
AcDbVertex
100
AcDb2dVertex
 10
1987.343527596731
 20
193.3456260747127
 30
0.0
 42
0.0322692699774654
  0
VERTEX
  5
1219
330
1216
100
AcDbEntity
  8
nášlap_vrstvy
100
AcDbVertex
100
AcDb2dVertex
 10
1984.452173415641
 20
194.3871495761134
 30
0.0
 42
0.0276160659512937
  0
VERTEX
  5
121A
330
1216
100
AcDbEntity
  8
nášlap_vrstvy
100
AcDbVertex
100
AcDb2dVertex
 10
1983.596596977354
 20
194.5838850050579
 30
0.0
 42
0.0126891984598699
  0
VERTEX
  5
121B
330
1216
100
AcDbEntity
  8
nášlap_vrstvy
100
AcDbVertex
100
AcDb2dVertex
 10
1982.673428581562
 20
194.7190873945994
 30
0.0
  0
SEQEND
  5
121C
330
1216
100
AcDbEntity
  8
nášlap_vrstvy
  0
LWPOLYLINE
  5
121D
330
1F
100
AcDbEntity
  8
nášlap_vrstvy
100
AcDbPolyline
 90
        8
 70
     0
 43
0.0
 10
2005.095523496457
 20
193.1869532039447
 42
0.0217273703039143
 10
2002.897853235947
 20
198.2226435414224
 42
0.0882970623535771
 10
2001.260631315854
 20
200.4630125922224
 42
0.0171636441953577
 10
1998.447267253996
 20
202.9769299474676
 42
0.0157521173632038
 10
1995.20841241696
 20
205.5084259999741
 42
0.0073640874174249
 10
1990.574763060639
 20
208.7968274257102
 42
0.0194185739168057
 10
1988.752719740962
 20
209.9483964249914
 42
0.0229547400386702
 10
1986.367261676947
 20
211.1869532039447
  0
LINE
  5
121E
330
1F
100
AcDbEntity
  8
nášlap_vrstvy
100
AcDbLine
 10
1876.653987041296
 20
213.1900172542129
 30
0.0
 11
1876.653987041293
 21
229.9971027471631
 31
0.0
  0
LINE
  5
121F
330
1F
100
AcDbEntity
  8
nášlap_vrstvy
100
AcDbLine
 10
1887.334500403074
 20
229.9971027471631
 30
0.0
 11
1876.653987041293
 21
229.9971027471631
 31
0.0
  0
LINE
  5
1220
330
1F
100
AcDbEntity
  8
nášlap_vrstvy
100
AcDbLine
 10
1896.653987041296
 20
221.9153780614953
 30
0.0
 11
1887.334500403074
 21
229.9971027471631
 31
0.0
  0
LINE
  5
1221
330
1F
100
AcDbEntity
  8
nášlap_vrstvy
100
AcDbLine
 10
1896.653987041296
 20
213.1900172542129
 30
0.0
 11
1896.653987041296
 21
221.9153780614953
 31
0.0
  0
LINE
  5
1222
330
1F
100
AcDbEntity
  8
nášlap_vrstvy
100
AcDbLine
 10
1876.653987041296
 20
213.1900172542129
 30
0.0
 11
1896.653987041296
 21
213.1900172542129
 31
0.0
  0
LINE
  5
1223
330
1F
100
AcDbEntity
  8
nášlap_vrstvy
100
AcDbLine
 10
1878.021674559986
 20
211.1869532039447
 30
0.0
 11
1878.02167455999
 21
193.1869532039447
 31
0.0
  0
LINE
  5
1224
330
1F
100
AcDbEntity
  8
nášlap_vrstvy
100
AcDbLine
 10
1907.522451922952
 20
211.1869532039447
 30
0.0
 11
1907.522451922949
 21
204.3660381398569
 31
0.0
  0
LINE
  5
1225
330
1F
100
AcDbEntity
  8
nášlap_vrstvy
100
AcDbLine
 10
1907.522451922949
 20
204.3660381398569
 30
0.0
 11
1899.865993908487
 21
204.3660381398569
 31
0.0
  0
LINE
  5
1226
330
1F
100
AcDbEntity
  8
nášlap_vrstvy
100
AcDbLine
 10
1899.865993908487
 20
204.3660381398569
 30
0.0
 11
1899.865993908487
 21
200.021650427366
 31
0.0
  0
LINE
  5
1227
330
1F
100
AcDbEntity
  8
nášlap_vrstvy
100
AcDbLine
 10
1899.865993908487
 20
200.021650427366
 30
0.0
 11
1907.522451922956
 21
200.021650427366
 31
0.0
  0
LINE
  5
1228
330
1F
100
AcDbEntity
  8
nášlap_vrstvy
100
AcDbLine
 10
1907.522451922956
 20
200.021650427366
 30
0.0
 11
1907.522451922956
 21
193.1869532039447
 31
0.0
  0
LINE
  5
1229
330
1F
100
AcDbEntity
  8
nášlap_vrstvy
100
AcDbLine
 10
1906.611342657212
 20
211.1869532039447
 30
0.0
 11
1906.611342657212
 21
205.1869532039447
 31
0.0
  0
LINE
  5
122A
330
1F
100
AcDbEntity
  8
nášlap_vrstvy
100
AcDbLine
 10
1906.611342657212
 20
205.1869532039447
 30
0.0
 11
1898.611342657209
 21
205.1869532039447
 31
0.0
  0
LINE
  5
122B
330
1F
100
AcDbEntity
  8
nášlap_vrstvy
100
AcDbLine
 10
1898.611342657212
 20
205.1869532039447
 30
0.0
 11
1898.611342657212
 21
199.1869532039447
 31
0.0
  0
LINE
  5
122C
330
1F
100
AcDbEntity
  8
nášlap_vrstvy
100
AcDbLine
 10
1898.611342657209
 20
199.1869532039447
 30
0.0
 11
1906.611342657212
 21
199.1869532039447
 31
0.0
  0
LINE
  5
122D
330
1F
100
AcDbEntity
  8
nášlap_vrstvy
100
AcDbLine
 10
1906.611342657212
 20
199.1869532039447
 30
0.0
 11
1906.611342657212
 21
193.1869532039447
 31
0.0
  0
LINE
  5
122E
330
1F
100
AcDbEntity
  8
nášlap_vrstvy
100
AcDbLine
 10
1981.611342657212
 20
199.1869532039447
 30
0.0
 11
1981.611342657212
 21
193.1869532039447
 31
0.0
  0
LINE
  5
122F
330
1F
100
AcDbEntity
  8
nášlap_vrstvy
100
AcDbLine
 10
1973.611342657209
 20
199.1869532039447
 30
0.0
 11
1981.611342657212
 21
199.1869532039447
 31
0.0
  0
LINE
  5
1230
330
1F
100
AcDbEntity
  8
nášlap_vrstvy
100
AcDbLine
 10
1973.611342657212
 20
205.1869532039447
 30
0.0
 11
1973.611342657212
 21
199.1869532039447
 31
0.0
  0
LINE
  5
1231
330
1F
100
AcDbEntity
  8
nášlap_vrstvy
100
AcDbLine
 10
1981.611342657212
 20
205.1869532039447
 30
0.0
 11
1973.611342657209
 21
205.1869532039447
 31
0.0
  0
LINE
  5
1232
330
1F
100
AcDbEntity
  8
nášlap_vrstvy
100
AcDbLine
 10
1981.611342657212
 20
211.1869532039447
 30
0.0
 11
1981.611342657212
 21
205.1869532039447
 31
0.0
  0
LINE
  5
1233
330
1F
100
AcDbEntity
  8
nášlap_vrstvy
100
AcDbLine
 10
1982.522451922956
 20
200.021650427366
 30
0.0
 11
1982.522451922956
 21
193.1869532039447
 31
0.0
  0
LINE
  5
1234
330
1F
100
AcDbEntity
  8
nášlap_vrstvy
100
AcDbLine
 10
1974.865993908487
 20
200.021650427366
 30
0.0
 11
1982.522451922956
 21
200.021650427366
 31
0.0
  0
LINE
  5
1235
330
1F
100
AcDbEntity
  8
nášlap_vrstvy
100
AcDbLine
 10
1974.865993908487
 20
204.3660381398569
 30
0.0
 11
1974.865993908487
 21
200.021650427366
 31
0.0
  0
LINE
  5
1236
330
1F
100
AcDbEntity
  8
nášlap_vrstvy
100
AcDbLine
 10
1982.522451922949
 20
204.3660381398569
 30
0.0
 11
1974.865993908487
 21
204.3660381398569
 31
0.0
  0
LINE
  5
1237
330
1F
100
AcDbEntity
  8
nášlap_vrstvy
100
AcDbLine
 10
1982.522451922952
 20
211.1869532039447
 30
0.0
 11
1982.522451922949
 21
204.3660381398569
 31
0.0
  0
LWPOLYLINE
  5
1238
330
1F
100
AcDbEntity
  8
nášlap_vrstvy
100
AcDbPolyline
 90
        3
 70
     0
 43
0.0
 10
1992.34499573235
 20
193.1869532039447
 10
2006.13704365899
 20
200.0880247674315
 10
2014.304148308114
 20
208.2693264685251
  0
LWPOLYLINE
  5
1239
330
1F
100
AcDbEntity
  8
nášlap_vrstvy
100
AcDbPolyline
 90
        6
 70
     0
 43
0.0
 10
2014.468327504259
 20
193.1869532039447
 42
0.0121757200102759
 10
2013.098337790597
 20
197.858870536412
 42
0.0457786284636091
 10
2011.890314900982
 20
200.7074809192884
 42
0.0295006114745606
 10
2009.474254446683
 20
204.6343801326904
 42
0.0258674098621065
 10
2006.241579132719
 20
208.7801602114443
 42
0.0093759062953949
 10
2004.075766953061
 20
211.1869532039447
  0
LINE
  5
123A
330
1F
100
AcDbEntity
  8
nášlap_vrstvy
100
AcDbLine
 10
1876.13717232475
 20
193.1867051773354
 30
0.0
 11
1878.02167455999
 21
193.1869532039447
 31
0.0
  0
HATCH
  5
123B
330
1F
100
AcDbEntity
  8
nášlap_vrstvy
100
AcDbHatch
 10
0.0
 20
0.0
 30
0.0
210
0.0
220
0.0
230
1.0
  2
ANSI31
 70
     0
 71
     0
 91
        1
 92
        7
 72
     1
 73
     1
 93
       11
 10
1896.653987041293
 20
221.9153780615008
 42
0.0
 10
1892.776108657865
 20
225.2782183847887
 42
0.0
 10
1886.660876751946
 20
221.9408401064076
 42
-0.5665140878365952
 10
1885.55851279679
 20
220.1015237988342
 42
-1.0
 10
1885.55851279679
 20
222.6015237988342
 42
-0.2767200853982219
 10
1886.660876751946
 20
221.9408401064076
 42
0.0
 10
1892.776108657858
 20
225.2782183847896
 42
0.0
 10
1887.334500403074
 20
229.9971027471622
 42
0.0
 10
1876.653987041296
 20
229.997102747164
 42
0.0
 10
1876.653987041296
 20
213.1900172542129
 42
0.0
 10
1896.653987041296
 20
213.1900172542129
 42
0.0
 97
        0
 75
     0
 76
     1
 52
0.0
 41
1.0
 77
     0
 78
     1
 53
45.0
 43
-28952.75227735109
 44
7655.712512361533
 45
-2.245064030267287
 46
2.245064030267288
 79
     0
 47
0.3819952100862718
 98
        1
 10
1891.603239445464
 20
217.8751901807584
  0
TEXT
  5
123C
330
1F
100
AcDbEntity
  8
POPIS
100
AcDbText
 10
1607.794322891412
 20
454.344520854692
 30
0.0
 40
35.0
  1
SVISLÝ ŘEZ
 41
0.85
  7
SIMPLEX7
100
AcDbText
  0
TEXT
  5
123D
330
1F
100
AcDbEntity
  8
POPIS
100
AcDbText
 10
2198.062160655427
 20
267.4518826363757
 30
0.0
 40
25.0
  1
04
 41
0.85
  7
SIMPLEX7
100
AcDbText
  0
TEXT
  5
123E
330
1F
100
AcDbEntity
  8
POPIS
100
AcDbText
 10
2278.28321040469
 20
267.4518826363757
 30
0.0
 40
25.0
  1
05
 41
0.85
  7
SIMPLEX7
100
AcDbText
  0
TEXT
  5
123F
330
1F
100
AcDbEntity
  8
POPIS
100
AcDbText
 10
2402.475696047208
 20
267.4518826363757
 30
0.0
 40
25.0
  1
08
 41
0.85
  7
SIMPLEX7
100
AcDbText
  0
TEXT
  5
1240
330
1F
100
AcDbEntity
  8
POPIS
100
AcDbText
 10
2353.387180582922
 20
267.4518826363757
 30
0.0
 40
25.0
  1
06
 41
0.85
  7
SIMPLEX7
100
AcDbText
  0
TEXT
  5
1242
330
1F
100
AcDbEntity
  8
POPIS
100
AcDbText
 10
2051.904978047365
 20
267.4518826363757
 30
0.0
 40
25.0
  1
03
 41
0.85
  7
SIMPLEX7
100
AcDbText
  0
LWPOLYLINE
  5
1244
330
1F
100
AcDbEntity
  8
nášlap_vrstvy
100
AcDbPolyline
 90
        4
 70
     1
 43
0.0
 10
2575.879052107655
 20
186.3090628104648
 10
2226.008112216205
 20
186.3090628104648
 10
2226.008112216205
 20
187.8090628104648
 10
2575.879052107655
 20
187.8090628104648
  0
HATCH
  5
1245
330
1F
100
AcDbEntity
  8
STAVBA OBRYS
100
AcDbHatch
 10
0.0
 20
0.0
 30
0.0
210
0.0
220
0.0
230
1.0
  2
SOLID
 70
     1
 71
     0
 91
        1
 92
        7
 72
     0
 73
     1
 93
        4
 10
2325.330093811623
 20
122.3090628104648
 10
2301.688361101787
 20
122.3090628104648
 10
2301.688361101784
 20
119.3090628104648
 10
2325.330093811623
 20
119.3090628104648
 97
        0
 75
     0
 76
     1
 47
0.1901250437635136
 98
        1
 10
2311.046155860128
 20
121.492251259385
  0
LWPOLYLINE
  5
1246
330
1F
100
AcDbEntity
  8
STAVBA OBRYS
100
AcDbPolyline
 90
        4
 70
     1
 43
0.0
 10
2325.330093811619
 20
122.3090628104648
 10
2301.688361101784
 20
122.3090628104648
 10
2301.688361101784
 20
119.3090628104648
 10
2325.330093811619
 20
119.3090628104648
  0
LWPOLYLINE
  5
1247
330
1F
100
AcDbEntity
  8
nášlap_vrstvy
100
AcDbPolyline
 90
        4
 70
     0
 43
0.0
 10
2323.278788853102
 20
193.1869532039447
 42
0.0186324019486548
 10
2319.910419480995
 20
204.8820648221692
 42
0.0582629403736403
 10
2318.250919612914
 20
208.4618990211049
 42
0.0146402521923566
 10
2316.46651163133
 20
211.1869532039447
  0
LWPOLYLINE
  5
1248
330
1F
100
AcDbEntity
  8
nášlap_vrstvy
100
AcDbPolyline
 90
        4
 70
     0
 43
0.0
 10
2308.674403664507
 20
192.6861227731962
 10
2328.6706560965
 20
201.9021518237161
 10
2345.448546667718
 20
204.6092960864072
 10
2348.712157915423
 20
204.7395974507774
  0
LWPOLYLINE
  5
124C
330
1F
100
AcDbEntity
  8
nášlap_vrstvy
100
AcDbPolyline
 90
        4
 70
     1
 43
0.0
 10
2171.658831197692
 20
187.8090628104648
 10
2159.837964842776
 20
187.8090628104648
 10
2159.837964842776
 20
186.3090628104648
 10
2171.658831197692
 20
186.3090628104648
  0
HATCH
  5
124D
330
1F
100
AcDbEntity
  8
nášlap_vrstvy
100
AcDbHatch
 10
0.0
 20
0.0
 30
0.0
210
0.0
220
0.0
230
1.0
  2
SOLID
 70
     1
 71
     0
 91
        1
 92
        7
 72
     0
 73
     1
 93
        4
 10
2171.658831197696
 20
187.8090628104648
 10
2159.837964842776
 20
187.8090628104648
 10
2159.837964842776
 20
186.3090628104648
 10
2171.658831197696
 20
186.3090628104648
 97
        0
 75
     0
 76
     1
 47
0.1901250437635136
 98
        1
 10
2164.516862221947
 20
187.4006570349258
  0
LINE
  5
124E
330
1F
100
AcDbEntity
  8
SPOJOVACÍ
  6
DASHED
100
AcDbLine
 10
2162.701725198662
 20
186.3090628104648
 30
0.0
 11
2172.698026820384
 21
186.3090628104648
 31
0.0
  0
LINE
  5
124F
330
1F
100
AcDbEntity
  8
SPOJOVACÍ
  6
DASHED
100
AcDbLine
 10
2162.701725198662
 20
185.1331345692681
 30
0.0
 11
2172.698026820384
 21
185.1331345692681
 31
0.0
  0
LINE
  5
1250
330
1F
100
AcDbEntity
  8
SPOJOVACÍ
  6
DASHED
100
AcDbLine
 10
2167.321573514703
 20
154.2864401909221
 30
0.0
 11
2167.699876009523
 21
151.2591086494733
 31
0.0
  0
LINE
  5
1251
330
1F
100
AcDbEntity
  8
SPOJOVACÍ
  6
DASHED
100
AcDbLine
 10
2165.348019527657
 20
175.7247970688106
 30
0.0
 11
2170.051732491389
 21
174.5488688278776
 31
0.0
  0
LINE
  5
1252
330
1F
100
AcDbEntity
  8
SPOJOVACÍ
  6
DASHED
100
AcDbLine
 10
2165.718117875462
 20
175.5114891554833
 30
0.0
 11
2169.681634147863
 21
174.178770482212
 31
0.0
  0
LINE
  5
1253
330
1F
100
AcDbEntity
  8
SPOJOVACÍ
  6
DASHED
100
AcDbLine
 10
2165.718117875462
 20
176.095806986664
 30
0.0
 11
2169.681634147863
 21
174.7630883136637
 31
0.0
  0
LINE
  5
1254
330
1F
100
AcDbEntity
  8
SPOJOVACÍ
  6
DASHED
100
AcDbLine
 10
2165.348019527657
 20
172.667383642228
 30
0.0
 11
2170.051732491389
 21
171.491455401024
 31
0.0
  0
LINE
  5
1255
330
1F
100
AcDbEntity
  8
SPOJOVACÍ
  6
DASHED
100
AcDbLine
 10
2165.718117875462
 20
172.4531641564419
 30
0.0
 11
2169.681634147863
 21
171.1213570556294
 31
0.0
  0
LINE
  5
1256
330
1F
100
AcDbEntity
  8
SPOJOVACÍ
  6
DASHED
100
AcDbLine
 10
2165.718117875462
 20
173.0374819878936
 30
0.0
 11
2169.681634147863
 21
171.7056748868101
 31
0.0
  0
LINE
  5
1257
330
1F
100
AcDbEntity
  8
SPOJOVACÍ
  6
DASHED
100
AcDbLine
 10
2165.967888679508
 20
160.2645312022898
 30
0.0
 11
2169.269603478351
 21
159.154236165293
 31
0.0
  0
LINE
  5
1258
330
1F
100
AcDbEntity
  8
SPOJOVACÍ
  6
DASHED
100
AcDbLine
 10
2165.967888679508
 20
160.8488490337415
 30
0.0
 11
2169.269603478351
 21
159.7385539967447
 31
0.0
  0
LINE
  5
1259
330
1F
100
AcDbEntity
  8
SPOJOVACÍ
  6
DASHED
100
AcDbLine
 10
2165.59687876219
 20
160.4787506880759
 30
0.0
 11
2169.639701821878
 21
159.5252460834174
 31
0.0
  0
LINE
  5
125A
330
1F
100
AcDbEntity
  8
SPOJOVACÍ
  6
DASHED
100
AcDbLine
 10
2166.520301481978
 20
157.3110370155366
 30
0.0
 11
2168.83387192875
 21
156.5325542885759
 31
0.0
  0
LINE
  5
125B
330
1F
100
AcDbEntity
  8
SPOJOVACÍ
  6
DASHED
100
AcDbLine
 10
2166.520301481978
 20
157.8953548469883
 30
0.0
 11
2168.83387192875
 21
157.1168721197566
 31
0.0
  0
LINE
  5
125C
330
1F
100
AcDbEntity
  8
SPOJOVACÍ
  6
DASHED
100
AcDbLine
 10
2166.150203134173
 20
157.5243449288639
 30
0.0
 11
2169.203970272276
 21
156.9035642064293
 31
0.0
  0
LINE
  5
125D
330
1F
100
AcDbEntity
  8
SPOJOVACÍ
  6
DASHED
100
AcDbLine
 10
2167.073625853962
 20
154.3566312563318
 30
0.0
 11
2168.444630565537
 21
153.8953756827988
 31
0.0
  0
LINE
  5
125E
330
1F
100
AcDbEntity
  8
SPOJOVACÍ
  6
DASHED
100
AcDbLine
 10
2167.073625853962
 20
154.9409490877762
 30
0.0
 11
2168.444630565537
 21
154.4796935142433
 31
0.0
  0
LINE
  5
125F
330
1F
100
AcDbEntity
  8
SPOJOVACÍ
  6
DASHED
100
AcDbLine
 10
2166.703527510435
 20
154.5708507421106
 30
0.0
 11
2168.814728909063
 21
154.2663856006522
 31
0.0
  0
LINE
  5
1260
330
1F
100
AcDbEntity
  8
SPOJOVACÍ
  6
DASHED
100
AcDbLine
 10
2165.348019527657
 20
169.6099702153744
 30
0.0
 11
2170.051732491389
 21
168.4340419744414
 31
0.0
  0
LINE
  5
1261
330
1F
100
AcDbEntity
  8
SPOJOVACÍ
  6
DASHED
100
AcDbLine
 10
2165.718117875462
 20
169.3957507295883
 30
0.0
 11
2169.681634147863
 21
168.0630320565881
 31
0.0
  0
LINE
  5
1262
330
1F
100
AcDbEntity
  8
SPOJOVACÍ
  6
DASHED
100
AcDbLine
 10
2165.718117875462
 20
169.98006856104
 30
0.0
 11
2169.681634147863
 21
168.6473498880325
 31
0.0
  0
LINE
  5
1263
330
1F
100
AcDbEntity
  8
SPOJOVACÍ
  6
DASHED
100
AcDbLine
 10
2165.348019527657
 20
166.5525567887846
 30
0.0
 11
2170.051732491389
 21
165.3766285478516
 31
0.0
  0
LINE
  5
1264
330
1F
100
AcDbEntity
  8
SPOJOVACÍ
  6
DASHED
100
AcDbLine
 10
2165.718117875462
 20
166.3383373030058
 30
0.0
 11
2169.681634147863
 21
165.0056186299982
 31
0.0
  0
LINE
  5
1265
330
1F
100
AcDbEntity
  8
SPOJOVACÍ
  6
DASHED
100
AcDbLine
 10
2165.718117875462
 20
166.9226551344502
 30
0.0
 11
2169.681634147863
 21
165.5899364611789
 31
0.0
  0
LINE
  5
1266
330
1F
100
AcDbEntity
  8
SPOJOVACÍ
  6
DASHED
100
AcDbLine
 10
2165.348019527657
 20
163.4942317897432
 30
0.0
 11
2170.051732491389
 21
162.3183035488102
 31
0.0
  0
LINE
  5
1267
330
1F
100
AcDbEntity
  8
SPOJOVACÍ
  6
DASHED
100
AcDbLine
 10
2165.718117875462
 20
163.2809238764159
 30
0.0
 11
2169.681634147863
 21
161.9482052031446
 31
0.0
  0
LINE
  5
1268
330
1F
100
AcDbEntity
  8
SPOJOVACÍ
  6
DASHED
100
AcDbLine
 10
2165.718117875462
 20
163.8652417078676
 30
0.0
 11
2169.681634147863
 21
162.5325230345963
 31
0.0
  0
HATCH
  5
1269
330
1F
100
AcDbEntity
  8
STAVBA OBRYS
100
AcDbHatch
 10
0.0
 20
0.0
 30
0.0
210
0.0
220
0.0
230
1.0
  2
SOLID
 70
     1
 71
     0
 91
        1
 92
        7
 72
     0
 73
     1
 93
        4
 10
2183.479697552612
 20
122.3090628104648
 10
2159.837964842776
 20
122.3090628104648
 10
2159.837964842773
 20
119.3090628104648
 10
2183.479697552612
 20
119.3090628104648
 97
        0
 75
     0
 76
     1
 47
0.1901250437635136
 98
        1
 10
2169.195759601116
 20
121.492251259385
  0
LWPOLYLINE
  5
126A
330
1F
100
AcDbEntity
  8
STAVBA OBRYS
100
AcDbPolyline
 90
        4
 70
     1
 43
0.0
 10
2183.479697552608
 20
122.3090628104648
 10
2159.837964842773
 20
122.3090628104648
 10
2159.837964842773
 20
119.3090628104648
 10
2183.479697552608
 20
119.3090628104648
  0
LWPOLYLINE
  5
126B
330
1F
100
AcDbEntity
  8
nášlap_vrstvy
100
AcDbPolyline
 90
        4
 70
     0
 43
0.0
 10
2173.278788853102
 20
193.1869532039447
 42
0.0186324019486548
 10
2169.910419480995
 20
204.8820648221692
 42
0.0582629403736403
 10
2168.250919612914
 20
208.4618990211049
 42
0.0146402521923566
 10
2166.46651163133
 20
211.1869532039447
  0
LWPOLYLINE
  5
126C
330
1F
100
AcDbEntity
  8
nášlap_vrstvy
100
AcDbPolyline
 90
        4
 70
     0
 43
0.0
 10
2158.674403664507
 20
192.6861227731962
 10
2178.670656096499
 20
201.9021518237161
 10
2195.448546667718
 20
204.6092960864072
 10
2198.712157915422
 20
204.7395974507774
  0
LWPOLYLINE
  5
126D
330
1F
100
AcDbEntity
  8
nášlap_vrstvy
100
AcDbPolyline
 90
        4
 70
     1
 43
0.0
 10
2148.01709848786
 20
187.8090628104648
 10
2136.196232132941
 20
187.8090628104648
 10
2136.196232132941
 20
186.3090628104648
 10
2148.01709848786
 20
186.3090628104648
  0
HATCH
  5
126E
330
1F
100
AcDbEntity
  8
nášlap_vrstvy
100
AcDbHatch
 10
0.0
 20
0.0
 30
0.0
210
0.0
220
0.0
230
1.0
  2
SOLID
 70
     1
 71
     0
 91
        1
 92
        7
 72
     0
 73
     1
 93
        4
 10
2148.01709848786
 20
187.8090628104648
 10
2136.196232132945
 20
187.8090628104648
 10
2136.196232132941
 20
186.3090628104648
 10
2148.01709848786
 20
186.3090628104648
 97
        0
 75
     0
 76
     1
 47
0.1901250437635136
 98
        1
 10
2140.875129512115
 20
187.4006570349258
  0
HATCH
  5
126F
330
1F
100
AcDbEntity
  8
nášlap_vrstvy
100
AcDbHatch
 10
0.0
 20
0.0
 30
0.0
210
0.0
220
0.0
230
1.0
  2
SOLID
 70
     1
 71
     0
 91
        1
 92
        7
 72
     0
 73
     1
 93
        4
 10
2124.375365778025
 20
187.8090628104648
 10
2112.554499423106
 20
187.8090628104648
 10
2112.554499423106
 20
186.3090628104648
 10
2124.375365778025
 20
186.3090628104648
 97
        0
 75
     0
 76
     1
 47
0.1901250437635136
 98
        1
 10
2117.233396802276
 20
187.4006570349258
  0
LWPOLYLINE
  5
1270
330
1F
100
AcDbEntity
  8
nášlap_vrstvy
100
AcDbPolyline
 90
        4
 70
     1
 43
0.0
 10
2053.45016764852
 20
187.8090628104648
 10
2041.629301293601
 20
187.8090628104648
 10
2041.629301293601
 20
186.3090628104648
 10
2053.45016764852
 20
186.3090628104648
  0
HATCH
  5
1271
330
1F
100
AcDbEntity
  8
nášlap_vrstvy
100
AcDbHatch
 10
0.0
 20
0.0
 30
0.0
210
0.0
220
0.0
230
1.0
  2
SOLID
 70
     1
 71
     0
 91
        1
 92
        7
 72
     0
 73
     1
 93
        4
 10
2053.45016764852
 20
187.8090628104648
 10
2041.629301293604
 20
187.8090628104648
 10
2041.629301293601
 20
186.3090628104648
 10
2053.45016764852
 20
186.3090628104648
 97
        0
 75
     0
 76
     1
 47
0.1901250437635136
 98
        1
 10
2046.308198672774
 20
187.4006570349258
  0
LWPOLYLINE
  5
1272
330
1F
100
AcDbEntity
  8
nášlap_vrstvy
100
AcDbPolyline
 90
        4
 70
     1
 43
0.0
 10
2029.808434938681
 20
187.8090628104648
 10
2017.987568583765
 20
187.8090628104648
 10
2017.987568583765
 20
186.3090628104648
 10
2029.808434938681
 20
186.3090628104648
  0
HATCH
  5
1273
330
1F
100
AcDbEntity
  8
nášlap_vrstvy
100
AcDbHatch
 10
0.0
 20
0.0
 30
0.0
210
0.0
220
0.0
230
1.0
  2
SOLID
 70
     1
 71
     0
 91
        1
 92
        7
 72
     0
 73
     1
 93
        4
 10
2029.808434938685
 20
187.8090628104648
 10
2017.987568583765
 20
187.8090628104648
 10
2017.987568583765
 20
186.3090628104648
 10
2029.808434938685
 20
186.3090628104648
 97
        0
 75
     0
 76
     1
 47
0.1901250437635136
 98
        1
 10
2022.666465962935
 20
187.4006570349258
  0
LINE
  5
1274
330
1F
100
AcDbEntity
  8
SPOJOVACÍ
  6
DASHED
100
AcDbLine
 10
2162.701725198662
 20
186.3090628104648
 30
0.0
 11
2162.701725198662
 21
185.1331345692681
 31
0.0
  0
LINE
  5
1275
330
1F
100
AcDbEntity
  8
SPOJOVACÍ
  6
DASHED
100
AcDbLine
 10
2166.312462999638
 20
180.6126476334586
 30
0.0
 11
2166.377184631921
 21
179.8414574847986
 31
0.0
  0
LINE
  5
1276
330
1F
100
AcDbEntity
  8
SPOJOVACÍ
  6
DASHED
100
AcDbLine
 10
2165.893139752625
 20
182.0638707031678
 30
0.0
 11
2166.312462999638
 21
180.6126476334586
 31
0.0
  0
LINE
  5
1277
330
1F
100
AcDbEntity
  8
SPOJOVACÍ
  6
DASHED
100
AcDbLine
 10
2165.112833882893
 20
183.3564801958994
 30
0.0
 11
2165.893139752625
 21
182.0638707031678
 31
0.0
  0
LINE
  5
1278
330
1F
100
AcDbEntity
  8
SPOJOVACÍ
  6
DASHED
100
AcDbLine
 10
2164.024416580542
 20
184.4038767455233
 30
0.0
 11
2165.112833882893
 21
183.3564801958994
 31
0.0
  0
LINE
  5
1279
330
1F
100
AcDbEntity
  8
SPOJOVACÍ
  6
DASHED
100
AcDbLine
 10
2162.701725198662
 20
185.1331345692681
 30
0.0
 11
2164.024416580542
 21
184.4038767455233
 31
0.0
  0
LINE
  5
127A
330
1F
100
AcDbEntity
  8
SPOJOVACÍ
  6
DASHED
100
AcDbLine
 10
2166.377184631921
 20
179.8414574847986
 30
0.0
 11
2166.377184631921
 21
175.8843222177122
 31
0.0
  0
LINE
  5
127B
330
1F
100
AcDbEntity
  8
SPOJOVACÍ
  6
DASHED
100
AcDbLine
 10
2166.377184631921
 20
175.3009159587193
 30
0.0
 11
2166.377184631921
 21
172.832378224791
 31
0.0
  0
LINE
  5
127C
330
1F
100
AcDbEntity
  8
SPOJOVACÍ
  6
DASHED
100
AcDbLine
 10
2166.377184631921
 20
172.2407678153024
 30
0.0
 11
2166.377184631921
 21
169.7704069367275
 31
0.0
  0
LINE
  5
127D
330
1F
100
AcDbEntity
  8
SPOJOVACÍ
  6
DASHED
100
AcDbLine
 10
2166.377184631921
 20
169.1879122499224
 30
0.0
 11
2166.377184631921
 21
166.7102587933106
 31
0.0
  0
LINE
  5
127E
330
1F
100
AcDbEntity
  8
SPOJOVACÍ
  6
DASHED
100
AcDbLine
 10
2166.377184631921
 20
166.1177368113706
 30
0.0
 11
2166.377184631921
 21
163.65011064963
 31
0.0
  0
LINE
  5
127F
330
1F
100
AcDbEntity
  8
SPOJOVACÍ
  6
DASHED
100
AcDbLine
 10
2166.377184631921
 20
163.0657928181783
 30
0.0
 11
2166.377184631921
 21
161.8433743911275
 31
0.0
  0
LINE
  5
1280
330
1F
100
AcDbEntity
  8
SPOJOVACÍ
  6
DASHED
100
AcDbLine
 10
2166.377184631921
 20
161.8433743911275
 30
0.0
 11
2166.52394776859
 21
160.6701808667578
 31
0.0
  0
LINE
  5
1281
330
1F
100
AcDbEntity
  8
SPOJOVACÍ
  6
DASHED
100
AcDbLine
 10
2166.599608269265
 20
160.0621621560214
 30
0.0
 11
2166.884018821795
 21
157.7868777456781
 31
0.0
  0
LINE
  5
1282
330
1F
100
AcDbEntity
  8
SPOJOVACÍ
  6
DASHED
100
AcDbLine
 10
2166.961502465776
 20
157.1688317398068
 30
0.0
 11
2167.245913014027
 21
154.8944589016584
 31
0.0
  0
LINE
  5
1283
330
1F
100
AcDbEntity
  8
SPOJOVACÍ
  6
DASHED
100
AcDbLine
 10
2165.348019527657
 20
175.7247970688106
 30
0.0
 11
2165.718117875462
 21
175.5114891554833
 31
0.0
  0
LINE
  5
1284
330
1F
100
AcDbEntity
  8
SPOJOVACÍ
  6
DASHED
100
AcDbLine
 10
2165.348019527657
 20
175.7247970688106
 30
0.0
 11
2165.718117875462
 21
176.095806986664
 31
0.0
  0
LINE
  5
1285
330
1F
100
AcDbEntity
  8
SPOJOVACÍ
  6
DASHED
100
AcDbLine
 10
2165.348019527657
 20
172.667383642228
 30
0.0
 11
2165.718117875462
 21
172.4531641564419
 31
0.0
  0
LINE
  5
1286
330
1F
100
AcDbEntity
  8
SPOJOVACÍ
  6
DASHED
100
AcDbLine
 10
2165.348019527657
 20
172.667383642228
 30
0.0
 11
2165.718117875462
 21
173.0374819878936
 31
0.0
  0
LINE
  5
1287
330
1F
100
AcDbEntity
  8
SPOJOVACÍ
  6
DASHED
100
AcDbLine
 10
2165.59687876219
 20
160.4787506880759
 30
0.0
 11
2165.967888679508
 21
160.2645312022898
 31
0.0
  0
LINE
  5
1288
330
1F
100
AcDbEntity
  8
SPOJOVACÍ
  6
DASHED
100
AcDbLine
 10
2165.59687876219
 20
160.4787506880759
 30
0.0
 11
2165.967888679508
 21
160.8488490337415
 31
0.0
  0
LINE
  5
1289
330
1F
100
AcDbEntity
  8
SPOJOVACÍ
  6
DASHED
100
AcDbLine
 10
2166.150203134173
 20
157.5243449288639
 30
0.0
 11
2166.520301481978
 21
157.3110370155366
 31
0.0
  0
LINE
  5
128A
330
1F
100
AcDbEntity
  8
SPOJOVACÍ
  6
DASHED
100
AcDbLine
 10
2166.150203134173
 20
157.5243449288639
 30
0.0
 11
2166.520301481978
 21
157.8953548469883
 31
0.0
  0
LINE
  5
128B
330
1F
100
AcDbEntity
  8
SPOJOVACÍ
  6
DASHED
100
AcDbLine
 10
2166.703527510435
 20
154.5708507421106
 30
0.0
 11
2167.073625853962
 21
154.3566312563318
 31
0.0
  0
LINE
  5
128C
330
1F
100
AcDbEntity
  8
SPOJOVACÍ
  6
DASHED
100
AcDbLine
 10
2166.703527510435
 20
154.5708507421106
 30
0.0
 11
2167.073625853962
 21
154.9409490877762
 31
0.0
  0
LINE
  5
128D
330
1F
100
AcDbEntity
  8
SPOJOVACÍ
  6
DASHED
100
AcDbLine
 10
2165.348019527657
 20
169.6099702153744
 30
0.0
 11
2165.718117875462
 21
169.3957507295883
 31
0.0
  0
LINE
  5
128E
330
1F
100
AcDbEntity
  8
SPOJOVACÍ
  6
DASHED
100
AcDbLine
 10
2165.348019527657
 20
169.6099702153744
 30
0.0
 11
2165.718117875462
 21
169.98006856104
 31
0.0
  0
LINE
  5
128F
330
1F
100
AcDbEntity
  8
SPOJOVACÍ
  6
DASHED
100
AcDbLine
 10
2165.348019527657
 20
166.5525567887846
 30
0.0
 11
2165.718117875462
 21
166.3383373030058
 31
0.0
  0
LINE
  5
1290
330
1F
100
AcDbEntity
  8
SPOJOVACÍ
  6
DASHED
100
AcDbLine
 10
2165.348019527657
 20
166.5525567887846
 30
0.0
 11
2165.718117875462
 21
166.9226551344502
 31
0.0
  0
LINE
  5
1291
330
1F
100
AcDbEntity
  8
SPOJOVACÍ
  6
DASHED
100
AcDbLine
 10
2165.348019527657
 20
163.4942317897432
 30
0.0
 11
2165.718117875462
 21
163.2809238764159
 31
0.0
  0
LINE
  5
1292
330
1F
100
AcDbEntity
  8
SPOJOVACÍ
  6
DASHED
100
AcDbLine
 10
2165.348019527657
 20
163.4942317897432
 30
0.0
 11
2165.718117875462
 21
163.8652417078676
 31
0.0
  0
HATCH
  5
1293
330
1F
100
AcDbEntity
  8
STAVBA OBRYS
100
AcDbHatch
 10
0.0
 20
0.0
 30
0.0
210
0.0
220
0.0
230
1.0
  2
SOLID
 70
     1
 71
     0
 91
        1
 92
        7
 72
     0
 73
     1
 93
        4
 10
2041.629301293601
 20
122.3090628104648
 10
2017.987568583765
 20
122.3090628104648
 10
2017.987568583762
 20
119.3090628104648
 10
2041.629301293601
 20
119.3090628104648
 97
        0
 75
     0
 76
     1
 47
0.1901250437635136
 98
        1
 10
2027.345363342105
 20
121.492251259385
  0
LWPOLYLINE
  5
1294
330
1F
100
AcDbEntity
  8
STAVBA OBRYS
100
AcDbPolyline
 90
        4
 70
     1
 43
0.0
 10
2041.629301293597
 20
122.3090628104648
 10
2017.987568583762
 20
122.3090628104648
 10
2017.987568583762
 20
119.3090628104648
 10
2041.629301293597
 20
119.3090628104648
  0
HATCH
  5
1295
330
1F
100
AcDbEntity
  8
STAVBA OBRYS
100
AcDbHatch
 10
0.0
 20
0.0
 30
0.0
210
0.0
220
0.0
230
1.0
  2
SOLID
 70
     1
 71
     0
 91
        1
 92
        7
 72
     0
 73
     1
 93
        4
 10
2088.912766713271
 20
122.3090628104648
 10
2065.271034003436
 20
122.3090628104648
 10
2065.271034003432
 20
119.3090628104648
 10
2088.912766713271
 20
119.3090628104648
 97
        0
 75
     0
 76
     1
 47
0.1901250437635136
 98
        1
 10
2074.628828761775
 20
121.492251259385
  0
LWPOLYLINE
  5
1296
330
1F
100
AcDbEntity
  8
STAVBA OBRYS
100
AcDbPolyline
 90
        4
 70
     1
 43
0.0
 10
2088.912766713267
 20
122.3090628104648
 10
2065.271034003432
 20
122.3090628104648
 10
2065.271034003432
 20
119.3090628104648
 10
2088.912766713267
 20
119.3090628104648
  0
HATCH
  5
1297
330
1F
100
AcDbEntity
  8
STAVBA OBRYS
100
AcDbHatch
 10
0.0
 20
0.0
 30
0.0
210
0.0
220
0.0
230
1.0
  2
SOLID
 70
     1
 71
     0
 91
        1
 92
        7
 72
     0
 73
     1
 93
        4
 10
2136.196232132941
 20
122.3090628104648
 10
2112.554499423106
 20
122.3090628104648
 10
2112.554499423102
 20
119.3090628104648
 10
2136.196232132941
 20
119.3090628104648
 97
        0
 75
     0
 76
     1
 47
0.1901250437635136
 98
        1
 10
2121.912294181446
 20
121.492251259385
  0
LWPOLYLINE
  5
1298
330
1F
100
AcDbEntity
  8
STAVBA OBRYS
100
AcDbPolyline
 90
        4
 70
     1
 43
0.0
 10
2136.196232132938
 20
122.3090628104648
 10
2112.554499423102
 20
122.3090628104648
 10
2112.554499423102
 20
119.3090628104648
 10
2136.196232132938
 20
119.3090628104648
  0
LWPOLYLINE
  5
1299
330
1F
100
AcDbEntity
  8
nášlap_vrstvy
100
AcDbPolyline
 90
        3
 70
     0
 43
0.0
 10
2052.576161047167
 20
205.1869532039447
 42
0.00139912452586
 10
2051.682672024778
 20
209.5907796859421
 42
0.0065712046643719
 10
2051.332246255013
 20
211.1869532039447
  0
LWPOLYLINE
  5
129A
330
1F
100
AcDbEntity
  8
nášlap_vrstvy
100
AcDbPolyline
 90
        3
 70
     0
 43
0.0
 10
2054.522566350839
 20
193.1869532039447
 42
0.0327520985396081
 10
2053.819028089365
 20
198.8390471501581
 42
0.0001103000883317
 10
2053.752285386611
 20
199.1869532039447
 42
0.0001103000883317
  0
LWPOLYLINE
  5
129B
330
1F
100
AcDbEntity
  8
nášlap_vrstvy
100
AcDbPolyline
 90
        2
 70
     0
 43
0.0
 10
2054.141237200078
 20
193.1869532039447
 10
2056.611342657212
 20
194.4229099392826
  0
LWPOLYLINE
  5
129C
330
1F
100
AcDbEntity
  8
nášlap_vrstvy
100
AcDbPolyline
 90
        4
 70
     0
 43
0.0
 10
2043.428531101792
 20
193.1869532039447
 42
0.0334776267545482
 10
2042.991253307086
 20
197.2339281326815
 42
0.0091133963862869
 10
2040.513648982167
 20
209.9256579181412
 42
0.007828075361276
 10
2040.222749847009
 20
211.1869532039447
  0
LWPOLYLINE
  5
129D
330
1F
100
AcDbEntity
  8
nášlap_vrstvy
100
AcDbPolyline
 90
        5
 70
     0
 43
0.0
 10
2033.184392726999
 20
193.1869532039447
 42
0.0133579731639958
 10
2032.797582237971
 20
195.7047554915
 42
0.0072443097182286
 10
2030.677585290512
 20
206.515646386407
 42
0.0219777111230329
 10
2029.771472788529
 20
210.0337596422425
 42
0.0092752982622242
 10
2029.396245826581
 20
211.1869532039447
  0
LINE
  5
129E
330
1F
100
AcDbEntity
  8
nášlap_vrstvy
100
AcDbLine
 10
2057.522451922952
 20
211.1869532039447
 30
0.0
 11
2057.522451922948
 21
204.3660381398569
 31
0.0
  0
LINE
  5
129F
330
1F
100
AcDbEntity
  8
nášlap_vrstvy
100
AcDbLine
 10
2057.522451922948
 20
204.3660381398569
 30
0.0
 11
2049.865993908487
 21
204.3660381398569
 31
0.0
  0
LINE
  5
12A0
330
1F
100
AcDbEntity
  8
nášlap_vrstvy
100
AcDbLine
 10
2049.865993908487
 20
204.3660381398569
 30
0.0
 11
2049.865993908487
 21
200.021650427366
 31
0.0
  0
LINE
  5
12A1
330
1F
100
AcDbEntity
  8
nášlap_vrstvy
100
AcDbLine
 10
2049.865993908487
 20
200.021650427366
 30
0.0
 11
2057.522451922956
 21
200.021650427366
 31
0.0
  0
LINE
  5
12A2
330
1F
100
AcDbEntity
  8
nášlap_vrstvy
100
AcDbLine
 10
2057.522451922956
 20
200.021650427366
 30
0.0
 11
2057.522451922956
 21
193.1869532039447
 31
0.0
  0
LINE
  5
12A3
330
1F
100
AcDbEntity
  8
nášlap_vrstvy
100
AcDbLine
 10
2056.611342657212
 20
211.1869532039447
 30
0.0
 11
2056.611342657212
 21
205.1869532039447
 31
0.0
  0
LINE
  5
12A4
330
1F
100
AcDbEntity
  8
nášlap_vrstvy
100
AcDbLine
 10
2056.611342657212
 20
205.1869532039447
 30
0.0
 11
2048.611342657209
 21
205.1869532039447
 31
0.0
  0
LINE
  5
12A5
330
1F
100
AcDbEntity
  8
nášlap_vrstvy
100
AcDbLine
 10
2048.611342657212
 20
205.1869532039447
 30
0.0
 11
2048.611342657212
 21
199.1869532039447
 31
0.0
  0
LINE
  5
12A6
330
1F
100
AcDbEntity
  8
nášlap_vrstvy
100
AcDbLine
 10
2048.611342657209
 20
199.1869532039447
 30
0.0
 11
2056.611342657212
 21
199.1869532039447
 31
0.0
  0
LINE
  5
12A7
330
1F
100
AcDbEntity
  8
nášlap_vrstvy
100
AcDbLine
 10
2056.611342657212
 20
199.1869532039447
 30
0.0
 11
2056.611342657212
 21
193.1869532039447
 31
0.0
  0
LWPOLYLINE
  5
12A8
330
1F
100
AcDbEntity
  8
nášlap_vrstvy
100
AcDbPolyline
 90
        4
 70
     0
 43
0.0
 10
2070.666626105635
 20
193.1869532039447
 42
-0.0334776267545482
 10
2071.103903900341
 20
197.2339281326815
 42
-0.0091133963862869
 10
2073.581508225259
 20
209.9256579181412
 42
-0.007828075361276
 10
2073.872407360417
 20
211.1869532039447
  0
LWPOLYLINE
  5
12A9
330
1F
100
AcDbEntity
  8
nášlap_vrstvy
100
AcDbPolyline
 90
        3
 70
     0
 43
0.0
 10
2121.750161475076
 20
193.1869532039447
 10
2107.958113548437
 20
200.0880247674315
 10
2099.791008899312
 20
208.2693264685251
  0
LWPOLYLINE
  5
12AA
330
1F
100
AcDbEntity
  8
nášlap_vrstvy
100
AcDbPolyline
 90
        8
 70
     0
 43
0.0
 10
2108.99963371097
 20
193.1869532039447
 42
-0.0217273703039143
 10
2111.197303971479
 20
198.2226435414224
 42
-0.0882970623535771
 10
2112.834525891572
 20
200.4630125922224
 42
-0.0171636441953577
 10
2115.647889953431
 20
202.9769299474676
 42
-0.0157521173632038
 10
2118.886744790467
 20
205.5084259999741
 42
-0.0073640874174249
 10
2123.520394146788
 20
208.7968274257102
 42
-0.0194185739168057
 10
2125.342437466465
 20
209.9483964249914
 42
-0.0229547400386702
 10
2127.727895530479
 20
211.1869532039447
  0
LWPOLYLINE
  5
12AB
330
1F
100
AcDbEntity
  8
nášlap_vrstvy
100
AcDbPolyline
 90
        6
 70
     0
 43
0.0
 10
2099.626829703168
 20
193.1869532039447
 42
-0.0121757200102759
 10
2100.996819416829
 20
197.858870536412
 42
-0.0457786284636091
 10
2102.204842306444
 20
200.7074809192884
 42
-0.0295006114745606
 10
2104.620902760744
 20
204.6343801326904
 42
-0.0258674098621065
 10
2107.853578074708
 20
208.7801602114443
 42
-0.0093759062953949
 10
2110.019390254365
 20
211.1869532039447
  0
LWPOLYLINE
  5
12AC
330
1F
100
AcDbEntity
  8
nášlap_vrstvy
100
AcDbPolyline
 90
        5
 70
     0
 43
0.0
 10
2080.910764480428
 20
193.1869532039447
 42
-0.0133579731639958
 10
2081.297574969456
 20
195.7047554915
 42
-0.0072443097182286
 10
2083.417571916915
 20
206.515646386407
 42
-0.0219777111230329
 10
2084.323684418898
 20
210.0337596422425
 42
-0.0092752982622242
 10
2084.698911380845
 20
211.1869532039447
  0
LWPOLYLINE
  5
12AD
330
1F
100
AcDbEntity
  8
nášlap_vrstvy
100
AcDbPolyline
 90
        4
 70
     0
 43
0.0
 10
2104.334089030039
 20
193.1869532039447
 10
2085.424501110927
 20
201.9021518237161
 10
2068.646610539709
 20
204.6092960864072
 10
2057.522451922948
 20
205.0534338636173
  0
LWPOLYLINE
  5
12AE
330
1F
100
AcDbEntity
  8
nášlap_vrstvy
100
AcDbPolyline
 90
        4
 70
     0
 43
0.0
 10
2090.816368354324
 20
193.1869532039447
 42
-0.0186324019486548
 10
2094.184737726431
 20
204.8820648221692
 42
-0.0582629403736403
 10
2095.844237594512
 20
208.4618990211049
 42
-0.0146402521923566
 10
2097.628645576097
 20
211.1869532039447
  0
LWPOLYLINE
  5
12AF
330
1F
100
AcDbEntity
  8
nášlap_vrstvy
100
AcDbPolyline
 90
        3
 70
     0
 43
0.0
 10
2061.518996160259
 20
205.1869532039447
 42
-0.00139912452586
 10
2062.412485182649
 20
209.5907796859421
 42
-0.0065712046643719
 10
2062.762910952413
 20
211.1869532039447
  0
LWPOLYLINE
  5
12B0
330
1F
100
AcDbEntity
  8
nášlap_vrstvy
100
AcDbPolyline
 90
        3
 70
     0
 43
0.0
 10
2059.572590856587
 20
193.1869532039447
 42
-0.0327520985396081
 10
2060.276129118062
 20
198.8390471501581
 42
-0.0020140331156959
 10
2061.518996160259
 20
205.1869532039447
 42
-0.0001103000883317
  0
POLYLINE
  5
12B1
330
1F
100
AcDbEntity
  8
nášlap_vrstvy
100
AcDb2dPolyline
 66
     1
 10
0.0
 20
0.0
 30
0.0
  0
VERTEX
  5
12B2
330
12B1
100
AcDbEntity
  8
nášlap_vrstvy
100
AcDbVertex
100
AcDb2dVertex
 10
2117.351685098285
 20
193.1869532039447
 30
0.0
 42
-0.0502247168465557
  0
VERTEX
  5
12B3
330
12B1
100
AcDbEntity
  8
nášlap_vrstvy
100
AcDbVertex
100
AcDb2dVertex
 10
2118.95073227445
 20
195.1944238766675
 30
0.0
 42
-0.0274923553235744
  0
VERTEX
  5
12B4
330
12B1
100
AcDbEntity
  8
nášlap_vrstvy
100
AcDbVertex
100
AcDb2dVertex
 10
2121.548038005003
 20
197.5794991998057
 30
0.0
 42
-0.0178170165843964
  0
VERTEX
  5
12B5
330
12B1
100
AcDbEntity
  8
nášlap_vrstvy
100
AcDbVertex
100
AcDb2dVertex
 10
2123.652796518098
 20
199.1869532039447
 30
0.0
 42
-0.0272796991712396
  0
SEQEND
  5
12B6
330
12B1
100
AcDbEntity
  8
nášlap_vrstvy
  0
LWPOLYLINE
  5
12B7
330
1F
100
AcDbEntity
  8
nášlap_vrstvy
100
AcDbPolyline
 90
        2
 70
     0
 43
0.0
 10
2059.953920007349
 20
193.1869532039447
 10
2057.483814550214
 20
194.4229099392826
  0
LINE
  5
12B8
330
1F
100
AcDbEntity
  8
nášlap_vrstvy
100
AcDbLine
 10
2057.522451922956
 20
200.021650427366
 30
0.0
 11
2057.522451922956
 21
193.1869532039447
 31
0.0
  0
LINE
  5
12B9
330
1F
100
AcDbEntity
  8
nášlap_vrstvy
100
AcDbLine
 10
2049.865993908487
 20
200.021650427366
 30
0.0
 11
2057.522451922956
 21
200.021650427366
 31
0.0
  0
LINE
  5
12BA
330
1F
100
AcDbEntity
  8
nášlap_vrstvy
100
AcDbLine
 10
2057.522451922948
 20
204.3660381398569
 30
0.0
 11
2049.865993908487
 21
204.3660381398569
 31
0.0
  0
LINE
  5
12BB
330
1F
100
AcDbEntity
  8
nášlap_vrstvy
100
AcDbLine
 10
2057.522451922952
 20
211.1869532039447
 30
0.0
 11
2057.522451922948
 21
204.3660381398569
 31
0.0
  0
LINE
  5
12BC
330
1F
100
AcDbEntity
  8
nášlap_vrstvy
100
AcDbLine
 10
2049.865993908487
 20
204.3660381398569
 30
0.0
 11
2049.865993908487
 21
200.021650427366
 31
0.0
  0
LINE
  5
12BD
330
1F
100
AcDbEntity
  8
nášlap_vrstvy
100
AcDbLine
 10
2132.522451922953
 20
211.1869532039447
 30
0.0
 11
2132.522451922949
 21
204.3660381398569
 31
0.0
  0
LINE
  5
12BE
330
1F
100
AcDbEntity
  8
nášlap_vrstvy
100
AcDbLine
 10
2132.522451922949
 20
204.3660381398569
 30
0.0
 11
2124.865993908487
 21
204.3660381398569
 31
0.0
  0
LINE
  5
12BF
330
1F
100
AcDbEntity
  8
nášlap_vrstvy
100
AcDbLine
 10
2124.865993908487
 20
204.3660381398569
 30
0.0
 11
2124.865993908487
 21
200.021650427366
 31
0.0
  0
LINE
  5
12C0
330
1F
100
AcDbEntity
  8
nášlap_vrstvy
100
AcDbLine
 10
2124.865993908487
 20
200.021650427366
 30
0.0
 11
2132.522451922956
 21
200.021650427366
 31
0.0
  0
LINE
  5
12C1
330
1F
100
AcDbEntity
  8
nášlap_vrstvy
100
AcDbLine
 10
2132.522451922956
 20
200.021650427366
 30
0.0
 11
2132.522451922956
 21
193.1869532039447
 31
0.0
  0
LINE
  5
12C2
330
1F
100
AcDbEntity
  8
nášlap_vrstvy
100
AcDbLine
 10
2131.611342657212
 20
211.1869532039447
 30
0.0
 11
2131.611342657212
 21
205.1869532039447
 31
0.0
  0
LINE
  5
12C3
330
1F
100
AcDbEntity
  8
nášlap_vrstvy
100
AcDbLine
 10
2131.611342657212
 20
205.1869532039447
 30
0.0
 11
2123.611342657209
 21
205.1869532039447
 31
0.0
  0
LINE
  5
12C4
330
1F
100
AcDbEntity
  8
nášlap_vrstvy
100
AcDbLine
 10
2123.611342657212
 20
205.1869532039447
 30
0.0
 11
2123.611342657212
 21
199.1869532039447
 31
0.0
  0
LINE
  5
12C5
330
1F
100
AcDbEntity
  8
nášlap_vrstvy
100
AcDbLine
 10
2123.611342657209
 20
199.1869532039447
 30
0.0
 11
2131.611342657212
 21
199.1869532039447
 31
0.0
  0
LINE
  5
12C6
330
1F
100
AcDbEntity
  8
nášlap_vrstvy
100
AcDbLine
 10
2131.611342657212
 20
199.1869532039447
 30
0.0
 11
2131.611342657212
 21
193.1869532039447
 31
0.0
  0
POLYLINE
  5
12C7
330
1F
100
AcDbEntity
  8
nášlap_vrstvy
100
AcDb2dPolyline
 66
     1
 10
0.0
 20
0.0
 30
0.0
  0
VERTEX
  5
12C8
330
12C7
100
AcDbEntity
  8
nášlap_vrstvy
100
AcDbVertex
100
AcDb2dVertex
 10
2137.690326159606
 20
193.1869532039447
 30
0.0
 42
0.0094186890201653
  0
VERTEX
  5
12C9
330
12C7
100
AcDbEntity
  8
nášlap_vrstvy
100
AcDbVertex
100
AcDb2dVertex
 10
2137.343527596731
 20
193.3456260747127
 30
0.0
 42
0.0322692699774654
  0
VERTEX
  5
12CA
330
12C7
100
AcDbEntity
  8
nášlap_vrstvy
100
AcDbVertex
100
AcDb2dVertex
 10
2134.452173415641
 20
194.3871495761134
 30
0.0
 42
0.0276160659512937
  0
VERTEX
  5
12CB
330
12C7
100
AcDbEntity
  8
nášlap_vrstvy
100
AcDbVertex
100
AcDb2dVertex
 10
2133.596596977354
 20
194.5838850050579
 30
0.0
 42
0.0126891984598699
  0
VERTEX
  5
12CC
330
12C7
100
AcDbEntity
  8
nášlap_vrstvy
100
AcDbVertex
100
AcDb2dVertex
 10
2132.673428581562
 20
194.7190873945994
 30
0.0
  0
SEQEND
  5
12CD
330
12C7
100
AcDbEntity
  8
nášlap_vrstvy
  0
POLYLINE
  5
12CE
330
1F
100
AcDbEntity
  8
nášlap_vrstvy
100
AcDb2dPolyline
 66
     1
 10
0.0
 20
0.0
 30
0.0
  0
VERTEX
  5
12CF
330
12CE
100
AcDbEntity
  8
nášlap_vrstvy
100
AcDbVertex
100
AcDb2dVertex
 10
2126.404831047821
 20
193.1869532039447
 30
0.0
 42
-0.0094186890201653
  0
VERTEX
  5
12D0
330
12CE
100
AcDbEntity
  8
nášlap_vrstvy
100
AcDbVertex
100
AcDb2dVertex
 10
2126.751629610695
 20
193.3456260747127
 30
0.0
 42
-0.0322692699774654
  0
VERTEX
  5
12D1
330
12CE
100
AcDbEntity
  8
nášlap_vrstvy
100
AcDbVertex
100
AcDb2dVertex
 10
2129.642983791786
 20
194.3871495761134
 30
0.0
 42
-0.0276160659512937
  0
VERTEX
  5
12D2
330
12CE
100
AcDbEntity
  8
nášlap_vrstvy
100
AcDbVertex
100
AcDb2dVertex
 10
2130.498560230073
 20
194.5838850050579
 30
0.0
 42
-0.0126891984598699
  0
VERTEX
  5
12D3
330
12CE
100
AcDbEntity
  8
nášlap_vrstvy
100
AcDbVertex
100
AcDb2dVertex
 10
2131.421728625864
 20
194.7190873945994
 30
0.0
  0
SEQEND
  5
12D4
330
12CE
100
AcDbEntity
  8
nášlap_vrstvy
  0
LWPOLYLINE
  5
12D5
330
1F
100
AcDbEntity
  8
nášlap_vrstvy
100
AcDbPolyline
 90
        6
 70
     0
 43
0.0
 10
2164.468327504259
 20
193.1869532039447
 42
0.0121757200102759
 10
2163.098337790598
 20
197.858870536412
 42
0.0457786284636091
 10
2161.890314900982
 20
200.7074809192884
 42
0.0295006114745606
 10
2159.474254446683
 20
204.6343801326904
 42
0.0258674098621065
 10
2156.241579132719
 20
208.7801602114443
 42
0.0093759062953949
 10
2154.075766953061
 20
211.1869532039447
  0
LWPOLYLINE
  5
12D6
330
1F
100
AcDbEntity
  8
nášlap_vrstvy
100
AcDbPolyline
 90
        3
 70
     0
 43
0.0
 10
2142.34499573235
 20
193.1869532039447
 10
2156.137043658989
 20
200.0880247674315
 10
2164.304148308115
 20
208.2693264685251
  0
LWPOLYLINE
  5
12D7
330
1F
100
AcDbEntity
  8
nášlap_vrstvy
100
AcDbPolyline
 90
        8
 70
     0
 43
0.0
 10
2155.095523496457
 20
193.1869532039447
 42
0.0217273703039143
 10
2152.897853235947
 20
198.2226435414224
 42
0.0882970623535771
 10
2151.260631315854
 20
200.4630125922224
 42
0.0171636441953577
 10
2148.447267253996
 20
202.9769299474676
 42
0.0157521173632038
 10
2145.20841241696
 20
205.5084259999741
 42
0.0073640874174249
 10
2140.574763060639
 20
208.7968274257102
 42
0.0194185739168057
 10
2138.752719740962
 20
209.9483964249914
 42
0.0229547400386702
 10
2136.367261676948
 20
211.1869532039447
  0
POLYLINE
  5
12D8
330
1F
100
AcDbEntity
  8
nášlap_vrstvy
100
AcDb2dPolyline
 66
     1
 10
0.0
 20
0.0
 30
0.0
  0
VERTEX
  5
12D9
330
12D8
100
AcDbEntity
  8
nášlap_vrstvy
100
AcDbVertex
100
AcDb2dVertex
 10
2146.743472109141
 20
193.1869532039447
 30
0.0
 42
0.0502247168465557
  0
VERTEX
  5
12DA
330
12D8
100
AcDbEntity
  8
nášlap_vrstvy
100
AcDbVertex
100
AcDb2dVertex
 10
2145.144424932976
 20
195.1944238766675
 30
0.0
 42
0.0274923553235744
  0
VERTEX
  5
12DB
330
12D8
100
AcDbEntity
  8
nášlap_vrstvy
100
AcDbVertex
100
AcDb2dVertex
 10
2142.547119202423
 20
197.5794991998057
 30
0.0
 42
0.0255412025538677
  0
VERTEX
  5
12DC
330
12D8
100
AcDbEntity
  8
nášlap_vrstvy
100
AcDbVertex
100
AcDb2dVertex
 10
2139.495689164712
 20
199.8362128768214
 30
0.0
 42
0.0272796991712396
  0
VERTEX
  5
12DD
330
12D8
100
AcDbEntity
  8
nášlap_vrstvy
100
AcDbVertex
100
AcDb2dVertex
 10
2135.382690011527
 20
202.2525487584873
 30
0.0
 42
0.056967459841729
  0
VERTEX
  5
12DE
330
12D8
100
AcDbEntity
  8
nášlap_vrstvy
100
AcDbVertex
100
AcDb2dVertex
 10
2133.241742730795
 20
203.0652845936868
 30
0.0
 42
0.0373408083348504
  0
VERTEX
  5
12DF
330
12D8
100
AcDbEntity
  8
nášlap_vrstvy
100
AcDbVertex
100
AcDb2dVertex
 10
2133.019388355322
 20
203.1044501346343
 30
0.0
 42
0.0052305969362967
  0
VERTEX
  5
12E0
330
12D8
100
AcDbEntity
  8
nášlap_vrstvy
100
AcDbVertex
100
AcDb2dVertex
 10
2132.673428581562
 20
203.1354071015387
 30
0.0
  0
SEQEND
  5
12E1
330
12D8
100
AcDbEntity
  8
nášlap_vrstvy
  0
LINE
  5
12E4
330
1F
100
AcDbEntity
  8
POPIS
100
AcDbLine
 10
2068.80264897917
 20
258.602521563652
 30
0.0
 11
2068.80264897917
 21
190.4631524049311
 31
0.0
  0
INSERT
  5
12E5
330
1F
100
AcDbEntity
  8
POPIS
100
AcDbBlockReference
  2
E_PUNKT
 10
2068.773580648296
 20
191.740762780558
 30
0.0
 50
270.0
  0
LINE
  5
12E6
330
1F
100
AcDbEntity
  8
CETRIS
100
AcDbLine
 10
2220.681901137103
 20
186.3090628104653
 30
0.0
 11
2220.681901137103
 21
174.3090628104653
 31
0.0
  0
HATCH
  5
12E7
330
1F
100
AcDbEntity
  8
nášlap_vrstvy
100
AcDbHatch
 10
0.0
 20
0.0
 30
0.0
210
0.0
220
0.0
230
1.0
  2
SOLID
 70
     1
 71
     0
 91
        1
 92
        7
 72
     0
 73
     1
 93
        4
 10
2308.75417670063
 20
187.8090628104648
 10
2296.933310345714
 20
187.8090628104648
 10
2296.93331034571
 20
186.3090628104648
 10
2308.75417670063
 20
186.3090628104648
 97
        0
 75
     0
 76
     1
 47
0.1901250437635136
 98
        1
 10
2301.612207724884
 20
187.4006570349258
  0
LWPOLYLINE
  5
12E8
330
1F
100
AcDbEntity
  8
nášlap_vrstvy
100
AcDbPolyline
 90
        4
 70
     1
 43
0.0
 10
2308.75417670063
 20
187.8090628104648
 10
2296.93331034571
 20
187.8090628104648
 10
2296.93331034571
 20
186.3090628104648
 10
2308.75417670063
 20
186.3090628104648
  0
LWPOLYLINE
  5
12E9
330
1F
100
AcDbEntity
  8
nášlap_vrstvy
100
AcDbPolyline
 90
        4
 70
     1
 43
0.0
 10
2237.82897857112
 20
187.8090628104648
 10
2226.008112216205
 20
187.8090628104648
 10
2226.008112216205
 20
186.3090628104648
 10
2237.82897857112
 20
186.3090628104648
  0
LWPOLYLINE
  5
12EA
330
1F
100
AcDbEntity
  8
nášlap_vrstvy
100
AcDbPolyline
 90
        4
 70
     1
 43
0.0
 10
2261.470711280959
 20
187.8090628104648
 10
2249.64984492604
 20
187.8090628104648
 10
2249.64984492604
 20
186.3090628104648
 10
2261.470711280959
 20
186.3090628104648
  0
HATCH
  5
12EB
330
1F
100
AcDbEntity
  8
nášlap_vrstvy
100
AcDbHatch
 10
0.0
 20
0.0
 30
0.0
210
0.0
220
0.0
230
1.0
  2
SOLID
 70
     1
 71
     0
 91
        1
 92
        7
 72
     0
 73
     1
 93
        4
 10
2237.82897857112
 20
187.8090628104648
 10
2226.008112216205
 20
187.8090628104648
 10
2226.008112216205
 20
186.3090628104648
 10
2237.828978571124
 20
186.3090628104648
 97
        0
 75
     0
 76
     1
 47
0.1901250437635136
 98
        3
 10
2251.950723703216
 20
186.9253403457707
 10
2233.782628289544
 20
186.8302770079401
 10
2231.785092194932
 20
187.115467021432
  0
HATCH
  5
12EC
330
1F
100
AcDbEntity
  8
nášlap_vrstvy
100
AcDbHatch
 10
0.0
 20
0.0
 30
0.0
210
0.0
220
0.0
230
1.0
  2
SOLID
 70
     1
 71
     0
 91
        1
 92
        7
 72
     0
 73
     1
 93
        4
 10
2261.470711280959
 20
187.8090628104648
 10
2249.649844926044
 20
187.8090628104648
 10
2249.64984492604
 20
186.3090628104648
 10
2261.470711280959
 20
186.3090628104648
 97
        0
 75
     0
 76
     1
 47
0.1901250437635136
 98
        1
 10
2254.328742305213
 20
187.4006570349258
  0
HATCH
  5
12ED
330
1F
100
AcDbEntity
  8
nášlap_vrstvy
100
AcDbHatch
 10
0.0
 20
0.0
 30
0.0
210
0.0
220
0.0
230
1.0
  2
SOLID
 70
     1
 71
     0
 91
        1
 92
        7
 72
     0
 73
     1
 93
        4
 10
2285.112443990795
 20
187.8090628104648
 10
2273.291577635875
 20
187.8090628104648
 10
2273.291577635875
 20
186.3090628104648
 10
2285.112443990795
 20
186.3090628104648
 97
        0
 75
     0
 76
     1
 47
0.1901250437635136
 98
        1
 10
2277.970475015045
 20
187.4006570349258
  0
LWPOLYLINE
  5
12EE
330
1F
100
AcDbEntity
  8
nášlap_vrstvy
100
AcDbPolyline
 90
        4
 70
     1
 43
0.0
 10
2285.112443990791
 20
187.8090628104648
 10
2273.291577635875
 20
187.8090628104648
 10
2273.291577635875
 20
186.3090628104648
 10
2285.112443990791
 20
186.3090628104648
  0
LWPOLYLINE
  5
12EF
330
1F
100
AcDbEntity
  8
nášlap_vrstvy
100
AcDbPolyline
 90
        4
 70
     1
 43
0.0
 10
2218.942296617363
 20
187.8090628104648
 10
2207.121430262447
 20
187.8090628104648
 10
2207.121430262447
 20
186.3090628104648
 10
2218.942296617363
 20
186.3090628104648
  0
HATCH
  5
12F0
330
1F
100
AcDbEntity
  8
nášlap_vrstvy
100
AcDbHatch
 10
0.0
 20
0.0
 30
0.0
210
0.0
220
0.0
230
1.0
  2
SOLID
 70
     1
 71
     0
 91
        1
 92
        7
 72
     0
 73
     1
 93
        4
 10
2218.942296617366
 20
187.8090628104648
 10
2207.121430262447
 20
187.8090628104648
 10
2207.121430262447
 20
186.3090628104648
 10
2218.942296617366
 20
186.3090628104648
 97
        0
 75
     0
 76
     1
 47
0.1901250437635136
 98
        1
 10
2211.800327641617
 20
187.4006570349258
  0
LWPOLYLINE
  5
12F1
330
1F
100
AcDbEntity
  8
nášlap_vrstvy
100
AcDbPolyline
 90
        4
 70
     1
 43
0.0
 10
2195.300563907531
 20
187.8090628104648
 10
2183.479697552612
 20
187.8090628104648
 10
2183.479697552612
 20
186.3090628104648
 10
2195.300563907531
 20
186.3090628104648
  0
HATCH
  5
12F2
330
1F
100
AcDbEntity
  8
nášlap_vrstvy
100
AcDbHatch
 10
0.0
 20
0.0
 30
0.0
210
0.0
220
0.0
230
1.0
  2
SOLID
 70
     1
 71
     0
 91
        1
 92
        7
 72
     0
 73
     1
 93
        4
 10
2195.300563907531
 20
187.8090628104648
 10
2183.479697552615
 20
187.8090628104648
 10
2183.479697552612
 20
186.3090628104648
 10
2195.300563907531
 20
186.3090628104648
 97
        0
 75
     0
 76
     1
 47
0.1901250437635136
 98
        1
 10
2188.158594931785
 20
187.4006570349258
  0
LINE
  5
12F3
330
1F
100
AcDbEntity
  8
SPOJOVACÍ
  6
DASHED
100
AcDbLine
 10
2169.845717156634
 20
182.7202027446685
 30
0.0
 11
2170.784636605219
 21
183.9034235639094
 31
0.0
  0
LINE
  5
12F4
330
1F
100
AcDbEntity
  8
SPOJOVACÍ
  6
DASHED
100
AcDbLine
 10
2169.244991024469
 20
181.3346128791593
 30
0.0
 11
2169.845717156634
 21
182.7202027446685
 31
0.0
  0
LINE
  5
12F5
330
1F
100
AcDbEntity
  8
SPOJOVACÍ
  6
DASHED
100
AcDbLine
 10
2169.022567391403
 20
179.8414574847986
 30
0.0
 11
2169.244991024469
 21
181.3346128791593
 31
0.0
  0
LINE
  5
12F6
330
1F
100
AcDbEntity
  8
SPOJOVACÍ
  6
DASHED
100
AcDbLine
 10
2172.698026820384
 20
186.3090628104648
 30
0.0
 11
2172.698026820384
 21
185.1331345692681
 31
0.0
  0
LINE
  5
12F7
330
1F
100
AcDbEntity
  8
SPOJOVACÍ
  6
DASHED
100
AcDbLine
 10
2171.99702773794
 20
184.8031454041422
 30
0.0
 11
2172.698026820384
 21
185.1331345692681
 31
0.0
  0
LINE
  5
12F8
330
1F
100
AcDbEntity
  8
SPOJOVACÍ
  6
DASHED
100
AcDbLine
 10
2170.784636605219
 20
183.9034235639094
 30
0.0
 11
2171.99702773794
 21
184.8031454041422
 31
0.0
  0
LINE
  5
12F9
330
1F
100
AcDbEntity
  8
SPOJOVACÍ
  6
DASHED
100
AcDbLine
 10
2169.022567391403
 20
179.8414574847986
 30
0.0
 11
2169.022567391403
 21
174.9973623894486
 31
0.0
  0
LINE
  5
12FA
330
1F
100
AcDbEntity
  8
SPOJOVACÍ
  6
DASHED
100
AcDbLine
 10
2169.022567391403
 20
174.40575197996
 30
0.0
 11
2169.022567391403
 21
171.9372142460317
 31
0.0
  0
LINE
  5
12FB
330
1F
100
AcDbEntity
  8
SPOJOVACÍ
  6
DASHED
100
AcDbLine
 10
2169.022567391403
 20
171.35289641458
 30
0.0
 11
2169.022567391403
 21
168.8752429579683
 31
0.0
  0
LINE
  5
12FC
330
1F
100
AcDbEntity
  8
SPOJOVACÍ
  6
DASHED
100
AcDbLine
 10
2169.022567391403
 20
168.2927482711631
 30
0.0
 11
2169.022567391403
 21
165.8223873925883
 31
0.0
  0
LINE
  5
12FD
330
1F
100
AcDbEntity
  8
SPOJOVACÍ
  6
DASHED
100
AcDbLine
 10
2169.022567391403
 20
165.233511699934
 30
0.0
 11
2169.022567391403
 21
162.7649739660057
 31
0.0
  0
LINE
  5
12FE
330
1F
100
AcDbEntity
  8
SPOJOVACÍ
  6
DASHED
100
AcDbLine
 10
2169.022567391403
 20
162.1733635562534
 30
0.0
 11
2169.022567391403
 21
161.8433743911275
 31
0.0
  0
LINE
  5
12FF
330
1F
100
AcDbEntity
  8
SPOJOVACÍ
  6
DASHED
100
AcDbLine
 10
2167.699876009523
 20
151.2591086494733
 30
0.0
 11
2168.047185051029
 21
154.0384925307164
 31
0.0
  0
LINE
  5
1300
330
1F
100
AcDbEntity
  8
SPOJOVACÍ
  6
DASHED
100
AcDbLine
 10
2168.117376117509
 20
154.5963747660418
 30
0.0
 11
2168.379908933253
 21
156.6984604433266
 31
0.0
  0
LINE
  5
1301
330
1F
100
AcDbEntity
  8
SPOJOVACÍ
  6
DASHED
100
AcDbLine
 10
2168.450099995455
 20
157.2590773954864
 30
0.0
 11
2168.711721241685
 21
159.3529589222828
 31
0.0
  0
LINE
  5
1302
330
1F
100
AcDbEntity
  8
SPOJOVACÍ
  6
DASHED
100
AcDbLine
 10
2168.781912308165
 20
159.911752730067
 30
0.0
 11
2169.022567391403
 21
161.8433743911275
 31
0.0
  0
LINE
  5
1303
330
1F
100
AcDbEntity
  8
SPOJOVACÍ
  6
DASHED
100
AcDbLine
 10
2170.051732491389
 20
174.5488688278776
 30
0.0
 11
2169.681634147863
 21
174.178770482212
 31
0.0
  0
LINE
  5
1304
330
1F
100
AcDbEntity
  8
SPOJOVACÍ
  6
DASHED
100
AcDbLine
 10
2170.051732491389
 20
174.5488688278776
 30
0.0
 11
2169.681634147863
 21
174.7630883136637
 31
0.0
  0
LINE
  5
1305
330
1F
100
AcDbEntity
  8
SPOJOVACÍ
  6
DASHED
100
AcDbLine
 10
2170.051732491389
 20
171.491455401024
 30
0.0
 11
2169.681634147863
 21
171.1213570556294
 31
0.0
  0
LINE
  5
1306
330
1F
100
AcDbEntity
  8
SPOJOVACÍ
  6
DASHED
100
AcDbLine
 10
2170.051732491389
 20
171.491455401024
 30
0.0
 11
2169.681634147863
 21
171.7056748868101
 31
0.0
  0
LINE
  5
1307
330
1F
100
AcDbEntity
  8
SPOJOVACÍ
  6
DASHED
100
AcDbLine
 10
2169.639701821878
 20
159.5252460834174
 30
0.0
 11
2169.269603478351
 21
159.154236165293
 31
0.0
  0
LINE
  5
1308
330
1F
100
AcDbEntity
  8
SPOJOVACÍ
  6
DASHED
100
AcDbLine
 10
2169.639701821878
 20
159.5252460834174
 30
0.0
 11
2169.269603478351
 21
159.7385539967447
 31
0.0
  0
LINE
  5
1309
330
1F
100
AcDbEntity
  8
SPOJOVACÍ
  6
DASHED
100
AcDbLine
 10
2169.203970272276
 20
156.9035642064293
 30
0.0
 11
2168.83387192875
 21
156.5325542885759
 31
0.0
  0
LINE
  5
130A
330
1F
100
AcDbEntity
  8
SPOJOVACÍ
  6
DASHED
100
AcDbLine
 10
2169.203970272276
 20
156.9035642064293
 30
0.0
 11
2168.83387192875
 21
157.1168721197566
 31
0.0
  0
LINE
  5
130B
330
1F
100
AcDbEntity
  8
SPOJOVACÍ
  6
DASHED
100
AcDbLine
 10
2168.814728909063
 20
154.2663856006522
 30
0.0
 11
2168.444630565537
 21
153.8953756827988
 31
0.0
  0
LINE
  5
130C
330
1F
100
AcDbEntity
  8
SPOJOVACÍ
  6
DASHED
100
AcDbLine
 10
2168.814728909063
 20
154.2663856006522
 30
0.0
 11
2168.444630565537
 21
154.4796935142433
 31
0.0
  0
LINE
  5
130D
330
1F
100
AcDbEntity
  8
SPOJOVACÍ
  6
DASHED
100
AcDbLine
 10
2170.051732491389
 20
168.4340419744414
 30
0.0
 11
2169.681634147863
 21
168.0630320565881
 31
0.0
  0
LINE
  5
130E
330
1F
100
AcDbEntity
  8
SPOJOVACÍ
  6
DASHED
100
AcDbLine
 10
2170.051732491389
 20
168.4340419744414
 30
0.0
 11
2169.681634147863
 21
168.6473498880325
 31
0.0
  0
LINE
  5
130F
330
1F
100
AcDbEntity
  8
SPOJOVACÍ
  6
DASHED
100
AcDbLine
 10
2170.051732491389
 20
165.3766285478516
 30
0.0
 11
2169.681634147863
 21
165.0056186299982
 31
0.0
  0
LINE
  5
1310
330
1F
100
AcDbEntity
  8
SPOJOVACÍ
  6
DASHED
100
AcDbLine
 10
2170.051732491389
 20
165.3766285478516
 30
0.0
 11
2169.681634147863
 21
165.5899364611789
 31
0.0
  0
LINE
  5
1311
330
1F
100
AcDbEntity
  8
SPOJOVACÍ
  6
DASHED
100
AcDbLine
 10
2170.051732491389
 20
162.3183035488102
 30
0.0
 11
2169.681634147863
 21
161.9482052031446
 31
0.0
  0
LINE
  5
1312
330
1F
100
AcDbEntity
  8
SPOJOVACÍ
  6
DASHED
100
AcDbLine
 10
2170.051732491389
 20
162.3183035488102
 30
0.0
 11
2169.681634147863
 21
162.5325230345963
 31
0.0
  0
LINE
  5
1313
330
1F
100
AcDbEntity
  8
SPOJOVACÍ
  6
DASHED
100
AcDbLine
 10
2265.718117875462
 20
163.8652417078676
 30
0.0
 11
2269.681634147862
 21
162.5325230345963
 31
0.0
  0
LINE
  5
1314
330
1F
100
AcDbEntity
  8
SPOJOVACÍ
  6
DASHED
100
AcDbLine
 10
2265.718117875462
 20
163.2809238764159
 30
0.0
 11
2269.681634147862
 21
161.9482052031446
 31
0.0
  0
LINE
  5
1315
330
1F
100
AcDbEntity
  8
SPOJOVACÍ
  6
DASHED
100
AcDbLine
 10
2270.051732491389
 20
162.3183035488102
 30
0.0
 11
2269.681634147862
 21
162.5325230345963
 31
0.0
  0
LINE
  5
1316
330
1F
100
AcDbEntity
  8
SPOJOVACÍ
  6
DASHED
100
AcDbLine
 10
2270.051732491389
 20
162.3183035488102
 30
0.0
 11
2269.681634147862
 21
161.9482052031446
 31
0.0
  0
LINE
  5
1317
330
1F
100
AcDbEntity
  8
SPOJOVACÍ
  6
DASHED
100
AcDbLine
 10
2265.348019527657
 20
163.4942317897432
 30
0.0
 11
2265.718117875462
 21
163.8652417078676
 31
0.0
  0
LINE
  5
1318
330
1F
100
AcDbEntity
  8
SPOJOVACÍ
  6
DASHED
100
AcDbLine
 10
2265.348019527657
 20
163.4942317897432
 30
0.0
 11
2265.718117875462
 21
163.2809238764159
 31
0.0
  0
LINE
  5
1319
330
1F
100
AcDbEntity
  8
SPOJOVACÍ
  6
DASHED
100
AcDbLine
 10
2265.348019527657
 20
163.4942317897432
 30
0.0
 11
2270.051732491389
 21
162.3183035488102
 31
0.0
  0
LINE
  5
131A
330
1F
100
AcDbEntity
  8
SPOJOVACÍ
  6
DASHED
100
AcDbLine
 10
2265.718117875462
 20
166.9226551344502
 30
0.0
 11
2269.681634147862
 21
165.5899364611789
 31
0.0
  0
LINE
  5
131B
330
1F
100
AcDbEntity
  8
SPOJOVACÍ
  6
DASHED
100
AcDbLine
 10
2265.718117875462
 20
166.3383373030058
 30
0.0
 11
2269.681634147862
 21
165.0056186299982
 31
0.0
  0
LINE
  5
131C
330
1F
100
AcDbEntity
  8
SPOJOVACÍ
  6
DASHED
100
AcDbLine
 10
2270.051732491389
 20
165.3766285478516
 30
0.0
 11
2269.681634147862
 21
165.5899364611789
 31
0.0
  0
LINE
  5
131D
330
1F
100
AcDbEntity
  8
SPOJOVACÍ
  6
DASHED
100
AcDbLine
 10
2270.051732491389
 20
165.3766285478516
 30
0.0
 11
2269.681634147862
 21
165.0056186299982
 31
0.0
  0
LINE
  5
131E
330
1F
100
AcDbEntity
  8
SPOJOVACÍ
  6
DASHED
100
AcDbLine
 10
2265.348019527657
 20
166.5525567887846
 30
0.0
 11
2265.718117875462
 21
166.9226551344502
 31
0.0
  0
LINE
  5
131F
330
1F
100
AcDbEntity
  8
SPOJOVACÍ
  6
DASHED
100
AcDbLine
 10
2265.348019527657
 20
166.5525567887846
 30
0.0
 11
2265.718117875462
 21
166.3383373030058
 31
0.0
  0
LINE
  5
1320
330
1F
100
AcDbEntity
  8
SPOJOVACÍ
  6
DASHED
100
AcDbLine
 10
2265.348019527657
 20
166.5525567887846
 30
0.0
 11
2270.051732491389
 21
165.3766285478516
 31
0.0
  0
LINE
  5
1321
330
1F
100
AcDbEntity
  8
SPOJOVACÍ
  6
DASHED
100
AcDbLine
 10
2265.718117875462
 20
169.98006856104
 30
0.0
 11
2269.681634147862
 21
168.6473498880325
 31
0.0
  0
LINE
  5
1322
330
1F
100
AcDbEntity
  8
SPOJOVACÍ
  6
DASHED
100
AcDbLine
 10
2265.718117875462
 20
169.3957507295883
 30
0.0
 11
2269.681634147862
 21
168.0630320565881
 31
0.0
  0
LINE
  5
1323
330
1F
100
AcDbEntity
  8
SPOJOVACÍ
  6
DASHED
100
AcDbLine
 10
2270.051732491389
 20
168.4340419744414
 30
0.0
 11
2269.681634147862
 21
168.6473498880325
 31
0.0
  0
LINE
  5
1324
330
1F
100
AcDbEntity
  8
SPOJOVACÍ
  6
DASHED
100
AcDbLine
 10
2270.051732491389
 20
168.4340419744414
 30
0.0
 11
2269.681634147862
 21
168.0630320565881
 31
0.0
  0
LINE
  5
1325
330
1F
100
AcDbEntity
  8
SPOJOVACÍ
  6
DASHED
100
AcDbLine
 10
2265.348019527657
 20
169.6099702153744
 30
0.0
 11
2265.718117875462
 21
169.98006856104
 31
0.0
  0
LINE
  5
1326
330
1F
100
AcDbEntity
  8
SPOJOVACÍ
  6
DASHED
100
AcDbLine
 10
2265.348019527657
 20
169.6099702153744
 30
0.0
 11
2265.718117875462
 21
169.3957507295883
 31
0.0
  0
LINE
  5
1327
330
1F
100
AcDbEntity
  8
SPOJOVACÍ
  6
DASHED
100
AcDbLine
 10
2265.348019527657
 20
169.6099702153744
 30
0.0
 11
2270.051732491389
 21
168.4340419744414
 31
0.0
  0
LINE
  5
1328
330
1F
100
AcDbEntity
  8
SPOJOVACÍ
  6
DASHED
100
AcDbLine
 10
2266.703527510435
 20
154.5708507421106
 30
0.0
 11
2268.814728909063
 21
154.2663856006522
 31
0.0
  0
LINE
  5
1329
330
1F
100
AcDbEntity
  8
SPOJOVACÍ
  6
DASHED
100
AcDbLine
 10
2267.073625853962
 20
154.9409490877762
 30
0.0
 11
2268.444630565537
 21
154.4796935142433
 31
0.0
  0
LINE
  5
132A
330
1F
100
AcDbEntity
  8
SPOJOVACÍ
  6
DASHED
100
AcDbLine
 10
2267.073625853962
 20
154.3566312563318
 30
0.0
 11
2268.444630565537
 21
153.8953756827988
 31
0.0
  0
LINE
  5
132B
330
1F
100
AcDbEntity
  8
SPOJOVACÍ
  6
DASHED
100
AcDbLine
 10
2268.814728909063
 20
154.2663856006522
 30
0.0
 11
2268.444630565537
 21
154.4796935142433
 31
0.0
  0
LINE
  5
132C
330
1F
100
AcDbEntity
  8
SPOJOVACÍ
  6
DASHED
100
AcDbLine
 10
2268.814728909063
 20
154.2663856006522
 30
0.0
 11
2268.444630565537
 21
153.8953756827988
 31
0.0
  0
LINE
  5
132D
330
1F
100
AcDbEntity
  8
SPOJOVACÍ
  6
DASHED
100
AcDbLine
 10
2266.703527510435
 20
154.5708507421106
 30
0.0
 11
2267.073625853962
 21
154.9409490877762
 31
0.0
  0
LINE
  5
132E
330
1F
100
AcDbEntity
  8
SPOJOVACÍ
  6
DASHED
100
AcDbLine
 10
2266.703527510435
 20
154.5708507421106
 30
0.0
 11
2267.073625853962
 21
154.3566312563318
 31
0.0
  0
LINE
  5
132F
330
1F
100
AcDbEntity
  8
SPOJOVACÍ
  6
DASHED
100
AcDbLine
 10
2266.150203134173
 20
157.5243449288639
 30
0.0
 11
2269.203970272276
 21
156.9035642064293
 31
0.0
  0
LINE
  5
1330
330
1F
100
AcDbEntity
  8
SPOJOVACÍ
  6
DASHED
100
AcDbLine
 10
2266.520301481978
 20
157.8953548469883
 30
0.0
 11
2268.833871928749
 21
157.1168721197566
 31
0.0
  0
LINE
  5
1331
330
1F
100
AcDbEntity
  8
SPOJOVACÍ
  6
DASHED
100
AcDbLine
 10
2266.520301481978
 20
157.3110370155366
 30
0.0
 11
2268.833871928749
 21
156.5325542885759
 31
0.0
  0
LINE
  5
1332
330
1F
100
AcDbEntity
  8
SPOJOVACÍ
  6
DASHED
100
AcDbLine
 10
2269.203970272276
 20
156.9035642064293
 30
0.0
 11
2268.833871928749
 21
157.1168721197566
 31
0.0
  0
LINE
  5
1333
330
1F
100
AcDbEntity
  8
SPOJOVACÍ
  6
DASHED
100
AcDbLine
 10
2269.203970272276
 20
156.9035642064293
 30
0.0
 11
2268.833871928749
 21
156.5325542885759
 31
0.0
  0
LINE
  5
1334
330
1F
100
AcDbEntity
  8
SPOJOVACÍ
  6
DASHED
100
AcDbLine
 10
2266.150203134173
 20
157.5243449288639
 30
0.0
 11
2266.520301481978
 21
157.8953548469883
 31
0.0
  0
LINE
  5
1335
330
1F
100
AcDbEntity
  8
SPOJOVACÍ
  6
DASHED
100
AcDbLine
 10
2266.150203134173
 20
157.5243449288639
 30
0.0
 11
2266.520301481978
 21
157.3110370155366
 31
0.0
  0
LINE
  5
1336
330
1F
100
AcDbEntity
  8
SPOJOVACÍ
  6
DASHED
100
AcDbLine
 10
2265.59687876219
 20
160.4787506880759
 30
0.0
 11
2269.639701821878
 21
159.5252460834174
 31
0.0
  0
LINE
  5
1337
330
1F
100
AcDbEntity
  8
SPOJOVACÍ
  6
DASHED
100
AcDbLine
 10
2265.967888679508
 20
160.8488490337415
 30
0.0
 11
2269.269603478351
 21
159.7385539967447
 31
0.0
  0
LINE
  5
1338
330
1F
100
AcDbEntity
  8
SPOJOVACÍ
  6
DASHED
100
AcDbLine
 10
2265.967888679508
 20
160.2645312022898
 30
0.0
 11
2269.269603478351
 21
159.154236165293
 31
0.0
  0
LINE
  5
1339
330
1F
100
AcDbEntity
  8
SPOJOVACÍ
  6
DASHED
100
AcDbLine
 10
2269.639701821878
 20
159.5252460834174
 30
0.0
 11
2269.269603478351
 21
159.7385539967447
 31
0.0
  0
LINE
  5
133A
330
1F
100
AcDbEntity
  8
SPOJOVACÍ
  6
DASHED
100
AcDbLine
 10
2269.639701821878
 20
159.5252460834174
 30
0.0
 11
2269.269603478351
 21
159.154236165293
 31
0.0
  0
LINE
  5
133B
330
1F
100
AcDbEntity
  8
SPOJOVACÍ
  6
DASHED
100
AcDbLine
 10
2265.59687876219
 20
160.4787506880759
 30
0.0
 11
2265.967888679508
 21
160.8488490337415
 31
0.0
  0
LINE
  5
133C
330
1F
100
AcDbEntity
  8
SPOJOVACÍ
  6
DASHED
100
AcDbLine
 10
2265.59687876219
 20
160.4787506880759
 30
0.0
 11
2265.967888679508
 21
160.2645312022898
 31
0.0
  0
LINE
  5
133D
330
1F
100
AcDbEntity
  8
SPOJOVACÍ
  6
DASHED
100
AcDbLine
 10
2265.718117875462
 20
173.0374819878936
 30
0.0
 11
2269.681634147862
 21
171.7056748868101
 31
0.0
  0
LINE
  5
133E
330
1F
100
AcDbEntity
  8
SPOJOVACÍ
  6
DASHED
100
AcDbLine
 10
2265.718117875462
 20
172.4531641564419
 30
0.0
 11
2269.681634147862
 21
171.1213570556294
 31
0.0
  0
LINE
  5
133F
330
1F
100
AcDbEntity
  8
SPOJOVACÍ
  6
DASHED
100
AcDbLine
 10
2270.051732491389
 20
171.491455401024
 30
0.0
 11
2269.681634147862
 21
171.7056748868101
 31
0.0
  0
LINE
  5
1340
330
1F
100
AcDbEntity
  8
SPOJOVACÍ
  6
DASHED
100
AcDbLine
 10
2270.051732491389
 20
171.491455401024
 30
0.0
 11
2269.681634147862
 21
171.1213570556294
 31
0.0
  0
LINE
  5
1341
330
1F
100
AcDbEntity
  8
SPOJOVACÍ
  6
DASHED
100
AcDbLine
 10
2265.348019527657
 20
172.667383642228
 30
0.0
 11
2265.718117875462
 21
173.0374819878936
 31
0.0
  0
LINE
  5
1342
330
1F
100
AcDbEntity
  8
SPOJOVACÍ
  6
DASHED
100
AcDbLine
 10
2265.348019527657
 20
172.667383642228
 30
0.0
 11
2265.718117875462
 21
172.4531641564419
 31
0.0
  0
LINE
  5
1343
330
1F
100
AcDbEntity
  8
SPOJOVACÍ
  6
DASHED
100
AcDbLine
 10
2265.348019527657
 20
172.667383642228
 30
0.0
 11
2270.051732491389
 21
171.491455401024
 31
0.0
  0
LINE
  5
1344
330
1F
100
AcDbEntity
  8
SPOJOVACÍ
  6
DASHED
100
AcDbLine
 10
2265.718117875462
 20
176.095806986664
 30
0.0
 11
2269.681634147862
 21
174.7630883136637
 31
0.0
  0
LINE
  5
1345
330
1F
100
AcDbEntity
  8
SPOJOVACÍ
  6
DASHED
100
AcDbLine
 10
2265.718117875462
 20
175.5114891554833
 30
0.0
 11
2269.681634147862
 21
174.178770482212
 31
0.0
  0
LINE
  5
1346
330
1F
100
AcDbEntity
  8
SPOJOVACÍ
  6
DASHED
100
AcDbLine
 10
2270.051732491389
 20
174.5488688278776
 30
0.0
 11
2269.681634147862
 21
174.7630883136637
 31
0.0
  0
LINE
  5
1347
330
1F
100
AcDbEntity
  8
SPOJOVACÍ
  6
DASHED
100
AcDbLine
 10
2270.051732491389
 20
174.5488688278776
 30
0.0
 11
2269.681634147862
 21
174.178770482212
 31
0.0
  0
LINE
  5
1348
330
1F
100
AcDbEntity
  8
SPOJOVACÍ
  6
DASHED
100
AcDbLine
 10
2265.348019527657
 20
175.7247970688106
 30
0.0
 11
2265.718117875462
 21
176.095806986664
 31
0.0
  0
LINE
  5
1349
330
1F
100
AcDbEntity
  8
SPOJOVACÍ
  6
DASHED
100
AcDbLine
 10
2265.348019527657
 20
175.7247970688106
 30
0.0
 11
2265.718117875462
 21
175.5114891554833
 31
0.0
  0
LINE
  5
134A
330
1F
100
AcDbEntity
  8
SPOJOVACÍ
  6
DASHED
100
AcDbLine
 10
2265.348019527657
 20
175.7247970688106
 30
0.0
 11
2270.051732491389
 21
174.5488688278776
 31
0.0
  0
LINE
  5
134B
330
1F
100
AcDbEntity
  8
SPOJOVACÍ
  6
DASHED
100
AcDbLine
 10
2268.781912308165
 20
159.911752730067
 30
0.0
 11
2269.022567391403
 21
161.8433743911275
 31
0.0
  0
LINE
  5
134C
330
1F
100
AcDbEntity
  8
SPOJOVACÍ
  6
DASHED
100
AcDbLine
 10
2268.450099995454
 20
157.2590773954864
 30
0.0
 11
2268.711721241686
 21
159.3529589222828
 31
0.0
  0
LINE
  5
134D
330
1F
100
AcDbEntity
  8
SPOJOVACÍ
  6
DASHED
100
AcDbLine
 10
2268.117376117509
 20
154.5963747660418
 30
0.0
 11
2268.379908933253
 21
156.6984604433266
 31
0.0
  0
LINE
  5
134E
330
1F
100
AcDbEntity
  8
SPOJOVACÍ
  6
DASHED
100
AcDbLine
 10
2267.321573514702
 20
154.2864401909221
 30
0.0
 11
2267.699876009523
 21
151.2591086494733
 31
0.0
  0
LINE
  5
134F
330
1F
100
AcDbEntity
  8
SPOJOVACÍ
  6
DASHED
100
AcDbLine
 10
2266.961502465776
 20
157.1688317398068
 30
0.0
 11
2267.245913014027
 21
154.8944589016584
 31
0.0
  0
LINE
  5
1350
330
1F
100
AcDbEntity
  8
SPOJOVACÍ
  6
DASHED
100
AcDbLine
 10
2266.599608269265
 20
160.0621621560214
 30
0.0
 11
2266.884018821795
 21
157.7868777456781
 31
0.0
  0
LINE
  5
1351
330
1F
100
AcDbEntity
  8
SPOJOVACÍ
  6
DASHED
100
AcDbLine
 10
2267.699876009523
 20
151.2591086494733
 30
0.0
 11
2268.047185051029
 21
154.0384925307164
 31
0.0
  0
LINE
  5
1352
330
1F
100
AcDbEntity
  8
SPOJOVACÍ
  6
DASHED
100
AcDbLine
 10
2266.377184631922
 20
161.8433743911275
 30
0.0
 11
2266.52394776859
 21
160.6701808667578
 31
0.0
  0
LINE
  5
1353
330
1F
100
AcDbEntity
  8
SPOJOVACÍ
  6
DASHED
100
AcDbLine
 10
2269.022567391403
 20
162.1733635562534
 30
0.0
 11
2269.022567391403
 21
161.8433743911275
 31
0.0
  0
LINE
  5
1354
330
1F
100
AcDbEntity
  8
SPOJOVACÍ
  6
DASHED
100
AcDbLine
 10
2269.022567391403
 20
165.233511699934
 30
0.0
 11
2269.022567391403
 21
162.7649739660057
 31
0.0
  0
LINE
  5
1355
330
1F
100
AcDbEntity
  8
SPOJOVACÍ
  6
DASHED
100
AcDbLine
 10
2266.377184631922
 20
163.0657928181783
 30
0.0
 11
2266.377184631922
 21
161.8433743911275
 31
0.0
  0
LINE
  5
1356
330
1F
100
AcDbEntity
  8
SPOJOVACÍ
  6
DASHED
100
AcDbLine
 10
2266.377184631922
 20
166.1177368113706
 30
0.0
 11
2266.377184631922
 21
163.65011064963
 31
0.0
  0
LINE
  5
1357
330
1F
100
AcDbEntity
  8
SPOJOVACÍ
  6
DASHED
100
AcDbLine
 10
2269.022567391403
 20
168.2927482711631
 30
0.0
 11
2269.022567391403
 21
165.8223873925883
 31
0.0
  0
LINE
  5
1358
330
1F
100
AcDbEntity
  8
SPOJOVACÍ
  6
DASHED
100
AcDbLine
 10
2269.022567391403
 20
171.35289641458
 30
0.0
 11
2269.022567391403
 21
168.8752429579683
 31
0.0
  0
LINE
  5
1359
330
1F
100
AcDbEntity
  8
SPOJOVACÍ
  6
DASHED
100
AcDbLine
 10
2269.022567391403
 20
174.40575197996
 30
0.0
 11
2269.022567391403
 21
171.9372142460317
 31
0.0
  0
LINE
  5
135A
330
1F
100
AcDbEntity
  8
SPOJOVACÍ
  6
DASHED
100
AcDbLine
 10
2266.377184631922
 20
169.1879122499224
 30
0.0
 11
2266.377184631922
 21
166.7102587933106
 31
0.0
  0
LINE
  5
135B
330
1F
100
AcDbEntity
  8
SPOJOVACÍ
  6
DASHED
100
AcDbLine
 10
2266.377184631922
 20
172.2407678153024
 30
0.0
 11
2266.377184631922
 21
169.7704069367275
 31
0.0
  0
LINE
  5
135C
330
1F
100
AcDbEntity
  8
SPOJOVACÍ
  6
DASHED
100
AcDbLine
 10
2266.377184631922
 20
175.3009159587193
 30
0.0
 11
2266.377184631922
 21
172.832378224791
 31
0.0
  0
LINE
  5
135D
330
1F
100
AcDbEntity
  8
SPOJOVACÍ
  6
DASHED
100
AcDbLine
 10
2266.377184631922
 20
179.8414574847986
 30
0.0
 11
2266.377184631922
 21
175.8843222177122
 31
0.0
  0
LINE
  5
135E
330
1F
100
AcDbEntity
  8
SPOJOVACÍ
  6
DASHED
100
AcDbLine
 10
2269.022567391403
 20
179.8414574847986
 30
0.0
 11
2269.022567391403
 21
174.9973623894486
 31
0.0
  0
LINE
  5
135F
330
1F
100
AcDbEntity
  8
SPOJOVACÍ
  6
DASHED
100
AcDbLine
 10
2262.701725198662
 20
185.1331345692681
 30
0.0
 11
2264.024416580542
 21
184.4038767455233
 31
0.0
  0
LINE
  5
1360
330
1F
100
AcDbEntity
  8
SPOJOVACÍ
  6
DASHED
100
AcDbLine
 10
2264.024416580542
 20
184.4038767455233
 30
0.0
 11
2265.112833882893
 21
183.3564801958994
 31
0.0
  0
LINE
  5
1361
330
1F
100
AcDbEntity
  8
SPOJOVACÍ
  6
DASHED
100
AcDbLine
 10
2265.112833882893
 20
183.3564801958994
 30
0.0
 11
2265.893139752625
 21
182.0638707031678
 31
0.0
  0
LINE
  5
1362
330
1F
100
AcDbEntity
  8
SPOJOVACÍ
  6
DASHED
100
AcDbLine
 10
2265.893139752625
 20
182.0638707031678
 30
0.0
 11
2266.312462999638
 21
180.6126476334586
 31
0.0
  0
LINE
  5
1363
330
1F
100
AcDbEntity
  8
SPOJOVACÍ
  6
DASHED
100
AcDbLine
 10
2266.312462999638
 20
180.6126476334586
 30
0.0
 11
2266.377184631922
 21
179.8414574847986
 31
0.0
  0
LINE
  5
1364
330
1F
100
AcDbEntity
  8
SPOJOVACÍ
  6
DASHED
100
AcDbLine
 10
2270.784636605218
 20
183.9034235639094
 30
0.0
 11
2271.99702773794
 21
184.8031454041422
 31
0.0
  0
LINE
  5
1365
330
1F
100
AcDbEntity
  8
SPOJOVACÍ
  6
DASHED
100
AcDbLine
 10
2271.99702773794
 20
184.8031454041422
 30
0.0
 11
2272.698026820384
 21
185.1331345692681
 31
0.0
  0
LINE
  5
1366
330
1F
100
AcDbEntity
  8
SPOJOVACÍ
  6
DASHED
100
AcDbLine
 10
2262.701725198662
 20
185.1331345692681
 30
0.0
 11
2272.698026820384
 21
185.1331345692681
 31
0.0
  0
LINE
  5
1367
330
1F
100
AcDbEntity
  8
SPOJOVACÍ
  6
DASHED
100
AcDbLine
 10
2262.701725198662
 20
186.3090628104648
 30
0.0
 11
2262.701725198662
 21
185.1331345692681
 31
0.0
  0
LINE
  5
1368
330
1F
100
AcDbEntity
  8
SPOJOVACÍ
  6
DASHED
100
AcDbLine
 10
2262.701725198662
 20
186.3090628104648
 30
0.0
 11
2272.698026820384
 21
186.3090628104648
 31
0.0
  0
LINE
  5
1369
330
1F
100
AcDbEntity
  8
SPOJOVACÍ
  6
DASHED
100
AcDbLine
 10
2272.698026820384
 20
186.3090628104648
 30
0.0
 11
2272.698026820384
 21
185.1331345692681
 31
0.0
  0
LINE
  5
136A
330
1F
100
AcDbEntity
  8
SPOJOVACÍ
  6
DASHED
100
AcDbLine
 10
2269.022567391403
 20
179.8414574847986
 30
0.0
 11
2269.244991024469
 21
181.3346128791593
 31
0.0
  0
LINE
  5
136B
330
1F
100
AcDbEntity
  8
SPOJOVACÍ
  6
DASHED
100
AcDbLine
 10
2269.244991024469
 20
181.3346128791593
 30
0.0
 11
2269.845717156634
 21
182.7202027446685
 31
0.0
  0
LINE
  5
136C
330
1F
100
AcDbEntity
  8
SPOJOVACÍ
  6
DASHED
100
AcDbLine
 10
2269.845717156634
 20
182.7202027446685
 30
0.0
 11
2270.784636605218
 21
183.9034235639094
 31
0.0
  0
HATCH
  5
136D
330
1F
100
AcDbEntity
  8
STAVBA OBRYS
100
AcDbHatch
 10
0.0
 20
0.0
 30
0.0
210
0.0
220
0.0
230
1.0
  2
SOLID
 70
     1
 71
     0
 91
        1
 92
        7
 72
     0
 73
     1
 93
        4
 10
2230.763162972282
 20
122.3090628104648
 10
2207.121430262447
 20
122.3090628104648
 10
2207.121430262443
 20
119.3090628104648
 10
2230.763162972282
 20
119.3090628104648
 97
        0
 75
     0
 76
     1
 47
0.1901250437635136
 98
        1
 10
2216.479225020786
 20
121.492251259385
  0
LWPOLYLINE
  5
136E
330
1F
100
AcDbEntity
  8
STAVBA OBRYS
100
AcDbPolyline
 90
        4
 70
     1
 43
0.0
 10
2230.763162972278
 20
122.3090628104648
 10
2207.121430262443
 20
122.3090628104648
 10
2207.121430262443
 20
119.3090628104648
 10
2230.763162972278
 20
119.3090628104648
  0
HATCH
  5
136F
330
1F
100
AcDbEntity
  8
STAVBA OBRYS
100
AcDbHatch
 10
0.0
 20
0.0
 30
0.0
210
0.0
220
0.0
230
1.0
  2
SOLID
 70
     1
 71
     0
 91
        1
 92
        7
 72
     0
 73
     1
 93
        4
 10
2278.046628391952
 20
122.3090628104648
 10
2254.404895682117
 20
122.3090628104648
 10
2254.404895682113
 20
119.3090628104648
 10
2278.046628391952
 20
119.3090628104648
 97
        0
 75
     0
 76
     1
 47
0.1901250437635136
 98
        1
 10
2263.762690440457
 20
121.492251259385
  0
LWPOLYLINE
  5
1370
330
1F
100
AcDbEntity
  8
STAVBA OBRYS
100
AcDbPolyline
 90
        4
 70
     1
 43
0.0
 10
2278.046628391949
 20
122.3090628104648
 10
2254.404895682113
 20
122.3090628104648
 10
2254.404895682113
 20
119.3090628104648
 10
2278.046628391949
 20
119.3090628104648
  0
LINE
  5
1371
330
1F
100
AcDbEntity
  8
POPIS
100
AcDbLine
 10
2214.959831587232
 20
258.602521563652
 30
0.0
 11
2214.959831587232
 21
186.3090628104648
 31
0.0
  0
INSERT
  5
1372
330
1F
100
AcDbEntity
  8
POPIS
100
AcDbBlockReference
  2
E_PUNKT
 10
2214.930763256358
 20
187.1314099478506
 30
0.0
 50
270.0
  0
LINE
  5
1373
330
1F
100
AcDbEntity
  8
POPIS
100
AcDbLine
 10
2295.180881336495
 20
258.602521563652
 30
0.0
 11
2295.180881336495
 21
168.863765374773
 31
0.0
  0
INSERT
  5
1374
330
1F
100
AcDbEntity
  8
POPIS
100
AcDbBlockReference
  2
E_PUNKT
 10
2295.151813005621
 20
167.6413757504008
 30
0.0
 50
270.0
  0
LWPOLYLINE
  5
1375
330
1F
100
AcDbEntity
  8
nášlap_vrstvy
100
AcDbPolyline
 90
        5
 70
     0
 43
0.0
 10
2183.184392726999
 20
193.1869532039447
 42
0.0133579731639958
 10
2182.797582237971
 20
195.7047554915
 42
0.0072443097182286
 10
2180.677585290512
 20
206.515646386407
 42
0.0219777111230329
 10
2179.771472788529
 20
210.0337596422425
 42
0.0092752982622242
 10
2179.396245826582
 20
211.1869532039447
  0
LWPOLYLINE
  5
1376
330
1F
100
AcDbEntity
  8
nášlap_vrstvy
100
AcDbPolyline
 90
        4
 70
     0
 43
0.0
 10
2193.428531101792
 20
193.1869532039447
 42
0.0334776267545482
 10
2192.991253307086
 20
197.2339281326815
 42
0.0091133963862869
 10
2190.513648982167
 20
209.9256579181412
 42
0.007828075361276
 10
2190.222749847009
 20
211.1869532039447
  0
LINE
  5
1377
330
1F
100
AcDbEntity
  8
nášlap_vrstvy
100
AcDbLine
 10
2198.611342657212
 20
205.1869532039447
 30
0.0
 11
2198.611342657212
 21
199.1869532039447
 31
0.0
  0
LINE
  5
1378
330
1F
100
AcDbEntity
  8
nášlap_vrstvy
100
AcDbLine
 10
2206.611342657212
 20
205.1869532039447
 30
0.0
 11
2198.611342657208
 21
205.1869532039447
 31
0.0
  0
LINE
  5
1379
330
1F
100
AcDbEntity
  8
nášlap_vrstvy
100
AcDbLine
 10
2206.611342657212
 20
211.1869532039447
 30
0.0
 11
2206.611342657212
 21
205.1869532039447
 31
0.0
  0
LWPOLYLINE
  5
137A
330
1F
100
AcDbEntity
  8
nášlap_vrstvy
100
AcDbPolyline
 90
        3
 70
     0
 43
0.0
 10
2202.576161047167
 20
205.1869532039447
 42
0.00139912452586
 10
2201.682672024777
 20
209.5907796859421
 42
0.0065712046643719
 10
2201.332246255013
 20
211.1869532039447
  0
LWPOLYLINE
  5
137B
330
1F
100
AcDbEntity
  8
nášlap_vrstvy
100
AcDbPolyline
 90
        2
 70
     0
 43
0.0
 10
2204.141237200078
 20
193.1869532039447
 10
2206.611342657212
 20
194.4229099392826
  0
LWPOLYLINE
  5
137C
330
1F
100
AcDbEntity
  8
nášlap_vrstvy
100
AcDbPolyline
 90
        3
 70
     0
 43
0.0
 10
2204.522566350839
 20
193.1869532039447
 42
0.0327520985396081
 10
2203.819028089365
 20
198.8390471501581
 42
0.0001103000883317
 10
2203.75228538661
 20
199.1869532039447
 42
0.0001103000883317
  0
LINE
  5
137D
330
1F
100
AcDbEntity
  8
nášlap_vrstvy
100
AcDbLine
 10
2198.611342657208
 20
199.1869532039447
 30
0.0
 11
2206.611342657212
 21
199.1869532039447
 31
0.0
  0
LINE
  5
137E
330
1F
100
AcDbEntity
  8
nášlap_vrstvy
100
AcDbLine
 10
2206.611342657212
 20
199.1869532039447
 30
0.0
 11
2206.611342657212
 21
193.1869532039447
 31
0.0
  0
LWPOLYLINE
  5
137F
330
1F
100
AcDbEntity
  8
nášlap_vrstvy
100
AcDbPolyline
 90
        4
 70
     0
 43
0.0
 10
2220.666626105634
 20
193.1869532039447
 42
-0.0334776267545482
 10
2221.103903900341
 20
197.2339281326815
 42
-0.0091133963862869
 10
2223.581508225259
 20
209.9256579181412
 42
-0.007828075361276
 10
2223.872407360417
 20
211.1869532039447
  0
LWPOLYLINE
  5
1380
330
1F
100
AcDbEntity
  8
nášlap_vrstvy
100
AcDbPolyline
 90
        3
 70
     0
 43
0.0
 10
2271.750161475077
 20
193.1869532039447
 10
2257.958113548437
 20
200.0880247674315
 10
2249.791008899312
 20
208.2693264685251
  0
LWPOLYLINE
  5
1381
330
1F
100
AcDbEntity
  8
nášlap_vrstvy
100
AcDbPolyline
 90
        8
 70
     0
 43
0.0
 10
2258.99963371097
 20
193.1869532039447
 42
-0.0217273703039143
 10
2261.197303971479
 20
198.2226435414224
 42
-0.0882970623535771
 10
2262.834525891573
 20
200.4630125922224
 42
-0.0171636441953577
 10
2265.64788995343
 20
202.9769299474676
 42
-0.0157521173632038
 10
2268.886744790467
 20
205.5084259999741
 42
-0.0073640874174249
 10
2273.520394146788
 20
208.7968274257102
 42
-0.0194185739168057
 10
2275.342437466465
 20
209.9483964249914
 42
-0.0229547400386702
 10
2277.72789553048
 20
211.1869532039447
  0
LWPOLYLINE
  5
1382
330
1F
100
AcDbEntity
  8
nášlap_vrstvy
100
AcDbPolyline
 90
        6
 70
     0
 43
0.0
 10
2249.626829703168
 20
193.1869532039447
 42
-0.0121757200102759
 10
2250.996819416829
 20
197.858870536412
 42
-0.0457786284636091
 10
2252.204842306444
 20
200.7074809192884
 42
-0.0295006114745606
 10
2254.620902760744
 20
204.6343801326904
 42
-0.0258674098621065
 10
2257.853578074708
 20
208.7801602114443
 42
-0.0093759062953949
 10
2260.019390254365
 20
211.1869532039447
  0
LWPOLYLINE
  5
1383
330
1F
100
AcDbEntity
  8
nášlap_vrstvy
100
AcDbPolyline
 90
        5
 70
     0
 43
0.0
 10
2230.910764480428
 20
193.1869532039447
 42
-0.0133579731639958
 10
2231.297574969456
 20
195.7047554915
 42
-0.0072443097182286
 10
2233.417571916914
 20
206.515646386407
 42
-0.0219777111230329
 10
2234.323684418898
 20
210.0337596422425
 42
-0.0092752982622242
 10
2234.698911380845
 20
211.1869532039447
  0
LWPOLYLINE
  5
1384
330
1F
100
AcDbEntity
  8
nášlap_vrstvy
100
AcDbPolyline
 90
        4
 70
     0
 43
0.0
 10
2254.334089030039
 20
193.1869532039447
 10
2235.424501110927
 20
201.9021518237161
 10
2218.646610539709
 20
204.6092960864072
 10
2207.522451922949
 20
205.0534338636173
  0
LWPOLYLINE
  5
1385
330
1F
100
AcDbEntity
  8
nášlap_vrstvy
100
AcDbPolyline
 90
        4
 70
     0
 43
0.0
 10
2240.816368354324
 20
193.1869532039447
 42
-0.0186324019486548
 10
2244.184737726431
 20
204.8820648221692
 42
-0.0582629403736403
 10
2245.844237594512
 20
208.4618990211049
 42
-0.0146402521923566
 10
2247.628645576097
 20
211.1869532039447
  0
LWPOLYLINE
  5
1386
330
1F
100
AcDbEntity
  8
nášlap_vrstvy
100
AcDbPolyline
 90
        3
 70
     0
 43
0.0
 10
2211.518996160259
 20
205.1869532039447
 42
-0.00139912452586
 10
2212.412485182649
 20
209.5907796859421
 42
-0.0065712046643719
 10
2212.762910952413
 20
211.1869532039447
  0
LWPOLYLINE
  5
1387
330
1F
100
AcDbEntity
  8
nášlap_vrstvy
100
AcDbPolyline
 90
        3
 70
     0
 43
0.0
 10
2209.572590856587
 20
193.1869532039447
 42
-0.0327520985396081
 10
2210.276129118061
 20
198.8390471501581
 42
-0.0020140331156959
 10
2211.518996160259
 20
205.1869532039447
 42
-0.0001103000883317
  0
POLYLINE
  5
1388
330
1F
100
AcDbEntity
  8
nášlap_vrstvy
100
AcDb2dPolyline
 66
     1
 10
0.0
 20
0.0
 30
0.0
  0
VERTEX
  5
1389
330
1388
100
AcDbEntity
  8
nášlap_vrstvy
100
AcDbVertex
100
AcDb2dVertex
 10
2267.351685098285
 20
193.1869532039447
 30
0.0
 42
-0.0502247168465557
  0
VERTEX
  5
138A
330
1388
100
AcDbEntity
  8
nášlap_vrstvy
100
AcDbVertex
100
AcDb2dVertex
 10
2268.95073227445
 20
195.1944238766675
 30
0.0
 42
-0.0274923553235744
  0
VERTEX
  5
138B
330
1388
100
AcDbEntity
  8
nášlap_vrstvy
100
AcDbVertex
100
AcDb2dVertex
 10
2271.548038005003
 20
197.5794991998057
 30
0.0
 42
-0.0178170165843964
  0
VERTEX
  5
138C
330
1388
100
AcDbEntity
  8
nášlap_vrstvy
100
AcDbVertex
100
AcDb2dVertex
 10
2273.652796518097
 20
199.1869532039447
 30
0.0
 42
-0.0272796991712396
  0
SEQEND
  5
138D
330
1388
100
AcDbEntity
  8
nášlap_vrstvy
  0
LWPOLYLINE
  5
138E
330
1F
100
AcDbEntity
  8
nášlap_vrstvy
100
AcDbPolyline
 90
        2
 70
     0
 43
0.0
 10
2209.953920007349
 20
193.1869532039447
 10
2207.483814550215
 20
194.4229099392826
  0
LINE
  5
138F
330
1F
100
AcDbEntity
  8
nášlap_vrstvy
100
AcDbLine
 10
2207.522451922956
 20
200.021650427366
 30
0.0
 11
2207.522451922956
 21
193.1869532039447
 31
0.0
  0
LINE
  5
1390
330
1F
100
AcDbEntity
  8
nášlap_vrstvy
100
AcDbLine
 10
2199.865993908487
 20
200.021650427366
 30
0.0
 11
2207.522451922956
 21
200.021650427366
 31
0.0
  0
LINE
  5
1391
330
1F
100
AcDbEntity
  8
nášlap_vrstvy
100
AcDbLine
 10
2207.522451922949
 20
204.3660381398569
 30
0.0
 11
2199.865993908487
 21
204.3660381398569
 31
0.0
  0
LINE
  5
1392
330
1F
100
AcDbEntity
  8
nášlap_vrstvy
100
AcDbLine
 10
2207.522451922952
 20
211.1869532039447
 30
0.0
 11
2207.522451922949
 21
204.3660381398569
 31
0.0
  0
LINE
  5
1393
330
1F
100
AcDbEntity
  8
nášlap_vrstvy
100
AcDbLine
 10
2199.865993908487
 20
204.3660381398569
 30
0.0
 11
2199.865993908487
 21
200.021650427366
 31
0.0
  0
LINE
  5
1394
330
1F
100
AcDbEntity
  8
nášlap_vrstvy
100
AcDbLine
 10
2282.522451922952
 20
211.1869532039447
 30
0.0
 11
2282.522451922949
 21
204.3660381398569
 31
0.0
  0
LINE
  5
1395
330
1F
100
AcDbEntity
  8
nášlap_vrstvy
100
AcDbLine
 10
2282.522451922949
 20
204.3660381398569
 30
0.0
 11
2274.865993908487
 21
204.3660381398569
 31
0.0
  0
LINE
  5
1396
330
1F
100
AcDbEntity
  8
nášlap_vrstvy
100
AcDbLine
 10
2274.865993908487
 20
204.3660381398569
 30
0.0
 11
2274.865993908487
 21
200.021650427366
 31
0.0
  0
LINE
  5
1397
330
1F
100
AcDbEntity
  8
nášlap_vrstvy
100
AcDbLine
 10
2274.865993908487
 20
200.021650427366
 30
0.0
 11
2282.522451922956
 21
200.021650427366
 31
0.0
  0
LINE
  5
1398
330
1F
100
AcDbEntity
  8
nášlap_vrstvy
100
AcDbLine
 10
2282.522451922956
 20
200.021650427366
 30
0.0
 11
2282.522451922956
 21
193.1869532039447
 31
0.0
  0
LINE
  5
1399
330
1F
100
AcDbEntity
  8
nášlap_vrstvy
100
AcDbLine
 10
2281.611342657212
 20
211.1869532039447
 30
0.0
 11
2281.611342657212
 21
205.1869532039447
 31
0.0
  0
LINE
  5
139A
330
1F
100
AcDbEntity
  8
nášlap_vrstvy
100
AcDbLine
 10
2281.611342657212
 20
205.1869532039447
 30
0.0
 11
2273.611342657209
 21
205.1869532039447
 31
0.0
  0
LINE
  5
139B
330
1F
100
AcDbEntity
  8
nášlap_vrstvy
100
AcDbLine
 10
2273.611342657212
 20
205.1869532039447
 30
0.0
 11
2273.611342657212
 21
199.1869532039447
 31
0.0
  0
LINE
  5
139C
330
1F
100
AcDbEntity
  8
nášlap_vrstvy
100
AcDbLine
 10
2273.611342657209
 20
199.1869532039447
 30
0.0
 11
2281.611342657212
 21
199.1869532039447
 31
0.0
  0
LINE
  5
139D
330
1F
100
AcDbEntity
  8
nášlap_vrstvy
100
AcDbLine
 10
2281.611342657212
 20
199.1869532039447
 30
0.0
 11
2281.611342657212
 21
193.1869532039447
 31
0.0
  0
POLYLINE
  5
139E
330
1F
100
AcDbEntity
  8
nášlap_vrstvy
100
AcDb2dPolyline
 66
     1
 10
0.0
 20
0.0
 30
0.0
  0
VERTEX
  5
139F
330
139E
100
AcDbEntity
  8
nášlap_vrstvy
100
AcDbVertex
100
AcDb2dVertex
 10
2287.690326159605
 20
193.1869532039447
 30
0.0
 42
0.0094186890201653
  0
VERTEX
  5
13A0
330
139E
100
AcDbEntity
  8
nášlap_vrstvy
100
AcDbVertex
100
AcDb2dVertex
 10
2287.343527596731
 20
193.3456260747127
 30
0.0
 42
0.0322692699774654
  0
VERTEX
  5
13A1
330
139E
100
AcDbEntity
  8
nášlap_vrstvy
100
AcDbVertex
100
AcDb2dVertex
 10
2284.452173415641
 20
194.3871495761134
 30
0.0
 42
0.0276160659512937
  0
VERTEX
  5
13A2
330
139E
100
AcDbEntity
  8
nášlap_vrstvy
100
AcDbVertex
100
AcDb2dVertex
 10
2283.596596977353
 20
194.5838850050579
 30
0.0
 42
0.0126891984598699
  0
VERTEX
  5
13A3
330
139E
100
AcDbEntity
  8
nášlap_vrstvy
100
AcDbVertex
100
AcDb2dVertex
 10
2282.673428581562
 20
194.7190873945994
 30
0.0
  0
SEQEND
  5
13A4
330
139E
100
AcDbEntity
  8
nášlap_vrstvy
  0
POLYLINE
  5
13A5
330
1F
100
AcDbEntity
  8
nášlap_vrstvy
100
AcDb2dPolyline
 66
     1
 10
0.0
 20
0.0
 30
0.0
  0
VERTEX
  5
13A6
330
13A5
100
AcDbEntity
  8
nášlap_vrstvy
100
AcDbVertex
100
AcDb2dVertex
 10
2276.404831047821
 20
193.1869532039447
 30
0.0
 42
-0.0094186890201653
  0
VERTEX
  5
13A7
330
13A5
100
AcDbEntity
  8
nášlap_vrstvy
100
AcDbVertex
100
AcDb2dVertex
 10
2276.751629610695
 20
193.3456260747127
 30
0.0
 42
-0.0322692699774654
  0
VERTEX
  5
13A8
330
13A5
100
AcDbEntity
  8
nášlap_vrstvy
100
AcDbVertex
100
AcDb2dVertex
 10
2279.642983791786
 20
194.3871495761134
 30
0.0
 42
-0.0276160659512937
  0
VERTEX
  5
13A9
330
13A5
100
AcDbEntity
  8
nášlap_vrstvy
100
AcDbVertex
100
AcDb2dVertex
 10
2280.498560230073
 20
194.5838850050579
 30
0.0
 42
-0.0126891984598699
  0
VERTEX
  5
13AA
330
13A5
100
AcDbEntity
  8
nášlap_vrstvy
100
AcDbVertex
100
AcDb2dVertex
 10
2281.421728625864
 20
194.7190873945994
 30
0.0
  0
SEQEND
  5
13AB
330
13A5
100
AcDbEntity
  8
nášlap_vrstvy
  0
LWPOLYLINE
  5
13AC
330
1F
100
AcDbEntity
  8
nášlap_vrstvy
100
AcDbPolyline
 90
        6
 70
     0
 43
0.0
 10
2314.468327504259
 20
193.1869532039447
 42
0.0121757200102759
 10
2313.098337790598
 20
197.858870536412
 42
0.0457786284636091
 10
2311.890314900982
 20
200.7074809192884
 42
0.0295006114745606
 10
2309.474254446683
 20
204.6343801326904
 42
0.0258674098621065
 10
2306.241579132719
 20
208.7801602114443
 42
0.0093759062953949
 10
2304.075766953061
 20
211.1869532039447
  0
LWPOLYLINE
  5
13AD
330
1F
100
AcDbEntity
  8
nášlap_vrstvy
100
AcDbPolyline
 90
        3
 70
     0
 43
0.0
 10
2292.34499573235
 20
193.1869532039447
 10
2306.13704365899
 20
200.0880247674315
 10
2314.304148308115
 20
208.2693264685251
  0
LWPOLYLINE
  5
13AE
330
1F
100
AcDbEntity
  8
nášlap_vrstvy
100
AcDbPolyline
 90
        8
 70
     0
 43
0.0
 10
2305.095523496457
 20
193.1869532039447
 42
0.0217273703039143
 10
2302.897853235947
 20
198.2226435414224
 42
0.0882970623535771
 10
2301.260631315854
 20
200.4630125922224
 42
0.0171636441953577
 10
2298.447267253996
 20
202.9769299474676
 42
0.0157521173632038
 10
2295.20841241696
 20
205.5084259999741
 42
0.0073640874174249
 10
2290.574763060639
 20
208.7968274257102
 42
0.0194185739168057
 10
2288.752719740962
 20
209.9483964249914
 42
0.0229547400386702
 10
2286.367261676947
 20
211.1869532039447
  0
POLYLINE
  5
13AF
330
1F
100
AcDbEntity
  8
nášlap_vrstvy
100
AcDb2dPolyline
 66
     1
 10
0.0
 20
0.0
 30
0.0
  0
VERTEX
  5
13B0
330
13AF
100
AcDbEntity
  8
nášlap_vrstvy
100
AcDbVertex
100
AcDb2dVertex
 10
2296.743472109141
 20
193.1869532039447
 30
0.0
 42
0.0502247168465557
  0
VERTEX
  5
13B1
330
13AF
100
AcDbEntity
  8
nášlap_vrstvy
100
AcDbVertex
100
AcDb2dVertex
 10
2295.144424932976
 20
195.1944238766675
 30
0.0
 42
0.0274923553235744
  0
VERTEX
  5
13B2
330
13AF
100
AcDbEntity
  8
nášlap_vrstvy
100
AcDbVertex
100
AcDb2dVertex
 10
2292.547119202424
 20
197.5794991998057
 30
0.0
 42
0.0255412025538677
  0
VERTEX
  5
13B3
330
13AF
100
AcDbEntity
  8
nášlap_vrstvy
100
AcDbVertex
100
AcDb2dVertex
 10
2289.495689164712
 20
199.8362128768214
 30
0.0
 42
0.0272796991712396
  0
VERTEX
  5
13B4
330
13AF
100
AcDbEntity
  8
nášlap_vrstvy
100
AcDbVertex
100
AcDb2dVertex
 10
2285.382690011527
 20
202.2525487584873
 30
0.0
 42
0.056967459841729
  0
VERTEX
  5
13B5
330
13AF
100
AcDbEntity
  8
nášlap_vrstvy
100
AcDbVertex
100
AcDb2dVertex
 10
2283.241742730795
 20
203.0652845936868
 30
0.0
 42
0.0373408083348504
  0
VERTEX
  5
13B6
330
13AF
100
AcDbEntity
  8
nášlap_vrstvy
100
AcDbVertex
100
AcDb2dVertex
 10
2283.019388355322
 20
203.1044501346343
 30
0.0
 42
0.0052305969362967
  0
VERTEX
  5
13B7
330
13AF
100
AcDbEntity
  8
nášlap_vrstvy
100
AcDbVertex
100
AcDb2dVertex
 10
2282.673428581562
 20
203.1354071015387
 30
0.0
  0
SEQEND
  5
13B8
330
13AF
100
AcDbEntity
  8
nášlap_vrstvy
  0
HATCH
  5
13BC
330
1F
100
AcDbEntity
  8
nášlap_vrstvy
100
AcDbHatch
 10
0.0
 20
0.0
 30
0.0
210
0.0
220
0.0
230
1.0
  2
SOLID
 70
     1
 71
     0
 91
        1
 92
        7
 72
     0
 73
     1
 93
        4
 10
2474.246305669476
 20
187.8090628104648
 10
2462.425439314557
 20
187.8090628104648
 10
2462.425439314557
 20
186.3090628104648
 10
2474.246305669476
 20
186.3090628104648
 97
        0
 75
     0
 76
     1
 47
0.1901250437635136
 98
        1
 10
2467.104336693727
 20
187.4006570349258
  0
LWPOLYLINE
  5
13BD
330
1F
100
AcDbEntity
  8
nášlap_vrstvy
100
AcDbPolyline
 90
        4
 70
     0
 43
0.0
 10
2473.278788853102
 20
193.1869532039447
 42
0.0186324019486548
 10
2469.910419480996
 20
204.8820648221692
 42
0.0582629403736403
 10
2468.250919612914
 20
208.4618990211049
 42
0.0146402521923566
 10
2466.46651163133
 20
211.1869532039447
  0
LWPOLYLINE
  5
13BE
330
1F
100
AcDbEntity
  8
nášlap_vrstvy
100
AcDbPolyline
 90
        4
 70
     0
 43
0.0
 10
2458.674403664507
 20
192.6861227731962
 10
2478.6706560965
 20
201.9021518237161
 10
2495.448546667718
 20
204.6092960864072
 10
2498.712157915423
 20
204.7395974507774
  0
LINE
  5
13BF
330
1F
100
AcDbEntity
  8
CETRIS
100
AcDbLine
 10
2394.396613255409
 20
174.3090628104653
 30
0.0
 11
2394.396613255409
 21
162.3090628104653
 31
0.0
  0
HATCH
  5
13C0
330
1F
100
AcDbEntity
  8
nášlap_vrstvy
100
AcDbHatch
 10
0.0
 20
0.0
 30
0.0
210
0.0
220
0.0
230
1.0
  2
SOLID
 70
     1
 71
     0
 91
        1
 92
        7
 72
     0
 73
     1
 93
        4
 10
2403.321107539971
 20
187.8090628104648
 10
2391.500241185055
 20
187.8090628104648
 10
2391.500241185051
 20
186.3090628104648
 10
2403.321107539971
 20
186.3090628104648
 97
        0
 75
     0
 76
     1
 47
0.1901250437635136
 98
        1
 10
2396.179138564225
 20
187.4006570349258
  0
LWPOLYLINE
  5
13C1
330
1F
100
AcDbEntity
  8
nášlap_vrstvy
100
AcDbPolyline
 90
        4
 70
     1
 43
0.0
 10
2403.321107539971
 20
187.8090628104648
 10
2391.500241185051
 20
187.8090628104648
 10
2391.500241185051
 20
186.3090628104648
 10
2403.321107539971
 20
186.3090628104648
  0
HATCH
  5
13C2
330
1F
100
AcDbEntity
  8
nášlap_vrstvy
100
AcDbHatch
 10
0.0
 20
0.0
 30
0.0
210
0.0
220
0.0
230
1.0
  2
SOLID
 70
     1
 71
     0
 91
        1
 92
        7
 72
     0
 73
     1
 93
        4
 10
2426.962840249806
 20
187.8090628104648
 10
2415.141973894886
 20
187.8090628104648
 10
2415.141973894886
 20
186.3090628104648
 10
2426.962840249806
 20
186.3090628104648
 97
        0
 75
     0
 76
     1
 47
0.1901250437635136
 98
        1
 10
2419.820871274056
 20
187.4006570349258
  0
LWPOLYLINE
  5
13C3
330
1F
100
AcDbEntity
  8
nášlap_vrstvy
100
AcDbPolyline
 90
        4
 70
     1
 43
0.0
 10
2426.962840249802
 20
187.8090628104648
 10
2415.141973894886
 20
187.8090628104648
 10
2415.141973894886
 20
186.3090628104648
 10
2426.962840249802
 20
186.3090628104648
  0
HATCH
  5
13C4
330
1F
100
AcDbEntity
  8
nášlap_vrstvy
100
AcDbHatch
 10
0.0
 20
0.0
 30
0.0
210
0.0
220
0.0
230
1.0
  2
SOLID
 70
     1
 71
     0
 91
        1
 92
        7
 72
     0
 73
     1
 93
        4
 10
2450.604572959641
 20
187.8090628104648
 10
2438.783706604725
 20
187.8090628104648
 10
2438.783706604722
 20
186.3090628104648
 10
2450.604572959641
 20
186.3090628104648
 97
        0
 75
     0
 76
     1
 47
0.1901250437635136
 98
        1
 10
2443.462603983895
 20
187.4006570349258
  0
LWPOLYLINE
  5
13C5
330
1F
100
AcDbEntity
  8
nášlap_vrstvy
100
AcDbPolyline
 90
        4
 70
     1
 43
0.0
 10
2450.604572959641
 20
187.8090628104648
 10
2438.783706604722
 20
187.8090628104648
 10
2438.783706604722
 20
186.3090628104648
 10
2450.604572959641
 20
186.3090628104648
  0
HATCH
  5
13C6
330
1F
100
AcDbEntity
  8
nášlap_vrstvy
100
AcDbHatch
 10
0.0
 20
0.0
 30
0.0
210
0.0
220
0.0
230
1.0
  2
SOLID
 70
     1
 71
     0
 91
        1
 92
        7
 72
     0
 73
     1
 93
        4
 10
2332.395909410465
 20
187.8090628104648
 10
2320.575043055546
 20
187.8090628104648
 10
2320.575043055546
 20
186.3090628104648
 10
2332.395909410465
 20
186.3090628104648
 97
        0
 75
     0
 76
     1
 47
0.1901250437635136
 98
        1
 10
2325.253940434715
 20
187.4006570349258
  0
LWPOLYLINE
  5
13C7
330
1F
100
AcDbEntity
  8
nášlap_vrstvy
100
AcDbPolyline
 90
        4
 70
     1
 43
0.0
 10
2332.395909410461
 20
187.8090628104648
 10
2320.575043055546
 20
187.8090628104648
 10
2320.575043055546
 20
186.3090628104648
 10
2332.395909410461
 20
186.3090628104648
  0
HATCH
  5
13C8
330
1F
100
AcDbEntity
  8
nášlap_vrstvy
100
AcDbHatch
 10
0.0
 20
0.0
 30
0.0
210
0.0
220
0.0
230
1.0
  2
SOLID
 70
     1
 71
     0
 91
        1
 92
        7
 72
     0
 73
     1
 93
        4
 10
2356.0376421203
 20
187.8090628104648
 10
2344.216775765385
 20
187.8090628104648
 10
2344.216775765381
 20
186.3090628104648
 10
2356.0376421203
 20
186.3090628104648
 97
        0
 75
     0
 76
     1
 47
0.1901250437635136
 98
        1
 10
2348.895673144554
 20
187.4006570349258
  0
LWPOLYLINE
  5
13C9
330
1F
100
AcDbEntity
  8
nášlap_vrstvy
100
AcDbPolyline
 90
        4
 70
     1
 43
0.0
 10
2356.0376421203
 20
187.8090628104648
 10
2344.216775765381
 20
187.8090628104648
 10
2344.216775765381
 20
186.3090628104648
 10
2356.0376421203
 20
186.3090628104648
  0
HATCH
  5
13CA
330
1F
100
AcDbEntity
  8
nášlap_vrstvy
100
AcDbHatch
 10
0.0
 20
0.0
 30
0.0
210
0.0
220
0.0
230
1.0
  2
SOLID
 70
     1
 71
     0
 91
        1
 92
        7
 72
     0
 73
     1
 93
        4
 10
2379.679374830135
 20
187.8090628104648
 10
2367.858508475216
 20
187.8090628104648
 10
2367.858508475216
 20
186.3090628104648
 10
2379.679374830135
 20
186.3090628104648
 97
        0
 75
     0
 76
     1
 47
0.1901250437635136
 98
        1
 10
2372.537405854386
 20
187.4006570349258
  0
LWPOLYLINE
  5
13CB
330
1F
100
AcDbEntity
  8
nášlap_vrstvy
100
AcDbPolyline
 90
        4
 70
     1
 43
0.0
 10
2379.679374830132
 20
187.8090628104648
 10
2367.858508475216
 20
187.8090628104648
 10
2367.858508475216
 20
186.3090628104648
 10
2379.679374830132
 20
186.3090628104648
  0
HATCH
  5
13CC
330
1F
100
AcDbEntity
  8
STAVBA OBRYS
100
AcDbHatch
 10
0.0
 20
0.0
 30
0.0
210
0.0
220
0.0
230
1.0
  2
SOLID
 70
     1
 71
     0
 91
        1
 92
        7
 72
     0
 73
     1
 93
        4
 10
2372.613559231293
 20
122.3090628104648
 10
2348.971826521458
 20
122.3090628104648
 10
2348.971826521454
 20
119.3090628104648
 10
2372.613559231293
 20
119.3090628104648
 97
        0
 75
     0
 76
     1
 47
0.1901250437635136
 98
        1
 10
2358.329621279798
 20
121.492251259385
  0
LWPOLYLINE
  5
13CD
330
1F
100
AcDbEntity
  8
STAVBA OBRYS
100
AcDbPolyline
 90
        4
 70
     1
 43
0.0
 10
2372.61355923129
 20
122.3090628104648
 10
2348.971826521454
 20
122.3090628104648
 10
2348.971826521454
 20
119.3090628104648
 10
2372.61355923129
 20
119.3090628104648
  0
HATCH
  5
13CE
330
1F
100
AcDbEntity
  8
STAVBA OBRYS
100
AcDbHatch
 10
0.0
 20
0.0
 30
0.0
210
0.0
220
0.0
230
1.0
  2
SOLID
 70
     1
 71
     0
 91
        1
 92
        7
 72
     0
 73
     1
 93
        4
 10
2419.897024650964
 20
122.3090628104648
 10
2396.255291941128
 20
122.3090628104648
 10
2396.255291941125
 20
119.3090628104648
 10
2419.897024650964
 20
119.3090628104648
 97
        0
 75
     0
 76
     1
 47
0.1901250437635136
 98
        1
 10
2405.613086699468
 20
121.492251259385
  0
LWPOLYLINE
  5
13CF
330
1F
100
AcDbEntity
  8
STAVBA OBRYS
100
AcDbPolyline
 90
        4
 70
     1
 43
0.0
 10
2419.89702465096
 20
122.3090628104648
 10
2396.255291941125
 20
122.3090628104648
 10
2396.255291941125
 20
119.3090628104648
 10
2419.89702465096
 20
119.3090628104648
  0
HATCH
  5
13D0
330
1F
100
AcDbEntity
  8
STAVBA OBRYS
100
AcDbHatch
 10
0.0
 20
0.0
 30
0.0
210
0.0
220
0.0
230
1.0
  2
SOLID
 70
     1
 71
     0
 91
        1
 92
        7
 72
     0
 73
     1
 93
        4
 10
2467.180490070634
 20
122.3090628104648
 10
2443.538757360799
 20
122.3090628104648
 10
2443.538757360795
 20
119.3090628104648
 10
2467.180490070634
 20
119.3090628104648
 97
        0
 75
     0
 76
     1
 47
0.1901250437635136
 98
        1
 10
2452.896552119139
 20
121.492251259385
  0
LWPOLYLINE
  5
13D1
330
1F
100
AcDbEntity
  8
STAVBA OBRYS
100
AcDbPolyline
 90
        4
 70
     1
 43
0.0
 10
2467.18049007063
 20
122.3090628104648
 10
2443.538757360795
 20
122.3090628104648
 10
2443.538757360795
 20
119.3090628104648
 10
2467.18049007063
 20
119.3090628104648
  0
LINE
  5
13D2
330
1F
100
AcDbEntity
  8
POPIS
100
AcDbLine
 10
2419.373366979013
 20
258.602521563652
 30
0.0
 11
2419.373366979013
 21
63.8567790251011
 31
0.0
  0
LINE
  5
13D3
330
1F
100
AcDbEntity
  8
POPIS
100
AcDbLine
 10
2370.284851514727
 20
258.602521563652
 30
0.0
 11
2370.284851514727
 21
122.3090628104648
 31
0.0
  0
INSERT
  5
13D4
330
1F
100
AcDbEntity
  8
POPIS
100
AcDbBlockReference
  2
E_PUNKT
 10
2370.255783183853
 20
122.3366731860908
 30
0.0
 50
270.0
  0
INSERT
  5
13D5
330
1F
100
AcDbEntity
  8
POPIS
100
AcDbBlockReference
  2
E_PUNKT
 10
2419.344298648139
 20
63.88438940072887
 30
0.0
 50
270.0
  0
LWPOLYLINE
  5
13D6
330
1F
100
AcDbEntity
  8
nášlap_vrstvy
100
AcDbPolyline
 90
        5
 70
     0
 43
0.0
 10
2333.184392726999
 20
193.1869532039447
 42
0.0133579731639958
 10
2332.79758223797
 20
195.7047554915
 42
0.0072443097182286
 10
2330.677585290512
 20
206.515646386407
 42
0.0219777111230329
 10
2329.771472788529
 20
210.0337596422425
 42
0.0092752982622242
 10
2329.396245826582
 20
211.1869532039447
  0
LWPOLYLINE
  5
13D7
330
1F
100
AcDbEntity
  8
nášlap_vrstvy
100
AcDbPolyline
 90
        4
 70
     0
 43
0.0
 10
2343.428531101792
 20
193.1869532039447
 42
0.0334776267545482
 10
2342.991253307086
 20
197.2339281326815
 42
0.0091133963862869
 10
2340.513648982167
 20
209.9256579181412
 42
0.007828075361276
 10
2340.222749847009
 20
211.1869532039447
  0
LINE
  5
13D8
330
1F
100
AcDbEntity
  8
nášlap_vrstvy
100
AcDbLine
 10
2348.611342657212
 20
205.1869532039447
 30
0.0
 11
2348.611342657212
 21
199.1869532039447
 31
0.0
  0
LINE
  5
13D9
330
1F
100
AcDbEntity
  8
nášlap_vrstvy
100
AcDbLine
 10
2356.611342657212
 20
205.1869532039447
 30
0.0
 11
2348.611342657208
 21
205.1869532039447
 31
0.0
  0
LINE
  5
13DA
330
1F
100
AcDbEntity
  8
nášlap_vrstvy
100
AcDbLine
 10
2356.611342657212
 20
211.1869532039447
 30
0.0
 11
2356.611342657212
 21
205.1869532039447
 31
0.0
  0
LWPOLYLINE
  5
13DB
330
1F
100
AcDbEntity
  8
nášlap_vrstvy
100
AcDbPolyline
 90
        3
 70
     0
 43
0.0
 10
2352.576161047167
 20
205.1869532039447
 42
0.00139912452586
 10
2351.682672024777
 20
209.5907796859421
 42
0.0065712046643719
 10
2351.332246255013
 20
211.1869532039447
  0
LWPOLYLINE
  5
13DC
330
1F
100
AcDbEntity
  8
nášlap_vrstvy
100
AcDbPolyline
 90
        2
 70
     0
 43
0.0
 10
2354.141237200078
 20
193.1869532039447
 10
2356.611342657212
 20
194.4229099392826
  0
LWPOLYLINE
  5
13DD
330
1F
100
AcDbEntity
  8
nášlap_vrstvy
100
AcDbPolyline
 90
        3
 70
     0
 43
0.0
 10
2354.522566350839
 20
193.1869532039447
 42
0.0327520985396081
 10
2353.819028089365
 20
198.8390471501581
 42
0.0001103000883317
 10
2353.75228538661
 20
199.1869532039447
 42
0.0001103000883317
  0
LINE
  5
13DE
330
1F
100
AcDbEntity
  8
nášlap_vrstvy
100
AcDbLine
 10
2348.611342657208
 20
199.1869532039447
 30
0.0
 11
2356.611342657212
 21
199.1869532039447
 31
0.0
  0
LINE
  5
13DF
330
1F
100
AcDbEntity
  8
nášlap_vrstvy
100
AcDbLine
 10
2356.611342657212
 20
199.1869532039447
 30
0.0
 11
2356.611342657212
 21
193.1869532039447
 31
0.0
  0
LWPOLYLINE
  5
13E0
330
1F
100
AcDbEntity
  8
nášlap_vrstvy
100
AcDbPolyline
 90
        4
 70
     0
 43
0.0
 10
2370.666626105634
 20
193.1869532039447
 42
-0.0334776267545482
 10
2371.103903900341
 20
197.2339281326815
 42
-0.0091133963862869
 10
2373.581508225259
 20
209.9256579181412
 42
-0.007828075361276
 10
2373.872407360417
 20
211.1869532039447
  0
LWPOLYLINE
  5
13E1
330
1F
100
AcDbEntity
  8
nášlap_vrstvy
100
AcDbPolyline
 90
        3
 70
     0
 43
0.0
 10
2421.750161475077
 20
193.1869532039447
 10
2407.958113548437
 20
200.0880247674315
 10
2399.791008899312
 20
208.2693264685251
  0
LWPOLYLINE
  5
13E2
330
1F
100
AcDbEntity
  8
nášlap_vrstvy
100
AcDbPolyline
 90
        8
 70
     0
 43
0.0
 10
2408.99963371097
 20
193.1869532039447
 42
-0.0217273703039143
 10
2411.19730397148
 20
198.2226435414224
 42
-0.0882970623535771
 10
2412.834525891573
 20
200.4630125922224
 42
-0.0171636441953577
 10
2415.647889953431
 20
202.9769299474676
 42
-0.0157521173632038
 10
2418.886744790467
 20
205.5084259999741
 42
-0.0073640874174249
 10
2423.520394146788
 20
208.7968274257102
 42
-0.0194185739168057
 10
2425.342437466465
 20
209.9483964249914
 42
-0.0229547400386702
 10
2427.727895530479
 20
211.1869532039447
  0
LWPOLYLINE
  5
13E3
330
1F
100
AcDbEntity
  8
nášlap_vrstvy
100
AcDbPolyline
 90
        6
 70
     0
 43
0.0
 10
2399.626829703167
 20
193.1869532039447
 42
-0.0121757200102759
 10
2400.996819416829
 20
197.858870536412
 42
-0.0457786284636091
 10
2402.204842306444
 20
200.7074809192884
 42
-0.0295006114745606
 10
2404.620902760744
 20
204.6343801326904
 42
-0.0258674098621065
 10
2407.853578074708
 20
208.7801602114443
 42
-0.0093759062953949
 10
2410.019390254365
 20
211.1869532039447
  0
LWPOLYLINE
  5
13E4
330
1F
100
AcDbEntity
  8
nášlap_vrstvy
100
AcDbPolyline
 90
        5
 70
     0
 43
0.0
 10
2380.910764480428
 20
193.1869532039447
 42
-0.0133579731639958
 10
2381.297574969456
 20
195.7047554915
 42
-0.0072443097182286
 10
2383.417571916914
 20
206.515646386407
 42
-0.0219777111230329
 10
2384.323684418898
 20
210.0337596422425
 42
-0.0092752982622242
 10
2384.698911380845
 20
211.1869532039447
  0
LWPOLYLINE
  5
13E5
330
1F
100
AcDbEntity
  8
nášlap_vrstvy
100
AcDbPolyline
 90
        4
 70
     0
 43
0.0
 10
2404.334089030039
 20
193.1869532039447
 10
2385.424501110927
 20
201.9021518237161
 10
2368.646610539709
 20
204.6092960864072
 10
2357.522451922949
 20
205.0534338636173
  0
LWPOLYLINE
  5
13E6
330
1F
100
AcDbEntity
  8
nášlap_vrstvy
100
AcDbPolyline
 90
        4
 70
     0
 43
0.0
 10
2390.816368354325
 20
193.1869532039447
 42
-0.0186324019486548
 10
2394.184737726431
 20
204.8820648221692
 42
-0.0582629403736403
 10
2395.844237594512
 20
208.4618990211049
 42
-0.0146402521923566
 10
2397.628645576097
 20
211.1869532039447
  0
LWPOLYLINE
  5
13E7
330
1F
100
AcDbEntity
  8
nášlap_vrstvy
100
AcDbPolyline
 90
        3
 70
     0
 43
0.0
 10
2361.518996160259
 20
205.1869532039447
 42
-0.00139912452586
 10
2362.41248518265
 20
209.5907796859421
 42
-0.0065712046643719
 10
2362.762910952413
 20
211.1869532039447
  0
LWPOLYLINE
  5
13E8
330
1F
100
AcDbEntity
  8
nášlap_vrstvy
100
AcDbPolyline
 90
        3
 70
     0
 43
0.0
 10
2359.572590856588
 20
193.1869532039447
 42
-0.0327520985396081
 10
2360.276129118062
 20
198.8390471501581
 42
-0.0020140331156959
 10
2361.518996160259
 20
205.1869532039447
 42
-0.0001103000883317
  0
POLYLINE
  5
13E9
330
1F
100
AcDbEntity
  8
nášlap_vrstvy
100
AcDb2dPolyline
 66
     1
 10
0.0
 20
0.0
 30
0.0
  0
VERTEX
  5
13EA
330
13E9
100
AcDbEntity
  8
nášlap_vrstvy
100
AcDbVertex
100
AcDb2dVertex
 10
2417.351685098285
 20
193.1869532039447
 30
0.0
 42
-0.0502247168465557
  0
VERTEX
  5
13EB
330
13E9
100
AcDbEntity
  8
nášlap_vrstvy
100
AcDbVertex
100
AcDb2dVertex
 10
2418.950732274451
 20
195.1944238766675
 30
0.0
 42
-0.0274923553235744
  0
VERTEX
  5
13EC
330
13E9
100
AcDbEntity
  8
nášlap_vrstvy
100
AcDbVertex
100
AcDb2dVertex
 10
2421.548038005003
 20
197.5794991998057
 30
0.0
 42
-0.0178170165843964
  0
VERTEX
  5
13ED
330
13E9
100
AcDbEntity
  8
nášlap_vrstvy
100
AcDbVertex
100
AcDb2dVertex
 10
2423.652796518098
 20
199.1869532039447
 30
0.0
 42
-0.0272796991712396
  0
SEQEND
  5
13EE
330
13E9
100
AcDbEntity
  8
nášlap_vrstvy
  0
LWPOLYLINE
  5
13EF
330
1F
100
AcDbEntity
  8
nášlap_vrstvy
100
AcDbPolyline
 90
        2
 70
     0
 43
0.0
 10
2359.953920007348
 20
193.1869532039447
 10
2357.483814550215
 20
194.4229099392826
  0
LINE
  5
13F0
330
1F
100
AcDbEntity
  8
nášlap_vrstvy
100
AcDbLine
 10
2357.522451922956
 20
200.021650427366
 30
0.0
 11
2357.522451922956
 21
193.1869532039447
 31
0.0
  0
LINE
  5
13F1
330
1F
100
AcDbEntity
  8
nášlap_vrstvy
100
AcDbLine
 10
2349.865993908486
 20
200.021650427366
 30
0.0
 11
2357.522451922956
 21
200.021650427366
 31
0.0
  0
LINE
  5
13F2
330
1F
100
AcDbEntity
  8
nášlap_vrstvy
100
AcDbLine
 10
2357.522451922949
 20
204.3660381398569
 30
0.0
 11
2349.865993908486
 21
204.3660381398569
 31
0.0
  0
LINE
  5
13F3
330
1F
100
AcDbEntity
  8
nášlap_vrstvy
100
AcDbLine
 10
2357.522451922953
 20
211.1869532039447
 30
0.0
 11
2357.522451922949
 21
204.3660381398569
 31
0.0
  0
LINE
  5
13F4
330
1F
100
AcDbEntity
  8
nášlap_vrstvy
100
AcDbLine
 10
2349.865993908486
 20
204.3660381398569
 30
0.0
 11
2349.865993908486
 21
200.021650427366
 31
0.0
  0
LINE
  5
13F5
330
1F
100
AcDbEntity
  8
nášlap_vrstvy
100
AcDbLine
 10
2432.522451922952
 20
211.1869532039447
 30
0.0
 11
2432.522451922949
 21
204.3660381398569
 31
0.0
  0
LINE
  5
13F6
330
1F
100
AcDbEntity
  8
nášlap_vrstvy
100
AcDbLine
 10
2432.522451922949
 20
204.3660381398569
 30
0.0
 11
2424.865993908487
 21
204.3660381398569
 31
0.0
  0
LINE
  5
13F7
330
1F
100
AcDbEntity
  8
nášlap_vrstvy
100
AcDbLine
 10
2424.865993908487
 20
204.3660381398569
 30
0.0
 11
2424.865993908487
 21
200.021650427366
 31
0.0
  0
LINE
  5
13F8
330
1F
100
AcDbEntity
  8
nášlap_vrstvy
100
AcDbLine
 10
2424.865993908487
 20
200.021650427366
 30
0.0
 11
2432.522451922956
 21
200.021650427366
 31
0.0
  0
LINE
  5
13F9
330
1F
100
AcDbEntity
  8
nášlap_vrstvy
100
AcDbLine
 10
2432.522451922956
 20
200.021650427366
 30
0.0
 11
2432.522451922956
 21
193.1869532039447
 31
0.0
  0
LINE
  5
13FA
330
1F
100
AcDbEntity
  8
nášlap_vrstvy
100
AcDbLine
 10
2431.611342657212
 20
211.1869532039447
 30
0.0
 11
2431.611342657212
 21
205.1869532039447
 31
0.0
  0
LINE
  5
13FB
330
1F
100
AcDbEntity
  8
nášlap_vrstvy
100
AcDbLine
 10
2431.611342657212
 20
205.1869532039447
 30
0.0
 11
2423.611342657209
 21
205.1869532039447
 31
0.0
  0
LINE
  5
13FC
330
1F
100
AcDbEntity
  8
nášlap_vrstvy
100
AcDbLine
 10
2423.611342657212
 20
205.1869532039447
 30
0.0
 11
2423.611342657212
 21
199.1869532039447
 31
0.0
  0
LINE
  5
13FD
330
1F
100
AcDbEntity
  8
nášlap_vrstvy
100
AcDbLine
 10
2423.611342657209
 20
199.1869532039447
 30
0.0
 11
2431.611342657212
 21
199.1869532039447
 31
0.0
  0
LINE
  5
13FE
330
1F
100
AcDbEntity
  8
nášlap_vrstvy
100
AcDbLine
 10
2431.611342657212
 20
199.1869532039447
 30
0.0
 11
2431.611342657212
 21
193.1869532039447
 31
0.0
  0
POLYLINE
  5
13FF
330
1F
100
AcDbEntity
  8
nášlap_vrstvy
100
AcDb2dPolyline
 66
     1
 10
0.0
 20
0.0
 30
0.0
  0
VERTEX
  5
1400
330
13FF
100
AcDbEntity
  8
nášlap_vrstvy
100
AcDbVertex
100
AcDb2dVertex
 10
2437.690326159605
 20
193.1869532039447
 30
0.0
 42
0.0094186890201653
  0
VERTEX
  5
1401
330
13FF
100
AcDbEntity
  8
nášlap_vrstvy
100
AcDbVertex
100
AcDb2dVertex
 10
2437.343527596731
 20
193.3456260747127
 30
0.0
 42
0.0322692699774654
  0
VERTEX
  5
1402
330
13FF
100
AcDbEntity
  8
nášlap_vrstvy
100
AcDbVertex
100
AcDb2dVertex
 10
2434.452173415641
 20
194.3871495761134
 30
0.0
 42
0.0276160659512937
  0
VERTEX
  5
1403
330
13FF
100
AcDbEntity
  8
nášlap_vrstvy
100
AcDbVertex
100
AcDb2dVertex
 10
2433.596596977354
 20
194.5838850050579
 30
0.0
 42
0.0126891984598699
  0
VERTEX
  5
1404
330
13FF
100
AcDbEntity
  8
nášlap_vrstvy
100
AcDbVertex
100
AcDb2dVertex
 10
2432.673428581562
 20
194.7190873945994
 30
0.0
  0
SEQEND
  5
1405
330
13FF
100
AcDbEntity
  8
nášlap_vrstvy
  0
POLYLINE
  5
1406
330
1F
100
AcDbEntity
  8
nášlap_vrstvy
100
AcDb2dPolyline
 66
     1
 10
0.0
 20
0.0
 30
0.0
  0
VERTEX
  5
1407
330
1406
100
AcDbEntity
  8
nášlap_vrstvy
100
AcDbVertex
100
AcDb2dVertex
 10
2426.404831047821
 20
193.1869532039447
 30
0.0
 42
-0.0094186890201653
  0
VERTEX
  5
1408
330
1406
100
AcDbEntity
  8
nášlap_vrstvy
100
AcDbVertex
100
AcDb2dVertex
 10
2426.751629610695
 20
193.3456260747127
 30
0.0
 42
-0.0322692699774654
  0
VERTEX
  5
1409
330
1406
100
AcDbEntity
  8
nášlap_vrstvy
100
AcDbVertex
100
AcDb2dVertex
 10
2429.642983791786
 20
194.3871495761134
 30
0.0
 42
-0.0276160659512937
  0
VERTEX
  5
140A
330
1406
100
AcDbEntity
  8
nášlap_vrstvy
100
AcDbVertex
100
AcDb2dVertex
 10
2430.498560230073
 20
194.5838850050579
 30
0.0
 42
-0.0126891984598699
  0
VERTEX
  5
140B
330
1406
100
AcDbEntity
  8
nášlap_vrstvy
100
AcDbVertex
100
AcDb2dVertex
 10
2431.421728625865
 20
194.7190873945994
 30
0.0
  0
SEQEND
  5
140C
330
1406
100
AcDbEntity
  8
nášlap_vrstvy
  0
LWPOLYLINE
  5
140D
330
1F
100
AcDbEntity
  8
nášlap_vrstvy
100
AcDbPolyline
 90
        6
 70
     0
 43
0.0
 10
2464.468327504259
 20
193.1869532039447
 42
0.0121757200102759
 10
2463.098337790598
 20
197.858870536412
 42
0.0457786284636091
 10
2461.890314900982
 20
200.7074809192884
 42
0.0295006114745606
 10
2459.474254446683
 20
204.6343801326904
 42
0.0258674098621065
 10
2456.241579132719
 20
208.7801602114443
 42
0.0093759062953949
 10
2454.075766953061
 20
211.1869532039447
  0
LWPOLYLINE
  5
140E
330
1F
100
AcDbEntity
  8
nášlap_vrstvy
100
AcDbPolyline
 90
        3
 70
     0
 43
0.0
 10
2442.34499573235
 20
193.1869532039447
 10
2456.13704365899
 20
200.0880247674315
 10
2464.304148308114
 20
208.2693264685251
  0
LWPOLYLINE
  5
140F
330
1F
100
AcDbEntity
  8
nášlap_vrstvy
100
AcDbPolyline
 90
        8
 70
     0
 43
0.0
 10
2455.095523496457
 20
193.1869532039447
 42
0.0217273703039143
 10
2452.897853235947
 20
198.2226435414224
 42
0.0882970623535771
 10
2451.260631315854
 20
200.4630125922224
 42
0.0171636441953577
 10
2448.447267253996
 20
202.9769299474676
 42
0.0157521173632038
 10
2445.20841241696
 20
205.5084259999741
 42
0.0073640874174249
 10
2440.574763060638
 20
208.7968274257102
 42
0.0194185739168057
 10
2438.752719740962
 20
209.9483964249914
 42
0.0229547400386702
 10
2436.367261676947
 20
211.1869532039447
  0
POLYLINE
  5
1410
330
1F
100
AcDbEntity
  8
nášlap_vrstvy
100
AcDb2dPolyline
 66
     1
 10
0.0
 20
0.0
 30
0.0
  0
VERTEX
  5
1411
330
1410
100
AcDbEntity
  8
nášlap_vrstvy
100
AcDbVertex
100
AcDb2dVertex
 10
2446.743472109142
 20
193.1869532039447
 30
0.0
 42
0.0502247168465557
  0
VERTEX
  5
1412
330
1410
100
AcDbEntity
  8
nášlap_vrstvy
100
AcDbVertex
100
AcDb2dVertex
 10
2445.144424932976
 20
195.1944238766675
 30
0.0
 42
0.0274923553235744
  0
VERTEX
  5
1413
330
1410
100
AcDbEntity
  8
nášlap_vrstvy
100
AcDbVertex
100
AcDb2dVertex
 10
2442.547119202424
 20
197.5794991998057
 30
0.0
 42
0.0255412025538677
  0
VERTEX
  5
1414
330
1410
100
AcDbEntity
  8
nášlap_vrstvy
100
AcDbVertex
100
AcDb2dVertex
 10
2439.495689164713
 20
199.8362128768214
 30
0.0
 42
0.0272796991712396
  0
VERTEX
  5
1415
330
1410
100
AcDbEntity
  8
nášlap_vrstvy
100
AcDbVertex
100
AcDb2dVertex
 10
2435.382690011528
 20
202.2525487584873
 30
0.0
 42
0.056967459841729
  0
VERTEX
  5
1416
330
1410
100
AcDbEntity
  8
nášlap_vrstvy
100
AcDbVertex
100
AcDb2dVertex
 10
2433.241742730796
 20
203.0652845936868
 30
0.0
 42
0.0373408083348504
  0
VERTEX
  5
1417
330
1410
100
AcDbEntity
  8
nášlap_vrstvy
100
AcDbVertex
100
AcDb2dVertex
 10
2433.019388355322
 20
203.1044501346343
 30
0.0
 42
0.0052305969362967
  0
VERTEX
  5
1418
330
1410
100
AcDbEntity
  8
nášlap_vrstvy
100
AcDbVertex
100
AcDb2dVertex
 10
2432.673428581562
 20
203.1354071015387
 30
0.0
  0
SEQEND
  5
1419
330
1410
100
AcDbEntity
  8
nášlap_vrstvy
  0
HATCH
  5
141A
330
1F
100
AcDbEntity
  8
nášlap_vrstvy
100
AcDbHatch
 10
0.0
 20
0.0
 30
0.0
210
0.0
220
0.0
230
1.0
  2
SOLID
 70
     1
 71
     0
 91
        1
 92
        7
 72
     0
 73
     1
 93
        4
 10
2521.529771089147
 20
187.8090628104648
 10
2509.708904734227
 20
187.8090628104648
 10
2509.708904734227
 20
186.3090628104648
 10
2521.529771089147
 20
186.3090628104648
 97
        0
 75
     0
 76
     1
 47
0.1901250437635136
 98
        1
 10
2514.387802113397
 20
187.4006570349258
  0
HATCH
  5
141B
330
1F
100
AcDbEntity
  8
nášlap_vrstvy
100
AcDbHatch
 10
0.0
 20
0.0
 30
0.0
210
0.0
220
0.0
230
1.0
  2
SOLID
 70
     1
 71
     0
 91
        1
 92
        7
 72
     0
 73
     1
 93
        4
 10
2545.171503798982
 20
187.8090628104648
 10
2533.350637444066
 20
187.8090628104648
 10
2533.350637444062
 20
186.3090628104648
 10
2545.171503798982
 20
186.3090628104648
 97
        0
 75
     0
 76
     1
 47
0.1901250437635136
 98
        1
 10
2538.029534823236
 20
187.4006570349258
  0
HATCH
  5
141C
330
1F
100
AcDbEntity
  8
nášlap_vrstvy
100
AcDbHatch
 10
0.0
 20
0.0
 30
0.0
210
0.0
220
0.0
230
1.0
  2
SOLID
 70
     1
 71
     0
 91
        1
 92
        7
 72
     0
 73
     1
 93
        4
 10
2568.813236508817
 20
187.8090628104648
 10
2556.992370153897
 20
187.8090628104648
 10
2556.992370153897
 20
186.3090628104648
 10
2568.813236508817
 20
186.3090628104648
 97
        0
 75
     0
 76
     1
 47
0.1901250437635136
 98
        1
 10
2561.671267533068
 20
187.4006570349258
  0
LWPOLYLINE
  5
141D
330
1F
100
AcDbEntity
  8
nášlap_vrstvy
100
AcDbPolyline
 90
        4
 70
     1
 43
0.0
 10
2521.529771089143
 20
187.8090628104648
 10
2509.708904734227
 20
187.8090628104648
 10
2509.708904734227
 20
186.3090628104648
 10
2521.529771089143
 20
186.3090628104648
  0
HATCH
  5
141E
330
1F
100
AcDbEntity
  8
nášlap_vrstvy
100
AcDbHatch
 10
0.0
 20
0.0
 30
0.0
210
0.0
220
0.0
230
1.0
  2
SOLID
 70
     1
 71
     0
 91
        1
 92
        7
 72
     0
 73
     1
 93
        4
 10
2497.888038379311
 20
187.8090628104648
 10
2486.067172024396
 20
187.8090628104648
 10
2486.067172024392
 20
186.3090628104648
 10
2497.888038379311
 20
186.3090628104648
 97
        0
 75
     0
 76
     1
 47
0.1901250437635136
 98
        1
 10
2490.746069403566
 20
187.4006570349258
  0
LWPOLYLINE
  5
141F
330
1F
100
AcDbEntity
  8
nášlap_vrstvy
100
AcDbPolyline
 90
        4
 70
     1
 43
0.0
 10
2497.888038379311
 20
187.8090628104648
 10
2486.067172024392
 20
187.8090628104648
 10
2486.067172024392
 20
186.3090628104648
 10
2497.888038379311
 20
186.3090628104648
  0
LINE
  5
1420
330
1F
100
AcDbEntity
  8
SPOJOVACÍ
  6
DASHED
100
AcDbLine
 10
2519.845717156634
 20
182.7202027446685
 30
0.0
 11
2520.784636605219
 21
183.9034235639094
 31
0.0
  0
LINE
  5
1421
330
1F
100
AcDbEntity
  8
SPOJOVACÍ
  6
DASHED
100
AcDbLine
 10
2519.244991024469
 20
181.3346128791593
 30
0.0
 11
2519.845717156634
 21
182.7202027446685
 31
0.0
  0
LINE
  5
1422
330
1F
100
AcDbEntity
  8
SPOJOVACÍ
  6
DASHED
100
AcDbLine
 10
2519.022567391403
 20
179.8414574847986
 30
0.0
 11
2519.244991024469
 21
181.3346128791593
 31
0.0
  0
LINE
  5
1423
330
1F
100
AcDbEntity
  8
SPOJOVACÍ
  6
DASHED
100
AcDbLine
 10
2522.698026820384
 20
186.3090628104648
 30
0.0
 11
2522.698026820384
 21
185.1331345692681
 31
0.0
  0
LINE
  5
1424
330
1F
100
AcDbEntity
  8
SPOJOVACÍ
  6
DASHED
100
AcDbLine
 10
2512.701725198662
 20
186.3090628104648
 30
0.0
 11
2522.698026820384
 21
186.3090628104648
 31
0.0
  0
LINE
  5
1425
330
1F
100
AcDbEntity
  8
SPOJOVACÍ
  6
DASHED
100
AcDbLine
 10
2512.701725198662
 20
186.3090628104648
 30
0.0
 11
2512.701725198662
 21
185.1331345692681
 31
0.0
  0
LINE
  5
1426
330
1F
100
AcDbEntity
  8
SPOJOVACÍ
  6
DASHED
100
AcDbLine
 10
2512.701725198662
 20
185.1331345692681
 30
0.0
 11
2522.698026820384
 21
185.1331345692681
 31
0.0
  0
LINE
  5
1427
330
1F
100
AcDbEntity
  8
SPOJOVACÍ
  6
DASHED
100
AcDbLine
 10
2521.99702773794
 20
184.8031454041422
 30
0.0
 11
2522.698026820384
 21
185.1331345692681
 31
0.0
  0
LINE
  5
1428
330
1F
100
AcDbEntity
  8
SPOJOVACÍ
  6
DASHED
100
AcDbLine
 10
2520.784636605219
 20
183.9034235639094
 30
0.0
 11
2521.99702773794
 21
184.8031454041422
 31
0.0
  0
LINE
  5
1429
330
1F
100
AcDbEntity
  8
SPOJOVACÍ
  6
DASHED
100
AcDbLine
 10
2516.312462999639
 20
180.6126476334586
 30
0.0
 11
2516.377184631922
 21
179.8414574847986
 31
0.0
  0
LINE
  5
142A
330
1F
100
AcDbEntity
  8
SPOJOVACÍ
  6
DASHED
100
AcDbLine
 10
2515.893139752625
 20
182.0638707031678
 30
0.0
 11
2516.312462999639
 21
180.6126476334586
 31
0.0
  0
LINE
  5
142B
330
1F
100
AcDbEntity
  8
SPOJOVACÍ
  6
DASHED
100
AcDbLine
 10
2515.112833882893
 20
183.3564801958994
 30
0.0
 11
2515.893139752625
 21
182.0638707031678
 31
0.0
  0
LINE
  5
142C
330
1F
100
AcDbEntity
  8
SPOJOVACÍ
  6
DASHED
100
AcDbLine
 10
2514.024416580542
 20
184.4038767455233
 30
0.0
 11
2515.112833882893
 21
183.3564801958994
 31
0.0
  0
LINE
  5
142D
330
1F
100
AcDbEntity
  8
SPOJOVACÍ
  6
DASHED
100
AcDbLine
 10
2512.701725198662
 20
185.1331345692681
 30
0.0
 11
2514.024416580542
 21
184.4038767455233
 31
0.0
  0
LINE
  5
142E
330
1F
100
AcDbEntity
  8
SPOJOVACÍ
  6
DASHED
100
AcDbLine
 10
2519.022567391403
 20
179.8414574847986
 30
0.0
 11
2519.022567391403
 21
174.9973623894486
 31
0.0
  0
LINE
  5
142F
330
1F
100
AcDbEntity
  8
SPOJOVACÍ
  6
DASHED
100
AcDbLine
 10
2516.377184631922
 20
179.8414574847986
 30
0.0
 11
2516.377184631922
 21
175.8843222177122
 31
0.0
  0
LINE
  5
1430
330
1F
100
AcDbEntity
  8
SPOJOVACÍ
  6
DASHED
100
AcDbLine
 10
2516.377184631922
 20
175.3009159587193
 30
0.0
 11
2516.377184631922
 21
172.832378224791
 31
0.0
  0
LINE
  5
1431
330
1F
100
AcDbEntity
  8
SPOJOVACÍ
  6
DASHED
100
AcDbLine
 10
2516.377184631922
 20
172.2407678153024
 30
0.0
 11
2516.377184631922
 21
169.7704069367275
 31
0.0
  0
LINE
  5
1432
330
1F
100
AcDbEntity
  8
SPOJOVACÍ
  6
DASHED
100
AcDbLine
 10
2516.377184631922
 20
169.1879122499224
 30
0.0
 11
2516.377184631922
 21
166.7102587933106
 31
0.0
  0
LINE
  5
1433
330
1F
100
AcDbEntity
  8
SPOJOVACÍ
  6
DASHED
100
AcDbLine
 10
2519.022567391403
 20
174.40575197996
 30
0.0
 11
2519.022567391403
 21
171.9372142460317
 31
0.0
  0
LINE
  5
1434
330
1F
100
AcDbEntity
  8
SPOJOVACÍ
  6
DASHED
100
AcDbLine
 10
2519.022567391403
 20
171.35289641458
 30
0.0
 11
2519.022567391403
 21
168.8752429579683
 31
0.0
  0
LINE
  5
1435
330
1F
100
AcDbEntity
  8
SPOJOVACÍ
  6
DASHED
100
AcDbLine
 10
2519.022567391403
 20
168.2927482711631
 30
0.0
 11
2519.022567391403
 21
165.8223873925883
 31
0.0
  0
LINE
  5
1436
330
1F
100
AcDbEntity
  8
SPOJOVACÍ
  6
DASHED
100
AcDbLine
 10
2516.377184631922
 20
166.1177368113706
 30
0.0
 11
2516.377184631922
 21
163.65011064963
 31
0.0
  0
LINE
  5
1437
330
1F
100
AcDbEntity
  8
SPOJOVACÍ
  6
DASHED
100
AcDbLine
 10
2516.377184631922
 20
163.0657928181783
 30
0.0
 11
2516.377184631922
 21
161.8433743911275
 31
0.0
  0
LINE
  5
1438
330
1F
100
AcDbEntity
  8
SPOJOVACÍ
  6
DASHED
100
AcDbLine
 10
2519.022567391403
 20
165.233511699934
 30
0.0
 11
2519.022567391403
 21
162.7649739660057
 31
0.0
  0
LINE
  5
1439
330
1F
100
AcDbEntity
  8
SPOJOVACÍ
  6
DASHED
100
AcDbLine
 10
2519.022567391403
 20
162.1733635562534
 30
0.0
 11
2519.022567391403
 21
161.8433743911275
 31
0.0
  0
LINE
  5
143A
330
1F
100
AcDbEntity
  8
SPOJOVACÍ
  6
DASHED
100
AcDbLine
 10
2516.377184631922
 20
161.8433743911275
 30
0.0
 11
2516.52394776859
 21
160.6701808667578
 31
0.0
  0
LINE
  5
143B
330
1F
100
AcDbEntity
  8
SPOJOVACÍ
  6
DASHED
100
AcDbLine
 10
2517.699876009523
 20
151.2591086494733
 30
0.0
 11
2518.047185051029
 21
154.0384925307164
 31
0.0
  0
LINE
  5
143C
330
1F
100
AcDbEntity
  8
SPOJOVACÍ
  6
DASHED
100
AcDbLine
 10
2516.599608269265
 20
160.0621621560214
 30
0.0
 11
2516.884018821795
 21
157.7868777456781
 31
0.0
  0
LINE
  5
143D
330
1F
100
AcDbEntity
  8
SPOJOVACÍ
  6
DASHED
100
AcDbLine
 10
2516.961502465776
 20
157.1688317398068
 30
0.0
 11
2517.245913014027
 21
154.8944589016584
 31
0.0
  0
LINE
  5
143E
330
1F
100
AcDbEntity
  8
SPOJOVACÍ
  6
DASHED
100
AcDbLine
 10
2517.321573514703
 20
154.2864401909221
 30
0.0
 11
2517.699876009523
 21
151.2591086494733
 31
0.0
  0
LINE
  5
143F
330
1F
100
AcDbEntity
  8
SPOJOVACÍ
  6
DASHED
100
AcDbLine
 10
2518.117376117509
 20
154.5963747660418
 30
0.0
 11
2518.379908933253
 21
156.6984604433266
 31
0.0
  0
LINE
  5
1440
330
1F
100
AcDbEntity
  8
SPOJOVACÍ
  6
DASHED
100
AcDbLine
 10
2518.450099995455
 20
157.2590773954864
 30
0.0
 11
2518.711721241686
 21
159.3529589222828
 31
0.0
  0
LINE
  5
1441
330
1F
100
AcDbEntity
  8
SPOJOVACÍ
  6
DASHED
100
AcDbLine
 10
2518.781912308165
 20
159.911752730067
 30
0.0
 11
2519.022567391403
 21
161.8433743911275
 31
0.0
  0
LINE
  5
1442
330
1F
100
AcDbEntity
  8
SPOJOVACÍ
  6
DASHED
100
AcDbLine
 10
2515.348019527657
 20
175.7247970688106
 30
0.0
 11
2520.051732491389
 21
174.5488688278776
 31
0.0
  0
LINE
  5
1443
330
1F
100
AcDbEntity
  8
SPOJOVACÍ
  6
DASHED
100
AcDbLine
 10
2515.348019527657
 20
175.7247970688106
 30
0.0
 11
2515.718117875462
 21
175.5114891554833
 31
0.0
  0
LINE
  5
1444
330
1F
100
AcDbEntity
  8
SPOJOVACÍ
  6
DASHED
100
AcDbLine
 10
2515.348019527657
 20
175.7247970688106
 30
0.0
 11
2515.718117875462
 21
176.095806986664
 31
0.0
  0
LINE
  5
1445
330
1F
100
AcDbEntity
  8
SPOJOVACÍ
  6
DASHED
100
AcDbLine
 10
2520.051732491389
 20
174.5488688278776
 30
0.0
 11
2519.681634147863
 21
174.178770482212
 31
0.0
  0
LINE
  5
1446
330
1F
100
AcDbEntity
  8
SPOJOVACÍ
  6
DASHED
100
AcDbLine
 10
2520.051732491389
 20
174.5488688278776
 30
0.0
 11
2519.681634147863
 21
174.7630883136637
 31
0.0
  0
LINE
  5
1447
330
1F
100
AcDbEntity
  8
SPOJOVACÍ
  6
DASHED
100
AcDbLine
 10
2515.718117875462
 20
175.5114891554833
 30
0.0
 11
2519.681634147863
 21
174.178770482212
 31
0.0
  0
LINE
  5
1448
330
1F
100
AcDbEntity
  8
SPOJOVACÍ
  6
DASHED
100
AcDbLine
 10
2515.718117875462
 20
176.095806986664
 30
0.0
 11
2519.681634147863
 21
174.7630883136637
 31
0.0
  0
LINE
  5
1449
330
1F
100
AcDbEntity
  8
SPOJOVACÍ
  6
DASHED
100
AcDbLine
 10
2515.348019527657
 20
172.667383642228
 30
0.0
 11
2520.051732491389
 21
171.491455401024
 31
0.0
  0
LINE
  5
144A
330
1F
100
AcDbEntity
  8
SPOJOVACÍ
  6
DASHED
100
AcDbLine
 10
2515.348019527657
 20
172.667383642228
 30
0.0
 11
2515.718117875462
 21
172.4531641564419
 31
0.0
  0
LINE
  5
144B
330
1F
100
AcDbEntity
  8
SPOJOVACÍ
  6
DASHED
100
AcDbLine
 10
2515.348019527657
 20
172.667383642228
 30
0.0
 11
2515.718117875462
 21
173.0374819878936
 31
0.0
  0
LINE
  5
144C
330
1F
100
AcDbEntity
  8
SPOJOVACÍ
  6
DASHED
100
AcDbLine
 10
2520.051732491389
 20
171.491455401024
 30
0.0
 11
2519.681634147863
 21
171.1213570556294
 31
0.0
  0
LINE
  5
144D
330
1F
100
AcDbEntity
  8
SPOJOVACÍ
  6
DASHED
100
AcDbLine
 10
2520.051732491389
 20
171.491455401024
 30
0.0
 11
2519.681634147863
 21
171.7056748868101
 31
0.0
  0
LINE
  5
144E
330
1F
100
AcDbEntity
  8
SPOJOVACÍ
  6
DASHED
100
AcDbLine
 10
2515.718117875462
 20
172.4531641564419
 30
0.0
 11
2519.681634147863
 21
171.1213570556294
 31
0.0
  0
LINE
  5
144F
330
1F
100
AcDbEntity
  8
SPOJOVACÍ
  6
DASHED
100
AcDbLine
 10
2515.718117875462
 20
173.0374819878936
 30
0.0
 11
2519.681634147863
 21
171.7056748868101
 31
0.0
  0
LINE
  5
1450
330
1F
100
AcDbEntity
  8
SPOJOVACÍ
  6
DASHED
100
AcDbLine
 10
2515.59687876219
 20
160.4787506880759
 30
0.0
 11
2515.967888679508
 21
160.2645312022898
 31
0.0
  0
LINE
  5
1451
330
1F
100
AcDbEntity
  8
SPOJOVACÍ
  6
DASHED
100
AcDbLine
 10
2515.59687876219
 20
160.4787506880759
 30
0.0
 11
2515.967888679508
 21
160.8488490337415
 31
0.0
  0
LINE
  5
1452
330
1F
100
AcDbEntity
  8
SPOJOVACÍ
  6
DASHED
100
AcDbLine
 10
2519.639701821878
 20
159.5252460834174
 30
0.0
 11
2519.269603478351
 21
159.154236165293
 31
0.0
  0
LINE
  5
1453
330
1F
100
AcDbEntity
  8
SPOJOVACÍ
  6
DASHED
100
AcDbLine
 10
2519.639701821878
 20
159.5252460834174
 30
0.0
 11
2519.269603478351
 21
159.7385539967447
 31
0.0
  0
LINE
  5
1454
330
1F
100
AcDbEntity
  8
SPOJOVACÍ
  6
DASHED
100
AcDbLine
 10
2515.967888679508
 20
160.2645312022898
 30
0.0
 11
2519.269603478351
 21
159.154236165293
 31
0.0
  0
LINE
  5
1455
330
1F
100
AcDbEntity
  8
SPOJOVACÍ
  6
DASHED
100
AcDbLine
 10
2515.967888679508
 20
160.8488490337415
 30
0.0
 11
2519.269603478351
 21
159.7385539967447
 31
0.0
  0
LINE
  5
1456
330
1F
100
AcDbEntity
  8
SPOJOVACÍ
  6
DASHED
100
AcDbLine
 10
2515.59687876219
 20
160.4787506880759
 30
0.0
 11
2519.639701821878
 21
159.5252460834174
 31
0.0
  0
LINE
  5
1457
330
1F
100
AcDbEntity
  8
SPOJOVACÍ
  6
DASHED
100
AcDbLine
 10
2516.150203134174
 20
157.5243449288639
 30
0.0
 11
2516.520301481978
 21
157.3110370155366
 31
0.0
  0
LINE
  5
1458
330
1F
100
AcDbEntity
  8
SPOJOVACÍ
  6
DASHED
100
AcDbLine
 10
2516.150203134174
 20
157.5243449288639
 30
0.0
 11
2516.520301481978
 21
157.8953548469883
 31
0.0
  0
LINE
  5
1459
330
1F
100
AcDbEntity
  8
SPOJOVACÍ
  6
DASHED
100
AcDbLine
 10
2519.203970272276
 20
156.9035642064293
 30
0.0
 11
2518.83387192875
 21
156.5325542885759
 31
0.0
  0
LINE
  5
145A
330
1F
100
AcDbEntity
  8
SPOJOVACÍ
  6
DASHED
100
AcDbLine
 10
2519.203970272276
 20
156.9035642064293
 30
0.0
 11
2518.83387192875
 21
157.1168721197566
 31
0.0
  0
LINE
  5
145B
330
1F
100
AcDbEntity
  8
SPOJOVACÍ
  6
DASHED
100
AcDbLine
 10
2516.520301481978
 20
157.3110370155366
 30
0.0
 11
2518.83387192875
 21
156.5325542885759
 31
0.0
  0
LINE
  5
145C
330
1F
100
AcDbEntity
  8
SPOJOVACÍ
  6
DASHED
100
AcDbLine
 10
2516.520301481978
 20
157.8953548469883
 30
0.0
 11
2518.83387192875
 21
157.1168721197566
 31
0.0
  0
LINE
  5
145D
330
1F
100
AcDbEntity
  8
SPOJOVACÍ
  6
DASHED
100
AcDbLine
 10
2516.150203134174
 20
157.5243449288639
 30
0.0
 11
2519.203970272276
 21
156.9035642064293
 31
0.0
  0
LINE
  5
145E
330
1F
100
AcDbEntity
  8
SPOJOVACÍ
  6
DASHED
100
AcDbLine
 10
2516.703527510435
 20
154.5708507421106
 30
0.0
 11
2517.073625853962
 21
154.3566312563318
 31
0.0
  0
LINE
  5
145F
330
1F
100
AcDbEntity
  8
SPOJOVACÍ
  6
DASHED
100
AcDbLine
 10
2516.703527510435
 20
154.5708507421106
 30
0.0
 11
2517.073625853962
 21
154.9409490877762
 31
0.0
  0
LINE
  5
1460
330
1F
100
AcDbEntity
  8
SPOJOVACÍ
  6
DASHED
100
AcDbLine
 10
2518.814728909063
 20
154.2663856006522
 30
0.0
 11
2518.444630565537
 21
153.8953756827988
 31
0.0
  0
LINE
  5
1461
330
1F
100
AcDbEntity
  8
SPOJOVACÍ
  6
DASHED
100
AcDbLine
 10
2518.814728909063
 20
154.2663856006522
 30
0.0
 11
2518.444630565537
 21
154.4796935142433
 31
0.0
  0
LINE
  5
1462
330
1F
100
AcDbEntity
  8
SPOJOVACÍ
  6
DASHED
100
AcDbLine
 10
2517.073625853962
 20
154.3566312563318
 30
0.0
 11
2518.444630565537
 21
153.8953756827988
 31
0.0
  0
LINE
  5
1463
330
1F
100
AcDbEntity
  8
SPOJOVACÍ
  6
DASHED
100
AcDbLine
 10
2517.073625853962
 20
154.9409490877762
 30
0.0
 11
2518.444630565537
 21
154.4796935142433
 31
0.0
  0
LINE
  5
1464
330
1F
100
AcDbEntity
  8
SPOJOVACÍ
  6
DASHED
100
AcDbLine
 10
2516.703527510435
 20
154.5708507421106
 30
0.0
 11
2518.814728909063
 21
154.2663856006522
 31
0.0
  0
LINE
  5
1465
330
1F
100
AcDbEntity
  8
SPOJOVACÍ
  6
DASHED
100
AcDbLine
 10
2515.348019527657
 20
169.6099702153744
 30
0.0
 11
2520.051732491389
 21
168.4340419744414
 31
0.0
  0
LINE
  5
1466
330
1F
100
AcDbEntity
  8
SPOJOVACÍ
  6
DASHED
100
AcDbLine
 10
2515.348019527657
 20
169.6099702153744
 30
0.0
 11
2515.718117875462
 21
169.3957507295883
 31
0.0
  0
LINE
  5
1467
330
1F
100
AcDbEntity
  8
SPOJOVACÍ
  6
DASHED
100
AcDbLine
 10
2515.348019527657
 20
169.6099702153744
 30
0.0
 11
2515.718117875462
 21
169.98006856104
 31
0.0
  0
LINE
  5
1468
330
1F
100
AcDbEntity
  8
SPOJOVACÍ
  6
DASHED
100
AcDbLine
 10
2520.051732491389
 20
168.4340419744414
 30
0.0
 11
2519.681634147863
 21
168.0630320565881
 31
0.0
  0
LINE
  5
1469
330
1F
100
AcDbEntity
  8
SPOJOVACÍ
  6
DASHED
100
AcDbLine
 10
2520.051732491389
 20
168.4340419744414
 30
0.0
 11
2519.681634147863
 21
168.6473498880325
 31
0.0
  0
LINE
  5
146A
330
1F
100
AcDbEntity
  8
SPOJOVACÍ
  6
DASHED
100
AcDbLine
 10
2515.718117875462
 20
169.3957507295883
 30
0.0
 11
2519.681634147863
 21
168.0630320565881
 31
0.0
  0
LINE
  5
146B
330
1F
100
AcDbEntity
  8
SPOJOVACÍ
  6
DASHED
100
AcDbLine
 10
2515.718117875462
 20
169.98006856104
 30
0.0
 11
2519.681634147863
 21
168.6473498880325
 31
0.0
  0
LINE
  5
146C
330
1F
100
AcDbEntity
  8
SPOJOVACÍ
  6
DASHED
100
AcDbLine
 10
2515.348019527657
 20
166.5525567887846
 30
0.0
 11
2520.051732491389
 21
165.3766285478516
 31
0.0
  0
LINE
  5
146D
330
1F
100
AcDbEntity
  8
SPOJOVACÍ
  6
DASHED
100
AcDbLine
 10
2515.348019527657
 20
166.5525567887846
 30
0.0
 11
2515.718117875462
 21
166.3383373030058
 31
0.0
  0
LINE
  5
146E
330
1F
100
AcDbEntity
  8
SPOJOVACÍ
  6
DASHED
100
AcDbLine
 10
2515.348019527657
 20
166.5525567887846
 30
0.0
 11
2515.718117875462
 21
166.9226551344502
 31
0.0
  0
LINE
  5
146F
330
1F
100
AcDbEntity
  8
SPOJOVACÍ
  6
DASHED
100
AcDbLine
 10
2520.051732491389
 20
165.3766285478516
 30
0.0
 11
2519.681634147863
 21
165.0056186299982
 31
0.0
  0
LINE
  5
1470
330
1F
100
AcDbEntity
  8
SPOJOVACÍ
  6
DASHED
100
AcDbLine
 10
2520.051732491389
 20
165.3766285478516
 30
0.0
 11
2519.681634147863
 21
165.5899364611789
 31
0.0
  0
LINE
  5
1471
330
1F
100
AcDbEntity
  8
SPOJOVACÍ
  6
DASHED
100
AcDbLine
 10
2515.718117875462
 20
166.3383373030058
 30
0.0
 11
2519.681634147863
 21
165.0056186299982
 31
0.0
  0
LINE
  5
1472
330
1F
100
AcDbEntity
  8
SPOJOVACÍ
  6
DASHED
100
AcDbLine
 10
2515.718117875462
 20
166.9226551344502
 30
0.0
 11
2519.681634147863
 21
165.5899364611789
 31
0.0
  0
LINE
  5
1473
330
1F
100
AcDbEntity
  8
SPOJOVACÍ
  6
DASHED
100
AcDbLine
 10
2515.348019527657
 20
163.4942317897432
 30
0.0
 11
2520.051732491389
 21
162.3183035488102
 31
0.0
  0
LINE
  5
1474
330
1F
100
AcDbEntity
  8
SPOJOVACÍ
  6
DASHED
100
AcDbLine
 10
2515.348019527657
 20
163.4942317897432
 30
0.0
 11
2515.718117875462
 21
163.2809238764159
 31
0.0
  0
LINE
  5
1475
330
1F
100
AcDbEntity
  8
SPOJOVACÍ
  6
DASHED
100
AcDbLine
 10
2515.348019527657
 20
163.4942317897432
 30
0.0
 11
2515.718117875462
 21
163.8652417078676
 31
0.0
  0
LINE
  5
1476
330
1F
100
AcDbEntity
  8
SPOJOVACÍ
  6
DASHED
100
AcDbLine
 10
2520.051732491389
 20
162.3183035488102
 30
0.0
 11
2519.681634147863
 21
161.9482052031446
 31
0.0
  0
LINE
  5
1477
330
1F
100
AcDbEntity
  8
SPOJOVACÍ
  6
DASHED
100
AcDbLine
 10
2520.051732491389
 20
162.3183035488102
 30
0.0
 11
2519.681634147863
 21
162.5325230345963
 31
0.0
  0
LINE
  5
1478
330
1F
100
AcDbEntity
  8
SPOJOVACÍ
  6
DASHED
100
AcDbLine
 10
2515.718117875462
 20
163.2809238764159
 30
0.0
 11
2519.681634147863
 21
161.9482052031446
 31
0.0
  0
LINE
  5
1479
330
1F
100
AcDbEntity
  8
SPOJOVACÍ
  6
DASHED
100
AcDbLine
 10
2515.718117875462
 20
163.8652417078676
 30
0.0
 11
2519.681634147863
 21
162.5325230345963
 31
0.0
  0
HATCH
  5
147A
330
1F
100
AcDbEntity
  8
STAVBA OBRYS
100
AcDbHatch
 10
0.0
 20
0.0
 30
0.0
210
0.0
220
0.0
230
1.0
  2
SOLID
 70
     1
 71
     0
 91
        1
 92
        7
 72
     0
 73
     1
 93
        4
 10
2514.463955490304
 20
122.3090628104648
 10
2490.822222780469
 20
122.3090628104648
 10
2490.822222780465
 20
119.3090628104648
 10
2514.463955490304
 20
119.3090628104648
 97
        0
 75
     0
 76
     1
 47
0.1901250437635136
 98
        1
 10
2500.180017538809
 20
121.492251259385
  0
LWPOLYLINE
  5
147B
330
1F
100
AcDbEntity
  8
STAVBA OBRYS
100
AcDbPolyline
 90
        4
 70
     1
 43
0.0
 10
2514.463955490301
 20
122.3090628104648
 10
2490.822222780465
 20
122.3090628104648
 10
2490.822222780465
 20
119.3090628104648
 10
2514.463955490301
 20
119.3090628104648
  0
HATCH
  5
147C
330
1F
100
AcDbEntity
  8
STAVBA OBRYS
100
AcDbHatch
 10
0.0
 20
0.0
 30
0.0
210
0.0
220
0.0
230
1.0
  2
SOLID
 70
     1
 71
     0
 91
        1
 92
        7
 72
     0
 73
     1
 93
        4
 10
2561.747420909975
 20
122.3090628104648
 10
2538.10568820014
 20
122.3090628104648
 10
2538.105688200136
 20
119.3090628104648
 10
2561.747420909975
 20
119.3090628104648
 97
        0
 75
     0
 76
     1
 47
0.1901250437635136
 98
        1
 10
2547.463482958479
 20
121.492251259385
  0
LWPOLYLINE
  5
147D
330
1F
100
AcDbEntity
  8
STAVBA OBRYS
100
AcDbPolyline
 90
        4
 70
     1
 43
0.0
 10
2561.747420909971
 20
122.3090628104648
 10
2538.105688200136
 20
122.3090628104648
 10
2538.105688200136
 20
119.3090628104648
 10
2561.747420909971
 20
119.3090628104648
  0
LWPOLYLINE
  5
147E
330
1F
100
AcDbEntity
  8
nášlap_vrstvy
100
AcDbPolyline
 90
        5
 70
     0
 43
0.0
 10
2483.184392726998
 20
193.1869532039447
 42
0.0133579731639958
 10
2482.797582237971
 20
195.7047554915
 42
0.0072443097182286
 10
2480.677585290512
 20
206.515646386407
 42
0.0219777111230329
 10
2479.771472788529
 20
210.0337596422425
 42
0.0092752982622242
 10
2479.396245826582
 20
211.1869532039447
  0
LWPOLYLINE
  5
147F
330
1F
100
AcDbEntity
  8
nášlap_vrstvy
100
AcDbPolyline
 90
        4
 70
     0
 43
0.0
 10
2493.428531101792
 20
193.1869532039447
 42
0.0334776267545482
 10
2492.991253307086
 20
197.2339281326815
 42
0.0091133963862869
 10
2490.513648982167
 20
209.9256579181412
 42
0.007828075361276
 10
2490.222749847009
 20
211.1869532039447
  0
LINE
  5
1480
330
1F
100
AcDbEntity
  8
nášlap_vrstvy
100
AcDbLine
 10
2498.611342657212
 20
205.1869532039447
 30
0.0
 11
2498.611342657212
 21
199.1869532039447
 31
0.0
  0
LINE
  5
1481
330
1F
100
AcDbEntity
  8
nášlap_vrstvy
100
AcDbLine
 10
2506.611342657212
 20
205.1869532039447
 30
0.0
 11
2498.611342657209
 21
205.1869532039447
 31
0.0
  0
LINE
  5
1482
330
1F
100
AcDbEntity
  8
nášlap_vrstvy
100
AcDbLine
 10
2506.611342657212
 20
211.1869532039447
 30
0.0
 11
2506.611342657212
 21
205.1869532039447
 31
0.0
  0
LWPOLYLINE
  5
1483
330
1F
100
AcDbEntity
  8
nášlap_vrstvy
100
AcDbPolyline
 90
        3
 70
     0
 43
0.0
 10
2502.576161047167
 20
205.1869532039447
 42
0.00139912452586
 10
2501.682672024777
 20
209.5907796859421
 42
0.0065712046643719
 10
2501.332246255013
 20
211.1869532039447
  0
LWPOLYLINE
  5
1484
330
1F
100
AcDbEntity
  8
nášlap_vrstvy
100
AcDbPolyline
 90
        2
 70
     0
 43
0.0
 10
2504.141237200078
 20
193.1869532039447
 10
2506.611342657212
 20
194.4229099392826
  0
LWPOLYLINE
  5
1485
330
1F
100
AcDbEntity
  8
nášlap_vrstvy
100
AcDbPolyline
 90
        3
 70
     0
 43
0.0
 10
2504.522566350839
 20
193.1869532039447
 42
0.0327520985396081
 10
2503.819028089365
 20
198.8390471501581
 42
0.0001103000883317
 10
2503.75228538661
 20
199.1869532039447
 42
0.0001103000883317
  0
LINE
  5
1486
330
1F
100
AcDbEntity
  8
nášlap_vrstvy
100
AcDbLine
 10
2498.611342657209
 20
199.1869532039447
 30
0.0
 11
2506.611342657212
 21
199.1869532039447
 31
0.0
  0
LINE
  5
1487
330
1F
100
AcDbEntity
  8
nášlap_vrstvy
100
AcDbLine
 10
2506.611342657212
 20
199.1869532039447
 30
0.0
 11
2506.611342657212
 21
193.1869532039447
 31
0.0
  0
LWPOLYLINE
  5
1488
330
1F
100
AcDbEntity
  8
nášlap_vrstvy
100
AcDbPolyline
 90
        4
 70
     0
 43
0.0
 10
2520.666626105635
 20
193.1869532039447
 42
-0.0334776267545482
 10
2521.103903900341
 20
197.2339281326815
 42
-0.0091133963862869
 10
2523.58150822526
 20
209.9256579181412
 42
-0.007828075361276
 10
2523.872407360417
 20
211.1869532039447
  0
LWPOLYLINE
  5
1489
330
1F
100
AcDbEntity
  8
nášlap_vrstvy
100
AcDbPolyline
 90
        3
 70
     0
 43
0.0
 10
2571.750161475077
 20
193.1869532039447
 10
2557.958113548437
 20
200.0880247674315
 10
2549.791008899312
 20
208.2693264685251
  0
LWPOLYLINE
  5
148A
330
1F
100
AcDbEntity
  8
nášlap_vrstvy
100
AcDbPolyline
 90
        8
 70
     0
 43
0.0
 10
2558.99963371097
 20
193.1869532039447
 42
-0.0217273703039138
 10
2561.197303971479
 20
198.2226435414224
 42
-0.0882970623535771
 10
2562.834525891573
 20
200.4630125922224
 42
-0.0171636441953577
 10
2565.647889953431
 20
202.9769299474676
 42
-0.0157521173632038
 10
2568.886744790467
 20
205.5084259999741
 42
-0.0073640874174249
 10
2573.520394146788
 20
208.7968274257102
 42
-0.0194185739168057
 10
2575.342437466465
 20
209.9483964249914
 42
-0.005261063072611
 10
2575.879052107652
 20
210.2515774046835
 42
-0.005261063072611
  0
LWPOLYLINE
  5
148B
330
1F
100
AcDbEntity
  8
nášlap_vrstvy
100
AcDbPolyline
 90
        6
 70
     0
 43
0.0
 10
2549.626829703168
 20
193.1869532039447
 42
-0.0121757200102759
 10
2550.996819416829
 20
197.858870536412
 42
-0.0457786284636091
 10
2552.204842306444
 20
200.7074809192884
 42
-0.0295006114745606
 10
2554.620902760744
 20
204.6343801326904
 42
-0.0258674098621065
 10
2557.853578074708
 20
208.7801602114443
 42
-0.0093759062953949
 10
2560.019390254365
 20
211.1869532039447
  0
LWPOLYLINE
  5
148C
330
1F
100
AcDbEntity
  8
nášlap_vrstvy
100
AcDbPolyline
 90
        5
 70
     0
 43
0.0
 10
2530.910764480428
 20
193.1869532039447
 42
-0.0133579731639958
 10
2531.297574969456
 20
195.7047554915
 42
-0.0072443097182286
 10
2533.417571916915
 20
206.515646386407
 42
-0.0219777111230329
 10
2534.323684418898
 20
210.0337596422425
 42
-0.0092752982622242
 10
2534.698911380845
 20
211.1869532039447
  0
LWPOLYLINE
  5
148D
330
1F
100
AcDbEntity
  8
nášlap_vrstvy
100
AcDbPolyline
 90
        4
 70
     0
 43
0.0
 10
2554.334089030039
 20
193.1869532039447
 10
2535.424501110927
 20
201.9021518237161
 10
2518.646610539709
 20
204.6092960864072
 10
2507.522451922949
 20
205.0534338636173
  0
LWPOLYLINE
  5
148E
330
1F
100
AcDbEntity
  8
nášlap_vrstvy
100
AcDbPolyline
 90
        4
 70
     0
 43
0.0
 10
2540.816368354325
 20
193.1869532039447
 42
-0.0186324019486548
 10
2544.184737726431
 20
204.8820648221692
 42
-0.0582629403736403
 10
2545.844237594513
 20
208.4618990211049
 42
-0.0146402521923566
 10
2547.628645576097
 20
211.1869532039447
  0
LWPOLYLINE
  5
148F
330
1F
100
AcDbEntity
  8
nášlap_vrstvy
100
AcDbPolyline
 90
        3
 70
     0
 43
0.0
 10
2511.518996160259
 20
205.1869532039447
 42
-0.00139912452586
 10
2512.412485182649
 20
209.5907796859421
 42
-0.0065712046643719
 10
2512.762910952413
 20
211.1869532039447
  0
LWPOLYLINE
  5
1490
330
1F
100
AcDbEntity
  8
nášlap_vrstvy
100
AcDbPolyline
 90
        3
 70
     0
 43
0.0
 10
2509.572590856588
 20
193.1869532039447
 42
-0.0327520985396081
 10
2510.276129118062
 20
198.8390471501581
 42
-0.0020140331156959
 10
2511.518996160259
 20
205.1869532039447
 42
-0.0001103000883317
  0
POLYLINE
  5
1491
330
1F
100
AcDbEntity
  8
nášlap_vrstvy
100
AcDb2dPolyline
 66
     1
 10
0.0
 20
0.0
 30
0.0
  0
VERTEX
  5
1492
330
1491
100
AcDbEntity
  8
nášlap_vrstvy
100
AcDbVertex
100
AcDb2dVertex
 10
2567.351685098286
 20
193.1869532039447
 30
0.0
 42
-0.0502247168465557
  0
VERTEX
  5
1493
330
1491
100
AcDbEntity
  8
nášlap_vrstvy
100
AcDbVertex
100
AcDb2dVertex
 10
2568.95073227445
 20
195.1944238766675
 30
0.0
 42
-0.0274923553235744
  0
VERTEX
  5
1494
330
1491
100
AcDbEntity
  8
nášlap_vrstvy
100
AcDbVertex
100
AcDb2dVertex
 10
2571.548038005003
 20
197.5794991998057
 30
0.0
 42
-0.0178170165843964
  0
VERTEX
  5
1495
330
1491
100
AcDbEntity
  8
nášlap_vrstvy
100
AcDbVertex
100
AcDb2dVertex
 10
2573.652796518098
 20
199.1869532039447
 30
0.0
 42
-0.0272796991712396
  0
SEQEND
  5
1496
330
1491
100
AcDbEntity
  8
nášlap_vrstvy
  0
LWPOLYLINE
  5
1497
330
1F
100
AcDbEntity
  8
nášlap_vrstvy
100
AcDbPolyline
 90
        2
 70
     0
 43
0.0
 10
2509.953920007349
 20
193.1869532039447
 10
2507.483814550214
 20
194.4229099392826
  0
LINE
  5
1498
330
1F
100
AcDbEntity
  8
nášlap_vrstvy
100
AcDbLine
 10
2507.522451922956
 20
200.021650427366
 30
0.0
 11
2507.522451922956
 21
193.1869532039447
 31
0.0
  0
LINE
  5
1499
330
1F
100
AcDbEntity
  8
nášlap_vrstvy
100
AcDbLine
 10
2499.865993908487
 20
200.021650427366
 30
0.0
 11
2507.522451922956
 21
200.021650427366
 31
0.0
  0
LINE
  5
149A
330
1F
100
AcDbEntity
  8
nášlap_vrstvy
100
AcDbLine
 10
2507.522451922949
 20
204.3660381398569
 30
0.0
 11
2499.865993908487
 21
204.3660381398569
 31
0.0
  0
LINE
  5
149B
330
1F
100
AcDbEntity
  8
nášlap_vrstvy
100
AcDbLine
 10
2507.522451922953
 20
211.1869532039447
 30
0.0
 11
2507.522451922949
 21
204.3660381398569
 31
0.0
  0
LINE
  5
149C
330
1F
100
AcDbEntity
  8
nášlap_vrstvy
100
AcDbLine
 10
2499.865993908487
 20
204.3660381398569
 30
0.0
 11
2499.865993908487
 21
200.021650427366
 31
0.0
  0
LINE
  5
149D
330
1F
100
AcDbEntity
  8
nášlap_vrstvy
100
AcDbLine
 10
2575.879052107648
 20
204.366038139856
 30
0.0
 11
2574.865993908487
 21
204.3660381398569
 31
0.0
  0
LINE
  5
149E
330
1F
100
AcDbEntity
  8
nášlap_vrstvy
100
AcDbLine
 10
2574.865993908487
 20
204.3660381398569
 30
0.0
 11
2574.865993908487
 21
200.021650427366
 31
0.0
  0
LINE
  5
149F
330
1F
100
AcDbEntity
  8
nášlap_vrstvy
100
AcDbLine
 10
2574.865993908487
 20
200.021650427366
 30
0.0
 11
2575.879052107652
 21
200.021650427366
 31
0.0
  0
LINE
  5
14A0
330
1F
100
AcDbEntity
  8
nášlap_vrstvy
100
AcDbLine
 10
2575.879052107648
 20
205.1869532039438
 30
0.0
 11
2573.611342657208
 21
205.1869532039447
 31
0.0
  0
LINE
  5
14A1
330
1F
100
AcDbEntity
  8
nášlap_vrstvy
100
AcDbLine
 10
2573.611342657212
 20
205.1869532039447
 30
0.0
 11
2573.611342657212
 21
199.1869532039447
 31
0.0
  0
LINE
  5
14A2
330
1F
100
AcDbEntity
  8
nášlap_vrstvy
100
AcDbLine
 10
2573.611342657208
 20
199.1869532039447
 30
0.0
 11
2575.879052107648
 21
199.1869532039447
 31
0.0
  0
TEXT
  5
14A6
330
1F
100
AcDbEntity
  8
POPIS
100
AcDbText
 10
2631.634226741903
 20
237.8773192303972
 30
0.0
 40
25.0
  1
03
 41
0.85
  7
SIMPLEX7
100
AcDbText
  0
TEXT
  5
14A7
330
1F
100
AcDbEntity
  8
POPIS
100
AcDbText
 10
2685.977929901645
 20
234.5000187228572
 30
0.0
 40
25.0
  1
Disperzní lepidlo 
 41
0.7
  7
SIMPLEX7
100
AcDbText
  0
TEXT
  5
14A8
330
1F
100
AcDbEntity
  8
POPIS
100
AcDbText
 10
2685.579234699144
 20
270.6007632660505
 30
0.0
 40
25.0
  1
Dřevěné parkety
 41
0.7
  7
SIMPLEX7
100
AcDbText
  0
TEXT
  5
14AC
330
1F
100
AcDbEntity
  8
POPIS
100
AcDbText
 10
2685.977929901645
 20
163.101170437025
 30
0.0
 40
25.0
  1
Montovaná podlaha IZOCET
 41
0.7
  7
SIMPLEX7
100
AcDbText
  0
TEXT
  5
14AD
330
1F
100
AcDbEntity
  8
POPIS
100
AcDbText
 10
2685.977929901645
 20
92.54722298120601
 30
0.0
 40
25.0
  1
Dilatační spára tl. 15 mm
 41
0.7
  7
SIMPLEX7
100
AcDbText
  0
TEXT
  5
14AF
330
1F
100
AcDbEntity
  8
POPIS
100
AcDbText
 10
2685.977929901645
 20
199.6019394696597
 30
0.0
 40
25.0
  1
Penetrace 
 41
0.7
  7
SIMPLEX7
100
AcDbText
  0
TEXT
  5
14B0
330
1F
100
AcDbEntity
  8
POPIS
100
AcDbText
 10
2685.977929901645
 20
126.6480572843322
 30
0.0
 40
25.0
  1
Parozábrana
 41
0.7
  7
SIMPLEX7
100
AcDbText
  0
TEXT
  5
14B1
330
1F
100
AcDbEntity
  8
POPIS
100
AcDbText
 10
2685.977929901645
 20
58.70429715379782
 30
0.0
 40
25.0
  1
Stropní konstrukce
 41
0.7
  7
SIMPLEX7
100
AcDbText
  0
TEXT
  5
14B3
330
1F
100
AcDbEntity
  8
POPIS
100
AcDbText
 10
2631.634226741903
 20
197.9941784682489
 30
0.0
 40
25.0
  1
04
 41
0.85
  7
SIMPLEX7
100
AcDbText
  0
TEXT
  5
14B4
330
1F
100
AcDbEntity
  8
POPIS
100
AcDbText
 10
2632.516997741936
 20
163.0552477449002
 30
0.0
 40
25.0
  1
05
 41
0.85
  7
SIMPLEX7
100
AcDbText
  0
TEXT
  5
14B5
330
1F
100
AcDbEntity
  8
POPIS
100
AcDbText
 10
2632.945520453337
 20
127.0137543115272
 30
0.0
 40
25.0
  1
06
 41
0.85
  7
SIMPLEX7
100
AcDbText
  0
TEXT
  5
14B6
330
1F
100
AcDbEntity
  8
POPIS
100
AcDbText
 10
2632.945520453337
 20
92.68416625186024
 30
0.0
 40
25.0
  1
07
 41
0.85
  7
SIMPLEX7
100
AcDbText
  0
TEXT
  5
14B7
330
1F
100
AcDbEntity
  8
POPIS
100
AcDbText
 10
2632.945520453337
 20
59.04119947913227
 30
0.0
 40
25.0
  1
08
 41
0.85
  7
SIMPLEX7
100
AcDbText
  0
TEXT
  5
14B8
330
1F
100
AcDbEntity
  8
POPIS
100
AcDbText
 10
2685.579234699144
 20
307.610550189501
 30
0.0
 40
25.0
  1
Rohový profil (přichycen ke stěně)
 41
0.7
  7
SIMPLEX7
100
AcDbText
  0
TEXT
  5
14B9
330
1F
100
AcDbEntity
  8
POPIS
100
AcDbText
 10
2631.634226741903
 20
308.1215221341292
 30
0.0
 40
25.0
  1
01
 41
0.85
  7
SIMPLEX7
100
AcDbText
  0
TEXT
  5
14BA
330
1F
100
AcDbEntity
  8
POPIS
100
AcDbText
 10
2631.634226741903
 20
272.7173609159665
 30
0.0
 40
25.0
  1
02
 41
0.85
  7
SIMPLEX7
100
AcDbText
  0
ENDSEC
  0
SECTION
  2
OBJECTS
  0
DICTIONARY
  5
C
330
0
100
AcDbDictionary
281
     1
  3
ACAD_GROUP
350
D
  3
ACAD_LAYOUT
350
1A
  3
ACAD_MLINESTYLE
350
17
  3
ACAD_PLOTSETTINGS
350
19
  3
ACAD_PLOTSTYLENAME
350
E
  3
AcDbVariableDictionary
350
14DB
  0
DICTIONARY
  5
D
102
{ACAD_REACTORS
330
C
102
}
330
C
100
AcDbDictionary
281
     1
  0
DICTIONARY
  5
1A
102
{ACAD_REACTORS
330
C
102
}
330
C
100
AcDbDictionary
281
     1
  3
Model
350
22
  3
Rozvržení1
350
1E
  3
Rozvržení2
350
26
  0
DICTIONARY
  5
17
102
{ACAD_REACTORS
330
C
102
}
330
C
100
AcDbDictionary
281
     1
  3
Standard
350
18
  0
DICTIONARY
  5
19
102
{ACAD_REACTORS
330
C
102
}
330
C
100
AcDbDictionary
281
     1
  0
ACDBDICTIONARYWDFLT
  5
E
102
{ACAD_REACTORS
330
C
102
}
330
C
100
AcDbDictionary
281
     1
  3
Normal
350
F
100
AcDbDictionaryWithDefault
340
F
  0
DICTIONARY
  5
14DB
102
{ACAD_REACTORS
330
C
102
}
330
C
100
AcDbDictionary
281
     1
  3
DIMASSOC
350
14DC
  0
LAYOUT
  5
22
102
{ACAD_REACTORS
330
1A
102
}
330
1A
100
AcDbPlotSettings
  1

  2
HP DeskJet 690C
  4

  6

 40
0.0
 41
0.0
 42
0.0
 43
0.0
 44
0.0
 45
0.0
 46
0.0
 47
0.0
 48
0.0
 49
0.0
140
0.0
141
0.0
142
1.0
143
1.0
 70
  1712
 72
     0
 73
     0
 74
     0
  7
monochrome.ctb
 75
     0
147
1.0
148
0.0
149
0.0
100
AcDbLayout
  1
Model
 70
     1
 71
     0
 10
0.0
 20
0.0
 11
12.0
 21
9.0
 12
0.0
 22
0.0
 32
0.0
 14
0.0
 24
0.0
 34
0.0
 15
0.0
 25
0.0
 35
0.0
146
0.0
 13
0.0
 23
0.0
 33
0.0
 16
1.0
 26
0.0
 36
0.0
 17
0.0
 27
1.0
 37
0.0
 76
     0
330
1F
  0
LAYOUT
  5
1E
102
{ACAD_REACTORS
330
1A
102
}
330
1A
100
AcDbPlotSettings
  1

  2
HP DeskJet 690C
  4

  6

 40
0.0
 41
0.0
 42
0.0
 43
0.0
 44
0.0
 45
0.0
 46
0.0
 47
0.0
 48
0.0
 49
0.0
140
0.0
141
0.0
142
1.0
143
1.0
 70
   688
 72
     0
 73
     0
 74
     5
  7
monochrome.ctb
 75
    16
147
1.0
148
0.0
149
0.0
100
AcDbLayout
  1
Rozvržení1
 70
     1
 71
     1
 10
0.0
 20
0.0
 11
420.0
 21
297.0
 12
0.0
 22
0.0
 32
0.0
 14
1.000000000000000E+20
 24
1.000000000000000E+20
 34
1.000000000000000E+20
 15
-1.000000000000000E+20
 25
-1.000000000000000E+20
 35
-1.000000000000000E+20
146
0.0
 13
0.0
 23
0.0
 33
0.0
 16
1.0
 26
0.0
 36
0.0
 17
0.0
 27
1.0
 37
0.0
 76
     0
330
1B
  0
LAYOUT
  5
26
102
{ACAD_REACTORS
330
1A
102
}
330
1A
100
AcDbPlotSettings
  1

  2
HP DeskJet 690C
  4

  6

 40
0.0
 41
0.0
 42
0.0
 43
0.0
 44
0.0
 45
0.0
 46
0.0
 47
0.0
 48
0.0
 49
0.0
140
0.0
141
0.0
142
1.0
143
1.0
 70
   688
 72
     0
 73
     0
 74
     5
  7
monochrome.ctb
 75
    16
147
1.0
148
0.0
149
0.0
100
AcDbLayout
  1
Rozvržení2
 70
     1
 71
     2
 10
0.0
 20
0.0
 11
12.0
 21
9.0
 12
0.0
 22
0.0
 32
0.0
 14
0.0
 24
0.0
 34
0.0
 15
0.0
 25
0.0
 35
0.0
146
0.0
 13
0.0
 23
0.0
 33
0.0
 16
1.0
 26
0.0
 36
0.0
 17
0.0
 27
1.0
 37
0.0
 76
     0
330
23
  0
MLINESTYLE
  5
18
102
{ACAD_REACTORS
330
17
102
}
330
17
100
AcDbMlineStyle
  2
STANDARD
 70
     0
  3

 62
   256
 51
90.0
 52
90.0
 71
     2
 49
0.5
 62
   256
  6
BYLAYER
 49
-0.5
 62
   256
  6
BYLAYER
  0
ACDBPLACEHOLDER
  5
F
102
{ACAD_REACTORS
330
E
102
}
330
E
  0
DICTIONARYVAR
  5
14DC
102
{ACAD_REACTORS
330
14DB
102
}
330
14DB
100
DictionaryVariables
280
     0
  1
1
  0
ENDSEC
  0
EOF
