  0
SECTION
  2
HEADER
  9
$ACADVER
  1
AC1015
  9
$ACADMAINTVER
 70
    10
  9
$DWGCODEPAGE
  3
ANSI_1250
  9
$INSBASE
 10
0.0
 20
0.0
 30
0.0
  9
$EXTMIN
 10
-35.44095103147992
 20
-22.16254469511
 30
0.0
  9
$EXTMAX
 10
1027.17344787771
 20
697.5821132492438
 30
0.0
  9
$LIMMIN
 10
0.0
 20
0.0
  9
$LIMMAX
 10
420.0
 20
297.0
  9
$ORTHOMODE
 70
     0
  9
$REGENMODE
 70
     1
  9
$FILLMODE
 70
     1
  9
$QTEXTMODE
 70
     0
  9
$MIRRTEXT
 70
     1
  9
$LTSCALE
 40
1.0
  9
$ATTMODE
 70
     1
  9
$TEXTSIZE
 40
2.5
  9
$TRACEWID
 40
1.0
  9
$TEXTSTYLE
  7
Standard
  9
$CLAYER
  8
0
  9
$CELTYPE
  6
ByLayer
  9
$CECOLOR
 62
   256
  9
$CELTSCALE
 40
1.0
  9
$DISPSILH
 70
     0
  9
$DIMSCALE
 40
1.0
  9
$DIMASZ
 40
2.5
  9
$DIMEXO
 40
0.625
  9
$DIMDLI
 40
3.75
  9
$DIMRND
 40
0.0
  9
$DIMDLE
 40
0.0
  9
$DIMEXE
 40
1.25
  9
$DIMTP
 40
0.0
  9
$DIMTM
 40
0.0
  9
$DIMTXT
 40
2.5
  9
$DIMCEN
 40
2.5
  9
$DIMTSZ
 40
0.0
  9
$DIMTOL
 70
     0
  9
$DIMLIM
 70
     0
  9
$DIMTIH
 70
     0
  9
$DIMTOH
 70
     0
  9
$DIMSE1
 70
     0
  9
$DIMSE2
 70
     0
  9
$DIMTAD
 70
     1
  9
$DIMZIN
 70
     8
  9
$DIMBLK
  1

  9
$DIMASO
 70
     1
  9
$DIMSHO
 70
     1
  9
$DIMPOST
  1

  9
$DIMAPOST
  1

  9
$DIMALT
 70
     0
  9
$DIMALTD
 70
     3
  9
$DIMALTF
 40
0.03937007874016
  9
$DIMLFAC
 40
1.0
  9
$DIMTOFL
 70
     1
  9
$DIMTVP
 40
0.0
  9
$DIMTIX
 70
     0
  9
$DIMSOXD
 70
     0
  9
$DIMSAH
 70
     0
  9
$DIMBLK1
  1

  9
$DIMBLK2
  1

  9
$DIMSTYLE
  2
ISO-25
  9
$DIMCLRD
 70
     0
  9
$DIMCLRE
 70
     0
  9
$DIMCLRT
 70
     0
  9
$DIMTFAC
 40
1.0
  9
$DIMGAP
 40
0.625
  9
$DIMJUST
 70
     0
  9
$DIMSD1
 70
     0
  9
$DIMSD2
 70
     0
  9
$DIMTOLJ
 70
     0
  9
$DIMTZIN
 70
     8
  9
$DIMALTZ
 70
     0
  9
$DIMALTTZ
 70
     0
  9
$DIMUPT
 70
     0
  9
$DIMDEC
 70
     2
  9
$DIMTDEC
 70
     2
  9
$DIMALTU
 70
     2
  9
$DIMALTTD
 70
     3
  9
$DIMTXSTY
  7
Standard
  9
$DIMAUNIT
 70
     0
  9
$DIMADEC
 70
     0
  9
$DIMALTRND
 40
0.0
  9
$DIMAZIN
 70
     0
  9
$DIMDSEP
 70
    44
  9
$DIMATFIT
 70
     3
  9
$DIMFRAC
 70
     0
  9
$DIMLDRBLK
  1

  9
$DIMLUNIT
 70
     2
  9
$DIMLWD
 70
    -2
  9
$DIMLWE
 70
    -2
  9
$DIMTMOVE
 70
     0
  9
$LUNITS
 70
     2
  9
$LUPREC
 70
     4
  9
$SKETCHINC
 40
1.0
  9
$FILLETRAD
 40
10.0
  9
$AUNITS
 70
     0
  9
$AUPREC
 70
     0
  9
$MENU
  1
.
  9
$ELEVATION
 40
0.0
  9
$PELEVATION
 40
0.0
  9
$THICKNESS
 40
0.0
  9
$LIMCHECK
 70
     0
  9
$CHAMFERA
 40
10.0
  9
$CHAMFERB
 40
10.0
  9
$CHAMFERC
 40
20.0
  9
$CHAMFERD
 40
0.0
  9
$SKPOLY
 70
     0
  9
$TDCREATE
 40
2452332.337407754
  9
$TDUCREATE
 40
2452332.295741087
  9
$TDUPDATE
 40
2452653.391708611
  9
$TDUUPDATE
 40
2452653.350041944
  9
$TDINDWG
 40
0.1182109259
  9
$TDUSRTIMER
 40
0.1182109259
  9
$USRTIMER
 70
     1
  9
$ANGBASE
 50
0.0
  9
$ANGDIR
 70
     0
  9
$PDMODE
 70
     0
  9
$PDSIZE
 40
0.0
  9
$PLINEWID
 40
0.0
  9
$SPLFRAME
 70
     0
  9
$SPLINETYPE
 70
     6
  9
$SPLINESEGS
 70
     8
  9
$HANDSEED
  5
3B14
  9
$SURFTAB1
 70
     6
  9
$SURFTAB2
 70
     6
  9
$SURFTYPE
 70
     6
  9
$SURFU
 70
     6
  9
$SURFV
 70
     6
  9
$UCSBASE
  2

  9
$UCSNAME
  2

  9
$UCSORG
 10
0.0
 20
0.0
 30
0.0
  9
$UCSXDIR
 10
1.0
 20
0.0
 30
0.0
  9
$UCSYDIR
 10
0.0
 20
1.0
 30
0.0
  9
$UCSORTHOREF
  2

  9
$UCSORTHOVIEW
 70
     0
  9
$UCSORGTOP
 10
0.0
 20
0.0
 30
0.0
  9
$UCSORGBOTTOM
 10
0.0
 20
0.0
 30
0.0
  9
$UCSORGLEFT
 10
0.0
 20
0.0
 30
0.0
  9
$UCSORGRIGHT
 10
0.0
 20
0.0
 30
0.0
  9
$UCSORGFRONT
 10
0.0
 20
0.0
 30
0.0
  9
$UCSORGBACK
 10
0.0
 20
0.0
 30
0.0
  9
$PUCSBASE
  2

  9
$PUCSNAME
  2

  9
$PUCSORG
 10
0.0
 20
0.0
 30
0.0
  9
$PUCSXDIR
 10
1.0
 20
0.0
 30
0.0
  9
$PUCSYDIR
 10
0.0
 20
1.0
 30
0.0
  9
$PUCSORTHOREF
  2

  9
$PUCSORTHOVIEW
 70
     0
  9
$PUCSORGTOP
 10
0.0
 20
0.0
 30
0.0
  9
$PUCSORGBOTTOM
 10
0.0
 20
0.0
 30
0.0
  9
$PUCSORGLEFT
 10
0.0
 20
0.0
 30
0.0
  9
$PUCSORGRIGHT
 10
0.0
 20
0.0
 30
0.0
  9
$PUCSORGFRONT
 10
0.0
 20
0.0
 30
0.0
  9
$PUCSORGBACK
 10
0.0
 20
0.0
 30
0.0
  9
$USERI1
 70
     0
  9
$USERI2
 70
     0
  9
$USERI3
 70
     0
  9
$USERI4
 70
     0
  9
$USERI5
 70
     0
  9
$USERR1
 40
0.0
  9
$USERR2
 40
0.0
  9
$USERR3
 40
0.0
  9
$USERR4
 40
0.0
  9
$USERR5
 40
0.0
  9
$WORLDVIEW
 70
     1
  9
$SHADEDGE
 70
     3
  9
$SHADEDIF
 70
    70
  9
$TILEMODE
 70
     1
  9
$MAXACTVP
 70
    64
  9
$PINSBASE
 10
0.0
 20
0.0
 30
0.0
  9
$PLIMCHECK
 70
     0
  9
$PEXTMIN
 10
1.000000000000000E+20
 20
1.000000000000000E+20
 30
1.000000000000000E+20
  9
$PEXTMAX
 10
-1.000000000000000E+20
 20
-1.000000000000000E+20
 30
-1.000000000000000E+20
  9
$PLIMMIN
 10
0.0
 20
0.0
  9
$PLIMMAX
 10
420.0
 20
297.0
  9
$UNITMODE
 70
     0
  9
$VISRETAIN
 70
     1
  9
$PLINEGEN
 70
     0
  9
$PSLTSCALE
 70
     1
  9
$TREEDEPTH
 70
  3020
  9
$CMLSTYLE
  2
Standard
  9
$CMLJUST
 70
     0
  9
$CMLSCALE
 40
20.0
  9
$PROXYGRAPHICS
 70
     1
  9
$MEASUREMENT
 70
     1
  9
$CELWEIGHT
370
    -1
  9
$ENDCAPS
280
     0
  9
$JOINSTYLE
280
     0
  9
$LWDISPLAY
290
     0
  9
$INSUNITS
 70
     4
  9
$HYPERLINKBASE
  1

  9
$STYLESHEET
  1

  9
$XEDIT
290
     1
  9
$CEPSNTYPE
380
     0
  9
$PSTYLEMODE
290
     1
  9
$FINGERPRINTGUID
  2
{B968C5BB-500F-458D-B9F8-13F88C7D245D}
  9
$VERSIONGUID
  2
{BCCC6AA9-B3ED-41C0-82F4-B2683086D32C}
  9
$EXTNAMES
290
     1
  9
$PSVPSCALE
 40
0.0
  9
$OLESTARTUP
290
     0
  0
ENDSEC
  0
SECTION
  2
CLASSES
  0
CLASS
  1
ACDBDICTIONARYWDFLT
  2
AcDbDictionaryWithDefault
  3
AutoCAD 2000
 90
        0
280
     0
281
     0
  0
CLASS
  1
ACDBPLACEHOLDER
  2
AcDbPlaceHolder
  3
AutoCAD 2000
 90
        0
280
     0
281
     0
  0
CLASS
  1
LAYOUT
  2
AcDbLayout
  3
AutoCAD 2000
 90
        0
280
     0
281
     0
  0
ENDSEC
  0
SECTION
  2
TABLES
  0
TABLE
  2
VPORT
  5
8
330
0
100
AcDbSymbolTable
 70
     2
  0
VPORT
  5
3B13
330
8
100
AcDbSymbolTableRecord
100
AcDbViewportTableRecord
  2
*Active
 70
     0
 10
0.0
 20
0.0
 11
1.0
 21
1.0
 12
501.7580965989903
 22
331.6621290557501
 13
0.0
 23
0.0
 14
10.0
 24
10.0
 15
10.0
 25
10.0
 16
0.0
 26
0.0
 36
1.0
 17
0.0
 27
0.0
 37
0.0
 40
745.9555198503296
 41
1.554603854389721
 42
50.0
 43
0.0
 44
0.0
 50
0.0
 51
0.0
 71
     0
 72
   100
 73
     1
 74
     3
 75
     0
 76
     0
 77
     0
 78
     0
281
     0
 65
     1
110
0.0
120
0.0
130
0.0
111
1.0
121
0.0
131
0.0
112
0.0
122
1.0
132
0.0
 79
     0
146
0.0
  0
ENDTAB
  0
TABLE
  2
LTYPE
  5
5
330
0
100
AcDbSymbolTable
 70
     5
  0
LTYPE
  5
14
330
5
100
AcDbSymbolTableRecord
100
AcDbLinetypeTableRecord
  2
ByBlock
 70
     0
  3

 72
    65
 73
     0
 40
0.0
  0
LTYPE
  5
15
330
5
100
AcDbSymbolTableRecord
100
AcDbLinetypeTableRecord
  2
ByLayer
 70
     0
  3

 72
    65
 73
     0
 40
0.0
  0
LTYPE
  5
16
330
5
100
AcDbSymbolTableRecord
100
AcDbLinetypeTableRecord
  2
Continuous
 70
     0
  3
Solid line
 72
    65
 73
     0
 40
0.0
  0
LTYPE
  5
3399
330
5
100
AcDbSymbolTableRecord
100
AcDbLinetypeTableRecord
  2
DASHED
 70
     0
  3
Dashed __ __ __ __ __ __ __ __ __ __ __ __ __ _
 72
    65
 73
     2
 40
19.04999999999999
 49
12.7
 74
     0
 49
-6.349999999999999
 74
     0
  0
LTYPE
  5
339A
330
5
100
AcDbSymbolTableRecord
100
AcDbLinetypeTableRecord
  2
DASHDOT2
 70
     0
  3
Dash dot (.5x) _._._._._._._._._._._._._._._.
 72
    65
 73
     4
 40
12.7
 49
6.349999999999999
 74
     0
 49
-3.174999999999999
 74
     0
 49
0.0
 74
     0
 49
-3.174999999999999
 74
     0
  0
LTYPE
  5
339B
330
5
100
AcDbSymbolTableRecord
100
AcDbLinetypeTableRecord
  2
CIKCAK
 70
     0
  3
Cik-cak /\/\/\/\/\/\/\/\/\/\/\/\/\/\/\/\/\/\/\/
 72
    65
 73
     4
 40
20.32254
 49
0.00254
 74
     0
 49
-5.08
 74
     4
 75
   131
340
33A4
 46
5.08
 50
0.0
 44
-5.08
 45
0.0
 49
-10.16
 74
     4
 75
   131
340
33A4
 46
5.08
 50
180.0
 44
5.08
 45
0.0
 49
-5.08
 74
     0
  0
LTYPE
  5
339C
330
5
100
AcDbSymbolTableRecord
100
AcDbLinetypeTableRecord
  2
IZOLACE
 70
     0
  3
Izolace SSSSSSSSSSSSSSSSSSSSSSSSSSSSSSSSSSSSSSS
 72
    65
 73
     4
 40
10.16253999999999
 49
0.00254
 74
     0
 49
-2.54
 74
     4
 75
   134
340
33A4
 46
2.54
 50
0.0
 44
-2.54
 45
0.0
 49
-5.08
 74
     4
 75
   134
340
33A4
 46
2.54
 50
180.0
 44
2.54
 45
0.0
 49
-2.54
 74
     0
  0
ENDTAB
  0
TABLE
  2
LAYER
  5
2
330
0
100
AcDbSymbolTable
 70
     7
  0
LAYER
  5
10
330
2
100
AcDbSymbolTableRecord
100
AcDbLayerTableRecord
  2
0
 70
     0
 62
     7
  6
Continuous
370
    -3
390
F
  0
LAYER
  5
339D
330
2
100
AcDbSymbolTableRecord
100
AcDbLayerTableRecord
  2
POPIS
 70
     0
 62
    30
  6
Continuous
370
    -3
390
F
  0
LAYER
  5
339E
330
2
100
AcDbSymbolTableRecord
100
AcDbLayerTableRecord
  2
SPOJOVACÍ
 70
     0
 62
   180
  6
Continuous
370
    -3
390
F
  0
LAYER
  5
339F
330
2
100
AcDbSymbolTableRecord
100
AcDbLayerTableRecord
  2
CETRIS
 70
     0
 62
     1
  6
Continuous
370
    -3
390
F
  0
LAYER
  5
33A0
330
2
100
AcDbSymbolTableRecord
100
AcDbLayerTableRecord
  2
izolace
 70
     0
 62
    33
  6
Continuous
370
    -3
390
F
  0
LAYER
  5
33A1
330
2
100
AcDbSymbolTableRecord
100
AcDbLayerTableRecord
  2
nášlap_vrstvy
 70
     0
 62
    73
  6
Continuous
370
    -3
390
F
  0
LAYER
  5
33A2
330
2
100
AcDbSymbolTableRecord
100
AcDbLayerTableRecord
  2
STAVBA OBRYS
 70
     0
 62
     6
  6
Continuous
370
    -3
390
F
  0
ENDTAB
  0
TABLE
  2
STYLE
  5
3
330
0
100
AcDbSymbolTable
 70
     3
  0
STYLE
  5
11
330
3
100
AcDbSymbolTableRecord
100
AcDbTextStyleTableRecord
  2
Standard
 70
     0
 40
0.0
 41
1.0
 50
0.0
 71
     0
 42
2.5
  3
txt
  4

  0
STYLE
  5
33A3
330
3
100
AcDbSymbolTableRecord
100
AcDbTextStyleTableRecord
  2
SIMPLEX7
 70
     0
 40
0.0
 41
0.85
 50
0.0
 71
     0
 42
102.0
  3

  4

1001
ACAD
1000
Arial CE
1071
    60962
  0
STYLE
  5
33A4
330
3
100
AcDbSymbolTableRecord
100
AcDbTextStyleTableRecord
  2

 70
     1
 40
0.0
 41
1.0
 50
0.0
 71
     0
 42
2.5
  3
ltypeshp.shx
  4

  0
ENDTAB
  0
TABLE
  2
VIEW
  5
6
330
0
100
AcDbSymbolTable
 70
     0
  0
ENDTAB
  0
TABLE
  2
UCS
  5
7
330
0
100
AcDbSymbolTable
 70
     0
  0
ENDTAB
  0
TABLE
  2
APPID
  5
9
330
0
100
AcDbSymbolTable
 70
     1
  0
APPID
  5
12
330
9
100
AcDbSymbolTableRecord
100
AcDbRegAppTableRecord
  2
ACAD
 70
     0
  0
ENDTAB
  0
TABLE
  2
DIMSTYLE
  5
A
330
0
100
AcDbSymbolTable
 70
     1
100
AcDbDimStyleTable
 71
     0
  0
DIMSTYLE
105
27
330
A
100
AcDbSymbolTableRecord
100
AcDbDimStyleTableRecord
  2
ISO-25
 70
     0
 41
2.5
 42
0.625
 43
3.75
 44
1.25
 73
     0
 74
     0
 77
     1
 78
     8
140
2.5
141
2.5
143
0.03937007874016
147
0.625
171
     3
172
     1
271
     2
272
     2
274
     3
278
    44
283
     0
284
     8
340
11
  0
ENDTAB
  0
TABLE
  2
BLOCK_RECORD
  5
1
330
0
100
AcDbSymbolTable
 70
     2
  0
BLOCK_RECORD
  5
1F
330
1
100
AcDbSymbolTableRecord
100
AcDbBlockTableRecord
  2
*Model_Space
340
22
  0
BLOCK_RECORD
  5
1B
330
1
100
AcDbSymbolTableRecord
100
AcDbBlockTableRecord
  2
*Paper_Space
340
1E
  0
BLOCK_RECORD
  5
23
330
1
100
AcDbSymbolTableRecord
100
AcDbBlockTableRecord
  2
*Paper_Space0
340
26
  0
BLOCK_RECORD
  5
3395
330
1
100
AcDbSymbolTableRecord
100
AcDbBlockTableRecord
  2
E_PUNKT
340
0
102
{BLKREFS
331
3A28
331
3A2C
331
3A2D
331
3A2E
331
3A3F
331
3A40
331
3A41
331
37EC
331
37FB
102
}
  0
ENDTAB
  0
ENDSEC
  0
SECTION
  2
BLOCKS
  0
BLOCK
  5
20
330
1F
100
AcDbEntity
  8
0
100
AcDbBlockBegin
  2
*Model_Space
 70
     0
 10
0.0
 20
0.0
 30
0.0
  3
*Model_Space
  1

  0
ENDBLK
  5
21
330
1F
100
AcDbEntity
  8
0
100
AcDbBlockEnd
  0
BLOCK
  5
1C
330
1B
100
AcDbEntity
 67
     1
  8
0
100
AcDbBlockBegin
  2
*Paper_Space
 70
     0
 10
0.0
 20
0.0
 30
0.0
  3
*Paper_Space
  1

  0
ENDBLK
  5
1D
330
1B
100
AcDbEntity
 67
     1
  8
0
100
AcDbBlockEnd
  0
BLOCK
  5
24
330
23
100
AcDbEntity
  8
0
100
AcDbBlockBegin
  2
*Paper_Space0
 70
     0
 10
0.0
 20
0.0
 30
0.0
  3
*Paper_Space0
  1

  0
ENDBLK
  5
25
330
23
100
AcDbEntity
  8
0
100
AcDbBlockEnd
  0
BLOCK
  5
3397
330
3395
100
AcDbEntity
  8
0
100
AcDbBlockBegin
  2
E_PUNKT
 70
     0
 10
0.0
 20
0.0
 30
0.0
  3
E_PUNKT
  1

  0
LWPOLYLINE
  5
3396
330
3395
100
AcDbEntity
  8
POPIS
100
AcDbPolyline
 90
        2
 70
     1
 43
2.5
 10
1.27761037562675
 20
0.0290683308725193
 42
-1.0
 10
-1.222389624373249
 20
0.0290683308725193
 42
-1.0
  0
ENDBLK
  5
3398
330
3395
100
AcDbEntity
  8
0
100
AcDbBlockEnd
  0
ENDSEC
  0
SECTION
  2
ENTITIES
  0
LINE
  5
375C
330
1F
100
AcDbEntity
  8
STAVBA OBRYS
  6
DASHED
100
AcDbLine
 10
139.1848936818023
 20
81.33029488583316
 30
0.0
 11
139.1848936818169
 21
418.2586561719185
 31
0.0
  0
LINE
  5
375D
330
1F
100
AcDbEntity
  8
STAVBA OBRYS
  6
DASHED
100
AcDbLine
 10
134.2509033967689
 20
81.33029488583316
 30
0.0
 11
134.2509033967835
 21
417.7611066378972
 31
0.0
  0
LINE
  5
375E
330
1F
100
AcDbEntity
  8
STAVBA OBRYS
  6
DASHED
100
AcDbLine
 10
113.3692950135264
 20
81.33029488583316
 30
0.0
 11
113.3692950135191
 21
412.1601865455382
 31
0.0
  0
LINE
  5
375F
330
1F
100
AcDbEntity
  8
STAVBA OBRYS
  6
DASHED
100
AcDbLine
 10
107.8591599550454
 20
81.33029488583316
 30
0.0
 11
107.8591599550381
 21
412.1601865455382
 31
0.0
  0
HATCH
  5
3760
330
1F
100
AcDbEntity
  8
STAVBA OBRYS
100
AcDbHatch
 10
0.0
 20
0.0
 30
0.0
210
0.0
220
0.0
230
1.0
  2
ANSI31
 70
     0
 71
     0
 91
        9
 92
        7
 72
     0
 73
     1
 93
       12
 10
98.05285033215477
 20
411.0941453684558
 10
86.05285033215841
 20
408.8839840901568
 10
86.05285033215841
 20
366.8081359118664
 10
87.25277710888622
 20
366.8081359118664
 10
87.58950074678068
 20
366.0928307256913
 10
88.50758425721142
 20
364.8556969168098
 10
89.71495244010657
 20
363.8976158468153
 10
91.12881964981353
 20
363.2846299976668
 10
92.65244760324639
 20
363.0576671067833
 10
97.60832540729097
 20
363.0576671067833
 10
97.83445696154013
 20
363.7301842051952
 10
98.05285033215842
 20
364.1074936007876
 97
        0
 92
        7
 72
     0
 73
     1
 93
       23
 10
98.05285033215477
 20
360.3582969440472
 10
97.29691418744915
 20
360.3582969440472
 10
97.07078263315635
 20
359.6857798456026
 10
96.8531214971008
 20
359.3081284703116
 10
96.47453994828175
 20
359.6857798456198
 10
96.70067150253817
 20
360.3582969440472
 10
92.65244760324277
 20
360.3582969440472
 10
91.86551888012036
 20
360.2922544621256
 10
90.38467901307013
 20
359.864373597828
 10
89.06568973478352
 20
359.0681431185098
 10
87.99691774536041
 20
357.9575132181539
 10
87.25277710888258
 20
356.6078281345985
 10
86.05285033215841
 20
356.6078281345985
 10
86.05285033215841
 20
116.8081359118664
 10
87.25277710888622
 20
116.8081359118664
 10
87.58950074678068
 20
116.0928307256858
 10
88.50758425721869
 20
114.8556969168025
 10
89.71495244010657
 20
113.8976158468144
 10
91.12881964981353
 20
113.2846299976667
 10
92.65244760324639
 20
113.0576671067833
 10
97.60832540728735
 20
113.0576671067833
 10
97.83445696155105
 20
113.7301842052243
 10
98.05285033215113
 20
114.1074936007867
 97
        0
 92
        7
 72
     0
 73
     1
 93
       15
 10
98.05285033215842
 20
110.3582969440471
 10
97.29691418745643
 20
110.3582969440471
 10
97.07078263314906
 20
109.6857798455944
 10
96.85312149710808
 20
109.308128470308
 10
96.47453994827811
 20
109.6857798456171
 10
96.70067150253089
 20
110.3582969440471
 10
92.65244760324639
 20
110.3582969440471
 10
91.86551888011672
 20
110.2922544621255
 10
90.38467901306649
 20
109.8643735978262
 10
89.06568973477623
 20
109.0681431185134
 10
87.99691774537132
 20
107.957513218153
 10
87.25277710888622
 20
106.6078281345985
 10
86.05285033216205
 20
106.6078281345985
 10
86.05285033215478
 20
80.7780339525857
 10
98.05285033215842
 20
80.7780339525857
 97
        0
 92
        7
 72
     0
 73
     1
 93
       15
 10
161.2851046169089
 20
106.6078281345985
 10
160.0851778401811
 20
106.6078281345985
 10
159.3410372037033
 20
107.957513218163
 10
158.2722652142838
 20
109.068143118508
 10
156.9532759359826
 20
109.8643735978262
 10
155.4724360689397
 20
110.2922544621255
 10
154.6855073458136
 20
110.3582969440471
 10
150.6372834465328
 20
110.3582969440471
 10
150.8634150007819
 20
109.6857798456153
 10
150.4848334519556
 20
109.3081284703116
 10
150.267172315911
 20
109.6857798456189
 10
150.0410407616109
 20
110.3582969440471
 10
149.2851046169052
 20
110.3582969440471
 10
149.2851046169052
 20
80.7780339525857
 10
161.2851046169053
 20
80.77803395258934
 97
        0
 92
        7
 72
     0
 73
     1
 93
       12
 10
161.2851046169053
 20
142.8164737627471
 10
149.2851046169052
 20
130.8642553402828
 10
149.2851046169089
 20
114.1074936007739
 10
149.5034979875235
 20
113.730184205197
 10
149.729629541769
 20
113.0576671067833
 10
154.6855073458173
 20
113.0576671067833
 10
156.2091352992502
 20
113.2846299976686
 10
157.6230025089607
 20
113.897615846819
 10
158.8303706918413
 20
114.8556969167998
 10
159.7484542022939
 20
116.092830725684
 10
160.0851778401775
 20
116.8081359118664
 10
161.2851046169053
 20
116.8081359118664
 97
        0
 92
        7
 72
     0
 73
     1
 93
        4
 10
161.2851046169089
 20
250.6340562766459
 10
149.2851046169052
 20
250.6340562766459
 10
149.2851046169089
 20
130.864255340281
 10
161.2851046169053
 20
142.8164737627453
 97
        0
 92
        7
 72
     0
 73
     1
 93
        4
 10
161.2851046169053
 20
302.6919723928918
 10
149.2851046169052
 20
302.6919723928918
 10
149.2851046169052
 20
250.6340562766459
 10
161.2851046169016
 20
250.6340562766459
 97
        0
 92
        7
 72
     0
 73
     1
 93
       15
 10
161.2851046169016
 20
356.6078281345985
 10
160.0851778401738
 20
356.6078281345985
 10
159.3410372037069
 20
357.9575132181403
 10
158.2722652142874
 20
359.0681431185053
 10
156.9532759359935
 20
359.8643735978262
 10
155.4724360689469
 20
360.2922544621264
 10
154.6855073458173
 20
360.3582969440472
 10
150.6372834465291
 20
360.3582969440472
 10
150.8634150007819
 20
359.6857798456171
 10
150.4848334519556
 20
359.3081284703062
 10
150.2671723159
 20
359.6857798456198
 10
150.0410407616
 20
360.3582969440472
 10
149.2851046169052
 20
360.3582969440472
 10
149.2851046169052
 20
302.6919723928918
 10
161.2851046169016
 20
302.6919723928918
 97
        0
 92
        7
 72
     0
 73
     1
 93
       12
 10
161.2851046169016
 20
422.7402686984365
 10
149.2851046169052
 20
420.5301074201365
 10
149.2851046169016
 20
364.1074936007758
 10
149.5034979875235
 20
363.7301842051933
 10
149.729629541769
 20
363.0576671067833
 10
154.6855073458173
 20
363.0576671067833
 10
156.2091352992502
 20
363.2846299976686
 10
157.6230025089571
 20
363.8976158468181
 10
158.8303706918523
 20
364.855696916798
 10
159.7484542023012
 20
366.0928307257004
 10
160.0851778401738
 20
366.8081359118664
 10
161.285104616898
 20
366.8081359118664
 97
        0
 75
     0
 76
     1
 52
90.0
 41
1.0
 77
     0
 78
     1
 53
135.0
 43
-24988.44674852357
 44
-2075.009221806157
 45
-2.245064030267288
 46
-2.245064030267287
 79
     0
 47
0.7045601633123687
 98
        9
 10
89.7227223754162
 20
378.7667146929566
 10
94.12009714353189
 20
290.8734281689108
 10
94.12009714353189
 20
92.23458485237143
 10
157.7148453930131
 20
98.27725755744587
 10
156.304860237331
 20
125.0505426685053
 10
155.5998754399261
 20
153.2329480485682
 10
157.7148453930131
 20
264.5534589170078
 10
157.0098605956009
 20
327.2593156962434
 10
156.304860237331
 20
382.9195711304642
  0
LINE
  5
3761
330
1F
100
AcDbEntity
  8
izolace
  6
IZOLACE
 48
1.5
100
AcDbLine
 10
123.8100992051477
 20
83.01947398839592
 30
0.0
 11
123.8100992051477
 21
415.838118209675
 31
0.0
  0
LINE
  5
3762
330
1F
100
AcDbEntity
  8
STAVBA OBRYS
100
AcDbLine
 10
103.8408868209844
 20
81.33029488583316
 30
0.0
 11
103.8408868209771
 21
412.1601865455382
 31
0.0
  0
LINE
  5
3763
330
1F
100
AcDbEntity
  8
STAVBA OBRYS
100
AcDbLine
 10
143.194543261532
 20
81.33029488583316
 30
0.0
 11
143.1945432615284
 21
419.4083471809067
 31
0.0
  0
LINE
  5
3764
330
1F
100
AcDbEntity
  8
STAVBA OBRYS
100
AcDbLine
 10
149.2851046169052
 20
80.7780339525857
 30
0.0
 11
149.2851046169052
 21
420.5301074201356
 31
0.0
  0
LINE
  5
3765
330
1F
100
AcDbEntity
  8
STAVBA OBRYS
100
AcDbLine
 10
161.2851046169053
 20
80.77803395258934
 30
0.0
 11
161.2851046169016
 21
422.7402686984355
 31
0.0
  0
LINE
  5
3766
330
1F
100
AcDbEntity
  8
STAVBA OBRYS
100
AcDbLine
 10
86.05285033215841
 20
80.7780339525857
 30
0.0
 11
86.05285033215841
 21
408.8839840901577
 31
0.0
  0
LINE
  5
3767
330
1F
100
AcDbEntity
  8
STAVBA OBRYS
100
AcDbLine
 10
98.05285033215477
 20
80.7780339525857
 30
0.0
 11
98.05285033215477
 21
411.0941453684567
 31
0.0
  0
TEXT
  5
3768
330
1F
100
AcDbEntity
  8
POPIS
100
AcDbText
 10
540.7665583824855
 20
332.5774063168091
 30
0.0
 40
25.0
  1
Deska CETRIS    tl. 12 mm, spodní
 41
0.7
  7
SIMPLEX7
100
AcDbText
  0
TEXT
  5
3769
330
1F
100
AcDbEntity
  8
POPIS
100
AcDbText
 10
486.4228552227432
 20
333.6027398845262
 30
0.0
 40
25.0
  1
06
 41
0.85
  7
SIMPLEX7
100
AcDbText
  0
TEXT
  5
376A
330
1F
100
AcDbEntity
  8
POPIS
100
AcDbText
 10
486.4228552227432
 20
299.7174683452403
 30
0.0
 40
25.0
  1
07
 41
0.85
  7
SIMPLEX7
100
AcDbText
  0
TEXT
  5
376B
330
1F
100
AcDbEntity
  8
POPIS
100
AcDbText
 10
486.4228552227432
 20
262.8819283423481
 30
0.0
 40
25.0
  1
08
 41
0.85
  7
SIMPLEX7
100
AcDbText
  0
TEXT
  5
376C
330
1F
100
AcDbEntity
  8
POPIS
100
AcDbText
 10
486.4228552227432
 20
227.3562874410463
 30
0.0
 40
25.0
  1
09
 41
0.85
  7
SIMPLEX7
100
AcDbText
  0
TEXT
  5
376D
330
1F
100
AcDbEntity
  8
POPIS
100
AcDbText
 10
486.4228552227432
 20
192.0706612483472
 30
0.0
 40
25.0
  1
10
 41
0.85
  7
SIMPLEX7
100
AcDbText
  0
HATCH
  5
376E
330
1F
100
AcDbEntity
  8
STAVBA OBRYS
100
AcDbHatch
 10
0.0
 20
0.0
 30
0.0
210
0.0
220
0.0
230
1.0
  2
ANSI35
 70
     0
 71
     0
 91
       10
 92
        7
 72
     0
 73
     1
 93
       11
 10
492.1710332627013
 20
73.37843942322274
 10
127.550623262821
 20
73.37843942322184
 10
127.5506232628213
 20
47.64258602572931
 10
123.9727804942999
 20
41.90921436895723
 10
123.9913732860838
 20
42.04728268298959
 10
120.4996904158724
 20
47.64258602573022
 10
120.4996904158726
 20
73.37843942322161
 10
115.2903930074317
 20
73.37843942322161
 10
-26.5600032515797
 20
73.37843942322184
 10
-26.56000325157947
 20
-22.16254469510977
 10
492.1710332627007
 20
-22.16254469510977
 97
        0
 92
       22
 72
     1
 73
     1
 93
        2
 10
464.0302825363869
 20
56.85733685863033
 42
-1.0
 10
464.0302825363855
 20
59.35733685863033
 42
-1.0
 97
        0
 92
       24
 93
        4
 72
     1
 10
122.9459655154905
 20
-2.1180436110144
 11
163.7859211771551
 21
-2.1180436110144
 72
     1
 10
163.7859211771551
 20
-2.1180436110144
 11
163.7859211771551
 21
36.20051027711634
 72
     1
 10
163.7859211771551
 20
36.20051027711634
 11
122.9459655154905
 21
36.20051027711634
 72
     1
 10
122.9459655154905
 20
36.20051027711634
 11
122.9459655154905
 21
-2.1180436110144
 97
        0
 92
       24
 93
        4
 72
     1
 10
69.96882403464929
 20
-2.096727103511284
 11
110.8002530933124
 21
-2.096727103511284
 72
     1
 10
110.8002530933124
 20
-2.096727103511284
 11
110.8002530933124
 21
36.19624697561585
 72
     1
 10
110.8002530933124
 20
36.19624697561585
 11
69.96882403464929
 21
36.19624697561585
 72
     1
 10
69.96882403464929
 20
36.19624697561585
 11
69.96882403464929
 21
-2.096727103511284
 97
        0
 92
       24
 93
        4
 72
     1
 10
439.4713065845771
 20
-2.096727103511284
 11
480.3027356432399
 21
-2.096727103511284
 72
     1
 10
480.3027356432399
 20
-2.096727103511284
 11
480.3027356432399
 21
36.19624697561585
 72
     1
 10
480.3027356432399
 20
36.19624697561585
 11
439.4713065845771
 21
36.19624697561585
 72
     1
 10
439.4713065845771
 20
36.19624697561585
 11
439.4713065845771
 21
-2.096727103511284
 97
        0
 92
       24
 93
        4
 72
     1
 10
222.0907448939958
 20
-2.096727103511284
 11
262.922173952659
 21
-2.096727103511284
 72
     1
 10
262.922173952659
 20
-2.096727103511284
 11
262.922173952659
 21
36.19624697561585
 72
     1
 10
262.922173952659
 20
36.19624697561585
 11
222.0907448939958
 21
36.19624697561585
 72
     1
 10
222.0907448939958
 20
36.19624697561585
 11
222.0907448939958
 21
-2.096727103511284
 97
        0
 92
       24
 93
        4
 72
     1
 10
268.0125689244793
 20
-2.096727103511284
 11
308.8439979831423
 21
-2.096727103511284
 72
     1
 10
308.8439979831423
 20
-2.096727103511284
 11
308.8439979831423
 21
36.19624697561585
 72
     1
 10
308.8439979831423
 20
36.19624697561585
 11
268.0125689244793
 21
36.19624697561585
 72
     1
 10
268.0125689244793
 20
36.19624697561585
 11
268.0125689244793
 21
-2.096727103511284
 97
        0
 92
       24
 93
        4
 72
     1
 10
313.9343929549704
 20
-2.096727103511284
 11
354.7658220136331
 21
-2.096727103511284
 72
     1
 10
354.7658220136331
 20
-2.096727103511284
 11
354.7658220136331
 21
36.19624697561585
 72
     1
 10
354.7658220136331
 20
36.19624697561585
 11
313.9343929549704
 21
36.19624697561585
 72
     1
 10
313.9343929549704
 20
36.19624697561585
 11
313.9343929549704
 21
-2.096727103511284
 97
        0
 92
       24
 93
        4
 72
     1
 10
358.0553837325915
 20
-2.096727103511284
 11
398.8868127912542
 21
-2.096727103511284
 72
     1
 10
398.8868127912542
 20
-2.096727103511284
 11
398.8868127912542
 21
36.19624697561585
 72
     1
 10
398.8868127912542
 20
36.19624697561585
 11
358.0553837325915
 21
36.19624697561585
 72
     1
 10
358.0553837325915
 20
36.19624697561585
 11
358.0553837325915
 21
-2.096727103511284
 97
        0
 92
       24
 93
        4
 72
     1
 10
402.6945307368277
 20
-2.096727103511284
 11
443.5259597954905
 21
-2.096727103511284
 72
     1
 10
443.5259597954905
 20
-2.096727103511284
 11
443.5259597954905
 21
36.19624697561585
 72
     1
 10
443.5259597954905
 20
36.19624697561585
 11
402.6945307368277
 21
36.19624697561585
 72
     1
 10
402.6945307368277
 20
36.19624697561585
 11
402.6945307368277
 21
-2.096727103511284
 97
        0
 75
     0
 76
     1
 52
0.0
 41
2.0
 77
     0
 78
     2
 53
45.0
 43
-1769.041562424308
 44
-1909.038960477226
 45
-8.980256121069151
 46
8.980256121069153
 79
     0
 53
45.0
 43
-1760.061302424309
 44
-1909.038960477226
 45
-8.980256121069151
 46
8.980256121069153
 79
     4
 49
15.875
 49
-3.174999999999999
 49
0.0
 49
-3.174999999999999
 47
1.36018740456103
 98
        2
 10
213.7901116477642
 20
6.84712616738534
 10
213.7901116477642
 20
6.84712616738534
  0
TEXT
  5
376F
330
1F
100
AcDbEntity
  8
POPIS
100
AcDbText
 10
129.3323911635125
 20
4.711765393078167
 30
0.0
 40
25.0
  1
03
 41
0.85
  7
SIMPLEX7
100
AcDbText
  0
TEXT
  5
3770
330
1F
100
AcDbEntity
  8
POPIS
100
AcDbText
 10
76.35098638117051
 20
4.711765393078167
 30
0.0
 40
25.0
  1
02
 41
0.85
  7
SIMPLEX7
100
AcDbText
  0
LINE
  5
3771
330
1F
100
AcDbEntity
  8
SPOJOVACÍ
  6
DASHDOT2
100
AcDbLine
 10
124.0251568393468
 20
92.91634898866368
 30
0.0
 11
124.0251568393468
 21
24.51059377969477
 31
0.0
  0
TEXT
  5
3772
330
1F
100
AcDbEntity
  8
POPIS
100
AcDbText
 10
445.8534689310981
 20
4.711765393078167
 30
0.0
 40
25.0
  1
10
 41
0.85
  7
SIMPLEX7
100
AcDbText
  0
TEXT
  5
3773
330
1F
100
AcDbEntity
  8
POPIS
100
AcDbText
 10
228.472907240517
 20
4.711765393078167
 30
0.0
 40
25.0
  1
05
 41
0.85
  7
SIMPLEX7
100
AcDbText
  0
TEXT
  5
3774
330
1F
100
AcDbEntity
  8
POPIS
100
AcDbText
 10
274.3947312710006
 20
4.711765393078167
 30
0.0
 40
25.0
  1
06
 41
0.85
  7
SIMPLEX7
100
AcDbText
  0
TEXT
  5
3775
330
1F
100
AcDbEntity
  8
POPIS
100
AcDbText
 10
320.3165553014914
 20
4.711765393078167
 30
0.0
 40
25.0
  1
07
 41
0.85
  7
SIMPLEX7
100
AcDbText
  0
TEXT
  5
3776
330
1F
100
AcDbEntity
  8
POPIS
100
AcDbText
 10
364.4375460791124
 20
4.711765393078167
 30
0.0
 40
25.0
  1
08
 41
0.85
  7
SIMPLEX7
100
AcDbText
  0
TEXT
  5
3777
330
1F
100
AcDbEntity
  8
POPIS
100
AcDbText
 10
409.0766930833487
 20
4.711765393078167
 30
0.0
 40
25.0
  1
09
 41
0.85
  7
SIMPLEX7
100
AcDbText
  0
HATCH
  5
3778
330
1F
100
AcDbEntity
  8
CETRIS
100
AcDbHatch
 10
0.0
 20
0.0
 30
0.0
210
0.0
220
0.0
230
1.0
  2
ANSI31
 70
     0
 71
     0
 91
        5
 92
        7
 72
     0
 73
     1
 93
       23
 10
492.1710332627013
 20
118.3784394232216
 10
337.7408427354239
 20
118.3784394232216
 10
337.6105504079246
 20
118.2481470949687
 10
337.2230599543454
 20
118.3784394232218
 10
336.9514836514645
 20
118.3784394232218
 10
336.9514836514649
 20
115.9965088435053
 10
337.6105504079237
 20
115.7750514995673
 10
337.9806487514506
 20
115.5608320137812
 10
337.6105504079237
 20
115.1907336683862
 10
336.9514836514645
 20
115.4121910122789
 10
336.9514836514645
 20
112.9383354239587
 10
337.6105504079223
 20
112.7167265007894
 10
337.9806487514506
 20
112.5034185871982
 10
337.6105504079241
 20
112.1324086693448
 10
336.9514836514645
 20
112.3540175925133
 10
336.9514836514645
 20
109.8809219971487
 10
337.610550407925
 20
109.6593130739345
 10
337.9806487514506
 20
109.4460051606083
 10
337.6105504079246
 20
109.0749952427549
 10
336.9514836514649
 20
109.2966041659247
 10
336.9514836514649
 20
106.6449714365633
 10
338.0176117048335
 20
106.3784394232213
 10
492.1710332627007
 20
106.3784394232218
 97
        0
 92
        7
 72
     1
 73
     1
 93
       29
 10
334.306100891983
 20
113.2435184191765
 42
0.0
 10
333.6470341355234
 20
113.4651273423451
 42
0.0
 10
333.2769357877186
 20
113.6793468281309
 42
0.0
 10
333.6470341355234
 20
114.0494451737968
 42
0.0
 10
334.306100891983
 20
113.8278362506268
 42
0.0
 10
334.3061008919835
 20
116.3010834253057
 42
0.0
 10
333.6470341355243
 20
116.5225407691978
 42
0.0
 10
333.2769357877186
 20
116.7367602549848
 42
0.0
 10
333.6470341355234
 20
117.1068586006504
 42
0.0
 10
334.306100891983
 20
116.8854012567126
 42
0.0
 10
334.306100891983
 20
118.3784394232213
 42
0.0
 10
246.0561177035013
 20
118.3784394232213
 42
0.0
 10
246.0561177035013
 20
106.3784394232206
 42
0.0
 10
291.1172350560623
 20
106.3784394232206
 42
0.0
 10
291.1172350560627
 20
111.6752602502283
 42
-1.0
 10
291.1172350560614
 20
114.1752602502283
 42
-1.0
 10
291.1172350560627
 20
111.6752602502283
 42
0.0
 10
291.1172350560627
 20
106.3784394232204
 42
0.0
 10
334.306100891983
 20
106.3784394232204
 42
0.0
 10
334.306100891983
 20
107.1286915659591
 42
0.0
 10
333.6470341355216
 20
107.3503004891731
 42
0.0
 10
333.2769357877186
 20
107.5636084024999
 42
0.0
 10
333.6470341355234
 20
107.9346183206241
 42
0.0
 10
334.306100891983
 20
107.7130093974103
 42
0.0
 10
334.306100891983
 20
110.1861049925928
 42
0.0
 10
333.6470341355207
 20
110.4077139157623
 42
0.0
 10
333.2769357877186
 20
110.6219334015413
 42
0.0
 10
333.6470341355234
 20
110.9920317472069
 42
0.0
 10
334.306100891983
 20
110.7704228239936
 42
0.0
 97
        0
 92
        7
 72
     0
 73
     1
 93
       24
 10
234.306100891983
 20
116.3010834253054
 10
233.6470341355236
 20
116.5225407691991
 10
233.2769357877186
 20
116.736760254985
 10
233.6470341355234
 20
117.1068586006501
 10
234.306100891983
 20
116.8854012567121
 10
234.306100891983
 20
118.3784394232216
 10
176.2851046169048
 20
118.3784394232216
 10
176.2851046169048
 20
106.3784394232204
 10
234.3061008919828
 20
106.3784394232204
 10
234.3061008919832
 20
107.1286915659595
 10
233.6470341355218
 20
107.3503004891726
 10
233.2769357877189
 20
107.5636084024997
 10
233.6470341355234
 20
107.9346183206241
 10
234.306100891983
 20
107.7130093974108
 10
234.3061008919828
 20
110.1861049925926
 10
233.6470341355243
 20
110.4077139157625
 10
233.2769357877189
 20
110.6219334015415
 10
233.6470341355229
 20
110.9920317472067
 10
234.3061008919828
 20
110.7704228239931
 10
234.3061008919828
 20
113.2435184191765
 10
233.6470341355243
 20
113.4651273423462
 10
233.2769357877186
 20
113.6793468281312
 10
233.6470341355229
 20
114.0494451737965
 10
234.3061008919832
 20
113.8278362506268
 97
        0
 92
        7
 72
     0
 73
     1
 93
       23
 10
71.05285033215841
 20
118.3784394232218
 10
40.53395792412675
 20
118.378439423222
 10
40.40366559662652
 20
118.248147094969
 10
40.01617514304735
 20
118.3784394232213
 10
39.74459884016687
 20
118.3784394232216
 10
39.7445988401671
 20
115.9965088435051
 10
40.40366559662584
 20
115.7750514995664
 10
40.77376394015277
 20
115.5608320137805
 10
40.40366559662652
 20
115.1907336683862
 10
39.7445988401671
 20
115.4121910122794
 10
39.74459884016664
 20
112.9383354239587
 10
40.40366559662674
 20
112.716726500789
 10
40.77376394015323
 20
112.5034185871982
 10
40.40366559662652
 20
112.132408669345
 10
39.74459884016687
 20
112.3540175925133
 10
39.74459884016687
 20
109.8809219971487
 10
40.40366559662698
 20
109.6593130739352
 10
40.77376394015323
 20
109.4460051606086
 10
40.40366559662629
 20
109.0749952427547
 10
39.7445988401671
 20
109.2966041659247
 10
39.74459884016642
 20
106.6449714365635
 10
40.81072689353732
 20
106.3784394232213
 10
71.05285033215841
 20
106.3784394232211
 97
        0
 92
        7
 72
     0
 73
     1
 93
       24
 10
37.09921608068543
 20
113.2435184191767
 10
36.44014932422624
 20
113.4651273423453
 10
36.07005097642127
 20
113.6793468281314
 10
36.44014932422578
 20
114.0494451737968
 10
37.09921608068566
 20
113.8278362506273
 10
37.09921608068521
 20
116.3010834253057
 10
36.44014932422396
 20
116.5225407691991
 10
36.07005097642104
 20
116.7367602549852
 10
36.44014932422578
 20
117.1068586006504
 10
37.09921608068543
 20
116.8854012567126
 10
37.09921608068566
 20
118.3784394232216
 10
-26.5600032515797
 20
118.3784394232216
 10
-26.56000325157924
 20
106.3784394232211
 10
37.09921608068521
 20
106.3784394232211
 10
37.09921608068589
 20
107.1286915659593
 10
36.44014932422601
 20
107.3503004891717
 10
36.07005097642081
 20
107.5636084024997
 10
36.44014932422555
 20
107.9346183206243
 10
37.09921608068543
 20
107.713009397411
 10
37.09921608068543
 20
110.186104992593
 10
36.44014932422555
 20
110.407713915763
 10
36.07005097642127
 20
110.6219334015415
 10
36.44014932422533
 20
110.9920317472067
 10
37.09921608068543
 20
110.7704228239929
 97
        0
 75
     0
 76
     1
 52
0.0
 41
1.0
 77
     0
 78
     1
 53
45.0
 43
-1769.041562424308
 44
-1909.038960477226
 45
-2.245064030267287
 46
2.245064030267288
 79
     0
 47
0.5687377918710887
 98
        5
 10
379.9537836884101
 20
112.9669629883624
 10
326.4632258776273
 20
112.3982254791567
 10
222.896455674605
 20
114.1044380067664
 10
53.8890965597293
 20
111.8294879699547
 10
19.74617596579446
 20
111.8294879699547
  0
HATCH
  5
3779
330
1F
100
AcDbEntity
  8
CETRIS
100
AcDbHatch
 10
0.0
 20
0.0
 30
0.0
210
0.0
220
0.0
230
1.0
  2
ANSI31
 70
     0
 71
     0
 91
        6
 92
        7
 72
     0
 73
     1
 93
       15
 10
35.83486533165773
 20
127.4258568086554
 10
34.74644802930606
 20
128.4732533582805
 10
33.42375664742553
 20
129.2025111820253
 10
33.42375664742576
 20
130.3784394232216
 10
-26.56000325157947
 20
130.3784394232216
 10
-26.56000325157924
 20
118.3784394232218
 10
37.09921608068521
 20
118.378439423222
 10
37.09921608068566
 20
119.3592568450267
 10
36.44014932422715
 20
119.5808657682398
 10
36.07005097642058
 20
119.7941736815669
 10
36.44014932422578
 20
120.1651835994205
 10
37.09921608068543
 20
119.9435746762519
 10
37.09921608068566
 20
123.9108340975524
 10
37.03449444840202
 20
124.6820242462165
 10
36.61517120138887
 20
126.1332473159243
 97
        0
 92
        7
 72
     0
 73
     1
 93
       13
 10
71.05285033215864
 20
130.3784394232213
 10
43.42005826914828
 20
130.3784394232211
 10
43.42005826914828
 20
129.2025111820251
 10
42.71905918670336
 20
128.8725220168992
 10
41.50666805398304
 20
127.9728001766666
 10
40.56774860539781
 20
126.7895793574261
 10
39.96702247323241
 20
125.4039894919155
 10
39.74459884016687
 20
123.9108340975542
 10
39.7445988401671
 20
119.0540738495892
 10
40.40366559662743
 20
118.8324649264204
 10
40.77376394015323
 20
118.6182454406343
 10
40.53395792412607
 20
118.3784394232213
 10
71.05285033215818
 20
118.3784394232216
 97
        0
 92
        7
 72
     0
 73
     1
 93
       16
 10
233.6470341355234
 20
120.1651835994205
 10
234.306100891983
 20
119.9435746762521
 10
234.306100891983
 20
123.9108340975553
 10
234.2413792596999
 20
124.6820242462154
 10
233.8220560126862
 20
126.1332473159241
 10
233.0417501429549
 20
127.4258568086563
 10
231.9533328406034
 20
128.4732533582791
 10
230.6306414587231
 20
129.2025111820248
 10
230.6306414587231
 20
130.3784394232213
 10
176.2851046169052
 20
130.3784394232218
 10
176.2851046169055
 20
118.3784394232218
 10
177.1022220645209
 20
118.3784394232216
 10
234.306100891983
 20
118.3784394232218
 10
234.306100891983
 20
119.3592568450267
 10
233.6470341355229
 20
119.5808657682389
 10
233.2769357877186
 20
119.7941736815675
 97
        0
 92
        7
 72
     1
 73
     1
 93
       18
 10
284.6549497366022
 20
130.3784394232216
 42
0.0
 10
240.6269430804456
 20
130.3784394232216
 42
0.0
 10
240.6269430804456
 20
129.2025111820246
 42
0.0
 10
239.9259439980012
 20
128.8725220168985
 42
0.0
 10
238.7135528652809
 20
127.972800176667
 42
0.0
 10
237.7746334166952
 20
126.7895793574252
 42
0.0
 10
237.1739072845305
 20
125.4039894919164
 42
0.0
 10
236.9514836514645
 20
123.9108340975558
 42
0.0
 10
236.9514836514643
 20
119.054073849589
 42
0.0
 10
237.6105504079252
 20
118.8324649264193
 42
0.0
 10
237.9806487514508
 20
118.6182454406343
 42
0.0
 10
237.7408427354241
 20
118.3784394232216
 42
0.0
 10
246.0561177035015
 20
118.3784394232218
 42
0.0
 10
246.0561177035015
 20
122.7498026923103
 42
-1.0
 10
246.0561177035001
 20
125.2498026923103
 42
-1.0
 10
246.0561177035015
 20
122.7498026923103
 42
0.0
 10
246.0561177035017
 20
118.3784394232218
 42
0.0
 10
284.6549497366018
 20
118.3784394232216
 42
0.0
 97
        0
 92
        7
 72
     0
 73
     1
 93
       15
 10
334.306100891983
 20
123.9108340975519
 10
334.2413792596999
 20
124.6820242462176
 10
333.8220560126865
 20
126.1332473159247
 10
333.0417501429551
 20
127.4258568086552
 10
331.9533328406032
 20
128.4732533582791
 10
330.6306414587234
 20
129.2025111820246
 10
330.6306414587238
 20
130.3784394232213
 10
284.6549497366022
 20
130.3784394232211
 10
284.6549497366018
 20
118.3784394232218
 10
334.306100891983
 20
118.378439423222
 10
334.3061008919835
 20
119.3592568450265
 10
333.6470341355234
 20
119.5808657682393
 10
333.2769357877186
 20
119.7941736815675
 10
333.6470341355239
 20
120.1651835994207
 10
334.306100891983
 20
119.9435746762524
 97
        0
 92
        7
 72
     0
 73
     1
 93
       13
 10
492.1710332627003
 20
130.3784394232218
 10
340.6269430804459
 20
130.378439423222
 10
340.6269430804459
 20
129.2025111820248
 10
339.9259439980019
 20
128.8725220168996
 10
338.7135528652802
 20
127.9728001766663
 10
337.774633416695
 20
126.7895793574252
 10
337.1739072845302
 20
125.4039894919164
 10
336.9514836514645
 20
123.910834097556
 10
336.9514836514645
 20
119.0540738495883
 10
337.6105504079228
 20
118.8324649264209
 10
337.9806487514501
 20
118.6182454406343
 10
337.7408427354239
 20
118.3784394232216
 10
492.1710332627007
 20
118.3784394232213
 97
        0
 75
     0
 76
     1
 52
90.0
 41
1.0
 77
     0
 78
     1
 53
135.0
 43
-1769.041562424308
 44
-1909.038960477226
 45
-2.245064030267288
 46
-2.245064030267287
 79
     0
 47
0.7898775701156462
 98
        6
 10
13.84372886198798
 20
126.1992284770362
 10
58.89133919643246
 20
123.8295877891701
 10
222.4852700492465
 20
119.8802159564452
 10
271.4844457446324
 20
123.0397222167425
 10
314.1610955188534
 20
122.2498346590232
 10
355.257176065128
 20
123.8295877891701
  0
LINE
  5
377A
330
1F
100
AcDbEntity
  8
izolace
  6
IZOLACE
 48
1.5
100
AcDbLine
 10
176.285104616905
 20
91.37843942322161
 30
0.0
 11
492.1710332627007
 21
91.37843942322161
 31
0.0
  0
HATCH
  5
377B
330
1F
100
AcDbEntity
  8
nášlap_vrstvy
100
AcDbHatch
 10
0.0
 20
0.0
 30
0.0
210
0.0
220
0.0
230
1.0
  2
AR-SAND
 70
     0
 71
     0
 91
        6
 92
        7
 72
     0
 73
     1
 93
        4
 10
372.7127845087452
 20
132.4269121146799
 10
182.2540780735253
 20
132.4269121146799
 10
179.8398267696247
 20
130.3784394232216
 10
372.7127845087488
 20
130.3784394232216
 97
        0
 92
        7
 72
     0
 73
     1
 93
        4
 10
267.86787902391
 20
137.4269121146798
 10
264.1543404268741
 20
137.4269121146798
 10
264.1543404268741
 20
132.4269121146799
 10
267.8678790239136
 20
132.4269121146799
 97
        0
 92
        7
 72
     0
 73
     1
 93
        4
 10
371.8458431853032
 20
137.4269121146798
 10
367.8678790239136
 20
137.4269121146798
 10
367.8678790239136
 20
132.4269121146799
 10
371.8458431853068
 20
132.4269121146799
 97
        0
 92
        7
 72
     0
 73
     1
 93
        4
 10
164.2146935313685
 20
171.7012634502398
 10
161.2851046169053
 20
171.7012634502398
 10
161.2851046169089
 20
142.8164737627512
 10
164.2146935313612
 20
145.7343976455513
 97
        0
 92
        7
 72
     0
 73
     1
 93
       10
 10
164.2146935313576
 20
145.7343976455531
 10
161.2851046169089
 20
142.8164737627494
 10
161.2851046169089
 20
130.3784394232216
 10
162.1022220645245
 20
130.3784394232216
 10
177.1022220645245
 20
130.3784394232216
 10
179.8398267696247
 20
130.3784394232216
 10
182.2540780735216
 20
132.4269121146799
 10
164.1543404268741
 20
132.4269121146799
 10
164.1543404268704
 20
137.4269121144998
 10
164.2146935313649
 20
139.7036391988012
 97
        0
 92
       23
 72
     0
 73
     1
 93
        4
 10
169.2598180565291
 20
139.7036391988813
 10
164.2146935313612
 20
139.7036391988813
 10
164.1543404268741
 20
137.4269121146798
 10
169.2598180565255
 20
137.4269121146798
 97
        0
 75
     0
 76
     1
 52
90.0
 41
0.05
 77
     0
 78
     4
 53
127.5
 43
-24988.44674852357
 44
-2075.009221806153
 45
-2.447066186646711
 46
-0.0800015647992021
 79
     6
 49
0.0
 49
-1.9304
 49
0.0
 49
-2.159
 49
0.0
 49
-2.06375
 53
97.49999999999987
 43
-24988.44674852357
 44
-2075.009221806153
 45
-3.584125502841771
 46
2.247616415690013
 79
     6
 49
0.0
 49
-1.041399999999999
 49
0.0
 49
-1.7399
 49
0.0
 49
-0.66675
 53
57.5
 43
-24988.44674852357
 44
-2076.571321806152
 45
-0.0071859233927282
 46
3.95496185120729
 79
     6
 49
0.0
 49
-0.635
 49
0.0
 49
-2.286
 49
0.0
 49
-2.9845
 53
47.5
 43
-24988.44674852357
 44
-2076.571321806152
 45
-1.11464661628608
 46
3.817782262361486
 79
     6
 49
0.0
 49
-0.3175
 49
0.0
 49
-1.498599999999999
 49
0.0
 49
-1.7145
 47
0.2237823716160949
 98
        6
 10
328.7107925823256
 20
131.5104442568963
 10
265.985844111743
 20
135.3412928951556
 10
369.4820109802313
 20
134.2965088600931
 10
163.1107727231538
 20
147.9025676808169
 10
163.3346751177996
 20
139.8463971702904
 10
165.5738882669175
 20
138.7274917614095
  0
LWPOLYLINE
  5
377C
330
1F
100
AcDbEntity
  8
nášlap_vrstvy
100
AcDbPolyline
 90
        4
 70
     1
 43
0.0
 10
164.1543404268741
 20
132.4269121146799
 10
264.1543404268741
 20
132.4269121146799
 10
264.1543404268741
 20
137.4269121146798
 10
164.1543404268741
 20
137.4269121146798
  0
LINE
  5
377D
330
1F
100
AcDbEntity
  8
nášlap_vrstvy
100
AcDbLine
 10
492.1710332627007
 20
132.4269121146799
 30
0.0
 11
164.1543404268741
 21
132.4269121146799
 31
0.0
  0
LINE
  5
377E
330
1F
100
AcDbEntity
  8
CETRIS
100
AcDbLine
 10
176.2851046169048
 20
130.3784394232216
 30
0.0
 11
492.1710332627007
 21
130.3784394232216
 31
0.0
  0
LINE
  5
377F
102
{ACAD_REACTORS
330
3971
102
}
330
1F
100
AcDbEntity
  8
CETRIS
100
AcDbLine
 10
177.1022220645245
 20
106.3784394232216
 30
0.0
 11
492.1710332627007
 21
106.3784394232216
 31
0.0
  0
LINE
  5
3780
102
{ACAD_REACTORS
330
3971
102
}
330
1F
100
AcDbEntity
  8
CETRIS
100
AcDbLine
 10
177.1022220645245
 20
118.3784394232216
 30
0.0
 11
492.1710332627007
 21
118.3784394232213
 31
0.0
  0
LINE
  5
3781
330
1F
100
AcDbEntity
  8
izolace
100
AcDbLine
 10
-26.56000325157947
 20
76.3784394232216
 30
0.0
 11
492.1710332627003
 21
76.37843942322138
 31
0.0
  0
LINE
  5
3782
330
1F
100
AcDbEntity
  8
izolace
100
AcDbLine
 10
-26.56000325157583
 20
73.37843942322161
 30
0.0
 11
492.1710332627003
 21
73.37843942322251
 31
0.0
  0
LWPOLYLINE
  5
3783
330
1F
100
AcDbEntity
  8
izolace
100
AcDbPolyline
 90
        4
 70
     0
 43
0.0
 10
392.0163486847377
 20
73.37843942322161
 10
-26.56000325157947
 20
73.37843942322161
 10
-26.56000325157947
 20
76.3784394232216
 10
392.0163486847377
 20
76.3784394232216
  0
HATCH
  5
3784
330
1F
100
AcDbEntity
  8
nášlap_vrstvy
100
AcDbHatch
 10
0.0
 20
0.0
 30
0.0
210
0.0
220
0.0
230
1.0
  2
AR-SAND
 70
     0
 71
     0
 91
        3
 92
        7
 72
     0
 73
     1
 93
        9
 10
86.05285033216569
 20
171.7012634502398
 10
83.12326141769881
 20
171.7012634502398
 10
83.12326141769881
 20
139.7036391989558
 10
83.1836145221896
 20
137.4269121148854
 10
83.1836145221896
 20
132.4269121146799
 10
-26.56000325157583
 20
132.4269121146799
 10
-26.56000325157583
 20
130.3784394232216
 10
85.51797634577088
 20
130.3784394232216
 10
86.05285033215841
 20
130.3784394232216
 97
        0
 92
       22
 72
     0
 73
     1
 93
        4
 10
83.12326141769881
 20
139.7036391988813
 10
78.07813689253817
 20
139.7036391988813
 10
78.07813689253817
 20
137.4269121146798
 10
83.18361452219324
 20
137.4269121146798
 97
        0
 92
       23
 72
     0
 73
     1
 93
        4
 10
-16.8163854778104
 20
137.4269121146798
 10
-20.52992407484998
 20
137.4269121146798
 10
-20.52992407485362
 20
132.4269121146799
 10
-16.8163854778104
 20
132.4269121146799
 97
        0
 75
     0
 76
     1
 52
90.0
 41
0.05
 77
     0
 78
     4
 53
127.5
 43
-26010.37914824165
 44
-2075.009221806153
 45
-2.447066186646711
 46
-0.0800015647992021
 79
     6
 49
0.0
 49
-1.9304
 49
0.0
 49
-2.159
 49
0.0
 49
-2.06375
 53
97.49999999999989
 43
-26010.37914824165
 44
-2075.009221806153
 45
-3.584125502841771
 46
2.247616415690013
 79
     6
 49
0.0
 49
-1.041399999999999
 49
0.0
 49
-1.7399
 49
0.0
 49
-0.66675
 53
57.5
 43
-26010.37914824165
 44
-2076.571321806152
 45
-0.0071859233927282
 46
3.95496185120729
 79
     6
 49
0.0
 49
-0.635
 49
0.0
 49
-2.286
 49
0.0
 49
-2.9845
 53
47.5
 43
-26010.37914824165
 44
-2076.571321806152
 45
-1.11464661628608
 46
3.817782262361486
 79
     6
 49
0.0
 49
-0.3175
 49
0.0
 49
-1.498599999999999
 49
0.0
 49
-1.7145
 47
0.2229474623524009
 98
        3
 10
84.86720290765152
 20
133.6728251035974
 10
81.29786198100191
 20
138.5776574685269
 10
-18.42086011029459
 20
134.5646088759649
  0
LINE
  5
3785
330
1F
100
AcDbEntity
  8
nášlap_vrstvy
100
AcDbLine
 10
-26.56000325157947
 20
132.4269121146799
 30
0.0
 11
83.1836145221896
 21
132.4269121146799
 31
0.0
  0
LWPOLYLINE
  5
3786
330
1F
100
AcDbEntity
  8
nášlap_vrstvy
100
AcDbPolyline
 90
        4
 70
     1
 43
0.0
 10
83.1836145221896
 20
132.4269121146799
 10
-16.8163854778104
 20
132.4269121146799
 10
-16.8163854778104
 20
137.4269121146798
 10
83.1836145221896
 20
137.4269121146798
  0
LINE
  5
3787
330
1F
100
AcDbEntity
  8
CETRIS
100
AcDbLine
 10
-26.56000325157947
 20
130.3784394232216
 30
0.0
 11
71.05285033215841
 21
130.3784394232218
 31
0.0
  0
LINE
  5
3788
330
1F
100
AcDbEntity
  8
CETRIS
100
AcDbLine
 10
-26.56000325157947
 20
118.3784394232216
 30
0.0
 11
71.05285033215841
 21
118.3784394232216
 31
0.0
  0
LINE
  5
3789
330
1F
100
AcDbEntity
  8
izolace
  6
IZOLACE
 48
1.5
100
AcDbLine
 10
-26.56000325157947
 20
91.37843942322161
 30
0.0
 11
71.05285033215818
 21
91.37843942322161
 31
0.0
  0
LINE
  5
378A
330
1F
100
AcDbEntity
  8
CETRIS
100
AcDbLine
 10
-26.56000325157947
 20
106.3784394232216
 30
0.0
 11
71.05285033215841
 21
106.3784394232211
 31
0.0
  0
LWPOLYLINE
  5
378B
330
1F
100
AcDbEntity
  8
nášlap_vrstvy
100
AcDbPolyline
 90
        4
 70
     0
 43
0.0
 10
-26.56000325157947
 20
137.4269121146798
 10
-20.52992407484998
 20
137.4269121146798
 10
-20.52992407484998
 20
132.4269121146799
 10
-26.56000325157947
 20
132.4269121146799
  0
LINE
  5
378C
330
1F
100
AcDbEntity
  8
nášlap_vrstvy
100
AcDbLine
 10
-20.52992407484998
 20
137.4269121146798
 30
0.0
 11
-16.8163854778104
 21
137.4269121146798
 31
0.0
  0
LINE
  5
378D
330
1F
100
AcDbEntity
  8
SPOJOVACÍ
  6
DASHED
100
AcDbLine
 10
40.56774860539735
 20
126.7895793574252
 30
0.0
 11
41.50666805398214
 21
127.9728001766661
 31
0.0
  0
LINE
  5
378E
330
1F
100
AcDbEntity
  8
SPOJOVACÍ
  6
DASHED
100
AcDbLine
 10
39.96702247323264
 20
125.403989491916
 30
0.0
 11
40.56774860539735
 21
126.7895793574252
 31
0.0
  0
LINE
  5
378F
330
1F
100
AcDbEntity
  8
SPOJOVACÍ
  6
DASHED
100
AcDbLine
 10
39.74459884016687
 20
123.9108340975553
 30
0.0
 11
39.96702247323264
 21
125.403989491916
 31
0.0
  0
LINE
  5
3790
330
1F
100
AcDbEntity
  8
SPOJOVACÍ
  6
DASHED
100
AcDbLine
 10
43.42005826914828
 20
130.3784394232216
 30
0.0
 11
43.42005826914828
 21
129.2025111820248
 31
0.0
  0
LINE
  5
3791
330
1F
100
AcDbEntity
  8
SPOJOVACÍ
  6
DASHED
100
AcDbLine
 10
33.42375664742576
 20
130.3784394232216
 30
0.0
 11
43.42005826914828
 21
130.3784394232216
 31
0.0
  0
LINE
  5
3792
330
1F
100
AcDbEntity
  8
SPOJOVACÍ
  6
DASHED
100
AcDbLine
 10
33.42375664742576
 20
130.3784394232216
 30
0.0
 11
33.42375664742576
 21
129.2025111820248
 31
0.0
  0
LINE
  5
3793
330
1F
100
AcDbEntity
  8
SPOJOVACÍ
  6
DASHED
100
AcDbLine
 10
33.42375664742576
 20
129.2025111820248
 30
0.0
 11
43.42005826914828
 21
129.2025111820248
 31
0.0
  0
LINE
  5
3794
330
1F
100
AcDbEntity
  8
SPOJOVACÍ
  6
DASHED
100
AcDbLine
 10
42.71905918670381
 20
128.8725220168989
 30
0.0
 11
43.42005826914828
 21
129.2025111820248
 31
0.0
  0
LINE
  5
3795
330
1F
100
AcDbEntity
  8
SPOJOVACÍ
  6
DASHED
100
AcDbLine
 10
41.50666805398214
 20
127.9728001766661
 30
0.0
 11
42.71905918670381
 21
128.8725220168989
 31
0.0
  0
LINE
  5
3796
330
1F
100
AcDbEntity
  8
SPOJOVACÍ
  6
DASHED
100
AcDbLine
 10
37.03449444840225
 20
124.6820242462154
 30
0.0
 11
37.09921608068543
 21
123.9108340975553
 31
0.0
  0
LINE
  5
3797
330
1F
100
AcDbEntity
  8
SPOJOVACÍ
  6
DASHED
100
AcDbLine
 10
36.61517120138887
 20
126.1332473159245
 30
0.0
 11
37.03449444840225
 21
124.6820242462154
 31
0.0
  0
LINE
  5
3798
330
1F
100
AcDbEntity
  8
SPOJOVACÍ
  6
DASHED
100
AcDbLine
 10
35.83486533165705
 20
127.4258568086561
 30
0.0
 11
36.61517120138887
 21
126.1332473159245
 31
0.0
  0
LINE
  5
3799
330
1F
100
AcDbEntity
  8
SPOJOVACÍ
  6
DASHED
100
AcDbLine
 10
34.74644802930561
 20
128.47325335828
 30
0.0
 11
35.83486533165705
 21
127.4258568086561
 31
0.0
  0
LINE
  5
379A
330
1F
100
AcDbEntity
  8
SPOJOVACÍ
  6
DASHED
100
AcDbLine
 10
33.42375664742576
 20
129.2025111820248
 30
0.0
 11
34.74644802930561
 21
128.47325335828
 31
0.0
  0
LINE
  5
379B
330
1F
100
AcDbEntity
  8
SPOJOVACÍ
  6
DASHED
100
AcDbLine
 10
39.74459884016687
 20
123.9108340975553
 30
0.0
 11
39.74459884016687
 21
119.0667390022053
 31
0.0
  0
LINE
  5
379C
330
1F
100
AcDbEntity
  8
SPOJOVACÍ
  6
DASHED
100
AcDbLine
 10
37.09921608068543
 20
123.9108340975553
 30
0.0
 11
37.09921608068543
 21
119.9536988304689
 31
0.0
  0
LINE
  5
379D
330
1F
100
AcDbEntity
  8
SPOJOVACÍ
  6
DASHED
100
AcDbLine
 10
37.09921608068543
 20
119.370292571476
 30
0.0
 11
37.09921608068543
 21
116.9017548375477
 31
0.0
  0
LINE
  5
379E
330
1F
100
AcDbEntity
  8
SPOJOVACÍ
  6
DASHED
100
AcDbLine
 10
37.09921608068543
 20
116.3101444280591
 30
0.0
 11
37.09921608068543
 21
113.8397835494843
 31
0.0
  0
LINE
  5
379F
330
1F
100
AcDbEntity
  8
SPOJOVACÍ
  6
DASHED
100
AcDbLine
 10
37.09921608068543
 20
113.2572888626791
 30
0.0
 11
37.09921608068543
 21
110.7796354060674
 31
0.0
  0
LINE
  5
37A0
330
1F
100
AcDbEntity
  8
SPOJOVACÍ
  6
DASHED
100
AcDbLine
 10
39.74459884016687
 20
118.4751285927168
 30
0.0
 11
39.74459884016687
 21
116.0065908587885
 31
0.0
  0
LINE
  5
37A1
330
1F
100
AcDbEntity
  8
SPOJOVACÍ
  6
DASHED
100
AcDbLine
 10
39.74459884016687
 20
115.4222730273368
 30
0.0
 11
39.74459884016687
 21
112.944619570725
 31
0.0
  0
LINE
  5
37A2
330
1F
100
AcDbEntity
  8
SPOJOVACÍ
  6
DASHED
100
AcDbLine
 10
39.74459884016687
 20
112.3621248839199
 30
0.0
 11
39.74459884016687
 21
109.891764005345
 31
0.0
  0
LINE
  5
37A3
330
1F
100
AcDbEntity
  8
SPOJOVACÍ
  6
DASHED
100
AcDbLine
 10
37.09921608068543
 20
110.1871134241273
 30
0.0
 11
37.09921608068543
 21
107.7194872623868
 31
0.0
  0
LINE
  5
37A4
330
1F
100
AcDbEntity
  8
SPOJOVACÍ
  6
DASHED
100
AcDbLine
 10
37.09921608068543
 20
107.1351694309351
 30
0.0
 11
37.09921608068543
 21
105.9127510038842
 31
0.0
  0
LINE
  5
37A5
330
1F
100
AcDbEntity
  8
SPOJOVACÍ
  6
DASHED
100
AcDbLine
 10
39.74459884016687
 20
109.3028883126908
 30
0.0
 11
39.74459884016687
 21
106.8343505787624
 31
0.0
  0
LINE
  5
37A6
330
1F
100
AcDbEntity
  8
SPOJOVACÍ
  6
DASHED
100
AcDbLine
 10
39.74459884016687
 20
106.2427401690101
 30
0.0
 11
39.74459884016687
 21
105.9127510038842
 31
0.0
  0
LINE
  5
37A7
330
1F
100
AcDbEntity
  8
SPOJOVACÍ
  6
DASHED
100
AcDbLine
 10
37.09921608068543
 20
105.9127510038842
 30
0.0
 11
37.24597921735403
 21
104.7395574795146
 31
0.0
  0
LINE
  5
37A8
330
1F
100
AcDbEntity
  8
SPOJOVACÍ
  6
DASHED
100
AcDbLine
 10
38.42190745828702
 20
95.32848526223006
 30
0.0
 11
38.7692164997934
 21
98.10786914347318
 31
0.0
  0
LINE
  5
37A9
330
1F
100
AcDbEntity
  8
SPOJOVACÍ
  6
DASHED
100
AcDbLine
 10
37.32163971802947
 20
104.1315387687782
 30
0.0
 11
37.60605027055862
 21
101.8562543584348
 31
0.0
  0
LINE
  5
37AA
330
1F
100
AcDbEntity
  8
SPOJOVACÍ
  6
DASHED
100
AcDbLine
 10
37.68353391454002
 20
101.2382083525635
 30
0.0
 11
37.96794446279091
 21
98.96383551441523
 31
0.0
  0
LINE
  5
37AB
330
1F
100
AcDbEntity
  8
SPOJOVACÍ
  6
DASHED
100
AcDbLine
 10
38.04360496346635
 20
98.35581680367887
 30
0.0
 11
38.42190745828702
 21
95.32848526223006
 31
0.0
  0
LINE
  5
37AC
330
1F
100
AcDbEntity
  8
SPOJOVACÍ
  6
DASHED
100
AcDbLine
 10
38.83940756627271
 20
98.66575137879863
 30
0.0
 11
39.10194038201734
 21
100.7678370560834
 31
0.0
  0
LINE
  5
37AD
330
1F
100
AcDbEntity
  8
SPOJOVACÍ
  6
DASHED
100
AcDbLine
 10
39.17213144421839
 20
101.3284540082431
 30
0.0
 11
39.43375269044918
 21
103.4223355350395
 31
0.0
  0
LINE
  5
37AE
330
1F
100
AcDbEntity
  8
SPOJOVACÍ
  6
DASHED
100
AcDbLine
 10
39.50394375692849
 20
103.9811293428237
 30
0.0
 11
39.74459884016687
 21
105.9127510038842
 31
0.0
  0
LINE
  5
37AF
330
1F
100
AcDbEntity
  8
SPOJOVACÍ
  6
DASHED
100
AcDbLine
 10
36.07005097642104
 20
119.7941736815673
 30
0.0
 11
40.773763940153
 21
118.6182454406343
 31
0.0
  0
LINE
  5
37B0
330
1F
100
AcDbEntity
  8
SPOJOVACÍ
  6
DASHED
100
AcDbLine
 10
36.07005097642104
 20
119.7941736815673
 30
0.0
 11
36.44014932422578
 21
119.58086576824
 31
0.0
  0
LINE
  5
37B1
330
1F
100
AcDbEntity
  8
SPOJOVACÍ
  6
DASHED
100
AcDbLine
 10
36.07005097642104
 20
119.7941736815673
 30
0.0
 11
36.44014932422578
 21
120.1651835994207
 31
0.0
  0
LINE
  5
37B2
330
1F
100
AcDbEntity
  8
SPOJOVACÍ
  6
DASHED
100
AcDbLine
 10
40.773763940153
 20
118.6182454406343
 30
0.0
 11
40.40366559662652
 21
118.2481470949687
 31
0.0
  0
LINE
  5
37B3
330
1F
100
AcDbEntity
  8
SPOJOVACÍ
  6
DASHED
100
AcDbLine
 10
40.773763940153
 20
118.6182454406343
 30
0.0
 11
40.40366559662652
 21
118.8324649264204
 31
0.0
  0
LINE
  5
37B4
330
1F
100
AcDbEntity
  8
SPOJOVACÍ
  6
DASHED
100
AcDbLine
 10
36.44014932422578
 20
119.58086576824
 30
0.0
 11
40.40366559662652
 21
118.2481470949687
 31
0.0
  0
LINE
  5
37B5
330
1F
100
AcDbEntity
  8
SPOJOVACÍ
  6
DASHED
100
AcDbLine
 10
36.44014932422578
 20
120.1651835994207
 30
0.0
 11
40.40366559662652
 21
118.8324649264204
 31
0.0
  0
LINE
  5
37B6
330
1F
100
AcDbEntity
  8
SPOJOVACÍ
  6
DASHED
100
AcDbLine
 10
36.07005097642104
 20
116.7367602549848
 30
0.0
 11
40.773763940153
 21
115.5608320137807
 31
0.0
  0
LINE
  5
37B7
330
1F
100
AcDbEntity
  8
SPOJOVACÍ
  6
DASHED
100
AcDbLine
 10
36.07005097642104
 20
116.7367602549848
 30
0.0
 11
36.44014932422578
 21
116.5225407691987
 31
0.0
  0
LINE
  5
37B8
330
1F
100
AcDbEntity
  8
SPOJOVACÍ
  6
DASHED
100
AcDbLine
 10
36.07005097642104
 20
116.7367602549848
 30
0.0
 11
36.44014932422578
 21
117.1068586006504
 31
0.0
  0
LINE
  5
37B9
330
1F
100
AcDbEntity
  8
SPOJOVACÍ
  6
DASHED
100
AcDbLine
 10
40.773763940153
 20
115.5608320137807
 30
0.0
 11
40.40366559662652
 21
115.1907336683862
 31
0.0
  0
LINE
  5
37BA
330
1F
100
AcDbEntity
  8
SPOJOVACÍ
  6
DASHED
100
AcDbLine
 10
40.773763940153
 20
115.5608320137807
 30
0.0
 11
40.40366559662652
 21
115.7750514995668
 31
0.0
  0
LINE
  5
37BB
330
1F
100
AcDbEntity
  8
SPOJOVACÍ
  6
DASHED
100
AcDbLine
 10
36.44014932422578
 20
116.5225407691987
 30
0.0
 11
40.40366559662652
 21
115.1907336683862
 31
0.0
  0
LINE
  5
37BC
330
1F
100
AcDbEntity
  8
SPOJOVACÍ
  6
DASHED
100
AcDbLine
 10
36.44014932422578
 20
117.1068586006504
 30
0.0
 11
40.40366559662652
 21
115.7750514995668
 31
0.0
  0
LINE
  5
37BD
330
1F
100
AcDbEntity
  8
SPOJOVACÍ
  6
DASHED
100
AcDbLine
 10
36.31891021095361
 20
104.5481273008326
 30
0.0
 11
36.6899201282722
 21
104.3339078150465
 31
0.0
  0
LINE
  5
37BE
330
1F
100
AcDbEntity
  8
SPOJOVACÍ
  6
DASHED
100
AcDbLine
 10
36.31891021095361
 20
104.5481273008326
 30
0.0
 11
36.6899201282722
 21
104.9182256464982
 31
0.0
  0
LINE
  5
37BF
330
1F
100
AcDbEntity
  8
SPOJOVACÍ
  6
DASHED
100
AcDbLine
 10
40.36173327064171
 20
103.5946226961741
 30
0.0
 11
39.99163492711522
 21
103.2236127780497
 31
0.0
  0
LINE
  5
37C0
330
1F
100
AcDbEntity
  8
SPOJOVACÍ
  6
DASHED
100
AcDbLine
 10
40.36173327064171
 20
103.5946226961741
 30
0.0
 11
39.99163492711522
 21
103.8079306095014
 31
0.0
  0
LINE
  5
37C1
330
1F
100
AcDbEntity
  8
SPOJOVACÍ
  6
DASHED
100
AcDbLine
 10
36.6899201282722
 20
104.3339078150465
 30
0.0
 11
39.99163492711522
 21
103.2236127780497
 31
0.0
  0
LINE
  5
37C2
330
1F
100
AcDbEntity
  8
SPOJOVACÍ
  6
DASHED
100
AcDbLine
 10
36.6899201282722
 20
104.9182256464982
 30
0.0
 11
39.99163492711522
 21
103.8079306095014
 31
0.0
  0
LINE
  5
37C3
330
1F
100
AcDbEntity
  8
SPOJOVACÍ
  6
DASHED
100
AcDbLine
 10
36.31891021095361
 20
104.5481273008326
 30
0.0
 11
40.36173327064171
 21
103.5946226961741
 31
0.0
  0
LINE
  5
37C4
330
1F
100
AcDbEntity
  8
SPOJOVACÍ
  6
DASHED
100
AcDbLine
 10
36.87223458293738
 20
101.5937215416206
 30
0.0
 11
37.24233293074212
 21
101.3804136282933
 31
0.0
  0
LINE
  5
37C5
330
1F
100
AcDbEntity
  8
SPOJOVACÍ
  6
DASHED
100
AcDbLine
 10
36.87223458293738
 20
101.5937215416206
 30
0.0
 11
37.24233293074212
 21
101.964731459745
 31
0.0
  0
LINE
  5
37C6
330
1F
100
AcDbEntity
  8
SPOJOVACÍ
  6
DASHED
100
AcDbLine
 10
39.92600172103994
 20
100.972940819186
 30
0.0
 11
39.55590337751345
 21
100.6019309013327
 31
0.0
  0
LINE
  5
37C7
330
1F
100
AcDbEntity
  8
SPOJOVACÍ
  6
DASHED
100
AcDbLine
 10
39.92600172103994
 20
100.972940819186
 30
0.0
 11
39.55590337751345
 21
101.1862487325133
 31
0.0
  0
LINE
  5
37C8
330
1F
100
AcDbEntity
  8
SPOJOVACÍ
  6
DASHED
100
AcDbLine
 10
37.24233293074212
 20
101.3804136282933
 30
0.0
 11
39.55590337751345
 21
100.6019309013327
 31
0.0
  0
LINE
  5
37C9
330
1F
100
AcDbEntity
  8
SPOJOVACÍ
  6
DASHED
100
AcDbLine
 10
37.24233293074212
 20
101.964731459745
 30
0.0
 11
39.55590337751345
 21
101.1862487325133
 31
0.0
  0
LINE
  5
37CA
330
1F
100
AcDbEntity
  8
SPOJOVACÍ
  6
DASHED
100
AcDbLine
 10
36.87223458293738
 20
101.5937215416206
 30
0.0
 11
39.92600172103994
 21
100.972940819186
 31
0.0
  0
LINE
  5
37CB
330
1F
100
AcDbEntity
  8
SPOJOVACÍ
  6
DASHED
100
AcDbLine
 10
37.4255589591994
 20
98.64022735486742
 30
0.0
 11
37.79565730272588
 21
98.4260078690886
 31
0.0
  0
LINE
  5
37CC
330
1F
100
AcDbEntity
  8
SPOJOVACÍ
  6
DASHED
100
AcDbLine
 10
37.4255589591994
 20
98.64022735486742
 30
0.0
 11
37.79565730272588
 21
99.01032570053303
 31
0.0
  0
LINE
  5
37CD
330
1F
100
AcDbEntity
  8
SPOJOVACÍ
  6
DASHED
100
AcDbLine
 10
39.536760357827
 20
98.335762213409
 30
0.0
 11
39.16666201430052
 21
97.96475229555563
 31
0.0
  0
LINE
  5
37CE
330
1F
100
AcDbEntity
  8
SPOJOVACÍ
  6
DASHED
100
AcDbLine
 10
39.536760357827
 20
98.335762213409
 30
0.0
 11
39.16666201430052
 21
98.54907012700005
 31
0.0
  0
LINE
  5
37CF
330
1F
100
AcDbEntity
  8
SPOJOVACÍ
  6
DASHED
100
AcDbLine
 10
37.79565730272588
 20
98.4260078690886
 30
0.0
 11
39.16666201430052
 21
97.96475229555563
 31
0.0
  0
LINE
  5
37D0
330
1F
100
AcDbEntity
  8
SPOJOVACÍ
  6
DASHED
100
AcDbLine
 10
37.79565730272588
 20
99.01032570053303
 30
0.0
 11
39.16666201430052
 21
98.54907012700005
 31
0.0
  0
LINE
  5
37D1
330
1F
100
AcDbEntity
  8
SPOJOVACÍ
  6
DASHED
100
AcDbLine
 10
37.4255589591994
 20
98.64022735486742
 30
0.0
 11
39.536760357827
 21
98.335762213409
 31
0.0
  0
LINE
  5
37D2
330
1F
100
AcDbEntity
  8
SPOJOVACÍ
  6
DASHED
100
AcDbLine
 10
36.07005097642104
 20
113.6793468281312
 30
0.0
 11
40.773763940153
 21
112.5034185871982
 31
0.0
  0
LINE
  5
37D3
330
1F
100
AcDbEntity
  8
SPOJOVACÍ
  6
DASHED
100
AcDbLine
 10
36.07005097642104
 20
113.6793468281312
 30
0.0
 11
36.44014932422578
 21
113.4651273423451
 31
0.0
  0
LINE
  5
37D4
330
1F
100
AcDbEntity
  8
SPOJOVACÍ
  6
DASHED
100
AcDbLine
 10
36.07005097642104
 20
113.6793468281312
 30
0.0
 11
36.44014932422578
 21
114.0494451737968
 31
0.0
  0
LINE
  5
37D5
330
1F
100
AcDbEntity
  8
SPOJOVACÍ
  6
DASHED
100
AcDbLine
 10
40.773763940153
 20
112.5034185871982
 30
0.0
 11
40.40366559662652
 21
112.1324086693448
 31
0.0
  0
LINE
  5
37D6
330
1F
100
AcDbEntity
  8
SPOJOVACÍ
  6
DASHED
100
AcDbLine
 10
40.773763940153
 20
112.5034185871982
 30
0.0
 11
40.40366559662652
 21
112.7167265007892
 31
0.0
  0
LINE
  5
37D7
330
1F
100
AcDbEntity
  8
SPOJOVACÍ
  6
DASHED
100
AcDbLine
 10
36.44014932422578
 20
113.4651273423451
 30
0.0
 11
40.40366559662652
 21
112.1324086693448
 31
0.0
  0
LINE
  5
37D8
330
1F
100
AcDbEntity
  8
SPOJOVACÍ
  6
DASHED
100
AcDbLine
 10
36.44014932422578
 20
114.0494451737968
 30
0.0
 11
40.40366559662652
 21
112.7167265007892
 31
0.0
  0
LINE
  5
37D9
330
1F
100
AcDbEntity
  8
SPOJOVACÍ
  6
DASHED
100
AcDbLine
 10
36.07005097642104
 20
110.6219334015413
 30
0.0
 11
40.773763940153
 21
109.4460051606083
 31
0.0
  0
LINE
  5
37DA
330
1F
100
AcDbEntity
  8
SPOJOVACÍ
  6
DASHED
100
AcDbLine
 10
36.07005097642104
 20
110.6219334015413
 30
0.0
 11
36.44014932422578
 21
110.4077139157625
 31
0.0
  0
LINE
  5
37DB
330
1F
100
AcDbEntity
  8
SPOJOVACÍ
  6
DASHED
100
AcDbLine
 10
36.07005097642104
 20
110.6219334015413
 30
0.0
 11
36.44014932422578
 21
110.9920317472069
 31
0.0
  0
LINE
  5
37DC
330
1F
100
AcDbEntity
  8
SPOJOVACÍ
  6
DASHED
100
AcDbLine
 10
40.773763940153
 20
109.4460051606083
 30
0.0
 11
40.40366559662652
 21
109.0749952427549
 31
0.0
  0
LINE
  5
37DD
330
1F
100
AcDbEntity
  8
SPOJOVACÍ
  6
DASHED
100
AcDbLine
 10
40.773763940153
 20
109.4460051606083
 30
0.0
 11
40.40366559662652
 21
109.6593130739356
 31
0.0
  0
LINE
  5
37DE
330
1F
100
AcDbEntity
  8
SPOJOVACÍ
  6
DASHED
100
AcDbLine
 10
36.44014932422578
 20
110.4077139157625
 30
0.0
 11
40.40366559662652
 21
109.0749952427549
 31
0.0
  0
LINE
  5
37DF
330
1F
100
AcDbEntity
  8
SPOJOVACÍ
  6
DASHED
100
AcDbLine
 10
36.44014932422578
 20
110.9920317472069
 30
0.0
 11
40.40366559662652
 21
109.6593130739356
 31
0.0
  0
LINE
  5
37E0
330
1F
100
AcDbEntity
  8
SPOJOVACÍ
  6
DASHED
100
AcDbLine
 10
36.07005097642104
 20
107.5636084024999
 30
0.0
 11
40.773763940153
 21
106.387680161567
 31
0.0
  0
LINE
  5
37E1
330
1F
100
AcDbEntity
  8
SPOJOVACÍ
  6
DASHED
100
AcDbLine
 10
36.07005097642104
 20
107.5636084024999
 30
0.0
 11
36.44014932422578
 21
107.3503004891726
 31
0.0
  0
LINE
  5
37E2
330
1F
100
AcDbEntity
  8
SPOJOVACÍ
  6
DASHED
100
AcDbLine
 10
36.07005097642104
 20
107.5636084024999
 30
0.0
 11
36.44014932422578
 21
107.9346183206243
 31
0.0
  0
LINE
  5
37E3
330
1F
100
AcDbEntity
  8
SPOJOVACÍ
  6
DASHED
100
AcDbLine
 10
40.773763940153
 20
106.387680161567
 30
0.0
 11
40.40366559662652
 21
106.0175818159013
 31
0.0
  0
LINE
  5
37E4
330
1F
100
AcDbEntity
  8
SPOJOVACÍ
  6
DASHED
100
AcDbLine
 10
40.773763940153
 20
106.387680161567
 30
0.0
 11
40.40366559662652
 21
106.601899647353
 31
0.0
  0
LINE
  5
37E5
330
1F
100
AcDbEntity
  8
SPOJOVACÍ
  6
DASHED
100
AcDbLine
 10
36.44014932422578
 20
107.3503004891726
 30
0.0
 11
40.40366559662652
 21
106.0175818159013
 31
0.0
  0
LINE
  5
37E6
330
1F
100
AcDbEntity
  8
SPOJOVACÍ
  6
DASHED
100
AcDbLine
 10
36.44014932422578
 20
107.9346183206243
 30
0.0
 11
40.40366559662652
 21
106.601899647353
 31
0.0
  0
LWPOLYLINE
  5
37E7
330
1F
100
AcDbEntity
  8
izolace
100
AcDbPolyline
 90
        4
 70
     1
 43
0.0
 10
44.36519487792611
 20
76.3784394232216
 10
20.72346216809092
 20
76.3784394232216
 10
20.72346216809092
 20
73.37843942322161
 10
44.36519487792611
 20
73.37843942322161
  0
HATCH
  5
37E8
330
1F
100
AcDbEntity
  8
izolace
100
AcDbHatch
 10
0.0
 20
0.0
 30
0.0
210
0.0
220
0.0
230
1.0
  2
SOLID
 70
     1
 71
     0
 91
        1
 92
        7
 72
     0
 73
     1
 93
        4
 10
44.36519487792975
 20
76.3784394232216
 10
20.72346216809455
 20
76.3784394232216
 10
20.72346216809092
 20
73.37843942322161
 10
44.36519487792975
 20
73.37843942322161
 97
        0
 75
     0
 76
     1
 47
0.1901250437635136
 98
        1
 10
30.08125692643443
 20
75.5616278721418
  0
LWPOLYLINE
  5
37E9
330
1F
100
AcDbEntity
  8
izolace
100
AcDbPolyline
 90
        4
 70
     1
 43
0.0
 10
-2.918270541744277
 20
76.3784394232216
 10
-26.56000325157947
 20
76.3784394232216
 10
-26.56000325157947
 20
73.37843942322161
 10
-2.918270541744277
 20
73.37843942322161
  0
HATCH
  5
37EA
330
1F
100
AcDbEntity
  8
izolace
100
AcDbHatch
 10
0.0
 20
0.0
 30
0.0
210
0.0
220
0.0
230
1.0
  2
SOLID
 70
     1
 71
     0
 91
        1
 92
        7
 72
     0
 73
     1
 93
        4
 10
-2.918270541744277
 20
76.3784394232216
 10
-26.56000325157583
 20
76.3784394232216
 10
-26.56000325157947
 20
73.37843942322161
 10
-2.918270541740639
 20
73.37843942322161
 97
        0
 75
     0
 76
     1
 47
0.1901250437635136
 98
        3
 10
25.32521972244285
 20
74.61099449383346
 10
-11.01097110489718
 20
74.42086781817216
 10
-15.00604329412453
 20
74.99124784515607
  0
LINE
  5
37EB
330
1F
100
AcDbEntity
  8
POPIS
100
AcDbLine
 10
123.7132820999304
 20
65.57986540684351
 30
0.0
 11
95.67181996387445
 21
35.98595696869688
 31
0.0
  0
INSERT
  5
37EC
330
1F
100
AcDbEntity
  8
POPIS
100
AcDbBlockReference
  2
E_PUNKT
 10
145.3511060313103
 20
78.47627000923058
 30
0.0
 50
270.0
  0
LINE
  5
37ED
330
1F
100
AcDbEntity
  8
POPIS
100
AcDbLine
 10
145.3801743621843
 20
78.76090516601971
 30
0.0
 11
145.3801743621843
 21
35.98595696869688
 31
0.0
  0
LINE
  5
37EE
330
1F
100
AcDbEntity
  8
CETRIS
100
AcDbLine
 10
176.2851046169048
 20
106.3784394232206
 30
0.0
 11
176.2851046169048
 21
130.3784394232216
 31
0.0
  0
LINE
  5
37EF
330
1F
100
AcDbEntity
  8
CETRIS
100
AcDbLine
 10
176.2851046169048
 20
106.3784394232206
 30
0.0
 11
177.1022220645209
 21
106.3784394232206
 31
0.0
  0
LINE
  5
37F0
330
1F
100
AcDbEntity
  8
CETRIS
100
AcDbLine
 10
176.2851046169048
 20
118.3784394232216
 30
0.0
 11
177.1022220645209
 21
118.3784394232216
 31
0.0
  0
LINE
  5
37F1
330
1F
100
AcDbEntity
  8
izolace
  6
IZOLACE
 48
0.7
100
AcDbLine
 10
78.55285033215841
 20
76.3784394232216
 30
0.0
 11
78.55285033215841
 21
130.3784394232216
 31
0.0
  0
LWPOLYLINE
  5
37F2
330
1F
100
AcDbEntity
  8
izolace
100
AcDbPolyline
 90
        4
 70
     1
 43
0.0
 10
86.05285033215841
 20
130.3784394232216
 10
71.05285033215841
 20
130.3784394232216
 10
71.05285033215818
 20
76.3784394232216
 10
86.05285033215841
 20
76.3784394232216
  0
LWPOLYLINE
  5
37F3
330
1F
100
AcDbEntity
  8
izolace
100
AcDbPolyline
 90
        4
 70
     1
 43
0.0
 10
161.2851046169048
 20
130.3784394232216
 10
176.2851046169048
 20
130.3784394232216
 10
176.285104616905
 20
76.3784394232216
 10
161.2851046169048
 20
76.3784394232216
  0
LINE
  5
37F4
330
1F
100
AcDbEntity
  8
izolace
  6
IZOLACE
 48
0.7
100
AcDbLine
 10
168.7851046169048
 20
76.3784394232216
 30
0.0
 11
168.7851046169048
 21
130.3784394232216
 31
0.0
  0
LINE
  5
37F5
330
1F
100
AcDbEntity
  8
CETRIS
100
AcDbLine
 10
71.05285033215841
 20
106.378439423222
 30
0.0
 11
71.05285033215841
 21
130.3784394232216
 31
0.0
  0
LINE
  5
37F6
330
1F
100
AcDbEntity
  8
STAVBA OBRYS
100
AcDbLine
 10
85.51797634577088
 20
184.3784394232216
 30
0.0
 11
86.05285033215841
 21
184.3784394232216
 31
0.0
  0
LINE
  5
37F7
330
1F
100
AcDbEntity
  8
nášlap_vrstvy
100
AcDbLine
 10
78.07813689253817
 20
139.7036391988813
 30
0.0
 11
78.07813689253817
 21
137.4269121146798
 31
0.0
  0
LINE
  5
37F8
330
1F
100
AcDbEntity
  8
nášlap_vrstvy
100
AcDbLine
 10
83.12326141769881
 20
139.7036391988813
 30
0.0
 11
83.1836145221896
 21
137.4269121146798
 31
0.0
  0
LWPOLYLINE
  5
37F9
330
1F
100
AcDbEntity
  8
nášlap_vrstvy
100
AcDbPolyline
 90
        4
 70
     1
 43
0.0
 10
83.12326141769881
 20
139.7036391988813
 10
78.07813689253817
 20
139.7036391988813
 10
78.07813689253817
 20
171.7012634502398
 10
83.12326141769881
 20
171.7012634502398
  0
LINE
  5
37FA
330
1F
100
AcDbEntity
  8
nášlap_vrstvy
100
AcDbLine
 10
83.12326141769881
 20
171.7012634502398
 30
0.0
 11
86.05285033215841
 21
171.7012634502398
 31
0.0
  0
INSERT
  5
37FB
330
1F
100
AcDbEntity
  8
POPIS
100
AcDbBlockReference
  2
E_PUNKT
 10
123.5829777936378
 20
65.65378396947335
 30
0.0
 50
270.0
  0
LINE
  5
37FC
330
1F
100
AcDbEntity
  8
nášlap_vrstvy
100
AcDbLine
 10
164.2146935313649
 20
139.7036391988813
 30
0.0
 11
164.1543404268741
 21
137.4269121146798
 31
0.0
  0
LINE
  5
37FD
330
1F
100
AcDbEntity
  8
nášlap_vrstvy
100
AcDbLine
 10
169.2598180565255
 20
139.7036391988813
 30
0.0
 11
169.2598180565255
 21
137.4269121146798
 31
0.0
  0
LINE
  5
37FE
330
1F
100
AcDbEntity
  8
nášlap_vrstvy
100
AcDbLine
 10
164.2146935313649
 20
171.7012634502398
 30
0.0
 11
161.2851046169053
 21
171.7012634502398
 31
0.0
  0
LWPOLYLINE
  5
37FF
330
1F
100
AcDbEntity
  8
nášlap_vrstvy
100
AcDbPolyline
 90
        4
 70
     1
 43
0.0
 10
164.2146935313649
 20
139.7036391988813
 10
169.2598180565255
 20
139.7036391988813
 10
169.2598180565255
 20
171.7012634502398
 10
164.2146935313649
 20
171.7012634502398
  0
LINE
  5
3800
330
1F
100
AcDbEntity
  8
STAVBA OBRYS
100
AcDbLine
 10
149.2851046169052
 20
80.7780339525857
 30
0.0
 11
161.2851046169053
 21
80.77803395258934
 31
0.0
  0
LINE
  5
3801
330
1F
100
AcDbEntity
  8
STAVBA OBRYS
100
AcDbLine
 10
86.05285033215478
 20
80.7780339525857
 30
0.0
 11
98.05285033215477
 21
80.7780339525857
 31
0.0
  0
LINE
  5
3802
330
1F
100
AcDbEntity
  8
STAVBA OBRYS
  6
Continuous
100
AcDbLine
 10
138.3832463489488
 20
109.6857798456189
 30
0.0
 11
137.0233293354067
 21
113.7301842052115
 31
0.0
  0
LINE
  5
3803
330
1F
100
AcDbEntity
  8
STAVBA OBRYS
  6
Continuous
100
AcDbLine
 10
137.7870036637941
 20
109.6857798456189
 30
0.0
 11
136.427086650252
 21
113.7301842052115
 31
0.0
  0
LINE
  5
3804
330
1F
100
AcDbEntity
  8
STAVBA OBRYS
  6
Continuous
100
AcDbLine
 10
136.8047380233802
 20
114.1078355761569
 30
0.0
 11
137.0233293354067
 21
113.7301842052115
 31
0.0
  0
LINE
  5
3805
330
1F
100
AcDbEntity
  8
STAVBA OBRYS
  6
Continuous
100
AcDbLine
 10
136.8047380233802
 20
114.1078355761569
 30
0.0
 11
136.427086650252
 21
113.7301842052115
 31
0.0
  0
LINE
  5
3806
330
1F
100
AcDbEntity
  8
STAVBA OBRYS
  6
Continuous
100
AcDbLine
 10
138.0046647998424
 20
109.308128470308
 30
0.0
 11
138.3832463489488
 21
109.6857798456189
 31
0.0
  0
LINE
  5
3807
330
1F
100
AcDbEntity
  8
STAVBA OBRYS
  6
Continuous
100
AcDbLine
 10
138.0046647998424
 20
109.308128470308
 30
0.0
 11
137.7870036637941
 21
109.6857798456189
 31
0.0
  0
LINE
  5
3808
330
1F
100
AcDbEntity
  8
STAVBA OBRYS
  6
Continuous
100
AcDbLine
 10
138.0046647998424
 20
109.308128470308
 30
0.0
 11
136.8047380233802
 21
114.1078355761569
 31
0.0
  0
LINE
  5
3809
330
1F
100
AcDbEntity
  8
STAVBA OBRYS
  6
Continuous
100
AcDbLine
 10
141.5030559679107
 20
109.6857798456189
 30
0.0
 11
140.1431389543686
 21
113.7301842052115
 31
0.0
  0
LINE
  5
380A
330
1F
100
AcDbEntity
  8
STAVBA OBRYS
  6
Continuous
100
AcDbLine
 10
140.9068132827633
 20
109.6857798456189
 30
0.0
 11
139.5468962694903
 21
113.7301842052115
 31
0.0
  0
LINE
  5
380B
330
1F
100
AcDbEntity
  8
STAVBA OBRYS
  6
Continuous
100
AcDbLine
 10
139.9254778183203
 20
114.1078355761569
 30
0.0
 11
140.1431389543686
 21
113.7301842052115
 31
0.0
  0
LINE
  5
380C
330
1F
100
AcDbEntity
  8
STAVBA OBRYS
  6
Continuous
100
AcDbLine
 10
139.9254778183203
 20
114.1078355761569
 30
0.0
 11
139.5468962694903
 21
113.7301842052115
 31
0.0
  0
LINE
  5
380D
330
1F
100
AcDbEntity
  8
STAVBA OBRYS
  6
Continuous
100
AcDbLine
 10
141.1254045947825
 20
109.308128470308
 30
0.0
 11
141.5030559679107
 21
109.6857798456189
 31
0.0
  0
LINE
  5
380E
330
1F
100
AcDbEntity
  8
STAVBA OBRYS
  6
Continuous
100
AcDbLine
 10
141.1254045947825
 20
109.308128470308
 30
0.0
 11
140.9068132827633
 21
109.6857798456189
 31
0.0
  0
LINE
  5
380F
330
1F
100
AcDbEntity
  8
STAVBA OBRYS
  6
Continuous
100
AcDbLine
 10
141.1254045947825
 20
109.308128470308
 30
0.0
 11
139.9254778183203
 21
114.1078355761569
 31
0.0
  0
LINE
  5
3810
330
1F
100
AcDbEntity
  8
STAVBA OBRYS
  6
Continuous
100
AcDbLine
 10
144.6228655868799
 20
109.6857798456189
 30
0.0
 11
143.2629485736069
 21
113.7301842052115
 31
0.0
  0
LINE
  5
3811
330
1F
100
AcDbEntity
  8
STAVBA OBRYS
  6
Continuous
100
AcDbLine
 10
144.0266229017252
 20
109.6857798456189
 30
0.0
 11
142.6667058884595
 21
113.7301842052115
 31
0.0
  0
LINE
  5
3812
330
1F
100
AcDbEntity
  8
STAVBA OBRYS
  6
Continuous
100
AcDbLine
 10
143.0452874372895
 20
114.1078355761569
 30
0.0
 11
143.2629485736069
 21
113.7301842052115
 31
0.0
  0
LINE
  5
3813
330
1F
100
AcDbEntity
  8
STAVBA OBRYS
  6
Continuous
100
AcDbLine
 10
143.0452874372895
 20
114.1078355761569
 30
0.0
 11
142.6667058884595
 21
113.7301842052115
 31
0.0
  0
LINE
  5
3814
330
1F
100
AcDbEntity
  8
STAVBA OBRYS
  6
Continuous
100
AcDbLine
 10
144.2452142137517
 20
109.308128470308
 30
0.0
 11
144.6228655868799
 21
109.6857798456189
 31
0.0
  0
LINE
  5
3815
330
1F
100
AcDbEntity
  8
STAVBA OBRYS
  6
Continuous
100
AcDbLine
 10
144.2452142137517
 20
109.308128470308
 30
0.0
 11
144.0266229017252
 21
109.6857798456189
 31
0.0
  0
LINE
  5
3816
330
1F
100
AcDbEntity
  8
STAVBA OBRYS
  6
Continuous
100
AcDbLine
 10
144.2452142137517
 20
109.308128470308
 30
0.0
 11
143.0452874372895
 21
114.1078355761569
 31
0.0
  0
LINE
  5
3817
330
1F
100
AcDbEntity
  8
STAVBA OBRYS
  6
Continuous
100
AcDbLine
 10
128.8991739349112
 20
110.6912998813063
 30
0.0
 11
128.5884952191372
 21
112.845587022763
 31
0.0
  0
LINE
  5
3818
330
1F
100
AcDbEntity
  8
STAVBA OBRYS
  6
Continuous
100
AcDbLine
 10
129.2768253080394
 20
111.0689512522517
 30
0.0
 11
128.8061563554547
 21
112.4679356518176
 31
0.0
  0
LINE
  5
3819
330
1F
100
AcDbEntity
  8
STAVBA OBRYS
  6
Continuous
100
AcDbLine
 10
128.6805826228919
 20
111.0689512522517
 30
0.0
 11
128.2099136703072
 21
112.4679356518176
 31
0.0
  0
LINE
  5
381A
330
1F
100
AcDbEntity
  8
STAVBA OBRYS
  6
Continuous
100
AcDbLine
 10
128.5884952191372
 20
112.845587022763
 30
0.0
 11
128.8061563554547
 21
112.4679356518176
 31
0.0
  0
LINE
  5
381B
330
1F
100
AcDbEntity
  8
STAVBA OBRYS
  6
Continuous
100
AcDbLine
 10
128.5884952191372
 20
112.845587022763
 30
0.0
 11
128.2099136703072
 21
112.4679356518176
 31
0.0
  0
LINE
  5
381C
330
1F
100
AcDbEntity
  8
STAVBA OBRYS
  6
Continuous
100
AcDbLine
 10
128.8991739349112
 20
110.6912998813063
 30
0.0
 11
129.2768253080394
 21
111.0689512522517
 31
0.0
  0
LINE
  5
381D
330
1F
100
AcDbEntity
  8
STAVBA OBRYS
  6
Continuous
100
AcDbLine
 10
128.8991739349112
 20
110.6912998813063
 30
0.0
 11
128.6805826228919
 21
111.0689512522517
 31
0.0
  0
LINE
  5
381E
330
1F
100
AcDbEntity
  8
STAVBA OBRYS
  6
Continuous
100
AcDbLine
 10
131.9129435132308
 20
110.1266831708348
 30
0.0
 11
131.2794937964608
 21
113.242772087266
 31
0.0
  0
LINE
  5
381F
330
1F
100
AcDbEntity
  8
STAVBA OBRYS
  6
Continuous
100
AcDbLine
 10
132.2915250623373
 20
110.5043345461458
 30
0.0
 11
131.4971549325091
 21
112.8651207163206
 31
0.0
  0
LINE
  5
3820
330
1F
100
AcDbEntity
  8
STAVBA OBRYS
  6
Continuous
100
AcDbLine
 10
131.6952823771825
 20
110.5043345461458
 30
0.0
 11
130.9009122476309
 21
112.8651207163206
 31
0.0
  0
LINE
  5
3821
330
1F
100
AcDbEntity
  8
STAVBA OBRYS
  6
Continuous
100
AcDbLine
 10
131.2794937964608
 20
113.242772087266
 30
0.0
 11
131.4971549325091
 21
112.8651207163206
 31
0.0
  0
LINE
  5
3822
330
1F
100
AcDbEntity
  8
STAVBA OBRYS
  6
Continuous
100
AcDbLine
 10
131.2794937964608
 20
113.242772087266
 30
0.0
 11
130.9009122476309
 21
112.8651207163206
 31
0.0
  0
LINE
  5
3823
330
1F
100
AcDbEntity
  8
STAVBA OBRYS
  6
Continuous
100
AcDbLine
 10
131.9129435132308
 20
110.1266831708348
 30
0.0
 11
132.2915250623373
 21
110.5043345461458
 31
0.0
  0
LINE
  5
3824
330
1F
100
AcDbEntity
  8
STAVBA OBRYS
  6
Continuous
100
AcDbLine
 10
131.9129435132308
 20
110.1266831708348
 30
0.0
 11
131.6952823771825
 21
110.5043345461458
 31
0.0
  0
LINE
  5
3825
330
1F
100
AcDbEntity
  8
STAVBA OBRYS
  6
Continuous
100
AcDbLine
 10
134.9276432675287
 20
109.562066464729
 30
0.0
 11
133.9546793852241
 21
113.6873961174719
 31
0.0
  0
LINE
  5
3826
330
1F
100
AcDbEntity
  8
STAVBA OBRYS
  6
Continuous
100
AcDbLine
 10
135.3052946406569
 20
109.9406480130132
 30
0.0
 11
134.1723405212724
 21
113.3097447465265
 31
0.0
  0
LINE
  5
3827
330
1F
100
AcDbEntity
  8
STAVBA OBRYS
  6
Continuous
100
AcDbLine
 10
134.7090519555022
 20
109.9406480130132
 30
0.0
 11
133.5760978361177
 21
113.3097447465265
 31
0.0
  0
LINE
  5
3828
330
1F
100
AcDbEntity
  8
STAVBA OBRYS
  6
Continuous
100
AcDbLine
 10
133.9546793852241
 20
113.6873961174719
 30
0.0
 11
134.1723405212724
 21
113.3097447465265
 31
0.0
  0
LINE
  5
3829
330
1F
100
AcDbEntity
  8
STAVBA OBRYS
  6
Continuous
100
AcDbLine
 10
133.9546793852241
 20
113.6873961174719
 30
0.0
 11
133.5760978361177
 21
113.3097447465265
 31
0.0
  0
LINE
  5
382A
330
1F
100
AcDbEntity
  8
STAVBA OBRYS
  6
Continuous
100
AcDbLine
 10
134.9276432675287
 20
109.562066464729
 30
0.0
 11
135.3052946406569
 21
109.9406480130132
 31
0.0
  0
LINE
  5
382B
330
1F
100
AcDbEntity
  8
STAVBA OBRYS
  6
Continuous
100
AcDbLine
 10
134.9276432675287
 20
109.562066464729
 30
0.0
 11
134.7090519555022
 21
109.9406480130132
 31
0.0
  0
LINE
  5
382C
330
1F
100
AcDbEntity
  8
STAVBA OBRYS
  6
Continuous
100
AcDbLine
 10
147.7426752061183
 20
109.6857798456189
 30
0.0
 11
146.3836883682779
 21
113.7301842052115
 31
0.0
  0
LINE
  5
382D
330
1F
100
AcDbEntity
  8
STAVBA OBRYS
  6
Continuous
100
AcDbLine
 10
147.1464325209635
 20
109.6857798456189
 30
0.0
 11
145.7874456833997
 21
113.7301842052115
 31
0.0
  0
LINE
  5
382E
330
1F
100
AcDbEntity
  8
STAVBA OBRYS
  6
Continuous
100
AcDbLine
 10
146.1650970562514
 20
114.1078355761569
 30
0.0
 11
146.3836883682779
 21
113.7301842052115
 31
0.0
  0
LINE
  5
382F
330
1F
100
AcDbEntity
  8
STAVBA OBRYS
  6
Continuous
100
AcDbLine
 10
146.1650970562514
 20
114.1078355761569
 30
0.0
 11
145.7874456833997
 21
113.7301842052115
 31
0.0
  0
LINE
  5
3830
330
1F
100
AcDbEntity
  8
STAVBA OBRYS
  6
Continuous
100
AcDbLine
 10
147.3650238329901
 20
109.308128470308
 30
0.0
 11
147.7426752061183
 21
109.6857798456189
 31
0.0
  0
LINE
  5
3831
330
1F
100
AcDbEntity
  8
STAVBA OBRYS
  6
Continuous
100
AcDbLine
 10
147.3650238329901
 20
109.308128470308
 30
0.0
 11
147.1464325209635
 21
109.6857798456189
 31
0.0
  0
LINE
  5
3832
330
1F
100
AcDbEntity
  8
STAVBA OBRYS
  6
Continuous
100
AcDbLine
 10
147.3650238329901
 20
109.308128470308
 30
0.0
 11
146.1650970562514
 21
114.1078355761569
 31
0.0
  0
LINE
  5
3833
330
1F
100
AcDbEntity
  8
STAVBA OBRYS
  6
Continuous
100
AcDbLine
 10
150.8634150007819
 20
109.6857798456189
 30
0.0
 11
149.5034979875163
 21
113.7301842052115
 31
0.0
  0
LINE
  5
3834
330
1F
100
AcDbEntity
  8
STAVBA OBRYS
  6
Continuous
100
AcDbLine
 10
150.2671723159037
 20
109.6857798456189
 30
0.0
 11
148.9072553023615
 21
113.7301842052115
 31
0.0
  0
LINE
  5
3835
330
1F
100
AcDbEntity
  8
STAVBA OBRYS
  6
Continuous
100
AcDbLine
 10
149.2849066754897
 20
114.1078355761569
 30
0.0
 11
149.5034979875163
 21
113.7301842052115
 31
0.0
  0
LINE
  5
3836
330
1F
100
AcDbEntity
  8
STAVBA OBRYS
  6
Continuous
100
AcDbLine
 10
149.2849066754897
 20
114.1078355761569
 30
0.0
 11
148.9072553023615
 21
113.7301842052115
 31
0.0
  0
LINE
  5
3837
330
1F
100
AcDbEntity
  8
STAVBA OBRYS
  6
Continuous
100
AcDbLine
 10
150.484833451952
 20
109.308128470308
 30
0.0
 11
150.8634150007819
 21
109.6857798456189
 31
0.0
  0
LINE
  5
3838
330
1F
100
AcDbEntity
  8
STAVBA OBRYS
  6
Continuous
100
AcDbLine
 10
150.484833451952
 20
109.308128470308
 30
0.0
 11
150.2671723159037
 21
109.6857798456189
 31
0.0
  0
LINE
  5
3839
330
1F
100
AcDbEntity
  8
STAVBA OBRYS
  6
Continuous
100
AcDbLine
 10
150.484833451952
 20
109.308128470308
 30
0.0
 11
149.2849066754897
 21
114.1078355761569
 31
0.0
  0
LINE
  5
383A
330
1F
100
AcDbEntity
  8
STAVBA OBRYS
  6
Continuous
100
AcDbLine
 10
134.3490739226217
 20
112.8121006953156
 30
0.0
 11
136.3201164339079
 21
113.0576671067833
 31
0.0
  0
LINE
  5
383B
330
1F
100
AcDbEntity
  8
STAVBA OBRYS
  6
Continuous
100
AcDbLine
 10
131.6422623567232
 20
112.4735167027542
 30
0.0
 11
133.7788761595766
 21
112.7404771580918
 31
0.0
  0
LINE
  5
383C
330
1F
100
AcDbEntity
  8
STAVBA OBRYS
  6
Continuous
100
AcDbLine
 10
128.92521885729
 20
112.1340025415852
 30
0.0
 11
131.0702042422744
 21
112.401893169896
 31
0.0
  0
LINE
  5
383D
330
1F
100
AcDbEntity
  8
STAVBA OBRYS
  6
Continuous
100
AcDbLine
 10
128.6089590867595
 20
111.3219590693338
 30
0.0
 11
125.5198452689546
 21
111.7079820232324
 31
0.0
  0
LINE
  5
383E
330
1F
100
AcDbEntity
  8
STAVBA OBRYS
  6
Continuous
100
AcDbLine
 10
131.5501749529685
 20
110.9545396316539
 30
0.0
 11
129.229386342613
 21
111.2447544768078
 31
0.0
  0
LINE
  5
383F
330
1F
100
AcDbEntity
  8
STAVBA OBRYS
  6
Continuous
100
AcDbLine
 10
134.5025529286977
 20
110.5852598392962
 30
0.0
 11
132.1808341426331
 21
110.8754746888157
 31
0.0
  0
LINE
  5
3840
330
1F
100
AcDbEntity
  8
STAVBA OBRYS
  6
Continuous
100
AcDbLine
 10
125.5198452689546
 20
111.7079820232324
 30
0.0
 11
128.3559512702231
 21
112.0623790043614
 31
0.0
  0
LINE
  5
3841
330
1F
100
AcDbEntity
  8
STAVBA OBRYS
  6
Continuous
100
AcDbLine
 10
136.3201164339079
 20
110.3582969440471
 30
0.0
 11
135.1229801845511
 21
110.5080552467702
 31
0.0
  0
LINE
  5
3842
330
1F
100
AcDbEntity
  8
STAVBA OBRYS
  6
Continuous
100
AcDbLine
 10
136.6568400717915
 20
113.0576671067833
 30
0.0
 11
136.3201164339079
 21
113.0576671067833
 31
0.0
  0
LINE
  5
3843
330
1F
100
AcDbEntity
  8
STAVBA OBRYS
  6
Continuous
100
AcDbLine
 10
139.7794402184044
 20
113.0576671067833
 30
0.0
 11
137.2605241633755
 21
113.0576671067833
 31
0.0
  0
LINE
  5
3844
330
1F
100
AcDbEntity
  8
STAVBA OBRYS
  6
Continuous
100
AcDbLine
 10
137.5674821757966
 20
110.3582969440471
 30
0.0
 11
136.3201164339079
 21
110.3582969440471
 31
0.0
  0
LINE
  5
3845
330
1F
100
AcDbEntity
  8
STAVBA OBRYS
  6
Continuous
100
AcDbLine
 10
140.6817107402785
 20
110.3582969440471
 30
0.0
 11
138.1637248609513
 21
110.3582969440471
 31
0.0
  0
LINE
  5
3846
330
1F
100
AcDbEntity
  8
STAVBA OBRYS
  6
Continuous
100
AcDbLine
 10
142.9011101890464
 20
113.0576671067833
 30
0.0
 11
140.3803337823374
 21
113.0576671067833
 31
0.0
  0
LINE
  5
3847
330
1F
100
AcDbEntity
  8
STAVBA OBRYS
  6
Continuous
100
AcDbLine
 10
146.0237103353902
 20
113.0576671067833
 30
0.0
 11
143.495492522521
 21
113.0576671067833
 31
0.0
  0
LINE
  5
3848
330
1F
100
AcDbEntity
  8
STAVBA OBRYS
  6
Continuous
100
AcDbLine
 10
149.1388690755738
 20
113.0576671067833
 30
0.0
 11
146.6199530205449
 21
113.0576671067833
 31
0.0
  0
LINE
  5
3849
330
1F
100
AcDbEntity
  8
STAVBA OBRYS
  6
Continuous
100
AcDbLine
 10
143.8145428204334
 20
110.3582969440471
 30
0.0
 11
141.2863250075643
 21
110.3582969440471
 31
0.0
  0
LINE
  5
384A
330
1F
100
AcDbEntity
  8
STAVBA OBRYS
  6
Continuous
100
AcDbLine
 10
146.9297015606171
 20
110.3582969440471
 30
0.0
 11
144.408925153908
 21
110.3582969440471
 31
0.0
  0
LINE
  5
384B
330
1F
100
AcDbEntity
  8
STAVBA OBRYS
  6
Continuous
100
AcDbLine
 10
150.0523017069608
 20
110.3582969440471
 30
0.0
 11
147.5333856519319
 21
110.3582969440471
 31
0.0
  0
LINE
  5
384C
330
1F
100
AcDbEntity
  8
STAVBA OBRYS
  6
Continuous
100
AcDbLine
 10
154.6855073458173
 20
110.3582969440471
 30
0.0
 11
150.6476142161373
 21
110.3582969440471
 31
0.0
  0
LINE
  5
384D
330
1F
100
AcDbEntity
  8
STAVBA OBRYS
  6
Continuous
100
AcDbLine
 10
154.6855073458173
 20
113.0576671067833
 30
0.0
 11
149.7425531668886
 21
113.0576671067833
 31
0.0
  0
LINE
  5
384E
330
1F
100
AcDbEntity
  8
STAVBA OBRYS
  6
Continuous
100
AcDbLine
 10
160.0851778401738
 20
106.6078281345985
 30
0.0
 11
159.3410372036996
 21
107.9575132181494
 31
0.0
  0
LINE
  5
384F
330
1F
100
AcDbEntity
  8
STAVBA OBRYS
  6
Continuous
100
AcDbLine
 10
159.3410372036996
 20
107.9575132181494
 30
0.0
 11
158.2722652142874
 21
109.068143118508
 31
0.0
  0
LINE
  5
3850
330
1F
100
AcDbEntity
  8
STAVBA OBRYS
  6
Continuous
100
AcDbLine
 10
158.2722652142874
 20
109.068143118508
 30
0.0
 11
156.9532759359899
 21
109.8643735978262
 31
0.0
  0
LINE
  5
3851
330
1F
100
AcDbEntity
  8
STAVBA OBRYS
  6
Continuous
100
AcDbLine
 10
156.9532759359899
 20
109.8643735978262
 30
0.0
 11
155.4724360689397
 21
110.2922544621255
 31
0.0
  0
LINE
  5
3852
330
1F
100
AcDbEntity
  8
STAVBA OBRYS
  6
Continuous
100
AcDbLine
 10
155.4724360689397
 20
110.2922544621255
 30
0.0
 11
154.6855073458173
 21
110.3582969440471
 31
0.0
  0
LINE
  5
3853
330
1F
100
AcDbEntity
  8
STAVBA OBRYS
  6
Continuous
100
AcDbLine
 10
158.8303706918486
 20
114.8556969167989
 30
0.0
 11
159.7484542022903
 21
116.0928307256986
 31
0.0
  0
LINE
  5
3854
330
1F
100
AcDbEntity
  8
STAVBA OBRYS
  6
Continuous
100
AcDbLine
 10
159.7484542022903
 20
116.0928307256986
 30
0.0
 11
160.0851778401738
 21
116.8081359118664
 31
0.0
  0
LINE
  5
3855
330
1F
100
AcDbEntity
  8
STAVBA OBRYS
  6
Continuous
100
AcDbLine
 10
160.0851778401738
 20
106.6078281345985
 30
0.0
 11
160.0851778401738
 21
116.8081359118664
 31
0.0
  0
LINE
  5
3856
330
1F
100
AcDbEntity
  8
STAVBA OBRYS
  6
Continuous
100
AcDbLine
 10
161.2851046169053
 20
106.6078281345985
 30
0.0
 11
160.0851778401738
 21
106.6078281345985
 31
0.0
  0
LINE
  5
3857
330
1F
100
AcDbEntity
  8
STAVBA OBRYS
  6
Continuous
100
AcDbLine
 10
161.2851046169053
 20
106.6078281345985
 30
0.0
 11
161.2851046169053
 21
116.8081359118664
 31
0.0
  0
LINE
  5
3858
330
1F
100
AcDbEntity
  8
STAVBA OBRYS
  6
Continuous
100
AcDbLine
 10
161.2851046169053
 20
116.8081359118664
 30
0.0
 11
160.0851778401738
 21
116.8081359118664
 31
0.0
  0
LINE
  5
3859
330
1F
100
AcDbEntity
  8
STAVBA OBRYS
  6
Continuous
100
AcDbLine
 10
154.6855073458173
 20
113.0576671067833
 30
0.0
 11
156.2091352992465
 21
113.2846299976667
 31
0.0
  0
LINE
  5
385A
330
1F
100
AcDbEntity
  8
STAVBA OBRYS
  6
Continuous
100
AcDbLine
 10
156.2091352992465
 20
113.2846299976667
 30
0.0
 11
157.6230025089498
 21
113.8976158468144
 31
0.0
  0
LINE
  5
385B
330
1F
100
AcDbEntity
  8
STAVBA OBRYS
  6
Continuous
100
AcDbLine
 10
157.6230025089498
 20
113.8976158468144
 30
0.0
 11
158.8303706918486
 21
114.8556969167989
 31
0.0
  0
LINE
  5
385C
330
1F
100
AcDbEntity
  8
STAVBA OBRYS
  6
Continuous
100
AcDbLine
 10
89.71495244011022
 20
113.8976158468144
 30
0.0
 11
88.50758425721142
 21
114.8556969167989
 31
0.0
  0
LINE
  5
385D
330
1F
100
AcDbEntity
  8
STAVBA OBRYS
  6
Continuous
100
AcDbLine
 10
91.12881964981353
 20
113.2846299976667
 30
0.0
 11
89.71495244011022
 21
113.8976158468144
 31
0.0
  0
LINE
  5
385E
330
1F
100
AcDbEntity
  8
STAVBA OBRYS
  6
Continuous
100
AcDbLine
 10
92.65244760324277
 20
113.0576671067833
 30
0.0
 11
91.12881964981353
 21
113.2846299976667
 31
0.0
  0
LINE
  5
385F
330
1F
100
AcDbEntity
  8
STAVBA OBRYS
  6
Continuous
100
AcDbLine
 10
86.05285033215478
 20
116.8081359118664
 30
0.0
 11
87.25277710888622
 21
116.8081359118664
 31
0.0
  0
LINE
  5
3860
330
1F
100
AcDbEntity
  8
STAVBA OBRYS
  6
Continuous
100
AcDbLine
 10
86.05285033215478
 20
106.6078281345985
 30
0.0
 11
86.05285033215478
 21
116.8081359118664
 31
0.0
  0
LINE
  5
3861
330
1F
100
AcDbEntity
  8
STAVBA OBRYS
  6
Continuous
100
AcDbLine
 10
86.05285033215478
 20
106.6078281345985
 30
0.0
 11
87.25277710888622
 21
106.6078281345985
 31
0.0
  0
LINE
  5
3862
330
1F
100
AcDbEntity
  8
STAVBA OBRYS
  6
Continuous
100
AcDbLine
 10
87.25277710888622
 20
106.6078281345985
 30
0.0
 11
87.25277710888622
 21
116.8081359118664
 31
0.0
  0
LINE
  5
3863
330
1F
100
AcDbEntity
  8
STAVBA OBRYS
  6
Continuous
100
AcDbLine
 10
87.58950074676977
 20
116.0928307256986
 30
0.0
 11
87.25277710888622
 21
116.8081359118664
 31
0.0
  0
LINE
  5
3864
330
1F
100
AcDbEntity
  8
STAVBA OBRYS
  6
Continuous
100
AcDbLine
 10
88.50758425721142
 20
114.8556969167989
 30
0.0
 11
87.58950074676977
 21
116.0928307256986
 31
0.0
  0
LINE
  5
3865
330
1F
100
AcDbEntity
  8
STAVBA OBRYS
  6
Continuous
100
AcDbLine
 10
91.86551888012036
 20
110.2922544621255
 30
0.0
 11
92.65244760324277
 21
110.3582969440471
 31
0.0
  0
LINE
  5
3866
330
1F
100
AcDbEntity
  8
STAVBA OBRYS
  6
Continuous
100
AcDbLine
 10
90.38467901307013
 20
109.8643735978262
 30
0.0
 11
91.86551888012036
 21
110.2922544621255
 31
0.0
  0
LINE
  5
3867
330
1F
100
AcDbEntity
  8
STAVBA OBRYS
  6
Continuous
100
AcDbLine
 10
89.06568973477261
 20
109.068143118508
 30
0.0
 11
90.38467901307013
 21
109.8643735978262
 31
0.0
  0
LINE
  5
3868
330
1F
100
AcDbEntity
  8
STAVBA OBRYS
  6
Continuous
100
AcDbLine
 10
87.99691774536041
 20
107.9575132181494
 30
0.0
 11
89.06568973477261
 21
109.068143118508
 31
0.0
  0
LINE
  5
3869
330
1F
100
AcDbEntity
  8
STAVBA OBRYS
  6
Continuous
100
AcDbLine
 10
87.25277710888622
 20
106.6078281345985
 30
0.0
 11
87.99691774536041
 21
107.9575132181494
 31
0.0
  0
LINE
  5
386A
330
1F
100
AcDbEntity
  8
STAVBA OBRYS
  6
Continuous
100
AcDbLine
 10
92.65244760324277
 20
113.0576671067833
 30
0.0
 11
97.5954017821714
 21
113.0576671067833
 31
0.0
  0
LINE
  5
386B
330
1F
100
AcDbEntity
  8
STAVBA OBRYS
  6
Continuous
100
AcDbLine
 10
92.65244760324277
 20
110.3582969440471
 30
0.0
 11
96.69034073292278
 21
110.3582969440471
 31
0.0
  0
LINE
  5
386C
330
1F
100
AcDbEntity
  8
STAVBA OBRYS
  6
Continuous
100
AcDbLine
 10
97.28565324209922
 20
110.3582969440471
 30
0.0
 11
99.80456929712818
 21
110.3582969440471
 31
0.0
  0
LINE
  5
386D
330
1F
100
AcDbEntity
  8
STAVBA OBRYS
  6
Continuous
100
AcDbLine
 10
100.4082533884429
 20
110.3582969440471
 30
0.0
 11
102.929029795152
 21
110.3582969440471
 31
0.0
  0
LINE
  5
386E
330
1F
100
AcDbEntity
  8
STAVBA OBRYS
  6
Continuous
100
AcDbLine
 10
103.5234121286266
 20
110.3582969440471
 30
0.0
 11
106.0516299414957
 21
110.3582969440471
 31
0.0
  0
LINE
  5
386F
330
1F
100
AcDbEntity
  8
STAVBA OBRYS
  6
Continuous
100
AcDbLine
 10
98.19908587348619
 20
113.0576671067833
 30
0.0
 11
100.7180019285151
 21
113.0576671067833
 31
0.0
  0
LINE
  5
3870
330
1F
100
AcDbEntity
  8
STAVBA OBRYS
  6
Continuous
100
AcDbLine
 10
101.3142446136698
 20
113.0576671067833
 30
0.0
 11
103.8424624265389
 21
113.0576671067833
 31
0.0
  0
LINE
  5
3871
330
1F
100
AcDbEntity
  8
STAVBA OBRYS
  6
Continuous
100
AcDbLine
 10
104.4368447600136
 20
113.0576671067833
 30
0.0
 11
106.9576211667226
 21
113.0576671067833
 31
0.0
  0
LINE
  5
3872
330
1F
100
AcDbEntity
  8
STAVBA OBRYS
  6
Continuous
100
AcDbLine
 10
106.6562442087815
 20
110.3582969440471
 30
0.0
 11
109.1742300881087
 21
110.3582969440471
 31
0.0
  0
LINE
  5
3873
330
1F
100
AcDbEntity
  8
STAVBA OBRYS
  6
Continuous
100
AcDbLine
 10
109.7704727732634
 20
110.3582969440471
 30
0.0
 11
111.0178385151521
 21
110.3582969440471
 31
0.0
  0
LINE
  5
3874
330
1F
100
AcDbEntity
  8
STAVBA OBRYS
  6
Continuous
100
AcDbLine
 10
107.5585147306555
 20
113.0576671067833
 30
0.0
 11
110.0774307856845
 21
113.0576671067833
 31
0.0
  0
LINE
  5
3875
330
1F
100
AcDbEntity
  8
STAVBA OBRYS
  6
Continuous
100
AcDbLine
 10
110.6811148772685
 20
113.0576671067833
 30
0.0
 11
111.0178385151521
 21
113.0576671067833
 31
0.0
  0
LINE
  5
3876
330
1F
100
AcDbEntity
  8
STAVBA OBRYS
  6
Continuous
100
AcDbLine
 10
111.0178385151521
 20
110.3582969440471
 30
0.0
 11
112.2149747645089
 21
110.5080552467702
 31
0.0
  0
LINE
  5
3877
330
1F
100
AcDbEntity
  8
STAVBA OBRYS
  6
Continuous
100
AcDbLine
 10
121.8181096801054
 20
111.7079820232324
 30
0.0
 11
118.9820036788369
 21
112.0623790043614
 31
0.0
  0
LINE
  5
3878
330
1F
100
AcDbEntity
  8
STAVBA OBRYS
  6
Continuous
100
AcDbLine
 10
112.8354020203623
 20
110.5852598392962
 30
0.0
 11
115.1571208064269
 21
110.8754746888157
 31
0.0
  0
LINE
  5
3879
330
1F
100
AcDbEntity
  8
STAVBA OBRYS
  6
Continuous
100
AcDbLine
 10
115.7877799960915
 20
110.9545396316539
 30
0.0
 11
118.108568606447
 21
111.2447544768078
 31
0.0
  0
LINE
  5
387A
330
1F
100
AcDbEntity
  8
STAVBA OBRYS
  6
Continuous
100
AcDbLine
 10
118.7289958623005
 20
111.3219590693338
 30
0.0
 11
121.8181096801054
 21
111.7079820232324
 31
0.0
  0
LINE
  5
387B
330
1F
100
AcDbEntity
  8
STAVBA OBRYS
  6
Continuous
100
AcDbLine
 10
118.41273609177
 20
112.1340025415852
 30
0.0
 11
116.2677507067855
 21
112.401893169896
 31
0.0
  0
LINE
  5
387C
330
1F
100
AcDbEntity
  8
STAVBA OBRYS
  6
Continuous
100
AcDbLine
 10
115.6956925923368
 20
112.4735167027542
 30
0.0
 11
113.5590787894834
 21
112.7404771580918
 31
0.0
  0
LINE
  5
387D
330
1F
100
AcDbEntity
  8
STAVBA OBRYS
  6
Continuous
100
AcDbLine
 10
112.9888810264383
 20
112.8121006953156
 30
0.0
 11
111.0178385151521
 21
113.0576671067833
 31
0.0
  0
LINE
  5
387E
330
1F
100
AcDbEntity
  8
STAVBA OBRYS
  6
Continuous
100
AcDbLine
 10
96.85312149710808
 20
109.308128470308
 30
0.0
 11
98.05304827357032
 21
114.1078355761569
 31
0.0
  0
LINE
  5
387F
330
1F
100
AcDbEntity
  8
STAVBA OBRYS
  6
Continuous
100
AcDbLine
 10
96.85312149710808
 20
109.308128470308
 30
0.0
 11
97.07078263315635
 21
109.6857798456189
 31
0.0
  0
LINE
  5
3880
330
1F
100
AcDbEntity
  8
STAVBA OBRYS
  6
Continuous
100
AcDbLine
 10
96.85312149710808
 20
109.308128470308
 30
0.0
 11
96.47453994827811
 21
109.6857798456189
 31
0.0
  0
LINE
  5
3881
330
1F
100
AcDbEntity
  8
STAVBA OBRYS
  6
Continuous
100
AcDbLine
 10
98.05304827357032
 20
114.1078355761569
 30
0.0
 11
98.43069964669849
 21
113.7301842052115
 31
0.0
  0
LINE
  5
3882
330
1F
100
AcDbEntity
  8
STAVBA OBRYS
  6
Continuous
100
AcDbLine
 10
98.05304827357032
 20
114.1078355761569
 30
0.0
 11
97.83445696154377
 21
113.7301842052115
 31
0.0
  0
LINE
  5
3883
330
1F
100
AcDbEntity
  8
STAVBA OBRYS
  6
Continuous
100
AcDbLine
 10
97.07078263315635
 20
109.6857798456189
 30
0.0
 11
98.43069964669849
 21
113.7301842052115
 31
0.0
  0
LINE
  5
3884
330
1F
100
AcDbEntity
  8
STAVBA OBRYS
  6
Continuous
100
AcDbLine
 10
96.47453994827811
 20
109.6857798456189
 30
0.0
 11
97.83445696154377
 21
113.7301842052115
 31
0.0
  0
LINE
  5
3885
330
1F
100
AcDbEntity
  8
STAVBA OBRYS
  6
Continuous
100
AcDbLine
 10
99.97293111606996
 20
109.308128470308
 30
0.0
 11
101.1728578928086
 21
114.1078355761569
 31
0.0
  0
LINE
  5
3886
330
1F
100
AcDbEntity
  8
STAVBA OBRYS
  6
Continuous
100
AcDbLine
 10
99.97293111606996
 20
109.308128470308
 30
0.0
 11
100.1915224280965
 21
109.6857798456189
 31
0.0
  0
LINE
  5
3887
330
1F
100
AcDbEntity
  8
STAVBA OBRYS
  6
Continuous
100
AcDbLine
 10
99.97293111606996
 20
109.308128470308
 30
0.0
 11
99.59527974294179
 21
109.6857798456189
 31
0.0
  0
LINE
  5
3888
330
1F
100
AcDbEntity
  8
STAVBA OBRYS
  6
Continuous
100
AcDbLine
 10
101.1728578928086
 20
114.1078355761569
 30
0.0
 11
101.5505092656603
 21
113.7301842052115
 31
0.0
  0
LINE
  5
3889
330
1F
100
AcDbEntity
  8
STAVBA OBRYS
  6
Continuous
100
AcDbLine
 10
101.1728578928086
 20
114.1078355761569
 30
0.0
 11
100.9542665807821
 21
113.7301842052115
 31
0.0
  0
LINE
  5
388A
330
1F
100
AcDbEntity
  8
STAVBA OBRYS
  6
Continuous
100
AcDbLine
 10
100.1915224280965
 20
109.6857798456189
 30
0.0
 11
101.5505092656603
 21
113.7301842052115
 31
0.0
  0
LINE
  5
388B
330
1F
100
AcDbEntity
  8
STAVBA OBRYS
  6
Continuous
100
AcDbLine
 10
99.59527974294179
 20
109.6857798456189
 30
0.0
 11
100.9542665807821
 21
113.7301842052115
 31
0.0
  0
LINE
  5
388C
330
1F
100
AcDbEntity
  8
STAVBA OBRYS
  6
Continuous
100
AcDbLine
 10
112.4103116815313
 20
109.562066464729
 30
0.0
 11
112.6289029935578
 21
109.9406480130132
 31
0.0
  0
LINE
  5
388D
330
1F
100
AcDbEntity
  8
STAVBA OBRYS
  6
Continuous
100
AcDbLine
 10
112.4103116815313
 20
109.562066464729
 30
0.0
 11
112.0326603084031
 21
109.9406480130132
 31
0.0
  0
LINE
  5
388E
330
1F
100
AcDbEntity
  8
STAVBA OBRYS
  6
Continuous
100
AcDbLine
 10
113.3832755638359
 20
113.6873961174719
 30
0.0
 11
113.7618571129423
 21
113.3097447465265
 31
0.0
  0
LINE
  5
388F
330
1F
100
AcDbEntity
  8
STAVBA OBRYS
  6
Continuous
100
AcDbLine
 10
113.3832755638359
 20
113.6873961174719
 30
0.0
 11
113.1656144277876
 21
113.3097447465265
 31
0.0
  0
LINE
  5
3890
330
1F
100
AcDbEntity
  8
STAVBA OBRYS
  6
Continuous
100
AcDbLine
 10
112.6289029935578
 20
109.9406480130132
 30
0.0
 11
113.7618571129423
 21
113.3097447465265
 31
0.0
  0
LINE
  5
3891
330
1F
100
AcDbEntity
  8
STAVBA OBRYS
  6
Continuous
100
AcDbLine
 10
112.0326603084031
 20
109.9406480130132
 30
0.0
 11
113.1656144277876
 21
113.3097447465265
 31
0.0
  0
LINE
  5
3892
330
1F
100
AcDbEntity
  8
STAVBA OBRYS
  6
Continuous
100
AcDbLine
 10
112.4103116815313
 20
109.562066464729
 30
0.0
 11
113.3832755638359
 21
113.6873961174719
 31
0.0
  0
LINE
  5
3893
330
1F
100
AcDbEntity
  8
STAVBA OBRYS
  6
Continuous
100
AcDbLine
 10
115.4250114358292
 20
110.1266831708348
 30
0.0
 11
115.6426725718774
 21
110.5043345461458
 31
0.0
  0
LINE
  5
3894
330
1F
100
AcDbEntity
  8
STAVBA OBRYS
  6
Continuous
100
AcDbLine
 10
115.4250114358292
 20
110.1266831708348
 30
0.0
 11
115.0464298867227
 21
110.5043345461458
 31
0.0
  0
LINE
  5
3895
330
1F
100
AcDbEntity
  8
STAVBA OBRYS
  6
Continuous
100
AcDbLine
 10
116.0584611525991
 20
113.242772087266
 30
0.0
 11
116.4370427014291
 21
112.8651207163206
 31
0.0
  0
LINE
  5
3896
330
1F
100
AcDbEntity
  8
STAVBA OBRYS
  6
Continuous
100
AcDbLine
 10
116.0584611525991
 20
113.242772087266
 30
0.0
 11
115.8408000165509
 21
112.8651207163206
 31
0.0
  0
LINE
  5
3897
330
1F
100
AcDbEntity
  8
STAVBA OBRYS
  6
Continuous
100
AcDbLine
 10
115.6426725718774
 20
110.5043345461458
 30
0.0
 11
116.4370427014291
 21
112.8651207163206
 31
0.0
  0
LINE
  5
3898
330
1F
100
AcDbEntity
  8
STAVBA OBRYS
  6
Continuous
100
AcDbLine
 10
115.0464298867227
 20
110.5043345461458
 30
0.0
 11
115.8408000165509
 21
112.8651207163206
 31
0.0
  0
LINE
  5
3899
330
1F
100
AcDbEntity
  8
STAVBA OBRYS
  6
Continuous
100
AcDbLine
 10
115.4250114358292
 20
110.1266831708348
 30
0.0
 11
116.0584611525991
 21
113.242772087266
 31
0.0
  0
LINE
  5
389A
330
1F
100
AcDbEntity
  8
STAVBA OBRYS
  6
Continuous
100
AcDbLine
 10
118.4387810141488
 20
110.6912998813063
 30
0.0
 11
118.6573723261681
 21
111.0689512522517
 31
0.0
  0
LINE
  5
389B
330
1F
100
AcDbEntity
  8
STAVBA OBRYS
  6
Continuous
100
AcDbLine
 10
118.4387810141488
 20
110.6912998813063
 30
0.0
 11
118.0611296410206
 21
111.0689512522517
 31
0.0
  0
LINE
  5
389C
330
1F
100
AcDbEntity
  8
STAVBA OBRYS
  6
Continuous
100
AcDbLine
 10
118.7494597299228
 20
112.845587022763
 30
0.0
 11
119.1280412787527
 21
112.4679356518176
 31
0.0
  0
LINE
  5
389D
330
1F
100
AcDbEntity
  8
STAVBA OBRYS
  6
Continuous
100
AcDbLine
 10
118.7494597299228
 20
112.845587022763
 30
0.0
 11
118.5317985936053
 21
112.4679356518176
 31
0.0
  0
LINE
  5
389E
330
1F
100
AcDbEntity
  8
STAVBA OBRYS
  6
Continuous
100
AcDbLine
 10
118.6573723261681
 20
111.0689512522517
 30
0.0
 11
119.1280412787527
 21
112.4679356518176
 31
0.0
  0
LINE
  5
389F
330
1F
100
AcDbEntity
  8
STAVBA OBRYS
  6
Continuous
100
AcDbLine
 10
118.0611296410206
 20
111.0689512522517
 30
0.0
 11
118.5317985936053
 21
112.4679356518176
 31
0.0
  0
LINE
  5
38A0
330
1F
100
AcDbEntity
  8
STAVBA OBRYS
  6
Continuous
100
AcDbLine
 10
118.4387810141488
 20
110.6912998813063
 30
0.0
 11
118.7494597299228
 21
112.845587022763
 31
0.0
  0
LINE
  5
38A1
330
1F
100
AcDbEntity
  8
STAVBA OBRYS
  6
Continuous
100
AcDbLine
 10
103.0927407353083
 20
109.308128470308
 30
0.0
 11
104.2926675117705
 21
114.1078355761569
 31
0.0
  0
LINE
  5
38A2
330
1F
100
AcDbEntity
  8
STAVBA OBRYS
  6
Continuous
100
AcDbLine
 10
103.0927407353083
 20
109.308128470308
 30
0.0
 11
103.3113320473348
 21
109.6857798456189
 31
0.0
  0
LINE
  5
38A3
330
1F
100
AcDbEntity
  8
STAVBA OBRYS
  6
Continuous
100
AcDbLine
 10
103.0927407353083
 20
109.308128470308
 30
0.0
 11
102.7150893621801
 21
109.6857798456189
 31
0.0
  0
LINE
  5
38A4
330
1F
100
AcDbEntity
  8
STAVBA OBRYS
  6
Continuous
100
AcDbLine
 10
104.2926675117705
 20
114.1078355761569
 30
0.0
 11
104.6712490606005
 21
113.7301842052115
 31
0.0
  0
LINE
  5
38A5
330
1F
100
AcDbEntity
  8
STAVBA OBRYS
  6
Continuous
100
AcDbLine
 10
104.2926675117705
 20
114.1078355761569
 30
0.0
 11
104.075006375453
 21
113.7301842052115
 31
0.0
  0
LINE
  5
38A6
330
1F
100
AcDbEntity
  8
STAVBA OBRYS
  6
Continuous
100
AcDbLine
 10
103.3113320473348
 20
109.6857798456189
 30
0.0
 11
104.6712490606005
 21
113.7301842052115
 31
0.0
  0
LINE
  5
38A7
330
1F
100
AcDbEntity
  8
STAVBA OBRYS
  6
Continuous
100
AcDbLine
 10
102.7150893621801
 20
109.6857798456189
 30
0.0
 11
104.075006375453
 21
113.7301842052115
 31
0.0
  0
LINE
  5
38A8
330
1F
100
AcDbEntity
  8
STAVBA OBRYS
  6
Continuous
100
AcDbLine
 10
106.2125503542774
 20
109.308128470308
 30
0.0
 11
107.4124771307397
 21
114.1078355761569
 31
0.0
  0
LINE
  5
38A9
330
1F
100
AcDbEntity
  8
STAVBA OBRYS
  6
Continuous
100
AcDbLine
 10
106.2125503542774
 20
109.308128470308
 30
0.0
 11
106.4311416662967
 21
109.6857798456189
 31
0.0
  0
LINE
  5
38AA
330
1F
100
AcDbEntity
  8
STAVBA OBRYS
  6
Continuous
100
AcDbLine
 10
106.2125503542774
 20
109.308128470308
 30
0.0
 11
105.8348989811493
 21
109.6857798456189
 31
0.0
  0
LINE
  5
38AB
330
1F
100
AcDbEntity
  8
STAVBA OBRYS
  6
Continuous
100
AcDbLine
 10
107.4124771307397
 20
114.1078355761569
 30
0.0
 11
107.7910586795696
 21
113.7301842052115
 31
0.0
  0
LINE
  5
38AC
330
1F
100
AcDbEntity
  8
STAVBA OBRYS
  6
Continuous
100
AcDbLine
 10
107.4124771307397
 20
114.1078355761569
 30
0.0
 11
107.1948159946914
 21
113.7301842052115
 31
0.0
  0
LINE
  5
38AD
330
1F
100
AcDbEntity
  8
STAVBA OBRYS
  6
Continuous
100
AcDbLine
 10
106.4311416662967
 20
109.6857798456189
 30
0.0
 11
107.7910586795696
 21
113.7301842052115
 31
0.0
  0
LINE
  5
38AE
330
1F
100
AcDbEntity
  8
STAVBA OBRYS
  6
Continuous
100
AcDbLine
 10
105.8348989811493
 20
109.6857798456189
 30
0.0
 11
107.1948159946914
 21
113.7301842052115
 31
0.0
  0
LINE
  5
38AF
330
1F
100
AcDbEntity
  8
STAVBA OBRYS
  6
Continuous
100
AcDbLine
 10
109.3332901492176
 20
109.308128470308
 30
0.0
 11
110.5332169256798
 21
114.1078355761569
 31
0.0
  0
LINE
  5
38B0
330
1F
100
AcDbEntity
  8
STAVBA OBRYS
  6
Continuous
100
AcDbLine
 10
109.3332901492176
 20
109.308128470308
 30
0.0
 11
109.5509512852659
 21
109.6857798456189
 31
0.0
  0
LINE
  5
38B1
330
1F
100
AcDbEntity
  8
STAVBA OBRYS
  6
Continuous
100
AcDbLine
 10
109.3332901492176
 20
109.308128470308
 30
0.0
 11
108.9547086001111
 21
109.6857798456189
 31
0.0
  0
LINE
  5
38B2
330
1F
100
AcDbEntity
  8
STAVBA OBRYS
  6
Continuous
100
AcDbLine
 10
110.5332169256798
 20
114.1078355761569
 30
0.0
 11
110.910868298808
 21
113.7301842052115
 31
0.0
  0
LINE
  5
38B3
330
1F
100
AcDbEntity
  8
STAVBA OBRYS
  6
Continuous
100
AcDbLine
 10
110.5332169256798
 20
114.1078355761569
 30
0.0
 11
110.3146256136533
 21
113.7301842052115
 31
0.0
  0
LINE
  5
38B4
330
1F
100
AcDbEntity
  8
STAVBA OBRYS
  6
Continuous
100
AcDbLine
 10
109.5509512852659
 20
109.6857798456189
 30
0.0
 11
110.910868298808
 21
113.7301842052115
 31
0.0
  0
LINE
  5
38B5
330
1F
100
AcDbEntity
  8
STAVBA OBRYS
  6
Continuous
100
AcDbLine
 10
108.9547086001111
 20
109.6857798456189
 30
0.0
 11
110.3146256136533
 21
113.7301842052115
 31
0.0
  0
LINE
  5
38B6
330
1F
100
AcDbEntity
  8
SPOJOVACÍ
  6
CIKCAK
 48
0.25
100
AcDbLine
 10
120.4996904158724
 20
77.20738034425494
 30
0.0
 11
120.4996904158724
 21
47.64258602573
 31
0.0
  0
LINE
  5
38B7
330
1F
100
AcDbEntity
  8
SPOJOVACÍ
 48
0.25
100
AcDbLine
 10
120.4996904158724
 20
47.64258602573
 30
0.0
 11
124.0251568393468
 21
41.99314568500676
 31
0.0
  0
LINE
  5
38B8
330
1F
100
AcDbEntity
  8
SPOJOVACÍ
 48
0.25
100
AcDbLine
 10
127.5506232628213
 20
47.64258602572908
 30
0.0
 11
124.0251568393468
 21
41.99314568500676
 31
0.0
  0
LINE
  5
38B9
330
1F
100
AcDbEntity
  8
SPOJOVACÍ
  6
CIKCAK
 48
0.25
100
AcDbLine
 10
127.5506232628213
 20
77.20738034425494
 30
0.0
 11
127.5506232628213
 21
47.64258602572908
 31
0.0
  0
LINE
  5
38BA
330
1F
100
AcDbEntity
  8
SPOJOVACÍ
100
AcDbLine
 10
130.7751568393468
 20
81.57788562192626
 30
0.0
 11
117.2751568393468
 21
81.57788562192626
 31
0.0
  0
LINE
  5
38BB
330
1F
100
AcDbEntity
  8
SPOJOVACÍ
  6
Continuous
100
AcDbLine
 10
126.4233622343599
 20
67.01985673289209
 30
0.0
 11
121.6269514391569
 21
65.40708014964593
 31
0.0
  0
LINE
  5
38BC
330
1F
100
AcDbEntity
  8
SPOJOVACÍ
  6
Continuous
100
AcDbLine
 10
126.4233622343599
 20
66.31275017346752
 30
0.0
 11
121.6269514391569
 21
64.69997359022499
 31
0.0
  0
LINE
  5
38BD
330
1F
100
AcDbEntity
  8
SPOJOVACÍ
  6
Continuous
100
AcDbLine
 10
121.1790805164273
 20
65.14784451554487
 30
0.0
 11
121.6269514391569
 21
65.40708014964593
 31
0.0
  0
LINE
  5
38BE
330
1F
100
AcDbEntity
  8
SPOJOVACÍ
  6
Continuous
100
AcDbLine
 10
121.1790805164273
 20
65.14784451554487
 30
0.0
 11
121.6269514391569
 21
64.69997359022499
 31
0.0
  0
LINE
  5
38BF
330
1F
100
AcDbEntity
  8
SPOJOVACÍ
  6
Continuous
100
AcDbLine
 10
126.8712331622664
 20
66.57088267700283
 30
0.0
 11
126.4233622343599
 21
67.01985673289209
 31
0.0
  0
LINE
  5
38C0
330
1F
100
AcDbEntity
  8
SPOJOVACÍ
  6
Continuous
100
AcDbLine
 10
126.8712331622664
 20
66.57088267700283
 30
0.0
 11
126.4233622343599
 21
66.31275017346752
 31
0.0
  0
LINE
  5
38C1
330
1F
100
AcDbEntity
  8
SPOJOVACÍ
  6
Continuous
100
AcDbLine
 10
126.8712331622664
 20
66.57088267700283
 30
0.0
 11
121.1790805164273
 21
65.14784451554487
 31
0.0
  0
LINE
  5
38C2
330
1F
100
AcDbEntity
  8
SPOJOVACÍ
  6
Continuous
100
AcDbLine
 10
126.4233622343599
 20
63.623866818642
 30
0.0
 11
121.6269514391569
 21
62.01109023539584
 31
0.0
  0
LINE
  5
38C3
330
1F
100
AcDbEntity
  8
SPOJOVACÍ
  6
Continuous
100
AcDbLine
 10
126.4233622343599
 20
62.91676025921742
 30
0.0
 11
121.6269514391569
 21
61.3039836759749
 31
0.0
  0
LINE
  5
38C4
330
1F
100
AcDbEntity
  8
SPOJOVACÍ
  6
Continuous
100
AcDbLine
 10
121.1790805164273
 20
61.75185460129478
 30
0.0
 11
121.6269514391569
 21
62.01109023539584
 31
0.0
  0
LINE
  5
38C5
330
1F
100
AcDbEntity
  8
SPOJOVACÍ
  6
Continuous
100
AcDbLine
 10
121.1790805164273
 20
61.75185460129478
 30
0.0
 11
121.6269514391569
 21
61.3039836759749
 31
0.0
  0
LINE
  5
38C6
330
1F
100
AcDbEntity
  8
SPOJOVACÍ
  6
Continuous
100
AcDbLine
 10
126.8712331622664
 20
63.17489276275273
 30
0.0
 11
126.4233622343599
 21
63.623866818642
 31
0.0
  0
LINE
  5
38C7
330
1F
100
AcDbEntity
  8
SPOJOVACÍ
  6
Continuous
100
AcDbLine
 10
126.8712331622664
 20
63.17489276275273
 30
0.0
 11
126.4233622343599
 21
62.91676025921742
 31
0.0
  0
LINE
  5
38C8
330
1F
100
AcDbEntity
  8
SPOJOVACÍ
  6
Continuous
100
AcDbLine
 10
126.8712331622664
 20
63.17489276275273
 30
0.0
 11
121.1790805164273
 21
61.75185460129478
 31
0.0
  0
LINE
  5
38C9
330
1F
100
AcDbEntity
  8
SPOJOVACÍ
  6
Continuous
100
AcDbLine
 10
126.8712331622664
 20
59.77890284850264
 30
0.0
 11
121.1790805164273
 21
58.35586468704469
 31
0.0
  0
LINE
  5
38CA
330
1F
100
AcDbEntity
  8
SPOJOVACÍ
  6
Continuous
100
AcDbLine
 10
126.8712331622664
 20
59.77890284850264
 30
0.0
 11
126.4233622343599
 21
59.52077034496733
 31
0.0
  0
LINE
  5
38CB
330
1F
100
AcDbEntity
  8
SPOJOVACÍ
  6
Continuous
100
AcDbLine
 10
126.8712331622664
 20
59.77890284850264
 30
0.0
 11
126.4233622343599
 21
60.22787690439191
 31
0.0
  0
LINE
  5
38CC
330
1F
100
AcDbEntity
  8
SPOJOVACÍ
  6
Continuous
100
AcDbLine
 10
121.1790805164273
 20
58.35586468704469
 30
0.0
 11
121.6269514391569
 21
57.90799376172481
 31
0.0
  0
LINE
  5
38CD
330
1F
100
AcDbEntity
  8
SPOJOVACÍ
  6
Continuous
100
AcDbLine
 10
121.1790805164273
 20
58.35586468704469
 30
0.0
 11
121.6269514391569
 21
58.61510032114574
 31
0.0
  0
LINE
  5
38CE
330
1F
100
AcDbEntity
  8
SPOJOVACÍ
  6
Continuous
100
AcDbLine
 10
126.4233622343599
 20
59.52077034496733
 30
0.0
 11
121.6269514391569
 21
57.90799376172481
 31
0.0
  0
LINE
  5
38CF
330
1F
100
AcDbEntity
  8
SPOJOVACÍ
  6
Continuous
100
AcDbLine
 10
126.4233622343599
 20
60.22787690439191
 30
0.0
 11
121.6269514391569
 21
58.61510032114574
 31
0.0
  0
LINE
  5
38D0
330
1F
100
AcDbEntity
  8
SPOJOVACÍ
  6
DASHED
100
AcDbLine
 10
124.0251568393468
 20
42.2981561556412
 30
0.0
 11
122.3142193393468
 21
55.00341627933494
 31
0.0
  0
LINE
  5
38D1
330
1F
100
AcDbEntity
  8
SPOJOVACÍ
  6
DASHED
100
AcDbLine
 10
124.0251568393468
 20
42.2981561556412
 30
0.0
 11
125.7360943393468
 21
55.00341627933494
 31
0.0
  0
LINE
  5
38D2
330
1F
100
AcDbEntity
  8
SPOJOVACÍ
  6
DASHED
100
AcDbLine
 10
122.3142193393468
 20
55.0034162793404
 30
0.0
 11
122.3142193393468
 21
78.3952513193476
 31
0.0
  0
LINE
  5
38D3
330
1F
100
AcDbEntity
  8
SPOJOVACÍ
  6
DASHED
100
AcDbLine
 10
125.7360943393468
 20
55.00341627931311
 30
0.0
 11
125.7360943393468
 21
78.39525131935125
 31
0.0
  0
LINE
  5
38D4
330
1F
100
AcDbEntity
  8
SPOJOVACÍ
  6
Continuous
100
AcDbLine
 10
126.4233622343599
 20
56.83188699014181
 30
0.0
 11
121.6269514391569
 21
55.21911040689565
 31
0.0
  0
LINE
  5
38D5
330
1F
100
AcDbEntity
  8
SPOJOVACÍ
  6
Continuous
100
AcDbLine
 10
126.4233622343599
 20
56.12478043071724
 30
0.0
 11
121.6269514391569
 21
54.51200384747472
 31
0.0
  0
LINE
  5
38D6
330
1F
100
AcDbEntity
  8
SPOJOVACÍ
  6
Continuous
100
AcDbLine
 10
121.1790805164273
 20
54.95987477279459
 30
0.0
 11
121.6269514391569
 21
55.21911040689565
 31
0.0
  0
LINE
  5
38D7
330
1F
100
AcDbEntity
  8
SPOJOVACÍ
  6
Continuous
100
AcDbLine
 10
121.1790805164273
 20
54.95987477279459
 30
0.0
 11
121.6269514391569
 21
54.51200384747472
 31
0.0
  0
LINE
  5
38D8
330
1F
100
AcDbEntity
  8
SPOJOVACÍ
  6
Continuous
100
AcDbLine
 10
126.8712331622664
 20
56.38291293425254
 30
0.0
 11
126.4233622343599
 21
56.83188699014181
 31
0.0
  0
LINE
  5
38D9
330
1F
100
AcDbEntity
  8
SPOJOVACÍ
  6
Continuous
100
AcDbLine
 10
126.8712331622664
 20
56.38291293425254
 30
0.0
 11
126.4233622343599
 21
56.12478043071724
 31
0.0
  0
LINE
  5
38DA
330
1F
100
AcDbEntity
  8
SPOJOVACÍ
  6
Continuous
100
AcDbLine
 10
126.8712331622664
 20
56.38291293425254
 30
0.0
 11
121.1790805164273
 21
54.95987477279459
 31
0.0
  0
LINE
  5
38DB
330
1F
100
AcDbEntity
  8
SPOJOVACÍ
  6
Continuous
100
AcDbLine
 10
125.0736102982082
 20
46.90006864317592
 30
0.0
 11
122.8520016835827
 21
46.57968121753265
 31
0.0
  0
LINE
  5
38DC
330
1F
100
AcDbEntity
  8
SPOJOVACÍ
  6
Continuous
100
AcDbLine
 10
124.6841573219207
 20
47.28952162171163
 30
0.0
 11
123.2414546598665
 21
46.804144264363
 31
0.0
  0
LINE
  5
38DD
330
1F
100
AcDbEntity
  8
SPOJOVACÍ
  6
Continuous
100
AcDbLine
 10
124.6841573219207
 20
46.67464635265469
 30
0.0
 11
123.2414546598665
 21
46.18926899529879
 31
0.0
  0
LINE
  5
38DE
330
1F
100
AcDbEntity
  8
SPOJOVACÍ
  6
Continuous
100
AcDbLine
 10
122.8520016835827
 20
46.57968121753265
 30
0.0
 11
123.2414546598665
 21
46.804144264363
 31
0.0
  0
LINE
  5
38DF
330
1F
100
AcDbEntity
  8
SPOJOVACÍ
  6
Continuous
100
AcDbLine
 10
122.8520016835827
 20
46.57968121753265
 30
0.0
 11
123.2414546598665
 21
46.18926899529879
 31
0.0
  0
LINE
  5
38E0
330
1F
100
AcDbEntity
  8
SPOJOVACÍ
  6
Continuous
100
AcDbLine
 10
125.0736102982082
 20
46.90006864317592
 30
0.0
 11
124.6841573219207
 21
47.28952162171163
 31
0.0
  0
LINE
  5
38E1
330
1F
100
AcDbEntity
  8
SPOJOVACÍ
  6
Continuous
100
AcDbLine
 10
125.0736102982082
 20
46.90006864317592
 30
0.0
 11
124.6841573219207
 21
46.67464635265469
 31
0.0
  0
LINE
  5
38E2
330
1F
100
AcDbEntity
  8
SPOJOVACÍ
  6
Continuous
100
AcDbLine
 10
125.6558712808837
 20
50.00801852081758
 30
0.0
 11
122.4424045858104
 21
49.35477350039992
 31
0.0
  0
LINE
  5
38E3
330
1F
100
AcDbEntity
  8
SPOJOVACÍ
  6
Continuous
100
AcDbLine
 10
125.2664183000924
 20
50.39843074333157
 30
0.0
 11
122.8318575621015
 21
49.5792365469465
 31
0.0
  0
LINE
  5
38E4
330
1F
100
AcDbEntity
  8
SPOJOVACÍ
  6
Continuous
100
AcDbLine
 10
125.2664183000924
 20
49.78355547426736
 30
0.0
 11
122.8318575621015
 21
48.96436127816969
 31
0.0
  0
LINE
  5
38E5
330
1F
100
AcDbEntity
  8
SPOJOVACÍ
  6
Continuous
100
AcDbLine
 10
122.4424045858104
 20
49.35477350039992
 30
0.0
 11
122.8318575621015
 21
49.5792365469465
 31
0.0
  0
LINE
  5
38E6
330
1F
100
AcDbEntity
  8
SPOJOVACÍ
  6
Continuous
100
AcDbLine
 10
122.4424045858104
 20
49.35477350039992
 30
0.0
 11
122.8318575621015
 21
48.96436127816969
 31
0.0
  0
LINE
  5
38E7
330
1F
100
AcDbEntity
  8
SPOJOVACÍ
  6
Continuous
100
AcDbLine
 10
125.6558712808837
 20
50.00801852081758
 30
0.0
 11
125.2664183000924
 21
50.39843074333157
 31
0.0
  0
LINE
  5
38E8
330
1F
100
AcDbEntity
  8
SPOJOVACÍ
  6
Continuous
100
AcDbLine
 10
125.6558712808837
 20
50.00801852081758
 30
0.0
 11
125.2664183000924
 21
49.78355547426736
 31
0.0
  0
LINE
  5
38E9
330
1F
100
AcDbEntity
  8
SPOJOVACÍ
  6
Continuous
100
AcDbLine
 10
126.2381322590517
 20
53.11692764243753
 30
0.0
 11
121.9838860546624
 21
52.11355863880863
 31
0.0
  0
LINE
  5
38EA
330
1F
100
AcDbEntity
  8
SPOJOVACÍ
  6
Continuous
100
AcDbLine
 10
125.8477200373854
 20
53.50638062097686
 30
0.0
 11
122.3733390309498
 21
52.33802168535885
 31
0.0
  0
LINE
  5
38EB
330
1F
100
AcDbEntity
  8
SPOJOVACÍ
  6
Continuous
100
AcDbLine
 10
125.8477200373854
 20
52.89150535190902
 30
0.0
 11
122.3733390309498
 21
51.72314641629464
 31
0.0
  0
LINE
  5
38EC
330
1F
100
AcDbEntity
  8
SPOJOVACÍ
  6
Continuous
100
AcDbLine
 10
121.9838860546624
 20
52.11355863880863
 30
0.0
 11
122.3733390309498
 21
52.33802168535885
 31
0.0
  0
LINE
  5
38ED
330
1F
100
AcDbEntity
  8
SPOJOVACÍ
  6
Continuous
100
AcDbLine
 10
121.9838860546624
 20
52.11355863880863
 30
0.0
 11
122.3733390309498
 21
51.72314641629464
 31
0.0
  0
LINE
  5
38EE
330
1F
100
AcDbEntity
  8
SPOJOVACÍ
  6
Continuous
100
AcDbLine
 10
126.2381322590517
 20
53.11692764243753
 30
0.0
 11
125.8477200373854
 21
53.50638062097686
 31
0.0
  0
LINE
  5
38EF
330
1F
100
AcDbEntity
  8
SPOJOVACÍ
  6
Continuous
100
AcDbLine
 10
126.2381322590517
 20
53.11692764243753
 30
0.0
 11
125.8477200373854
 21
52.89150535190902
 31
0.0
  0
LINE
  5
38F0
330
1F
100
AcDbEntity
  8
SPOJOVACÍ
100
AcDbLine
 10
130.7751568393468
 20
83.01947398839592
 30
0.0
 11
117.2751568393468
 21
83.01947398839592
 31
0.0
  0
LINE
  5
38F1
330
1F
100
AcDbEntity
  8
SPOJOVACÍ
100
AcDbLine
 10
117.2751568393468
 20
83.01947398839592
 30
0.0
 11
117.2751568393468
 21
81.57788562192626
 31
0.0
  0
LINE
  5
38F2
330
1F
100
AcDbEntity
  8
SPOJOVACÍ
100
AcDbLine
 10
130.7751568393468
 20
83.01947398839592
 30
0.0
 11
130.7751568393468
 21
81.57788562192626
 31
0.0
  0
LINE
  5
38F3
330
1F
100
AcDbEntity
  8
SPOJOVACÍ
100
AcDbLine
 10
117.2751568393468
 20
81.57788562192626
 30
0.0
 11
117.2751568393468
 21
82.45479624405971
 31
0.0
  0
LINE
  5
38F4
330
1F
100
AcDbEntity
  8
SPOJOVACÍ
100
AcDbLine
 10
117.2751568393468
 20
81.57788562192626
 30
0.0
 11
122.3142193393468
 21
78.3952513193476
 31
0.0
  0
LINE
  5
38F5
330
1F
100
AcDbEntity
  8
SPOJOVACÍ
  6
DASHED
100
AcDbLine
 10
130.7751568393468
 20
81.57788562192626
 30
0.0
 11
125.7360943393468
 21
78.39525131935125
 31
0.0
  0
LINE
  5
38F6
330
1F
100
AcDbEntity
  8
SPOJOVACÍ
100
AcDbLine
 10
130.7751568393468
 20
81.57788562192626
 30
0.0
 11
130.7751568393468
 21
82.45479624405971
 31
0.0
  0
LINE
  5
38F7
330
1F
100
AcDbEntity
  8
SPOJOVACÍ
100
AcDbLine
 10
130.7751568393468
 20
82.45479624405971
 30
0.0
 11
130.7751568393468
 21
81.57788562192626
 31
0.0
  0
HATCH
  5
38F8
330
1F
100
AcDbEntity
  8
nášlap_vrstvy
100
AcDbHatch
 10
0.0
 20
0.0
 30
0.0
210
0.0
220
0.0
230
1.0
  2
SOLID
 70
     1
 71
     0
 91
        3
 92
        7
 72
     0
 73
     1
 93
        4
 10
148.5198690552097
 20
79.20738034425494
 10
148.5198690552097
 20
77.20738034425858
 10
141.8191441176823
 20
77.20738034425494
 10
141.8191441176823
 20
79.20738034425494
 97
        0
 92
        7
 72
     0
 73
     1
 93
        4
 10
129.3180671107038
 20
79.20738034425494
 10
129.3180671107038
 20
77.20738034425494
 10
116.816990103729
 20
77.20738034425494
 10
116.816990103729
 20
79.20738034425494
 97
        0
 92
        7
 72
     0
 73
     1
 93
        4
 10
104.3159130967542
 20
79.20738034425858
 10
104.3159130967542
 20
77.20738034425131
 10
98.51556102730683
 20
77.20738034425494
 10
98.51556102730683
 20
79.20738034425858
 97
        0
 75
     0
 76
     1
 47
0.0846398039763049
 98
        3
 10
143.6501930621197
 20
78.50107829921444
 10
126.9761396565627
 20
78.67046401486414
 10
103.7847429930589
 20
78.41644413361473
  0
LWPOLYLINE
  5
38F9
330
1F
100
AcDbEntity
  8
nášlap_vrstvy
100
AcDbPolyline
 90
        4
 70
     1
 43
0.0
 10
129.3180671107038
 20
77.20738034425494
 10
129.3180671107038
 20
79.20738034425858
 10
141.8191441176823
 20
79.20738034425858
 10
141.8191441176823
 20
77.20738034425494
  0
LWPOLYLINE
  5
38FA
330
1F
100
AcDbEntity
  8
nášlap_vrstvy
100
AcDbPolyline
 90
        4
 70
     1
 43
0.0
 10
104.3159130967542
 20
77.20738034425494
 10
104.3159130967542
 20
79.20738034425858
 10
116.816990103729
 20
79.20738034425858
 10
116.816990103729
 20
77.20738034425494
  0
LINE
  5
38FB
330
1F
100
AcDbEntity
  8
nášlap_vrstvy
100
AcDbLine
 10
148.5198690552097
 20
77.20738034426222
 30
0.0
 11
98.51556102730683
 21
77.20738034425494
 31
0.0
  0
LINE
  5
38FC
330
1F
100
AcDbEntity
  8
nášlap_vrstvy
100
AcDbLine
 10
148.5198690552097
 20
79.20738034425858
 30
0.0
 11
98.51556102730683
 21
79.20738034425858
 31
0.0
  0
POLYLINE
  5
38FD
102
{ACAD_REACTORS
330
3951
102
}
330
1F
100
AcDbEntity
  8
izolace
100
AcDb2dPolyline
 66
     1
 10
0.0
 20
0.0
 30
0.0
  0
VERTEX
  5
38FE
330
38FD
100
AcDbEntity
  8
izolace
100
AcDbVertex
100
AcDb2dVertex
 10
103.8408868209844
 20
130.925868583859
 30
0.0
  0
VERTEX
  5
38FF
330
38FD
100
AcDbEntity
  8
izolace
100
AcDbVertex
100
AcDb2dVertex
 10
99.87972243472905
 20
130.925868583859
 30
0.0
 42
0.4142139852046967
  0
VERTEX
  5
3900
330
38FD
100
AcDbEntity
  8
izolace
100
AcDbVertex
100
AcDb2dVertex
 10
98.51556102730683
 20
129.5618129235567
 30
0.0
  0
VERTEX
  5
3901
330
38FD
100
AcDbEntity
  8
izolace
100
AcDbVertex
100
AcDb2dVertex
 10
98.51556102730683
 20
120.2221392747355
 30
0.0
 42
0.2679489850997925
  0
VERTEX
  5
3902
330
38FD
100
AcDbEntity
  8
izolace
100
AcDbVertex
100
AcDb2dVertex
 10
99.19753599878459
 20
119.0408951778022
 30
0.0
 42
-0.5773500204086304
  0
VERTEX
  5
3903
330
38FD
100
AcDbEntity
  8
izolace
100
AcDbVertex
100
AcDb2dVertex
 10
99.19753599878459
 20
116.6781955333622
 30
0.0
 42
0.2679489850997925
  0
VERTEX
  5
3904
330
38FD
100
AcDbEntity
  8
izolace
100
AcDbVertex
100
AcDb2dVertex
 10
98.51556102730683
 20
115.4969514364251
 30
0.0
  0
VERTEX
  5
3905
330
38FD
100
AcDbEntity
  8
izolace
100
AcDbVertex
100
AcDb2dVertex
 10
98.51556102730683
 20
107.4547219447717
 30
0.0
 42
0.2679489850997925
  0
VERTEX
  5
3906
330
38FD
100
AcDbEntity
  8
izolace
100
AcDbVertex
100
AcDb2dVertex
 10
99.19753599878459
 20
106.2734778795943
 30
0.0
 42
-0.5773500204086304
  0
VERTEX
  5
3907
330
38FD
100
AcDbEntity
  8
izolace
100
AcDbVertex
100
AcDb2dVertex
 10
99.19753599878459
 20
103.9108839604391
 30
0.0
 42
0.2679489850997925
  0
VERTEX
  5
3908
330
38FD
100
AcDbEntity
  8
izolace
100
AcDbVertex
100
AcDb2dVertex
 10
98.51556102730683
 20
102.7296398635057
 30
0.0
  0
VERTEX
  5
3909
330
38FD
100
AcDbEntity
  8
izolace
100
AcDbVertex
100
AcDb2dVertex
 10
98.51556102730683
 20
94.68741037184873
 30
0.0
 42
0.2679489850997925
  0
VERTEX
  5
390A
330
38FD
100
AcDbEntity
  8
izolace
100
AcDbVertex
100
AcDb2dVertex
 10
99.19753599878459
 20
93.50616627491536
 30
0.0
 42
-0.5773500204086304
  0
VERTEX
  5
390B
330
38FD
100
AcDbEntity
  8
izolace
100
AcDbVertex
100
AcDb2dVertex
 10
99.19753599878459
 20
91.14357238751972
 30
0.0
 42
0.2679489850997925
  0
VERTEX
  5
390C
330
38FD
100
AcDbEntity
  8
izolace
100
AcDbVertex
100
AcDb2dVertex
 10
98.51556102730683
 20
89.96232829058635
 30
0.0
  0
VERTEX
  5
390D
330
38FD
100
AcDbEntity
  8
izolace
100
AcDbVertex
100
AcDb2dVertex
 10
98.51556102730683
 20
81.19435054613632
 30
0.0
 42
0.4142139852046967
  0
VERTEX
  5
390E
330
38FD
100
AcDbEntity
  8
izolace
100
AcDbVertex
100
AcDb2dVertex
 10
99.87972243472905
 20
79.83029488583406
 30
0.0
  0
VERTEX
  5
390F
330
38FD
100
AcDbEntity
  8
izolace
100
AcDbVertex
100
AcDb2dVertex
 10
106.0045977980007
 20
79.83029488583406
 30
0.0
 42
0.247529000043869
  0
VERTEX
  5
3910
330
38FD
100
AcDbEntity
  8
izolace
100
AcDbVertex
100
AcDb2dVertex
 10
107.130015097402
 20
80.42398317401376
 30
0.0
 42
-0.247529000043869
  0
VERTEX
  5
3911
330
38FD
100
AcDbEntity
  8
izolace
100
AcDbVertex
100
AcDb2dVertex
 10
108.2558553277194
 20
81.01756573690499
 30
0.0
  0
VERTEX
  5
3912
330
38FD
100
AcDbEntity
  8
izolace
100
AcDbVertex
100
AcDb2dVertex
 10
112.074492233507
 20
81.01756573690499
 30
0.0
 42
-0.247529000043869
  0
VERTEX
  5
3913
330
38FD
100
AcDbEntity
  8
izolace
100
AcDbVertex
100
AcDb2dVertex
 10
113.1999095329083
 20
80.42398317401376
 30
0.0
 42
0.247529000043869
  0
VERTEX
  5
3914
330
38FD
100
AcDbEntity
  8
izolace
100
AcDbVertex
100
AcDb2dVertex
 10
114.3257497632294
 20
79.83029488583406
 30
0.0
  0
VERTEX
  5
3915
330
38FD
100
AcDbEntity
  8
izolace
100
AcDbVertex
100
AcDb2dVertex
 10
132.709680317308
 20
79.83029488583406
 30
0.0
 42
0.247529000043869
  0
VERTEX
  5
3916
330
38FD
100
AcDbEntity
  8
izolace
100
AcDbVertex
100
AcDb2dVertex
 10
133.8355205496081
 20
80.42398317401376
 30
0.0
 42
-0.247529000043869
  0
VERTEX
  5
3917
330
38FD
100
AcDbEntity
  8
izolace
100
AcDbVertex
100
AcDb2dVertex
 10
134.9609378490131
 20
81.01756573690499
 30
0.0
  0
VERTEX
  5
3918
330
38FD
100
AcDbEntity
  8
izolace
100
AcDbVertex
100
AcDb2dVertex
 10
138.7795747528143
 20
81.01756573690499
 30
0.0
 42
-0.247529000043869
  0
VERTEX
  5
3919
330
38FD
100
AcDbEntity
  8
izolace
100
AcDbVertex
100
AcDb2dVertex
 10
139.9054149831317
 20
80.42398317401376
 30
0.0
 42
0.247529000043869
  0
VERTEX
  5
391A
330
38FD
100
AcDbEntity
  8
izolace
100
AcDbVertex
100
AcDb2dVertex
 10
141.0308322845194
 20
79.83029488583406
 30
0.0
  0
VERTEX
  5
391B
330
38FD
100
AcDbEntity
  8
izolace
100
AcDbVertex
100
AcDb2dVertex
 10
147.1557076477911
 20
79.83029488583406
 30
0.0
 42
0.4142139852046967
  0
VERTEX
  5
391C
330
38FD
100
AcDbEntity
  8
izolace
100
AcDbVertex
100
AcDb2dVertex
 10
148.519869053227
 20
81.19435054613632
 30
0.0
  0
VERTEX
  5
391D
330
38FD
100
AcDbEntity
  8
izolace
100
AcDbVertex
100
AcDb2dVertex
 10
148.519869053227
 20
89.96232829058635
 30
0.0
 42
0.2679489850997925
  0
VERTEX
  5
391E
330
38FD
100
AcDbEntity
  8
izolace
100
AcDbVertex
100
AcDb2dVertex
 10
147.8378940837319
 20
91.14357238751972
 30
0.0
 42
-0.5773500204086304
  0
VERTEX
  5
391F
330
38FD
100
AcDbEntity
  8
izolace
100
AcDbVertex
100
AcDb2dVertex
 10
147.8378940837319
 20
93.50616627491536
 30
0.0
 42
0.2679489850997925
  0
VERTEX
  5
3920
330
38FD
100
AcDbEntity
  8
izolace
100
AcDbVertex
100
AcDb2dVertex
 10
148.519869053227
 20
94.68741037184873
 30
0.0
  0
VERTEX
  5
3921
330
38FD
100
AcDbEntity
  8
izolace
100
AcDbVertex
100
AcDb2dVertex
 10
148.519869053227
 20
102.7296398635057
 30
0.0
 42
0.2679489850997925
  0
VERTEX
  5
3922
330
38FD
100
AcDbEntity
  8
izolace
100
AcDbVertex
100
AcDb2dVertex
 10
147.8378940837319
 20
103.9108839604391
 30
0.0
 42
-0.5773500204086304
  0
VERTEX
  5
3923
330
38FD
100
AcDbEntity
  8
izolace
100
AcDbVertex
100
AcDb2dVertex
 10
147.8378940837319
 20
106.2734778795943
 30
0.0
 42
0.2679489850997925
  0
VERTEX
  5
3924
330
38FD
100
AcDbEntity
  8
izolace
100
AcDbVertex
100
AcDb2dVertex
 10
148.519869053227
 20
107.4547219447717
 30
0.0
  0
VERTEX
  5
3925
330
38FD
100
AcDbEntity
  8
izolace
100
AcDbVertex
100
AcDb2dVertex
 10
148.519869053227
 20
115.4969514364251
 30
0.0
 42
0.2679489850997925
  0
VERTEX
  5
3926
330
38FD
100
AcDbEntity
  8
izolace
100
AcDbVertex
100
AcDb2dVertex
 10
147.8378940837319
 20
116.6781955333622
 30
0.0
 42
-0.5773500204086304
  0
VERTEX
  5
3927
330
38FD
100
AcDbEntity
  8
izolace
100
AcDbVertex
100
AcDb2dVertex
 10
147.8378940837319
 20
119.0408951778022
 30
0.0
 42
0.2679489850997925
  0
VERTEX
  5
3928
330
38FD
100
AcDbEntity
  8
izolace
100
AcDbVertex
100
AcDb2dVertex
 10
148.519869053227
 20
120.2221392747355
 30
0.0
  0
VERTEX
  5
3929
330
38FD
100
AcDbEntity
  8
izolace
100
AcDbVertex
100
AcDb2dVertex
 10
148.519869053227
 20
127.3793872768378
 30
0.0
 42
0.4142139852046967
  0
VERTEX
  5
392A
330
38FD
100
AcDbEntity
  8
izolace
100
AcDbVertex
100
AcDb2dVertex
 10
147.1557076477911
 20
128.7433372118553
 30
0.0
  0
VERTEX
  5
392B
330
38FD
100
AcDbEntity
  8
izolace
100
AcDbVertex
100
AcDb2dVertex
 10
143.194543261532
 20
128.7433372118553
 30
0.0
  0
SEQEND
  5
392C
330
38FD
100
AcDbEntity
  8
izolace
  0
POLYLINE
  5
392D
102
{ACAD_REACTORS
330
3951
102
}
330
1F
100
AcDbEntity
  8
izolace
100
AcDb2dPolyline
 66
     1
 10
0.0
 20
0.0
 30
0.0
  0
VERTEX
  5
392E
330
392D
100
AcDbEntity
  8
izolace
100
AcDbVertex
100
AcDb2dVertex
 10
100.0155610273068
 20
120.2993949299029
 30
0.0
 42
-0.5590620544015654
  0
VERTEX
  5
392F
330
392D
100
AcDbEntity
  8
izolace
100
AcDbVertex
100
AcDb2dVertex
 10
100.0155610273068
 20
115.4196957812578
 30
0.0
  0
VERTEX
  5
3930
330
392D
100
AcDbEntity
  8
izolace
100
AcDbVertex
100
AcDb2dVertex
 10
100.0155610273068
 20
107.5319776043047
 30
0.0
 42
-0.5590616644338536
  0
VERTEX
  5
3931
330
392D
100
AcDbEntity
  8
izolace
100
AcDbVertex
100
AcDb2dVertex
 10
100.0155610273104
 20
102.652384235725
 30
0.0
  0
VERTEX
  5
3932
330
392D
100
AcDbEntity
  8
izolace
100
AcDbVertex
100
AcDb2dVertex
 10
100.0155610273068
 20
94.76466599961851
 30
0.0
 42
-0.559061664315726
  0
VERTEX
  5
3933
330
392D
100
AcDbEntity
  8
izolace
100
AcDbVertex
100
AcDb2dVertex
 10
100.0155610273068
 20
89.88507266281658
 30
0.0
  0
VERTEX
  5
3934
330
392D
100
AcDbEntity
  8
izolace
100
AcDbVertex
100
AcDb2dVertex
 10
100.0155610273068
 20
82.33029488583406
 30
0.0
 42
0.4142135623731029
  0
VERTEX
  5
3935
330
392D
100
AcDbEntity
  8
izolace
100
AcDbVertex
100
AcDb2dVertex
 10
101.0155610273068
 20
81.33029488583407
 30
0.0
  0
VERTEX
  5
3936
330
392D
100
AcDbEntity
  8
izolace
100
AcDbVertex
100
AcDb2dVertex
 10
105.9337394286412
 20
81.33029488583407
 30
0.0
 42
-0.2408510949208177
  0
VERTEX
  5
3937
330
392D
100
AcDbEntity
  8
izolace
100
AcDbVertex
100
AcDb2dVertex
 10
108.2559200850591
 20
82.51756573690499
 30
0.0
  0
VERTEX
  5
3938
330
392D
100
AcDbEntity
  8
izolace
100
AcDbVertex
100
AcDb2dVertex
 10
112.074492233507
 20
82.51756573690499
 30
0.0
 42
-0.0000123233965856
  0
VERTEX
  5
3939
330
392D
100
AcDbEntity
  8
izolace
100
AcDbVertex
100
AcDb2dVertex
 10
112.0745661738874
 20
82.51756573508236
 30
0.0
 42
-0.2408376921551036
  0
VERTEX
  5
393A
330
392D
100
AcDbEntity
  8
izolace
100
AcDbVertex
100
AcDb2dVertex
 10
114.3961916210646
 20
81.33029488583407
 30
0.0
  0
VERTEX
  5
393B
330
392D
100
AcDbEntity
  8
izolace
100
AcDbVertex
100
AcDb2dVertex
 10
132.6392384614555
 20
81.33029488583407
 30
0.0
 42
-0.2408376921551987
  0
VERTEX
  5
393C
330
392D
100
AcDbEntity
  8
izolace
100
AcDbVertex
100
AcDb2dVertex
 10
134.9608639086327
 20
82.51756573508236
 30
0.0
 42
-0.0000123233965477
  0
VERTEX
  5
393D
330
392D
100
AcDbEntity
  8
izolace
100
AcDbVertex
100
AcDb2dVertex
 10
134.9609378490095
 20
82.51756573690499
 30
0.0
  0
VERTEX
  5
393E
330
392D
100
AcDbEntity
  8
izolace
100
AcDbVertex
100
AcDb2dVertex
 10
138.7795099923641
 20
82.51756573690499
 30
0.0
 42
-0.240851095207779
  0
VERTEX
  5
393F
330
392D
100
AcDbEntity
  8
izolace
100
AcDbVertex
100
AcDb2dVertex
 10
141.1016906518925
 20
81.33029488583407
 30
0.0
  0
VERTEX
  5
3940
330
392D
100
AcDbEntity
  8
izolace
100
AcDbVertex
100
AcDb2dVertex
 10
146.019869053227
 20
81.33029488583407
 30
0.0
 42
0.4142135623730951
  0
VERTEX
  5
3941
330
392D
100
AcDbEntity
  8
izolace
100
AcDbVertex
100
AcDb2dVertex
 10
147.019869053227
 20
82.33029488583406
 30
0.0
  0
VERTEX
  5
3942
330
392D
100
AcDbEntity
  8
izolace
100
AcDbVertex
100
AcDb2dVertex
 10
147.019869053227
 20
89.8850726640353
 30
0.0
 42
-0.5590616637825315
  0
VERTEX
  5
3943
330
392D
100
AcDbEntity
  8
izolace
100
AcDbVertex
100
AcDb2dVertex
 10
147.019869053227
 20
94.76466599839978
 30
0.0
  0
VERTEX
  5
3944
330
392D
100
AcDbEntity
  8
izolace
100
AcDbVertex
100
AcDb2dVertex
 10
147.019869053227
 20
102.6523842369474
 30
0.0
 42
-0.5590616638998631
  0
VERTEX
  5
3945
330
392D
100
AcDbEntity
  8
izolace
100
AcDbVertex
100
AcDb2dVertex
 10
147.019869053227
 20
107.531977603086
 30
0.0
  0
VERTEX
  5
3946
330
392D
100
AcDbEntity
  8
izolace
100
AcDbVertex
100
AcDb2dVertex
 10
147.019869053227
 20
115.4196957824801
 30
0.0
 42
-0.5590620538659819
  0
VERTEX
  5
3947
330
392D
100
AcDbEntity
  8
izolace
100
AcDbVertex
100
AcDb2dVertex
 10
147.019869053227
 20
120.2993949286769
 30
0.0
  0
VERTEX
  5
3948
330
392D
100
AcDbEntity
  8
izolace
100
AcDbVertex
100
AcDb2dVertex
 10
147.019869053227
 20
126.2433372118552
 30
0.0
 42
0.4142135623731143
  0
VERTEX
  5
3949
330
392D
100
AcDbEntity
  8
izolace
100
AcDbVertex
100
AcDb2dVertex
 10
146.019869053227
 20
127.2433372118553
 30
0.0
  0
VERTEX
  5
394A
330
392D
100
AcDbEntity
  8
izolace
100
AcDbVertex
100
AcDb2dVertex
 10
143.194543261532
 20
127.2433372118553
 30
0.0
  0
SEQEND
  5
394B
330
392D
100
AcDbEntity
  8
izolace
  0
LINE
  5
394C
102
{ACAD_REACTORS
330
3951
102
}
330
1F
100
AcDbEntity
  8
STAVBA OBRYS
100
AcDbLine
 10
100.0155610273068
 20
120.299394929902
 30
0.0
 11
100.0155610273068
 21
128.4258685838581
 31
0.0
  0
LINE
  5
394D
102
{ACAD_REACTORS
330
3951
102
}
330
1F
100
AcDbEntity
  8
STAVBA OBRYS
100
AcDbLine
 10
103.8408868209844
 20
130.9258685838581
 30
0.0
 11
103.8408868209844
 21
129.4258685838581
 31
0.0
  0
LINE
  5
394E
102
{ACAD_REACTORS
330
3951
102
}
330
1F
100
AcDbEntity
  8
STAVBA OBRYS
100
AcDbLine
 10
103.8408868209844
 20
129.4258685838581
 30
0.0
 11
101.0155610273068
 21
129.4258685838581
 31
0.0
  0
ARC
  5
394F
102
{ACAD_REACTORS
330
3951
102
}
330
1F
100
AcDbEntity
  8
STAVBA OBRYS
100
AcDbCircle
 10
101.0155610273068
 20
128.425868583859
 30
0.0
 40
1.0
100
AcDbArc
 50
90.0
 51
180.0
  0
LINE
  5
3950
102
{ACAD_REACTORS
330
3951
102
}
330
1F
100
AcDbEntity
  8
STAVBA OBRYS
100
AcDbLine
 10
143.194543261532
 20
127.2433372118543
 30
0.0
 11
143.194543261532
 21
128.7433372118544
 31
0.0
  0
HATCH
  5
3951
330
1F
100
AcDbEntity
  8
izolace
100
AcDbHatch
 10
0.0
 20
0.0
 30
0.0
210
0.0
220
0.0
230
1.0
  2
SOLID
 70
     1
 71
     1
 91
        1
 92
        1
 93
       78
 72
     1
 10
143.194543261532
 20
127.2433372118543
 11
143.194543261532
 21
128.7433372118544
 72
     1
 10
143.194543261532
 20
128.7433372118553
 11
147.1557076477911
 21
128.7433372118553
 72
     2
 10
147.155814367524
 20
127.3792825263049
 40
1.364054689725047
 50
269.9955173422745
 51
359.9956000565877
 73
     0
 72
     1
 10
148.519869053227
 20
127.3793872768378
 11
148.519869053227
 21
120.2221392747355
 72
     2
 10
147.1558932584516
 20
120.2221254022897
 40
1.36397579484603
 50
359.9994172678131
 51
419.9993729339936
 73
     0
 72
     2
 10
148.5199473093928
 20
117.8595453555822
 40
1.364105569629277
 50
120.0000213811565
 51
239.9999786188434
 73
     1
 72
     2
 10
147.1558932584484
 20
115.4969653088728
 40
1.363975794849071
 50
300.0006270660839
 51
360.0005827322632
 73
     0
 72
     1
 10
148.519869053227
 20
115.4969514364251
 11
148.519869053227
 21
107.4547219447717
 72
     2
 10
147.1558932859529
 20
107.4547080882039
 40
1.363975767344491
 50
359.999417934778
 51
419.9993736009529
 73
     0
 72
     2
 10
148.5199167891055
 20
105.0921809200167
 40
1.364044529094402
 50
120.0000213811508
 51
239.9999786188491
 73
     1
 72
     2
 10
147.1558932584516
 20
102.7296537359516
 40
1.363975794845887
 50
300.0006270660063
 51
360.0005827321869
 73
     0
 72
     1
 10
148.519869053227
 20
102.7296398635057
 11
148.519869053227
 21
94.68741037184873
 72
     2
 10
147.1558932584516
 20
94.68739649940289
 40
1.36397579484603
 50
359.9994172678131
 51
419.9993729339936
 73
     0
 72
     2
 10
148.5199167799373
 20
92.32486933121753
 40
1.36404451075803
 50
120.0000213811523
 51
239.9999786188477
 73
     1
 72
     2
 10
147.1558932584516
 20
89.9623421630322
 40
1.363975794845887
 50
300.0006270660063
 51
360.0005827321869
 73
     0
 72
     1
 10
148.519869053227
 20
89.96232829058635
 11
148.519869053227
 21
81.19435054613632
 72
     2
 10
147.155761504958
 20
81.19440243402687
 40
1.364107549255989
 50
0.0021794155003766
 51
90.0022621298171
 73
     0
 72
     1
 10
147.1557076477911
 20
79.83029488583406
 11
141.0308322845194
 21
79.83029488583406
 72
     2
 10
141.0309997483118
 20
81.19414764436511
 40
1.36385276881232
 50
90.0070351938058
 51
145.6187009209635
 73
     0
 72
     2
 10
138.779718991677
 20
79.65336486192291
 40
1.364200882607377
 50
34.39439223556184
 51
90.00605796272164
 73
     1
 72
     1
 10
138.7795747528143
 20
81.01756573690499
 11
134.9609378490131
 21
81.01756573690499
 72
     2
 10
134.9610050756066
 20
79.65376584289789
 40
1.363799895664024
 50
90.00282431469047
 51
145.6144900418456
 73
     1
 72
     2
 10
132.7097243189719
 20
81.19454862534031
 40
1.364253740215838
 50
34.39018224991456
 51
90.00184797706905
 73
     0
 72
     1
 10
132.709680317308
 20
79.83029488583406
 11
114.3257497632294
 21
79.83029488583406
 72
     2
 10
114.3257057625551
 20
81.19454862346378
 40
1.364253738339391
 50
89.9981520644866
 51
145.6098177916468
 73
     0
 72
     2
 10
112.0744250069117
 20
79.65376584290152
 40
1.363799895660397
 50
34.38550995807139
 51
89.99717568523308
 73
     1
 72
     1
 10
112.074492233507
 20
81.01756573690499
 11
108.2558553277194
 21
81.01756573690499
 72
     2
 10
108.2557110888567
 20
79.65336486192291
 40
1.364200882607423
 50
89.99394203727836
 51
145.6056077644381
 73
     1
 72
     2
 10
106.0044303332151
 20
81.19414764248176
 40
1.363852766929037
 50
34.38129903730039
 51
89.99296476446124
 73
     0
 72
     1
 10
106.0045977980007
 20
79.83029488583406
 11
99.87972243472905
 21
79.83029488583406
 72
     2
 10
99.87966857656898
 20
81.19440243502003
 40
1.364107550249036
 50
89.99773782846908
 51
179.9978205427857
 73
     0
 72
     1
 10
98.51556102730683
 20
81.19435054613632
 11
98.51556102730683
 21
89.96232829058635
 72
     2
 10
99.87953682307352
 20
89.96234216131529
 40
1.363975795837215
 50
179.9994173399343
 51
239.9993730061185
 73
     0
 72
     2
 10
98.51551330257917
 20
92.32486933121753
 40
1.36404451075803
 50
300.0000213811523
 51
419.9999786188477
 73
     1
 72
     2
 10
99.87953682307352
 20
94.68739650111979
 40
1.363975795837219
 50
120.0006269938815
 51
180.0005826600656
 73
     0
 72
     1
 10
98.51556102730683
 20
94.68741037184873
 11
98.51556102730683
 21
102.7296398635057
 72
     2
 10
99.87953682307352
 20
102.7296537342347
 40
1.363975795837215
 50
179.9994173399343
 51
239.9993730061185
 73
     0
 72
     2
 10
98.515513293411
 20
105.0921809200167
 40
1.364044529094402
 50
300.0000213811508
 51
419.9999786188492
 73
     1
 72
     2
 10
99.87953679557222
 20
107.4547080899208
 40
1.363975768335757
 50
120.0006263269221
 51
180.0005819931007
 73
     0
 72
     1
 10
98.51556102730683
 20
107.4547219447717
 11
98.51556102730683
 21
115.4969514364251
 72
     2
 10
99.8795368230767
 20
115.4969653071559
 40
1.363975795840382
 50
179.9994173398579
 51
239.9993730060408
 73
     0
 72
     2
 10
98.51548277312373
 20
117.8595453555822
 40
1.364105569629277
 50
300.0000213811565
 51
419.9999786188434
 73
     1
 72
     2
 10
99.87953682307352
 20
120.2221254040066
 40
1.363975795837219
 50
120.0006269938815
 51
180.0005826600656
 73
     0
 72
     1
 10
98.51556102730683
 20
120.2221392747355
 11
98.51556102730683
 21
129.5618129235567
 72
     2
 10
99.87966857656898
 20
129.561761034673
 40
1.364107550249196
 50
180.0021794572142
 51
270.0022621715309
 73
     0
 72
     1
 10
99.87972243472905
 20
130.925868583859
 11
103.8408868209844
 21
130.925868583859
 72
     1
 10
103.8408868209844
 20
130.9258685838581
 11
103.8408868209844
 21
129.4258685838581
 72
     1
 10
103.8408868209844
 20
129.4258685838581
 11
101.0155610273068
 21
129.4258685838581
 72
     2
 10
101.0155610273068
 20
128.425868583859
 40
1.0
 50
90.0
 51
180.0
 73
     1
 72
     1
 10
100.0155610273068
 20
128.4258685838581
 11
100.0155610273068
 21
120.299394929902
 72
     2
 10
98.51548277313009
 20
117.8595453555803
 40
2.864105569628328
 50
301.5842014864555
 51
418.4157985135444
 73
     0
 72
     1
 10
100.0155610273068
 20
115.4196957812578
 11
100.0155610273068
 21
107.5319776043047
 72
     2
 10
98.51551329341351
 20
105.0921809200138
 40
2.864044529094424
 50
301.5842355323566
 51
418.4157644675575
 73
     0
 72
     1
 10
100.0155610273104
 20
102.652384235725
 11
100.0155610273068
 21
94.76466599961851
 72
     2
 10
98.5155133025753
 20
92.32486933121753
 40
2.864044510759681
 50
301.5842355427143
 51
418.4157644572856
 73
     0
 72
     1
 10
100.0155610273068
 20
89.88507266281658
 11
100.0155610273068
 21
82.33029488583406
 72
     2
 10
101.0155610273068
 20
82.33029488583406
 40
1.0
 50
180.0
 51
270.0
 73
     1
 72
     1
 10
101.0155610273068
 20
81.33029488583407
 11
105.9337394286412
 21
81.33029488583407
 72
     2
 10
108.2557110888519
 20
79.65336486192768
 40
2.864200882602379
 50
215.8368500797287
 51
270.0041807823925
 73
     0
 72
     1
 10
108.2559200850591
 20
82.51756573690499
 11
112.074492233507
 21
82.51756573690499
 72
     2
 10
112.0744922287576
 20
81.01756571845454
 40
1.500000018450464
 50
270.0000001814129
 51
270.0028244958673
 73
     0
 72
     2
 10
112.0744250069183
 20
79.65376584291107
 40
2.863799895650613
 50
270.0028243144894
 51
324.1672517372337
 73
     0
 72
     1
 10
114.3961916210646
 20
81.33029488583407
 11
132.6392384614555
 21
81.33029488583407
 72
     2
 10
134.9610050756011
 20
79.65376584291198
 40
2.863799895649584
 50
215.8327482627595
 51
269.9971756855242
 73
     0
 72
     2
 10
134.9609378537609
 20
81.01756578764412
 40
1.499999949260882
 50
269.9971755040631
 51
269.9999998185087
 73
     0
 72
     1
 10
134.9609378490095
 20
82.51756573690499
 11
138.7795099923641
 21
82.51756573690499
 72
     2
 10
138.77971899168
 20
79.65336486192473
 40
2.864200882605558
 50
269.9958191554216
 51
324.1631499202446
 73
     0
 72
     1
 10
141.1016906518925
 20
81.33029488583407
 11
146.019869053227
 21
81.33029488583407
 72
     2
 10
146.019869053227
 20
82.33029488583406
 40
1.0
 50
270.0
 51
360.0
 73
     1
 72
     1
 10
147.019869053227
 20
82.33029488583406
 11
147.019869053227
 21
89.8850726640353
 72
     2
 10
148.5199167799405
 20
92.32486933121753
 40
2.864044510759569
 50
121.584235589261
 51
238.415764410739
 73
     0
 72
     1
 10
147.019869053227
 20
94.76466599839978
 11
147.019869053227
 21
102.6523842369474
 72
     2
 10
148.5199167891073
 20
105.0921809200167
 40
2.864044529094415
 50
121.5842355790195
 51
238.4157644209804
 73
     0
 72
     1
 10
147.019869053227
 20
107.531977603086
 11
147.019869053227
 21
115.4196957824801
 72
     2
 10
148.5199473093948
 20
117.8595453555785
 40
2.864105569628332
 50
121.5842015332134
 51
238.4157984667865
 73
     0
 72
     1
 10
147.019869053227
 20
120.2993949286769
 11
147.019869053227
 21
126.2433372118552
 72
     2
 10
146.019869053227
 20
126.2433372118552
 40
1.0
 50
0.0
 51
90.0
 73
     1
 72
     1
 10
146.019869053227
 20
127.2433372118553
 11
143.194543261532
 21
127.2433372118553
 97
        7
330
3950
330
38FD
330
394D
330
394E
330
394F
330
394C
330
392D
 75
     0
 76
     1
 98
        1
 10
-1662.422282821273
 20
-20843.21166611419
  0
LINE
  5
3952
330
1F
100
AcDbEntity
  8
SPOJOVACÍ
  6
Continuous
100
AcDbLine
 10
126.8712331596798
 20
70.19899302216481
 30
0.0
 11
121.1790805138371
 21
68.77595486070686
 31
0.0
  0
LINE
  5
3953
330
1F
100
AcDbEntity
  8
SPOJOVACÍ
  6
Continuous
100
AcDbLine
 10
126.8712331596798
 20
70.19899302216481
 30
0.0
 11
126.4233622317733
 21
69.9408605186295
 31
0.0
  0
LINE
  5
3954
330
1F
100
AcDbEntity
  8
SPOJOVACÍ
  6
Continuous
100
AcDbLine
 10
126.8712331596798
 20
70.19899302216481
 30
0.0
 11
126.4233622317733
 21
70.64796707805408
 31
0.0
  0
LINE
  5
3955
330
1F
100
AcDbEntity
  8
SPOJOVACÍ
  6
Continuous
100
AcDbLine
 10
121.1790805138371
 20
68.77595486070686
 30
0.0
 11
121.6269514365667
 21
68.32808393538698
 31
0.0
  0
LINE
  5
3956
330
1F
100
AcDbEntity
  8
SPOJOVACÍ
  6
Continuous
100
AcDbLine
 10
121.1790805138371
 20
68.77595486070686
 30
0.0
 11
121.6269514365667
 21
69.03519049480792
 31
0.0
  0
LINE
  5
3957
330
1F
100
AcDbEntity
  8
SPOJOVACÍ
  6
Continuous
100
AcDbLine
 10
126.4233622317733
 20
69.9408605186295
 30
0.0
 11
121.6269514365667
 21
68.32808393538698
 31
0.0
  0
LINE
  5
3958
330
1F
100
AcDbEntity
  8
SPOJOVACÍ
  6
Continuous
100
AcDbLine
 10
126.4233622317733
 20
70.64796707805408
 30
0.0
 11
121.6269514365667
 21
69.03519049480792
 31
0.0
  0
LINE
  5
3959
330
1F
100
AcDbEntity
  8
SPOJOVACÍ
  6
Continuous
100
AcDbLine
 10
126.4233622317733
 20
77.43994690655426
 30
0.0
 11
121.6269514365667
 21
75.82717032330811
 31
0.0
  0
LINE
  5
395A
330
1F
100
AcDbEntity
  8
SPOJOVACÍ
  6
Continuous
100
AcDbLine
 10
126.4233622317733
 20
76.7328403471297
 30
0.0
 11
121.6269514365667
 21
75.12006376388717
 31
0.0
  0
LINE
  5
395B
330
1F
100
AcDbEntity
  8
SPOJOVACÍ
  6
Continuous
100
AcDbLine
 10
121.1790805138371
 20
75.56793468920705
 30
0.0
 11
121.6269514365667
 21
75.82717032330811
 31
0.0
  0
LINE
  5
395C
330
1F
100
AcDbEntity
  8
SPOJOVACÍ
  6
Continuous
100
AcDbLine
 10
121.1790805138371
 20
75.56793468920705
 30
0.0
 11
121.6269514365667
 21
75.12006376388717
 31
0.0
  0
LINE
  5
395D
330
1F
100
AcDbEntity
  8
SPOJOVACÍ
  6
Continuous
100
AcDbLine
 10
126.8712331596798
 20
76.990972850665
 30
0.0
 11
126.4233622317733
 21
77.43994690655426
 31
0.0
  0
LINE
  5
395E
330
1F
100
AcDbEntity
  8
SPOJOVACÍ
  6
Continuous
100
AcDbLine
 10
126.8712331596798
 20
76.990972850665
 30
0.0
 11
126.4233622317733
 21
76.7328403471297
 31
0.0
  0
LINE
  5
395F
330
1F
100
AcDbEntity
  8
SPOJOVACÍ
  6
Continuous
100
AcDbLine
 10
126.8712331596798
 20
76.990972850665
 30
0.0
 11
121.1790805138371
 21
75.56793468920705
 31
0.0
  0
LINE
  5
3960
330
1F
100
AcDbEntity
  8
SPOJOVACÍ
  6
Continuous
100
AcDbLine
 10
126.4233622317733
 20
74.04395699230417
 30
0.0
 11
121.6269514365667
 21
72.43118040905802
 31
0.0
  0
LINE
  5
3961
330
1F
100
AcDbEntity
  8
SPOJOVACÍ
  6
Continuous
100
AcDbLine
 10
126.4233622317733
 20
73.3368504328796
 30
0.0
 11
121.6269514365667
 21
71.72407384963708
 31
0.0
  0
LINE
  5
3962
330
1F
100
AcDbEntity
  8
SPOJOVACÍ
  6
Continuous
100
AcDbLine
 10
121.1790805138371
 20
72.17194477495695
 30
0.0
 11
121.6269514365667
 21
72.43118040905802
 31
0.0
  0
LINE
  5
3963
330
1F
100
AcDbEntity
  8
SPOJOVACÍ
  6
Continuous
100
AcDbLine
 10
121.1790805138371
 20
72.17194477495695
 30
0.0
 11
121.6269514365667
 21
71.72407384963708
 31
0.0
  0
LINE
  5
3964
330
1F
100
AcDbEntity
  8
SPOJOVACÍ
  6
Continuous
100
AcDbLine
 10
126.8712331596798
 20
73.5949829364149
 30
0.0
 11
126.4233622317733
 21
74.04395699230417
 31
0.0
  0
LINE
  5
3965
330
1F
100
AcDbEntity
  8
SPOJOVACÍ
  6
Continuous
100
AcDbLine
 10
126.8712331596798
 20
73.5949829364149
 30
0.0
 11
126.4233622317733
 21
73.3368504328796
 31
0.0
  0
LINE
  5
3966
330
1F
100
AcDbEntity
  8
SPOJOVACÍ
  6
Continuous
100
AcDbLine
 10
126.8712331596798
 20
73.5949829364149
 30
0.0
 11
121.1790805138371
 21
72.17194477495695
 31
0.0
  0
HATCH
  5
3967
330
1F
100
AcDbEntity
  8
izolace
100
AcDbHatch
 10
0.0
 20
0.0
 30
0.0
210
0.0
220
0.0
230
1.0
  2
SOLID
 70
     1
 71
     0
 91
        1
 92
        7
 72
     0
 73
     1
 93
        4
 10
91.64866029760014
 20
76.3784394232216
 10
68.00692758776495
 20
76.3784394232216
 10
68.00692758776131
 20
73.37843942322161
 10
91.64866029760014
 20
73.37843942322161
 97
        0
 75
     0
 76
     1
 47
0.1901250437635136
 98
        1
 10
77.36472234610483
 20
75.5616278721418
  0
LWPOLYLINE
  5
3968
330
1F
100
AcDbEntity
  8
izolace
100
AcDbPolyline
 90
        4
 70
     1
 43
0.0
 10
91.6486602975965
 20
76.3784394232216
 10
68.00692758776131
 20
76.3784394232216
 10
68.00692758776131
 20
73.37843942322161
 10
91.6486602975965
 20
73.37843942322161
  0
HATCH
  5
3969
330
1F
100
AcDbEntity
  8
izolace
100
AcDbHatch
 10
0.0
 20
0.0
 30
0.0
210
0.0
220
0.0
230
1.0
  2
SOLID
 70
     1
 71
     0
 91
        1
 92
        7
 72
     0
 73
     1
 93
        4
 10
138.9321257172705
 20
76.3784394232216
 10
115.2903930074353
 20
76.3784394232216
 10
115.2903930074317
 20
73.37843942322161
 10
138.9321257172705
 20
73.37843942322161
 97
        0
 75
     0
 76
     1
 47
0.1901250437635136
 98
        1
 10
124.6481877657752
 20
75.5616278721418
  0
LWPOLYLINE
  5
396A
330
1F
100
AcDbEntity
  8
izolace
100
AcDbPolyline
 90
        4
 70
     1
 43
0.0
 10
138.9321257172668
 20
76.3784394232216
 10
115.2903930074317
 20
76.3784394232216
 10
115.2903930074317
 20
73.37843942322161
 10
138.9321257172668
 20
73.37843942322161
  0
HATCH
  5
396B
330
1F
100
AcDbEntity
  8
izolace
100
AcDbHatch
 10
0.0
 20
0.0
 30
0.0
210
0.0
220
0.0
230
1.0
  2
SOLID
 70
     1
 71
     0
 91
        1
 92
        7
 72
     0
 73
     1
 93
        4
 10
186.2155911369409
 20
76.3784394232216
 10
162.5738584271057
 20
76.3784394232216
 10
162.5738584271021
 20
73.37843942322161
 10
186.2155911369409
 20
73.37843942322161
 97
        0
 75
     0
 76
     1
 47
0.1901250437635136
 98
        1
 10
171.9316531854456
 20
75.5616278721418
  0
LWPOLYLINE
  5
396C
330
1F
100
AcDbEntity
  8
izolace
100
AcDbPolyline
 90
        4
 70
     1
 43
0.0
 10
186.2155911369372
 20
76.3784394232216
 10
162.5738584271021
 20
76.3784394232216
 10
162.5738584271021
 20
73.37843942322161
 10
186.2155911369372
 20
73.37843942322161
  0
LINE
  5
396D
330
1F
100
AcDbEntity
  8
POPIS
100
AcDbLine
 10
313.588343834901
 20
208.9171109120552
 30
0.0
 11
313.588343834901
 21
137.4269121146798
 31
0.0
  0
LWPOLYLINE
  5
396E
330
1F
100
AcDbEntity
  8
nášlap_vrstvy
100
AcDbPolyline
 90
        4
 70
     1
 43
0.0
 10
267.8678790239136
 20
132.4269121146799
 10
367.8678790239136
 20
132.4269121146799
 10
367.8678790239136
 20
137.4269121146798
 10
267.8678790239136
 20
137.4269121146798
  0
HATCH
  5
396F
330
1F
100
AcDbEntity
  8
izolace
100
AcDbHatch
 10
0.0
 20
0.0
 30
0.0
210
0.0
220
0.0
230
1.0
  2
SOLID
 70
     1
 71
     0
 91
        1
 92
        7
 72
     0
 73
     1
 93
        4
 10
375.3494528156224
 20
76.3784394232216
 10
351.7077201057873
 20
76.3784394232216
 10
351.7077201057836
 20
73.37843942322161
 10
375.3494528156224
 20
73.37843942322161
 97
        0
 75
     0
 76
     1
 47
0.1901250437635136
 98
        1
 10
361.0655148641271
 20
75.5616278721418
  0
LWPOLYLINE
  5
3970
330
1F
100
AcDbEntity
  8
izolace
100
AcDbPolyline
 90
        4
 70
     1
 43
0.0
 10
375.3494528156188
 20
76.3784394232216
 10
351.7077201057836
 20
76.3784394232216
 10
351.7077201057836
 20
73.37843942322161
 10
375.3494528156188
 20
73.37843942322161
  0
HATCH
  5
3971
330
1F
100
AcDbEntity
  8
CETRIS
100
AcDbHatch
 10
0.0
 20
0.0
 30
0.0
210
0.0
220
0.0
230
1.0
  2
ANSI31
 70
     0
 71
     1
 91
        1
 92
        7
 72
     0
 73
     1
 93
       25
 10
246.0561177035013
 20
118.3784394232216
 10
237.7408427354237
 20
118.3784394232213
 10
237.6105504079239
 20
118.248147094969
 10
237.2230599543456
 20
118.3784394232216
 10
236.9514836514645
 20
118.3784394232218
 10
236.9514836514649
 20
115.9965088435048
 10
237.6105504079248
 20
115.7750514995675
 10
237.9806487514506
 20
115.560832013781
 10
237.6105504079239
 20
115.1907336683864
 10
236.9514836514645
 20
115.4121910122796
 10
236.9514836514647
 20
112.9383354239585
 10
237.6105504079225
 20
112.716726500789
 10
237.9806487514506
 20
112.5034185871982
 10
237.6105504079244
 20
112.132408669345
 10
236.9514836514643
 20
112.3540175925133
 10
236.9514836514643
 20
109.8809219971494
 10
237.6105504079248
 20
109.6593130739359
 10
237.9806487514506
 20
109.4460051606081
 10
237.6105504079244
 20
109.0749952427552
 10
236.9514836514647
 20
109.2966041659251
 10
236.9514836514643
 20
106.8235085705666
 10
233.6470341355236
 20
107.9346183206243
 10
233.2769357877184
 20
107.5636084024997
 10
238.0176117048329
 20
106.3784394232216
 10
246.0561177035013
 20
106.3784394232216
 97
       24
330
3780
330
39A8
330
39A6
330
39BA
330
399E
330
39A0
330
39A1
330
399F
330
39B9
330
3982
330
3984
330
3985
330
3983
330
39B8
330
397B
330
397D
330
397E
330
397C
330
39B5
330
3974
330
3978
330
397A
330
377F
330
3A2B
 75
     0
 76
     1
 52
0.0
 41
1.0
 77
     0
 78
     1
 53
45.0
 43
-1769.041562424308
 44
-1909.038960477226
 45
-2.245064030267287
 46
2.245064030267288
 79
     0
 47
0.2420148754633407
 98
        1
 10
241.683786222622
 20
112.3843527601397
  0
LINE
  5
3972
330
1F
100
AcDbEntity
  8
nášlap_vrstvy
100
AcDbLine
 10
267.8678790239136
 20
137.4269121146798
 30
0.0
 11
264.1543404268741
 21
137.4269121146798
 31
0.0
  0
LINE
  5
3973
330
1F
100
AcDbEntity
  8
CETRIS
100
AcDbLine
 10
284.6549497366018
 20
130.3784394232216
 30
0.0
 11
284.6549497366018
 21
118.3784394232216
 31
0.0
  0
LINE
  5
3974
102
{ACAD_REACTORS
330
3971
102
}
330
1F
100
AcDbEntity
  8
SPOJOVACÍ
  6
DASHED
100
AcDbLine
 10
233.6470341355234
 20
107.9346183206243
 30
0.0
 11
237.6105504079241
 21
106.601899647353
 31
0.0
  0
LINE
  5
3975
330
1F
100
AcDbEntity
  8
SPOJOVACÍ
  6
DASHED
100
AcDbLine
 10
233.6470341355234
 20
107.3503004891726
 30
0.0
 11
237.6105504079241
 21
106.0175818159013
 31
0.0
  0
LINE
  5
3976
330
1F
100
AcDbEntity
  8
SPOJOVACÍ
  6
DASHED
100
AcDbLine
 10
237.9806487514506
 20
106.387680161567
 30
0.0
 11
237.6105504079241
 21
106.601899647353
 31
0.0
  0
LINE
  5
3977
330
1F
100
AcDbEntity
  8
SPOJOVACÍ
  6
DASHED
100
AcDbLine
 10
237.9806487514506
 20
106.387680161567
 30
0.0
 11
237.6105504079241
 21
106.0175818159013
 31
0.0
  0
LINE
  5
3978
102
{ACAD_REACTORS
330
3971
102
}
330
1F
100
AcDbEntity
  8
SPOJOVACÍ
  6
DASHED
100
AcDbLine
 10
233.2769357877186
 20
107.5636084024999
 30
0.0
 11
233.6470341355234
 21
107.9346183206243
 31
0.0
  0
LINE
  5
3979
330
1F
100
AcDbEntity
  8
SPOJOVACÍ
  6
DASHED
100
AcDbLine
 10
233.2769357877186
 20
107.5636084024999
 30
0.0
 11
233.6470341355234
 21
107.3503004891726
 31
0.0
  0
LINE
  5
397A
102
{ACAD_REACTORS
330
3971
102
}
330
1F
100
AcDbEntity
  8
SPOJOVACÍ
  6
DASHED
100
AcDbLine
 10
233.2769357877186
 20
107.5636084024999
 30
0.0
 11
237.9806487514506
 21
106.387680161567
 31
0.0
  0
LINE
  5
397B
102
{ACAD_REACTORS
330
3971
102
}
330
1F
100
AcDbEntity
  8
SPOJOVACÍ
  6
DASHED
100
AcDbLine
 10
233.6470341355234
 20
110.9920317472069
 30
0.0
 11
237.6105504079241
 21
109.6593130739356
 31
0.0
  0
LINE
  5
397C
102
{ACAD_REACTORS
330
3971
102
}
330
1F
100
AcDbEntity
  8
SPOJOVACÍ
  6
DASHED
100
AcDbLine
 10
233.6470341355234
 20
110.4077139157625
 30
0.0
 11
237.6105504079241
 21
109.0749952427549
 31
0.0
  0
LINE
  5
397D
102
{ACAD_REACTORS
330
3971
102
}
330
1F
100
AcDbEntity
  8
SPOJOVACÍ
  6
DASHED
100
AcDbLine
 10
237.9806487514506
 20
109.4460051606083
 30
0.0
 11
237.6105504079241
 21
109.6593130739356
 31
0.0
  0
LINE
  5
397E
102
{ACAD_REACTORS
330
3971
102
}
330
1F
100
AcDbEntity
  8
SPOJOVACÍ
  6
DASHED
100
AcDbLine
 10
237.9806487514506
 20
109.4460051606083
 30
0.0
 11
237.6105504079241
 21
109.0749952427549
 31
0.0
  0
LINE
  5
397F
330
1F
100
AcDbEntity
  8
SPOJOVACÍ
  6
DASHED
100
AcDbLine
 10
233.2769357877186
 20
110.6219334015413
 30
0.0
 11
233.6470341355234
 21
110.9920317472069
 31
0.0
  0
LINE
  5
3980
330
1F
100
AcDbEntity
  8
SPOJOVACÍ
  6
DASHED
100
AcDbLine
 10
233.2769357877186
 20
110.6219334015413
 30
0.0
 11
233.6470341355234
 21
110.4077139157625
 31
0.0
  0
LINE
  5
3981
330
1F
100
AcDbEntity
  8
SPOJOVACÍ
  6
DASHED
100
AcDbLine
 10
233.2769357877186
 20
110.6219334015413
 30
0.0
 11
237.9806487514506
 21
109.4460051606083
 31
0.0
  0
LINE
  5
3982
102
{ACAD_REACTORS
330
3971
102
}
330
1F
100
AcDbEntity
  8
SPOJOVACÍ
  6
DASHED
100
AcDbLine
 10
233.6470341355234
 20
114.0494451737968
 30
0.0
 11
237.6105504079241
 21
112.7167265007892
 31
0.0
  0
LINE
  5
3983
102
{ACAD_REACTORS
330
3971
102
}
330
1F
100
AcDbEntity
  8
SPOJOVACÍ
  6
DASHED
100
AcDbLine
 10
233.6470341355234
 20
113.4651273423451
 30
0.0
 11
237.6105504079241
 21
112.1324086693448
 31
0.0
  0
LINE
  5
3984
102
{ACAD_REACTORS
330
3971
102
}
330
1F
100
AcDbEntity
  8
SPOJOVACÍ
  6
DASHED
100
AcDbLine
 10
237.9806487514506
 20
112.5034185871982
 30
0.0
 11
237.6105504079241
 21
112.7167265007892
 31
0.0
  0
LINE
  5
3985
102
{ACAD_REACTORS
330
3971
102
}
330
1F
100
AcDbEntity
  8
SPOJOVACÍ
  6
DASHED
100
AcDbLine
 10
237.9806487514506
 20
112.5034185871982
 30
0.0
 11
237.6105504079241
 21
112.1324086693448
 31
0.0
  0
LINE
  5
3986
330
1F
100
AcDbEntity
  8
SPOJOVACÍ
  6
DASHED
100
AcDbLine
 10
233.2769357877186
 20
113.6793468281312
 30
0.0
 11
233.6470341355234
 21
114.0494451737968
 31
0.0
  0
LINE
  5
3987
330
1F
100
AcDbEntity
  8
SPOJOVACÍ
  6
DASHED
100
AcDbLine
 10
233.2769357877186
 20
113.6793468281312
 30
0.0
 11
233.6470341355234
 21
113.4651273423451
 31
0.0
  0
LINE
  5
3988
330
1F
100
AcDbEntity
  8
SPOJOVACÍ
  6
DASHED
100
AcDbLine
 10
233.2769357877186
 20
113.6793468281312
 30
0.0
 11
237.9806487514506
 21
112.5034185871982
 31
0.0
  0
LINE
  5
3989
330
1F
100
AcDbEntity
  8
SPOJOVACÍ
  6
DASHED
100
AcDbLine
 10
234.632443770497
 20
98.64022735486742
 30
0.0
 11
236.7436451691246
 21
98.335762213409
 31
0.0
  0
LINE
  5
398A
330
1F
100
AcDbEntity
  8
SPOJOVACÍ
  6
DASHED
100
AcDbLine
 10
235.0025421140235
 20
99.01032570053303
 30
0.0
 11
236.3735468255981
 21
98.54907012700005
 31
0.0
  0
LINE
  5
398B
330
1F
100
AcDbEntity
  8
SPOJOVACÍ
  6
DASHED
100
AcDbLine
 10
235.0025421140235
 20
98.4260078690886
 30
0.0
 11
236.3735468255981
 21
97.96475229555563
 31
0.0
  0
LINE
  5
398C
330
1F
100
AcDbEntity
  8
SPOJOVACÍ
  6
DASHED
100
AcDbLine
 10
236.7436451691246
 20
98.335762213409
 30
0.0
 11
236.3735468255981
 21
98.54907012700005
 31
0.0
  0
LINE
  5
398D
330
1F
100
AcDbEntity
  8
SPOJOVACÍ
  6
DASHED
100
AcDbLine
 10
236.7436451691246
 20
98.335762213409
 30
0.0
 11
236.3735468255981
 21
97.96475229555563
 31
0.0
  0
LINE
  5
398E
330
1F
100
AcDbEntity
  8
SPOJOVACÍ
  6
DASHED
100
AcDbLine
 10
234.632443770497
 20
98.64022735486742
 30
0.0
 11
235.0025421140235
 21
99.01032570053303
 31
0.0
  0
LINE
  5
398F
330
1F
100
AcDbEntity
  8
SPOJOVACÍ
  6
DASHED
100
AcDbLine
 10
234.632443770497
 20
98.64022735486742
 30
0.0
 11
235.0025421140235
 21
98.4260078690886
 31
0.0
  0
LINE
  5
3990
330
1F
100
AcDbEntity
  8
SPOJOVACÍ
  6
DASHED
100
AcDbLine
 10
234.079119394235
 20
101.5937215416206
 30
0.0
 11
237.1328865323375
 21
100.972940819186
 31
0.0
  0
LINE
  5
3991
330
1F
100
AcDbEntity
  8
SPOJOVACÍ
  6
DASHED
100
AcDbLine
 10
234.4492177420397
 20
101.964731459745
 30
0.0
 11
236.7627881888111
 21
101.1862487325133
 31
0.0
  0
LINE
  5
3992
330
1F
100
AcDbEntity
  8
SPOJOVACÍ
  6
DASHED
100
AcDbLine
 10
234.4492177420397
 20
101.3804136282933
 30
0.0
 11
236.7627881888111
 21
100.6019309013327
 31
0.0
  0
LINE
  5
3993
330
1F
100
AcDbEntity
  8
SPOJOVACÍ
  6
DASHED
100
AcDbLine
 10
237.1328865323375
 20
100.972940819186
 30
0.0
 11
236.7627881888111
 21
101.1862487325133
 31
0.0
  0
LINE
  5
3994
330
1F
100
AcDbEntity
  8
SPOJOVACÍ
  6
DASHED
100
AcDbLine
 10
237.1328865323375
 20
100.972940819186
 30
0.0
 11
236.7627881888111
 21
100.6019309013327
 31
0.0
  0
LINE
  5
3995
330
1F
100
AcDbEntity
  8
SPOJOVACÍ
  6
DASHED
100
AcDbLine
 10
234.079119394235
 20
101.5937215416206
 30
0.0
 11
234.4492177420397
 21
101.964731459745
 31
0.0
  0
LINE
  5
3996
330
1F
100
AcDbEntity
  8
SPOJOVACÍ
  6
DASHED
100
AcDbLine
 10
234.079119394235
 20
101.5937215416206
 30
0.0
 11
234.4492177420397
 21
101.3804136282933
 31
0.0
  0
LINE
  5
3997
330
1F
100
AcDbEntity
  8
SPOJOVACÍ
  6
DASHED
100
AcDbLine
 10
233.5257950222512
 20
104.5481273008326
 30
0.0
 11
237.5686180819393
 21
103.5946226961741
 31
0.0
  0
LINE
  5
3998
330
1F
100
AcDbEntity
  8
SPOJOVACÍ
  6
DASHED
100
AcDbLine
 10
233.8968049395698
 20
104.9182256464982
 30
0.0
 11
237.1985197384128
 21
103.8079306095014
 31
0.0
  0
LINE
  5
3999
330
1F
100
AcDbEntity
  8
SPOJOVACÍ
  6
DASHED
100
AcDbLine
 10
233.8968049395698
 20
104.3339078150465
 30
0.0
 11
237.1985197384128
 21
103.2236127780497
 31
0.0
  0
LINE
  5
399A
330
1F
100
AcDbEntity
  8
SPOJOVACÍ
  6
DASHED
100
AcDbLine
 10
237.5686180819393
 20
103.5946226961741
 30
0.0
 11
237.1985197384128
 21
103.8079306095014
 31
0.0
  0
LINE
  5
399B
330
1F
100
AcDbEntity
  8
SPOJOVACÍ
  6
DASHED
100
AcDbLine
 10
237.5686180819393
 20
103.5946226961741
 30
0.0
 11
237.1985197384128
 21
103.2236127780497
 31
0.0
  0
LINE
  5
399C
330
1F
100
AcDbEntity
  8
SPOJOVACÍ
  6
DASHED
100
AcDbLine
 10
233.5257950222512
 20
104.5481273008326
 30
0.0
 11
233.8968049395698
 21
104.9182256464982
 31
0.0
  0
LINE
  5
399D
330
1F
100
AcDbEntity
  8
SPOJOVACÍ
  6
DASHED
100
AcDbLine
 10
233.5257950222512
 20
104.5481273008326
 30
0.0
 11
233.8968049395698
 21
104.3339078150465
 31
0.0
  0
LINE
  5
399E
102
{ACAD_REACTORS
330
3971
102
}
330
1F
100
AcDbEntity
  8
SPOJOVACÍ
  6
DASHED
100
AcDbLine
 10
233.6470341355234
 20
117.1068586006504
 30
0.0
 11
237.6105504079241
 21
115.7750514995668
 31
0.0
  0
LINE
  5
399F
102
{ACAD_REACTORS
330
3971
102
}
330
1F
100
AcDbEntity
  8
SPOJOVACÍ
  6
DASHED
100
AcDbLine
 10
233.6470341355234
 20
116.5225407691987
 30
0.0
 11
237.6105504079241
 21
115.1907336683862
 31
0.0
  0
LINE
  5
39A0
102
{ACAD_REACTORS
330
3971
102
}
330
1F
100
AcDbEntity
  8
SPOJOVACÍ
  6
DASHED
100
AcDbLine
 10
237.9806487514506
 20
115.5608320137807
 30
0.0
 11
237.6105504079241
 21
115.7750514995668
 31
0.0
  0
LINE
  5
39A1
102
{ACAD_REACTORS
330
3971
102
}
330
1F
100
AcDbEntity
  8
SPOJOVACÍ
  6
DASHED
100
AcDbLine
 10
237.9806487514506
 20
115.5608320137807
 30
0.0
 11
237.6105504079241
 21
115.1907336683862
 31
0.0
  0
LINE
  5
39A2
330
1F
100
AcDbEntity
  8
SPOJOVACÍ
  6
DASHED
100
AcDbLine
 10
233.2769357877186
 20
116.7367602549848
 30
0.0
 11
233.6470341355234
 21
117.1068586006504
 31
0.0
  0
LINE
  5
39A3
330
1F
100
AcDbEntity
  8
SPOJOVACÍ
  6
DASHED
100
AcDbLine
 10
233.2769357877186
 20
116.7367602549848
 30
0.0
 11
233.6470341355234
 21
116.5225407691987
 31
0.0
  0
LINE
  5
39A4
330
1F
100
AcDbEntity
  8
SPOJOVACÍ
  6
DASHED
100
AcDbLine
 10
233.2769357877186
 20
116.7367602549848
 30
0.0
 11
237.9806487514506
 21
115.5608320137807
 31
0.0
  0
LINE
  5
39A5
330
1F
100
AcDbEntity
  8
SPOJOVACÍ
  6
DASHED
100
AcDbLine
 10
233.6470341355234
 20
120.1651835994207
 30
0.0
 11
237.6105504079241
 21
118.8324649264204
 31
0.0
  0
LINE
  5
39A6
102
{ACAD_REACTORS
330
3971
102
}
330
1F
100
AcDbEntity
  8
SPOJOVACÍ
  6
DASHED
100
AcDbLine
 10
233.6470341355234
 20
119.58086576824
 30
0.0
 11
237.6105504079241
 21
118.2481470949687
 31
0.0
  0
LINE
  5
39A7
330
1F
100
AcDbEntity
  8
SPOJOVACÍ
  6
DASHED
100
AcDbLine
 10
237.9806487514506
 20
118.6182454406343
 30
0.0
 11
237.6105504079241
 21
118.8324649264204
 31
0.0
  0
LINE
  5
39A8
102
{ACAD_REACTORS
330
3971
102
}
330
1F
100
AcDbEntity
  8
SPOJOVACÍ
  6
DASHED
100
AcDbLine
 10
237.9806487514506
 20
118.6182454406343
 30
0.0
 11
237.6105504079241
 21
118.2481470949687
 31
0.0
  0
LINE
  5
39A9
330
1F
100
AcDbEntity
  8
SPOJOVACÍ
  6
DASHED
100
AcDbLine
 10
233.2769357877186
 20
119.7941736815673
 30
0.0
 11
233.6470341355234
 21
120.1651835994207
 31
0.0
  0
LINE
  5
39AA
330
1F
100
AcDbEntity
  8
SPOJOVACÍ
  6
DASHED
100
AcDbLine
 10
233.2769357877186
 20
119.7941736815673
 30
0.0
 11
233.6470341355234
 21
119.58086576824
 31
0.0
  0
LINE
  5
39AB
330
1F
100
AcDbEntity
  8
SPOJOVACÍ
  6
DASHED
100
AcDbLine
 10
233.2769357877186
 20
119.7941736815673
 30
0.0
 11
237.9806487514506
 21
118.6182454406343
 31
0.0
  0
LINE
  5
39AC
330
1F
100
AcDbEntity
  8
SPOJOVACÍ
  6
DASHED
100
AcDbLine
 10
236.7108285682261
 20
103.9811293428237
 30
0.0
 11
236.9514836514645
 21
105.9127510038842
 31
0.0
  0
LINE
  5
39AD
330
1F
100
AcDbEntity
  8
SPOJOVACÍ
  6
DASHED
100
AcDbLine
 10
236.379016255516
 20
101.3284540082431
 30
0.0
 11
236.6406375017468
 21
103.4223355350395
 31
0.0
  0
LINE
  5
39AE
330
1F
100
AcDbEntity
  8
SPOJOVACÍ
  6
DASHED
100
AcDbLine
 10
236.0462923775703
 20
98.66575137879863
 30
0.0
 11
236.3088251933149
 21
100.7678370560834
 31
0.0
  0
LINE
  5
39AF
330
1F
100
AcDbEntity
  8
SPOJOVACÍ
  6
DASHED
100
AcDbLine
 10
235.2504897747639
 20
98.35581680367887
 30
0.0
 11
235.6287922695846
 21
95.32848526223006
 31
0.0
  0
LINE
  5
39B0
330
1F
100
AcDbEntity
  8
SPOJOVACÍ
  6
DASHED
100
AcDbLine
 10
234.8904187258376
 20
101.2382083525635
 30
0.0
 11
235.1748292740885
 21
98.96383551441523
 31
0.0
  0
LINE
  5
39B1
330
1F
100
AcDbEntity
  8
SPOJOVACÍ
  6
DASHED
100
AcDbLine
 10
234.5285245293271
 20
104.1315387687782
 30
0.0
 11
234.8129350818562
 21
101.8562543584348
 31
0.0
  0
LINE
  5
39B2
330
1F
100
AcDbEntity
  8
SPOJOVACÍ
  6
DASHED
100
AcDbLine
 10
235.6287922695846
 20
95.32848526223006
 30
0.0
 11
235.976101311091
 21
98.10786914347318
 31
0.0
  0
LINE
  5
39B3
330
1F
100
AcDbEntity
  8
SPOJOVACÍ
  6
DASHED
100
AcDbLine
 10
234.306100891983
 20
105.9127510038842
 30
0.0
 11
234.4528640286516
 21
104.7395574795146
 31
0.0
  0
LINE
  5
39B4
330
1F
100
AcDbEntity
  8
SPOJOVACÍ
  6
DASHED
100
AcDbLine
 10
236.9514836514645
 20
106.2427401690101
 30
0.0
 11
236.9514836514645
 21
105.9127510038842
 31
0.0
  0
LINE
  5
39B5
102
{ACAD_REACTORS
330
3971
102
}
330
1F
100
AcDbEntity
  8
SPOJOVACÍ
  6
DASHED
100
AcDbLine
 10
236.9514836514645
 20
109.3028883126908
 30
0.0
 11
236.9514836514645
 21
106.8343505787624
 31
0.0
  0
LINE
  5
39B6
330
1F
100
AcDbEntity
  8
SPOJOVACÍ
  6
DASHED
100
AcDbLine
 10
234.306100891983
 20
107.1351694309351
 30
0.0
 11
234.306100891983
 21
105.9127510038842
 31
0.0
  0
LINE
  5
39B7
330
1F
100
AcDbEntity
  8
SPOJOVACÍ
  6
DASHED
100
AcDbLine
 10
234.306100891983
 20
110.1871134241273
 30
0.0
 11
234.306100891983
 21
107.7194872623868
 31
0.0
  0
LINE
  5
39B8
102
{ACAD_REACTORS
330
3971
102
}
330
1F
100
AcDbEntity
  8
SPOJOVACÍ
  6
DASHED
100
AcDbLine
 10
236.9514836514645
 20
112.3621248839199
 30
0.0
 11
236.9514836514645
 21
109.891764005345
 31
0.0
  0
LINE
  5
39B9
102
{ACAD_REACTORS
330
3971
102
}
330
1F
100
AcDbEntity
  8
SPOJOVACÍ
  6
DASHED
100
AcDbLine
 10
236.9514836514645
 20
115.4222730273368
 30
0.0
 11
236.9514836514645
 21
112.944619570725
 31
0.0
  0
LINE
  5
39BA
102
{ACAD_REACTORS
330
3971
102
}
330
1F
100
AcDbEntity
  8
SPOJOVACÍ
  6
DASHED
100
AcDbLine
 10
236.9514836514645
 20
118.4751285927168
 30
0.0
 11
236.9514836514645
 21
116.0065908587885
 31
0.0
  0
LINE
  5
39BB
330
1F
100
AcDbEntity
  8
SPOJOVACÍ
  6
DASHED
100
AcDbLine
 10
234.306100891983
 20
113.2572888626791
 30
0.0
 11
234.306100891983
 21
110.7796354060674
 31
0.0
  0
LINE
  5
39BC
330
1F
100
AcDbEntity
  8
SPOJOVACÍ
  6
DASHED
100
AcDbLine
 10
234.306100891983
 20
116.3101444280591
 30
0.0
 11
234.306100891983
 21
113.8397835494843
 31
0.0
  0
LINE
  5
39BD
330
1F
100
AcDbEntity
  8
SPOJOVACÍ
  6
DASHED
100
AcDbLine
 10
234.306100891983
 20
119.370292571476
 30
0.0
 11
234.306100891983
 21
116.9017548375477
 31
0.0
  0
LINE
  5
39BE
330
1F
100
AcDbEntity
  8
SPOJOVACÍ
  6
DASHED
100
AcDbLine
 10
234.306100891983
 20
123.9108340975553
 30
0.0
 11
234.306100891983
 21
119.9536988304689
 31
0.0
  0
LINE
  5
39BF
330
1F
100
AcDbEntity
  8
SPOJOVACÍ
  6
DASHED
100
AcDbLine
 10
236.9514836514645
 20
123.9108340975553
 30
0.0
 11
236.9514836514645
 21
119.0667390022053
 31
0.0
  0
LINE
  5
39C0
330
1F
100
AcDbEntity
  8
SPOJOVACÍ
  6
DASHED
100
AcDbLine
 10
230.6306414587234
 20
129.2025111820248
 30
0.0
 11
231.9533328406032
 21
128.47325335828
 31
0.0
  0
LINE
  5
39C1
330
1F
100
AcDbEntity
  8
SPOJOVACÍ
  6
DASHED
100
AcDbLine
 10
231.9533328406032
 20
128.47325335828
 30
0.0
 11
233.0417501429546
 21
127.4258568086561
 31
0.0
  0
LINE
  5
39C2
330
1F
100
AcDbEntity
  8
SPOJOVACÍ
  6
DASHED
100
AcDbLine
 10
233.0417501429546
 20
127.4258568086561
 30
0.0
 11
233.8220560126865
 21
126.1332473159245
 31
0.0
  0
LINE
  5
39C3
330
1F
100
AcDbEntity
  8
SPOJOVACÍ
  6
DASHED
100
AcDbLine
 10
233.8220560126865
 20
126.1332473159245
 30
0.0
 11
234.2413792596999
 21
124.6820242462154
 31
0.0
  0
LINE
  5
39C4
330
1F
100
AcDbEntity
  8
SPOJOVACÍ
  6
DASHED
100
AcDbLine
 10
234.2413792596999
 20
124.6820242462154
 30
0.0
 11
234.306100891983
 21
123.9108340975553
 31
0.0
  0
LINE
  5
39C5
330
1F
100
AcDbEntity
  8
SPOJOVACÍ
  6
DASHED
100
AcDbLine
 10
238.7135528652797
 20
127.9728001766661
 30
0.0
 11
239.9259439980014
 21
128.8725220168989
 31
0.0
  0
LINE
  5
39C6
330
1F
100
AcDbEntity
  8
SPOJOVACÍ
  6
DASHED
100
AcDbLine
 10
239.9259439980014
 20
128.8725220168989
 30
0.0
 11
240.6269430804459
 21
129.2025111820248
 31
0.0
  0
LINE
  5
39C7
330
1F
100
AcDbEntity
  8
SPOJOVACÍ
  6
DASHED
100
AcDbLine
 10
230.6306414587234
 20
129.2025111820248
 30
0.0
 11
240.6269430804459
 21
129.2025111820248
 31
0.0
  0
LINE
  5
39C8
330
1F
100
AcDbEntity
  8
SPOJOVACÍ
  6
DASHED
100
AcDbLine
 10
230.6306414587234
 20
130.3784394232216
 30
0.0
 11
230.6306414587234
 21
129.2025111820248
 31
0.0
  0
LINE
  5
39C9
330
1F
100
AcDbEntity
  8
SPOJOVACÍ
  6
DASHED
100
AcDbLine
 10
230.6306414587234
 20
130.3784394232216
 30
0.0
 11
240.6269430804459
 21
130.3784394232216
 31
0.0
  0
LINE
  5
39CA
330
1F
100
AcDbEntity
  8
SPOJOVACÍ
  6
DASHED
100
AcDbLine
 10
240.6269430804459
 20
130.3784394232216
 30
0.0
 11
240.6269430804459
 21
129.2025111820248
 31
0.0
  0
LINE
  5
39CB
330
1F
100
AcDbEntity
  8
SPOJOVACÍ
  6
DASHED
100
AcDbLine
 10
236.9514836514645
 20
123.9108340975553
 30
0.0
 11
237.1739072845302
 21
125.403989491916
 31
0.0
  0
LINE
  5
39CC
330
1F
100
AcDbEntity
  8
SPOJOVACÍ
  6
DASHED
100
AcDbLine
 10
237.1739072845302
 20
125.403989491916
 30
0.0
 11
237.7746334166949
 21
126.7895793574252
 31
0.0
  0
LINE
  5
39CD
330
1F
100
AcDbEntity
  8
SPOJOVACÍ
  6
DASHED
100
AcDbLine
 10
237.7746334166949
 20
126.7895793574252
 30
0.0
 11
238.7135528652797
 21
127.9728001766661
 31
0.0
  0
LINE
  5
39CE
330
1F
100
AcDbEntity
  8
SPOJOVACÍ
  6
DASHED
100
AcDbLine
 10
337.774633416695
 20
126.7895793574252
 30
0.0
 11
338.7135528652797
 21
127.9728001766661
 31
0.0
  0
LINE
  5
39CF
330
1F
100
AcDbEntity
  8
SPOJOVACÍ
  6
DASHED
100
AcDbLine
 10
337.1739072845302
 20
125.403989491916
 30
0.0
 11
337.774633416695
 21
126.7895793574252
 31
0.0
  0
LINE
  5
39D0
330
1F
100
AcDbEntity
  8
SPOJOVACÍ
  6
DASHED
100
AcDbLine
 10
336.9514836514645
 20
123.9108340975553
 30
0.0
 11
337.1739072845302
 21
125.403989491916
 31
0.0
  0
LINE
  5
39D1
330
1F
100
AcDbEntity
  8
SPOJOVACÍ
  6
DASHED
100
AcDbLine
 10
340.6269430804459
 20
130.3784394232216
 30
0.0
 11
340.6269430804459
 21
129.2025111820248
 31
0.0
  0
LINE
  5
39D2
330
1F
100
AcDbEntity
  8
SPOJOVACÍ
  6
DASHED
100
AcDbLine
 10
330.6306414587234
 20
130.3784394232216
 30
0.0
 11
340.6269430804459
 21
130.3784394232216
 31
0.0
  0
LINE
  5
39D3
330
1F
100
AcDbEntity
  8
SPOJOVACÍ
  6
DASHED
100
AcDbLine
 10
330.6306414587234
 20
130.3784394232216
 30
0.0
 11
330.6306414587234
 21
129.2025111820248
 31
0.0
  0
LINE
  5
39D4
330
1F
100
AcDbEntity
  8
SPOJOVACÍ
  6
DASHED
100
AcDbLine
 10
330.6306414587234
 20
129.2025111820248
 30
0.0
 11
340.6269430804459
 21
129.2025111820248
 31
0.0
  0
LINE
  5
39D5
330
1F
100
AcDbEntity
  8
SPOJOVACÍ
  6
DASHED
100
AcDbLine
 10
339.9259439980014
 20
128.8725220168989
 30
0.0
 11
340.6269430804459
 21
129.2025111820248
 31
0.0
  0
LINE
  5
39D6
330
1F
100
AcDbEntity
  8
SPOJOVACÍ
  6
DASHED
100
AcDbLine
 10
338.7135528652797
 20
127.9728001766661
 30
0.0
 11
339.9259439980014
 21
128.8725220168989
 31
0.0
  0
LINE
  5
39D7
330
1F
100
AcDbEntity
  8
SPOJOVACÍ
  6
DASHED
100
AcDbLine
 10
334.2413792596999
 20
124.6820242462154
 30
0.0
 11
334.306100891983
 21
123.9108340975553
 31
0.0
  0
LINE
  5
39D8
330
1F
100
AcDbEntity
  8
SPOJOVACÍ
  6
DASHED
100
AcDbLine
 10
333.8220560126865
 20
126.1332473159245
 30
0.0
 11
334.2413792596999
 21
124.6820242462154
 31
0.0
  0
LINE
  5
39D9
330
1F
100
AcDbEntity
  8
SPOJOVACÍ
  6
DASHED
100
AcDbLine
 10
333.0417501429546
 20
127.4258568086561
 30
0.0
 11
333.8220560126865
 21
126.1332473159245
 31
0.0
  0
LINE
  5
39DA
330
1F
100
AcDbEntity
  8
SPOJOVACÍ
  6
DASHED
100
AcDbLine
 10
331.9533328406032
 20
128.47325335828
 30
0.0
 11
333.0417501429546
 21
127.4258568086561
 31
0.0
  0
LINE
  5
39DB
330
1F
100
AcDbEntity
  8
SPOJOVACÍ
  6
DASHED
100
AcDbLine
 10
330.6306414587234
 20
129.2025111820248
 30
0.0
 11
331.9533328406032
 21
128.47325335828
 31
0.0
  0
LINE
  5
39DC
330
1F
100
AcDbEntity
  8
SPOJOVACÍ
  6
DASHED
100
AcDbLine
 10
336.9514836514645
 20
123.9108340975553
 30
0.0
 11
336.9514836514645
 21
119.0667390022053
 31
0.0
  0
LINE
  5
39DD
330
1F
100
AcDbEntity
  8
SPOJOVACÍ
  6
DASHED
100
AcDbLine
 10
334.306100891983
 20
123.9108340975553
 30
0.0
 11
334.306100891983
 21
119.9536988304689
 31
0.0
  0
LINE
  5
39DE
330
1F
100
AcDbEntity
  8
SPOJOVACÍ
  6
DASHED
100
AcDbLine
 10
334.306100891983
 20
119.370292571476
 30
0.0
 11
334.306100891983
 21
116.9017548375477
 31
0.0
  0
LINE
  5
39DF
330
1F
100
AcDbEntity
  8
SPOJOVACÍ
  6
DASHED
100
AcDbLine
 10
334.306100891983
 20
116.3101444280591
 30
0.0
 11
334.306100891983
 21
113.8397835494843
 31
0.0
  0
LINE
  5
39E0
330
1F
100
AcDbEntity
  8
SPOJOVACÍ
  6
DASHED
100
AcDbLine
 10
334.306100891983
 20
113.2572888626791
 30
0.0
 11
334.306100891983
 21
110.7796354060674
 31
0.0
  0
LINE
  5
39E1
330
1F
100
AcDbEntity
  8
SPOJOVACÍ
  6
DASHED
100
AcDbLine
 10
336.9514836514645
 20
118.4751285927168
 30
0.0
 11
336.9514836514645
 21
116.0065908587885
 31
0.0
  0
LINE
  5
39E2
330
1F
100
AcDbEntity
  8
SPOJOVACÍ
  6
DASHED
100
AcDbLine
 10
336.9514836514645
 20
115.4222730273368
 30
0.0
 11
336.9514836514645
 21
112.944619570725
 31
0.0
  0
LINE
  5
39E3
330
1F
100
AcDbEntity
  8
SPOJOVACÍ
  6
DASHED
100
AcDbLine
 10
336.9514836514645
 20
112.3621248839199
 30
0.0
 11
336.9514836514645
 21
109.891764005345
 31
0.0
  0
LINE
  5
39E4
330
1F
100
AcDbEntity
  8
SPOJOVACÍ
  6
DASHED
100
AcDbLine
 10
334.306100891983
 20
110.1871134241273
 30
0.0
 11
334.306100891983
 21
107.7194872623868
 31
0.0
  0
LINE
  5
39E5
330
1F
100
AcDbEntity
  8
SPOJOVACÍ
  6
DASHED
100
AcDbLine
 10
334.306100891983
 20
107.1351694309351
 30
0.0
 11
334.306100891983
 21
105.9127510038842
 31
0.0
  0
LINE
  5
39E6
330
1F
100
AcDbEntity
  8
SPOJOVACÍ
  6
DASHED
100
AcDbLine
 10
336.9514836514645
 20
109.3028883126908
 30
0.0
 11
336.9514836514645
 21
106.8343505787624
 31
0.0
  0
LINE
  5
39E7
330
1F
100
AcDbEntity
  8
SPOJOVACÍ
  6
DASHED
100
AcDbLine
 10
336.9514836514645
 20
106.2427401690101
 30
0.0
 11
336.9514836514645
 21
105.9127510038842
 31
0.0
  0
LINE
  5
39E8
330
1F
100
AcDbEntity
  8
SPOJOVACÍ
  6
DASHED
100
AcDbLine
 10
334.306100891983
 20
105.9127510038842
 30
0.0
 11
334.4528640286516
 21
104.7395574795146
 31
0.0
  0
LINE
  5
39E9
330
1F
100
AcDbEntity
  8
SPOJOVACÍ
  6
DASHED
100
AcDbLine
 10
335.6287922695846
 20
95.32848526223006
 30
0.0
 11
335.976101311091
 21
98.10786914347318
 31
0.0
  0
LINE
  5
39EA
330
1F
100
AcDbEntity
  8
SPOJOVACÍ
  6
DASHED
100
AcDbLine
 10
334.5285245293271
 20
104.1315387687782
 30
0.0
 11
334.8129350818562
 21
101.8562543584348
 31
0.0
  0
LINE
  5
39EB
330
1F
100
AcDbEntity
  8
SPOJOVACÍ
  6
DASHED
100
AcDbLine
 10
334.8904187258376
 20
101.2382083525635
 30
0.0
 11
335.1748292740885
 21
98.96383551441523
 31
0.0
  0
LINE
  5
39EC
330
1F
100
AcDbEntity
  8
SPOJOVACÍ
  6
DASHED
100
AcDbLine
 10
335.2504897747639
 20
98.35581680367887
 30
0.0
 11
335.6287922695846
 21
95.32848526223006
 31
0.0
  0
LINE
  5
39ED
330
1F
100
AcDbEntity
  8
SPOJOVACÍ
  6
DASHED
100
AcDbLine
 10
336.0462923775703
 20
98.66575137879863
 30
0.0
 11
336.3088251933149
 21
100.7678370560834
 31
0.0
  0
LINE
  5
39EE
330
1F
100
AcDbEntity
  8
SPOJOVACÍ
  6
DASHED
100
AcDbLine
 10
336.379016255516
 20
101.3284540082431
 30
0.0
 11
336.6406375017468
 21
103.4223355350395
 31
0.0
  0
LINE
  5
39EF
330
1F
100
AcDbEntity
  8
SPOJOVACÍ
  6
DASHED
100
AcDbLine
 10
336.7108285682261
 20
103.9811293428237
 30
0.0
 11
336.9514836514645
 21
105.9127510038842
 31
0.0
  0
LINE
  5
39F0
330
1F
100
AcDbEntity
  8
SPOJOVACÍ
  6
DASHED
100
AcDbLine
 10
333.2769357877186
 20
119.7941736815673
 30
0.0
 11
337.9806487514506
 21
118.6182454406343
 31
0.0
  0
LINE
  5
39F1
330
1F
100
AcDbEntity
  8
SPOJOVACÍ
  6
DASHED
100
AcDbLine
 10
333.2769357877186
 20
119.7941736815673
 30
0.0
 11
333.6470341355234
 21
119.58086576824
 31
0.0
  0
LINE
  5
39F2
330
1F
100
AcDbEntity
  8
SPOJOVACÍ
  6
DASHED
100
AcDbLine
 10
333.2769357877186
 20
119.7941736815673
 30
0.0
 11
333.6470341355234
 21
120.1651835994207
 31
0.0
  0
LINE
  5
39F3
330
1F
100
AcDbEntity
  8
SPOJOVACÍ
  6
DASHED
100
AcDbLine
 10
337.9806487514506
 20
118.6182454406343
 30
0.0
 11
337.6105504079241
 21
118.2481470949687
 31
0.0
  0
LINE
  5
39F4
330
1F
100
AcDbEntity
  8
SPOJOVACÍ
  6
DASHED
100
AcDbLine
 10
337.9806487514506
 20
118.6182454406343
 30
0.0
 11
337.6105504079241
 21
118.8324649264204
 31
0.0
  0
LINE
  5
39F5
330
1F
100
AcDbEntity
  8
SPOJOVACÍ
  6
DASHED
100
AcDbLine
 10
333.6470341355234
 20
119.58086576824
 30
0.0
 11
337.6105504079241
 21
118.2481470949687
 31
0.0
  0
LINE
  5
39F6
330
1F
100
AcDbEntity
  8
SPOJOVACÍ
  6
DASHED
100
AcDbLine
 10
333.6470341355234
 20
120.1651835994207
 30
0.0
 11
337.6105504079241
 21
118.8324649264204
 31
0.0
  0
LINE
  5
39F7
330
1F
100
AcDbEntity
  8
SPOJOVACÍ
  6
DASHED
100
AcDbLine
 10
333.2769357877186
 20
116.7367602549848
 30
0.0
 11
337.9806487514506
 21
115.5608320137807
 31
0.0
  0
LINE
  5
39F8
330
1F
100
AcDbEntity
  8
SPOJOVACÍ
  6
DASHED
100
AcDbLine
 10
333.2769357877186
 20
116.7367602549848
 30
0.0
 11
333.6470341355234
 21
116.5225407691987
 31
0.0
  0
LINE
  5
39F9
330
1F
100
AcDbEntity
  8
SPOJOVACÍ
  6
DASHED
100
AcDbLine
 10
333.2769357877186
 20
116.7367602549848
 30
0.0
 11
333.6470341355234
 21
117.1068586006504
 31
0.0
  0
LINE
  5
39FA
330
1F
100
AcDbEntity
  8
SPOJOVACÍ
  6
DASHED
100
AcDbLine
 10
337.9806487514506
 20
115.5608320137807
 30
0.0
 11
337.6105504079241
 21
115.1907336683862
 31
0.0
  0
LINE
  5
39FB
330
1F
100
AcDbEntity
  8
SPOJOVACÍ
  6
DASHED
100
AcDbLine
 10
337.9806487514506
 20
115.5608320137807
 30
0.0
 11
337.6105504079241
 21
115.7750514995668
 31
0.0
  0
LINE
  5
39FC
330
1F
100
AcDbEntity
  8
SPOJOVACÍ
  6
DASHED
100
AcDbLine
 10
333.6470341355234
 20
116.5225407691987
 30
0.0
 11
337.6105504079241
 21
115.1907336683862
 31
0.0
  0
LINE
  5
39FD
330
1F
100
AcDbEntity
  8
SPOJOVACÍ
  6
DASHED
100
AcDbLine
 10
333.6470341355234
 20
117.1068586006504
 30
0.0
 11
337.6105504079241
 21
115.7750514995668
 31
0.0
  0
LINE
  5
39FE
330
1F
100
AcDbEntity
  8
SPOJOVACÍ
  6
DASHED
100
AcDbLine
 10
333.5257950222512
 20
104.5481273008326
 30
0.0
 11
333.8968049395698
 21
104.3339078150465
 31
0.0
  0
LINE
  5
39FF
330
1F
100
AcDbEntity
  8
SPOJOVACÍ
  6
DASHED
100
AcDbLine
 10
333.5257950222512
 20
104.5481273008326
 30
0.0
 11
333.8968049395698
 21
104.9182256464982
 31
0.0
  0
LINE
  5
3A00
330
1F
100
AcDbEntity
  8
SPOJOVACÍ
  6
DASHED
100
AcDbLine
 10
337.5686180819393
 20
103.5946226961741
 30
0.0
 11
337.1985197384128
 21
103.2236127780497
 31
0.0
  0
LINE
  5
3A01
330
1F
100
AcDbEntity
  8
SPOJOVACÍ
  6
DASHED
100
AcDbLine
 10
337.5686180819393
 20
103.5946226961741
 30
0.0
 11
337.1985197384128
 21
103.8079306095014
 31
0.0
  0
LINE
  5
3A02
330
1F
100
AcDbEntity
  8
SPOJOVACÍ
  6
DASHED
100
AcDbLine
 10
333.8968049395698
 20
104.3339078150465
 30
0.0
 11
337.1985197384128
 21
103.2236127780497
 31
0.0
  0
LINE
  5
3A03
330
1F
100
AcDbEntity
  8
SPOJOVACÍ
  6
DASHED
100
AcDbLine
 10
333.8968049395698
 20
104.9182256464982
 30
0.0
 11
337.1985197384128
 21
103.8079306095014
 31
0.0
  0
LINE
  5
3A04
330
1F
100
AcDbEntity
  8
SPOJOVACÍ
  6
DASHED
100
AcDbLine
 10
333.5257950222512
 20
104.5481273008326
 30
0.0
 11
337.5686180819393
 21
103.5946226961741
 31
0.0
  0
LINE
  5
3A05
330
1F
100
AcDbEntity
  8
SPOJOVACÍ
  6
DASHED
100
AcDbLine
 10
334.079119394235
 20
101.5937215416206
 30
0.0
 11
334.4492177420397
 21
101.3804136282933
 31
0.0
  0
LINE
  5
3A06
330
1F
100
AcDbEntity
  8
SPOJOVACÍ
  6
DASHED
100
AcDbLine
 10
334.079119394235
 20
101.5937215416206
 30
0.0
 11
334.4492177420397
 21
101.964731459745
 31
0.0
  0
LINE
  5
3A07
330
1F
100
AcDbEntity
  8
SPOJOVACÍ
  6
DASHED
100
AcDbLine
 10
337.1328865323375
 20
100.972940819186
 30
0.0
 11
336.7627881888111
 21
100.6019309013327
 31
0.0
  0
LINE
  5
3A08
330
1F
100
AcDbEntity
  8
SPOJOVACÍ
  6
DASHED
100
AcDbLine
 10
337.1328865323375
 20
100.972940819186
 30
0.0
 11
336.7627881888111
 21
101.1862487325133
 31
0.0
  0
LINE
  5
3A09
330
1F
100
AcDbEntity
  8
SPOJOVACÍ
  6
DASHED
100
AcDbLine
 10
334.4492177420397
 20
101.3804136282933
 30
0.0
 11
336.7627881888111
 21
100.6019309013327
 31
0.0
  0
LINE
  5
3A0A
330
1F
100
AcDbEntity
  8
SPOJOVACÍ
  6
DASHED
100
AcDbLine
 10
334.4492177420397
 20
101.964731459745
 30
0.0
 11
336.7627881888111
 21
101.1862487325133
 31
0.0
  0
LINE
  5
3A0B
330
1F
100
AcDbEntity
  8
SPOJOVACÍ
  6
DASHED
100
AcDbLine
 10
334.079119394235
 20
101.5937215416206
 30
0.0
 11
337.1328865323375
 21
100.972940819186
 31
0.0
  0
LINE
  5
3A0C
330
1F
100
AcDbEntity
  8
SPOJOVACÍ
  6
DASHED
100
AcDbLine
 10
334.632443770497
 20
98.64022735486742
 30
0.0
 11
335.0025421140235
 21
98.4260078690886
 31
0.0
  0
LINE
  5
3A0D
330
1F
100
AcDbEntity
  8
SPOJOVACÍ
  6
DASHED
100
AcDbLine
 10
334.632443770497
 20
98.64022735486742
 30
0.0
 11
335.0025421140235
 21
99.01032570053303
 31
0.0
  0
LINE
  5
3A0E
330
1F
100
AcDbEntity
  8
SPOJOVACÍ
  6
DASHED
100
AcDbLine
 10
336.7436451691246
 20
98.335762213409
 30
0.0
 11
336.3735468255981
 21
97.96475229555563
 31
0.0
  0
LINE
  5
3A0F
330
1F
100
AcDbEntity
  8
SPOJOVACÍ
  6
DASHED
100
AcDbLine
 10
336.7436451691246
 20
98.335762213409
 30
0.0
 11
336.3735468255981
 21
98.54907012700005
 31
0.0
  0
LINE
  5
3A10
330
1F
100
AcDbEntity
  8
SPOJOVACÍ
  6
DASHED
100
AcDbLine
 10
335.0025421140235
 20
98.4260078690886
 30
0.0
 11
336.3735468255981
 21
97.96475229555563
 31
0.0
  0
LINE
  5
3A11
330
1F
100
AcDbEntity
  8
SPOJOVACÍ
  6
DASHED
100
AcDbLine
 10
335.0025421140235
 20
99.01032570053303
 30
0.0
 11
336.3735468255981
 21
98.54907012700005
 31
0.0
  0
LINE
  5
3A12
330
1F
100
AcDbEntity
  8
SPOJOVACÍ
  6
DASHED
100
AcDbLine
 10
334.632443770497
 20
98.64022735486742
 30
0.0
 11
336.7436451691246
 21
98.335762213409
 31
0.0
  0
LINE
  5
3A13
330
1F
100
AcDbEntity
  8
SPOJOVACÍ
  6
DASHED
100
AcDbLine
 10
333.2769357877186
 20
113.6793468281312
 30
0.0
 11
337.9806487514506
 21
112.5034185871982
 31
0.0
  0
LINE
  5
3A14
330
1F
100
AcDbEntity
  8
SPOJOVACÍ
  6
DASHED
100
AcDbLine
 10
333.2769357877186
 20
113.6793468281312
 30
0.0
 11
333.6470341355234
 21
113.4651273423451
 31
0.0
  0
LINE
  5
3A15
330
1F
100
AcDbEntity
  8
SPOJOVACÍ
  6
DASHED
100
AcDbLine
 10
333.2769357877186
 20
113.6793468281312
 30
0.0
 11
333.6470341355234
 21
114.0494451737968
 31
0.0
  0
LINE
  5
3A16
330
1F
100
AcDbEntity
  8
SPOJOVACÍ
  6
DASHED
100
AcDbLine
 10
337.9806487514506
 20
112.5034185871982
 30
0.0
 11
337.6105504079241
 21
112.1324086693448
 31
0.0
  0
LINE
  5
3A17
330
1F
100
AcDbEntity
  8
SPOJOVACÍ
  6
DASHED
100
AcDbLine
 10
337.9806487514506
 20
112.5034185871982
 30
0.0
 11
337.6105504079241
 21
112.7167265007892
 31
0.0
  0
LINE
  5
3A18
330
1F
100
AcDbEntity
  8
SPOJOVACÍ
  6
DASHED
100
AcDbLine
 10
333.6470341355234
 20
113.4651273423451
 30
0.0
 11
337.6105504079241
 21
112.1324086693448
 31
0.0
  0
LINE
  5
3A19
330
1F
100
AcDbEntity
  8
SPOJOVACÍ
  6
DASHED
100
AcDbLine
 10
333.6470341355234
 20
114.0494451737968
 30
0.0
 11
337.6105504079241
 21
112.7167265007892
 31
0.0
  0
LINE
  5
3A1A
330
1F
100
AcDbEntity
  8
SPOJOVACÍ
  6
DASHED
100
AcDbLine
 10
333.2769357877186
 20
110.6219334015413
 30
0.0
 11
337.9806487514506
 21
109.4460051606083
 31
0.0
  0
LINE
  5
3A1B
330
1F
100
AcDbEntity
  8
SPOJOVACÍ
  6
DASHED
100
AcDbLine
 10
333.2769357877186
 20
110.6219334015413
 30
0.0
 11
333.6470341355234
 21
110.4077139157625
 31
0.0
  0
LINE
  5
3A1C
330
1F
100
AcDbEntity
  8
SPOJOVACÍ
  6
DASHED
100
AcDbLine
 10
333.2769357877186
 20
110.6219334015413
 30
0.0
 11
333.6470341355234
 21
110.9920317472069
 31
0.0
  0
LINE
  5
3A1D
330
1F
100
AcDbEntity
  8
SPOJOVACÍ
  6
DASHED
100
AcDbLine
 10
337.9806487514506
 20
109.4460051606083
 30
0.0
 11
337.6105504079241
 21
109.0749952427549
 31
0.0
  0
LINE
  5
3A1E
330
1F
100
AcDbEntity
  8
SPOJOVACÍ
  6
DASHED
100
AcDbLine
 10
337.9806487514506
 20
109.4460051606083
 30
0.0
 11
337.6105504079241
 21
109.6593130739356
 31
0.0
  0
LINE
  5
3A1F
330
1F
100
AcDbEntity
  8
SPOJOVACÍ
  6
DASHED
100
AcDbLine
 10
333.6470341355234
 20
110.4077139157625
 30
0.0
 11
337.6105504079241
 21
109.0749952427549
 31
0.0
  0
LINE
  5
3A20
330
1F
100
AcDbEntity
  8
SPOJOVACÍ
  6
DASHED
100
AcDbLine
 10
333.6470341355234
 20
110.9920317472069
 30
0.0
 11
337.6105504079241
 21
109.6593130739356
 31
0.0
  0
LINE
  5
3A21
330
1F
100
AcDbEntity
  8
SPOJOVACÍ
  6
DASHED
100
AcDbLine
 10
333.2769357877186
 20
107.5636084024999
 30
0.0
 11
337.9806487514506
 21
106.387680161567
 31
0.0
  0
LINE
  5
3A22
330
1F
100
AcDbEntity
  8
SPOJOVACÍ
  6
DASHED
100
AcDbLine
 10
333.2769357877186
 20
107.5636084024999
 30
0.0
 11
333.6470341355234
 21
107.3503004891726
 31
0.0
  0
LINE
  5
3A23
330
1F
100
AcDbEntity
  8
SPOJOVACÍ
  6
DASHED
100
AcDbLine
 10
333.2769357877186
 20
107.5636084024999
 30
0.0
 11
333.6470341355234
 21
107.9346183206243
 31
0.0
  0
LINE
  5
3A24
330
1F
100
AcDbEntity
  8
SPOJOVACÍ
  6
DASHED
100
AcDbLine
 10
337.9806487514506
 20
106.387680161567
 30
0.0
 11
337.6105504079241
 21
106.0175818159013
 31
0.0
  0
LINE
  5
3A25
330
1F
100
AcDbEntity
  8
SPOJOVACÍ
  6
DASHED
100
AcDbLine
 10
337.9806487514506
 20
106.387680161567
 30
0.0
 11
337.6105504079241
 21
106.601899647353
 31
0.0
  0
LINE
  5
3A26
330
1F
100
AcDbEntity
  8
SPOJOVACÍ
  6
DASHED
100
AcDbLine
 10
333.6470341355234
 20
107.3503004891726
 30
0.0
 11
337.6105504079241
 21
106.0175818159013
 31
0.0
  0
LINE
  5
3A27
330
1F
100
AcDbEntity
  8
SPOJOVACÍ
  6
DASHED
100
AcDbLine
 10
333.6470341355234
 20
107.9346183206243
 30
0.0
 11
337.6105504079241
 21
106.601899647353
 31
0.0
  0
INSERT
  5
3A28
330
1F
100
AcDbEntity
  8
POPIS
100
AcDbBlockReference
  2
E_PUNKT
 10
313.7349105061657
 20
138.1881599027383
 30
0.0
 50
270.0
  0
LINE
  5
3A29
330
1F
100
AcDbEntity
  8
POPIS
100
AcDbLine
 10
335.815615920721
 20
95.32848526223006
 30
0.0
 11
335.815615920721
 21
35.98595696869688
 31
0.0
  0
LINE
  5
3A2A
330
1F
100
AcDbEntity
  8
POPIS
100
AcDbLine
 10
291.1172350560627
 20
112.9252602502283
 30
0.0
 11
291.1172350560627
 21
35.98595696869688
 31
0.0
  0
LINE
  5
3A2B
102
{ACAD_REACTORS
330
3971
102
}
330
1F
100
AcDbEntity
  8
POPIS
100
AcDbLine
 10
246.0561177035015
 20
123.9998026923103
 30
0.0
 11
246.0561177035015
 21
35.98595696869688
 31
0.0
  0
INSERT
  5
3A2C
330
1F
100
AcDbEntity
  8
POPIS
100
AcDbBlockReference
  2
E_PUNKT
 10
246.0270493726275
 20
124.0274130679372
 30
0.0
 50
270.0
  0
INSERT
  5
3A2D
330
1F
100
AcDbEntity
  8
POPIS
100
AcDbBlockReference
  2
E_PUNKT
 10
291.0881667251887
 20
112.9528706258552
 30
0.0
 50
270.0
  0
INSERT
  5
3A2E
330
1F
100
AcDbEntity
  8
POPIS
100
AcDbBlockReference
  2
E_PUNKT
 10
335.9602021106002
 20
96.74578757847848
 30
0.0
 50
270.0
  0
HATCH
  5
3A2F
330
1F
100
AcDbEntity
  8
izolace
100
AcDbHatch
 10
0.0
 20
0.0
 30
0.0
210
0.0
220
0.0
230
1.0
  2
SOLID
 70
     1
 71
     0
 91
        1
 92
        7
 72
     0
 73
     1
 93
        4
 10
233.4990565566113
 20
76.3784394232216
 10
209.8573238467761
 20
76.3784394232216
 10
209.8573238467724
 20
73.37843942322161
 10
233.4990565566113
 20
73.37843942322161
 97
        0
 75
     0
 76
     1
 47
0.1901250437635136
 98
        1
 10
219.215118605116
 20
75.5616278721418
  0
LWPOLYLINE
  5
3A30
330
1F
100
AcDbEntity
  8
izolace
100
AcDbPolyline
 90
        4
 70
     1
 43
0.0
 10
233.4990565566076
 20
76.3784394232216
 10
209.8573238467724
 20
76.3784394232216
 10
209.8573238467724
 20
73.37843942322161
 10
233.4990565566076
 20
73.37843942322161
  0
HATCH
  5
3A31
330
1F
100
AcDbEntity
  8
izolace
100
AcDbHatch
 10
0.0
 20
0.0
 30
0.0
210
0.0
220
0.0
230
1.0
  2
SOLID
 70
     1
 71
     0
 91
        1
 92
        7
 72
     0
 73
     1
 93
        4
 10
280.7825219762817
 20
76.3784394232216
 10
257.1407892664465
 20
76.3784394232216
 10
257.1407892664428
 20
73.37843942322161
 10
280.7825219762817
 20
73.37843942322161
 97
        0
 75
     0
 76
     1
 47
0.1901250437635136
 98
        1
 10
266.4985840247863
 20
75.5616278721418
  0
LWPOLYLINE
  5
3A32
330
1F
100
AcDbEntity
  8
izolace
100
AcDbPolyline
 90
        4
 70
     1
 43
0.0
 10
280.782521976278
 20
76.3784394232216
 10
257.1407892664428
 20
76.3784394232216
 10
257.1407892664428
 20
73.37843942322161
 10
280.782521976278
 20
73.37843942322161
  0
HATCH
  5
3A33
330
1F
100
AcDbEntity
  8
izolace
100
AcDbHatch
 10
0.0
 20
0.0
 30
0.0
210
0.0
220
0.0
230
1.0
  2
SOLID
 70
     1
 71
     0
 91
        1
 92
        7
 72
     0
 73
     1
 93
        4
 10
328.0659873959521
 20
76.3784394232216
 10
304.4242546861169
 20
76.3784394232216
 10
304.4242546861132
 20
73.37843942322161
 10
328.0659873959521
 20
73.37843942322161
 97
        0
 75
     0
 76
     1
 47
0.1901250437635136
 98
        1
 10
313.7820494444568
 20
75.5616278721418
  0
LWPOLYLINE
  5
3A34
330
1F
100
AcDbEntity
  8
izolace
100
AcDbPolyline
 90
        4
 70
     1
 43
0.0
 10
328.0659873959484
 20
76.3784394232216
 10
304.4242546861132
 20
76.3784394232216
 10
304.4242546861132
 20
73.37843942322161
 10
328.0659873959484
 20
73.37843942322161
  0
HATCH
  5
3A35
330
1F
100
AcDbEntity
  8
nášlap_vrstvy
100
AcDbHatch
 10
0.0
 20
0.0
 30
0.0
210
0.0
220
0.0
230
1.0
  2
AR-SAND
 70
     0
 71
     0
 91
        2
 92
        7
 72
     0
 73
     1
 93
        4
 10
492.1710332627013
 20
132.4269121146799
 10
371.8458431853032
 20
132.4269121146796
 10
371.8458431853032
 20
130.3784394232216
 10
492.1710332627003
 20
130.3784394232216
 97
        0
 92
        7
 72
     0
 73
     1
 93
        4
 10
471.8458431853032
 20
137.4269121146801
 10
467.7224613549042
 20
137.4269121146801
 10
467.7224613549078
 20
132.4269121146799
 10
471.8458431853073
 20
132.4269121146801
 97
        0
 75
     0
 76
     1
 52
90.0
 41
0.05
 77
     0
 78
     4
 53
127.5
 43
-1769.041562424308
 44
-1909.038960477226
 45
-2.447066186646711
 46
-0.0800015647992021
 79
     6
 49
0.0
 49
-1.9304
 49
0.0
 49
-2.159
 49
0.0
 49
-2.06375
 53
97.5
 43
-1769.041562424308
 44
-1909.038960477226
 45
-3.584125502841771
 46
2.247616415690013
 79
     6
 49
0.0
 49
-1.0414
 49
0.0
 49
-1.7399
 49
0.0
 49
-0.6667500000000001
 53
57.5
 43
-1769.041562424308
 44
-1910.601060477226
 45
-0.0071859233927282
 46
3.95496185120729
 79
     6
 49
0.0
 49
-0.635
 49
0.0
 49
-2.286
 49
0.0
 49
-2.9845
 53
47.5
 43
-1769.041562424308
 44
-1910.601060477226
 45
-1.11464661628608
 46
3.817782262361486
 79
     6
 49
0.0
 49
-0.3175
 49
0.0
 49
-1.498599999999999
 49
0.0
 49
-1.7145
 47
0.247503409296348
 98
        2
 10
412.8465704963873
 20
131.7219996906255
 10
470.2986896159181
 20
135.1870355487167
  0
LINE
  5
3A36
330
1F
100
AcDbEntity
  8
nášlap_vrstvy
100
AcDbLine
 10
467.7224613549042
 20
137.4269121146798
 30
0.0
 11
467.7224613549078
 21
132.4269121146799
 31
0.0
  0
LINE
  5
3A37
330
1F
100
AcDbEntity
  8
nášlap_vrstvy
100
AcDbLine
 10
471.8458431853032
 20
137.4269121146798
 30
0.0
 11
471.8458431853068
 21
132.4269121146799
 31
0.0
  0
HATCH
  5
3A38
330
1F
100
AcDbEntity
  8
izolace
100
AcDbHatch
 10
0.0
 20
0.0
 30
0.0
210
0.0
220
0.0
230
1.0
  2
SOLID
 70
     1
 71
     0
 91
        1
 92
        7
 72
     0
 73
     1
 93
        4
 10
422.6329182352928
 20
76.3784394232216
 10
398.9911855254577
 20
76.3784394232216
 10
398.991185525454
 20
73.37843942322161
 10
422.6329182352928
 20
73.37843942322161
 97
        0
 75
     0
 76
     1
 47
0.1901250437635136
 98
        1
 10
408.3489802837975
 20
75.5616278721418
  0
HATCH
  5
3A39
330
1F
100
AcDbEntity
  8
izolace
100
AcDbHatch
 10
0.0
 20
0.0
 30
0.0
210
0.0
220
0.0
230
1.0
  2
SOLID
 70
     1
 71
     0
 91
        1
 92
        7
 72
     0
 73
     1
 93
        4
 10
469.9163836549632
 20
76.3784394232216
 10
446.2746509451281
 20
76.3784394232216
 10
446.2746509451244
 20
73.37843942322161
 10
469.9163836549632
 20
73.37843942322161
 97
        0
 75
     0
 76
     1
 47
0.1901250437635136
 98
        1
 10
455.6324457034679
 20
75.5616278721418
  0
LINE
  5
3A3A
330
1F
100
AcDbEntity
  8
nášlap_vrstvy
100
AcDbLine
 10
371.8458431853032
 20
137.4269121146798
 30
0.0
 11
371.8458431853068
 21
132.4269121146799
 31
0.0
  0
LINE
  5
3A3B
330
1F
100
AcDbEntity
  8
nášlap_vrstvy
100
AcDbLine
 10
367.8678790239136
 20
137.4269121146798
 30
0.0
 11
492.1710332627007
 21
137.4269121146798
 31
0.0
  0
LINE
  5
3A3C
330
1F
100
AcDbEntity
  8
POPIS
100
AcDbLine
 10
464.0302825363869
 20
58.10733685863033
 30
0.0
 11
464.0302825363869
 21
35.98595696869688
 31
0.0
  0
LINE
  5
3A3D
330
1F
100
AcDbEntity
  8
POPIS
100
AcDbLine
 10
424.1409936457166
 20
76.021912672918
 30
0.0
 11
424.1409936457166
 21
35.98595696869688
 31
0.0
  0
LINE
  5
3A3E
330
1F
100
AcDbEntity
  8
POPIS
100
AcDbLine
 10
383.7583796618164
 20
93.98724817024868
 30
0.0
 11
383.7583796618164
 21
35.98595696869688
 31
0.0
  0
INSERT
  5
3A3F
330
1F
100
AcDbEntity
  8
POPIS
100
AcDbBlockReference
  2
E_PUNKT
 10
383.7293113309424
 20
94.01485854587553
 30
0.0
 50
270.0
  0
INSERT
  5
3A40
330
1F
100
AcDbEntity
  8
POPIS
100
AcDbBlockReference
  2
E_PUNKT
 10
424.1119253148426
 20
76.04952304854487
 30
0.0
 50
270.0
  0
INSERT
  5
3A41
330
1F
100
AcDbEntity
  8
POPIS
100
AcDbBlockReference
  2
E_PUNKT
 10
464.0012142055129
 20
58.13494723425719
 30
0.0
 50
270.0
  0
TEXT
  5
3A42
330
1F
100
AcDbEntity
  8
POPIS
100
AcDbText
 10
298.5156205520834
 20
213.5592211333805
 30
0.0
 40
25.0
  1
04
 41
0.85
  7
SIMPLEX7
100
AcDbText
  0
TEXT
  5
3A43
330
1F
100
AcDbEntity
  8
POPIS
100
AcDbText
 10
540.7665583824855
 20
298.627218072087
 30
0.0
 40
25.0
  1
Vrut Bűhnen 4,2x35 mm
 41
0.7
  7
SIMPLEX7
100
AcDbText
  0
TEXT
  5
3A44
330
1F
100
AcDbEntity
  8
POPIS
100
AcDbText
 10
540.7665583824855
 20
263.2230568539243
 30
0.0
 40
25.0
  1
Izolační deska IZOPLAT
 41
0.7
  7
SIMPLEX7
100
AcDbText
  0
TEXT
  5
3A45
330
1F
100
AcDbEntity
  8
POPIS
100
AcDbText
 10
540.7665583824855
 20
192.5022453117462
 30
0.0
 40
25.0
  1
Stropní konstrukce
 41
0.7
  7
SIMPLEX7
100
AcDbText
  0
TEXT
  5
3A46
330
1F
100
AcDbEntity
  8
POPIS
100
AcDbText
 10
540.7665583824855
 20
229.3377853146385
 30
0.0
 40
25.0
  1
Parozábrana
 41
0.7
  7
SIMPLEX7
100
AcDbText
  0
TEXT
  5
3A47
330
1F
100
AcDbEntity
  8
POPIS
100
AcDbText
 10
-35.44095103147992
 20
634.3488253911264
 30
0.0
 40
50.0
  1
Návaznost podlahy s příčkou
 41
0.85
  7
SIMPLEX7
100
AcDbText
  0
TEXT
  5
3A48
330
1F
100
AcDbEntity
  8
POPIS
100
AcDbText
 10
486.4228552227432
 20
443.4859977559035
 30
0.0
 40
25.0
  1
03
 41
0.85
  7
SIMPLEX7
100
AcDbText
  0
TEXT
  5
3A49
330
1F
100
AcDbEntity
  8
POPIS
100
AcDbText
 10
486.4228552227432
 20
406.8909861402763
 30
0.0
 40
25.0
  1
04
 41
0.85
  7
SIMPLEX7
100
AcDbText
  0
TEXT
  5
3A4A
330
1F
100
AcDbEntity
  8
POPIS
100
AcDbText
 10
486.4228552227432
 20
369.0069011026889
 30
0.0
 40
25.0
  1
05
 41
0.85
  7
SIMPLEX7
100
AcDbText
  0
TEXT
  5
3A4B
330
1F
100
AcDbEntity
  8
POPIS
100
AcDbText
 10
486.4228552227432
 20
514.2000347854691
 30
0.0
 40
25.0
  1
01
 41
0.85
  7
SIMPLEX7
100
AcDbText
  0
TEXT
  5
3A4C
330
1F
100
AcDbEntity
  8
POPIS
100
AcDbText
 10
486.4228552227432
 20
477.6050231698418
 30
0.0
 40
25.0
  1
02
 41
0.85
  7
SIMPLEX7
100
AcDbText
  0
LINE
  5
3A4D
330
1F
100
AcDbEntity
  8
POPIS
100
AcDbLine
 10
231.3674495210725
 20
404.609692014998
 30
0.0
 11
161.6734329987593
 21
404.609692014998
 31
0.0
  0
TEXT
  5
3A4E
330
1F
100
AcDbEntity
  8
POPIS
100
AcDbText
 10
-35.44095103147992
 20
579.7240823653255
 30
0.0
 40
35.0
  1
SVISLÝ ŘEZ
 41
0.85
  7
SIMPLEX7
100
AcDbText
  0
LINE
  5
3A4F
330
1F
100
AcDbEntity
  8
SPOJOVACÍ
  6
Continuous
100
AcDbLine
 10
157.6230025089498
 20
363.8976158468144
 30
0.0
 11
158.8303706918486
 21
364.8556969167989
 31
0.0
  0
LINE
  5
3A50
330
1F
100
AcDbEntity
  8
SPOJOVACÍ
  6
Continuous
100
AcDbLine
 10
156.2091352992465
 20
363.2846299976668
 30
0.0
 11
157.6230025089498
 21
363.8976158468144
 31
0.0
  0
LINE
  5
3A51
330
1F
100
AcDbEntity
  8
SPOJOVACÍ
  6
Continuous
100
AcDbLine
 10
154.6855073458173
 20
363.0576671067833
 30
0.0
 11
156.2091352992465
 21
363.2846299976668
 31
0.0
  0
LINE
  5
3A52
330
1F
100
AcDbEntity
  8
SPOJOVACÍ
  6
Continuous
100
AcDbLine
 10
161.2851046169053
 20
366.8081359118664
 30
0.0
 11
160.0851778401738
 21
366.8081359118664
 31
0.0
  0
LINE
  5
3A53
330
1F
100
AcDbEntity
  8
SPOJOVACÍ
  6
Continuous
100
AcDbLine
 10
161.2851046169053
 20
356.6078281345985
 30
0.0
 11
161.2851046169053
 21
366.8081359118664
 31
0.0
  0
LINE
  5
3A54
330
1F
100
AcDbEntity
  8
SPOJOVACÍ
  6
Continuous
100
AcDbLine
 10
161.2851046169053
 20
356.6078281345985
 30
0.0
 11
160.0851778401738
 21
356.6078281345985
 31
0.0
  0
LINE
  5
3A55
330
1F
100
AcDbEntity
  8
SPOJOVACÍ
  6
Continuous
100
AcDbLine
 10
160.0851778401738
 20
356.6078281345985
 30
0.0
 11
160.0851778401738
 21
366.8081359118664
 31
0.0
  0
LINE
  5
3A56
330
1F
100
AcDbEntity
  8
SPOJOVACÍ
  6
Continuous
100
AcDbLine
 10
159.7484542022903
 20
366.0928307256986
 30
0.0
 11
160.0851778401738
 21
366.8081359118664
 31
0.0
  0
LINE
  5
3A57
330
1F
100
AcDbEntity
  8
SPOJOVACÍ
  6
Continuous
100
AcDbLine
 10
158.8303706918486
 20
364.8556969167989
 30
0.0
 11
159.7484542022903
 21
366.0928307256986
 31
0.0
  0
LINE
  5
3A58
330
1F
100
AcDbEntity
  8
SPOJOVACÍ
  6
Continuous
100
AcDbLine
 10
155.4724360689397
 20
360.2922544621256
 30
0.0
 11
154.6855073458173
 21
360.3582969440472
 31
0.0
  0
LINE
  5
3A59
330
1F
100
AcDbEntity
  8
SPOJOVACÍ
  6
Continuous
100
AcDbLine
 10
156.9532759359899
 20
359.8643735978262
 30
0.0
 11
155.4724360689397
 21
360.2922544621256
 31
0.0
  0
LINE
  5
3A5A
330
1F
100
AcDbEntity
  8
SPOJOVACÍ
  6
Continuous
100
AcDbLine
 10
158.2722652142874
 20
359.068143118508
 30
0.0
 11
156.9532759359899
 21
359.8643735978262
 31
0.0
  0
LINE
  5
3A5B
330
1F
100
AcDbEntity
  8
SPOJOVACÍ
  6
Continuous
100
AcDbLine
 10
159.3410372036996
 20
357.9575132181494
 30
0.0
 11
158.2722652142874
 21
359.068143118508
 31
0.0
  0
LINE
  5
3A5C
330
1F
100
AcDbEntity
  8
SPOJOVACÍ
  6
Continuous
100
AcDbLine
 10
160.0851778401738
 20
356.6078281345985
 30
0.0
 11
159.3410372036996
 21
357.9575132181494
 31
0.0
  0
LINE
  5
3A5D
330
1F
100
AcDbEntity
  8
SPOJOVACÍ
  6
Continuous
100
AcDbLine
 10
154.6855073458173
 20
363.0576671067833
 30
0.0
 11
149.7425531668886
 21
363.0576671067833
 31
0.0
  0
LINE
  5
3A5E
330
1F
100
AcDbEntity
  8
SPOJOVACÍ
  6
Continuous
100
AcDbLine
 10
154.6855073458173
 20
360.3582969440472
 30
0.0
 11
150.6476142161373
 21
360.3582969440472
 31
0.0
  0
LINE
  5
3A5F
330
1F
100
AcDbEntity
  8
SPOJOVACÍ
  6
Continuous
100
AcDbLine
 10
150.0523017069608
 20
360.3582969440472
 30
0.0
 11
147.5333856519319
 21
360.3582969440472
 31
0.0
  0
LINE
  5
3A60
330
1F
100
AcDbEntity
  8
SPOJOVACÍ
  6
Continuous
100
AcDbLine
 10
146.9297015606171
 20
360.3582969440472
 30
0.0
 11
144.408925153908
 21
360.3582969440472
 31
0.0
  0
LINE
  5
3A61
330
1F
100
AcDbEntity
  8
SPOJOVACÍ
  6
Continuous
100
AcDbLine
 10
143.8145428204334
 20
360.3582969440472
 30
0.0
 11
141.2863250075643
 21
360.3582969440472
 31
0.0
  0
LINE
  5
3A62
330
1F
100
AcDbEntity
  8
SPOJOVACÍ
  6
Continuous
100
AcDbLine
 10
149.1388690755738
 20
363.0576671067833
 30
0.0
 11
146.6199530205449
 21
363.0576671067833
 31
0.0
  0
LINE
  5
3A63
330
1F
100
AcDbEntity
  8
SPOJOVACÍ
  6
Continuous
100
AcDbLine
 10
146.0237103353902
 20
363.0576671067833
 30
0.0
 11
143.495492522521
 21
363.0576671067833
 31
0.0
  0
LINE
  5
3A64
330
1F
100
AcDbEntity
  8
SPOJOVACÍ
  6
Continuous
100
AcDbLine
 10
142.9011101890464
 20
363.0576671067833
 30
0.0
 11
140.3803337823374
 21
363.0576671067833
 31
0.0
  0
LINE
  5
3A65
330
1F
100
AcDbEntity
  8
SPOJOVACÍ
  6
Continuous
100
AcDbLine
 10
140.6817107402785
 20
360.3582969440472
 30
0.0
 11
138.1637248609513
 21
360.3582969440472
 31
0.0
  0
LINE
  5
3A66
330
1F
100
AcDbEntity
  8
SPOJOVACÍ
  6
Continuous
100
AcDbLine
 10
137.5674821757966
 20
360.3582969440472
 30
0.0
 11
136.3201164339079
 21
360.3582969440472
 31
0.0
  0
LINE
  5
3A67
330
1F
100
AcDbEntity
  8
SPOJOVACÍ
  6
Continuous
100
AcDbLine
 10
139.7794402184044
 20
363.0576671067833
 30
0.0
 11
137.2605241633755
 21
363.0576671067833
 31
0.0
  0
LINE
  5
3A68
330
1F
100
AcDbEntity
  8
SPOJOVACÍ
  6
Continuous
100
AcDbLine
 10
136.6568400717915
 20
363.0576671067833
 30
0.0
 11
136.3201164339079
 21
363.0576671067833
 31
0.0
  0
LINE
  5
3A69
330
1F
100
AcDbEntity
  8
SPOJOVACÍ
  6
Continuous
100
AcDbLine
 10
136.3201164339079
 20
360.3582969440472
 30
0.0
 11
135.1229801845511
 21
360.5080552467702
 31
0.0
  0
LINE
  5
3A6A
330
1F
100
AcDbEntity
  8
SPOJOVACÍ
  6
Continuous
100
AcDbLine
 10
125.5198452689546
 20
361.7079820232325
 30
0.0
 11
128.3559512702231
 21
362.0623790043614
 31
0.0
  0
LINE
  5
3A6B
330
1F
100
AcDbEntity
  8
SPOJOVACÍ
  6
Continuous
100
AcDbLine
 10
134.5025529286977
 20
360.5852598392962
 30
0.0
 11
132.1808341426331
 21
360.8754746888157
 31
0.0
  0
LINE
  5
3A6C
330
1F
100
AcDbEntity
  8
SPOJOVACÍ
  6
Continuous
100
AcDbLine
 10
131.5501749529685
 20
360.9545396316539
 30
0.0
 11
129.229386342613
 21
361.2447544768079
 31
0.0
  0
LINE
  5
3A6D
330
1F
100
AcDbEntity
  8
SPOJOVACÍ
  6
Continuous
100
AcDbLine
 10
128.6089590867595
 20
361.3219590693338
 30
0.0
 11
125.5198452689546
 21
361.7079820232325
 31
0.0
  0
LINE
  5
3A6E
330
1F
100
AcDbEntity
  8
SPOJOVACÍ
  6
Continuous
100
AcDbLine
 10
128.92521885729
 20
362.1340025415852
 30
0.0
 11
131.0702042422744
 21
362.4018931698961
 31
0.0
  0
LINE
  5
3A6F
330
1F
100
AcDbEntity
  8
SPOJOVACÍ
  6
Continuous
100
AcDbLine
 10
131.6422623567232
 20
362.4735167027543
 30
0.0
 11
133.7788761595766
 21
362.7404771580918
 31
0.0
  0
LINE
  5
3A70
330
1F
100
AcDbEntity
  8
SPOJOVACÍ
  6
Continuous
100
AcDbLine
 10
134.3490739226217
 20
362.8121006953156
 30
0.0
 11
136.3201164339079
 21
363.0576671067833
 31
0.0
  0
LINE
  5
3A71
330
1F
100
AcDbEntity
  8
SPOJOVACÍ
  6
Continuous
100
AcDbLine
 10
150.484833451952
 20
359.308128470308
 30
0.0
 11
149.2849066754897
 21
364.1078355761569
 31
0.0
  0
LINE
  5
3A72
330
1F
100
AcDbEntity
  8
SPOJOVACÍ
  6
Continuous
100
AcDbLine
 10
150.484833451952
 20
359.308128470308
 30
0.0
 11
150.2671723159037
 21
359.685779845619
 31
0.0
  0
LINE
  5
3A73
330
1F
100
AcDbEntity
  8
SPOJOVACÍ
  6
Continuous
100
AcDbLine
 10
150.484833451952
 20
359.308128470308
 30
0.0
 11
150.8634150007819
 21
359.685779845619
 31
0.0
  0
LINE
  5
3A74
330
1F
100
AcDbEntity
  8
SPOJOVACÍ
  6
Continuous
100
AcDbLine
 10
149.2849066754897
 20
364.1078355761569
 30
0.0
 11
148.9072553023615
 21
363.7301842052115
 31
0.0
  0
LINE
  5
3A75
330
1F
100
AcDbEntity
  8
SPOJOVACÍ
  6
Continuous
100
AcDbLine
 10
149.2849066754897
 20
364.1078355761569
 30
0.0
 11
149.5034979875163
 21
363.7301842052115
 31
0.0
  0
LINE
  5
3A76
330
1F
100
AcDbEntity
  8
SPOJOVACÍ
  6
Continuous
100
AcDbLine
 10
150.2671723159037
 20
359.685779845619
 30
0.0
 11
148.9072553023615
 21
363.7301842052115
 31
0.0
  0
LINE
  5
3A77
330
1F
100
AcDbEntity
  8
SPOJOVACÍ
  6
Continuous
100
AcDbLine
 10
150.8634150007819
 20
359.685779845619
 30
0.0
 11
149.5034979875163
 21
363.7301842052115
 31
0.0
  0
LINE
  5
3A78
330
1F
100
AcDbEntity
  8
SPOJOVACÍ
  6
Continuous
100
AcDbLine
 10
147.3650238329901
 20
359.308128470308
 30
0.0
 11
146.1650970562514
 21
364.1078355761569
 31
0.0
  0
LINE
  5
3A79
330
1F
100
AcDbEntity
  8
SPOJOVACÍ
  6
Continuous
100
AcDbLine
 10
147.3650238329901
 20
359.308128470308
 30
0.0
 11
147.1464325209635
 21
359.685779845619
 31
0.0
  0
LINE
  5
3A7A
330
1F
100
AcDbEntity
  8
SPOJOVACÍ
  6
Continuous
100
AcDbLine
 10
147.3650238329901
 20
359.308128470308
 30
0.0
 11
147.7426752061183
 21
359.685779845619
 31
0.0
  0
LINE
  5
3A7B
330
1F
100
AcDbEntity
  8
SPOJOVACÍ
  6
Continuous
100
AcDbLine
 10
146.1650970562514
 20
364.1078355761569
 30
0.0
 11
145.7874456833997
 21
363.7301842052115
 31
0.0
  0
LINE
  5
3A7C
330
1F
100
AcDbEntity
  8
SPOJOVACÍ
  6
Continuous
100
AcDbLine
 10
146.1650970562514
 20
364.1078355761569
 30
0.0
 11
146.3836883682779
 21
363.7301842052115
 31
0.0
  0
LINE
  5
3A7D
330
1F
100
AcDbEntity
  8
SPOJOVACÍ
  6
Continuous
100
AcDbLine
 10
147.1464325209635
 20
359.685779845619
 30
0.0
 11
145.7874456833997
 21
363.7301842052115
 31
0.0
  0
LINE
  5
3A7E
330
1F
100
AcDbEntity
  8
SPOJOVACÍ
  6
Continuous
100
AcDbLine
 10
147.7426752061183
 20
359.685779845619
 30
0.0
 11
146.3836883682779
 21
363.7301842052115
 31
0.0
  0
LINE
  5
3A7F
330
1F
100
AcDbEntity
  8
SPOJOVACÍ
  6
Continuous
100
AcDbLine
 10
134.9276432675287
 20
359.562066464729
 30
0.0
 11
134.7090519555022
 21
359.9406480130133
 31
0.0
  0
LINE
  5
3A80
330
1F
100
AcDbEntity
  8
SPOJOVACÍ
  6
Continuous
100
AcDbLine
 10
134.9276432675287
 20
359.562066464729
 30
0.0
 11
135.3052946406569
 21
359.9406480130133
 31
0.0
  0
LINE
  5
3A81
330
1F
100
AcDbEntity
  8
SPOJOVACÍ
  6
Continuous
100
AcDbLine
 10
133.9546793852241
 20
363.6873961174719
 30
0.0
 11
133.5760978361177
 21
363.3097447465265
 31
0.0
  0
LINE
  5
3A82
330
1F
100
AcDbEntity
  8
SPOJOVACÍ
  6
Continuous
100
AcDbLine
 10
133.9546793852241
 20
363.6873961174719
 30
0.0
 11
134.1723405212724
 21
363.3097447465265
 31
0.0
  0
LINE
  5
3A83
330
1F
100
AcDbEntity
  8
SPOJOVACÍ
  6
Continuous
100
AcDbLine
 10
134.7090519555022
 20
359.9406480130133
 30
0.0
 11
133.5760978361177
 21
363.3097447465265
 31
0.0
  0
LINE
  5
3A84
330
1F
100
AcDbEntity
  8
SPOJOVACÍ
  6
Continuous
100
AcDbLine
 10
135.3052946406569
 20
359.9406480130133
 30
0.0
 11
134.1723405212724
 21
363.3097447465265
 31
0.0
  0
LINE
  5
3A85
330
1F
100
AcDbEntity
  8
SPOJOVACÍ
  6
Continuous
100
AcDbLine
 10
134.9276432675287
 20
359.562066464729
 30
0.0
 11
133.9546793852241
 21
363.6873961174719
 31
0.0
  0
LINE
  5
3A86
330
1F
100
AcDbEntity
  8
SPOJOVACÍ
  6
Continuous
100
AcDbLine
 10
131.9129435132308
 20
360.1266831708349
 30
0.0
 11
131.6952823771825
 21
360.5043345461458
 31
0.0
  0
LINE
  5
3A87
330
1F
100
AcDbEntity
  8
SPOJOVACÍ
  6
Continuous
100
AcDbLine
 10
131.9129435132308
 20
360.1266831708349
 30
0.0
 11
132.2915250623373
 21
360.5043345461458
 31
0.0
  0
LINE
  5
3A88
330
1F
100
AcDbEntity
  8
SPOJOVACÍ
  6
Continuous
100
AcDbLine
 10
131.2794937964608
 20
363.242772087266
 30
0.0
 11
130.9009122476309
 21
362.8651207163207
 31
0.0
  0
LINE
  5
3A89
330
1F
100
AcDbEntity
  8
SPOJOVACÍ
  6
Continuous
100
AcDbLine
 10
131.2794937964608
 20
363.242772087266
 30
0.0
 11
131.4971549325091
 21
362.8651207163207
 31
0.0
  0
LINE
  5
3A8A
330
1F
100
AcDbEntity
  8
SPOJOVACÍ
  6
Continuous
100
AcDbLine
 10
131.6952823771825
 20
360.5043345461458
 30
0.0
 11
130.9009122476309
 21
362.8651207163207
 31
0.0
  0
LINE
  5
3A8B
330
1F
100
AcDbEntity
  8
SPOJOVACÍ
  6
Continuous
100
AcDbLine
 10
132.2915250623373
 20
360.5043345461458
 30
0.0
 11
131.4971549325091
 21
362.8651207163207
 31
0.0
  0
LINE
  5
3A8C
330
1F
100
AcDbEntity
  8
SPOJOVACÍ
  6
Continuous
100
AcDbLine
 10
131.9129435132308
 20
360.1266831708349
 30
0.0
 11
131.2794937964608
 21
363.242772087266
 31
0.0
  0
LINE
  5
3A8D
330
1F
100
AcDbEntity
  8
SPOJOVACÍ
  6
Continuous
100
AcDbLine
 10
128.8991739349112
 20
360.6912998813063
 30
0.0
 11
128.6805826228919
 21
361.0689512522517
 31
0.0
  0
LINE
  5
3A8E
330
1F
100
AcDbEntity
  8
SPOJOVACÍ
  6
Continuous
100
AcDbLine
 10
128.8991739349112
 20
360.6912998813063
 30
0.0
 11
129.2768253080394
 21
361.0689512522517
 31
0.0
  0
LINE
  5
3A8F
330
1F
100
AcDbEntity
  8
SPOJOVACÍ
  6
Continuous
100
AcDbLine
 10
128.5884952191372
 20
362.8455870227631
 30
0.0
 11
128.2099136703072
 21
362.4679356518177
 31
0.0
  0
LINE
  5
3A90
330
1F
100
AcDbEntity
  8
SPOJOVACÍ
  6
Continuous
100
AcDbLine
 10
128.5884952191372
 20
362.8455870227631
 30
0.0
 11
128.8061563554547
 21
362.4679356518177
 31
0.0
  0
LINE
  5
3A91
330
1F
100
AcDbEntity
  8
SPOJOVACÍ
  6
Continuous
100
AcDbLine
 10
128.6805826228919
 20
361.0689512522517
 30
0.0
 11
128.2099136703072
 21
362.4679356518177
 31
0.0
  0
LINE
  5
3A92
330
1F
100
AcDbEntity
  8
SPOJOVACÍ
  6
Continuous
100
AcDbLine
 10
129.2768253080394
 20
361.0689512522517
 30
0.0
 11
128.8061563554547
 21
362.4679356518177
 31
0.0
  0
LINE
  5
3A93
330
1F
100
AcDbEntity
  8
SPOJOVACÍ
  6
Continuous
100
AcDbLine
 10
128.8991739349112
 20
360.6912998813063
 30
0.0
 11
128.5884952191372
 21
362.8455870227631
 31
0.0
  0
LINE
  5
3A94
330
1F
100
AcDbEntity
  8
SPOJOVACÍ
  6
Continuous
100
AcDbLine
 10
144.2452142137517
 20
359.308128470308
 30
0.0
 11
143.0452874372895
 21
364.1078355761569
 31
0.0
  0
LINE
  5
3A95
330
1F
100
AcDbEntity
  8
SPOJOVACÍ
  6
Continuous
100
AcDbLine
 10
144.2452142137517
 20
359.308128470308
 30
0.0
 11
144.0266229017252
 21
359.685779845619
 31
0.0
  0
LINE
  5
3A96
330
1F
100
AcDbEntity
  8
SPOJOVACÍ
  6
Continuous
100
AcDbLine
 10
144.2452142137517
 20
359.308128470308
 30
0.0
 11
144.6228655868799
 21
359.685779845619
 31
0.0
  0
LINE
  5
3A97
330
1F
100
AcDbEntity
  8
SPOJOVACÍ
  6
Continuous
100
AcDbLine
 10
143.0452874372895
 20
364.1078355761569
 30
0.0
 11
142.6667058884595
 21
363.7301842052115
 31
0.0
  0
LINE
  5
3A98
330
1F
100
AcDbEntity
  8
SPOJOVACÍ
  6
Continuous
100
AcDbLine
 10
143.0452874372895
 20
364.1078355761569
 30
0.0
 11
143.2629485736069
 21
363.7301842052115
 31
0.0
  0
LINE
  5
3A99
330
1F
100
AcDbEntity
  8
SPOJOVACÍ
  6
Continuous
100
AcDbLine
 10
144.0266229017252
 20
359.685779845619
 30
0.0
 11
142.6667058884595
 21
363.7301842052115
 31
0.0
  0
LINE
  5
3A9A
330
1F
100
AcDbEntity
  8
SPOJOVACÍ
  6
Continuous
100
AcDbLine
 10
144.6228655868799
 20
359.685779845619
 30
0.0
 11
143.2629485736069
 21
363.7301842052115
 31
0.0
  0
LINE
  5
3A9B
330
1F
100
AcDbEntity
  8
SPOJOVACÍ
  6
Continuous
100
AcDbLine
 10
141.1254045947825
 20
359.308128470308
 30
0.0
 11
139.9254778183203
 21
364.1078355761569
 31
0.0
  0
LINE
  5
3A9C
330
1F
100
AcDbEntity
  8
SPOJOVACÍ
  6
Continuous
100
AcDbLine
 10
141.1254045947825
 20
359.308128470308
 30
0.0
 11
140.9068132827633
 21
359.685779845619
 31
0.0
  0
LINE
  5
3A9D
330
1F
100
AcDbEntity
  8
SPOJOVACÍ
  6
Continuous
100
AcDbLine
 10
141.1254045947825
 20
359.308128470308
 30
0.0
 11
141.5030559679107
 21
359.685779845619
 31
0.0
  0
LINE
  5
3A9E
330
1F
100
AcDbEntity
  8
SPOJOVACÍ
  6
Continuous
100
AcDbLine
 10
139.9254778183203
 20
364.1078355761569
 30
0.0
 11
139.5468962694903
 21
363.7301842052115
 31
0.0
  0
LINE
  5
3A9F
330
1F
100
AcDbEntity
  8
SPOJOVACÍ
  6
Continuous
100
AcDbLine
 10
139.9254778183203
 20
364.1078355761569
 30
0.0
 11
140.1431389543686
 21
363.7301842052115
 31
0.0
  0
LINE
  5
3AA0
330
1F
100
AcDbEntity
  8
SPOJOVACÍ
  6
Continuous
100
AcDbLine
 10
140.9068132827633
 20
359.685779845619
 30
0.0
 11
139.5468962694903
 21
363.7301842052115
 31
0.0
  0
LINE
  5
3AA1
330
1F
100
AcDbEntity
  8
SPOJOVACÍ
  6
Continuous
100
AcDbLine
 10
141.5030559679107
 20
359.685779845619
 30
0.0
 11
140.1431389543686
 21
363.7301842052115
 31
0.0
  0
LINE
  5
3AA2
330
1F
100
AcDbEntity
  8
SPOJOVACÍ
  6
Continuous
100
AcDbLine
 10
138.0046647998424
 20
359.308128470308
 30
0.0
 11
136.8047380233802
 21
364.1078355761569
 31
0.0
  0
LINE
  5
3AA3
330
1F
100
AcDbEntity
  8
SPOJOVACÍ
  6
Continuous
100
AcDbLine
 10
138.0046647998424
 20
359.308128470308
 30
0.0
 11
137.7870036637941
 21
359.685779845619
 31
0.0
  0
LINE
  5
3AA4
330
1F
100
AcDbEntity
  8
SPOJOVACÍ
  6
Continuous
100
AcDbLine
 10
138.0046647998424
 20
359.308128470308
 30
0.0
 11
138.3832463489488
 21
359.685779845619
 31
0.0
  0
LINE
  5
3AA5
330
1F
100
AcDbEntity
  8
SPOJOVACÍ
  6
Continuous
100
AcDbLine
 10
136.8047380233802
 20
364.1078355761569
 30
0.0
 11
136.427086650252
 21
363.7301842052115
 31
0.0
  0
LINE
  5
3AA6
330
1F
100
AcDbEntity
  8
SPOJOVACÍ
  6
Continuous
100
AcDbLine
 10
136.8047380233802
 20
364.1078355761569
 30
0.0
 11
137.0233293354067
 21
363.7301842052115
 31
0.0
  0
LINE
  5
3AA7
330
1F
100
AcDbEntity
  8
SPOJOVACÍ
  6
Continuous
100
AcDbLine
 10
137.7870036637941
 20
359.685779845619
 30
0.0
 11
136.427086650252
 21
363.7301842052115
 31
0.0
  0
LINE
  5
3AA8
330
1F
100
AcDbEntity
  8
SPOJOVACÍ
  6
Continuous
100
AcDbLine
 10
138.3832463489488
 20
359.685779845619
 30
0.0
 11
137.0233293354067
 21
363.7301842052115
 31
0.0
  0
LINE
  5
3AA9
330
1F
100
AcDbEntity
  8
SPOJOVACÍ
  6
Continuous
100
AcDbLine
 10
108.9547086001111
 20
359.685779845619
 30
0.0
 11
110.3146256136533
 21
363.7301842052115
 31
0.0
  0
LINE
  5
3AAA
330
1F
100
AcDbEntity
  8
SPOJOVACÍ
  6
Continuous
100
AcDbLine
 10
109.5509512852659
 20
359.685779845619
 30
0.0
 11
110.910868298808
 21
363.7301842052115
 31
0.0
  0
LINE
  5
3AAB
330
1F
100
AcDbEntity
  8
SPOJOVACÍ
  6
Continuous
100
AcDbLine
 10
110.5332169256798
 20
364.1078355761569
 30
0.0
 11
110.3146256136533
 21
363.7301842052115
 31
0.0
  0
LINE
  5
3AAC
330
1F
100
AcDbEntity
  8
SPOJOVACÍ
  6
Continuous
100
AcDbLine
 10
110.5332169256798
 20
364.1078355761569
 30
0.0
 11
110.910868298808
 21
363.7301842052115
 31
0.0
  0
LINE
  5
3AAD
330
1F
100
AcDbEntity
  8
SPOJOVACÍ
  6
Continuous
100
AcDbLine
 10
109.3332901492176
 20
359.308128470308
 30
0.0
 11
108.9547086001111
 21
359.685779845619
 31
0.0
  0
LINE
  5
3AAE
330
1F
100
AcDbEntity
  8
SPOJOVACÍ
  6
Continuous
100
AcDbLine
 10
109.3332901492176
 20
359.308128470308
 30
0.0
 11
109.5509512852659
 21
359.685779845619
 31
0.0
  0
LINE
  5
3AAF
330
1F
100
AcDbEntity
  8
SPOJOVACÍ
  6
Continuous
100
AcDbLine
 10
109.3332901492176
 20
359.308128470308
 30
0.0
 11
110.5332169256798
 21
364.1078355761569
 31
0.0
  0
LINE
  5
3AB0
330
1F
100
AcDbEntity
  8
SPOJOVACÍ
  6
Continuous
100
AcDbLine
 10
105.8348989811493
 20
359.685779845619
 30
0.0
 11
107.1948159946914
 21
363.7301842052115
 31
0.0
  0
LINE
  5
3AB1
330
1F
100
AcDbEntity
  8
SPOJOVACÍ
  6
Continuous
100
AcDbLine
 10
106.4311416662967
 20
359.685779845619
 30
0.0
 11
107.7910586795696
 21
363.7301842052115
 31
0.0
  0
LINE
  5
3AB2
330
1F
100
AcDbEntity
  8
SPOJOVACÍ
  6
Continuous
100
AcDbLine
 10
107.4124771307397
 20
364.1078355761569
 30
0.0
 11
107.1948159946914
 21
363.7301842052115
 31
0.0
  0
LINE
  5
3AB3
330
1F
100
AcDbEntity
  8
SPOJOVACÍ
  6
Continuous
100
AcDbLine
 10
107.4124771307397
 20
364.1078355761569
 30
0.0
 11
107.7910586795696
 21
363.7301842052115
 31
0.0
  0
LINE
  5
3AB4
330
1F
100
AcDbEntity
  8
SPOJOVACÍ
  6
Continuous
100
AcDbLine
 10
106.2125503542774
 20
359.308128470308
 30
0.0
 11
105.8348989811493
 21
359.685779845619
 31
0.0
  0
LINE
  5
3AB5
330
1F
100
AcDbEntity
  8
SPOJOVACÍ
  6
Continuous
100
AcDbLine
 10
106.2125503542774
 20
359.308128470308
 30
0.0
 11
106.4311416662967
 21
359.685779845619
 31
0.0
  0
LINE
  5
3AB6
330
1F
100
AcDbEntity
  8
SPOJOVACÍ
  6
Continuous
100
AcDbLine
 10
106.2125503542774
 20
359.308128470308
 30
0.0
 11
107.4124771307397
 21
364.1078355761569
 31
0.0
  0
LINE
  5
3AB7
330
1F
100
AcDbEntity
  8
SPOJOVACÍ
  6
Continuous
100
AcDbLine
 10
102.7150893621801
 20
359.685779845619
 30
0.0
 11
104.075006375453
 21
363.7301842052115
 31
0.0
  0
LINE
  5
3AB8
330
1F
100
AcDbEntity
  8
SPOJOVACÍ
  6
Continuous
100
AcDbLine
 10
103.3113320473348
 20
359.685779845619
 30
0.0
 11
104.6712490606005
 21
363.7301842052115
 31
0.0
  0
LINE
  5
3AB9
330
1F
100
AcDbEntity
  8
SPOJOVACÍ
  6
Continuous
100
AcDbLine
 10
104.2926675117705
 20
364.1078355761569
 30
0.0
 11
104.075006375453
 21
363.7301842052115
 31
0.0
  0
LINE
  5
3ABA
330
1F
100
AcDbEntity
  8
SPOJOVACÍ
  6
Continuous
100
AcDbLine
 10
104.2926675117705
 20
364.1078355761569
 30
0.0
 11
104.6712490606005
 21
363.7301842052115
 31
0.0
  0
LINE
  5
3ABB
330
1F
100
AcDbEntity
  8
SPOJOVACÍ
  6
Continuous
100
AcDbLine
 10
103.0927407353083
 20
359.308128470308
 30
0.0
 11
102.7150893621801
 21
359.685779845619
 31
0.0
  0
LINE
  5
3ABC
330
1F
100
AcDbEntity
  8
SPOJOVACÍ
  6
Continuous
100
AcDbLine
 10
103.0927407353083
 20
359.308128470308
 30
0.0
 11
103.3113320473348
 21
359.685779845619
 31
0.0
  0
LINE
  5
3ABD
330
1F
100
AcDbEntity
  8
SPOJOVACÍ
  6
Continuous
100
AcDbLine
 10
103.0927407353083
 20
359.308128470308
 30
0.0
 11
104.2926675117705
 21
364.1078355761569
 31
0.0
  0
LINE
  5
3ABE
330
1F
100
AcDbEntity
  8
SPOJOVACÍ
  6
Continuous
100
AcDbLine
 10
118.4387810141488
 20
360.6912998813063
 30
0.0
 11
118.7494597299228
 21
362.8455870227631
 31
0.0
  0
LINE
  5
3ABF
330
1F
100
AcDbEntity
  8
SPOJOVACÍ
  6
Continuous
100
AcDbLine
 10
118.0611296410206
 20
361.0689512522517
 30
0.0
 11
118.5317985936053
 21
362.4679356518177
 31
0.0
  0
LINE
  5
3AC0
330
1F
100
AcDbEntity
  8
SPOJOVACÍ
  6
Continuous
100
AcDbLine
 10
118.6573723261681
 20
361.0689512522517
 30
0.0
 11
119.1280412787527
 21
362.4679356518177
 31
0.0
  0
LINE
  5
3AC1
330
1F
100
AcDbEntity
  8
SPOJOVACÍ
  6
Continuous
100
AcDbLine
 10
118.7494597299228
 20
362.8455870227631
 30
0.0
 11
118.5317985936053
 21
362.4679356518177
 31
0.0
  0
LINE
  5
3AC2
330
1F
100
AcDbEntity
  8
SPOJOVACÍ
  6
Continuous
100
AcDbLine
 10
118.7494597299228
 20
362.8455870227631
 30
0.0
 11
119.1280412787527
 21
362.4679356518177
 31
0.0
  0
LINE
  5
3AC3
330
1F
100
AcDbEntity
  8
SPOJOVACÍ
  6
Continuous
100
AcDbLine
 10
118.4387810141488
 20
360.6912998813063
 30
0.0
 11
118.0611296410206
 21
361.0689512522517
 31
0.0
  0
LINE
  5
3AC4
330
1F
100
AcDbEntity
  8
SPOJOVACÍ
  6
Continuous
100
AcDbLine
 10
118.4387810141488
 20
360.6912998813063
 30
0.0
 11
118.6573723261681
 21
361.0689512522517
 31
0.0
  0
LINE
  5
3AC5
330
1F
100
AcDbEntity
  8
SPOJOVACÍ
  6
Continuous
100
AcDbLine
 10
115.4250114358292
 20
360.1266831708349
 30
0.0
 11
116.0584611525991
 21
363.242772087266
 31
0.0
  0
LINE
  5
3AC6
330
1F
100
AcDbEntity
  8
SPOJOVACÍ
  6
Continuous
100
AcDbLine
 10
115.0464298867227
 20
360.5043345461458
 30
0.0
 11
115.8408000165509
 21
362.8651207163207
 31
0.0
  0
LINE
  5
3AC7
330
1F
100
AcDbEntity
  8
SPOJOVACÍ
  6
Continuous
100
AcDbLine
 10
115.6426725718774
 20
360.5043345461458
 30
0.0
 11
116.4370427014291
 21
362.8651207163207
 31
0.0
  0
LINE
  5
3AC8
330
1F
100
AcDbEntity
  8
SPOJOVACÍ
  6
Continuous
100
AcDbLine
 10
116.0584611525991
 20
363.242772087266
 30
0.0
 11
115.8408000165509
 21
362.8651207163207
 31
0.0
  0
LINE
  5
3AC9
330
1F
100
AcDbEntity
  8
SPOJOVACÍ
  6
Continuous
100
AcDbLine
 10
116.0584611525991
 20
363.242772087266
 30
0.0
 11
116.4370427014291
 21
362.8651207163207
 31
0.0
  0
LINE
  5
3ACA
330
1F
100
AcDbEntity
  8
SPOJOVACÍ
  6
Continuous
100
AcDbLine
 10
115.4250114358292
 20
360.1266831708349
 30
0.0
 11
115.0464298867227
 21
360.5043345461458
 31
0.0
  0
LINE
  5
3ACB
330
1F
100
AcDbEntity
  8
SPOJOVACÍ
  6
Continuous
100
AcDbLine
 10
115.4250114358292
 20
360.1266831708349
 30
0.0
 11
115.6426725718774
 21
360.5043345461458
 31
0.0
  0
LINE
  5
3ACC
330
1F
100
AcDbEntity
  8
SPOJOVACÍ
  6
Continuous
100
AcDbLine
 10
112.4103116815313
 20
359.562066464729
 30
0.0
 11
113.3832755638359
 21
363.6873961174719
 31
0.0
  0
LINE
  5
3ACD
330
1F
100
AcDbEntity
  8
SPOJOVACÍ
  6
Continuous
100
AcDbLine
 10
112.0326603084031
 20
359.9406480130133
 30
0.0
 11
113.1656144277876
 21
363.3097447465265
 31
0.0
  0
LINE
  5
3ACE
330
1F
100
AcDbEntity
  8
SPOJOVACÍ
  6
Continuous
100
AcDbLine
 10
112.6289029935578
 20
359.9406480130133
 30
0.0
 11
113.7618571129423
 21
363.3097447465265
 31
0.0
  0
LINE
  5
3ACF
330
1F
100
AcDbEntity
  8
SPOJOVACÍ
  6
Continuous
100
AcDbLine
 10
113.3832755638359
 20
363.6873961174719
 30
0.0
 11
113.1656144277876
 21
363.3097447465265
 31
0.0
  0
LINE
  5
3AD0
330
1F
100
AcDbEntity
  8
SPOJOVACÍ
  6
Continuous
100
AcDbLine
 10
113.3832755638359
 20
363.6873961174719
 30
0.0
 11
113.7618571129423
 21
363.3097447465265
 31
0.0
  0
LINE
  5
3AD1
330
1F
100
AcDbEntity
  8
SPOJOVACÍ
  6
Continuous
100
AcDbLine
 10
112.4103116815313
 20
359.562066464729
 30
0.0
 11
112.0326603084031
 21
359.9406480130133
 31
0.0
  0
LINE
  5
3AD2
330
1F
100
AcDbEntity
  8
SPOJOVACÍ
  6
Continuous
100
AcDbLine
 10
112.4103116815313
 20
359.562066464729
 30
0.0
 11
112.6289029935578
 21
359.9406480130133
 31
0.0
  0
LINE
  5
3AD3
330
1F
100
AcDbEntity
  8
SPOJOVACÍ
  6
Continuous
100
AcDbLine
 10
99.59527974294179
 20
359.685779845619
 30
0.0
 11
100.9542665807821
 21
363.7301842052115
 31
0.0
  0
LINE
  5
3AD4
330
1F
100
AcDbEntity
  8
SPOJOVACÍ
  6
Continuous
100
AcDbLine
 10
100.1915224280965
 20
359.685779845619
 30
0.0
 11
101.5505092656603
 21
363.7301842052115
 31
0.0
  0
LINE
  5
3AD5
330
1F
100
AcDbEntity
  8
SPOJOVACÍ
  6
Continuous
100
AcDbLine
 10
101.1728578928086
 20
364.1078355761569
 30
0.0
 11
100.9542665807821
 21
363.7301842052115
 31
0.0
  0
LINE
  5
3AD6
330
1F
100
AcDbEntity
  8
SPOJOVACÍ
  6
Continuous
100
AcDbLine
 10
101.1728578928086
 20
364.1078355761569
 30
0.0
 11
101.5505092656603
 21
363.7301842052115
 31
0.0
  0
LINE
  5
3AD7
330
1F
100
AcDbEntity
  8
SPOJOVACÍ
  6
Continuous
100
AcDbLine
 10
99.97293111606996
 20
359.308128470308
 30
0.0
 11
99.59527974294179
 21
359.685779845619
 31
0.0
  0
LINE
  5
3AD8
330
1F
100
AcDbEntity
  8
SPOJOVACÍ
  6
Continuous
100
AcDbLine
 10
99.97293111606996
 20
359.308128470308
 30
0.0
 11
100.1915224280965
 21
359.685779845619
 31
0.0
  0
LINE
  5
3AD9
330
1F
100
AcDbEntity
  8
SPOJOVACÍ
  6
Continuous
100
AcDbLine
 10
99.97293111606996
 20
359.308128470308
 30
0.0
 11
101.1728578928086
 21
364.1078355761569
 31
0.0
  0
LINE
  5
3ADA
330
1F
100
AcDbEntity
  8
SPOJOVACÍ
  6
Continuous
100
AcDbLine
 10
96.47453994827811
 20
359.685779845619
 30
0.0
 11
97.83445696154377
 21
363.7301842052115
 31
0.0
  0
LINE
  5
3ADB
330
1F
100
AcDbEntity
  8
SPOJOVACÍ
  6
Continuous
100
AcDbLine
 10
97.07078263315635
 20
359.685779845619
 30
0.0
 11
98.43069964669849
 21
363.7301842052115
 31
0.0
  0
LINE
  5
3ADC
330
1F
100
AcDbEntity
  8
SPOJOVACÍ
  6
Continuous
100
AcDbLine
 10
98.05304827357032
 20
364.1078355761569
 30
0.0
 11
97.83445696154377
 21
363.7301842052115
 31
0.0
  0
LINE
  5
3ADD
330
1F
100
AcDbEntity
  8
SPOJOVACÍ
  6
Continuous
100
AcDbLine
 10
98.05304827357032
 20
364.1078355761569
 30
0.0
 11
98.43069964669849
 21
363.7301842052115
 31
0.0
  0
LINE
  5
3ADE
330
1F
100
AcDbEntity
  8
SPOJOVACÍ
  6
Continuous
100
AcDbLine
 10
96.85312149710808
 20
359.308128470308
 30
0.0
 11
96.47453994827811
 21
359.685779845619
 31
0.0
  0
LINE
  5
3ADF
330
1F
100
AcDbEntity
  8
SPOJOVACÍ
  6
Continuous
100
AcDbLine
 10
96.85312149710808
 20
359.308128470308
 30
0.0
 11
97.07078263315635
 21
359.685779845619
 31
0.0
  0
LINE
  5
3AE0
330
1F
100
AcDbEntity
  8
SPOJOVACÍ
  6
Continuous
100
AcDbLine
 10
96.85312149710808
 20
359.308128470308
 30
0.0
 11
98.05304827357032
 21
364.1078355761569
 31
0.0
  0
LINE
  5
3AE1
330
1F
100
AcDbEntity
  8
SPOJOVACÍ
  6
Continuous
100
AcDbLine
 10
112.9888810264383
 20
362.8121006953156
 30
0.0
 11
111.0178385151521
 21
363.0576671067833
 31
0.0
  0
LINE
  5
3AE2
330
1F
100
AcDbEntity
  8
SPOJOVACÍ
  6
Continuous
100
AcDbLine
 10
115.6956925923368
 20
362.4735167027543
 30
0.0
 11
113.5590787894834
 21
362.7404771580918
 31
0.0
  0
LINE
  5
3AE3
330
1F
100
AcDbEntity
  8
SPOJOVACÍ
  6
Continuous
100
AcDbLine
 10
118.41273609177
 20
362.1340025415852
 30
0.0
 11
116.2677507067855
 21
362.4018931698961
 31
0.0
  0
LINE
  5
3AE4
330
1F
100
AcDbEntity
  8
SPOJOVACÍ
  6
Continuous
100
AcDbLine
 10
118.7289958623005
 20
361.3219590693338
 30
0.0
 11
121.8181096801054
 21
361.7079820232325
 31
0.0
  0
LINE
  5
3AE5
330
1F
100
AcDbEntity
  8
SPOJOVACÍ
  6
Continuous
100
AcDbLine
 10
115.7877799960915
 20
360.9545396316539
 30
0.0
 11
118.108568606447
 21
361.2447544768079
 31
0.0
  0
LINE
  5
3AE6
330
1F
100
AcDbEntity
  8
SPOJOVACÍ
  6
Continuous
100
AcDbLine
 10
112.8354020203623
 20
360.5852598392962
 30
0.0
 11
115.1571208064269
 21
360.8754746888157
 31
0.0
  0
LINE
  5
3AE7
330
1F
100
AcDbEntity
  8
SPOJOVACÍ
  6
Continuous
100
AcDbLine
 10
121.8181096801054
 20
361.7079820232325
 30
0.0
 11
118.9820036788369
 21
362.0623790043614
 31
0.0
  0
LINE
  5
3AE8
330
1F
100
AcDbEntity
  8
SPOJOVACÍ
  6
Continuous
100
AcDbLine
 10
111.0178385151521
 20
360.3582969440472
 30
0.0
 11
112.2149747645089
 21
360.5080552467702
 31
0.0
  0
LINE
  5
3AE9
330
1F
100
AcDbEntity
  8
SPOJOVACÍ
  6
Continuous
100
AcDbLine
 10
110.6811148772685
 20
363.0576671067833
 30
0.0
 11
111.0178385151521
 21
363.0576671067833
 31
0.0
  0
LINE
  5
3AEA
330
1F
100
AcDbEntity
  8
SPOJOVACÍ
  6
Continuous
100
AcDbLine
 10
107.5585147306555
 20
363.0576671067833
 30
0.0
 11
110.0774307856845
 21
363.0576671067833
 31
0.0
  0
LINE
  5
3AEB
330
1F
100
AcDbEntity
  8
SPOJOVACÍ
  6
Continuous
100
AcDbLine
 10
109.7704727732634
 20
360.3582969440472
 30
0.0
 11
111.0178385151521
 21
360.3582969440472
 31
0.0
  0
LINE
  5
3AEC
330
1F
100
AcDbEntity
  8
SPOJOVACÍ
  6
Continuous
100
AcDbLine
 10
106.6562442087815
 20
360.3582969440472
 30
0.0
 11
109.1742300881087
 21
360.3582969440472
 31
0.0
  0
LINE
  5
3AED
330
1F
100
AcDbEntity
  8
SPOJOVACÍ
  6
Continuous
100
AcDbLine
 10
104.4368447600136
 20
363.0576671067833
 30
0.0
 11
106.9576211667226
 21
363.0576671067833
 31
0.0
  0
LINE
  5
3AEE
330
1F
100
AcDbEntity
  8
SPOJOVACÍ
  6
Continuous
100
AcDbLine
 10
101.3142446136698
 20
363.0576671067833
 30
0.0
 11
103.8424624265389
 21
363.0576671067833
 31
0.0
  0
LINE
  5
3AEF
330
1F
100
AcDbEntity
  8
SPOJOVACÍ
  6
Continuous
100
AcDbLine
 10
98.19908587348619
 20
363.0576671067833
 30
0.0
 11
100.7180019285151
 21
363.0576671067833
 31
0.0
  0
LINE
  5
3AF0
330
1F
100
AcDbEntity
  8
SPOJOVACÍ
  6
Continuous
100
AcDbLine
 10
103.5234121286266
 20
360.3582969440472
 30
0.0
 11
106.0516299414957
 21
360.3582969440472
 31
0.0
  0
LINE
  5
3AF1
330
1F
100
AcDbEntity
  8
SPOJOVACÍ
  6
Continuous
100
AcDbLine
 10
100.4082533884429
 20
360.3582969440472
 30
0.0
 11
102.929029795152
 21
360.3582969440472
 31
0.0
  0
LINE
  5
3AF2
330
1F
100
AcDbEntity
  8
SPOJOVACÍ
  6
Continuous
100
AcDbLine
 10
97.28565324209922
 20
360.3582969440472
 30
0.0
 11
99.80456929712818
 21
360.3582969440472
 31
0.0
  0
LINE
  5
3AF3
330
1F
100
AcDbEntity
  8
SPOJOVACÍ
  6
Continuous
100
AcDbLine
 10
92.65244760324277
 20
360.3582969440472
 30
0.0
 11
96.69034073292278
 21
360.3582969440472
 31
0.0
  0
LINE
  5
3AF4
330
1F
100
AcDbEntity
  8
SPOJOVACÍ
  6
Continuous
100
AcDbLine
 10
92.65244760324277
 20
363.0576671067833
 30
0.0
 11
97.5954017821714
 21
363.0576671067833
 31
0.0
  0
LINE
  5
3AF5
330
1F
100
AcDbEntity
  8
SPOJOVACÍ
  6
Continuous
100
AcDbLine
 10
87.25277710888622
 20
356.6078281345985
 30
0.0
 11
87.99691774536041
 21
357.9575132181494
 31
0.0
  0
LINE
  5
3AF6
330
1F
100
AcDbEntity
  8
SPOJOVACÍ
  6
Continuous
100
AcDbLine
 10
87.99691774536041
 20
357.9575132181494
 30
0.0
 11
89.06568973477261
 21
359.068143118508
 31
0.0
  0
LINE
  5
3AF7
330
1F
100
AcDbEntity
  8
SPOJOVACÍ
  6
Continuous
100
AcDbLine
 10
89.06568973477261
 20
359.068143118508
 30
0.0
 11
90.38467901307013
 21
359.8643735978262
 31
0.0
  0
LINE
  5
3AF8
330
1F
100
AcDbEntity
  8
SPOJOVACÍ
  6
Continuous
100
AcDbLine
 10
90.38467901307013
 20
359.8643735978262
 30
0.0
 11
91.86551888012036
 21
360.2922544621256
 31
0.0
  0
LINE
  5
3AF9
330
1F
100
AcDbEntity
  8
SPOJOVACÍ
  6
Continuous
100
AcDbLine
 10
91.86551888012036
 20
360.2922544621256
 30
0.0
 11
92.65244760324277
 21
360.3582969440472
 31
0.0
  0
LINE
  5
3AFA
330
1F
100
AcDbEntity
  8
SPOJOVACÍ
  6
Continuous
100
AcDbLine
 10
88.50758425721142
 20
364.8556969167989
 30
0.0
 11
87.58950074676977
 21
366.0928307256986
 31
0.0
  0
LINE
  5
3AFB
330
1F
100
AcDbEntity
  8
SPOJOVACÍ
  6
Continuous
100
AcDbLine
 10
87.58950074676977
 20
366.0928307256986
 30
0.0
 11
87.25277710888622
 21
366.8081359118664
 31
0.0
  0
LINE
  5
3AFC
330
1F
100
AcDbEntity
  8
SPOJOVACÍ
  6
Continuous
100
AcDbLine
 10
87.25277710888622
 20
356.6078281345985
 30
0.0
 11
87.25277710888622
 21
366.8081359118664
 31
0.0
  0
LINE
  5
3AFD
330
1F
100
AcDbEntity
  8
SPOJOVACÍ
  6
Continuous
100
AcDbLine
 10
86.05285033215478
 20
356.6078281345985
 30
0.0
 11
87.25277710888622
 21
356.6078281345985
 31
0.0
  0
LINE
  5
3AFE
330
1F
100
AcDbEntity
  8
SPOJOVACÍ
  6
Continuous
100
AcDbLine
 10
86.05285033215478
 20
356.6078281345985
 30
0.0
 11
86.05285033215478
 21
366.8081359118664
 31
0.0
  0
LINE
  5
3AFF
330
1F
100
AcDbEntity
  8
SPOJOVACÍ
  6
Continuous
100
AcDbLine
 10
86.05285033215478
 20
366.8081359118664
 30
0.0
 11
87.25277710888622
 21
366.8081359118664
 31
0.0
  0
LINE
  5
3B00
330
1F
100
AcDbEntity
  8
SPOJOVACÍ
  6
Continuous
100
AcDbLine
 10
92.65244760324277
 20
363.0576671067833
 30
0.0
 11
91.12881964981353
 21
363.2846299976668
 31
0.0
  0
LINE
  5
3B01
330
1F
100
AcDbEntity
  8
SPOJOVACÍ
  6
Continuous
100
AcDbLine
 10
91.12881964981353
 20
363.2846299976668
 30
0.0
 11
89.71495244011022
 21
363.8976158468144
 31
0.0
  0
LINE
  5
3B02
330
1F
100
AcDbEntity
  8
SPOJOVACÍ
  6
Continuous
100
AcDbLine
 10
89.71495244011022
 20
363.8976158468144
 30
0.0
 11
88.50758425721142
 21
364.8556969167989
 31
0.0
  0
TEXT
  5
3B03
330
1F
100
AcDbEntity
  8
POPIS
100
AcDbText
 10
236.5236607323641
 20
393.9164624809259
 30
0.0
 40
25.0
  1
01
 41
0.85
  7
SIMPLEX7
100
AcDbText
  0
TEXT
  5
3B04
330
1F
100
AcDbEntity
  8
POPIS
100
AcDbText
 10
540.7665583824855
 20
369.1724179324364
 30
0.0
 40
25.0
  1
Deska CETRIS    tl. 12 mm horní, předvrtaná
 41
0.7
  7
SIMPLEX7
100
AcDbText
  0
TEXT
  5
3B05
330
1F
100
AcDbEntity
  8
POPIS
100
AcDbText
 10
540.7665583824855
 20
479.2639316693339
 30
0.0
 40
25.0
  1
Těsnící podložka
 41
0.7
  7
SIMPLEX7
100
AcDbText
  0
TEXT
  5
3B06
330
1F
100
AcDbEntity
  8
POPIS
100
AcDbText
 10
540.7665583824855
 20
442.6689200537066
 30
0.0
 40
25.0
  1
Hmoždinka
 41
0.7
  7
SIMPLEX7
100
AcDbText
  0
TEXT
  5
3B07
330
1F
100
AcDbEntity
  8
POPIS
100
AcDbText
 10
540.7665583824855
 20
407.3119015389229
 30
0.0
 40
25.0
  1
Nášlapná vrstva
 41
0.7
  7
SIMPLEX7
100
AcDbText
  0
CIRCLE
  5
3B08
330
1F
100
AcDbEntity
  8
POPIS
100
AcDbCircle
 10
714.0750784577467
 20
357.7780338792117
 30
0.0
 40
7.795592338044182
  0
TEXT
  5
3B09
330
1F
100
AcDbEntity
  8
POPIS
100
AcDbText
 10
710.7437581191188
 20
353.8962918577208
 30
0.0
 40
8.399999999999998
  1
R
 41
0.85
  7
SIMPLEX7
100
AcDbText
  0
CIRCLE
  5
3B0A
330
1F
100
AcDbEntity
  8
POPIS
100
AcDbCircle
 10
714.4604941661527
 20
398.8467864169115
 30
0.0
 40
7.795592338044182
  0
TEXT
  5
3B0B
330
1F
100
AcDbEntity
  8
POPIS
100
AcDbText
 10
711.1291738275249
 20
394.9650443954197
 30
0.0
 40
8.399999999999998
  1
R
 41
0.85
  7
SIMPLEX7
100
AcDbText
  0
TEXT
  5
3B0C
330
1F
100
AcDbEntity
  8
POPIS
100
AcDbText
 10
540.7665583824855
 20
513.2301470178254
 30
0.0
 40
25.0
  1
Příčka 
 41
0.7
  7
SIMPLEX7
100
AcDbText
  0
ENDSEC
  0
SECTION
  2
OBJECTS
  0
DICTIONARY
  5
C
330
0
100
AcDbDictionary
281
     1
  3
ACAD_GROUP
350
D
  3
ACAD_LAYOUT
350
1A
  3
ACAD_MLINESTYLE
350
17
  3
ACAD_PLOTSETTINGS
350
19
  3
ACAD_PLOTSTYLENAME
350
E
  0
DICTIONARY
  5
D
102
{ACAD_REACTORS
330
C
102
}
330
C
100
AcDbDictionary
281
     1
  0
DICTIONARY
  5
1A
102
{ACAD_REACTORS
330
C
102
}
330
C
100
AcDbDictionary
281
     1
  3
Model
350
22
  3
Rozvržení1
350
1E
  3
Rozvržení2
350
26
  0
DICTIONARY
  5
17
102
{ACAD_REACTORS
330
C
102
}
330
C
100
AcDbDictionary
281
     1
  3
Standard
350
18
  0
DICTIONARY
  5
19
102
{ACAD_REACTORS
330
C
102
}
330
C
100
AcDbDictionary
281
     1
  0
ACDBDICTIONARYWDFLT
  5
E
102
{ACAD_REACTORS
330
C
102
}
330
C
100
AcDbDictionary
281
     1
  3
Normal
350
F
100
AcDbDictionaryWithDefault
340
F
  0
LAYOUT
  5
22
102
{ACAD_REACTORS
330
1A
102
}
330
1A
100
AcDbPlotSettings
  1

  2
HP DeskJet 690C
  4

  6

 40
0.0
 41
0.0
 42
0.0
 43
0.0
 44
0.0
 45
0.0
 46
0.0
 47
0.0
 48
0.0
 49
0.0
140
0.0
141
0.0
142
1.0
143
1.0
 70
  1712
 72
     0
 73
     0
 74
     0
  7
monochrome.ctb
 75
     0
147
1.0
148
0.0
149
0.0
100
AcDbLayout
  1
Model
 70
     1
 71
     0
 10
0.0
 20
0.0
 11
12.0
 21
9.0
 12
0.0
 22
0.0
 32
0.0
 14
0.0
 24
0.0
 34
0.0
 15
0.0
 25
0.0
 35
0.0
146
0.0
 13
0.0
 23
0.0
 33
0.0
 16
1.0
 26
0.0
 36
0.0
 17
0.0
 27
1.0
 37
0.0
 76
     0
330
1F
  0
LAYOUT
  5
1E
102
{ACAD_REACTORS
330
1A
102
}
330
1A
100
AcDbPlotSettings
  1

  2
HP DeskJet 690C
  4

  6

 40
0.0
 41
0.0
 42
0.0
 43
0.0
 44
0.0
 45
0.0
 46
0.0
 47
0.0
 48
0.0
 49
0.0
140
0.0
141
0.0
142
1.0
143
1.0
 70
   688
 72
     0
 73
     0
 74
     5
  7
monochrome.ctb
 75
    16
147
1.0
148
0.0
149
0.0
100
AcDbLayout
  1
Rozvržení1
 70
     1
 71
     1
 10
0.0
 20
0.0
 11
420.0
 21
297.0
 12
0.0
 22
0.0
 32
0.0
 14
1.000000000000000E+20
 24
1.000000000000000E+20
 34
1.000000000000000E+20
 15
-1.000000000000000E+20
 25
-1.000000000000000E+20
 35
-1.000000000000000E+20
146
0.0
 13
0.0
 23
0.0
 33
0.0
 16
1.0
 26
0.0
 36
0.0
 17
0.0
 27
1.0
 37
0.0
 76
     0
330
1B
  0
LAYOUT
  5
26
102
{ACAD_REACTORS
330
1A
102
}
330
1A
100
AcDbPlotSettings
  1

  2
HP DeskJet 690C
  4

  6

 40
0.0
 41
0.0
 42
0.0
 43
0.0
 44
0.0
 45
0.0
 46
0.0
 47
0.0
 48
0.0
 49
0.0
140
0.0
141
0.0
142
1.0
143
1.0
 70
   688
 72
     0
 73
     0
 74
     5
  7
monochrome.ctb
 75
    16
147
1.0
148
0.0
149
0.0
100
AcDbLayout
  1
Rozvržení2
 70
     1
 71
     2
 10
0.0
 20
0.0
 11
12.0
 21
9.0
 12
0.0
 22
0.0
 32
0.0
 14
0.0
 24
0.0
 34
0.0
 15
0.0
 25
0.0
 35
0.0
146
0.0
 13
0.0
 23
0.0
 33
0.0
 16
1.0
 26
0.0
 36
0.0
 17
0.0
 27
1.0
 37
0.0
 76
     0
330
23
  0
MLINESTYLE
  5
18
102
{ACAD_REACTORS
330
17
102
}
330
17
100
AcDbMlineStyle
  2
STANDARD
 70
     0
  3

 62
   256
 51
90.0
 52
90.0
 71
     2
 49
0.5
 62
   256
  6
BYLAYER
 49
-0.5
 62
   256
  6
BYLAYER
  0
ACDBPLACEHOLDER
  5
F
102
{ACAD_REACTORS
330
E
102
}
330
E
  0
ENDSEC
  0
EOF
