  0
SECTION
  2
HEADER
  9
$ACADVER
  1
AC1015
  9
$ACADMAINTVER
 70
    10
  9
$DWGCODEPAGE
  3
ANSI_1250
  9
$INSBASE
 10
0.0
 20
0.0
 30
0.0
  9
$EXTMIN
 10
-37.53459137340314
 20
169.8889164316895
 30
0.0
  9
$EXTMAX
 10
1353.976329646643
 20
793.4594257222625
 30
0.0
  9
$LIMMIN
 10
0.0
 20
0.0
  9
$LIMMAX
 10
420.0
 20
297.0
  9
$ORTHOMODE
 70
     0
  9
$REGENMODE
 70
     1
  9
$FILLMODE
 70
     1
  9
$QTEXTMODE
 70
     0
  9
$MIRRTEXT
 70
     1
  9
$LTSCALE
 40
1.0
  9
$ATTMODE
 70
     1
  9
$TEXTSIZE
 40
2.5
  9
$TRACEWID
 40
1.0
  9
$TEXTSTYLE
  7
Standard
  9
$CLAYER
  8
0
  9
$CELTYPE
  6
ByLayer
  9
$CECOLOR
 62
   256
  9
$CELTSCALE
 40
1.0
  9
$DISPSILH
 70
     0
  9
$DIMSCALE
 40
1.0
  9
$DIMASZ
 40
2.5
  9
$DIMEXO
 40
0.625
  9
$DIMDLI
 40
3.75
  9
$DIMRND
 40
0.0
  9
$DIMDLE
 40
0.0
  9
$DIMEXE
 40
1.25
  9
$DIMTP
 40
0.0
  9
$DIMTM
 40
0.0
  9
$DIMTXT
 40
2.5
  9
$DIMCEN
 40
2.5
  9
$DIMTSZ
 40
0.0
  9
$DIMTOL
 70
     0
  9
$DIMLIM
 70
     0
  9
$DIMTIH
 70
     0
  9
$DIMTOH
 70
     0
  9
$DIMSE1
 70
     0
  9
$DIMSE2
 70
     0
  9
$DIMTAD
 70
     1
  9
$DIMZIN
 70
     8
  9
$DIMBLK
  1

  9
$DIMASO
 70
     1
  9
$DIMSHO
 70
     1
  9
$DIMPOST
  1

  9
$DIMAPOST
  1

  9
$DIMALT
 70
     0
  9
$DIMALTD
 70
     3
  9
$DIMALTF
 40
0.03937007874016
  9
$DIMLFAC
 40
1.0
  9
$DIMTOFL
 70
     1
  9
$DIMTVP
 40
0.0
  9
$DIMTIX
 70
     0
  9
$DIMSOXD
 70
     0
  9
$DIMSAH
 70
     0
  9
$DIMBLK1
  1

  9
$DIMBLK2
  1

  9
$DIMSTYLE
  2
ISO-25
  9
$DIMCLRD
 70
     0
  9
$DIMCLRE
 70
     0
  9
$DIMCLRT
 70
     0
  9
$DIMTFAC
 40
1.0
  9
$DIMGAP
 40
0.625
  9
$DIMJUST
 70
     0
  9
$DIMSD1
 70
     0
  9
$DIMSD2
 70
     0
  9
$DIMTOLJ
 70
     0
  9
$DIMTZIN
 70
     8
  9
$DIMALTZ
 70
     0
  9
$DIMALTTZ
 70
     0
  9
$DIMUPT
 70
     0
  9
$DIMDEC
 70
     2
  9
$DIMTDEC
 70
     2
  9
$DIMALTU
 70
     2
  9
$DIMALTTD
 70
     3
  9
$DIMTXSTY
  7
Standard
  9
$DIMAUNIT
 70
     0
  9
$DIMADEC
 70
     0
  9
$DIMALTRND
 40
0.0
  9
$DIMAZIN
 70
     0
  9
$DIMDSEP
 70
    44
  9
$DIMATFIT
 70
     3
  9
$DIMFRAC
 70
     0
  9
$DIMLDRBLK
  1

  9
$DIMLUNIT
 70
     2
  9
$DIMLWD
 70
    -2
  9
$DIMLWE
 70
    -2
  9
$DIMTMOVE
 70
     0
  9
$LUNITS
 70
     2
  9
$LUPREC
 70
     4
  9
$SKETCHINC
 40
1.0
  9
$FILLETRAD
 40
10.0
  9
$AUNITS
 70
     0
  9
$AUPREC
 70
     0
  9
$MENU
  1
.
  9
$ELEVATION
 40
0.0
  9
$PELEVATION
 40
0.0
  9
$THICKNESS
 40
0.0
  9
$LIMCHECK
 70
     0
  9
$CHAMFERA
 40
10.0
  9
$CHAMFERB
 40
10.0
  9
$CHAMFERC
 40
20.0
  9
$CHAMFERD
 40
0.0
  9
$SKPOLY
 70
     0
  9
$TDCREATE
 40
2452332.337407754
  9
$TDUCREATE
 40
2452332.295741087
  9
$TDUPDATE
 40
2452653.393021724
  9
$TDUUPDATE
 40
2452653.351355057
  9
$TDINDWG
 40
0.0402229282
  9
$TDUSRTIMER
 40
0.0402229282
  9
$USRTIMER
 70
     1
  9
$ANGBASE
 50
0.0
  9
$ANGDIR
 70
     0
  9
$PDMODE
 70
     0
  9
$PDSIZE
 40
0.0
  9
$PLINEWID
 40
0.0
  9
$SPLFRAME
 70
     0
  9
$SPLINETYPE
 70
     6
  9
$SPLINESEGS
 70
     8
  9
$HANDSEED
  5
2C25
  9
$SURFTAB1
 70
     6
  9
$SURFTAB2
 70
     6
  9
$SURFTYPE
 70
     6
  9
$SURFU
 70
     6
  9
$SURFV
 70
     6
  9
$UCSBASE
  2

  9
$UCSNAME
  2

  9
$UCSORG
 10
0.0
 20
0.0
 30
0.0
  9
$UCSXDIR
 10
1.0
 20
0.0
 30
0.0
  9
$UCSYDIR
 10
0.0
 20
1.0
 30
0.0
  9
$UCSORTHOREF
  2

  9
$UCSORTHOVIEW
 70
     0
  9
$UCSORGTOP
 10
0.0
 20
0.0
 30
0.0
  9
$UCSORGBOTTOM
 10
0.0
 20
0.0
 30
0.0
  9
$UCSORGLEFT
 10
0.0
 20
0.0
 30
0.0
  9
$UCSORGRIGHT
 10
0.0
 20
0.0
 30
0.0
  9
$UCSORGFRONT
 10
0.0
 20
0.0
 30
0.0
  9
$UCSORGBACK
 10
0.0
 20
0.0
 30
0.0
  9
$PUCSBASE
  2

  9
$PUCSNAME
  2

  9
$PUCSORG
 10
0.0
 20
0.0
 30
0.0
  9
$PUCSXDIR
 10
1.0
 20
0.0
 30
0.0
  9
$PUCSYDIR
 10
0.0
 20
1.0
 30
0.0
  9
$PUCSORTHOREF
  2

  9
$PUCSORTHOVIEW
 70
     0
  9
$PUCSORGTOP
 10
0.0
 20
0.0
 30
0.0
  9
$PUCSORGBOTTOM
 10
0.0
 20
0.0
 30
0.0
  9
$PUCSORGLEFT
 10
0.0
 20
0.0
 30
0.0
  9
$PUCSORGRIGHT
 10
0.0
 20
0.0
 30
0.0
  9
$PUCSORGFRONT
 10
0.0
 20
0.0
 30
0.0
  9
$PUCSORGBACK
 10
0.0
 20
0.0
 30
0.0
  9
$USERI1
 70
     0
  9
$USERI2
 70
     0
  9
$USERI3
 70
     0
  9
$USERI4
 70
     0
  9
$USERI5
 70
     0
  9
$USERR1
 40
0.0
  9
$USERR2
 40
0.0
  9
$USERR3
 40
0.0
  9
$USERR4
 40
0.0
  9
$USERR5
 40
0.0
  9
$WORLDVIEW
 70
     1
  9
$SHADEDGE
 70
     3
  9
$SHADEDIF
 70
    70
  9
$TILEMODE
 70
     1
  9
$MAXACTVP
 70
    64
  9
$PINSBASE
 10
0.0
 20
0.0
 30
0.0
  9
$PLIMCHECK
 70
     0
  9
$PEXTMIN
 10
1.000000000000000E+20
 20
1.000000000000000E+20
 30
1.000000000000000E+20
  9
$PEXTMAX
 10
-1.000000000000000E+20
 20
-1.000000000000000E+20
 30
-1.000000000000000E+20
  9
$PLIMMIN
 10
0.0
 20
0.0
  9
$PLIMMAX
 10
420.0
 20
297.0
  9
$UNITMODE
 70
     0
  9
$VISRETAIN
 70
     1
  9
$PLINEGEN
 70
     0
  9
$PSLTSCALE
 70
     1
  9
$TREEDEPTH
 70
  3020
  9
$CMLSTYLE
  2
Standard
  9
$CMLJUST
 70
     0
  9
$CMLSCALE
 40
20.0
  9
$PROXYGRAPHICS
 70
     1
  9
$MEASUREMENT
 70
     1
  9
$CELWEIGHT
370
    -1
  9
$ENDCAPS
280
     0
  9
$JOINSTYLE
280
     0
  9
$LWDISPLAY
290
     0
  9
$INSUNITS
 70
     4
  9
$HYPERLINKBASE
  1

  9
$STYLESHEET
  1

  9
$XEDIT
290
     1
  9
$CEPSNTYPE
380
     0
  9
$PSTYLEMODE
290
     1
  9
$FINGERPRINTGUID
  2
{B968C5BB-500F-458D-B9F8-13F88C7D245D}
  9
$VERSIONGUID
  2
{758F5BD4-D6F2-4F8E-8C0B-85D920DD7E28}
  9
$EXTNAMES
290
     1
  9
$PSVPSCALE
 40
0.0
  9
$OLESTARTUP
290
     0
  0
ENDSEC
  0
SECTION
  2
CLASSES
  0
CLASS
  1
ACDBDICTIONARYWDFLT
  2
AcDbDictionaryWithDefault
  3
AutoCAD 2000
 90
        0
280
     0
281
     0
  0
CLASS
  1
ACDBPLACEHOLDER
  2
AcDbPlaceHolder
  3
AutoCAD 2000
 90
        0
280
     0
281
     0
  0
CLASS
  1
LAYOUT
  2
AcDbLayout
  3
AutoCAD 2000
 90
        0
280
     0
281
     0
  0
ENDSEC
  0
SECTION
  2
TABLES
  0
TABLE
  2
VPORT
  5
8
330
0
100
AcDbSymbolTable
 70
     3
  0
VPORT
  5
2C24
330
8
100
AcDbSymbolTableRecord
100
AcDbViewportTableRecord
  2
*Active
 70
     0
 10
0.0
 20
0.0
 11
1.0
 21
1.0
 12
653.7938940147321
 22
435.5735907166375
 13
0.0
 23
0.0
 14
10.0
 24
10.0
 15
10.0
 25
10.0
 16
0.0
 26
0.0
 36
1.0
 17
0.0
 27
0.0
 37
0.0
 40
753.7686711487006
 41
1.942622950819672
 42
50.0
 43
0.0
 44
0.0
 50
0.0
 51
0.0
 71
     0
 72
   100
 73
     1
 74
     3
 75
     0
 76
     0
 77
     0
 78
     0
281
     0
 65
     1
110
0.0
120
0.0
130
0.0
111
1.0
121
0.0
131
0.0
112
0.0
122
1.0
132
0.0
 79
     0
146
0.0
  0
ENDTAB
  0
TABLE
  2
LTYPE
  5
5
330
0
100
AcDbSymbolTable
 70
     3
  0
LTYPE
  5
14
330
5
100
AcDbSymbolTableRecord
100
AcDbLinetypeTableRecord
  2
ByBlock
 70
     0
  3

 72
    65
 73
     0
 40
0.0
  0
LTYPE
  5
15
330
5
100
AcDbSymbolTableRecord
100
AcDbLinetypeTableRecord
  2
ByLayer
 70
     0
  3

 72
    65
 73
     0
 40
0.0
  0
LTYPE
  5
16
330
5
100
AcDbSymbolTableRecord
100
AcDbLinetypeTableRecord
  2
Continuous
 70
     0
  3
Solid line
 72
    65
 73
     0
 40
0.0
  0
LTYPE
  5
286E
330
5
100
AcDbSymbolTableRecord
100
AcDbLinetypeTableRecord
  2
DASHED
 70
     0
  3
Dashed __ __ __ __ __ __ __ __ __ __ __ __ __ _
 72
    65
 73
     2
 40
19.04999999999999
 49
12.7
 74
     0
 49
-6.349999999999999
 74
     0
  0
LTYPE
  5
286F
330
5
100
AcDbSymbolTableRecord
100
AcDbLinetypeTableRecord
  2
IZOLACE
 70
     0
  3
Izolace SSSSSSSSSSSSSSSSSSSSSSSSSSSSSSSSSSSSSSS
 72
    65
 73
     4
 40
10.16253999999999
 49
0.00254
 74
     0
 49
-2.54
 74
     4
 75
   134
340
2877
 46
2.54
 50
0.0
 44
-2.54
 45
0.0
 49
-5.08
 74
     4
 75
   134
340
2877
 46
2.54
 50
180.0
 44
2.54
 45
0.0
 49
-2.54
 74
     0
  0
ENDTAB
  0
TABLE
  2
LAYER
  5
2
330
0
100
AcDbSymbolTable
 70
     7
  0
LAYER
  5
10
330
2
100
AcDbSymbolTableRecord
100
AcDbLayerTableRecord
  2
0
 70
     0
 62
     7
  6
Continuous
370
    -3
390
F
  0
LAYER
  5
2870
330
2
100
AcDbSymbolTableRecord
100
AcDbLayerTableRecord
  2
POPIS
 70
     0
 62
    30
  6
Continuous
370
    -3
390
F
  0
LAYER
  5
2871
330
2
100
AcDbSymbolTableRecord
100
AcDbLayerTableRecord
  2
SPOJOVACÍ
 70
     0
 62
   180
  6
Continuous
370
    -3
390
F
  0
LAYER
  5
2872
330
2
100
AcDbSymbolTableRecord
100
AcDbLayerTableRecord
  2
CETRIS
 70
     0
 62
     1
  6
Continuous
370
    -3
390
F
  0
LAYER
  5
2873
330
2
100
AcDbSymbolTableRecord
100
AcDbLayerTableRecord
  2
izolace
 70
     0
 62
    33
  6
Continuous
370
    -3
390
F
  0
LAYER
  5
2874
330
2
100
AcDbSymbolTableRecord
100
AcDbLayerTableRecord
  2
nášlap_vrstvy
 70
     0
 62
    73
  6
Continuous
370
    -3
390
F
  0
LAYER
  5
2875
330
2
100
AcDbSymbolTableRecord
100
AcDbLayerTableRecord
  2
STAVBA OBRYS
 70
     0
 62
     6
  6
Continuous
370
    -3
390
F
  0
ENDTAB
  0
TABLE
  2
STYLE
  5
3
330
0
100
AcDbSymbolTable
 70
     3
  0
STYLE
  5
11
330
3
100
AcDbSymbolTableRecord
100
AcDbTextStyleTableRecord
  2
Standard
 70
     0
 40
0.0
 41
1.0
 50
0.0
 71
     0
 42
2.5
  3
txt
  4

  0
STYLE
  5
2876
330
3
100
AcDbSymbolTableRecord
100
AcDbTextStyleTableRecord
  2
SIMPLEX7
 70
     0
 40
0.0
 41
0.85
 50
0.0
 71
     0
 42
102.0
  3

  4

1001
ACAD
1000
Arial CE
1071
    60962
  0
STYLE
  5
2877
330
3
100
AcDbSymbolTableRecord
100
AcDbTextStyleTableRecord
  2

 70
     1
 40
0.0
 41
1.0
 50
0.0
 71
     0
 42
2.5
  3
ltypeshp.shx
  4

  0
ENDTAB
  0
TABLE
  2
VIEW
  5
6
330
0
100
AcDbSymbolTable
 70
     0
  0
ENDTAB
  0
TABLE
  2
UCS
  5
7
330
0
100
AcDbSymbolTable
 70
     0
  0
ENDTAB
  0
TABLE
  2
APPID
  5
9
330
0
100
AcDbSymbolTable
 70
     1
  0
APPID
  5
12
330
9
100
AcDbSymbolTableRecord
100
AcDbRegAppTableRecord
  2
ACAD
 70
     0
  0
ENDTAB
  0
TABLE
  2
DIMSTYLE
  5
A
330
0
100
AcDbSymbolTable
 70
     1
100
AcDbDimStyleTable
 71
     0
  0
DIMSTYLE
105
27
330
A
100
AcDbSymbolTableRecord
100
AcDbDimStyleTableRecord
  2
ISO-25
 70
     0
 41
2.5
 42
0.625
 43
3.75
 44
1.25
 73
     0
 74
     0
 77
     1
 78
     8
140
2.5
141
2.5
143
0.03937007874016
147
0.625
171
     3
172
     1
271
     2
272
     2
274
     3
278
    44
283
     0
284
     8
340
11
  0
ENDTAB
  0
TABLE
  2
BLOCK_RECORD
  5
1
330
0
100
AcDbSymbolTable
 70
     2
  0
BLOCK_RECORD
  5
1F
330
1
100
AcDbSymbolTableRecord
100
AcDbBlockTableRecord
  2
*Model_Space
340
22
  0
BLOCK_RECORD
  5
1B
330
1
100
AcDbSymbolTableRecord
100
AcDbBlockTableRecord
  2
*Paper_Space
340
1E
  0
BLOCK_RECORD
  5
23
330
1
100
AcDbSymbolTableRecord
100
AcDbBlockTableRecord
  2
*Paper_Space0
340
26
  0
BLOCK_RECORD
  5
286A
330
1
100
AcDbSymbolTableRecord
100
AcDbBlockTableRecord
  2
E_PUNKT
340
0
102
{BLKREFS
331
2A79
331
2A7C
331
2A7D
331
2A7F
331
2A80
331
2A83
331
2AE3
331
2AE4
331
2AE5
102
}
  0
ENDTAB
  0
ENDSEC
  0
SECTION
  2
BLOCKS
  0
BLOCK
  5
20
330
1F
100
AcDbEntity
  8
0
100
AcDbBlockBegin
  2
*Model_Space
 70
     0
 10
0.0
 20
0.0
 30
0.0
  3
*Model_Space
  1

  0
ENDBLK
  5
21
330
1F
100
AcDbEntity
  8
0
100
AcDbBlockEnd
  0
BLOCK
  5
1C
330
1B
100
AcDbEntity
 67
     1
  8
0
100
AcDbBlockBegin
  2
*Paper_Space
 70
     0
 10
0.0
 20
0.0
 30
0.0
  3
*Paper_Space
  1

  0
ENDBLK
  5
1D
330
1B
100
AcDbEntity
 67
     1
  8
0
100
AcDbBlockEnd
  0
BLOCK
  5
24
330
23
100
AcDbEntity
  8
0
100
AcDbBlockBegin
  2
*Paper_Space0
 70
     0
 10
0.0
 20
0.0
 30
0.0
  3
*Paper_Space0
  1

  0
ENDBLK
  5
25
330
23
100
AcDbEntity
  8
0
100
AcDbBlockEnd
  0
BLOCK
  5
286C
330
286A
100
AcDbEntity
  8
0
100
AcDbBlockBegin
  2
E_PUNKT
 70
     0
 10
0.0
 20
0.0
 30
0.0
  3
E_PUNKT
  1

  0
LWPOLYLINE
  5
286B
330
286A
100
AcDbEntity
  8
POPIS
100
AcDbPolyline
 90
        2
 70
     1
 43
2.5
 10
1.27761037562675
 20
0.0290683308725193
 42
-1.0
 10
-1.222389624373249
 20
0.0290683308725193
 42
-1.0
  0
ENDBLK
  5
286D
330
286A
100
AcDbEntity
  8
0
100
AcDbBlockEnd
  0
ENDSEC
  0
SECTION
  2
ENTITIES
  0
TEXT
  5
2A4A
330
1F
100
AcDbEntity
  8
POPIS
100
AcDbText
 10
799.9927007244064
 20
607.5923245900667
 30
0.0
 40
25.0
  1
Deska CETRIS    tl. 12 mm horní, předvrtaná
 41
0.7
  7
SIMPLEX7
100
AcDbText
  0
TEXT
  5
2A4B
330
1F
100
AcDbEntity
  8
POPIS
100
AcDbText
 10
799.9927007244064
 20
570.9973129744394
 30
0.0
 40
25.0
  1
Deska CETRIS    tl. 12 mm, spodní
 41
0.7
  7
SIMPLEX7
100
AcDbText
  0
TEXT
  5
2A4C
330
1F
100
AcDbEntity
  8
POPIS
100
AcDbText
 10
799.9927007244064
 20
460.9057992375419
 30
0.0
 40
25.0
  1
Suchý podsyp  - max. tloušťka 40 mm
 41
0.7
  7
SIMPLEX7
100
AcDbText
  0
TEXT
  5
2A4D
330
1F
100
AcDbEntity
  8
POPIS
100
AcDbText
 10
-37.53459137340314
 20
730.2261378641451
 30
0.0
 40
50.0
  1
Vyrovnání podkladu pod podlahu (zvýšení výšky podlahy)
 41
0.75
  7
SIMPLEX7
100
AcDbText
  0
HATCH
  5
2A4E
330
1F
100
AcDbEntity
  8
STAVBA OBRYS
100
AcDbHatch
 10
0.0
 20
0.0
 30
0.0
210
0.0
220
0.0
230
1.0
  2
ANSI35
 70
     0
 71
     0
 91
        1
 92
        7
 72
     1
 73
     1
 93
       10
 10
627.649297856804
 20
368.6469613534391
 42
0.0
 10
348.0828361318549
 20
368.6469613534386
 42
0.0
 10
348.0828361318549
 20
324.28719484874
 42
-0.0435524250981674
 10
348.2993630018327
 20
324.3060912322325
 42
-1.0
 10
348.2993630018327
 20
321.8060912322325
 42
-0.9165304510809958
 10
348.0828361318549
 20
324.28719484874
 42
0.0
 10
348.0828361318553
 20
368.6469613534395
 42
0.0
 10
-30.29636465426438
 20
368.6469613534391
 42
0.0
 10
-30.2963646542646
 20
248.8240332525415
 42
0.0
 10
627.6492978568044
 20
248.8240332525429
 42
0.0
 97
        0
 75
     0
 76
     1
 52
0.0
 41
3.0
 77
     0
 78
     2
 53
45.0
 43
-1932.320744335374
 44
-2605.034077906815
 45
-13.47038418160372
 46
13.47038418160373
 79
     0
 53
45.0
 43
-1918.850354335374
 44
-2605.034077906815
 45
-13.47038418160372
 46
13.47038418160373
 79
     4
 49
23.8125
 49
-4.762499999999999
 49
0.0
 49
-4.762499999999999
 47
1.48158759698375
 98
        1
 10
156.7869251099659
 20
298.1879736548039
  0
LINE
  5
2A4F
330
1F
100
AcDbEntity
  8
STAVBA OBRYS
100
AcDbLine
 10
-30.29636465426438
 20
238.8240332525419
 30
0.0
 11
627.649297856808
 21
238.8240332525419
 31
0.0
  0
LINE
  5
2A50
330
1F
100
AcDbEntity
  8
STAVBA OBRYS
100
AcDbLine
 10
-30.29636465426074
 20
248.8240332525419
 30
0.0
 11
627.649297856808
 21
248.8240332525429
 31
0.0
  0
HATCH
  5
2A51
330
1F
100
AcDbEntity
  8
STAVBA OBRYS
100
AcDbHatch
 10
0.0
 20
0.0
 30
0.0
210
0.0
220
0.0
230
1.0
  2
AR-CONC
 70
     0
 71
     0
 91
        1
 92
        7
 72
     0
 73
     1
 93
        4
 10
627.6492978568044
 20
248.8240332525438
 10
-30.29636465426438
 20
248.8240332525419
 10
-30.29636465426438
 20
238.8240332525419
 10
627.649297856808
 20
238.8240332525419
 97
        0
 75
     0
 76
     1
 52
90.0
 41
0.1
 77
     0
 78
    13
 53
140.0
 43
-29203.97406037542
 44
4256.23708835738
 45
1.593908553890309
 46
18.2184668996004
 79
     2
 49
1.905
 49
-20.955
 53
85.00000000000001
 43
-29203.97406037542
 44
4256.23708835738
 45
-19.10566428821799
 46
-3.524282597566697
 79
     2
 49
1.524
 49
-16.764
 53
190.4509999999999
 43
-29203.84123537543
 44
4257.755288357381
 45
-17.51166878202918
 46
14.69425016659592
 79
     2
 49
1.619
 49
-17.809
 53
136.1841999999999
 43
-29209.05406037542
 44
4256.23708835738
 45
4.204232793272717
 46
27.10790408921299
 79
     2
 49
2.857499999999999
 49
-31.4325
 53
186.6355999999999
 43
-29208.70371037543
 44
4258.496078357381
 45
-24.74255558900492
 46
23.74042344662371
 79
     2
 49
2.4285
 49
-26.7135
 53
81.18400000000004
 43
-29209.05406037542
 44
4256.23708835738
 45
-24.74251178605976
 46
23.74046058139339
 79
     2
 49
2.286
 49
-25.146
 53
111.0
 43
-29207.78406037543
 44
4258.777088357381
 45
10.22655185167625
 46
15.16148798353833
 79
     2
 49
1.905
 49
-20.955
 53
56.00000000000004
 43
-29207.78406037543
 44
4258.777088357381
 45
-18.41879661223192
 46
6.180202834764708
 79
     2
 49
1.524
 49
-16.764
 53
161.4514
 43
-29206.93185037542
 44
4260.040538357381
 45
-8.192285771605742
 46
21.34164907701245
 79
     2
 49
1.618999999999997
 49
-17.80899999999996
 53
127.5
 43
-29203.97406037542
 44
4256.23708835738
 45
-8.455503887315311
 46
0.3088603250591822
 79
     6
 49
0.0
 49
-16.5608
 49
0.0
 49
-17.018
 49
0.0
 49
-16.8275
 53
97.49999999999989
 43
-29203.97406037542
 44
4256.23708835738
 45
-10.01805748181195
 46
6.681966251030575
 79
     6
 49
0.0
 49
-9.702799999999998
 49
0.0
 49
-16.17979999999999
 49
0.0
 49
-6.413499999999999
 53
57.5
 43
-29203.97406037542
 44
4250.572888357381
 45
0.5728743992673473
 46
13.55905951668713
 79
     6
 49
0.0
 49
-6.35
 49
0.0
 49
-19.812
 49
0.0
 49
-26.289
 53
47.5
 43
-29203.97406037542
 44
4248.03288835738
 45
-2.5426491033333
 46
14.8129181386018
 79
     6
 49
0.0
 49
-8.255
 49
0.0
 49
-13.1572
 49
0.0
 49
-18.669
 47
1.084445008349079
 98
        1
 10
335.8481709774009
 20
242.4227524465859
  0
HATCH
  5
2A52
330
1F
100
AcDbEntity
  8
STAVBA OBRYS
100
AcDbHatch
 10
0.0
 20
0.0
 30
0.0
210
0.0
220
0.0
230
1.0
  2
AR-SAND
 70
     0
 71
     0
 91
        3
 92
        7
 72
     0
 73
     1
 93
        4
 10
627.6492978568048
 20
406.646961353439
 10
348.0828361318549
 20
406.6469613534395
 10
348.0828361318549
 20
371.6469613534391
 10
627.649297856804
 20
371.6469613534386
 97
        0
 92
        7
 72
     0
 73
     1
 93
        4
 10
348.0828361318549
 20
406.646961353439
 10
298.4767120840069
 20
406.646961353439
 10
298.4767120840065
 20
371.6469613534386
 10
348.0828361318553
 20
371.6469613534391
 97
        0
 92
        7
 72
     1
 73
     1
 93
        9
 10
298.4767120840065
 20
406.6469613534395
 42
0.0
 10
251.7007736479304
 20
406.6469613534395
 42
0.0
 10
251.7007736479304
 20
390.6216371131631
 42
-1.0
 10
251.700773647929
 20
388.1216371131631
 42
-1.0
 10
251.7007736479304
 20
390.6216371131631
 42
0.0
 10
251.7007736479304
 20
406.646961353439
 42
0.0
 10
-30.29636465426438
 20
406.646961353439
 42
0.0
 10
-30.29636465426438
 20
371.6469613534386
 42
0.0
 10
298.4767120840065
 20
371.6469613534386
 42
0.0
 97
        0
 75
     0
 76
     1
 52
90.0
 41
0.2
 77
     0
 78
     4
 53
127.5
 43
-1932.320744335374
 44
-2605.034077906815
 45
-9.788264746586847
 46
-0.3200062591968085
 79
     6
 49
0.0
 49
-7.721600000000001
 49
0.0
 49
-8.636000000000001
 49
0.0
 49
-8.255
 53
97.49999999999998
 43
-1932.320744335374
 44
-2605.034077906815
 45
-14.33650201136708
 46
8.990465662760053
 79
     6
 49
0.0
 49
-4.1656
 49
0.0
 49
-6.9596
 49
0.0
 49
-2.667
 53
57.5
 43
-1932.320744335374
 44
-2611.282477906815
 45
-0.0287436935709129
 46
15.81984740482916
 79
     6
 49
0.0
 49
-2.54
 49
0.0
 49
-9.144
 49
0.0
 49
-11.938
 53
47.5
 43
-1932.320744335374
 44
-2611.282477906815
 45
-4.458586465144323
 46
15.27112904944594
 79
     6
 49
0.0
 49
-1.27
 49
0.0
 49
-5.994399999999999
 49
0.0
 49
-6.858
 47
0.7659217310233207
 98
        3
 10
416.0369053393374
 20
384.0532230704488
 10
331.7395231524101
 20
381.7554565832328
 10
273.4976767056582
 20
381.7554565832328
  0
HATCH
  5
2A53
330
1F
100
AcDbEntity
  8
STAVBA OBRYS
100
AcDbHatch
 10
0.0
 20
0.0
 30
0.0
210
0.0
220
0.0
230
1.0
  2
AR-CONC
 70
     0
 71
     0
 91
        3
 92
        7
 72
     0
 73
     1
 93
        4
 10
627.649297856804
 20
406.6469613534395
 10
348.0828361318553
 20
406.6469613534395
 10
348.0828361318553
 20
371.6469613534391
 10
627.6492978568044
 20
371.6469613534391
 97
        0
 92
        7
 72
     1
 73
     1
 93
        9
 10
298.4767120840069
 20
406.646961353439
 42
0.0
 10
251.7007736479304
 20
406.6469613534386
 42
0.0
 10
251.7007736479304
 20
390.6216371131631
 42
-1.0
 10
251.700773647929
 20
388.1216371131631
 42
-1.0
 10
251.7007736479304
 20
390.6216371131631
 42
0.0
 10
251.7007736479304
 20
406.646961353439
 42
0.0
 10
-30.29636465426438
 20
406.646961353439
 42
0.0
 10
-30.29636465426438
 20
371.6469613534386
 42
0.0
 10
298.4767120840065
 20
371.6469613534386
 42
0.0
 97
        0
 92
        7
 72
     0
 73
     1
 93
        4
 10
348.0828361318553
 20
406.6469613534395
 10
298.4767120840065
 20
406.6469613534399
 10
298.4767120840065
 20
371.6469613534391
 10
348.0828361318553
 20
371.6469613534391
 97
        0
 75
     0
 76
     1
 52
90.0
 41
0.2
 77
     0
 78
    13
 53
140.0
 43
-1932.320744335374
 44
-2605.034077906815
 45
3.187817107780619
 46
36.4369337992008
 79
     2
 49
3.81
 49
-41.91
 53
85.00000000000001
 43
-1932.320744335374
 44
-2605.034077906815
 45
-38.21132857643599
 46
-7.048565195133395
 79
     2
 49
3.048
 49
-33.528
 53
190.4509999999999
 43
-1932.055094335374
 44
-2601.997677906815
 45
-35.02333756405837
 46
29.38850033319185
 79
     2
 49
3.238
 49
-35.618
 53
136.1841999999999
 43
-1942.480744335374
 44
-2605.034077906815
 45
8.408465586545434
 46
54.21580817842599
 79
     2
 49
5.714999999999999
 49
-62.865
 53
186.6355999999999
 43
-1941.780044335374
 44
-2600.516097906815
 45
-49.48511117800984
 46
47.48084689324743
 79
     2
 49
4.857
 49
-53.427
 53
81.18400000000004
 43
-1942.480744335374
 44
-2605.034077906815
 45
-49.48502357211953
 46
47.48092116278678
 79
     2
 49
4.572
 49
-50.292
 53
111.0
 43
-1939.940744335374
 44
-2599.954077906815
 45
20.4531037033525
 46
30.32297596707666
 79
     2
 49
3.81
 49
-41.91
 53
56.00000000000004
 43
-1939.940744335374
 44
-2599.954077906815
 45
-36.83759322446385
 46
12.36040566952941
 79
     2
 49
3.048
 49
-33.528
 53
161.4514
 43
-1938.236324335374
 44
-2597.427177906815
 45
-16.38457154321148
 46
42.6832981540249
 79
     2
 49
3.237999999999999
 49
-35.61799999999998
 53
127.5
 43
-1932.320744335374
 44
-2605.034077906815
 45
-16.91100777463062
 46
0.6177206501183644
 79
     6
 49
0.0
 49
-33.1216
 49
0.0
 49
-34.036
 49
0.0
 49
-33.655
 53
97.49999999999998
 43
-1932.320744335374
 44
-2605.034077906815
 45
-20.0361149636239
 46
13.36393250206115
 79
     6
 49
0.0
 49
-19.40559999999999
 49
0.0
 49
-32.3596
 49
0.0
 49
-12.827
 53
57.5
 43
-1932.320744335374
 44
-2616.362477906815
 45
1.145748798534694
 46
27.11811903337427
 79
     6
 49
0.0
 49
-12.7
 49
0.0
 49
-39.624
 49
0.0
 49
-52.578
 53
47.5
 43
-1932.320744335374
 44
-2621.442477906815
 45
-5.085298206666601
 46
29.62583627720361
 79
     6
 49
0.0
 49
-16.51
 49
0.0
 49
-26.3144
 49
0.0
 49
-37.338
 47
0.7659217310233207
 98
        3
 10
372.0286129753044
 20
385.2150741130612
 10
134.2706278708178
 20
385.2150741130612
 10
317.1790479687738
 20
384.8191452328506
  0
HATCH
  5
2A54
330
1F
100
AcDbEntity
  8
CETRIS
100
AcDbHatch
 10
0.0
 20
0.0
 30
0.0
210
0.0
220
0.0
230
1.0
  2
ANSI31
 70
     0
 71
     0
 91
        5
 92
        7
 72
     1
 73
     1
 93
       48
 10
288.244665255776
 20
451.2605536774244
 42
0.0
 10
288.9037320122356
 20
451.038944754211
 42
0.0
 10
288.9037320122356
 20
453.5120403493933
 42
0.0
 10
288.2446652557778
 20
453.7336492725617
 42
0.0
 10
287.8745669079712
 20
453.9478687583482
 42
0.0
 10
288.2446652557755
 20
454.3179671040148
 42
0.0
 10
288.9037320122356
 20
454.0963581808446
 42
0.0
 10
288.9037320122356
 20
456.5696053555239
 42
0.0
 10
288.2446652557787
 20
456.7910626994167
 42
0.0
 10
287.8745669079712
 20
457.0052821852027
 42
0.0
 10
288.244665255776
 20
457.3753805308683
 42
0.0
 10
288.9037320122361
 20
457.1539231869305
 42
0.0
 10
288.9037320122356
 20
458.6469613534395
 42
0.0
 10
202.6122581836448
 20
458.6469613534395
 42
0.0
 10
202.6122581836448
 20
453.2016639177473
 42
-1.0
 10
202.6122581836434
 20
450.7016639177472
 42
-1.0
 10
202.6122581836448
 20
453.2016639177473
 42
0.0
 10
202.6122581836448
 20
458.6469613534391
 42
0.0
 10
139.0599653980921
 20
458.6469613534391
 42
0.0
 10
138.9296730705918
 20
458.5166690251862
 42
0.0
 10
138.5421826170113
 20
458.6469613534386
 42
0.0
 10
138.2706063141327
 20
458.6469613534386
 42
0.0
 10
138.2706063141327
 20
456.2650307737226
 42
0.0
 10
138.9296730705932
 20
456.0435734297848
 42
0.0
 10
139.2997714141188
 20
455.8293539439978
 42
0.0
 10
138.9296730705928
 20
455.4592555986037
 42
0.0
 10
138.2706063141322
 20
455.6807129424965
 42
0.0
 10
138.2706063141327
 20
453.2068573541773
 42
0.0
 10
138.9296730705891
 20
452.9852484310063
 42
0.0
 10
139.2997714141192
 20
452.7719405174157
 42
0.0
 10
138.9296730705918
 20
452.4009305995618
 42
0.0
 10
138.2706063141327
 20
452.6225395227292
 42
0.0
 10
138.2706063141331
 20
450.1494439273669
 42
0.0
 10
138.9296730705928
 20
449.9278350041536
 42
0.0
 10
139.2997714141183
 20
449.7145270908249
 42
0.0
 10
138.9296730705918
 20
449.343517172972
 42
0.0
 10
138.2706063141327
 20
449.5651260961417
 42
0.0
 10
138.2706063141327
 20
446.9134933667805
 42
0.0
 10
139.3367343674999
 20
446.6469613534391
 42
0.0
 10
288.9037320122356
 20
446.6469613534395
 42
0.0
 10
288.9037320122356
 20
447.3972134961759
 42
0.0
 10
288.2446652557778
 20
447.6188224193893
 42
0.0
 10
287.8745669079712
 20
447.8321303327179
 42
0.0
 10
288.244665255776
 20
448.2031402508424
 42
0.0
 10
288.9037320122356
 20
447.9815313276285
 42
0.0
 10
288.9037320122356
 20
450.4546269228103
 42
0.0
 10
288.2446652557778
 20
450.6762358459791
 42
0.0
 10
287.8745669079712
 20
450.8904553317592
 42
0.0
 97
        0
 92
        7
 72
     0
 73
     1
 93
       24
 10
135.6252235546512
 20
456.5696053555234
 10
134.9661567981907
 20
456.7910626994176
 10
134.5960584503864
 20
457.0052821852023
 10
134.9661567981916
 20
457.3753805308679
 10
135.6252235546512
 20
457.1539231869296
 10
135.6252235546512
 20
458.6469613534386
 10
-30.29636465426438
 20
458.6469613534391
 10
-30.29636465426438
 20
446.6469613534391
 10
135.6252235546512
 20
446.6469613534386
 10
135.6252235546512
 20
447.3972134961764
 10
134.966156798192
 20
447.6188224193897
 10
134.5960584503868
 20
447.832130332717
 10
134.9661567981916
 20
448.2031402508418
 10
135.6252235546508
 20
447.9815313276285
 10
135.6252235546512
 20
450.4546269228103
 10
134.9661567981925
 20
450.6762358459782
 10
134.5960584503864
 20
450.8904553317583
 10
134.9661567981916
 20
451.2605536774249
 10
135.6252235546512
 20
451.0389447542116
 10
135.6252235546512
 20
453.5120403493938
 10
134.9661567981879
 20
453.733649272563
 10
134.5960584503864
 20
453.9478687583482
 10
134.9661567981916
 20
454.3179671040148
 10
135.6252235546512
 20
454.0963581808455
 97
        0
 92
        7
 72
     0
 73
     1
 93
       45
 10
338.7182422066453
 20
450.1494439273665
 10
338.7182422066462
 20
452.6225395227307
 10
338.059175450186
 20
452.4009305995628
 10
337.6890771066596
 20
452.7719405174157
 10
338.0591754501883
 20
452.9852484310076
 10
338.7182422066457
 20
453.2068573541764
 10
338.7182422066457
 20
455.6807129424965
 10
338.059175450186
 20
455.4592555986041
 10
337.68907710666
 20
455.8293539439983
 10
338.059175450186
 20
456.0435734297843
 10
338.7182422066457
 20
456.2650307737222
 10
338.7182422066453
 20
458.6469613534391
 10
338.4466659037661
 20
458.6469613534386
 10
338.0591754501865
 20
458.5166690251862
 10
337.9288831226863
 20
458.6469613534391
 10
322.6336784891814
 20
458.6469613534391
 10
292.338473855676
 20
458.6469613534391
 10
292.2081815281762
 20
458.5166690251858
 10
291.8206910745957
 20
458.6469613534391
 10
291.549114771717
 20
458.6469613534391
 10
291.549114771717
 20
456.2650307737226
 10
292.2081815281767
 20
456.0435734297848
 10
292.5782798717036
 20
455.8293539439983
 10
292.2081815281767
 20
455.4592555986041
 10
291.549114771717
 20
455.6807129424969
 10
291.549114771717
 20
453.206857354176
 10
292.208181528174
 20
452.9852484310076
 10
292.5782798717036
 20
452.7719405174157
 10
292.2081815281767
 20
452.4009305995623
 10
291.5491147717175
 20
452.6225395227311
 10
291.549114771717
 20
450.1494439273669
 10
292.2081815281781
 20
449.9278350041522
 10
292.5782798717032
 20
449.7145270908259
 10
292.2081815281762
 20
449.3435171729725
 10
291.549114771717
 20
449.5651260961417
 10
291.549114771717
 20
446.9134933667815
 10
292.615242825083
 20
446.6469613534391
 10
337.6521141532766
 20
446.6469613534386
 10
337.6890771066591
 20
446.6562020917831
 10
338.0591754501879
 20
446.8704215775706
 10
338.7182422066462
 20
447.0920305007839
 10
338.7182422066457
 20
449.5651260961421
 10
338.059175450186
 20
449.3435171729725
 10
337.68907710666
 20
449.7145270908254
 10
338.0591754501833
 20
449.9278350041522
 97
        0
 92
        7
 72
     0
 73
     1
 93
       45
 10
557.1329331859224
 20
450.1494439273665
 10
557.1329331859224
 20
452.6225395227307
 10
556.4738664294627
 20
452.4009305995628
 10
556.1037680859358
 20
452.7719405174157
 10
556.4738664294631
 20
452.9852484310072
 10
557.1329331859219
 20
453.2068573541764
 10
557.1329331859224
 20
455.6807129424973
 10
556.4738664294618
 20
455.4592555986037
 10
556.1037680859363
 20
455.8293539439983
 10
556.4738664294641
 20
456.0435734297848
 10
557.1329331859219
 20
456.2650307737226
 10
557.1329331859219
 20
458.6469613534386
 10
556.8613568830414
 20
458.6469613534391
 10
556.4738664294627
 20
458.5166690251862
 10
556.3435741019629
 20
458.6469613534386
 10
341.3636249661271
 20
458.6469613534386
 10
341.3636249661271
 20
457.1539231869296
 10
342.0226917225873
 20
457.3753805308674
 10
342.392790070392
 20
457.0052821852023
 10
342.022691722585
 20
456.7910626994157
 10
341.3636249661271
 20
456.5696053555229
 10
341.3636249661267
 20
454.0963581808446
 10
342.0226917225868
 20
454.3179671040142
 10
342.392790070392
 20
453.9478687583486
 10
342.0226917225882
 20
453.7336492725635
 10
341.3636249661271
 20
453.5120403493943
 10
341.3636249661271
 20
451.038944754211
 10
342.0226917225864
 20
451.2605536774239
 10
342.3927900703911
 20
450.8904553317583
 10
342.0226917225864
 20
450.6762358459805
 10
341.3636249661271
 20
450.4546269228107
 10
341.3636249661271
 20
447.981531327628
 10
342.0226917225868
 20
448.2031402508418
 10
342.392790070392
 20
447.832130332717
 10
342.0226917225854
 20
447.6188224193902
 10
341.3636249661276
 20
447.3972134961768
 10
341.3636249661276
 20
446.6469613534391
 10
556.0668051325542
 20
446.6469613534391
 10
556.1037680859349
 20
446.6562020917836
 10
556.4738664294641
 20
446.8704215775715
 10
557.1329331859219
 20
447.0920305007844
 10
557.1329331859219
 20
449.5651260961417
 10
556.4738664294618
 20
449.3435171729725
 10
556.1037680859353
 20
449.7145270908254
 10
556.47386642946
 20
449.9278350041522
 97
        0
 92
        7
 72
     0
 73
     1
 93
       24
 10
627.6492978568085
 20
458.6469613534391
 10
559.7783159454038
 20
458.6469613534391
 10
559.7783159454033
 20
457.1539231869301
 10
560.437382701864
 20
457.3753805308683
 10
560.8074810496669
 20
457.0052821852023
 10
560.4373827018657
 20
456.7910626994176
 10
559.7783159454033
 20
456.5696053555239
 10
559.7783159454033
 20
454.0963581808441
 10
560.4373827018621
 20
454.3179671040142
 10
560.8074810496682
 20
453.9478687583491
 10
560.4373827018612
 20
453.7336492725617
 10
559.7783159454033
 20
453.5120403493943
 10
559.7783159454038
 20
451.038944754211
 10
560.4373827018634
 20
451.2605536774239
 10
560.8074810496677
 20
450.8904553317588
 10
560.4373827018612
 20
450.6762358459796
 10
559.7783159454029
 20
450.4546269228103
 10
559.7783159454038
 20
447.9815313276289
 10
560.437382701863
 20
448.2031402508418
 10
560.8074810496677
 20
447.8321303327175
 10
560.437382701864
 20
447.6188224193902
 10
559.7783159454029
 20
447.3972134961768
 10
559.7783159454029
 20
446.6469613534391
 10
627.649297856808
 20
446.6469613534386
 97
        0
 75
     0
 76
     1
 52
0.0
 41
1.0
 77
     0
 78
     1
 53
45.0
 43
-1932.320744335374
 44
-2605.034077906815
 45
-2.245064030267287
 46
2.245064030267288
 79
     0
 47
0.6513703633324985
 98
        5
 10
224.7489469466386
 20
451.1730409049018
 10
100.9210111511242
 20
454.4299044647163
 10
324.4630314184401
 20
449.8703055465344
 10
398.7597874669668
 20
449.8703055465344
 10
566.9051031868043
 20
451.1730409049018
  0
HATCH
  5
2A55
330
1F
100
AcDbEntity
  8
CETRIS
100
AcDbHatch
 10
0.0
 20
0.0
 30
0.0
210
0.0
220
0.0
230
1.0
  2
ANSI31
 70
     0
 71
     0
 91
        6
 92
        7
 72
     0
 73
     1
 93
       15
 10
135.6252235546512
 20
464.1793560277728
 10
135.560501922368
 20
464.9505461764333
 10
135.1411786753555
 20
466.4017692461384
 10
134.3608728056219
 20
467.6943787388727
 10
133.2724555032714
 20
468.7417752884975
 10
131.9497641213911
 20
469.4710331122423
 10
131.9497641213911
 20
470.6469613534395
 10
-30.29636465426415
 20
470.6469613534391
 10
-30.29636465426415
 20
458.6469613534391
 10
135.6252235546512
 20
458.6469613534395
 10
135.6252235546512
 20
459.6277787752438
 10
134.966156798192
 20
459.8493876984567
 10
134.5960584503873
 20
460.0626956117853
 10
134.9661567981916
 20
460.4337055296378
 10
135.6252235546512
 20
460.2120966064695
 97
        0
 92
        7
 72
     1
 73
     1
 93
       18
 10
155.7299433694774
 20
464.842776023368
 42
0.0
 10
155.7299433694774
 20
470.6469613534395
 42
0.0
 10
141.9460657431141
 20
470.64696135344
 42
0.0
 10
141.9460657431141
 20
469.4710331122423
 42
0.0
 10
141.2450666606696
 20
469.1410439471169
 42
0.0
 10
140.032675527947
 20
468.2413221068832
 42
0.0
 10
139.0937560793631
 20
467.0581012876428
 42
0.0
 10
138.4930299471984
 20
465.6725114221335
 42
0.0
 10
138.2706063141327
 20
464.1793560277742
 42
0.0
 10
138.2706063141327
 20
459.3225957798063
 42
0.0
 10
138.9296730705918
 20
459.100986856637
 42
0.0
 10
139.2997714141192
 20
458.8867673708523
 42
0.0
 10
139.0599653980921
 20
458.6469613534386
 42
0.0
 10
202.6122581836448
 20
458.6469613534391
 42
0.0
 10
202.6122581836448
 20
470.6469613534395
 42
0.0
 10
155.729943369477
 20
470.6469613534391
 42
0.0
 10
155.7299433694774
 20
464.842776023368
 42
-1.0
 10
155.7299433694761
 20
462.342776023368
 42
-1.0
 97
        0
 92
        7
 72
     1
 73
     1
 93
       20
 10
251.7007736479304
 20
464.842776023368
 42
0.0
 10
251.7007736479304
 20
470.6469613534395
 42
0.0
 10
202.6122581836452
 20
470.6469613534395
 42
0.0
 10
202.6122581836452
 20
458.6469613534395
 42
0.0
 10
288.9037320122356
 20
458.64696135344
 42
0.0
 10
288.9037320122356
 20
459.6277787752442
 42
0.0
 10
288.2446652557728
 20
459.8493876984576
 42
0.0
 10
287.8745669079717
 20
460.0626956117848
 42
0.0
 10
288.244665255776
 20
460.4337055296382
 42
0.0
 10
288.9037320122356
 20
460.2120966064695
 42
0.0
 10
288.9037320122361
 20
464.1793560277742
 42
0.0
 10
288.839010379952
 20
464.9505461764329
 42
0.0
 10
288.4196871329386
 20
466.4017692461406
 42
0.0
 10
287.6393812632063
 20
467.6943787388754
 42
0.0
 10
286.5509639608562
 20
468.7417752884975
 42
0.0
 10
285.2282725789759
 20
469.4710331122423
 42
0.0
 10
285.2282725789759
 20
470.6469613534395
 42
0.0
 10
251.7007736479304
 20
470.6469613534391
 42
0.0
 10
251.7007736479304
 20
464.842776023368
 42
-1.0
 10
251.700773647929
 20
462.342776023368
 42
-1.0
 97
        0
 92
        7
 72
     0
 73
     1
 93
       23
 10
338.7182422066457
 20
464.1793560277737
 10
338.4958185735804
 20
465.6725114221321
 10
337.8950924414157
 20
467.0581012876428
 10
336.9561729928318
 20
468.2413221068832
 10
335.7437818601097
 20
469.1410439471151
 10
335.0427827776643
 20
469.4710331122423
 10
335.0427827776639
 20
470.6469613534395
 10
295.2245742006985
 20
470.6469613534391
 10
295.2245742006985
 20
469.4710331122423
 10
294.5235751182544
 20
469.1410439471164
 10
293.3111839855323
 20
468.2413221068836
 10
292.3722645369475
 20
467.0581012876428
 10
291.7715384047833
 20
465.6725114221344
 10
291.5491147717175
 20
464.1793560277742
 10
291.549114771717
 20
459.3225957798058
 10
292.2081815281799
 20
459.100986856637
 10
292.5782798717032
 20
458.8867673708523
 10
292.338473855676
 20
458.6469613534386
 10
322.6336784891814
 20
458.6469613534391
 10
337.9288831226858
 20
458.6469613534391
 10
337.6890771066591
 20
458.8867673708514
 10
338.0591754501852
 20
459.100986856638
 10
338.7182422066457
 20
459.3225957798067
 97
        0
 92
        7
 72
     0
 73
     1
 93
       24
 10
557.1329331859219
 20
464.1793560277737
 10
556.9105095528562
 20
465.6725114221349
 10
556.309783420691
 20
467.0581012876432
 10
555.3708639721044
 20
468.241322106884
 10
554.1584728393859
 20
469.1410439471164
 10
553.4574737569405
 20
469.4710331122423
 10
553.4574737569405
 20
470.64696135344
 10
345.0390843993868
 20
470.6469613534395
 10
345.0390843993868
 20
469.4710331122423
 10
343.7163930175065
 20
468.741775288498
 10
342.6279757151555
 20
467.6943787388731
 10
341.8476698454233
 20
466.401769246142
 10
341.4283465984099
 20
464.9505461764329
 10
341.3636249661271
 20
464.1793560277696
 10
341.3636249661271
 20
460.2120966064699
 10
342.0226917225868
 20
460.4337055296378
 10
342.3927900703911
 20
460.0626956117844
 10
342.0226917225854
 20
459.8493876984571
 10
341.3636249661271
 20
459.6277787752446
 10
341.3636249661271
 20
458.6469613534391
 10
556.3435741019625
 20
458.6469613534395
 10
556.1037680859358
 20
458.8867673708518
 10
556.4738664294614
 20
459.100986856637
 10
557.1329331859219
 20
459.3225957798058
 97
        0
 92
        7
 72
     0
 73
     1
 93
       15
 10
627.6492978568044
 20
470.64696135344
 10
563.453775378663
 20
470.6469613534404
 10
563.453775378663
 20
469.4710331122423
 10
562.1310839967836
 20
468.741775288498
 10
561.0426666944326
 20
467.694378738875
 10
560.2623608246999
 20
466.4017692461416
 10
559.8430375776866
 20
464.9505461764338
 10
559.7783159454033
 20
464.1793560277674
 10
559.7783159454033
 20
460.2120966064695
 10
560.4373827018625
 20
460.4337055296378
 10
560.8074810496677
 20
460.0626956117848
 10
560.4373827018616
 20
459.8493876984571
 10
559.7783159454038
 20
459.6277787752446
 10
559.7783159454038
 20
458.6469613534391
 10
627.6492978568044
 20
458.6469613534391
 97
        0
 75
     0
 76
     1
 52
90.0
 41
1.0
 77
     0
 78
     1
 53
135.0
 43
-1932.320744335374
 44
-2605.034077906815
 45
-2.245064030267288
 46
-2.245064030267287
 79
     0
 47
0.6114476843630473
 98
        6
 10
66.99754529538814
 20
463.4852363103641
 10
148.9762686180297
 20
464.0966856483578
 10
229.7314264752098
 20
462.8737869723741
 10
313.5455115679947
 20
462.262337634384
 10
385.1239420061506
 20
462.262337634384
 10
573.5526708168004
 20
463.4852363103641
  0
LINE
  5
2A56
330
1F
100
AcDbEntity
  8
izolace
  6
IZOLACE
 48
0.95
100
AcDbLine
 10
-29.74156801562594
 20
416.6469613534391
 30
0.0
 11
627.6492978568117
 21
416.6469613534391
 31
0.0
  0
LINE
  5
2A57
330
1F
100
AcDbEntity
  8
izolace
100
AcDbLine
 10
-30.29636465426415
 20
406.646961353439
 30
0.0
 11
627.649297856808
 21
406.646961353439
 31
0.0
  0
LINE
  5
2A58
330
1F
100
AcDbEntity
  8
izolace
100
AcDbLine
 10
-30.29636465426415
 20
426.6469613534386
 30
0.0
 11
627.649297856808
 21
426.6469613534391
 31
0.0
  0
LWPOLYLINE
  5
2A59
330
1F
100
AcDbEntity
  8
nášlap_vrstvy
100
AcDbPolyline
 90
        4
 70
     0
 43
0.0
 10
320.4524381456562
 20
473.2687217159564
 10
627.6492978568044
 20
473.2687217159564
 10
627.6492978568044
 20
477.607210741904
 10
320.4524381456562
 20
477.607210741904
  0
LINE
  5
2A5A
330
1F
100
AcDbEntity
  8
CETRIS
100
AcDbLine
 10
345.1336784891814
 20
446.6469613534391
 30
0.0
 11
627.649297856808
 21
446.6469613534391
 31
0.0
  0
LINE
  5
2A5B
330
1F
100
AcDbEntity
  8
CETRIS
100
AcDbLine
 10
322.6336784891814
 20
458.6469613534391
 30
0.0
 11
627.649297856808
 21
458.6469613534391
 31
0.0
  0
LINE
  5
2A5C
330
1F
100
AcDbEntity
  8
izolace
  6
IZOLACE
 48
0.95
100
AcDbLine
 10
-29.74156801562594
 20
436.646961353439
 30
0.0
 11
627.6492978568117
 21
436.646961353439
 31
0.0
  0
LWPOLYLINE
  5
2A5D
330
1F
100
AcDbEntity
  8
izolace
100
AcDbPolyline
 90
        4
 70
     0
 43
0.0
 10
-30.29636465426438
 20
371.6469613534391
 10
627.6492978568044
 20
371.6469613534391
 10
627.6492978568044
 20
368.6469613534391
 10
-30.29636465426438
 20
368.6469613534391
  0
LINE
  5
2A5E
330
1F
100
AcDbEntity
  8
CETRIS
100
AcDbLine
 10
-30.29636465426438
 20
470.6469613534391
 30
0.0
 11
627.649297856808
 21
470.64696135344
 31
0.0
  0
TEXT
  5
2A5F
330
1F
100
AcDbEntity
  8
POPIS
100
AcDbText
 10
331.18516520005
 20
546.1689261855663
 30
0.0
 40
25.0
  1
08
 41
0.85
  7
SIMPLEX7
100
AcDbText
  0
TEXT
  5
2A60
330
1F
100
AcDbEntity
  8
POPIS
100
AcDbText
 10
281.5790411522016
 20
546.1689261855663
 30
0.0
 40
25.0
  1
07
 41
0.85
  7
SIMPLEX7
100
AcDbText
  0
TEXT
  5
2A61
330
1F
100
AcDbEntity
  8
POPIS
100
AcDbText
 10
26.06945476182454
 20
546.1689261855663
 30
0.0
 40
25.0
  1
02
 41
0.85
  7
SIMPLEX7
100
AcDbText
  0
TEXT
  5
2A62
330
1F
100
AcDbEntity
  8
POPIS
100
AcDbText
 10
234.8031027161255
 20
546.1689261855663
 30
0.0
 40
25.0
  1
06
 41
0.85
  7
SIMPLEX7
100
AcDbText
  0
TEXT
  5
2A63
330
1F
100
AcDbEntity
  8
POPIS
100
AcDbText
 10
185.7145872518399
 20
546.1689261855663
 30
0.0
 40
25.0
  1
05
 41
0.85
  7
SIMPLEX7
100
AcDbText
  0
TEXT
  5
2A64
330
1F
100
AcDbEntity
  8
POPIS
100
AcDbText
 10
119.9614277702844
 20
546.1689261855663
 30
0.0
 40
25.0
  1
04
 41
0.85
  7
SIMPLEX7
100
AcDbText
  0
TEXT
  5
2A65
330
1F
100
AcDbEntity
  8
POPIS
100
AcDbText
 10
-15.20297439350315
 20
546.1689261855663
 30
0.0
 40
25.0
  1
01
 41
0.85
  7
SIMPLEX7
100
AcDbText
  0
TEXT
  5
2A66
330
1F
100
AcDbEntity
  8
POPIS
100
AcDbText
 10
69.13911115195742
 20
546.1689261855663
 30
0.0
 40
25.0
  1
03
 41
0.85
  7
SIMPLEX7
100
AcDbText
  0
HATCH
  5
2A67
330
1F
100
AcDbEntity
  8
izolace
100
AcDbHatch
 10
0.0
 20
0.0
 30
0.0
210
0.0
220
0.0
230
1.0
  2
SOLID
 70
     1
 71
     0
 91
        1
 92
        7
 72
     0
 73
     1
 93
        4
 10
223.5348798710497
 20
371.6469613534391
 10
223.5348798710497
 20
368.6469613534391
 10
247.1766125808849
 20
368.6469613534391
 10
247.1766125808849
 20
371.6469613534391
 97
        0
 75
     0
 76
     1
 47
0.1901250437635136
 98
        1
 10
232.8926746293896
 20
370.8301498023593
  0
LWPOLYLINE
  5
2A68
330
1F
100
AcDbEntity
  8
izolace
100
AcDbPolyline
 90
        4
 70
     1
 43
0.0
 10
247.1766125808812
 20
371.6469613534391
 10
223.534879871046
 20
371.6469613534391
 10
223.534879871046
 20
368.6469613534391
 10
247.1766125808812
 20
368.6469613534391
  0
LWPOLYLINE
  5
2A69
330
1F
100
AcDbEntity
  8
nášlap_vrstvy
100
AcDbPolyline
 90
        2
 70
     0
 43
0.0
 10
320.4524381456562
 20
477.607210741904
 10
-30.29636465426438
 20
477.607210741904
  0
LWPOLYLINE
  5
2A6A
330
1F
100
AcDbEntity
  8
nášlap_vrstvy
100
AcDbPolyline
 90
        2
 70
     0
 43
0.0
 10
-30.29636465426438
 20
473.2687217159564
 10
320.4524381456562
 20
473.2687217159564
  0
LINE
  5
2A6B
330
1F
100
AcDbEntity
  8
CETRIS
100
AcDbLine
 10
-30.29636465426438
 20
458.6469613534391
 30
0.0
 11
322.6336784891814
 21
458.6469613534391
 31
0.0
  0
LINE
  5
2A6C
330
1F
100
AcDbEntity
  8
CETRIS
100
AcDbLine
 10
-30.29636465426438
 20
446.6469613534391
 30
0.0
 11
345.1336784891814
 21
446.6469613534391
 31
0.0
  0
LWPOLYLINE
  5
2A6D
330
1F
100
AcDbEntity
  8
izolace
100
AcDbPolyline
 90
        4
 70
     1
 43
0.0
 10
105.3262163218701
 20
371.6469613534391
 10
81.68448361203491
 20
371.6469613534391
 10
81.68448361203491
 20
368.6469613534391
 10
105.3262163218701
 20
368.6469613534391
  0
HATCH
  5
2A6E
330
1F
100
AcDbEntity
  8
izolace
100
AcDbHatch
 10
0.0
 20
0.0
 30
0.0
210
0.0
220
0.0
230
1.0
  2
SOLID
 70
     1
 71
     0
 91
        1
 92
        7
 72
     0
 73
     1
 93
        4
 10
81.68448361203491
 20
371.6469613534391
 10
81.68448361203491
 20
368.6469613534391
 10
105.3262163218737
 20
368.6469613534391
 10
105.3262163218737
 20
371.6469613534391
 97
        0
 75
     0
 76
     1
 47
0.1901250437635136
 98
        1
 10
91.04227837037843
 20
370.8301498023593
  0
LWPOLYLINE
  5
2A6F
330
1F
100
AcDbEntity
  8
izolace
100
AcDbPolyline
 90
        4
 70
     1
 43
0.0
 10
58.04275090219971
 20
371.6469613534391
 10
34.40101819236451
 20
371.6469613534391
 10
34.40101819236451
 20
368.6469613534391
 10
58.04275090219971
 20
368.6469613534391
  0
HATCH
  5
2A70
330
1F
100
AcDbEntity
  8
izolace
100
AcDbHatch
 10
0.0
 20
0.0
 30
0.0
210
0.0
220
0.0
230
1.0
  2
SOLID
 70
     1
 71
     0
 91
        1
 92
        7
 72
     0
 73
     1
 93
        4
 10
34.40101819236815
 20
371.6469613534391
 10
34.40101819236451
 20
368.6469613534391
 10
58.04275090220335
 20
368.6469613534391
 10
58.04275090220335
 20
371.6469613534391
 97
        0
 75
     0
 76
     1
 47
0.1901250437635136
 98
        1
 10
43.75881295070803
 20
370.8301498023593
  0
LWPOLYLINE
  5
2A71
330
1F
100
AcDbEntity
  8
izolace
100
AcDbPolyline
 90
        4
 70
     1
 43
0.0
 10
10.75928548252932
 20
371.6469613534391
 10
-12.88244722730587
 20
371.6469613534391
 10
-12.88244722730587
 20
368.6469613534391
 10
10.75928548252932
 20
368.6469613534391
  0
HATCH
  5
2A72
330
1F
100
AcDbEntity
  8
izolace
100
AcDbHatch
 10
0.0
 20
0.0
 30
0.0
210
0.0
220
0.0
230
1.0
  2
SOLID
 70
     1
 71
     0
 91
        1
 92
        7
 72
     0
 73
     1
 93
        4
 10
-12.88244722730587
 20
371.6469613534391
 10
-12.88244722730223
 20
368.6469613534391
 10
10.75928548253296
 20
368.6469613534391
 10
10.75928548253296
 20
371.6469613534391
 97
        0
 75
     0
 76
     1
 47
0.1901250437635136
 98
        1
 10
-3.524652468962358
 20
370.8301498023593
  0
LINE
  5
2A73
330
1F
100
AcDbEntity
  8
izolace
100
AcDbLine
 10
-30.29636465426438
 20
368.6469613534391
 30
0.0
 11
8.59425353823326
 21
368.6469613534391
 31
0.0
  0
LWPOLYLINE
  5
2A74
330
1F
100
AcDbEntity
  8
izolace
100
AcDbPolyline
 90
        4
 70
     1
 43
0.0
 10
199.8931471612108
 20
371.6469613534391
 10
176.2514144513756
 20
371.6469613534391
 10
176.2514144513756
 20
368.6469613534391
 10
199.8931471612108
 20
368.6469613534391
  0
HATCH
  5
2A75
330
1F
100
AcDbEntity
  8
izolace
100
AcDbHatch
 10
0.0
 20
0.0
 30
0.0
210
0.0
220
0.0
230
1.0
  2
SOLID
 70
     1
 71
     0
 91
        1
 92
        7
 72
     0
 73
     1
 93
        4
 10
176.2514144513793
 20
371.6469613534391
 10
176.2514144513793
 20
368.6469613534391
 10
199.8931471612145
 20
368.6469613534391
 10
199.8931471612145
 20
371.6469613534391
 97
        0
 75
     0
 76
     1
 47
0.1901250437635136
 98
        1
 10
185.6092092097192
 20
370.8301498023593
  0
LWPOLYLINE
  5
2A76
330
1F
100
AcDbEntity
  8
izolace
100
AcDbPolyline
 90
        4
 70
     1
 43
0.0
 10
152.6096817415405
 20
371.6469613534391
 10
128.9679490317052
 20
371.6469613534391
 10
128.9679490317052
 20
368.6469613534391
 10
152.6096817415405
 20
368.6469613534391
  0
HATCH
  5
2A77
330
1F
100
AcDbEntity
  8
izolace
100
AcDbHatch
 10
0.0
 20
0.0
 30
0.0
210
0.0
220
0.0
230
1.0
  2
SOLID
 70
     1
 71
     0
 91
        1
 92
        7
 72
     0
 73
     1
 93
        4
 10
128.9679490317052
 20
371.6469613534391
 10
128.9679490317089
 20
368.6469613534391
 10
152.6096817415441
 20
368.6469613534391
 10
152.6096817415441
 20
371.6469613534391
 97
        0
 75
     0
 76
     1
 47
0.1901250437635136
 98
        1
 10
138.3257437900488
 20
370.8301498023593
  0
LINE
  5
2A78
330
1F
100
AcDbEntity
  8
CETRIS
100
AcDbLine
 10
-12.15197632983267
 20
446.6469613534395
 30
0.0
 11
-12.15197632983267
 21
458.6469613534391
 31
0.0
  0
INSERT
  5
2A79
330
1F
100
AcDbEntity
  8
POPIS
100
AcDbBlockReference
  2
E_PUNKT
 10
45.06286941436861
 20
465.0172514356113
 30
0.0
 50
270.0
  0
LINE
  5
2A7A
330
1F
100
AcDbEntity
  8
POPIS
100
AcDbLine
 10
44.86504817353716
 20
542.9404201066263
 30
0.0
 11
44.86504817353716
 21
466.2188770512621
 31
0.0
  0
LINE
  5
2A7B
330
1F
100
AcDbEntity
  8
POPIS
100
AcDbLine
 10
1.694696538301741
 20
542.9404201066263
 30
0.0
 11
1.694696538301741
 21
478.1086837398897
 31
0.0
  0
INSERT
  5
2A7C
330
1F
100
AcDbEntity
  8
POPIS
100
AcDbBlockReference
  2
E_PUNKT
 10
1.208590911368901
 20
479.2997445485006
 30
0.0
 50
270.0
  0
INSERT
  5
2A7D
330
1F
100
AcDbEntity
  8
POPIS
100
AcDbBlockReference
  2
E_PUNKT
 10
202.5831898527708
 20
416.5297238750708
 30
0.0
 50
270.0
  0
LINE
  5
2A7E
330
1F
100
AcDbEntity
  8
POPIS
100
AcDbLine
 10
202.6122581836448
 20
542.9404201066263
 30
0.0
 11
202.6122581836448
 21
417.752113499444
 31
0.0
  0
INSERT
  5
2A7F
330
1F
100
AcDbEntity
  8
POPIS
100
AcDbBlockReference
  2
E_PUNKT
 10
202.5831898527708
 20
436.568932464469
 30
0.0
 50
270.0
  0
INSERT
  5
2A80
330
1F
100
AcDbEntity
  8
POPIS
100
AcDbBlockReference
  2
E_PUNKT
 10
87.98643671784748
 20
453.1133295027784
 30
0.0
 50
270.0
  0
LINE
  5
2A81
330
1F
100
AcDbEntity
  8
POPIS
100
AcDbLine
 10
136.8590987020893
 20
542.9404201066263
 30
0.0
 11
136.8590987020893
 21
463.5927760233681
 31
0.0
  0
LINE
  5
2A82
330
1F
100
AcDbEntity
  8
POPIS
100
AcDbLine
 10
87.93470456367003
 20
542.9404201066263
 30
0.0
 11
87.93470456367003
 21
454.3331049061371
 31
0.0
  0
INSERT
  5
2A83
330
1F
100
AcDbEntity
  8
POPIS
100
AcDbBlockReference
  2
E_PUNKT
 10
136.8300303712153
 20
463.6203863989948
 30
0.0
 50
270.0
  0
LINE
  5
2A84
330
1F
100
AcDbEntity
  8
SPOJOVACÍ
  6
DASHED
100
AcDbLine
 10
134.9661567981916
 20
448.2031402508418
 30
0.0
 11
138.9296730705923
 21
446.8704215775706
 31
0.0
  0
LINE
  5
2A85
330
1F
100
AcDbEntity
  8
SPOJOVACÍ
  6
DASHED
100
AcDbLine
 10
134.9661567981916
 20
447.6188224193902
 30
0.0
 11
138.9296730705923
 21
446.2861037461189
 31
0.0
  0
LINE
  5
2A86
330
1F
100
AcDbEntity
  8
SPOJOVACÍ
  6
DASHED
100
AcDbLine
 10
139.2997714141188
 20
446.6562020917844
 30
0.0
 11
138.9296730705923
 21
446.8704215775706
 31
0.0
  0
LINE
  5
2A87
330
1F
100
AcDbEntity
  8
SPOJOVACÍ
  6
DASHED
100
AcDbLine
 10
139.2997714141188
 20
446.6562020917844
 30
0.0
 11
138.9296730705923
 21
446.2861037461189
 31
0.0
  0
LINE
  5
2A88
330
1F
100
AcDbEntity
  8
SPOJOVACÍ
  6
DASHED
100
AcDbLine
 10
134.5960584503868
 20
447.8321303327175
 30
0.0
 11
134.9661567981916
 21
448.2031402508418
 31
0.0
  0
LINE
  5
2A89
330
1F
100
AcDbEntity
  8
SPOJOVACÍ
  6
DASHED
100
AcDbLine
 10
134.5960584503868
 20
447.8321303327175
 30
0.0
 11
134.9661567981916
 21
447.6188224193902
 31
0.0
  0
LINE
  5
2A8A
330
1F
100
AcDbEntity
  8
SPOJOVACÍ
  6
DASHED
100
AcDbLine
 10
134.5960584503868
 20
447.8321303327175
 30
0.0
 11
139.2997714141188
 21
446.6562020917844
 31
0.0
  0
LINE
  5
2A8B
330
1F
100
AcDbEntity
  8
SPOJOVACÍ
  6
DASHED
100
AcDbLine
 10
134.9661567981916
 20
451.2605536774244
 30
0.0
 11
138.9296730705923
 21
449.9278350041532
 31
0.0
  0
LINE
  5
2A8C
330
1F
100
AcDbEntity
  8
SPOJOVACÍ
  6
DASHED
100
AcDbLine
 10
134.9661567981916
 20
450.67623584598
 30
0.0
 11
138.9296730705923
 21
449.3435171729725
 31
0.0
  0
LINE
  5
2A8D
330
1F
100
AcDbEntity
  8
SPOJOVACÍ
  6
DASHED
100
AcDbLine
 10
139.2997714141188
 20
449.7145270908259
 30
0.0
 11
138.9296730705923
 21
449.9278350041532
 31
0.0
  0
LINE
  5
2A8E
330
1F
100
AcDbEntity
  8
SPOJOVACÍ
  6
DASHED
100
AcDbLine
 10
139.2997714141188
 20
449.7145270908259
 30
0.0
 11
138.9296730705923
 21
449.3435171729725
 31
0.0
  0
LINE
  5
2A8F
330
1F
100
AcDbEntity
  8
SPOJOVACÍ
  6
DASHED
100
AcDbLine
 10
134.5960584503868
 20
450.8904553317588
 30
0.0
 11
134.9661567981916
 21
451.2605536774244
 31
0.0
  0
LINE
  5
2A90
330
1F
100
AcDbEntity
  8
SPOJOVACÍ
  6
DASHED
100
AcDbLine
 10
134.5960584503868
 20
450.8904553317588
 30
0.0
 11
134.9661567981916
 21
450.67623584598
 31
0.0
  0
LINE
  5
2A91
330
1F
100
AcDbEntity
  8
SPOJOVACÍ
  6
DASHED
100
AcDbLine
 10
134.5960584503868
 20
450.8904553317588
 30
0.0
 11
139.2997714141188
 21
449.7145270908259
 31
0.0
  0
LINE
  5
2A92
330
1F
100
AcDbEntity
  8
SPOJOVACÍ
  6
DASHED
100
AcDbLine
 10
134.9661567981916
 20
454.3179671040142
 30
0.0
 11
138.9296730705923
 21
452.9852484310067
 31
0.0
  0
LINE
  5
2A93
330
1F
100
AcDbEntity
  8
SPOJOVACÍ
  6
DASHED
100
AcDbLine
 10
134.9661567981916
 20
453.7336492725626
 30
0.0
 11
138.9296730705923
 21
452.4009305995623
 31
0.0
  0
LINE
  5
2A94
330
1F
100
AcDbEntity
  8
SPOJOVACÍ
  6
DASHED
100
AcDbLine
 10
139.2997714141188
 20
452.7719405174157
 30
0.0
 11
138.9296730705923
 21
452.9852484310067
 31
0.0
  0
LINE
  5
2A95
330
1F
100
AcDbEntity
  8
SPOJOVACÍ
  6
DASHED
100
AcDbLine
 10
139.2997714141188
 20
452.7719405174157
 30
0.0
 11
138.9296730705923
 21
452.4009305995623
 31
0.0
  0
LINE
  5
2A96
330
1F
100
AcDbEntity
  8
SPOJOVACÍ
  6
DASHED
100
AcDbLine
 10
134.5960584503868
 20
453.9478687583486
 30
0.0
 11
134.9661567981916
 21
454.3179671040142
 31
0.0
  0
LINE
  5
2A97
330
1F
100
AcDbEntity
  8
SPOJOVACÍ
  6
DASHED
100
AcDbLine
 10
134.5960584503868
 20
453.9478687583486
 30
0.0
 11
134.9661567981916
 21
453.7336492725626
 31
0.0
  0
LINE
  5
2A98
330
1F
100
AcDbEntity
  8
SPOJOVACÍ
  6
DASHED
100
AcDbLine
 10
134.5960584503868
 20
453.9478687583486
 30
0.0
 11
139.2997714141188
 21
452.7719405174157
 31
0.0
  0
LINE
  5
2A99
330
1F
100
AcDbEntity
  8
SPOJOVACÍ
  6
DASHED
100
AcDbLine
 10
135.9515664331652
 20
438.9087492850848
 30
0.0
 11
138.0627678317928
 21
438.6042841436265
 31
0.0
  0
LINE
  5
2A9A
330
1F
100
AcDbEntity
  8
SPOJOVACÍ
  6
DASHED
100
AcDbLine
 10
136.3216647766916
 20
439.2788476307505
 30
0.0
 11
137.6926694882663
 21
438.8175920572175
 31
0.0
  0
LINE
  5
2A9B
330
1F
100
AcDbEntity
  8
SPOJOVACÍ
  6
DASHED
100
AcDbLine
 10
136.3216647766916
 20
438.6945297993061
 30
0.0
 11
137.6926694882663
 21
438.2332742257731
 31
0.0
  0
LINE
  5
2A9C
330
1F
100
AcDbEntity
  8
SPOJOVACÍ
  6
DASHED
100
AcDbLine
 10
138.0627678317928
 20
438.6042841436265
 30
0.0
 11
137.6926694882663
 21
438.8175920572175
 31
0.0
  0
LINE
  5
2A9D
330
1F
100
AcDbEntity
  8
SPOJOVACÍ
  6
DASHED
100
AcDbLine
 10
138.0627678317928
 20
438.6042841436265
 30
0.0
 11
137.6926694882663
 21
438.2332742257731
 31
0.0
  0
LINE
  5
2A9E
330
1F
100
AcDbEntity
  8
SPOJOVACÍ
  6
DASHED
100
AcDbLine
 10
135.9515664331652
 20
438.9087492850848
 30
0.0
 11
136.3216647766916
 21
439.2788476307505
 31
0.0
  0
LINE
  5
2A9F
330
1F
100
AcDbEntity
  8
SPOJOVACÍ
  6
DASHED
100
AcDbLine
 10
135.9515664331652
 20
438.9087492850848
 30
0.0
 11
136.3216647766916
 21
438.6945297993061
 31
0.0
  0
LINE
  5
2AA0
330
1F
100
AcDbEntity
  8
SPOJOVACÍ
  6
DASHED
100
AcDbLine
 10
135.3982420569032
 20
441.8622434718381
 30
0.0
 11
138.4520091950057
 21
441.2414627494036
 31
0.0
  0
LINE
  5
2AA1
330
1F
100
AcDbEntity
  8
SPOJOVACÍ
  6
DASHED
100
AcDbLine
 10
135.7683404047079
 20
442.2332533899625
 30
0.0
 11
138.0819108514792
 21
441.4547706627309
 31
0.0
  0
LINE
  5
2AA2
330
1F
100
AcDbEntity
  8
SPOJOVACÍ
  6
DASHED
100
AcDbLine
 10
135.7683404047079
 20
441.6489355585108
 30
0.0
 11
138.0819108514792
 21
440.8704528315502
 31
0.0
  0
LINE
  5
2AA3
330
1F
100
AcDbEntity
  8
SPOJOVACÍ
  6
DASHED
100
AcDbLine
 10
138.4520091950057
 20
441.2414627494036
 30
0.0
 11
138.0819108514792
 21
441.4547706627309
 31
0.0
  0
LINE
  5
2AA4
330
1F
100
AcDbEntity
  8
SPOJOVACÍ
  6
DASHED
100
AcDbLine
 10
138.4520091950057
 20
441.2414627494036
 30
0.0
 11
138.0819108514792
 21
440.8704528315502
 31
0.0
  0
LINE
  5
2AA5
330
1F
100
AcDbEntity
  8
SPOJOVACÍ
  6
DASHED
100
AcDbLine
 10
135.3982420569032
 20
441.8622434718381
 30
0.0
 11
135.7683404047079
 21
442.2332533899625
 31
0.0
  0
LINE
  5
2AA6
330
1F
100
AcDbEntity
  8
SPOJOVACÍ
  6
DASHED
100
AcDbLine
 10
135.3982420569032
 20
441.8622434718381
 30
0.0
 11
135.7683404047079
 21
441.6489355585108
 31
0.0
  0
LINE
  5
2AA7
330
1F
100
AcDbEntity
  8
SPOJOVACÍ
  6
DASHED
100
AcDbLine
 10
134.8449176849194
 20
444.8166492310502
 30
0.0
 11
138.8877407446075
 21
443.8631446263916
 31
0.0
  0
LINE
  5
2AA8
330
1F
100
AcDbEntity
  8
SPOJOVACÍ
  6
DASHED
100
AcDbLine
 10
135.215927602238
 20
445.1867475767158
 30
0.0
 11
138.517642401081
 21
444.0764525397189
 31
0.0
  0
LINE
  5
2AA9
330
1F
100
AcDbEntity
  8
SPOJOVACÍ
  6
DASHED
100
AcDbLine
 10
135.215927602238
 20
444.602429745264
 30
0.0
 11
138.517642401081
 21
443.4921347082672
 31
0.0
  0
LINE
  5
2AAA
330
1F
100
AcDbEntity
  8
SPOJOVACÍ
  6
DASHED
100
AcDbLine
 10
138.8877407446075
 20
443.8631446263916
 30
0.0
 11
138.517642401081
 21
444.0764525397189
 31
0.0
  0
LINE
  5
2AAB
330
1F
100
AcDbEntity
  8
SPOJOVACÍ
  6
DASHED
100
AcDbLine
 10
138.8877407446075
 20
443.8631446263916
 30
0.0
 11
138.517642401081
 21
443.4921347082672
 31
0.0
  0
LINE
  5
2AAC
330
1F
100
AcDbEntity
  8
SPOJOVACÍ
  6
DASHED
100
AcDbLine
 10
134.8449176849194
 20
444.8166492310502
 30
0.0
 11
135.215927602238
 21
445.1867475767158
 31
0.0
  0
LINE
  5
2AAD
330
1F
100
AcDbEntity
  8
SPOJOVACÍ
  6
DASHED
100
AcDbLine
 10
134.8449176849194
 20
444.8166492310502
 30
0.0
 11
135.215927602238
 21
444.602429745264
 31
0.0
  0
LINE
  5
2AAE
330
1F
100
AcDbEntity
  8
SPOJOVACÍ
  6
DASHED
100
AcDbLine
 10
134.9661567981916
 20
457.3753805308679
 30
0.0
 11
138.9296730705923
 21
456.0435734297843
 31
0.0
  0
LINE
  5
2AAF
330
1F
100
AcDbEntity
  8
SPOJOVACÍ
  6
DASHED
100
AcDbLine
 10
134.9661567981916
 20
456.7910626994161
 30
0.0
 11
138.9296730705923
 21
455.4592555986037
 31
0.0
  0
LINE
  5
2AB0
330
1F
100
AcDbEntity
  8
SPOJOVACÍ
  6
DASHED
100
AcDbLine
 10
139.2997714141188
 20
455.8293539439983
 30
0.0
 11
138.9296730705923
 21
456.0435734297843
 31
0.0
  0
LINE
  5
2AB1
330
1F
100
AcDbEntity
  8
SPOJOVACÍ
  6
DASHED
100
AcDbLine
 10
139.2997714141188
 20
455.8293539439983
 30
0.0
 11
138.9296730705923
 21
455.4592555986037
 31
0.0
  0
LINE
  5
2AB2
330
1F
100
AcDbEntity
  8
SPOJOVACÍ
  6
DASHED
100
AcDbLine
 10
134.5960584503868
 20
457.0052821852023
 30
0.0
 11
134.9661567981916
 21
457.3753805308679
 31
0.0
  0
LINE
  5
2AB3
330
1F
100
AcDbEntity
  8
SPOJOVACÍ
  6
DASHED
100
AcDbLine
 10
134.5960584503868
 20
457.0052821852023
 30
0.0
 11
134.9661567981916
 21
456.7910626994161
 31
0.0
  0
LINE
  5
2AB4
330
1F
100
AcDbEntity
  8
SPOJOVACÍ
  6
DASHED
100
AcDbLine
 10
134.5960584503868
 20
457.0052821852023
 30
0.0
 11
139.2997714141188
 21
455.8293539439983
 31
0.0
  0
LINE
  5
2AB5
330
1F
100
AcDbEntity
  8
SPOJOVACÍ
  6
DASHED
100
AcDbLine
 10
134.9661567981916
 20
460.4337055296382
 30
0.0
 11
138.9296730705923
 21
459.100986856638
 31
0.0
  0
LINE
  5
2AB6
330
1F
100
AcDbEntity
  8
SPOJOVACÍ
  6
DASHED
100
AcDbLine
 10
134.9661567981916
 20
459.8493876984576
 30
0.0
 11
138.9296730705923
 21
458.5166690251862
 31
0.0
  0
LINE
  5
2AB7
330
1F
100
AcDbEntity
  8
SPOJOVACÍ
  6
DASHED
100
AcDbLine
 10
139.2997714141188
 20
458.8867673708518
 30
0.0
 11
138.9296730705923
 21
459.100986856638
 31
0.0
  0
LINE
  5
2AB8
330
1F
100
AcDbEntity
  8
SPOJOVACÍ
  6
DASHED
100
AcDbLine
 10
139.2997714141188
 20
458.8867673708518
 30
0.0
 11
138.9296730705923
 21
458.5166690251862
 31
0.0
  0
LINE
  5
2AB9
330
1F
100
AcDbEntity
  8
SPOJOVACÍ
  6
DASHED
100
AcDbLine
 10
134.5960584503868
 20
460.0626956117848
 30
0.0
 11
134.9661567981916
 21
460.4337055296382
 31
0.0
  0
LINE
  5
2ABA
330
1F
100
AcDbEntity
  8
SPOJOVACÍ
  6
DASHED
100
AcDbLine
 10
134.5960584503868
 20
460.0626956117848
 30
0.0
 11
134.9661567981916
 21
459.8493876984576
 31
0.0
  0
LINE
  5
2ABB
330
1F
100
AcDbEntity
  8
SPOJOVACÍ
  6
DASHED
100
AcDbLine
 10
134.5960584503868
 20
460.0626956117848
 30
0.0
 11
139.2997714141188
 21
458.8867673708518
 31
0.0
  0
LINE
  5
2ABC
330
1F
100
AcDbEntity
  8
SPOJOVACÍ
  6
DASHED
100
AcDbLine
 10
138.0299512308943
 20
444.2496512730413
 30
0.0
 11
138.2706063141327
 21
446.1812729341017
 31
0.0
  0
LINE
  5
2ABD
330
1F
100
AcDbEntity
  8
SPOJOVACÍ
  6
DASHED
100
AcDbLine
 10
137.6981389181842
 20
441.5969759384607
 30
0.0
 11
137.959760164415
 21
443.690857465257
 31
0.0
  0
LINE
  5
2ABE
330
1F
100
AcDbEntity
  8
SPOJOVACÍ
  6
DASHED
100
AcDbLine
 10
137.3654150402385
 20
438.9342733090161
 30
0.0
 11
137.6279478559831
 21
441.0363589863009
 31
0.0
  0
LINE
  5
2ABF
330
1F
100
AcDbEntity
  8
SPOJOVACÍ
  6
DASHED
100
AcDbLine
 10
136.5696124374321
 20
438.6243387338963
 30
0.0
 11
136.9479149322528
 21
435.5970071924475
 31
0.0
  0
LINE
  5
2AC0
330
1F
100
AcDbEntity
  8
SPOJOVACÍ
  6
DASHED
100
AcDbLine
 10
136.2095413885058
 20
441.506730282781
 30
0.0
 11
136.4939519367567
 21
439.2323574446327
 31
0.0
  0
LINE
  5
2AC1
330
1F
100
AcDbEntity
  8
SPOJOVACÍ
  6
DASHED
100
AcDbLine
 10
135.8476471919952
 20
444.4000606989957
 30
0.0
 11
136.1320577445244
 21
442.1247762886523
 31
0.0
  0
LINE
  5
2AC2
330
1F
100
AcDbEntity
  8
SPOJOVACÍ
  6
DASHED
100
AcDbLine
 10
136.9479149322528
 20
435.5970071924475
 30
0.0
 11
137.2952239737592
 21
438.3763910736907
 31
0.0
  0
LINE
  5
2AC3
330
1F
100
AcDbEntity
  8
SPOJOVACÍ
  6
DASHED
100
AcDbLine
 10
135.6252235546512
 20
446.1812729341017
 30
0.0
 11
135.7719866913198
 21
445.0080794097321
 31
0.0
  0
LINE
  5
2AC4
330
1F
100
AcDbEntity
  8
SPOJOVACÍ
  6
DASHED
100
AcDbLine
 10
138.2706063141327
 20
446.5112620992276
 30
0.0
 11
138.2706063141327
 21
446.1812729341017
 31
0.0
  0
LINE
  5
2AC5
330
1F
100
AcDbEntity
  8
SPOJOVACÍ
  6
DASHED
100
AcDbLine
 10
138.2706063141327
 20
449.5714102429083
 30
0.0
 11
138.2706063141327
 21
447.10287250898
 31
0.0
  0
LINE
  5
2AC6
330
1F
100
AcDbEntity
  8
SPOJOVACÍ
  6
DASHED
100
AcDbLine
 10
135.6252235546512
 20
447.4036913611525
 30
0.0
 11
135.6252235546512
 21
446.1812729341017
 31
0.0
  0
LINE
  5
2AC7
330
1F
100
AcDbEntity
  8
SPOJOVACÍ
  6
DASHED
100
AcDbLine
 10
135.6252235546512
 20
450.4556353543448
 30
0.0
 11
135.6252235546512
 21
447.9880091926043
 31
0.0
  0
LINE
  5
2AC8
330
1F
100
AcDbEntity
  8
SPOJOVACÍ
  6
DASHED
100
AcDbLine
 10
138.2706063141327
 20
452.6306468141374
 30
0.0
 11
138.2706063141327
 21
450.1602859355625
 31
0.0
  0
LINE
  5
2AC9
330
1F
100
AcDbEntity
  8
SPOJOVACÍ
  6
DASHED
100
AcDbLine
 10
138.2706063141327
 20
455.6907949575543
 30
0.0
 11
138.2706063141327
 21
453.2131415009425
 31
0.0
  0
LINE
  5
2ACA
330
1F
100
AcDbEntity
  8
SPOJOVACÍ
  6
DASHED
100
AcDbLine
 10
138.2706063141327
 20
458.7436505229343
 30
0.0
 11
138.2706063141327
 21
456.2751127890059
 31
0.0
  0
LINE
  5
2ACB
330
1F
100
AcDbEntity
  8
SPOJOVACÍ
  6
DASHED
100
AcDbLine
 10
135.6252235546512
 20
453.5258107928966
 30
0.0
 11
135.6252235546512
 21
451.0481573362849
 31
0.0
  0
LINE
  5
2ACC
330
1F
100
AcDbEntity
  8
SPOJOVACÍ
  6
DASHED
100
AcDbLine
 10
135.6252235546512
 20
456.5786663582766
 30
0.0
 11
135.6252235546512
 21
454.1083054797018
 31
0.0
  0
LINE
  5
2ACD
330
1F
100
AcDbEntity
  8
SPOJOVACÍ
  6
DASHED
100
AcDbLine
 10
135.6252235546512
 20
459.6388145016935
 30
0.0
 11
135.6252235546512
 21
457.1702767677652
 31
0.0
  0
LINE
  5
2ACE
330
1F
100
AcDbEntity
  8
SPOJOVACÍ
  6
DASHED
100
AcDbLine
 10
135.6252235546512
 20
464.1793560277728
 30
0.0
 11
135.6252235546512
 21
460.2222207606864
 31
0.0
  0
LINE
  5
2ACF
330
1F
100
AcDbEntity
  8
SPOJOVACÍ
  6
DASHED
100
AcDbLine
 10
138.2706063141327
 20
464.1793560277728
 30
0.0
 11
138.2706063141327
 21
459.3352609324228
 31
0.0
  0
LINE
  5
2AD0
330
1F
100
AcDbEntity
  8
SPOJOVACÍ
  6
DASHED
100
AcDbLine
 10
131.9497641213915
 20
469.4710331122423
 30
0.0
 11
133.2724555032714
 21
468.7417752884975
 31
0.0
  0
LINE
  5
2AD1
330
1F
100
AcDbEntity
  8
SPOJOVACÍ
  6
DASHED
100
AcDbLine
 10
133.2724555032714
 20
468.7417752884975
 30
0.0
 11
134.3608728056228
 21
467.6943787388736
 31
0.0
  0
LINE
  5
2AD2
330
1F
100
AcDbEntity
  8
SPOJOVACÍ
  6
DASHED
100
AcDbLine
 10
134.3608728056228
 20
467.6943787388736
 30
0.0
 11
135.1411786753546
 21
466.401769246142
 31
0.0
  0
LINE
  5
2AD3
330
1F
100
AcDbEntity
  8
SPOJOVACÍ
  6
DASHED
100
AcDbLine
 10
135.1411786753546
 20
466.401769246142
 30
0.0
 11
135.560501922368
 21
464.9505461764329
 31
0.0
  0
LINE
  5
2AD4
330
1F
100
AcDbEntity
  8
SPOJOVACÍ
  6
DASHED
100
AcDbLine
 10
135.560501922368
 20
464.9505461764329
 30
0.0
 11
135.6252235546512
 21
464.1793560277728
 31
0.0
  0
LINE
  5
2AD5
330
1F
100
AcDbEntity
  8
SPOJOVACÍ
  6
DASHED
100
AcDbLine
 10
140.0326755279479
 20
468.2413221068836
 30
0.0
 11
141.2450666606696
 21
469.1410439471164
 31
0.0
  0
LINE
  5
2AD6
330
1F
100
AcDbEntity
  8
SPOJOVACÍ
  6
DASHED
100
AcDbLine
 10
141.2450666606696
 20
469.1410439471164
 30
0.0
 11
141.9460657431141
 21
469.4710331122423
 31
0.0
  0
LINE
  5
2AD7
330
1F
100
AcDbEntity
  8
SPOJOVACÍ
  6
DASHED
100
AcDbLine
 10
131.9497641213915
 20
469.4710331122423
 30
0.0
 11
141.9460657431141
 21
469.4710331122423
 31
0.0
  0
LINE
  5
2AD8
330
1F
100
AcDbEntity
  8
SPOJOVACÍ
  6
DASHED
100
AcDbLine
 10
131.9497641213915
 20
470.6469613534391
 30
0.0
 11
131.9497641213915
 21
469.4710331122423
 31
0.0
  0
LINE
  5
2AD9
330
1F
100
AcDbEntity
  8
SPOJOVACÍ
  6
DASHED
100
AcDbLine
 10
131.9497641213915
 20
470.6469613534391
 30
0.0
 11
141.9460657431141
 21
470.6469613534391
 31
0.0
  0
LINE
  5
2ADA
330
1F
100
AcDbEntity
  8
SPOJOVACÍ
  6
DASHED
100
AcDbLine
 10
141.9460657431141
 20
470.6469613534391
 30
0.0
 11
141.9460657431141
 21
469.4710331122423
 31
0.0
  0
LINE
  5
2ADB
330
1F
100
AcDbEntity
  8
SPOJOVACÍ
  6
DASHED
100
AcDbLine
 10
138.2706063141327
 20
464.1793560277728
 30
0.0
 11
138.4930299471984
 21
465.6725114221335
 31
0.0
  0
LINE
  5
2ADC
330
1F
100
AcDbEntity
  8
SPOJOVACÍ
  6
DASHED
100
AcDbLine
 10
138.4930299471984
 20
465.6725114221335
 30
0.0
 11
139.0937560793631
 21
467.0581012876428
 31
0.0
  0
LINE
  5
2ADD
330
1F
100
AcDbEntity
  8
SPOJOVACÍ
  6
DASHED
100
AcDbLine
 10
139.0937560793631
 20
467.0581012876428
 30
0.0
 11
140.0326755279479
 21
468.2413221068836
 31
0.0
  0
LINE
  5
2ADE
330
1F
100
AcDbEntity
  8
POPIS
100
AcDbLine
 10
348.0828361318549
 20
542.9404201066263
 30
0.0
 11
348.0828361318549
 21
324.0412688758993
 31
0.0
  0
LINE
  5
2ADF
330
1F
100
AcDbEntity
  8
POPIS
100
AcDbLine
 10
298.4767120840065
 20
542.9404201066263
 30
0.0
 11
298.4767120840065
 21
371.3188561603205
 31
0.0
  0
LINE
  5
2AE0
330
1F
100
AcDbEntity
  8
POPIS
100
AcDbLine
 10
251.7007736479304
 20
542.9404201066263
 30
0.0
 11
251.7007736479304
 21
390.6216371131631
 31
0.0
  0
LWPOLYLINE
  5
2AE1
330
1F
100
AcDbEntity
  8
izolace
100
AcDbPolyline
 90
        4
 70
     1
 43
0.0
 10
389.0270088398924
 20
371.6469613534391
 10
365.3852761300572
 20
371.6469613534391
 10
365.3852761300572
 20
368.6469613534391
 10
389.0270088398924
 20
368.6469613534391
  0
HATCH
  5
2AE2
330
1F
100
AcDbEntity
  8
izolace
100
AcDbHatch
 10
0.0
 20
0.0
 30
0.0
210
0.0
220
0.0
230
1.0
  2
SOLID
 70
     1
 71
     0
 91
        1
 92
        7
 72
     0
 73
     1
 93
        4
 10
365.3852761300608
 20
371.6469613534391
 10
365.3852761300608
 20
368.6469613534391
 10
389.0270088398961
 20
368.6469613534391
 10
389.0270088398961
 20
371.6469613534391
 97
        0
 75
     0
 76
     1
 47
0.1901250437635136
 98
        1
 10
374.7430708884007
 20
370.8301498023593
  0
INSERT
  5
2AE3
330
1F
100
AcDbEntity
  8
POPIS
100
AcDbBlockReference
  2
E_PUNKT
 10
348.2702946709601
 20
323.0837016078594
 30
0.0
 50
270.0
  0
INSERT
  5
2AE4
330
1F
100
AcDbEntity
  8
POPIS
100
AcDbBlockReference
  2
E_PUNKT
 10
297.9903505127499
 20
370.1831166778656
 30
0.0
 50
270.0
  0
INSERT
  5
2AE5
330
1F
100
AcDbEntity
  8
POPIS
100
AcDbBlockReference
  2
E_PUNKT
 10
251.6717053170564
 20
389.39924748879
 30
0.0
 50
270.0
  0
LWPOLYLINE
  5
2AE6
330
1F
100
AcDbEntity
  8
izolace
100
AcDbPolyline
 90
        4
 70
     1
 43
0.0
 10
341.743543420222
 20
371.6469613534391
 10
318.1018107103868
 20
371.6469613534391
 10
318.1018107103868
 20
368.6469613534391
 10
341.743543420222
 20
368.6469613534391
  0
HATCH
  5
2AE7
330
1F
100
AcDbEntity
  8
izolace
100
AcDbHatch
 10
0.0
 20
0.0
 30
0.0
210
0.0
220
0.0
230
1.0
  2
SOLID
 70
     1
 71
     0
 91
        1
 92
        7
 72
     0
 73
     1
 93
        4
 10
318.1018107103868
 20
371.6469613534391
 10
318.1018107103905
 20
368.6469613534391
 10
341.7435434202257
 20
368.6469613534391
 10
341.7435434202257
 20
371.6469613534391
 97
        0
 75
     0
 76
     1
 47
0.1901250437635136
 98
        1
 10
327.4596054687303
 20
370.8301498023593
  0
LWPOLYLINE
  5
2AE8
330
1F
100
AcDbEntity
  8
STAVBA OBRYS
100
AcDbPolyline
 90
        4
 70
     1
 43
0.0
 10
294.4600780005517
 20
371.6469613534391
 10
270.8183452907164
 20
371.6469613534391
 10
270.8183452907164
 20
368.6469613534391
 10
294.4600780005517
 20
368.6469613534391
  0
HATCH
  5
2AE9
330
1F
100
AcDbEntity
  8
izolace
100
AcDbHatch
 10
0.0
 20
0.0
 30
0.0
210
0.0
220
0.0
230
1.0
  2
SOLID
 70
     1
 71
     0
 91
        1
 92
        7
 72
     0
 73
     1
 93
        4
 10
270.8183452907164
 20
371.6469613534391
 10
270.8183452907201
 20
368.6469613534391
 10
294.4600780005517
 20
368.6469613534391
 10
294.4600780005553
 20
371.6469613534391
 97
        0
 75
     0
 76
     1
 47
0.1901250437635136
 98
        1
 10
280.17614004906
 20
370.8301498023593
  0
HATCH
  5
2AEA
330
1F
100
AcDbEntity
  8
izolace
100
AcDbHatch
 10
0.0
 20
0.0
 30
0.0
210
0.0
220
0.0
230
1.0
  2
SOLID
 70
     1
 71
     0
 91
        1
 92
        7
 72
     0
 73
     1
 93
        4
 10
507.2356723890684
 20
371.6469613534391
 10
507.235672389072
 20
368.6469613534391
 10
530.8774050989073
 20
368.6469613534391
 10
530.8774050989073
 20
371.6469613534391
 97
        0
 75
     0
 76
     1
 47
0.1901250437635136
 98
        1
 10
516.5934671474119
 20
370.8301498023593
  0
LWPOLYLINE
  5
2AEB
330
1F
100
AcDbEntity
  8
izolace
100
AcDbPolyline
 90
        4
 70
     1
 43
0.0
 10
530.8774050989036
 20
371.6469613534391
 10
507.2356723890684
 20
371.6469613534391
 10
507.2356723890684
 20
368.6469613534391
 10
530.8774050989036
 20
368.6469613534391
  0
LWPOLYLINE
  5
2AEC
330
1F
100
AcDbEntity
  8
izolace
100
AcDbPolyline
 90
        4
 70
     1
 43
0.0
 10
483.5939396792332
 20
371.6469613534391
 10
459.952206969398
 20
371.6469613534391
 10
459.952206969398
 20
368.6469613534391
 10
483.5939396792332
 20
368.6469613534391
  0
HATCH
  5
2AED
330
1F
100
AcDbEntity
  8
izolace
100
AcDbHatch
 10
0.0
 20
0.0
 30
0.0
210
0.0
220
0.0
230
1.0
  2
SOLID
 70
     1
 71
     0
 91
        1
 92
        7
 72
     0
 73
     1
 93
        4
 10
459.952206969398
 20
371.6469613534391
 10
459.9522069694017
 20
368.6469613534391
 10
483.5939396792368
 20
368.6469613534391
 10
483.5939396792368
 20
371.6469613534391
 97
        0
 75
     0
 76
     1
 47
0.1901250437635136
 98
        1
 10
469.3100017277415
 20
370.8301498023593
  0
LWPOLYLINE
  5
2AEE
330
1F
100
AcDbEntity
  8
izolace
100
AcDbPolyline
 90
        4
 70
     1
 43
0.0
 10
436.3104742595628
 20
371.6469613534391
 10
412.6687415497277
 20
371.6469613534391
 10
412.6687415497277
 20
368.6469613534391
 10
436.3104742595628
 20
368.6469613534391
  0
HATCH
  5
2AEF
330
1F
100
AcDbEntity
  8
izolace
100
AcDbHatch
 10
0.0
 20
0.0
 30
0.0
210
0.0
220
0.0
230
1.0
  2
SOLID
 70
     1
 71
     0
 91
        1
 92
        7
 72
     0
 73
     1
 93
        4
 10
412.6687415497277
 20
371.6469613534391
 10
412.6687415497313
 20
368.6469613534391
 10
436.3104742595664
 20
368.6469613534391
 10
436.3104742595555
 20
371.6469613534391
 97
        0
 75
     0
 76
     1
 47
0.1901250437635136
 98
        1
 10
422.0265363080711
 20
370.8301498023593
  0
LINE
  5
2AF0
330
1F
100
AcDbEntity
  8
CETRIS
100
AcDbLine
 10
317.2900961983791
 20
470.6469613534391
 30
0.0
 11
317.2900961983791
 21
458.6469613534391
 31
0.0
  0
LINE
  5
2AF1
330
1F
100
AcDbEntity
  8
SPOJOVACÍ
  6
DASHED
100
AcDbLine
 10
342.0226917225868
 20
448.2031402508418
 30
0.0
 11
338.059175450186
 21
446.8704215775706
 31
0.0
  0
LINE
  5
2AF2
330
1F
100
AcDbEntity
  8
SPOJOVACÍ
  6
DASHED
100
AcDbLine
 10
342.0226917225868
 20
447.6188224193902
 30
0.0
 11
338.059175450186
 21
446.2861037461189
 31
0.0
  0
LINE
  5
2AF3
330
1F
100
AcDbEntity
  8
SPOJOVACÍ
  6
DASHED
100
AcDbLine
 10
337.6890771066596
 20
446.6562020917844
 30
0.0
 11
338.059175450186
 21
446.8704215775706
 31
0.0
  0
LINE
  5
2AF4
330
1F
100
AcDbEntity
  8
SPOJOVACÍ
  6
DASHED
100
AcDbLine
 10
337.6890771066596
 20
446.6562020917844
 30
0.0
 11
338.059175450186
 21
446.2861037461189
 31
0.0
  0
LINE
  5
2AF5
330
1F
100
AcDbEntity
  8
SPOJOVACÍ
  6
DASHED
100
AcDbLine
 10
342.3927900703915
 20
447.8321303327175
 30
0.0
 11
342.0226917225868
 21
448.2031402508418
 31
0.0
  0
LINE
  5
2AF6
330
1F
100
AcDbEntity
  8
SPOJOVACÍ
  6
DASHED
100
AcDbLine
 10
342.3927900703915
 20
447.8321303327175
 30
0.0
 11
342.0226917225868
 21
447.6188224193902
 31
0.0
  0
LINE
  5
2AF7
330
1F
100
AcDbEntity
  8
SPOJOVACÍ
  6
DASHED
100
AcDbLine
 10
342.3927900703915
 20
447.8321303327175
 30
0.0
 11
337.6890771066596
 21
446.6562020917844
 31
0.0
  0
LINE
  5
2AF8
330
1F
100
AcDbEntity
  8
SPOJOVACÍ
  6
DASHED
100
AcDbLine
 10
342.0226917225868
 20
451.2605536774244
 30
0.0
 11
338.059175450186
 21
449.9278350041532
 31
0.0
  0
LINE
  5
2AF9
330
1F
100
AcDbEntity
  8
SPOJOVACÍ
  6
DASHED
100
AcDbLine
 10
342.0226917225868
 20
450.67623584598
 30
0.0
 11
338.059175450186
 21
449.3435171729725
 31
0.0
  0
LINE
  5
2AFA
330
1F
100
AcDbEntity
  8
SPOJOVACÍ
  6
DASHED
100
AcDbLine
 10
337.6890771066596
 20
449.7145270908259
 30
0.0
 11
338.059175450186
 21
449.9278350041532
 31
0.0
  0
LINE
  5
2AFB
330
1F
100
AcDbEntity
  8
SPOJOVACÍ
  6
DASHED
100
AcDbLine
 10
337.6890771066596
 20
449.7145270908259
 30
0.0
 11
338.059175450186
 21
449.3435171729725
 31
0.0
  0
LINE
  5
2AFC
330
1F
100
AcDbEntity
  8
SPOJOVACÍ
  6
DASHED
100
AcDbLine
 10
342.3927900703915
 20
450.8904553317588
 30
0.0
 11
342.0226917225868
 21
451.2605536774244
 31
0.0
  0
LINE
  5
2AFD
330
1F
100
AcDbEntity
  8
SPOJOVACÍ
  6
DASHED
100
AcDbLine
 10
342.3927900703915
 20
450.8904553317588
 30
0.0
 11
342.0226917225868
 21
450.67623584598
 31
0.0
  0
LINE
  5
2AFE
330
1F
100
AcDbEntity
  8
SPOJOVACÍ
  6
DASHED
100
AcDbLine
 10
342.3927900703915
 20
450.8904553317588
 30
0.0
 11
337.6890771066596
 21
449.7145270908259
 31
0.0
  0
LINE
  5
2AFF
330
1F
100
AcDbEntity
  8
SPOJOVACÍ
  6
DASHED
100
AcDbLine
 10
342.0226917225868
 20
454.3179671040142
 30
0.0
 11
338.059175450186
 21
452.9852484310067
 31
0.0
  0
LINE
  5
2B00
330
1F
100
AcDbEntity
  8
SPOJOVACÍ
  6
DASHED
100
AcDbLine
 10
342.0226917225868
 20
453.7336492725626
 30
0.0
 11
338.059175450186
 21
452.4009305995623
 31
0.0
  0
LINE
  5
2B01
330
1F
100
AcDbEntity
  8
SPOJOVACÍ
  6
DASHED
100
AcDbLine
 10
337.6890771066596
 20
452.7719405174157
 30
0.0
 11
338.059175450186
 21
452.9852484310067
 31
0.0
  0
LINE
  5
2B02
330
1F
100
AcDbEntity
  8
SPOJOVACÍ
  6
DASHED
100
AcDbLine
 10
337.6890771066596
 20
452.7719405174157
 30
0.0
 11
338.059175450186
 21
452.4009305995623
 31
0.0
  0
LINE
  5
2B03
330
1F
100
AcDbEntity
  8
SPOJOVACÍ
  6
DASHED
100
AcDbLine
 10
342.3927900703915
 20
453.9478687583486
 30
0.0
 11
342.0226917225868
 21
454.3179671040142
 31
0.0
  0
LINE
  5
2B04
330
1F
100
AcDbEntity
  8
SPOJOVACÍ
  6
DASHED
100
AcDbLine
 10
342.3927900703915
 20
453.9478687583486
 30
0.0
 11
342.0226917225868
 21
453.7336492725626
 31
0.0
  0
LINE
  5
2B05
330
1F
100
AcDbEntity
  8
SPOJOVACÍ
  6
DASHED
100
AcDbLine
 10
342.3927900703915
 20
453.9478687583486
 30
0.0
 11
337.6890771066596
 21
452.7719405174157
 31
0.0
  0
LINE
  5
2B06
330
1F
100
AcDbEntity
  8
SPOJOVACÍ
  6
DASHED
100
AcDbLine
 10
341.0372820876132
 20
438.9087492850848
 30
0.0
 11
338.9260806889856
 21
438.6042841436265
 31
0.0
  0
LINE
  5
2B07
330
1F
100
AcDbEntity
  8
SPOJOVACÍ
  6
DASHED
100
AcDbLine
 10
340.6671837440867
 20
439.2788476307505
 30
0.0
 11
339.2961790325121
 21
438.8175920572175
 31
0.0
  0
LINE
  5
2B08
330
1F
100
AcDbEntity
  8
SPOJOVACÍ
  6
DASHED
100
AcDbLine
 10
340.6671837440867
 20
438.6945297993061
 30
0.0
 11
339.2961790325121
 21
438.2332742257731
 31
0.0
  0
LINE
  5
2B09
330
1F
100
AcDbEntity
  8
SPOJOVACÍ
  6
DASHED
100
AcDbLine
 10
338.9260806889856
 20
438.6042841436265
 30
0.0
 11
339.2961790325121
 21
438.8175920572175
 31
0.0
  0
LINE
  5
2B0A
330
1F
100
AcDbEntity
  8
SPOJOVACÍ
  6
DASHED
100
AcDbLine
 10
338.9260806889856
 20
438.6042841436265
 30
0.0
 11
339.2961790325121
 21
438.2332742257731
 31
0.0
  0
LINE
  5
2B0B
330
1F
100
AcDbEntity
  8
SPOJOVACÍ
  6
DASHED
100
AcDbLine
 10
341.0372820876132
 20
438.9087492850848
 30
0.0
 11
340.6671837440867
 21
439.2788476307505
 31
0.0
  0
LINE
  5
2B0C
330
1F
100
AcDbEntity
  8
SPOJOVACÍ
  6
DASHED
100
AcDbLine
 10
341.0372820876132
 20
438.9087492850848
 30
0.0
 11
340.6671837440867
 21
438.6945297993061
 31
0.0
  0
LINE
  5
2B0D
330
1F
100
AcDbEntity
  8
SPOJOVACÍ
  6
DASHED
100
AcDbLine
 10
341.5906064638752
 20
441.8622434718381
 30
0.0
 11
338.5368393257726
 21
441.2414627494036
 31
0.0
  0
LINE
  5
2B0E
330
1F
100
AcDbEntity
  8
SPOJOVACÍ
  6
DASHED
100
AcDbLine
 10
341.2205081160704
 20
442.2332533899625
 30
0.0
 11
338.9069376692991
 21
441.4547706627309
 31
0.0
  0
LINE
  5
2B0F
330
1F
100
AcDbEntity
  8
SPOJOVACÍ
  6
DASHED
100
AcDbLine
 10
341.2205081160704
 20
441.6489355585108
 30
0.0
 11
338.9069376692991
 21
440.8704528315502
 31
0.0
  0
LINE
  5
2B10
330
1F
100
AcDbEntity
  8
SPOJOVACÍ
  6
DASHED
100
AcDbLine
 10
338.5368393257726
 20
441.2414627494036
 30
0.0
 11
338.9069376692991
 21
441.4547706627309
 31
0.0
  0
LINE
  5
2B11
330
1F
100
AcDbEntity
  8
SPOJOVACÍ
  6
DASHED
100
AcDbLine
 10
338.5368393257726
 20
441.2414627494036
 30
0.0
 11
338.9069376692991
 21
440.8704528315502
 31
0.0
  0
LINE
  5
2B12
330
1F
100
AcDbEntity
  8
SPOJOVACÍ
  6
DASHED
100
AcDbLine
 10
341.5906064638752
 20
441.8622434718381
 30
0.0
 11
341.2205081160704
 21
442.2332533899625
 31
0.0
  0
LINE
  5
2B13
330
1F
100
AcDbEntity
  8
SPOJOVACÍ
  6
DASHED
100
AcDbLine
 10
341.5906064638752
 20
441.8622434718381
 30
0.0
 11
341.2205081160704
 21
441.6489355585108
 31
0.0
  0
LINE
  5
2B14
330
1F
100
AcDbEntity
  8
SPOJOVACÍ
  6
DASHED
100
AcDbLine
 10
342.143930835859
 20
444.8166492310502
 30
0.0
 11
338.1011077761709
 21
443.8631446263916
 31
0.0
  0
LINE
  5
2B15
330
1F
100
AcDbEntity
  8
SPOJOVACÍ
  6
DASHED
100
AcDbLine
 10
341.7729209185404
 20
445.1867475767158
 30
0.0
 11
338.4712061196974
 21
444.0764525397189
 31
0.0
  0
LINE
  5
2B16
330
1F
100
AcDbEntity
  8
SPOJOVACÍ
  6
DASHED
100
AcDbLine
 10
341.7729209185404
 20
444.602429745264
 30
0.0
 11
338.4712061196974
 21
443.4921347082672
 31
0.0
  0
LINE
  5
2B17
330
1F
100
AcDbEntity
  8
SPOJOVACÍ
  6
DASHED
100
AcDbLine
 10
338.1011077761709
 20
443.8631446263916
 30
0.0
 11
338.4712061196974
 21
444.0764525397189
 31
0.0
  0
LINE
  5
2B18
330
1F
100
AcDbEntity
  8
SPOJOVACÍ
  6
DASHED
100
AcDbLine
 10
338.1011077761709
 20
443.8631446263916
 30
0.0
 11
338.4712061196974
 21
443.4921347082672
 31
0.0
  0
LINE
  5
2B19
330
1F
100
AcDbEntity
  8
SPOJOVACÍ
  6
DASHED
100
AcDbLine
 10
342.143930835859
 20
444.8166492310502
 30
0.0
 11
341.7729209185404
 21
445.1867475767158
 31
0.0
  0
LINE
  5
2B1A
330
1F
100
AcDbEntity
  8
SPOJOVACÍ
  6
DASHED
100
AcDbLine
 10
342.143930835859
 20
444.8166492310502
 30
0.0
 11
341.7729209185404
 21
444.602429745264
 31
0.0
  0
LINE
  5
2B1B
330
1F
100
AcDbEntity
  8
SPOJOVACÍ
  6
DASHED
100
AcDbLine
 10
342.0226917225868
 20
457.3753805308679
 30
0.0
 11
338.059175450186
 21
456.0435734297843
 31
0.0
  0
LINE
  5
2B1C
330
1F
100
AcDbEntity
  8
SPOJOVACÍ
  6
DASHED
100
AcDbLine
 10
342.0226917225868
 20
456.7910626994161
 30
0.0
 11
338.059175450186
 21
455.4592555986037
 31
0.0
  0
LINE
  5
2B1D
330
1F
100
AcDbEntity
  8
SPOJOVACÍ
  6
DASHED
100
AcDbLine
 10
337.6890771066596
 20
455.8293539439983
 30
0.0
 11
338.059175450186
 21
456.0435734297843
 31
0.0
  0
LINE
  5
2B1E
330
1F
100
AcDbEntity
  8
SPOJOVACÍ
  6
DASHED
100
AcDbLine
 10
337.6890771066596
 20
455.8293539439983
 30
0.0
 11
338.059175450186
 21
455.4592555986037
 31
0.0
  0
LINE
  5
2B1F
330
1F
100
AcDbEntity
  8
SPOJOVACÍ
  6
DASHED
100
AcDbLine
 10
342.3927900703915
 20
457.0052821852023
 30
0.0
 11
342.0226917225868
 21
457.3753805308679
 31
0.0
  0
LINE
  5
2B20
330
1F
100
AcDbEntity
  8
SPOJOVACÍ
  6
DASHED
100
AcDbLine
 10
342.3927900703915
 20
457.0052821852023
 30
0.0
 11
342.0226917225868
 21
456.7910626994161
 31
0.0
  0
LINE
  5
2B21
330
1F
100
AcDbEntity
  8
SPOJOVACÍ
  6
DASHED
100
AcDbLine
 10
342.3927900703915
 20
457.0052821852023
 30
0.0
 11
337.6890771066596
 21
455.8293539439983
 31
0.0
  0
LINE
  5
2B22
330
1F
100
AcDbEntity
  8
SPOJOVACÍ
  6
DASHED
100
AcDbLine
 10
342.0226917225868
 20
460.4337055296382
 30
0.0
 11
338.059175450186
 21
459.100986856638
 31
0.0
  0
LINE
  5
2B23
330
1F
100
AcDbEntity
  8
SPOJOVACÍ
  6
DASHED
100
AcDbLine
 10
342.0226917225868
 20
459.8493876984576
 30
0.0
 11
338.059175450186
 21
458.5166690251862
 31
0.0
  0
LINE
  5
2B24
330
1F
100
AcDbEntity
  8
SPOJOVACÍ
  6
DASHED
100
AcDbLine
 10
337.6890771066596
 20
458.8867673708518
 30
0.0
 11
338.059175450186
 21
459.100986856638
 31
0.0
  0
LINE
  5
2B25
330
1F
100
AcDbEntity
  8
SPOJOVACÍ
  6
DASHED
100
AcDbLine
 10
337.6890771066596
 20
458.8867673708518
 30
0.0
 11
338.059175450186
 21
458.5166690251862
 31
0.0
  0
LINE
  5
2B26
330
1F
100
AcDbEntity
  8
SPOJOVACÍ
  6
DASHED
100
AcDbLine
 10
342.3927900703915
 20
460.0626956117848
 30
0.0
 11
342.0226917225868
 21
460.4337055296382
 31
0.0
  0
LINE
  5
2B27
330
1F
100
AcDbEntity
  8
SPOJOVACÍ
  6
DASHED
100
AcDbLine
 10
342.3927900703915
 20
460.0626956117848
 30
0.0
 11
342.0226917225868
 21
459.8493876984576
 31
0.0
  0
LINE
  5
2B28
330
1F
100
AcDbEntity
  8
SPOJOVACÍ
  6
DASHED
100
AcDbLine
 10
342.3927900703915
 20
460.0626956117848
 30
0.0
 11
337.6890771066596
 21
458.8867673708518
 31
0.0
  0
LINE
  5
2B29
330
1F
100
AcDbEntity
  8
SPOJOVACÍ
  6
DASHED
100
AcDbLine
 10
338.9588972898841
 20
444.2496512730413
 30
0.0
 11
338.7182422066457
 21
446.1812729341017
 31
0.0
  0
LINE
  5
2B2A
330
1F
100
AcDbEntity
  8
SPOJOVACÍ
  6
DASHED
100
AcDbLine
 10
339.2907096025942
 20
441.5969759384607
 30
0.0
 11
339.0290883563634
 21
443.690857465257
 31
0.0
  0
LINE
  5
2B2B
330
1F
100
AcDbEntity
  8
SPOJOVACÍ
  6
DASHED
100
AcDbLine
 10
339.6234334805399
 20
438.9342733090161
 30
0.0
 11
339.3609006647952
 21
441.0363589863009
 31
0.0
  0
LINE
  5
2B2C
330
1F
100
AcDbEntity
  8
SPOJOVACÍ
  6
DASHED
100
AcDbLine
 10
340.4192360833462
 20
438.6243387338963
 30
0.0
 11
340.0409335885256
 21
435.5970071924475
 31
0.0
  0
LINE
  5
2B2D
330
1F
100
AcDbEntity
  8
SPOJOVACÍ
  6
DASHED
100
AcDbLine
 10
340.7793071322726
 20
441.506730282781
 30
0.0
 11
340.4948965840217
 21
439.2323574446327
 31
0.0
  0
LINE
  5
2B2E
330
1F
100
AcDbEntity
  8
SPOJOVACÍ
  6
DASHED
100
AcDbLine
 10
341.1412013287831
 20
444.4000606989957
 30
0.0
 11
340.8567907762539
 21
442.1247762886523
 31
0.0
  0
LINE
  5
2B2F
330
1F
100
AcDbEntity
  8
SPOJOVACÍ
  6
DASHED
100
AcDbLine
 10
340.0409335885256
 20
435.5970071924475
 30
0.0
 11
339.6936245470192
 21
438.3763910736907
 31
0.0
  0
LINE
  5
2B30
330
1F
100
AcDbEntity
  8
SPOJOVACÍ
  6
DASHED
100
AcDbLine
 10
341.3636249661271
 20
446.1812729341017
 30
0.0
 11
341.2168618294586
 21
445.0080794097321
 31
0.0
  0
LINE
  5
2B31
330
1F
100
AcDbEntity
  8
SPOJOVACÍ
  6
DASHED
100
AcDbLine
 10
338.7182422066457
 20
446.5112620992276
 30
0.0
 11
338.7182422066457
 21
446.1812729341017
 31
0.0
  0
LINE
  5
2B32
330
1F
100
AcDbEntity
  8
SPOJOVACÍ
  6
DASHED
100
AcDbLine
 10
338.7182422066457
 20
449.5714102429083
 30
0.0
 11
338.7182422066457
 21
447.10287250898
 31
0.0
  0
LINE
  5
2B33
330
1F
100
AcDbEntity
  8
SPOJOVACÍ
  6
DASHED
100
AcDbLine
 10
341.3636249661271
 20
447.4036913611525
 30
0.0
 11
341.3636249661271
 21
446.1812729341017
 31
0.0
  0
LINE
  5
2B34
330
1F
100
AcDbEntity
  8
SPOJOVACÍ
  6
DASHED
100
AcDbLine
 10
341.3636249661271
 20
450.4556353543448
 30
0.0
 11
341.3636249661271
 21
447.9880091926043
 31
0.0
  0
LINE
  5
2B35
330
1F
100
AcDbEntity
  8
SPOJOVACÍ
  6
DASHED
100
AcDbLine
 10
338.7182422066457
 20
452.6306468141374
 30
0.0
 11
338.7182422066457
 21
450.1602859355625
 31
0.0
  0
LINE
  5
2B36
330
1F
100
AcDbEntity
  8
SPOJOVACÍ
  6
DASHED
100
AcDbLine
 10
338.7182422066457
 20
455.6907949575543
 30
0.0
 11
338.7182422066457
 21
453.2131415009425
 31
0.0
  0
LINE
  5
2B37
330
1F
100
AcDbEntity
  8
SPOJOVACÍ
  6
DASHED
100
AcDbLine
 10
338.7182422066457
 20
458.7436505229343
 30
0.0
 11
338.7182422066457
 21
456.2751127890059
 31
0.0
  0
LINE
  5
2B38
330
1F
100
AcDbEntity
  8
SPOJOVACÍ
  6
DASHED
100
AcDbLine
 10
341.3636249661271
 20
453.5258107928966
 30
0.0
 11
341.3636249661271
 21
451.0481573362849
 31
0.0
  0
LINE
  5
2B39
330
1F
100
AcDbEntity
  8
SPOJOVACÍ
  6
DASHED
100
AcDbLine
 10
341.3636249661271
 20
456.5786663582766
 30
0.0
 11
341.3636249661271
 21
454.1083054797018
 31
0.0
  0
LINE
  5
2B3A
330
1F
100
AcDbEntity
  8
SPOJOVACÍ
  6
DASHED
100
AcDbLine
 10
341.3636249661271
 20
459.6388145016935
 30
0.0
 11
341.3636249661271
 21
457.1702767677652
 31
0.0
  0
LINE
  5
2B3B
330
1F
100
AcDbEntity
  8
SPOJOVACÍ
  6
DASHED
100
AcDbLine
 10
341.3636249661271
 20
464.1793560277728
 30
0.0
 11
341.3636249661271
 21
460.2222207606864
 31
0.0
  0
LINE
  5
2B3C
330
1F
100
AcDbEntity
  8
SPOJOVACÍ
  6
DASHED
100
AcDbLine
 10
338.7182422066457
 20
464.1793560277728
 30
0.0
 11
338.7182422066457
 21
459.3352609324228
 31
0.0
  0
LINE
  5
2B3D
330
1F
100
AcDbEntity
  8
SPOJOVACÍ
  6
DASHED
100
AcDbLine
 10
345.0390843993868
 20
469.4710331122423
 30
0.0
 11
343.716393017507
 21
468.7417752884975
 31
0.0
  0
LINE
  5
2B3E
330
1F
100
AcDbEntity
  8
SPOJOVACÍ
  6
DASHED
100
AcDbLine
 10
343.716393017507
 20
468.7417752884975
 30
0.0
 11
342.6279757151555
 21
467.6943787388736
 31
0.0
  0
LINE
  5
2B3F
330
1F
100
AcDbEntity
  8
SPOJOVACÍ
  6
DASHED
100
AcDbLine
 10
342.6279757151555
 20
467.6943787388736
 30
0.0
 11
341.8476698454237
 21
466.401769246142
 31
0.0
  0
LINE
  5
2B40
330
1F
100
AcDbEntity
  8
SPOJOVACÍ
  6
DASHED
100
AcDbLine
 10
341.8476698454237
 20
466.401769246142
 30
0.0
 11
341.4283465984103
 21
464.9505461764329
 31
0.0
  0
LINE
  5
2B41
330
1F
100
AcDbEntity
  8
SPOJOVACÍ
  6
DASHED
100
AcDbLine
 10
341.4283465984103
 20
464.9505461764329
 30
0.0
 11
341.3636249661271
 21
464.1793560277728
 31
0.0
  0
LINE
  5
2B42
330
1F
100
AcDbEntity
  8
SPOJOVACÍ
  6
DASHED
100
AcDbLine
 10
336.9561729928304
 20
468.2413221068836
 30
0.0
 11
335.7437818601088
 21
469.1410439471164
 31
0.0
  0
LINE
  5
2B43
330
1F
100
AcDbEntity
  8
SPOJOVACÍ
  6
DASHED
100
AcDbLine
 10
335.7437818601088
 20
469.1410439471164
 30
0.0
 11
335.0427827776643
 21
469.4710331122423
 31
0.0
  0
LINE
  5
2B44
330
1F
100
AcDbEntity
  8
SPOJOVACÍ
  6
DASHED
100
AcDbLine
 10
345.0390843993868
 20
469.4710331122423
 30
0.0
 11
335.0427827776643
 21
469.4710331122423
 31
0.0
  0
LINE
  5
2B45
330
1F
100
AcDbEntity
  8
SPOJOVACÍ
  6
DASHED
100
AcDbLine
 10
345.0390843993868
 20
470.6469613534391
 30
0.0
 11
345.0390843993868
 21
469.4710331122423
 31
0.0
  0
LINE
  5
2B46
330
1F
100
AcDbEntity
  8
SPOJOVACÍ
  6
DASHED
100
AcDbLine
 10
345.0390843993868
 20
470.6469613534391
 30
0.0
 11
335.0427827776643
 21
470.6469613534391
 31
0.0
  0
LINE
  5
2B47
330
1F
100
AcDbEntity
  8
SPOJOVACÍ
  6
DASHED
100
AcDbLine
 10
335.0427827776643
 20
470.6469613534391
 30
0.0
 11
335.0427827776643
 21
469.4710331122423
 31
0.0
  0
LINE
  5
2B48
330
1F
100
AcDbEntity
  8
SPOJOVACÍ
  6
DASHED
100
AcDbLine
 10
338.7182422066457
 20
464.1793560277728
 30
0.0
 11
338.4958185735799
 21
465.6725114221335
 31
0.0
  0
LINE
  5
2B49
330
1F
100
AcDbEntity
  8
SPOJOVACÍ
  6
DASHED
100
AcDbLine
 10
338.4958185735799
 20
465.6725114221335
 30
0.0
 11
337.8950924414152
 21
467.0581012876428
 31
0.0
  0
LINE
  5
2B4A
330
1F
100
AcDbEntity
  8
SPOJOVACÍ
  6
DASHED
100
AcDbLine
 10
337.8950924414152
 20
467.0581012876428
 30
0.0
 11
336.9561729928304
 21
468.2413221068836
 31
0.0
  0
LINE
  5
2B4B
330
1F
100
AcDbEntity
  8
SPOJOVACÍ
  6
DASHED
100
AcDbLine
 10
292.3722645369475
 20
467.0581012876428
 30
0.0
 11
293.3111839855323
 21
468.2413221068836
 31
0.0
  0
LINE
  5
2B4C
330
1F
100
AcDbEntity
  8
SPOJOVACÍ
  6
DASHED
100
AcDbLine
 10
291.7715384047828
 20
465.6725114221335
 30
0.0
 11
292.3722645369475
 21
467.0581012876428
 31
0.0
  0
LINE
  5
2B4D
330
1F
100
AcDbEntity
  8
SPOJOVACÍ
  6
DASHED
100
AcDbLine
 10
291.549114771717
 20
464.1793560277728
 30
0.0
 11
291.7715384047828
 21
465.6725114221335
 31
0.0
  0
LINE
  5
2B4E
330
1F
100
AcDbEntity
  8
SPOJOVACÍ
  6
DASHED
100
AcDbLine
 10
295.2245742006985
 20
470.6469613534391
 30
0.0
 11
295.2245742006985
 21
469.4710331122423
 31
0.0
  0
LINE
  5
2B4F
330
1F
100
AcDbEntity
  8
SPOJOVACÍ
  6
DASHED
100
AcDbLine
 10
285.2282725789759
 20
470.6469613534391
 30
0.0
 11
295.2245742006985
 21
470.6469613534391
 31
0.0
  0
LINE
  5
2B50
330
1F
100
AcDbEntity
  8
SPOJOVACÍ
  6
DASHED
100
AcDbLine
 10
285.2282725789759
 20
470.6469613534391
 30
0.0
 11
285.2282725789759
 21
469.4710331122423
 31
0.0
  0
LINE
  5
2B51
330
1F
100
AcDbEntity
  8
SPOJOVACÍ
  6
DASHED
100
AcDbLine
 10
285.2282725789759
 20
469.4710331122423
 30
0.0
 11
295.2245742006985
 21
469.4710331122423
 31
0.0
  0
LINE
  5
2B52
330
1F
100
AcDbEntity
  8
SPOJOVACÍ
  6
DASHED
100
AcDbLine
 10
294.523575118254
 20
469.1410439471164
 30
0.0
 11
295.2245742006985
 21
469.4710331122423
 31
0.0
  0
LINE
  5
2B53
330
1F
100
AcDbEntity
  8
SPOJOVACÍ
  6
DASHED
100
AcDbLine
 10
293.3111839855323
 20
468.2413221068836
 30
0.0
 11
294.523575118254
 21
469.1410439471164
 31
0.0
  0
LINE
  5
2B54
330
1F
100
AcDbEntity
  8
SPOJOVACÍ
  6
DASHED
100
AcDbLine
 10
288.8390103799524
 20
464.9505461764329
 30
0.0
 11
288.9037320122356
 21
464.1793560277728
 31
0.0
  0
LINE
  5
2B55
330
1F
100
AcDbEntity
  8
SPOJOVACÍ
  6
DASHED
100
AcDbLine
 10
288.4196871329391
 20
466.401769246142
 30
0.0
 11
288.8390103799524
 21
464.9505461764329
 31
0.0
  0
LINE
  5
2B56
330
1F
100
AcDbEntity
  8
SPOJOVACÍ
  6
DASHED
100
AcDbLine
 10
287.6393812632072
 20
467.6943787388736
 30
0.0
 11
288.4196871329391
 21
466.401769246142
 31
0.0
  0
LINE
  5
2B57
330
1F
100
AcDbEntity
  8
SPOJOVACÍ
  6
DASHED
100
AcDbLine
 10
286.5509639608558
 20
468.7417752884975
 30
0.0
 11
287.6393812632072
 21
467.6943787388736
 31
0.0
  0
LINE
  5
2B58
330
1F
100
AcDbEntity
  8
SPOJOVACÍ
  6
DASHED
100
AcDbLine
 10
285.2282725789759
 20
469.4710331122423
 30
0.0
 11
286.5509639608558
 21
468.7417752884975
 31
0.0
  0
LINE
  5
2B59
330
1F
100
AcDbEntity
  8
SPOJOVACÍ
  6
DASHED
100
AcDbLine
 10
291.549114771717
 20
464.1793560277728
 30
0.0
 11
291.549114771717
 21
459.3352609324228
 31
0.0
  0
LINE
  5
2B5A
330
1F
100
AcDbEntity
  8
SPOJOVACÍ
  6
DASHED
100
AcDbLine
 10
288.9037320122356
 20
464.1793560277728
 30
0.0
 11
288.9037320122356
 21
460.2222207606864
 31
0.0
  0
LINE
  5
2B5B
330
1F
100
AcDbEntity
  8
SPOJOVACÍ
  6
DASHED
100
AcDbLine
 10
288.9037320122356
 20
459.6388145016935
 30
0.0
 11
288.9037320122356
 21
457.1702767677652
 31
0.0
  0
LINE
  5
2B5C
330
1F
100
AcDbEntity
  8
SPOJOVACÍ
  6
DASHED
100
AcDbLine
 10
288.9037320122356
 20
456.5786663582766
 30
0.0
 11
288.9037320122356
 21
454.1083054797018
 31
0.0
  0
LINE
  5
2B5D
330
1F
100
AcDbEntity
  8
SPOJOVACÍ
  6
DASHED
100
AcDbLine
 10
288.9037320122356
 20
453.5258107928966
 30
0.0
 11
288.9037320122356
 21
451.0481573362849
 31
0.0
  0
LINE
  5
2B5E
330
1F
100
AcDbEntity
  8
SPOJOVACÍ
  6
DASHED
100
AcDbLine
 10
291.549114771717
 20
458.7436505229343
 30
0.0
 11
291.549114771717
 21
456.2751127890059
 31
0.0
  0
LINE
  5
2B5F
330
1F
100
AcDbEntity
  8
SPOJOVACÍ
  6
DASHED
100
AcDbLine
 10
291.549114771717
 20
455.6907949575543
 30
0.0
 11
291.549114771717
 21
453.2131415009425
 31
0.0
  0
LINE
  5
2B60
330
1F
100
AcDbEntity
  8
SPOJOVACÍ
  6
DASHED
100
AcDbLine
 10
291.549114771717
 20
452.6306468141374
 30
0.0
 11
291.549114771717
 21
450.1602859355625
 31
0.0
  0
LINE
  5
2B61
330
1F
100
AcDbEntity
  8
SPOJOVACÍ
  6
DASHED
100
AcDbLine
 10
288.9037320122356
 20
450.4556353543448
 30
0.0
 11
288.9037320122356
 21
447.9880091926043
 31
0.0
  0
LINE
  5
2B62
330
1F
100
AcDbEntity
  8
SPOJOVACÍ
  6
DASHED
100
AcDbLine
 10
288.9037320122356
 20
447.4036913611525
 30
0.0
 11
288.9037320122356
 21
446.1812729341017
 31
0.0
  0
LINE
  5
2B63
330
1F
100
AcDbEntity
  8
SPOJOVACÍ
  6
DASHED
100
AcDbLine
 10
291.549114771717
 20
449.5714102429083
 30
0.0
 11
291.549114771717
 21
447.10287250898
 31
0.0
  0
LINE
  5
2B64
330
1F
100
AcDbEntity
  8
SPOJOVACÍ
  6
DASHED
100
AcDbLine
 10
291.549114771717
 20
446.5112620992276
 30
0.0
 11
291.549114771717
 21
446.1812729341017
 31
0.0
  0
LINE
  5
2B65
330
1F
100
AcDbEntity
  8
SPOJOVACÍ
  6
DASHED
100
AcDbLine
 10
288.9037320122356
 20
446.1812729341017
 30
0.0
 11
289.0504951489042
 21
445.0080794097321
 31
0.0
  0
LINE
  5
2B66
330
1F
100
AcDbEntity
  8
SPOJOVACÍ
  6
DASHED
100
AcDbLine
 10
290.2264233898372
 20
435.5970071924475
 30
0.0
 11
290.5737324313436
 21
438.3763910736907
 31
0.0
  0
LINE
  5
2B67
330
1F
100
AcDbEntity
  8
SPOJOVACÍ
  6
DASHED
100
AcDbLine
 10
289.1261556495797
 20
444.4000606989957
 30
0.0
 11
289.4105662021088
 21
442.1247762886523
 31
0.0
  0
LINE
  5
2B68
330
1F
100
AcDbEntity
  8
SPOJOVACÍ
  6
DASHED
100
AcDbLine
 10
289.4880498460902
 20
441.506730282781
 30
0.0
 11
289.7724603943411
 21
439.2323574446327
 31
0.0
  0
LINE
  5
2B69
330
1F
100
AcDbEntity
  8
SPOJOVACÍ
  6
DASHED
100
AcDbLine
 10
289.8481208950165
 20
438.6243387338963
 30
0.0
 11
290.2264233898372
 21
435.5970071924475
 31
0.0
  0
LINE
  5
2B6A
330
1F
100
AcDbEntity
  8
SPOJOVACÍ
  6
DASHED
100
AcDbLine
 10
290.6439234978229
 20
438.9342733090161
 30
0.0
 11
290.9064563135675
 21
441.0363589863009
 31
0.0
  0
LINE
  5
2B6B
330
1F
100
AcDbEntity
  8
SPOJOVACÍ
  6
DASHED
100
AcDbLine
 10
290.9766473757686
 20
441.5969759384607
 30
0.0
 11
291.2382686219994
 21
443.690857465257
 31
0.0
  0
LINE
  5
2B6C
330
1F
100
AcDbEntity
  8
SPOJOVACÍ
  6
DASHED
100
AcDbLine
 10
291.3084596884786
 20
444.2496512730413
 30
0.0
 11
291.549114771717
 21
446.1812729341017
 31
0.0
  0
LINE
  5
2B6D
330
1F
100
AcDbEntity
  8
SPOJOVACÍ
  6
DASHED
100
AcDbLine
 10
287.8745669079712
 20
460.0626956117848
 30
0.0
 11
292.5782798717032
 21
458.8867673708518
 31
0.0
  0
LINE
  5
2B6E
330
1F
100
AcDbEntity
  8
SPOJOVACÍ
  6
DASHED
100
AcDbLine
 10
287.8745669079712
 20
460.0626956117848
 30
0.0
 11
288.244665255776
 21
459.8493876984576
 31
0.0
  0
LINE
  5
2B6F
330
1F
100
AcDbEntity
  8
SPOJOVACÍ
  6
DASHED
100
AcDbLine
 10
287.8745669079712
 20
460.0626956117848
 30
0.0
 11
288.244665255776
 21
460.4337055296382
 31
0.0
  0
LINE
  5
2B70
330
1F
100
AcDbEntity
  8
SPOJOVACÍ
  6
DASHED
100
AcDbLine
 10
292.5782798717032
 20
458.8867673708518
 30
0.0
 11
292.2081815281767
 21
458.5166690251862
 31
0.0
  0
LINE
  5
2B71
330
1F
100
AcDbEntity
  8
SPOJOVACÍ
  6
DASHED
100
AcDbLine
 10
292.5782798717032
 20
458.8867673708518
 30
0.0
 11
292.2081815281767
 21
459.100986856638
 31
0.0
  0
LINE
  5
2B72
330
1F
100
AcDbEntity
  8
SPOJOVACÍ
  6
DASHED
100
AcDbLine
 10
288.244665255776
 20
459.8493876984576
 30
0.0
 11
292.2081815281767
 21
458.5166690251862
 31
0.0
  0
LINE
  5
2B73
330
1F
100
AcDbEntity
  8
SPOJOVACÍ
  6
DASHED
100
AcDbLine
 10
288.244665255776
 20
460.4337055296382
 30
0.0
 11
292.2081815281767
 21
459.100986856638
 31
0.0
  0
LINE
  5
2B74
330
1F
100
AcDbEntity
  8
SPOJOVACÍ
  6
DASHED
100
AcDbLine
 10
287.8745669079712
 20
457.0052821852023
 30
0.0
 11
292.5782798717032
 21
455.8293539439983
 31
0.0
  0
LINE
  5
2B75
330
1F
100
AcDbEntity
  8
SPOJOVACÍ
  6
DASHED
100
AcDbLine
 10
287.8745669079712
 20
457.0052821852023
 30
0.0
 11
288.244665255776
 21
456.7910626994161
 31
0.0
  0
LINE
  5
2B76
330
1F
100
AcDbEntity
  8
SPOJOVACÍ
  6
DASHED
100
AcDbLine
 10
287.8745669079712
 20
457.0052821852023
 30
0.0
 11
288.244665255776
 21
457.3753805308679
 31
0.0
  0
LINE
  5
2B77
330
1F
100
AcDbEntity
  8
SPOJOVACÍ
  6
DASHED
100
AcDbLine
 10
292.5782798717032
 20
455.8293539439983
 30
0.0
 11
292.2081815281767
 21
455.4592555986037
 31
0.0
  0
LINE
  5
2B78
330
1F
100
AcDbEntity
  8
SPOJOVACÍ
  6
DASHED
100
AcDbLine
 10
292.5782798717032
 20
455.8293539439983
 30
0.0
 11
292.2081815281767
 21
456.0435734297843
 31
0.0
  0
LINE
  5
2B79
330
1F
100
AcDbEntity
  8
SPOJOVACÍ
  6
DASHED
100
AcDbLine
 10
288.244665255776
 20
456.7910626994161
 30
0.0
 11
292.2081815281767
 21
455.4592555986037
 31
0.0
  0
LINE
  5
2B7A
330
1F
100
AcDbEntity
  8
SPOJOVACÍ
  6
DASHED
100
AcDbLine
 10
288.244665255776
 20
457.3753805308679
 30
0.0
 11
292.2081815281767
 21
456.0435734297843
 31
0.0
  0
LINE
  5
2B7B
330
1F
100
AcDbEntity
  8
SPOJOVACÍ
  6
DASHED
100
AcDbLine
 10
288.1234261425038
 20
444.8166492310502
 30
0.0
 11
288.4944360598224
 21
444.602429745264
 31
0.0
  0
LINE
  5
2B7C
330
1F
100
AcDbEntity
  8
SPOJOVACÍ
  6
DASHED
100
AcDbLine
 10
288.1234261425038
 20
444.8166492310502
 30
0.0
 11
288.4944360598224
 21
445.1867475767158
 31
0.0
  0
LINE
  5
2B7D
330
1F
100
AcDbEntity
  8
SPOJOVACÍ
  6
DASHED
100
AcDbLine
 10
292.1662492021919
 20
443.8631446263916
 30
0.0
 11
291.7961508586654
 21
443.4921347082672
 31
0.0
  0
LINE
  5
2B7E
330
1F
100
AcDbEntity
  8
SPOJOVACÍ
  6
DASHED
100
AcDbLine
 10
292.1662492021919
 20
443.8631446263916
 30
0.0
 11
291.7961508586654
 21
444.0764525397189
 31
0.0
  0
LINE
  5
2B7F
330
1F
100
AcDbEntity
  8
SPOJOVACÍ
  6
DASHED
100
AcDbLine
 10
288.4944360598224
 20
444.602429745264
 30
0.0
 11
291.7961508586654
 21
443.4921347082672
 31
0.0
  0
LINE
  5
2B80
330
1F
100
AcDbEntity
  8
SPOJOVACÍ
  6
DASHED
100
AcDbLine
 10
288.4944360598224
 20
445.1867475767158
 30
0.0
 11
291.7961508586654
 21
444.0764525397189
 31
0.0
  0
LINE
  5
2B81
330
1F
100
AcDbEntity
  8
SPOJOVACÍ
  6
DASHED
100
AcDbLine
 10
288.1234261425038
 20
444.8166492310502
 30
0.0
 11
292.1662492021919
 21
443.8631446263916
 31
0.0
  0
LINE
  5
2B82
330
1F
100
AcDbEntity
  8
SPOJOVACÍ
  6
DASHED
100
AcDbLine
 10
288.6767505144876
 20
441.8622434718381
 30
0.0
 11
289.0468488622923
 21
441.6489355585108
 31
0.0
  0
LINE
  5
2B83
330
1F
100
AcDbEntity
  8
SPOJOVACÍ
  6
DASHED
100
AcDbLine
 10
288.6767505144876
 20
441.8622434718381
 30
0.0
 11
289.0468488622923
 21
442.2332533899625
 31
0.0
  0
LINE
  5
2B84
330
1F
100
AcDbEntity
  8
SPOJOVACÍ
  6
DASHED
100
AcDbLine
 10
291.7305176525901
 20
441.2414627494036
 30
0.0
 11
291.3604193090636
 21
440.8704528315502
 31
0.0
  0
LINE
  5
2B85
330
1F
100
AcDbEntity
  8
SPOJOVACÍ
  6
DASHED
100
AcDbLine
 10
291.7305176525901
 20
441.2414627494036
 30
0.0
 11
291.3604193090636
 21
441.4547706627309
 31
0.0
  0
LINE
  5
2B86
330
1F
100
AcDbEntity
  8
SPOJOVACÍ
  6
DASHED
100
AcDbLine
 10
289.0468488622923
 20
441.6489355585108
 30
0.0
 11
291.3604193090636
 21
440.8704528315502
 31
0.0
  0
LINE
  5
2B87
330
1F
100
AcDbEntity
  8
SPOJOVACÍ
  6
DASHED
100
AcDbLine
 10
289.0468488622923
 20
442.2332533899625
 30
0.0
 11
291.3604193090636
 21
441.4547706627309
 31
0.0
  0
LINE
  5
2B88
330
1F
100
AcDbEntity
  8
SPOJOVACÍ
  6
DASHED
100
AcDbLine
 10
288.6767505144876
 20
441.8622434718381
 30
0.0
 11
291.7305176525901
 21
441.2414627494036
 31
0.0
  0
LINE
  5
2B89
330
1F
100
AcDbEntity
  8
SPOJOVACÍ
  6
DASHED
100
AcDbLine
 10
289.2300748907496
 20
438.9087492850848
 30
0.0
 11
289.6001732342761
 21
438.6945297993061
 31
0.0
  0
LINE
  5
2B8A
330
1F
100
AcDbEntity
  8
SPOJOVACÍ
  6
DASHED
100
AcDbLine
 10
289.2300748907496
 20
438.9087492850848
 30
0.0
 11
289.6001732342761
 21
439.2788476307505
 31
0.0
  0
LINE
  5
2B8B
330
1F
100
AcDbEntity
  8
SPOJOVACÍ
  6
DASHED
100
AcDbLine
 10
291.3412762893772
 20
438.6042841436265
 30
0.0
 11
290.9711779458507
 21
438.2332742257731
 31
0.0
  0
LINE
  5
2B8C
330
1F
100
AcDbEntity
  8
SPOJOVACÍ
  6
DASHED
100
AcDbLine
 10
291.3412762893772
 20
438.6042841436265
 30
0.0
 11
290.9711779458507
 21
438.8175920572175
 31
0.0
  0
LINE
  5
2B8D
330
1F
100
AcDbEntity
  8
SPOJOVACÍ
  6
DASHED
100
AcDbLine
 10
289.6001732342761
 20
438.6945297993061
 30
0.0
 11
290.9711779458507
 21
438.2332742257731
 31
0.0
  0
LINE
  5
2B8E
330
1F
100
AcDbEntity
  8
SPOJOVACÍ
  6
DASHED
100
AcDbLine
 10
289.6001732342761
 20
439.2788476307505
 30
0.0
 11
290.9711779458507
 21
438.8175920572175
 31
0.0
  0
LINE
  5
2B8F
330
1F
100
AcDbEntity
  8
SPOJOVACÍ
  6
DASHED
100
AcDbLine
 10
289.2300748907496
 20
438.9087492850848
 30
0.0
 11
291.3412762893772
 21
438.6042841436265
 31
0.0
  0
LINE
  5
2B90
330
1F
100
AcDbEntity
  8
SPOJOVACÍ
  6
DASHED
100
AcDbLine
 10
287.8745669079712
 20
453.9478687583486
 30
0.0
 11
292.5782798717032
 21
452.7719405174157
 31
0.0
  0
LINE
  5
2B91
330
1F
100
AcDbEntity
  8
SPOJOVACÍ
  6
DASHED
100
AcDbLine
 10
287.8745669079712
 20
453.9478687583486
 30
0.0
 11
288.244665255776
 21
453.7336492725626
 31
0.0
  0
LINE
  5
2B92
330
1F
100
AcDbEntity
  8
SPOJOVACÍ
  6
DASHED
100
AcDbLine
 10
287.8745669079712
 20
453.9478687583486
 30
0.0
 11
288.244665255776
 21
454.3179671040142
 31
0.0
  0
LINE
  5
2B93
330
1F
100
AcDbEntity
  8
SPOJOVACÍ
  6
DASHED
100
AcDbLine
 10
292.5782798717032
 20
452.7719405174157
 30
0.0
 11
292.2081815281767
 21
452.4009305995623
 31
0.0
  0
LINE
  5
2B94
330
1F
100
AcDbEntity
  8
SPOJOVACÍ
  6
DASHED
100
AcDbLine
 10
292.5782798717032
 20
452.7719405174157
 30
0.0
 11
292.2081815281767
 21
452.9852484310067
 31
0.0
  0
LINE
  5
2B95
330
1F
100
AcDbEntity
  8
SPOJOVACÍ
  6
DASHED
100
AcDbLine
 10
288.244665255776
 20
453.7336492725626
 30
0.0
 11
292.2081815281767
 21
452.4009305995623
 31
0.0
  0
LINE
  5
2B96
330
1F
100
AcDbEntity
  8
SPOJOVACÍ
  6
DASHED
100
AcDbLine
 10
288.244665255776
 20
454.3179671040142
 30
0.0
 11
292.2081815281767
 21
452.9852484310067
 31
0.0
  0
LINE
  5
2B97
330
1F
100
AcDbEntity
  8
SPOJOVACÍ
  6
DASHED
100
AcDbLine
 10
287.8745669079712
 20
450.8904553317588
 30
0.0
 11
292.5782798717032
 21
449.7145270908259
 31
0.0
  0
LINE
  5
2B98
330
1F
100
AcDbEntity
  8
SPOJOVACÍ
  6
DASHED
100
AcDbLine
 10
287.8745669079712
 20
450.8904553317588
 30
0.0
 11
288.244665255776
 21
450.67623584598
 31
0.0
  0
LINE
  5
2B99
330
1F
100
AcDbEntity
  8
SPOJOVACÍ
  6
DASHED
100
AcDbLine
 10
287.8745669079712
 20
450.8904553317588
 30
0.0
 11
288.244665255776
 21
451.2605536774244
 31
0.0
  0
LINE
  5
2B9A
330
1F
100
AcDbEntity
  8
SPOJOVACÍ
  6
DASHED
100
AcDbLine
 10
292.5782798717032
 20
449.7145270908259
 30
0.0
 11
292.2081815281767
 21
449.3435171729725
 31
0.0
  0
LINE
  5
2B9B
330
1F
100
AcDbEntity
  8
SPOJOVACÍ
  6
DASHED
100
AcDbLine
 10
292.5782798717032
 20
449.7145270908259
 30
0.0
 11
292.2081815281767
 21
449.9278350041532
 31
0.0
  0
LINE
  5
2B9C
330
1F
100
AcDbEntity
  8
SPOJOVACÍ
  6
DASHED
100
AcDbLine
 10
288.244665255776
 20
450.67623584598
 30
0.0
 11
292.2081815281767
 21
449.3435171729725
 31
0.0
  0
LINE
  5
2B9D
330
1F
100
AcDbEntity
  8
SPOJOVACÍ
  6
DASHED
100
AcDbLine
 10
288.244665255776
 20
451.2605536774244
 30
0.0
 11
292.2081815281767
 21
449.9278350041532
 31
0.0
  0
LINE
  5
2B9E
330
1F
100
AcDbEntity
  8
SPOJOVACÍ
  6
DASHED
100
AcDbLine
 10
287.8745669079712
 20
447.8321303327175
 30
0.0
 11
292.5782798717032
 21
446.6562020917844
 31
0.0
  0
LINE
  5
2B9F
330
1F
100
AcDbEntity
  8
SPOJOVACÍ
  6
DASHED
100
AcDbLine
 10
287.8745669079712
 20
447.8321303327175
 30
0.0
 11
288.244665255776
 21
447.6188224193902
 31
0.0
  0
LINE
  5
2BA0
330
1F
100
AcDbEntity
  8
SPOJOVACÍ
  6
DASHED
100
AcDbLine
 10
287.8745669079712
 20
447.8321303327175
 30
0.0
 11
288.244665255776
 21
448.2031402508418
 31
0.0
  0
LINE
  5
2BA1
330
1F
100
AcDbEntity
  8
SPOJOVACÍ
  6
DASHED
100
AcDbLine
 10
292.5782798717032
 20
446.6562020917844
 30
0.0
 11
292.2081815281767
 21
446.2861037461189
 31
0.0
  0
LINE
  5
2BA2
330
1F
100
AcDbEntity
  8
SPOJOVACÍ
  6
DASHED
100
AcDbLine
 10
292.5782798717032
 20
446.6562020917844
 30
0.0
 11
292.2081815281767
 21
446.8704215775706
 31
0.0
  0
LINE
  5
2BA3
330
1F
100
AcDbEntity
  8
SPOJOVACÍ
  6
DASHED
100
AcDbLine
 10
288.244665255776
 20
447.6188224193902
 30
0.0
 11
292.2081815281767
 21
446.2861037461189
 31
0.0
  0
LINE
  5
2BA4
330
1F
100
AcDbEntity
  8
SPOJOVACÍ
  6
DASHED
100
AcDbLine
 10
288.244665255776
 20
448.2031402508418
 30
0.0
 11
292.2081815281767
 21
446.8704215775706
 31
0.0
  0
TEXT
  5
2BA5
330
1F
100
AcDbEntity
  8
POPIS
100
AcDbText
 10
-37.53459137340314
 20
675.6013948383443
 30
0.0
 40
35.0
  1
SVISLÝ ŘEZ
 41
0.85
  7
SIMPLEX7
100
AcDbText
  0
TEXT
  5
2BA6
330
1F
100
AcDbEntity
  8
POPIS
100
AcDbText
 10
799.9927007244064
 20
535.6402944596557
 30
0.0
 40
25.0
  1
Vrut Bűhnen 4,2x35 mm
 41
0.7
  7
SIMPLEX7
100
AcDbText
  0
TEXT
  5
2BA7
330
1F
100
AcDbEntity
  8
POPIS
100
AcDbText
 10
745.6489975646641
 20
535.219379061009
 30
0.0
 40
25.0
  1
04
 41
0.85
  7
SIMPLEX7
100
AcDbText
  0
TEXT
  5
2BA8
330
1F
100
AcDbEntity
  8
POPIS
100
AcDbText
 10
745.6489975646641
 20
571.8143906766363
 30
0.0
 40
25.0
  1
03
 41
0.85
  7
SIMPLEX7
100
AcDbText
  0
TEXT
  5
2BA9
330
1F
100
AcDbEntity
  8
POPIS
100
AcDbText
 10
799.9927007244064
 20
391.5514497746571
 30
0.0
 40
25.0
  1
Stropní konstrukce
 41
0.7
  7
SIMPLEX7
100
AcDbText
  0
TEXT
  5
2BAA
330
1F
100
AcDbEntity
  8
POPIS
100
AcDbText
 10
799.9927007244064
 20
426.9556109928198
 30
0.0
 40
25.0
  1
Parozábrana
 41
0.7
  7
SIMPLEX7
100
AcDbText
  0
TEXT
  5
2BAB
330
1F
100
AcDbEntity
  8
POPIS
100
AcDbText
 10
799.9927007244064
 20
497.5008108531692
 30
0.0
 40
25.0
  1
Izolační deska IZOPLAT
 41
0.7
  7
SIMPLEX7
100
AcDbText
  0
TEXT
  5
2BAC
330
1F
100
AcDbEntity
  8
POPIS
100
AcDbText
 10
745.6489975646641
 20
391.2103212630809
 30
0.0
 40
25.0
  1
08
 41
0.85
  7
SIMPLEX7
100
AcDbText
  0
HATCH
  5
2BAD
330
1F
100
AcDbEntity
  8
izolace
100
AcDbHatch
 10
0.0
 20
0.0
 30
0.0
210
0.0
220
0.0
230
1.0
  2
SOLID
 70
     1
 71
     0
 91
        1
 92
        7
 72
     0
 73
     1
 93
        4
 10
547.7172942076854
 20
371.6469613534391
 10
547.717294207689
 20
368.6469613534391
 10
571.3590269175242
 20
368.6469613534391
 10
571.3590269175242
 20
371.6469613534391
 97
        0
 75
     0
 76
     1
 47
0.1901250437635136
 98
        1
 10
557.0750889660289
 20
370.8301498023593
  0
LWPOLYLINE
  5
2BAE
330
1F
100
AcDbEntity
  8
izolace
100
AcDbPolyline
 90
        4
 70
     1
 43
0.0
 10
571.3590269175206
 20
371.6469613534391
 10
547.7172942076854
 20
371.6469613534391
 10
547.7172942076854
 20
368.6469613534391
 10
571.3590269175206
 20
368.6469613534391
  0
HATCH
  5
2BAF
330
1F
100
AcDbEntity
  8
izolace
100
AcDbHatch
 10
0.0
 20
0.0
 30
0.0
210
0.0
220
0.0
230
1.0
  2
SOLID
 70
     1
 71
     0
 91
        1
 92
        7
 72
     0
 73
     1
 93
        4
 10
554.5191378087388
 20
371.6469613534391
 10
554.5191378087424
 20
368.6469613534391
 10
578.1608705185776
 20
368.6469613534391
 10
578.1608705185776
 20
371.6469613534391
 97
        0
 75
     0
 76
     1
 47
0.1901250437635136
 98
        1
 10
563.8769325670823
 20
370.8301498023593
  0
LWPOLYLINE
  5
2BB0
330
1F
100
AcDbEntity
  8
izolace
100
AcDbPolyline
 90
        4
 70
     1
 43
0.0
 10
578.160870518574
 20
371.6469613534391
 10
554.5191378087388
 20
371.6469613534391
 10
554.5191378087388
 20
368.6469613534391
 10
578.160870518574
 20
368.6469613534391
  0
LINE
  5
2BB1
330
1F
100
AcDbEntity
  8
CETRIS
100
AcDbLine
 10
602.9955679634035
 20
446.6469613534386
 30
0.0
 11
602.9955679634035
 21
458.6469613534391
 31
0.0
  0
LINE
  5
2BB2
330
1F
100
AcDbEntity
  8
SPOJOVACÍ
  6
DASHED
100
AcDbLine
 10
556.3097834206915
 20
467.0581012876428
 30
0.0
 11
555.3708639721066
 21
468.2413221068836
 31
0.0
  0
LINE
  5
2BB3
330
1F
100
AcDbEntity
  8
SPOJOVACÍ
  6
DASHED
100
AcDbLine
 10
556.9105095528562
 20
465.6725114221335
 30
0.0
 11
556.3097834206915
 21
467.0581012876428
 31
0.0
  0
LINE
  5
2BB4
330
1F
100
AcDbEntity
  8
SPOJOVACÍ
  6
DASHED
100
AcDbLine
 10
557.1329331859219
 20
464.1793560277728
 30
0.0
 11
556.9105095528562
 21
465.6725114221335
 31
0.0
  0
LINE
  5
2BB5
330
1F
100
AcDbEntity
  8
SPOJOVACÍ
  6
DASHED
100
AcDbLine
 10
553.4574737569405
 20
470.6469613534391
 30
0.0
 11
553.4574737569405
 21
469.4710331122423
 31
0.0
  0
LINE
  5
2BB6
330
1F
100
AcDbEntity
  8
SPOJOVACÍ
  6
DASHED
100
AcDbLine
 10
563.453775378663
 20
470.6469613534391
 30
0.0
 11
553.4574737569405
 21
470.6469613534391
 31
0.0
  0
LINE
  5
2BB7
330
1F
100
AcDbEntity
  8
SPOJOVACÍ
  6
DASHED
100
AcDbLine
 10
563.453775378663
 20
470.6469613534391
 30
0.0
 11
563.453775378663
 21
469.4710331122423
 31
0.0
  0
LINE
  5
2BB8
330
1F
100
AcDbEntity
  8
SPOJOVACÍ
  6
DASHED
100
AcDbLine
 10
563.453775378663
 20
469.4710331122423
 30
0.0
 11
553.4574737569405
 21
469.4710331122423
 31
0.0
  0
LINE
  5
2BB9
330
1F
100
AcDbEntity
  8
SPOJOVACÍ
  6
DASHED
100
AcDbLine
 10
554.158472839385
 20
469.1410439471164
 30
0.0
 11
553.4574737569405
 21
469.4710331122423
 31
0.0
  0
LINE
  5
2BBA
330
1F
100
AcDbEntity
  8
SPOJOVACÍ
  6
DASHED
100
AcDbLine
 10
555.3708639721066
 20
468.2413221068836
 30
0.0
 11
554.158472839385
 21
469.1410439471164
 31
0.0
  0
LINE
  5
2BBB
330
1F
100
AcDbEntity
  8
SPOJOVACÍ
  6
DASHED
100
AcDbLine
 10
559.8430375776866
 20
464.9505461764329
 30
0.0
 11
559.7783159454033
 21
464.1793560277728
 31
0.0
  0
LINE
  5
2BBC
330
1F
100
AcDbEntity
  8
SPOJOVACÍ
  6
DASHED
100
AcDbLine
 10
560.2623608246999
 20
466.401769246142
 30
0.0
 11
559.8430375776866
 21
464.9505461764329
 31
0.0
  0
LINE
  5
2BBD
330
1F
100
AcDbEntity
  8
SPOJOVACÍ
  6
DASHED
100
AcDbLine
 10
561.0426666944317
 20
467.6943787388736
 30
0.0
 11
560.2623608246999
 21
466.401769246142
 31
0.0
  0
LINE
  5
2BBE
330
1F
100
AcDbEntity
  8
SPOJOVACÍ
  6
DASHED
100
AcDbLine
 10
562.1310839967832
 20
468.7417752884975
 30
0.0
 11
561.0426666944317
 21
467.6943787388736
 31
0.0
  0
LINE
  5
2BBF
330
1F
100
AcDbEntity
  8
SPOJOVACÍ
  6
DASHED
100
AcDbLine
 10
563.453775378663
 20
469.4710331122423
 30
0.0
 11
562.1310839967832
 21
468.7417752884975
 31
0.0
  0
LINE
  5
2BC0
330
1F
100
AcDbEntity
  8
SPOJOVACÍ
  6
DASHED
100
AcDbLine
 10
557.1329331859219
 20
464.1793560277728
 30
0.0
 11
557.1329331859219
 21
459.3352609324228
 31
0.0
  0
LINE
  5
2BC1
330
1F
100
AcDbEntity
  8
SPOJOVACÍ
  6
DASHED
100
AcDbLine
 10
559.7783159454033
 20
464.1793560277728
 30
0.0
 11
559.7783159454033
 21
460.2222207606864
 31
0.0
  0
LINE
  5
2BC2
330
1F
100
AcDbEntity
  8
SPOJOVACÍ
  6
DASHED
100
AcDbLine
 10
559.7783159454033
 20
459.6388145016935
 30
0.0
 11
559.7783159454033
 21
457.1702767677652
 31
0.0
  0
LINE
  5
2BC3
330
1F
100
AcDbEntity
  8
SPOJOVACÍ
  6
DASHED
100
AcDbLine
 10
559.7783159454033
 20
456.5786663582766
 30
0.0
 11
559.7783159454033
 21
454.1083054797018
 31
0.0
  0
LINE
  5
2BC4
330
1F
100
AcDbEntity
  8
SPOJOVACÍ
  6
DASHED
100
AcDbLine
 10
559.7783159454033
 20
453.5258107928966
 30
0.0
 11
559.7783159454033
 21
451.0481573362849
 31
0.0
  0
LINE
  5
2BC5
330
1F
100
AcDbEntity
  8
SPOJOVACÍ
  6
DASHED
100
AcDbLine
 10
557.1329331859219
 20
458.7436505229343
 30
0.0
 11
557.1329331859219
 21
456.2751127890059
 31
0.0
  0
LINE
  5
2BC6
330
1F
100
AcDbEntity
  8
SPOJOVACÍ
  6
DASHED
100
AcDbLine
 10
557.1329331859219
 20
455.6907949575543
 30
0.0
 11
557.1329331859219
 21
453.2131415009425
 31
0.0
  0
LINE
  5
2BC7
330
1F
100
AcDbEntity
  8
SPOJOVACÍ
  6
DASHED
100
AcDbLine
 10
557.1329331859219
 20
452.6306468141374
 30
0.0
 11
557.1329331859219
 21
450.1602859355625
 31
0.0
  0
LINE
  5
2BC8
330
1F
100
AcDbEntity
  8
SPOJOVACÍ
  6
DASHED
100
AcDbLine
 10
559.7783159454033
 20
450.4556353543448
 30
0.0
 11
559.7783159454033
 21
447.9880091926043
 31
0.0
  0
LINE
  5
2BC9
330
1F
100
AcDbEntity
  8
SPOJOVACÍ
  6
DASHED
100
AcDbLine
 10
559.7783159454033
 20
447.4036913611525
 30
0.0
 11
559.7783159454033
 21
446.1812729341017
 31
0.0
  0
LINE
  5
2BCA
330
1F
100
AcDbEntity
  8
SPOJOVACÍ
  6
DASHED
100
AcDbLine
 10
557.1329331859219
 20
449.5714102429083
 30
0.0
 11
557.1329331859219
 21
447.10287250898
 31
0.0
  0
LINE
  5
2BCB
330
1F
100
AcDbEntity
  8
SPOJOVACÍ
  6
DASHED
100
AcDbLine
 10
557.1329331859219
 20
446.5112620992276
 30
0.0
 11
557.1329331859219
 21
446.1812729341017
 31
0.0
  0
LINE
  5
2BCC
330
1F
100
AcDbEntity
  8
SPOJOVACÍ
  6
DASHED
100
AcDbLine
 10
559.7783159454033
 20
446.1812729341017
 30
0.0
 11
559.6315528087347
 21
445.0080794097321
 31
0.0
  0
LINE
  5
2BCD
330
1F
100
AcDbEntity
  8
SPOJOVACÍ
  6
DASHED
100
AcDbLine
 10
558.4556245678018
 20
435.5970071924475
 30
0.0
 11
558.1083155262954
 21
438.3763910736907
 31
0.0
  0
LINE
  5
2BCE
330
1F
100
AcDbEntity
  8
SPOJOVACÍ
  6
DASHED
100
AcDbLine
 10
559.5558923080593
 20
444.4000606989957
 30
0.0
 11
559.2714817555302
 21
442.1247762886523
 31
0.0
  0
LINE
  5
2BCF
330
1F
100
AcDbEntity
  8
SPOJOVACÍ
  6
DASHED
100
AcDbLine
 10
559.1939981115488
 20
441.506730282781
 30
0.0
 11
558.9095875632978
 21
439.2323574446327
 31
0.0
  0
LINE
  5
2BD0
330
1F
100
AcDbEntity
  8
SPOJOVACÍ
  6
DASHED
100
AcDbLine
 10
558.8339270626224
 20
438.6243387338963
 30
0.0
 11
558.4556245678018
 21
435.5970071924475
 31
0.0
  0
LINE
  5
2BD1
330
1F
100
AcDbEntity
  8
SPOJOVACÍ
  6
DASHED
100
AcDbLine
 10
558.0381244598161
 20
438.9342733090161
 30
0.0
 11
557.7755916440715
 21
441.0363589863009
 31
0.0
  0
LINE
  5
2BD2
330
1F
100
AcDbEntity
  8
SPOJOVACÍ
  6
DASHED
100
AcDbLine
 10
557.7054005818704
 20
441.5969759384607
 30
0.0
 11
557.4437793356396
 21
443.690857465257
 31
0.0
  0
LINE
  5
2BD3
330
1F
100
AcDbEntity
  8
SPOJOVACÍ
  6
DASHED
100
AcDbLine
 10
557.3735882691603
 20
444.2496512730413
 30
0.0
 11
557.1329331859219
 21
446.1812729341017
 31
0.0
  0
LINE
  5
2BD4
330
1F
100
AcDbEntity
  8
SPOJOVACÍ
  6
DASHED
100
AcDbLine
 10
560.8074810496677
 20
460.0626956117848
 30
0.0
 11
556.1037680859358
 21
458.8867673708518
 31
0.0
  0
LINE
  5
2BD5
330
1F
100
AcDbEntity
  8
SPOJOVACÍ
  6
DASHED
100
AcDbLine
 10
560.8074810496677
 20
460.0626956117848
 30
0.0
 11
560.437382701863
 21
459.8493876984576
 31
0.0
  0
LINE
  5
2BD6
330
1F
100
AcDbEntity
  8
SPOJOVACÍ
  6
DASHED
100
AcDbLine
 10
560.8074810496677
 20
460.0626956117848
 30
0.0
 11
560.437382701863
 21
460.4337055296382
 31
0.0
  0
LINE
  5
2BD7
330
1F
100
AcDbEntity
  8
SPOJOVACÍ
  6
DASHED
100
AcDbLine
 10
556.1037680859358
 20
458.8867673708518
 30
0.0
 11
556.4738664294623
 21
458.5166690251862
 31
0.0
  0
LINE
  5
2BD8
330
1F
100
AcDbEntity
  8
SPOJOVACÍ
  6
DASHED
100
AcDbLine
 10
556.1037680859358
 20
458.8867673708518
 30
0.0
 11
556.4738664294623
 21
459.100986856638
 31
0.0
  0
LINE
  5
2BD9
330
1F
100
AcDbEntity
  8
SPOJOVACÍ
  6
DASHED
100
AcDbLine
 10
560.437382701863
 20
459.8493876984576
 30
0.0
 11
556.4738664294623
 21
458.5166690251862
 31
0.0
  0
LINE
  5
2BDA
330
1F
100
AcDbEntity
  8
SPOJOVACÍ
  6
DASHED
100
AcDbLine
 10
560.437382701863
 20
460.4337055296382
 30
0.0
 11
556.4738664294623
 21
459.100986856638
 31
0.0
  0
LINE
  5
2BDB
330
1F
100
AcDbEntity
  8
SPOJOVACÍ
  6
DASHED
100
AcDbLine
 10
560.8074810496677
 20
457.0052821852023
 30
0.0
 11
556.1037680859358
 21
455.8293539439983
 31
0.0
  0
LINE
  5
2BDC
330
1F
100
AcDbEntity
  8
SPOJOVACÍ
  6
DASHED
100
AcDbLine
 10
560.8074810496677
 20
457.0052821852023
 30
0.0
 11
560.437382701863
 21
456.7910626994161
 31
0.0
  0
LINE
  5
2BDD
330
1F
100
AcDbEntity
  8
SPOJOVACÍ
  6
DASHED
100
AcDbLine
 10
560.8074810496677
 20
457.0052821852023
 30
0.0
 11
560.437382701863
 21
457.3753805308679
 31
0.0
  0
LINE
  5
2BDE
330
1F
100
AcDbEntity
  8
SPOJOVACÍ
  6
DASHED
100
AcDbLine
 10
556.1037680859358
 20
455.8293539439983
 30
0.0
 11
556.4738664294623
 21
455.4592555986037
 31
0.0
  0
LINE
  5
2BDF
330
1F
100
AcDbEntity
  8
SPOJOVACÍ
  6
DASHED
100
AcDbLine
 10
556.1037680859358
 20
455.8293539439983
 30
0.0
 11
556.4738664294623
 21
456.0435734297843
 31
0.0
  0
LINE
  5
2BE0
330
1F
100
AcDbEntity
  8
SPOJOVACÍ
  6
DASHED
100
AcDbLine
 10
560.437382701863
 20
456.7910626994161
 30
0.0
 11
556.4738664294623
 21
455.4592555986037
 31
0.0
  0
LINE
  5
2BE1
330
1F
100
AcDbEntity
  8
SPOJOVACÍ
  6
DASHED
100
AcDbLine
 10
560.437382701863
 20
457.3753805308679
 30
0.0
 11
556.4738664294623
 21
456.0435734297843
 31
0.0
  0
LINE
  5
2BE2
330
1F
100
AcDbEntity
  8
SPOJOVACÍ
  6
DASHED
100
AcDbLine
 10
560.5586218151351
 20
444.8166492310502
 30
0.0
 11
560.1876118978166
 21
444.602429745264
 31
0.0
  0
LINE
  5
2BE3
330
1F
100
AcDbEntity
  8
SPOJOVACÍ
  6
DASHED
100
AcDbLine
 10
560.5586218151351
 20
444.8166492310502
 30
0.0
 11
560.1876118978166
 21
445.1867475767158
 31
0.0
  0
LINE
  5
2BE4
330
1F
100
AcDbEntity
  8
SPOJOVACÍ
  6
DASHED
100
AcDbLine
 10
556.5157987554471
 20
443.8631446263916
 30
0.0
 11
556.8858970989736
 21
443.4921347082672
 31
0.0
  0
LINE
  5
2BE5
330
1F
100
AcDbEntity
  8
SPOJOVACÍ
  6
DASHED
100
AcDbLine
 10
556.5157987554471
 20
443.8631446263916
 30
0.0
 11
556.8858970989736
 21
444.0764525397189
 31
0.0
  0
LINE
  5
2BE6
330
1F
100
AcDbEntity
  8
SPOJOVACÍ
  6
DASHED
100
AcDbLine
 10
560.1876118978166
 20
444.602429745264
 30
0.0
 11
556.8858970989736
 21
443.4921347082672
 31
0.0
  0
LINE
  5
2BE7
330
1F
100
AcDbEntity
  8
SPOJOVACÍ
  6
DASHED
100
AcDbLine
 10
560.1876118978166
 20
445.1867475767158
 30
0.0
 11
556.8858970989736
 21
444.0764525397189
 31
0.0
  0
LINE
  5
2BE8
330
1F
100
AcDbEntity
  8
SPOJOVACÍ
  6
DASHED
100
AcDbLine
 10
560.5586218151351
 20
444.8166492310502
 30
0.0
 11
556.5157987554471
 21
443.8631446263916
 31
0.0
  0
LINE
  5
2BE9
330
1F
100
AcDbEntity
  8
SPOJOVACÍ
  6
DASHED
100
AcDbLine
 10
560.0052974431514
 20
441.8622434718381
 30
0.0
 11
559.6351990953467
 21
441.6489355585108
 31
0.0
  0
LINE
  5
2BEA
330
1F
100
AcDbEntity
  8
SPOJOVACÍ
  6
DASHED
100
AcDbLine
 10
560.0052974431514
 20
441.8622434718381
 30
0.0
 11
559.6351990953467
 21
442.2332533899625
 31
0.0
  0
LINE
  5
2BEB
330
1F
100
AcDbEntity
  8
SPOJOVACÍ
  6
DASHED
100
AcDbLine
 10
556.9515303050488
 20
441.2414627494036
 30
0.0
 11
557.3216286485753
 21
440.8704528315502
 31
0.0
  0
LINE
  5
2BEC
330
1F
100
AcDbEntity
  8
SPOJOVACÍ
  6
DASHED
100
AcDbLine
 10
556.9515303050488
 20
441.2414627494036
 30
0.0
 11
557.3216286485753
 21
441.4547706627309
 31
0.0
  0
LINE
  5
2BED
330
1F
100
AcDbEntity
  8
SPOJOVACÍ
  6
DASHED
100
AcDbLine
 10
559.6351990953467
 20
441.6489355585108
 30
0.0
 11
557.3216286485753
 21
440.8704528315502
 31
0.0
  0
LINE
  5
2BEE
330
1F
100
AcDbEntity
  8
SPOJOVACÍ
  6
DASHED
100
AcDbLine
 10
559.6351990953467
 20
442.2332533899625
 30
0.0
 11
557.3216286485753
 21
441.4547706627309
 31
0.0
  0
LINE
  5
2BEF
330
1F
100
AcDbEntity
  8
SPOJOVACÍ
  6
DASHED
100
AcDbLine
 10
560.0052974431514
 20
441.8622434718381
 30
0.0
 11
556.9515303050488
 21
441.2414627494036
 31
0.0
  0
LINE
  5
2BF0
330
1F
100
AcDbEntity
  8
SPOJOVACÍ
  6
DASHED
100
AcDbLine
 10
559.4519730668894
 20
438.9087492850848
 30
0.0
 11
559.0818747233629
 21
438.6945297993061
 31
0.0
  0
LINE
  5
2BF1
330
1F
100
AcDbEntity
  8
SPOJOVACÍ
  6
DASHED
100
AcDbLine
 10
559.4519730668894
 20
438.9087492850848
 30
0.0
 11
559.0818747233629
 21
439.2788476307505
 31
0.0
  0
LINE
  5
2BF2
330
1F
100
AcDbEntity
  8
SPOJOVACÍ
  6
DASHED
100
AcDbLine
 10
557.3407716682618
 20
438.6042841436265
 30
0.0
 11
557.7108700117882
 21
438.2332742257731
 31
0.0
  0
LINE
  5
2BF3
330
1F
100
AcDbEntity
  8
SPOJOVACÍ
  6
DASHED
100
AcDbLine
 10
557.3407716682618
 20
438.6042841436265
 30
0.0
 11
557.7108700117882
 21
438.8175920572175
 31
0.0
  0
LINE
  5
2BF4
330
1F
100
AcDbEntity
  8
SPOJOVACÍ
  6
DASHED
100
AcDbLine
 10
559.0818747233629
 20
438.6945297993061
 30
0.0
 11
557.7108700117882
 21
438.2332742257731
 31
0.0
  0
LINE
  5
2BF5
330
1F
100
AcDbEntity
  8
SPOJOVACÍ
  6
DASHED
100
AcDbLine
 10
559.0818747233629
 20
439.2788476307505
 30
0.0
 11
557.7108700117882
 21
438.8175920572175
 31
0.0
  0
LINE
  5
2BF6
330
1F
100
AcDbEntity
  8
SPOJOVACÍ
  6
DASHED
100
AcDbLine
 10
559.4519730668894
 20
438.9087492850848
 30
0.0
 11
557.3407716682618
 21
438.6042841436265
 31
0.0
  0
LINE
  5
2BF7
330
1F
100
AcDbEntity
  8
SPOJOVACÍ
  6
DASHED
100
AcDbLine
 10
560.8074810496677
 20
453.9478687583486
 30
0.0
 11
556.1037680859358
 21
452.7719405174157
 31
0.0
  0
LINE
  5
2BF8
330
1F
100
AcDbEntity
  8
SPOJOVACÍ
  6
DASHED
100
AcDbLine
 10
560.8074810496677
 20
453.9478687583486
 30
0.0
 11
560.437382701863
 21
453.7336492725626
 31
0.0
  0
LINE
  5
2BF9
330
1F
100
AcDbEntity
  8
SPOJOVACÍ
  6
DASHED
100
AcDbLine
 10
560.8074810496677
 20
453.9478687583486
 30
0.0
 11
560.437382701863
 21
454.3179671040142
 31
0.0
  0
LINE
  5
2BFA
330
1F
100
AcDbEntity
  8
SPOJOVACÍ
  6
DASHED
100
AcDbLine
 10
556.1037680859358
 20
452.7719405174157
 30
0.0
 11
556.4738664294623
 21
452.4009305995623
 31
0.0
  0
LINE
  5
2BFB
330
1F
100
AcDbEntity
  8
SPOJOVACÍ
  6
DASHED
100
AcDbLine
 10
556.1037680859358
 20
452.7719405174157
 30
0.0
 11
556.4738664294623
 21
452.9852484310067
 31
0.0
  0
LINE
  5
2BFC
330
1F
100
AcDbEntity
  8
SPOJOVACÍ
  6
DASHED
100
AcDbLine
 10
560.437382701863
 20
453.7336492725626
 30
0.0
 11
556.4738664294623
 21
452.4009305995623
 31
0.0
  0
LINE
  5
2BFD
330
1F
100
AcDbEntity
  8
SPOJOVACÍ
  6
DASHED
100
AcDbLine
 10
560.437382701863
 20
454.3179671040142
 30
0.0
 11
556.4738664294623
 21
452.9852484310067
 31
0.0
  0
LINE
  5
2BFE
330
1F
100
AcDbEntity
  8
SPOJOVACÍ
  6
DASHED
100
AcDbLine
 10
560.8074810496677
 20
450.8904553317588
 30
0.0
 11
556.1037680859358
 21
449.7145270908259
 31
0.0
  0
LINE
  5
2BFF
330
1F
100
AcDbEntity
  8
SPOJOVACÍ
  6
DASHED
100
AcDbLine
 10
560.8074810496677
 20
450.8904553317588
 30
0.0
 11
560.437382701863
 21
450.67623584598
 31
0.0
  0
LINE
  5
2C00
330
1F
100
AcDbEntity
  8
SPOJOVACÍ
  6
DASHED
100
AcDbLine
 10
560.8074810496677
 20
450.8904553317588
 30
0.0
 11
560.437382701863
 21
451.2605536774244
 31
0.0
  0
LINE
  5
2C01
330
1F
100
AcDbEntity
  8
SPOJOVACÍ
  6
DASHED
100
AcDbLine
 10
556.1037680859358
 20
449.7145270908259
 30
0.0
 11
556.4738664294623
 21
449.3435171729725
 31
0.0
  0
LINE
  5
2C02
330
1F
100
AcDbEntity
  8
SPOJOVACÍ
  6
DASHED
100
AcDbLine
 10
556.1037680859358
 20
449.7145270908259
 30
0.0
 11
556.4738664294623
 21
449.9278350041532
 31
0.0
  0
LINE
  5
2C03
330
1F
100
AcDbEntity
  8
SPOJOVACÍ
  6
DASHED
100
AcDbLine
 10
560.437382701863
 20
450.67623584598
 30
0.0
 11
556.4738664294623
 21
449.3435171729725
 31
0.0
  0
LINE
  5
2C04
330
1F
100
AcDbEntity
  8
SPOJOVACÍ
  6
DASHED
100
AcDbLine
 10
560.437382701863
 20
451.2605536774244
 30
0.0
 11
556.4738664294623
 21
449.9278350041532
 31
0.0
  0
LINE
  5
2C05
330
1F
100
AcDbEntity
  8
SPOJOVACÍ
  6
DASHED
100
AcDbLine
 10
560.8074810496677
 20
447.8321303327175
 30
0.0
 11
556.1037680859358
 21
446.6562020917844
 31
0.0
  0
LINE
  5
2C06
330
1F
100
AcDbEntity
  8
SPOJOVACÍ
  6
DASHED
100
AcDbLine
 10
560.8074810496677
 20
447.8321303327175
 30
0.0
 11
560.437382701863
 21
447.6188224193902
 31
0.0
  0
LINE
  5
2C07
330
1F
100
AcDbEntity
  8
SPOJOVACÍ
  6
DASHED
100
AcDbLine
 10
560.8074810496677
 20
447.8321303327175
 30
0.0
 11
560.437382701863
 21
448.2031402508418
 31
0.0
  0
LINE
  5
2C08
330
1F
100
AcDbEntity
  8
SPOJOVACÍ
  6
DASHED
100
AcDbLine
 10
556.1037680859358
 20
446.6562020917844
 30
0.0
 11
556.4738664294623
 21
446.2861037461189
 31
0.0
  0
LINE
  5
2C09
330
1F
100
AcDbEntity
  8
SPOJOVACÍ
  6
DASHED
100
AcDbLine
 10
556.1037680859358
 20
446.6562020917844
 30
0.0
 11
556.4738664294623
 21
446.8704215775706
 31
0.0
  0
LINE
  5
2C0A
330
1F
100
AcDbEntity
  8
SPOJOVACÍ
  6
DASHED
100
AcDbLine
 10
560.437382701863
 20
447.6188224193902
 30
0.0
 11
556.4738664294623
 21
446.2861037461189
 31
0.0
  0
LINE
  5
2C0B
330
1F
100
AcDbEntity
  8
SPOJOVACÍ
  6
DASHED
100
AcDbLine
 10
560.437382701863
 20
448.2031402508418
 30
0.0
 11
556.4738664294623
 21
446.8704215775706
 31
0.0
  0
TEXT
  5
2C0C
330
1F
100
AcDbEntity
  8
POPIS
100
AcDbText
 10
745.6489975646641
 20
428.0458612659731
 30
0.0
 40
25.0
  1
07
 41
0.85
  7
SIMPLEX7
100
AcDbText
  0
TEXT
  5
2C0D
330
1F
100
AcDbEntity
  8
POPIS
100
AcDbText
 10
745.6489975646641
 20
461.931132805259
 30
0.0
 40
25.0
  1
06
 41
0.85
  7
SIMPLEX7
100
AcDbText
  0
TEXT
  5
2C0E
330
1F
100
AcDbEntity
  8
POPIS
100
AcDbText
 10
745.6489975646641
 20
497.3352940234217
 30
0.0
 40
25.0
  1
05
 41
0.85
  7
SIMPLEX7
100
AcDbText
  0
TEXT
  5
2C0F
330
1F
100
AcDbEntity
  8
POPIS
100
AcDbText
 10
799.9927007244064
 20
641.5585399385581
 30
0.0
 40
25.0
  1
Nášlapná vrstva
 41
0.7
  7
SIMPLEX7
100
AcDbText
  0
TEXT
  5
2C10
330
1F
100
AcDbEntity
  8
POPIS
100
AcDbText
 10
745.6489975646641
 20
642.5284277062019
 30
0.0
 40
25.0
  1
01
 41
0.85
  7
SIMPLEX7
100
AcDbText
  0
TEXT
  5
2C11
330
1F
100
AcDbEntity
  8
POPIS
100
AcDbText
 10
745.6489975646641
 20
605.9334160905746
 30
0.0
 40
25.0
  1
02
 41
0.85
  7
SIMPLEX7
100
AcDbText
  0
TEXT
  5
2C12
330
1F
100
AcDbEntity
  8
POPIS
100
AcDbText
 10
970.3553161694458
 20
627.5972893108801
 30
0.0
 40
8.399999999999998
  1
R
 41
0.85
  7
SIMPLEX7
100
AcDbText
  0
CIRCLE
  5
2C13
330
1F
100
AcDbEntity
  8
POPIS
100
AcDbCircle
 10
973.6866365080736
 20
631.4790313323719
 30
0.0
 40
7.795592338044182
  0
TEXT
  5
2C14
330
1F
100
AcDbEntity
  8
POPIS
100
AcDbText
 10
969.9699004610398
 20
590.2974935126008
 30
0.0
 40
8.399999999999998
  1
R
 41
0.85
  7
SIMPLEX7
100
AcDbText
  0
CIRCLE
  5
2C15
330
1F
100
AcDbEntity
  8
POPIS
100
AcDbCircle
 10
973.3012207996676
 20
594.1792355340917
 30
0.0
 40
7.795592338044182
  0
TEXT
  5
2C22
330
1F
100
AcDbEntity
  8
POPIS
100
AcDbText
 10
25.4165803538749
 20
177.2900078368736
 30
0.0
 40
25.0
  1
Doporučené podsypové materiály : Fermacell podsyp, Bachl Perlit BS, Siliperl, Liapor 0-4
 41
0.7
  7
SIMPLEX7
100
AcDbText
  0
ENDSEC
  0
SECTION
  2
OBJECTS
  0
DICTIONARY
  5
C
330
0
100
AcDbDictionary
281
     1
  3
ACAD_GROUP
350
D
  3
ACAD_LAYOUT
350
1A
  3
ACAD_MLINESTYLE
350
17
  3
ACAD_PLOTSETTINGS
350
19
  3
ACAD_PLOTSTYLENAME
350
E
  0
DICTIONARY
  5
D
102
{ACAD_REACTORS
330
C
102
}
330
C
100
AcDbDictionary
281
     1
  0
DICTIONARY
  5
1A
102
{ACAD_REACTORS
330
C
102
}
330
C
100
AcDbDictionary
281
     1
  3
Model
350
22
  3
Rozvržení1
350
1E
  3
Rozvržení2
350
26
  0
DICTIONARY
  5
17
102
{ACAD_REACTORS
330
C
102
}
330
C
100
AcDbDictionary
281
     1
  3
Standard
350
18
  0
DICTIONARY
  5
19
102
{ACAD_REACTORS
330
C
102
}
330
C
100
AcDbDictionary
281
     1
  0
ACDBDICTIONARYWDFLT
  5
E
102
{ACAD_REACTORS
330
C
102
}
330
C
100
AcDbDictionary
281
     1
  3
Normal
350
F
100
AcDbDictionaryWithDefault
340
F
  0
LAYOUT
  5
22
102
{ACAD_REACTORS
330
1A
102
}
330
1A
100
AcDbPlotSettings
  1

  2
HP DeskJet 690C
  4

  6

 40
0.0
 41
0.0
 42
0.0
 43
0.0
 44
0.0
 45
0.0
 46
0.0
 47
0.0
 48
0.0
 49
0.0
140
0.0
141
0.0
142
1.0
143
1.0
 70
  1712
 72
     0
 73
     0
 74
     0
  7
monochrome.ctb
 75
     0
147
1.0
148
0.0
149
0.0
100
AcDbLayout
  1
Model
 70
     1
 71
     0
 10
0.0
 20
0.0
 11
12.0
 21
9.0
 12
0.0
 22
0.0
 32
0.0
 14
0.0
 24
0.0
 34
0.0
 15
0.0
 25
0.0
 35
0.0
146
0.0
 13
0.0
 23
0.0
 33
0.0
 16
1.0
 26
0.0
 36
0.0
 17
0.0
 27
1.0
 37
0.0
 76
     0
330
1F
  0
LAYOUT
  5
1E
102
{ACAD_REACTORS
330
1A
102
}
330
1A
100
AcDbPlotSettings
  1

  2
HP DeskJet 690C
  4

  6

 40
0.0
 41
0.0
 42
0.0
 43
0.0
 44
0.0
 45
0.0
 46
0.0
 47
0.0
 48
0.0
 49
0.0
140
0.0
141
0.0
142
1.0
143
1.0
 70
   688
 72
     0
 73
     0
 74
     5
  7
monochrome.ctb
 75
    16
147
1.0
148
0.0
149
0.0
100
AcDbLayout
  1
Rozvržení1
 70
     1
 71
     1
 10
0.0
 20
0.0
 11
420.0
 21
297.0
 12
0.0
 22
0.0
 32
0.0
 14
1.000000000000000E+20
 24
1.000000000000000E+20
 34
1.000000000000000E+20
 15
-1.000000000000000E+20
 25
-1.000000000000000E+20
 35
-1.000000000000000E+20
146
0.0
 13
0.0
 23
0.0
 33
0.0
 16
1.0
 26
0.0
 36
0.0
 17
0.0
 27
1.0
 37
0.0
 76
     0
330
1B
  0
LAYOUT
  5
26
102
{ACAD_REACTORS
330
1A
102
}
330
1A
100
AcDbPlotSettings
  1

  2
HP DeskJet 690C
  4

  6

 40
0.0
 41
0.0
 42
0.0
 43
0.0
 44
0.0
 45
0.0
 46
0.0
 47
0.0
 48
0.0
 49
0.0
140
0.0
141
0.0
142
1.0
143
1.0
 70
   688
 72
     0
 73
     0
 74
     5
  7
monochrome.ctb
 75
    16
147
1.0
148
0.0
149
0.0
100
AcDbLayout
  1
Rozvržení2
 70
     1
 71
     2
 10
0.0
 20
0.0
 11
12.0
 21
9.0
 12
0.0
 22
0.0
 32
0.0
 14
0.0
 24
0.0
 34
0.0
 15
0.0
 25
0.0
 35
0.0
146
0.0
 13
0.0
 23
0.0
 33
0.0
 16
1.0
 26
0.0
 36
0.0
 17
0.0
 27
1.0
 37
0.0
 76
     0
330
23
  0
MLINESTYLE
  5
18
102
{ACAD_REACTORS
330
17
102
}
330
17
100
AcDbMlineStyle
  2
STANDARD
 70
     0
  3

 62
   256
 51
90.0
 52
90.0
 71
     2
 49
0.5
 62
   256
  6
BYLAYER
 49
-0.5
 62
   256
  6
BYLAYER
  0
ACDBPLACEHOLDER
  5
F
102
{ACAD_REACTORS
330
E
102
}
330
E
  0
ENDSEC
  0
EOF
