  0
SECTION
  2
HEADER
  9
$ACADVER
  1
AC1015
  9
$ACADMAINTVER
 70
    10
  9
$DWGCODEPAGE
  3
ANSI_1250
  9
$INSBASE
 10
0.0
 20
0.0
 30
0.0
  9
$EXTMIN
 10
26.55569186913089
 20
12.51643034500375
 30
0.0
  9
$EXTMAX
 10
1350.489873462165
 20
567.1518228147268
 30
0.0
  9
$LIMMIN
 10
0.0
 20
0.0
  9
$LIMMAX
 10
420.0
 20
297.0
  9
$ORTHOMODE
 70
     0
  9
$REGENMODE
 70
     1
  9
$FILLMODE
 70
     1
  9
$QTEXTMODE
 70
     0
  9
$MIRRTEXT
 70
     1
  9
$LTSCALE
 40
1.0
  9
$ATTMODE
 70
     1
  9
$TEXTSIZE
 40
2.5
  9
$TRACEWID
 40
1.0
  9
$TEXTSTYLE
  7
Standard
  9
$CLAYER
  8
0
  9
$CELTYPE
  6
ByLayer
  9
$CECOLOR
 62
   256
  9
$CELTSCALE
 40
1.0
  9
$DISPSILH
 70
     0
  9
$DIMSCALE
 40
1.0
  9
$DIMASZ
 40
2.5
  9
$DIMEXO
 40
0.625
  9
$DIMDLI
 40
3.75
  9
$DIMRND
 40
0.0
  9
$DIMDLE
 40
0.0
  9
$DIMEXE
 40
1.25
  9
$DIMTP
 40
0.0
  9
$DIMTM
 40
0.0
  9
$DIMTXT
 40
2.5
  9
$DIMCEN
 40
2.5
  9
$DIMTSZ
 40
0.0
  9
$DIMTOL
 70
     0
  9
$DIMLIM
 70
     0
  9
$DIMTIH
 70
     0
  9
$DIMTOH
 70
     0
  9
$DIMSE1
 70
     0
  9
$DIMSE2
 70
     0
  9
$DIMTAD
 70
     1
  9
$DIMZIN
 70
     8
  9
$DIMBLK
  1

  9
$DIMASO
 70
     1
  9
$DIMSHO
 70
     1
  9
$DIMPOST
  1

  9
$DIMAPOST
  1

  9
$DIMALT
 70
     0
  9
$DIMALTD
 70
     3
  9
$DIMALTF
 40
0.03937007874016
  9
$DIMLFAC
 40
1.0
  9
$DIMTOFL
 70
     1
  9
$DIMTVP
 40
0.0
  9
$DIMTIX
 70
     0
  9
$DIMSOXD
 70
     0
  9
$DIMSAH
 70
     0
  9
$DIMBLK1
  1

  9
$DIMBLK2
  1

  9
$DIMSTYLE
  2
ISO-25
  9
$DIMCLRD
 70
     0
  9
$DIMCLRE
 70
     0
  9
$DIMCLRT
 70
     0
  9
$DIMTFAC
 40
1.0
  9
$DIMGAP
 40
0.625
  9
$DIMJUST
 70
     0
  9
$DIMSD1
 70
     0
  9
$DIMSD2
 70
     0
  9
$DIMTOLJ
 70
     0
  9
$DIMTZIN
 70
     8
  9
$DIMALTZ
 70
     0
  9
$DIMALTTZ
 70
     0
  9
$DIMUPT
 70
     0
  9
$DIMDEC
 70
     2
  9
$DIMTDEC
 70
     2
  9
$DIMALTU
 70
     2
  9
$DIMALTTD
 70
     3
  9
$DIMTXSTY
  7
Standard
  9
$DIMAUNIT
 70
     0
  9
$DIMADEC
 70
     0
  9
$DIMALTRND
 40
0.0
  9
$DIMAZIN
 70
     0
  9
$DIMDSEP
 70
    44
  9
$DIMATFIT
 70
     3
  9
$DIMFRAC
 70
     0
  9
$DIMLDRBLK
  1

  9
$DIMLUNIT
 70
     2
  9
$DIMLWD
 70
    -2
  9
$DIMLWE
 70
    -2
  9
$DIMTMOVE
 70
     0
  9
$LUNITS
 70
     2
  9
$LUPREC
 70
     4
  9
$SKETCHINC
 40
1.0
  9
$FILLETRAD
 40
10.0
  9
$AUNITS
 70
     0
  9
$AUPREC
 70
     0
  9
$MENU
  1
.
  9
$ELEVATION
 40
0.0
  9
$PELEVATION
 40
0.0
  9
$THICKNESS
 40
0.0
  9
$LIMCHECK
 70
     0
  9
$CHAMFERA
 40
10.0
  9
$CHAMFERB
 40
10.0
  9
$CHAMFERC
 40
20.0
  9
$CHAMFERD
 40
0.0
  9
$SKPOLY
 70
     0
  9
$TDCREATE
 40
2452332.337407754
  9
$TDUCREATE
 40
2452332.295741087
  9
$TDUPDATE
 40
2452653.363715625
  9
$TDUUPDATE
 40
2452653.322048958
  9
$TDINDWG
 40
0.0025341204
  9
$TDUSRTIMER
 40
0.0025341204
  9
$USRTIMER
 70
     1
  9
$ANGBASE
 50
0.0
  9
$ANGDIR
 70
     0
  9
$PDMODE
 70
     0
  9
$PDSIZE
 40
0.0
  9
$PLINEWID
 40
0.0
  9
$SPLFRAME
 70
     0
  9
$SPLINETYPE
 70
     6
  9
$SPLINESEGS
 70
     8
  9
$HANDSEED
  5
D43
  9
$SURFTAB1
 70
     6
  9
$SURFTAB2
 70
     6
  9
$SURFTYPE
 70
     6
  9
$SURFU
 70
     6
  9
$SURFV
 70
     6
  9
$UCSBASE
  2

  9
$UCSNAME
  2

  9
$UCSORG
 10
0.0
 20
0.0
 30
0.0
  9
$UCSXDIR
 10
1.0
 20
0.0
 30
0.0
  9
$UCSYDIR
 10
0.0
 20
1.0
 30
0.0
  9
$UCSORTHOREF
  2

  9
$UCSORTHOVIEW
 70
     0
  9
$UCSORGTOP
 10
0.0
 20
0.0
 30
0.0
  9
$UCSORGBOTTOM
 10
0.0
 20
0.0
 30
0.0
  9
$UCSORGLEFT
 10
0.0
 20
0.0
 30
0.0
  9
$UCSORGRIGHT
 10
0.0
 20
0.0
 30
0.0
  9
$UCSORGFRONT
 10
0.0
 20
0.0
 30
0.0
  9
$UCSORGBACK
 10
0.0
 20
0.0
 30
0.0
  9
$PUCSBASE
  2

  9
$PUCSNAME
  2

  9
$PUCSORG
 10
0.0
 20
0.0
 30
0.0
  9
$PUCSXDIR
 10
1.0
 20
0.0
 30
0.0
  9
$PUCSYDIR
 10
0.0
 20
1.0
 30
0.0
  9
$PUCSORTHOREF
  2

  9
$PUCSORTHOVIEW
 70
     0
  9
$PUCSORGTOP
 10
0.0
 20
0.0
 30
0.0
  9
$PUCSORGBOTTOM
 10
0.0
 20
0.0
 30
0.0
  9
$PUCSORGLEFT
 10
0.0
 20
0.0
 30
0.0
  9
$PUCSORGRIGHT
 10
0.0
 20
0.0
 30
0.0
  9
$PUCSORGFRONT
 10
0.0
 20
0.0
 30
0.0
  9
$PUCSORGBACK
 10
0.0
 20
0.0
 30
0.0
  9
$USERI1
 70
     0
  9
$USERI2
 70
     0
  9
$USERI3
 70
     0
  9
$USERI4
 70
     0
  9
$USERI5
 70
     0
  9
$USERR1
 40
0.0
  9
$USERR2
 40
0.0
  9
$USERR3
 40
0.0
  9
$USERR4
 40
0.0
  9
$USERR5
 40
0.0
  9
$WORLDVIEW
 70
     1
  9
$SHADEDGE
 70
     3
  9
$SHADEDIF
 70
    70
  9
$TILEMODE
 70
     1
  9
$MAXACTVP
 70
    64
  9
$PINSBASE
 10
0.0
 20
0.0
 30
0.0
  9
$PLIMCHECK
 70
     0
  9
$PEXTMIN
 10
1.000000000000000E+20
 20
1.000000000000000E+20
 30
1.000000000000000E+20
  9
$PEXTMAX
 10
-1.000000000000000E+20
 20
-1.000000000000000E+20
 30
-1.000000000000000E+20
  9
$PLIMMIN
 10
0.0
 20
0.0
  9
$PLIMMAX
 10
420.0
 20
297.0
  9
$UNITMODE
 70
     0
  9
$VISRETAIN
 70
     1
  9
$PLINEGEN
 70
     0
  9
$PSLTSCALE
 70
     1
  9
$TREEDEPTH
 70
  3020
  9
$CMLSTYLE
  2
Standard
  9
$CMLJUST
 70
     0
  9
$CMLSCALE
 40
20.0
  9
$PROXYGRAPHICS
 70
     1
  9
$MEASUREMENT
 70
     1
  9
$CELWEIGHT
370
    -1
  9
$ENDCAPS
280
     0
  9
$JOINSTYLE
280
     0
  9
$LWDISPLAY
290
     0
  9
$INSUNITS
 70
     4
  9
$HYPERLINKBASE
  1

  9
$STYLESHEET
  1

  9
$XEDIT
290
     1
  9
$CEPSNTYPE
380
     0
  9
$PSTYLEMODE
290
     1
  9
$FINGERPRINTGUID
  2
{B968C5BB-500F-458D-B9F8-13F88C7D245D}
  9
$VERSIONGUID
  2
{CB844FE6-747D-42C0-9DE9-7143450E3AEF}
  9
$EXTNAMES
290
     1
  9
$PSVPSCALE
 40
0.0
  9
$OLESTARTUP
290
     0
  0
ENDSEC
  0
SECTION
  2
CLASSES
  0
CLASS
  1
ACDBDICTIONARYWDFLT
  2
AcDbDictionaryWithDefault
  3
AutoCAD 2000
 90
        0
280
     0
281
     0
  0
CLASS
  1
ACDBPLACEHOLDER
  2
AcDbPlaceHolder
  3
AutoCAD 2000
 90
        0
280
     0
281
     0
  0
CLASS
  1
LAYOUT
  2
AcDbLayout
  3
AutoCAD 2000
 90
        0
280
     0
281
     0
  0
ENDSEC
  0
SECTION
  2
TABLES
  0
TABLE
  2
VPORT
  5
8
330
0
100
AcDbSymbolTable
 70
     2
  0
VPORT
  5
D42
330
8
100
AcDbSymbolTableRecord
100
AcDbViewportTableRecord
  2
*Active
 70
     0
 10
0.0
 20
0.0
 11
1.0
 21
1.0
 12
691.9130821353916
 22
267.1023226007382
 13
0.0
 23
0.0
 14
10.0
 24
10.0
 15
10.0
 25
10.0
 16
0.0
 26
0.0
 36
1.0
 17
0.0
 27
0.0
 37
0.0
 40
650.6419643034796
 41
2.147499999999999
 42
50.0
 43
0.0
 44
0.0
 50
0.0
 51
0.0
 71
     0
 72
   100
 73
     1
 74
     3
 75
     0
 76
     0
 77
     0
 78
     0
281
     0
 65
     1
110
0.0
120
0.0
130
0.0
111
1.0
121
0.0
131
0.0
112
0.0
122
1.0
132
0.0
 79
     0
146
0.0
  0
ENDTAB
  0
TABLE
  2
LTYPE
  5
5
330
0
100
AcDbSymbolTable
 70
     3
  0
LTYPE
  5
14
330
5
100
AcDbSymbolTableRecord
100
AcDbLinetypeTableRecord
  2
ByBlock
 70
     0
  3

 72
    65
 73
     0
 40
0.0
  0
LTYPE
  5
15
330
5
100
AcDbSymbolTableRecord
100
AcDbLinetypeTableRecord
  2
ByLayer
 70
     0
  3

 72
    65
 73
     0
 40
0.0
  0
LTYPE
  5
16
330
5
100
AcDbSymbolTableRecord
100
AcDbLinetypeTableRecord
  2
Continuous
 70
     0
  3
Solid line
 72
    65
 73
     0
 40
0.0
  0
LTYPE
  5
70A
330
5
100
AcDbSymbolTableRecord
100
AcDbLinetypeTableRecord
  2
DASHED
 70
     0
  3
Dashed __ __ __ __ __ __ __ __ __ __ __ __ __ _
 72
    65
 73
     2
 40
19.04999999999999
 49
12.7
 74
     0
 49
-6.349999999999999
 74
     0
  0
LTYPE
  5
70B
330
5
100
AcDbSymbolTableRecord
100
AcDbLinetypeTableRecord
  2
IZOLACE
 70
     0
  3
Izolace SSSSSSSSSSSSSSSSSSSSSSSSSSSSSSSSSSSSSSS
 72
    65
 73
     4
 40
10.16253999999999
 49
0.00254
 74
     0
 49
-2.54
 74
     4
 75
   134
340
713
 46
2.54
 50
0.0
 44
-2.54
 45
0.0
 49
-5.08
 74
     4
 75
   134
340
713
 46
2.54
 50
180.0
 44
2.54
 45
0.0
 49
-2.54
 74
     0
  0
ENDTAB
  0
TABLE
  2
LAYER
  5
2
330
0
100
AcDbSymbolTable
 70
     7
  0
LAYER
  5
10
330
2
100
AcDbSymbolTableRecord
100
AcDbLayerTableRecord
  2
0
 70
     0
 62
     7
  6
Continuous
370
    -3
390
F
  0
LAYER
  5
70C
330
2
100
AcDbSymbolTableRecord
100
AcDbLayerTableRecord
  2
POPIS
 70
     0
 62
    30
  6
Continuous
370
    -3
390
F
  0
LAYER
  5
70D
330
2
100
AcDbSymbolTableRecord
100
AcDbLayerTableRecord
  2
SPOJOVACÍ
 70
     0
 62
   180
  6
Continuous
370
    -3
390
F
  0
LAYER
  5
70E
330
2
100
AcDbSymbolTableRecord
100
AcDbLayerTableRecord
  2
CETRIS
 70
     0
 62
     1
  6
Continuous
370
    -3
390
F
  0
LAYER
  5
70F
330
2
100
AcDbSymbolTableRecord
100
AcDbLayerTableRecord
  2
izolace
 70
     0
 62
    33
  6
Continuous
370
    -3
390
F
  0
LAYER
  5
710
330
2
100
AcDbSymbolTableRecord
100
AcDbLayerTableRecord
  2
nášlap_vrstvy
 70
     0
 62
    73
  6
Continuous
370
    -3
390
F
  0
LAYER
  5
711
330
2
100
AcDbSymbolTableRecord
100
AcDbLayerTableRecord
  2
STAVBA OBRYS
 70
     0
 62
     6
  6
Continuous
370
    -3
390
F
  0
ENDTAB
  0
TABLE
  2
STYLE
  5
3
330
0
100
AcDbSymbolTable
 70
     3
  0
STYLE
  5
11
330
3
100
AcDbSymbolTableRecord
100
AcDbTextStyleTableRecord
  2
Standard
 70
     0
 40
0.0
 41
1.0
 50
0.0
 71
     0
 42
2.5
  3
txt
  4

  0
STYLE
  5
712
330
3
100
AcDbSymbolTableRecord
100
AcDbTextStyleTableRecord
  2
SIMPLEX7
 70
     0
 40
0.0
 41
0.85
 50
0.0
 71
     0
 42
102.0
  3

  4

1001
ACAD
1000
Arial CE
1071
    60962
  0
STYLE
  5
713
330
3
100
AcDbSymbolTableRecord
100
AcDbTextStyleTableRecord
  2

 70
     1
 40
0.0
 41
1.0
 50
0.0
 71
     0
 42
2.5
  3
ltypeshp.shx
  4

  0
ENDTAB
  0
TABLE
  2
VIEW
  5
6
330
0
100
AcDbSymbolTable
 70
     0
  0
ENDTAB
  0
TABLE
  2
UCS
  5
7
330
0
100
AcDbSymbolTable
 70
     0
  0
ENDTAB
  0
TABLE
  2
APPID
  5
9
330
0
100
AcDbSymbolTable
 70
     1
  0
APPID
  5
12
330
9
100
AcDbSymbolTableRecord
100
AcDbRegAppTableRecord
  2
ACAD
 70
     0
  0
ENDTAB
  0
TABLE
  2
DIMSTYLE
  5
A
330
0
100
AcDbSymbolTable
 70
     1
100
AcDbDimStyleTable
 71
     0
  0
DIMSTYLE
105
27
330
A
100
AcDbSymbolTableRecord
100
AcDbDimStyleTableRecord
  2
ISO-25
 70
     0
 41
2.5
 42
0.625
 43
3.75
 44
1.25
 73
     0
 74
     0
 77
     1
 78
     8
140
2.5
141
2.5
143
0.03937007874016
147
0.625
171
     3
172
     1
271
     2
272
     2
274
     3
278
    44
283
     0
284
     8
340
11
  0
ENDTAB
  0
TABLE
  2
BLOCK_RECORD
  5
1
330
0
100
AcDbSymbolTable
 70
     2
  0
BLOCK_RECORD
  5
1F
330
1
100
AcDbSymbolTableRecord
100
AcDbBlockTableRecord
  2
*Model_Space
340
22
  0
BLOCK_RECORD
  5
1B
330
1
100
AcDbSymbolTableRecord
100
AcDbBlockTableRecord
  2
*Paper_Space
340
1E
  0
BLOCK_RECORD
  5
23
330
1
100
AcDbSymbolTableRecord
100
AcDbBlockTableRecord
  2
*Paper_Space0
340
26
  0
BLOCK_RECORD
  5
706
330
1
100
AcDbSymbolTableRecord
100
AcDbBlockTableRecord
  2
E_PUNKT
340
0
102
{BLKREFS
331
ABC
331
ABD
331
AE6
331
D29
331
D2A
331
D2B
331
BB0
331
BB1
331
BB4
331
BB5
331
BB6
102
}
  0
ENDTAB
  0
ENDSEC
  0
SECTION
  2
BLOCKS
  0
BLOCK
  5
20
330
1F
100
AcDbEntity
  8
0
100
AcDbBlockBegin
  2
*Model_Space
 70
     0
 10
0.0
 20
0.0
 30
0.0
  3
*Model_Space
  1

  0
ENDBLK
  5
21
330
1F
100
AcDbEntity
  8
0
100
AcDbBlockEnd
  0
BLOCK
  5
1C
330
1B
100
AcDbEntity
 67
     1
  8
0
100
AcDbBlockBegin
  2
*Paper_Space
 70
     0
 10
0.0
 20
0.0
 30
0.0
  3
*Paper_Space
  1

  0
ENDBLK
  5
1D
330
1B
100
AcDbEntity
 67
     1
  8
0
100
AcDbBlockEnd
  0
BLOCK
  5
24
330
23
100
AcDbEntity
  8
0
100
AcDbBlockBegin
  2
*Paper_Space0
 70
     0
 10
0.0
 20
0.0
 30
0.0
  3
*Paper_Space0
  1

  0
ENDBLK
  5
25
330
23
100
AcDbEntity
  8
0
100
AcDbBlockEnd
  0
BLOCK
  5
708
330
706
100
AcDbEntity
  8
0
100
AcDbBlockBegin
  2
E_PUNKT
 70
     0
 10
0.0
 20
0.0
 30
0.0
  3
E_PUNKT
  1

  0
LWPOLYLINE
  5
707
330
706
100
AcDbEntity
  8
POPIS
100
AcDbPolyline
 90
        2
 70
     1
 43
2.5
 10
1.27761037562675
 20
0.0290683308725193
 42
-1.0
 10
-1.222389624373249
 20
0.0290683308725193
 42
-1.0
  0
ENDBLK
  5
709
330
706
100
AcDbEntity
  8
0
100
AcDbBlockEnd
  0
ENDSEC
  0
SECTION
  2
ENTITIES
  0
TEXT
  5
A2B
330
1F
100
AcDbEntity
  8
POPIS
100
AcDbText
 10
864.0829839669404
 20
26.87311347468335
 30
0.0
 40
25.0
  1
Stropní konstrukce
 41
0.7
  7
SIMPLEX7
100
AcDbText
  0
TEXT
  5
A2C
330
1F
100
AcDbEntity
  8
POPIS
100
AcDbText
 10
864.0829839669404
 20
60.18815259966345
 30
0.0
 40
25.0
  1
Dilatační spára tl. 15 mm
 41
0.7
  7
SIMPLEX7
100
AcDbText
  0
TEXT
  5
A2D
330
1F
100
AcDbEntity
  8
POPIS
100
AcDbText
 10
864.0829839669404
 20
309.3326915521199
 30
0.0
 40
25.0
  1
Nášlapná vrstva
 41
0.7
  7
SIMPLEX7
100
AcDbText
  0
TEXT
  5
A2E
330
1F
100
AcDbEntity
  8
POPIS
100
AcDbText
 10
864.0829839669404
 20
415.2509370310224
 30
0.0
 40
25.0
  1
Dilatační profil Schlűter DILEX
 41
0.7
  7
SIMPLEX7
100
AcDbText
  0
TEXT
  5
A2F
330
1F
100
AcDbEntity
  8
POPIS
100
AcDbText
 10
864.0829839669404
 20
381.2847216825309
 30
0.0
 40
25.0
  1
Prahová spojka zárubně
 41
0.7
  7
SIMPLEX7
100
AcDbText
  0
TEXT
  5
A30
330
1F
100
AcDbEntity
  8
POPIS
100
AcDbText
 10
864.0829839669404
 20
344.6897100669036
 30
0.0
 40
25.0
  1
Dřevěný podkladní profil pod zárubeň
 41
0.7
  7
SIMPLEX7
100
AcDbText
  0
TEXT
  5
A31
330
1F
100
AcDbEntity
  8
POPIS
100
AcDbText
 10
864.0829839669404
 20
94.52303532494283
 30
0.0
 40
25.0
  1
Parozábrana
 41
0.7
  7
SIMPLEX7
100
AcDbText
  0
TEXT
  5
A32
330
1F
100
AcDbEntity
  8
POPIS
100
AcDbText
 10
864.0829839669404
 20
165.2438468671214
 30
0.0
 40
25.0
  1
Podkladní dřevěná lišta
 41
0.7
  7
SIMPLEX7
100
AcDbText
  0
TEXT
  5
A33
330
1F
100
AcDbEntity
  8
POPIS
100
AcDbText
 10
864.0829839669404
 20
200.6480080852841
 30
0.0
 40
25.0
  1
Vrut Bűhnen 4,2x35 mm
 41
0.7
  7
SIMPLEX7
100
AcDbText
  0
TEXT
  5
A34
330
1F
100
AcDbEntity
  8
POPIS
100
AcDbText
 10
864.0829839669404
 20
234.5981963300062
 30
0.0
 40
25.0
  1
Deska CETRIS    tl. 12 mm, spodní
 41
0.7
  7
SIMPLEX7
100
AcDbText
  0
TEXT
  5
A35
330
1F
100
AcDbEntity
  8
POPIS
100
AcDbText
 10
864.0829839669404
 20
271.1932079456335
 30
0.0
 40
25.0
  1
Deska CETRIS    tl. 12 mm horní, předvrtaná
 41
0.7
  7
SIMPLEX7
100
AcDbText
  0
TEXT
  5
A36
330
1F
100
AcDbEntity
  8
POPIS
100
AcDbText
 10
864.0829839669404
 20
131.3585753278355
 30
0.0
 40
25.0
  1
Izolační deska IZOPLAT
 41
0.7
  7
SIMPLEX7
100
AcDbText
  0
HATCH
  5
A37
330
1F
100
AcDbEntity
  8
STAVBA OBRYS
100
AcDbHatch
 10
0.0
 20
0.0
 30
0.0
210
0.0
220
0.0
230
1.0
  2
ANSI35
 70
     0
 71
     0
 91
        7
 92
        7
 72
     0
 73
     1
 93
        4
 10
691.739581099342
 20
142.3393584459033
 10
33.79391858826966
 20
142.3393584459033
 10
33.79391858826966
 20
22.51643034500625
 10
691.739581099342
 20
22.51643034500671
 97
        0
 92
       24
 93
        4
 72
     1
 10
609.9228328918379
 20
58.81634600958591
 11
650.5410968754676
 21
58.81634600958591
 72
     1
 10
650.5410968754676
 20
58.81634600958591
 11
650.5410968754676
 21
96.46982486361071
 72
     1
 10
650.5410968754676
 20
96.46982486361071
 11
609.9228328918379
 21
96.46982486361071
 72
     1
 10
609.9228328918379
 20
96.46982486361071
 11
609.9228328918379
 21
58.81634600958591
 97
        0
 92
       24
 93
        4
 72
     1
 10
552.7469457739734
 20
58.28343332200097
 11
593.5783748326412
 21
58.28343332200097
 72
     1
 10
593.5783748326412
 20
58.28343332200097
 11
593.5783748326412
 21
96.57640740112743
 72
     1
 10
593.5783748326412
 20
96.57640740112743
 11
552.7469457739734
 21
96.57640740112743
 72
     1
 10
552.7469457739734
 20
96.57640740112743
 11
552.7469457739734
 21
58.28343332200097
 97
        0
 92
       24
 93
        4
 72
     1
 10
498.1061172509271
 20
58.28343332200097
 11
538.9375463095948
 21
58.28343332200097
 72
     1
 10
538.9375463095948
 20
58.28343332200097
 11
538.9375463095948
 21
96.57640740112743
 72
     1
 10
538.9375463095948
 20
96.57640740112743
 11
498.1061172509271
 21
96.57640740112743
 72
     1
 10
498.1061172509271
 20
96.57640740112743
 11
498.1061172509271
 21
58.28343332200097
 97
        0
 92
       24
 93
        4
 72
     1
 10
294.0358097243351
 20
58.81634600958591
 11
334.6540737079649
 21
58.81634600958591
 72
     1
 10
334.6540737079649
 20
58.81634600958591
 11
334.6540737079649
 21
96.46982486361071
 72
     1
 10
334.6540737079649
 20
96.46982486361071
 11
294.0358097243351
 21
96.46982486361071
 72
     1
 10
294.0358097243351
 20
96.46982486361071
 11
294.0358097243351
 21
58.81634600958591
 97
        0
 92
       24
 93
        4
 72
     1
 10
418.5910293904253
 20
58.28343332200097
 11
459.4224584490929
 21
58.28343332200097
 72
     1
 10
459.4224584490929
 20
58.28343332200097
 11
459.4224584490929
 21
96.57640740112743
 72
     1
 10
459.4224584490929
 20
96.57640740112743
 11
418.5910293904253
 21
96.57640740112743
 72
     1
 10
418.5910293904253
 20
96.57640740112743
 11
418.5910293904253
 21
58.28343332200097
 97
        0
 92
       24
 93
        4
 72
     1
 10
353.6072471789793
 20
58.26211681449717
 11
394.4472028406471
 21
58.26211681449717
 72
     1
 10
394.4472028406471
 20
58.26211681449717
 11
394.4472028406471
 21
96.58067070262838
 72
     1
 10
394.4472028406471
 20
96.58067070262838
 11
353.6072471789793
 21
96.58067070262838
 72
     1
 10
353.6072471789793
 20
96.58067070262838
 11
353.6072471789793
 21
58.26211681449717
 97
        0
 75
     0
 76
     1
 52
0.0
 41
3.0
 77
     0
 78
     2
 53
45.0
 43
-27476.58686999234
 44
4029.929485449844
 45
-13.47038418160372
 46
13.47038418160373
 79
     0
 53
45.0
 43
-27463.11647999234
 44
4029.929485449844
 45
-13.47038418160372
 46
13.47038418160373
 79
     4
 49
23.8125
 49
-4.762499999999999
 49
0.0
 49
-4.762499999999999
 47
1.485722625104592
 98
        1
 10
217.3779769416924
 20
91.47850682886042
  0
LINE
  5
A38
330
1F
100
AcDbEntity
  8
POPIS
100
AcDbLine
 10
632.7075940523118
 20
97.72376386552265
 30
0.0
 11
632.7075940523118
 21
129.1264503733598
 31
0.0
  0
LINE
  5
A39
330
1F
100
AcDbEntity
  8
POPIS
100
AcDbLine
 10
575.6382894719663
 20
97.72376386552265
 30
0.0
 11
575.6382894719663
 21
145.3393584459033
 31
0.0
  0
LINE
  5
A3A
330
1F
100
AcDbEntity
  8
POPIS
100
AcDbLine
 10
520.99746094892
 20
97.72376386552265
 30
0.0
 11
520.99746094892
 21
160.5291368811965
 31
0.0
  0
LINE
  5
A3B
330
1F
100
AcDbEntity
  8
POPIS
100
AcDbLine
 10
316.820570884809
 20
97.72376386552265
 30
0.0
 11
356.5642577722701
 21
160.5291368811965
 31
0.0
  0
LINE
  5
A3C
330
1F
100
AcDbEntity
  8
POPIS
100
AcDbLine
 10
441.4823730884181
 20
97.72376386552265
 30
0.0
 11
441.4823730884181
 21
160.5291368811965
 31
0.0
  0
LINE
  5
A3D
330
1F
100
AcDbEntity
  8
POPIS
100
AcDbLine
 10
376.5028541784722
 20
97.72376386552265
 30
0.0
 11
376.5028541784722
 21
160.5291368811965
 31
0.0
  0
TEXT
  5
A3E
330
1F
100
AcDbEntity
  8
POPIS
100
AcDbText
 10
809.7392808071981
 20
94.09145126154385
 30
0.0
 40
25.0
  1
10
 41
0.85
  7
SIMPLEX7
100
AcDbText
  0
LINE
  5
A3F
330
1F
100
AcDbEntity
  8
STAVBA OBRYS
100
AcDbLine
 10
33.79391858826966
 20
12.51643034500625
 30
0.0
 11
691.739581099342
 21
12.51643034500625
 31
0.0
  0
LINE
  5
A40
330
1F
100
AcDbEntity
  8
STAVBA OBRYS
100
AcDbLine
 10
33.7939185882733
 20
22.51643034500625
 30
0.0
 11
691.739581099342
 21
22.51643034500671
 31
0.0
  0
HATCH
  5
A41
330
1F
100
AcDbEntity
  8
STAVBA OBRYS
100
AcDbHatch
 10
0.0
 20
0.0
 30
0.0
210
0.0
220
0.0
230
1.0
  2
AR-CONC
 70
     0
 71
     0
 91
        1
 92
        7
 72
     0
 73
     1
 93
        4
 10
691.7395810993384
 20
22.51643034500716
 10
33.79391858826966
 20
22.51643034500625
 10
33.79391858826966
 20
12.51643034500625
 10
691.739581099342
 20
12.51643034500625
 97
        0
 75
     0
 76
     1
 52
90.0
 41
0.1
 77
     0
 78
    13
 53
140.0
 43
-29139.88377713289
 44
4029.929485449844
 45
1.593908553890309
 46
18.2184668996004
 79
     2
 49
1.905
 49
-20.955
 53
85.00000000000001
 43
-29139.88377713289
 44
4029.929485449844
 45
-19.10566428821799
 46
-3.524282597566697
 79
     2
 49
1.524
 49
-16.764
 53
190.4509999999999
 43
-29139.75095213289
 44
4031.447685449845
 45
-17.51166878202918
 46
14.69425016659592
 79
     2
 49
1.619
 49
-17.809
 53
136.1841999999999
 43
-29144.96377713289
 44
4029.929485449844
 45
4.204232793272717
 46
27.10790408921299
 79
     2
 49
2.857499999999999
 49
-31.4325
 53
186.6355999999999
 43
-29144.61342713289
 44
4032.188475449845
 45
-24.74255558900492
 46
23.74042344662371
 79
     2
 49
2.4285
 49
-26.7135
 53
81.18400000000004
 43
-29144.96377713289
 44
4029.929485449844
 45
-24.74251178605976
 46
23.74046058139339
 79
     2
 49
2.286
 49
-25.146
 53
111.0
 43
-29143.69377713289
 44
4032.469485449844
 45
10.22655185167625
 46
15.16148798353833
 79
     2
 49
1.905
 49
-20.955
 53
56.00000000000004
 43
-29143.69377713289
 44
4032.469485449844
 45
-18.41879661223192
 46
6.180202834764708
 79
     2
 49
1.524
 49
-16.764
 53
161.4514
 43
-29142.84156713289
 44
4033.732935449845
 45
-8.192285771605742
 46
21.34164907701245
 79
     2
 49
1.618999999999998
 49
-17.80899999999998
 53
127.5
 43
-29139.88377713289
 44
4029.929485449844
 45
-8.455503887315311
 46
0.3088603250591822
 79
     6
 49
0.0
 49
-16.5608
 49
0.0
 49
-17.018
 49
0.0
 49
-16.8275
 53
97.49999999999994
 43
-29139.88377713289
 44
4029.929485449844
 45
-10.01805748181195
 46
6.681966251030575
 79
     6
 49
0.0
 49
-9.702799999999999
 49
0.0
 49
-16.1798
 49
0.0
 49
-6.4135
 53
57.5
 43
-29139.88377713289
 44
4024.265285449844
 45
0.5728743992673473
 46
13.55905951668713
 79
     6
 49
0.0
 49
-6.35
 49
0.0
 49
-19.812
 49
0.0
 49
-26.289
 53
47.5
 43
-29139.88377713289
 44
4021.725285449845
 45
-2.5426491033333
 46
14.8129181386018
 79
     6
 49
0.0
 49
-8.255
 49
0.0
 49
-13.1572
 49
0.0
 49
-18.669
 47
1.084445008349079
 98
        1
 10
399.938454219935
 20
16.11514953904975
  0
TEXT
  5
A42
330
1F
100
AcDbEntity
  8
POPIS
100
AcDbText
 10
300.311389533339
 20
65.0919258185902
 30
0.0
 40
25.0
  1
11
 41
0.85
  7
SIMPLEX7
100
AcDbText
  0
TEXT
  5
A43
330
1F
100
AcDbEntity
  8
POPIS
100
AcDbText
 10
616.1984127008418
 20
65.0919258185902
 30
0.0
 40
25.0
  1
12
 41
0.85
  7
SIMPLEX7
100
AcDbText
  0
TEXT
  5
A44
330
1F
100
AcDbEntity
  8
POPIS
100
AcDbText
 10
424.9731917369481
 20
65.0919258185902
 30
0.0
 40
25.0
  1
08
 41
0.85
  7
SIMPLEX7
100
AcDbText
  0
TEXT
  5
A45
330
1F
100
AcDbEntity
  8
POPIS
100
AcDbText
 10
359.9936728270022
 20
65.0919258185902
 30
0.0
 40
25.0
  1
03
 41
0.85
  7
SIMPLEX7
100
AcDbText
  0
TEXT
  5
A46
330
1F
100
AcDbEntity
  8
POPIS
100
AcDbText
 10
559.1291081204963
 20
65.0919258185902
 30
0.0
 40
25.0
  1
10
 41
0.85
  7
SIMPLEX7
100
AcDbText
  0
TEXT
  5
A47
330
1F
100
AcDbEntity
  8
POPIS
100
AcDbText
 10
504.4882795974499
 20
65.0919258185902
 30
0.0
 40
25.0
  1
09
 41
0.85
  7
SIMPLEX7
100
AcDbText
  0
TEXT
  5
A48
330
1F
100
AcDbEntity
  8
POPIS
100
AcDbText
 10
809.7392808071981
 20
26.44152941128436
 30
0.0
 40
25.0
  1
12
 41
0.85
  7
SIMPLEX7
100
AcDbText
  0
TEXT
  5
A49
330
1F
100
AcDbEntity
  8
POPIS
100
AcDbText
 10
809.7392808071981
 20
59.75656853626446
 30
0.0
 40
25.0
  1
11
 41
0.85
  7
SIMPLEX7
100
AcDbText
  0
TEXT
  5
A4A
330
1F
100
AcDbEntity
  8
POPIS
100
AcDbText
 10
26.55569186913089
 20
503.9185349566094
 30
0.0
 40
50.0
  1
Bezprahý přechod podlahy 
 41
0.85
  7
SIMPLEX7
100
AcDbText
  0
HATCH
  5
A4B
330
1F
100
AcDbEntity
  8
CETRIS
100
AcDbHatch
 10
0.0
 20
0.0
 30
0.0
210
0.0
220
0.0
230
1.0
  2
ANSI31
 70
     0
 71
     0
 91
        2
 92
        7
 72
     1
 73
     1
 93
       29
 10
199.7155067971816
 20
175.2620024479872
 42
0.0
 10
199.0564400407365
 20
175.4834597918759
 42
0.0
 10
198.6863416929172
 20
175.6976792776665
 42
0.0
 10
199.0564400407292
 20
176.0677776233312
 42
0.0
 10
199.7155067971853
 20
175.8463202793952
 42
0.0
 10
199.7155067971853
 20
177.3393584459033
 42
0.0
 10
151.9530631335601
 20
177.3393584459033
 42
0.0
 10
151.9530631335637
 20
171.8940610102115
 42
-1.0
 10
151.9530631335637
 20
169.3940610102115
 42
-1.0
 10
151.9530631335637
 20
171.8940610102115
 42
0.0
 10
151.9530631335637
 20
177.3393584459033
 42
0.0
 10
33.79391858826966
 20
177.3393584459033
 42
0.0
 10
33.79391858826966
 20
165.3393584459033
 42
0.0
 10
199.7155067971853
 20
165.3393584459033
 42
0.0
 10
199.7155067971853
 20
166.0896105886392
 42
0.0
 10
199.0564400407183
 20
166.3112195118544
 42
0.0
 10
198.6863416929172
 20
166.5245274251817
 42
0.0
 10
199.056440040722
 20
166.8955373433052
 42
0.0
 10
199.7155067971889
 20
166.67392842009
 42
0.0
 10
199.715506797178
 20
169.1470240152764
 42
0.0
 10
199.056440040722
 20
169.3686329384452
 42
0.0
 10
198.6863416929136
 20
169.582852424224
 42
0.0
 10
199.056440040722
 20
169.9529507698887
 42
0.0
 10
199.7155067971853
 20
169.7313418466735
 42
0.0
 10
199.7155067971853
 20
172.204437441858
 42
0.0
 10
199.0564400407402
 20
172.4260463650214
 42
0.0
 10
198.6863416929172
 20
172.6402658508129
 42
0.0
 10
199.056440040722
 20
173.0103641964776
 42
0.0
 10
199.7155067971853
 20
172.7887552733079
 42
0.0
 97
        0
 92
        7
 72
     0
 73
     1
 93
       23
 10
349.2239617317154
 20
177.3393584459024
 10
333.9287570982069
 20
177.3393584459024
 10
333.7984647707071
 20
177.2090661176496
 10
333.4109743171266
 20
177.3393584459024
 10
333.1393980142475
 20
177.3393584459024
 10
333.1393980142547
 20
174.9574278661855
 10
333.7984647707071
 20
174.7359705222504
 10
334.1685631142409
 20
174.5217510364616
 10
333.7984647707108
 20
174.1516526910679
 10
333.1393980142547
 20
174.3731100349602
 10
333.1393980142584
 20
171.8992544466389
 10
333.798464770718
 20
171.6776455234683
 10
334.1685631142372
 20
171.4643376098808
 10
333.7984647707108
 20
171.0933276920275
 10
333.1393980142511
 20
171.3149366151953
 10
333.1393980142475
 20
168.8418410198316
 10
333.7984647707144
 20
168.6202320966192
 10
334.1685631142336
 20
168.4069241832901
 10
333.7984647707071
 20
168.0359142654367
 10
333.1393980142511
 20
168.2575231886064
 10
333.1393980142511
 20
165.6058904592453
 10
334.2055260676151
 20
165.3393584459033
 10
349.2239617317154
 20
165.3393584459024
 97
        0
 75
     0
 76
     1
 52
90.0
 41
1.0
 77
     0
 78
     1
 53
135.0
 43
-27476.58686999234
 44
4029.929485449844
 45
-2.245064030267288
 46
-2.245064030267287
 79
     0
 47
0.4519862576681119
 98
        3
 10
294.4755383878455
 20
171.3779294763905
 10
166.937145403097
 20
174.089853257087
 10
346.9381617076269
 20
172.7338913667397
  0
HATCH
  5
A4C
330
1F
100
AcDbEntity
  8
CETRIS
100
AcDbHatch
 10
0.0
 20
0.0
 30
0.0
210
0.0
220
0.0
230
1.0
  2
ANSI31
 70
     0
 71
     0
 91
        6
 92
        7
 72
     0
 73
     1
 93
       15
 10
691.739581099342
 20
189.3393584459033
 10
431.6293676419209
 20
189.3393584459033
 10
431.6293676419209
 20
188.1634302047038
 10
430.3066762600374
 20
187.43417238096
 10
429.2182589576968
 20
186.3867758313488
 10
428.437953087965
 20
185.0941663386118
 10
428.0186298409444
 20
183.6429432689071
 10
427.9539082086612
 20
182.8717531202326
 10
427.9539082086612
 20
178.9044936989328
 10
428.6129749651208
 20
179.1261026221025
 10
428.9830733129219
 20
178.7550927042491
 10
428.6129749651208
 20
178.5417847909218
 10
427.9539082086649
 20
178.3201758677084
 10
427.9539082086612
 20
177.3393584459024
 10
691.739581099342
 20
177.3393584459033
 97
        0
 92
        7
 72
     0
 73
     1
 93
       13
 10
425.3085254491834
 20
182.8717531202144
 10
425.0861018161177
 20
184.3649085145996
 10
424.4853756839529
 20
185.7504983800943
 10
423.5464562353682
 20
186.9337191993479
 10
422.3340651026537
 20
187.833441039578
 10
421.6330660201983
 20
188.1634302047066
 10
421.6330660201947
 20
189.3393584459033
 10
409.2239617317154
 20
189.3393584459033
 10
409.2239617317118
 20
177.3393584459033
 10
424.5191663652239
 20
177.3393584459024
 10
424.2793603491937
 20
177.579164463317
 10
424.6494586927128
 20
177.7933839490995
 10
425.3085254491797
 20
178.0149928722682
 97
        0
 92
        7
 72
     0
 73
     1
 93
       13
 10
349.2239617317154
 20
189.3393584459033
 10
336.8148574432361
 20
189.3393584459033
 10
336.8148574432361
 20
188.1634302047075
 10
336.113858360788
 20
187.8334410395853
 10
334.9014672280591
 20
186.9337191993452
 10
333.9625477794925
 20
185.7504983801043
 10
333.3618216473278
 20
184.3649085146214
 10
333.1393980142511
 20
182.8717531202507
 10
333.1393980142475
 20
178.0149928722701
 10
333.7984647707144
 20
177.7933839490995
 10
334.1685631142336
 20
177.5791644633152
 10
333.9287570982105
 20
177.3393584459033
 10
349.2239617317191
 20
177.3393584459033
 97
        0
 92
        7
 72
     0
 73
     1
 93
       24
 10
330.4292936224756
 20
183.6429432689099
 10
330.0099703754694
 20
185.094166338599
 10
329.2296645057522
 20
186.3867758313361
 10
328.1412472033898
 20
187.4341723809609
 10
326.81855582151
 20
188.1634302047066
 10
326.81855582151
 20
189.3393584459033
 10
206.0363489856481
 20
189.3393584459033
 10
206.0363489856481
 20
188.1634302047066
 10
205.3353499032109
 20
187.8334410395798
 10
204.1229587704892
 20
186.9337191993415
 10
203.1840393218972
 20
185.7504983801034
 10
202.5833131897361
 20
184.3649085146078
 10
202.3608895566703
 20
182.8717531202544
 10
202.3608895566703
 20
178.0149928722701
 10
203.0199563131191
 20
177.793383949104
 10
203.3900546566492
 20
177.5791644633161
 10
203.1502486406261
 20
177.3393584459024
 10
330.4940152547624
 20
177.3393584459033
 10
330.4940152547733
 20
178.3201758677066
 10
329.83494849831
 20
178.5417847909236
 10
329.4648501505089
 20
178.75509270425
 10
329.8349484983136
 20
179.1261026221025
 10
330.4940152547696
 20
178.9044936989355
 10
330.4940152547696
 20
182.8717531202507
 97
        0
 92
        7
 72
     0
 73
     1
 93
       15
 10
199.2314619178887
 20
185.0941663386127
 10
198.4511560481605
 20
186.3867758313288
 10
197.3627387458163
 20
187.4341723809564
 10
196.0400473639256
 20
188.1634302047084
 10
196.0400473639256
 20
189.3393584459024
 10
151.9530631335601
 20
189.3393584459033
 10
151.9530631335601
 20
177.3393584459033
 10
199.7155067971853
 20
177.3393584459033
 10
199.7155067971816
 20
178.3201758677075
 10
199.0564400407329
 20
178.5417847909227
 10
198.6863416929245
 20
178.7550927042491
 10
199.0564400407256
 20
179.1261026221025
 10
199.7155067971853
 20
178.9044936989346
 10
199.7155067971853
 20
182.8717531202707
 10
199.6507851649021
 20
183.6429432688944
 97
        0
 92
        7
 72
     1
 73
     1
 93
        9
 10
151.9530631335637
 20
189.3393584459024
 42
0.0
 10
105.0707483193964
 20
189.3393584459024
 42
0.0
 10
105.0707483193964
 20
183.5351731158323
 42
-1.0
 10
105.0707483193964
 20
181.0351731158323
 42
-1.0
 10
105.0707483193964
 20
183.5351731158323
 42
0.0
 10
105.0707483194
 20
189.3393584459033
 42
0.0
 10
33.7939185882733
 20
189.3393584459024
 42
0.0
 10
33.7939185882733
 20
177.3393584459033
 42
0.0
 10
151.9530631335601
 20
177.3393584459033
 42
0.0
 97
        0
 75
     0
 76
     1
 52
0.0
 41
1.0
 77
     0
 78
     1
 53
45.0
 43
-27476.58686999234
 44
4029.929485449844
 45
-2.245064030267287
 46
2.245064030267288
 79
     0
 47
0.6180772498725088
 98
        6
 10
537.7830994617052
 20
183.6372658491661
 10
414.7101912710586
 20
181.1649522468858
 10
341.7322747185989
 20
182.401109048026
 10
323.1785854010504
 20
183.0191805025686
 10
187.7365431831149
 20
184.2553373037069
 10
128.3646717159954
 20
182.401109048026
  0
LWPOLYLINE
  5
A4D
330
1F
100
AcDbEntity
  8
nášlap_vrstvy
100
AcDbPolyline
 90
        2
 70
     0
 43
0.0
 10
373.9052020752406
 20
196.2996078343683
 10
33.79391858826966
 20
196.2996078343683
  0
LWPOLYLINE
  5
A4E
330
1F
100
AcDbEntity
  8
izolace
100
AcDbPolyline
 90
        4
 70
     1
 43
0.0
 10
349.2239617317154
 20
145.3393584459033
 10
289.2239617317154
 20
145.3393584459033
 10
289.2239617317154
 20
165.3393584459033
 10
349.2239617317154
 20
165.3393584459033
  0
LWPOLYLINE
  5
A4F
330
1F
100
AcDbEntity
  8
izolace
100
AcDbPolyline
 90
        4
 70
     1
 43
0.0
 10
358.5503612430857
 20
145.3393584459033
 10
334.9086285332505
 20
145.3393584459033
 10
334.9086285332505
 20
142.3393584459033
 10
358.5503612430857
 20
142.3393584459033
  0
HATCH
  5
A50
330
1F
100
AcDbEntity
  8
izolace
100
AcDbHatch
 10
0.0
 20
0.0
 30
0.0
210
0.0
220
0.0
230
1.0
  2
SOLID
 70
     1
 71
     0
 91
        1
 92
        7
 72
     0
 73
     1
 93
        4
 10
334.9086285332505
 20
145.3393584459033
 10
334.9086285332541
 20
142.3393584459024
 10
358.5503612430857
 20
142.3393584459033
 10
358.5503612430893
 20
145.3393584459024
 97
        0
 75
     0
 76
     1
 47
0.1901250437635136
 98
        1
 10
344.266423291594
 20
144.5225468948235
  0
LWPOLYLINE
  5
A51
330
1F
100
AcDbEntity
  8
izolace
100
AcDbPolyline
 90
        4
 70
     0
 43
0.0
 10
33.79391858826966
 20
145.3393584459033
 10
691.7395810993384
 20
145.3393584459033
 10
691.7395810993384
 20
142.3393584459033
 10
33.79391858826966
 20
142.3393584459033
  0
LWPOLYLINE
  5
A52
330
1F
100
AcDbEntity
  8
nášlap_vrstvy
100
AcDbPolyline
 90
        2
 70
     0
 43
0.0
 10
33.79391858826966
 20
191.9611188084206
 10
373.9052020752406
 20
191.9611188084197
  0
LINE
  5
A53
330
1F
100
AcDbEntity
  8
CETRIS
100
AcDbLine
 10
33.79391858826966
 20
177.3393584459033
 30
0.0
 11
349.2239617317154
 21
177.3393584459033
 31
0.0
  0
LINE
  5
A54
330
1F
100
AcDbEntity
  8
CETRIS
100
AcDbLine
 10
33.79391858826966
 20
165.3393584459033
 30
0.0
 11
349.2239617317154
 21
165.3393584459033
 31
0.0
  0
LINE
  5
A55
330
1F
100
AcDbEntity
  8
CETRIS
100
AcDbLine
 10
33.79391858826966
 20
189.3393584459024
 30
0.0
 11
691.739581099342
 21
189.3393584459042
 31
0.0
  0
TEXT
  5
A56
330
1F
100
AcDbEntity
  8
POPIS
100
AcDbText
 10
34.12052839683565
 20
270.4821782718143
 30
0.0
 40
25.0
  1
04
 41
0.85
  7
SIMPLEX7
100
AcDbText
  0
LINE
  5
A57
330
1F
100
AcDbEntity
  8
izolace
  6
IZOLACE
 48
0.95
100
AcDbLine
 10
33.79391858826966
 20
155.3393584459033
 30
0.0
 11
289.2239617317154
 21
155.3393584459033
 31
0.0
  0
LINE
  5
A58
330
1F
100
AcDbEntity
  8
izolace
100
AcDbLine
 10
33.79391858826966
 20
142.3393584459033
 30
0.0
 11
72.6845367807673
 21
142.3393584459033
 31
0.0
  0
LINE
  5
A59
330
1F
100
AcDbEntity
  8
STAVBA OBRYS
100
AcDbLine
 10
308.9478297549922
 20
198.6042037713584
 30
0.0
 11
308.9478297549922
 21
398.1093402907579
 31
0.0
  0
LINE
  5
A5A
330
1F
100
AcDbEntity
  8
STAVBA OBRYS
  6
DASHED
100
AcDbLine
 10
323.9478297549958
 20
198.6042037713584
 30
0.0
 11
323.9478297549994
 21
400.4811103878098
 31
0.0
  0
LINE
  5
A5B
330
1F
100
AcDbEntity
  8
STAVBA OBRYS
100
AcDbLine
 10
338.0957271339338
 20
198.6042037713584
 30
0.0
 11
338.095727133923
 21
402.7181477171122
 31
0.0
  0
LINE
  5
A5C
330
1F
100
AcDbEntity
  8
POPIS
100
AcDbLine
 10
201.0415785978493
 20
261.6328171990906
 30
0.0
 11
201.0415785978493
 21
182.2851731158323
 31
0.0
  0
LINE
  5
A5D
330
1F
100
AcDbEntity
  8
POPIS
100
AcDbLine
 10
151.9530631335637
 20
261.6328171990906
 30
0.0
 11
151.9530631335637
 21
171.8940610102115
 31
0.0
  0
LINE
  5
A5E
330
1F
100
AcDbEntity
  8
POPIS
100
AcDbLine
 10
105.0707483193964
 20
261.6328171990906
 30
0.0
 11
105.0707483193964
 21
182.2851731158323
 31
0.0
  0
LINE
  5
A5F
330
1F
100
AcDbEntity
  8
POPIS
100
AcDbLine
 10
52.91612180854826
 20
261.6328171990906
 30
0.0
 11
52.91612180854826
 21
196.2207613977104
 31
0.0
  0
HATCH
  5
A60
330
1F
100
AcDbEntity
  8
STAVBA OBRYS
100
AcDbHatch
 10
0.0
 20
0.0
 30
0.0
210
0.0
220
0.0
230
1.0
  2
ANSI31
 70
     0
 71
     0
 91
        2
 92
        7
 72
     0
 73
     1
 93
        4
 10
323.9478297549958
 20
400.4811103878116
 10
308.9478297549922
 20
398.1093402907579
 10
308.9478297549885
 20
198.6042037713584
 10
323.9478297549922
 20
198.6042037713584
 97
        0
 92
        7
 72
     0
 73
     1
 93
        4
 10
338.095727133923
 20
402.7181477171131
 10
323.9478297550031
 20
400.4811103878125
 10
323.9478297549994
 20
198.6042037713584
 10
338.0957271339338
 20
198.6042037713575
 97
        0
 75
     0
 76
     1
 52
90.0
 41
2.5
 77
     0
 78
     1
 53
135.0
 43
-29139.88377713289
 44
4029.929485449844
 45
-5.612660075668221
 46
-5.61266007566822
 79
     0
 47
0.7945165653271508
 98
        2
 10
314.7430155840211
 20
305.7974198751587
 10
331.4381063506753
 20
303.4138746028991
  0
LINE
  5
A61
330
1F
100
AcDbEntity
  8
SPOJOVACÍ
  6
DASHED
100
AcDbLine
 10
141.3568419046951
 20
178.7550927042491
 30
0.0
 11
146.060554868427
 21
177.5791644633161
 31
0.0
  0
LINE
  5
A62
330
1F
100
AcDbEntity
  8
SPOJOVACÍ
  6
DASHED
100
AcDbLine
 10
146.060554868427
 20
177.5791644633161
 30
0.0
 11
145.6904565249005
 21
177.2090661176505
 31
0.0
  0
LINE
  5
A63
330
1F
100
AcDbEntity
  8
SPOJOVACÍ
  6
DASHED
100
AcDbLine
 10
146.060554868427
 20
177.5791644633161
 30
0.0
 11
145.6904565249005
 21
177.7933839491022
 31
0.0
  0
LINE
  5
A64
330
1F
100
AcDbEntity
  8
SPOJOVACÍ
  6
DASHED
100
AcDbLine
 10
141.3568419046951
 20
175.6976792776665
 30
0.0
 11
146.060554868427
 21
174.5217510364625
 31
0.0
  0
LINE
  5
A65
330
1F
100
AcDbEntity
  8
SPOJOVACÍ
  6
DASHED
100
AcDbLine
 10
146.060554868427
 20
174.5217510364625
 30
0.0
 11
145.6904565249005
 21
174.1516526910679
 31
0.0
  0
LINE
  5
A66
330
1F
100
AcDbEntity
  8
SPOJOVACÍ
  6
DASHED
100
AcDbLine
 10
146.060554868427
 20
174.5217510364625
 30
0.0
 11
145.6904565249005
 21
174.7359705222486
 31
0.0
  0
LINE
  5
A67
330
1F
100
AcDbEntity
  8
SPOJOVACÍ
  6
DASHED
100
AcDbLine
 10
141.3568419046951
 20
172.6402658508129
 30
0.0
 11
146.060554868427
 21
171.4643376098799
 31
0.0
  0
LINE
  5
A68
330
1F
100
AcDbEntity
  8
SPOJOVACÍ
  6
DASHED
100
AcDbLine
 10
146.060554868427
 20
171.4643376098799
 30
0.0
 11
145.6904565249005
 21
171.0933276920266
 31
0.0
  0
LINE
  5
A69
330
1F
100
AcDbEntity
  8
SPOJOVACÍ
  6
DASHED
100
AcDbLine
 10
146.060554868427
 20
171.4643376098799
 30
0.0
 11
145.6904565249005
 21
171.677645523471
 31
0.0
  0
LINE
  5
A6A
330
1F
100
AcDbEntity
  8
SPOJOVACÍ
  6
DASHED
100
AcDbLine
 10
141.3568419046951
 20
169.5828524242231
 30
0.0
 11
146.060554868427
 21
168.4069241832901
 31
0.0
  0
LINE
  5
A6B
330
1F
100
AcDbEntity
  8
SPOJOVACÍ
  6
DASHED
100
AcDbLine
 10
146.060554868427
 20
168.4069241832901
 30
0.0
 11
145.6904565249005
 21
168.0359142654367
 31
0.0
  0
LINE
  5
A6C
330
1F
100
AcDbEntity
  8
SPOJOVACÍ
  6
DASHED
100
AcDbLine
 10
146.060554868427
 20
168.4069241832901
 30
0.0
 11
145.6904565249005
 21
168.6202320966174
 31
0.0
  0
LINE
  5
A6D
330
1F
100
AcDbEntity
  8
SPOJOVACÍ
  6
DASHED
100
AcDbLine
 10
141.3568419046951
 20
166.5245274251817
 30
0.0
 11
146.060554868427
 21
165.3485991842487
 31
0.0
  0
LINE
  5
A6E
330
1F
100
AcDbEntity
  8
SPOJOVACÍ
  6
DASHED
100
AcDbLine
 10
146.060554868427
 20
165.3485991842487
 30
0.0
 11
145.6904565249005
 21
164.9785008385831
 31
0.0
  0
LINE
  5
A6F
330
1F
100
AcDbEntity
  8
SPOJOVACÍ
  6
DASHED
100
AcDbLine
 10
146.060554868427
 20
165.3485991842487
 30
0.0
 11
145.6904565249005
 21
165.5628186700348
 31
0.0
  0
LINE
  5
A70
330
1F
100
AcDbEntity
  8
SPOJOVACÍ
  6
DASHED
100
AcDbLine
 10
145.0313897684409
 20
182.8717531202371
 30
0.0
 11
145.0313897684409
 21
178.0276580248871
 31
0.0
  0
LINE
  5
A71
330
1F
100
AcDbEntity
  8
SPOJOVACÍ
  6
DASHED
100
AcDbLine
 10
142.3860070089594
 20
182.8717531202371
 30
0.0
 11
142.3860070089594
 21
178.9146178531507
 31
0.0
  0
LINE
  5
A72
330
1F
100
AcDbEntity
  8
SPOJOVACÍ
  6
DASHED
100
AcDbLine
 10
142.3860070089594
 20
178.3312115941578
 30
0.0
 11
142.3860070089594
 21
175.8626738602295
 31
0.0
  0
LINE
  5
A73
330
1F
100
AcDbEntity
  8
SPOJOVACÍ
  6
DASHED
100
AcDbLine
 10
142.3860070089594
 20
175.2710634507409
 30
0.0
 11
142.3860070089594
 21
172.800702572166
 31
0.0
  0
LINE
  5
A74
330
1F
100
AcDbEntity
  8
SPOJOVACÍ
  6
DASHED
100
AcDbLine
 10
142.3860070089594
 20
172.2182078853609
 30
0.0
 11
142.3860070089594
 21
169.7405544287492
 31
0.0
  0
LINE
  5
A75
330
1F
100
AcDbEntity
  8
SPOJOVACÍ
  6
DASHED
100
AcDbLine
 10
145.0313897684409
 20
177.4360476153985
 30
0.0
 11
145.0313897684409
 21
174.9675098814702
 31
0.0
  0
LINE
  5
A76
330
1F
100
AcDbEntity
  8
SPOJOVACÍ
  6
DASHED
100
AcDbLine
 10
145.0313897684409
 20
174.3831920500185
 30
0.0
 11
145.0313897684409
 21
171.9055385934068
 31
0.0
  0
LINE
  5
A77
330
1F
100
AcDbEntity
  8
SPOJOVACÍ
  6
DASHED
100
AcDbLine
 10
145.0313897684409
 20
171.3230439066016
 30
0.0
 11
145.0313897684409
 21
168.8526830280268
 31
0.0
  0
LINE
  5
A78
330
1F
100
AcDbEntity
  8
SPOJOVACÍ
  6
DASHED
100
AcDbLine
 10
142.3860070089594
 20
169.1480324468091
 30
0.0
 11
142.3860070089594
 21
166.6804062850685
 31
0.0
  0
LINE
  5
A79
330
1F
100
AcDbEntity
  8
SPOJOVACÍ
  6
DASHED
100
AcDbLine
 10
142.3860070089594
 20
166.0960884536168
 30
0.0
 11
142.3860070089594
 21
164.873670026566
 31
0.0
  0
LINE
  5
A7A
330
1F
100
AcDbEntity
  8
SPOJOVACÍ
  6
DASHED
100
AcDbLine
 10
145.0313897684409
 20
168.2638073353725
 30
0.0
 11
145.0313897684409
 21
165.7952696014442
 31
0.0
  0
LINE
  5
A7B
330
1F
100
AcDbEntity
  8
SPOJOVACÍ
  6
DASHED
100
AcDbLine
 10
145.0313897684409
 20
165.2036591916919
 30
0.0
 11
145.0313897684409
 21
164.873670026566
 31
0.0
  0
LINE
  5
A7C
330
1F
100
AcDbEntity
  8
SPOJOVACÍ
  6
DASHED
100
AcDbLine
 10
142.3860070089594
 20
164.873670026566
 30
0.0
 11
142.532770145628
 21
163.7004765021963
 31
0.0
  0
LINE
  5
A7D
330
1F
100
AcDbEntity
  8
SPOJOVACÍ
  6
DASHED
100
AcDbLine
 10
143.708698386561
 20
154.2894042849118
 30
0.0
 11
144.0560074280674
 21
157.0687881661549
 31
0.0
  0
LINE
  5
A7E
330
1F
100
AcDbEntity
  8
SPOJOVACÍ
  6
DASHED
100
AcDbLine
 10
142.6084306463035
 20
163.0924577914599
 30
0.0
 11
142.8928411988326
 21
160.8171733811166
 31
0.0
  0
LINE
  5
A7F
330
1F
100
AcDbEntity
  8
SPOJOVACÍ
  6
DASHED
100
AcDbLine
 10
142.970324842814
 20
160.1991273752453
 30
0.0
 11
143.2547353910649
 21
157.924754537097
 31
0.0
  0
LINE
  5
A80
330
1F
100
AcDbEntity
  8
SPOJOVACÍ
  6
DASHED
100
AcDbLine
 10
143.3303958917404
 20
157.3167358263606
 30
0.0
 11
143.708698386561
 21
154.2894042849118
 31
0.0
  0
LINE
  5
A81
330
1F
100
AcDbEntity
  8
SPOJOVACÍ
  6
DASHED
100
AcDbLine
 10
144.1261984945467
 20
157.6266704014803
 30
0.0
 11
144.3887313102914
 21
159.7287560787651
 31
0.0
  0
LINE
  5
A82
330
1F
100
AcDbEntity
  8
SPOJOVACÍ
  6
DASHED
100
AcDbLine
 10
144.4589223724924
 20
160.2893730309249
 30
0.0
 11
144.7205436187232
 21
162.3832545577213
 31
0.0
  0
LINE
  5
A83
330
1F
100
AcDbEntity
  8
SPOJOVACÍ
  6
DASHED
100
AcDbLine
 10
144.7907346852025
 20
162.9420483655055
 30
0.0
 11
145.0313897684409
 21
164.873670026566
 31
0.0
  0
LINE
  5
A84
330
1F
100
AcDbEntity
  8
SPOJOVACÍ
  6
DASHED
100
AcDbLine
 10
141.3568419046951
 20
178.7550927042491
 30
0.0
 11
141.7269402524998
 21
178.5417847909218
 31
0.0
  0
LINE
  5
A85
330
1F
100
AcDbEntity
  8
SPOJOVACÍ
  6
DASHED
100
AcDbLine
 10
141.3568419046951
 20
178.7550927042491
 30
0.0
 11
141.7269402524998
 21
179.1261026221025
 31
0.0
  0
LINE
  5
A86
330
1F
100
AcDbEntity
  8
SPOJOVACÍ
  6
DASHED
100
AcDbLine
 10
141.7269402524998
 20
178.5417847909218
 30
0.0
 11
145.6904565249005
 21
177.2090661176505
 31
0.0
  0
LINE
  5
A87
330
1F
100
AcDbEntity
  8
SPOJOVACÍ
  6
DASHED
100
AcDbLine
 10
141.7269402524998
 20
179.1261026221025
 30
0.0
 11
145.6904565249005
 21
177.7933839491022
 31
0.0
  0
LINE
  5
A88
330
1F
100
AcDbEntity
  8
SPOJOVACÍ
  6
DASHED
100
AcDbLine
 10
141.3568419046951
 20
175.6976792776665
 30
0.0
 11
141.7269402524998
 21
175.4834597918804
 31
0.0
  0
LINE
  5
A89
330
1F
100
AcDbEntity
  8
SPOJOVACÍ
  6
DASHED
100
AcDbLine
 10
141.3568419046951
 20
175.6976792776665
 30
0.0
 11
141.7269402524998
 21
176.0677776233321
 31
0.0
  0
LINE
  5
A8A
330
1F
100
AcDbEntity
  8
SPOJOVACÍ
  6
DASHED
100
AcDbLine
 10
141.7269402524998
 20
175.4834597918804
 30
0.0
 11
145.6904565249005
 21
174.1516526910679
 31
0.0
  0
LINE
  5
A8B
330
1F
100
AcDbEntity
  8
SPOJOVACÍ
  6
DASHED
100
AcDbLine
 10
141.7269402524998
 20
176.0677776233321
 30
0.0
 11
145.6904565249005
 21
174.7359705222486
 31
0.0
  0
LINE
  5
A8C
330
1F
100
AcDbEntity
  8
SPOJOVACÍ
  6
DASHED
100
AcDbLine
 10
141.6057011392276
 20
163.5090463235144
 30
0.0
 11
141.9767110565462
 21
163.2948268377283
 31
0.0
  0
LINE
  5
A8D
330
1F
100
AcDbEntity
  8
SPOJOVACÍ
  6
DASHED
100
AcDbLine
 10
141.6057011392276
 20
163.5090463235144
 30
0.0
 11
141.9767110565462
 21
163.87914466918
 31
0.0
  0
LINE
  5
A8E
330
1F
100
AcDbEntity
  8
SPOJOVACÍ
  6
DASHED
100
AcDbLine
 10
145.6485241989157
 20
162.5555417188559
 30
0.0
 11
145.2784258553892
 21
162.1845318007315
 31
0.0
  0
LINE
  5
A8F
330
1F
100
AcDbEntity
  8
SPOJOVACÍ
  6
DASHED
100
AcDbLine
 10
145.6485241989157
 20
162.5555417188559
 30
0.0
 11
145.2784258553892
 21
162.7688496321832
 31
0.0
  0
LINE
  5
A90
330
1F
100
AcDbEntity
  8
SPOJOVACÍ
  6
DASHED
100
AcDbLine
 10
141.9767110565462
 20
163.2948268377283
 30
0.0
 11
145.2784258553892
 21
162.1845318007315
 31
0.0
  0
LINE
  5
A91
330
1F
100
AcDbEntity
  8
SPOJOVACÍ
  6
DASHED
100
AcDbLine
 10
141.9767110565462
 20
163.87914466918
 30
0.0
 11
145.2784258553892
 21
162.7688496321832
 31
0.0
  0
LINE
  5
A92
330
1F
100
AcDbEntity
  8
SPOJOVACÍ
  6
DASHED
100
AcDbLine
 10
141.6057011392276
 20
163.5090463235144
 30
0.0
 11
145.6485241989157
 21
162.5555417188559
 31
0.0
  0
LINE
  5
A93
330
1F
100
AcDbEntity
  8
SPOJOVACÍ
  6
DASHED
100
AcDbLine
 10
142.1590255112114
 20
160.5546405643024
 30
0.0
 11
142.5291238590161
 21
160.3413326509751
 31
0.0
  0
LINE
  5
A94
330
1F
100
AcDbEntity
  8
SPOJOVACÍ
  6
DASHED
100
AcDbLine
 10
142.1590255112114
 20
160.5546405643024
 30
0.0
 11
142.5291238590161
 21
160.9256504824268
 31
0.0
  0
LINE
  5
A95
330
1F
100
AcDbEntity
  8
SPOJOVACÍ
  6
DASHED
100
AcDbLine
 10
145.2127926493139
 20
159.9338598418678
 30
0.0
 11
144.8426943057875
 21
159.5628499240144
 31
0.0
  0
LINE
  5
A96
330
1F
100
AcDbEntity
  8
SPOJOVACÍ
  6
DASHED
100
AcDbLine
 10
145.2127926493139
 20
159.9338598418678
 30
0.0
 11
144.8426943057875
 21
160.1471677551951
 31
0.0
  0
LINE
  5
A97
330
1F
100
AcDbEntity
  8
SPOJOVACÍ
  6
DASHED
100
AcDbLine
 10
142.5291238590161
 20
160.3413326509751
 30
0.0
 11
144.8426943057875
 21
159.5628499240144
 31
0.0
  0
LINE
  5
A98
330
1F
100
AcDbEntity
  8
SPOJOVACÍ
  6
DASHED
100
AcDbLine
 10
142.5291238590161
 20
160.9256504824268
 30
0.0
 11
144.8426943057875
 21
160.1471677551951
 31
0.0
  0
LINE
  5
A99
330
1F
100
AcDbEntity
  8
SPOJOVACÍ
  6
DASHED
100
AcDbLine
 10
142.1590255112114
 20
160.5546405643024
 30
0.0
 11
145.2127926493139
 21
159.9338598418678
 31
0.0
  0
LINE
  5
A9A
330
1F
100
AcDbEntity
  8
SPOJOVACÍ
  6
DASHED
100
AcDbLine
 10
142.7123498874734
 20
157.6011463775491
 30
0.0
 11
143.0824482309999
 21
157.3869268917703
 31
0.0
  0
LINE
  5
A9B
330
1F
100
AcDbEntity
  8
SPOJOVACÍ
  6
DASHED
100
AcDbLine
 10
142.7123498874734
 20
157.6011463775491
 30
0.0
 11
143.0824482309999
 21
157.9712447232147
 31
0.0
  0
LINE
  5
A9C
330
1F
100
AcDbEntity
  8
SPOJOVACÍ
  6
DASHED
100
AcDbLine
 10
144.823551286101
 20
157.2966812360907
 30
0.0
 11
144.4534529425745
 21
156.9256713182373
 31
0.0
  0
LINE
  5
A9D
330
1F
100
AcDbEntity
  8
SPOJOVACÍ
  6
DASHED
100
AcDbLine
 10
144.823551286101
 20
157.2966812360907
 30
0.0
 11
144.4534529425745
 21
157.5099891496818
 31
0.0
  0
LINE
  5
A9E
330
1F
100
AcDbEntity
  8
SPOJOVACÍ
  6
DASHED
100
AcDbLine
 10
143.0824482309999
 20
157.3869268917703
 30
0.0
 11
144.4534529425745
 21
156.9256713182373
 31
0.0
  0
LINE
  5
A9F
330
1F
100
AcDbEntity
  8
SPOJOVACÍ
  6
DASHED
100
AcDbLine
 10
143.0824482309999
 20
157.9712447232147
 30
0.0
 11
144.4534529425745
 21
157.5099891496818
 31
0.0
  0
LINE
  5
AA0
330
1F
100
AcDbEntity
  8
SPOJOVACÍ
  6
DASHED
100
AcDbLine
 10
142.7123498874734
 20
157.6011463775491
 30
0.0
 11
144.823551286101
 21
157.2966812360907
 31
0.0
  0
LINE
  5
AA1
330
1F
100
AcDbEntity
  8
SPOJOVACÍ
  6
DASHED
100
AcDbLine
 10
141.3568419046951
 20
172.6402658508129
 30
0.0
 11
141.7269402524998
 21
172.4260463650268
 31
0.0
  0
LINE
  5
AA2
330
1F
100
AcDbEntity
  8
SPOJOVACÍ
  6
DASHED
100
AcDbLine
 10
141.3568419046951
 20
172.6402658508129
 30
0.0
 11
141.7269402524998
 21
173.0103641964785
 31
0.0
  0
LINE
  5
AA3
330
1F
100
AcDbEntity
  8
SPOJOVACÍ
  6
DASHED
100
AcDbLine
 10
141.7269402524998
 20
172.4260463650268
 30
0.0
 11
145.6904565249005
 21
171.0933276920266
 31
0.0
  0
LINE
  5
AA4
330
1F
100
AcDbEntity
  8
SPOJOVACÍ
  6
DASHED
100
AcDbLine
 10
141.7269402524998
 20
173.0103641964785
 30
0.0
 11
145.6904565249005
 21
171.677645523471
 31
0.0
  0
LINE
  5
AA5
330
1F
100
AcDbEntity
  8
SPOJOVACÍ
  6
DASHED
100
AcDbLine
 10
141.3568419046951
 20
169.5828524242231
 30
0.0
 11
141.7269402524998
 21
169.3686329384443
 31
0.0
  0
LINE
  5
AA6
330
1F
100
AcDbEntity
  8
SPOJOVACÍ
  6
DASHED
100
AcDbLine
 10
141.3568419046951
 20
169.5828524242231
 30
0.0
 11
141.7269402524998
 21
169.9529507698887
 31
0.0
  0
LINE
  5
AA7
330
1F
100
AcDbEntity
  8
SPOJOVACÍ
  6
DASHED
100
AcDbLine
 10
141.7269402524998
 20
169.3686329384443
 30
0.0
 11
145.6904565249005
 21
168.0359142654367
 31
0.0
  0
LINE
  5
AA8
330
1F
100
AcDbEntity
  8
SPOJOVACÍ
  6
DASHED
100
AcDbLine
 10
141.7269402524998
 20
169.9529507698887
 30
0.0
 11
145.6904565249005
 21
168.6202320966174
 31
0.0
  0
LINE
  5
AA9
330
1F
100
AcDbEntity
  8
SPOJOVACÍ
  6
DASHED
100
AcDbLine
 10
141.3568419046951
 20
166.5245274251817
 30
0.0
 11
141.7269402524998
 21
166.3112195118544
 31
0.0
  0
LINE
  5
AAA
330
1F
100
AcDbEntity
  8
SPOJOVACÍ
  6
DASHED
100
AcDbLine
 10
141.3568419046951
 20
166.5245274251817
 30
0.0
 11
141.7269402524998
 21
166.8955373433061
 31
0.0
  0
LINE
  5
AAB
330
1F
100
AcDbEntity
  8
SPOJOVACÍ
  6
DASHED
100
AcDbLine
 10
141.7269402524998
 20
166.3112195118544
 30
0.0
 11
145.6904565249005
 21
164.9785008385831
 31
0.0
  0
LINE
  5
AAC
330
1F
100
AcDbEntity
  8
SPOJOVACÍ
  6
DASHED
100
AcDbLine
 10
141.7269402524998
 20
166.8955373433061
 30
0.0
 11
145.6904565249005
 21
165.5628186700348
 31
0.0
  0
LINE
  5
AAD
330
1F
100
AcDbEntity
  8
SPOJOVACÍ
  6
DASHED
100
AcDbLine
 10
145.8545395336714
 20
185.750498380107
 30
0.0
 11
146.7934589822561
 21
186.9337191993479
 31
0.0
  0
LINE
  5
AAE
330
1F
100
AcDbEntity
  8
SPOJOVACÍ
  6
DASHED
100
AcDbLine
 10
145.2538134015067
 20
184.3649085145978
 30
0.0
 11
145.8545395336714
 21
185.750498380107
 31
0.0
  0
LINE
  5
AAF
330
1F
100
AcDbEntity
  8
SPOJOVACÍ
  6
DASHED
100
AcDbLine
 10
145.0313897684409
 20
182.8717531202371
 30
0.0
 11
145.2538134015067
 21
184.3649085145978
 31
0.0
  0
LINE
  5
AB0
330
1F
100
AcDbEntity
  8
SPOJOVACÍ
  6
DASHED
100
AcDbLine
 10
148.7068491974223
 20
189.3393584459033
 30
0.0
 11
148.7068491974223
 21
188.1634302047066
 31
0.0
  0
LINE
  5
AB1
330
1F
100
AcDbEntity
  8
SPOJOVACÍ
  6
DASHED
100
AcDbLine
 10
138.7105475756998
 20
189.3393584459033
 30
0.0
 11
148.7068491974223
 21
189.3393584459033
 31
0.0
  0
LINE
  5
AB2
330
1F
100
AcDbEntity
  8
SPOJOVACÍ
  6
DASHED
100
AcDbLine
 10
138.7105475756998
 20
189.3393584459033
 30
0.0
 11
138.7105475756998
 21
188.1634302047066
 31
0.0
  0
LINE
  5
AB3
330
1F
100
AcDbEntity
  8
SPOJOVACÍ
  6
DASHED
100
AcDbLine
 10
138.7105475756998
 20
188.1634302047066
 30
0.0
 11
148.7068491974223
 21
188.1634302047066
 31
0.0
  0
LINE
  5
AB4
330
1F
100
AcDbEntity
  8
SPOJOVACÍ
  6
DASHED
100
AcDbLine
 10
148.0058501149778
 20
187.8334410395807
 30
0.0
 11
148.7068491974223
 21
188.1634302047066
 31
0.0
  0
LINE
  5
AB5
330
1F
100
AcDbEntity
  8
SPOJOVACÍ
  6
DASHED
100
AcDbLine
 10
146.7934589822561
 20
186.9337191993479
 30
0.0
 11
148.0058501149778
 21
187.8334410395807
 31
0.0
  0
LINE
  5
AB6
330
1F
100
AcDbEntity
  8
SPOJOVACÍ
  6
DASHED
100
AcDbLine
 10
142.3212853766763
 20
183.6429432688971
 30
0.0
 11
142.3860070089594
 21
182.8717531202371
 31
0.0
  0
LINE
  5
AB7
330
1F
100
AcDbEntity
  8
SPOJOVACÍ
  6
DASHED
100
AcDbLine
 10
141.9019621296629
 20
185.0941663386063
 30
0.0
 11
142.3212853766763
 21
183.6429432688971
 31
0.0
  0
LINE
  5
AB8
330
1F
100
AcDbEntity
  8
SPOJOVACÍ
  6
DASHED
100
AcDbLine
 10
141.1216562599311
 20
186.3867758313379
 30
0.0
 11
141.9019621296629
 21
185.0941663386063
 31
0.0
  0
LINE
  5
AB9
330
1F
100
AcDbEntity
  8
SPOJOVACÍ
  6
DASHED
100
AcDbLine
 10
140.0332389575796
 20
187.4341723809618
 30
0.0
 11
141.1216562599311
 21
186.3867758313379
 31
0.0
  0
LINE
  5
ABA
330
1F
100
AcDbEntity
  8
SPOJOVACÍ
  6
DASHED
100
AcDbLine
 10
138.7105475756998
 20
188.1634302047066
 30
0.0
 11
140.0332389575796
 21
187.4341723809618
 31
0.0
  0
LINE
  5
ABB
330
1F
100
AcDbEntity
  8
CETRIS
100
AcDbLine
 10
170.4729848822971
 20
189.274668681978
 30
0.0
 11
170.4729848822971
 21
177.274668681978
 31
0.0
  0
INSERT
  5
ABC
330
1F
100
AcDbEntity
  8
POPIS
100
AcDbBlockReference
  2
E_PUNKT
 10
151.9239948026897
 20
170.6716713858384
 30
0.0
 50
270.0
  0
INSERT
  5
ABD
330
1F
100
AcDbEntity
  8
POPIS
100
AcDbBlockReference
  2
E_PUNKT
 10
105.0416799885224
 20
182.3127834914591
 30
0.0
 50
270.0
  0
LWPOLYLINE
  5
ABE
330
1F
100
AcDbEntity
  8
izolace
100
AcDbPolyline
 90
        4
 70
     1
 43
0.0
 10
169.4164995644041
 20
145.3393584459033
 10
145.7747668545689
 20
145.3393584459033
 10
145.7747668545689
 20
142.3393584459033
 10
169.4164995644041
 20
142.3393584459033
  0
HATCH
  5
ABF
330
1F
100
AcDbEntity
  8
izolace
100
AcDbHatch
 10
0.0
 20
0.0
 30
0.0
210
0.0
220
0.0
230
1.0
  2
SOLID
 70
     1
 71
     0
 91
        1
 92
        7
 72
     0
 73
     1
 93
        4
 10
145.7747668545689
 20
145.3393584459024
 10
145.7747668545689
 20
142.3393584459033
 10
169.4164995644077
 20
142.3393584459033
 10
169.4164995644077
 20
145.3393584459024
 97
        0
 75
     0
 76
     1
 47
0.1901250437635136
 98
        1
 10
155.1325616129124
 20
144.5225468948235
  0
LWPOLYLINE
  5
AC0
330
1F
100
AcDbEntity
  8
izolace
100
AcDbPolyline
 90
        4
 70
     1
 43
0.0
 10
122.1330341447337
 20
145.3393584459033
 10
98.49130143489857
 20
145.3393584459033
 10
98.49130143489857
 20
142.3393584459033
 10
122.1330341447337
 20
142.3393584459033
  0
HATCH
  5
AC1
330
1F
100
AcDbEntity
  8
izolace
100
AcDbHatch
 10
0.0
 20
0.0
 30
0.0
210
0.0
220
0.0
230
1.0
  2
SOLID
 70
     1
 71
     0
 91
        1
 92
        7
 72
     0
 73
     1
 93
        4
 10
98.49130143490221
 20
145.3393584459024
 10
98.49130143489857
 20
142.3393584459033
 10
122.1330341447373
 20
142.3393584459033
 10
122.1330341447373
 20
145.3393584459024
 97
        0
 75
     0
 76
     1
 47
0.1901250437635136
 98
        1
 10
107.849096193242
 20
144.5225468948235
  0
LWPOLYLINE
  5
AC2
330
1F
100
AcDbEntity
  8
izolace
100
AcDbPolyline
 90
        4
 70
     1
 43
0.0
 10
74.84956872506336
 20
145.3393584459033
 10
51.20783601522816
 20
145.3393584459033
 10
51.20783601522816
 20
142.3393584459033
 10
74.84956872506336
 20
142.3393584459033
  0
HATCH
  5
AC3
330
1F
100
AcDbEntity
  8
izolace
100
AcDbHatch
 10
0.0
 20
0.0
 30
0.0
210
0.0
220
0.0
230
1.0
  2
SOLID
 70
     1
 71
     0
 91
        1
 92
        7
 72
     0
 73
     1
 93
        4
 10
51.20783601522816
 20
145.3393584459024
 10
51.2078360152318
 20
142.3393584459033
 10
74.849568725067
 20
142.3393584459033
 10
74.849568725067
 20
145.3393584459024
 97
        0
 75
     0
 76
     1
 47
0.1901250437635136
 98
        1
 10
60.56563077357168
 20
144.5225468948235
  0
HATCH
  5
AC4
330
1F
100
AcDbEntity
  8
izolace
100
AcDbHatch
 10
0.0
 20
0.0
 30
0.0
210
0.0
220
0.0
230
1.0
  2
SOLID
 70
     1
 71
     0
 91
        1
 92
        7
 72
     0
 73
     1
 93
        4
 10
289.6731546628743
 20
145.3393584459033
 10
289.6731546628743
 20
142.3393584459024
 10
313.3148873727095
 20
142.3393584459033
 10
313.3148873727095
 20
145.3393584459024
 97
        0
 75
     0
 76
     1
 47
0.1901250437635136
 98
        1
 10
299.0309494212142
 20
144.5225468948235
  0
HATCH
  5
AC5
330
1F
100
AcDbEntity
  8
CETRIS
100
AcDbHatch
 10
0.0
 20
0.0
 30
0.0
210
0.0
220
0.0
230
1.0
  2
ANSI31
 70
     0
 71
     0
 91
        1
 92
        7
 72
     0
 73
     1
 93
       44
 10
330.4940152547696
 20
172.204437441858
 10
329.8349484983136
 20
172.4260463650268
 10
329.464850150498
 20
172.6402658508138
 10
329.83494849831
 20
173.0103641964776
 10
330.4940152547769
 20
172.7887552733079
 10
330.4940152547769
 20
175.2620024479863
 10
329.8349484983209
 20
175.4834597918768
 10
329.4648501505016
 20
175.6976792776683
 10
329.83494849831
 20
176.0677776233331
 10
330.4940152547696
 20
175.8463202793952
 10
330.494015254766
 20
177.3393584459033
 10
203.1502486406225
 20
177.3393584459024
 10
203.0199563131227
 20
177.2090661176505
 10
202.6324658595458
 20
177.3393584459033
 10
202.3608895566594
 20
177.3393584459033
 10
202.3608895566703
 20
174.9574278661855
 10
203.0199563131336
 20
174.7359705222486
 10
203.3900546566564
 20
174.5217510364598
 10
203.0199563131263
 20
174.151652691067
 10
202.3608895566667
 20
174.3731100349602
 10
202.360889556663
 20
171.8992544466407
 10
203.01995631313
 20
171.677645523471
 10
203.3900546566492
 20
171.4643376098836
 10
203.01995631313
 20
171.0933276920266
 10
202.3608895566703
 20
171.3149366151953
 10
202.3608895566703
 20
168.8418410198298
 10
203.0199563131373
 20
168.6202320966146
 10
203.3900546566492
 20
168.406924183291
 10
203.0199563131263
 20
168.0359142654367
 10
202.3608895566667
 20
168.2575231886055
 10
202.3608895566667
 20
165.7952696014442
 10
202.3608895566594
 20
165.6058904592471
 10
203.4270176100308
 20
165.3393584459042
 10
330.4940152547696
 20
165.3393584459033
 10
330.494015254766
 20
166.0896105886402
 10
329.8349484982991
 20
166.3112195118571
 10
329.4648501505089
 20
166.5245274251817
 10
329.8349484983136
 20
166.8955373433052
 10
330.4940152547696
 20
166.6739284200918
 10
330.4940152547696
 20
169.1470240152755
 10
329.8349484983027
 20
169.3686329384461
 10
329.4648501505053
 20
169.5828524242222
 10
329.83494849831
 20
169.9529507698878
 10
330.4940152547733
 20
169.7313418466735
 97
        0
 75
     0
 76
     1
 52
90.0
 41
1.0
 77
     0
 78
     1
 53
135.0
 43
-27476.58686999234
 44
4029.929485449844
 45
-2.245064030267288
 46
-2.245064030267287
 79
     0
 47
0.1764240455755443
 98
        1
 10
241.5972975714739
 20
170.0654358286362
  0
LWPOLYLINE
  5
AC6
330
1F
100
AcDbEntity
  8
STAVBA OBRYS
100
AcDbPolyline
 90
        8
 70
     0
 43
0.0
 10
313.2662455903391
 20
165.3393584459033
 42
-0.0168162630274195
 10
313.1312200112752
 20
163.648320293784
 42
-0.0575155827655532
 10
312.4511877309323
 20
160.5486956330667
 42
-0.0310289133982999
 10
309.4483863861041
 20
153.303668108422
 42
-0.0882970623535771
 10
307.8111644660111
 20
151.0632990576221
 42
-0.0171636441953577
 10
304.9978004041531
 20
148.5493817023768
 42
-0.0157521173632038
 10
301.7589455671168
 20
146.0178856498703
 42
-0.0014948023799519
 10
300.8262337196047
 20
145.3393584459033
 42
-0.0014948023799519
  0
POLYLINE
  5
AC7
330
1F
100
AcDbEntity
  8
STAVBA OBRYS
100
AcDb2dPolyline
 66
     1
 10
0.0
 20
0.0
 30
0.0
  0
VERTEX
  5
AC8
330
AC7
100
AcDbEntity
  8
STAVBA OBRYS
100
AcDbVertex
100
AcDb2dVertex
 10
306.3164675666539
 20
165.3393584459015
 30
0.0
 42
-0.0072417954699014
  0
VERTEX
  5
AC9
330
AC7
100
AcDbEntity
  8
STAVBA OBRYS
100
AcDbVertex
100
AcDb2dVertex
 10
306.2608971988102
 20
164.927953234627
 30
0.0
 42
-0.0707158694326265
  0
VERTEX
  5
ACA
330
AC7
100
AcDbEntity
  8
STAVBA OBRYS
100
AcDbVertex
100
AcDb2dVertex
 10
305.7297706823901
 20
162.9918497820333
 30
0.0
 42
-0.033952657250207
  0
VERTEX
  5
ACB
330
AC7
100
AcDbEntity
  8
STAVBA OBRYS
100
AcDbVertex
100
AcDb2dVertex
 10
303.4811148429817
 20
158.6388120568597
 30
0.0
 42
-0.0571374688189033
  0
VERTEX
  5
ACC
330
AC7
100
AcDbEntity
  8
STAVBA OBRYS
100
AcDbVertex
100
AcDb2dVertex
 10
301.6949580831296
 20
156.3318877731733
 30
0.0
 42
-0.0274923553235744
  0
VERTEX
  5
ACD
330
AC7
100
AcDbEntity
  8
STAVBA OBRYS
100
AcDbVertex
100
AcDb2dVertex
 10
299.0976523525769
 20
153.9468124500388
 30
0.0
 42
-0.0255412025538677
  0
VERTEX
  5
ACE
330
AC7
100
AcDbEntity
  8
STAVBA OBRYS
100
AcDbVertex
100
AcDb2dVertex
 10
296.0462223148661
 20
151.6900987730193
 30
0.0
 42
-0.0272796991712396
  0
VERTEX
  5
ACF
330
AC7
100
AcDbEntity
  8
STAVBA OBRYS
100
AcDbVertex
100
AcDb2dVertex
 10
291.9332231616808
 20
149.2737628913571
 30
0.0
 42
-0.056967459841729
  0
VERTEX
  5
AD0
330
AC7
100
AcDbEntity
  8
STAVBA OBRYS
100
AcDbVertex
100
AcDb2dVertex
 10
289.7922758809491
 20
148.4610270561577
 30
0.0
 42
-0.0373408083348504
  0
VERTEX
  5
AD1
330
AC7
100
AcDbEntity
  8
STAVBA OBRYS
100
AcDbVertex
100
AcDb2dVertex
 10
289.5699215054755
 20
148.4218615152065
 30
0.0
 42
-0.0052305969362967
  0
VERTEX
  5
AD2
330
AC7
100
AcDbEntity
  8
STAVBA OBRYS
100
AcDbVertex
100
AcDb2dVertex
 10
289.2239617317154
 20
148.3909045483021
 30
0.0
  0
SEQEND
  5
AD3
330
AC7
100
AcDbEntity
  8
STAVBA OBRYS
  0
LWPOLYLINE
  5
AD4
330
1F
100
AcDbEntity
  8
STAVBA OBRYS
100
AcDbPolyline
 90
        3
 70
     0
 43
0.0
 10
295.932359189419
 20
159.8220277503848
 10
312.6875768091467
 20
151.4382868824166
 10
318.7759217459734
 20
145.3393584459033
  0
LWPOLYLINE
  5
AD5
330
1F
100
AcDbEntity
  8
STAVBA OBRYS
100
AcDbPolyline
 90
        7
 70
     0
 43
0.0
 10
322.1333048138494
 20
165.3393584459033
 42
-0.0120721047703132
 10
322.0643221238115
 20
163.6054703071593
 42
-0.044358077361292
 10
321.6686943891382
 20
160.9096702887425
 42
-0.0188067511131767
 10
319.6488709407549
 20
153.6674411134361
 42
-0.0457786284636091
 10
318.4408480511392
 20
150.8188307305561
 42
-0.0295006114745606
 10
316.0247875968398
 20
146.891931517154
 42
-0.0094449184784486
 10
314.8941211563196
 20
145.3393584459033
 42
-0.0094449184784486
  0
LWPOLYLINE
  5
AD6
330
1F
100
AcDbEntity
  8
STAVBA OBRYS
100
AcDbPolyline
 90
        2
 70
     0
 43
0.0
 10
340.9472497978949
 20
165.3393584459033
 42
-0.0133702840819155
 10
337.2973827370824
 20
145.3393584459033
 42
-0.0133702840819155
  0
LWPOLYLINE
  5
AD7
330
1F
100
AcDbEntity
  8
STAVBA OBRYS
100
AcDbPolyline
 90
        3
 70
     0
 43
0.0
 10
315.224936814664
 20
158.8401888766481
 10
335.2211892466566
 20
149.6241598261283
 10
339.2211268803712
 20
148.9787623507861
  0
LWPOLYLINE
  5
AD8
330
1F
100
AcDbEntity
  8
STAVBA OBRYS
100
AcDbPolyline
 90
        5
 70
     0
 43
0.0
 10
330.7575201938907
 20
165.3393584459033
 42
-0.0128837512779298
 10
330.4727282336662
 20
162.006193624157
 42
-0.0351641677647434
 10
329.8449685121431
 20
158.402484169818
 42
-0.0187319685742942
 10
326.4609526311524
 20
146.6442468276752
 42
-0.0205166500055637
 10
325.9717044022418
 20
145.3393584459033
 42
-0.0205166500055637
  0
POLYLINE
  5
AD9
330
1F
100
AcDbEntity
  8
STAVBA OBRYS
100
AcDb2dPolyline
 66
     1
 10
0.0
 20
0.0
 30
0.0
  0
VERTEX
  5
ADA
330
AD9
100
AcDbEntity
  8
STAVBA OBRYS
100
AcDbVertex
100
AcDb2dVertex
 10
299.0884165459156
 20
165.3393584459015
 30
0.0
 42
-0.0064239028828688
  0
VERTEX
  5
ADB
330
AD9
100
AcDbEntity
  8
STAVBA OBRYS
100
AcDbVertex
100
AcDb2dVertex
 10
299.0495481057351
 20
165.1202447865514
 30
0.0
 42
-0.0832048017309575
  0
VERTEX
  5
ADC
330
AD9
100
AcDbEntity
  8
STAVBA OBRYS
100
AcDbVertex
100
AcDb2dVertex
 10
298.2653655030535
 20
162.7900312068966
 30
0.0
 42
-0.0336767237692336
  0
VERTEX
  5
ADD
330
AD9
100
AcDbEntity
  8
STAVBA OBRYS
100
AcDbVertex
100
AcDb2dVertex
 10
296.5625489441317
 20
160.0617566874359
 30
0.0
 42
-0.0844635135812105
  0
VERTEX
  5
ADE
330
AD9
100
AcDbEntity
  8
STAVBA OBRYS
100
AcDbVertex
100
AcDb2dVertex
 10
295.6427391842389
 20
159.1573350824408
 30
0.0
 42
-0.0495829410719565
  0
VERTEX
  5
ADF
330
AD9
100
AcDbEntity
  8
STAVBA OBRYS
100
AcDbVertex
100
AcDb2dVertex
 10
293.8940607468848
 20
158.1806855751281
 30
0.0
 42
-0.0322692699774654
  0
VERTEX
  5
AE0
330
AD9
100
AcDbEntity
  8
STAVBA OBRYS
100
AcDbVertex
100
AcDb2dVertex
 10
291.0027065657941
 20
157.1391620737274
 30
0.0
 42
-0.0276160659512937
  0
VERTEX
  5
AE1
330
AD9
100
AcDbEntity
  8
STAVBA OBRYS
100
AcDbVertex
100
AcDb2dVertex
 10
290.1471301275069
 20
156.9424266447829
 30
0.0
 42
-0.0126891984598699
  0
VERTEX
  5
AE2
330
AD9
100
AcDbEntity
  8
STAVBA OBRYS
100
AcDbVertex
100
AcDb2dVertex
 10
289.2239617317154
 20
156.8072242552414
 30
0.0
  0
SEQEND
  5
AE3
330
AD9
100
AcDbEntity
  8
STAVBA OBRYS
  0
LWPOLYLINE
  5
AE4
330
1F
100
AcDbEntity
  8
STAVBA OBRYS
100
AcDbPolyline
 90
        7
 70
     0
 43
0.0
 10
293.7387302113984
 20
165.3393584459033
 42
-0.0203924744732807
 10
292.8366462269896
 20
164.3262284167492
 42
-0.0273961979096945
 10
291.9867818767943
 20
163.5380520427231
 42
-0.0243529190212958
 10
290.8236613843746
 20
162.6642926980555
 42
-0.0398020282482987
 10
290.0487028468142
 20
162.224663954609
 42
-0.104168275620852
 10
289.6622917104741
 20
162.1346474944318
 42
-0.007272956268647
 10
289.2239617317154
 20
162.1161941431371
 42
-0.007272956268647
  0
LINE
  5
AE5
330
1F
100
AcDbEntity
  8
STAVBA OBRYS
100
AcDbLine
 10
338.0957271339338
 20
198.6042037713584
 30
0.0
 11
308.9478297549958
 21
198.6042037713584
 31
0.0
  0
INSERT
  5
AE6
330
1F
100
AcDbEntity
  8
POPIS
100
AcDbBlockReference
  2
E_PUNKT
 10
201.0125102669753
 20
182.3127834914591
 30
0.0
 50
270.0
  0
LWPOLYLINE
  5
AE7
330
1F
100
AcDbEntity
  8
izolace
100
AcDbPolyline
 90
        4
 70
     1
 43
0.0
 10
263.9834304037449
 20
145.3393584459033
 10
240.3416976939097
 20
145.3393584459033
 10
240.3416976939097
 20
142.3393584459033
 10
263.9834304037449
 20
142.3393584459033
  0
HATCH
  5
AE8
330
1F
100
AcDbEntity
  8
izolace
100
AcDbHatch
 10
0.0
 20
0.0
 30
0.0
210
0.0
220
0.0
230
1.0
  2
SOLID
 70
     1
 71
     0
 91
        1
 92
        7
 72
     0
 73
     1
 93
        4
 10
240.3416976939133
 20
145.3393584459033
 10
240.3416976939133
 20
142.3393584459024
 10
263.9834304037485
 20
142.3393584459033
 10
263.9834304037485
 20
145.3393584459024
 97
        0
 75
     0
 76
     1
 47
0.1901250437635136
 98
        1
 10
249.6994924522532
 20
144.5225468948235
  0
LWPOLYLINE
  5
AE9
330
1F
100
AcDbEntity
  8
izolace
100
AcDbPolyline
 90
        4
 70
     1
 43
0.0
 10
216.6999649840745
 20
145.3393584459033
 10
193.0582322742393
 20
145.3393584459033
 10
193.0582322742393
 20
142.3393584459033
 10
216.6999649840745
 20
142.3393584459033
  0
HATCH
  5
AEA
330
1F
100
AcDbEntity
  8
izolace
100
AcDbHatch
 10
0.0
 20
0.0
 30
0.0
210
0.0
220
0.0
230
1.0
  2
SOLID
 70
     1
 71
     0
 91
        1
 92
        7
 72
     0
 73
     1
 93
        4
 10
193.0582322742393
 20
145.3393584459033
 10
193.0582322742429
 20
142.3393584459024
 10
216.6999649840781
 20
142.3393584459033
 10
216.6999649840781
 20
145.3393584459024
 97
        0
 75
     0
 76
     1
 47
0.1901250437635136
 98
        1
 10
202.4160270325828
 20
144.5225468948235
  0
LINE
  5
AEB
330
1F
100
AcDbEntity
  8
SPOJOVACÍ
  6
DASHED
100
AcDbLine
 10
333.9625477794815
 20
185.750498380107
 30
0.0
 11
334.9014672280663
 21
186.9337191993479
 31
0.0
  0
LINE
  5
AEC
330
1F
100
AcDbEntity
  8
SPOJOVACÍ
  6
DASHED
100
AcDbLine
 10
333.3618216473169
 20
184.3649085145978
 30
0.0
 11
333.9625477794815
 21
185.750498380107
 31
0.0
  0
LINE
  5
AED
330
1F
100
AcDbEntity
  8
SPOJOVACÍ
  6
DASHED
100
AcDbLine
 10
333.1393980142511
 20
182.8717531202371
 30
0.0
 11
333.3618216473169
 21
184.3649085145978
 31
0.0
  0
LINE
  5
AEE
330
1F
100
AcDbEntity
  8
SPOJOVACÍ
  6
DASHED
100
AcDbLine
 10
336.8148574432325
 20
189.3393584459033
 30
0.0
 11
336.8148574432325
 21
188.1634302047066
 31
0.0
  0
LINE
  5
AEF
330
1F
100
AcDbEntity
  8
SPOJOVACÍ
  6
DASHED
100
AcDbLine
 10
326.81855582151
 20
189.3393584459033
 30
0.0
 11
336.8148574432325
 21
189.3393584459033
 31
0.0
  0
LINE
  5
AF0
330
1F
100
AcDbEntity
  8
SPOJOVACÍ
  6
DASHED
100
AcDbLine
 10
326.81855582151
 20
189.3393584459033
 30
0.0
 11
326.81855582151
 21
188.1634302047066
 31
0.0
  0
LINE
  5
AF1
330
1F
100
AcDbEntity
  8
SPOJOVACÍ
  6
DASHED
100
AcDbLine
 10
326.81855582151
 20
188.1634302047066
 30
0.0
 11
336.8148574432325
 21
188.1634302047066
 31
0.0
  0
LINE
  5
AF2
330
1F
100
AcDbEntity
  8
SPOJOVACÍ
  6
DASHED
100
AcDbLine
 10
336.113858360788
 20
187.8334410395807
 30
0.0
 11
336.8148574432325
 21
188.1634302047066
 31
0.0
  0
LINE
  5
AF3
330
1F
100
AcDbEntity
  8
SPOJOVACÍ
  6
DASHED
100
AcDbLine
 10
334.9014672280663
 20
186.9337191993479
 30
0.0
 11
336.113858360788
 21
187.8334410395807
 31
0.0
  0
LINE
  5
AF4
330
1F
100
AcDbEntity
  8
SPOJOVACÍ
  6
DASHED
100
AcDbLine
 10
330.4292936224864
 20
183.6429432688971
 30
0.0
 11
330.4940152547696
 21
182.8717531202371
 31
0.0
  0
LINE
  5
AF5
330
1F
100
AcDbEntity
  8
SPOJOVACÍ
  6
DASHED
100
AcDbLine
 10
330.0099703754731
 20
185.0941663386063
 30
0.0
 11
330.4292936224864
 21
183.6429432688971
 31
0.0
  0
LINE
  5
AF6
330
1F
100
AcDbEntity
  8
SPOJOVACÍ
  6
DASHED
100
AcDbLine
 10
329.2296645057413
 20
186.3867758313379
 30
0.0
 11
330.0099703754731
 21
185.0941663386063
 31
0.0
  0
LINE
  5
AF7
330
1F
100
AcDbEntity
  8
SPOJOVACÍ
  6
DASHED
100
AcDbLine
 10
328.1412472033898
 20
187.4341723809618
 30
0.0
 11
329.2296645057413
 21
186.3867758313379
 31
0.0
  0
LINE
  5
AF8
330
1F
100
AcDbEntity
  8
SPOJOVACÍ
  6
DASHED
100
AcDbLine
 10
326.81855582151
 20
188.1634302047066
 30
0.0
 11
328.1412472033898
 21
187.4341723809618
 31
0.0
  0
LINE
  5
AF9
330
1F
100
AcDbEntity
  8
SPOJOVACÍ
  6
DASHED
100
AcDbLine
 10
333.1393980142511
 20
182.8717531202371
 30
0.0
 11
333.1393980142511
 21
178.0276580248871
 31
0.0
  0
LINE
  5
AFA
330
1F
100
AcDbEntity
  8
SPOJOVACÍ
  6
DASHED
100
AcDbLine
 10
330.4940152547696
 20
182.8717531202371
 30
0.0
 11
330.4940152547696
 21
178.9146178531507
 31
0.0
  0
LINE
  5
AFB
330
1F
100
AcDbEntity
  8
SPOJOVACÍ
  6
DASHED
100
AcDbLine
 10
330.4940152547696
 20
178.3312115941578
 30
0.0
 11
330.4940152547696
 21
175.8626738602295
 31
0.0
  0
LINE
  5
AFC
330
1F
100
AcDbEntity
  8
SPOJOVACÍ
  6
DASHED
100
AcDbLine
 10
330.4940152547696
 20
175.2710634507409
 30
0.0
 11
330.4940152547696
 21
172.800702572166
 31
0.0
  0
LINE
  5
AFD
330
1F
100
AcDbEntity
  8
SPOJOVACÍ
  6
DASHED
100
AcDbLine
 10
330.4940152547696
 20
172.2182078853609
 30
0.0
 11
330.4940152547696
 21
169.7405544287492
 31
0.0
  0
LINE
  5
AFE
330
1F
100
AcDbEntity
  8
SPOJOVACÍ
  6
DASHED
100
AcDbLine
 10
333.1393980142511
 20
177.4360476153985
 30
0.0
 11
333.1393980142511
 21
174.9675098814702
 31
0.0
  0
LINE
  5
AFF
330
1F
100
AcDbEntity
  8
SPOJOVACÍ
  6
DASHED
100
AcDbLine
 10
333.1393980142511
 20
174.3831920500185
 30
0.0
 11
333.1393980142511
 21
171.9055385934068
 31
0.0
  0
LINE
  5
B00
330
1F
100
AcDbEntity
  8
SPOJOVACÍ
  6
DASHED
100
AcDbLine
 10
333.1393980142511
 20
171.3230439066016
 30
0.0
 11
333.1393980142511
 21
168.8526830280268
 31
0.0
  0
LINE
  5
B01
330
1F
100
AcDbEntity
  8
SPOJOVACÍ
  6
DASHED
100
AcDbLine
 10
330.4940152547696
 20
169.1480324468091
 30
0.0
 11
330.4940152547696
 21
166.6804062850685
 31
0.0
  0
LINE
  5
B02
330
1F
100
AcDbEntity
  8
SPOJOVACÍ
  6
DASHED
100
AcDbLine
 10
330.4940152547696
 20
166.0960884536168
 30
0.0
 11
330.4940152547696
 21
164.873670026566
 31
0.0
  0
LINE
  5
B03
330
1F
100
AcDbEntity
  8
SPOJOVACÍ
  6
DASHED
100
AcDbLine
 10
333.1393980142511
 20
168.2638073353725
 30
0.0
 11
333.1393980142511
 21
165.7952696014442
 31
0.0
  0
LINE
  5
B04
330
1F
100
AcDbEntity
  8
SPOJOVACÍ
  6
DASHED
100
AcDbLine
 10
333.1393980142511
 20
165.2036591916919
 30
0.0
 11
333.1393980142511
 21
164.873670026566
 31
0.0
  0
LINE
  5
B05
330
1F
100
AcDbEntity
  8
SPOJOVACÍ
  6
DASHED
100
AcDbLine
 10
330.4940152547696
 20
164.873670026566
 30
0.0
 11
330.6407783914382
 21
163.7004765021963
 31
0.0
  0
LINE
  5
B06
330
1F
100
AcDbEntity
  8
SPOJOVACÍ
  6
DASHED
100
AcDbLine
 10
331.8167066323713
 20
154.2894042849118
 30
0.0
 11
332.1640156738776
 21
157.0687881661549
 31
0.0
  0
LINE
  5
B07
330
1F
100
AcDbEntity
  8
SPOJOVACÍ
  6
DASHED
100
AcDbLine
 10
330.7164388921137
 20
163.0924577914599
 30
0.0
 11
331.0008494446428
 21
160.8171733811166
 31
0.0
  0
LINE
  5
B08
330
1F
100
AcDbEntity
  8
SPOJOVACÍ
  6
DASHED
100
AcDbLine
 10
331.0783330886242
 20
160.1991273752453
 30
0.0
 11
331.3627436368751
 21
157.924754537097
 31
0.0
  0
LINE
  5
B09
330
1F
100
AcDbEntity
  8
SPOJOVACÍ
  6
DASHED
100
AcDbLine
 10
331.4384041375506
 20
157.3167358263606
 30
0.0
 11
331.8167066323713
 21
154.2894042849118
 31
0.0
  0
LINE
  5
B0A
330
1F
100
AcDbEntity
  8
SPOJOVACÍ
  6
DASHED
100
AcDbLine
 10
332.2342067403569
 20
157.6266704014803
 30
0.0
 11
332.4967395561015
 21
159.7287560787651
 31
0.0
  0
LINE
  5
B0B
330
1F
100
AcDbEntity
  8
SPOJOVACÍ
  6
DASHED
100
AcDbLine
 10
332.5669306183026
 20
160.2893730309249
 30
0.0
 11
332.8285518645334
 21
162.3832545577213
 31
0.0
  0
LINE
  5
B0C
330
1F
100
AcDbEntity
  8
SPOJOVACÍ
  6
DASHED
100
AcDbLine
 10
332.8987429310127
 20
162.9420483655055
 30
0.0
 11
333.1393980142511
 21
164.873670026566
 31
0.0
  0
LINE
  5
B0D
330
1F
100
AcDbEntity
  8
SPOJOVACÍ
  6
DASHED
100
AcDbLine
 10
329.4648501505053
 20
178.7550927042491
 30
0.0
 11
334.1685631142372
 21
177.5791644633161
 31
0.0
  0
LINE
  5
B0E
330
1F
100
AcDbEntity
  8
SPOJOVACÍ
  6
DASHED
100
AcDbLine
 10
329.4648501505053
 20
178.7550927042491
 30
0.0
 11
329.83494849831
 21
178.5417847909218
 31
0.0
  0
LINE
  5
B0F
330
1F
100
AcDbEntity
  8
SPOJOVACÍ
  6
DASHED
100
AcDbLine
 10
329.4648501505053
 20
178.7550927042491
 30
0.0
 11
329.83494849831
 21
179.1261026221025
 31
0.0
  0
LINE
  5
B10
330
1F
100
AcDbEntity
  8
SPOJOVACÍ
  6
DASHED
100
AcDbLine
 10
334.1685631142372
 20
177.5791644633161
 30
0.0
 11
333.7984647707108
 21
177.2090661176505
 31
0.0
  0
LINE
  5
B11
330
1F
100
AcDbEntity
  8
SPOJOVACÍ
  6
DASHED
100
AcDbLine
 10
334.1685631142372
 20
177.5791644633161
 30
0.0
 11
333.7984647707108
 21
177.7933839491022
 31
0.0
  0
LINE
  5
B12
330
1F
100
AcDbEntity
  8
SPOJOVACÍ
  6
DASHED
100
AcDbLine
 10
329.83494849831
 20
178.5417847909218
 30
0.0
 11
333.7984647707108
 21
177.2090661176505
 31
0.0
  0
LINE
  5
B13
330
1F
100
AcDbEntity
  8
SPOJOVACÍ
  6
DASHED
100
AcDbLine
 10
329.83494849831
 20
179.1261026221025
 30
0.0
 11
333.7984647707108
 21
177.7933839491022
 31
0.0
  0
LINE
  5
B14
330
1F
100
AcDbEntity
  8
SPOJOVACÍ
  6
DASHED
100
AcDbLine
 10
329.4648501505053
 20
175.6976792776665
 30
0.0
 11
334.1685631142372
 21
174.5217510364625
 31
0.0
  0
LINE
  5
B15
330
1F
100
AcDbEntity
  8
SPOJOVACÍ
  6
DASHED
100
AcDbLine
 10
329.4648501505053
 20
175.6976792776665
 30
0.0
 11
329.83494849831
 21
175.4834597918804
 31
0.0
  0
LINE
  5
B16
330
1F
100
AcDbEntity
  8
SPOJOVACÍ
  6
DASHED
100
AcDbLine
 10
329.4648501505053
 20
175.6976792776665
 30
0.0
 11
329.83494849831
 21
176.0677776233321
 31
0.0
  0
LINE
  5
B17
330
1F
100
AcDbEntity
  8
SPOJOVACÍ
  6
DASHED
100
AcDbLine
 10
334.1685631142372
 20
174.5217510364625
 30
0.0
 11
333.7984647707108
 21
174.1516526910679
 31
0.0
  0
LINE
  5
B18
330
1F
100
AcDbEntity
  8
SPOJOVACÍ
  6
DASHED
100
AcDbLine
 10
334.1685631142372
 20
174.5217510364625
 30
0.0
 11
333.7984647707108
 21
174.7359705222486
 31
0.0
  0
LINE
  5
B19
330
1F
100
AcDbEntity
  8
SPOJOVACÍ
  6
DASHED
100
AcDbLine
 10
329.83494849831
 20
175.4834597918804
 30
0.0
 11
333.7984647707108
 21
174.1516526910679
 31
0.0
  0
LINE
  5
B1A
330
1F
100
AcDbEntity
  8
SPOJOVACÍ
  6
DASHED
100
AcDbLine
 10
329.83494849831
 20
176.0677776233321
 30
0.0
 11
333.7984647707108
 21
174.7359705222486
 31
0.0
  0
LINE
  5
B1B
330
1F
100
AcDbEntity
  8
SPOJOVACÍ
  6
DASHED
100
AcDbLine
 10
329.7137093850378
 20
163.5090463235144
 30
0.0
 11
330.0847193023564
 21
163.2948268377283
 31
0.0
  0
LINE
  5
B1C
330
1F
100
AcDbEntity
  8
SPOJOVACÍ
  6
DASHED
100
AcDbLine
 10
329.7137093850378
 20
163.5090463235144
 30
0.0
 11
330.0847193023564
 21
163.87914466918
 31
0.0
  0
LINE
  5
B1D
330
1F
100
AcDbEntity
  8
SPOJOVACÍ
  6
DASHED
100
AcDbLine
 10
333.7565324447259
 20
162.5555417188559
 30
0.0
 11
333.3864341011994
 21
162.1845318007315
 31
0.0
  0
LINE
  5
B1E
330
1F
100
AcDbEntity
  8
SPOJOVACÍ
  6
DASHED
100
AcDbLine
 10
333.7565324447259
 20
162.5555417188559
 30
0.0
 11
333.3864341011994
 21
162.7688496321832
 31
0.0
  0
LINE
  5
B1F
330
1F
100
AcDbEntity
  8
SPOJOVACÍ
  6
DASHED
100
AcDbLine
 10
330.0847193023564
 20
163.2948268377283
 30
0.0
 11
333.3864341011994
 21
162.1845318007315
 31
0.0
  0
LINE
  5
B20
330
1F
100
AcDbEntity
  8
SPOJOVACÍ
  6
DASHED
100
AcDbLine
 10
330.0847193023564
 20
163.87914466918
 30
0.0
 11
333.3864341011994
 21
162.7688496321832
 31
0.0
  0
LINE
  5
B21
330
1F
100
AcDbEntity
  8
SPOJOVACÍ
  6
DASHED
100
AcDbLine
 10
329.7137093850378
 20
163.5090463235144
 30
0.0
 11
333.7565324447259
 21
162.5555417188559
 31
0.0
  0
LINE
  5
B22
330
1F
100
AcDbEntity
  8
SPOJOVACÍ
  6
DASHED
100
AcDbLine
 10
330.2670337570216
 20
160.5546405643024
 30
0.0
 11
330.6371321048263
 21
160.3413326509751
 31
0.0
  0
LINE
  5
B23
330
1F
100
AcDbEntity
  8
SPOJOVACÍ
  6
DASHED
100
AcDbLine
 10
330.2670337570216
 20
160.5546405643024
 30
0.0
 11
330.6371321048263
 21
160.9256504824268
 31
0.0
  0
LINE
  5
B24
330
1F
100
AcDbEntity
  8
SPOJOVACÍ
  6
DASHED
100
AcDbLine
 10
333.3208008951241
 20
159.9338598418678
 30
0.0
 11
332.9507025515977
 21
159.5628499240144
 31
0.0
  0
LINE
  5
B25
330
1F
100
AcDbEntity
  8
SPOJOVACÍ
  6
DASHED
100
AcDbLine
 10
333.3208008951241
 20
159.9338598418678
 30
0.0
 11
332.9507025515977
 21
160.1471677551951
 31
0.0
  0
LINE
  5
B26
330
1F
100
AcDbEntity
  8
SPOJOVACÍ
  6
DASHED
100
AcDbLine
 10
330.6371321048263
 20
160.3413326509751
 30
0.0
 11
332.9507025515977
 21
159.5628499240144
 31
0.0
  0
LINE
  5
B27
330
1F
100
AcDbEntity
  8
SPOJOVACÍ
  6
DASHED
100
AcDbLine
 10
330.6371321048263
 20
160.9256504824268
 30
0.0
 11
332.9507025515977
 21
160.1471677551951
 31
0.0
  0
LINE
  5
B28
330
1F
100
AcDbEntity
  8
SPOJOVACÍ
  6
DASHED
100
AcDbLine
 10
330.2670337570216
 20
160.5546405643024
 30
0.0
 11
333.3208008951241
 21
159.9338598418678
 31
0.0
  0
LINE
  5
B29
330
1F
100
AcDbEntity
  8
SPOJOVACÍ
  6
DASHED
100
AcDbLine
 10
330.8203581332836
 20
157.6011463775491
 30
0.0
 11
331.1904564768101
 21
157.3869268917703
 31
0.0
  0
LINE
  5
B2A
330
1F
100
AcDbEntity
  8
SPOJOVACÍ
  6
DASHED
100
AcDbLine
 10
330.8203581332836
 20
157.6011463775491
 30
0.0
 11
331.1904564768101
 21
157.9712447232147
 31
0.0
  0
LINE
  5
B2B
330
1F
100
AcDbEntity
  8
SPOJOVACÍ
  6
DASHED
100
AcDbLine
 10
332.9315595319112
 20
157.2966812360907
 30
0.0
 11
332.5614611883847
 21
156.9256713182373
 31
0.0
  0
LINE
  5
B2C
330
1F
100
AcDbEntity
  8
SPOJOVACÍ
  6
DASHED
100
AcDbLine
 10
332.9315595319112
 20
157.2966812360907
 30
0.0
 11
332.5614611883847
 21
157.5099891496818
 31
0.0
  0
LINE
  5
B2D
330
1F
100
AcDbEntity
  8
SPOJOVACÍ
  6
DASHED
100
AcDbLine
 10
331.1904564768101
 20
157.3869268917703
 30
0.0
 11
332.5614611883847
 21
156.9256713182373
 31
0.0
  0
LINE
  5
B2E
330
1F
100
AcDbEntity
  8
SPOJOVACÍ
  6
DASHED
100
AcDbLine
 10
331.1904564768101
 20
157.9712447232147
 30
0.0
 11
332.5614611883847
 21
157.5099891496818
 31
0.0
  0
LINE
  5
B2F
330
1F
100
AcDbEntity
  8
SPOJOVACÍ
  6
DASHED
100
AcDbLine
 10
330.8203581332836
 20
157.6011463775491
 30
0.0
 11
332.9315595319112
 21
157.2966812360907
 31
0.0
  0
LINE
  5
B30
330
1F
100
AcDbEntity
  8
SPOJOVACÍ
  6
DASHED
100
AcDbLine
 10
329.4648501505053
 20
172.6402658508129
 30
0.0
 11
334.1685631142372
 21
171.4643376098799
 31
0.0
  0
LINE
  5
B31
330
1F
100
AcDbEntity
  8
SPOJOVACÍ
  6
DASHED
100
AcDbLine
 10
329.4648501505053
 20
172.6402658508129
 30
0.0
 11
329.83494849831
 21
172.4260463650268
 31
0.0
  0
LINE
  5
B32
330
1F
100
AcDbEntity
  8
SPOJOVACÍ
  6
DASHED
100
AcDbLine
 10
329.4648501505053
 20
172.6402658508129
 30
0.0
 11
329.83494849831
 21
173.0103641964785
 31
0.0
  0
LINE
  5
B33
330
1F
100
AcDbEntity
  8
SPOJOVACÍ
  6
DASHED
100
AcDbLine
 10
334.1685631142372
 20
171.4643376098799
 30
0.0
 11
333.7984647707108
 21
171.0933276920266
 31
0.0
  0
LINE
  5
B34
330
1F
100
AcDbEntity
  8
SPOJOVACÍ
  6
DASHED
100
AcDbLine
 10
334.1685631142372
 20
171.4643376098799
 30
0.0
 11
333.7984647707108
 21
171.677645523471
 31
0.0
  0
LINE
  5
B35
330
1F
100
AcDbEntity
  8
SPOJOVACÍ
  6
DASHED
100
AcDbLine
 10
329.83494849831
 20
172.4260463650268
 30
0.0
 11
333.7984647707108
 21
171.0933276920266
 31
0.0
  0
LINE
  5
B36
330
1F
100
AcDbEntity
  8
SPOJOVACÍ
  6
DASHED
100
AcDbLine
 10
329.83494849831
 20
173.0103641964785
 30
0.0
 11
333.7984647707108
 21
171.677645523471
 31
0.0
  0
LINE
  5
B37
330
1F
100
AcDbEntity
  8
SPOJOVACÍ
  6
DASHED
100
AcDbLine
 10
329.4648501505053
 20
169.5828524242231
 30
0.0
 11
334.1685631142372
 21
168.4069241832901
 31
0.0
  0
LINE
  5
B38
330
1F
100
AcDbEntity
  8
SPOJOVACÍ
  6
DASHED
100
AcDbLine
 10
329.4648501505053
 20
169.5828524242231
 30
0.0
 11
329.83494849831
 21
169.3686329384443
 31
0.0
  0
LINE
  5
B39
330
1F
100
AcDbEntity
  8
SPOJOVACÍ
  6
DASHED
100
AcDbLine
 10
329.4648501505053
 20
169.5828524242231
 30
0.0
 11
329.83494849831
 21
169.9529507698887
 31
0.0
  0
LINE
  5
B3A
330
1F
100
AcDbEntity
  8
SPOJOVACÍ
  6
DASHED
100
AcDbLine
 10
334.1685631142372
 20
168.4069241832901
 30
0.0
 11
333.7984647707108
 21
168.0359142654367
 31
0.0
  0
LINE
  5
B3B
330
1F
100
AcDbEntity
  8
SPOJOVACÍ
  6
DASHED
100
AcDbLine
 10
334.1685631142372
 20
168.4069241832901
 30
0.0
 11
333.7984647707108
 21
168.6202320966174
 31
0.0
  0
LINE
  5
B3C
330
1F
100
AcDbEntity
  8
SPOJOVACÍ
  6
DASHED
100
AcDbLine
 10
329.83494849831
 20
169.3686329384443
 30
0.0
 11
333.7984647707108
 21
168.0359142654367
 31
0.0
  0
LINE
  5
B3D
330
1F
100
AcDbEntity
  8
SPOJOVACÍ
  6
DASHED
100
AcDbLine
 10
329.83494849831
 20
169.9529507698887
 30
0.0
 11
333.7984647707108
 21
168.6202320966174
 31
0.0
  0
LINE
  5
B3E
330
1F
100
AcDbEntity
  8
SPOJOVACÍ
  6
DASHED
100
AcDbLine
 10
329.4648501505053
 20
166.5245274251817
 30
0.0
 11
334.1685631142372
 21
165.3485991842487
 31
0.0
  0
LINE
  5
B3F
330
1F
100
AcDbEntity
  8
SPOJOVACÍ
  6
DASHED
100
AcDbLine
 10
329.4648501505053
 20
166.5245274251817
 30
0.0
 11
329.83494849831
 21
166.3112195118544
 31
0.0
  0
LINE
  5
B40
330
1F
100
AcDbEntity
  8
SPOJOVACÍ
  6
DASHED
100
AcDbLine
 10
329.4648501505053
 20
166.5245274251817
 30
0.0
 11
329.83494849831
 21
166.8955373433061
 31
0.0
  0
LINE
  5
B41
330
1F
100
AcDbEntity
  8
SPOJOVACÍ
  6
DASHED
100
AcDbLine
 10
334.1685631142372
 20
165.3485991842487
 30
0.0
 11
333.7984647707108
 21
164.9785008385831
 31
0.0
  0
LINE
  5
B42
330
1F
100
AcDbEntity
  8
SPOJOVACÍ
  6
DASHED
100
AcDbLine
 10
334.1685631142372
 20
165.3485991842487
 30
0.0
 11
333.7984647707108
 21
165.5628186700348
 31
0.0
  0
LINE
  5
B43
330
1F
100
AcDbEntity
  8
SPOJOVACÍ
  6
DASHED
100
AcDbLine
 10
329.83494849831
 20
166.3112195118544
 30
0.0
 11
333.7984647707108
 21
164.9785008385831
 31
0.0
  0
LINE
  5
B44
330
1F
100
AcDbEntity
  8
SPOJOVACÍ
  6
DASHED
100
AcDbLine
 10
329.83494849831
 20
166.8955373433061
 30
0.0
 11
333.7984647707108
 21
165.5628186700348
 31
0.0
  0
LINE
  5
B45
330
1F
100
AcDbEntity
  8
SPOJOVACÍ
  6
DASHED
100
AcDbLine
 10
199.0564400407256
 20
166.8955373433061
 30
0.0
 11
203.0199563131263
 21
165.5628186700348
 31
0.0
  0
LINE
  5
B46
330
1F
100
AcDbEntity
  8
SPOJOVACÍ
  6
DASHED
100
AcDbLine
 10
199.0564400407256
 20
166.3112195118544
 30
0.0
 11
203.0199563131263
 21
164.9785008385831
 31
0.0
  0
LINE
  5
B47
330
1F
100
AcDbEntity
  8
SPOJOVACÍ
  6
DASHED
100
AcDbLine
 10
203.3900546566528
 20
165.3485991842487
 30
0.0
 11
203.0199563131263
 21
165.5628186700348
 31
0.0
  0
LINE
  5
B48
330
1F
100
AcDbEntity
  8
SPOJOVACÍ
  6
DASHED
100
AcDbLine
 10
203.3900546566528
 20
165.3485991842487
 30
0.0
 11
203.0199563131263
 21
164.9785008385831
 31
0.0
  0
LINE
  5
B49
330
1F
100
AcDbEntity
  8
SPOJOVACÍ
  6
DASHED
100
AcDbLine
 10
198.6863416929209
 20
166.5245274251817
 30
0.0
 11
199.0564400407256
 21
166.8955373433061
 31
0.0
  0
LINE
  5
B4A
330
1F
100
AcDbEntity
  8
SPOJOVACÍ
  6
DASHED
100
AcDbLine
 10
198.6863416929209
 20
166.5245274251817
 30
0.0
 11
199.0564400407256
 21
166.3112195118544
 31
0.0
  0
LINE
  5
B4B
330
1F
100
AcDbEntity
  8
SPOJOVACÍ
  6
DASHED
100
AcDbLine
 10
198.6863416929209
 20
166.5245274251817
 30
0.0
 11
203.3900546566528
 21
165.3485991842487
 31
0.0
  0
LINE
  5
B4C
330
1F
100
AcDbEntity
  8
SPOJOVACÍ
  6
DASHED
100
AcDbLine
 10
199.0564400407256
 20
169.9529507698887
 30
0.0
 11
203.0199563131263
 21
168.6202320966174
 31
0.0
  0
LINE
  5
B4D
330
1F
100
AcDbEntity
  8
SPOJOVACÍ
  6
DASHED
100
AcDbLine
 10
199.0564400407256
 20
169.3686329384443
 30
0.0
 11
203.0199563131263
 21
168.0359142654367
 31
0.0
  0
LINE
  5
B4E
330
1F
100
AcDbEntity
  8
SPOJOVACÍ
  6
DASHED
100
AcDbLine
 10
203.3900546566528
 20
168.4069241832901
 30
0.0
 11
203.0199563131263
 21
168.6202320966174
 31
0.0
  0
LINE
  5
B4F
330
1F
100
AcDbEntity
  8
SPOJOVACÍ
  6
DASHED
100
AcDbLine
 10
203.3900546566528
 20
168.4069241832901
 30
0.0
 11
203.0199563131263
 21
168.0359142654367
 31
0.0
  0
LINE
  5
B50
330
1F
100
AcDbEntity
  8
SPOJOVACÍ
  6
DASHED
100
AcDbLine
 10
198.6863416929209
 20
169.5828524242231
 30
0.0
 11
199.0564400407256
 21
169.9529507698887
 31
0.0
  0
LINE
  5
B51
330
1F
100
AcDbEntity
  8
SPOJOVACÍ
  6
DASHED
100
AcDbLine
 10
198.6863416929209
 20
169.5828524242231
 30
0.0
 11
199.0564400407256
 21
169.3686329384443
 31
0.0
  0
LINE
  5
B52
330
1F
100
AcDbEntity
  8
SPOJOVACÍ
  6
DASHED
100
AcDbLine
 10
198.6863416929209
 20
169.5828524242231
 30
0.0
 11
203.3900546566528
 21
168.4069241832901
 31
0.0
  0
LINE
  5
B53
330
1F
100
AcDbEntity
  8
SPOJOVACÍ
  6
DASHED
100
AcDbLine
 10
199.0564400407256
 20
173.0103641964785
 30
0.0
 11
203.0199563131263
 21
171.677645523471
 31
0.0
  0
LINE
  5
B54
330
1F
100
AcDbEntity
  8
SPOJOVACÍ
  6
DASHED
100
AcDbLine
 10
199.0564400407256
 20
172.4260463650268
 30
0.0
 11
203.0199563131263
 21
171.0933276920266
 31
0.0
  0
LINE
  5
B55
330
1F
100
AcDbEntity
  8
SPOJOVACÍ
  6
DASHED
100
AcDbLine
 10
203.3900546566528
 20
171.4643376098799
 30
0.0
 11
203.0199563131263
 21
171.677645523471
 31
0.0
  0
LINE
  5
B56
330
1F
100
AcDbEntity
  8
SPOJOVACÍ
  6
DASHED
100
AcDbLine
 10
203.3900546566528
 20
171.4643376098799
 30
0.0
 11
203.0199563131263
 21
171.0933276920266
 31
0.0
  0
LINE
  5
B57
330
1F
100
AcDbEntity
  8
SPOJOVACÍ
  6
DASHED
100
AcDbLine
 10
198.6863416929209
 20
172.6402658508129
 30
0.0
 11
199.0564400407256
 21
173.0103641964785
 31
0.0
  0
LINE
  5
B58
330
1F
100
AcDbEntity
  8
SPOJOVACÍ
  6
DASHED
100
AcDbLine
 10
198.6863416929209
 20
172.6402658508129
 30
0.0
 11
199.0564400407256
 21
172.4260463650268
 31
0.0
  0
LINE
  5
B59
330
1F
100
AcDbEntity
  8
SPOJOVACÍ
  6
DASHED
100
AcDbLine
 10
198.6863416929209
 20
172.6402658508129
 30
0.0
 11
203.3900546566528
 21
171.4643376098799
 31
0.0
  0
LINE
  5
B5A
330
1F
100
AcDbEntity
  8
SPOJOVACÍ
  6
DASHED
100
AcDbLine
 10
200.0418496756992
 20
157.6011463775491
 30
0.0
 11
202.1530510743268
 21
157.2966812360907
 31
0.0
  0
LINE
  5
B5B
330
1F
100
AcDbEntity
  8
SPOJOVACÍ
  6
DASHED
100
AcDbLine
 10
200.4119480192257
 20
157.9712447232147
 30
0.0
 11
201.7829527308003
 21
157.5099891496818
 31
0.0
  0
LINE
  5
B5C
330
1F
100
AcDbEntity
  8
SPOJOVACÍ
  6
DASHED
100
AcDbLine
 10
200.4119480192257
 20
157.3869268917703
 30
0.0
 11
201.7829527308003
 21
156.9256713182373
 31
0.0
  0
LINE
  5
B5D
330
1F
100
AcDbEntity
  8
SPOJOVACÍ
  6
DASHED
100
AcDbLine
 10
202.1530510743268
 20
157.2966812360907
 30
0.0
 11
201.7829527308003
 21
157.5099891496818
 31
0.0
  0
LINE
  5
B5E
330
1F
100
AcDbEntity
  8
SPOJOVACÍ
  6
DASHED
100
AcDbLine
 10
202.1530510743268
 20
157.2966812360907
 30
0.0
 11
201.7829527308003
 21
156.9256713182373
 31
0.0
  0
LINE
  5
B5F
330
1F
100
AcDbEntity
  8
SPOJOVACÍ
  6
DASHED
100
AcDbLine
 10
200.0418496756992
 20
157.6011463775491
 30
0.0
 11
200.4119480192257
 21
157.9712447232147
 31
0.0
  0
LINE
  5
B60
330
1F
100
AcDbEntity
  8
SPOJOVACÍ
  6
DASHED
100
AcDbLine
 10
200.0418496756992
 20
157.6011463775491
 30
0.0
 11
200.4119480192257
 21
157.3869268917703
 31
0.0
  0
LINE
  5
B61
330
1F
100
AcDbEntity
  8
SPOJOVACÍ
  6
DASHED
100
AcDbLine
 10
199.4885252994372
 20
160.5546405643024
 30
0.0
 11
202.5422924375397
 21
159.9338598418678
 31
0.0
  0
LINE
  5
B62
330
1F
100
AcDbEntity
  8
SPOJOVACÍ
  6
DASHED
100
AcDbLine
 10
199.8586236472419
 20
160.9256504824268
 30
0.0
 11
202.1721940940133
 21
160.1471677551951
 31
0.0
  0
LINE
  5
B63
330
1F
100
AcDbEntity
  8
SPOJOVACÍ
  6
DASHED
100
AcDbLine
 10
199.8586236472419
 20
160.3413326509751
 30
0.0
 11
202.1721940940133
 21
159.5628499240144
 31
0.0
  0
LINE
  5
B64
330
1F
100
AcDbEntity
  8
SPOJOVACÍ
  6
DASHED
100
AcDbLine
 10
202.5422924375397
 20
159.9338598418678
 30
0.0
 11
202.1721940940133
 21
160.1471677551951
 31
0.0
  0
LINE
  5
B65
330
1F
100
AcDbEntity
  8
SPOJOVACÍ
  6
DASHED
100
AcDbLine
 10
202.5422924375397
 20
159.9338598418678
 30
0.0
 11
202.1721940940133
 21
159.5628499240144
 31
0.0
  0
LINE
  5
B66
330
1F
100
AcDbEntity
  8
SPOJOVACÍ
  6
DASHED
100
AcDbLine
 10
199.4885252994372
 20
160.5546405643024
 30
0.0
 11
199.8586236472419
 21
160.9256504824268
 31
0.0
  0
LINE
  5
B67
330
1F
100
AcDbEntity
  8
SPOJOVACÍ
  6
DASHED
100
AcDbLine
 10
199.4885252994372
 20
160.5546405643024
 30
0.0
 11
199.8586236472419
 21
160.3413326509751
 31
0.0
  0
LINE
  5
B68
330
1F
100
AcDbEntity
  8
SPOJOVACÍ
  6
DASHED
100
AcDbLine
 10
198.9352009274534
 20
163.5090463235144
 30
0.0
 11
202.9780239871415
 21
162.5555417188559
 31
0.0
  0
LINE
  5
B69
330
1F
100
AcDbEntity
  8
SPOJOVACÍ
  6
DASHED
100
AcDbLine
 10
199.306210844772
 20
163.87914466918
 30
0.0
 11
202.607925643615
 21
162.7688496321832
 31
0.0
  0
LINE
  5
B6A
330
1F
100
AcDbEntity
  8
SPOJOVACÍ
  6
DASHED
100
AcDbLine
 10
199.306210844772
 20
163.2948268377283
 30
0.0
 11
202.607925643615
 21
162.1845318007315
 31
0.0
  0
LINE
  5
B6B
330
1F
100
AcDbEntity
  8
SPOJOVACÍ
  6
DASHED
100
AcDbLine
 10
202.9780239871415
 20
162.5555417188559
 30
0.0
 11
202.607925643615
 21
162.7688496321832
 31
0.0
  0
LINE
  5
B6C
330
1F
100
AcDbEntity
  8
SPOJOVACÍ
  6
DASHED
100
AcDbLine
 10
202.9780239871415
 20
162.5555417188559
 30
0.0
 11
202.607925643615
 21
162.1845318007315
 31
0.0
  0
LINE
  5
B6D
330
1F
100
AcDbEntity
  8
SPOJOVACÍ
  6
DASHED
100
AcDbLine
 10
198.9352009274534
 20
163.5090463235144
 30
0.0
 11
199.306210844772
 21
163.87914466918
 31
0.0
  0
LINE
  5
B6E
330
1F
100
AcDbEntity
  8
SPOJOVACÍ
  6
DASHED
100
AcDbLine
 10
198.9352009274534
 20
163.5090463235144
 30
0.0
 11
199.306210844772
 21
163.2948268377283
 31
0.0
  0
LINE
  5
B6F
330
1F
100
AcDbEntity
  8
SPOJOVACÍ
  6
DASHED
100
AcDbLine
 10
199.0564400407256
 20
176.0677776233321
 30
0.0
 11
203.0199563131263
 21
174.7359705222486
 31
0.0
  0
LINE
  5
B70
330
1F
100
AcDbEntity
  8
SPOJOVACÍ
  6
DASHED
100
AcDbLine
 10
199.0564400407256
 20
175.4834597918804
 30
0.0
 11
203.0199563131263
 21
174.1516526910679
 31
0.0
  0
LINE
  5
B71
330
1F
100
AcDbEntity
  8
SPOJOVACÍ
  6
DASHED
100
AcDbLine
 10
203.3900546566528
 20
174.5217510364625
 30
0.0
 11
203.0199563131263
 21
174.7359705222486
 31
0.0
  0
LINE
  5
B72
330
1F
100
AcDbEntity
  8
SPOJOVACÍ
  6
DASHED
100
AcDbLine
 10
203.3900546566528
 20
174.5217510364625
 30
0.0
 11
203.0199563131263
 21
174.1516526910679
 31
0.0
  0
LINE
  5
B73
330
1F
100
AcDbEntity
  8
SPOJOVACÍ
  6
DASHED
100
AcDbLine
 10
198.6863416929209
 20
175.6976792776665
 30
0.0
 11
199.0564400407256
 21
176.0677776233321
 31
0.0
  0
LINE
  5
B74
330
1F
100
AcDbEntity
  8
SPOJOVACÍ
  6
DASHED
100
AcDbLine
 10
198.6863416929209
 20
175.6976792776665
 30
0.0
 11
199.0564400407256
 21
175.4834597918804
 31
0.0
  0
LINE
  5
B75
330
1F
100
AcDbEntity
  8
SPOJOVACÍ
  6
DASHED
100
AcDbLine
 10
198.6863416929209
 20
175.6976792776665
 30
0.0
 11
203.3900546566528
 21
174.5217510364625
 31
0.0
  0
LINE
  5
B76
330
1F
100
AcDbEntity
  8
SPOJOVACÍ
  6
DASHED
100
AcDbLine
 10
199.0564400407256
 20
179.1261026221025
 30
0.0
 11
203.0199563131263
 21
177.7933839491022
 31
0.0
  0
LINE
  5
B77
330
1F
100
AcDbEntity
  8
SPOJOVACÍ
  6
DASHED
100
AcDbLine
 10
199.0564400407256
 20
178.5417847909218
 30
0.0
 11
203.0199563131263
 21
177.2090661176505
 31
0.0
  0
LINE
  5
B78
330
1F
100
AcDbEntity
  8
SPOJOVACÍ
  6
DASHED
100
AcDbLine
 10
203.3900546566528
 20
177.5791644633161
 30
0.0
 11
203.0199563131263
 21
177.7933839491022
 31
0.0
  0
LINE
  5
B79
330
1F
100
AcDbEntity
  8
SPOJOVACÍ
  6
DASHED
100
AcDbLine
 10
203.3900546566528
 20
177.5791644633161
 30
0.0
 11
203.0199563131263
 21
177.2090661176505
 31
0.0
  0
LINE
  5
B7A
330
1F
100
AcDbEntity
  8
SPOJOVACÍ
  6
DASHED
100
AcDbLine
 10
198.6863416929209
 20
178.7550927042491
 30
0.0
 11
199.0564400407256
 21
179.1261026221025
 31
0.0
  0
LINE
  5
B7B
330
1F
100
AcDbEntity
  8
SPOJOVACÍ
  6
DASHED
100
AcDbLine
 10
198.6863416929209
 20
178.7550927042491
 30
0.0
 11
199.0564400407256
 21
178.5417847909218
 31
0.0
  0
LINE
  5
B7C
330
1F
100
AcDbEntity
  8
SPOJOVACÍ
  6
DASHED
100
AcDbLine
 10
198.6863416929209
 20
178.7550927042491
 30
0.0
 11
203.3900546566528
 21
177.5791644633161
 31
0.0
  0
LINE
  5
B7D
330
1F
100
AcDbEntity
  8
SPOJOVACÍ
  6
DASHED
100
AcDbLine
 10
202.1202344734283
 20
162.9420483655055
 30
0.0
 11
202.3608895566667
 21
164.873670026566
 31
0.0
  0
LINE
  5
B7E
330
1F
100
AcDbEntity
  8
SPOJOVACÍ
  6
DASHED
100
AcDbLine
 10
201.7884221607182
 20
160.2893730309249
 30
0.0
 11
202.050043406949
 21
162.3832545577213
 31
0.0
  0
LINE
  5
B7F
330
1F
100
AcDbEntity
  8
SPOJOVACÍ
  6
DASHED
100
AcDbLine
 10
201.4556982827725
 20
157.6266704014803
 30
0.0
 11
201.7182310985172
 21
159.7287560787651
 31
0.0
  0
LINE
  5
B80
330
1F
100
AcDbEntity
  8
SPOJOVACÍ
  6
DASHED
100
AcDbLine
 10
200.6598956799662
 20
157.3167358263606
 30
0.0
 11
201.0381981747868
 21
154.2894042849118
 31
0.0
  0
LINE
  5
B81
330
1F
100
AcDbEntity
  8
SPOJOVACÍ
  6
DASHED
100
AcDbLine
 10
200.2998246310399
 20
160.1991273752453
 30
0.0
 11
200.5842351792907
 21
157.924754537097
 31
0.0
  0
LINE
  5
B82
330
1F
100
AcDbEntity
  8
SPOJOVACÍ
  6
DASHED
100
AcDbLine
 10
199.9379304345293
 20
163.0924577914599
 30
0.0
 11
200.2223409870584
 21
160.8171733811166
 31
0.0
  0
LINE
  5
B83
330
1F
100
AcDbEntity
  8
SPOJOVACÍ
  6
DASHED
100
AcDbLine
 10
201.0381981747868
 20
154.2894042849118
 30
0.0
 11
201.3855072162932
 21
157.0687881661549
 31
0.0
  0
LINE
  5
B84
330
1F
100
AcDbEntity
  8
SPOJOVACÍ
  6
DASHED
100
AcDbLine
 10
199.7155067971853
 20
164.873670026566
 30
0.0
 11
199.8622699338539
 21
163.7004765021963
 31
0.0
  0
LINE
  5
B85
330
1F
100
AcDbEntity
  8
SPOJOVACÍ
  6
DASHED
100
AcDbLine
 10
202.3608895566667
 20
165.2036591916919
 30
0.0
 11
202.3608895566667
 21
164.873670026566
 31
0.0
  0
LINE
  5
B86
330
1F
100
AcDbEntity
  8
SPOJOVACÍ
  6
DASHED
100
AcDbLine
 10
202.3608895566667
 20
168.2638073353725
 30
0.0
 11
202.3608895566667
 21
165.7952696014442
 31
0.0
  0
LINE
  5
B87
330
1F
100
AcDbEntity
  8
SPOJOVACÍ
  6
DASHED
100
AcDbLine
 10
199.7155067971853
 20
166.0960884536168
 30
0.0
 11
199.7155067971853
 21
164.873670026566
 31
0.0
  0
LINE
  5
B88
330
1F
100
AcDbEntity
  8
SPOJOVACÍ
  6
DASHED
100
AcDbLine
 10
199.7155067971853
 20
169.1480324468091
 30
0.0
 11
199.7155067971853
 21
166.6804062850685
 31
0.0
  0
LINE
  5
B89
330
1F
100
AcDbEntity
  8
SPOJOVACÍ
  6
DASHED
100
AcDbLine
 10
202.3608895566667
 20
171.3230439066016
 30
0.0
 11
202.3608895566667
 21
168.8526830280268
 31
0.0
  0
LINE
  5
B8A
330
1F
100
AcDbEntity
  8
SPOJOVACÍ
  6
DASHED
100
AcDbLine
 10
202.3608895566667
 20
174.3831920500185
 30
0.0
 11
202.3608895566667
 21
171.9055385934068
 31
0.0
  0
LINE
  5
B8B
330
1F
100
AcDbEntity
  8
SPOJOVACÍ
  6
DASHED
100
AcDbLine
 10
202.3608895566667
 20
177.4360476153985
 30
0.0
 11
202.3608895566667
 21
174.9675098814702
 31
0.0
  0
LINE
  5
B8C
330
1F
100
AcDbEntity
  8
SPOJOVACÍ
  6
DASHED
100
AcDbLine
 10
199.7155067971853
 20
172.2182078853609
 30
0.0
 11
199.7155067971853
 21
169.7405544287492
 31
0.0
  0
LINE
  5
B8D
330
1F
100
AcDbEntity
  8
SPOJOVACÍ
  6
DASHED
100
AcDbLine
 10
199.7155067971853
 20
175.2710634507409
 30
0.0
 11
199.7155067971853
 21
172.800702572166
 31
0.0
  0
LINE
  5
B8E
330
1F
100
AcDbEntity
  8
SPOJOVACÍ
  6
DASHED
100
AcDbLine
 10
199.7155067971853
 20
178.3312115941578
 30
0.0
 11
199.7155067971853
 21
175.8626738602295
 31
0.0
  0
LINE
  5
B8F
330
1F
100
AcDbEntity
  8
SPOJOVACÍ
  6
DASHED
100
AcDbLine
 10
199.7155067971853
 20
182.8717531202371
 30
0.0
 11
199.7155067971853
 21
178.9146178531507
 31
0.0
  0
LINE
  5
B90
330
1F
100
AcDbEntity
  8
SPOJOVACÍ
  6
DASHED
100
AcDbLine
 10
202.3608895566667
 20
182.8717531202371
 30
0.0
 11
202.3608895566667
 21
178.0276580248871
 31
0.0
  0
LINE
  5
B91
330
1F
100
AcDbEntity
  8
SPOJOVACÍ
  6
DASHED
100
AcDbLine
 10
196.0400473639256
 20
188.1634302047066
 30
0.0
 11
197.3627387458054
 21
187.4341723809618
 31
0.0
  0
LINE
  5
B92
330
1F
100
AcDbEntity
  8
SPOJOVACÍ
  6
DASHED
100
AcDbLine
 10
197.3627387458054
 20
187.4341723809618
 30
0.0
 11
198.4511560481569
 21
186.3867758313379
 31
0.0
  0
LINE
  5
B93
330
1F
100
AcDbEntity
  8
SPOJOVACÍ
  6
DASHED
100
AcDbLine
 10
198.4511560481569
 20
186.3867758313379
 30
0.0
 11
199.2314619178887
 21
185.0941663386063
 31
0.0
  0
LINE
  5
B94
330
1F
100
AcDbEntity
  8
SPOJOVACÍ
  6
DASHED
100
AcDbLine
 10
199.2314619178887
 20
185.0941663386063
 30
0.0
 11
199.6507851649021
 21
183.6429432688971
 31
0.0
  0
LINE
  5
B95
330
1F
100
AcDbEntity
  8
SPOJOVACÍ
  6
DASHED
100
AcDbLine
 10
199.6507851649021
 20
183.6429432688971
 30
0.0
 11
199.7155067971853
 21
182.8717531202371
 31
0.0
  0
LINE
  5
B96
330
1F
100
AcDbEntity
  8
SPOJOVACÍ
  6
DASHED
100
AcDbLine
 10
204.1229587704819
 20
186.9337191993479
 30
0.0
 11
205.3353499032037
 21
187.8334410395807
 31
0.0
  0
LINE
  5
B97
330
1F
100
AcDbEntity
  8
SPOJOVACÍ
  6
DASHED
100
AcDbLine
 10
205.3353499032037
 20
187.8334410395807
 30
0.0
 11
206.0363489856481
 21
188.1634302047066
 31
0.0
  0
LINE
  5
B98
330
1F
100
AcDbEntity
  8
SPOJOVACÍ
  6
DASHED
100
AcDbLine
 10
196.0400473639256
 20
188.1634302047066
 30
0.0
 11
206.0363489856481
 21
188.1634302047066
 31
0.0
  0
LINE
  5
B99
330
1F
100
AcDbEntity
  8
SPOJOVACÍ
  6
DASHED
100
AcDbLine
 10
196.0400473639256
 20
189.3393584459033
 30
0.0
 11
196.0400473639256
 21
188.1634302047066
 31
0.0
  0
LINE
  5
B9A
330
1F
100
AcDbEntity
  8
SPOJOVACÍ
  6
DASHED
100
AcDbLine
 10
196.0400473639256
 20
189.3393584459033
 30
0.0
 11
206.0363489856481
 21
189.3393584459033
 31
0.0
  0
LINE
  5
B9B
330
1F
100
AcDbEntity
  8
SPOJOVACÍ
  6
DASHED
100
AcDbLine
 10
206.0363489856481
 20
189.3393584459033
 30
0.0
 11
206.0363489856481
 21
188.1634302047066
 31
0.0
  0
LINE
  5
B9C
330
1F
100
AcDbEntity
  8
SPOJOVACÍ
  6
DASHED
100
AcDbLine
 10
202.3608895566667
 20
182.8717531202371
 30
0.0
 11
202.5833131897325
 21
184.3649085145978
 31
0.0
  0
LINE
  5
B9D
330
1F
100
AcDbEntity
  8
SPOJOVACÍ
  6
DASHED
100
AcDbLine
 10
202.5833131897325
 20
184.3649085145978
 30
0.0
 11
203.1840393218972
 21
185.750498380107
 31
0.0
  0
LINE
  5
B9E
330
1F
100
AcDbEntity
  8
SPOJOVACÍ
  6
DASHED
100
AcDbLine
 10
203.1840393218972
 20
185.750498380107
 30
0.0
 11
204.1229587704819
 21
186.9337191993479
 31
0.0
  0
TEXT
  5
B9F
330
1F
100
AcDbEntity
  8
POPIS
100
AcDbText
 10
184.1439076660444
 20
270.4821782718143
 30
0.0
 40
25.0
  1
07
 41
0.85
  7
SIMPLEX7
100
AcDbText
  0
TEXT
  5
BA0
330
1F
100
AcDbEntity
  8
POPIS
100
AcDbText
 10
135.0553922017588
 20
270.4821782718143
 30
0.0
 40
25.0
  1
06
 41
0.85
  7
SIMPLEX7
100
AcDbText
  0
TEXT
  5
BA1
330
1F
100
AcDbEntity
  8
POPIS
100
AcDbText
 10
88.17307738759154
 20
270.4821782718143
 30
0.0
 40
25.0
  1
05
 41
0.85
  7
SIMPLEX7
100
AcDbText
  0
TEXT
  5
BA2
330
1F
100
AcDbEntity
  8
POPIS
100
AcDbText
 10
26.55569186913089
 20
449.2937919308085
 30
0.0
 40
35.0
  1
SVISLÝ ŘEZ
 41
0.85
  7
SIMPLEX7
100
AcDbText
  0
TEXT
  5
BA3
330
1F
100
AcDbEntity
  8
POPIS
100
AcDbText
 10
809.7392808071981
 20
416.2208247986662
 30
0.0
 40
25.0
  1
01
 41
0.85
  7
SIMPLEX7
100
AcDbText
  0
LINE
  5
BA4
330
1F
100
AcDbEntity
  8
STAVBA OBRYS
100
AcDbLine
 10
423.9519027517981
 20
196.2996078343683
 30
0.0
 11
423.9519027517981
 21
414.9814487927876
 31
0.0
  0
HATCH
  5
BA5
330
1F
100
AcDbEntity
  8
CETRIS
100
AcDbHatch
 10
0.0
 20
0.0
 30
0.0
210
0.0
220
0.0
230
1.0
  2
ANSI31
 70
     0
 71
     0
 91
        3
 92
        7
 72
     0
 73
     1
 93
       24
 10
691.739581099342
 20
177.3393584459033
 10
677.9539082086576
 20
177.3393584459033
 10
677.9539082086649
 20
175.8463202793952
 10
678.6129749651172
 20
176.0677776233312
 10
678.9830733129219
 20
175.6976792776665
 10
678.61297496511
 20
175.4834597918777
 10
677.9539082086612
 20
175.262002447989
 10
677.9539082086612
 20
172.788755273307
 10
678.6129749651172
 20
173.0103641964785
 10
678.9830733129256
 20
172.6402658508111
 10
678.6129749651209
 20
172.4260463650259
 10
677.9539082086649
 20
172.2044374418571
 10
677.9539082086612
 20
169.7313418466762
 10
678.6129749651136
 20
169.9529507698887
 10
678.9830733129256
 20
169.5828524242249
 10
678.6129749651172
 20
169.3686329384424
 10
677.9539082086612
 20
169.1470240152746
 10
677.9539082086612
 20
166.6739284200937
 10
678.6129749651209
 20
166.8955373433061
 10
678.9830733129292
 20
166.5245274251817
 10
678.6129749651244
 20
166.311219511858
 10
677.9539082086612
 20
166.0896105886411
 10
677.9539082086612
 20
165.3393584459015
 10
691.7395810993384
 20
165.3393584459033
 97
        0
 92
        7
 72
     0
 73
     1
 93
       45
 10
675.3085254491688
 20
174.3731100349584
 10
674.6494586927201
 20
174.151652691067
 10
674.2793603491937
 20
174.5217510364625
 10
674.6494586927237
 20
174.7359705222486
 10
675.3085254491797
 20
174.9574278661864
 10
675.3085254491797
 20
177.3393584459033
 10
675.0369491463007
 20
177.3393584459033
 10
674.6494586927201
 20
177.2090661176505
 10
674.5191663652203
 20
177.3393584459024
 10
427.9539082086649
 20
177.3393584459033
 10
427.9539082086539
 20
175.8463202793934
 10
428.6129749651208
 20
176.0677776233331
 10
428.9830733129219
 20
175.6976792776674
 10
428.6129749651172
 20
175.4834597918768
 10
427.9539082086612
 20
175.2620024479854
 10
427.9539082086649
 20
172.7887552733088
 10
428.6129749651172
 20
173.0103641964776
 10
428.9830733129256
 20
172.6402658508111
 10
428.6129749651136
 20
172.4260463650241
 10
427.9539082086612
 20
172.204437441858
 10
427.9539082086612
 20
169.7313418466753
 10
428.6129749651136
 20
169.9529507698878
 10
428.9830733129219
 20
169.5828524242249
 10
428.6129749651172
 20
169.3686329384424
 10
427.9539082086612
 20
169.1470240152737
 10
427.9539082086576
 20
166.6739284200937
 10
428.6129749651208
 20
166.8955373433061
 10
428.9830733129256
 20
166.5245274251826
 10
428.6129749651136
 20
166.3112195118571
 10
427.9539082086612
 20
166.0896105886438
 10
427.9539082086612
 20
165.3393584459024
 10
674.2423973958011
 20
165.3393584459024
 10
674.2793603491937
 20
165.3485991842505
 10
674.6494586927274
 20
165.5628186700403
 10
675.3085254491834
 20
165.7844275932509
 10
675.3085254491907
 20
168.2575231886073
 10
674.6494586927201
 20
168.0359142654376
 10
674.27936034919
 20
168.4069241832892
 10
674.6494586927201
 20
168.6202320966219
 10
675.3085254491797
 20
168.8418410198335
 10
675.3085254491834
 20
171.3149366151926
 10
674.6494586927164
 20
171.0933276920266
 10
674.2793603491937
 20
171.464337609879
 10
674.6494586927274
 20
171.6776455234692
 10
675.3085254491797
 20
171.8992544466361
 97
        0
 92
        7
 72
     0
 73
     1
 93
       25
 10
425.3085254491797
 20
174.3731100349602
 10
424.6494586927237
 20
174.1516526910652
 10
424.2793603491973
 20
174.5217510364616
 10
424.6494586927274
 20
174.7359705222477
 10
425.3085254491797
 20
174.9574278661846
 10
425.3085254491834
 20
177.3393584459033
 10
425.0369491463007
 20
177.3393584459033
 10
424.6494586927201
 20
177.2090661176523
 10
424.5191663652203
 20
177.3393584459033
 10
409.2239617317191
 20
177.3393584459033
 10
409.2239617317191
 20
165.3393584459024
 10
424.2423973958048
 20
165.3393584459015
 10
424.2793603491973
 20
165.3485991842478
 10
424.6494586927164
 20
165.5628186700357
 10
425.3085254491797
 20
165.7844275932482
 10
425.3085254491797
 20
168.2575231886055
 10
424.6494586927128
 20
168.0359142654376
 10
424.27936034919
 20
168.4069241832873
 10
424.6494586927092
 20
168.6202320966183
 10
425.3085254491797
 20
168.8418410198325
 10
425.3085254491834
 20
171.3149366151963
 10
424.6494586927201
 20
171.0933276920257
 10
424.2793603491937
 20
171.4643376098772
 10
424.6494586927274
 20
171.6776455234701
 10
425.3085254491761
 20
171.8992544466389
 97
        0
 75
     0
 76
     1
 52
90.0
 41
1.0
 77
     0
 78
     1
 53
135.0
 43
-27476.58686999234
 44
4029.929485449844
 45
-2.245064030267288
 46
-2.245064030267287
 79
     0
 47
0.4519862576681119
 98
        3
 10
682.7749419452357
 20
173.1865640049407
 10
649.3074168897892
 20
173.1865640049407
 10
416.3915359096044
 20
173.6385420403537
  0
HATCH
  5
BA6
330
1F
100
AcDbEntity
  8
izolace
100
AcDbHatch
 10
0.0
 20
0.0
 30
0.0
210
0.0
220
0.0
230
1.0
  2
SOLID
 70
     1
 71
     0
 91
        1
 92
        7
 72
     0
 73
     1
 93
        4
 10
618.6094210512728
 20
145.3393584459033
 10
618.6094210512765
 20
142.3393584459024
 10
642.2511537611117
 20
142.3393584459033
 10
642.2511537611117
 20
145.3393584459024
 97
        0
 75
     0
 76
     1
 47
0.1901250437635136
 98
        1
 10
627.9672158096164
 20
144.5225468948235
  0
LWPOLYLINE
  5
BA7
330
1F
100
AcDbEntity
  8
izolace
100
AcDbPolyline
 90
        4
 70
     1
 43
0.0
 10
642.2511537611081
 20
145.3393584459033
 10
618.6094210512728
 20
145.3393584459033
 10
618.6094210512728
 20
142.3393584459033
 10
642.2511537611081
 20
142.3393584459033
  0
LWPOLYLINE
  5
BA8
330
1F
100
AcDbEntity
  8
nášlap_vrstvy
100
AcDbPolyline
 90
        4
 70
     0
 43
0.0
 10
384.5427213881903
 20
191.9611188084197
 10
691.7395810993384
 20
191.9611188084197
 10
691.7395810993384
 20
196.2996078343683
 10
384.5427213881903
 20
196.2996078343683
  0
LINE
  5
BA9
330
1F
100
AcDbEntity
  8
CETRIS
100
AcDbLine
 10
409.2239617317154
 20
165.3393584459033
 30
0.0
 11
691.739581099342
 21
165.3393584459024
 31
0.0
  0
LINE
  5
BAA
330
1F
100
AcDbEntity
  8
CETRIS
100
AcDbLine
 10
409.2239617317154
 20
177.3393584459033
 30
0.0
 11
691.739581099342
 21
177.3393584459033
 31
0.0
  0
LINE
  5
BAB
330
1F
100
AcDbEntity
  8
izolace
  6
IZOLACE
 48
0.95
100
AcDbLine
 10
469.2239617317154
 20
155.3393584459033
 30
0.0
 11
691.7395810993457
 21
155.3393584459024
 31
0.0
  0
LINE
  5
BAC
330
1F
100
AcDbEntity
  8
POPIS
100
AcDbLine
 10
457.2416525638782
 20
266.1876956127132
 30
0.0
 11
378.7526117082179
 21
199.2138731864267
 31
0.0
  0
LINE
  5
BAD
330
1F
100
AcDbEntity
  8
POPIS
100
AcDbLine
 10
391.7239617317154
 20
180.1597200898438
 30
0.0
 11
509.6773589883614
 21
265.0727331063615
 31
0.0
  0
LWPOLYLINE
  5
BAE
330
1F
100
AcDbEntity
  8
STAVBA OBRYS
100
AcDbPolyline
 90
        4
 70
     1
 43
0.0
 10
500.4007575020969
 20
145.3393584459033
 10
476.7590247922616
 20
145.3393584459033
 10
476.7590247922616
 20
142.3393584459033
 10
500.4007575020969
 20
142.3393584459033
  0
HATCH
  5
BAF
330
1F
100
AcDbEntity
  8
izolace
100
AcDbHatch
 10
0.0
 20
0.0
 30
0.0
210
0.0
220
0.0
230
1.0
  2
SOLID
 70
     1
 71
     0
 91
        1
 92
        7
 72
     0
 73
     1
 93
        4
 10
476.7590247922616
 20
145.3393584459033
 10
476.7590247922653
 20
142.3393584459024
 10
500.4007575021005
 20
142.3393584459024
 10
500.4007575020896
 20
145.3393584459033
 97
        0
 75
     0
 76
     1
 47
0.1901250437635136
 98
        1
 10
486.1168195506052
 20
144.5225468948235
  0
INSERT
  5
BB0
330
1F
100
AcDbEntity
  8
POPIS
100
AcDbBlockReference
  2
E_PUNKT
 10
378.6829876846514
 20
197.9921416409649
 30
0.0
 50
270.0
  0
INSERT
  5
BB1
330
1F
100
AcDbEntity
  8
POPIS
100
AcDbBlockReference
  2
E_PUNKT
 10
391.9730640582656
 20
178.9686750238686
 30
0.0
 50
270.0
  0
LINE
  5
BB2
330
1F
100
AcDbEntity
  8
nášlap_vrstvy
100
AcDbLine
 10
373.9052020752406
 20
191.9611188084197
 30
0.0
 11
373.9052020752406
 21
196.2996078343683
 31
0.0
  0
LINE
  5
BB3
330
1F
100
AcDbEntity
  8
nášlap_vrstvy
100
AcDbLine
 10
384.5427213881903
 20
196.2996078343683
 30
0.0
 11
384.5427213881903
 21
191.9611188084197
 31
0.0
  0
INSERT
  5
BB4
330
1F
100
AcDbEntity
  8
POPIS
100
AcDbBlockReference
  2
E_PUNKT
 10
441.3511940615262
 20
161.002856118135
 30
0.0
 50
270.0
  0
INSERT
  5
BB5
330
1F
100
AcDbEntity
  8
POPIS
100
AcDbBlockReference
  2
E_PUNKT
 10
356.7027869741523
 20
161.002856118135
 30
0.0
 50
270.0
  0
INSERT
  5
BB6
330
1F
100
AcDbEntity
  8
POPIS
100
AcDbBlockReference
  2
E_PUNKT
 10
376.3716751515803
 20
161.002856118135
 30
0.0
 50
270.0
  0
LWPOLYLINE
  5
BB7
330
1F
100
AcDbEntity
  8
STAVBA OBRYS
100
AcDbPolyline
 90
        2
 70
     0
 43
0.0
 10
390.224936814664
 20
167.5602045174098
 10
394.2239617317154
 20
165.7171026694684
  0
LWPOLYLINE
  5
BB8
330
1F
100
AcDbEntity
  8
STAVBA OBRYS
100
AcDbPolyline
 90
        4
 70
     0
 43
0.0
 10
394.2239617317154
 20
161.2107977308703
 42
-0.027278836128071
 10
393.4408480511392
 20
159.5388463713177
 42
-0.0295006114745606
 10
391.0247875968398
 20
155.6119471579156
 42
-0.0692960813769435
 10
381.4756013161332
 20
145.3393584459033
  0
LWPOLYLINE
  5
BB9
330
1F
100
AcDbEntity
  8
STAVBA OBRYS
100
AcDbPolyline
 90
        8
 70
     0
 43
0.0
 10
388.2662455903391
 20
174.059374086665
 42
-0.0168162630274195
 10
388.1312200112752
 20
172.3683359345457
 42
-0.0575155827655532
 10
387.4511877309323
 20
169.2687112738283
 42
-0.0310289133982999
 10
384.4483863861041
 20
162.0236837491836
 42
-0.0882970623535771
 10
382.8111644660111
 20
159.7833146983837
 42
-0.0171636441953577
 10
379.9978004041531
 20
157.2693973431385
 42
-0.0157521173632038
 10
376.7589455671168
 20
154.7379012906319
 42
-0.0195937963304537
 10
364.2239617317154
 20
146.2952436615648
 42
-0.0014948023799519
  0
POLYLINE
  5
BBA
330
1F
100
AcDbEntity
  8
STAVBA OBRYS
100
AcDb2dPolyline
 66
     1
 10
0.0
 20
0.0
 30
0.0
  0
VERTEX
  5
BBB
330
BBA
100
AcDbEntity
  8
STAVBA OBRYS
100
AcDbVertex
100
AcDb2dVertex
 10
381.3164675666539
 20
174.0593740866631
 30
0.0
 42
-0.0072417954699014
  0
VERTEX
  5
BBC
330
BBA
100
AcDbEntity
  8
STAVBA OBRYS
100
AcDbVertex
100
AcDb2dVertex
 10
381.2608971988101
 20
173.6479688753886
 30
0.0
 42
-0.0707158694326265
  0
VERTEX
  5
BBD
330
BBA
100
AcDbEntity
  8
STAVBA OBRYS
100
AcDbVertex
100
AcDb2dVertex
 10
380.7297706823901
 20
171.7118654227949
 30
0.0
 42
-0.033952657250207
  0
VERTEX
  5
BBE
330
BBA
100
AcDbEntity
  8
STAVBA OBRYS
100
AcDbVertex
100
AcDb2dVertex
 10
378.4811148429817
 20
167.3588276976213
 30
0.0
 42
-0.0571374688189033
  0
VERTEX
  5
BBF
330
BBA
100
AcDbEntity
  8
STAVBA OBRYS
100
AcDbVertex
100
AcDb2dVertex
 10
376.6949580831296
 20
165.0519034139349
 30
0.0
 42
-0.0274923553235744
  0
VERTEX
  5
BC0
330
BBA
100
AcDbEntity
  8
STAVBA OBRYS
100
AcDbVertex
100
AcDb2dVertex
 10
374.0976523525769
 20
162.6668280908004
 30
0.0
 42
-0.0255412025538677
  0
VERTEX
  5
BC1
330
BBA
100
AcDbEntity
  8
STAVBA OBRYS
100
AcDbVertex
100
AcDb2dVertex
 10
371.0462223148661
 20
160.410114413781
 30
0.0
 42
-0.0272796991712396
  0
VERTEX
  5
BC2
330
BBA
100
AcDbEntity
  8
STAVBA OBRYS
100
AcDbVertex
100
AcDb2dVertex
 10
366.9332231616808
 20
157.9937785321187
 30
0.0
 42
-0.056967459841729
  0
VERTEX
  5
BC3
330
BBA
100
AcDbEntity
  8
STAVBA OBRYS
100
AcDbVertex
100
AcDb2dVertex
 10
364.7922758809491
 20
157.1810426969193
 30
0.0
 42
-0.0373408083348504
  0
VERTEX
  5
BC4
330
BBA
100
AcDbEntity
  8
STAVBA OBRYS
100
AcDbVertex
100
AcDb2dVertex
 10
364.5699215054755
 20
157.1418771559681
 30
0.0
 42
-0.0052305969362967
  0
VERTEX
  5
BC5
330
BBA
100
AcDbEntity
  8
STAVBA OBRYS
100
AcDbVertex
100
AcDb2dVertex
 10
364.2239617317154
 20
157.1109201890637
 30
0.0
  0
SEQEND
  5
BC6
330
BBA
100
AcDbEntity
  8
STAVBA OBRYS
  0
LWPOLYLINE
  5
BC7
330
1F
100
AcDbEntity
  8
STAVBA OBRYS
100
AcDbPolyline
 90
        3
 70
     0
 43
0.0
 10
370.932359189419
 20
168.5420433911465
 10
387.6875768091467
 20
160.1583025231782
 10
393.7759217459733
 20
154.059374086665
  0
POLYLINE
  5
BC8
330
1F
100
AcDbEntity
  8
STAVBA OBRYS
100
AcDb2dPolyline
 66
     1
 10
0.0
 20
0.0
 30
0.0
  0
VERTEX
  5
BC9
330
BC8
100
AcDbEntity
  8
STAVBA OBRYS
100
AcDbVertex
100
AcDb2dVertex
 10
374.0884165459156
 20
174.0593740866631
 30
0.0
 42
-0.0064239028828688
  0
VERTEX
  5
BCA
330
BC8
100
AcDbEntity
  8
STAVBA OBRYS
100
AcDbVertex
100
AcDb2dVertex
 10
374.049548105735
 20
173.840260427313
 30
0.0
 42
-0.0832048017309575
  0
VERTEX
  5
BCB
330
BC8
100
AcDbEntity
  8
STAVBA OBRYS
100
AcDbVertex
100
AcDb2dVertex
 10
373.2653655030535
 20
171.5100468476582
 30
0.0
 42
-0.0336767237692336
  0
VERTEX
  5
BCC
330
BC8
100
AcDbEntity
  8
STAVBA OBRYS
100
AcDbVertex
100
AcDb2dVertex
 10
371.5625489441317
 20
168.7817723281975
 30
0.0
 42
-0.0844635135812105
  0
VERTEX
  5
BCD
330
BC8
100
AcDbEntity
  8
STAVBA OBRYS
100
AcDbVertex
100
AcDb2dVertex
 10
370.6427391842389
 20
167.8773507232024
 30
0.0
 42
-0.0495829410719565
  0
VERTEX
  5
BCE
330
BC8
100
AcDbEntity
  8
STAVBA OBRYS
100
AcDbVertex
100
AcDb2dVertex
 10
368.8940607468848
 20
166.9007012158897
 30
0.0
 42
-0.0322692699774654
  0
VERTEX
  5
BCF
330
BC8
100
AcDbEntity
  8
STAVBA OBRYS
100
AcDbVertex
100
AcDb2dVertex
 10
366.0027065657941
 20
165.859177714489
 30
0.0
 42
-0.0276160659512937
  0
VERTEX
  5
BD0
330
BC8
100
AcDbEntity
  8
STAVBA OBRYS
100
AcDbVertex
100
AcDb2dVertex
 10
365.1471301275069
 20
165.6624422855445
 30
0.0
 42
-0.0126891984598699
  0
VERTEX
  5
BD1
330
BC8
100
AcDbEntity
  8
STAVBA OBRYS
100
AcDbVertex
100
AcDb2dVertex
 10
364.2239617317154
 20
165.527239896003
 30
0.0
  0
SEQEND
  5
BD2
330
BC8
100
AcDbEntity
  8
STAVBA OBRYS
  0
LWPOLYLINE
  5
BD3
330
1F
100
AcDbEntity
  8
STAVBA OBRYS
100
AcDbPolyline
 90
        7
 70
     0
 43
0.0
 10
368.7387302113984
 20
174.059374086665
 42
-0.0203924744732807
 10
367.8366462269896
 20
173.0462440575108
 42
-0.0273961979096945
 10
366.9867818767943
 20
172.2580676834847
 42
-0.0243529190212958
 10
365.8236613843746
 20
171.3843083388171
 42
-0.0398020282482987
 10
365.0487028468142
 20
170.9446795953706
 42
-0.104168275620852
 10
364.6622917104741
 20
170.8546631351935
 42
-0.007272956268647
 10
364.2239617317154
 20
170.8362097838987
 42
-0.007272956268647
  0
LWPOLYLINE
  5
BD4
330
1F
100
AcDbEntity
  8
STAVBA OBRYS
100
AcDbPolyline
 90
        4
 70
     1
 43
0.0
 10
364.2239617317154
 20
174.059374086665
 10
394.2239617317154
 20
174.059374086665
 10
394.2239617317154
 20
145.3393584459033
 10
364.2239617317154
 20
145.3393584459033
  0
LWPOLYLINE
  5
BD5
330
1F
100
AcDbEntity
  8
STAVBA OBRYS
100
AcDbPolyline
 90
        7
 70
     0
 43
0.0
 10
413.7387302113983
 20
165.3393584459033
 42
-0.0203924744732807
 10
412.8366462269895
 20
164.3262284167492
 42
-0.0273961979096945
 10
411.9867818767943
 20
163.5380520427231
 42
-0.0243529190212958
 10
410.8236613843746
 20
162.6642926980555
 42
-0.0398020282482987
 10
410.0487028468141
 20
162.224663954609
 42
-0.104168275620852
 10
409.6622917104741
 20
162.1346474944318
 42
-0.007272956268647
 10
409.2239617317154
 20
162.1161941431371
 42
-0.007272956268647
  0
POLYLINE
  5
BD6
330
1F
100
AcDbEntity
  8
STAVBA OBRYS
100
AcDb2dPolyline
 66
     1
 10
0.0
 20
0.0
 30
0.0
  0
VERTEX
  5
BD7
330
BD6
100
AcDbEntity
  8
STAVBA OBRYS
100
AcDbVertex
100
AcDb2dVertex
 10
419.0884165459156
 20
165.3393584459015
 30
0.0
 42
-0.0064239028828688
  0
VERTEX
  5
BD8
330
BD6
100
AcDbEntity
  8
STAVBA OBRYS
100
AcDbVertex
100
AcDb2dVertex
 10
419.049548105735
 20
165.1202447865514
 30
0.0
 42
-0.0832048017309575
  0
VERTEX
  5
BD9
330
BD6
100
AcDbEntity
  8
STAVBA OBRYS
100
AcDbVertex
100
AcDb2dVertex
 10
418.2653655030535
 20
162.7900312068966
 30
0.0
 42
-0.0336767237692336
  0
VERTEX
  5
BDA
330
BD6
100
AcDbEntity
  8
STAVBA OBRYS
100
AcDbVertex
100
AcDb2dVertex
 10
416.5625489441318
 20
160.0617566874359
 30
0.0
 42
-0.0844635135812105
  0
VERTEX
  5
BDB
330
BD6
100
AcDbEntity
  8
STAVBA OBRYS
100
AcDbVertex
100
AcDb2dVertex
 10
415.6427391842389
 20
159.1573350824408
 30
0.0
 42
-0.0495829410719565
  0
VERTEX
  5
BDC
330
BD6
100
AcDbEntity
  8
STAVBA OBRYS
100
AcDbVertex
100
AcDb2dVertex
 10
413.8940607468848
 20
158.1806855751281
 30
0.0
 42
-0.0322692699774654
  0
VERTEX
  5
BDD
330
BD6
100
AcDbEntity
  8
STAVBA OBRYS
100
AcDbVertex
100
AcDb2dVertex
 10
411.0027065657941
 20
157.1391620737274
 30
0.0
 42
-0.0276160659512937
  0
VERTEX
  5
BDE
330
BD6
100
AcDbEntity
  8
STAVBA OBRYS
100
AcDbVertex
100
AcDb2dVertex
 10
410.1471301275068
 20
156.9424266447829
 30
0.0
 42
-0.0126891984598699
  0
VERTEX
  5
BDF
330
BD6
100
AcDbEntity
  8
STAVBA OBRYS
100
AcDbVertex
100
AcDb2dVertex
 10
409.2239617317154
 20
156.8072242552414
 30
0.0
  0
SEQEND
  5
BE0
330
BD6
100
AcDbEntity
  8
STAVBA OBRYS
  0
LWPOLYLINE
  5
BE1
330
1F
100
AcDbEntity
  8
STAVBA OBRYS
100
AcDbPolyline
 90
        5
 70
     0
 43
0.0
 10
450.7575201938907
 20
165.3393584459033
 42
-0.0128837512779298
 10
450.4727282336662
 20
162.006193624157
 42
-0.0351641677647434
 10
449.8449685121431
 20
158.402484169818
 42
-0.0187319685742942
 10
446.4609526311524
 20
146.6442468276752
 42
-0.0205166500055637
 10
445.9717044022418
 20
145.3393584459033
 42
-0.0205166500055637
  0
LWPOLYLINE
  5
BE2
330
1F
100
AcDbEntity
  8
STAVBA OBRYS
100
AcDbPolyline
 90
        7
 70
     0
 43
0.0
 10
442.1333048138494
 20
165.3393584459033
 42
-0.0120721047703132
 10
442.0643221238115
 20
163.6054703071593
 42
-0.044358077361292
 10
441.6686943891382
 20
160.9096702887425
 42
-0.0188067511131767
 10
439.6488709407549
 20
153.6674411134361
 42
-0.0457786284636091
 10
438.4408480511392
 20
150.8188307305561
 42
-0.0295006114745606
 10
436.0247875968398
 20
146.891931517154
 42
-0.0094449184784486
 10
434.8941211563197
 20
145.3393584459033
 42
-0.0094449184784486
  0
LWPOLYLINE
  5
BE3
330
1F
100
AcDbEntity
  8
STAVBA OBRYS
100
AcDbPolyline
 90
        3
 70
     0
 43
0.0
 10
415.932359189419
 20
159.8220277503848
 10
432.6875768091468
 20
151.4382868824166
 10
438.7759217459733
 20
145.3393584459033
  0
POLYLINE
  5
BE4
330
1F
100
AcDbEntity
  8
STAVBA OBRYS
100
AcDb2dPolyline
 66
     1
 10
0.0
 20
0.0
 30
0.0
  0
VERTEX
  5
BE5
330
BE4
100
AcDbEntity
  8
STAVBA OBRYS
100
AcDbVertex
100
AcDb2dVertex
 10
426.3164675666539
 20
165.3393584459015
 30
0.0
 42
-0.0072417954699014
  0
VERTEX
  5
BE6
330
BE4
100
AcDbEntity
  8
STAVBA OBRYS
100
AcDbVertex
100
AcDb2dVertex
 10
426.2608971988101
 20
164.927953234627
 30
0.0
 42
-0.0707158694326265
  0
VERTEX
  5
BE7
330
BE4
100
AcDbEntity
  8
STAVBA OBRYS
100
AcDbVertex
100
AcDb2dVertex
 10
425.7297706823901
 20
162.9918497820333
 30
0.0
 42
-0.033952657250207
  0
VERTEX
  5
BE8
330
BE4
100
AcDbEntity
  8
STAVBA OBRYS
100
AcDbVertex
100
AcDb2dVertex
 10
423.4811148429817
 20
158.6388120568597
 30
0.0
 42
-0.0571374688189033
  0
VERTEX
  5
BE9
330
BE4
100
AcDbEntity
  8
STAVBA OBRYS
100
AcDbVertex
100
AcDb2dVertex
 10
421.6949580831296
 20
156.3318877731733
 30
0.0
 42
-0.0274923553235744
  0
VERTEX
  5
BEA
330
BE4
100
AcDbEntity
  8
STAVBA OBRYS
100
AcDbVertex
100
AcDb2dVertex
 10
419.0976523525769
 20
153.9468124500388
 30
0.0
 42
-0.0255412025538677
  0
VERTEX
  5
BEB
330
BE4
100
AcDbEntity
  8
STAVBA OBRYS
100
AcDbVertex
100
AcDb2dVertex
 10
416.0462223148661
 20
151.6900987730193
 30
0.0
 42
-0.0272796991712396
  0
VERTEX
  5
BEC
330
BE4
100
AcDbEntity
  8
STAVBA OBRYS
100
AcDbVertex
100
AcDb2dVertex
 10
411.9332231616808
 20
149.2737628913571
 30
0.0
 42
-0.056967459841729
  0
VERTEX
  5
BED
330
BE4
100
AcDbEntity
  8
STAVBA OBRYS
100
AcDbVertex
100
AcDb2dVertex
 10
409.7922758809491
 20
148.4610270561577
 30
0.0
 42
-0.0373408083348504
  0
VERTEX
  5
BEE
330
BE4
100
AcDbEntity
  8
STAVBA OBRYS
100
AcDbVertex
100
AcDb2dVertex
 10
409.5699215054755
 20
148.4218615152065
 30
0.0
 42
-0.0052305969362967
  0
VERTEX
  5
BEF
330
BE4
100
AcDbEntity
  8
STAVBA OBRYS
100
AcDbVertex
100
AcDb2dVertex
 10
409.2239617317154
 20
148.3909045483021
 30
0.0
  0
SEQEND
  5
BF0
330
BE4
100
AcDbEntity
  8
STAVBA OBRYS
  0
LWPOLYLINE
  5
BF1
330
1F
100
AcDbEntity
  8
STAVBA OBRYS
100
AcDbPolyline
 90
        8
 70
     0
 43
0.0
 10
433.2662455903391
 20
165.3393584459033
 42
-0.0168162630274195
 10
433.1312200112752
 20
163.648320293784
 42
-0.0575155827655532
 10
432.4511877309324
 20
160.5486956330667
 42
-0.0310289133982999
 10
429.4483863861041
 20
153.303668108422
 42
-0.0882970623535771
 10
427.8111644660111
 20
151.0632990576221
 42
-0.0171636441953577
 10
424.9978004041532
 20
148.5493817023768
 42
-0.0157521173632038
 10
421.7589455671168
 20
146.0178856498703
 42
-0.0014948023799519
 10
420.8262337196047
 20
145.3393584459033
 42
-0.0014948023799519
  0
LWPOLYLINE
  5
BF2
330
1F
100
AcDbEntity
  8
STAVBA OBRYS
100
AcDbPolyline
 90
        3
 70
     0
 43
0.0
 10
435.224936814664
 20
158.8401888766481
 10
455.2211892466566
 20
149.6241598261283
 10
459.2211268803712
 20
148.9787623507861
  0
LWPOLYLINE
  5
BF3
330
1F
100
AcDbEntity
  8
STAVBA OBRYS
100
AcDbPolyline
 90
        2
 70
     0
 43
0.0
 10
460.9472497978949
 20
165.3393584459033
 42
-0.0133702840819155
 10
457.2973827370824
 20
145.3393584459033
 42
-0.0133702840819155
  0
LWPOLYLINE
  5
BF4
330
1F
100
AcDbEntity
  8
STAVBA OBRYS
100
AcDbPolyline
 90
        2
 70
     0
 43
0.0
 10
469.2239617317154
 20
151.9558355555789
 42
-0.0070027860950108
 10
467.399990531745
 20
145.3393584459033
  0
LWPOLYLINE
  5
BF5
330
1F
100
AcDbEntity
  8
STAVBA OBRYS
100
AcDbPolyline
 90
        2
 70
     0
 43
0.0
 10
349.2239617317154
 20
151.9558355555789
 42
-0.0070027860950108
 10
347.399990531745
 20
145.3393584459033
  0
HATCH
  5
BF6
330
1F
100
AcDbEntity
  8
izolace
100
AcDbHatch
 10
0.0
 20
0.0
 30
0.0
210
0.0
220
0.0
230
1.0
  2
SOLID
 70
     1
 71
     0
 91
        2
 92
        7
 72
     0
 73
     1
 93
        6
 10
393.2239617317154
 20
188.3906550135986
 10
379.2239617317154
 20
188.3906550135986
 10
379.2239617317191
 20
187.0938316047856
 10
391.7239617317118
 20
187.0938316047856
 10
391.7239617317191
 20
178.1631429378364
 10
393.2239617317081
 20
178.1631429378364
 97
        0
 92
        7
 72
     0
 73
     1
 93
        6
 10
379.2239617317191
 20
188.3906550135986
 10
365.2239617317118
 20
188.3906550135977
 10
365.223961731719
 20
178.1631429378364
 10
366.7239617317154
 20
178.1631429378364
 10
366.7239617317118
 20
187.0938316047856
 10
379.2239617317154
 20
187.0938316047856
 97
        0
 75
     0
 76
     1
 47
0.1904839148977221
 98
        2
 10
381.9368313743634
 20
187.6887172182002
 10
376.4094187884311
 20
187.8792050873132
  0
LINE
  5
BF7
330
1F
100
AcDbEntity
  8
izolace
100
AcDbLine
 10
393.2239617317118
 20
178.1631429378364
 30
0.0
 11
393.2239617317191
 21
188.3906550135986
 31
0.0
  0
LINE
  5
BF8
330
1F
100
AcDbEntity
  8
izolace
100
AcDbLine
 10
393.2239617317118
 20
178.1631429378364
 30
0.0
 11
391.7239617317154
 21
178.1631429378364
 31
0.0
  0
LINE
  5
BF9
330
1F
100
AcDbEntity
  8
izolace
100
AcDbLine
 10
391.7239617317154
 20
178.1631429378364
 30
0.0
 11
391.7239617317118
 21
187.0938316047856
 31
0.0
  0
LINE
  5
BFA
330
1F
100
AcDbEntity
  8
izolace
100
AcDbLine
 10
366.7239617317154
 20
187.0938316047856
 30
0.0
 11
391.7239617317118
 21
187.0938316047856
 31
0.0
  0
LINE
  5
BFB
330
1F
100
AcDbEntity
  8
izolace
100
AcDbLine
 10
366.7239617317154
 20
178.1631429378364
 30
0.0
 11
366.7239617317154
 21
187.0938316047856
 31
0.0
  0
LINE
  5
BFC
330
1F
100
AcDbEntity
  8
izolace
100
AcDbLine
 10
365.223961731719
 20
178.1631429378364
 30
0.0
 11
366.7239617317154
 21
178.1631429378364
 31
0.0
  0
LINE
  5
BFD
330
1F
100
AcDbEntity
  8
izolace
100
AcDbLine
 10
365.2239617317154
 20
188.3906550135986
 30
0.0
 11
393.2239617317191
 21
188.3906550135986
 31
0.0
  0
LINE
  5
BFE
330
1F
100
AcDbEntity
  8
izolace
100
AcDbLine
 10
365.223961731719
 20
178.1631429378364
 30
0.0
 11
365.2239617317154
 21
188.3906550135986
 31
0.0
  0
LINE
  5
BFF
330
1F
100
AcDbEntity
  8
izolace
  6
IZOLACE
 48
0.7
100
AcDbLine
 10
401.7239617317154
 20
145.3393584459033
 30
0.0
 11
401.7239617317154
 21
189.3393584459033
 31
0.0
  0
LINE
  5
C00
330
1F
100
AcDbEntity
  8
izolace
  6
IZOLACE
 48
0.7
100
AcDbLine
 10
356.7239617317154
 20
145.3393584459033
 30
0.0
 11
356.7239617317154
 21
189.3393584459033
 31
0.0
  0
LINE
  5
C01
330
1F
100
AcDbEntity
  8
SPOJOVACÍ
  6
DASHED
100
AcDbLine
 10
428.6129749651208
 20
166.8955373433061
 30
0.0
 11
424.6494586927201
 21
165.5628186700348
 31
0.0
  0
LINE
  5
C02
330
1F
100
AcDbEntity
  8
SPOJOVACÍ
  6
DASHED
100
AcDbLine
 10
428.6129749651208
 20
166.3112195118544
 30
0.0
 11
424.6494586927201
 21
164.9785008385831
 31
0.0
  0
LINE
  5
C03
330
1F
100
AcDbEntity
  8
SPOJOVACÍ
  6
DASHED
100
AcDbLine
 10
424.2793603491937
 20
165.3485991842487
 30
0.0
 11
424.6494586927201
 21
165.5628186700348
 31
0.0
  0
LINE
  5
C04
330
1F
100
AcDbEntity
  8
SPOJOVACÍ
  6
DASHED
100
AcDbLine
 10
424.2793603491937
 20
165.3485991842487
 30
0.0
 11
424.6494586927201
 21
164.9785008385831
 31
0.0
  0
LINE
  5
C05
330
1F
100
AcDbEntity
  8
SPOJOVACÍ
  6
DASHED
100
AcDbLine
 10
428.9830733129256
 20
166.5245274251817
 30
0.0
 11
428.6129749651208
 21
166.8955373433061
 31
0.0
  0
LINE
  5
C06
330
1F
100
AcDbEntity
  8
SPOJOVACÍ
  6
DASHED
100
AcDbLine
 10
428.9830733129256
 20
166.5245274251817
 30
0.0
 11
428.6129749651208
 21
166.3112195118544
 31
0.0
  0
LINE
  5
C07
330
1F
100
AcDbEntity
  8
SPOJOVACÍ
  6
DASHED
100
AcDbLine
 10
428.9830733129256
 20
166.5245274251817
 30
0.0
 11
424.2793603491937
 21
165.3485991842487
 31
0.0
  0
LINE
  5
C08
330
1F
100
AcDbEntity
  8
SPOJOVACÍ
  6
DASHED
100
AcDbLine
 10
428.6129749651208
 20
169.9529507698887
 30
0.0
 11
424.6494586927201
 21
168.6202320966174
 31
0.0
  0
LINE
  5
C09
330
1F
100
AcDbEntity
  8
SPOJOVACÍ
  6
DASHED
100
AcDbLine
 10
428.6129749651208
 20
169.3686329384443
 30
0.0
 11
424.6494586927201
 21
168.0359142654367
 31
0.0
  0
LINE
  5
C0A
330
1F
100
AcDbEntity
  8
SPOJOVACÍ
  6
DASHED
100
AcDbLine
 10
424.2793603491937
 20
168.4069241832901
 30
0.0
 11
424.6494586927201
 21
168.6202320966174
 31
0.0
  0
LINE
  5
C0B
330
1F
100
AcDbEntity
  8
SPOJOVACÍ
  6
DASHED
100
AcDbLine
 10
424.2793603491937
 20
168.4069241832901
 30
0.0
 11
424.6494586927201
 21
168.0359142654367
 31
0.0
  0
LINE
  5
C0C
330
1F
100
AcDbEntity
  8
SPOJOVACÍ
  6
DASHED
100
AcDbLine
 10
428.9830733129256
 20
169.5828524242231
 30
0.0
 11
428.6129749651208
 21
169.9529507698887
 31
0.0
  0
LINE
  5
C0D
330
1F
100
AcDbEntity
  8
SPOJOVACÍ
  6
DASHED
100
AcDbLine
 10
428.9830733129256
 20
169.5828524242231
 30
0.0
 11
428.6129749651208
 21
169.3686329384443
 31
0.0
  0
LINE
  5
C0E
330
1F
100
AcDbEntity
  8
SPOJOVACÍ
  6
DASHED
100
AcDbLine
 10
428.9830733129256
 20
169.5828524242231
 30
0.0
 11
424.2793603491937
 21
168.4069241832901
 31
0.0
  0
LINE
  5
C0F
330
1F
100
AcDbEntity
  8
SPOJOVACÍ
  6
DASHED
100
AcDbLine
 10
428.6129749651208
 20
173.0103641964785
 30
0.0
 11
424.6494586927201
 21
171.677645523471
 31
0.0
  0
LINE
  5
C10
330
1F
100
AcDbEntity
  8
SPOJOVACÍ
  6
DASHED
100
AcDbLine
 10
428.6129749651208
 20
172.4260463650268
 30
0.0
 11
424.6494586927201
 21
171.0933276920266
 31
0.0
  0
LINE
  5
C11
330
1F
100
AcDbEntity
  8
SPOJOVACÍ
  6
DASHED
100
AcDbLine
 10
424.2793603491937
 20
171.4643376098799
 30
0.0
 11
424.6494586927201
 21
171.677645523471
 31
0.0
  0
LINE
  5
C12
330
1F
100
AcDbEntity
  8
SPOJOVACÍ
  6
DASHED
100
AcDbLine
 10
424.2793603491937
 20
171.4643376098799
 30
0.0
 11
424.6494586927201
 21
171.0933276920266
 31
0.0
  0
LINE
  5
C13
330
1F
100
AcDbEntity
  8
SPOJOVACÍ
  6
DASHED
100
AcDbLine
 10
428.9830733129256
 20
172.6402658508129
 30
0.0
 11
428.6129749651208
 21
173.0103641964785
 31
0.0
  0
LINE
  5
C14
330
1F
100
AcDbEntity
  8
SPOJOVACÍ
  6
DASHED
100
AcDbLine
 10
428.9830733129256
 20
172.6402658508129
 30
0.0
 11
428.6129749651208
 21
172.4260463650268
 31
0.0
  0
LINE
  5
C15
330
1F
100
AcDbEntity
  8
SPOJOVACÍ
  6
DASHED
100
AcDbLine
 10
428.9830733129256
 20
172.6402658508129
 30
0.0
 11
424.2793603491937
 21
171.4643376098799
 31
0.0
  0
LINE
  5
C16
330
1F
100
AcDbEntity
  8
SPOJOVACÍ
  6
DASHED
100
AcDbLine
 10
427.6275653301472
 20
157.6011463775491
 30
0.0
 11
425.5163639315196
 21
157.2966812360907
 31
0.0
  0
LINE
  5
C17
330
1F
100
AcDbEntity
  8
SPOJOVACÍ
  6
DASHED
100
AcDbLine
 10
427.2574669866208
 20
157.9712447232147
 30
0.0
 11
425.8864622750461
 21
157.5099891496818
 31
0.0
  0
LINE
  5
C18
330
1F
100
AcDbEntity
  8
SPOJOVACÍ
  6
DASHED
100
AcDbLine
 10
427.2574669866208
 20
157.3869268917703
 30
0.0
 11
425.8864622750461
 21
156.9256713182373
 31
0.0
  0
LINE
  5
C19
330
1F
100
AcDbEntity
  8
SPOJOVACÍ
  6
DASHED
100
AcDbLine
 10
425.5163639315196
 20
157.2966812360907
 30
0.0
 11
425.8864622750461
 21
157.5099891496818
 31
0.0
  0
LINE
  5
C1A
330
1F
100
AcDbEntity
  8
SPOJOVACÍ
  6
DASHED
100
AcDbLine
 10
425.5163639315196
 20
157.2966812360907
 30
0.0
 11
425.8864622750461
 21
156.9256713182373
 31
0.0
  0
LINE
  5
C1B
330
1F
100
AcDbEntity
  8
SPOJOVACÍ
  6
DASHED
100
AcDbLine
 10
427.6275653301472
 20
157.6011463775491
 30
0.0
 11
427.2574669866208
 21
157.9712447232147
 31
0.0
  0
LINE
  5
C1C
330
1F
100
AcDbEntity
  8
SPOJOVACÍ
  6
DASHED
100
AcDbLine
 10
427.6275653301472
 20
157.6011463775491
 30
0.0
 11
427.2574669866208
 21
157.3869268917703
 31
0.0
  0
LINE
  5
C1D
330
1F
100
AcDbEntity
  8
SPOJOVACÍ
  6
DASHED
100
AcDbLine
 10
428.1808897064093
 20
160.5546405643024
 30
0.0
 11
425.1271225683067
 21
159.9338598418678
 31
0.0
  0
LINE
  5
C1E
330
1F
100
AcDbEntity
  8
SPOJOVACÍ
  6
DASHED
100
AcDbLine
 10
427.8107913586045
 20
160.9256504824268
 30
0.0
 11
425.4972209118331
 21
160.1471677551951
 31
0.0
  0
LINE
  5
C1F
330
1F
100
AcDbEntity
  8
SPOJOVACÍ
  6
DASHED
100
AcDbLine
 10
427.8107913586045
 20
160.3413326509751
 30
0.0
 11
425.4972209118331
 21
159.5628499240144
 31
0.0
  0
LINE
  5
C20
330
1F
100
AcDbEntity
  8
SPOJOVACÍ
  6
DASHED
100
AcDbLine
 10
425.1271225683067
 20
159.9338598418678
 30
0.0
 11
425.4972209118331
 21
160.1471677551951
 31
0.0
  0
LINE
  5
C21
330
1F
100
AcDbEntity
  8
SPOJOVACÍ
  6
DASHED
100
AcDbLine
 10
425.1271225683067
 20
159.9338598418678
 30
0.0
 11
425.4972209118331
 21
159.5628499240144
 31
0.0
  0
LINE
  5
C22
330
1F
100
AcDbEntity
  8
SPOJOVACÍ
  6
DASHED
100
AcDbLine
 10
428.1808897064093
 20
160.5546405643024
 30
0.0
 11
427.8107913586045
 21
160.9256504824268
 31
0.0
  0
LINE
  5
C23
330
1F
100
AcDbEntity
  8
SPOJOVACÍ
  6
DASHED
100
AcDbLine
 10
428.1808897064093
 20
160.5546405643024
 30
0.0
 11
427.8107913586045
 21
160.3413326509751
 31
0.0
  0
LINE
  5
C24
330
1F
100
AcDbEntity
  8
SPOJOVACÍ
  6
DASHED
100
AcDbLine
 10
428.734214078393
 20
163.5090463235144
 30
0.0
 11
424.6913910187049
 21
162.5555417188559
 31
0.0
  0
LINE
  5
C25
330
1F
100
AcDbEntity
  8
SPOJOVACÍ
  6
DASHED
100
AcDbLine
 10
428.3632041610744
 20
163.87914466918
 30
0.0
 11
425.0614893622314
 21
162.7688496321832
 31
0.0
  0
LINE
  5
C26
330
1F
100
AcDbEntity
  8
SPOJOVACÍ
  6
DASHED
100
AcDbLine
 10
428.3632041610744
 20
163.2948268377283
 30
0.0
 11
425.0614893622314
 21
162.1845318007315
 31
0.0
  0
LINE
  5
C27
330
1F
100
AcDbEntity
  8
SPOJOVACÍ
  6
DASHED
100
AcDbLine
 10
424.6913910187049
 20
162.5555417188559
 30
0.0
 11
425.0614893622314
 21
162.7688496321832
 31
0.0
  0
LINE
  5
C28
330
1F
100
AcDbEntity
  8
SPOJOVACÍ
  6
DASHED
100
AcDbLine
 10
424.6913910187049
 20
162.5555417188559
 30
0.0
 11
425.0614893622314
 21
162.1845318007315
 31
0.0
  0
LINE
  5
C29
330
1F
100
AcDbEntity
  8
SPOJOVACÍ
  6
DASHED
100
AcDbLine
 10
428.734214078393
 20
163.5090463235144
 30
0.0
 11
428.3632041610744
 21
163.87914466918
 31
0.0
  0
LINE
  5
C2A
330
1F
100
AcDbEntity
  8
SPOJOVACÍ
  6
DASHED
100
AcDbLine
 10
428.734214078393
 20
163.5090463235144
 30
0.0
 11
428.3632041610744
 21
163.2948268377283
 31
0.0
  0
LINE
  5
C2B
330
1F
100
AcDbEntity
  8
SPOJOVACÍ
  6
DASHED
100
AcDbLine
 10
428.6129749651208
 20
176.0677776233321
 30
0.0
 11
424.6494586927201
 21
174.7359705222486
 31
0.0
  0
LINE
  5
C2C
330
1F
100
AcDbEntity
  8
SPOJOVACÍ
  6
DASHED
100
AcDbLine
 10
428.6129749651208
 20
175.4834597918804
 30
0.0
 11
424.6494586927201
 21
174.1516526910679
 31
0.0
  0
LINE
  5
C2D
330
1F
100
AcDbEntity
  8
SPOJOVACÍ
  6
DASHED
100
AcDbLine
 10
424.2793603491937
 20
174.5217510364625
 30
0.0
 11
424.6494586927201
 21
174.7359705222486
 31
0.0
  0
LINE
  5
C2E
330
1F
100
AcDbEntity
  8
SPOJOVACÍ
  6
DASHED
100
AcDbLine
 10
424.2793603491937
 20
174.5217510364625
 30
0.0
 11
424.6494586927201
 21
174.1516526910679
 31
0.0
  0
LINE
  5
C2F
330
1F
100
AcDbEntity
  8
SPOJOVACÍ
  6
DASHED
100
AcDbLine
 10
428.9830733129256
 20
175.6976792776665
 30
0.0
 11
428.6129749651208
 21
176.0677776233321
 31
0.0
  0
LINE
  5
C30
330
1F
100
AcDbEntity
  8
SPOJOVACÍ
  6
DASHED
100
AcDbLine
 10
428.9830733129256
 20
175.6976792776665
 30
0.0
 11
428.6129749651208
 21
175.4834597918804
 31
0.0
  0
LINE
  5
C31
330
1F
100
AcDbEntity
  8
SPOJOVACÍ
  6
DASHED
100
AcDbLine
 10
428.9830733129256
 20
175.6976792776665
 30
0.0
 11
424.2793603491937
 21
174.5217510364625
 31
0.0
  0
LINE
  5
C32
330
1F
100
AcDbEntity
  8
SPOJOVACÍ
  6
DASHED
100
AcDbLine
 10
428.6129749651208
 20
179.1261026221025
 30
0.0
 11
424.6494586927201
 21
177.7933839491022
 31
0.0
  0
LINE
  5
C33
330
1F
100
AcDbEntity
  8
SPOJOVACÍ
  6
DASHED
100
AcDbLine
 10
428.6129749651208
 20
178.5417847909218
 30
0.0
 11
424.6494586927201
 21
177.2090661176505
 31
0.0
  0
LINE
  5
C34
330
1F
100
AcDbEntity
  8
SPOJOVACÍ
  6
DASHED
100
AcDbLine
 10
424.2793603491937
 20
177.5791644633161
 30
0.0
 11
424.6494586927201
 21
177.7933839491022
 31
0.0
  0
LINE
  5
C35
330
1F
100
AcDbEntity
  8
SPOJOVACÍ
  6
DASHED
100
AcDbLine
 10
424.2793603491937
 20
177.5791644633161
 30
0.0
 11
424.6494586927201
 21
177.2090661176505
 31
0.0
  0
LINE
  5
C36
330
1F
100
AcDbEntity
  8
SPOJOVACÍ
  6
DASHED
100
AcDbLine
 10
428.9830733129256
 20
178.7550927042491
 30
0.0
 11
428.6129749651208
 21
179.1261026221025
 31
0.0
  0
LINE
  5
C37
330
1F
100
AcDbEntity
  8
SPOJOVACÍ
  6
DASHED
100
AcDbLine
 10
428.9830733129256
 20
178.7550927042491
 30
0.0
 11
428.6129749651208
 21
178.5417847909218
 31
0.0
  0
LINE
  5
C38
330
1F
100
AcDbEntity
  8
SPOJOVACÍ
  6
DASHED
100
AcDbLine
 10
428.9830733129256
 20
178.7550927042491
 30
0.0
 11
424.2793603491937
 21
177.5791644633161
 31
0.0
  0
LINE
  5
C39
330
1F
100
AcDbEntity
  8
SPOJOVACÍ
  6
DASHED
100
AcDbLine
 10
425.5491805324181
 20
162.9420483655055
 30
0.0
 11
425.3085254491797
 21
164.873670026566
 31
0.0
  0
LINE
  5
C3A
330
1F
100
AcDbEntity
  8
SPOJOVACÍ
  6
DASHED
100
AcDbLine
 10
425.8809928451283
 20
160.2893730309249
 30
0.0
 11
425.6193715988975
 21
162.3832545577213
 31
0.0
  0
LINE
  5
C3B
330
1F
100
AcDbEntity
  8
SPOJOVACÍ
  6
DASHED
100
AcDbLine
 10
426.2137167230739
 20
157.6266704014803
 30
0.0
 11
425.9511839073293
 21
159.7287560787651
 31
0.0
  0
LINE
  5
C3C
330
1F
100
AcDbEntity
  8
SPOJOVACÍ
  6
DASHED
100
AcDbLine
 10
427.0095193258803
 20
157.3167358263606
 30
0.0
 11
426.6312168310596
 21
154.2894042849118
 31
0.0
  0
LINE
  5
C3D
330
1F
100
AcDbEntity
  8
SPOJOVACÍ
  6
DASHED
100
AcDbLine
 10
427.3695903748066
 20
160.1991273752453
 30
0.0
 11
427.0851798265558
 21
157.924754537097
 31
0.0
  0
LINE
  5
C3E
330
1F
100
AcDbEntity
  8
SPOJOVACÍ
  6
DASHED
100
AcDbLine
 10
427.7314845713171
 20
163.0924577914599
 30
0.0
 11
427.447074018788
 21
160.8171733811166
 31
0.0
  0
LINE
  5
C3F
330
1F
100
AcDbEntity
  8
SPOJOVACÍ
  6
DASHED
100
AcDbLine
 10
426.6312168310596
 20
154.2894042849118
 30
0.0
 11
426.2839077895533
 21
157.0687881661549
 31
0.0
  0
LINE
  5
C40
330
1F
100
AcDbEntity
  8
SPOJOVACÍ
  6
DASHED
100
AcDbLine
 10
427.9539082086612
 20
164.873670026566
 30
0.0
 11
427.8071450719926
 21
163.7004765021963
 31
0.0
  0
LINE
  5
C41
330
1F
100
AcDbEntity
  8
SPOJOVACÍ
  6
DASHED
100
AcDbLine
 10
425.3085254491797
 20
165.2036591916919
 30
0.0
 11
425.3085254491797
 21
164.873670026566
 31
0.0
  0
LINE
  5
C42
330
1F
100
AcDbEntity
  8
SPOJOVACÍ
  6
DASHED
100
AcDbLine
 10
425.3085254491797
 20
168.2638073353725
 30
0.0
 11
425.3085254491797
 21
165.7952696014442
 31
0.0
  0
LINE
  5
C43
330
1F
100
AcDbEntity
  8
SPOJOVACÍ
  6
DASHED
100
AcDbLine
 10
427.9539082086612
 20
166.0960884536168
 30
0.0
 11
427.9539082086612
 21
164.873670026566
 31
0.0
  0
LINE
  5
C44
330
1F
100
AcDbEntity
  8
SPOJOVACÍ
  6
DASHED
100
AcDbLine
 10
427.9539082086612
 20
169.1480324468091
 30
0.0
 11
427.9539082086612
 21
166.6804062850685
 31
0.0
  0
LINE
  5
C45
330
1F
100
AcDbEntity
  8
SPOJOVACÍ
  6
DASHED
100
AcDbLine
 10
425.3085254491797
 20
171.3230439066016
 30
0.0
 11
425.3085254491797
 21
168.8526830280268
 31
0.0
  0
LINE
  5
C46
330
1F
100
AcDbEntity
  8
SPOJOVACÍ
  6
DASHED
100
AcDbLine
 10
425.3085254491797
 20
174.3831920500185
 30
0.0
 11
425.3085254491797
 21
171.9055385934068
 31
0.0
  0
LINE
  5
C47
330
1F
100
AcDbEntity
  8
SPOJOVACÍ
  6
DASHED
100
AcDbLine
 10
425.3085254491797
 20
177.4360476153985
 30
0.0
 11
425.3085254491797
 21
174.9675098814702
 31
0.0
  0
LINE
  5
C48
330
1F
100
AcDbEntity
  8
SPOJOVACÍ
  6
DASHED
100
AcDbLine
 10
427.9539082086612
 20
172.2182078853609
 30
0.0
 11
427.9539082086612
 21
169.7405544287492
 31
0.0
  0
LINE
  5
C49
330
1F
100
AcDbEntity
  8
SPOJOVACÍ
  6
DASHED
100
AcDbLine
 10
427.9539082086612
 20
175.2710634507409
 30
0.0
 11
427.9539082086612
 21
172.800702572166
 31
0.0
  0
LINE
  5
C4A
330
1F
100
AcDbEntity
  8
SPOJOVACÍ
  6
DASHED
100
AcDbLine
 10
427.9539082086612
 20
178.3312115941578
 30
0.0
 11
427.9539082086612
 21
175.8626738602295
 31
0.0
  0
LINE
  5
C4B
330
1F
100
AcDbEntity
  8
SPOJOVACÍ
  6
DASHED
100
AcDbLine
 10
427.9539082086612
 20
182.8717531202371
 30
0.0
 11
427.9539082086612
 21
178.9146178531507
 31
0.0
  0
LINE
  5
C4C
330
1F
100
AcDbEntity
  8
SPOJOVACÍ
  6
DASHED
100
AcDbLine
 10
425.3085254491797
 20
182.8717531202371
 30
0.0
 11
425.3085254491797
 21
178.0276580248871
 31
0.0
  0
LINE
  5
C4D
330
1F
100
AcDbEntity
  8
SPOJOVACÍ
  6
DASHED
100
AcDbLine
 10
431.6293676419209
 20
188.1634302047066
 30
0.0
 11
430.306676260041
 21
187.4341723809618
 31
0.0
  0
LINE
  5
C4E
330
1F
100
AcDbEntity
  8
SPOJOVACÍ
  6
DASHED
100
AcDbLine
 10
430.306676260041
 20
187.4341723809618
 30
0.0
 11
429.2182589576896
 21
186.3867758313379
 31
0.0
  0
LINE
  5
C4F
330
1F
100
AcDbEntity
  8
SPOJOVACÍ
  6
DASHED
100
AcDbLine
 10
429.2182589576896
 20
186.3867758313379
 30
0.0
 11
428.4379530879578
 21
185.0941663386063
 31
0.0
  0
LINE
  5
C50
330
1F
100
AcDbEntity
  8
SPOJOVACÍ
  6
DASHED
100
AcDbLine
 10
428.4379530879578
 20
185.0941663386063
 30
0.0
 11
428.0186298409444
 21
183.6429432688971
 31
0.0
  0
LINE
  5
C51
330
1F
100
AcDbEntity
  8
SPOJOVACÍ
  6
DASHED
100
AcDbLine
 10
428.0186298409444
 20
183.6429432688971
 30
0.0
 11
427.9539082086612
 21
182.8717531202371
 31
0.0
  0
LINE
  5
C52
330
1F
100
AcDbEntity
  8
SPOJOVACÍ
  6
DASHED
100
AcDbLine
 10
423.5464562353645
 20
186.9337191993479
 30
0.0
 11
422.3340651026428
 21
187.8334410395807
 31
0.0
  0
LINE
  5
C53
330
1F
100
AcDbEntity
  8
SPOJOVACÍ
  6
DASHED
100
AcDbLine
 10
422.3340651026428
 20
187.8334410395807
 30
0.0
 11
421.6330660201983
 21
188.1634302047066
 31
0.0
  0
LINE
  5
C54
330
1F
100
AcDbEntity
  8
SPOJOVACÍ
  6
DASHED
100
AcDbLine
 10
431.6293676419209
 20
188.1634302047066
 30
0.0
 11
421.6330660201983
 21
188.1634302047066
 31
0.0
  0
LINE
  5
C55
330
1F
100
AcDbEntity
  8
SPOJOVACÍ
  6
DASHED
100
AcDbLine
 10
431.6293676419209
 20
189.3393584459033
 30
0.0
 11
431.6293676419209
 21
188.1634302047066
 31
0.0
  0
LINE
  5
C56
330
1F
100
AcDbEntity
  8
SPOJOVACÍ
  6
DASHED
100
AcDbLine
 10
431.6293676419209
 20
189.3393584459033
 30
0.0
 11
421.6330660201983
 21
189.3393584459033
 31
0.0
  0
LINE
  5
C57
330
1F
100
AcDbEntity
  8
SPOJOVACÍ
  6
DASHED
100
AcDbLine
 10
421.6330660201983
 20
189.3393584459033
 30
0.0
 11
421.6330660201983
 21
188.1634302047066
 31
0.0
  0
LINE
  5
C58
330
1F
100
AcDbEntity
  8
SPOJOVACÍ
  6
DASHED
100
AcDbLine
 10
425.3085254491797
 20
182.8717531202371
 30
0.0
 11
425.086101816114
 21
184.3649085145978
 31
0.0
  0
LINE
  5
C59
330
1F
100
AcDbEntity
  8
SPOJOVACÍ
  6
DASHED
100
AcDbLine
 10
425.086101816114
 20
184.3649085145978
 30
0.0
 11
424.4853756839493
 21
185.750498380107
 31
0.0
  0
LINE
  5
C5A
330
1F
100
AcDbEntity
  8
SPOJOVACÍ
  6
DASHED
100
AcDbLine
 10
424.4853756839493
 20
185.750498380107
 30
0.0
 11
423.5464562353645
 21
186.9337191993479
 31
0.0
  0
LWPOLYLINE
  5
C5B
330
1F
100
AcDbEntity
  8
izolace
100
AcDbPolyline
 90
        4
 70
     0
 43
0.0
 10
349.2239617317154
 20
189.3393584459033
 10
349.2239617317154
 20
145.3393584459033
 10
364.2239617317154
 20
145.3393584459033
 10
364.2239617317154
 20
189.3393584459033
  0
LWPOLYLINE
  5
C5C
330
1F
100
AcDbEntity
  8
izolace
100
AcDbPolyline
 90
        4
 70
     1
 43
0.0
 10
394.2239617317154
 20
189.3393584459033
 10
409.2239617317154
 20
189.3393584459033
 10
409.2239617317154
 20
145.3393584459033
 10
394.2239617317154
 20
145.3393584459033
  0
LWPOLYLINE
  5
C5D
330
1F
100
AcDbEntity
  8
izolace
100
AcDbPolyline
 90
        4
 70
     1
 43
0.0
 10
409.2239617317154
 20
145.3393584459033
 10
469.2239617317154
 20
145.3393584459033
 10
469.2239617317154
 20
165.3393584459033
 10
409.2239617317154
 20
165.3393584459033
  0
LWPOLYLINE
  5
C5E
330
1F
100
AcDbEntity
  8
STAVBA OBRYS
100
AcDbPolyline
 90
        4
 70
     1
 43
0.0
 10
453.1172920824265
 20
145.3393584459033
 10
429.4755593725913
 20
145.3393584459033
 10
429.4755593725913
 20
142.3393584459033
 10
453.1172920824265
 20
142.3393584459033
  0
HATCH
  5
C5F
330
1F
100
AcDbEntity
  8
izolace
100
AcDbHatch
 10
0.0
 20
0.0
 30
0.0
210
0.0
220
0.0
230
1.0
  2
SOLID
 70
     1
 71
     0
 91
        1
 92
        7
 72
     0
 73
     1
 93
        4
 10
429.4755593725949
 20
145.3393584459033
 10
429.4755593725949
 20
142.3393584459024
 10
453.1172920824301
 20
142.3393584459033
 10
453.1172920824301
 20
145.3393584459024
 97
        0
 75
     0
 76
     1
 47
0.1901250437635136
 98
        1
 10
438.8333541309348
 20
144.5225468948235
  0
LWPOLYLINE
  5
C60
330
1F
100
AcDbEntity
  8
STAVBA OBRYS
100
AcDbPolyline
 90
        4
 70
     1
 43
0.0
 10
405.833826662756
 20
145.3393584459033
 10
382.1920939529208
 20
145.3393584459033
 10
382.1920939529208
 20
142.3393584459033
 10
405.833826662756
 20
142.3393584459033
  0
HATCH
  5
C61
330
1F
100
AcDbEntity
  8
izolace
100
AcDbHatch
 10
0.0
 20
0.0
 30
0.0
210
0.0
220
0.0
230
1.0
  2
SOLID
 70
     1
 71
     0
 91
        1
 92
        7
 72
     0
 73
     1
 93
        4
 10
382.1920939529208
 20
145.3393584459033
 10
382.1920939529245
 20
142.3393584459024
 10
405.8338266627597
 20
142.3393584459033
 10
405.8338266627597
 20
145.3393584459024
 97
        0
 75
     0
 76
     1
 47
0.1901250437635136
 98
        1
 10
391.5498887112644
 20
144.5225468948235
  0
LINE
  5
C62
330
1F
100
AcDbEntity
  8
izolace
100
AcDbLine
 10
374.6872780940848
 20
196.2996078343683
 30
0.0
 11
383.7606453693461
 21
196.2996078343692
 31
0.0
  0
LINE
  5
C63
330
1F
100
AcDbEntity
  8
izolace
100
AcDbLine
 10
375.7492096065998
 20
195.2038271869457
 30
0.0
 11
375.7492096065998
 21
190.3430348312365
 31
0.0
  0
LINE
  5
C64
330
1F
100
AcDbEntity
  8
izolace
100
AcDbLine
 10
374.6872780940848
 20
196.2996078343683
 30
0.0
 11
374.6872780940848
 21
191.2807265579438
 31
0.0
  0
LINE
  5
C65
330
1F
100
AcDbEntity
  8
izolace
100
AcDbLine
 10
364.1983370092948
 20
191.2807265579438
 30
0.0
 11
374.6872780940848
 21
191.2807265579438
 31
0.0
  0
LINE
  5
C66
330
1F
100
AcDbEntity
  8
izolace
100
AcDbLine
 10
364.1983370092948
 20
190.3430348312365
 30
0.0
 11
375.7492096065998
 21
190.3430348312365
 31
0.0
  0
LINE
  5
C67
330
1F
100
AcDbEntity
  8
izolace
100
AcDbLine
 10
364.1983370092948
 20
190.3430348312365
 30
0.0
 11
364.1983370092948
 21
191.2807265579438
 31
0.0
  0
LINE
  5
C68
330
1F
100
AcDbEntity
  8
izolace
100
AcDbLine
 10
394.249586454136
 20
190.3430348312365
 30
0.0
 11
394.249586454136
 21
191.2807265579438
 31
0.0
  0
LINE
  5
C69
330
1F
100
AcDbEntity
  8
izolace
100
AcDbLine
 10
394.249586454136
 20
190.3430348312365
 30
0.0
 11
382.6987138568311
 21
190.3430348312365
 31
0.0
  0
LINE
  5
C6A
330
1F
100
AcDbEntity
  8
izolace
100
AcDbLine
 10
394.249586454136
 20
191.2807265579438
 30
0.0
 11
383.7606453693461
 21
191.2807265579438
 31
0.0
  0
LINE
  5
C6B
330
1F
100
AcDbEntity
  8
izolace
100
AcDbLine
 10
383.7606453693461
 20
196.2996078343692
 30
0.0
 11
383.7606453693461
 21
191.2807265579438
 31
0.0
  0
LINE
  5
C6C
330
1F
100
AcDbEntity
  8
izolace
100
AcDbLine
 10
382.6987138568311
 20
195.2038271869448
 30
0.0
 11
382.6987138568311
 21
190.3430348312365
 31
0.0
  0
LINE
  5
C6D
330
1F
100
AcDbEntity
  8
izolace
100
AcDbLine
 10
375.7492096065998
 20
195.2038271869457
 30
0.0
 11
382.6987138568311
 21
195.2038271869448
 31
0.0
  0
LINE
  5
C6E
330
1F
100
AcDbEntity
  8
nášlap_vrstvy
100
AcDbLine
 10
384.5427213881903
 20
191.9611188084197
 30
0.0
 11
384.5427213881903
 21
196.2996078343683
 31
0.0
  0
HATCH
  5
C6F
330
1F
100
AcDbEntity
  8
izolace
100
AcDbHatch
 10
0.0
 20
0.0
 30
0.0
210
0.0
220
0.0
230
1.0
  2
SOLID
 70
     1
 71
     0
 91
        1
 92
        7
 72
     0
 73
     1
 93
       12
 10
383.7606453693461
 20
196.2996078343692
 10
374.6872780940848
 20
196.2996078343683
 10
374.6872780940848
 20
191.2807265579438
 10
364.1983370092948
 20
191.2807265579429
 10
364.1983370092948
 20
190.3430348312365
 10
375.7492096065998
 20
190.3430348312365
 10
375.7492096065998
 20
195.2038271869457
 10
382.6987138568311
 20
195.2038271869448
 10
382.6987138568347
 20
190.3430348312365
 10
394.249586454136
 20
190.3430348312356
 10
394.2495864541324
 20
191.2807265579438
 10
383.7606453693461
 20
191.2807265579438
 97
        0
 75
     0
 76
     1
 47
0.1079746841384943
 98
        1
 10
376.27488353041
 20
195.8722195862471
  0
LINE
  5
C70
330
1F
100
AcDbEntity
  8
SPOJOVACÍ
  6
DASHED
100
AcDbLine
 10
559.76158177051
 20
178.7550927042491
 30
0.0
 11
555.057868806778
 21
177.5791644633161
 31
0.0
  0
LINE
  5
C71
330
1F
100
AcDbEntity
  8
SPOJOVACÍ
  6
DASHED
100
AcDbLine
 10
555.057868806778
 20
177.5791644633161
 30
0.0
 11
555.4279671503045
 21
177.2090661176505
 31
0.0
  0
LINE
  5
C72
330
1F
100
AcDbEntity
  8
SPOJOVACÍ
  6
DASHED
100
AcDbLine
 10
555.057868806778
 20
177.5791644633161
 30
0.0
 11
555.4279671503045
 21
177.7933839491022
 31
0.0
  0
LINE
  5
C73
330
1F
100
AcDbEntity
  8
SPOJOVACÍ
  6
DASHED
100
AcDbLine
 10
559.3914834227052
 20
178.5417847909218
 30
0.0
 11
555.4279671503045
 21
177.2090661176505
 31
0.0
  0
LINE
  5
C74
330
1F
100
AcDbEntity
  8
SPOJOVACÍ
  6
DASHED
100
AcDbLine
 10
559.3914834227052
 20
179.1261026221025
 30
0.0
 11
555.4279671503045
 21
177.7933839491022
 31
0.0
  0
LINE
  5
C75
330
1F
100
AcDbEntity
  8
SPOJOVACÍ
  6
DASHED
100
AcDbLine
 10
559.76158177051
 20
175.6976792776665
 30
0.0
 11
555.057868806778
 21
174.5217510364625
 31
0.0
  0
LINE
  5
C76
330
1F
100
AcDbEntity
  8
SPOJOVACÍ
  6
DASHED
100
AcDbLine
 10
555.057868806778
 20
174.5217510364625
 30
0.0
 11
555.4279671503045
 21
174.1516526910679
 31
0.0
  0
LINE
  5
C77
330
1F
100
AcDbEntity
  8
SPOJOVACÍ
  6
DASHED
100
AcDbLine
 10
555.057868806778
 20
174.5217510364625
 30
0.0
 11
555.4279671503045
 21
174.7359705222486
 31
0.0
  0
LINE
  5
C78
330
1F
100
AcDbEntity
  8
SPOJOVACÍ
  6
DASHED
100
AcDbLine
 10
559.3914834227052
 20
175.4834597918804
 30
0.0
 11
555.4279671503045
 21
174.1516526910679
 31
0.0
  0
LINE
  5
C79
330
1F
100
AcDbEntity
  8
SPOJOVACÍ
  6
DASHED
100
AcDbLine
 10
559.3914834227052
 20
176.0677776233321
 30
0.0
 11
555.4279671503045
 21
174.7359705222486
 31
0.0
  0
LINE
  5
C7A
330
1F
100
AcDbEntity
  8
SPOJOVACÍ
  6
DASHED
100
AcDbLine
 10
555.4698994762893
 20
162.5555417188559
 30
0.0
 11
555.8399978198158
 21
162.1845318007315
 31
0.0
  0
LINE
  5
C7B
330
1F
100
AcDbEntity
  8
SPOJOVACÍ
  6
DASHED
100
AcDbLine
 10
555.4698994762893
 20
162.5555417188559
 30
0.0
 11
555.8399978198158
 21
162.7688496321832
 31
0.0
  0
LINE
  5
C7C
330
1F
100
AcDbEntity
  8
SPOJOVACÍ
  6
DASHED
100
AcDbLine
 10
559.5127225359774
 20
163.5090463235144
 30
0.0
 11
555.4698994762893
 21
162.5555417188559
 31
0.0
  0
LINE
  5
C7D
330
1F
100
AcDbEntity
  8
SPOJOVACÍ
  6
DASHED
100
AcDbLine
 10
559.76158177051
 20
172.6402658508129
 30
0.0
 11
555.057868806778
 21
171.4643376098799
 31
0.0
  0
LINE
  5
C7E
330
1F
100
AcDbEntity
  8
SPOJOVACÍ
  6
DASHED
100
AcDbLine
 10
555.057868806778
 20
171.4643376098799
 30
0.0
 11
555.4279671503045
 21
171.0933276920266
 31
0.0
  0
LINE
  5
C7F
330
1F
100
AcDbEntity
  8
SPOJOVACÍ
  6
DASHED
100
AcDbLine
 10
555.057868806778
 20
171.4643376098799
 30
0.0
 11
555.4279671503045
 21
171.677645523471
 31
0.0
  0
LINE
  5
C80
330
1F
100
AcDbEntity
  8
SPOJOVACÍ
  6
DASHED
100
AcDbLine
 10
559.3914834227052
 20
172.4260463650268
 30
0.0
 11
555.4279671503045
 21
171.0933276920266
 31
0.0
  0
LINE
  5
C81
330
1F
100
AcDbEntity
  8
SPOJOVACÍ
  6
DASHED
100
AcDbLine
 10
559.3914834227052
 20
173.0103641964785
 30
0.0
 11
555.4279671503045
 21
171.677645523471
 31
0.0
  0
LINE
  5
C82
330
1F
100
AcDbEntity
  8
SPOJOVACÍ
  6
DASHED
100
AcDbLine
 10
559.76158177051
 20
169.5828524242231
 30
0.0
 11
555.057868806778
 21
168.4069241832901
 31
0.0
  0
LINE
  5
C83
330
1F
100
AcDbEntity
  8
SPOJOVACÍ
  6
DASHED
100
AcDbLine
 10
555.057868806778
 20
168.4069241832901
 30
0.0
 11
555.4279671503045
 21
168.0359142654367
 31
0.0
  0
LINE
  5
C84
330
1F
100
AcDbEntity
  8
SPOJOVACÍ
  6
DASHED
100
AcDbLine
 10
555.057868806778
 20
168.4069241832901
 30
0.0
 11
555.4279671503045
 21
168.6202320966174
 31
0.0
  0
LINE
  5
C85
330
1F
100
AcDbEntity
  8
SPOJOVACÍ
  6
DASHED
100
AcDbLine
 10
559.3914834227052
 20
169.3686329384443
 30
0.0
 11
555.4279671503045
 21
168.0359142654367
 31
0.0
  0
LINE
  5
C86
330
1F
100
AcDbEntity
  8
SPOJOVACÍ
  6
DASHED
100
AcDbLine
 10
559.3914834227052
 20
169.9529507698887
 30
0.0
 11
555.4279671503045
 21
168.6202320966174
 31
0.0
  0
LINE
  5
C87
330
1F
100
AcDbEntity
  8
SPOJOVACÍ
  6
DASHED
100
AcDbLine
 10
559.76158177051
 20
166.5245274251817
 30
0.0
 11
555.057868806778
 21
165.3485991842487
 31
0.0
  0
LINE
  5
C88
330
1F
100
AcDbEntity
  8
SPOJOVACÍ
  6
DASHED
100
AcDbLine
 10
555.057868806778
 20
165.3485991842487
 30
0.0
 11
555.4279671503045
 21
164.9785008385831
 31
0.0
  0
LINE
  5
C89
330
1F
100
AcDbEntity
  8
SPOJOVACÍ
  6
DASHED
100
AcDbLine
 10
555.057868806778
 20
165.3485991842487
 30
0.0
 11
555.4279671503045
 21
165.5628186700348
 31
0.0
  0
LINE
  5
C8A
330
1F
100
AcDbEntity
  8
SPOJOVACÍ
  6
DASHED
100
AcDbLine
 10
559.3914834227052
 20
166.3112195118544
 30
0.0
 11
555.4279671503045
 21
164.9785008385831
 31
0.0
  0
LINE
  5
C8B
330
1F
100
AcDbEntity
  8
SPOJOVACÍ
  6
DASHED
100
AcDbLine
 10
559.3914834227052
 20
166.8955373433061
 30
0.0
 11
555.4279671503045
 21
165.5628186700348
 31
0.0
  0
LINE
  5
C8C
330
1F
100
AcDbEntity
  8
SPOJOVACÍ
  6
DASHED
100
AcDbLine
 10
556.0870339067641
 20
182.8717531202371
 30
0.0
 11
556.0870339067641
 21
178.0276580248871
 31
0.0
  0
LINE
  5
C8D
330
1F
100
AcDbEntity
  8
SPOJOVACÍ
  6
DASHED
100
AcDbLine
 10
558.7324166662456
 20
182.8717531202371
 30
0.0
 11
558.7324166662456
 21
178.9146178531507
 31
0.0
  0
LINE
  5
C8E
330
1F
100
AcDbEntity
  8
SPOJOVACÍ
  6
DASHED
100
AcDbLine
 10
558.7324166662456
 20
178.3312115941578
 30
0.0
 11
558.7324166662456
 21
175.8626738602295
 31
0.0
  0
LINE
  5
C8F
330
1F
100
AcDbEntity
  8
SPOJOVACÍ
  6
DASHED
100
AcDbLine
 10
558.7324166662456
 20
175.2710634507409
 30
0.0
 11
558.7324166662456
 21
172.800702572166
 31
0.0
  0
LINE
  5
C90
330
1F
100
AcDbEntity
  8
SPOJOVACÍ
  6
DASHED
100
AcDbLine
 10
558.7324166662456
 20
172.2182078853609
 30
0.0
 11
558.7324166662456
 21
169.7405544287492
 31
0.0
  0
LINE
  5
C91
330
1F
100
AcDbEntity
  8
SPOJOVACÍ
  6
DASHED
100
AcDbLine
 10
556.0870339067641
 20
177.4360476153985
 30
0.0
 11
556.0870339067641
 21
174.9675098814702
 31
0.0
  0
LINE
  5
C92
330
1F
100
AcDbEntity
  8
SPOJOVACÍ
  6
DASHED
100
AcDbLine
 10
556.0870339067641
 20
174.3831920500185
 30
0.0
 11
556.0870339067641
 21
171.9055385934068
 31
0.0
  0
LINE
  5
C93
330
1F
100
AcDbEntity
  8
SPOJOVACÍ
  6
DASHED
100
AcDbLine
 10
556.0870339067641
 20
171.3230439066016
 30
0.0
 11
556.0870339067641
 21
168.8526830280268
 31
0.0
  0
LINE
  5
C94
330
1F
100
AcDbEntity
  8
SPOJOVACÍ
  6
DASHED
100
AcDbLine
 10
558.7324166662456
 20
169.1480324468091
 30
0.0
 11
558.7324166662456
 21
166.6804062850685
 31
0.0
  0
LINE
  5
C95
330
1F
100
AcDbEntity
  8
SPOJOVACÍ
  6
DASHED
100
AcDbLine
 10
558.7324166662456
 20
166.0960884536168
 30
0.0
 11
558.7324166662456
 21
164.873670026566
 31
0.0
  0
LINE
  5
C96
330
1F
100
AcDbEntity
  8
SPOJOVACÍ
  6
DASHED
100
AcDbLine
 10
556.0870339067641
 20
168.2638073353725
 30
0.0
 11
556.0870339067641
 21
165.7952696014442
 31
0.0
  0
LINE
  5
C97
330
1F
100
AcDbEntity
  8
SPOJOVACÍ
  6
DASHED
100
AcDbLine
 10
556.0870339067641
 20
165.2036591916919
 30
0.0
 11
556.0870339067641
 21
164.873670026566
 31
0.0
  0
LINE
  5
C98
330
1F
100
AcDbEntity
  8
SPOJOVACÍ
  6
DASHED
100
AcDbLine
 10
558.7324166662456
 20
164.873670026566
 30
0.0
 11
558.585653529577
 21
163.7004765021963
 31
0.0
  0
LINE
  5
C99
330
1F
100
AcDbEntity
  8
SPOJOVACÍ
  6
DASHED
100
AcDbLine
 10
557.409725288644
 20
154.2894042849118
 30
0.0
 11
557.0624162471376
 21
157.0687881661549
 31
0.0
  0
LINE
  5
C9A
330
1F
100
AcDbEntity
  8
SPOJOVACÍ
  6
DASHED
100
AcDbLine
 10
558.5099930289016
 20
163.0924577914599
 30
0.0
 11
558.2255824763724
 21
160.8171733811166
 31
0.0
  0
LINE
  5
C9B
330
1F
100
AcDbEntity
  8
SPOJOVACÍ
  6
DASHED
100
AcDbLine
 10
558.148098832391
 20
160.1991273752453
 30
0.0
 11
557.8636882841401
 21
157.924754537097
 31
0.0
  0
LINE
  5
C9C
330
1F
100
AcDbEntity
  8
SPOJOVACÍ
  6
DASHED
100
AcDbLine
 10
557.7880277834647
 20
157.3167358263606
 30
0.0
 11
557.409725288644
 21
154.2894042849118
 31
0.0
  0
LINE
  5
C9D
330
1F
100
AcDbEntity
  8
SPOJOVACÍ
  6
DASHED
100
AcDbLine
 10
556.9922251806583
 20
157.6266704014803
 30
0.0
 11
556.7296923649137
 21
159.7287560787651
 31
0.0
  0
LINE
  5
C9E
330
1F
100
AcDbEntity
  8
SPOJOVACÍ
  6
DASHED
100
AcDbLine
 10
556.6595013027126
 20
160.2893730309249
 30
0.0
 11
556.3978800564818
 21
162.3832545577213
 31
0.0
  0
LINE
  5
C9F
330
1F
100
AcDbEntity
  8
SPOJOVACÍ
  6
DASHED
100
AcDbLine
 10
556.3276889900025
 20
162.9420483655055
 30
0.0
 11
556.0870339067641
 21
164.873670026566
 31
0.0
  0
LINE
  5
CA0
330
1F
100
AcDbEntity
  8
SPOJOVACÍ
  6
DASHED
100
AcDbLine
 10
559.76158177051
 20
178.7550927042491
 30
0.0
 11
559.3914834227052
 21
178.5417847909218
 31
0.0
  0
LINE
  5
CA1
330
1F
100
AcDbEntity
  8
SPOJOVACÍ
  6
DASHED
100
AcDbLine
 10
559.76158177051
 20
178.7550927042491
 30
0.0
 11
559.3914834227052
 21
179.1261026221025
 31
0.0
  0
LINE
  5
CA2
330
1F
100
AcDbEntity
  8
SPOJOVACÍ
  6
DASHED
100
AcDbLine
 10
559.76158177051
 20
175.6976792776665
 30
0.0
 11
559.3914834227052
 21
175.4834597918804
 31
0.0
  0
LINE
  5
CA3
330
1F
100
AcDbEntity
  8
SPOJOVACÍ
  6
DASHED
100
AcDbLine
 10
559.76158177051
 20
175.6976792776665
 30
0.0
 11
559.3914834227052
 21
176.0677776233321
 31
0.0
  0
LINE
  5
CA4
330
1F
100
AcDbEntity
  8
SPOJOVACÍ
  6
DASHED
100
AcDbLine
 10
559.5127225359774
 20
163.5090463235144
 30
0.0
 11
559.1417126186589
 21
163.2948268377283
 31
0.0
  0
LINE
  5
CA5
330
1F
100
AcDbEntity
  8
SPOJOVACÍ
  6
DASHED
100
AcDbLine
 10
559.5127225359774
 20
163.5090463235144
 30
0.0
 11
559.1417126186589
 21
163.87914466918
 31
0.0
  0
LINE
  5
CA6
330
1F
100
AcDbEntity
  8
SPOJOVACÍ
  6
DASHED
100
AcDbLine
 10
559.1417126186589
 20
163.2948268377283
 30
0.0
 11
555.8399978198158
 21
162.1845318007315
 31
0.0
  0
LINE
  5
CA7
330
1F
100
AcDbEntity
  8
SPOJOVACÍ
  6
DASHED
100
AcDbLine
 10
559.1417126186589
 20
163.87914466918
 30
0.0
 11
555.8399978198158
 21
162.7688496321832
 31
0.0
  0
LINE
  5
CA8
330
1F
100
AcDbEntity
  8
SPOJOVACÍ
  6
DASHED
100
AcDbLine
 10
558.9593981639937
 20
160.5546405643024
 30
0.0
 11
558.5892998161889
 21
160.3413326509751
 31
0.0
  0
LINE
  5
CA9
330
1F
100
AcDbEntity
  8
SPOJOVACÍ
  6
DASHED
100
AcDbLine
 10
558.9593981639937
 20
160.5546405643024
 30
0.0
 11
558.5892998161889
 21
160.9256504824268
 31
0.0
  0
LINE
  5
CAA
330
1F
100
AcDbEntity
  8
SPOJOVACÍ
  6
DASHED
100
AcDbLine
 10
555.9056310258911
 20
159.9338598418678
 30
0.0
 11
556.2757293694176
 21
159.5628499240144
 31
0.0
  0
LINE
  5
CAB
330
1F
100
AcDbEntity
  8
SPOJOVACÍ
  6
DASHED
100
AcDbLine
 10
555.9056310258911
 20
159.9338598418678
 30
0.0
 11
556.2757293694176
 21
160.1471677551951
 31
0.0
  0
LINE
  5
CAC
330
1F
100
AcDbEntity
  8
SPOJOVACÍ
  6
DASHED
100
AcDbLine
 10
558.5892998161889
 20
160.3413326509751
 30
0.0
 11
556.2757293694176
 21
159.5628499240144
 31
0.0
  0
LINE
  5
CAD
330
1F
100
AcDbEntity
  8
SPOJOVACÍ
  6
DASHED
100
AcDbLine
 10
558.5892998161889
 20
160.9256504824268
 30
0.0
 11
556.2757293694176
 21
160.1471677551951
 31
0.0
  0
LINE
  5
CAE
330
1F
100
AcDbEntity
  8
SPOJOVACÍ
  6
DASHED
100
AcDbLine
 10
558.9593981639937
 20
160.5546405643024
 30
0.0
 11
555.9056310258911
 21
159.9338598418678
 31
0.0
  0
LINE
  5
CAF
330
1F
100
AcDbEntity
  8
SPOJOVACÍ
  6
DASHED
100
AcDbLine
 10
558.4060737877316
 20
157.6011463775491
 30
0.0
 11
558.0359754442051
 21
157.3869268917703
 31
0.0
  0
LINE
  5
CB0
330
1F
100
AcDbEntity
  8
SPOJOVACÍ
  6
DASHED
100
AcDbLine
 10
558.4060737877316
 20
157.6011463775491
 30
0.0
 11
558.0359754442051
 21
157.9712447232147
 31
0.0
  0
LINE
  5
CB1
330
1F
100
AcDbEntity
  8
SPOJOVACÍ
  6
DASHED
100
AcDbLine
 10
556.294872389104
 20
157.2966812360907
 30
0.0
 11
556.6649707326305
 21
156.9256713182373
 31
0.0
  0
LINE
  5
CB2
330
1F
100
AcDbEntity
  8
SPOJOVACÍ
  6
DASHED
100
AcDbLine
 10
556.294872389104
 20
157.2966812360907
 30
0.0
 11
556.6649707326305
 21
157.5099891496818
 31
0.0
  0
LINE
  5
CB3
330
1F
100
AcDbEntity
  8
SPOJOVACÍ
  6
DASHED
100
AcDbLine
 10
558.0359754442051
 20
157.3869268917703
 30
0.0
 11
556.6649707326305
 21
156.9256713182373
 31
0.0
  0
LINE
  5
CB4
330
1F
100
AcDbEntity
  8
SPOJOVACÍ
  6
DASHED
100
AcDbLine
 10
558.0359754442051
 20
157.9712447232147
 30
0.0
 11
556.6649707326305
 21
157.5099891496818
 31
0.0
  0
LINE
  5
CB5
330
1F
100
AcDbEntity
  8
SPOJOVACÍ
  6
DASHED
100
AcDbLine
 10
558.4060737877316
 20
157.6011463775491
 30
0.0
 11
556.294872389104
 21
157.2966812360907
 31
0.0
  0
LINE
  5
CB6
330
1F
100
AcDbEntity
  8
SPOJOVACÍ
  6
DASHED
100
AcDbLine
 10
559.76158177051
 20
172.6402658508129
 30
0.0
 11
559.3914834227052
 21
172.4260463650268
 31
0.0
  0
LINE
  5
CB7
330
1F
100
AcDbEntity
  8
SPOJOVACÍ
  6
DASHED
100
AcDbLine
 10
559.76158177051
 20
172.6402658508129
 30
0.0
 11
559.3914834227052
 21
173.0103641964785
 31
0.0
  0
LINE
  5
CB8
330
1F
100
AcDbEntity
  8
SPOJOVACÍ
  6
DASHED
100
AcDbLine
 10
559.76158177051
 20
169.5828524242231
 30
0.0
 11
559.3914834227052
 21
169.3686329384443
 31
0.0
  0
LINE
  5
CB9
330
1F
100
AcDbEntity
  8
SPOJOVACÍ
  6
DASHED
100
AcDbLine
 10
559.76158177051
 20
169.5828524242231
 30
0.0
 11
559.3914834227052
 21
169.9529507698887
 31
0.0
  0
LINE
  5
CBA
330
1F
100
AcDbEntity
  8
SPOJOVACÍ
  6
DASHED
100
AcDbLine
 10
559.76158177051
 20
166.5245274251817
 30
0.0
 11
559.3914834227052
 21
166.3112195118544
 31
0.0
  0
LINE
  5
CBB
330
1F
100
AcDbEntity
  8
SPOJOVACÍ
  6
DASHED
100
AcDbLine
 10
559.76158177051
 20
166.5245274251817
 30
0.0
 11
559.3914834227052
 21
166.8955373433061
 31
0.0
  0
LINE
  5
CBC
330
1F
100
AcDbEntity
  8
SPOJOVACÍ
  6
DASHED
100
AcDbLine
 10
555.2638841415337
 20
185.750498380107
 30
0.0
 11
554.3249646929488
 21
186.9337191993479
 31
0.0
  0
LINE
  5
CBD
330
1F
100
AcDbEntity
  8
SPOJOVACÍ
  6
DASHED
100
AcDbLine
 10
555.8646102736984
 20
184.3649085145978
 30
0.0
 11
555.2638841415337
 21
185.750498380107
 31
0.0
  0
LINE
  5
CBE
330
1F
100
AcDbEntity
  8
SPOJOVACÍ
  6
DASHED
100
AcDbLine
 10
556.0870339067641
 20
182.8717531202371
 30
0.0
 11
555.8646102736984
 21
184.3649085145978
 31
0.0
  0
LINE
  5
CBF
330
1F
100
AcDbEntity
  8
SPOJOVACÍ
  6
DASHED
100
AcDbLine
 10
552.4115744777827
 20
189.3393584459033
 30
0.0
 11
552.4115744777827
 21
188.1634302047066
 31
0.0
  0
LINE
  5
CC0
330
1F
100
AcDbEntity
  8
SPOJOVACÍ
  6
DASHED
100
AcDbLine
 10
562.4078760995053
 20
189.3393584459033
 30
0.0
 11
552.4115744777827
 21
189.3393584459033
 31
0.0
  0
LINE
  5
CC1
330
1F
100
AcDbEntity
  8
SPOJOVACÍ
  6
DASHED
100
AcDbLine
 10
562.4078760995053
 20
189.3393584459033
 30
0.0
 11
562.4078760995053
 21
188.1634302047066
 31
0.0
  0
LINE
  5
CC2
330
1F
100
AcDbEntity
  8
SPOJOVACÍ
  6
DASHED
100
AcDbLine
 10
562.4078760995053
 20
188.1634302047066
 30
0.0
 11
552.4115744777827
 21
188.1634302047066
 31
0.0
  0
LINE
  5
CC3
330
1F
100
AcDbEntity
  8
SPOJOVACÍ
  6
DASHED
100
AcDbLine
 10
553.1125735602272
 20
187.8334410395807
 30
0.0
 11
552.4115744777827
 21
188.1634302047066
 31
0.0
  0
LINE
  5
CC4
330
1F
100
AcDbEntity
  8
SPOJOVACÍ
  6
DASHED
100
AcDbLine
 10
554.3249646929488
 20
186.9337191993479
 30
0.0
 11
553.1125735602272
 21
187.8334410395807
 31
0.0
  0
LINE
  5
CC5
330
1F
100
AcDbEntity
  8
SPOJOVACÍ
  6
DASHED
100
AcDbLine
 10
558.7971382985288
 20
183.6429432688971
 30
0.0
 11
558.7324166662456
 21
182.8717531202371
 31
0.0
  0
LINE
  5
CC6
330
1F
100
AcDbEntity
  8
SPOJOVACÍ
  6
DASHED
100
AcDbLine
 10
559.2164615455422
 20
185.0941663386063
 30
0.0
 11
558.7971382985288
 21
183.6429432688971
 31
0.0
  0
LINE
  5
CC7
330
1F
100
AcDbEntity
  8
SPOJOVACÍ
  6
DASHED
100
AcDbLine
 10
559.996767415274
 20
186.3867758313379
 30
0.0
 11
559.2164615455422
 21
185.0941663386063
 31
0.0
  0
LINE
  5
CC8
330
1F
100
AcDbEntity
  8
SPOJOVACÍ
  6
DASHED
100
AcDbLine
 10
561.0851847176254
 20
187.4341723809618
 30
0.0
 11
559.996767415274
 21
186.3867758313379
 31
0.0
  0
LINE
  5
CC9
330
1F
100
AcDbEntity
  8
SPOJOVACÍ
  6
DASHED
100
AcDbLine
 10
562.4078760995053
 20
188.1634302047066
 30
0.0
 11
561.0851847176254
 21
187.4341723809618
 31
0.0
  0
LINE
  5
CCA
330
1F
100
AcDbEntity
  8
CETRIS
100
AcDbLine
 10
581.3413999493132
 20
189.274668681978
 30
0.0
 11
581.3413999493132
 21
177.274668681978
 31
0.0
  0
LINE
  5
CCB
330
1F
100
AcDbEntity
  8
SPOJOVACÍ
  6
DASHED
100
AcDbLine
 10
602.7413278545846
 20
185.750498380107
 30
0.0
 11
601.8024084059998
 21
186.9337191993479
 31
0.0
  0
LINE
  5
CCC
330
1F
100
AcDbEntity
  8
SPOJOVACÍ
  6
DASHED
100
AcDbLine
 10
603.3420539867493
 20
184.3649085145978
 30
0.0
 11
602.7413278545846
 21
185.750498380107
 31
0.0
  0
LINE
  5
CCD
330
1F
100
AcDbEntity
  8
SPOJOVACÍ
  6
DASHED
100
AcDbLine
 10
603.564477619815
 20
182.8717531202371
 30
0.0
 11
603.3420539867493
 21
184.3649085145978
 31
0.0
  0
LINE
  5
CCE
330
1F
100
AcDbEntity
  8
SPOJOVACÍ
  6
DASHED
100
AcDbLine
 10
599.8890181908336
 20
189.3393584459033
 30
0.0
 11
599.8890181908336
 21
188.1634302047066
 31
0.0
  0
LINE
  5
CCF
330
1F
100
AcDbEntity
  8
SPOJOVACÍ
  6
DASHED
100
AcDbLine
 10
609.8853198125562
 20
189.3393584459033
 30
0.0
 11
599.8890181908336
 21
189.3393584459033
 31
0.0
  0
LINE
  5
CD0
330
1F
100
AcDbEntity
  8
SPOJOVACÍ
  6
DASHED
100
AcDbLine
 10
609.8853198125562
 20
189.3393584459033
 30
0.0
 11
609.8853198125562
 21
188.1634302047066
 31
0.0
  0
LINE
  5
CD1
330
1F
100
AcDbEntity
  8
SPOJOVACÍ
  6
DASHED
100
AcDbLine
 10
609.8853198125562
 20
188.1634302047066
 30
0.0
 11
599.8890181908336
 21
188.1634302047066
 31
0.0
  0
LINE
  5
CD2
330
1F
100
AcDbEntity
  8
SPOJOVACÍ
  6
DASHED
100
AcDbLine
 10
600.5900172732781
 20
187.8334410395807
 30
0.0
 11
599.8890181908336
 21
188.1634302047066
 31
0.0
  0
LINE
  5
CD3
330
1F
100
AcDbEntity
  8
SPOJOVACÍ
  6
DASHED
100
AcDbLine
 10
601.8024084059998
 20
186.9337191993479
 30
0.0
 11
600.5900172732781
 21
187.8334410395807
 31
0.0
  0
LINE
  5
CD4
330
1F
100
AcDbEntity
  8
SPOJOVACÍ
  6
DASHED
100
AcDbLine
 10
606.2745820115797
 20
183.6429432688971
 30
0.0
 11
606.2098603792965
 21
182.8717531202371
 31
0.0
  0
LINE
  5
CD5
330
1F
100
AcDbEntity
  8
SPOJOVACÍ
  6
DASHED
100
AcDbLine
 10
606.693905258593
 20
185.0941663386063
 30
0.0
 11
606.2745820115797
 21
183.6429432688971
 31
0.0
  0
LINE
  5
CD6
330
1F
100
AcDbEntity
  8
SPOJOVACÍ
  6
DASHED
100
AcDbLine
 10
607.4742111283248
 20
186.3867758313379
 30
0.0
 11
606.693905258593
 21
185.0941663386063
 31
0.0
  0
LINE
  5
CD7
330
1F
100
AcDbEntity
  8
SPOJOVACÍ
  6
DASHED
100
AcDbLine
 10
608.5626284306763
 20
187.4341723809618
 30
0.0
 11
607.4742111283248
 21
186.3867758313379
 31
0.0
  0
LINE
  5
CD8
330
1F
100
AcDbEntity
  8
SPOJOVACÍ
  6
DASHED
100
AcDbLine
 10
609.8853198125562
 20
188.1634302047066
 30
0.0
 11
608.5626284306763
 21
187.4341723809618
 31
0.0
  0
LINE
  5
CD9
330
1F
100
AcDbEntity
  8
SPOJOVACÍ
  6
DASHED
100
AcDbLine
 10
603.564477619815
 20
182.8717531202371
 30
0.0
 11
603.564477619815
 21
178.0276580248871
 31
0.0
  0
LINE
  5
CDA
330
1F
100
AcDbEntity
  8
SPOJOVACÍ
  6
DASHED
100
AcDbLine
 10
606.2098603792965
 20
182.8717531202371
 30
0.0
 11
606.2098603792965
 21
178.9146178531507
 31
0.0
  0
LINE
  5
CDB
330
1F
100
AcDbEntity
  8
SPOJOVACÍ
  6
DASHED
100
AcDbLine
 10
606.2098603792965
 20
178.3312115941578
 30
0.0
 11
606.2098603792965
 21
175.8626738602295
 31
0.0
  0
LINE
  5
CDC
330
1F
100
AcDbEntity
  8
SPOJOVACÍ
  6
DASHED
100
AcDbLine
 10
606.2098603792965
 20
175.2710634507409
 30
0.0
 11
606.2098603792965
 21
172.800702572166
 31
0.0
  0
LINE
  5
CDD
330
1F
100
AcDbEntity
  8
SPOJOVACÍ
  6
DASHED
100
AcDbLine
 10
606.2098603792965
 20
172.2182078853609
 30
0.0
 11
606.2098603792965
 21
169.7405544287492
 31
0.0
  0
LINE
  5
CDE
330
1F
100
AcDbEntity
  8
SPOJOVACÍ
  6
DASHED
100
AcDbLine
 10
603.564477619815
 20
177.4360476153985
 30
0.0
 11
603.564477619815
 21
174.9675098814702
 31
0.0
  0
LINE
  5
CDF
330
1F
100
AcDbEntity
  8
SPOJOVACÍ
  6
DASHED
100
AcDbLine
 10
603.564477619815
 20
174.3831920500185
 30
0.0
 11
603.564477619815
 21
171.9055385934068
 31
0.0
  0
LINE
  5
CE0
330
1F
100
AcDbEntity
  8
SPOJOVACÍ
  6
DASHED
100
AcDbLine
 10
603.564477619815
 20
171.3230439066016
 30
0.0
 11
603.564477619815
 21
168.8526830280268
 31
0.0
  0
LINE
  5
CE1
330
1F
100
AcDbEntity
  8
SPOJOVACÍ
  6
DASHED
100
AcDbLine
 10
606.2098603792965
 20
169.1480324468091
 30
0.0
 11
606.2098603792965
 21
166.6804062850685
 31
0.0
  0
LINE
  5
CE2
330
1F
100
AcDbEntity
  8
SPOJOVACÍ
  6
DASHED
100
AcDbLine
 10
606.2098603792965
 20
166.0960884536168
 30
0.0
 11
606.2098603792965
 21
164.873670026566
 31
0.0
  0
LINE
  5
CE3
330
1F
100
AcDbEntity
  8
SPOJOVACÍ
  6
DASHED
100
AcDbLine
 10
603.564477619815
 20
168.2638073353725
 30
0.0
 11
603.564477619815
 21
165.7952696014442
 31
0.0
  0
LINE
  5
CE4
330
1F
100
AcDbEntity
  8
SPOJOVACÍ
  6
DASHED
100
AcDbLine
 10
603.564477619815
 20
165.2036591916919
 30
0.0
 11
603.564477619815
 21
164.873670026566
 31
0.0
  0
LINE
  5
CE5
330
1F
100
AcDbEntity
  8
SPOJOVACÍ
  6
DASHED
100
AcDbLine
 10
606.2098603792965
 20
164.873670026566
 30
0.0
 11
606.0630972426279
 21
163.7004765021963
 31
0.0
  0
LINE
  5
CE6
330
1F
100
AcDbEntity
  8
SPOJOVACÍ
  6
DASHED
100
AcDbLine
 10
604.8871690016949
 20
154.2894042849118
 30
0.0
 11
604.5398599601885
 21
157.0687881661549
 31
0.0
  0
LINE
  5
CE7
330
1F
100
AcDbEntity
  8
SPOJOVACÍ
  6
DASHED
100
AcDbLine
 10
605.9874367419524
 20
163.0924577914599
 30
0.0
 11
605.7030261894233
 21
160.8171733811166
 31
0.0
  0
LINE
  5
CE8
330
1F
100
AcDbEntity
  8
SPOJOVACÍ
  6
DASHED
100
AcDbLine
 10
605.6255425454419
 20
160.1991273752453
 30
0.0
 11
605.341131997191
 21
157.924754537097
 31
0.0
  0
LINE
  5
CE9
330
1F
100
AcDbEntity
  8
SPOJOVACÍ
  6
DASHED
100
AcDbLine
 10
605.2654714965155
 20
157.3167358263606
 30
0.0
 11
604.8871690016949
 21
154.2894042849118
 31
0.0
  0
LINE
  5
CEA
330
1F
100
AcDbEntity
  8
SPOJOVACÍ
  6
DASHED
100
AcDbLine
 10
604.4696688937092
 20
157.6266704014803
 30
0.0
 11
604.2071360779646
 21
159.7287560787651
 31
0.0
  0
LINE
  5
CEB
330
1F
100
AcDbEntity
  8
SPOJOVACÍ
  6
DASHED
100
AcDbLine
 10
604.1369450157636
 20
160.2893730309249
 30
0.0
 11
603.8753237695328
 21
162.3832545577213
 31
0.0
  0
LINE
  5
CEC
330
1F
100
AcDbEntity
  8
SPOJOVACÍ
  6
DASHED
100
AcDbLine
 10
603.8051327030534
 20
162.9420483655055
 30
0.0
 11
603.564477619815
 21
164.873670026566
 31
0.0
  0
LINE
  5
CED
330
1F
100
AcDbEntity
  8
SPOJOVACÍ
  6
DASHED
100
AcDbLine
 10
607.2390254835609
 20
178.7550927042491
 30
0.0
 11
602.5353125198289
 21
177.5791644633161
 31
0.0
  0
LINE
  5
CEE
330
1F
100
AcDbEntity
  8
SPOJOVACÍ
  6
DASHED
100
AcDbLine
 10
607.2390254835609
 20
178.7550927042491
 30
0.0
 11
606.8689271357562
 21
178.5417847909218
 31
0.0
  0
LINE
  5
CEF
330
1F
100
AcDbEntity
  8
SPOJOVACÍ
  6
DASHED
100
AcDbLine
 10
607.2390254835609
 20
178.7550927042491
 30
0.0
 11
606.8689271357562
 21
179.1261026221025
 31
0.0
  0
LINE
  5
CF0
330
1F
100
AcDbEntity
  8
SPOJOVACÍ
  6
DASHED
100
AcDbLine
 10
602.5353125198289
 20
177.5791644633161
 30
0.0
 11
602.9054108633554
 21
177.2090661176505
 31
0.0
  0
LINE
  5
CF1
330
1F
100
AcDbEntity
  8
SPOJOVACÍ
  6
DASHED
100
AcDbLine
 10
602.5353125198289
 20
177.5791644633161
 30
0.0
 11
602.9054108633554
 21
177.7933839491022
 31
0.0
  0
LINE
  5
CF2
330
1F
100
AcDbEntity
  8
SPOJOVACÍ
  6
DASHED
100
AcDbLine
 10
606.8689271357562
 20
178.5417847909218
 30
0.0
 11
602.9054108633554
 21
177.2090661176505
 31
0.0
  0
LINE
  5
CF3
330
1F
100
AcDbEntity
  8
SPOJOVACÍ
  6
DASHED
100
AcDbLine
 10
606.8689271357562
 20
179.1261026221025
 30
0.0
 11
602.9054108633554
 21
177.7933839491022
 31
0.0
  0
LINE
  5
CF4
330
1F
100
AcDbEntity
  8
SPOJOVACÍ
  6
DASHED
100
AcDbLine
 10
607.2390254835609
 20
175.6976792776665
 30
0.0
 11
602.5353125198289
 21
174.5217510364625
 31
0.0
  0
LINE
  5
CF5
330
1F
100
AcDbEntity
  8
SPOJOVACÍ
  6
DASHED
100
AcDbLine
 10
607.2390254835609
 20
175.6976792776665
 30
0.0
 11
606.8689271357562
 21
175.4834597918804
 31
0.0
  0
LINE
  5
CF6
330
1F
100
AcDbEntity
  8
SPOJOVACÍ
  6
DASHED
100
AcDbLine
 10
607.2390254835609
 20
175.6976792776665
 30
0.0
 11
606.8689271357562
 21
176.0677776233321
 31
0.0
  0
LINE
  5
CF7
330
1F
100
AcDbEntity
  8
SPOJOVACÍ
  6
DASHED
100
AcDbLine
 10
602.5353125198289
 20
174.5217510364625
 30
0.0
 11
602.9054108633554
 21
174.1516526910679
 31
0.0
  0
LINE
  5
CF8
330
1F
100
AcDbEntity
  8
SPOJOVACÍ
  6
DASHED
100
AcDbLine
 10
602.5353125198289
 20
174.5217510364625
 30
0.0
 11
602.9054108633554
 21
174.7359705222486
 31
0.0
  0
LINE
  5
CF9
330
1F
100
AcDbEntity
  8
SPOJOVACÍ
  6
DASHED
100
AcDbLine
 10
606.8689271357562
 20
175.4834597918804
 30
0.0
 11
602.9054108633554
 21
174.1516526910679
 31
0.0
  0
LINE
  5
CFA
330
1F
100
AcDbEntity
  8
SPOJOVACÍ
  6
DASHED
100
AcDbLine
 10
606.8689271357562
 20
176.0677776233321
 30
0.0
 11
602.9054108633554
 21
174.7359705222486
 31
0.0
  0
LINE
  5
CFB
330
1F
100
AcDbEntity
  8
SPOJOVACÍ
  6
DASHED
100
AcDbLine
 10
606.9901662490283
 20
163.5090463235144
 30
0.0
 11
606.6191563317097
 21
163.2948268377283
 31
0.0
  0
LINE
  5
CFC
330
1F
100
AcDbEntity
  8
SPOJOVACÍ
  6
DASHED
100
AcDbLine
 10
606.9901662490283
 20
163.5090463235144
 30
0.0
 11
606.6191563317097
 21
163.87914466918
 31
0.0
  0
LINE
  5
CFD
330
1F
100
AcDbEntity
  8
SPOJOVACÍ
  6
DASHED
100
AcDbLine
 10
602.9473431893402
 20
162.5555417188559
 30
0.0
 11
603.3174415328667
 21
162.1845318007315
 31
0.0
  0
LINE
  5
CFE
330
1F
100
AcDbEntity
  8
SPOJOVACÍ
  6
DASHED
100
AcDbLine
 10
602.9473431893402
 20
162.5555417188559
 30
0.0
 11
603.3174415328667
 21
162.7688496321832
 31
0.0
  0
LINE
  5
CFF
330
1F
100
AcDbEntity
  8
SPOJOVACÍ
  6
DASHED
100
AcDbLine
 10
606.6191563317097
 20
163.2948268377283
 30
0.0
 11
603.3174415328667
 21
162.1845318007315
 31
0.0
  0
LINE
  5
D00
330
1F
100
AcDbEntity
  8
SPOJOVACÍ
  6
DASHED
100
AcDbLine
 10
606.6191563317097
 20
163.87914466918
 30
0.0
 11
603.3174415328667
 21
162.7688496321832
 31
0.0
  0
LINE
  5
D01
330
1F
100
AcDbEntity
  8
SPOJOVACÍ
  6
DASHED
100
AcDbLine
 10
606.9901662490283
 20
163.5090463235144
 30
0.0
 11
602.9473431893402
 21
162.5555417188559
 31
0.0
  0
LINE
  5
D02
330
1F
100
AcDbEntity
  8
SPOJOVACÍ
  6
DASHED
100
AcDbLine
 10
606.4368418770445
 20
160.5546405643024
 30
0.0
 11
606.0667435292398
 21
160.3413326509751
 31
0.0
  0
LINE
  5
D03
330
1F
100
AcDbEntity
  8
SPOJOVACÍ
  6
DASHED
100
AcDbLine
 10
606.4368418770445
 20
160.5546405643024
 30
0.0
 11
606.0667435292398
 21
160.9256504824268
 31
0.0
  0
LINE
  5
D04
330
1F
100
AcDbEntity
  8
SPOJOVACÍ
  6
DASHED
100
AcDbLine
 10
603.383074738942
 20
159.9338598418678
 30
0.0
 11
603.7531730824684
 21
159.5628499240144
 31
0.0
  0
LINE
  5
D05
330
1F
100
AcDbEntity
  8
SPOJOVACÍ
  6
DASHED
100
AcDbLine
 10
603.383074738942
 20
159.9338598418678
 30
0.0
 11
603.7531730824684
 21
160.1471677551951
 31
0.0
  0
LINE
  5
D06
330
1F
100
AcDbEntity
  8
SPOJOVACÍ
  6
DASHED
100
AcDbLine
 10
606.0667435292398
 20
160.3413326509751
 30
0.0
 11
603.7531730824684
 21
159.5628499240144
 31
0.0
  0
LINE
  5
D07
330
1F
100
AcDbEntity
  8
SPOJOVACÍ
  6
DASHED
100
AcDbLine
 10
606.0667435292398
 20
160.9256504824268
 30
0.0
 11
603.7531730824684
 21
160.1471677551951
 31
0.0
  0
LINE
  5
D08
330
1F
100
AcDbEntity
  8
SPOJOVACÍ
  6
DASHED
100
AcDbLine
 10
606.4368418770445
 20
160.5546405643024
 30
0.0
 11
603.383074738942
 21
159.9338598418678
 31
0.0
  0
LINE
  5
D09
330
1F
100
AcDbEntity
  8
SPOJOVACÍ
  6
DASHED
100
AcDbLine
 10
605.8835175007825
 20
157.6011463775491
 30
0.0
 11
605.5134191572561
 21
157.3869268917703
 31
0.0
  0
LINE
  5
D0A
330
1F
100
AcDbEntity
  8
SPOJOVACÍ
  6
DASHED
100
AcDbLine
 10
605.8835175007825
 20
157.6011463775491
 30
0.0
 11
605.5134191572561
 21
157.9712447232147
 31
0.0
  0
LINE
  5
D0B
330
1F
100
AcDbEntity
  8
SPOJOVACÍ
  6
DASHED
100
AcDbLine
 10
603.7723161021549
 20
157.2966812360907
 30
0.0
 11
604.1424144456814
 21
156.9256713182373
 31
0.0
  0
LINE
  5
D0C
330
1F
100
AcDbEntity
  8
SPOJOVACÍ
  6
DASHED
100
AcDbLine
 10
603.7723161021549
 20
157.2966812360907
 30
0.0
 11
604.1424144456814
 21
157.5099891496818
 31
0.0
  0
LINE
  5
D0D
330
1F
100
AcDbEntity
  8
SPOJOVACÍ
  6
DASHED
100
AcDbLine
 10
605.5134191572561
 20
157.3869268917703
 30
0.0
 11
604.1424144456814
 21
156.9256713182373
 31
0.0
  0
LINE
  5
D0E
330
1F
100
AcDbEntity
  8
SPOJOVACÍ
  6
DASHED
100
AcDbLine
 10
605.5134191572561
 20
157.9712447232147
 30
0.0
 11
604.1424144456814
 21
157.5099891496818
 31
0.0
  0
LINE
  5
D0F
330
1F
100
AcDbEntity
  8
SPOJOVACÍ
  6
DASHED
100
AcDbLine
 10
605.8835175007825
 20
157.6011463775491
 30
0.0
 11
603.7723161021549
 21
157.2966812360907
 31
0.0
  0
LINE
  5
D10
330
1F
100
AcDbEntity
  8
SPOJOVACÍ
  6
DASHED
100
AcDbLine
 10
607.2390254835609
 20
172.6402658508129
 30
0.0
 11
602.5353125198289
 21
171.4643376098799
 31
0.0
  0
LINE
  5
D11
330
1F
100
AcDbEntity
  8
SPOJOVACÍ
  6
DASHED
100
AcDbLine
 10
607.2390254835609
 20
172.6402658508129
 30
0.0
 11
606.8689271357562
 21
172.4260463650268
 31
0.0
  0
LINE
  5
D12
330
1F
100
AcDbEntity
  8
SPOJOVACÍ
  6
DASHED
100
AcDbLine
 10
607.2390254835609
 20
172.6402658508129
 30
0.0
 11
606.8689271357562
 21
173.0103641964785
 31
0.0
  0
LINE
  5
D13
330
1F
100
AcDbEntity
  8
SPOJOVACÍ
  6
DASHED
100
AcDbLine
 10
602.5353125198289
 20
171.4643376098799
 30
0.0
 11
602.9054108633554
 21
171.0933276920266
 31
0.0
  0
LINE
  5
D14
330
1F
100
AcDbEntity
  8
SPOJOVACÍ
  6
DASHED
100
AcDbLine
 10
602.5353125198289
 20
171.4643376098799
 30
0.0
 11
602.9054108633554
 21
171.677645523471
 31
0.0
  0
LINE
  5
D15
330
1F
100
AcDbEntity
  8
SPOJOVACÍ
  6
DASHED
100
AcDbLine
 10
606.8689271357562
 20
172.4260463650268
 30
0.0
 11
602.9054108633554
 21
171.0933276920266
 31
0.0
  0
LINE
  5
D16
330
1F
100
AcDbEntity
  8
SPOJOVACÍ
  6
DASHED
100
AcDbLine
 10
606.8689271357562
 20
173.0103641964785
 30
0.0
 11
602.9054108633554
 21
171.677645523471
 31
0.0
  0
LINE
  5
D17
330
1F
100
AcDbEntity
  8
SPOJOVACÍ
  6
DASHED
100
AcDbLine
 10
607.2390254835609
 20
169.5828524242231
 30
0.0
 11
602.5353125198289
 21
168.4069241832901
 31
0.0
  0
LINE
  5
D18
330
1F
100
AcDbEntity
  8
SPOJOVACÍ
  6
DASHED
100
AcDbLine
 10
607.2390254835609
 20
169.5828524242231
 30
0.0
 11
606.8689271357562
 21
169.3686329384443
 31
0.0
  0
LINE
  5
D19
330
1F
100
AcDbEntity
  8
SPOJOVACÍ
  6
DASHED
100
AcDbLine
 10
607.2390254835609
 20
169.5828524242231
 30
0.0
 11
606.8689271357562
 21
169.9529507698887
 31
0.0
  0
LINE
  5
D1A
330
1F
100
AcDbEntity
  8
SPOJOVACÍ
  6
DASHED
100
AcDbLine
 10
602.5353125198289
 20
168.4069241832901
 30
0.0
 11
602.9054108633554
 21
168.0359142654367
 31
0.0
  0
LINE
  5
D1B
330
1F
100
AcDbEntity
  8
SPOJOVACÍ
  6
DASHED
100
AcDbLine
 10
602.5353125198289
 20
168.4069241832901
 30
0.0
 11
602.9054108633554
 21
168.6202320966174
 31
0.0
  0
LINE
  5
D1C
330
1F
100
AcDbEntity
  8
SPOJOVACÍ
  6
DASHED
100
AcDbLine
 10
606.8689271357562
 20
169.3686329384443
 30
0.0
 11
602.9054108633554
 21
168.0359142654367
 31
0.0
  0
LINE
  5
D1D
330
1F
100
AcDbEntity
  8
SPOJOVACÍ
  6
DASHED
100
AcDbLine
 10
606.8689271357562
 20
169.9529507698887
 30
0.0
 11
602.9054108633554
 21
168.6202320966174
 31
0.0
  0
LINE
  5
D1E
330
1F
100
AcDbEntity
  8
SPOJOVACÍ
  6
DASHED
100
AcDbLine
 10
607.2390254835609
 20
166.5245274251817
 30
0.0
 11
602.5353125198289
 21
165.3485991842487
 31
0.0
  0
LINE
  5
D1F
330
1F
100
AcDbEntity
  8
SPOJOVACÍ
  6
DASHED
100
AcDbLine
 10
607.2390254835609
 20
166.5245274251817
 30
0.0
 11
606.8689271357562
 21
166.3112195118544
 31
0.0
  0
LINE
  5
D20
330
1F
100
AcDbEntity
  8
SPOJOVACÍ
  6
DASHED
100
AcDbLine
 10
607.2390254835609
 20
166.5245274251817
 30
0.0
 11
606.8689271357562
 21
166.8955373433061
 31
0.0
  0
LINE
  5
D21
330
1F
100
AcDbEntity
  8
SPOJOVACÍ
  6
DASHED
100
AcDbLine
 10
602.5353125198289
 20
165.3485991842487
 30
0.0
 11
602.9054108633554
 21
164.9785008385831
 31
0.0
  0
LINE
  5
D22
330
1F
100
AcDbEntity
  8
SPOJOVACÍ
  6
DASHED
100
AcDbLine
 10
602.5353125198289
 20
165.3485991842487
 30
0.0
 11
602.9054108633554
 21
165.5628186700348
 31
0.0
  0
LINE
  5
D23
330
1F
100
AcDbEntity
  8
SPOJOVACÍ
  6
DASHED
100
AcDbLine
 10
606.8689271357562
 20
166.3112195118544
 30
0.0
 11
602.9054108633554
 21
164.9785008385831
 31
0.0
  0
LINE
  5
D24
330
1F
100
AcDbEntity
  8
SPOJOVACÍ
  6
DASHED
100
AcDbLine
 10
606.8689271357562
 20
166.8955373433061
 30
0.0
 11
602.9054108633554
 21
165.5628186700348
 31
0.0
  0
HATCH
  5
D25
330
1F
100
AcDbEntity
  8
izolace
100
AcDbHatch
 10
0.0
 20
0.0
 30
0.0
210
0.0
220
0.0
230
1.0
  2
SOLID
 70
     1
 71
     0
 91
        1
 92
        7
 72
     0
 73
     1
 93
        4
 10
571.3259556316025
 20
145.3393584459033
 10
571.3259556316061
 20
142.3393584459024
 10
594.9676883414412
 20
142.3393584459033
 10
594.9676883414412
 20
145.3393584459024
 97
        0
 75
     0
 76
     1
 47
0.1901250437635136
 98
        1
 10
580.6837503899459
 20
144.5225468948235
  0
LWPOLYLINE
  5
D26
330
1F
100
AcDbEntity
  8
STAVBA OBRYS
100
AcDbPolyline
 90
        4
 70
     1
 43
0.0
 10
594.9676883414376
 20
145.3393584459033
 10
571.3259556316025
 20
145.3393584459033
 10
571.3259556316025
 20
142.3393584459033
 10
594.9676883414376
 20
142.3393584459033
  0
LWPOLYLINE
  5
D27
330
1F
100
AcDbEntity
  8
STAVBA OBRYS
100
AcDbPolyline
 90
        4
 70
     1
 43
0.0
 10
547.6842229217672
 20
145.3393584459033
 10
524.0424902119321
 20
145.3393584459033
 10
524.0424902119321
 20
142.3393584459033
 10
547.6842229217672
 20
142.3393584459033
  0
HATCH
  5
D28
330
1F
100
AcDbEntity
  8
izolace
100
AcDbHatch
 10
0.0
 20
0.0
 30
0.0
210
0.0
220
0.0
230
1.0
  2
SOLID
 70
     1
 71
     0
 91
        1
 92
        7
 72
     0
 73
     1
 93
        4
 10
524.0424902119321
 20
145.3393584459033
 10
524.0424902119356
 20
142.3393584459024
 10
547.6842229217709
 20
142.3393584459033
 10
547.6842229217709
 20
145.3393584459024
 97
        0
 75
     0
 76
     1
 47
0.1901250437635136
 98
        1
 10
533.4002849702756
 20
144.5225468948235
  0
INSERT
  5
D29
330
1F
100
AcDbEntity
  8
POPIS
100
AcDbBlockReference
  2
E_PUNKT
 10
521.1452604095702
 20
160.0437845779622
 30
0.0
 50
270.0
  0
INSERT
  5
D2A
330
1F
100
AcDbEntity
  8
POPIS
100
AcDbBlockReference
  2
E_PUNKT
 10
575.1814878032182
 20
141.7303154808475
 30
0.0
 50
270.0
  0
INSERT
  5
D2B
330
1F
100
AcDbEntity
  8
POPIS
100
AcDbBlockReference
  2
E_PUNKT
 10
633.3196642631974
 20
128.7972012776415
 30
0.0
 50
270.0
  0
TEXT
  5
D2C
330
1F
100
AcDbEntity
  8
POPIS
100
AcDbText
 10
442.3243429655322
 20
270.4821782718143
 30
0.0
 40
25.0
  1
01
 41
0.85
  7
SIMPLEX7
100
AcDbText
  0
TEXT
  5
D2D
330
1F
100
AcDbEntity
  8
POPIS
100
AcDbText
 10
494.4649951997289
 20
270.4821782718143
 30
0.0
 40
25.0
  1
02
 41
0.85
  7
SIMPLEX7
100
AcDbText
  0
TEXT
  5
D2E
330
1F
100
AcDbEntity
  8
POPIS
100
AcDbText
 10
809.7392808071981
 20
235.6235298977233
 30
0.0
 40
25.0
  1
06
 41
0.85
  7
SIMPLEX7
100
AcDbText
  0
HATCH
  5
D2F
330
1F
100
AcDbEntity
  8
izolace
100
AcDbHatch
 10
0.0
 20
0.0
 30
0.0
210
0.0
220
0.0
230
1.0
  2
SOLID
 70
     1
 71
     0
 91
        1
 92
        7
 72
     0
 73
     1
 93
        4
 10
665.8928864709432
 20
145.3393584459033
 10
665.8928864709468
 20
142.3393584459024
 10
689.5346191807821
 20
142.3393584459033
 10
689.5346191807821
 20
145.3393584459024
 97
        0
 75
     0
 76
     1
 47
0.1901250437635136
 98
        1
 10
675.2506812292867
 20
144.5225468948235
  0
LWPOLYLINE
  5
D30
330
1F
100
AcDbEntity
  8
STAVBA OBRYS
100
AcDbPolyline
 90
        4
 70
     1
 43
0.0
 10
689.5346191807784
 20
145.3393584459033
 10
665.8928864709432
 20
145.3393584459033
 10
665.8928864709432
 20
142.3393584459033
 10
689.5346191807784
 20
142.3393584459033
  0
TEXT
  5
D31
330
1F
100
AcDbEntity
  8
POPIS
100
AcDbText
 10
809.7392808071981
 20
129.3770774542433
 30
0.0
 40
25.0
  1
09
 41
0.85
  7
SIMPLEX7
100
AcDbText
  0
TEXT
  5
D32
330
1F
100
AcDbEntity
  8
POPIS
100
AcDbText
 10
809.7392808071981
 20
164.9027183555451
 30
0.0
 40
25.0
  1
08
 41
0.85
  7
SIMPLEX7
100
AcDbText
  0
TEXT
  5
D33
330
1F
100
AcDbEntity
  8
POPIS
100
AcDbText
 10
809.7392808071981
 20
201.7382583584374
 30
0.0
 40
25.0
  1
07
 41
0.85
  7
SIMPLEX7
100
AcDbText
  0
TEXT
  5
D34
330
1F
100
AcDbEntity
  8
POPIS
100
AcDbText
 10
809.7392808071981
 20
379.6258131830388
 30
0.0
 40
25.0
  1
02
 41
0.85
  7
SIMPLEX7
100
AcDbText
  0
TEXT
  5
D35
330
1F
100
AcDbEntity
  8
POPIS
100
AcDbText
 10
809.7392808071981
 20
271.027691115886
 30
0.0
 40
25.0
  1
05
 41
0.85
  7
SIMPLEX7
100
AcDbText
  0
TEXT
  5
D36
330
1F
100
AcDbEntity
  8
POPIS
100
AcDbText
 10
809.7392808071981
 20
308.9117761534732
 30
0.0
 40
25.0
  1
04
 41
0.85
  7
SIMPLEX7
100
AcDbText
  0
TEXT
  5
D37
330
1F
100
AcDbEntity
  8
POPIS
100
AcDbText
 10
809.7392808071981
 20
345.5067877691005
 30
0.0
 40
25.0
  1
03
 41
0.85
  7
SIMPLEX7
100
AcDbText
  0
TEXT
  5
D38
330
1F
100
AcDbEntity
  8
POPIS
100
AcDbText
 10
1034.060183703573
 20
255.9170818709178
 30
0.0
 40
8.399999999999998
  1
R
 41
0.85
  7
SIMPLEX7
100
AcDbText
  0
CIRCLE
  5
D39
330
1F
100
AcDbEntity
  8
POPIS
100
AcDbCircle
 10
1037.391504042201
 20
259.7988238924088
 30
0.0
 40
7.795592338044182
  0
TEXT
  5
D3A
330
1F
100
AcDbEntity
  8
POPIS
100
AcDbText
 10
1034.445599411979
 20
296.9858344086167
 30
0.0
 40
8.399999999999998
  1
R
 41
0.85
  7
SIMPLEX7
100
AcDbText
  0
CIRCLE
  5
D3B
330
1F
100
AcDbEntity
  8
POPIS
100
AcDbCircle
 10
1037.776919750607
 20
300.8675764301085
 30
0.0
 40
7.795592338044182
  0
ENDSEC
  0
SECTION
  2
OBJECTS
  0
DICTIONARY
  5
C
330
0
100
AcDbDictionary
281
     1
  3
ACAD_GROUP
350
D
  3
ACAD_LAYOUT
350
1A
  3
ACAD_MLINESTYLE
350
17
  3
ACAD_PLOTSETTINGS
350
19
  3
ACAD_PLOTSTYLENAME
350
E
  0
DICTIONARY
  5
D
102
{ACAD_REACTORS
330
C
102
}
330
C
100
AcDbDictionary
281
     1
  0
DICTIONARY
  5
1A
102
{ACAD_REACTORS
330
C
102
}
330
C
100
AcDbDictionary
281
     1
  3
Model
350
22
  3
Rozvržení1
350
1E
  3
Rozvržení2
350
26
  0
DICTIONARY
  5
17
102
{ACAD_REACTORS
330
C
102
}
330
C
100
AcDbDictionary
281
     1
  3
Standard
350
18
  0
DICTIONARY
  5
19
102
{ACAD_REACTORS
330
C
102
}
330
C
100
AcDbDictionary
281
     1
  0
ACDBDICTIONARYWDFLT
  5
E
102
{ACAD_REACTORS
330
C
102
}
330
C
100
AcDbDictionary
281
     1
  3
Normal
350
F
100
AcDbDictionaryWithDefault
340
F
  0
LAYOUT
  5
22
102
{ACAD_REACTORS
330
1A
102
}
330
1A
100
AcDbPlotSettings
  1

  2
HP DeskJet 690C
  4

  6

 40
0.0
 41
0.0
 42
0.0
 43
0.0
 44
0.0
 45
0.0
 46
0.0
 47
0.0
 48
0.0
 49
0.0
140
0.0
141
0.0
142
1.0
143
1.0
 70
  1712
 72
     0
 73
     0
 74
     0
  7
monochrome.ctb
 75
     0
147
1.0
148
0.0
149
0.0
100
AcDbLayout
  1
Model
 70
     1
 71
     0
 10
0.0
 20
0.0
 11
12.0
 21
9.0
 12
0.0
 22
0.0
 32
0.0
 14
0.0
 24
0.0
 34
0.0
 15
0.0
 25
0.0
 35
0.0
146
0.0
 13
0.0
 23
0.0
 33
0.0
 16
1.0
 26
0.0
 36
0.0
 17
0.0
 27
1.0
 37
0.0
 76
     0
330
1F
  0
LAYOUT
  5
1E
102
{ACAD_REACTORS
330
1A
102
}
330
1A
100
AcDbPlotSettings
  1

  2
HP DeskJet 690C
  4

  6

 40
0.0
 41
0.0
 42
0.0
 43
0.0
 44
0.0
 45
0.0
 46
0.0
 47
0.0
 48
0.0
 49
0.0
140
0.0
141
0.0
142
1.0
143
1.0
 70
   688
 72
     0
 73
     0
 74
     5
  7
monochrome.ctb
 75
    16
147
1.0
148
0.0
149
0.0
100
AcDbLayout
  1
Rozvržení1
 70
     1
 71
     1
 10
0.0
 20
0.0
 11
420.0
 21
297.0
 12
0.0
 22
0.0
 32
0.0
 14
1.000000000000000E+20
 24
1.000000000000000E+20
 34
1.000000000000000E+20
 15
-1.000000000000000E+20
 25
-1.000000000000000E+20
 35
-1.000000000000000E+20
146
0.0
 13
0.0
 23
0.0
 33
0.0
 16
1.0
 26
0.0
 36
0.0
 17
0.0
 27
1.0
 37
0.0
 76
     0
330
1B
  0
LAYOUT
  5
26
102
{ACAD_REACTORS
330
1A
102
}
330
1A
100
AcDbPlotSettings
  1

  2
HP DeskJet 690C
  4

  6

 40
0.0
 41
0.0
 42
0.0
 43
0.0
 44
0.0
 45
0.0
 46
0.0
 47
0.0
 48
0.0
 49
0.0
140
0.0
141
0.0
142
1.0
143
1.0
 70
   688
 72
     0
 73
     0
 74
     5
  7
monochrome.ctb
 75
    16
147
1.0
148
0.0
149
0.0
100
AcDbLayout
  1
Rozvržení2
 70
     1
 71
     2
 10
0.0
 20
0.0
 11
12.0
 21
9.0
 12
0.0
 22
0.0
 32
0.0
 14
0.0
 24
0.0
 34
0.0
 15
0.0
 25
0.0
 35
0.0
146
0.0
 13
0.0
 23
0.0
 33
0.0
 16
1.0
 26
0.0
 36
0.0
 17
0.0
 27
1.0
 37
0.0
 76
     0
330
23
  0
MLINESTYLE
  5
18
102
{ACAD_REACTORS
330
17
102
}
330
17
100
AcDbMlineStyle
  2
STANDARD
 70
     0
  3

 62
   256
 51
90.0
 52
90.0
 71
     2
 49
0.5
 62
   256
  6
BYLAYER
 49
-0.5
 62
   256
  6
BYLAYER
  0
ACDBPLACEHOLDER
  5
F
102
{ACAD_REACTORS
330
E
102
}
330
E
  0
ENDSEC
  0
EOF
