  0
SECTION
  2
HEADER
  9
$ACADVER
  1
AC1015
  9
$ACADMAINTVER
 70
    10
  9
$DWGCODEPAGE
  3
ANSI_1250
  9
$INSBASE
 10
0.0
 20
0.0
 30
0.0
  9
$EXTMIN
 10
-91.39747835952107
 20
-80.12510164396918
 30
0.0
  9
$EXTMAX
 10
723.784990944708
 20
588.0167889382358
 30
0.0
  9
$LIMMIN
 10
0.0
 20
0.0
  9
$LIMMAX
 10
420.0
 20
297.0
  9
$ORTHOMODE
 70
     1
  9
$REGENMODE
 70
     1
  9
$FILLMODE
 70
     1
  9
$QTEXTMODE
 70
     0
  9
$MIRRTEXT
 70
     1
  9
$LTSCALE
 40
1.0
  9
$ATTMODE
 70
     1
  9
$TEXTSIZE
 40
2.5
  9
$TRACEWID
 40
1.0
  9
$TEXTSTYLE
  7
Standard
  9
$CLAYER
  8
0
  9
$CELTYPE
  6
ByLayer
  9
$CECOLOR
 62
   256
  9
$CELTSCALE
 40
1.0
  9
$DISPSILH
 70
     0
  9
$DIMSCALE
 40
1.0
  9
$DIMASZ
 40
2.5
  9
$DIMEXO
 40
0.625
  9
$DIMDLI
 40
3.75
  9
$DIMRND
 40
0.0
  9
$DIMDLE
 40
0.0
  9
$DIMEXE
 40
1.25
  9
$DIMTP
 40
0.0
  9
$DIMTM
 40
0.0
  9
$DIMTXT
 40
2.5
  9
$DIMCEN
 40
2.5
  9
$DIMTSZ
 40
0.0
  9
$DIMTOL
 70
     0
  9
$DIMLIM
 70
     0
  9
$DIMTIH
 70
     0
  9
$DIMTOH
 70
     0
  9
$DIMSE1
 70
     0
  9
$DIMSE2
 70
     0
  9
$DIMTAD
 70
     1
  9
$DIMZIN
 70
     8
  9
$DIMBLK
  1

  9
$DIMASO
 70
     1
  9
$DIMSHO
 70
     1
  9
$DIMPOST
  1

  9
$DIMAPOST
  1

  9
$DIMALT
 70
     0
  9
$DIMALTD
 70
     3
  9
$DIMALTF
 40
0.03937007874016
  9
$DIMLFAC
 40
1.0
  9
$DIMTOFL
 70
     1
  9
$DIMTVP
 40
0.0
  9
$DIMTIX
 70
     0
  9
$DIMSOXD
 70
     0
  9
$DIMSAH
 70
     0
  9
$DIMBLK1
  1

  9
$DIMBLK2
  1

  9
$DIMSTYLE
  2
ISO-25
  9
$DIMCLRD
 70
     0
  9
$DIMCLRE
 70
     0
  9
$DIMCLRT
 70
     0
  9
$DIMTFAC
 40
1.0
  9
$DIMGAP
 40
0.625
  9
$DIMJUST
 70
     0
  9
$DIMSD1
 70
     0
  9
$DIMSD2
 70
     0
  9
$DIMTOLJ
 70
     0
  9
$DIMTZIN
 70
     8
  9
$DIMALTZ
 70
     0
  9
$DIMALTTZ
 70
     0
  9
$DIMUPT
 70
     0
  9
$DIMDEC
 70
     2
  9
$DIMTDEC
 70
     2
  9
$DIMALTU
 70
     2
  9
$DIMALTTD
 70
     3
  9
$DIMTXSTY
  7
Standard
  9
$DIMAUNIT
 70
     0
  9
$DIMADEC
 70
     0
  9
$DIMALTRND
 40
0.0
  9
$DIMAZIN
 70
     0
  9
$DIMDSEP
 70
    44
  9
$DIMATFIT
 70
     3
  9
$DIMFRAC
 70
     0
  9
$DIMLDRBLK
  1

  9
$DIMLUNIT
 70
     2
  9
$DIMLWD
 70
    -2
  9
$DIMLWE
 70
    -2
  9
$DIMTMOVE
 70
     0
  9
$LUNITS
 70
     2
  9
$LUPREC
 70
     4
  9
$SKETCHINC
 40
1.0
  9
$FILLETRAD
 40
10.0
  9
$AUNITS
 70
     0
  9
$AUPREC
 70
     0
  9
$MENU
  1
.
  9
$ELEVATION
 40
0.0
  9
$PELEVATION
 40
0.0
  9
$THICKNESS
 40
0.0
  9
$LIMCHECK
 70
     0
  9
$CHAMFERA
 40
10.0
  9
$CHAMFERB
 40
10.0
  9
$CHAMFERC
 40
20.0
  9
$CHAMFERD
 40
0.0
  9
$SKPOLY
 70
     0
  9
$TDCREATE
 40
2452333.440837384
  9
$TDUCREATE
 40
2452333.399170718
  9
$TDUPDATE
 40
2452653.359289988
  9
$TDUUPDATE
 40
2452653.317623322
  9
$TDINDWG
 40
0.0088742940
  9
$TDUSRTIMER
 40
0.0088730208
  9
$USRTIMER
 70
     1
  9
$ANGBASE
 50
0.0
  9
$ANGDIR
 70
     0
  9
$PDMODE
 70
     0
  9
$PDSIZE
 40
0.0
  9
$PLINEWID
 40
0.0
  9
$SPLFRAME
 70
     0
  9
$SPLINETYPE
 70
     6
  9
$SPLINESEGS
 70
     8
  9
$HANDSEED
  5
534E
  9
$SURFTAB1
 70
     6
  9
$SURFTAB2
 70
     6
  9
$SURFTYPE
 70
     6
  9
$SURFU
 70
     6
  9
$SURFV
 70
     6
  9
$UCSBASE
  2

  9
$UCSNAME
  2

  9
$UCSORG
 10
0.0
 20
0.0
 30
0.0
  9
$UCSXDIR
 10
1.0
 20
0.0
 30
0.0
  9
$UCSYDIR
 10
0.0
 20
1.0
 30
0.0
  9
$UCSORTHOREF
  2

  9
$UCSORTHOVIEW
 70
     0
  9
$UCSORGTOP
 10
0.0
 20
0.0
 30
0.0
  9
$UCSORGBOTTOM
 10
0.0
 20
0.0
 30
0.0
  9
$UCSORGLEFT
 10
0.0
 20
0.0
 30
0.0
  9
$UCSORGRIGHT
 10
0.0
 20
0.0
 30
0.0
  9
$UCSORGFRONT
 10
0.0
 20
0.0
 30
0.0
  9
$UCSORGBACK
 10
0.0
 20
0.0
 30
0.0
  9
$PUCSBASE
  2

  9
$PUCSNAME
  2

  9
$PUCSORG
 10
0.0
 20
0.0
 30
0.0
  9
$PUCSXDIR
 10
1.0
 20
0.0
 30
0.0
  9
$PUCSYDIR
 10
0.0
 20
1.0
 30
0.0
  9
$PUCSORTHOREF
  2

  9
$PUCSORTHOVIEW
 70
     0
  9
$PUCSORGTOP
 10
0.0
 20
0.0
 30
0.0
  9
$PUCSORGBOTTOM
 10
0.0
 20
0.0
 30
0.0
  9
$PUCSORGLEFT
 10
0.0
 20
0.0
 30
0.0
  9
$PUCSORGRIGHT
 10
0.0
 20
0.0
 30
0.0
  9
$PUCSORGFRONT
 10
0.0
 20
0.0
 30
0.0
  9
$PUCSORGBACK
 10
0.0
 20
0.0
 30
0.0
  9
$USERI1
 70
     0
  9
$USERI2
 70
     0
  9
$USERI3
 70
     0
  9
$USERI4
 70
     0
  9
$USERI5
 70
     0
  9
$USERR1
 40
0.0
  9
$USERR2
 40
0.0
  9
$USERR3
 40
0.0
  9
$USERR4
 40
0.0
  9
$USERR5
 40
0.0
  9
$WORLDVIEW
 70
     1
  9
$SHADEDGE
 70
     3
  9
$SHADEDIF
 70
    70
  9
$TILEMODE
 70
     1
  9
$MAXACTVP
 70
    64
  9
$PINSBASE
 10
0.0
 20
0.0
 30
0.0
  9
$PLIMCHECK
 70
     0
  9
$PEXTMIN
 10
1.000000000000000E+20
 20
1.000000000000000E+20
 30
1.000000000000000E+20
  9
$PEXTMAX
 10
-1.000000000000000E+20
 20
-1.000000000000000E+20
 30
-1.000000000000000E+20
  9
$PLIMMIN
 10
0.0
 20
0.0
  9
$PLIMMAX
 10
420.0
 20
297.0
  9
$UNITMODE
 70
     0
  9
$VISRETAIN
 70
     1
  9
$PLINEGEN
 70
     0
  9
$PSLTSCALE
 70
     1
  9
$TREEDEPTH
 70
  3020
  9
$CMLSTYLE
  2
Standard
  9
$CMLJUST
 70
     0
  9
$CMLSCALE
 40
20.0
  9
$PROXYGRAPHICS
 70
     1
  9
$MEASUREMENT
 70
     1
  9
$CELWEIGHT
370
    -1
  9
$ENDCAPS
280
     0
  9
$JOINSTYLE
280
     0
  9
$LWDISPLAY
290
     0
  9
$INSUNITS
 70
     4
  9
$HYPERLINKBASE
  1

  9
$STYLESHEET
  1

  9
$XEDIT
290
     1
  9
$CEPSNTYPE
380
     0
  9
$PSTYLEMODE
290
     1
  9
$FINGERPRINTGUID
  2
{E0A79919-1611-4D48-A6CF-929FE36A9D62}
  9
$VERSIONGUID
  2
{D4421515-282A-400D-BBE8-486189D46996}
  9
$EXTNAMES
290
     1
  9
$PSVPSCALE
 40
0.0
  9
$OLESTARTUP
290
     0
  0
ENDSEC
  0
SECTION
  2
CLASSES
  0
CLASS
  1
ACDBDICTIONARYWDFLT
  2
AcDbDictionaryWithDefault
  3
AutoCAD 2000
 90
        0
280
     0
281
     0
  0
CLASS
  1
ACDBPLACEHOLDER
  2
AcDbPlaceHolder
  3
AutoCAD 2000
 90
        0
280
     0
281
     0
  0
CLASS
  1
LAYOUT
  2
AcDbLayout
  3
AutoCAD 2000
 90
        0
280
     0
281
     0
  0
ENDSEC
  0
SECTION
  2
TABLES
  0
TABLE
  2
VPORT
  5
8
330
0
100
AcDbSymbolTable
 70
     3
  0
VPORT
  5
534D
330
8
100
AcDbSymbolTableRecord
100
AcDbViewportTableRecord
  2
*Active
 70
     0
 10
0.0
 20
0.0
 11
1.0
 21
1.0
 12
346.628390268837
 22
249.2329855501925
 13
0.0
 23
0.0
 14
10.0
 24
10.0
 15
10.0
 25
10.0
 16
0.0
 26
0.0
 36
1.0
 17
0.0
 27
0.0
 37
0.0
 40
698.6813214995708
 41
1.338709677419354
 42
50.0
 43
0.0
 44
0.0
 50
0.0
 51
0.0
 71
     0
 72
   100
 73
     1
 74
     3
 75
     0
 76
     0
 77
     0
 78
     0
281
     0
 65
     1
110
0.0
120
0.0
130
0.0
111
1.0
121
0.0
131
0.0
112
0.0
122
1.0
132
0.0
 79
     0
146
0.0
  0
ENDTAB
  0
TABLE
  2
LTYPE
  5
5
330
0
100
AcDbSymbolTable
 70
     3
  0
LTYPE
  5
14
330
5
100
AcDbSymbolTableRecord
100
AcDbLinetypeTableRecord
  2
ByBlock
 70
     0
  3

 72
    65
 73
     0
 40
0.0
  0
LTYPE
  5
15
330
5
100
AcDbSymbolTableRecord
100
AcDbLinetypeTableRecord
  2
ByLayer
 70
     0
  3

 72
    65
 73
     0
 40
0.0
  0
LTYPE
  5
16
330
5
100
AcDbSymbolTableRecord
100
AcDbLinetypeTableRecord
  2
Continuous
 70
     0
  3
Solid line
 72
    65
 73
     0
 40
0.0
  0
LTYPE
  5
33
330
5
100
AcDbSymbolTableRecord
100
AcDbLinetypeTableRecord
  2
DASHED
 70
     0
  3
Dashed __ __ __ __ __ __ __ __ __ __ __ __ __ _
 72
    65
 73
     2
 40
19.04999999999999
 49
12.7
 74
     0
 49
-6.349999999999999
 74
     0
  0
LTYPE
  5
36
330
5
100
AcDbSymbolTableRecord
100
AcDbLinetypeTableRecord
  2
IZOLACE
 70
     0
  3
Izolace SSSSSSSSSSSSSSSSSSSSSSSSSSSSSSSSSSSSSSS
 72
    65
 73
     4
 40
10.16253999999999
 49
0.00254
 74
     0
 49
-2.54
 74
     4
 75
   134
340
3E
 46
2.54
 50
0.0
 44
-2.54
 45
0.0
 49
-5.08
 74
     4
 75
   134
340
3E
 46
2.54
 50
180.0
 44
2.54
 45
0.0
 49
-2.54
 74
     0
  0
ENDTAB
  0
TABLE
  2
LAYER
  5
2
330
0
100
AcDbSymbolTable
 70
     6
  0
LAYER
  5
10
330
2
100
AcDbSymbolTableRecord
100
AcDbLayerTableRecord
  2
0
 70
     0
 62
     7
  6
Continuous
370
    -3
390
F
  0
LAYER
  5
37
330
2
100
AcDbSymbolTableRecord
100
AcDbLayerTableRecord
  2
POPIS
 70
     0
 62
    30
  6
Continuous
370
    -3
390
F
  0
LAYER
  5
38
330
2
100
AcDbSymbolTableRecord
100
AcDbLayerTableRecord
  2
SPOJOVACÍ
 70
     0
 62
   180
  6
Continuous
370
    -3
390
F
  0
LAYER
  5
39
330
2
100
AcDbSymbolTableRecord
100
AcDbLayerTableRecord
  2
CETRIS
 70
     0
 62
     1
  6
Continuous
370
    -3
390
F
  0
LAYER
  5
3B
330
2
100
AcDbSymbolTableRecord
100
AcDbLayerTableRecord
  2
izolace
 70
     0
 62
    73
  6
Continuous
370
    -3
390
F
  0
LAYER
  5
3C
330
2
100
AcDbSymbolTableRecord
100
AcDbLayerTableRecord
  2
STAVBA OBRYS
 70
     0
 62
     6
  6
Continuous
370
    -3
390
F
  0
ENDTAB
  0
TABLE
  2
STYLE
  5
3
330
0
100
AcDbSymbolTable
 70
     3
  0
STYLE
  5
11
330
3
100
AcDbSymbolTableRecord
100
AcDbTextStyleTableRecord
  2
Standard
 70
     0
 40
0.0
 41
1.0
 50
0.0
 71
     0
 42
2.5
  3
txt
  4

  0
STYLE
  5
3D
330
3
100
AcDbSymbolTableRecord
100
AcDbTextStyleTableRecord
  2
SIMPLEX7
 70
     0
 40
0.0
 41
0.85
 50
0.0
 71
     0
 42
102.0
  3

  4

1001
ACAD
1000
Arial CE
1071
    60962
  0
STYLE
  5
3E
330
3
100
AcDbSymbolTableRecord
100
AcDbTextStyleTableRecord
  2

 70
     1
 40
0.0
 41
1.0
 50
0.0
 71
     0
 42
2.5
  3
ltypeshp.shx
  4

  0
ENDTAB
  0
TABLE
  2
VIEW
  5
6
330
0
100
AcDbSymbolTable
 70
     0
  0
ENDTAB
  0
TABLE
  2
UCS
  5
7
330
0
100
AcDbSymbolTable
 70
     0
  0
ENDTAB
  0
TABLE
  2
APPID
  5
9
330
0
100
AcDbSymbolTable
 70
     1
  0
APPID
  5
12
330
9
100
AcDbSymbolTableRecord
100
AcDbRegAppTableRecord
  2
ACAD
 70
     0
  0
ENDTAB
  0
TABLE
  2
DIMSTYLE
  5
A
330
0
100
AcDbSymbolTable
 70
     1
100
AcDbDimStyleTable
 71
     0
  0
DIMSTYLE
105
27
330
A
100
AcDbSymbolTableRecord
100
AcDbDimStyleTableRecord
  2
ISO-25
 70
     0
 41
2.5
 42
0.625
 43
3.75
 44
1.25
 73
     0
 74
     0
 77
     1
 78
     8
140
2.5
141
2.5
143
0.03937007874016
147
0.625
171
     3
172
     1
271
     2
272
     2
274
     3
278
    44
283
     0
284
     8
340
11
  0
ENDTAB
  0
TABLE
  2
BLOCK_RECORD
  5
1
330
0
100
AcDbSymbolTable
 70
     2
  0
BLOCK_RECORD
  5
1F
330
1
100
AcDbSymbolTableRecord
100
AcDbBlockTableRecord
  2
*Model_Space
340
22
  0
BLOCK_RECORD
  5
1B
330
1
100
AcDbSymbolTableRecord
100
AcDbBlockTableRecord
  2
*Paper_Space
340
1E
  0
BLOCK_RECORD
  5
23
330
1
100
AcDbSymbolTableRecord
100
AcDbBlockTableRecord
  2
*Paper_Space0
340
26
  0
BLOCK_RECORD
  5
2B
330
1
100
AcDbSymbolTableRecord
100
AcDbBlockTableRecord
  2
E_PUNKT
340
0
102
{BLKREFS
331
5315
331
5324
331
5325
331
5326
331
5327
331
5328
331
5329
331
532A
102
}
  0
ENDTAB
  0
ENDSEC
  0
SECTION
  2
BLOCKS
  0
BLOCK
  5
20
330
1F
100
AcDbEntity
  8
0
100
AcDbBlockBegin
  2
*Model_Space
 70
     0
 10
0.0
 20
0.0
 30
0.0
  3
*Model_Space
  1

  0
ENDBLK
  5
21
330
1F
100
AcDbEntity
  8
0
100
AcDbBlockEnd
  0
BLOCK
  5
1C
330
1B
100
AcDbEntity
 67
     1
  8
0
100
AcDbBlockBegin
  2
*Paper_Space
 70
     0
 10
0.0
 20
0.0
 30
0.0
  3
*Paper_Space
  1

  0
ENDBLK
  5
1D
330
1B
100
AcDbEntity
 67
     1
  8
0
100
AcDbBlockEnd
  0
BLOCK
  5
24
330
23
100
AcDbEntity
  8
0
100
AcDbBlockBegin
  2
*Paper_Space0
 70
     0
 10
0.0
 20
0.0
 30
0.0
  3
*Paper_Space0
  1

  0
ENDBLK
  5
25
330
23
100
AcDbEntity
  8
0
100
AcDbBlockEnd
  0
BLOCK
  5
2D
330
2B
100
AcDbEntity
  8
0
100
AcDbBlockBegin
  2
E_PUNKT
 70
     0
 10
0.0
 20
0.0
 30
0.0
  3
E_PUNKT
  1

  0
LWPOLYLINE
  5
2C
330
2B
100
AcDbEntity
  8
POPIS
100
AcDbPolyline
 90
        2
 70
     1
 43
2.5
 10
1.27761037562675
 20
0.0290683308725193
 42
-1.0
 10
-1.222389624373249
 20
0.0290683308725193
 42
-1.0
  0
ENDBLK
  5
2E
330
2B
100
AcDbEntity
  8
0
100
AcDbBlockEnd
  0
ENDSEC
  0
SECTION
  2
ENTITIES
  0
HATCH
  5
5008
330
1F
100
AcDbEntity
  8
STAVBA OBRYS
100
AcDbHatch
 10
0.0
 20
0.0
 30
0.0
210
0.0
220
0.0
230
1.0
  2
AR-CONC
 70
     0
 71
     0
 91
       12
 92
        7
 72
     0
 73
     1
 93
        4
 10
123.8948089685411
 20
415.4269074594552
 10
111.3948089685375
 20
415.4269074594552
 10
111.3948089685375
 20
400.276156762144
 10
123.8948089685375
 20
400.276156762144
 97
        0
 92
        7
 72
     0
 73
     1
 93
       16
 10
123.8948089685411
 20
400.276156762144
 10
111.3948089685375
 20
400.276156762144
 10
111.3948089685375
 20
386.1687130557396
 10
111.420685506536
 20
386.0917033451253
 10
113.5658488723322
 20
386.0917033451253
 10
113.3736370511808
 20
386.6633428787884
 10
113.6946407183325
 20
386.9843465440911
 10
113.880443333551
 20
386.6633428788039
 10
114.0726551546697
 20
386.0917033451253
 10
118.2851512881181
 20
386.0917033451253
 10
119.580235048533
 20
386.2846218023763
 10
120.7820221767917
 20
386.8056597741563
 10
121.8082851322444
 20
387.620028683635
 10
122.5886561161253
 20
388.6715924212069
 10
122.874871208319
 20
389.2796018294459
 10
123.8948089685411
 20
389.2796018294459
 97
        0
 92
        7
 72
     0
 73
     1
 93
       20
 10
123.8948089685411
 20
380.6093402187682
 10
122.8748712083227
 20
380.6093402187682
 10
122.24235166732
 20
381.7565725397919
 10
121.3338954763105
 20
382.700607955104
 10
120.2127545897649
 20
383.3774038625118
 10
118.9540407027645
 20
383.7411025971663
 10
118.2851512881145
 20
383.7972387067996
 10
114.8441609737139
 20
383.7972387067996
 10
115.0363727948399
 20
383.2255991731374
 10
114.7145784783254
 20
382.9045955041195
 10
114.5295665126807
 20
383.2255991731402
 10
114.3373546915293
 20
383.7972387067996
 10
112.1916636200378
 20
383.7972387067996
 10
112.3837439693682
 20
383.2255991731374
 10
112.0627403022128
 20
382.9045955041249
 10
111.876937686987
 20
383.2255991731593
 10
111.6848573376967
 20
383.7972387067996
 10
111.3948089685375
 20
383.7972387067996
 10
111.3948089685375
 20
357.336955229008
 10
123.8948089685375
 20
357.336955229008
 97
        0
 92
        7
 72
     0
 73
     1
 93
        4
 10
123.8948089685447
 20
357.336955229008
 10
111.3948089685338
 20
357.336955229008
 10
111.3948089685338
 20
315.440942520496
 10
123.8948089685411
 20
315.440942520496
 97
        0
 92
        7
 72
     0
 73
     1
 93
        4
 10
123.8948089685411
 20
315.440942520496
 10
111.3948089685375
 20
315.440942520496
 10
111.3948089685375
 20
271.0146319861581
 10
123.8948089685375
 20
271.0146319861581
 97
        0
 92
        7
 72
     0
 73
     1
 93
        4
 10
123.8948089685411
 20
271.0146319861581
 10
111.3948089685375
 20
271.0146319861581
 10
111.3948089685375
 20
215.7802544980316
 10
123.8948089685411
 20
215.7802544980316
 97
        0
 92
        7
 72
     0
 73
     1
 93
       16
 10
123.8948089685375
 20
215.7802544980316
 10
111.3948089685375
 20
215.7802544980316
 10
111.3948089685411
 20
186.1687130557414
 10
111.420685506547
 20
186.0917033451253
 10
113.5658488723322
 20
186.0917033451253
 10
113.3736370511771
 20
186.6633428787884
 10
113.6946407183361
 20
186.9843465440911
 10
113.880443333551
 20
186.6633428788184
 10
114.0726551546697
 20
186.0917033451253
 10
118.2851512881218
 20
186.0917033451253
 10
119.580235048533
 20
186.2846218023763
 10
120.7820221767917
 20
186.8056597741554
 10
121.8082851322481
 20
187.6200286836368
 10
122.5886561161289
 20
188.6715924212115
 10
122.8748712083227
 20
189.2796018294459
 10
123.8948089685411
 20
189.2796018294459
 97
        0
 92
        7
 72
     1
 73
     1
 93
       20
 10
122.2423516673091
 20
181.7565725397865
 42
0.0
 10
121.3338954763141
 20
182.7006079550913
 42
0.0
 10
120.2127545897612
 20
183.3774038625109
 42
0.0
 10
118.9540407027791
 20
183.7411025971662
 42
0.0
 10
118.2851512881145
 20
183.7972387067996
 42
0.0
 10
114.8441609737139
 20
183.7972387067996
 42
0.0
 10
115.0363727948363
 20
183.2255991731365
 42
0.0
 10
114.714578478329
 20
182.9045955041177
 42
0.0
 10
114.5295665126952
 20
183.2255991731274
 42
0.0
 10
114.3373546915365
 20
183.7972387067996
 42
0.0
 10
112.1916636200342
 20
183.7972387067996
 42
0.0
 10
112.3837439693682
 20
183.2255991731365
 42
0.0
 10
112.0627403022165
 20
182.9045955041195
 42
0.0
 10
111.8769376869906
 20
183.2255991731456
 42
0.0
 10
111.6848573376967
 20
183.7972387067996
 42
0.0
 10
111.3948089685375
 20
183.7972387067996
 42
0.0
 10
111.3948089685375
 20
160.2401302207611
 42
0.4142135623731857
 10
123.8948089685411
 20
172.7401302207611
 42
0.0
 10
123.8948089685447
 20
180.6093402187682
 42
0.0
 10
122.874871208319
 20
180.6093402187682
 42
0.0
 97
        0
 92
        7
 72
     1
 73
     1
 93
       21
 10
116.6144631865329
 20
159.0981762606664
 42
0.0
 10
111.3948089685375
 20
159.0981762606664
 42
0.0
 10
111.3948089685375
 20
136.6830217347226
 42
0.0
 10
111.684857337693
 20
136.6830217347226
 42
0.0
 10
111.8769376869979
 20
137.2546612683921
 42
0.0
 10
112.0627403022092
 20
137.5756649374009
 42
0.0
 10
112.3837439693718
 20
137.2546612683866
 42
0.0
 10
112.1916636200378
 20
136.6830217347226
 42
0.0
 10
114.3373546915329
 20
136.6830217347226
 42
0.0
 10
114.5295665126989
 20
137.2546612683948
 42
0.0
 10
114.714578478329
 20
137.5756649374
 42
0.0
 10
115.0363727948435
 20
137.2546612683893
 42
0.0
 10
114.8441609737212
 20
136.6830217347226
 42
0.0
 10
118.2851512881181
 20
136.6830217347226
 42
0.0
 10
118.9540407027682
 20
136.739157844356
 42
0.0
 10
120.2127545897649
 20
137.1028565790123
 42
0.0
 10
121.3338954763105
 20
137.7796524864236
 42
0.0
 10
122.2423516673163
 20
138.7236879017412
 42
0.0
 10
122.874871208319
 20
139.870920222754
 42
0.0
 10
123.8948089685411
 20
139.870920222754
 42
0.0
 10
123.8948089685411
 20
147.7401302207611
 42
0.2929822252592319
 97
        0
 92
        7
 72
     0
 73
     1
 93
       16
 10
123.8948089685411
 20
131.2006586120763
 10
122.8748712083227
 20
131.2006586120763
 10
122.5886561161216
 20
131.8086680203126
 10
121.8082851322444
 20
132.8602317578909
 10
120.7820221767772
 20
133.6746006673741
 10
119.5802350485439
 20
134.195638639146
 10
118.2851512881218
 20
134.3885570963969
 10
114.072655154677
 20
134.3885570963969
 10
113.8804433335692
 20
133.8169175627584
 10
113.6946407183361
 20
133.4959138974284
 10
113.3736370511771
 20
133.8169175627338
 10
113.5658488723322
 20
134.3885570963969
 10
111.420685506547
 20
134.3885570963969
 10
111.3948089685375
 20
134.3115473857581
 10
111.3948089685375
 20
103.804152508392
 10
123.8948089685447
 20
103.804152508392
 97
        0
 92
        7
 72
     1
 73
     1
 93
       26
 10
123.8948089685375
 20
103.804152508392
 42
0.0
 10
111.3948089685338
 20
103.804152508392
 42
0.0
 10
111.3948089685375
 20
-63.31697826527733
 42
0.0
 10
111.684857337693
 20
-63.31697826527733
 42
0.0
 10
111.8769376869979
 20
-62.74533873161516
 42
0.0
 10
112.0627403022128
 20
-62.42433506260084
 42
0.0
 10
112.3837439693754
 20
-62.74533873161243
 42
0.0
 10
112.1916636200451
 20
-63.31697826527733
 42
0.0
 10
114.3373546915365
 20
-63.31697826527733
 42
0.0
 10
114.5295665126952
 20
-62.74533873160698
 42
0.0
 10
114.714578478329
 20
-62.42433506260084
 42
0.0
 10
115.0363727948363
 20
-62.7453387316097
 42
0.0
 10
114.8441609737139
 20
-63.31697826527733
 42
0.0
 10
118.2851512881218
 20
-63.31697826527733
 42
0.0
 10
118.9540407027682
 20
-63.26084215564396
 42
0.0
 10
120.2127545897649
 20
-62.8971434209895
 42
0.0
 10
121.3338954763178
 20
-62.22034751356904
 42
0.0
 10
122.24235166732
 20
-61.27631209826148
 42
0.0
 10
122.874871208319
 20
-60.12907977724598
 42
0.0
 10
123.8948089685411
 20
-60.12907977724598
 42
0.0
 10
123.8948089685447
 20
57.81703184381178
 42
0.0
 10
119.2518160297197
 20
57.81703184381178
 42
-0.4983977788785249
 10
118.0500361926472
 20
56.22319289429952
 42
-1.0
 10
118.0500361926472
 20
58.72319289429952
 42
-0.3347590527634978
 10
119.2518160297197
 20
57.81703184381178
 42
0.0
 10
123.8948089685411
 20
57.81703184381178
 42
0.0
 97
        0
 92
        7
 72
     0
 73
     1
 93
       16
 10
123.8948089685411
 20
-68.79934138792368
 10
122.8748712083227
 20
-68.79934138792368
 10
122.5886561161289
 20
-68.1913319796883
 10
121.8082851322371
 20
-67.13976824210994
 10
120.7820221767772
 20
-66.32539933262768
 10
119.5802350485366
 20
-65.80436136085399
 10
118.2851512881145
 20
-65.61144290360306
 10
114.0726551546733
 20
-65.61144290360306
 10
113.8804433335619
 20
-66.18308243726523
 10
113.6946407183397
 20
-66.50408610257063
 10
113.3736370511771
 20
-66.18308243726705
 10
113.5658488723322
 20
-65.61144290360306
 10
111.4206855065433
 20
-65.61144290360306
 10
111.3948089685338
 20
-65.68845261422092
 10
111.3948089685375
 20
-80.12510164396799
 10
123.8948089685411
 20
-80.12510164396799
 97
        0
 75
     0
 76
     1
 52
90.0
 41
0.1
 77
     0
 78
    13
 53
140.0
 43
-27080.56224696671
 44
-430.8777564945055
 45
1.593908553890309
 46
18.2184668996004
 79
     2
 49
1.905
 49
-20.955
 53
85.00000000000001
 43
-27080.56224696671
 44
-430.8777564945055
 45
-19.10566428821799
 46
-3.524282597566697
 79
     2
 49
1.524
 49
-16.764
 53
190.4509999999999
 43
-27080.42942196671
 44
-429.359556494505
 45
-17.51166878202918
 46
14.69425016659592
 79
     2
 49
1.619
 49
-17.809
 53
136.1841999999999
 43
-27085.64224696671
 44
-430.8777564945055
 45
4.204232793272717
 46
27.10790408921299
 79
     2
 49
2.857499999999999
 49
-31.4325
 53
186.6355999999999
 43
-27085.29189696671
 44
-428.6187664945052
 45
-24.74255558900492
 46
23.74042344662371
 79
     2
 49
2.4285
 49
-26.7135
 53
81.18400000000004
 43
-27085.64224696671
 44
-430.8777564945055
 45
-24.74251178605976
 46
23.74046058139339
 79
     2
 49
2.286
 49
-25.146
 53
111.0
 43
-27084.37224696671
 44
-428.3377564945054
 45
10.22655185167625
 46
15.16148798353833
 79
     2
 49
1.905
 49
-20.955
 53
56.00000000000004
 43
-27084.37224696671
 44
-428.3377564945054
 45
-18.41879661223192
 46
6.180202834764708
 79
     2
 49
1.524
 49
-16.764
 53
161.4514
 43
-27083.52003696671
 44
-427.074306494506
 45
-8.192285771605742
 46
21.34164907701245
 79
     2
 49
1.618999999999997
 49
-17.80899999999996
 53
127.5
 43
-27080.56224696671
 44
-430.8777564945055
 45
-8.455503887315311
 46
0.3088603250591822
 79
     6
 49
0.0
 49
-16.5608
 49
0.0
 49
-17.018
 49
0.0
 49
-16.8275
 53
97.49999999999989
 43
-27080.56224696671
 44
-430.8777564945055
 45
-10.01805748181195
 46
6.681966251030575
 79
     6
 49
0.0
 49
-9.702799999999998
 49
0.0
 49
-16.17979999999999
 49
0.0
 49
-6.413499999999999
 53
57.5
 43
-27080.56224696671
 44
-436.5419564945056
 45
0.5728743992673473
 46
13.55905951668713
 79
     6
 49
0.0
 49
-6.35
 49
0.0
 49
-19.812
 49
0.0
 49
-26.289
 53
47.5
 43
-27080.56224696671
 44
-439.0819564945056
 45
-2.5426491033333
 46
14.8129181386018
 79
     6
 49
0.0
 49
-8.255
 49
0.0
 49
-13.1572
 49
0.0
 49
-18.669
 47
0.7791078592540142
 98
       12
 10
116.1958987643313
 20
410.4815865295743
 10
117.7550674037568
 20
396.4576373591219
 10
117.7550674037568
 20
370.7470680186155
 10
117.7550674037568
 20
338.0245365088442
 10
117.7550674037568
 20
304.52290360958
 10
120.8734046826005
 20
248.427131759697
 10
116.9754830840404
 20
201.6806759113927
 10
116.1958987643313
 20
181.4238659611685
 10
115.4163144446222
 20
148.7013344513937
 10
117.7550674037568
 20
115.9788029416225
 10
120.8734046826005
 20
80.13984104196362
 10
117.7550674037568
 20
-73.34442394774367
  0
HATCH
  5
5009
330
1F
100
AcDbEntity
  8
CETRIS
100
AcDbHatch
 10
0.0
 20
0.0
 30
0.0
210
0.0
220
0.0
230
1.0
  2
ANSI31
 70
     0
 71
     0
 91
        9
 92
        7
 72
     0
 73
     1
 93
       27
 10
111.3948089685411
 20
215.7802544980316
 10
99.39480896854115
 20
215.7802544980316
 10
99.3948089685448
 20
185.6821895943588
 10
100.505259562565
 20
185.8209354902303
 10
100.3421532048789
 20
186.3059693389034
 10
100.6639475216154
 20
186.6269730042097
 10
100.8489594872492
 20
186.3059693389016
 10
100.9915251747272
 20
185.8820178445124
 10
102.9463212795537
 20
186.1255601638015
 10
102.765493696884
 20
186.6633428787857
 10
103.0864973640466
 20
186.9843465440929
 10
103.2722999792724
 20
186.6633428787857
 10
103.4645118004239
 20
186.0917033451253
 10
105.6095436943553
 20
186.0917033451253
 10
105.417331873233
 20
186.6633428787875
 10
105.7391261897439
 20
186.9843465440911
 10
105.9241381553849
 20
186.6633428787975
 10
106.1163499765436
 20
186.0917033451253
 10
108.2613818704787
 20
186.0917033451253
 10
108.06917004936
 20
186.6633428787875
 10
108.390964365871
 20
186.9843465440902
 10
108.5759763317266
 20
186.663342878813
 10
108.7681881528562
 20
186.0917033451253
 10
110.9138792243513
 20
186.0917033451253
 10
110.721798875061
 20
186.6633428787893
 10
111.0428025419798
 20
186.9843465440938
 10
111.3948089685338
 20
186.3761992745051
 97
        0
 92
        7
 72
     0
 73
     1
 93
       12
 10
111.3948089685302
 20
248.4299332743606
 10
110.194882191806
 20
248.4299332743606
 10
109.8581585539297
 20
249.145238460533
 10
108.9400750434917
 20
250.3823722694263
 10
107.7327068605966
 20
251.3404533394062
 10
106.3188396508896
 20
251.9534391885584
 10
104.7952116974531
 20
252.1804020794437
 10
99.83933389340132
 20
252.1804020794437
 10
99.6132023391449
 20
251.50788498101
 10
99.39480896854115
 20
251.1305755854485
 10
99.39480896854115
 20
215.7802544980316
 10
111.3948089685411
 20
215.7802544980316
 97
        0
 92
        7
 72
     0
 73
     1
 93
       15
 10
111.3948089685302
 20
265.2274936579954
 10
99.39480896853751
 20
265.2274936579954
 10
99.39480896853751
 20
254.8797722421798
 10
100.1507451132358
 20
254.8797722421798
 10
100.3768766675432
 20
255.5522893406162
 10
100.5945378035842
 20
255.9299407159199
 10
100.9731193524141
 20
255.5522893406098
 10
100.7469877981614
 20
254.8797722421798
 10
104.7952116974531
 20
254.8797722421798
 10
105.5821404205719
 20
254.9458147241014
 10
107.0629802876185
 20
255.373695588399
 10
108.3819695659306
 20
256.1699260677262
 10
109.4507415553246
 20
257.2805559680721
 10
110.1948821918097
 20
258.6302410516285
 10
111.3948089685338
 20
258.6302410516285
 97
        0
 92
        7
 72
     0
 73
     1
 93
       18
 10
-23.6089989826421
 20
265.2274936579954
 10
-37.18209532833748
 20
265.2274936579954
 10
-37.18209532834475
 20
258.6302410516285
 10
-35.9821685516024
 20
258.6302410516285
 10
-35.23802791512093
 20
257.2805559680685
 10
-34.16925592573784
 20
256.1699260677281
 10
-32.85026664743668
 20
255.3736955884017
 10
-31.36942678037189
 20
254.9458147241014
 10
-30.58249805725313
 20
254.8797722421798
 10
-26.534274157965
 20
254.8797722421798
 10
-26.76040571221415
 20
255.5522893406062
 10
-26.38182416338054
 20
255.9299407159226
 10
-26.16416302733592
 20
255.5522893406062
 10
-25.93803147303947
 20
254.8797722421798
 10
-23.60899898264574
 20
254.8797722421798
 10
-23.60899898264574
 20
255.4610231989666
 10
-23.63966591755411
 20
255.5522893406071
 10
-23.60899898264574
 20
255.5829562756901
 97
        0
 92
        7
 72
     0
 73
     1
 93
       15
 10
-23.60899898263483
 20
252.1804020794437
 10
-25.03037756809749
 20
252.1804020794437
 10
-24.80424601379741
 20
251.5078849810127
 10
-25.1818973869183
 20
251.1302336100701
 10
-25.40048869895576
 20
251.5078849810136
 10
-25.62662025321219
 20
252.1804020794437
 10
-30.58249805725313
 20
252.1804020794437
 10
-32.10612601067146
 20
251.9534391885602
 10
-33.51999322038568
 20
251.340453339408
 10
-34.72736140328084
 20
250.3823722694272
 10
-35.64544491370429
 20
249.1452384605421
 10
-35.9821685516024
 20
248.4299332743606
 10
-37.18209532833748
 20
248.4299332743606
 10
-37.18209532833748
 20
-80.12510164396799
 10
-23.6089989826421
 20
-80.12510164396799
 97
        0
 92
        7
 72
     1
 73
     1
 93
       27
 10
111.3948089685338
 20
159.0981762606664
 42
0.0
 10
99.57782338307993
 20
159.0981762606664
 42
-0.1864700104517666
 10
99.39480896854115
 20
158.2159382785005
 42
0.0
 10
99.39480896854115
 20
156.3295143220014
 42
0.0
 10
99.39480896854115
 20
134.7980708471635
 42
0.0
 10
100.505259562565
 20
134.659324951291
 42
0.0
 10
101.3051642063448
 20
137.0380233260878
 42
0.0
 10
101.4909668215707
 20
137.3598176421449
 42
0.0
 10
101.8119704887296
 20
137.0380233261005
 42
0.0
 10
101.649467763503
 20
136.5547845158392
 42
0.0
 10
102.6745690129985
 20
136.6830217347226
 42
0.0
 10
103.7292113372434
 20
136.6830217347226
 42
0.0
 10
103.9214231583912
 20
137.2546612683875
 42
0.0
 10
104.1064351240359
 20
137.5756649374018
 42
0.0
 10
104.4282294407796
 20
137.2546612683866
 42
0.0
 10
104.2360176196209
 20
136.6830217347226
 42
0.0
 10
106.3810495133995
 20
136.6830217347226
 42
0.0
 10
106.5732613345146
 20
137.2546612683893
 42
0.0
 10
106.7590639497368
 20
137.5756649374027
 42
0.0
 10
107.0800676168958
 20
137.2546612683866
 42
0.0
 10
106.887855795737
 20
136.6830217347226
 42
0.0
 10
109.0328876895266
 20
136.6830217347226
 42
0.0
 10
109.2250995106344
 20
137.2546612683639
 42
0.0
 10
109.4109021258602
 20
137.5756649374
 42
0.0
 10
109.7319057930192
 20
137.2546612683893
 42
0.0
 10
109.5396939718968
 20
136.6830217347226
 42
0.0
 10
111.3948089685411
 20
136.6830217347226
 42
0.0
 97
        0
 92
        7
 72
     1
 73
     1
 93
       27
 10
111.3948089685338
 20
183.7972387067996
 42
0.0
 10
109.5396939719005
 20
183.7972387067996
 42
0.0
 10
109.7319057930192
 20
183.2255991731365
 42
0.0
 10
109.4109021258639
 20
182.9045955041268
 42
0.0
 10
109.2250995106344
 20
183.2255991731575
 42
0.0
 10
109.0328876895303
 20
183.7972387067996
 42
0.0
 10
106.887855795737
 20
183.7972387067996
 42
0.0
 10
107.0800676168958
 20
183.2255991731365
 42
0.0
 10
106.7590639497405
 20
182.9045955041295
 42
0.0
 10
106.5732613345146
 20
183.2255991731493
 42
0.0
 10
106.3810495134032
 20
183.7972387067996
 42
0.0
 10
104.2360176196245
 20
183.7972387067996
 42
0.0
 10
104.428229440776
 20
183.2255991731356
 42
0.0
 10
104.1064351240359
 20
182.9045955041177
 42
0.0
 10
103.9214231583985
 20
183.2255991731411
 42
0.0
 10
103.729211337247
 20
183.7972387067996
 42
0.0
 10
102.6745690129912
 20
183.7972387067996
 42
0.0
 10
101.6494677635102
 20
183.925475925683
 42
0.0
 10
101.8119704887296
 20
183.4422371154208
 42
0.0
 10
101.4909668215743
 20
183.1204427993819
 42
0.0
 10
101.3051642063448
 20
183.4422371154244
 42
0.0
 10
101.1205275413788
 20
183.9912962292886
 42
0.0
 10
99.5208200899408
 20
184.1912596615878
 42
0.0
 10
99.39480896854115
 20
184.0655581491603
 42
0.0
 10
99.39480896854115
 20
159.5718470885997
 42
-0.1026292068434982
 10
99.57782338308357
 20
159.0981762606664
 42
0.0
 10
111.3948089685375
 20
159.0981762606664
 42
0.0
 97
        0
 92
        7
 72
     1
 73
     1
 93
       54
 10
111.3948089685302
 20
134.1040611670371
 42
0.0
 10
111.0428025419798
 20
133.4959138974284
 42
0.0
 10
110.7217988750646
 20
133.8169175627356
 42
0.0
 10
110.913879224355
 20
134.3885570963969
 42
0.0
 10
108.768188152849
 20
134.3885570963969
 42
0.0
 10
108.5759763317339
 20
133.8169175627329
 42
0.0
 10
108.3909643658673
 20
133.4959138974312
 42
0.0
 10
108.0691700493673
 20
133.816917562732
 42
0.0
 10
108.261381870486
 20
134.3885570963969
 42
0.0
 10
106.1163499765364
 20
134.3885570963969
 42
0.0
 10
105.9241381553922
 20
133.8169175627311
 42
0.0
 10
105.7391261897439
 20
133.4959138974293
 42
0.0
 10
105.417331873233
 20
133.8169175627338
 42
0.0
 10
105.6095436943517
 20
134.3885570963969
 42
0.0
 10
103.4645118004239
 20
134.3885570963969
 42
0.0
 10
103.2722999792833
 20
133.8169175627329
 42
0.0
 10
103.0864973640502
 20
133.4959138974284
 42
0.0
 10
102.7654936968804
 20
133.8169175627347
 42
0.0
 10
102.9463212795501
 20
134.3547002777216
 42
0.0
 10
100.9915251747308
 20
134.598242597009
 42
0.0
 10
100.8489594872492
 20
134.1742911026061
 42
0.0
 10
100.6639475216118
 20
133.8532874373107
 42
0.0
 10
100.3421532048716
 20
134.1742911026115
 42
0.0
 10
100.5052595625577
 20
134.6593249512919
 42
0.0
 10
99.39480896854115
 20
134.7980708471635
 42
0.0
 10
99.39480896854115
 20
-65.2019291528365
 42
0.0
 10
100.5052595625577
 20
-65.34067504870899
 42
0.0
 10
101.3051642063412
 20
-62.96197667390396
 42
0.0
 10
101.4909668215707
 20
-62.64018235785323
 42
0.0
 10
101.8119704887296
 20
-62.96197667389304
 42
0.0
 10
101.6494677635066
 20
-63.44521548416077
 42
0.0
 10
102.6745690129948
 20
-63.31697826527733
 42
0.0
 10
103.7292113372434
 20
-63.31697826527733
 42
0.0
 10
103.9214231583985
 20
-62.74533873162244
 42
0.0
 10
104.1064351240322
 20
-62.42433506259539
 42
0.0
 10
104.428229440776
 20
-62.74533873161335
 42
0.0
 10
104.2360176196209
 20
-63.31697826527733
 42
0.0
 10
106.3810495133995
 20
-63.31697826527733
 42
0.0
 10
106.5732613345182
 20
-62.7453387316097
 42
0.0
 10
106.7590639497295
 20
-62.42433506259539
 42
0.0
 10
107.0800676168958
 20
-62.7453387316097
 42
0.0
 10
106.8878557957443
 20
-63.31697826527733
 42
0.0
 10
109.0328876895266
 20
-63.31697826527733
 42
0.0
 10
109.2250995106417
 20
-62.74533873162699
 42
0.0
 10
109.4109021258566
 20
-62.42433506259629
 42
0.0
 10
109.7319057930155
 20
-62.74533873161153
 42
0.0
 10
109.5396939719005
 20
-63.31697826527733
 42
0.0
 10
111.3948089685375
 20
-63.31697826527733
 42
0.0
 10
111.3948089685375
 20
103.804152508392
 42
0.0
 10
106.4904595737327
 20
103.804152508392
 42
-0.4263640095865357
 10
105.2415257523473
 20
102.5025355557439
 42
-1.0
 10
105.2415257523473
 20
105.0025355557439
 42
-0.4021666184496856
 10
106.4904595737327
 20
103.804152508392
 42
0.0
 10
111.3948089685375
 20
103.804152508392
 42
0.0
 97
        0
 92
        7
 72
     0
 73
     1
 93
       27
 10
111.3948089685302
 20
-65.89593883296828
 10
111.0428025419798
 20
-66.50408610257244
 10
110.721798875061
 20
-66.18308243726523
 10
110.913879224355
 20
-65.61144290360306
 10
108.768188152849
 20
-65.61144290360306
 10
108.5759763317375
 20
-66.18308243726523
 10
108.390964365871
 20
-66.50408610257063
 10
108.0691700493673
 20
-66.18308243726886
 10
108.2613818704787
 20
-65.61144290360306
 10
106.1163499765364
 20
-65.61144290360306
 10
105.9241381553813
 20
-66.18308243725613
 10
105.7391261897439
 20
-66.50408610257153
 10
105.417331873233
 20
-66.18308243726341
 10
105.609543694348
 20
-65.61144290360306
 10
103.4645118004239
 20
-65.61144290360306
 10
103.2722999792724
 20
-66.1830824372434
 10
103.0864973640393
 20
-66.50408610256516
 10
102.765493696884
 20
-66.18308243726341
 10
102.946321279561
 20
-65.64529972227927
 10
100.9915251747308
 20
-65.4017574029919
 10
100.8489594872382
 20
-65.82570889741209
 10
100.6639475216154
 20
-66.14671256268474
 10
100.342153204868
 20
-65.82570889738753
 10
100.5052595625613
 20
-65.34067504870808
 10
99.3948089685448
 20
-65.2019291528365
 10
99.39480896854115
 20
-80.12510164396799
 10
111.3948089685375
 20
-80.12510164396799
 97
        0
 75
     0
 76
     1
 52
90.0
 41
1.0
 77
     0
 78
     1
 53
135.0
 43
-27080.56224696671
 44
-430.8777564945055
 45
-2.245064030267288
 46
-2.245064030267287
 79
     0
 47
0.7791078592540142
 98
        9
 10
105.281676377491
 20
207.1344104697558
 10
102.9429234183564
 20
232.0658784207692
 10
103.7225077380655
 20
259.3346505402581
 10
-31.14591485908636
 20
259.3346505402581
 10
-34.26429404881378
 20
240.6360682009392
 10
102.9429234183564
 20
147.143106840492
 10
103.7225077380655
 20
165.8417140117338
 10
106.8408450169092
 20
127.6654231116802
 10
107.6204293366256
 20
-71.78619633684201
  0
HATCH
  5
500A
330
1F
100
AcDbEntity
  8
CETRIS
100
AcDbHatch
 10
0.0
 20
0.0
 30
0.0
210
0.0
220
0.0
230
1.0
  2
ANSI31
 70
     0
 71
     0
 91
       10
 92
        7
 72
     0
 73
     1
 93
        4
 10
-23.6089989826421
 20
400.2761567621422
 10
-37.18209532833384
 20
400.2761567621422
 10
-37.18209532833748
 20
357.3369552290071
 10
-23.60899898264574
 20
357.3369552290071
 97
        0
 92
        7
 72
     0
 73
     1
 93
        4
 10
-23.60899898263846
 20
415.4269074594552
 10
-37.18209532833748
 20
415.4269074594552
 10
-37.18209532833384
 20
400.2761567621431
 10
-23.6089989826421
 20
400.2761567621431
 97
        0
 92
        7
 72
     1
 73
     1
 93
       21
 10
-23.60899898264574
 20
357.3369552290071
 42
0.0
 10
-37.18209532833748
 20
357.3369552290071
 42
0.0
 10
-37.18209532833748
 20
287.4738851630748
 42
0.0
 10
-35.9821685516024
 20
287.4738851630748
 42
0.0
 10
-35.64544491374795
 20
286.7585799769379
 42
0.0
 10
-34.7273614032772
 20
285.5214461680082
 42
0.0
 10
-33.51999322037841
 20
284.5633650980238
 42
0.0
 10
-32.10612601068237
 20
283.9503792488743
 42
0.0
 10
-30.58249805724949
 20
283.7234163579917
 42
0.0
 10
-25.62662025320128
 20
283.7234163579917
 42
0.0
 10
-25.4004886989303
 20
284.3959334564327
 42
0.0
 10
-25.18189738692194
 20
284.7735848273653
 42
0.0
 10
-24.80424601379377
 20
284.3959334564172
 42
0.0
 10
-25.03037756809385
 20
283.7234163579917
 42
0.0
 10
-23.60899898264574
 20
283.7234163579917
 42
0.0
 10
-23.60899898264574
 20
315.4409425204951
 42
0.0
 10
-28.30675912196125
 20
315.4409425204951
 42
-0.4142135623730951
 10
-29.55675912196125
 20
314.1909425204951
 42
-1.0
 10
-29.55675912196125
 20
316.6909425204952
 42
-0.4142135623730951
 10
-28.30675912196125
 20
315.4409425204951
 42
0.0
 10
-23.60899898264938
 20
315.4409425204951
 42
0.0
 97
        0
 92
        7
 72
     0
 73
     1
 93
       18
 10
-23.6089989826421
 20
280.3208621617462
 10
-23.63966591755775
 20
280.3515290968273
 10
-23.60899898264574
 20
280.4427952384915
 10
-23.6089989826421
 20
281.0240461952556
 10
-25.93803147303219
 20
281.0240461952556
 10
-26.16416302733592
 20
280.3515290968001
 10
-26.38182416338054
 20
279.9738777215173
 10
-26.76040571221779
 20
280.3515290968292
 10
-26.53427415796136
 20
281.0240461952556
 10
-30.58249805724949
 20
281.0240461952556
 10
-31.36942678036826
 20
280.9580037133349
 10
-32.85026664741849
 20
280.5301228490391
 10
-34.16925592571965
 20
279.7338923697173
 10
-35.23802791512821
 20
278.6232624693696
 10
-35.9821685516024
 20
277.2735773858069
 10
-37.18209532833748
 20
277.2735773858069
 10
-37.18209532833748
 20
270.2274936579954
 10
-23.60899898264574
 20
270.2274936579954
 97
        0
 92
        7
 72
     1
 73
     1
 93
       16
 10
111.3948089685302
 20
277.2735773858069
 42
0.0
 10
110.194882191806
 20
277.2735773858069
 42
0.0
 10
109.4507415553282
 20
278.6232624693578
 42
0.0
 10
108.3819695659233
 20
279.7338923697182
 42
0.0
 10
107.0629802876112
 20
280.5301228490373
 42
0.0
 10
105.5821404205683
 20
280.958003713334
 42
0.0
 10
104.7952116974386
 20
281.0240461952556
 42
0.0
 10
100.746987798165
 20
281.0240461952556
 42
0.0
 10
100.9731193524141
 20
280.3515290968283
 42
0.0
 10
100.5945378035805
 20
279.9738777215118
 42
0.0
 10
100.376876667525
 20
280.3515290968337
 42
0.0
 10
100.1507451132285
 20
281.0240461952556
 42
0.0
 10
99.39480896853751
 20
281.0240461952556
 42
0.0
 10
99.39480896853751
 20
271.9337506704226
 42
-0.2095127112716401
 10
99.79762490103281
 20
271.0146319861581
 42
0.0
 10
111.3948089685375
 20
271.0146319861581
 42
0.0
 97
        0
 92
        7
 72
     0
 73
     1
 93
       12
 10
111.3948089685338
 20
315.440942520496
 10
99.39480896854115
 20
315.440942520496
 10
99.3948089685448
 20
284.7732428519842
 10
99.61320233915216
 20
284.3959334564027
 10
99.83933389339767
 20
283.7234163579917
 10
104.7952116974495
 20
283.7234163579917
 10
106.3188396508787
 20
283.9503792488743
 10
107.7327068605711
 20
284.5633650980246
 10
108.9400750434772
 20
285.52144616801
 10
109.8581585539188
 20
286.7585799768979
 10
110.194882191806
 20
287.4738851630748
 10
111.3948089685338
 20
287.4738851630748
 97
        0
 92
        7
 72
     0
 73
     1
 93
        4
 10
111.3948089685338
 20
357.336955229008
 10
99.39480896854115
 20
357.336955229008
 10
99.39480896853751
 20
315.440942520496
 10
111.3948089685375
 20
315.440942520496
 97
        0
 92
        7
 72
     0
 73
     1
 93
       26
 10
111.3948089685375
 20
383.7972387067996
 10
109.5396939719005
 20
383.7972387067996
 10
109.7319057930228
 20
383.2255991731347
 10
109.4109021258675
 20
382.9045955041195
 10
109.2250995106271
 20
383.2255991731511
 10
109.032887689523
 20
383.7972387067996
 10
106.8878557957407
 20
383.7972387067996
 10
107.0800676168958
 20
383.2255991731338
 10
106.7590639497332
 20
382.9045955041259
 10
106.5732613345292
 20
383.2255991731229
 10
106.3810495134068
 20
383.7972387067996
 10
104.2360176196282
 20
383.7972387067996
 10
104.4282294407796
 20
383.2255991731338
 10
104.1064351240322
 20
382.9045955041195
 10
103.9214231583985
 20
383.2255991731538
 10
103.7292113372507
 20
383.7972387067996
 10
102.6745690130021
 20
383.7972387067996
 10
101.6494677635066
 20
383.925475925684
 10
101.8119704887296
 20
383.442237115419
 10
101.490966821578
 20
383.1204427993792
 10
101.3051642063448
 20
383.4422371154199
 10
101.1205275413751
 20
383.9912962292904
 10
99.52082008994445
 20
384.1912596615878
 10
99.39480896853751
 20
384.0655581491513
 10
99.39480896853751
 20
357.336955229008
 10
111.3948089685375
 20
357.336955229008
 97
        0
 92
        7
 72
     0
 73
     1
 93
       27
 10
111.3948089685375
 20
400.276156762144
 10
99.39480896853751
 20
400.276156762144
 10
99.39480896853751
 20
385.6821895943588
 10
100.505259562554
 20
385.8209354902303
 10
100.3421532048753
 20
386.3059693389025
 10
100.6639475216081
 20
386.6269730042107
 10
100.8489594872455
 20
386.305969338918
 10
100.9915251747308
 20
385.8820178445124
 10
102.9463212795574
 20
386.1255601638016
 10
102.765493696884
 20
386.6633428787857
 10
103.0864973640466
 20
386.9843465440938
 10
103.2722999792761
 20
386.6633428787766
 10
103.4645118004275
 20
386.0917033451253
 10
105.6095436943517
 20
386.0917033451253
 10
105.417331873233
 20
386.6633428787857
 10
105.7391261897475
 20
386.9843465440911
 10
105.9241381553777
 20
386.6633428787821
 10
106.1163499765255
 20
386.0917033451253
 10
108.2613818704787
 20
386.0917033451253
 10
108.0691700493637
 20
386.6633428787902
 10
108.3909643658637
 20
386.9843465440938
 10
108.5759763317339
 20
386.6633428788011
 10
108.768188152849
 20
386.0917033451253
 10
110.913879224355
 20
386.0917033451253
 10
110.7217988750646
 20
386.6633428787875
 10
111.0428025419835
 20
386.9843465440938
 10
111.3948089685375
 20
386.3761992744869
 97
        0
 92
        7
 72
     0
 73
     1
 93
        4
 10
111.3948089685338
 20
415.4269074594552
 10
99.3948089685448
 20
415.4269074594552
 10
99.39480896854844
 20
400.276156762144
 10
111.3948089685338
 20
400.276156762144
 97
        0
 75
     0
 76
     1
 52
0.0
 41
1.0
 77
     0
 78
     1
 53
45.0
 43
-27080.56224696671
 44
-430.8777564945055
 45
-2.245064030267287
 46
2.245064030267288
 79
     0
 47
0.7791078592540142
 98
       10
 10
-28.80716189995178
 20
373.0843970190101
 10
-29.58674621966088
 20
406.586029918278
 10
-32.7051254093883
 20
337.2454351193512
 10
-28.80716189995178
 20
276.4750301005981
 10
104.5020920577746
 20
275.6959038791858
 10
104.5020920577746
 20
306.0811312204817
 10
106.0612606972001
 20
324.7797135598041
 10
106.0612606972001
 20
365.2933334602524
 10
107.6204293366256
 20
394.1203083587272
 10
106.0612606972001
 20
403.4695995283903
  0
HATCH
  5
500B
330
1F
100
AcDbEntity
  8
STAVBA OBRYS
100
AcDbHatch
 10
0.0
 20
0.0
 30
0.0
210
0.0
220
0.0
230
1.0
  2
SOLID
 70
     1
 71
     0
 91
        3
 92
        7
 72
     0
 73
     1
 93
       24
 10
81.12168529942323
 20
273.6059752658396
 10
88.39422922144263
 20
276.7329592203653
 10
90.71394909522974
 20
281.0240461952556
 10
92.48329204481455
 20
281.0240461952556
 10
92.70942359907099
 20
280.3515290968255
 10
92.92801491109026
 20
279.9738777215182
 10
93.30566628422571
 20
280.351529096831
 10
93.07953472997292
 20
281.0240461952556
 10
95.60325633678553
 20
281.0240461952556
 10
95.82923321830207
 20
280.3515290968364
 10
96.04782453033227
 20
279.9738777215191
 10
96.39480896855571
 20
280.3208621617425
 10
96.39480896855207
 20
255.5829562756865
 10
96.04782453033227
 20
255.929940715919
 10
95.82923321830207
 20
255.5522893405898
 10
95.60325633678553
 20
254.8797722421798
 10
93.07953472996201
 20
254.8797722421798
 10
93.30566628422571
 20
255.5522893406053
 10
92.92801491109026
 20
255.9299407159199
 10
92.70942359907463
 20
255.5522893406171
 10
92.48329204481455
 20
254.8797722421798
 10
90.71394909523702
 20
254.8797722421798
 10
88.39422922144263
 20
259.1708592170692
 10
81.12168529942323
 20
262.2978431715958
 97
        0
 92
        7
 72
     0
 73
     1
 93
        8
 10
96.39480896854843
 20
291.5326701390379
 10
96.39480896854843
 20
283.7234163579917
 10
95.29246594719484
 20
283.7234163579917
 10
95.066489065631
 20
284.3959334563917
 10
94.84789775359354
 20
284.7735848273717
 10
94.47024638074186
 20
284.3959334564209
 10
94.69622326226568
 20
283.7234163579917
 10
92.17320234501789
 20
283.7234163579917
 97
        0
 92
        7
 72
     0
 73
     1
 93
        8
 10
92.17320234501427
 20
252.1804020794437
 10
94.69622326226931
 20
252.1804020794437
 10
94.47024638073822
 20
251.5078849810163
 10
94.84789775358626
 20
251.1302336100691
 10
95.06648906562009
 20
251.5078849810155
 10
95.29246594718392
 20
252.1804020794437
 10
96.39480896855571
 20
252.1804020794437
 10
96.39480896855936
 20
244.3711482983947
 97
        0
 75
     0
 76
     1
 47
0.1925082756440346
 98
        3
 10
91.39362341661877
 20
269.5685539138824
 10
94.66828828605617
 20
285.9317689742377
 10
94.86091070062071
 20
250.5102315959295
  0
HATCH
  5
500C
330
1F
100
AcDbEntity
  8
STAVBA OBRYS
100
AcDbHatch
 10
0.0
 20
0.0
 30
0.0
210
0.0
220
0.0
230
1.0
  2
SOLID
 70
     1
 71
     0
 91
        3
 92
        7
 72
     0
 73
     1
 93
       24
 10
-23.60899898264938
 20
255.5829562756874
 10
-23.2620145444223
 20
255.929940715919
 10
-23.04342323238847
 20
255.5522893405989
 10
-22.81744635086829
 20
254.8797722421798
 10
-20.29372474405931
 20
254.8797722421798
 10
-20.5198562983121
 20
255.552289340608
 10
-20.14220492518393
 20
255.929940715919
 10
-19.92361361316102
 20
255.5522893406153
 10
-19.69748205890823
 20
254.8797722421798
 10
-17.92813910931977
 20
254.8797722421798
 10
-15.60841923553266
 20
259.1708592170701
 10
-8.33587531351327
 20
262.2978431715949
 10
-8.33587531351327
 20
273.6059752658396
 10
-15.60841923552902
 20
276.7329592203635
 10
-17.92813910932705
 20
281.0240461952556
 10
-19.69748205890459
 20
281.0240461952556
 10
-19.92361361316102
 20
280.3515290968173
 10
-20.14220492518393
 20
279.9738777215164
 10
-20.51985629830846
 20
280.3515290968292
 10
-20.29372474405568
 20
281.0240461952556
 10
-22.81744635087556
 20
281.0240461952556
 10
-23.04342323239211
 20
280.3515290968364
 10
-23.2620145444223
 20
279.9738777215191
 10
-23.60899898264938
 20
280.3208621617462
 97
        0
 92
        7
 72
     0
 73
     1
 93
        8
 10
-23.60899898264938
 20
291.5326701390434
 10
-23.60899898264938
 20
283.7234163579917
 10
-22.50665596128123
 20
283.7234163579917
 10
-22.28067907971012
 20
284.3959334564136
 10
-22.06208776768721
 20
284.7735848273671
 10
-21.68443639483189
 20
284.3959334564199
 10
-21.91041327635935
 20
283.7234163579917
 10
-19.38739235910793
 20
283.7234163579917
 97
        0
 92
        7
 72
     0
 73
     1
 93
        8
 10
-22.06208776768357
 20
251.1302336100764
 10
-22.28067907970648
 20
251.5078849810346
 10
-22.5066559612776
 20
252.1804020794437
 10
-23.60899898264574
 20
252.1804020794437
 10
-23.60899898264938
 20
244.3711482983892
 10
-19.38739235910793
 20
252.1804020794437
 10
-21.91041327635571
 20
252.1804020794437
 10
-21.68443639482825
 20
251.5078849810136
 97
        0
 75
     0
 76
     1
 47
0.1925082756440346
 98
        3
 10
-18.6078134307088
 20
269.5685539138824
 10
-21.8824783001462
 20
285.9317689742377
 10
-22.07510071471074
 20
250.5102315959295
  0
LINE
  5
500D
330
1F
100
AcDbEntity
  8
STAVBA OBRYS
100
AcDbLine
 10
96.39480896854843
 20
291.5326701390398
 30
0.0
 11
88.39422922143535
 21
276.7329592203635
 31
0.0
  0
LINE
  5
500E
330
1F
100
AcDbEntity
  8
CETRIS
100
AcDbLine
 10
111.3948089685375
 20
265.2274936579954
 30
0.0
 11
97.82171262284215
 21
265.2274936579954
 31
0.0
  0
LINE
  5
500F
330
1F
100
AcDbEntity
  8
CETRIS
100
AcDbLine
 10
111.3948089685375
 20
270.2274936579954
 30
0.0
 11
97.82171262284215
 21
270.2274936579954
 31
0.0
  0
LINE
  5
5010
330
1F
100
AcDbEntity
  8
SPOJOVACÍ
  6
Continuous
100
AcDbLine
 10
107.732706860582
 20
284.5633650980228
 30
0.0
 11
108.9400750434808
 21
285.5214461680073
 31
0.0
  0
LINE
  5
5011
330
1F
100
AcDbEntity
  8
SPOJOVACÍ
  6
Continuous
100
AcDbLine
 10
106.3188396508787
 20
283.9503792488752
 30
0.0
 11
107.732706860582
 21
284.5633650980228
 31
0.0
  0
LINE
  5
5012
330
1F
100
AcDbEntity
  8
SPOJOVACÍ
  6
Continuous
100
AcDbLine
 10
104.7952116974495
 20
283.7234163579917
 30
0.0
 11
106.3188396508787
 21
283.9503792488752
 31
0.0
  0
LINE
  5
5013
330
1F
100
AcDbEntity
  8
SPOJOVACÍ
  6
Continuous
100
AcDbLine
 10
111.3948089685375
 20
287.4738851630748
 30
0.0
 11
110.194882191806
 21
287.4738851630748
 31
0.0
  0
LINE
  5
5014
330
1F
100
AcDbEntity
  8
SPOJOVACÍ
  6
Continuous
100
AcDbLine
 10
111.3948089685375
 20
277.2735773858069
 30
0.0
 11
111.3948089685375
 21
287.4738851630748
 31
0.0
  0
LINE
  5
5015
330
1F
100
AcDbEntity
  8
SPOJOVACÍ
  6
Continuous
100
AcDbLine
 10
111.3948089685375
 20
277.2735773858069
 30
0.0
 11
110.194882191806
 21
277.2735773858069
 31
0.0
  0
LINE
  5
5016
330
1F
100
AcDbEntity
  8
SPOJOVACÍ
  6
Continuous
100
AcDbLine
 10
110.194882191806
 20
277.2735773858069
 30
0.0
 11
110.194882191806
 21
287.4738851630748
 31
0.0
  0
LINE
  5
5017
330
1F
100
AcDbEntity
  8
SPOJOVACÍ
  6
Continuous
100
AcDbLine
 10
109.8581585539225
 20
286.758579976907
 30
0.0
 11
110.194882191806
 21
287.4738851630748
 31
0.0
  0
LINE
  5
5018
330
1F
100
AcDbEntity
  8
SPOJOVACÍ
  6
Continuous
100
AcDbLine
 10
108.9400750434808
 20
285.5214461680073
 30
0.0
 11
109.8581585539225
 21
286.758579976907
 31
0.0
  0
LINE
  5
5019
330
1F
100
AcDbEntity
  8
SPOJOVACÍ
  6
Continuous
100
AcDbLine
 10
105.5821404205719
 20
280.958003713334
 30
0.0
 11
104.7952116974495
 21
281.0240461952556
 31
0.0
  0
LINE
  5
501A
330
1F
100
AcDbEntity
  8
SPOJOVACÍ
  6
Continuous
100
AcDbLine
 10
107.0629802876221
 20
280.5301228490346
 30
0.0
 11
105.5821404205719
 21
280.958003713334
 31
0.0
  0
LINE
  5
501B
330
1F
100
AcDbEntity
  8
SPOJOVACÍ
  6
Continuous
100
AcDbLine
 10
108.3819695659197
 20
279.7338923697164
 30
0.0
 11
107.0629802876221
 21
280.5301228490346
 31
0.0
  0
LINE
  5
501C
330
1F
100
AcDbEntity
  8
SPOJOVACÍ
  6
Continuous
100
AcDbLine
 10
109.4507415553318
 20
278.6232624693578
 30
0.0
 11
108.3819695659197
 21
279.7338923697164
 31
0.0
  0
LINE
  5
501D
330
1F
100
AcDbEntity
  8
SPOJOVACÍ
  6
Continuous
100
AcDbLine
 10
110.194882191806
 20
277.2735773858069
 30
0.0
 11
109.4507415553318
 21
278.6232624693578
 31
0.0
  0
LINE
  5
501E
330
1F
100
AcDbEntity
  8
SPOJOVACÍ
  6
Continuous
100
AcDbLine
 10
104.7952116974495
 20
283.7234163579917
 30
0.0
 11
99.85225751852091
 21
283.7234163579917
 31
0.0
  0
LINE
  5
501F
330
1F
100
AcDbEntity
  8
SPOJOVACÍ
  6
Continuous
100
AcDbLine
 10
104.7952116974495
 20
281.0240461952556
 30
0.0
 11
100.7573185677695
 21
281.0240461952556
 31
0.0
  0
LINE
  5
5020
330
1F
100
AcDbEntity
  8
SPOJOVACÍ
  6
Continuous
100
AcDbLine
 10
100.162006058593
 20
281.0240461952556
 30
0.0
 11
97.64309000356412
 21
281.0240461952556
 31
0.0
  0
LINE
  5
5021
330
1F
100
AcDbEntity
  8
SPOJOVACÍ
  6
Continuous
100
AcDbLine
 10
97.03940591224933
 20
281.0240461952556
 30
0.0
 11
94.51862950554028
 21
281.0240461952556
 31
0.0
  0
LINE
  5
5022
330
1F
100
AcDbEntity
  8
SPOJOVACÍ
  6
Continuous
100
AcDbLine
 10
93.92424717206564
 20
281.0240461952556
 30
0.0
 11
91.39602935919652
 21
281.0240461952556
 31
0.0
  0
LINE
  5
5023
330
1F
100
AcDbEntity
  8
SPOJOVACÍ
  6
Continuous
100
AcDbLine
 10
99.24857342720612
 20
283.7234163579917
 30
0.0
 11
96.72965737217715
 21
283.7234163579917
 31
0.0
  0
LINE
  5
5024
330
1F
100
AcDbEntity
  8
SPOJOVACÍ
  6
Continuous
100
AcDbLine
 10
96.13341468702243
 20
283.7234163579917
 30
0.0
 11
93.60519687415331
 21
283.7234163579917
 31
0.0
  0
LINE
  5
5025
330
1F
100
AcDbEntity
  8
SPOJOVACÍ
  6
Continuous
100
AcDbLine
 10
93.01081454067867
 20
283.7234163579917
 30
0.0
 11
90.49003813396963
 21
283.7234163579917
 31
0.0
  0
LINE
  5
5026
330
1F
100
AcDbEntity
  8
SPOJOVACÍ
  6
Continuous
100
AcDbLine
 10
90.79141509191073
 20
281.0240461952556
 30
0.0
 11
88.27342921258354
 21
281.0240461952556
 31
0.0
  0
LINE
  5
5027
330
1F
100
AcDbEntity
  8
SPOJOVACÍ
  6
Continuous
100
AcDbLine
 10
87.67718652742884
 20
281.0240461952556
 30
0.0
 11
86.42982078554018
 21
281.0240461952556
 31
0.0
  0
LINE
  5
5028
330
1F
100
AcDbEntity
  8
SPOJOVACÍ
  6
Continuous
100
AcDbLine
 10
89.88914457003671
 20
283.7234163579917
 30
0.0
 11
87.37022851500773
 21
283.7234163579917
 31
0.0
  0
LINE
  5
5029
330
1F
100
AcDbEntity
  8
SPOJOVACÍ
  6
Continuous
100
AcDbLine
 10
86.76654442342373
 20
283.7234163579917
 30
0.0
 11
86.42982078554018
 21
283.7234163579917
 31
0.0
  0
LINE
  5
502A
330
1F
100
AcDbEntity
  8
SPOJOVACÍ
  6
Continuous
100
AcDbLine
 10
86.42982078554018
 20
281.0240461952556
 30
0.0
 11
85.23268453618333
 21
281.1738044979786
 31
0.0
  0
LINE
  5
502B
330
1F
100
AcDbEntity
  8
SPOJOVACÍ
  6
Continuous
100
AcDbLine
 10
75.62954962058689
 20
282.3737312744409
 30
0.0
 11
78.46565562185538
 21
282.7281282555698
 31
0.0
  0
LINE
  5
502C
330
1F
100
AcDbEntity
  8
SPOJOVACÍ
  6
Continuous
100
AcDbLine
 10
84.61225728032991
 20
281.2510090905046
 30
0.0
 11
82.29053849426533
 21
281.5412239400241
 31
0.0
  0
LINE
  5
502D
330
1F
100
AcDbEntity
  8
SPOJOVACÍ
  6
Continuous
100
AcDbLine
 10
81.65987930460074
 20
281.6202888828623
 30
0.0
 11
79.33909069424522
 21
281.9105037280163
 31
0.0
  0
LINE
  5
502E
330
1F
100
AcDbEntity
  8
SPOJOVACÍ
  6
Continuous
100
AcDbLine
 10
78.71866343839179
 20
281.9877083205422
 30
0.0
 11
75.62954962058689
 21
282.3737312744409
 31
0.0
  0
LINE
  5
502F
330
1F
100
AcDbEntity
  8
SPOJOVACÍ
  6
Continuous
100
AcDbLine
 10
79.03492320892223
 20
282.7997517927936
 30
0.0
 11
81.17990859390671
 21
283.0676424211045
 31
0.0
  0
LINE
  5
5030
330
1F
100
AcDbEntity
  8
SPOJOVACÍ
  6
Continuous
100
AcDbLine
 10
81.75196670835545
 20
283.1392659539627
 30
0.0
 11
83.88858051120882
 21
283.4062264093002
 31
0.0
  0
LINE
  5
5031
330
1F
100
AcDbEntity
  8
SPOJOVACÍ
  6
Continuous
100
AcDbLine
 10
84.45877827425396
 20
283.477849946524
 30
0.0
 11
86.42982078554018
 21
283.7234163579917
 31
0.0
  0
LINE
  5
5032
330
1F
100
AcDbEntity
  8
SPOJOVACÍ
  6
Continuous
100
AcDbLine
 10
100.5945378035842
 20
279.9738777215164
 30
0.0
 11
99.39461102712199
 21
284.7735848273653
 31
0.0
  0
LINE
  5
5033
330
1F
100
AcDbEntity
  8
SPOJOVACÍ
  6
Continuous
100
AcDbLine
 10
100.5945378035842
 20
279.9738777215164
 30
0.0
 11
100.3768766675359
 21
280.3515290968273
 31
0.0
  0
LINE
  5
5034
330
1F
100
AcDbEntity
  8
SPOJOVACÍ
  6
Continuous
100
AcDbLine
 10
100.5945378035842
 20
279.9738777215164
 30
0.0
 11
100.9731193524141
 21
280.3515290968273
 31
0.0
  0
LINE
  5
5035
330
1F
100
AcDbEntity
  8
SPOJOVACÍ
  6
Continuous
100
AcDbLine
 10
99.39461102712199
 20
284.7735848273653
 30
0.0
 11
99.01695965399381
 21
284.3959334564199
 31
0.0
  0
LINE
  5
5036
330
1F
100
AcDbEntity
  8
SPOJOVACÍ
  6
Continuous
100
AcDbLine
 10
99.39461102712199
 20
284.7735848273653
 30
0.0
 11
99.61320233914854
 21
284.3959334564199
 31
0.0
  0
LINE
  5
5037
330
1F
100
AcDbEntity
  8
SPOJOVACÍ
  6
Continuous
100
AcDbLine
 10
100.3768766675359
 20
280.3515290968273
 30
0.0
 11
99.01695965399381
 21
284.3959334564199
 31
0.0
  0
LINE
  5
5038
330
1F
100
AcDbEntity
  8
SPOJOVACÍ
  6
Continuous
100
AcDbLine
 10
100.9731193524141
 20
280.3515290968273
 30
0.0
 11
99.61320233914854
 21
284.3959334564199
 31
0.0
  0
LINE
  5
5039
330
1F
100
AcDbEntity
  8
SPOJOVACÍ
  6
Continuous
100
AcDbLine
 10
97.47472818462235
 20
279.9738777215164
 30
0.0
 11
96.27480140788362
 21
284.7735848273653
 31
0.0
  0
LINE
  5
503A
330
1F
100
AcDbEntity
  8
SPOJOVACÍ
  6
Continuous
100
AcDbLine
 10
97.47472818462235
 20
279.9738777215164
 30
0.0
 11
97.25613687259579
 21
280.3515290968273
 31
0.0
  0
LINE
  5
503B
330
1F
100
AcDbEntity
  8
SPOJOVACÍ
  6
Continuous
100
AcDbLine
 10
97.47472818462235
 20
279.9738777215164
 30
0.0
 11
97.85237955775052
 21
280.3515290968273
 31
0.0
  0
LINE
  5
503C
330
1F
100
AcDbEntity
  8
SPOJOVACÍ
  6
Continuous
100
AcDbLine
 10
96.27480140788362
 20
284.7735848273653
 30
0.0
 11
95.89715003503192
 21
284.3959334564199
 31
0.0
  0
LINE
  5
503D
330
1F
100
AcDbEntity
  8
SPOJOVACÍ
  6
Continuous
100
AcDbLine
 10
96.27480140788362
 20
284.7735848273653
 30
0.0
 11
96.49339271991017
 21
284.3959334564199
 31
0.0
  0
LINE
  5
503E
330
1F
100
AcDbEntity
  8
SPOJOVACÍ
  6
Continuous
100
AcDbLine
 10
97.25613687259579
 20
280.3515290968273
 30
0.0
 11
95.89715003503192
 21
284.3959334564199
 31
0.0
  0
LINE
  5
503F
330
1F
100
AcDbEntity
  8
SPOJOVACÍ
  6
Continuous
100
AcDbLine
 10
97.85237955775052
 20
280.3515290968273
 30
0.0
 11
96.49339271991017
 21
284.3959334564199
 31
0.0
  0
LINE
  5
5040
330
1F
100
AcDbEntity
  8
SPOJOVACÍ
  6
Continuous
100
AcDbLine
 10
85.03734761916097
 20
280.2278157159374
 30
0.0
 11
84.81875630713444
 21
280.6063972642217
 31
0.0
  0
LINE
  5
5041
330
1F
100
AcDbEntity
  8
SPOJOVACÍ
  6
Continuous
100
AcDbLine
 10
85.03734761916097
 20
280.2278157159374
 30
0.0
 11
85.41499899228915
 21
280.6063972642217
 31
0.0
  0
LINE
  5
5042
330
1F
100
AcDbEntity
  8
SPOJOVACÍ
  6
Continuous
100
AcDbLine
 10
84.06438373685636
 20
284.3531453686803
 30
0.0
 11
83.68580218774992
 21
283.9754939977349
 31
0.0
  0
LINE
  5
5043
330
1F
100
AcDbEntity
  8
SPOJOVACÍ
  6
Continuous
100
AcDbLine
 10
84.06438373685636
 20
284.3531453686803
 30
0.0
 11
84.28204487290463
 21
283.9754939977349
 31
0.0
  0
LINE
  5
5044
330
1F
100
AcDbEntity
  8
SPOJOVACÍ
  6
Continuous
100
AcDbLine
 10
84.81875630713444
 20
280.6063972642217
 30
0.0
 11
83.68580218774992
 21
283.9754939977349
 31
0.0
  0
LINE
  5
5045
330
1F
100
AcDbEntity
  8
SPOJOVACÍ
  6
Continuous
100
AcDbLine
 10
85.41499899228915
 20
280.6063972642217
 30
0.0
 11
84.28204487290463
 21
283.9754939977349
 31
0.0
  0
LINE
  5
5046
330
1F
100
AcDbEntity
  8
SPOJOVACÍ
  6
Continuous
100
AcDbLine
 10
85.03734761916097
 20
280.2278157159374
 30
0.0
 11
84.06438373685636
 21
284.3531453686803
 31
0.0
  0
LINE
  5
5047
330
1F
100
AcDbEntity
  8
SPOJOVACÍ
  6
Continuous
100
AcDbLine
 10
82.02264786486308
 20
280.7924324220433
 30
0.0
 11
81.80498672881482
 21
281.1700837973542
 31
0.0
  0
LINE
  5
5048
330
1F
100
AcDbEntity
  8
SPOJOVACÍ
  6
Continuous
100
AcDbLine
 10
82.02264786486308
 20
280.7924324220433
 30
0.0
 11
82.40122941396952
 21
281.1700837973542
 31
0.0
  0
LINE
  5
5049
330
1F
100
AcDbEntity
  8
SPOJOVACÍ
  6
Continuous
100
AcDbLine
 10
81.38919814809311
 20
283.9085213384744
 30
0.0
 11
81.01061659926314
 21
283.5308699675291
 31
0.0
  0
LINE
  5
504A
330
1F
100
AcDbEntity
  8
SPOJOVACÍ
  6
Continuous
100
AcDbLine
 10
81.38919814809311
 20
283.9085213384744
 30
0.0
 11
81.60685928414137
 21
283.5308699675291
 31
0.0
  0
LINE
  5
504B
330
1F
100
AcDbEntity
  8
SPOJOVACÍ
  6
Continuous
100
AcDbLine
 10
81.80498672881482
 20
281.1700837973542
 30
0.0
 11
81.01061659926314
 21
283.5308699675291
 31
0.0
  0
LINE
  5
504C
330
1F
100
AcDbEntity
  8
SPOJOVACÍ
  6
Continuous
100
AcDbLine
 10
82.40122941396952
 20
281.1700837973542
 30
0.0
 11
81.60685928414137
 21
283.5308699675291
 31
0.0
  0
LINE
  5
504D
330
1F
100
AcDbEntity
  8
SPOJOVACÍ
  6
Continuous
100
AcDbLine
 10
82.02264786486308
 20
280.7924324220433
 30
0.0
 11
81.38919814809311
 21
283.9085213384744
 31
0.0
  0
LINE
  5
504E
330
1F
100
AcDbEntity
  8
SPOJOVACÍ
  6
Continuous
100
AcDbLine
 10
79.00887828654345
 20
281.3570491325147
 30
0.0
 11
78.79028697452418
 21
281.7347005034601
 31
0.0
  0
LINE
  5
504F
330
1F
100
AcDbEntity
  8
SPOJOVACÍ
  6
Continuous
100
AcDbLine
 10
79.00887828654345
 20
281.3570491325147
 30
0.0
 11
79.38652965967162
 21
281.7347005034601
 31
0.0
  0
LINE
  5
5050
330
1F
100
AcDbEntity
  8
SPOJOVACÍ
  6
Continuous
100
AcDbLine
 10
78.69819957076948
 20
283.5113362739715
 30
0.0
 11
78.3196180219395
 21
283.1336849030261
 31
0.0
  0
LINE
  5
5051
330
1F
100
AcDbEntity
  8
SPOJOVACÍ
  6
Continuous
100
AcDbLine
 10
78.69819957076948
 20
283.5113362739715
 30
0.0
 11
78.91586070708695
 21
283.1336849030261
 31
0.0
  0
LINE
  5
5052
330
1F
100
AcDbEntity
  8
SPOJOVACÍ
  6
Continuous
100
AcDbLine
 10
78.79028697452418
 20
281.7347005034601
 30
0.0
 11
78.3196180219395
 21
283.1336849030261
 31
0.0
  0
LINE
  5
5053
330
1F
100
AcDbEntity
  8
SPOJOVACÍ
  6
Continuous
100
AcDbLine
 10
79.38652965967162
 20
281.7347005034601
 30
0.0
 11
78.91586070708695
 21
283.1336849030261
 31
0.0
  0
LINE
  5
5054
330
1F
100
AcDbEntity
  8
SPOJOVACÍ
  6
Continuous
100
AcDbLine
 10
79.00887828654345
 20
281.3570491325147
 30
0.0
 11
78.69819957076948
 21
283.5113362739715
 31
0.0
  0
LINE
  5
5055
330
1F
100
AcDbEntity
  8
SPOJOVACÍ
  6
Continuous
100
AcDbLine
 10
94.35491856538396
 20
279.9738777215164
 30
0.0
 11
93.15499178892173
 21
284.7735848273653
 31
0.0
  0
LINE
  5
5056
330
1F
100
AcDbEntity
  8
SPOJOVACÍ
  6
Continuous
100
AcDbLine
 10
94.35491856538396
 20
279.9738777215164
 30
0.0
 11
94.13632725335743
 21
280.3515290968273
 31
0.0
  0
LINE
  5
5057
330
1F
100
AcDbEntity
  8
SPOJOVACÍ
  6
Continuous
100
AcDbLine
 10
94.35491856538396
 20
279.9738777215164
 30
0.0
 11
94.73256993851213
 21
280.3515290968273
 31
0.0
  0
LINE
  5
5058
330
1F
100
AcDbEntity
  8
SPOJOVACÍ
  6
Continuous
100
AcDbLine
 10
93.15499178892173
 20
284.7735848273653
 30
0.0
 11
92.77641024009176
 21
284.3959334564199
 31
0.0
  0
LINE
  5
5059
330
1F
100
AcDbEntity
  8
SPOJOVACÍ
  6
Continuous
100
AcDbLine
 10
93.15499178892173
 20
284.7735848273653
 30
0.0
 11
93.37265292523921
 21
284.3959334564199
 31
0.0
  0
LINE
  5
505A
330
1F
100
AcDbEntity
  8
SPOJOVACÍ
  6
Continuous
100
AcDbLine
 10
94.13632725335743
 20
280.3515290968273
 30
0.0
 11
92.77641024009176
 21
284.3959334564199
 31
0.0
  0
LINE
  5
505B
330
1F
100
AcDbEntity
  8
SPOJOVACÍ
  6
Continuous
100
AcDbLine
 10
94.73256993851213
 20
280.3515290968273
 30
0.0
 11
93.37265292523921
 21
284.3959334564199
 31
0.0
  0
LINE
  5
505C
330
1F
100
AcDbEntity
  8
SPOJOVACÍ
  6
Continuous
100
AcDbLine
 10
91.23510894641482
 20
279.9738777215164
 30
0.0
 11
90.03518216995258
 21
284.7735848273653
 31
0.0
  0
LINE
  5
505D
330
1F
100
AcDbEntity
  8
SPOJOVACÍ
  6
Continuous
100
AcDbLine
 10
91.23510894641482
 20
279.9738777215164
 30
0.0
 11
91.01651763439553
 21
280.3515290968273
 31
0.0
  0
LINE
  5
505E
330
1F
100
AcDbEntity
  8
SPOJOVACÍ
  6
Continuous
100
AcDbLine
 10
91.23510894641482
 20
279.9738777215164
 30
0.0
 11
91.61276031954299
 21
280.3515290968273
 31
0.0
  0
LINE
  5
505F
330
1F
100
AcDbEntity
  8
SPOJOVACÍ
  6
Continuous
100
AcDbLine
 10
90.03518216995258
 20
284.7735848273653
 30
0.0
 11
89.65660062112261
 21
284.3959334564199
 31
0.0
  0
LINE
  5
5060
330
1F
100
AcDbEntity
  8
SPOJOVACÍ
  6
Continuous
100
AcDbLine
 10
90.03518216995258
 20
284.7735848273653
 30
0.0
 11
90.25284330600085
 21
284.3959334564199
 31
0.0
  0
LINE
  5
5061
330
1F
100
AcDbEntity
  8
SPOJOVACÍ
  6
Continuous
100
AcDbLine
 10
91.01651763439553
 20
280.3515290968273
 30
0.0
 11
89.65660062112261
 21
284.3959334564199
 31
0.0
  0
LINE
  5
5062
330
1F
100
AcDbEntity
  8
SPOJOVACÍ
  6
Continuous
100
AcDbLine
 10
91.61276031954299
 20
280.3515290968273
 30
0.0
 11
90.25284330600085
 21
284.3959334564199
 31
0.0
  0
LINE
  5
5063
330
1F
100
AcDbEntity
  8
SPOJOVACÍ
  6
Continuous
100
AcDbLine
 10
88.11436915147465
 20
279.9738777215164
 30
0.0
 11
86.91444237501242
 21
284.7735848273653
 31
0.0
  0
LINE
  5
5064
330
1F
100
AcDbEntity
  8
SPOJOVACÍ
  6
Continuous
100
AcDbLine
 10
88.11436915147465
 20
279.9738777215164
 30
0.0
 11
87.89670801542639
 21
280.3515290968273
 31
0.0
  0
LINE
  5
5065
330
1F
100
AcDbEntity
  8
SPOJOVACÍ
  6
Continuous
100
AcDbLine
 10
88.11436915147465
 20
279.9738777215164
 30
0.0
 11
88.4929507005811
 21
280.3515290968273
 31
0.0
  0
LINE
  5
5066
330
1F
100
AcDbEntity
  8
SPOJOVACÍ
  6
Continuous
100
AcDbLine
 10
86.91444237501242
 20
284.7735848273653
 30
0.0
 11
86.53679100188425
 21
284.3959334564199
 31
0.0
  0
LINE
  5
5067
330
1F
100
AcDbEntity
  8
SPOJOVACÍ
  6
Continuous
100
AcDbLine
 10
86.91444237501242
 20
284.7735848273653
 30
0.0
 11
87.13303368703895
 21
284.3959334564199
 31
0.0
  0
LINE
  5
5068
330
1F
100
AcDbEntity
  8
SPOJOVACÍ
  6
Continuous
100
AcDbLine
 10
87.89670801542639
 20
280.3515290968273
 30
0.0
 11
86.53679100188425
 21
284.3959334564199
 31
0.0
  0
LINE
  5
5069
330
1F
100
AcDbEntity
  8
SPOJOVACÍ
  6
Continuous
100
AcDbLine
 10
88.4929507005811
 20
280.3515290968273
 30
0.0
 11
87.13303368703895
 21
284.3959334564199
 31
0.0
  0
LINE
  5
506A
330
1F
100
AcDbEntity
  8
STAVBA OBRYS
100
AcDbLine
 10
88.39422922143535
 20
276.7329592203635
 30
0.0
 11
81.12168529941232
 21
273.6059752658396
 31
0.0
  0
LINE
  5
506B
330
1F
100
AcDbEntity
  8
STAVBA OBRYS
100
AcDbLine
 10
81.12168529941232
 20
273.6059752658396
 30
0.0
 11
81.12168529941232
 21
262.2978431715958
 31
0.0
  0
LINE
  5
506C
330
1F
100
AcDbEntity
  8
STAVBA OBRYS
100
AcDbLine
 10
96.39480896854843
 20
244.3711482983956
 30
0.0
 11
88.39422922143535
 21
259.1708592170719
 31
0.0
  0
LINE
  5
506D
330
1F
100
AcDbEntity
  8
STAVBA OBRYS
100
AcDbLine
 10
88.39422922143535
 20
259.1708592170719
 30
0.0
 11
81.12168529941232
 21
262.2978431715958
 31
0.0
  0
LINE
  5
506E
330
1F
100
AcDbEntity
  8
SPOJOVACÍ
  6
Continuous
100
AcDbLine
 10
94.73256993851213
 20
255.552289340608
 30
0.0
 11
93.37265292523921
 21
251.5078849810155
 31
0.0
  0
LINE
  5
506F
330
1F
100
AcDbEntity
  8
SPOJOVACÍ
  6
Continuous
100
AcDbLine
 10
94.13632725335743
 20
255.552289340608
 30
0.0
 11
92.77641024009176
 21
251.5078849810155
 31
0.0
  0
LINE
  5
5070
330
1F
100
AcDbEntity
  8
SPOJOVACÍ
  6
Continuous
100
AcDbLine
 10
93.15499178892173
 20
251.1302336100701
 30
0.0
 11
93.37265292523921
 21
251.5078849810155
 31
0.0
  0
LINE
  5
5071
330
1F
100
AcDbEntity
  8
SPOJOVACÍ
  6
Continuous
100
AcDbLine
 10
93.15499178892173
 20
251.1302336100701
 30
0.0
 11
92.77641024009176
 21
251.5078849810155
 31
0.0
  0
LINE
  5
5072
330
1F
100
AcDbEntity
  8
SPOJOVACÍ
  6
Continuous
100
AcDbLine
 10
94.35491856538396
 20
255.929940715919
 30
0.0
 11
94.73256993851213
 21
255.552289340608
 31
0.0
  0
LINE
  5
5073
330
1F
100
AcDbEntity
  8
SPOJOVACÍ
  6
Continuous
100
AcDbLine
 10
94.35491856538396
 20
255.929940715919
 30
0.0
 11
94.13632725335743
 21
255.552289340608
 31
0.0
  0
LINE
  5
5074
330
1F
100
AcDbEntity
  8
SPOJOVACÍ
  6
Continuous
100
AcDbLine
 10
94.35491856538396
 20
255.929940715919
 30
0.0
 11
93.15499178892173
 21
251.1302336100701
 31
0.0
  0
LINE
  5
5075
330
1F
100
AcDbEntity
  8
SPOJOVACÍ
  6
Continuous
100
AcDbLine
 10
97.85237955775052
 20
255.552289340608
 30
0.0
 11
96.49339271991017
 21
251.5078849810155
 31
0.0
  0
LINE
  5
5076
330
1F
100
AcDbEntity
  8
SPOJOVACÍ
  6
Continuous
100
AcDbLine
 10
97.25613687259579
 20
255.552289340608
 30
0.0
 11
95.89715003503192
 21
251.5078849810155
 31
0.0
  0
LINE
  5
5077
330
1F
100
AcDbEntity
  8
SPOJOVACÍ
  6
Continuous
100
AcDbLine
 10
96.27480140788362
 20
251.1302336100701
 30
0.0
 11
96.49339271991017
 21
251.5078849810155
 31
0.0
  0
LINE
  5
5078
330
1F
100
AcDbEntity
  8
SPOJOVACÍ
  6
Continuous
100
AcDbLine
 10
96.27480140788362
 20
251.1302336100701
 30
0.0
 11
95.89715003503192
 21
251.5078849810155
 31
0.0
  0
LINE
  5
5079
330
1F
100
AcDbEntity
  8
SPOJOVACÍ
  6
Continuous
100
AcDbLine
 10
97.47472818462235
 20
255.929940715919
 30
0.0
 11
97.85237955775052
 21
255.552289340608
 31
0.0
  0
LINE
  5
507A
330
1F
100
AcDbEntity
  8
SPOJOVACÍ
  6
Continuous
100
AcDbLine
 10
97.47472818462235
 20
255.929940715919
 30
0.0
 11
97.25613687259579
 21
255.552289340608
 31
0.0
  0
LINE
  5
507B
330
1F
100
AcDbEntity
  8
SPOJOVACÍ
  6
Continuous
100
AcDbLine
 10
97.47472818462235
 20
255.929940715919
 30
0.0
 11
96.27480140788362
 21
251.1302336100701
 31
0.0
  0
LINE
  5
507C
330
1F
100
AcDbEntity
  8
SPOJOVACÍ
  6
Continuous
100
AcDbLine
 10
100.9731193524141
 20
255.552289340608
 30
0.0
 11
99.61320233914854
 21
251.5078849810155
 31
0.0
  0
LINE
  5
507D
330
1F
100
AcDbEntity
  8
SPOJOVACÍ
  6
Continuous
100
AcDbLine
 10
100.3768766675359
 20
255.552289340608
 30
0.0
 11
99.01695965399381
 21
251.5078849810155
 31
0.0
  0
LINE
  5
507E
330
1F
100
AcDbEntity
  8
SPOJOVACÍ
  6
Continuous
100
AcDbLine
 10
99.39461102712199
 20
251.1302336100701
 30
0.0
 11
99.61320233914854
 21
251.5078849810155
 31
0.0
  0
LINE
  5
507F
330
1F
100
AcDbEntity
  8
SPOJOVACÍ
  6
Continuous
100
AcDbLine
 10
99.39461102712199
 20
251.1302336100701
 30
0.0
 11
99.01695965399381
 21
251.5078849810155
 31
0.0
  0
LINE
  5
5080
330
1F
100
AcDbEntity
  8
SPOJOVACÍ
  6
Continuous
100
AcDbLine
 10
100.5945378035842
 20
255.929940715919
 30
0.0
 11
100.9731193524141
 21
255.552289340608
 31
0.0
  0
LINE
  5
5081
330
1F
100
AcDbEntity
  8
SPOJOVACÍ
  6
Continuous
100
AcDbLine
 10
100.5945378035842
 20
255.929940715919
 30
0.0
 11
100.3768766675359
 21
255.552289340608
 31
0.0
  0
LINE
  5
5082
330
1F
100
AcDbEntity
  8
SPOJOVACÍ
  6
Continuous
100
AcDbLine
 10
100.5945378035842
 20
255.929940715919
 30
0.0
 11
99.39461102712199
 21
251.1302336100701
 31
0.0
  0
LINE
  5
5083
330
1F
100
AcDbEntity
  8
SPOJOVACÍ
  6
Continuous
100
AcDbLine
 10
96.13341468702243
 20
252.1804020794437
 30
0.0
 11
93.60519687415331
 21
252.1804020794437
 31
0.0
  0
LINE
  5
5084
330
1F
100
AcDbEntity
  8
SPOJOVACÍ
  6
Continuous
100
AcDbLine
 10
99.24857342720612
 20
252.1804020794437
 30
0.0
 11
96.72965737217715
 21
252.1804020794437
 31
0.0
  0
LINE
  5
5085
330
1F
100
AcDbEntity
  8
SPOJOVACÍ
  6
Continuous
100
AcDbLine
 10
97.03940591224933
 20
254.8797722421798
 30
0.0
 11
94.51862950554028
 21
254.8797722421798
 31
0.0
  0
LINE
  5
5086
330
1F
100
AcDbEntity
  8
SPOJOVACÍ
  6
Continuous
100
AcDbLine
 10
100.162006058593
 20
254.8797722421798
 30
0.0
 11
97.64309000356412
 21
254.8797722421798
 31
0.0
  0
LINE
  5
5087
330
1F
100
AcDbEntity
  8
SPOJOVACÍ
  6
Continuous
100
AcDbLine
 10
104.7952116974495
 20
254.8797722421798
 30
0.0
 11
100.7573185677695
 21
254.8797722421798
 31
0.0
  0
LINE
  5
5088
330
1F
100
AcDbEntity
  8
SPOJOVACÍ
  6
Continuous
100
AcDbLine
 10
104.7952116974495
 20
252.1804020794437
 30
0.0
 11
99.85225751852091
 21
252.1804020794437
 31
0.0
  0
LINE
  5
5089
330
1F
100
AcDbEntity
  8
SPOJOVACÍ
  6
Continuous
100
AcDbLine
 10
110.194882191806
 20
258.6302410516285
 30
0.0
 11
109.4507415553318
 21
257.2805559680776
 31
0.0
  0
LINE
  5
508A
330
1F
100
AcDbEntity
  8
SPOJOVACÍ
  6
Continuous
100
AcDbLine
 10
109.4507415553318
 20
257.2805559680776
 30
0.0
 11
108.3819695659197
 21
256.169926067719
 31
0.0
  0
LINE
  5
508B
330
1F
100
AcDbEntity
  8
SPOJOVACÍ
  6
Continuous
100
AcDbLine
 10
108.3819695659197
 20
256.169926067719
 30
0.0
 11
107.0629802876221
 21
255.3736955884008
 31
0.0
  0
LINE
  5
508C
330
1F
100
AcDbEntity
  8
SPOJOVACÍ
  6
Continuous
100
AcDbLine
 10
107.0629802876221
 20
255.3736955884008
 30
0.0
 11
105.5821404205719
 21
254.9458147241014
 31
0.0
  0
LINE
  5
508D
330
1F
100
AcDbEntity
  8
SPOJOVACÍ
  6
Continuous
100
AcDbLine
 10
105.5821404205719
 20
254.9458147241014
 30
0.0
 11
104.7952116974495
 21
254.8797722421798
 31
0.0
  0
LINE
  5
508E
330
1F
100
AcDbEntity
  8
SPOJOVACÍ
  6
Continuous
100
AcDbLine
 10
108.9400750434808
 20
250.3823722694281
 30
0.0
 11
109.8581585539225
 21
249.1452384605284
 31
0.0
  0
LINE
  5
508F
330
1F
100
AcDbEntity
  8
SPOJOVACÍ
  6
Continuous
100
AcDbLine
 10
109.8581585539225
 20
249.1452384605284
 30
0.0
 11
110.194882191806
 21
248.4299332743606
 31
0.0
  0
LINE
  5
5090
330
1F
100
AcDbEntity
  8
SPOJOVACÍ
  6
Continuous
100
AcDbLine
 10
110.194882191806
 20
258.6302410516285
 30
0.0
 11
110.194882191806
 21
248.4299332743606
 31
0.0
  0
LINE
  5
5091
330
1F
100
AcDbEntity
  8
SPOJOVACÍ
  6
Continuous
100
AcDbLine
 10
111.3948089685375
 20
258.6302410516285
 30
0.0
 11
110.194882191806
 21
258.6302410516285
 31
0.0
  0
LINE
  5
5092
330
1F
100
AcDbEntity
  8
SPOJOVACÍ
  6
Continuous
100
AcDbLine
 10
111.3948089685375
 20
258.6302410516285
 30
0.0
 11
111.3948089685375
 21
248.4299332743606
 31
0.0
  0
LINE
  5
5093
330
1F
100
AcDbEntity
  8
SPOJOVACÍ
  6
Continuous
100
AcDbLine
 10
111.3948089685375
 20
248.4299332743606
 30
0.0
 11
110.194882191806
 21
248.4299332743606
 31
0.0
  0
LINE
  5
5094
330
1F
100
AcDbEntity
  8
SPOJOVACÍ
  6
Continuous
100
AcDbLine
 10
104.7952116974495
 20
252.1804020794437
 30
0.0
 11
106.3188396508787
 21
251.9534391885602
 31
0.0
  0
LINE
  5
5095
330
1F
100
AcDbEntity
  8
SPOJOVACÍ
  6
Continuous
100
AcDbLine
 10
106.3188396508787
 20
251.9534391885602
 30
0.0
 11
107.732706860582
 21
251.3404533394126
 31
0.0
  0
LINE
  5
5096
330
1F
100
AcDbEntity
  8
SPOJOVACÍ
  6
Continuous
100
AcDbLine
 10
107.732706860582
 20
251.3404533394126
 30
0.0
 11
108.9400750434808
 21
250.3823722694281
 31
0.0
  0
LINE
  5
5097
330
1F
100
AcDbEntity
  8
SPOJOVACÍ
  6
Continuous
100
AcDbLine
 10
88.4929507005811
 20
255.552289340608
 30
0.0
 11
87.13303368703895
 21
251.5078849810155
 31
0.0
  0
LINE
  5
5098
330
1F
100
AcDbEntity
  8
SPOJOVACÍ
  6
Continuous
100
AcDbLine
 10
87.89670801542639
 20
255.552289340608
 30
0.0
 11
86.53679100188425
 21
251.5078849810155
 31
0.0
  0
LINE
  5
5099
330
1F
100
AcDbEntity
  8
SPOJOVACÍ
  6
Continuous
100
AcDbLine
 10
86.91444237501242
 20
251.1302336100701
 30
0.0
 11
87.13303368703895
 21
251.5078849810155
 31
0.0
  0
LINE
  5
509A
330
1F
100
AcDbEntity
  8
SPOJOVACÍ
  6
Continuous
100
AcDbLine
 10
86.91444237501242
 20
251.1302336100701
 30
0.0
 11
86.53679100188425
 21
251.5078849810155
 31
0.0
  0
LINE
  5
509B
330
1F
100
AcDbEntity
  8
SPOJOVACÍ
  6
Continuous
100
AcDbLine
 10
88.11436915147465
 20
255.929940715919
 30
0.0
 11
88.4929507005811
 21
255.552289340608
 31
0.0
  0
LINE
  5
509C
330
1F
100
AcDbEntity
  8
SPOJOVACÍ
  6
Continuous
100
AcDbLine
 10
88.11436915147465
 20
255.929940715919
 30
0.0
 11
87.89670801542639
 21
255.552289340608
 31
0.0
  0
LINE
  5
509D
330
1F
100
AcDbEntity
  8
SPOJOVACÍ
  6
Continuous
100
AcDbLine
 10
88.11436915147465
 20
255.929940715919
 30
0.0
 11
86.91444237501242
 21
251.1302336100701
 31
0.0
  0
LINE
  5
509E
330
1F
100
AcDbEntity
  8
SPOJOVACÍ
  6
Continuous
100
AcDbLine
 10
91.61276031954299
 20
255.552289340608
 30
0.0
 11
90.25284330600085
 21
251.5078849810155
 31
0.0
  0
LINE
  5
509F
330
1F
100
AcDbEntity
  8
SPOJOVACÍ
  6
Continuous
100
AcDbLine
 10
91.01651763439553
 20
255.552289340608
 30
0.0
 11
89.65660062112261
 21
251.5078849810155
 31
0.0
  0
LINE
  5
50A0
330
1F
100
AcDbEntity
  8
SPOJOVACÍ
  6
Continuous
100
AcDbLine
 10
90.03518216995258
 20
251.1302336100701
 30
0.0
 11
90.25284330600085
 21
251.5078849810155
 31
0.0
  0
LINE
  5
50A1
330
1F
100
AcDbEntity
  8
SPOJOVACÍ
  6
Continuous
100
AcDbLine
 10
90.03518216995258
 20
251.1302336100701
 30
0.0
 11
89.65660062112261
 21
251.5078849810155
 31
0.0
  0
LINE
  5
50A2
330
1F
100
AcDbEntity
  8
SPOJOVACÍ
  6
Continuous
100
AcDbLine
 10
91.23510894641482
 20
255.929940715919
 30
0.0
 11
91.61276031954299
 21
255.552289340608
 31
0.0
  0
LINE
  5
50A3
330
1F
100
AcDbEntity
  8
SPOJOVACÍ
  6
Continuous
100
AcDbLine
 10
91.23510894641482
 20
255.929940715919
 30
0.0
 11
91.01651763439553
 21
255.552289340608
 31
0.0
  0
LINE
  5
50A4
330
1F
100
AcDbEntity
  8
SPOJOVACÍ
  6
Continuous
100
AcDbLine
 10
91.23510894641482
 20
255.929940715919
 30
0.0
 11
90.03518216995258
 21
251.1302336100701
 31
0.0
  0
LINE
  5
50A5
330
1F
100
AcDbEntity
  8
SPOJOVACÍ
  6
Continuous
100
AcDbLine
 10
79.00887828654345
 20
254.5467693049207
 30
0.0
 11
78.69819957076948
 21
252.3924821634639
 31
0.0
  0
LINE
  5
50A6
330
1F
100
AcDbEntity
  8
SPOJOVACÍ
  6
Continuous
100
AcDbLine
 10
79.38652965967162
 20
254.1691179339753
 30
0.0
 11
78.91586070708695
 21
252.7701335344093
 31
0.0
  0
LINE
  5
50A7
330
1F
100
AcDbEntity
  8
SPOJOVACÍ
  6
Continuous
100
AcDbLine
 10
78.79028697452418
 20
254.1691179339753
 30
0.0
 11
78.3196180219395
 21
252.7701335344093
 31
0.0
  0
LINE
  5
50A8
330
1F
100
AcDbEntity
  8
SPOJOVACÍ
  6
Continuous
100
AcDbLine
 10
78.69819957076948
 20
252.3924821634639
 30
0.0
 11
78.91586070708695
 21
252.7701335344093
 31
0.0
  0
LINE
  5
50A9
330
1F
100
AcDbEntity
  8
SPOJOVACÍ
  6
Continuous
100
AcDbLine
 10
78.69819957076948
 20
252.3924821634639
 30
0.0
 11
78.3196180219395
 21
252.7701335344093
 31
0.0
  0
LINE
  5
50AA
330
1F
100
AcDbEntity
  8
SPOJOVACÍ
  6
Continuous
100
AcDbLine
 10
79.00887828654345
 20
254.5467693049207
 30
0.0
 11
79.38652965967162
 21
254.1691179339753
 31
0.0
  0
LINE
  5
50AB
330
1F
100
AcDbEntity
  8
SPOJOVACÍ
  6
Continuous
100
AcDbLine
 10
79.00887828654345
 20
254.5467693049207
 30
0.0
 11
78.79028697452418
 21
254.1691179339753
 31
0.0
  0
LINE
  5
50AC
330
1F
100
AcDbEntity
  8
SPOJOVACÍ
  6
Continuous
100
AcDbLine
 10
82.02264786486308
 20
255.1113860153921
 30
0.0
 11
81.38919814809311
 21
251.995297098961
 31
0.0
  0
LINE
  5
50AD
330
1F
100
AcDbEntity
  8
SPOJOVACÍ
  6
Continuous
100
AcDbLine
 10
82.40122941396952
 20
254.7337346400812
 30
0.0
 11
81.60685928414137
 21
252.3729484699063
 31
0.0
  0
LINE
  5
50AE
330
1F
100
AcDbEntity
  8
SPOJOVACÍ
  6
Continuous
100
AcDbLine
 10
81.80498672881482
 20
254.7337346400812
 30
0.0
 11
81.01061659926314
 21
252.3729484699063
 31
0.0
  0
LINE
  5
50AF
330
1F
100
AcDbEntity
  8
SPOJOVACÍ
  6
Continuous
100
AcDbLine
 10
81.38919814809311
 20
251.995297098961
 30
0.0
 11
81.60685928414137
 21
252.3729484699063
 31
0.0
  0
LINE
  5
50B0
330
1F
100
AcDbEntity
  8
SPOJOVACÍ
  6
Continuous
100
AcDbLine
 10
81.38919814809311
 20
251.995297098961
 30
0.0
 11
81.01061659926314
 21
252.3729484699063
 31
0.0
  0
LINE
  5
50B1
330
1F
100
AcDbEntity
  8
SPOJOVACÍ
  6
Continuous
100
AcDbLine
 10
82.02264786486308
 20
255.1113860153921
 30
0.0
 11
82.40122941396952
 21
254.7337346400812
 31
0.0
  0
LINE
  5
50B2
330
1F
100
AcDbEntity
  8
SPOJOVACÍ
  6
Continuous
100
AcDbLine
 10
82.02264786486308
 20
255.1113860153921
 30
0.0
 11
81.80498672881482
 21
254.7337346400812
 31
0.0
  0
LINE
  5
50B3
330
1F
100
AcDbEntity
  8
SPOJOVACÍ
  6
Continuous
100
AcDbLine
 10
85.03734761916097
 20
255.676002721498
 30
0.0
 11
84.06438373685636
 21
251.5506730687551
 31
0.0
  0
LINE
  5
50B4
330
1F
100
AcDbEntity
  8
SPOJOVACÍ
  6
Continuous
100
AcDbLine
 10
85.41499899228915
 20
255.2974211732137
 30
0.0
 11
84.28204487290463
 21
251.9283244397005
 31
0.0
  0
LINE
  5
50B5
330
1F
100
AcDbEntity
  8
SPOJOVACÍ
  6
Continuous
100
AcDbLine
 10
84.81875630713444
 20
255.2974211732137
 30
0.0
 11
83.68580218774992
 21
251.9283244397005
 31
0.0
  0
LINE
  5
50B6
330
1F
100
AcDbEntity
  8
SPOJOVACÍ
  6
Continuous
100
AcDbLine
 10
84.06438373685636
 20
251.5506730687551
 30
0.0
 11
84.28204487290463
 21
251.9283244397005
 31
0.0
  0
LINE
  5
50B7
330
1F
100
AcDbEntity
  8
SPOJOVACÍ
  6
Continuous
100
AcDbLine
 10
84.06438373685636
 20
251.5506730687551
 30
0.0
 11
83.68580218774992
 21
251.9283244397005
 31
0.0
  0
LINE
  5
50B8
330
1F
100
AcDbEntity
  8
SPOJOVACÍ
  6
Continuous
100
AcDbLine
 10
85.03734761916097
 20
255.676002721498
 30
0.0
 11
85.41499899228915
 21
255.2974211732137
 31
0.0
  0
LINE
  5
50B9
330
1F
100
AcDbEntity
  8
SPOJOVACÍ
  6
Continuous
100
AcDbLine
 10
85.03734761916097
 20
255.676002721498
 30
0.0
 11
84.81875630713444
 21
255.2974211732137
 31
0.0
  0
LINE
  5
50BA
330
1F
100
AcDbEntity
  8
SPOJOVACÍ
  6
Continuous
100
AcDbLine
 10
84.45877827425396
 20
252.4259684909114
 30
0.0
 11
86.42982078554018
 21
252.1804020794437
 31
0.0
  0
LINE
  5
50BB
330
1F
100
AcDbEntity
  8
SPOJOVACÍ
  6
Continuous
100
AcDbLine
 10
81.75196670835545
 20
252.7645524834727
 30
0.0
 11
83.88858051120882
 21
252.4975920281352
 31
0.0
  0
LINE
  5
50BC
330
1F
100
AcDbEntity
  8
SPOJOVACÍ
  6
Continuous
100
AcDbLine
 10
79.03492320892223
 20
253.1040666446418
 30
0.0
 11
81.17990859390671
 21
252.8361760163309
 31
0.0
  0
LINE
  5
50BD
330
1F
100
AcDbEntity
  8
SPOJOVACÍ
  6
Continuous
100
AcDbLine
 10
78.71866343839179
 20
253.9161101168932
 30
0.0
 11
75.62954962058689
 21
253.5300871629945
 31
0.0
  0
LINE
  5
50BE
330
1F
100
AcDbEntity
  8
SPOJOVACÍ
  6
Continuous
100
AcDbLine
 10
81.65987930460074
 20
254.2835295545731
 30
0.0
 11
79.33909069424522
 21
253.9933147094191
 31
0.0
  0
LINE
  5
50BF
330
1F
100
AcDbEntity
  8
SPOJOVACÍ
  6
Continuous
100
AcDbLine
 10
84.61225728032991
 20
254.6528093469308
 30
0.0
 11
82.29053849426533
 21
254.3625944974113
 31
0.0
  0
LINE
  5
50C0
330
1F
100
AcDbEntity
  8
SPOJOVACÍ
  6
Continuous
100
AcDbLine
 10
75.62954962058689
 20
253.5300871629945
 30
0.0
 11
78.46565562185538
 21
253.1756901818656
 31
0.0
  0
LINE
  5
50C1
330
1F
100
AcDbEntity
  8
SPOJOVACÍ
  6
Continuous
100
AcDbLine
 10
86.42982078554018
 20
254.8797722421798
 30
0.0
 11
85.23268453618333
 21
254.7300139394568
 31
0.0
  0
LINE
  5
50C2
330
1F
100
AcDbEntity
  8
SPOJOVACÍ
  6
Continuous
100
AcDbLine
 10
86.76654442342373
 20
252.1804020794437
 30
0.0
 11
86.42982078554018
 21
252.1804020794437
 31
0.0
  0
LINE
  5
50C3
330
1F
100
AcDbEntity
  8
SPOJOVACÍ
  6
Continuous
100
AcDbLine
 10
89.88914457003671
 20
252.1804020794437
 30
0.0
 11
87.37022851500773
 21
252.1804020794437
 31
0.0
  0
LINE
  5
50C4
330
1F
100
AcDbEntity
  8
SPOJOVACÍ
  6
Continuous
100
AcDbLine
 10
87.67718652742884
 20
254.8797722421798
 30
0.0
 11
86.42982078554018
 21
254.8797722421798
 31
0.0
  0
LINE
  5
50C5
330
1F
100
AcDbEntity
  8
SPOJOVACÍ
  6
Continuous
100
AcDbLine
 10
90.79141509191073
 20
254.8797722421798
 30
0.0
 11
88.27342921258354
 21
254.8797722421798
 31
0.0
  0
LINE
  5
50C6
330
1F
100
AcDbEntity
  8
SPOJOVACÍ
  6
Continuous
100
AcDbLine
 10
93.01081454067867
 20
252.1804020794437
 30
0.0
 11
90.49003813396963
 21
252.1804020794437
 31
0.0
  0
LINE
  5
50C7
330
1F
100
AcDbEntity
  8
SPOJOVACÍ
  6
Continuous
100
AcDbLine
 10
93.92424717206564
 20
254.8797722421798
 30
0.0
 11
91.39602935919652
 21
254.8797722421798
 31
0.0
  0
LINE
  5
50C8
330
1F
100
AcDbEntity
  8
STAVBA OBRYS
100
AcDbLine
 10
-8.335875313509632
 20
265.9519092187177
 30
0.0
 11
81.12168529941596
 21
265.9519092187177
 31
0.0
  0
LINE
  5
50C9
330
1F
100
AcDbEntity
  8
STAVBA OBRYS
100
AcDbLine
 10
-8.335875313509632
 20
269.9519092187177
 30
0.0
 11
81.12168529941596
 21
269.9519092187177
 31
0.0
  0
LINE
  5
50CA
330
1F
100
AcDbEntity
  8
SPOJOVACÍ
  6
Continuous
100
AcDbLine
 10
-19.71153353186559
 20
254.8797722421798
 30
0.0
 11
-17.18331571899648
 21
254.8797722421798
 31
0.0
  0
LINE
  5
50CB
330
1F
100
AcDbEntity
  8
SPOJOVACÍ
  6
Continuous
100
AcDbLine
 10
-18.79810090047863
 20
252.1804020794437
 30
0.0
 11
-16.27732449376958
 21
252.1804020794437
 31
0.0
  0
LINE
  5
50CC
330
1F
100
AcDbEntity
  8
SPOJOVACÍ
  6
Continuous
100
AcDbLine
 10
-16.57870145171068
 20
254.8797722421798
 30
0.0
 11
-14.06071557238351
 21
254.8797722421798
 31
0.0
  0
LINE
  5
50CD
330
1F
100
AcDbEntity
  8
SPOJOVACÍ
  6
Continuous
100
AcDbLine
 10
-13.46447288722879
 20
254.8797722421798
 30
0.0
 11
-12.21710714534015
 21
254.8797722421798
 31
0.0
  0
LINE
  5
50CE
330
1F
100
AcDbEntity
  8
SPOJOVACÍ
  6
Continuous
100
AcDbLine
 10
-15.67643092983667
 20
252.1804020794437
 30
0.0
 11
-13.1575148748077
 21
252.1804020794437
 31
0.0
  0
LINE
  5
50CF
330
1F
100
AcDbEntity
  8
SPOJOVACÍ
  6
Continuous
100
AcDbLine
 10
-12.5538307832237
 20
252.1804020794437
 30
0.0
 11
-12.21710714534015
 21
252.1804020794437
 31
0.0
  0
LINE
  5
50D0
330
1F
100
AcDbEntity
  8
SPOJOVACÍ
  6
Continuous
100
AcDbLine
 10
-12.21710714534015
 20
254.8797722421798
 30
0.0
 11
-11.0199708959833
 21
254.7300139394568
 31
0.0
  0
LINE
  5
50D1
330
1F
100
AcDbEntity
  8
SPOJOVACÍ
  6
Continuous
100
AcDbLine
 10
-1.416835980386849
 20
253.5300871629945
 30
0.0
 11
-4.252941981655339
 21
253.1756901818656
 31
0.0
  0
LINE
  5
50D2
330
1F
100
AcDbEntity
  8
SPOJOVACÍ
  6
Continuous
100
AcDbLine
 10
-10.39954364012987
 20
254.6528093469308
 30
0.0
 11
-8.077824854065283
 21
254.3625944974113
 31
0.0
  0
LINE
  5
50D3
330
1F
100
AcDbEntity
  8
SPOJOVACÍ
  6
Continuous
100
AcDbLine
 10
-7.447165664400699
 20
254.2835295545731
 30
0.0
 11
-5.126377054045178
 21
253.9933147094191
 31
0.0
  0
LINE
  5
50D4
330
1F
100
AcDbEntity
  8
SPOJOVACÍ
  6
Continuous
100
AcDbLine
 10
-4.50594979819175
 20
253.9161101168932
 30
0.0
 11
-1.416835980386849
 21
253.5300871629945
 31
0.0
  0
LINE
  5
50D5
330
1F
100
AcDbEntity
  8
SPOJOVACÍ
  6
Continuous
100
AcDbLine
 10
-4.8222095687222
 20
253.1040666446418
 30
0.0
 11
-6.967194953706666
 21
252.8361760163309
 31
0.0
  0
LINE
  5
50D6
330
1F
100
AcDbEntity
  8
SPOJOVACÍ
  6
Continuous
100
AcDbLine
 10
-7.539253068155403
 20
252.7645524834727
 30
0.0
 11
-9.675866871008793
 21
252.4975920281352
 31
0.0
  0
LINE
  5
50D7
330
1F
100
AcDbEntity
  8
SPOJOVACÍ
  6
Continuous
100
AcDbLine
 10
-10.24606463405393
 20
252.4259684909114
 30
0.0
 11
-12.21710714534015
 21
252.1804020794437
 31
0.0
  0
LINE
  5
50D8
330
1F
100
AcDbEntity
  8
SPOJOVACÍ
  6
Continuous
100
AcDbLine
 10
-10.82463397896094
 20
255.676002721498
 30
0.0
 11
-10.6060426669344
 21
255.2974211732137
 31
0.0
  0
LINE
  5
50D9
330
1F
100
AcDbEntity
  8
SPOJOVACÍ
  6
Continuous
100
AcDbLine
 10
-10.82463397896094
 20
255.676002721498
 30
0.0
 11
-11.20228535208912
 21
255.2974211732137
 31
0.0
  0
LINE
  5
50DA
330
1F
100
AcDbEntity
  8
SPOJOVACÍ
  6
Continuous
100
AcDbLine
 10
-9.851670096656334
 20
251.5506730687551
 30
0.0
 11
-9.473088547549878
 21
251.9283244397005
 31
0.0
  0
LINE
  5
50DB
330
1F
100
AcDbEntity
  8
SPOJOVACÍ
  6
Continuous
100
AcDbLine
 10
-9.851670096656334
 20
251.5506730687551
 30
0.0
 11
-10.06933123270459
 21
251.9283244397005
 31
0.0
  0
LINE
  5
50DC
330
1F
100
AcDbEntity
  8
SPOJOVACÍ
  6
Continuous
100
AcDbLine
 10
-10.6060426669344
 20
255.2974211732137
 30
0.0
 11
-9.473088547549878
 21
251.9283244397005
 31
0.0
  0
LINE
  5
50DD
330
1F
100
AcDbEntity
  8
SPOJOVACÍ
  6
Continuous
100
AcDbLine
 10
-11.20228535208912
 20
255.2974211732137
 30
0.0
 11
-10.06933123270459
 21
251.9283244397005
 31
0.0
  0
LINE
  5
50DE
330
1F
100
AcDbEntity
  8
SPOJOVACÍ
  6
Continuous
100
AcDbLine
 10
-10.82463397896094
 20
255.676002721498
 30
0.0
 11
-9.851670096656334
 21
251.5506730687551
 31
0.0
  0
LINE
  5
50DF
330
1F
100
AcDbEntity
  8
SPOJOVACÍ
  6
Continuous
100
AcDbLine
 10
-7.809934224663038
 20
255.1113860153921
 30
0.0
 11
-7.592273088614774
 21
254.7337346400812
 31
0.0
  0
LINE
  5
50E0
330
1F
100
AcDbEntity
  8
SPOJOVACÍ
  6
Continuous
100
AcDbLine
 10
-7.809934224663038
 20
255.1113860153921
 30
0.0
 11
-8.188515773769495
 21
254.7337346400812
 31
0.0
  0
LINE
  5
50E1
330
1F
100
AcDbEntity
  8
SPOJOVACÍ
  6
Continuous
100
AcDbLine
 10
-7.176484507893064
 20
251.995297098961
 30
0.0
 11
-6.797902959063094
 21
252.3729484699063
 31
0.0
  0
LINE
  5
50E2
330
1F
100
AcDbEntity
  8
SPOJOVACÍ
  6
Continuous
100
AcDbLine
 10
-7.176484507893064
 20
251.995297098961
 30
0.0
 11
-7.394145643941328
 21
252.3729484699063
 31
0.0
  0
LINE
  5
50E3
330
1F
100
AcDbEntity
  8
SPOJOVACÍ
  6
Continuous
100
AcDbLine
 10
-7.592273088614774
 20
254.7337346400812
 30
0.0
 11
-6.797902959063094
 21
252.3729484699063
 31
0.0
  0
LINE
  5
50E4
330
1F
100
AcDbEntity
  8
SPOJOVACÍ
  6
Continuous
100
AcDbLine
 10
-8.188515773769495
 20
254.7337346400812
 30
0.0
 11
-7.394145643941328
 21
252.3729484699063
 31
0.0
  0
LINE
  5
50E5
330
1F
100
AcDbEntity
  8
SPOJOVACÍ
  6
Continuous
100
AcDbLine
 10
-7.809934224663038
 20
255.1113860153921
 30
0.0
 11
-7.176484507893064
 21
251.995297098961
 31
0.0
  0
LINE
  5
50E6
330
1F
100
AcDbEntity
  8
SPOJOVACÍ
  6
Continuous
100
AcDbLine
 10
-4.796164646343413
 20
254.5467693049207
 30
0.0
 11
-4.577573334324142
 21
254.1691179339753
 31
0.0
  0
LINE
  5
50E7
330
1F
100
AcDbEntity
  8
SPOJOVACÍ
  6
Continuous
100
AcDbLine
 10
-4.796164646343413
 20
254.5467693049207
 30
0.0
 11
-5.173816019471587
 21
254.1691179339753
 31
0.0
  0
LINE
  5
50E8
330
1F
100
AcDbEntity
  8
SPOJOVACÍ
  6
Continuous
100
AcDbLine
 10
-4.485485930569439
 20
252.3924821634639
 30
0.0
 11
-4.106904381739468
 21
252.7701335344093
 31
0.0
  0
LINE
  5
50E9
330
1F
100
AcDbEntity
  8
SPOJOVACÍ
  6
Continuous
100
AcDbLine
 10
-4.485485930569439
 20
252.3924821634639
 30
0.0
 11
-4.703147066886913
 21
252.7701335344093
 31
0.0
  0
LINE
  5
50EA
330
1F
100
AcDbEntity
  8
SPOJOVACÍ
  6
Continuous
100
AcDbLine
 10
-4.577573334324142
 20
254.1691179339753
 30
0.0
 11
-4.106904381739468
 21
252.7701335344093
 31
0.0
  0
LINE
  5
50EB
330
1F
100
AcDbEntity
  8
SPOJOVACÍ
  6
Continuous
100
AcDbLine
 10
-5.173816019471587
 20
254.1691179339753
 30
0.0
 11
-4.703147066886913
 21
252.7701335344093
 31
0.0
  0
LINE
  5
50EC
330
1F
100
AcDbEntity
  8
SPOJOVACÍ
  6
Continuous
100
AcDbLine
 10
-4.796164646343413
 20
254.5467693049207
 30
0.0
 11
-4.485485930569439
 21
252.3924821634639
 31
0.0
  0
LINE
  5
50ED
330
1F
100
AcDbEntity
  8
SPOJOVACÍ
  6
Continuous
100
AcDbLine
 10
-17.02239530621477
 20
255.929940715919
 30
0.0
 11
-15.82246852975254
 21
251.1302336100701
 31
0.0
  0
LINE
  5
50EE
330
1F
100
AcDbEntity
  8
SPOJOVACÍ
  6
Continuous
100
AcDbLine
 10
-17.02239530621477
 20
255.929940715919
 30
0.0
 11
-16.8038039941955
 21
255.552289340608
 31
0.0
  0
LINE
  5
50EF
330
1F
100
AcDbEntity
  8
SPOJOVACÍ
  6
Continuous
100
AcDbLine
 10
-17.02239530621477
 20
255.929940715919
 30
0.0
 11
-17.40004667934295
 21
255.552289340608
 31
0.0
  0
LINE
  5
50F0
330
1F
100
AcDbEntity
  8
SPOJOVACÍ
  6
Continuous
100
AcDbLine
 10
-15.82246852975254
 20
251.1302336100701
 30
0.0
 11
-15.44388698092257
 21
251.5078849810155
 31
0.0
  0
LINE
  5
50F1
330
1F
100
AcDbEntity
  8
SPOJOVACÍ
  6
Continuous
100
AcDbLine
 10
-15.82246852975254
 20
251.1302336100701
 30
0.0
 11
-16.0401296658008
 21
251.5078849810155
 31
0.0
  0
LINE
  5
50F2
330
1F
100
AcDbEntity
  8
SPOJOVACÍ
  6
Continuous
100
AcDbLine
 10
-16.8038039941955
 20
255.552289340608
 30
0.0
 11
-15.44388698092257
 21
251.5078849810155
 31
0.0
  0
LINE
  5
50F3
330
1F
100
AcDbEntity
  8
SPOJOVACÍ
  6
Continuous
100
AcDbLine
 10
-17.40004667934295
 20
255.552289340608
 30
0.0
 11
-16.0401296658008
 21
251.5078849810155
 31
0.0
  0
LINE
  5
50F4
330
1F
100
AcDbEntity
  8
SPOJOVACÍ
  6
Continuous
100
AcDbLine
 10
-13.90165551127461
 20
255.929940715919
 30
0.0
 11
-12.70172873481237
 21
251.1302336100701
 31
0.0
  0
LINE
  5
50F5
330
1F
100
AcDbEntity
  8
SPOJOVACÍ
  6
Continuous
100
AcDbLine
 10
-13.90165551127461
 20
255.929940715919
 30
0.0
 11
-13.68399437522634
 21
255.552289340608
 31
0.0
  0
LINE
  5
50F6
330
1F
100
AcDbEntity
  8
SPOJOVACÍ
  6
Continuous
100
AcDbLine
 10
-13.90165551127461
 20
255.929940715919
 30
0.0
 11
-14.28023706038106
 21
255.552289340608
 31
0.0
  0
LINE
  5
50F7
330
1F
100
AcDbEntity
  8
SPOJOVACÍ
  6
Continuous
100
AcDbLine
 10
-12.70172873481237
 20
251.1302336100701
 30
0.0
 11
-12.3240773616842
 21
251.5078849810155
 31
0.0
  0
LINE
  5
50F8
330
1F
100
AcDbEntity
  8
SPOJOVACÍ
  6
Continuous
100
AcDbLine
 10
-12.70172873481237
 20
251.1302336100701
 30
0.0
 11
-12.92032004683892
 21
251.5078849810155
 31
0.0
  0
LINE
  5
50F9
330
1F
100
AcDbEntity
  8
SPOJOVACÍ
  6
Continuous
100
AcDbLine
 10
-13.68399437522634
 20
255.552289340608
 30
0.0
 11
-12.3240773616842
 21
251.5078849810155
 31
0.0
  0
LINE
  5
50FA
330
1F
100
AcDbEntity
  8
SPOJOVACÍ
  6
Continuous
100
AcDbLine
 10
-14.28023706038106
 20
255.552289340608
 30
0.0
 11
-12.92032004683892
 21
251.5078849810155
 31
0.0
  0
LINE
  5
50FB
330
1F
100
AcDbEntity
  8
SPOJOVACÍ
  6
Continuous
100
AcDbLine
 10
-33.51999322038205
 20
251.3404533394126
 30
0.0
 11
-34.72736140328084
 21
250.3823722694281
 31
0.0
  0
LINE
  5
50FC
330
1F
100
AcDbEntity
  8
SPOJOVACÍ
  6
Continuous
100
AcDbLine
 10
-32.10612601067873
 20
251.9534391885602
 30
0.0
 11
-33.51999322038205
 21
251.3404533394126
 31
0.0
  0
LINE
  5
50FD
330
1F
100
AcDbEntity
  8
SPOJOVACÍ
  6
Continuous
100
AcDbLine
 10
-30.58249805724949
 20
252.1804020794437
 30
0.0
 11
-32.10612601067873
 21
251.9534391885602
 31
0.0
  0
LINE
  5
50FE
330
1F
100
AcDbEntity
  8
SPOJOVACÍ
  6
Continuous
100
AcDbLine
 10
-37.18209532833748
 20
248.4299332743606
 30
0.0
 11
-35.98216855160603
 21
248.4299332743606
 31
0.0
  0
LINE
  5
50FF
330
1F
100
AcDbEntity
  8
SPOJOVACÍ
  6
Continuous
100
AcDbLine
 10
-37.18209532833748
 20
258.6302410516285
 30
0.0
 11
-37.18209532833748
 21
248.4299332743606
 31
0.0
  0
LINE
  5
5100
330
1F
100
AcDbEntity
  8
SPOJOVACÍ
  6
Continuous
100
AcDbLine
 10
-37.18209532833748
 20
258.6302410516285
 30
0.0
 11
-35.98216855160603
 21
258.6302410516285
 31
0.0
  0
LINE
  5
5101
330
1F
100
AcDbEntity
  8
SPOJOVACÍ
  6
Continuous
100
AcDbLine
 10
-35.98216855160603
 20
258.6302410516285
 30
0.0
 11
-35.98216855160603
 21
248.4299332743606
 31
0.0
  0
LINE
  5
5102
330
1F
100
AcDbEntity
  8
SPOJOVACÍ
  6
Continuous
100
AcDbLine
 10
-35.64544491372248
 20
249.1452384605284
 30
0.0
 11
-35.98216855160603
 21
248.4299332743606
 31
0.0
  0
LINE
  5
5103
330
1F
100
AcDbEntity
  8
SPOJOVACÍ
  6
Continuous
100
AcDbLine
 10
-34.72736140328084
 20
250.3823722694281
 30
0.0
 11
-35.64544491372248
 21
249.1452384605284
 31
0.0
  0
LINE
  5
5104
330
1F
100
AcDbEntity
  8
SPOJOVACÍ
  6
Continuous
100
AcDbLine
 10
-31.36942678037189
 20
254.9458147241014
 30
0.0
 11
-30.58249805724949
 21
254.8797722421798
 31
0.0
  0
LINE
  5
5105
330
1F
100
AcDbEntity
  8
SPOJOVACÍ
  6
Continuous
100
AcDbLine
 10
-32.85026664742213
 20
255.3736955884008
 30
0.0
 11
-31.36942678037189
 21
254.9458147241014
 31
0.0
  0
LINE
  5
5106
330
1F
100
AcDbEntity
  8
SPOJOVACÍ
  6
Continuous
100
AcDbLine
 10
-34.16925592571965
 20
256.169926067719
 30
0.0
 11
-32.85026664742213
 21
255.3736955884008
 31
0.0
  0
LINE
  5
5107
330
1F
100
AcDbEntity
  8
SPOJOVACÍ
  6
Continuous
100
AcDbLine
 10
-35.23802791513185
 20
257.2805559680776
 30
0.0
 11
-34.16925592571965
 21
256.169926067719
 31
0.0
  0
LINE
  5
5108
330
1F
100
AcDbEntity
  8
SPOJOVACÍ
  6
Continuous
100
AcDbLine
 10
-35.98216855160603
 20
258.6302410516285
 30
0.0
 11
-35.23802791513185
 21
257.2805559680776
 31
0.0
  0
LINE
  5
5109
330
1F
100
AcDbEntity
  8
SPOJOVACÍ
  6
Continuous
100
AcDbLine
 10
-30.58249805724949
 20
252.1804020794437
 30
0.0
 11
-25.63954387832086
 21
252.1804020794437
 31
0.0
  0
LINE
  5
510A
330
1F
100
AcDbEntity
  8
SPOJOVACÍ
  6
Continuous
100
AcDbLine
 10
-30.58249805724949
 20
254.8797722421798
 30
0.0
 11
-26.54460492756948
 21
254.8797722421798
 31
0.0
  0
LINE
  5
510B
330
1F
100
AcDbEntity
  8
SPOJOVACÍ
  6
Continuous
100
AcDbLine
 10
-25.94929241839304
 20
254.8797722421798
 30
0.0
 11
-23.43037636336407
 21
254.8797722421798
 31
0.0
  0
LINE
  5
510C
330
1F
100
AcDbEntity
  8
SPOJOVACÍ
  6
Continuous
100
AcDbLine
 10
-22.82669227204928
 20
254.8797722421798
 30
0.0
 11
-20.30591586534023
 21
254.8797722421798
 31
0.0
  0
LINE
  5
510D
330
1F
100
AcDbEntity
  8
SPOJOVACÍ
  6
Continuous
100
AcDbLine
 10
-25.03585978700607
 20
252.1804020794437
 30
0.0
 11
-22.51694373197711
 21
252.1804020794437
 31
0.0
  0
LINE
  5
510E
330
1F
100
AcDbEntity
  8
SPOJOVACÍ
  6
Continuous
100
AcDbLine
 10
-21.92070104682238
 20
252.1804020794437
 30
0.0
 11
-19.39248323395327
 21
252.1804020794437
 31
0.0
  0
LINE
  5
510F
330
1F
100
AcDbEntity
  8
SPOJOVACÍ
  6
Continuous
100
AcDbLine
 10
-26.38182416338418
 20
255.929940715919
 30
0.0
 11
-25.18189738692194
 21
251.1302336100701
 31
0.0
  0
LINE
  5
5110
330
1F
100
AcDbEntity
  8
SPOJOVACÍ
  6
Continuous
100
AcDbLine
 10
-26.38182416338418
 20
255.929940715919
 30
0.0
 11
-26.16416302733592
 21
255.552289340608
 31
0.0
  0
LINE
  5
5111
330
1F
100
AcDbEntity
  8
SPOJOVACÍ
  6
Continuous
100
AcDbLine
 10
-26.38182416338418
 20
255.929940715919
 30
0.0
 11
-26.76040571221415
 21
255.552289340608
 31
0.0
  0
LINE
  5
5112
330
1F
100
AcDbEntity
  8
SPOJOVACÍ
  6
Continuous
100
AcDbLine
 10
-25.18189738692194
 20
251.1302336100701
 30
0.0
 11
-24.80424601379377
 21
251.5078849810155
 31
0.0
  0
LINE
  5
5113
330
1F
100
AcDbEntity
  8
SPOJOVACÍ
  6
Continuous
100
AcDbLine
 10
-25.18189738692194
 20
251.1302336100701
 30
0.0
 11
-25.40048869894849
 21
251.5078849810155
 31
0.0
  0
LINE
  5
5114
330
1F
100
AcDbEntity
  8
SPOJOVACÍ
  6
Continuous
100
AcDbLine
 10
-26.16416302733592
 20
255.552289340608
 30
0.0
 11
-24.80424601379377
 21
251.5078849810155
 31
0.0
  0
LINE
  5
5115
330
1F
100
AcDbEntity
  8
SPOJOVACÍ
  6
Continuous
100
AcDbLine
 10
-26.76040571221415
 20
255.552289340608
 30
0.0
 11
-25.40048869894849
 21
251.5078849810155
 31
0.0
  0
LINE
  5
5116
330
1F
100
AcDbEntity
  8
SPOJOVACÍ
  6
Continuous
100
AcDbLine
 10
-23.2620145444223
 20
255.929940715919
 30
0.0
 11
-22.06208776768357
 21
251.1302336100701
 31
0.0
  0
LINE
  5
5117
330
1F
100
AcDbEntity
  8
SPOJOVACÍ
  6
Continuous
100
AcDbLine
 10
-23.2620145444223
 20
255.929940715919
 30
0.0
 11
-23.04342323239575
 21
255.552289340608
 31
0.0
  0
LINE
  5
5118
330
1F
100
AcDbEntity
  8
SPOJOVACÍ
  6
Continuous
100
AcDbLine
 10
-23.2620145444223
 20
255.929940715919
 30
0.0
 11
-23.63966591755047
 21
255.552289340608
 31
0.0
  0
LINE
  5
5119
330
1F
100
AcDbEntity
  8
SPOJOVACÍ
  6
Continuous
100
AcDbLine
 10
-22.06208776768357
 20
251.1302336100701
 30
0.0
 11
-21.68443639483189
 21
251.5078849810155
 31
0.0
  0
LINE
  5
511A
330
1F
100
AcDbEntity
  8
SPOJOVACÍ
  6
Continuous
100
AcDbLine
 10
-22.06208776768357
 20
251.1302336100701
 30
0.0
 11
-22.28067907971012
 21
251.5078849810155
 31
0.0
  0
LINE
  5
511B
330
1F
100
AcDbEntity
  8
SPOJOVACÍ
  6
Continuous
100
AcDbLine
 10
-23.04342323239575
 20
255.552289340608
 30
0.0
 11
-21.68443639483189
 21
251.5078849810155
 31
0.0
  0
LINE
  5
511C
330
1F
100
AcDbEntity
  8
SPOJOVACÍ
  6
Continuous
100
AcDbLine
 10
-23.63966591755047
 20
255.552289340608
 30
0.0
 11
-22.28067907971012
 21
251.5078849810155
 31
0.0
  0
LINE
  5
511D
330
1F
100
AcDbEntity
  8
SPOJOVACÍ
  6
Continuous
100
AcDbLine
 10
-20.14220492518393
 20
255.929940715919
 30
0.0
 11
-18.94227814872169
 21
251.1302336100701
 31
0.0
  0
LINE
  5
511E
330
1F
100
AcDbEntity
  8
SPOJOVACÍ
  6
Continuous
100
AcDbLine
 10
-20.14220492518393
 20
255.929940715919
 30
0.0
 11
-19.92361361315738
 21
255.552289340608
 31
0.0
  0
LINE
  5
511F
330
1F
100
AcDbEntity
  8
SPOJOVACÍ
  6
Continuous
100
AcDbLine
 10
-20.14220492518393
 20
255.929940715919
 30
0.0
 11
-20.5198562983121
 21
255.552289340608
 31
0.0
  0
LINE
  5
5120
330
1F
100
AcDbEntity
  8
SPOJOVACÍ
  6
Continuous
100
AcDbLine
 10
-18.94227814872169
 20
251.1302336100701
 30
0.0
 11
-18.56369659989172
 21
251.5078849810155
 31
0.0
  0
LINE
  5
5121
330
1F
100
AcDbEntity
  8
SPOJOVACÍ
  6
Continuous
100
AcDbLine
 10
-18.94227814872169
 20
251.1302336100701
 30
0.0
 11
-19.15993928503917
 21
251.5078849810155
 31
0.0
  0
LINE
  5
5122
330
1F
100
AcDbEntity
  8
SPOJOVACÍ
  6
Continuous
100
AcDbLine
 10
-19.92361361315738
 20
255.552289340608
 30
0.0
 11
-18.56369659989172
 21
251.5078849810155
 31
0.0
  0
LINE
  5
5123
330
1F
100
AcDbEntity
  8
SPOJOVACÍ
  6
Continuous
100
AcDbLine
 10
-20.5198562983121
 20
255.552289340608
 30
0.0
 11
-19.15993928503917
 21
251.5078849810155
 31
0.0
  0
LINE
  5
5124
330
1F
100
AcDbEntity
  8
STAVBA OBRYS
100
AcDbLine
 10
-15.60841923553266
 20
259.1708592170719
 30
0.0
 11
-8.335875313509632
 21
262.2978431715958
 31
0.0
  0
LINE
  5
5125
330
1F
100
AcDbEntity
  8
STAVBA OBRYS
100
AcDbLine
 10
-23.60899898264574
 20
244.3711482983956
 30
0.0
 11
-15.60841923553266
 21
259.1708592170719
 31
0.0
  0
LINE
  5
5126
330
1F
100
AcDbEntity
  8
STAVBA OBRYS
100
AcDbLine
 10
-8.335875313509632
 20
273.6059752658396
 30
0.0
 11
-8.335875313509632
 21
262.2978431715958
 31
0.0
  0
LINE
  5
5127
330
1F
100
AcDbEntity
  8
STAVBA OBRYS
100
AcDbLine
 10
-15.60841923553266
 20
276.7329592203635
 30
0.0
 11
-8.335875313509632
 21
273.6059752658396
 31
0.0
  0
LINE
  5
5128
330
1F
100
AcDbEntity
  8
STAVBA OBRYS
100
AcDbLine
 10
-23.60899898264574
 20
291.5326701390398
 30
0.0
 11
-15.60841923553266
 21
276.7329592203635
 31
0.0
  0
LINE
  5
5129
330
1F
100
AcDbEntity
  8
STAVBA OBRYS
100
AcDbLine
 10
96.39480896855571
 20
-79.9367529480375
 30
0.0
 11
96.39480896854479
 21
415.4269074594552
 31
0.0
  0
LINE
  5
512A
330
1F
100
AcDbEntity
  8
CETRIS
100
AcDbLine
 10
-23.6089989826421
 20
-80.12510164396799
 30
0.0
 11
-23.60899898264574
 21
415.4269074594552
 31
0.0
  0
LINE
  5
512B
330
1F
100
AcDbEntity
  8
STAVBA OBRYS
  6
DASHED
100
AcDbLine
 10
-82.18209532833748
 20
415.4269074594552
 30
0.0
 11
-82.18209532834112
 21
-80.12510164396799
 31
0.0
  0
LINE
  5
512C
330
1F
100
AcDbEntity
  8
CETRIS
100
AcDbLine
 10
-37.18209532833748
 20
415.4269074594552
 30
0.0
 11
-37.18209532833384
 21
-80.12510164396799
 31
0.0
  0
LINE
  5
512D
330
1F
100
AcDbEntity
  8
STAVBA OBRYS
100
AcDbLine
 10
-77.18209532833748
 20
415.4269074594552
 30
0.0
 11
-77.18209532833748
 21
-80.12510164396799
 31
0.0
  0
TEXT
  5
512E
330
1F
100
AcDbEntity
  8
POPIS
100
AcDbText
 10
-91.39747835952107
 20
471.7964189200059
 30
0.0
 40
35.0
  1
PŮDORYS
 41
0.85
  7
SIMPLEX7
100
AcDbText
  0
HATCH
  5
512F
330
1F
100
AcDbEntity
  8
STAVBA OBRYS
100
AcDbHatch
 10
0.0
 20
0.0
 30
0.0
210
0.0
220
0.0
230
1.0
  2
SOLID
 70
     1
 71
     0
 91
        1
 92
        7
 72
     0
 73
     1
 93
        4
 10
96.39480896854117
 20
-56.44608006651532
 10
96.39480896854117
 20
-80.08781277634687
 10
99.39480896854115
 20
-80.08781277635051
 10
99.39480896854115
 20
-56.44608006651168
 97
        0
 75
     0
 76
     1
 47
0.1901250437635136
 98
        3
 10
98.16225389792931
 20
-28.20258980232819
 10
98.35238057359061
 20
-64.53878062966822
 10
97.7820005466067
 20
-68.53385281889558
  0
LWPOLYLINE
  5
5130
330
1F
100
AcDbEntity
  8
STAVBA OBRYS
100
AcDbPolyline
 90
        4
 70
     1
 43
0.0
 10
96.39480896854117
 20
-56.44608006651532
 10
96.39480896854117
 20
-80.08781277635051
 10
99.39480896854115
 20
-80.08781277635051
 10
99.39480896854115
 20
-56.44608006651532
  0
LWPOLYLINE
  5
5131
330
1F
100
AcDbEntity
  8
STAVBA OBRYS
100
AcDbPolyline
 90
        4
 70
     0
 43
0.0
 10
99.39480896854115
 20
338.4885391599667
 10
99.39480896854115
 20
-80.08781277635051
 10
96.39480896854117
 20
-80.08781277635051
 10
96.39480896854117
 20
338.4885391599667
  0
LINE
  5
5132
330
1F
100
AcDbEntity
  8
CETRIS
100
AcDbLine
 10
99.39480896854115
 20
-68.69921660027529
 30
0.0
 11
99.39480896853751
 21
415.4269074594552
 31
0.0
  0
LWPOLYLINE
  5
5133
330
1F
100
AcDbEntity
  8
STAVBA OBRYS
100
AcDbPolyline
 90
        4
 70
     1
 43
0.0
 10
96.39480896854117
 20
321.8216432908478
 10
96.39480896854117
 20
298.1799105810125
 10
99.39480896854115
 20
298.1799105810125
 10
99.39480896854115
 20
321.8216432908478
  0
HATCH
  5
5134
330
1F
100
AcDbEntity
  8
STAVBA OBRYS
100
AcDbHatch
 10
0.0
 20
0.0
 30
0.0
210
0.0
220
0.0
230
1.0
  2
SOLID
 70
     1
 71
     0
 91
        1
 92
        7
 72
     0
 73
     1
 93
        4
 10
96.39480896854117
 20
321.8216432908514
 10
96.39480896854117
 20
298.1799105810162
 10
99.39480896854115
 20
298.1799105810125
 10
99.39480896854115
 20
321.8216432908514
 97
        0
 75
     0
 76
     1
 47
0.1901250437635136
 98
        1
 10
97.21162051962279
 20
307.5377053393561
  0
LWPOLYLINE
  5
5135
330
1F
100
AcDbEntity
  8
STAVBA OBRYS
100
AcDbPolyline
 90
        4
 70
     1
 43
0.0
 10
96.39480896854843
 20
274.5381778711774
 10
96.39480896854843
 20
250.8964451613422
 10
99.39480896854844
 20
250.8964451613422
 10
99.39480896854844
 20
274.5381778711774
  0
HATCH
  5
5136
330
1F
100
AcDbEntity
  8
STAVBA OBRYS
100
AcDbHatch
 10
0.0
 20
0.0
 30
0.0
210
0.0
220
0.0
230
1.0
  2
SOLID
 70
     1
 71
     0
 91
        1
 92
        7
 72
     0
 73
     1
 93
        4
 10
96.40486740025995
 20
274.538177871181
 10
96.40486740025995
 20
250.8964451613458
 10
99.40486740025995
 20
250.8964451613422
 10
99.40486740025995
 20
274.538177871181
 97
        0
 75
     0
 76
     1
 47
0.1901250437635136
 98
        1
 10
97.22167895134157
 20
260.2542399196857
  0
LWPOLYLINE
  5
5137
330
1F
100
AcDbEntity
  8
STAVBA OBRYS
100
AcDbPolyline
 90
        4
 70
     1
 43
0.0
 10
96.39480896854117
 20
227.254712451507
 10
96.39480896854117
 20
203.6129797416718
 10
99.39480896854115
 20
203.6129797416718
 10
99.39480896854115
 20
227.254712451507
  0
HATCH
  5
5138
330
1F
100
AcDbEntity
  8
STAVBA OBRYS
100
AcDbHatch
 10
0.0
 20
0.0
 30
0.0
210
0.0
220
0.0
230
1.0
  2
SOLID
 70
     1
 71
     0
 91
        1
 92
        7
 72
     0
 73
     1
 93
        4
 10
96.39480896854117
 20
227.2547124515106
 10
96.39480896854117
 20
203.6129797416754
 10
99.39480896854115
 20
203.6129797416718
 10
99.39480896854115
 20
227.2547124515106
 97
        0
 75
     0
 76
     1
 47
0.1901250437635136
 98
        1
 10
97.21162051962279
 20
212.9707745000153
  0
LWPOLYLINE
  5
5139
330
1F
100
AcDbEntity
  8
STAVBA OBRYS
100
AcDbPolyline
 90
        4
 70
     1
 43
0.0
 10
96.39480896854117
 20
179.9712470318366
 10
96.39480896854117
 20
156.3295143220014
 10
99.39480896854115
 20
156.3295143220014
 10
99.39480896854115
 20
179.9712470318366
  0
HATCH
  5
513A
330
1F
100
AcDbEntity
  8
STAVBA OBRYS
100
AcDbHatch
 10
0.0
 20
0.0
 30
0.0
210
0.0
220
0.0
230
1.0
  2
SOLID
 70
     1
 71
     0
 91
        1
 92
        7
 72
     0
 73
     1
 93
        4
 10
96.39480896854117
 20
179.9712470318402
 10
96.39480896854117
 20
156.329514322005
 10
99.39480896854115
 20
156.3295143220014
 10
99.39480896854115
 20
179.9712470318402
 97
        0
 75
     0
 76
     1
 47
0.1901250437635136
 98
        1
 10
97.21162051962279
 20
165.6873090803449
  0
LWPOLYLINE
  5
513B
330
1F
100
AcDbEntity
  8
STAVBA OBRYS
100
AcDbPolyline
 90
        4
 70
     1
 43
0.0
 10
96.39480896854117
 20
132.6877816121662
 10
96.39480896854117
 20
109.046048902331
 10
99.39480896854115
 20
109.046048902331
 10
99.39480896854115
 20
132.6877816121662
  0
HATCH
  5
513C
330
1F
100
AcDbEntity
  8
STAVBA OBRYS
100
AcDbHatch
 10
0.0
 20
0.0
 30
0.0
210
0.0
220
0.0
230
1.0
  2
SOLID
 70
     1
 71
     0
 91
        1
 92
        7
 72
     0
 73
     1
 93
        4
 10
96.39480896854117
 20
132.6877816121698
 10
96.39480896854117
 20
109.0460489023346
 10
99.39480896854115
 20
109.046048902331
 10
99.39480896854115
 20
132.6877816121698
 97
        0
 75
     0
 76
     1
 47
0.1901250437635136
 98
        1
 10
97.21162051962279
 20
118.4038436606745
  0
LWPOLYLINE
  5
513D
330
1F
100
AcDbEntity
  8
STAVBA OBRYS
100
AcDbPolyline
 90
        4
 70
     1
 43
0.0
 10
96.39480896854117
 20
85.40431619249586
 10
96.39480896854117
 20
61.76258348266066
 10
99.39480896854115
 20
61.76258348266066
 10
99.39480896854115
 20
85.40431619249586
  0
HATCH
  5
513E
330
1F
100
AcDbEntity
  8
STAVBA OBRYS
100
AcDbHatch
 10
0.0
 20
0.0
 30
0.0
210
0.0
220
0.0
230
1.0
  2
SOLID
 70
     1
 71
     0
 91
        1
 92
        7
 72
     0
 73
     1
 93
        4
 10
96.39480896854117
 20
85.40431619249948
 10
96.39480896854117
 20
61.76258348266429
 10
99.39480896854115
 20
61.76258348266066
 10
99.39480896854115
 20
85.40431619249948
 97
        0
 75
     0
 76
     1
 47
0.1901250437635136
 98
        1
 10
97.21162051962279
 20
71.12037824100418
  0
LWPOLYLINE
  5
513F
330
1F
100
AcDbEntity
  8
STAVBA OBRYS
100
AcDbPolyline
 90
        4
 70
     1
 43
0.0
 10
96.39480896854117
 20
38.12085077282546
 10
96.39480896854117
 20
14.47911806299026
 10
99.39480896854115
 20
14.47911806299026
 10
99.39480896854115
 20
38.12085077282546
  0
HATCH
  5
5140
330
1F
100
AcDbEntity
  8
STAVBA OBRYS
100
AcDbHatch
 10
0.0
 20
0.0
 30
0.0
210
0.0
220
0.0
230
1.0
  2
SOLID
 70
     1
 71
     0
 91
        1
 92
        7
 72
     0
 73
     1
 93
        4
 10
96.39480896854117
 20
38.1208507728291
 10
96.39480896854117
 20
14.4791180629939
 10
99.39480896854115
 20
14.47911806299026
 10
99.39480896854115
 20
38.1208507728291
 97
        0
 75
     0
 76
     1
 47
0.1901250437635136
 98
        1
 10
97.21162051962279
 20
23.83691282133378
  0
HATCH
  5
5141
330
1F
100
AcDbEntity
  8
STAVBA OBRYS
100
AcDbHatch
 10
0.0
 20
0.0
 30
0.0
210
0.0
220
0.0
230
1.0
  2
SOLID
 70
     1
 71
     0
 91
        1
 92
        7
 72
     0
 73
     1
 93
        4
 10
96.39480896854117
 20
-9.162614646841291
 10
96.39480896854117
 20
-32.80434735667649
 10
99.39480896854115
 20
-32.80434735668012
 10
99.39480896854115
 20
-9.162614646841291
 97
        0
 75
     0
 76
     1
 47
0.1901250437635136
 98
        1
 10
97.21162051962279
 20
-23.44655259833661
  0
LWPOLYLINE
  5
5142
330
1F
100
AcDbEntity
  8
STAVBA OBRYS
100
AcDbPolyline
 90
        4
 70
     1
 43
0.0
 10
96.39480896854117
 20
-9.162614646844929
 10
96.39480896854117
 20
-32.80434735668012
 10
99.39480896854115
 20
-32.80434735668012
 10
99.39480896854115
 20
-9.162614646844929
  0
LINE
  5
5143
330
1F
100
AcDbEntity
  8
STAVBA OBRYS
100
AcDbLine
 10
96.39480896853752
 20
-68.69921660027529
 30
0.0
 11
96.39480896854117
 21
338.4885391599667
 31
0.0
  0
HATCH
  5
5144
330
1F
100
AcDbEntity
  8
STAVBA OBRYS
100
AcDbHatch
 10
0.0
 20
0.0
 30
0.0
210
0.0
220
0.0
230
1.0
  2
SOLID
 70
     1
 71
     0
 91
        1
 92
        7
 72
     0
 73
     1
 93
        4
 10
96.39480896854117
 20
369.1051087105218
 10
96.39480896854117
 20
345.4633760006866
 10
99.39480896854115
 20
345.463376000683
 10
99.39480896854115
 20
369.1051087105218
 97
        0
 75
     0
 76
     1
 47
0.1901250437635136
 98
        1
 10
97.21162051962279
 20
354.8211707590265
  0
LWPOLYLINE
  5
5145
330
1F
100
AcDbEntity
  8
STAVBA OBRYS
100
AcDbPolyline
 90
        4
 70
     1
 43
0.0
 10
96.39480896854117
 20
369.1051087105182
 10
96.39480896854117
 20
345.463376000683
 10
99.39480896854115
 20
345.463376000683
 10
99.39480896854115
 20
369.1051087105182
  0
HATCH
  5
5146
330
1F
100
AcDbEntity
  8
STAVBA OBRYS
100
AcDbHatch
 10
0.0
 20
0.0
 30
0.0
210
0.0
220
0.0
230
1.0
  2
SOLID
 70
     1
 71
     0
 91
        1
 92
        7
 72
     0
 73
     1
 93
        4
 10
96.39480896854117
 20
416.3885741301922
 10
96.39480896854117
 20
392.746841420357
 10
99.39480896854115
 20
392.7468414203534
 10
99.39480896854115
 20
416.3885741301922
 97
        0
 75
     0
 76
     1
 47
0.1901250437635136
 98
        1
 10
97.21162051962279
 20
402.1046361786969
  0
LWPOLYLINE
  5
5147
330
1F
100
AcDbEntity
  8
STAVBA OBRYS
100
AcDbPolyline
 90
        4
 70
     1
 43
0.0
 10
96.39480896854117
 20
416.3885741301886
 10
96.39480896854117
 20
392.7468414203534
 10
99.39480896854115
 20
392.7468414203534
 10
99.39480896854115
 20
416.3885741301886
  0
LINE
  5
5148
330
1F
100
AcDbEntity
  8
CETRIS
100
AcDbLine
 10
111.3948089685375
 20
-80.12510164396799
 30
0.0
 11
111.3948089685375
 21
415.4269074594552
 31
0.0
  0
LINE
  5
5149
330
1F
100
AcDbEntity
  8
STAVBA OBRYS
100
AcDbLine
 10
123.8948089685411
 20
-80.12510164396799
 30
0.0
 11
123.8948089685411
 21
147.7401302207611
 31
0.0
  0
LINE
  5
514A
330
1F
100
AcDbEntity
  8
izolace
  6
IZOLACE
 48
5.799999999999999
100
AcDbLine
 10
36.39290499295498
 20
269.9519092187177
 30
0.0
 11
36.29595763085422
 21
415.4269074594552
 31
0.0
  0
LINE
  5
514B
330
1F
100
AcDbEntity
  8
SPOJOVACÍ
  6
Continuous
100
AcDbLine
 10
-14.28023706038106
 20
280.3515290968273
 30
0.0
 11
-12.92032004683892
 21
284.3959334564199
 31
0.0
  0
LINE
  5
514C
330
1F
100
AcDbEntity
  8
SPOJOVACÍ
  6
Continuous
100
AcDbLine
 10
-13.68399437522634
 20
280.3515290968273
 30
0.0
 11
-12.3240773616842
 21
284.3959334564199
 31
0.0
  0
LINE
  5
514D
330
1F
100
AcDbEntity
  8
SPOJOVACÍ
  6
Continuous
100
AcDbLine
 10
-12.70172873481237
 20
284.7735848273653
 30
0.0
 11
-12.92032004683892
 21
284.3959334564199
 31
0.0
  0
LINE
  5
514E
330
1F
100
AcDbEntity
  8
SPOJOVACÍ
  6
Continuous
100
AcDbLine
 10
-12.70172873481237
 20
284.7735848273653
 30
0.0
 11
-12.3240773616842
 21
284.3959334564199
 31
0.0
  0
LINE
  5
514F
330
1F
100
AcDbEntity
  8
SPOJOVACÍ
  6
Continuous
100
AcDbLine
 10
-13.90165551127461
 20
279.9738777215164
 30
0.0
 11
-14.28023706038106
 21
280.3515290968273
 31
0.0
  0
LINE
  5
5150
330
1F
100
AcDbEntity
  8
SPOJOVACÍ
  6
Continuous
100
AcDbLine
 10
-13.90165551127461
 20
279.9738777215164
 30
0.0
 11
-13.68399437522634
 21
280.3515290968273
 31
0.0
  0
LINE
  5
5151
330
1F
100
AcDbEntity
  8
SPOJOVACÍ
  6
Continuous
100
AcDbLine
 10
-13.90165551127461
 20
279.9738777215164
 30
0.0
 11
-12.70172873481237
 21
284.7735848273653
 31
0.0
  0
LINE
  5
5152
330
1F
100
AcDbEntity
  8
SPOJOVACÍ
  6
Continuous
100
AcDbLine
 10
-17.40004667934295
 20
280.3515290968273
 30
0.0
 11
-16.0401296658008
 21
284.3959334564199
 31
0.0
  0
LINE
  5
5153
330
1F
100
AcDbEntity
  8
SPOJOVACÍ
  6
Continuous
100
AcDbLine
 10
-16.8038039941955
 20
280.3515290968273
 30
0.0
 11
-15.44388698092257
 21
284.3959334564199
 31
0.0
  0
LINE
  5
5154
330
1F
100
AcDbEntity
  8
SPOJOVACÍ
  6
Continuous
100
AcDbLine
 10
-15.82246852975254
 20
284.7735848273653
 30
0.0
 11
-16.0401296658008
 21
284.3959334564199
 31
0.0
  0
LINE
  5
5155
330
1F
100
AcDbEntity
  8
SPOJOVACÍ
  6
Continuous
100
AcDbLine
 10
-15.82246852975254
 20
284.7735848273653
 30
0.0
 11
-15.44388698092257
 21
284.3959334564199
 31
0.0
  0
LINE
  5
5156
330
1F
100
AcDbEntity
  8
SPOJOVACÍ
  6
Continuous
100
AcDbLine
 10
-17.02239530621477
 20
279.9738777215164
 30
0.0
 11
-17.40004667934295
 21
280.3515290968273
 31
0.0
  0
LINE
  5
5157
330
1F
100
AcDbEntity
  8
SPOJOVACÍ
  6
Continuous
100
AcDbLine
 10
-17.02239530621477
 20
279.9738777215164
 30
0.0
 11
-16.8038039941955
 21
280.3515290968273
 31
0.0
  0
LINE
  5
5158
330
1F
100
AcDbEntity
  8
SPOJOVACÍ
  6
Continuous
100
AcDbLine
 10
-17.02239530621477
 20
279.9738777215164
 30
0.0
 11
-15.82246852975254
 21
284.7735848273653
 31
0.0
  0
LINE
  5
5159
330
1F
100
AcDbEntity
  8
SPOJOVACÍ
  6
Continuous
100
AcDbLine
 10
-20.5198562983121
 20
280.3515290968273
 30
0.0
 11
-19.15993928503917
 21
284.3959334564199
 31
0.0
  0
LINE
  5
515A
330
1F
100
AcDbEntity
  8
SPOJOVACÍ
  6
Continuous
100
AcDbLine
 10
-19.92361361315738
 20
280.3515290968273
 30
0.0
 11
-18.56369659989172
 21
284.3959334564199
 31
0.0
  0
LINE
  5
515B
330
1F
100
AcDbEntity
  8
SPOJOVACÍ
  6
Continuous
100
AcDbLine
 10
-18.94227814872169
 20
284.7735848273653
 30
0.0
 11
-19.15993928503917
 21
284.3959334564199
 31
0.0
  0
LINE
  5
515C
330
1F
100
AcDbEntity
  8
SPOJOVACÍ
  6
Continuous
100
AcDbLine
 10
-18.94227814872169
 20
284.7735848273653
 30
0.0
 11
-18.56369659989172
 21
284.3959334564199
 31
0.0
  0
LINE
  5
515D
330
1F
100
AcDbEntity
  8
SPOJOVACÍ
  6
Continuous
100
AcDbLine
 10
-20.14220492518393
 20
279.9738777215164
 30
0.0
 11
-20.5198562983121
 21
280.3515290968273
 31
0.0
  0
LINE
  5
515E
330
1F
100
AcDbEntity
  8
SPOJOVACÍ
  6
Continuous
100
AcDbLine
 10
-20.14220492518393
 20
279.9738777215164
 30
0.0
 11
-19.92361361315738
 21
280.3515290968273
 31
0.0
  0
LINE
  5
515F
330
1F
100
AcDbEntity
  8
SPOJOVACÍ
  6
Continuous
100
AcDbLine
 10
-20.14220492518393
 20
279.9738777215164
 30
0.0
 11
-18.94227814872169
 21
284.7735848273653
 31
0.0
  0
LINE
  5
5160
330
1F
100
AcDbEntity
  8
SPOJOVACÍ
  6
Continuous
100
AcDbLine
 10
-4.796164646343413
 20
281.3570491325147
 30
0.0
 11
-4.485485930569439
 21
283.5113362739715
 31
0.0
  0
LINE
  5
5161
330
1F
100
AcDbEntity
  8
SPOJOVACÍ
  6
Continuous
100
AcDbLine
 10
-5.173816019471587
 20
281.7347005034601
 30
0.0
 11
-4.703147066886913
 21
283.1336849030261
 31
0.0
  0
LINE
  5
5162
330
1F
100
AcDbEntity
  8
SPOJOVACÍ
  6
Continuous
100
AcDbLine
 10
-4.577573334324142
 20
281.7347005034601
 30
0.0
 11
-4.106904381739468
 21
283.1336849030261
 31
0.0
  0
LINE
  5
5163
330
1F
100
AcDbEntity
  8
SPOJOVACÍ
  6
Continuous
100
AcDbLine
 10
-4.485485930569439
 20
283.5113362739715
 30
0.0
 11
-4.703147066886913
 21
283.1336849030261
 31
0.0
  0
LINE
  5
5164
330
1F
100
AcDbEntity
  8
SPOJOVACÍ
  6
Continuous
100
AcDbLine
 10
-4.485485930569439
 20
283.5113362739715
 30
0.0
 11
-4.106904381739468
 21
283.1336849030261
 31
0.0
  0
LINE
  5
5165
330
1F
100
AcDbEntity
  8
SPOJOVACÍ
  6
Continuous
100
AcDbLine
 10
-4.796164646343413
 20
281.3570491325147
 30
0.0
 11
-5.173816019471587
 21
281.7347005034601
 31
0.0
  0
LINE
  5
5166
330
1F
100
AcDbEntity
  8
SPOJOVACÍ
  6
Continuous
100
AcDbLine
 10
-4.796164646343413
 20
281.3570491325147
 30
0.0
 11
-4.577573334324142
 21
281.7347005034601
 31
0.0
  0
LINE
  5
5167
330
1F
100
AcDbEntity
  8
SPOJOVACÍ
  6
Continuous
100
AcDbLine
 10
-7.809934224663038
 20
280.7924324220433
 30
0.0
 11
-7.176484507893064
 21
283.9085213384744
 31
0.0
  0
LINE
  5
5168
330
1F
100
AcDbEntity
  8
SPOJOVACÍ
  6
Continuous
100
AcDbLine
 10
-8.188515773769495
 20
281.1700837973542
 30
0.0
 11
-7.394145643941328
 21
283.5308699675291
 31
0.0
  0
LINE
  5
5169
330
1F
100
AcDbEntity
  8
SPOJOVACÍ
  6
Continuous
100
AcDbLine
 10
-7.592273088614774
 20
281.1700837973542
 30
0.0
 11
-6.797902959063094
 21
283.5308699675291
 31
0.0
  0
LINE
  5
516A
330
1F
100
AcDbEntity
  8
SPOJOVACÍ
  6
Continuous
100
AcDbLine
 10
-7.176484507893064
 20
283.9085213384744
 30
0.0
 11
-7.394145643941328
 21
283.5308699675291
 31
0.0
  0
LINE
  5
516B
330
1F
100
AcDbEntity
  8
SPOJOVACÍ
  6
Continuous
100
AcDbLine
 10
-7.176484507893064
 20
283.9085213384744
 30
0.0
 11
-6.797902959063094
 21
283.5308699675291
 31
0.0
  0
LINE
  5
516C
330
1F
100
AcDbEntity
  8
SPOJOVACÍ
  6
Continuous
100
AcDbLine
 10
-7.809934224663038
 20
280.7924324220433
 30
0.0
 11
-8.188515773769495
 21
281.1700837973542
 31
0.0
  0
LINE
  5
516D
330
1F
100
AcDbEntity
  8
SPOJOVACÍ
  6
Continuous
100
AcDbLine
 10
-7.809934224663038
 20
280.7924324220433
 30
0.0
 11
-7.592273088614774
 21
281.1700837973542
 31
0.0
  0
LINE
  5
516E
330
1F
100
AcDbEntity
  8
SPOJOVACÍ
  6
Continuous
100
AcDbLine
 10
-10.82463397896094
 20
280.2278157159374
 30
0.0
 11
-9.851670096656334
 21
284.3531453686803
 31
0.0
  0
LINE
  5
516F
330
1F
100
AcDbEntity
  8
SPOJOVACÍ
  6
Continuous
100
AcDbLine
 10
-11.20228535208912
 20
280.6063972642217
 30
0.0
 11
-10.06933123270459
 21
283.9754939977349
 31
0.0
  0
LINE
  5
5170
330
1F
100
AcDbEntity
  8
SPOJOVACÍ
  6
Continuous
100
AcDbLine
 10
-10.6060426669344
 20
280.6063972642217
 30
0.0
 11
-9.473088547549878
 21
283.9754939977349
 31
0.0
  0
LINE
  5
5171
330
1F
100
AcDbEntity
  8
SPOJOVACÍ
  6
Continuous
100
AcDbLine
 10
-9.851670096656334
 20
284.3531453686803
 30
0.0
 11
-10.06933123270459
 21
283.9754939977349
 31
0.0
  0
LINE
  5
5172
330
1F
100
AcDbEntity
  8
SPOJOVACÍ
  6
Continuous
100
AcDbLine
 10
-9.851670096656334
 20
284.3531453686803
 30
0.0
 11
-9.473088547549878
 21
283.9754939977349
 31
0.0
  0
LINE
  5
5173
330
1F
100
AcDbEntity
  8
SPOJOVACÍ
  6
Continuous
100
AcDbLine
 10
-10.82463397896094
 20
280.2278157159374
 30
0.0
 11
-11.20228535208912
 21
280.6063972642217
 31
0.0
  0
LINE
  5
5174
330
1F
100
AcDbEntity
  8
SPOJOVACÍ
  6
Continuous
100
AcDbLine
 10
-10.82463397896094
 20
280.2278157159374
 30
0.0
 11
-10.6060426669344
 21
280.6063972642217
 31
0.0
  0
LINE
  5
5175
330
1F
100
AcDbEntity
  8
SPOJOVACÍ
  6
Continuous
100
AcDbLine
 10
-23.63966591755047
 20
280.3515290968273
 30
0.0
 11
-22.28067907971012
 21
284.3959334564199
 31
0.0
  0
LINE
  5
5176
330
1F
100
AcDbEntity
  8
SPOJOVACÍ
  6
Continuous
100
AcDbLine
 10
-23.04342323239575
 20
280.3515290968273
 30
0.0
 11
-21.68443639483189
 21
284.3959334564199
 31
0.0
  0
LINE
  5
5177
330
1F
100
AcDbEntity
  8
SPOJOVACÍ
  6
Continuous
100
AcDbLine
 10
-22.06208776768357
 20
284.7735848273653
 30
0.0
 11
-22.28067907971012
 21
284.3959334564199
 31
0.0
  0
LINE
  5
5178
330
1F
100
AcDbEntity
  8
SPOJOVACÍ
  6
Continuous
100
AcDbLine
 10
-22.06208776768357
 20
284.7735848273653
 30
0.0
 11
-21.68443639483189
 21
284.3959334564199
 31
0.0
  0
LINE
  5
5179
330
1F
100
AcDbEntity
  8
SPOJOVACÍ
  6
Continuous
100
AcDbLine
 10
-23.2620145444223
 20
279.9738777215164
 30
0.0
 11
-23.63966591755047
 21
280.3515290968273
 31
0.0
  0
LINE
  5
517A
330
1F
100
AcDbEntity
  8
SPOJOVACÍ
  6
Continuous
100
AcDbLine
 10
-23.2620145444223
 20
279.9738777215164
 30
0.0
 11
-23.04342323239575
 21
280.3515290968273
 31
0.0
  0
LINE
  5
517B
330
1F
100
AcDbEntity
  8
SPOJOVACÍ
  6
Continuous
100
AcDbLine
 10
-23.2620145444223
 20
279.9738777215164
 30
0.0
 11
-22.06208776768357
 21
284.7735848273653
 31
0.0
  0
LINE
  5
517C
330
1F
100
AcDbEntity
  8
SPOJOVACÍ
  6
Continuous
100
AcDbLine
 10
-26.76040571221415
 20
280.3515290968273
 30
0.0
 11
-25.40048869894849
 21
284.3959334564199
 31
0.0
  0
LINE
  5
517D
330
1F
100
AcDbEntity
  8
SPOJOVACÍ
  6
Continuous
100
AcDbLine
 10
-26.16416302733592
 20
280.3515290968273
 30
0.0
 11
-24.80424601379377
 21
284.3959334564199
 31
0.0
  0
LINE
  5
517E
330
1F
100
AcDbEntity
  8
SPOJOVACÍ
  6
Continuous
100
AcDbLine
 10
-25.18189738692194
 20
284.7735848273653
 30
0.0
 11
-25.40048869894849
 21
284.3959334564199
 31
0.0
  0
LINE
  5
517F
330
1F
100
AcDbEntity
  8
SPOJOVACÍ
  6
Continuous
100
AcDbLine
 10
-25.18189738692194
 20
284.7735848273653
 30
0.0
 11
-24.80424601379377
 21
284.3959334564199
 31
0.0
  0
LINE
  5
5180
330
1F
100
AcDbEntity
  8
SPOJOVACÍ
  6
Continuous
100
AcDbLine
 10
-26.38182416338418
 20
279.9738777215164
 30
0.0
 11
-26.76040571221415
 21
280.3515290968273
 31
0.0
  0
LINE
  5
5181
330
1F
100
AcDbEntity
  8
SPOJOVACÍ
  6
Continuous
100
AcDbLine
 10
-26.38182416338418
 20
279.9738777215164
 30
0.0
 11
-26.16416302733592
 21
280.3515290968273
 31
0.0
  0
LINE
  5
5182
330
1F
100
AcDbEntity
  8
SPOJOVACÍ
  6
Continuous
100
AcDbLine
 10
-26.38182416338418
 20
279.9738777215164
 30
0.0
 11
-25.18189738692194
 21
284.7735848273653
 31
0.0
  0
LINE
  5
5183
330
1F
100
AcDbEntity
  8
SPOJOVACÍ
  6
Continuous
100
AcDbLine
 10
-10.24606463405393
 20
283.477849946524
 30
0.0
 11
-12.21710714534015
 21
283.7234163579917
 31
0.0
  0
LINE
  5
5184
330
1F
100
AcDbEntity
  8
SPOJOVACÍ
  6
Continuous
100
AcDbLine
 10
-7.539253068155403
 20
283.1392659539627
 30
0.0
 11
-9.675866871008793
 21
283.4062264093002
 31
0.0
  0
LINE
  5
5185
330
1F
100
AcDbEntity
  8
SPOJOVACÍ
  6
Continuous
100
AcDbLine
 10
-4.8222095687222
 20
282.7997517927936
 30
0.0
 11
-6.967194953706666
 21
283.0676424211045
 31
0.0
  0
LINE
  5
5186
330
1F
100
AcDbEntity
  8
SPOJOVACÍ
  6
Continuous
100
AcDbLine
 10
-4.50594979819175
 20
281.9877083205422
 30
0.0
 11
-1.416835980386849
 21
282.3737312744409
 31
0.0
  0
LINE
  5
5187
330
1F
100
AcDbEntity
  8
SPOJOVACÍ
  6
Continuous
100
AcDbLine
 10
-7.447165664400699
 20
281.6202888828623
 30
0.0
 11
-5.126377054045178
 21
281.9105037280163
 31
0.0
  0
LINE
  5
5188
330
1F
100
AcDbEntity
  8
SPOJOVACÍ
  6
Continuous
100
AcDbLine
 10
-10.39954364012987
 20
281.2510090905046
 30
0.0
 11
-8.077824854065283
 21
281.5412239400241
 31
0.0
  0
LINE
  5
5189
330
1F
100
AcDbEntity
  8
SPOJOVACÍ
  6
Continuous
100
AcDbLine
 10
-1.416835980386849
 20
282.3737312744409
 30
0.0
 11
-4.252941981655339
 21
282.7281282555698
 31
0.0
  0
LINE
  5
518A
330
1F
100
AcDbEntity
  8
SPOJOVACÍ
  6
Continuous
100
AcDbLine
 10
-12.21710714534015
 20
281.0240461952556
 30
0.0
 11
-11.0199708959833
 21
281.1738044979786
 31
0.0
  0
LINE
  5
518B
330
1F
100
AcDbEntity
  8
SPOJOVACÍ
  6
Continuous
100
AcDbLine
 10
-12.5538307832237
 20
283.7234163579917
 30
0.0
 11
-12.21710714534015
 21
283.7234163579917
 31
0.0
  0
LINE
  5
518C
330
1F
100
AcDbEntity
  8
SPOJOVACÍ
  6
Continuous
100
AcDbLine
 10
-15.67643092983667
 20
283.7234163579917
 30
0.0
 11
-13.1575148748077
 21
283.7234163579917
 31
0.0
  0
LINE
  5
518D
330
1F
100
AcDbEntity
  8
SPOJOVACÍ
  6
Continuous
100
AcDbLine
 10
-13.46447288722879
 20
281.0240461952556
 30
0.0
 11
-12.21710714534015
 21
281.0240461952556
 31
0.0
  0
LINE
  5
518E
330
1F
100
AcDbEntity
  8
SPOJOVACÍ
  6
Continuous
100
AcDbLine
 10
-16.57870145171068
 20
281.0240461952556
 30
0.0
 11
-14.06071557238351
 21
281.0240461952556
 31
0.0
  0
LINE
  5
518F
330
1F
100
AcDbEntity
  8
SPOJOVACÍ
  6
Continuous
100
AcDbLine
 10
-18.79810090047863
 20
283.7234163579917
 30
0.0
 11
-16.27732449376958
 21
283.7234163579917
 31
0.0
  0
LINE
  5
5190
330
1F
100
AcDbEntity
  8
SPOJOVACÍ
  6
Continuous
100
AcDbLine
 10
-21.92070104682238
 20
283.7234163579917
 30
0.0
 11
-19.39248323395327
 21
283.7234163579917
 31
0.0
  0
LINE
  5
5191
330
1F
100
AcDbEntity
  8
SPOJOVACÍ
  6
Continuous
100
AcDbLine
 10
-25.03585978700607
 20
283.7234163579917
 30
0.0
 11
-22.51694373197711
 21
283.7234163579917
 31
0.0
  0
LINE
  5
5192
330
1F
100
AcDbEntity
  8
SPOJOVACÍ
  6
Continuous
100
AcDbLine
 10
-19.71153353186559
 20
281.0240461952556
 30
0.0
 11
-17.18331571899648
 21
281.0240461952556
 31
0.0
  0
LINE
  5
5193
330
1F
100
AcDbEntity
  8
SPOJOVACÍ
  6
Continuous
100
AcDbLine
 10
-22.82669227204928
 20
281.0240461952556
 30
0.0
 11
-20.30591586534023
 21
281.0240461952556
 31
0.0
  0
LINE
  5
5194
330
1F
100
AcDbEntity
  8
SPOJOVACÍ
  6
Continuous
100
AcDbLine
 10
-25.94929241839304
 20
281.0240461952556
 30
0.0
 11
-23.43037636336407
 21
281.0240461952556
 31
0.0
  0
LINE
  5
5195
330
1F
100
AcDbEntity
  8
SPOJOVACÍ
  6
Continuous
100
AcDbLine
 10
-30.58249805724949
 20
281.0240461952556
 30
0.0
 11
-26.54460492756948
 21
281.0240461952556
 31
0.0
  0
LINE
  5
5196
330
1F
100
AcDbEntity
  8
SPOJOVACÍ
  6
Continuous
100
AcDbLine
 10
-30.58249805724949
 20
283.7234163579917
 30
0.0
 11
-25.63954387832086
 21
283.7234163579917
 31
0.0
  0
LINE
  5
5197
330
1F
100
AcDbEntity
  8
SPOJOVACÍ
  6
Continuous
100
AcDbLine
 10
-35.98216855160603
 20
277.2735773858069
 30
0.0
 11
-35.23802791513185
 21
278.6232624693578
 31
0.0
  0
LINE
  5
5198
330
1F
100
AcDbEntity
  8
SPOJOVACÍ
  6
Continuous
100
AcDbLine
 10
-35.23802791513185
 20
278.6232624693578
 30
0.0
 11
-34.16925592571965
 21
279.7338923697164
 31
0.0
  0
LINE
  5
5199
330
1F
100
AcDbEntity
  8
SPOJOVACÍ
  6
Continuous
100
AcDbLine
 10
-34.16925592571965
 20
279.7338923697164
 30
0.0
 11
-32.85026664742213
 21
280.5301228490346
 31
0.0
  0
LINE
  5
519A
330
1F
100
AcDbEntity
  8
SPOJOVACÍ
  6
Continuous
100
AcDbLine
 10
-32.85026664742213
 20
280.5301228490346
 30
0.0
 11
-31.36942678037189
 21
280.958003713334
 31
0.0
  0
LINE
  5
519B
330
1F
100
AcDbEntity
  8
SPOJOVACÍ
  6
Continuous
100
AcDbLine
 10
-31.36942678037189
 20
280.958003713334
 30
0.0
 11
-30.58249805724949
 21
281.0240461952556
 31
0.0
  0
LINE
  5
519C
330
1F
100
AcDbEntity
  8
SPOJOVACÍ
  6
Continuous
100
AcDbLine
 10
-34.72736140328084
 20
285.5214461680073
 30
0.0
 11
-35.64544491372248
 21
286.758579976907
 31
0.0
  0
LINE
  5
519D
330
1F
100
AcDbEntity
  8
SPOJOVACÍ
  6
Continuous
100
AcDbLine
 10
-35.64544491372248
 20
286.758579976907
 30
0.0
 11
-35.98216855160603
 21
287.4738851630748
 31
0.0
  0
LINE
  5
519E
330
1F
100
AcDbEntity
  8
SPOJOVACÍ
  6
Continuous
100
AcDbLine
 10
-35.98216855160603
 20
277.2735773858069
 30
0.0
 11
-35.98216855160603
 21
287.4738851630748
 31
0.0
  0
LINE
  5
519F
330
1F
100
AcDbEntity
  8
SPOJOVACÍ
  6
Continuous
100
AcDbLine
 10
-37.18209532833748
 20
277.2735773858069
 30
0.0
 11
-35.98216855160603
 21
277.2735773858069
 31
0.0
  0
LINE
  5
51A0
330
1F
100
AcDbEntity
  8
SPOJOVACÍ
  6
Continuous
100
AcDbLine
 10
-37.18209532833748
 20
277.2735773858069
 30
0.0
 11
-37.18209532833748
 21
287.4738851630748
 31
0.0
  0
LINE
  5
51A1
330
1F
100
AcDbEntity
  8
SPOJOVACÍ
  6
Continuous
100
AcDbLine
 10
-37.18209532833748
 20
287.4738851630748
 30
0.0
 11
-35.98216855160603
 21
287.4738851630748
 31
0.0
  0
LINE
  5
51A2
330
1F
100
AcDbEntity
  8
SPOJOVACÍ
  6
Continuous
100
AcDbLine
 10
-30.58249805724949
 20
283.7234163579917
 30
0.0
 11
-32.10612601067873
 21
283.9503792488752
 31
0.0
  0
LINE
  5
51A3
330
1F
100
AcDbEntity
  8
SPOJOVACÍ
  6
Continuous
100
AcDbLine
 10
-32.10612601067873
 20
283.9503792488752
 30
0.0
 11
-33.51999322038205
 21
284.5633650980228
 31
0.0
  0
LINE
  5
51A4
330
1F
100
AcDbEntity
  8
SPOJOVACÍ
  6
Continuous
100
AcDbLine
 10
-33.51999322038205
 20
284.5633650980228
 30
0.0
 11
-34.72736140328084
 21
285.5214461680073
 31
0.0
  0
LINE
  5
51A5
330
1F
100
AcDbEntity
  8
izolace
  6
IZOLACE
 48
1.95
100
AcDbLine
 10
-57.18209532833748
 20
415.4269074594552
 30
0.0
 11
-57.18209532834112
 21
-80.12510164396799
 31
0.0
  0
LINE
  5
51A6
330
1F
100
AcDbEntity
  8
STAVBA OBRYS
100
AcDbLine
 10
-87.18209532833748
 20
415.4269074594552
 30
0.0
 11
-87.18209532834476
 21
-80.12510164396799
 31
0.0
  0
ARC
  5
51A7
330
1F
100
AcDbEntity
  8
STAVBA OBRYS
100
AcDbCircle
 10
111.3948089685411
 20
147.7401302207611
 30
0.0
 40
12.5
100
AcDbArc
 50
0.0
 51
90.0
  0
LINE
  5
51A8
330
1F
100
AcDbEntity
  8
STAVBA OBRYS
100
AcDbLine
 10
123.8948089685411
 20
172.7401302207611
 30
0.0
 11
123.8948089685375
 21
415.4269074594552
 31
0.0
  0
ARC
  5
51A9
330
1F
100
AcDbEntity
  8
STAVBA OBRYS
100
AcDbCircle
 10
111.3948089685411
 20
172.7401302207611
 30
0.0
 40
12.5
100
AcDbArc
 50
270.0
 51
0.0
  0
LINE
  5
51AA
330
1F
100
AcDbEntity
  8
STAVBA OBRYS
100
AcDbLine
 10
123.8948089685411
 20
172.7401302207611
 30
0.0
 11
123.8948089685411
 21
147.7401302207611
 31
0.0
  0
LINE
  5
51AB
330
1F
100
AcDbEntity
  8
SPOJOVACÍ
  6
Continuous
100
AcDbLine
 10
104.4282294407796
 20
183.2255991731356
 30
0.0
 11
103.2722999792688
 21
186.6633428787893
 31
0.0
  0
LINE
  5
51AC
330
1F
100
AcDbEntity
  8
SPOJOVACÍ
  6
Continuous
100
AcDbLine
 10
103.9214231583985
 20
183.2255991731356
 30
0.0
 11
102.765493696884
 21
186.6633428787893
 31
0.0
  0
LINE
  5
51AD
330
1F
100
AcDbEntity
  8
SPOJOVACÍ
  6
Continuous
100
AcDbLine
 10
103.086497364043
 20
186.9843465440929
 30
0.0
 11
103.2722999792688
 21
186.6633428787893
 31
0.0
  0
LINE
  5
51AE
330
1F
100
AcDbEntity
  8
SPOJOVACÍ
  6
Continuous
100
AcDbLine
 10
103.086497364043
 20
186.9843465440929
 30
0.0
 11
102.765493696884
 21
186.6633428787893
 31
0.0
  0
LINE
  5
51AF
330
1F
100
AcDbEntity
  8
SPOJOVACÍ
  6
Continuous
100
AcDbLine
 10
104.1064351240359
 20
182.9045955041213
 30
0.0
 11
104.4282294407796
 21
183.2255991731356
 31
0.0
  0
LINE
  5
51B0
330
1F
100
AcDbEntity
  8
SPOJOVACÍ
  6
Continuous
100
AcDbLine
 10
104.1064351240359
 20
182.9045955041213
 30
0.0
 11
103.9214231583985
 21
183.2255991731356
 31
0.0
  0
LINE
  5
51B1
330
1F
100
AcDbEntity
  8
SPOJOVACÍ
  6
Continuous
100
AcDbLine
 10
104.1064351240359
 20
182.9045955041213
 30
0.0
 11
103.086497364043
 21
186.9843465440929
 31
0.0
  0
LINE
  5
51B2
330
1F
100
AcDbEntity
  8
SPOJOVACÍ
  6
Continuous
100
AcDbLine
 10
107.0800676168958
 20
183.2255991731356
 30
0.0
 11
105.9241381553849
 21
186.6633428787893
 31
0.0
  0
LINE
  5
51B3
330
1F
100
AcDbEntity
  8
SPOJOVACÍ
  6
Continuous
100
AcDbLine
 10
106.5732613345219
 20
183.2255991731356
 30
0.0
 11
105.4173318732366
 21
186.6633428787893
 31
0.0
  0
LINE
  5
51B4
330
1F
100
AcDbEntity
  8
SPOJOVACÍ
  6
Continuous
100
AcDbLine
 10
105.7391261897439
 20
186.9843465440929
 30
0.0
 11
105.9241381553849
 21
186.6633428787893
 31
0.0
  0
LINE
  5
51B5
330
1F
100
AcDbEntity
  8
SPOJOVACÍ
  6
Continuous
100
AcDbLine
 10
105.7391261897439
 20
186.9843465440929
 30
0.0
 11
105.4173318732366
 21
186.6633428787893
 31
0.0
  0
LINE
  5
51B6
330
1F
100
AcDbEntity
  8
SPOJOVACÍ
  6
Continuous
100
AcDbLine
 10
106.7590639497368
 20
182.9045955041213
 30
0.0
 11
107.0800676168958
 21
183.2255991731356
 31
0.0
  0
LINE
  5
51B7
330
1F
100
AcDbEntity
  8
SPOJOVACÍ
  6
Continuous
100
AcDbLine
 10
106.7590639497368
 20
182.9045955041213
 30
0.0
 11
106.5732613345219
 21
183.2255991731356
 31
0.0
  0
LINE
  5
51B8
330
1F
100
AcDbEntity
  8
SPOJOVACÍ
  6
Continuous
100
AcDbLine
 10
106.7590639497368
 20
182.9045955041213
 30
0.0
 11
105.7391261897439
 21
186.9843465440929
 31
0.0
  0
LINE
  5
51B9
330
1F
100
AcDbEntity
  8
SPOJOVACÍ
  6
Continuous
100
AcDbLine
 10
109.7319057930192
 20
183.2255991731356
 30
0.0
 11
108.5759763317375
 21
186.6633428787893
 31
0.0
  0
LINE
  5
51BA
330
1F
100
AcDbEntity
  8
SPOJOVACÍ
  6
Continuous
100
AcDbLine
 10
109.225099510638
 20
183.2255991731356
 30
0.0
 11
108.0691700493637
 21
186.6633428787893
 31
0.0
  0
LINE
  5
51BB
330
1F
100
AcDbEntity
  8
SPOJOVACÍ
  6
Continuous
100
AcDbLine
 10
108.3909643658673
 20
186.9843465440929
 30
0.0
 11
108.5759763317375
 21
186.6633428787893
 31
0.0
  0
LINE
  5
51BC
330
1F
100
AcDbEntity
  8
SPOJOVACÍ
  6
Continuous
100
AcDbLine
 10
108.3909643658673
 20
186.9843465440929
 30
0.0
 11
108.0691700493637
 21
186.6633428787893
 31
0.0
  0
LINE
  5
51BD
330
1F
100
AcDbEntity
  8
SPOJOVACÍ
  6
Continuous
100
AcDbLine
 10
109.4109021258602
 20
182.9045955041213
 30
0.0
 11
109.7319057930192
 21
183.2255991731356
 31
0.0
  0
LINE
  5
51BE
330
1F
100
AcDbEntity
  8
SPOJOVACÍ
  6
Continuous
100
AcDbLine
 10
109.4109021258602
 20
182.9045955041213
 30
0.0
 11
109.225099510638
 21
183.2255991731356
 31
0.0
  0
LINE
  5
51BF
330
1F
100
AcDbEntity
  8
SPOJOVACÍ
  6
Continuous
100
AcDbLine
 10
109.4109021258602
 20
182.9045955041213
 30
0.0
 11
108.3909643658673
 21
186.9843465440929
 31
0.0
  0
LINE
  5
51C0
330
1F
100
AcDbEntity
  8
SPOJOVACÍ
  6
Continuous
100
AcDbLine
 10
96.36676788884621
 20
184.0802912034699
 30
0.0
 11
96.10269098043978
 21
185.9114352737081
 31
0.0
  0
LINE
  5
51C1
330
1F
100
AcDbEntity
  8
SPOJOVACÍ
  6
Continuous
100
AcDbLine
 10
96.68777155600515
 20
184.4012948687734
 30
0.0
 11
96.28770294630635
 21
185.5904316084045
 31
0.0
  0
LINE
  5
51C2
330
1F
100
AcDbEntity
  8
SPOJOVACÍ
  6
Continuous
100
AcDbLine
 10
96.18096527363128
 20
184.4012948687734
 30
0.0
 11
95.78089666393248
 21
185.5904316084045
 31
0.0
  0
LINE
  5
51C3
330
1F
100
AcDbEntity
  8
SPOJOVACÍ
  6
Continuous
100
AcDbLine
 10
96.10269098043978
 20
185.9114352737081
 30
0.0
 11
96.28770294630635
 21
185.5904316084045
 31
0.0
  0
LINE
  5
51C4
330
1F
100
AcDbEntity
  8
SPOJOVACÍ
  6
Continuous
100
AcDbLine
 10
96.10269098043978
 20
185.9114352737081
 30
0.0
 11
95.78089666393248
 21
185.5904316084045
 31
0.0
  0
LINE
  5
51C5
330
1F
100
AcDbEntity
  8
SPOJOVACÍ
  6
Continuous
100
AcDbLine
 10
96.36676788884621
 20
184.0802912034699
 30
0.0
 11
96.68777155600515
 21
184.4012948687734
 31
0.0
  0
LINE
  5
51C6
330
1F
100
AcDbEntity
  8
SPOJOVACÍ
  6
Continuous
100
AcDbLine
 10
96.36676788884621
 20
184.0802912034699
 30
0.0
 11
96.18096527363128
 21
184.4012948687734
 31
0.0
  0
LINE
  5
51C7
330
1F
100
AcDbEntity
  8
SPOJOVACÍ
  6
Continuous
100
AcDbLine
 10
98.92847203041789
 20
183.6003669995691
 30
0.0
 11
98.39003977116341
 21
186.2490425785356
 31
0.0
  0
LINE
  5
51C8
330
1F
100
AcDbEntity
  8
SPOJOVACÍ
  6
Continuous
100
AcDbLine
 10
99.250266347158
 20
183.9213706685835
 30
0.0
 11
98.57505173680443
 21
185.9280389132321
 31
0.0
  0
LINE
  5
51C9
330
1F
100
AcDbEntity
  8
SPOJOVACÍ
  6
Continuous
100
AcDbLine
 10
98.74346006477686
 20
183.9213706685835
 30
0.0
 11
98.06824545465611
 21
185.9280389132321
 31
0.0
  0
LINE
  5
51CA
330
1F
100
AcDbEntity
  8
SPOJOVACÍ
  6
Continuous
100
AcDbLine
 10
98.39003977116341
 20
186.2490425785356
 30
0.0
 11
98.57505173680443
 21
185.9280389132321
 31
0.0
  0
LINE
  5
51CB
330
1F
100
AcDbEntity
  8
SPOJOVACÍ
  6
Continuous
100
AcDbLine
 10
98.39003977116341
 20
186.2490425785356
 30
0.0
 11
98.06824545465611
 21
185.9280389132321
 31
0.0
  0
LINE
  5
51CC
330
1F
100
AcDbEntity
  8
SPOJOVACÍ
  6
Continuous
100
AcDbLine
 10
98.92847203041789
 20
183.6003669995691
 30
0.0
 11
99.250266347158
 21
183.9213706685835
 31
0.0
  0
LINE
  5
51CD
330
1F
100
AcDbEntity
  8
SPOJOVACÍ
  6
Continuous
100
AcDbLine
 10
98.92847203041789
 20
183.6003669995691
 30
0.0
 11
98.74346006477686
 21
183.9213706685835
 31
0.0
  0
LINE
  5
51CE
330
1F
100
AcDbEntity
  8
SPOJOVACÍ
  6
Continuous
100
AcDbLine
 10
101.4909668215707
 20
183.1204427993792
 30
0.0
 11
100.6639475216118
 21
186.6269730042106
 31
0.0
  0
LINE
  5
51CF
330
1F
100
AcDbEntity
  8
SPOJOVACÍ
  6
Continuous
100
AcDbLine
 10
101.8119704887296
 20
183.4422371154208
 30
0.0
 11
100.8489594872528
 21
186.3059693389071
 31
0.0
  0
LINE
  5
51D0
330
1F
100
AcDbEntity
  8
SPOJOVACÍ
  6
Continuous
100
AcDbLine
 10
101.3051642063485
 20
183.4422371154208
 30
0.0
 11
100.3421532048716
 21
186.3059693389071
 31
0.0
  0
LINE
  5
51D1
330
1F
100
AcDbEntity
  8
SPOJOVACÍ
  6
Continuous
100
AcDbLine
 10
100.6639475216118
 20
186.6269730042106
 30
0.0
 11
100.8489594872528
 21
186.3059693389071
 31
0.0
  0
LINE
  5
51D2
330
1F
100
AcDbEntity
  8
SPOJOVACÍ
  6
Continuous
100
AcDbLine
 10
100.6639475216118
 20
186.6269730042106
 30
0.0
 11
100.3421532048716
 21
186.3059693389071
 31
0.0
  0
LINE
  5
51D3
330
1F
100
AcDbEntity
  8
SPOJOVACÍ
  6
Continuous
100
AcDbLine
 10
101.4909668215707
 20
183.1204427993792
 30
0.0
 11
101.8119704887296
 21
183.4422371154208
 31
0.0
  0
LINE
  5
51D4
330
1F
100
AcDbEntity
  8
SPOJOVACÍ
  6
Continuous
100
AcDbLine
 10
101.4909668215707
 20
183.1204427993792
 30
0.0
 11
101.3051642063485
 21
183.4422371154208
 31
0.0
  0
LINE
  5
51D5
330
1F
100
AcDbEntity
  8
SPOJOVACÍ
  6
Continuous
100
AcDbLine
 10
112.3837439693718
 20
183.2255991731356
 30
0.0
 11
111.2286051572093
 21
186.6633428787893
 31
0.0
  0
LINE
  5
51D6
330
1F
100
AcDbEntity
  8
SPOJOVACÍ
  6
Continuous
100
AcDbLine
 10
111.8769376869906
 20
183.2255991731356
 30
0.0
 11
110.721798875061
 21
186.6633428787893
 31
0.0
  0
LINE
  5
51D7
330
1F
100
AcDbEntity
  8
SPOJOVACÍ
  6
Continuous
100
AcDbLine
 10
111.0428025419835
 20
186.9843465440929
 30
0.0
 11
111.2286051572093
 21
186.6633428787893
 31
0.0
  0
LINE
  5
51D8
330
1F
100
AcDbEntity
  8
SPOJOVACÍ
  6
Continuous
100
AcDbLine
 10
111.0428025419835
 20
186.9843465440929
 30
0.0
 11
110.721798875061
 21
186.6633428787893
 31
0.0
  0
LINE
  5
51D9
330
1F
100
AcDbEntity
  8
SPOJOVACÍ
  6
Continuous
100
AcDbLine
 10
112.0627403022128
 20
182.9045955041213
 30
0.0
 11
112.3837439693718
 21
183.2255991731356
 31
0.0
  0
LINE
  5
51DA
330
1F
100
AcDbEntity
  8
SPOJOVACÍ
  6
Continuous
100
AcDbLine
 10
112.0627403022128
 20
182.9045955041213
 30
0.0
 11
111.8769376869906
 21
183.2255991731356
 31
0.0
  0
LINE
  5
51DB
330
1F
100
AcDbEntity
  8
SPOJOVACÍ
  6
Continuous
100
AcDbLine
 10
112.0627403022128
 20
182.9045955041213
 30
0.0
 11
111.0428025419835
 21
186.9843465440929
 31
0.0
  0
LINE
  5
51DC
330
1F
100
AcDbEntity
  8
SPOJOVACÍ
  6
Continuous
100
AcDbLine
 10
115.0363727948363
 20
183.2255991731356
 30
0.0
 11
113.8804433335619
 21
186.6633428787893
 31
0.0
  0
LINE
  5
51DD
330
1F
100
AcDbEntity
  8
SPOJOVACÍ
  6
Continuous
100
AcDbLine
 10
114.5295665126916
 20
183.2255991731356
 30
0.0
 11
113.3736370511771
 21
186.6633428787893
 31
0.0
  0
LINE
  5
51DE
330
1F
100
AcDbEntity
  8
SPOJOVACÍ
  6
Continuous
100
AcDbLine
 10
113.6946407183361
 20
186.9843465440929
 30
0.0
 11
113.8804433335619
 21
186.6633428787893
 31
0.0
  0
LINE
  5
51DF
330
1F
100
AcDbEntity
  8
SPOJOVACÍ
  6
Continuous
100
AcDbLine
 10
113.6946407183361
 20
186.9843465440929
 30
0.0
 11
113.3736370511771
 21
186.6633428787893
 31
0.0
  0
LINE
  5
51E0
330
1F
100
AcDbEntity
  8
SPOJOVACÍ
  6
Continuous
100
AcDbLine
 10
114.714578478329
 20
182.9045955041213
 30
0.0
 11
115.0363727948363
 21
183.2255991731356
 31
0.0
  0
LINE
  5
51E1
330
1F
100
AcDbEntity
  8
SPOJOVACÍ
  6
Continuous
100
AcDbLine
 10
114.714578478329
 20
182.9045955041213
 30
0.0
 11
114.5295665126916
 21
183.2255991731356
 31
0.0
  0
LINE
  5
51E2
330
1F
100
AcDbEntity
  8
SPOJOVACÍ
  6
Continuous
100
AcDbLine
 10
114.714578478329
 20
182.9045955041213
 30
0.0
 11
113.6946407183361
 21
186.9843465440929
 31
0.0
  0
LINE
  5
51E3
330
1F
100
AcDbEntity
  8
SPOJOVACÍ
  6
Continuous
100
AcDbLine
 10
100.9991828784015
 20
185.8829718953778
 30
0.0
 11
102.6745690129948
 21
186.0917033451253
 31
0.0
  0
LINE
  5
51E4
330
1F
100
AcDbEntity
  8
SPOJOVACÍ
  6
Continuous
100
AcDbLine
 10
98.69839304738821
 20
185.5951755017006
 30
0.0
 11
100.5145147798114
 21
185.8220918887375
 31
0.0
  0
LINE
  5
51E5
330
1F
100
AcDbEntity
  8
SPOJOVACÍ
  6
Continuous
100
AcDbLine
 10
96.38890607286999
 20
185.3065884647069
 30
0.0
 11
98.21214365010497
 21
185.5342954987712
 31
0.0
  0
LINE
  5
51E6
330
1F
100
AcDbEntity
  8
SPOJOVACÍ
  6
Continuous
100
AcDbLine
 10
96.12008526791875
 20
184.6163515132932
 30
0.0
 11
93.49433852278275
 21
184.9444710241071
 31
0.0
  0
LINE
  5
51E7
330
1F
100
AcDbEntity
  8
SPOJOVACÍ
  6
Continuous
100
AcDbLine
 10
98.62011875419671
 20
184.3040449912653
 30
0.0
 11
96.64744843539416
 21
184.5507276096462
 31
0.0
  0
LINE
  5
51E8
330
1F
100
AcDbEntity
  8
SPOJOVACÍ
  6
Continuous
100
AcDbLine
 10
101.1296400335643
 20
183.9901571677613
 30
0.0
 11
99.1561790654098
 21
184.2368397898529
 31
0.0
  0
LINE
  5
51E9
330
1F
100
AcDbEntity
  8
SPOJOVACÍ
  6
Continuous
100
AcDbLine
 10
93.49433852278275
 20
184.9444710241071
 30
0.0
 11
95.90502862386097
 21
185.2457084580667
 31
0.0
  0
LINE
  5
51EA
330
1F
100
AcDbEntity
  8
SPOJOVACÍ
  6
Continuous
100
AcDbLine
 10
102.6745690129948
 20
183.7972387067996
 30
0.0
 11
101.6570032010397
 21
183.9245332641142
 31
0.0
  0
LINE
  5
51EB
330
1F
100
AcDbEntity
  8
SPOJOVACÍ
  6
Continuous
100
AcDbLine
 10
102.9607841051958
 20
186.0917033451253
 30
0.0
 11
102.6745690129948
 21
186.0917033451253
 31
0.0
  0
LINE
  5
51EC
330
1F
100
AcDbEntity
  8
SPOJOVACÍ
  6
Continuous
100
AcDbLine
 10
105.6149942298154
 20
186.0917033451253
 30
0.0
 11
103.4739155830404
 21
186.0917033451253
 31
0.0
  0
LINE
  5
51ED
330
1F
100
AcDbEntity
  8
SPOJOVACÍ
  6
Continuous
100
AcDbLine
 10
103.7348298935987
 20
183.7972387067996
 30
0.0
 11
102.6745690129948
 21
183.7972387067996
 31
0.0
  0
LINE
  5
51EE
330
1F
100
AcDbEntity
  8
SPOJOVACÍ
  6
Continuous
100
AcDbLine
 10
106.3819241734101
 20
183.7972387067996
 30
0.0
 11
104.2416361759799
 21
183.7972387067996
 31
0.0
  0
LINE
  5
51EF
330
1F
100
AcDbEntity
  8
SPOJOVACÍ
  6
Continuous
100
AcDbLine
 10
108.2684137048611
 20
186.0917033451253
 30
0.0
 11
106.1257537591602
 21
186.0917033451253
 31
0.0
  0
LINE
  5
51F0
330
1F
100
AcDbEntity
  8
SPOJOVACÍ
  6
Continuous
100
AcDbLine
 10
110.9226238292551
 20
186.0917033451253
 30
0.0
 11
108.7736386883127
 21
186.0917033451253
 31
0.0
  0
LINE
  5
51F1
330
1F
100
AcDbEntity
  8
SPOJOVACÍ
  6
Continuous
100
AcDbLine
 10
113.5705087584076
 20
186.0917033451253
 30
0.0
 11
111.4294301116362
 21
186.0917033451253
 31
0.0
  0
LINE
  5
51F2
330
1F
100
AcDbEntity
  8
SPOJOVACÍ
  6
Continuous
100
AcDbLine
 10
109.0448314415418
 20
183.7972387067996
 30
0.0
 11
106.8958463005994
 21
183.7972387067996
 31
0.0
  0
LINE
  5
51F3
330
1F
100
AcDbEntity
  8
SPOJOVACÍ
  6
Continuous
100
AcDbLine
 10
111.6927163706943
 20
183.7972387067996
 30
0.0
 11
109.5500564249934
 21
183.7972387067996
 31
0.0
  0
LINE
  5
51F4
330
1F
100
AcDbEntity
  8
SPOJOVACÍ
  6
Continuous
100
AcDbLine
 10
114.3469264950883
 20
183.7972387067996
 30
0.0
 11
112.2058478483134
 21
183.7972387067996
 31
0.0
  0
LINE
  5
51F5
330
1F
100
AcDbEntity
  8
SPOJOVACÍ
  6
Continuous
100
AcDbLine
 10
118.2851512881181
 20
183.7972387067996
 30
0.0
 11
114.8529421278883
 21
183.7972387067996
 31
0.0
  0
LINE
  5
51F6
330
1F
100
AcDbEntity
  8
SPOJOVACÍ
  6
Continuous
100
AcDbLine
 10
118.2851512881181
 20
186.0917033451253
 30
0.0
 11
114.0836402360266
 21
186.0917033451253
 31
0.0
  0
LINE
  5
51F7
330
1F
100
AcDbEntity
  8
SPOJOVACÍ
  6
Continuous
100
AcDbLine
 10
122.874871208319
 20
180.6093402187682
 30
0.0
 11
122.2423516673163
 21
181.7565725397865
 31
0.0
  0
LINE
  5
51F8
330
1F
100
AcDbEntity
  8
SPOJOVACÍ
  6
Continuous
100
AcDbLine
 10
122.2423516673163
 20
181.7565725397865
 30
0.0
 11
121.3338954763178
 21
182.7006079550913
 31
0.0
  0
LINE
  5
51F9
330
1F
100
AcDbEntity
  8
SPOJOVACÍ
  6
Continuous
100
AcDbLine
 10
121.3338954763178
 20
182.7006079550913
 30
0.0
 11
120.2127545897612
 21
183.3774038625118
 31
0.0
  0
LINE
  5
51FA
330
1F
100
AcDbEntity
  8
SPOJOVACÍ
  6
Continuous
100
AcDbLine
 10
120.2127545897612
 20
183.3774038625118
 30
0.0
 11
118.9540407027718
 21
183.7411025971662
 31
0.0
  0
LINE
  5
51FB
330
1F
100
AcDbEntity
  8
SPOJOVACÍ
  6
Continuous
100
AcDbLine
 10
118.9540407027718
 20
183.7411025971662
 30
0.0
 11
118.2851512881181
 21
183.7972387067996
 31
0.0
  0
LINE
  5
51FC
330
1F
100
AcDbEntity
  8
SPOJOVACÍ
  6
Continuous
100
AcDbLine
 10
121.8082851322444
 20
187.6200286836386
 30
0.0
 11
122.588656116118
 21
188.6715924212033
 31
0.0
  0
LINE
  5
51FD
330
1F
100
AcDbEntity
  8
SPOJOVACÍ
  6
Continuous
100
AcDbLine
 10
122.588656116118
 20
188.6715924212033
 30
0.0
 11
122.874871208319
 21
189.2796018294459
 31
0.0
  0
LINE
  5
51FE
330
1F
100
AcDbEntity
  8
SPOJOVACÍ
  6
Continuous
100
AcDbLine
 10
122.874871208319
 20
180.6093402187682
 30
0.0
 11
122.874871208319
 21
189.2796018294459
 31
0.0
  0
LINE
  5
51FF
330
1F
100
AcDbEntity
  8
SPOJOVACÍ
  6
Continuous
100
AcDbLine
 10
123.8948089685411
 20
180.6093402187682
 30
0.0
 11
122.874871208319
 21
180.6093402187682
 31
0.0
  0
LINE
  5
5200
330
1F
100
AcDbEntity
  8
SPOJOVACÍ
  6
Continuous
100
AcDbLine
 10
123.8948089685411
 20
180.6093402187682
 30
0.0
 11
123.8948089685411
 21
189.2796018294459
 31
0.0
  0
LINE
  5
5201
330
1F
100
AcDbEntity
  8
SPOJOVACÍ
  6
Continuous
100
AcDbLine
 10
123.8948089685411
 20
189.2796018294459
 30
0.0
 11
122.874871208319
 21
189.2796018294459
 31
0.0
  0
LINE
  5
5202
330
1F
100
AcDbEntity
  8
SPOJOVACÍ
  6
Continuous
100
AcDbLine
 10
118.2851512881181
 20
186.0917033451253
 30
0.0
 11
119.580235048533
 21
186.2846218023763
 31
0.0
  0
LINE
  5
5203
330
1F
100
AcDbEntity
  8
SPOJOVACÍ
  6
Continuous
100
AcDbLine
 10
119.580235048533
 20
186.2846218023763
 30
0.0
 11
120.7820221767772
 21
186.8056597741518
 31
0.0
  0
LINE
  5
5204
330
1F
100
AcDbEntity
  8
SPOJOVACÍ
  6
Continuous
100
AcDbLine
 10
120.7820221767772
 20
186.8056597741518
 30
0.0
 11
121.8082851322444
 21
187.6200286836386
 31
0.0
  0
LINE
  5
5205
330
1F
100
AcDbEntity
  8
SPOJOVACÍ
  6
Continuous
100
AcDbLine
 10
120.7820221767772
 20
133.6746006673704
 30
0.0
 11
121.8082851322444
 21
132.8602317578837
 31
0.0
  0
LINE
  5
5206
330
1F
100
AcDbEntity
  8
SPOJOVACÍ
  6
Continuous
100
AcDbLine
 10
119.580235048533
 20
134.195638639146
 30
0.0
 11
120.7820221767772
 21
133.6746006673704
 31
0.0
  0
LINE
  5
5207
330
1F
100
AcDbEntity
  8
SPOJOVACÍ
  6
Continuous
100
AcDbLine
 10
118.2851512881181
 20
134.3885570963969
 30
0.0
 11
119.580235048533
 21
134.195638639146
 31
0.0
  0
LINE
  5
5208
330
1F
100
AcDbEntity
  8
SPOJOVACÍ
  6
Continuous
100
AcDbLine
 10
123.8948089685411
 20
139.870920222754
 30
0.0
 11
122.874871208319
 21
139.870920222754
 31
0.0
  0
LINE
  5
5209
330
1F
100
AcDbEntity
  8
SPOJOVACÍ
  6
Continuous
100
AcDbLine
 10
121.8082851322444
 20
132.8602317578837
 30
0.0
 11
122.588656116118
 21
131.8086680203189
 31
0.0
  0
LINE
  5
520A
330
1F
100
AcDbEntity
  8
SPOJOVACÍ
  6
Continuous
100
AcDbLine
 10
118.9540407027718
 20
136.739157844356
 30
0.0
 11
118.2851512881181
 21
136.6830217347226
 31
0.0
  0
LINE
  5
520B
330
1F
100
AcDbEntity
  8
SPOJOVACÍ
  6
Continuous
100
AcDbLine
 10
120.2127545897612
 20
137.1028565790105
 30
0.0
 11
118.9540407027718
 21
136.739157844356
 31
0.0
  0
LINE
  5
520C
330
1F
100
AcDbEntity
  8
SPOJOVACÍ
  6
Continuous
100
AcDbLine
 10
121.3338954763178
 20
137.7796524864309
 30
0.0
 11
120.2127545897612
 21
137.1028565790105
 31
0.0
  0
LINE
  5
520D
330
1F
100
AcDbEntity
  8
SPOJOVACÍ
  6
Continuous
100
AcDbLine
 10
122.2423516673163
 20
138.7236879017357
 30
0.0
 11
121.3338954763178
 21
137.7796524864309
 31
0.0
  0
LINE
  5
520E
330
1F
100
AcDbEntity
  8
SPOJOVACÍ
  6
Continuous
100
AcDbLine
 10
122.874871208319
 20
139.870920222754
 30
0.0
 11
122.2423516673163
 21
138.7236879017357
 31
0.0
  0
LINE
  5
520F
330
1F
100
AcDbEntity
  8
SPOJOVACÍ
  6
Continuous
100
AcDbLine
 10
118.2851512881181
 20
134.3885570963969
 30
0.0
 11
114.0836402360266
 21
134.3885570963969
 31
0.0
  0
LINE
  5
5210
330
1F
100
AcDbEntity
  8
SPOJOVACÍ
  6
Continuous
100
AcDbLine
 10
118.2851512881181
 20
136.6830217347226
 30
0.0
 11
114.8529421278883
 21
136.6830217347226
 31
0.0
  0
LINE
  5
5211
330
1F
100
AcDbEntity
  8
SPOJOVACÍ
  6
Continuous
100
AcDbLine
 10
114.3469264950883
 20
136.6830217347226
 30
0.0
 11
112.2058478483134
 21
136.6830217347226
 31
0.0
  0
LINE
  5
5212
330
1F
100
AcDbEntity
  8
SPOJOVACÍ
  6
Continuous
100
AcDbLine
 10
111.6927163706943
 20
136.6830217347226
 30
0.0
 11
109.5500564249934
 21
136.6830217347226
 31
0.0
  0
LINE
  5
5213
330
1F
100
AcDbEntity
  8
SPOJOVACÍ
  6
Continuous
100
AcDbLine
 10
109.0448314415418
 20
136.6830217347226
 30
0.0
 11
106.8958463005994
 21
136.6830217347226
 31
0.0
  0
LINE
  5
5214
330
1F
100
AcDbEntity
  8
SPOJOVACÍ
  6
Continuous
100
AcDbLine
 10
113.5705087584076
 20
134.3885570963969
 30
0.0
 11
111.4294301116362
 21
134.3885570963969
 31
0.0
  0
LINE
  5
5215
330
1F
100
AcDbEntity
  8
SPOJOVACÍ
  6
Continuous
100
AcDbLine
 10
110.9226238292551
 20
134.3885570963969
 30
0.0
 11
108.7736386883127
 21
134.3885570963969
 31
0.0
  0
LINE
  5
5216
330
1F
100
AcDbEntity
  8
SPOJOVACÍ
  6
Continuous
100
AcDbLine
 10
108.2684137048611
 20
134.3885570963969
 30
0.0
 11
106.1257537591602
 21
134.3885570963969
 31
0.0
  0
LINE
  5
5217
330
1F
100
AcDbEntity
  8
SPOJOVACÍ
  6
Continuous
100
AcDbLine
 10
106.3819241734101
 20
136.6830217347226
 30
0.0
 11
104.2416361759799
 21
136.6830217347226
 31
0.0
  0
LINE
  5
5218
330
1F
100
AcDbEntity
  8
SPOJOVACÍ
  6
Continuous
100
AcDbLine
 10
103.7348298935987
 20
136.6830217347226
 30
0.0
 11
102.6745690129948
 21
136.6830217347226
 31
0.0
  0
LINE
  5
5219
330
1F
100
AcDbEntity
  8
SPOJOVACÍ
  6
Continuous
100
AcDbLine
 10
105.6149942298154
 20
134.3885570963969
 30
0.0
 11
103.4739155830404
 21
134.3885570963969
 31
0.0
  0
LINE
  5
521A
330
1F
100
AcDbEntity
  8
SPOJOVACÍ
  6
Continuous
100
AcDbLine
 10
102.9607841051958
 20
134.3885570963969
 30
0.0
 11
102.6745690129948
 21
134.3885570963969
 31
0.0
  0
LINE
  5
521B
330
1F
100
AcDbEntity
  8
SPOJOVACÍ
  6
Continuous
100
AcDbLine
 10
102.6745690129948
 20
136.6830217347226
 30
0.0
 11
101.6570032010397
 21
136.555727177408
 31
0.0
  0
LINE
  5
521C
330
1F
100
AcDbEntity
  8
SPOJOVACÍ
  6
Continuous
100
AcDbLine
 10
93.49433852278275
 20
135.5357894174151
 30
0.0
 11
95.90502862386097
 21
135.2345519834555
 31
0.0
  0
LINE
  5
521D
330
1F
100
AcDbEntity
  8
SPOJOVACÍ
  6
Continuous
100
AcDbLine
 10
101.1296400335643
 20
136.490103273761
 30
0.0
 11
99.1561790654098
 21
136.2434206516693
 31
0.0
  0
LINE
  5
521E
330
1F
100
AcDbEntity
  8
SPOJOVACÍ
  6
Continuous
100
AcDbLine
 10
98.62011875419671
 20
136.1762154502569
 30
0.0
 11
96.64744843539416
 21
135.929532831876
 31
0.0
  0
LINE
  5
521F
330
1F
100
AcDbEntity
  8
SPOJOVACÍ
  6
Continuous
100
AcDbLine
 10
96.12008526791875
 20
135.863908928229
 30
0.0
 11
93.49433852278275
 21
135.5357894174151
 31
0.0
  0
LINE
  5
5220
330
1F
100
AcDbEntity
  8
SPOJOVACÍ
  6
Continuous
100
AcDbLine
 10
96.38890607286999
 20
135.1736719768153
 30
0.0
 11
98.21214365010497
 21
134.9459649427511
 31
0.0
  0
LINE
  5
5221
330
1F
100
AcDbEntity
  8
SPOJOVACÍ
  6
Continuous
100
AcDbLine
 10
98.69839304738821
 20
134.8850849398216
 30
0.0
 11
100.5145147798114
 21
134.6581685527847
 31
0.0
  0
LINE
  5
5222
330
1F
100
AcDbEntity
  8
SPOJOVACÍ
  6
Continuous
100
AcDbLine
 10
100.9991828784015
 20
134.5972885461445
 30
0.0
 11
102.6745690129948
 21
134.3885570963969
 31
0.0
  0
LINE
  5
5223
330
1F
100
AcDbEntity
  8
SPOJOVACÍ
  6
Continuous
100
AcDbLine
 10
114.714578478329
 20
137.5756649374009
 30
0.0
 11
113.6946407183361
 21
133.4959138974293
 31
0.0
  0
LINE
  5
5224
330
1F
100
AcDbEntity
  8
SPOJOVACÍ
  6
Continuous
100
AcDbLine
 10
114.714578478329
 20
137.5756649374009
 30
0.0
 11
114.5295665126916
 21
137.2546612683866
 31
0.0
  0
LINE
  5
5225
330
1F
100
AcDbEntity
  8
SPOJOVACÍ
  6
Continuous
100
AcDbLine
 10
114.714578478329
 20
137.5756649374009
 30
0.0
 11
115.0363727948363
 21
137.2546612683866
 31
0.0
  0
LINE
  5
5226
330
1F
100
AcDbEntity
  8
SPOJOVACÍ
  6
Continuous
100
AcDbLine
 10
113.6946407183361
 20
133.4959138974293
 30
0.0
 11
113.3736370511771
 21
133.8169175627329
 31
0.0
  0
LINE
  5
5227
330
1F
100
AcDbEntity
  8
SPOJOVACÍ
  6
Continuous
100
AcDbLine
 10
113.6946407183361
 20
133.4959138974293
 30
0.0
 11
113.8804433335619
 21
133.8169175627329
 31
0.0
  0
LINE
  5
5228
330
1F
100
AcDbEntity
  8
SPOJOVACÍ
  6
Continuous
100
AcDbLine
 10
114.5295665126916
 20
137.2546612683866
 30
0.0
 11
113.3736370511771
 21
133.8169175627329
 31
0.0
  0
LINE
  5
5229
330
1F
100
AcDbEntity
  8
SPOJOVACÍ
  6
Continuous
100
AcDbLine
 10
115.0363727948363
 20
137.2546612683866
 30
0.0
 11
113.8804433335619
 21
133.8169175627329
 31
0.0
  0
LINE
  5
522A
330
1F
100
AcDbEntity
  8
SPOJOVACÍ
  6
Continuous
100
AcDbLine
 10
112.0627403022128
 20
137.5756649374009
 30
0.0
 11
111.0428025419835
 21
133.4959138974293
 31
0.0
  0
LINE
  5
522B
330
1F
100
AcDbEntity
  8
SPOJOVACÍ
  6
Continuous
100
AcDbLine
 10
112.0627403022128
 20
137.5756649374009
 30
0.0
 11
111.8769376869906
 21
137.2546612683866
 31
0.0
  0
LINE
  5
522C
330
1F
100
AcDbEntity
  8
SPOJOVACÍ
  6
Continuous
100
AcDbLine
 10
112.0627403022128
 20
137.5756649374009
 30
0.0
 11
112.3837439693718
 21
137.2546612683866
 31
0.0
  0
LINE
  5
522D
330
1F
100
AcDbEntity
  8
SPOJOVACÍ
  6
Continuous
100
AcDbLine
 10
111.0428025419835
 20
133.4959138974293
 30
0.0
 11
110.721798875061
 21
133.8169175627329
 31
0.0
  0
LINE
  5
522E
330
1F
100
AcDbEntity
  8
SPOJOVACÍ
  6
Continuous
100
AcDbLine
 10
111.0428025419835
 20
133.4959138974293
 30
0.0
 11
111.2286051572093
 21
133.8169175627329
 31
0.0
  0
LINE
  5
522F
330
1F
100
AcDbEntity
  8
SPOJOVACÍ
  6
Continuous
100
AcDbLine
 10
111.8769376869906
 20
137.2546612683866
 30
0.0
 11
110.721798875061
 21
133.8169175627329
 31
0.0
  0
LINE
  5
5230
330
1F
100
AcDbEntity
  8
SPOJOVACÍ
  6
Continuous
100
AcDbLine
 10
112.3837439693718
 20
137.2546612683866
 30
0.0
 11
111.2286051572093
 21
133.8169175627329
 31
0.0
  0
LINE
  5
5231
330
1F
100
AcDbEntity
  8
SPOJOVACÍ
  6
Continuous
100
AcDbLine
 10
101.4909668215707
 20
137.3598176421431
 30
0.0
 11
101.3051642063485
 21
137.0380233261014
 31
0.0
  0
LINE
  5
5232
330
1F
100
AcDbEntity
  8
SPOJOVACÍ
  6
Continuous
100
AcDbLine
 10
101.4909668215707
 20
137.3598176421431
 30
0.0
 11
101.8119704887296
 21
137.0380233261014
 31
0.0
  0
LINE
  5
5233
330
1F
100
AcDbEntity
  8
SPOJOVACÍ
  6
Continuous
100
AcDbLine
 10
100.6639475216118
 20
133.8532874373116
 30
0.0
 11
100.3421532048716
 21
134.1742911026152
 31
0.0
  0
LINE
  5
5234
330
1F
100
AcDbEntity
  8
SPOJOVACÍ
  6
Continuous
100
AcDbLine
 10
100.6639475216118
 20
133.8532874373116
 30
0.0
 11
100.8489594872528
 21
134.1742911026152
 31
0.0
  0
LINE
  5
5235
330
1F
100
AcDbEntity
  8
SPOJOVACÍ
  6
Continuous
100
AcDbLine
 10
101.3051642063485
 20
137.0380233261014
 30
0.0
 11
100.3421532048716
 21
134.1742911026152
 31
0.0
  0
LINE
  5
5236
330
1F
100
AcDbEntity
  8
SPOJOVACÍ
  6
Continuous
100
AcDbLine
 10
101.8119704887296
 20
137.0380233261014
 30
0.0
 11
100.8489594872528
 21
134.1742911026152
 31
0.0
  0
LINE
  5
5237
330
1F
100
AcDbEntity
  8
SPOJOVACÍ
  6
Continuous
100
AcDbLine
 10
101.4909668215707
 20
137.3598176421431
 30
0.0
 11
100.6639475216118
 21
133.8532874373116
 31
0.0
  0
LINE
  5
5238
330
1F
100
AcDbEntity
  8
SPOJOVACÍ
  6
Continuous
100
AcDbLine
 10
98.92847203041789
 20
136.8798934419531
 30
0.0
 11
98.74346006477686
 21
136.5588897729388
 31
0.0
  0
LINE
  5
5239
330
1F
100
AcDbEntity
  8
SPOJOVACÍ
  6
Continuous
100
AcDbLine
 10
98.92847203041789
 20
136.8798934419531
 30
0.0
 11
99.250266347158
 21
136.5588897729388
 31
0.0
  0
LINE
  5
523A
330
1F
100
AcDbEntity
  8
SPOJOVACÍ
  6
Continuous
100
AcDbLine
 10
98.39003977116341
 20
134.2312178629866
 30
0.0
 11
98.06824545465611
 21
134.5522215282902
 31
0.0
  0
LINE
  5
523B
330
1F
100
AcDbEntity
  8
SPOJOVACÍ
  6
Continuous
100
AcDbLine
 10
98.39003977116341
 20
134.2312178629866
 30
0.0
 11
98.57505173680443
 21
134.5522215282902
 31
0.0
  0
LINE
  5
523C
330
1F
100
AcDbEntity
  8
SPOJOVACÍ
  6
Continuous
100
AcDbLine
 10
98.74346006477686
 20
136.5588897729388
 30
0.0
 11
98.06824545465611
 21
134.5522215282902
 31
0.0
  0
LINE
  5
523D
330
1F
100
AcDbEntity
  8
SPOJOVACÍ
  6
Continuous
100
AcDbLine
 10
99.250266347158
 20
136.5588897729388
 30
0.0
 11
98.57505173680443
 21
134.5522215282902
 31
0.0
  0
LINE
  5
523E
330
1F
100
AcDbEntity
  8
SPOJOVACÍ
  6
Continuous
100
AcDbLine
 10
98.92847203041789
 20
136.8798934419531
 30
0.0
 11
98.39003977116341
 21
134.2312178629866
 31
0.0
  0
LINE
  5
523F
330
1F
100
AcDbEntity
  8
SPOJOVACÍ
  6
Continuous
100
AcDbLine
 10
96.36676788884621
 20
136.3999692380523
 30
0.0
 11
96.18096527363128
 21
136.0789655727488
 31
0.0
  0
LINE
  5
5240
330
1F
100
AcDbEntity
  8
SPOJOVACÍ
  6
Continuous
100
AcDbLine
 10
96.36676788884621
 20
136.3999692380523
 30
0.0
 11
96.68777155600515
 21
136.0789655727488
 31
0.0
  0
LINE
  5
5241
330
1F
100
AcDbEntity
  8
SPOJOVACÍ
  6
Continuous
100
AcDbLine
 10
96.10269098043978
 20
134.5688251678141
 30
0.0
 11
95.78089666393248
 21
134.8898288331177
 31
0.0
  0
LINE
  5
5242
330
1F
100
AcDbEntity
  8
SPOJOVACÍ
  6
Continuous
100
AcDbLine
 10
96.10269098043978
 20
134.5688251678141
 30
0.0
 11
96.28770294630635
 21
134.8898288331177
 31
0.0
  0
LINE
  5
5243
330
1F
100
AcDbEntity
  8
SPOJOVACÍ
  6
Continuous
100
AcDbLine
 10
96.18096527363128
 20
136.0789655727488
 30
0.0
 11
95.78089666393248
 21
134.8898288331177
 31
0.0
  0
LINE
  5
5244
330
1F
100
AcDbEntity
  8
SPOJOVACÍ
  6
Continuous
100
AcDbLine
 10
96.68777155600515
 20
136.0789655727488
 30
0.0
 11
96.28770294630635
 21
134.8898288331177
 31
0.0
  0
LINE
  5
5245
330
1F
100
AcDbEntity
  8
SPOJOVACÍ
  6
Continuous
100
AcDbLine
 10
96.36676788884621
 20
136.3999692380523
 30
0.0
 11
96.10269098043978
 21
134.5688251678141
 31
0.0
  0
LINE
  5
5246
330
1F
100
AcDbEntity
  8
SPOJOVACÍ
  6
Continuous
100
AcDbLine
 10
109.4109021258602
 20
137.5756649374009
 30
0.0
 11
108.3909643658673
 21
133.4959138974293
 31
0.0
  0
LINE
  5
5247
330
1F
100
AcDbEntity
  8
SPOJOVACÍ
  6
Continuous
100
AcDbLine
 10
109.4109021258602
 20
137.5756649374009
 30
0.0
 11
109.225099510638
 21
137.2546612683866
 31
0.0
  0
LINE
  5
5248
330
1F
100
AcDbEntity
  8
SPOJOVACÍ
  6
Continuous
100
AcDbLine
 10
109.4109021258602
 20
137.5756649374009
 30
0.0
 11
109.7319057930192
 21
137.2546612683866
 31
0.0
  0
LINE
  5
5249
330
1F
100
AcDbEntity
  8
SPOJOVACÍ
  6
Continuous
100
AcDbLine
 10
108.3909643658673
 20
133.4959138974293
 30
0.0
 11
108.0691700493637
 21
133.8169175627329
 31
0.0
  0
LINE
  5
524A
330
1F
100
AcDbEntity
  8
SPOJOVACÍ
  6
Continuous
100
AcDbLine
 10
108.3909643658673
 20
133.4959138974293
 30
0.0
 11
108.5759763317375
 21
133.8169175627329
 31
0.0
  0
LINE
  5
524B
330
1F
100
AcDbEntity
  8
SPOJOVACÍ
  6
Continuous
100
AcDbLine
 10
109.225099510638
 20
137.2546612683866
 30
0.0
 11
108.0691700493637
 21
133.8169175627329
 31
0.0
  0
LINE
  5
524C
330
1F
100
AcDbEntity
  8
SPOJOVACÍ
  6
Continuous
100
AcDbLine
 10
109.7319057930192
 20
137.2546612683866
 30
0.0
 11
108.5759763317375
 21
133.8169175627329
 31
0.0
  0
LINE
  5
524D
330
1F
100
AcDbEntity
  8
SPOJOVACÍ
  6
Continuous
100
AcDbLine
 10
106.7590639497368
 20
137.5756649374009
 30
0.0
 11
105.7391261897439
 21
133.4959138974293
 31
0.0
  0
LINE
  5
524E
330
1F
100
AcDbEntity
  8
SPOJOVACÍ
  6
Continuous
100
AcDbLine
 10
106.7590639497368
 20
137.5756649374009
 30
0.0
 11
106.5732613345219
 21
137.2546612683866
 31
0.0
  0
LINE
  5
524F
330
1F
100
AcDbEntity
  8
SPOJOVACÍ
  6
Continuous
100
AcDbLine
 10
106.7590639497368
 20
137.5756649374009
 30
0.0
 11
107.0800676168958
 21
137.2546612683866
 31
0.0
  0
LINE
  5
5250
330
1F
100
AcDbEntity
  8
SPOJOVACÍ
  6
Continuous
100
AcDbLine
 10
105.7391261897439
 20
133.4959138974293
 30
0.0
 11
105.4173318732366
 21
133.8169175627329
 31
0.0
  0
LINE
  5
5251
330
1F
100
AcDbEntity
  8
SPOJOVACÍ
  6
Continuous
100
AcDbLine
 10
105.7391261897439
 20
133.4959138974293
 30
0.0
 11
105.9241381553849
 21
133.8169175627329
 31
0.0
  0
LINE
  5
5252
330
1F
100
AcDbEntity
  8
SPOJOVACÍ
  6
Continuous
100
AcDbLine
 10
106.5732613345219
 20
137.2546612683866
 30
0.0
 11
105.4173318732366
 21
133.8169175627329
 31
0.0
  0
LINE
  5
5253
330
1F
100
AcDbEntity
  8
SPOJOVACÍ
  6
Continuous
100
AcDbLine
 10
107.0800676168958
 20
137.2546612683866
 30
0.0
 11
105.9241381553849
 21
133.8169175627329
 31
0.0
  0
LINE
  5
5254
330
1F
100
AcDbEntity
  8
SPOJOVACÍ
  6
Continuous
100
AcDbLine
 10
104.1064351240359
 20
137.5756649374009
 30
0.0
 11
103.086497364043
 21
133.4959138974293
 31
0.0
  0
LINE
  5
5255
330
1F
100
AcDbEntity
  8
SPOJOVACÍ
  6
Continuous
100
AcDbLine
 10
104.1064351240359
 20
137.5756649374009
 30
0.0
 11
103.9214231583985
 21
137.2546612683866
 31
0.0
  0
LINE
  5
5256
330
1F
100
AcDbEntity
  8
SPOJOVACÍ
  6
Continuous
100
AcDbLine
 10
104.1064351240359
 20
137.5756649374009
 30
0.0
 11
104.4282294407796
 21
137.2546612683866
 31
0.0
  0
LINE
  5
5257
330
1F
100
AcDbEntity
  8
SPOJOVACÍ
  6
Continuous
100
AcDbLine
 10
103.086497364043
 20
133.4959138974293
 30
0.0
 11
102.765493696884
 21
133.8169175627329
 31
0.0
  0
LINE
  5
5258
330
1F
100
AcDbEntity
  8
SPOJOVACÍ
  6
Continuous
100
AcDbLine
 10
103.086497364043
 20
133.4959138974293
 30
0.0
 11
103.2722999792688
 21
133.8169175627329
 31
0.0
  0
LINE
  5
5259
330
1F
100
AcDbEntity
  8
SPOJOVACÍ
  6
Continuous
100
AcDbLine
 10
103.9214231583985
 20
137.2546612683866
 30
0.0
 11
102.765493696884
 21
133.8169175627329
 31
0.0
  0
LINE
  5
525A
330
1F
100
AcDbEntity
  8
SPOJOVACÍ
  6
Continuous
100
AcDbLine
 10
104.4282294407796
 20
137.2546612683866
 30
0.0
 11
103.2722999792688
 21
133.8169175627329
 31
0.0
  0
LINE
  5
525B
330
1F
100
AcDbEntity
  8
SPOJOVACÍ
  6
Continuous
100
AcDbLine
 10
123.8948089685411
 20
131.2006586120763
 30
0.0
 11
122.874871208319
 21
131.2006586120763
 31
0.0
  0
LINE
  5
525C
330
1F
100
AcDbEntity
  8
SPOJOVACÍ
  6
Continuous
100
AcDbLine
 10
123.8948089685411
 20
139.870920222754
 30
0.0
 11
123.8948089685411
 21
131.2006586120763
 31
0.0
  0
LINE
  5
525D
330
1F
100
AcDbEntity
  8
SPOJOVACÍ
  6
Continuous
100
AcDbLine
 10
122.874871208319
 20
139.870920222754
 30
0.0
 11
122.874871208319
 21
131.2006586120763
 31
0.0
  0
LINE
  5
525E
330
1F
100
AcDbEntity
  8
SPOJOVACÍ
  6
Continuous
100
AcDbLine
 10
122.588656116118
 20
131.8086680203189
 30
0.0
 11
122.874871208319
 21
131.2006586120763
 31
0.0
  0
LINE
  5
525F
330
1F
100
AcDbEntity
  8
SPOJOVACÍ
  6
Continuous
100
AcDbLine
 10
122.588656116118
 20
-68.19133197968103
 30
0.0
 11
122.874871208319
 21
-68.79934138792368
 31
0.0
  0
LINE
  5
5260
330
1F
100
AcDbEntity
  8
SPOJOVACÍ
  6
Continuous
100
AcDbLine
 10
122.874871208319
 20
-60.12907977724598
 30
0.0
 11
122.874871208319
 21
-68.79934138792368
 31
0.0
  0
LINE
  5
5261
330
1F
100
AcDbEntity
  8
SPOJOVACÍ
  6
Continuous
100
AcDbLine
 10
123.8948089685411
 20
-60.12907977724598
 30
0.0
 11
123.8948089685411
 21
-68.79934138792368
 31
0.0
  0
LINE
  5
5262
330
1F
100
AcDbEntity
  8
SPOJOVACÍ
  6
Continuous
100
AcDbLine
 10
123.8948089685411
 20
-68.79934138792368
 30
0.0
 11
122.874871208319
 21
-68.79934138792368
 31
0.0
  0
LINE
  5
5263
330
1F
100
AcDbEntity
  8
SPOJOVACÍ
  6
Continuous
100
AcDbLine
 10
104.4282294407796
 20
-62.74533873161335
 30
0.0
 11
103.2722999792688
 21
-66.18308243726705
 31
0.0
  0
LINE
  5
5264
330
1F
100
AcDbEntity
  8
SPOJOVACÍ
  6
Continuous
100
AcDbLine
 10
103.9214231583985
 20
-62.74533873161335
 30
0.0
 11
102.765493696884
 21
-66.18308243726705
 31
0.0
  0
LINE
  5
5265
330
1F
100
AcDbEntity
  8
SPOJOVACÍ
  6
Continuous
100
AcDbLine
 10
103.086497364043
 20
-66.50408610257063
 30
0.0
 11
103.2722999792688
 21
-66.18308243726705
 31
0.0
  0
LINE
  5
5266
330
1F
100
AcDbEntity
  8
SPOJOVACÍ
  6
Continuous
100
AcDbLine
 10
103.086497364043
 20
-66.50408610257063
 30
0.0
 11
102.765493696884
 21
-66.18308243726705
 31
0.0
  0
LINE
  5
5267
330
1F
100
AcDbEntity
  8
SPOJOVACÍ
  6
Continuous
100
AcDbLine
 10
104.1064351240359
 20
-62.42433506259903
 30
0.0
 11
104.4282294407796
 21
-62.74533873161335
 31
0.0
  0
LINE
  5
5268
330
1F
100
AcDbEntity
  8
SPOJOVACÍ
  6
Continuous
100
AcDbLine
 10
104.1064351240359
 20
-62.42433506259903
 30
0.0
 11
103.9214231583985
 21
-62.74533873161335
 31
0.0
  0
LINE
  5
5269
330
1F
100
AcDbEntity
  8
SPOJOVACÍ
  6
Continuous
100
AcDbLine
 10
104.1064351240359
 20
-62.42433506259903
 30
0.0
 11
103.086497364043
 21
-66.50408610257063
 31
0.0
  0
LINE
  5
526A
330
1F
100
AcDbEntity
  8
SPOJOVACÍ
  6
Continuous
100
AcDbLine
 10
107.0800676168958
 20
-62.74533873161335
 30
0.0
 11
105.9241381553849
 21
-66.18308243726705
 31
0.0
  0
LINE
  5
526B
330
1F
100
AcDbEntity
  8
SPOJOVACÍ
  6
Continuous
100
AcDbLine
 10
106.5732613345219
 20
-62.74533873161335
 30
0.0
 11
105.4173318732366
 21
-66.18308243726705
 31
0.0
  0
LINE
  5
526C
330
1F
100
AcDbEntity
  8
SPOJOVACÍ
  6
Continuous
100
AcDbLine
 10
105.7391261897439
 20
-66.50408610257063
 30
0.0
 11
105.9241381553849
 21
-66.18308243726705
 31
0.0
  0
LINE
  5
526D
330
1F
100
AcDbEntity
  8
SPOJOVACÍ
  6
Continuous
100
AcDbLine
 10
105.7391261897439
 20
-66.50408610257063
 30
0.0
 11
105.4173318732366
 21
-66.18308243726705
 31
0.0
  0
LINE
  5
526E
330
1F
100
AcDbEntity
  8
SPOJOVACÍ
  6
Continuous
100
AcDbLine
 10
106.7590639497368
 20
-62.42433506259903
 30
0.0
 11
107.0800676168958
 21
-62.74533873161335
 31
0.0
  0
LINE
  5
526F
330
1F
100
AcDbEntity
  8
SPOJOVACÍ
  6
Continuous
100
AcDbLine
 10
106.7590639497368
 20
-62.42433506259903
 30
0.0
 11
106.5732613345219
 21
-62.74533873161335
 31
0.0
  0
LINE
  5
5270
330
1F
100
AcDbEntity
  8
SPOJOVACÍ
  6
Continuous
100
AcDbLine
 10
106.7590639497368
 20
-62.42433506259903
 30
0.0
 11
105.7391261897439
 21
-66.50408610257063
 31
0.0
  0
LINE
  5
5271
330
1F
100
AcDbEntity
  8
SPOJOVACÍ
  6
Continuous
100
AcDbLine
 10
109.7319057930192
 20
-62.74533873161335
 30
0.0
 11
108.5759763317375
 21
-66.18308243726705
 31
0.0
  0
LINE
  5
5272
330
1F
100
AcDbEntity
  8
SPOJOVACÍ
  6
Continuous
100
AcDbLine
 10
109.225099510638
 20
-62.74533873161335
 30
0.0
 11
108.0691700493637
 21
-66.18308243726705
 31
0.0
  0
LINE
  5
5273
330
1F
100
AcDbEntity
  8
SPOJOVACÍ
  6
Continuous
100
AcDbLine
 10
108.3909643658673
 20
-66.50408610257063
 30
0.0
 11
108.5759763317375
 21
-66.18308243726705
 31
0.0
  0
LINE
  5
5274
330
1F
100
AcDbEntity
  8
SPOJOVACÍ
  6
Continuous
100
AcDbLine
 10
108.3909643658673
 20
-66.50408610257063
 30
0.0
 11
108.0691700493637
 21
-66.18308243726705
 31
0.0
  0
LINE
  5
5275
330
1F
100
AcDbEntity
  8
SPOJOVACÍ
  6
Continuous
100
AcDbLine
 10
109.4109021258602
 20
-62.42433506259903
 30
0.0
 11
109.7319057930192
 21
-62.74533873161335
 31
0.0
  0
LINE
  5
5276
330
1F
100
AcDbEntity
  8
SPOJOVACÍ
  6
Continuous
100
AcDbLine
 10
109.4109021258602
 20
-62.42433506259903
 30
0.0
 11
109.225099510638
 21
-62.74533873161335
 31
0.0
  0
LINE
  5
5277
330
1F
100
AcDbEntity
  8
SPOJOVACÍ
  6
Continuous
100
AcDbLine
 10
109.4109021258602
 20
-62.42433506259903
 30
0.0
 11
108.3909643658673
 21
-66.50408610257063
 31
0.0
  0
LINE
  5
5278
330
1F
100
AcDbEntity
  8
SPOJOVACÍ
  6
Continuous
100
AcDbLine
 10
96.36676788884621
 20
-63.60003076194761
 30
0.0
 11
96.10269098043978
 21
-65.43117483218583
 31
0.0
  0
LINE
  5
5279
330
1F
100
AcDbEntity
  8
SPOJOVACÍ
  6
Continuous
100
AcDbLine
 10
96.68777155600515
 20
-63.92103442725119
 30
0.0
 11
96.28770294630635
 21
-65.11017116688226
 31
0.0
  0
LINE
  5
527A
330
1F
100
AcDbEntity
  8
SPOJOVACÍ
  6
Continuous
100
AcDbLine
 10
96.18096527363128
 20
-63.92103442725119
 30
0.0
 11
95.78089666393248
 21
-65.11017116688226
 31
0.0
  0
LINE
  5
527B
330
1F
100
AcDbEntity
  8
SPOJOVACÍ
  6
Continuous
100
AcDbLine
 10
96.10269098043978
 20
-65.43117483218583
 30
0.0
 11
96.28770294630635
 21
-65.11017116688226
 31
0.0
  0
LINE
  5
527C
330
1F
100
AcDbEntity
  8
SPOJOVACÍ
  6
Continuous
100
AcDbLine
 10
96.10269098043978
 20
-65.43117483218583
 30
0.0
 11
95.78089666393248
 21
-65.11017116688226
 31
0.0
  0
LINE
  5
527D
330
1F
100
AcDbEntity
  8
SPOJOVACÍ
  6
Continuous
100
AcDbLine
 10
96.36676788884621
 20
-63.60003076194761
 30
0.0
 11
96.68777155600515
 21
-63.92103442725119
 31
0.0
  0
LINE
  5
527E
330
1F
100
AcDbEntity
  8
SPOJOVACÍ
  6
Continuous
100
AcDbLine
 10
96.36676788884621
 20
-63.60003076194761
 30
0.0
 11
96.18096527363128
 21
-63.92103442725119
 31
0.0
  0
LINE
  5
527F
330
1F
100
AcDbEntity
  8
SPOJOVACÍ
  6
Continuous
100
AcDbLine
 10
98.92847203041789
 20
-63.12010655804687
 30
0.0
 11
98.39003977116341
 21
-65.76878213701338
 31
0.0
  0
LINE
  5
5280
330
1F
100
AcDbEntity
  8
SPOJOVACÍ
  6
Continuous
100
AcDbLine
 10
99.250266347158
 20
-63.44111022706119
 30
0.0
 11
98.57505173680443
 21
-65.4477784717098
 31
0.0
  0
LINE
  5
5281
330
1F
100
AcDbEntity
  8
SPOJOVACÍ
  6
Continuous
100
AcDbLine
 10
98.74346006477686
 20
-63.44111022706119
 30
0.0
 11
98.06824545465611
 21
-65.4477784717098
 31
0.0
  0
LINE
  5
5282
330
1F
100
AcDbEntity
  8
SPOJOVACÍ
  6
Continuous
100
AcDbLine
 10
98.39003977116341
 20
-65.76878213701338
 30
0.0
 11
98.57505173680443
 21
-65.4477784717098
 31
0.0
  0
LINE
  5
5283
330
1F
100
AcDbEntity
  8
SPOJOVACÍ
  6
Continuous
100
AcDbLine
 10
98.39003977116341
 20
-65.76878213701338
 30
0.0
 11
98.06824545465611
 21
-65.4477784717098
 31
0.0
  0
LINE
  5
5284
330
1F
100
AcDbEntity
  8
SPOJOVACÍ
  6
Continuous
100
AcDbLine
 10
98.92847203041789
 20
-63.12010655804687
 30
0.0
 11
99.250266347158
 21
-63.44111022706119
 31
0.0
  0
LINE
  5
5285
330
1F
100
AcDbEntity
  8
SPOJOVACÍ
  6
Continuous
100
AcDbLine
 10
98.92847203041789
 20
-63.12010655804687
 30
0.0
 11
98.74346006477686
 21
-63.44111022706119
 31
0.0
  0
LINE
  5
5286
330
1F
100
AcDbEntity
  8
SPOJOVACÍ
  6
Continuous
100
AcDbLine
 10
101.4909668215707
 20
-62.64018235785687
 30
0.0
 11
100.6639475216118
 21
-66.14671256268838
 31
0.0
  0
LINE
  5
5287
330
1F
100
AcDbEntity
  8
SPOJOVACÍ
  6
Continuous
100
AcDbLine
 10
101.8119704887296
 20
-62.96197667389851
 30
0.0
 11
100.8489594872528
 21
-65.8257088973848
 31
0.0
  0
LINE
  5
5288
330
1F
100
AcDbEntity
  8
SPOJOVACÍ
  6
Continuous
100
AcDbLine
 10
101.3051642063485
 20
-62.96197667389851
 30
0.0
 11
100.3421532048716
 21
-65.8257088973848
 31
0.0
  0
LINE
  5
5289
330
1F
100
AcDbEntity
  8
SPOJOVACÍ
  6
Continuous
100
AcDbLine
 10
100.6639475216118
 20
-66.14671256268838
 30
0.0
 11
100.8489594872528
 21
-65.8257088973848
 31
0.0
  0
LINE
  5
528A
330
1F
100
AcDbEntity
  8
SPOJOVACÍ
  6
Continuous
100
AcDbLine
 10
100.6639475216118
 20
-66.14671256268838
 30
0.0
 11
100.3421532048716
 21
-65.8257088973848
 31
0.0
  0
LINE
  5
528B
330
1F
100
AcDbEntity
  8
SPOJOVACÍ
  6
Continuous
100
AcDbLine
 10
101.4909668215707
 20
-62.64018235785687
 30
0.0
 11
101.8119704887296
 21
-62.96197667389851
 31
0.0
  0
LINE
  5
528C
330
1F
100
AcDbEntity
  8
SPOJOVACÍ
  6
Continuous
100
AcDbLine
 10
101.4909668215707
 20
-62.64018235785687
 30
0.0
 11
101.3051642063485
 21
-62.96197667389851
 31
0.0
  0
LINE
  5
528D
330
1F
100
AcDbEntity
  8
SPOJOVACÍ
  6
Continuous
100
AcDbLine
 10
112.3837439693718
 20
-62.74533873161335
 30
0.0
 11
111.2286051572093
 21
-66.18308243726705
 31
0.0
  0
LINE
  5
528E
330
1F
100
AcDbEntity
  8
SPOJOVACÍ
  6
Continuous
100
AcDbLine
 10
111.8769376869906
 20
-62.74533873161335
 30
0.0
 11
110.721798875061
 21
-66.18308243726705
 31
0.0
  0
LINE
  5
528F
330
1F
100
AcDbEntity
  8
SPOJOVACÍ
  6
Continuous
100
AcDbLine
 10
111.0428025419835
 20
-66.50408610257063
 30
0.0
 11
111.2286051572093
 21
-66.18308243726705
 31
0.0
  0
LINE
  5
5290
330
1F
100
AcDbEntity
  8
SPOJOVACÍ
  6
Continuous
100
AcDbLine
 10
111.0428025419835
 20
-66.50408610257063
 30
0.0
 11
110.721798875061
 21
-66.18308243726705
 31
0.0
  0
LINE
  5
5291
330
1F
100
AcDbEntity
  8
SPOJOVACÍ
  6
Continuous
100
AcDbLine
 10
112.0627403022128
 20
-62.42433506259903
 30
0.0
 11
112.3837439693718
 21
-62.74533873161335
 31
0.0
  0
LINE
  5
5292
330
1F
100
AcDbEntity
  8
SPOJOVACÍ
  6
Continuous
100
AcDbLine
 10
112.0627403022128
 20
-62.42433506259903
 30
0.0
 11
111.8769376869906
 21
-62.74533873161335
 31
0.0
  0
LINE
  5
5293
330
1F
100
AcDbEntity
  8
SPOJOVACÍ
  6
Continuous
100
AcDbLine
 10
112.0627403022128
 20
-62.42433506259903
 30
0.0
 11
111.0428025419835
 21
-66.50408610257063
 31
0.0
  0
LINE
  5
5294
330
1F
100
AcDbEntity
  8
SPOJOVACÍ
  6
Continuous
100
AcDbLine
 10
115.0363727948363
 20
-62.74533873161335
 30
0.0
 11
113.8804433335619
 21
-66.18308243726705
 31
0.0
  0
LINE
  5
5295
330
1F
100
AcDbEntity
  8
SPOJOVACÍ
  6
Continuous
100
AcDbLine
 10
114.5295665126916
 20
-62.74533873161335
 30
0.0
 11
113.3736370511771
 21
-66.18308243726705
 31
0.0
  0
LINE
  5
5296
330
1F
100
AcDbEntity
  8
SPOJOVACÍ
  6
Continuous
100
AcDbLine
 10
113.6946407183361
 20
-66.50408610257063
 30
0.0
 11
113.8804433335619
 21
-66.18308243726705
 31
0.0
  0
LINE
  5
5297
330
1F
100
AcDbEntity
  8
SPOJOVACÍ
  6
Continuous
100
AcDbLine
 10
113.6946407183361
 20
-66.50408610257063
 30
0.0
 11
113.3736370511771
 21
-66.18308243726705
 31
0.0
  0
LINE
  5
5298
330
1F
100
AcDbEntity
  8
SPOJOVACÍ
  6
Continuous
100
AcDbLine
 10
114.714578478329
 20
-62.42433506259903
 30
0.0
 11
115.0363727948363
 21
-62.74533873161335
 31
0.0
  0
LINE
  5
5299
330
1F
100
AcDbEntity
  8
SPOJOVACÍ
  6
Continuous
100
AcDbLine
 10
114.714578478329
 20
-62.42433506259903
 30
0.0
 11
114.5295665126916
 21
-62.74533873161335
 31
0.0
  0
LINE
  5
529A
330
1F
100
AcDbEntity
  8
SPOJOVACÍ
  6
Continuous
100
AcDbLine
 10
114.714578478329
 20
-62.42433506259903
 30
0.0
 11
113.6946407183361
 21
-66.50408610257063
 31
0.0
  0
LINE
  5
529B
330
1F
100
AcDbEntity
  8
SPOJOVACÍ
  6
Continuous
100
AcDbLine
 10
100.9991828784015
 20
-65.40271145385549
 30
0.0
 11
102.6745690129948
 21
-65.61144290360306
 31
0.0
  0
LINE
  5
529C
330
1F
100
AcDbEntity
  8
SPOJOVACÍ
  6
Continuous
100
AcDbLine
 10
98.69839304738821
 20
-65.11491506017836
 30
0.0
 11
100.5145147798114
 21
-65.34183144721527
 31
0.0
  0
LINE
  5
529D
330
1F
100
AcDbEntity
  8
SPOJOVACÍ
  6
Continuous
100
AcDbLine
 10
96.38890607286999
 20
-64.82632802318466
 30
0.0
 11
98.21214365010497
 21
-65.05403505724888
 31
0.0
  0
LINE
  5
529E
330
1F
100
AcDbEntity
  8
SPOJOVACÍ
  6
Continuous
100
AcDbLine
 10
96.12008526791875
 20
-64.13609107177098
 30
0.0
 11
93.49433852278275
 21
-64.46421058258483
 31
0.0
  0
LINE
  5
529F
330
1F
100
AcDbEntity
  8
SPOJOVACÍ
  6
Continuous
100
AcDbLine
 10
98.62011875419671
 20
-63.82378454974304
 30
0.0
 11
96.64744843539416
 21
-64.07046716812391
 31
0.0
  0
LINE
  5
52A0
330
1F
100
AcDbEntity
  8
SPOJOVACÍ
  6
Continuous
100
AcDbLine
 10
101.1296400335643
 20
-63.50989672623899
 30
0.0
 11
99.1561790654098
 21
-63.75657934833061
 31
0.0
  0
LINE
  5
52A1
330
1F
100
AcDbEntity
  8
SPOJOVACÍ
  6
Continuous
100
AcDbLine
 10
93.49433852278275
 20
-64.46421058258483
 30
0.0
 11
95.90502862386097
 21
-64.76544801654444
 31
0.0
  0
LINE
  5
52A2
330
1F
100
AcDbEntity
  8
SPOJOVACÍ
  6
Continuous
100
AcDbLine
 10
102.6745690129948
 20
-63.31697826527733
 30
0.0
 11
101.6570032010397
 21
-63.44427282259193
 31
0.0
  0
LINE
  5
52A3
330
1F
100
AcDbEntity
  8
SPOJOVACÍ
  6
Continuous
100
AcDbLine
 10
102.9607841051958
 20
-65.61144290360306
 30
0.0
 11
102.6745690129948
 21
-65.61144290360306
 31
0.0
  0
LINE
  5
52A4
330
1F
100
AcDbEntity
  8
SPOJOVACÍ
  6
Continuous
100
AcDbLine
 10
105.6149942298154
 20
-65.61144290360306
 30
0.0
 11
103.4739155830404
 21
-65.61144290360306
 31
0.0
  0
LINE
  5
52A5
330
1F
100
AcDbEntity
  8
SPOJOVACÍ
  6
Continuous
100
AcDbLine
 10
103.7348298935987
 20
-63.31697826527733
 30
0.0
 11
102.6745690129948
 21
-63.31697826527733
 31
0.0
  0
LINE
  5
52A6
330
1F
100
AcDbEntity
  8
SPOJOVACÍ
  6
Continuous
100
AcDbLine
 10
106.3819241734101
 20
-63.31697826527733
 30
0.0
 11
104.2416361759799
 21
-63.31697826527733
 31
0.0
  0
LINE
  5
52A7
330
1F
100
AcDbEntity
  8
SPOJOVACÍ
  6
Continuous
100
AcDbLine
 10
108.2684137048611
 20
-65.61144290360306
 30
0.0
 11
106.1257537591602
 21
-65.61144290360306
 31
0.0
  0
LINE
  5
52A8
330
1F
100
AcDbEntity
  8
SPOJOVACÍ
  6
Continuous
100
AcDbLine
 10
110.9226238292551
 20
-65.61144290360306
 30
0.0
 11
108.7736386883127
 21
-65.61144290360306
 31
0.0
  0
LINE
  5
52A9
330
1F
100
AcDbEntity
  8
SPOJOVACÍ
  6
Continuous
100
AcDbLine
 10
113.5705087584076
 20
-65.61144290360306
 30
0.0
 11
111.4294301116362
 21
-65.61144290360306
 31
0.0
  0
LINE
  5
52AA
330
1F
100
AcDbEntity
  8
SPOJOVACÍ
  6
Continuous
100
AcDbLine
 10
109.0448314415418
 20
-63.31697826527733
 30
0.0
 11
106.8958463005994
 21
-63.31697826527733
 31
0.0
  0
LINE
  5
52AB
330
1F
100
AcDbEntity
  8
SPOJOVACÍ
  6
Continuous
100
AcDbLine
 10
111.6927163706943
 20
-63.31697826527733
 30
0.0
 11
109.5500564249934
 21
-63.31697826527733
 31
0.0
  0
LINE
  5
52AC
330
1F
100
AcDbEntity
  8
SPOJOVACÍ
  6
Continuous
100
AcDbLine
 10
114.3469264950883
 20
-63.31697826527733
 30
0.0
 11
112.2058478483134
 21
-63.31697826527733
 31
0.0
  0
LINE
  5
52AD
330
1F
100
AcDbEntity
  8
SPOJOVACÍ
  6
Continuous
100
AcDbLine
 10
118.2851512881181
 20
-63.31697826527733
 30
0.0
 11
114.8529421278883
 21
-63.31697826527733
 31
0.0
  0
LINE
  5
52AE
330
1F
100
AcDbEntity
  8
SPOJOVACÍ
  6
Continuous
100
AcDbLine
 10
118.2851512881181
 20
-65.61144290360306
 30
0.0
 11
114.0836402360266
 21
-65.61144290360306
 31
0.0
  0
LINE
  5
52AF
330
1F
100
AcDbEntity
  8
SPOJOVACÍ
  6
Continuous
100
AcDbLine
 10
122.874871208319
 20
-60.12907977724598
 30
0.0
 11
122.2423516673163
 21
-61.27631209826422
 31
0.0
  0
LINE
  5
52B0
330
1F
100
AcDbEntity
  8
SPOJOVACÍ
  6
Continuous
100
AcDbLine
 10
122.2423516673163
 20
-61.27631209826422
 30
0.0
 11
121.3338954763178
 21
-62.22034751356904
 31
0.0
  0
LINE
  5
52B1
330
1F
100
AcDbEntity
  8
SPOJOVACÍ
  6
Continuous
100
AcDbLine
 10
121.3338954763178
 20
-62.22034751356904
 30
0.0
 11
120.2127545897612
 21
-62.8971434209895
 31
0.0
  0
LINE
  5
52B2
330
1F
100
AcDbEntity
  8
SPOJOVACÍ
  6
Continuous
100
AcDbLine
 10
120.2127545897612
 20
-62.8971434209895
 30
0.0
 11
118.9540407027718
 21
-63.26084215564396
 31
0.0
  0
LINE
  5
52B3
330
1F
100
AcDbEntity
  8
SPOJOVACÍ
  6
Continuous
100
AcDbLine
 10
118.9540407027718
 20
-63.26084215564396
 30
0.0
 11
118.2851512881181
 21
-63.31697826527733
 31
0.0
  0
LINE
  5
52B4
330
1F
100
AcDbEntity
  8
SPOJOVACÍ
  6
Continuous
100
AcDbLine
 10
121.8082851322444
 20
-67.13976824211631
 30
0.0
 11
122.588656116118
 21
-68.19133197968103
 31
0.0
  0
LINE
  5
52B5
330
1F
100
AcDbEntity
  8
SPOJOVACÍ
  6
Continuous
100
AcDbLine
 10
123.8948089685411
 20
-60.12907977724598
 30
0.0
 11
122.874871208319
 21
-60.12907977724598
 31
0.0
  0
LINE
  5
52B6
330
1F
100
AcDbEntity
  8
SPOJOVACÍ
  6
Continuous
100
AcDbLine
 10
118.2851512881181
 20
-65.61144290360306
 30
0.0
 11
119.580235048533
 21
-65.80436136085399
 31
0.0
  0
LINE
  5
52B7
330
1F
100
AcDbEntity
  8
SPOJOVACÍ
  6
Continuous
100
AcDbLine
 10
119.580235048533
 20
-65.80436136085399
 30
0.0
 11
120.7820221767772
 21
-66.3253993326295
 31
0.0
  0
LINE
  5
52B8
330
1F
100
AcDbEntity
  8
SPOJOVACÍ
  6
Continuous
100
AcDbLine
 10
120.7820221767772
 20
-66.3253993326295
 30
0.0
 11
121.8082851322444
 21
-67.13976824211631
 31
0.0
  0
LINE
  5
52B9
330
1F
100
AcDbEntity
  8
SPOJOVACÍ
  6
Continuous
100
AcDbLine
 10
120.7820221767772
 20
386.8056597741518
 30
0.0
 11
121.8082851322444
 21
387.6200286836386
 31
0.0
  0
LINE
  5
52BA
330
1F
100
AcDbEntity
  8
SPOJOVACÍ
  6
Continuous
100
AcDbLine
 10
119.580235048533
 20
386.2846218023763
 30
0.0
 11
120.7820221767772
 21
386.8056597741518
 31
0.0
  0
LINE
  5
52BB
330
1F
100
AcDbEntity
  8
SPOJOVACÍ
  6
Continuous
100
AcDbLine
 10
118.2851512881181
 20
386.0917033451253
 30
0.0
 11
119.580235048533
 21
386.2846218023763
 31
0.0
  0
LINE
  5
52BC
330
1F
100
AcDbEntity
  8
SPOJOVACÍ
  6
Continuous
100
AcDbLine
 10
123.8948089685411
 20
389.2796018294459
 30
0.0
 11
122.874871208319
 21
389.2796018294459
 31
0.0
  0
LINE
  5
52BD
330
1F
100
AcDbEntity
  8
SPOJOVACÍ
  6
Continuous
100
AcDbLine
 10
123.8948089685411
 20
380.6093402187682
 30
0.0
 11
123.8948089685411
 21
389.2796018294459
 31
0.0
  0
LINE
  5
52BE
330
1F
100
AcDbEntity
  8
SPOJOVACÍ
  6
Continuous
100
AcDbLine
 10
123.8948089685411
 20
380.6093402187682
 30
0.0
 11
122.874871208319
 21
380.6093402187682
 31
0.0
  0
LINE
  5
52BF
330
1F
100
AcDbEntity
  8
SPOJOVACÍ
  6
Continuous
100
AcDbLine
 10
122.874871208319
 20
380.6093402187682
 30
0.0
 11
122.874871208319
 21
389.2796018294459
 31
0.0
  0
LINE
  5
52C0
330
1F
100
AcDbEntity
  8
SPOJOVACÍ
  6
Continuous
100
AcDbLine
 10
122.588656116118
 20
388.6715924212033
 30
0.0
 11
122.874871208319
 21
389.2796018294459
 31
0.0
  0
LINE
  5
52C1
330
1F
100
AcDbEntity
  8
SPOJOVACÍ
  6
Continuous
100
AcDbLine
 10
121.8082851322444
 20
387.6200286836386
 30
0.0
 11
122.588656116118
 21
388.6715924212033
 31
0.0
  0
LINE
  5
52C2
330
1F
100
AcDbEntity
  8
SPOJOVACÍ
  6
Continuous
100
AcDbLine
 10
118.9540407027718
 20
383.7411025971663
 30
0.0
 11
118.2851512881181
 21
383.7972387067996
 31
0.0
  0
LINE
  5
52C3
330
1F
100
AcDbEntity
  8
SPOJOVACÍ
  6
Continuous
100
AcDbLine
 10
120.2127545897612
 20
383.3774038625118
 30
0.0
 11
118.9540407027718
 21
383.7411025971663
 31
0.0
  0
LINE
  5
52C4
330
1F
100
AcDbEntity
  8
SPOJOVACÍ
  6
Continuous
100
AcDbLine
 10
121.3338954763178
 20
382.7006079550913
 30
0.0
 11
120.2127545897612
 21
383.3774038625118
 31
0.0
  0
LINE
  5
52C5
330
1F
100
AcDbEntity
  8
SPOJOVACÍ
  6
Continuous
100
AcDbLine
 10
122.2423516673163
 20
381.7565725397865
 30
0.0
 11
121.3338954763178
 21
382.7006079550913
 31
0.0
  0
LINE
  5
52C6
330
1F
100
AcDbEntity
  8
SPOJOVACÍ
  6
Continuous
100
AcDbLine
 10
122.874871208319
 20
380.6093402187682
 30
0.0
 11
122.2423516673163
 21
381.7565725397865
 31
0.0
  0
LINE
  5
52C7
330
1F
100
AcDbEntity
  8
SPOJOVACÍ
  6
Continuous
100
AcDbLine
 10
118.2851512881181
 20
386.0917033451253
 30
0.0
 11
114.0836402360266
 21
386.0917033451253
 31
0.0
  0
LINE
  5
52C8
330
1F
100
AcDbEntity
  8
SPOJOVACÍ
  6
Continuous
100
AcDbLine
 10
118.2851512881181
 20
383.7972387067996
 30
0.0
 11
114.8529421278883
 21
383.7972387067996
 31
0.0
  0
LINE
  5
52C9
330
1F
100
AcDbEntity
  8
SPOJOVACÍ
  6
Continuous
100
AcDbLine
 10
114.3469264950883
 20
383.7972387067996
 30
0.0
 11
112.2058478483134
 21
383.7972387067996
 31
0.0
  0
LINE
  5
52CA
330
1F
100
AcDbEntity
  8
SPOJOVACÍ
  6
Continuous
100
AcDbLine
 10
111.6927163706943
 20
383.7972387067996
 30
0.0
 11
109.5500564249934
 21
383.7972387067996
 31
0.0
  0
LINE
  5
52CB
330
1F
100
AcDbEntity
  8
SPOJOVACÍ
  6
Continuous
100
AcDbLine
 10
109.0448314415418
 20
383.7972387067996
 30
0.0
 11
106.8958463005994
 21
383.7972387067996
 31
0.0
  0
LINE
  5
52CC
330
1F
100
AcDbEntity
  8
SPOJOVACÍ
  6
Continuous
100
AcDbLine
 10
113.5705087584076
 20
386.0917033451253
 30
0.0
 11
111.4294301116362
 21
386.0917033451253
 31
0.0
  0
LINE
  5
52CD
330
1F
100
AcDbEntity
  8
SPOJOVACÍ
  6
Continuous
100
AcDbLine
 10
110.9226238292551
 20
386.0917033451253
 30
0.0
 11
108.7736386883127
 21
386.0917033451253
 31
0.0
  0
LINE
  5
52CE
330
1F
100
AcDbEntity
  8
SPOJOVACÍ
  6
Continuous
100
AcDbLine
 10
108.2684137048611
 20
386.0917033451253
 30
0.0
 11
106.1257537591602
 21
386.0917033451253
 31
0.0
  0
LINE
  5
52CF
330
1F
100
AcDbEntity
  8
SPOJOVACÍ
  6
Continuous
100
AcDbLine
 10
106.3819241734101
 20
383.7972387067996
 30
0.0
 11
104.2416361759799
 21
383.7972387067996
 31
0.0
  0
LINE
  5
52D0
330
1F
100
AcDbEntity
  8
SPOJOVACÍ
  6
Continuous
100
AcDbLine
 10
103.7348298935987
 20
383.7972387067996
 30
0.0
 11
102.6745690129948
 21
383.7972387067996
 31
0.0
  0
LINE
  5
52D1
330
1F
100
AcDbEntity
  8
SPOJOVACÍ
  6
Continuous
100
AcDbLine
 10
105.6149942298154
 20
386.0917033451253
 30
0.0
 11
103.4739155830404
 21
386.0917033451253
 31
0.0
  0
LINE
  5
52D2
330
1F
100
AcDbEntity
  8
SPOJOVACÍ
  6
Continuous
100
AcDbLine
 10
102.9607841051958
 20
386.0917033451253
 30
0.0
 11
102.6745690129948
 21
386.0917033451253
 31
0.0
  0
LINE
  5
52D3
330
1F
100
AcDbEntity
  8
SPOJOVACÍ
  6
Continuous
100
AcDbLine
 10
102.6745690129948
 20
383.7972387067996
 30
0.0
 11
101.6570032010397
 21
383.9245332641142
 31
0.0
  0
LINE
  5
52D4
330
1F
100
AcDbEntity
  8
SPOJOVACÍ
  6
Continuous
100
AcDbLine
 10
93.49433852278275
 20
384.9444710241071
 30
0.0
 11
95.90502862386097
 21
385.2457084580667
 31
0.0
  0
LINE
  5
52D5
330
1F
100
AcDbEntity
  8
SPOJOVACÍ
  6
Continuous
100
AcDbLine
 10
101.1296400335643
 20
383.9901571677613
 30
0.0
 11
99.1561790654098
 21
384.2368397898529
 31
0.0
  0
LINE
  5
52D6
330
1F
100
AcDbEntity
  8
SPOJOVACÍ
  6
Continuous
100
AcDbLine
 10
98.62011875419671
 20
384.3040449912653
 30
0.0
 11
96.64744843539416
 21
384.5507276096462
 31
0.0
  0
LINE
  5
52D7
330
1F
100
AcDbEntity
  8
SPOJOVACÍ
  6
Continuous
100
AcDbLine
 10
96.12008526791875
 20
384.6163515132932
 30
0.0
 11
93.49433852278275
 21
384.9444710241071
 31
0.0
  0
LINE
  5
52D8
330
1F
100
AcDbEntity
  8
SPOJOVACÍ
  6
Continuous
100
AcDbLine
 10
96.38890607286999
 20
385.3065884647069
 30
0.0
 11
98.21214365010497
 21
385.5342954987712
 31
0.0
  0
LINE
  5
52D9
330
1F
100
AcDbEntity
  8
SPOJOVACÍ
  6
Continuous
100
AcDbLine
 10
98.69839304738821
 20
385.5951755017006
 30
0.0
 11
100.5145147798114
 21
385.8220918887376
 31
0.0
  0
LINE
  5
52DA
330
1F
100
AcDbEntity
  8
SPOJOVACÍ
  6
Continuous
100
AcDbLine
 10
100.9991828784015
 20
385.8829718953778
 30
0.0
 11
102.6745690129948
 21
386.0917033451253
 31
0.0
  0
LINE
  5
52DB
330
1F
100
AcDbEntity
  8
SPOJOVACÍ
  6
Continuous
100
AcDbLine
 10
114.714578478329
 20
382.9045955041213
 30
0.0
 11
113.6946407183361
 21
386.9843465440929
 31
0.0
  0
LINE
  5
52DC
330
1F
100
AcDbEntity
  8
SPOJOVACÍ
  6
Continuous
100
AcDbLine
 10
114.714578478329
 20
382.9045955041213
 30
0.0
 11
114.5295665126916
 21
383.2255991731356
 31
0.0
  0
LINE
  5
52DD
330
1F
100
AcDbEntity
  8
SPOJOVACÍ
  6
Continuous
100
AcDbLine
 10
114.714578478329
 20
382.9045955041213
 30
0.0
 11
115.0363727948363
 21
383.2255991731356
 31
0.0
  0
LINE
  5
52DE
330
1F
100
AcDbEntity
  8
SPOJOVACÍ
  6
Continuous
100
AcDbLine
 10
113.6946407183361
 20
386.9843465440929
 30
0.0
 11
113.3736370511771
 21
386.6633428787893
 31
0.0
  0
LINE
  5
52DF
330
1F
100
AcDbEntity
  8
SPOJOVACÍ
  6
Continuous
100
AcDbLine
 10
113.6946407183361
 20
386.9843465440929
 30
0.0
 11
113.8804433335619
 21
386.6633428787893
 31
0.0
  0
LINE
  5
52E0
330
1F
100
AcDbEntity
  8
SPOJOVACÍ
  6
Continuous
100
AcDbLine
 10
114.5295665126916
 20
383.2255991731356
 30
0.0
 11
113.3736370511771
 21
386.6633428787893
 31
0.0
  0
LINE
  5
52E1
330
1F
100
AcDbEntity
  8
SPOJOVACÍ
  6
Continuous
100
AcDbLine
 10
115.0363727948363
 20
383.2255991731356
 30
0.0
 11
113.8804433335619
 21
386.6633428787893
 31
0.0
  0
LINE
  5
52E2
330
1F
100
AcDbEntity
  8
SPOJOVACÍ
  6
Continuous
100
AcDbLine
 10
112.0627403022128
 20
382.9045955041213
 30
0.0
 11
111.0428025419835
 21
386.9843465440929
 31
0.0
  0
LINE
  5
52E3
330
1F
100
AcDbEntity
  8
SPOJOVACÍ
  6
Continuous
100
AcDbLine
 10
112.0627403022128
 20
382.9045955041213
 30
0.0
 11
111.8769376869906
 21
383.2255991731356
 31
0.0
  0
LINE
  5
52E4
330
1F
100
AcDbEntity
  8
SPOJOVACÍ
  6
Continuous
100
AcDbLine
 10
112.0627403022128
 20
382.9045955041213
 30
0.0
 11
112.3837439693718
 21
383.2255991731356
 31
0.0
  0
LINE
  5
52E5
330
1F
100
AcDbEntity
  8
SPOJOVACÍ
  6
Continuous
100
AcDbLine
 10
111.0428025419835
 20
386.9843465440929
 30
0.0
 11
110.721798875061
 21
386.6633428787893
 31
0.0
  0
LINE
  5
52E6
330
1F
100
AcDbEntity
  8
SPOJOVACÍ
  6
Continuous
100
AcDbLine
 10
111.0428025419835
 20
386.9843465440929
 30
0.0
 11
111.2286051572093
 21
386.6633428787893
 31
0.0
  0
LINE
  5
52E7
330
1F
100
AcDbEntity
  8
SPOJOVACÍ
  6
Continuous
100
AcDbLine
 10
111.8769376869906
 20
383.2255991731356
 30
0.0
 11
110.721798875061
 21
386.6633428787893
 31
0.0
  0
LINE
  5
52E8
330
1F
100
AcDbEntity
  8
SPOJOVACÍ
  6
Continuous
100
AcDbLine
 10
112.3837439693718
 20
383.2255991731356
 30
0.0
 11
111.2286051572093
 21
386.6633428787893
 31
0.0
  0
LINE
  5
52E9
330
1F
100
AcDbEntity
  8
SPOJOVACÍ
  6
Continuous
100
AcDbLine
 10
101.4909668215707
 20
383.1204427993792
 30
0.0
 11
101.3051642063485
 21
383.4422371154208
 31
0.0
  0
LINE
  5
52EA
330
1F
100
AcDbEntity
  8
SPOJOVACÍ
  6
Continuous
100
AcDbLine
 10
101.4909668215707
 20
383.1204427993792
 30
0.0
 11
101.8119704887296
 21
383.4422371154208
 31
0.0
  0
LINE
  5
52EB
330
1F
100
AcDbEntity
  8
SPOJOVACÍ
  6
Continuous
100
AcDbLine
 10
100.6639475216118
 20
386.6269730042107
 30
0.0
 11
100.3421532048716
 21
386.3059693389071
 31
0.0
  0
LINE
  5
52EC
330
1F
100
AcDbEntity
  8
SPOJOVACÍ
  6
Continuous
100
AcDbLine
 10
100.6639475216118
 20
386.6269730042107
 30
0.0
 11
100.8489594872528
 21
386.3059693389071
 31
0.0
  0
LINE
  5
52ED
330
1F
100
AcDbEntity
  8
SPOJOVACÍ
  6
Continuous
100
AcDbLine
 10
101.3051642063485
 20
383.4422371154208
 30
0.0
 11
100.3421532048716
 21
386.3059693389071
 31
0.0
  0
LINE
  5
52EE
330
1F
100
AcDbEntity
  8
SPOJOVACÍ
  6
Continuous
100
AcDbLine
 10
101.8119704887296
 20
383.4422371154208
 30
0.0
 11
100.8489594872528
 21
386.3059693389071
 31
0.0
  0
LINE
  5
52EF
330
1F
100
AcDbEntity
  8
SPOJOVACÍ
  6
Continuous
100
AcDbLine
 10
101.4909668215707
 20
383.1204427993792
 30
0.0
 11
100.6639475216118
 21
386.6269730042107
 31
0.0
  0
LINE
  5
52F0
330
1F
100
AcDbEntity
  8
SPOJOVACÍ
  6
Continuous
100
AcDbLine
 10
98.92847203041789
 20
383.6003669995692
 30
0.0
 11
98.74346006477686
 21
383.9213706685835
 31
0.0
  0
LINE
  5
52F1
330
1F
100
AcDbEntity
  8
SPOJOVACÍ
  6
Continuous
100
AcDbLine
 10
98.92847203041789
 20
383.6003669995692
 30
0.0
 11
99.250266347158
 21
383.9213706685835
 31
0.0
  0
LINE
  5
52F2
330
1F
100
AcDbEntity
  8
SPOJOVACÍ
  6
Continuous
100
AcDbLine
 10
98.39003977116341
 20
386.2490425785356
 30
0.0
 11
98.06824545465611
 21
385.9280389132321
 31
0.0
  0
LINE
  5
52F3
330
1F
100
AcDbEntity
  8
SPOJOVACÍ
  6
Continuous
100
AcDbLine
 10
98.39003977116341
 20
386.2490425785356
 30
0.0
 11
98.57505173680443
 21
385.9280389132321
 31
0.0
  0
LINE
  5
52F4
330
1F
100
AcDbEntity
  8
SPOJOVACÍ
  6
Continuous
100
AcDbLine
 10
98.74346006477686
 20
383.9213706685835
 30
0.0
 11
98.06824545465611
 21
385.9280389132321
 31
0.0
  0
LINE
  5
52F5
330
1F
100
AcDbEntity
  8
SPOJOVACÍ
  6
Continuous
100
AcDbLine
 10
99.250266347158
 20
383.9213706685835
 30
0.0
 11
98.57505173680443
 21
385.9280389132321
 31
0.0
  0
LINE
  5
52F6
330
1F
100
AcDbEntity
  8
SPOJOVACÍ
  6
Continuous
100
AcDbLine
 10
98.92847203041789
 20
383.6003669995692
 30
0.0
 11
98.39003977116341
 21
386.2490425785356
 31
0.0
  0
LINE
  5
52F7
330
1F
100
AcDbEntity
  8
SPOJOVACÍ
  6
Continuous
100
AcDbLine
 10
96.36676788884621
 20
384.0802912034699
 30
0.0
 11
96.18096527363128
 21
384.4012948687735
 31
0.0
  0
LINE
  5
52F8
330
1F
100
AcDbEntity
  8
SPOJOVACÍ
  6
Continuous
100
AcDbLine
 10
96.36676788884621
 20
384.0802912034699
 30
0.0
 11
96.68777155600515
 21
384.4012948687735
 31
0.0
  0
LINE
  5
52F9
330
1F
100
AcDbEntity
  8
SPOJOVACÍ
  6
Continuous
100
AcDbLine
 10
96.10269098043978
 20
385.9114352737081
 30
0.0
 11
95.78089666393248
 21
385.5904316084045
 31
0.0
  0
LINE
  5
52FA
330
1F
100
AcDbEntity
  8
SPOJOVACÍ
  6
Continuous
100
AcDbLine
 10
96.10269098043978
 20
385.9114352737081
 30
0.0
 11
96.28770294630635
 21
385.5904316084045
 31
0.0
  0
LINE
  5
52FB
330
1F
100
AcDbEntity
  8
SPOJOVACÍ
  6
Continuous
100
AcDbLine
 10
96.18096527363128
 20
384.4012948687735
 30
0.0
 11
95.78089666393248
 21
385.5904316084045
 31
0.0
  0
LINE
  5
52FC
330
1F
100
AcDbEntity
  8
SPOJOVACÍ
  6
Continuous
100
AcDbLine
 10
96.68777155600515
 20
384.4012948687735
 30
0.0
 11
96.28770294630635
 21
385.5904316084045
 31
0.0
  0
LINE
  5
52FD
330
1F
100
AcDbEntity
  8
SPOJOVACÍ
  6
Continuous
100
AcDbLine
 10
96.36676788884621
 20
384.0802912034699
 30
0.0
 11
96.10269098043978
 21
385.9114352737081
 31
0.0
  0
LINE
  5
52FE
330
1F
100
AcDbEntity
  8
SPOJOVACÍ
  6
Continuous
100
AcDbLine
 10
109.4109021258602
 20
382.9045955041213
 30
0.0
 11
108.3909643658673
 21
386.9843465440929
 31
0.0
  0
LINE
  5
52FF
330
1F
100
AcDbEntity
  8
SPOJOVACÍ
  6
Continuous
100
AcDbLine
 10
109.4109021258602
 20
382.9045955041213
 30
0.0
 11
109.225099510638
 21
383.2255991731356
 31
0.0
  0
LINE
  5
5300
330
1F
100
AcDbEntity
  8
SPOJOVACÍ
  6
Continuous
100
AcDbLine
 10
109.4109021258602
 20
382.9045955041213
 30
0.0
 11
109.7319057930192
 21
383.2255991731356
 31
0.0
  0
LINE
  5
5301
330
1F
100
AcDbEntity
  8
SPOJOVACÍ
  6
Continuous
100
AcDbLine
 10
108.3909643658673
 20
386.9843465440929
 30
0.0
 11
108.0691700493637
 21
386.6633428787893
 31
0.0
  0
LINE
  5
5302
330
1F
100
AcDbEntity
  8
SPOJOVACÍ
  6
Continuous
100
AcDbLine
 10
108.3909643658673
 20
386.9843465440929
 30
0.0
 11
108.5759763317375
 21
386.6633428787893
 31
0.0
  0
LINE
  5
5303
330
1F
100
AcDbEntity
  8
SPOJOVACÍ
  6
Continuous
100
AcDbLine
 10
109.225099510638
 20
383.2255991731356
 30
0.0
 11
108.0691700493637
 21
386.6633428787893
 31
0.0
  0
LINE
  5
5304
330
1F
100
AcDbEntity
  8
SPOJOVACÍ
  6
Continuous
100
AcDbLine
 10
109.7319057930192
 20
383.2255991731356
 30
0.0
 11
108.5759763317375
 21
386.6633428787893
 31
0.0
  0
LINE
  5
5305
330
1F
100
AcDbEntity
  8
SPOJOVACÍ
  6
Continuous
100
AcDbLine
 10
106.7590639497368
 20
382.9045955041213
 30
0.0
 11
105.7391261897439
 21
386.9843465440929
 31
0.0
  0
LINE
  5
5306
330
1F
100
AcDbEntity
  8
SPOJOVACÍ
  6
Continuous
100
AcDbLine
 10
106.7590639497368
 20
382.9045955041213
 30
0.0
 11
106.5732613345219
 21
383.2255991731356
 31
0.0
  0
LINE
  5
5307
330
1F
100
AcDbEntity
  8
SPOJOVACÍ
  6
Continuous
100
AcDbLine
 10
106.7590639497368
 20
382.9045955041213
 30
0.0
 11
107.0800676168958
 21
383.2255991731356
 31
0.0
  0
LINE
  5
5308
330
1F
100
AcDbEntity
  8
SPOJOVACÍ
  6
Continuous
100
AcDbLine
 10
105.7391261897439
 20
386.9843465440929
 30
0.0
 11
105.4173318732366
 21
386.6633428787893
 31
0.0
  0
LINE
  5
5309
330
1F
100
AcDbEntity
  8
SPOJOVACÍ
  6
Continuous
100
AcDbLine
 10
105.7391261897439
 20
386.9843465440929
 30
0.0
 11
105.9241381553849
 21
386.6633428787893
 31
0.0
  0
LINE
  5
530A
330
1F
100
AcDbEntity
  8
SPOJOVACÍ
  6
Continuous
100
AcDbLine
 10
106.5732613345219
 20
383.2255991731356
 30
0.0
 11
105.4173318732366
 21
386.6633428787893
 31
0.0
  0
LINE
  5
530B
330
1F
100
AcDbEntity
  8
SPOJOVACÍ
  6
Continuous
100
AcDbLine
 10
107.0800676168958
 20
383.2255991731356
 30
0.0
 11
105.9241381553849
 21
386.6633428787893
 31
0.0
  0
LINE
  5
530C
330
1F
100
AcDbEntity
  8
SPOJOVACÍ
  6
Continuous
100
AcDbLine
 10
104.1064351240359
 20
382.9045955041213
 30
0.0
 11
103.086497364043
 21
386.9843465440929
 31
0.0
  0
LINE
  5
530D
330
1F
100
AcDbEntity
  8
SPOJOVACÍ
  6
Continuous
100
AcDbLine
 10
104.1064351240359
 20
382.9045955041213
 30
0.0
 11
103.9214231583985
 21
383.2255991731356
 31
0.0
  0
LINE
  5
530E
330
1F
100
AcDbEntity
  8
SPOJOVACÍ
  6
Continuous
100
AcDbLine
 10
104.1064351240359
 20
382.9045955041213
 30
0.0
 11
104.4282294407796
 21
383.2255991731356
 31
0.0
  0
LINE
  5
530F
330
1F
100
AcDbEntity
  8
SPOJOVACÍ
  6
Continuous
100
AcDbLine
 10
103.086497364043
 20
386.9843465440929
 30
0.0
 11
102.765493696884
 21
386.6633428787893
 31
0.0
  0
LINE
  5
5310
330
1F
100
AcDbEntity
  8
SPOJOVACÍ
  6
Continuous
100
AcDbLine
 10
103.086497364043
 20
386.9843465440929
 30
0.0
 11
103.2722999792688
 21
386.6633428787893
 31
0.0
  0
LINE
  5
5311
330
1F
100
AcDbEntity
  8
SPOJOVACÍ
  6
Continuous
100
AcDbLine
 10
103.9214231583985
 20
383.2255991731356
 30
0.0
 11
102.765493696884
 21
386.6633428787893
 31
0.0
  0
LINE
  5
5312
330
1F
100
AcDbEntity
  8
SPOJOVACÍ
  6
Continuous
100
AcDbLine
 10
104.4282294407796
 20
383.2255991731356
 30
0.0
 11
103.2722999792688
 21
386.6633428787893
 31
0.0
  0
LINE
  5
5313
330
1F
100
AcDbEntity
  8
POPIS
100
AcDbLine
 10
236.4575120343336
 20
400.2761567621448
 30
0.0
 11
-82.18209532833748
 21
400.2761567621422
 31
0.0
  0
TEXT
  5
5314
330
1F
100
AcDbEntity
  8
POPIS
100
AcDbText
 10
238.5075689359012
 20
388.2787706842985
 30
0.0
 40
25.0
  1
01
 41
0.85
  7
SIMPLEX7
100
AcDbText
  0
INSERT
  5
5315
330
1F
100
AcDbEntity
  8
POPIS
100
AcDbBlockReference
  2
E_PUNKT
 10
-82.21116365921147
 20
400.303767137769
 30
0.0
 50
270.0
  0
TEXT
  5
5316
330
1F
100
AcDbEntity
  8
POPIS
100
AcDbText
 10
238.5075689359012
 20
345.3395691511626
 30
0.0
 40
25.0
  1
02
 41
0.85
  7
SIMPLEX7
100
AcDbText
  0
LINE
  5
5317
330
1F
100
AcDbEntity
  8
POPIS
100
AcDbLine
 10
236.4575120343336
 20
357.336955229009
 30
0.0
 11
-57.18209532833748
 21
357.3369552290071
 31
0.0
  0
TEXT
  5
5318
330
1F
100
AcDbEntity
  8
POPIS
100
AcDbText
 10
238.5075689359012
 20
303.4435564426506
 30
0.0
 40
25.0
  1
03
 41
0.85
  7
SIMPLEX7
100
AcDbText
  0
LINE
  5
5319
330
1F
100
AcDbEntity
  8
POPIS
100
AcDbLine
 10
236.4575120343336
 20
315.440942520497
 30
0.0
 11
-29.55675912196125
 21
315.4409425204951
 31
0.0
  0
TEXT
  5
531A
330
1F
100
AcDbEntity
  8
POPIS
100
AcDbText
 10
238.5075689359012
 20
259.0172459083126
 30
0.0
 40
25.0
  1
04
 41
0.85
  7
SIMPLEX7
100
AcDbText
  0
LINE
  5
531B
330
1F
100
AcDbEntity
  8
POPIS
100
AcDbLine
 10
236.4575120343336
 20
271.014631986159
 30
0.0
 11
85.64325633462544
 21
271.0146319861572
 31
0.0
  0
TEXT
  5
531C
330
1F
100
AcDbEntity
  8
POPIS
100
AcDbText
 10
238.5075689359012
 20
203.7828684201861
 30
0.0
 40
25.0
  1
05
 41
0.85
  7
SIMPLEX7
100
AcDbText
  0
LINE
  5
531D
330
1F
100
AcDbEntity
  8
POPIS
100
AcDbLine
 10
236.4575120343336
 20
215.7802544980325
 30
0.0
 11
35.43597067848645
 21
215.7802544980307
 31
0.0
  0
TEXT
  5
531E
330
1F
100
AcDbEntity
  8
POPIS
100
AcDbText
 10
238.5075689359012
 20
147.1007901828209
 30
0.0
 40
25.0
  1
06
 41
0.85
  7
SIMPLEX7
100
AcDbText
  0
LINE
  5
531F
330
1F
100
AcDbEntity
  8
POPIS
100
AcDbLine
 10
236.4575120343336
 20
159.0981762606673
 30
0.0
 11
97.11143475180257
 21
159.0981762606664
 31
0.0
  0
TEXT
  5
5320
330
1F
100
AcDbEntity
  8
POPIS
100
AcDbText
 10
238.5075689359012
 20
91.80676643054658
 30
0.0
 40
25.0
  1
07
 41
0.85
  7
SIMPLEX7
100
AcDbText
  0
LINE
  5
5321
330
1F
100
AcDbEntity
  8
POPIS
100
AcDbLine
 10
236.4575120343336
 20
103.8041525083929
 30
0.0
 11
103.9925919309619
 21
103.804152508392
 31
0.0
  0
TEXT
  5
5322
330
1F
100
AcDbEntity
  8
POPIS
100
AcDbText
 10
238.5075689359012
 20
45.8196457659663
 30
0.0
 40
25.0
  1
08
 41
0.85
  7
SIMPLEX7
100
AcDbText
  0
LINE
  5
5323
330
1F
100
AcDbEntity
  8
POPIS
100
AcDbLine
 10
236.4575120343336
 20
57.81703184381268
 30
0.0
 11
116.8482563555746
 21
57.81703184381178
 31
0.0
  0
INSERT
  5
5324
330
1F
100
AcDbEntity
  8
POPIS
100
AcDbBlockReference
  2
E_PUNKT
 10
-57.21116365921147
 20
357.3645656046331
 30
0.0
 50
270.0
  0
INSERT
  5
5325
330
1F
100
AcDbEntity
  8
POPIS
100
AcDbBlockReference
  2
E_PUNKT
 10
-29.58582745283525
 20
315.4685528961211
 30
0.0
 50
270.0
  0
INSERT
  5
5326
330
1F
100
AcDbEntity
  8
POPIS
100
AcDbBlockReference
  2
E_PUNKT
 10
98.51855657015882
 20
271.042242361784
 30
0.0
 50
270.0
  0
INSERT
  5
5327
330
1F
100
AcDbEntity
  8
POPIS
100
AcDbBlockReference
  2
E_PUNKT
 10
36.64759529848129
 20
215.9601179579115
 30
0.0
 50
270.0
  0
INSERT
  5
5328
330
1F
100
AcDbEntity
  8
POPIS
100
AcDbBlockReference
  2
E_PUNKT
 10
98.31556073656726
 20
158.921503059177
 30
0.0
 50
270.0
  0
INSERT
  5
5329
330
1F
100
AcDbEntity
  8
POPIS
100
AcDbBlockReference
  2
E_PUNKT
 10
105.2124574214733
 20
103.7801459313707
 30
0.0
 50
270.0
  0
INSERT
  5
532A
330
1F
100
AcDbEntity
  8
POPIS
100
AcDbBlockReference
  2
E_PUNKT
 10
118.0209678617732
 20
57.50080326992639
 30
0.0
 50
270.0
  0
LINE
  5
532B
330
1F
100
AcDbEntity
  8
izolace
  6
IZOLACE
 48
5.799999999999999
100
AcDbLine
 10
36.29595763082875
 20
-80.12510164396799
 30
0.0
 11
36.39290499295498
 21
265.9519092187177
 31
0.0
  0
LINE
  5
532C
330
1F
100
AcDbEntity
  8
CETRIS
100
AcDbLine
 10
-37.18209532833748
 20
270.2274936579954
 30
0.0
 11
-23.6089989826421
 21
270.2274936579954
 31
0.0
  0
LINE
  5
532D
330
1F
100
AcDbEntity
  8
CETRIS
100
AcDbLine
 10
-37.18209532833748
 20
265.2274936579954
 30
0.0
 11
-23.6089989826421
 21
265.2274936579954
 31
0.0
  0
HATCH
  5
532E
330
1F
100
AcDbEntity
  8
STAVBA OBRYS
100
AcDbHatch
 10
0.0
 20
0.0
 30
0.0
210
0.0
220
0.0
230
1.0
  2
AR-CONC
 70
     0
 71
     0
 91
        2
 92
        7
 72
     1
 73
     1
 93
        5
 10
-77.18209532833748
 20
400.2761567621422
 42
0.0
 10
-80.93209532833748
 20
400.2761567621422
 42
-0.4142135623730951
 10
-82.18209532833748
 20
399.0261567621422
 42
0.0
 10
-82.18209532834112
 20
-79.9367529480375
 42
0.0
 10
-77.18209532833748
 20
-79.9367529480375
 42
0.0
 97
        0
 92
        7
 72
     1
 73
     1
 93
        6
 10
-82.18209532833748
 20
399.0261567621422
 42
-1.0
 10
-82.18209532833748
 20
401.5261567621421
 42
0.0
 10
-82.18209532833384
 20
415.4269074594552
 42
0.0
 10
-87.18209532833748
 20
415.4269074594552
 42
0.0
 10
-87.18209532833748
 20
-79.9367529480375
 42
0.0
 10
-82.18209532834112
 20
-79.9367529480375
 42
0.0
 97
        0
 75
     0
 76
     1
 52
90.0
 41
0.1
 77
     0
 78
    13
 53
140.0
 43
-26017.46053252982
 44
-430.8777564945055
 45
1.593908553890309
 46
18.2184668996004
 79
     2
 49
1.905
 49
-20.955
 53
85.00000000000001
 43
-26017.46053252982
 44
-430.8777564945055
 45
-19.10566428821799
 46
-3.524282597566697
 79
     2
 49
1.524
 49
-16.764
 53
190.4509999999999
 43
-26017.32770752982
 44
-429.359556494505
 45
-17.51166878202918
 46
14.69425016659592
 79
     2
 49
1.619
 49
-17.809
 53
136.1841999999999
 43
-26022.54053252982
 44
-430.8777564945055
 45
4.204232793272717
 46
27.10790408921299
 79
     2
 49
2.857499999999999
 49
-31.4325
 53
186.6355999999999
 43
-26022.19018252982
 44
-428.6187664945052
 45
-24.74255558900492
 46
23.74042344662371
 79
     2
 49
2.4285
 49
-26.7135
 53
81.18400000000004
 43
-26022.54053252982
 44
-430.8777564945055
 45
-24.74251178605976
 46
23.74046058139339
 79
     2
 49
2.286
 49
-25.146
 53
111.0
 43
-26021.27053252983
 44
-428.3377564945054
 45
10.22655185167625
 46
15.16148798353833
 79
     2
 49
1.905
 49
-20.955
 53
56.00000000000004
 43
-26021.27053252983
 44
-428.3377564945054
 45
-18.41879661223192
 46
6.180202834764708
 79
     2
 49
1.524
 49
-16.764
 53
161.4514
 43
-26020.41832252983
 44
-427.074306494506
 45
-8.192285771605742
 46
21.34164907701245
 79
     2
 49
1.618999999999997
 49
-17.80899999999996
 53
127.5
 43
-26017.46053252982
 44
-430.8777564945055
 45
-8.455503887315311
 46
0.3088603250591822
 79
     6
 49
0.0
 49
-16.5608
 49
0.0
 49
-17.018
 49
0.0
 49
-16.8275
 53
97.49999999999987
 43
-26017.46053252982
 44
-430.8777564945055
 45
-10.01805748181195
 46
6.681966251030575
 79
     6
 49
0.0
 49
-9.702799999999998
 49
0.0
 49
-16.17979999999999
 49
0.0
 49
-6.413499999999999
 53
57.5
 43
-26017.46053252982
 44
-436.5419564945056
 45
0.5728743992673473
 46
13.55905951668713
 79
     6
 49
0.0
 49
-6.35
 49
0.0
 49
-19.812
 49
0.0
 49
-26.289
 53
47.5
 43
-26017.46053252982
 44
-439.0819564945056
 45
-2.5426491033333
 46
14.8129181386018
 79
     6
 49
0.0
 49
-8.255
 49
0.0
 49
-13.1572
 49
0.0
 49
-18.669
 47
0.9787225881951403
 98
        2
 10
-80.010482984492
 20
246.5889491188312
 10
-83.92780932150959
 20
246.5889491188312
  0
TEXT
  5
532F
330
1F
100
AcDbEntity
  8
POPIS
100
AcDbText
 10
-91.39747835952107
 20
524.7835010801184
 30
0.0
 40
50.0
  1
Obvodová stěnová konstrukce 
 41
0.85
  7
SIMPLEX7
100
AcDbText
  0
TEXT
  5
5330
330
1F
100
AcDbEntity
  8
POPIS
100
AcDbText
 10
384.9065054026553
 20
86.98562788863393
 30
0.0
 40
25.0
  1
07
 41
0.85
  7
SIMPLEX7
100
AcDbText
  0
TEXT
  5
5331
330
1F
100
AcDbEntity
  8
POPIS
100
AcDbText
 10
439.2502085623975
 20
86.98562788863393
 30
0.0
 40
25.0
  1
Deska CETRIS  
 41
0.7
  7
SIMPLEX7
100
AcDbText
  0
TEXT
  5
5332
330
1F
100
AcDbEntity
  8
POPIS
100
AcDbText
 10
384.9065054026553
 20
331.605336103554
 30
0.0
 40
25.0
  1
01
 41
0.85
  7
SIMPLEX7
100
AcDbText
  0
TEXT
  5
5333
330
1F
100
AcDbEntity
  8
POPIS
100
AcDbText
 10
439.2502085623975
 20
331.605336103554
 30
0.0
 40
25.0
  1
Minerální omítkovina
 41
0.7
  7
SIMPLEX7
100
AcDbText
  0
TEXT
  5
5334
330
1F
100
AcDbEntity
  8
POPIS
100
AcDbText
 10
384.9065054026553
 20
295.0103244879267
 30
0.0
 40
25.0
  1
02
 41
0.85
  7
SIMPLEX7
100
AcDbText
  0
TEXT
  5
5335
330
1F
100
AcDbEntity
  8
POPIS
100
AcDbText
 10
439.2502085623975
 20
295.0103244879267
 30
0.0
 40
25.0
  1
Minerální vlna
 41
0.7
  7
SIMPLEX7
100
AcDbText
  0
TEXT
  5
5336
330
1F
100
AcDbEntity
  8
POPIS
100
AcDbText
 10
384.9065054026553
 20
225.9152014969825
 30
0.0
 40
25.0
  1
03
 41
0.85
  7
SIMPLEX7
100
AcDbText
  0
TEXT
  5
5337
330
1F
100
AcDbEntity
  8
POPIS
100
AcDbText
 10
439.2502085623975
 20
225.9152014969825
 30
0.0
 40
25.0
  1
Deska CETRIS     
 41
0.7
  7
SIMPLEX7
100
AcDbText
  0
TEXT
  5
5338
330
1F
100
AcDbEntity
  8
POPIS
100
AcDbText
 10
384.9065054026553
 20
190.5110402788198
 30
0.0
 40
25.0
  1
04
 41
0.85
  7
SIMPLEX7
100
AcDbText
  0
TEXT
  5
5339
330
1F
100
AcDbEntity
  8
POPIS
100
AcDbText
 10
439.2502085623975
 20
190.5110402788198
 30
0.0
 40
25.0
  1
Ocel. nosník 
 41
0.7
  7
SIMPLEX7
100
AcDbText
  0
TEXT
  5
533A
330
1F
100
AcDbEntity
  8
POPIS
100
AcDbText
 10
439.2502085623975
 20
154.4042187916314
 30
0.0
 40
25.0
  1
Tepelná izolace
 41
0.7
  7
SIMPLEX7
100
AcDbText
  0
TEXT
  5
533B
330
1F
100
AcDbEntity
  8
POPIS
100
AcDbText
 10
384.9065054026553
 20
154.4042187916314
 30
0.0
 40
25.0
  1
05
 41
0.85
  7
SIMPLEX7
100
AcDbText
  0
TEXT
  5
533C
330
1F
100
AcDbEntity
  8
POPIS
100
AcDbText
 10
384.9065054026553
 20
120.1508262524333
 30
0.0
 40
25.0
  1
06
 41
0.85
  7
SIMPLEX7
100
AcDbText
  0
TEXT
  5
533D
330
1F
100
AcDbEntity
  8
POPIS
100
AcDbText
 10
439.2502085623975
 20
120.1508262524333
 30
0.0
 40
25.0
  1
Parozábrana
 41
0.7
  7
SIMPLEX7
100
AcDbText
  0
CIRCLE
  5
533E
330
1F
100
AcDbEntity
  8
POPIS
100
AcDbCircle
 10
614.2089344287717
 20
249.8798290205798
 30
0.0
 40
8.909248386336209
  0
TEXT
  5
533F
330
1F
100
AcDbEntity
  8
POPIS
100
AcDbText
 10
610.4017111846271
 20
245.4435524245903
 30
0.0
 40
9.600000000000001
  1
R
 41
0.85
  7
SIMPLEX7
100
AcDbText
  0
CIRCLE
  5
5340
330
1F
100
AcDbEntity
  8
POPIS
100
AcDbCircle
 10
614.481690450096
 20
109.568920723372
 30
0.0
 40
8.909248386336209
  0
TEXT
  5
5341
330
1F
100
AcDbEntity
  8
POPIS
100
AcDbText
 10
610.6744672059514
 20
105.1326441273825
 30
0.0
 40
9.600000000000001
  1
R
 41
0.85
  7
SIMPLEX7
100
AcDbText
  0
TEXT
  5
5342
330
1F
100
AcDbEntity
  8
POPIS
100
AcDbText
 10
439.2502085623975
 20
50.61320192043542
 30
0.0
 40
25.0
  1
Sádrokarton
 41
0.7
  7
SIMPLEX7
100
AcDbText
  0
TEXT
  5
5343
330
1F
100
AcDbEntity
  8
POPIS
100
AcDbText
 10
384.9065054026553
 20
50.61320192043542
 30
0.0
 40
25.0
  1
08
 41
0.85
  7
SIMPLEX7
100
AcDbText
  0
TEXT
  5
534B
330
1F
100
AcDbEntity
  8
POPIS
100
AcDbText
 10
439.2502085623975
 20
261.2711857866441
 30
0.0
 40
25.0
  1
(Polystyrén PPS)
 41
0.7
  7
SIMPLEX7
100
AcDbText
  0
ENDSEC
  0
SECTION
  2
OBJECTS
  0
DICTIONARY
  5
C
330
0
100
AcDbDictionary
281
     1
  3
ACAD_GROUP
350
D
  3
ACAD_LAYOUT
350
1A
  3
ACAD_MLINESTYLE
350
17
  3
ACAD_PLOTSETTINGS
350
19
  3
ACAD_PLOTSTYLENAME
350
E
  0
DICTIONARY
  5
D
102
{ACAD_REACTORS
330
C
102
}
330
C
100
AcDbDictionary
281
     1
  0
DICTIONARY
  5
1A
102
{ACAD_REACTORS
330
C
102
}
330
C
100
AcDbDictionary
281
     1
  3
Model
350
22
  3
Rozvržení1
350
1E
  3
Rozvržení2
350
26
  0
DICTIONARY
  5
17
102
{ACAD_REACTORS
330
C
102
}
330
C
100
AcDbDictionary
281
     1
  3
Standard
350
18
  0
DICTIONARY
  5
19
102
{ACAD_REACTORS
330
C
102
}
330
C
100
AcDbDictionary
281
     1
  0
ACDBDICTIONARYWDFLT
  5
E
102
{ACAD_REACTORS
330
C
102
}
330
C
100
AcDbDictionary
281
     1
  3
Normal
350
F
100
AcDbDictionaryWithDefault
340
F
  0
LAYOUT
  5
22
102
{ACAD_REACTORS
330
1A
102
}
330
1A
100
AcDbPlotSettings
  1

  2
HP DeskJet 690C
  4

  6

 40
0.0
 41
0.0
 42
0.0
 43
0.0
 44
0.0
 45
0.0
 46
0.0
 47
0.0
 48
0.0
 49
0.0
140
0.0
141
0.0
142
1.0
143
1.0
 70
  1712
 72
     0
 73
     0
 74
     0
  7
monochrome.ctb
 75
     0
147
1.0
148
0.0
149
0.0
100
AcDbLayout
  1
Model
 70
     1
 71
     0
 10
0.0
 20
0.0
 11
12.0
 21
9.0
 12
0.0
 22
0.0
 32
0.0
 14
0.0
 24
0.0
 34
0.0
 15
0.0
 25
0.0
 35
0.0
146
0.0
 13
0.0
 23
0.0
 33
0.0
 16
1.0
 26
0.0
 36
0.0
 17
0.0
 27
1.0
 37
0.0
 76
     0
330
1F
  0
LAYOUT
  5
1E
102
{ACAD_REACTORS
330
1A
102
}
330
1A
100
AcDbPlotSettings
  1

  2
HP DeskJet 690C
  4

  6

 40
0.0
 41
0.0
 42
0.0
 43
0.0
 44
0.0
 45
0.0
 46
0.0
 47
0.0
 48
0.0
 49
0.0
140
0.0
141
0.0
142
1.0
143
1.0
 70
   688
 72
     0
 73
     0
 74
     5
  7
monochrome.ctb
 75
    16
147
1.0
148
0.0
149
0.0
100
AcDbLayout
  1
Rozvržení1
 70
     1
 71
     1
 10
0.0
 20
0.0
 11
420.0
 21
297.0
 12
0.0
 22
0.0
 32
0.0
 14
1.000000000000000E+20
 24
1.000000000000000E+20
 34
1.000000000000000E+20
 15
-1.000000000000000E+20
 25
-1.000000000000000E+20
 35
-1.000000000000000E+20
146
0.0
 13
0.0
 23
0.0
 33
0.0
 16
1.0
 26
0.0
 36
0.0
 17
0.0
 27
1.0
 37
0.0
 76
     0
330
1B
  0
LAYOUT
  5
26
102
{ACAD_REACTORS
330
1A
102
}
330
1A
100
AcDbPlotSettings
  1

  2
HP DeskJet 690C
  4

  6

 40
0.0
 41
0.0
 42
0.0
 43
0.0
 44
0.0
 45
0.0
 46
0.0
 47
0.0
 48
0.0
 49
0.0
140
0.0
141
0.0
142
1.0
143
1.0
 70
   688
 72
     0
 73
     0
 74
     5
  7
monochrome.ctb
 75
    16
147
1.0
148
0.0
149
0.0
100
AcDbLayout
  1
Rozvržení2
 70
     1
 71
     2
 10
0.0
 20
0.0
 11
12.0
 21
9.0
 12
0.0
 22
0.0
 32
0.0
 14
0.0
 24
0.0
 34
0.0
 15
0.0
 25
0.0
 35
0.0
146
0.0
 13
0.0
 23
0.0
 33
0.0
 16
1.0
 26
0.0
 36
0.0
 17
0.0
 27
1.0
 37
0.0
 76
     0
330
23
  0
MLINESTYLE
  5
18
102
{ACAD_REACTORS
330
17
102
}
330
17
100
AcDbMlineStyle
  2
STANDARD
 70
     0
  3

 62
   256
 51
90.0
 52
90.0
 71
     2
 49
0.5
 62
   256
  6
BYLAYER
 49
-0.5
 62
   256
  6
BYLAYER
  0
ACDBPLACEHOLDER
  5
F
102
{ACAD_REACTORS
330
E
102
}
330
E
  0
ENDSEC
  0
EOF
