  0
SECTION
  2
HEADER
  9
$ACADVER
  1
AC1015
  9
$ACADMAINTVER
 70
    10
  9
$DWGCODEPAGE
  3
ANSI_1250
  9
$INSBASE
 10
0.0
 20
0.0
 30
0.0
  9
$EXTMIN
 10
-89.01653745105887
 20
-100.146649316317
 30
0.0
  9
$EXTMAX
 10
1019.955154226976
 20
564.5699962319302
 30
0.0
  9
$LIMMIN
 10
0.0
 20
0.0
  9
$LIMMAX
 10
420.0
 20
297.0
  9
$ORTHOMODE
 70
     0
  9
$REGENMODE
 70
     1
  9
$FILLMODE
 70
     1
  9
$QTEXTMODE
 70
     0
  9
$MIRRTEXT
 70
     1
  9
$LTSCALE
 40
1.0
  9
$ATTMODE
 70
     1
  9
$TEXTSIZE
 40
2.5
  9
$TRACEWID
 40
1.0
  9
$TEXTSTYLE
  7
Standard
  9
$CLAYER
  8
0
  9
$CELTYPE
  6
ByLayer
  9
$CECOLOR
 62
   256
  9
$CELTSCALE
 40
1.0
  9
$DISPSILH
 70
     0
  9
$DIMSCALE
 40
1.0
  9
$DIMASZ
 40
2.5
  9
$DIMEXO
 40
0.625
  9
$DIMDLI
 40
3.75
  9
$DIMRND
 40
0.0
  9
$DIMDLE
 40
0.0
  9
$DIMEXE
 40
1.25
  9
$DIMTP
 40
0.0
  9
$DIMTM
 40
0.0
  9
$DIMTXT
 40
2.5
  9
$DIMCEN
 40
2.5
  9
$DIMTSZ
 40
0.0
  9
$DIMTOL
 70
     0
  9
$DIMLIM
 70
     0
  9
$DIMTIH
 70
     0
  9
$DIMTOH
 70
     0
  9
$DIMSE1
 70
     0
  9
$DIMSE2
 70
     0
  9
$DIMTAD
 70
     1
  9
$DIMZIN
 70
     8
  9
$DIMBLK
  1

  9
$DIMASO
 70
     1
  9
$DIMSHO
 70
     1
  9
$DIMPOST
  1

  9
$DIMAPOST
  1

  9
$DIMALT
 70
     0
  9
$DIMALTD
 70
     3
  9
$DIMALTF
 40
0.03937007874016
  9
$DIMLFAC
 40
1.0
  9
$DIMTOFL
 70
     1
  9
$DIMTVP
 40
0.0
  9
$DIMTIX
 70
     0
  9
$DIMSOXD
 70
     0
  9
$DIMSAH
 70
     0
  9
$DIMBLK1
  1

  9
$DIMBLK2
  1

  9
$DIMSTYLE
  2
ISO-25
  9
$DIMCLRD
 70
     0
  9
$DIMCLRE
 70
     0
  9
$DIMCLRT
 70
     0
  9
$DIMTFAC
 40
1.0
  9
$DIMGAP
 40
0.625
  9
$DIMJUST
 70
     0
  9
$DIMSD1
 70
     0
  9
$DIMSD2
 70
     0
  9
$DIMTOLJ
 70
     0
  9
$DIMTZIN
 70
     8
  9
$DIMALTZ
 70
     0
  9
$DIMALTTZ
 70
     0
  9
$DIMUPT
 70
     0
  9
$DIMDEC
 70
     2
  9
$DIMTDEC
 70
     2
  9
$DIMALTU
 70
     2
  9
$DIMALTTD
 70
     3
  9
$DIMTXSTY
  7
Standard
  9
$DIMAUNIT
 70
     0
  9
$DIMADEC
 70
     0
  9
$DIMALTRND
 40
0.0
  9
$DIMAZIN
 70
     0
  9
$DIMDSEP
 70
    44
  9
$DIMATFIT
 70
     3
  9
$DIMFRAC
 70
     0
  9
$DIMLDRBLK
  1

  9
$DIMLUNIT
 70
     2
  9
$DIMLWD
 70
    -2
  9
$DIMLWE
 70
    -2
  9
$DIMTMOVE
 70
     0
  9
$LUNITS
 70
     2
  9
$LUPREC
 70
     4
  9
$SKETCHINC
 40
1.0
  9
$FILLETRAD
 40
10.0
  9
$AUNITS
 70
     0
  9
$AUPREC
 70
     0
  9
$MENU
  1
.
  9
$ELEVATION
 40
0.0
  9
$PELEVATION
 40
0.0
  9
$THICKNESS
 40
0.0
  9
$LIMCHECK
 70
     0
  9
$CHAMFERA
 40
10.0
  9
$CHAMFERB
 40
10.0
  9
$CHAMFERC
 40
20.0
  9
$CHAMFERD
 40
0.0
  9
$SKPOLY
 70
     0
  9
$TDCREATE
 40
2452333.440837384
  9
$TDUCREATE
 40
2452333.399170718
  9
$TDUPDATE
 40
2452653.358340740
  9
$TDUUPDATE
 40
2452653.316674074
  9
$TDINDWG
 40
0.0074248148
  9
$TDUSRTIMER
 40
0.0074235417
  9
$USRTIMER
 70
     1
  9
$ANGBASE
 50
0.0
  9
$ANGDIR
 70
     0
  9
$PDMODE
 70
     0
  9
$PDSIZE
 40
0.0
  9
$PLINEWID
 40
0.0
  9
$SPLFRAME
 70
     0
  9
$SPLINETYPE
 70
     6
  9
$SPLINESEGS
 70
     8
  9
$HANDSEED
  5
4CD4
  9
$SURFTAB1
 70
     6
  9
$SURFTAB2
 70
     6
  9
$SURFTYPE
 70
     6
  9
$SURFU
 70
     6
  9
$SURFV
 70
     6
  9
$UCSBASE
  2

  9
$UCSNAME
  2

  9
$UCSORG
 10
0.0
 20
0.0
 30
0.0
  9
$UCSXDIR
 10
1.0
 20
0.0
 30
0.0
  9
$UCSYDIR
 10
0.0
 20
1.0
 30
0.0
  9
$UCSORTHOREF
  2

  9
$UCSORTHOVIEW
 70
     0
  9
$UCSORGTOP
 10
0.0
 20
0.0
 30
0.0
  9
$UCSORGBOTTOM
 10
0.0
 20
0.0
 30
0.0
  9
$UCSORGLEFT
 10
0.0
 20
0.0
 30
0.0
  9
$UCSORGRIGHT
 10
0.0
 20
0.0
 30
0.0
  9
$UCSORGFRONT
 10
0.0
 20
0.0
 30
0.0
  9
$UCSORGBACK
 10
0.0
 20
0.0
 30
0.0
  9
$PUCSBASE
  2

  9
$PUCSNAME
  2

  9
$PUCSORG
 10
0.0
 20
0.0
 30
0.0
  9
$PUCSXDIR
 10
1.0
 20
0.0
 30
0.0
  9
$PUCSYDIR
 10
0.0
 20
1.0
 30
0.0
  9
$PUCSORTHOREF
  2

  9
$PUCSORTHOVIEW
 70
     0
  9
$PUCSORGTOP
 10
0.0
 20
0.0
 30
0.0
  9
$PUCSORGBOTTOM
 10
0.0
 20
0.0
 30
0.0
  9
$PUCSORGLEFT
 10
0.0
 20
0.0
 30
0.0
  9
$PUCSORGRIGHT
 10
0.0
 20
0.0
 30
0.0
  9
$PUCSORGFRONT
 10
0.0
 20
0.0
 30
0.0
  9
$PUCSORGBACK
 10
0.0
 20
0.0
 30
0.0
  9
$USERI1
 70
     0
  9
$USERI2
 70
     0
  9
$USERI3
 70
     0
  9
$USERI4
 70
     0
  9
$USERI5
 70
     0
  9
$USERR1
 40
0.0
  9
$USERR2
 40
0.0
  9
$USERR3
 40
0.0
  9
$USERR4
 40
0.0
  9
$USERR5
 40
0.0
  9
$WORLDVIEW
 70
     1
  9
$SHADEDGE
 70
     3
  9
$SHADEDIF
 70
    70
  9
$TILEMODE
 70
     1
  9
$MAXACTVP
 70
    64
  9
$PINSBASE
 10
0.0
 20
0.0
 30
0.0
  9
$PLIMCHECK
 70
     0
  9
$PEXTMIN
 10
1.000000000000000E+20
 20
1.000000000000000E+20
 30
1.000000000000000E+20
  9
$PEXTMAX
 10
-1.000000000000000E+20
 20
-1.000000000000000E+20
 30
-1.000000000000000E+20
  9
$PLIMMIN
 10
0.0
 20
0.0
  9
$PLIMMAX
 10
420.0
 20
297.0
  9
$UNITMODE
 70
     0
  9
$VISRETAIN
 70
     1
  9
$PLINEGEN
 70
     0
  9
$PSLTSCALE
 70
     1
  9
$TREEDEPTH
 70
  3020
  9
$CMLSTYLE
  2
Standard
  9
$CMLJUST
 70
     0
  9
$CMLSCALE
 40
20.0
  9
$PROXYGRAPHICS
 70
     1
  9
$MEASUREMENT
 70
     1
  9
$CELWEIGHT
370
    -1
  9
$ENDCAPS
280
     0
  9
$JOINSTYLE
280
     0
  9
$LWDISPLAY
290
     0
  9
$INSUNITS
 70
     4
  9
$HYPERLINKBASE
  1

  9
$STYLESHEET
  1

  9
$XEDIT
290
     1
  9
$CEPSNTYPE
380
     0
  9
$PSTYLEMODE
290
     1
  9
$FINGERPRINTGUID
  2
{E0A79919-1611-4D48-A6CF-929FE36A9D62}
  9
$VERSIONGUID
  2
{FB9205F5-68FA-4870-B5E4-F646517EDFE5}
  9
$EXTNAMES
290
     1
  9
$PSVPSCALE
 40
0.0
  9
$OLESTARTUP
290
     0
  0
ENDSEC
  0
SECTION
  2
CLASSES
  0
CLASS
  1
ACDBDICTIONARYWDFLT
  2
AcDbDictionaryWithDefault
  3
AutoCAD 2000
 90
        0
280
     0
281
     0
  0
CLASS
  1
ACDBPLACEHOLDER
  2
AcDbPlaceHolder
  3
AutoCAD 2000
 90
        0
280
     0
281
     0
  0
CLASS
  1
LAYOUT
  2
AcDbLayout
  3
AutoCAD 2000
 90
        0
280
     0
281
     0
  0
ENDSEC
  0
SECTION
  2
TABLES
  0
TABLE
  2
VPORT
  5
8
330
0
100
AcDbSymbolTable
 70
     2
  0
VPORT
  5
4CD3
330
8
100
AcDbSymbolTableRecord
100
AcDbViewportTableRecord
  2
*Active
 70
     0
 10
0.0
 20
0.0
 11
1.0
 21
1.0
 12
475.5675428131905
 22
223.0224229280618
 13
0.0
 23
0.0
 14
10.0
 24
10.0
 15
10.0
 25
10.0
 16
0.0
 26
0.0
 36
1.0
 17
0.0
 27
0.0
 37
0.0
 40
688.7070581265629
 41
1.713362068965517
 42
50.0
 43
0.0
 44
0.0
 50
0.0
 51
0.0
 71
     0
 72
   100
 73
     1
 74
     3
 75
     0
 76
     0
 77
     0
 78
     0
281
     0
 65
     1
110
0.0
120
0.0
130
0.0
111
1.0
121
0.0
131
0.0
112
0.0
122
1.0
132
0.0
 79
     0
146
0.0
  0
ENDTAB
  0
TABLE
  2
LTYPE
  5
5
330
0
100
AcDbSymbolTable
 70
     5
  0
LTYPE
  5
14
330
5
100
AcDbSymbolTableRecord
100
AcDbLinetypeTableRecord
  2
ByBlock
 70
     0
  3

 72
    65
 73
     0
 40
0.0
  0
LTYPE
  5
15
330
5
100
AcDbSymbolTableRecord
100
AcDbLinetypeTableRecord
  2
ByLayer
 70
     0
  3

 72
    65
 73
     0
 40
0.0
  0
LTYPE
  5
16
330
5
100
AcDbSymbolTableRecord
100
AcDbLinetypeTableRecord
  2
Continuous
 70
     0
  3
Solid line
 72
    65
 73
     0
 40
0.0
  0
LTYPE
  5
33
330
5
100
AcDbSymbolTableRecord
100
AcDbLinetypeTableRecord
  2
DASHED
 70
     0
  3
Dashed __ __ __ __ __ __ __ __ __ __ __ __ __ _
 72
    65
 73
     2
 40
19.04999999999999
 49
12.7
 74
     0
 49
-6.349999999999999
 74
     0
  0
LTYPE
  5
34
330
5
100
AcDbSymbolTableRecord
100
AcDbLinetypeTableRecord
  2
DASHDOT2
 70
     0
  3
Dash dot (.5x) _._._._._._._._._._._._._._._.
 72
    65
 73
     4
 40
12.7
 49
6.349999999999999
 74
     0
 49
-3.174999999999999
 74
     0
 49
0.0
 74
     0
 49
-3.174999999999999
 74
     0
  0
LTYPE
  5
35
330
5
100
AcDbSymbolTableRecord
100
AcDbLinetypeTableRecord
  2
CIKCAK
 70
     0
  3
Cik-cak /\/\/\/\/\/\/\/\/\/\/\/\/\/\/\/\/\/\/\/
 72
    65
 73
     4
 40
20.32254
 49
0.00254
 74
     0
 49
-5.08
 74
     4
 75
   131
340
3E
 46
5.08
 50
0.0
 44
-5.08
 45
0.0
 49
-10.16
 74
     4
 75
   131
340
3E
 46
5.08
 50
180.0
 44
5.08
 45
0.0
 49
-5.08
 74
     0
  0
LTYPE
  5
36
330
5
100
AcDbSymbolTableRecord
100
AcDbLinetypeTableRecord
  2
IZOLACE
 70
     0
  3
Izolace SSSSSSSSSSSSSSSSSSSSSSSSSSSSSSSSSSSSSSS
 72
    65
 73
     4
 40
10.16253999999999
 49
0.00254
 74
     0
 49
-2.54
 74
     4
 75
   134
340
3E
 46
2.54
 50
0.0
 44
-2.54
 45
0.0
 49
-5.08
 74
     4
 75
   134
340
3E
 46
2.54
 50
180.0
 44
2.54
 45
0.0
 49
-2.54
 74
     0
  0
ENDTAB
  0
TABLE
  2
LAYER
  5
2
330
0
100
AcDbSymbolTable
 70
     7
  0
LAYER
  5
10
330
2
100
AcDbSymbolTableRecord
100
AcDbLayerTableRecord
  2
0
 70
     0
 62
     7
  6
Continuous
370
    -3
390
F
  0
LAYER
  5
37
330
2
100
AcDbSymbolTableRecord
100
AcDbLayerTableRecord
  2
POPIS
 70
     0
 62
    30
  6
Continuous
370
    -3
390
F
  0
LAYER
  5
38
330
2
100
AcDbSymbolTableRecord
100
AcDbLayerTableRecord
  2
SPOJOVACÍ
 70
     0
 62
   180
  6
Continuous
370
    -3
390
F
  0
LAYER
  5
39
330
2
100
AcDbSymbolTableRecord
100
AcDbLayerTableRecord
  2
CETRIS
 70
     0
 62
     1
  6
Continuous
370
    -3
390
F
  0
LAYER
  5
3A
330
2
100
AcDbSymbolTableRecord
100
AcDbLayerTableRecord
  2
NOSNÉ KONSTRUKCE
 70
     0
 62
    33
  6
Continuous
370
    -3
390
F
  0
LAYER
  5
3B
330
2
100
AcDbSymbolTableRecord
100
AcDbLayerTableRecord
  2
izolace
 70
     0
 62
    73
  6
Continuous
370
    -3
390
F
  0
LAYER
  5
3C
330
2
100
AcDbSymbolTableRecord
100
AcDbLayerTableRecord
  2
STAVBA OBRYS
 70
     0
 62
     6
  6
Continuous
370
    -3
390
F
  0
ENDTAB
  0
TABLE
  2
STYLE
  5
3
330
0
100
AcDbSymbolTable
 70
     3
  0
STYLE
  5
11
330
3
100
AcDbSymbolTableRecord
100
AcDbTextStyleTableRecord
  2
Standard
 70
     0
 40
0.0
 41
1.0
 50
0.0
 71
     0
 42
2.5
  3
txt
  4

  0
STYLE
  5
3D
330
3
100
AcDbSymbolTableRecord
100
AcDbTextStyleTableRecord
  2
SIMPLEX7
 70
     0
 40
0.0
 41
0.85
 50
0.0
 71
     0
 42
102.0
  3

  4

1001
ACAD
1000
Arial CE
1071
    60962
  0
STYLE
  5
3E
330
3
100
AcDbSymbolTableRecord
100
AcDbTextStyleTableRecord
  2

 70
     1
 40
0.0
 41
1.0
 50
0.0
 71
     0
 42
2.5
  3
ltypeshp.shx
  4

  0
ENDTAB
  0
TABLE
  2
VIEW
  5
6
330
0
100
AcDbSymbolTable
 70
     0
  0
ENDTAB
  0
TABLE
  2
UCS
  5
7
330
0
100
AcDbSymbolTable
 70
     0
  0
ENDTAB
  0
TABLE
  2
APPID
  5
9
330
0
100
AcDbSymbolTable
 70
     1
  0
APPID
  5
12
330
9
100
AcDbSymbolTableRecord
100
AcDbRegAppTableRecord
  2
ACAD
 70
     0
  0
ENDTAB
  0
TABLE
  2
DIMSTYLE
  5
A
330
0
100
AcDbSymbolTable
 70
     1
100
AcDbDimStyleTable
 71
     0
  0
DIMSTYLE
105
27
330
A
100
AcDbSymbolTableRecord
100
AcDbDimStyleTableRecord
  2
ISO-25
 70
     0
 41
2.5
 42
0.625
 43
3.75
 44
1.25
 73
     0
 74
     0
 77
     1
 78
     8
140
2.5
141
2.5
143
0.03937007874016
147
0.625
171
     3
172
     1
271
     2
272
     2
274
     3
278
    44
283
     0
284
     8
340
11
  0
ENDTAB
  0
TABLE
  2
BLOCK_RECORD
  5
1
330
0
100
AcDbSymbolTable
 70
     2
  0
BLOCK_RECORD
  5
1F
330
1
100
AcDbSymbolTableRecord
100
AcDbBlockTableRecord
  2
*Model_Space
340
22
  0
BLOCK_RECORD
  5
1B
330
1
100
AcDbSymbolTableRecord
100
AcDbBlockTableRecord
  2
*Paper_Space
340
1E
  0
BLOCK_RECORD
  5
23
330
1
100
AcDbSymbolTableRecord
100
AcDbBlockTableRecord
  2
*Paper_Space0
340
26
  0
BLOCK_RECORD
  5
2B
330
1
100
AcDbSymbolTableRecord
100
AcDbBlockTableRecord
  2
E_PUNKT
340
0
102
{BLKREFS
331
4A36
331
4A37
331
4A38
331
4AF9
331
4AFA
331
4AFB
331
4AFC
102
}
  0
ENDTAB
  0
ENDSEC
  0
SECTION
  2
BLOCKS
  0
BLOCK
  5
20
330
1F
100
AcDbEntity
  8
0
100
AcDbBlockBegin
  2
*Model_Space
 70
     0
 10
0.0
 20
0.0
 30
0.0
  3
*Model_Space
  1

  0
ENDBLK
  5
21
330
1F
100
AcDbEntity
  8
0
100
AcDbBlockEnd
  0
BLOCK
  5
1C
330
1B
100
AcDbEntity
 67
     1
  8
0
100
AcDbBlockBegin
  2
*Paper_Space
 70
     0
 10
0.0
 20
0.0
 30
0.0
  3
*Paper_Space
  1

  0
ENDBLK
  5
1D
330
1B
100
AcDbEntity
 67
     1
  8
0
100
AcDbBlockEnd
  0
BLOCK
  5
24
330
23
100
AcDbEntity
  8
0
100
AcDbBlockBegin
  2
*Paper_Space0
 70
     0
 10
0.0
 20
0.0
 30
0.0
  3
*Paper_Space0
  1

  0
ENDBLK
  5
25
330
23
100
AcDbEntity
  8
0
100
AcDbBlockEnd
  0
BLOCK
  5
2D
330
2B
100
AcDbEntity
  8
0
100
AcDbBlockBegin
  2
E_PUNKT
 70
     0
 10
0.0
 20
0.0
 30
0.0
  3
E_PUNKT
  1

  0
LWPOLYLINE
  5
2C
330
2B
100
AcDbEntity
  8
POPIS
100
AcDbPolyline
 90
        2
 70
     1
 43
2.5
 10
1.27761037562675
 20
0.0290683308725193
 42
-1.0
 10
-1.222389624373249
 20
0.0290683308725193
 42
-1.0
  0
ENDBLK
  5
2E
330
2B
100
AcDbEntity
  8
0
100
AcDbBlockEnd
  0
ENDSEC
  0
SECTION
  2
ENTITIES
  0
LINE
  5
496F
330
1F
100
AcDbEntity
  8
NOSNÉ KONSTRUKCE
  6
DASHED
100
AcDbLine
 10
85.60930726222341
 20
2.318177868523775
 30
0.0
 11
85.60930726223796
 21
339.2465391546087
 31
0.0
  0
LINE
  5
4970
330
1F
100
AcDbEntity
  8
NOSNÉ KONSTRUKCE
  6
DASHED
100
AcDbLine
 10
80.67531697719005
 20
2.318177868523775
 30
0.0
 11
80.67531697720459
 21
338.7489896205878
 31
0.0
  0
LINE
  5
4971
330
1F
100
AcDbEntity
  8
NOSNÉ KONSTRUKCE
  6
DASHED
100
AcDbLine
 10
59.79370859394748
 20
2.318177868523775
 30
0.0
 11
59.79370859394021
 21
333.1480695282292
 31
0.0
  0
LINE
  5
4972
330
1F
100
AcDbEntity
  8
NOSNÉ KONSTRUKCE
  6
DASHED
100
AcDbLine
 10
54.28357353546653
 20
2.318177868523775
 30
0.0
 11
54.28357353545925
 21
333.1480695282292
 31
0.0
  0
HATCH
  5
4973
330
1F
100
AcDbEntity
  8
STAVBA OBRYS
100
AcDbHatch
 10
0.0
 20
0.0
 30
0.0
210
0.0
220
0.0
230
1.0
  2
AR-SAND
 70
     0
 71
     0
 91
        3
 92
        7
 72
     0
 73
     1
 93
        9
 10
32.47726391258675
 20
92.68914643292635
 10
29.54767499811987
 20
92.68914643292635
 10
29.54767499811987
 20
60.69152218164197
 10
29.60802810261066
 20
58.41479509757244
 10
29.60802810261066
 20
53.41479509736643
 10
-80.13558967115477
 20
53.41479509736598
 10
-80.13558967115477
 20
51.36632240590813
 10
31.94238992619193
 20
51.36632240590813
 10
32.47726391257947
 20
51.36632240590813
 97
        0
 92
       22
 72
     0
 73
     1
 93
        4
 10
29.54767499811987
 20
60.69152218156784
 10
24.50255047295923
 20
60.69152218156739
 10
24.50255047295923
 20
58.41479509736643
 10
29.6080281026143
 20
58.41479509736643
 97
        0
 92
       23
 72
     0
 73
     1
 93
        4
 10
-70.39197189738934
 20
58.41479509736643
 10
-74.10551049442893
 20
58.41479509736643
 10
-74.10551049443256
 20
53.41479509736598
 10
-70.39197189738934
 20
53.41479509736598
 97
        0
 75
     0
 76
     1
 52
90.0
 41
0.05
 77
     0
 78
     4
 53
127.5
 43
-26063.95473466123
 44
-2154.021338823466
 45
-2.447066186646711
 46
-0.0800015647992021
 79
     6
 49
0.0
 49
-1.9304
 49
0.0
 49
-2.159
 49
0.0
 49
-2.06375
 53
97.49999999999998
 43
-26063.95473466123
 44
-2154.021338823466
 45
-3.584125502841771
 46
2.247616415690013
 79
     6
 49
0.0
 49
-1.0414
 49
0.0
 49
-1.7399
 49
0.0
 49
-0.6667500000000001
 53
57.5
 43
-26063.95473466123
 44
-2155.583438823467
 45
-0.0071859233927282
 46
3.95496185120729
 79
     6
 49
0.0
 49
-0.635
 49
0.0
 49
-2.286
 49
0.0
 49
-2.9845
 53
47.5
 43
-26063.95473466123
 44
-2155.583438823467
 45
-1.11464661628608
 46
3.817782262361486
 79
     6
 49
0.0
 49
-0.3175
 49
0.0
 49
-1.498599999999999
 49
0.0
 49
-1.7145
 47
0.2229474623524009
 98
        3
 10
31.29161648807258
 20
54.66070808628399
 10
27.72227556142297
 20
59.56554045121345
 10
-71.99644652987354
 20
55.55249185865148
  0
LINE
  5
4974
330
1F
100
AcDbEntity
  8
STAVBA OBRYS
100
AcDbLine
 10
31.94238992619193
 20
51.36632240590813
 30
0.0
 11
32.47726391257947
 21
51.36632240590813
 31
0.0
  0
LINE
  5
4975
330
1F
100
AcDbEntity
  8
STAVBA OBRYS
100
AcDbLine
 10
-80.13558967115841
 20
53.41479509736598
 30
0.0
 11
29.60802810261066
 21
53.41479509736643
 31
0.0
  0
LWPOLYLINE
  5
4976
330
1F
100
AcDbEntity
  8
STAVBA OBRYS
100
AcDbPolyline
 90
        4
 70
     0
 43
0.0
 10
-80.13558967115841
 20
58.41479509736643
 10
-74.10551049442893
 20
58.41479509736643
 10
-74.10551049442893
 20
53.41479509736643
 10
-80.13558967115841
 20
53.41479509736643
  0
LINE
  5
4977
330
1F
100
AcDbEntity
  8
STAVBA OBRYS
100
AcDbLine
 10
-74.10551049442893
 20
58.41479509736643
 30
0.0
 11
-70.39197189738934
 21
58.41479509736643
 31
0.0
  0
LINE
  5
4978
330
1F
100
AcDbEntity
  8
STAVBA OBRYS
100
AcDbLine
 10
24.50255047295923
 20
60.69152218156784
 30
0.0
 11
24.50255047295923
 21
58.41479509736643
 31
0.0
  0
LINE
  5
4979
330
1F
100
AcDbEntity
  8
STAVBA OBRYS
100
AcDbLine
 10
29.54767499811987
 20
60.69152218156784
 30
0.0
 11
29.60802810261066
 21
58.41479509736643
 31
0.0
  0
LWPOLYLINE
  5
497A
330
1F
100
AcDbEntity
  8
STAVBA OBRYS
100
AcDbPolyline
 90
        4
 70
     1
 43
0.0
 10
29.60802810261066
 20
53.41479509736643
 10
-70.39197189738934
 20
53.41479509736643
 10
-70.39197189738934
 20
58.41479509736643
 10
29.60802810261066
 20
58.41479509736643
  0
LWPOLYLINE
  5
497B
330
1F
100
AcDbEntity
  8
STAVBA OBRYS
100
AcDbPolyline
 90
        4
 70
     1
 43
0.0
 10
29.54767499811987
 20
60.69152218156784
 10
24.50255047295923
 20
60.69152218156784
 10
24.50255047295923
 20
92.68914643292635
 10
29.54767499811987
 20
92.68914643292635
  0
LINE
  5
497C
330
1F
100
AcDbEntity
  8
STAVBA OBRYS
100
AcDbLine
 10
29.54767499811987
 20
92.68914643292635
 30
0.0
 11
32.47726391257947
 21
92.68914643292635
 31
0.0
  0
HATCH
  5
497D
330
1F
100
AcDbEntity
  8
STAVBA OBRYS
100
AcDbHatch
 10
0.0
 20
0.0
 30
0.0
210
0.0
220
0.0
230
1.0
  2
ANSI35
 70
     0
 71
     0
 91
        3
 92
        7
 72
     0
 73
     1
 93
        9
 10
319.1371980891699
 20
-2.633677594091864
 10
73.97503684324601
 20
-2.633677594091864
 10
73.97503684324238
 20
-49.26912248839437
 10
70.44957041976795
 20
-54.91856282910396
 10
66.92410399629352
 20
-49.26912248838255
 10
66.92410399629716
 20
-2.633677594091409
 10
-80.13558967115841
 20
-2.633677594091864
 10
-80.13558967116205
 20
-100.1466493163144
 10
319.1371980891663
 20
-100.1466493163144
 97
        0
 92
       24
 93
        4
 72
     1
 10
-69.2183833725694
 20
-76.62126378275218
 11
-28.38695431390169
 21
-76.62126378275218
 72
     1
 10
-28.38695431390169
 20
-76.62126378275218
 11
-28.38695431390169
 21
-38.32828970362573
 72
     1
 10
-28.38695431390169
 20
-38.32828970362573
 11
-69.2183833725694
 21
-38.32828970362573
 72
     1
 10
-69.2183833725694
 20
-38.32828970362573
 11
-69.2183833725694
 21
-76.62126378275218
 97
        0
 92
       24
 93
        4
 72
     1
 10
176.5659119662623
 20
-76.62126378275218
 11
217.39734102493
 21
-76.62126378275218
 72
     1
 10
217.39734102493
 20
-76.62126378275218
 11
217.39734102493
 21
-38.32828970362573
 72
     1
 10
217.39734102493
 20
-38.32828970362573
 11
176.5659119662623
 21
-38.32828970362573
 72
     1
 10
176.5659119662623
 20
-38.32828970362573
 11
176.5659119662623
 21
-76.62126378275218
 97
        0
 75
     0
 76
     1
 52
0.0
 41
2.0
 77
     0
 78
     2
 53
45.0
 43
-26063.95473466123
 44
-2154.021338823466
 45
-8.980256121069151
 46
8.980256121069153
 79
     0
 53
45.0
 43
-26054.97447466123
 44
-2154.021338823466
 45
-8.980256121069151
 46
8.980256121069153
 79
     4
 49
15.875
 49
-3.174999999999999
 49
0.0
 49
-3.174999999999999
 47
1.482628988558808
 98
        1
 10
208.5993571997087
 20
-86.80299719830248
  0
HATCH
  5
497E
330
1F
100
AcDbEntity
  8
STAVBA OBRYS
100
AcDbHatch
 10
0.0
 20
0.0
 30
0.0
210
0.0
220
0.0
230
1.0
  2
AR-SAND
 70
     0
 71
     0
 91
        6
 92
        7
 72
     0
 73
     1
 93
        4
 10
319.1371980891663
 20
53.41479509736643
 10
128.6784916539463
 20
53.41479509736643
 10
126.2642403500458
 20
51.36632240590813
 10
319.1371980891699
 20
51.36632240590813
 97
        0
 92
        7
 72
     0
 73
     1
 93
        4
 10
214.2922926043311
 20
58.41479509736643
 10
210.5787540072951
 20
58.41479509736643
 10
210.5787540072951
 20
53.41479509736643
 10
214.2922926043347
 20
53.41479509736643
 97
        0
 92
        7
 72
     0
 73
     1
 93
        4
 10
318.2702567657242
 20
58.41479509736643
 10
314.2922926043347
 20
58.41479509736643
 10
314.2922926043347
 20
53.41479509736643
 10
318.2702567657279
 20
53.41479509736643
 97
        0
 92
        7
 72
     0
 73
     1
 93
        4
 10
110.6391071117895
 20
92.68914643292635
 10
107.7095181973263
 20
92.68914643292635
 10
107.70951819733
 20
63.80435674543821
 10
110.6391071117823
 20
66.72228062823785
 97
        0
 92
        7
 72
     0
 73
     1
 93
       10
 10
110.6391071117786
 20
66.72228062824013
 10
107.70951819733
 20
63.80435674543594
 10
107.70951819733
 20
51.36632240590813
 10
108.5266356449456
 20
51.36632240590813
 10
123.5266356449455
 20
51.36632240590813
 10
126.2642403500458
 20
51.36632240590813
 10
128.6784916539427
 20
53.41479509736643
 10
110.5787540072951
 20
53.41479509736643
 10
110.5787540072915
 20
58.41479509718635
 10
110.6391071117859
 20
60.69152218148826
 97
        0
 92
       23
 72
     0
 73
     1
 93
        4
 10
115.6842316369502
 20
60.69152218156784
 10
110.6391071117823
 20
60.69152218156784
 10
110.5787540072951
 20
58.41479509736643
 10
115.6842316369466
 20
58.41479509736643
 97
        0
 75
     0
 76
     1
 52
90.0
 41
0.05
 77
     0
 78
     4
 53
127.5
 43
-25042.02233494315
 44
-2154.021338823466
 45
-2.447066186646711
 46
-0.0800015647992021
 79
     6
 49
0.0
 49
-1.9304
 49
0.0
 49
-2.159
 49
0.0
 49
-2.06375
 53
97.49999999999996
 43
-25042.02233494315
 44
-2154.021338823466
 45
-3.584125502841771
 46
2.247616415690013
 79
     6
 49
0.0
 49
-1.0414
 49
0.0
 49
-1.7399
 49
0.0
 49
-0.6667500000000001
 53
57.5
 43
-25042.02233494315
 44
-2155.583438823467
 45
-0.0071859233927282
 46
3.95496185120729
 79
     6
 49
0.0
 49
-0.635
 49
0.0
 49
-2.286
 49
0.0
 49
-2.9845
 53
47.5
 43
-25042.02233494315
 44
-2155.583438823467
 45
-1.11464661628608
 46
3.817782262361486
 79
     6
 49
0.0
 49
-0.3175
 49
0.0
 49
-1.498599999999999
 49
0.0
 49
-1.7145
 47
0.2237823716160949
 98
        6
 10
275.1352061627467
 20
52.49832723958286
 10
212.4102576921641
 20
56.3291758778422
 10
315.9064245606523
 20
55.28439184277965
 10
109.5351863035748
 20
68.89045066350343
 10
109.7590886982206
 20
60.83428015297693
 10
111.9983018473385
 20
59.71537474409604
  0
LINE
  5
497F
330
1F
100
AcDbEntity
  8
STAVBA OBRYS
  6
DASHED
100
AcDbLine
 10
148.107581195657
 20
28.92250130331092
 30
0.0
 11
152.0710974680578
 21
27.58978263003962
 31
0.0
  0
LINE
  5
4980
330
1F
100
AcDbEntity
  8
STAVBA OBRYS
  6
DASHED
100
AcDbLine
 10
148.107581195657
 20
28.33818347185922
 30
0.0
 11
152.0710974680578
 21
27.00546479858792
 31
0.0
  0
LINE
  5
4981
330
1F
100
AcDbEntity
  8
STAVBA OBRYS
  6
DASHED
100
AcDbLine
 10
152.4411958115843
 20
27.37556314425353
 30
0.0
 11
152.0710974680578
 21
27.58978263003962
 31
0.0
  0
LINE
  5
4982
330
1F
100
AcDbEntity
  8
STAVBA OBRYS
  6
DASHED
100
AcDbLine
 10
152.4411958115843
 20
27.37556314425353
 30
0.0
 11
152.0710974680578
 21
27.00546479858792
 31
0.0
  0
LINE
  5
4983
330
1F
100
AcDbEntity
  8
STAVBA OBRYS
  6
DASHED
100
AcDbLine
 10
147.7374828478523
 20
28.55149138518652
 30
0.0
 11
148.107581195657
 21
28.92250130331092
 31
0.0
  0
LINE
  5
4984
330
1F
100
AcDbEntity
  8
STAVBA OBRYS
  6
DASHED
100
AcDbLine
 10
147.7374828478523
 20
28.55149138518652
 30
0.0
 11
148.107581195657
 21
28.33818347185922
 31
0.0
  0
LINE
  5
4985
330
1F
100
AcDbEntity
  8
STAVBA OBRYS
  6
DASHED
100
AcDbLine
 10
147.7374828478523
 20
28.55149138518652
 30
0.0
 11
152.4411958115843
 21
27.37556314425353
 31
0.0
  0
LINE
  5
4986
330
1F
100
AcDbEntity
  8
STAVBA OBRYS
  6
DASHED
100
AcDbLine
 10
148.107581195657
 20
31.97991472989349
 30
0.0
 11
152.0710974680578
 21
30.64719605662219
 31
0.0
  0
LINE
  5
4987
330
1F
100
AcDbEntity
  8
STAVBA OBRYS
  6
DASHED
100
AcDbLine
 10
148.107581195657
 20
31.39559689844907
 30
0.0
 11
152.0710974680578
 21
30.06287822544152
 31
0.0
  0
LINE
  5
4988
330
1F
100
AcDbEntity
  8
STAVBA OBRYS
  6
DASHED
100
AcDbLine
 10
152.4411958115843
 20
30.43388814329489
 30
0.0
 11
152.0710974680578
 21
30.64719605662219
 31
0.0
  0
LINE
  5
4989
330
1F
100
AcDbEntity
  8
STAVBA OBRYS
  6
DASHED
100
AcDbLine
 10
152.4411958115843
 20
30.43388814329489
 30
0.0
 11
152.0710974680578
 21
30.06287822544152
 31
0.0
  0
LINE
  5
498A
330
1F
100
AcDbEntity
  8
STAVBA OBRYS
  6
DASHED
100
AcDbLine
 10
147.7374828478523
 20
31.60981638422788
 30
0.0
 11
148.107581195657
 21
31.97991472989349
 31
0.0
  0
LINE
  5
498B
330
1F
100
AcDbEntity
  8
STAVBA OBRYS
  6
DASHED
100
AcDbLine
 10
147.7374828478523
 20
31.60981638422788
 30
0.0
 11
148.107581195657
 21
31.39559689844907
 31
0.0
  0
LINE
  5
498C
330
1F
100
AcDbEntity
  8
STAVBA OBRYS
  6
DASHED
100
AcDbLine
 10
147.7374828478523
 20
31.60981638422788
 30
0.0
 11
152.4411958115843
 21
30.43388814329489
 31
0.0
  0
LINE
  5
498D
330
1F
100
AcDbEntity
  8
STAVBA OBRYS
  6
DASHED
100
AcDbLine
 10
148.107581195657
 20
35.03732815648334
 30
0.0
 11
152.0710974680578
 21
33.70460948347579
 31
0.0
  0
LINE
  5
498E
330
1F
100
AcDbEntity
  8
STAVBA OBRYS
  6
DASHED
100
AcDbLine
 10
148.107581195657
 20
34.45301032503164
 30
0.0
 11
152.0710974680578
 21
33.12029165203137
 31
0.0
  0
LINE
  5
498F
330
1F
100
AcDbEntity
  8
STAVBA OBRYS
  6
DASHED
100
AcDbLine
 10
152.4411958115843
 20
33.49130156988474
 30
0.0
 11
152.0710974680578
 21
33.70460948347579
 31
0.0
  0
LINE
  5
4990
330
1F
100
AcDbEntity
  8
STAVBA OBRYS
  6
DASHED
100
AcDbLine
 10
152.4411958115843
 20
33.49130156988474
 30
0.0
 11
152.0710974680578
 21
33.12029165203137
 31
0.0
  0
LINE
  5
4991
330
1F
100
AcDbEntity
  8
STAVBA OBRYS
  6
DASHED
100
AcDbLine
 10
147.7374828478523
 20
34.66722981081773
 30
0.0
 11
148.107581195657
 21
35.03732815648334
 31
0.0
  0
LINE
  5
4992
330
1F
100
AcDbEntity
  8
STAVBA OBRYS
  6
DASHED
100
AcDbLine
 10
147.7374828478523
 20
34.66722981081773
 30
0.0
 11
148.107581195657
 21
34.45301032503164
 31
0.0
  0
LINE
  5
4993
330
1F
100
AcDbEntity
  8
STAVBA OBRYS
  6
DASHED
100
AcDbLine
 10
147.7374828478523
 20
34.66722981081773
 30
0.0
 11
152.4411958115843
 21
33.49130156988474
 31
0.0
  0
LINE
  5
4994
330
1F
100
AcDbEntity
  8
STAVBA OBRYS
  6
DASHED
100
AcDbLine
 10
149.0929908306307
 20
19.62811033755395
 30
0.0
 11
151.2041922292582
 21
19.32364519609552
 31
0.0
  0
LINE
  5
4995
330
1F
100
AcDbEntity
  8
STAVBA OBRYS
  6
DASHED
100
AcDbLine
 10
149.4630891741571
 20
19.99820868321956
 30
0.0
 11
150.8340938857318
 21
19.53695310968657
 31
0.0
  0
LINE
  5
4996
330
1F
100
AcDbEntity
  8
STAVBA OBRYS
  6
DASHED
100
AcDbLine
 10
149.4630891741571
 20
19.41389085177513
 30
0.0
 11
150.8340938857318
 21
18.95263527824215
 31
0.0
  0
LINE
  5
4997
330
1F
100
AcDbEntity
  8
STAVBA OBRYS
  6
DASHED
100
AcDbLine
 10
151.2041922292582
 20
19.32364519609552
 30
0.0
 11
150.8340938857318
 21
19.53695310968657
 31
0.0
  0
LINE
  5
4998
330
1F
100
AcDbEntity
  8
STAVBA OBRYS
  6
DASHED
100
AcDbLine
 10
151.2041922292582
 20
19.32364519609552
 30
0.0
 11
150.8340938857318
 21
18.95263527824215
 31
0.0
  0
LINE
  5
4999
330
1F
100
AcDbEntity
  8
STAVBA OBRYS
  6
DASHED
100
AcDbLine
 10
149.0929908306307
 20
19.62811033755395
 30
0.0
 11
149.4630891741571
 21
19.99820868321956
 31
0.0
  0
LINE
  5
499A
330
1F
100
AcDbEntity
  8
STAVBA OBRYS
  6
DASHED
100
AcDbLine
 10
149.0929908306307
 20
19.62811033755395
 30
0.0
 11
149.4630891741571
 21
19.41389085177513
 31
0.0
  0
LINE
  5
499B
330
1F
100
AcDbEntity
  8
STAVBA OBRYS
  6
DASHED
100
AcDbLine
 10
148.5396664543686
 20
22.58160452430718
 30
0.0
 11
151.5934335924712
 21
21.9608238018726
 31
0.0
  0
LINE
  5
499C
330
1F
100
AcDbEntity
  8
STAVBA OBRYS
  6
DASHED
100
AcDbLine
 10
148.9097648021734
 20
22.95261444243158
 30
0.0
 11
151.2233352489447
 21
22.1741317151999
 31
0.0
  0
LINE
  5
499D
330
1F
100
AcDbEntity
  8
STAVBA OBRYS
  6
DASHED
100
AcDbLine
 10
148.9097648021734
 20
22.36829661097988
 30
0.0
 11
151.2233352489447
 21
21.58981388401923
 31
0.0
  0
LINE
  5
499E
330
1F
100
AcDbEntity
  8
STAVBA OBRYS
  6
DASHED
100
AcDbLine
 10
151.5934335924712
 20
21.9608238018726
 30
0.0
 11
151.2233352489447
 21
22.1741317151999
 31
0.0
  0
LINE
  5
499F
330
1F
100
AcDbEntity
  8
STAVBA OBRYS
  6
DASHED
100
AcDbLine
 10
151.5934335924712
 20
21.9608238018726
 30
0.0
 11
151.2233352489447
 21
21.58981388401923
 31
0.0
  0
LINE
  5
49A0
330
1F
100
AcDbEntity
  8
STAVBA OBRYS
  6
DASHED
100
AcDbLine
 10
148.5396664543686
 20
22.58160452430718
 30
0.0
 11
148.9097648021734
 21
22.95261444243158
 31
0.0
  0
LINE
  5
49A1
330
1F
100
AcDbEntity
  8
STAVBA OBRYS
  6
DASHED
100
AcDbLine
 10
148.5396664543686
 20
22.58160452430718
 30
0.0
 11
148.9097648021734
 21
22.36829661097988
 31
0.0
  0
LINE
  5
49A2
330
1F
100
AcDbEntity
  8
STAVBA OBRYS
  6
DASHED
100
AcDbLine
 10
147.9863420823849
 20
25.5360102835192
 30
0.0
 11
152.029165142073
 21
24.58250567886068
 31
0.0
  0
LINE
  5
49A3
330
1F
100
AcDbEntity
  8
STAVBA OBRYS
  6
DASHED
100
AcDbLine
 10
148.3573519997035
 20
25.90610862918481
 30
0.0
 11
151.6590667985465
 21
24.79581359218798
 31
0.0
  0
LINE
  5
49A4
330
1F
100
AcDbEntity
  8
STAVBA OBRYS
  6
DASHED
100
AcDbLine
 10
148.3573519997035
 20
25.32179079773311
 30
0.0
 11
151.6590667985465
 21
24.21149576073628
 31
0.0
  0
LINE
  5
49A5
330
1F
100
AcDbEntity
  8
STAVBA OBRYS
  6
DASHED
100
AcDbLine
 10
152.029165142073
 20
24.58250567886068
 30
0.0
 11
151.6590667985465
 21
24.79581359218798
 31
0.0
  0
LINE
  5
49A6
330
1F
100
AcDbEntity
  8
STAVBA OBRYS
  6
DASHED
100
AcDbLine
 10
152.029165142073
 20
24.58250567886068
 30
0.0
 11
151.6590667985465
 21
24.21149576073628
 31
0.0
  0
LINE
  5
49A7
330
1F
100
AcDbEntity
  8
STAVBA OBRYS
  6
DASHED
100
AcDbLine
 10
147.9863420823849
 20
25.5360102835192
 30
0.0
 11
148.3573519997035
 21
25.90610862918481
 31
0.0
  0
LINE
  5
49A8
330
1F
100
AcDbEntity
  8
STAVBA OBRYS
  6
DASHED
100
AcDbLine
 10
147.9863420823849
 20
25.5360102835192
 30
0.0
 11
148.3573519997035
 21
25.32179079773311
 31
0.0
  0
LINE
  5
49A9
330
1F
100
AcDbEntity
  8
STAVBA OBRYS
  6
DASHED
100
AcDbLine
 10
148.107581195657
 20
38.09474158333694
 30
0.0
 11
152.0710974680578
 21
36.7629344822534
 31
0.0
  0
LINE
  5
49AA
330
1F
100
AcDbEntity
  8
STAVBA OBRYS
  6
DASHED
100
AcDbLine
 10
148.107581195657
 20
37.51042375188524
 30
0.0
 11
152.0710974680578
 21
36.17861665107273
 31
0.0
  0
LINE
  5
49AB
330
1F
100
AcDbEntity
  8
STAVBA OBRYS
  6
DASHED
100
AcDbLine
 10
152.4411958115843
 20
36.54871499646731
 30
0.0
 11
152.0710974680578
 21
36.7629344822534
 31
0.0
  0
LINE
  5
49AC
330
1F
100
AcDbEntity
  8
STAVBA OBRYS
  6
DASHED
100
AcDbLine
 10
152.4411958115843
 20
36.54871499646731
 30
0.0
 11
152.0710974680578
 21
36.17861665107273
 31
0.0
  0
LINE
  5
49AD
330
1F
100
AcDbEntity
  8
STAVBA OBRYS
  6
DASHED
100
AcDbLine
 10
147.7374828478523
 20
37.72464323767133
 30
0.0
 11
148.107581195657
 21
38.09474158333694
 31
0.0
  0
LINE
  5
49AE
330
1F
100
AcDbEntity
  8
STAVBA OBRYS
  6
DASHED
100
AcDbLine
 10
147.7374828478523
 20
37.72464323767133
 30
0.0
 11
148.107581195657
 21
37.51042375188524
 31
0.0
  0
LINE
  5
49AF
330
1F
100
AcDbEntity
  8
STAVBA OBRYS
  6
DASHED
100
AcDbLine
 10
147.7374828478523
 20
37.72464323767133
 30
0.0
 11
152.4411958115843
 21
36.54871499646731
 31
0.0
  0
LINE
  5
49B0
330
1F
100
AcDbEntity
  8
STAVBA OBRYS
  6
DASHED
100
AcDbLine
 10
148.107581195657
 20
41.15306658210727
 30
0.0
 11
152.0710974680578
 21
39.820347909107
 31
0.0
  0
LINE
  5
49B1
330
1F
100
AcDbEntity
  8
STAVBA OBRYS
  6
DASHED
100
AcDbLine
 10
148.107581195657
 20
40.5687487509266
 30
0.0
 11
152.0710974680578
 21
39.2360300776553
 31
0.0
  0
LINE
  5
49B2
330
1F
100
AcDbEntity
  8
STAVBA OBRYS
  6
DASHED
100
AcDbLine
 10
152.4411958115843
 20
39.60612842332091
 30
0.0
 11
152.0710974680578
 21
39.820347909107
 31
0.0
  0
LINE
  5
49B3
330
1F
100
AcDbEntity
  8
STAVBA OBRYS
  6
DASHED
100
AcDbLine
 10
152.4411958115843
 20
39.60612842332091
 30
0.0
 11
152.0710974680578
 21
39.2360300776553
 31
0.0
  0
LINE
  5
49B4
330
1F
100
AcDbEntity
  8
STAVBA OBRYS
  6
DASHED
100
AcDbLine
 10
147.7374828478523
 20
40.7820566642539
 30
0.0
 11
148.107581195657
 21
41.15306658210727
 31
0.0
  0
LINE
  5
49B5
330
1F
100
AcDbEntity
  8
STAVBA OBRYS
  6
DASHED
100
AcDbLine
 10
147.7374828478523
 20
40.7820566642539
 30
0.0
 11
148.107581195657
 21
40.5687487509266
 31
0.0
  0
LINE
  5
49B6
330
1F
100
AcDbEntity
  8
STAVBA OBRYS
  6
DASHED
100
AcDbLine
 10
147.7374828478523
 20
40.7820566642539
 30
0.0
 11
152.4411958115843
 21
39.60612842332091
 31
0.0
  0
LINE
  5
49B7
330
1F
100
AcDbEntity
  8
STAVBA OBRYS
  6
DASHED
100
AcDbLine
 10
151.1713756283597
 20
24.96901232551033
 30
0.0
 11
151.4120307115981
 21
26.90063398657082
 31
0.0
  0
LINE
  5
49B8
330
1F
100
AcDbEntity
  8
STAVBA OBRYS
  6
DASHED
100
AcDbLine
 10
150.8395633156496
 20
22.3163369909297
 30
0.0
 11
151.1011845618804
 21
24.41021851772609
 31
0.0
  0
LINE
  5
49B9
330
1F
100
AcDbEntity
  8
STAVBA OBRYS
  6
DASHED
100
AcDbLine
 10
150.5068394377039
 20
19.65363436148516
 30
0.0
 11
150.7693722534486
 21
21.75572003876993
 31
0.0
  0
LINE
  5
49BA
330
1F
100
AcDbEntity
  8
STAVBA OBRYS
  6
DASHED
100
AcDbLine
 10
149.7110368348976
 20
19.34369978636539
 30
0.0
 11
150.0893393297183
 21
16.31636824491659
 31
0.0
  0
LINE
  5
49BB
330
1F
100
AcDbEntity
  8
STAVBA OBRYS
  6
DASHED
100
AcDbLine
 10
149.3509657859713
 20
22.22609133525009
 30
0.0
 11
149.6353763342222
 21
19.95171849710175
 31
0.0
  0
LINE
  5
49BC
330
1F
100
AcDbEntity
  8
STAVBA OBRYS
  6
DASHED
100
AcDbLine
 10
148.9890715894607
 20
25.11942175146475
 30
0.0
 11
149.2734821419899
 21
22.84413734112138
 31
0.0
  0
LINE
  5
49BD
330
1F
100
AcDbEntity
  8
STAVBA OBRYS
  6
DASHED
100
AcDbLine
 10
150.0893393297183
 20
16.31636824491659
 30
0.0
 11
150.4366483712247
 21
19.09575212615971
 31
0.0
  0
LINE
  5
49BE
330
1F
100
AcDbEntity
  8
STAVBA OBRYS
  6
DASHED
100
AcDbLine
 10
148.7666479521167
 20
26.90063398657082
 30
0.0
 11
148.9134110887853
 21
25.72744046220111
 31
0.0
  0
LINE
  5
49BF
330
1F
100
AcDbEntity
  8
STAVBA OBRYS
  6
DASHED
100
AcDbLine
 10
151.4120307115981
 20
27.2306231516967
 30
0.0
 11
151.4120307115981
 21
26.90063398657082
 31
0.0
  0
LINE
  5
49C0
330
1F
100
AcDbEntity
  8
STAVBA OBRYS
  6
DASHED
100
AcDbLine
 10
151.4120307115981
 20
30.29077129537734
 30
0.0
 11
151.4120307115981
 21
27.82223356144902
 31
0.0
  0
LINE
  5
49C1
330
1F
100
AcDbEntity
  8
STAVBA OBRYS
  6
DASHED
100
AcDbLine
 10
148.7666479521167
 20
28.12305241362162
 30
0.0
 11
148.7666479521167
 21
26.90063398657082
 31
0.0
  0
LINE
  5
49C2
330
1F
100
AcDbEntity
  8
STAVBA OBRYS
  6
DASHED
100
AcDbLine
 10
148.7666479521167
 20
31.17499640681387
 30
0.0
 11
148.7666479521167
 21
28.70737024507332
 31
0.0
  0
LINE
  5
49C3
330
1F
100
AcDbEntity
  8
STAVBA OBRYS
  6
DASHED
100
AcDbLine
 10
151.4120307115981
 20
33.35000786660646
 30
0.0
 11
151.4120307115981
 21
30.87964698803159
 31
0.0
  0
LINE
  5
49C4
330
1F
100
AcDbEntity
  8
STAVBA OBRYS
  6
DASHED
100
AcDbLine
 10
151.4120307115981
 20
36.41015601002334
 30
0.0
 11
151.4120307115981
 21
33.93250255341161
 31
0.0
  0
LINE
  5
49C5
330
1F
100
AcDbEntity
  8
STAVBA OBRYS
  6
DASHED
100
AcDbLine
 10
151.4120307115981
 20
39.46301157540336
 30
0.0
 11
151.4120307115981
 21
36.99447384147504
 31
0.0
  0
LINE
  5
49C6
330
1F
100
AcDbEntity
  8
STAVBA OBRYS
  6
DASHED
100
AcDbLine
 10
148.7666479521167
 20
34.24517184536568
 30
0.0
 11
148.7666479521167
 21
31.76751838875395
 31
0.0
  0
LINE
  5
49C7
330
1F
100
AcDbEntity
  8
STAVBA OBRYS
  6
DASHED
100
AcDbLine
 10
148.7666479521167
 20
37.2980274107457
 30
0.0
 11
148.7666479521167
 21
34.82766653217083
 31
0.0
  0
LINE
  5
49C8
330
1F
100
AcDbEntity
  8
STAVBA OBRYS
  6
DASHED
100
AcDbLine
 10
148.7666479521167
 20
40.35817555416258
 30
0.0
 11
148.7666479521167
 21
37.88963782023427
 31
0.0
  0
LINE
  5
49C9
330
1F
100
AcDbEntity
  8
STAVBA OBRYS
  6
DASHED
100
AcDbLine
 10
148.7666479521167
 20
44.89871708024191
 30
0.0
 11
148.7666479521167
 21
40.94158181315549
 31
0.0
  0
LINE
  5
49CA
330
1F
100
AcDbEntity
  8
STAVBA OBRYS
  6
DASHED
100
AcDbLine
 10
151.4120307115981
 20
44.89871708024191
 30
0.0
 11
151.4120307115981
 21
40.05462198489192
 31
0.0
  0
LINE
  5
49CB
330
1F
100
AcDbEntity
  8
STAVBA OBRYS
  6
DASHED
100
AcDbLine
 10
145.091188518857
 20
50.19039416471139
 30
0.0
 11
146.4138799007369
 21
49.46113634096661
 31
0.0
  0
LINE
  5
49CC
330
1F
100
AcDbEntity
  8
STAVBA OBRYS
  6
DASHED
100
AcDbLine
 10
146.4138799007369
 20
49.46113634096661
 30
0.0
 11
147.5022972030883
 21
48.41373979134266
 31
0.0
  0
LINE
  5
49CD
330
1F
100
AcDbEntity
  8
STAVBA OBRYS
  6
DASHED
100
AcDbLine
 10
147.5022972030883
 20
48.41373979134266
 30
0.0
 11
148.2826030728201
 21
47.12113029861109
 31
0.0
  0
LINE
  5
49CE
330
1F
100
AcDbEntity
  8
STAVBA OBRYS
  6
DASHED
100
AcDbLine
 10
148.2826030728201
 20
47.12113029861109
 30
0.0
 11
148.7019263198335
 21
45.66990722890193
 31
0.0
  0
LINE
  5
49CF
330
1F
100
AcDbEntity
  8
STAVBA OBRYS
  6
DASHED
100
AcDbLine
 10
148.7019263198335
 20
45.66990722890193
 30
0.0
 11
148.7666479521167
 21
44.89871708024191
 31
0.0
  0
LINE
  5
49D0
330
1F
100
AcDbEntity
  8
STAVBA OBRYS
  6
DASHED
100
AcDbLine
 10
153.1740999254134
 20
48.9606831593527
 30
0.0
 11
154.3864910581351
 21
49.86040499958551
 31
0.0
  0
LINE
  5
49D1
330
1F
100
AcDbEntity
  8
STAVBA OBRYS
  6
DASHED
100
AcDbLine
 10
154.3864910581351
 20
49.86040499958551
 30
0.0
 11
155.0874901405795
 21
50.19039416471139
 31
0.0
  0
LINE
  5
49D2
330
1F
100
AcDbEntity
  8
STAVBA OBRYS
  6
DASHED
100
AcDbLine
 10
145.091188518857
 20
50.19039416471139
 30
0.0
 11
155.0874901405795
 21
50.19039416471139
 31
0.0
  0
LINE
  5
49D3
330
1F
100
AcDbEntity
  8
STAVBA OBRYS
  6
DASHED
100
AcDbLine
 10
145.091188518857
 20
51.36632240590813
 30
0.0
 11
145.091188518857
 21
50.19039416471139
 31
0.0
  0
LINE
  5
49D4
330
1F
100
AcDbEntity
  8
STAVBA OBRYS
  6
DASHED
100
AcDbLine
 10
145.091188518857
 20
51.36632240590813
 30
0.0
 11
155.0874901405795
 21
51.36632240590813
 31
0.0
  0
LINE
  5
49D5
330
1F
100
AcDbEntity
  8
STAVBA OBRYS
  6
DASHED
100
AcDbLine
 10
155.0874901405795
 20
51.36632240590813
 30
0.0
 11
155.0874901405795
 21
50.19039416471139
 31
0.0
  0
LINE
  5
49D6
330
1F
100
AcDbEntity
  8
STAVBA OBRYS
  6
DASHED
100
AcDbLine
 10
151.4120307115981
 20
44.89871708024191
 30
0.0
 11
151.6344543446639
 21
46.39187247460256
 31
0.0
  0
LINE
  5
49D7
330
1F
100
AcDbEntity
  8
STAVBA OBRYS
  6
DASHED
100
AcDbLine
 10
151.6344543446639
 20
46.39187247460256
 30
0.0
 11
152.2351804768286
 21
47.77746234011181
 31
0.0
  0
LINE
  5
49D8
330
1F
100
AcDbEntity
  8
STAVBA OBRYS
  6
DASHED
100
AcDbLine
 10
152.2351804768286
 20
47.77746234011181
 30
0.0
 11
153.1740999254134
 21
48.9606831593527
 31
0.0
  0
LINE
  5
49D9
330
1F
100
AcDbEntity
  8
STAVBA OBRYS
  6
DASHED
100
AcDbLine
 10
-3.358379920272454
 20
47.77746234011181
 30
0.0
 11
-2.419460471687671
 21
48.9606831593527
 31
0.0
  0
LINE
  5
49DA
330
1F
100
AcDbEntity
  8
STAVBA OBRYS
  6
DASHED
100
AcDbLine
 10
-3.959106052437164
 20
46.39187247460256
 30
0.0
 11
-3.358379920272454
 21
47.77746234011181
 31
0.0
  0
LINE
  5
49DB
330
1F
100
AcDbEntity
  8
STAVBA OBRYS
  6
DASHED
100
AcDbLine
 10
-4.181529685502937
 20
44.89871708024191
 30
0.0
 11
-3.959106052437164
 21
46.39187247460256
 31
0.0
  0
LINE
  5
49DC
330
1F
100
AcDbEntity
  8
STAVBA OBRYS
  6
DASHED
100
AcDbLine
 10
-0.5060702565215252
 20
51.36632240590813
 30
0.0
 11
-0.5060702565215252
 21
50.19039416471139
 31
0.0
  0
LINE
  5
49DD
330
1F
100
AcDbEntity
  8
STAVBA OBRYS
  6
DASHED
100
AcDbLine
 10
-10.50237187824404
 20
51.36632240590813
 30
0.0
 11
-0.5060702565215252
 21
51.36632240590813
 31
0.0
  0
LINE
  5
49DE
330
1F
100
AcDbEntity
  8
STAVBA OBRYS
  6
DASHED
100
AcDbLine
 10
-10.50237187824404
 20
51.36632240590813
 30
0.0
 11
-10.50237187824404
 21
50.19039416471139
 31
0.0
  0
LINE
  5
49DF
330
1F
100
AcDbEntity
  8
STAVBA OBRYS
  6
DASHED
100
AcDbLine
 10
-10.50237187824404
 20
50.19039416471139
 30
0.0
 11
-0.5060702565215252
 21
50.19039416471139
 31
0.0
  0
LINE
  5
49E0
330
1F
100
AcDbEntity
  8
STAVBA OBRYS
  6
DASHED
100
AcDbLine
 10
-1.207069338965993
 20
49.86040499958551
 30
0.0
 11
-0.5060702565215252
 21
50.19039416471139
 31
0.0
  0
LINE
  5
49E1
330
1F
100
AcDbEntity
  8
STAVBA OBRYS
  6
DASHED
100
AcDbLine
 10
-2.419460471687671
 20
48.9606831593527
 30
0.0
 11
-1.207069338965993
 21
49.86040499958551
 31
0.0
  0
LINE
  5
49E2
330
1F
100
AcDbEntity
  8
STAVBA OBRYS
  6
DASHED
100
AcDbLine
 10
-6.891634077267553
 20
45.66990722890193
 30
0.0
 11
-6.826912444984372
 21
44.89871708024191
 31
0.0
  0
LINE
  5
49E3
330
1F
100
AcDbEntity
  8
STAVBA OBRYS
  6
DASHED
100
AcDbLine
 10
-7.310957324280934
 20
47.12113029861109
 30
0.0
 11
-6.891634077267553
 21
45.66990722890193
 31
0.0
  0
LINE
  5
49E4
330
1F
100
AcDbEntity
  8
STAVBA OBRYS
  6
DASHED
100
AcDbLine
 10
-8.091263194012753
 20
48.41373979134266
 30
0.0
 11
-7.310957324280934
 21
47.12113029861109
 31
0.0
  0
LINE
  5
49E5
330
1F
100
AcDbEntity
  8
STAVBA OBRYS
  6
DASHED
100
AcDbLine
 10
-9.179680496364198
 20
49.46113634096661
 30
0.0
 11
-8.091263194012753
 21
48.41373979134266
 31
0.0
  0
LINE
  5
49E6
330
1F
100
AcDbEntity
  8
STAVBA OBRYS
  6
DASHED
100
AcDbLine
 10
-10.50237187824404
 20
50.19039416471139
 30
0.0
 11
-9.179680496364198
 21
49.46113634096661
 31
0.0
  0
LINE
  5
49E7
330
1F
100
AcDbEntity
  8
STAVBA OBRYS
  6
DASHED
100
AcDbLine
 10
-4.181529685502937
 20
44.89871708024191
 30
0.0
 11
-4.181529685502937
 21
40.05462198489192
 31
0.0
  0
LINE
  5
49E8
330
1F
100
AcDbEntity
  8
STAVBA OBRYS
  6
DASHED
100
AcDbLine
 10
-6.826912444984372
 20
44.89871708024191
 30
0.0
 11
-6.826912444984372
 21
40.94158181315549
 31
0.0
  0
LINE
  5
49E9
330
1F
100
AcDbEntity
  8
STAVBA OBRYS
  6
DASHED
100
AcDbLine
 10
-6.826912444984372
 20
40.35817555416258
 30
0.0
 11
-6.826912444984372
 21
37.88963782023427
 31
0.0
  0
LINE
  5
49EA
330
1F
100
AcDbEntity
  8
STAVBA OBRYS
  6
DASHED
100
AcDbLine
 10
-6.826912444984372
 20
37.2980274107457
 30
0.0
 11
-6.826912444984372
 21
34.82766653217083
 31
0.0
  0
LINE
  5
49EB
330
1F
100
AcDbEntity
  8
STAVBA OBRYS
  6
DASHED
100
AcDbLine
 10
-6.826912444984372
 20
34.24517184536568
 30
0.0
 11
-6.826912444984372
 21
31.76751838875395
 31
0.0
  0
LINE
  5
49EC
330
1F
100
AcDbEntity
  8
STAVBA OBRYS
  6
DASHED
100
AcDbLine
 10
-4.181529685502937
 20
39.46301157540336
 30
0.0
 11
-4.181529685502937
 21
36.99447384147504
 31
0.0
  0
LINE
  5
49ED
330
1F
100
AcDbEntity
  8
STAVBA OBRYS
  6
DASHED
100
AcDbLine
 10
-4.181529685502937
 20
36.41015601002334
 30
0.0
 11
-4.181529685502937
 21
33.93250255341161
 31
0.0
  0
LINE
  5
49EE
330
1F
100
AcDbEntity
  8
STAVBA OBRYS
  6
DASHED
100
AcDbLine
 10
-4.181529685502937
 20
33.35000786660646
 30
0.0
 11
-4.181529685502937
 21
30.87964698803159
 31
0.0
  0
LINE
  5
49EF
330
1F
100
AcDbEntity
  8
STAVBA OBRYS
  6
DASHED
100
AcDbLine
 10
-6.826912444984372
 20
31.17499640681387
 30
0.0
 11
-6.826912444984372
 21
28.70737024507332
 31
0.0
  0
LINE
  5
49F0
330
1F
100
AcDbEntity
  8
STAVBA OBRYS
  6
DASHED
100
AcDbLine
 10
-6.826912444984372
 20
28.12305241362162
 30
0.0
 11
-6.826912444984372
 21
26.90063398657082
 31
0.0
  0
LINE
  5
49F1
330
1F
100
AcDbEntity
  8
STAVBA OBRYS
  6
DASHED
100
AcDbLine
 10
-4.181529685502937
 20
30.29077129537734
 30
0.0
 11
-4.181529685502937
 21
27.82223356144902
 31
0.0
  0
LINE
  5
49F2
330
1F
100
AcDbEntity
  8
STAVBA OBRYS
  6
DASHED
100
AcDbLine
 10
-4.181529685502937
 20
27.2306231516967
 30
0.0
 11
-4.181529685502937
 21
26.90063398657082
 31
0.0
  0
LINE
  5
49F3
330
1F
100
AcDbEntity
  8
STAVBA OBRYS
  6
DASHED
100
AcDbLine
 10
-6.826912444984372
 20
26.90063398657082
 30
0.0
 11
-6.680149308315776
 21
25.72744046220111
 31
0.0
  0
LINE
  5
49F4
330
1F
100
AcDbEntity
  8
STAVBA OBRYS
  6
DASHED
100
AcDbLine
 10
-5.504221067382786
 20
16.31636824491659
 30
0.0
 11
-5.156912025876408
 21
19.09575212615971
 31
0.0
  0
LINE
  5
49F5
330
1F
100
AcDbEntity
  8
STAVBA OBRYS
  6
DASHED
100
AcDbLine
 10
-6.604488807640336
 20
25.11942175146475
 30
0.0
 11
-6.320078255111184
 21
22.84413734112138
 31
0.0
  0
LINE
  5
49F6
330
1F
100
AcDbEntity
  8
STAVBA OBRYS
  6
DASHED
100
AcDbLine
 10
-6.242594611129788
 20
22.22609133525009
 30
0.0
 11
-5.958184062878899
 21
19.95171849710175
 31
0.0
  0
LINE
  5
49F7
330
1F
100
AcDbEntity
  8
STAVBA OBRYS
  6
DASHED
100
AcDbLine
 10
-5.882523562203459
 20
19.34369978636539
 30
0.0
 11
-5.504221067382786
 21
16.31636824491659
 31
0.0
  0
LINE
  5
49F8
330
1F
100
AcDbEntity
  8
STAVBA OBRYS
  6
DASHED
100
AcDbLine
 10
-5.086720959397098
 20
19.65363436148516
 30
0.0
 11
-4.824188143652463
 21
21.75572003876993
 31
0.0
  0
LINE
  5
49F9
330
1F
100
AcDbEntity
  8
STAVBA OBRYS
  6
DASHED
100
AcDbLine
 10
-4.753997081451416
 20
22.3163369909297
 30
0.0
 11
-4.492375835220627
 21
24.41021851772609
 31
0.0
  0
LINE
  5
49FA
330
1F
100
AcDbEntity
  8
STAVBA OBRYS
  6
DASHED
100
AcDbLine
 10
-4.422184768741317
 20
24.96901232551033
 30
0.0
 11
-4.181529685502937
 21
26.90063398657082
 31
0.0
  0
LINE
  5
49FB
330
1F
100
AcDbEntity
  8
STAVBA OBRYS
  6
DASHED
100
AcDbLine
 10
-7.856077549248766
 20
40.7820566642539
 30
0.0
 11
-3.152364585516806
 21
39.60612842332091
 31
0.0
  0
LINE
  5
49FC
330
1F
100
AcDbEntity
  8
STAVBA OBRYS
  6
DASHED
100
AcDbLine
 10
-7.856077549248766
 20
40.7820566642539
 30
0.0
 11
-7.485979201444024
 21
40.5687487509266
 31
0.0
  0
LINE
  5
49FD
330
1F
100
AcDbEntity
  8
STAVBA OBRYS
  6
DASHED
100
AcDbLine
 10
-7.856077549248766
 20
40.7820566642539
 30
0.0
 11
-7.485979201444024
 21
41.15306658210727
 31
0.0
  0
LINE
  5
49FE
330
1F
100
AcDbEntity
  8
STAVBA OBRYS
  6
DASHED
100
AcDbLine
 10
-3.152364585516806
 20
39.60612842332091
 30
0.0
 11
-3.522462929043285
 21
39.2360300776553
 31
0.0
  0
LINE
  5
49FF
330
1F
100
AcDbEntity
  8
STAVBA OBRYS
  6
DASHED
100
AcDbLine
 10
-3.152364585516806
 20
39.60612842332091
 30
0.0
 11
-3.522462929043285
 21
39.820347909107
 31
0.0
  0
LINE
  5
4A00
330
1F
100
AcDbEntity
  8
STAVBA OBRYS
  6
DASHED
100
AcDbLine
 10
-7.485979201444024
 20
40.5687487509266
 30
0.0
 11
-3.522462929043285
 21
39.2360300776553
 31
0.0
  0
LINE
  5
4A01
330
1F
100
AcDbEntity
  8
STAVBA OBRYS
  6
DASHED
100
AcDbLine
 10
-7.485979201444024
 20
41.15306658210727
 30
0.0
 11
-3.522462929043285
 21
39.820347909107
 31
0.0
  0
LINE
  5
4A02
330
1F
100
AcDbEntity
  8
STAVBA OBRYS
  6
DASHED
100
AcDbLine
 10
-7.856077549248766
 20
37.72464323767133
 30
0.0
 11
-3.152364585516806
 21
36.54871499646731
 31
0.0
  0
LINE
  5
4A03
330
1F
100
AcDbEntity
  8
STAVBA OBRYS
  6
DASHED
100
AcDbLine
 10
-7.856077549248766
 20
37.72464323767133
 30
0.0
 11
-7.485979201444024
 21
37.51042375188524
 31
0.0
  0
LINE
  5
4A04
330
1F
100
AcDbEntity
  8
STAVBA OBRYS
  6
DASHED
100
AcDbLine
 10
-7.856077549248766
 20
37.72464323767133
 30
0.0
 11
-7.485979201444024
 21
38.09474158333694
 31
0.0
  0
LINE
  5
4A05
330
1F
100
AcDbEntity
  8
STAVBA OBRYS
  6
DASHED
100
AcDbLine
 10
-3.152364585516806
 20
36.54871499646731
 30
0.0
 11
-3.522462929043285
 21
36.17861665107273
 31
0.0
  0
LINE
  5
4A06
330
1F
100
AcDbEntity
  8
STAVBA OBRYS
  6
DASHED
100
AcDbLine
 10
-3.152364585516806
 20
36.54871499646731
 30
0.0
 11
-3.522462929043285
 21
36.7629344822534
 31
0.0
  0
LINE
  5
4A07
330
1F
100
AcDbEntity
  8
STAVBA OBRYS
  6
DASHED
100
AcDbLine
 10
-7.485979201444024
 20
37.51042375188524
 30
0.0
 11
-3.522462929043285
 21
36.17861665107273
 31
0.0
  0
LINE
  5
4A08
330
1F
100
AcDbEntity
  8
STAVBA OBRYS
  6
DASHED
100
AcDbLine
 10
-7.485979201444024
 20
38.09474158333694
 30
0.0
 11
-3.522462929043285
 21
36.7629344822534
 31
0.0
  0
LINE
  5
4A09
330
1F
100
AcDbEntity
  8
STAVBA OBRYS
  6
DASHED
100
AcDbLine
 10
-7.607218314716192
 20
25.5360102835192
 30
0.0
 11
-7.236208397397604
 21
25.32179079773311
 31
0.0
  0
LINE
  5
4A0A
330
1F
100
AcDbEntity
  8
STAVBA OBRYS
  6
DASHED
100
AcDbLine
 10
-7.607218314716192
 20
25.5360102835192
 30
0.0
 11
-7.236208397397604
 21
25.90610862918481
 31
0.0
  0
LINE
  5
4A0B
330
1F
100
AcDbEntity
  8
STAVBA OBRYS
  6
DASHED
100
AcDbLine
 10
-3.564395255028102
 20
24.58250567886068
 30
0.0
 11
-3.934493598554581
 21
24.21149576073628
 31
0.0
  0
LINE
  5
4A0C
330
1F
100
AcDbEntity
  8
STAVBA OBRYS
  6
DASHED
100
AcDbLine
 10
-3.564395255028102
 20
24.58250567886068
 30
0.0
 11
-3.934493598554581
 21
24.79581359218798
 31
0.0
  0
LINE
  5
4A0D
330
1F
100
AcDbEntity
  8
STAVBA OBRYS
  6
DASHED
100
AcDbLine
 10
-7.236208397397604
 20
25.32179079773311
 30
0.0
 11
-3.934493598554581
 21
24.21149576073628
 31
0.0
  0
LINE
  5
4A0E
330
1F
100
AcDbEntity
  8
STAVBA OBRYS
  6
DASHED
100
AcDbLine
 10
-7.236208397397604
 20
25.90610862918481
 30
0.0
 11
-3.934493598554581
 21
24.79581359218798
 31
0.0
  0
LINE
  5
4A0F
330
1F
100
AcDbEntity
  8
STAVBA OBRYS
  6
DASHED
100
AcDbLine
 10
-7.607218314716192
 20
25.5360102835192
 30
0.0
 11
-3.564395255028102
 21
24.58250567886068
 31
0.0
  0
LINE
  5
4A10
330
1F
100
AcDbEntity
  8
STAVBA OBRYS
  6
DASHED
100
AcDbLine
 10
-7.053893942732429
 20
22.58160452430718
 30
0.0
 11
-6.683795594927687
 21
22.36829661097988
 31
0.0
  0
LINE
  5
4A11
330
1F
100
AcDbEntity
  8
STAVBA OBRYS
  6
DASHED
100
AcDbLine
 10
-7.053893942732429
 20
22.58160452430718
 30
0.0
 11
-6.683795594927687
 21
22.95261444243158
 31
0.0
  0
LINE
  5
4A12
330
1F
100
AcDbEntity
  8
STAVBA OBRYS
  6
DASHED
100
AcDbLine
 10
-4.000126804629871
 20
21.9608238018726
 30
0.0
 11
-4.37022514815635
 21
21.58981388401923
 31
0.0
  0
LINE
  5
4A13
330
1F
100
AcDbEntity
  8
STAVBA OBRYS
  6
DASHED
100
AcDbLine
 10
-4.000126804629871
 20
21.9608238018726
 30
0.0
 11
-4.37022514815635
 21
22.1741317151999
 31
0.0
  0
LINE
  5
4A14
330
1F
100
AcDbEntity
  8
STAVBA OBRYS
  6
DASHED
100
AcDbLine
 10
-6.683795594927687
 20
22.36829661097988
 30
0.0
 11
-4.37022514815635
 21
21.58981388401923
 31
0.0
  0
LINE
  5
4A15
330
1F
100
AcDbEntity
  8
STAVBA OBRYS
  6
DASHED
100
AcDbLine
 10
-6.683795594927687
 20
22.95261444243158
 30
0.0
 11
-4.37022514815635
 21
22.1741317151999
 31
0.0
  0
LINE
  5
4A16
330
1F
100
AcDbEntity
  8
STAVBA OBRYS
  6
DASHED
100
AcDbLine
 10
-7.053893942732429
 20
22.58160452430718
 30
0.0
 11
-4.000126804629871
 21
21.9608238018726
 31
0.0
  0
LINE
  5
4A17
330
1F
100
AcDbEntity
  8
STAVBA OBRYS
  6
DASHED
100
AcDbLine
 10
-6.500569566470403
 20
19.62811033755395
 30
0.0
 11
-6.130471222943924
 21
19.41389085177513
 31
0.0
  0
LINE
  5
4A18
330
1F
100
AcDbEntity
  8
STAVBA OBRYS
  6
DASHED
100
AcDbLine
 10
-6.500569566470403
 20
19.62811033755395
 30
0.0
 11
-6.130471222943924
 21
19.99820868321956
 31
0.0
  0
LINE
  5
4A19
330
1F
100
AcDbEntity
  8
STAVBA OBRYS
  6
DASHED
100
AcDbLine
 10
-4.389368167842803
 20
19.32364519609552
 30
0.0
 11
-4.759466511369282
 21
18.95263527824215
 31
0.0
  0
LINE
  5
4A1A
330
1F
100
AcDbEntity
  8
STAVBA OBRYS
  6
DASHED
100
AcDbLine
 10
-4.389368167842803
 20
19.32364519609552
 30
0.0
 11
-4.759466511369282
 21
19.53695310968657
 31
0.0
  0
LINE
  5
4A1B
330
1F
100
AcDbEntity
  8
STAVBA OBRYS
  6
DASHED
100
AcDbLine
 10
-6.130471222943924
 20
19.41389085177513
 30
0.0
 11
-4.759466511369282
 21
18.95263527824215
 31
0.0
  0
LINE
  5
4A1C
330
1F
100
AcDbEntity
  8
STAVBA OBRYS
  6
DASHED
100
AcDbLine
 10
-6.130471222943924
 20
19.99820868321956
 30
0.0
 11
-4.759466511369282
 21
19.53695310968657
 31
0.0
  0
LINE
  5
4A1D
330
1F
100
AcDbEntity
  8
STAVBA OBRYS
  6
DASHED
100
AcDbLine
 10
-6.500569566470403
 20
19.62811033755395
 30
0.0
 11
-4.389368167842803
 21
19.32364519609552
 31
0.0
  0
LINE
  5
4A1E
330
1F
100
AcDbEntity
  8
STAVBA OBRYS
  6
DASHED
100
AcDbLine
 10
-7.856077549248766
 20
34.66722981081773
 30
0.0
 11
-3.152364585516806
 21
33.49130156988474
 31
0.0
  0
LINE
  5
4A1F
330
1F
100
AcDbEntity
  8
STAVBA OBRYS
  6
DASHED
100
AcDbLine
 10
-7.856077549248766
 20
34.66722981081773
 30
0.0
 11
-7.485979201444024
 21
34.45301032503164
 31
0.0
  0
LINE
  5
4A20
330
1F
100
AcDbEntity
  8
STAVBA OBRYS
  6
DASHED
100
AcDbLine
 10
-7.856077549248766
 20
34.66722981081773
 30
0.0
 11
-7.485979201444024
 21
35.03732815648334
 31
0.0
  0
LINE
  5
4A21
330
1F
100
AcDbEntity
  8
STAVBA OBRYS
  6
DASHED
100
AcDbLine
 10
-3.152364585516806
 20
33.49130156988474
 30
0.0
 11
-3.522462929043285
 21
33.12029165203137
 31
0.0
  0
LINE
  5
4A22
330
1F
100
AcDbEntity
  8
STAVBA OBRYS
  6
DASHED
100
AcDbLine
 10
-3.152364585516806
 20
33.49130156988474
 30
0.0
 11
-3.522462929043285
 21
33.70460948347579
 31
0.0
  0
LINE
  5
4A23
330
1F
100
AcDbEntity
  8
STAVBA OBRYS
  6
DASHED
100
AcDbLine
 10
-7.485979201444024
 20
34.45301032503164
 30
0.0
 11
-3.522462929043285
 21
33.12029165203137
 31
0.0
  0
LINE
  5
4A24
330
1F
100
AcDbEntity
  8
STAVBA OBRYS
  6
DASHED
100
AcDbLine
 10
-7.485979201444024
 20
35.03732815648334
 30
0.0
 11
-3.522462929043285
 21
33.70460948347579
 31
0.0
  0
LINE
  5
4A25
330
1F
100
AcDbEntity
  8
STAVBA OBRYS
  6
DASHED
100
AcDbLine
 10
-7.856077549248766
 20
31.60981638422788
 30
0.0
 11
-3.152364585516806
 21
30.43388814329489
 31
0.0
  0
LINE
  5
4A26
330
1F
100
AcDbEntity
  8
STAVBA OBRYS
  6
DASHED
100
AcDbLine
 10
-7.856077549248766
 20
31.60981638422788
 30
0.0
 11
-7.485979201444024
 21
31.39559689844907
 31
0.0
  0
LINE
  5
4A27
330
1F
100
AcDbEntity
  8
STAVBA OBRYS
  6
DASHED
100
AcDbLine
 10
-7.856077549248766
 20
31.60981638422788
 30
0.0
 11
-7.485979201444024
 21
31.97991472989349
 31
0.0
  0
LINE
  5
4A28
330
1F
100
AcDbEntity
  8
STAVBA OBRYS
  6
DASHED
100
AcDbLine
 10
-3.152364585516806
 20
30.43388814329489
 30
0.0
 11
-3.522462929043285
 21
30.06287822544152
 31
0.0
  0
LINE
  5
4A29
330
1F
100
AcDbEntity
  8
STAVBA OBRYS
  6
DASHED
100
AcDbLine
 10
-3.152364585516806
 20
30.43388814329489
 30
0.0
 11
-3.522462929043285
 21
30.64719605662219
 31
0.0
  0
LINE
  5
4A2A
330
1F
100
AcDbEntity
  8
STAVBA OBRYS
  6
DASHED
100
AcDbLine
 10
-7.485979201444024
 20
31.39559689844907
 30
0.0
 11
-3.522462929043285
 21
30.06287822544152
 31
0.0
  0
LINE
  5
4A2B
330
1F
100
AcDbEntity
  8
STAVBA OBRYS
  6
DASHED
100
AcDbLine
 10
-7.485979201444024
 20
31.97991472989349
 30
0.0
 11
-3.522462929043285
 21
30.64719605662219
 31
0.0
  0
LINE
  5
4A2C
330
1F
100
AcDbEntity
  8
STAVBA OBRYS
  6
DASHED
100
AcDbLine
 10
-7.856077549248766
 20
28.55149138518652
 30
0.0
 11
-3.152364585516806
 21
27.37556314425353
 31
0.0
  0
LINE
  5
4A2D
330
1F
100
AcDbEntity
  8
STAVBA OBRYS
  6
DASHED
100
AcDbLine
 10
-7.856077549248766
 20
28.55149138518652
 30
0.0
 11
-7.485979201444024
 21
28.33818347185922
 31
0.0
  0
LINE
  5
4A2E
330
1F
100
AcDbEntity
  8
STAVBA OBRYS
  6
DASHED
100
AcDbLine
 10
-7.856077549248766
 20
28.55149138518652
 30
0.0
 11
-7.485979201444024
 21
28.92250130331092
 31
0.0
  0
LINE
  5
4A2F
330
1F
100
AcDbEntity
  8
STAVBA OBRYS
  6
DASHED
100
AcDbLine
 10
-3.152364585516806
 20
27.37556314425353
 30
0.0
 11
-3.522462929043285
 21
27.00546479858792
 31
0.0
  0
LINE
  5
4A30
330
1F
100
AcDbEntity
  8
STAVBA OBRYS
  6
DASHED
100
AcDbLine
 10
-3.152364585516806
 20
27.37556314425353
 30
0.0
 11
-3.522462929043285
 21
27.58978263003962
 31
0.0
  0
LINE
  5
4A31
330
1F
100
AcDbEntity
  8
STAVBA OBRYS
  6
DASHED
100
AcDbLine
 10
-7.485979201444024
 20
28.33818347185922
 30
0.0
 11
-3.522462929043285
 21
27.00546479858792
 31
0.0
  0
LINE
  5
4A32
330
1F
100
AcDbEntity
  8
STAVBA OBRYS
  6
DASHED
100
AcDbLine
 10
-7.485979201444024
 20
28.92250130331092
 30
0.0
 11
-3.522462929043285
 21
27.58978263003962
 31
0.0
  0
HATCH
  5
4A33
330
1F
100
AcDbEntity
  8
STAVBA OBRYS
100
AcDbHatch
 10
0.0
 20
0.0
 30
0.0
210
0.0
220
0.0
230
1.0
  2
ANSI31
 70
     0
 71
     0
 91
        2
 92
        7
 72
     0
 73
     1
 93
        4
 10
319.1371980891699
 20
39.36632240590859
 10
123.5266356449455
 20
39.36632240590813
 10
123.5266356449455
 20
27.36632240590813
 10
319.1371980891663
 20
27.36632240590813
 97
        0
 92
        7
 72
     0
 73
     1
 93
        4
 10
16.94238992619193
 20
39.36632240590813
 10
-80.13558967115477
 20
39.36632240590813
 10
-80.13558967115477
 20
27.36632240590813
 10
16.94238992619193
 20
27.36632240590859
 97
        0
 75
     0
 76
     1
 52
90.0
 41
1.0
 77
     0
 78
     1
 53
135.0
 43
-25042.02233494315
 44
-2154.021338823466
 45
-2.245064030267288
 46
-2.245064030267287
 79
     0
 47
0.7045601633123687
 98
        2
 10
229.6279845114213
 20
36.17458376817273
 10
-13.59454042788729
 20
34.06090817326446
  0
HATCH
  5
4A34
330
1F
100
AcDbEntity
  8
STAVBA OBRYS
100
AcDbHatch
 10
0.0
 20
0.0
 30
0.0
210
0.0
220
0.0
230
1.0
  2
ANSI31
 70
     0
 71
     0
 91
        2
 92
        7
 72
     0
 73
     1
 93
        5
 10
319.1371980891699
 20
51.36632240590813
 10
126.2642403500494
 20
51.36632240590768
 10
123.5266356449455
 20
49.04348697060766
 10
123.5266356449455
 20
39.36632240590813
 10
319.1371980891663
 20
39.36632240590813
 97
        0
 92
        7
 72
     0
 73
     1
 93
        4
 10
16.94238992619193
 20
51.36632240590813
 10
-80.13558967115477
 20
51.36632240590768
 10
-80.13558967115841
 20
39.36632240590768
 10
16.94238992619193
 20
39.36632240590813
 97
        0
 75
     0
 76
     1
 52
0.0
 41
1.0
 77
     0
 78
     1
 53
45.0
 43
-25042.02233494315
 44
-2154.021338823466
 45
-2.245064030267287
 46
2.245064030267288
 79
     0
 47
0.7045601633123687
 98
        2
 10
209.8881923319158
 20
46.74299059429256
 10
-22.75945172023511
 20
43.22018511318936
  0
HATCH
  5
4A35
330
1F
100
AcDbEntity
  8
CETRIS
100
AcDbHatch
 10
0.0
 20
0.0
 30
0.0
210
0.0
220
0.0
230
1.0
  2
ANSI31
 70
     0
 71
     0
 91
        9
 92
        7
 72
     0
 73
     1
 93
       12
 10
44.47726391257583
 20
332.0820283511469
 10
32.47726391257947
 20
329.871867072847
 10
32.47726391257947
 20
287.796018894557
 10
33.67719068930728
 20
287.796018894557
 10
34.01391432720174
 20
287.0807137083819
 10
34.93199783763248
 20
285.8435798995004
 10
36.13936602052763
 20
284.8854988295059
 10
37.55323323023458
 20
284.2725129803569
 10
39.07686118366746
 20
284.0455500894739
 10
44.03273898771203
 20
284.0455500894739
 10
44.25887054196119
 20
284.7180671878858
 10
44.47726391257947
 20
285.0953765834782
 97
        0
 92
        7
 72
     0
 73
     1
 93
       23
 10
44.47726391257583
 20
281.3461799267378
 10
43.72132776787021
 20
281.3461799267373
 10
43.4951962135774
 20
280.6736628282937
 10
43.27753507752186
 20
280.2960114530027
 10
42.89895352870281
 20
280.6736628283104
 10
43.12508508295922
 20
281.3461799267378
 10
39.07686118366382
 20
281.3461799267378
 10
38.28993246054142
 20
281.2801374448166
 10
36.80909259349118
 20
280.8522565805191
 10
35.49010331520458
 20
280.0560261012009
 10
34.42133132578146
 20
278.9453962008445
 10
33.67719068930364
 20
277.5957111172891
 10
32.47726391257947
 20
277.5957111172891
 10
32.47726391257947
 20
37.79601889455705
 10
33.67719068930728
 20
37.79601889455705
 10
34.01391432720174
 20
37.08071370837649
 10
34.93199783763975
 20
35.84357989949273
 10
36.13936602052763
 20
34.88549882950508
 10
37.55323323023458
 20
34.27251298035787
 10
39.07686118366746
 20
34.04555008947352
 10
44.0327389877084
 20
34.04555008947397
 10
44.2588705419721
 20
34.71806718791447
 10
44.47726391257219
 20
35.09537658347778
 97
        0
 92
        7
 72
     0
 73
     1
 93
       15
 10
44.47726391257947
 20
31.34617992673781
 10
43.72132776787748
 20
31.34617992673781
 10
43.49519621357012
 20
30.67366282828504
 10
43.27753507752913
 20
30.29601145299818
 10
42.89895352869916
 20
30.67366282830823
 10
43.12508508295195
 20
31.34617992673781
 10
39.07686118366746
 20
31.34617992673781
 10
38.28993246053778
 20
31.2801374448162
 10
36.80909259348755
 20
30.85225658051638
 10
35.4901033151973
 20
30.05602610120456
 10
34.42133132579238
 20
28.94539620084413
 10
33.67719068930728
 20
27.59571111728917
 10
32.47726391258311
 20
27.59571111728917
 10
32.47726391257583
 20
1.765916935276322
 10
44.47726391257947
 20
1.765916935276322
 97
        0
 92
        7
 72
     0
 73
     1
 93
       15
 10
107.70951819733
 20
27.59571111728917
 10
106.5095914206021
 20
27.59571111728917
 10
105.7654507841243
 20
28.94539620085367
 10
104.6966787947049
 20
30.05602610119865
 10
103.3776895164037
 20
30.85225658051683
 10
101.8968496493607
 20
31.28013744481666
 10
101.1099209262347
 20
31.34617992673781
 10
97.06169702695389
 20
31.34617992673781
 10
97.28782858120304
 20
30.67366282830642
 10
96.90924703237669
 20
30.29601145300182
 10
96.69158589633207
 20
30.6736628283096
 10
96.46545434203199
 20
31.34617992673781
 10
95.70951819732636
 20
31.34617992673781
 10
95.70951819732636
 20
1.765916935276322
 10
107.7095181973263
 20
1.76591693527996
 97
        0
 92
        7
 72
     0
 73
     1
 93
       12
 10
107.7095181973263
 20
63.80435674543775
 10
95.70951819732636
 20
51.85213832297392
 10
95.70951819733
 20
35.09537658346414
 10
95.92791156794465
 20
34.71806718788809
 10
96.15404312219016
 20
34.04555008947397
 10
101.1099209262383
 20
34.04555008947397
 10
102.6335488796712
 20
34.27251298035878
 10
104.0474160893818
 20
34.88549882950962
 10
105.2547842722624
 20
35.84357989949046
 10
106.1728677827149
 20
37.08071370837467
 10
106.5095914205985
 20
37.79601889455705
 10
107.7095181973263
 20
37.79601889455705
 97
        0
 92
        7
 72
     0
 73
     1
 93
        4
 10
107.70951819733
 20
171.6219392593365
 10
95.70951819732636
 20
171.6219392593365
 10
95.70951819733
 20
51.85213832297165
 10
107.7095181973263
 20
63.80435674543594
 97
        0
 92
        7
 72
     0
 73
     1
 93
        4
 10
107.7095181973263
 20
223.6798553755824
 10
95.70951819732636
 20
223.6798553755824
 10
95.70951819732636
 20
171.6219392593365
 10
107.7095181973227
 20
171.6219392593365
 97
        0
 92
        7
 72
     0
 73
     1
 93
       15
 10
107.7095181973227
 20
277.5957111172891
 10
106.5095914205949
 20
277.5957111172891
 10
105.765450784128
 20
278.9453962008313
 10
104.6966787947085
 20
280.0560261011959
 10
103.3776895164146
 20
280.8522565805168
 10
101.896849649368
 20
281.280137444817
 10
101.1099209262383
 20
281.3461799267382
 10
97.06169702695024
 20
281.3461799267382
 10
97.28782858120304
 20
280.6736628283077
 10
96.90924703237669
 20
280.2960114529968
 10
96.69158589632116
 20
280.6736628283104
 10
96.46545434202108
 20
281.3461799267378
 10
95.70951819732636
 20
281.3461799267378
 10
95.70951819732636
 20
223.6798553755824
 10
107.7095181973227
 20
223.6798553755824
 97
        0
 92
        7
 72
     0
 73
     1
 93
       12
 10
107.7095181973227
 20
343.7281516811271
 10
95.70951819732636
 20
341.5179904028276
 10
95.70951819732272
 20
285.0953765834664
 10
95.92791156794465
 20
284.7180671878844
 10
96.15404312219016
 20
284.0455500894739
 10
101.1099209262383
 20
284.0455500894739
 10
102.6335488796712
 20
284.2725129803588
 10
104.0474160893781
 20
284.8854988295082
 10
105.2547842722733
 20
285.8435798994886
 10
106.1728677827222
 20
287.0807137083914
 10
106.5095914205949
 20
287.796018894557
 10
107.709518197319
 20
287.796018894557
 97
        0
 75
     0
 76
     1
 52
90.0
 41
1.0
 77
     0
 78
     1
 53
135.0
 43
-25042.02233494315
 44
-2154.021338823466
 45
-2.245064030267288
 46
-2.245064030267287
 79
     0
 47
0.7045601633123687
 98
        9
 10
36.14713595583725
 20
299.7545976756472
 10
40.54451072395295
 20
211.8613111516014
 10
40.54451072395295
 20
13.22246783506204
 10
104.1392589734341
 20
19.26514054013648
 10
102.729273817752
 20
46.03842565119601
 10
102.0242890203471
 20
74.22083103125885
 10
104.1392589734341
 20
185.5413418996985
 10
103.4342741760219
 20
248.247198678934
 10
102.729273817752
 20
303.9074541131548
  0
INSERT
  5
4A36
330
1F
100
AcDbEntity
  8
POPIS
100
AcDbBlockReference
  2
E_PUNKT
 10
89.58988851107916
 20
171.3848143916874
 30
0.0
 50
270.0
  0
INSERT
  5
4A37
330
1F
100
AcDbEntity
  8
POPIS
100
AcDbBlockReference
  2
E_PUNKT
 10
69.82025209641051
 20
223.7074657512092
 30
0.0
 50
270.0
  0
INSERT
  5
4A38
330
1F
100
AcDbEntity
  8
POPIS
100
AcDbBlockReference
  2
E_PUNKT
 10
106.4805230897209
 20
282.7234753815499
 30
0.0
 50
270.0
  0
LINE
  5
4A39
330
1F
100
AcDbEntity
  8
POPIS
100
AcDbLine
 10
177.7918631014936
 20
171.6219392593365
 30
0.0
 11
89.61895684194951
 21
171.6219392593365
 31
0.0
  0
LINE
  5
4A3A
330
1F
100
AcDbEntity
  8
POPIS
100
AcDbLine
 10
177.7918631014936
 20
223.6798553755824
 30
0.0
 11
71.09932042728451
 21
223.6798553755824
 31
0.0
  0
LINE
  5
4A3B
330
1F
100
AcDbEntity
  8
POPIS
100
AcDbLine
 10
177.7918631014936
 20
282.7041378342936
 30
0.0
 11
108.0978465791804
 21
282.7041378342936
 31
0.0
  0
LINE
  5
4A3C
330
1F
100
AcDbEntity
  8
POPIS
100
AcDbLine
 10
177.7918631014936
 20
325.5975749976886
 30
0.0
 11
108.0978465791804
 21
325.5975749976886
 31
0.0
  0
TEXT
  5
4A3D
330
1F
100
AcDbEntity
  8
POPIS
100
AcDbText
 10
182.9480743127851
 20
314.904345463617
 30
0.0
 40
25.0
  1
01
 41
0.85
  7
SIMPLEX7
100
AcDbText
  0
TEXT
  5
4A3E
330
1F
100
AcDbEntity
  8
POPIS
100
AcDbText
 10
182.9480743127851
 20
269.4283220718765
 30
0.0
 40
25.0
  1
02
 41
0.85
  7
SIMPLEX7
100
AcDbText
  0
TEXT
  5
4A3F
330
1F
100
AcDbEntity
  8
POPIS
100
AcDbText
 10
182.9480743127851
 20
211.9145687943795
 30
0.0
 40
25.0
  1
03
 41
0.85
  7
SIMPLEX7
100
AcDbText
  0
TEXT
  5
4A40
330
1F
100
AcDbEntity
  8
POPIS
100
AcDbText
 10
182.9480743127851
 20
160.8535161815283
 30
0.0
 40
25.0
  1
04
 41
0.85
  7
SIMPLEX7
100
AcDbText
  0
LINE
  5
4A41
330
1F
100
AcDbEntity
  8
SPOJOVACÍ
  6
Continuous
100
AcDbLine
 10
104.0474160893709
 20
284.885498829505
 30
0.0
 11
105.2547842722697
 21
285.8435798994895
 31
0.0
  0
LINE
  5
4A42
330
1F
100
AcDbEntity
  8
SPOJOVACÍ
  6
Continuous
100
AcDbLine
 10
102.6335488796676
 20
284.2725129803574
 30
0.0
 11
104.0474160893709
 21
284.885498829505
 31
0.0
  0
LINE
  5
4A43
330
1F
100
AcDbEntity
  8
SPOJOVACÍ
  6
Continuous
100
AcDbLine
 10
101.1099209262383
 20
284.0455500894739
 30
0.0
 11
102.6335488796676
 21
284.2725129803574
 31
0.0
  0
LINE
  5
4A44
330
1F
100
AcDbEntity
  8
SPOJOVACÍ
  6
Continuous
100
AcDbLine
 10
107.7095181973263
 20
287.796018894557
 30
0.0
 11
106.5095914205949
 21
287.796018894557
 31
0.0
  0
LINE
  5
4A45
330
1F
100
AcDbEntity
  8
SPOJOVACÍ
  6
Continuous
100
AcDbLine
 10
107.7095181973263
 20
277.5957111172891
 30
0.0
 11
107.7095181973263
 21
287.796018894557
 31
0.0
  0
LINE
  5
4A46
330
1F
100
AcDbEntity
  8
SPOJOVACÍ
  6
Continuous
100
AcDbLine
 10
107.7095181973263
 20
277.5957111172891
 30
0.0
 11
106.5095914205949
 21
277.5957111172891
 31
0.0
  0
LINE
  5
4A47
330
1F
100
AcDbEntity
  8
SPOJOVACÍ
  6
Continuous
100
AcDbLine
 10
106.5095914205949
 20
277.5957111172891
 30
0.0
 11
106.5095914205949
 21
287.796018894557
 31
0.0
  0
LINE
  5
4A48
330
1F
100
AcDbEntity
  8
SPOJOVACÍ
  6
Continuous
100
AcDbLine
 10
106.1728677827113
 20
287.0807137083892
 30
0.0
 11
106.5095914205949
 21
287.796018894557
 31
0.0
  0
LINE
  5
4A49
330
1F
100
AcDbEntity
  8
SPOJOVACÍ
  6
Continuous
100
AcDbLine
 10
105.2547842722697
 20
285.8435798994895
 30
0.0
 11
106.1728677827113
 21
287.0807137083892
 31
0.0
  0
LINE
  5
4A4A
330
1F
100
AcDbEntity
  8
SPOJOVACÍ
  6
Continuous
100
AcDbLine
 10
101.8968496493607
 20
281.2801374448162
 30
0.0
 11
101.1099209262383
 21
281.3461799267378
 31
0.0
  0
LINE
  5
4A4B
330
1F
100
AcDbEntity
  8
SPOJOVACÍ
  6
Continuous
100
AcDbLine
 10
103.377689516411
 20
280.8522565805168
 30
0.0
 11
101.8968496493607
 21
281.2801374448162
 31
0.0
  0
LINE
  5
4A4C
330
1F
100
AcDbEntity
  8
SPOJOVACÍ
  6
Continuous
100
AcDbLine
 10
104.6966787947085
 20
280.0560261011986
 30
0.0
 11
103.377689516411
 21
280.8522565805168
 31
0.0
  0
LINE
  5
4A4D
330
1F
100
AcDbEntity
  8
SPOJOVACÍ
  6
Continuous
100
AcDbLine
 10
105.7654507841207
 20
278.94539620084
 30
0.0
 11
104.6966787947085
 21
280.0560261011986
 31
0.0
  0
LINE
  5
4A4E
330
1F
100
AcDbEntity
  8
SPOJOVACÍ
  6
Continuous
100
AcDbLine
 10
106.5095914205949
 20
277.5957111172891
 30
0.0
 11
105.7654507841207
 21
278.94539620084
 31
0.0
  0
LINE
  5
4A4F
330
1F
100
AcDbEntity
  8
SPOJOVACÍ
  6
Continuous
100
AcDbLine
 10
101.1099209262383
 20
284.0455500894739
 30
0.0
 11
96.16696674730974
 21
284.0455500894739
 31
0.0
  0
LINE
  5
4A50
330
1F
100
AcDbEntity
  8
SPOJOVACÍ
  6
Continuous
100
AcDbLine
 10
101.1099209262383
 20
281.3461799267378
 30
0.0
 11
97.07202779655837
 21
281.3461799267378
 31
0.0
  0
LINE
  5
4A51
330
1F
100
AcDbEntity
  8
SPOJOVACÍ
  6
Continuous
100
AcDbLine
 10
96.47671528738193
 20
281.3461799267378
 30
0.0
 11
93.95779923235295
 21
281.3461799267378
 31
0.0
  0
LINE
  5
4A52
330
1F
100
AcDbEntity
  8
SPOJOVACÍ
  6
Continuous
100
AcDbLine
 10
93.35411514103816
 20
281.3461799267378
 30
0.0
 11
90.83333873432911
 21
281.3461799267378
 31
0.0
  0
LINE
  5
4A53
330
1F
100
AcDbEntity
  8
SPOJOVACÍ
  6
Continuous
100
AcDbLine
 10
90.23895640085447
 20
281.3461799267378
 30
0.0
 11
87.71073858798535
 21
281.3461799267378
 31
0.0
  0
LINE
  5
4A54
330
1F
100
AcDbEntity
  8
SPOJOVACÍ
  6
Continuous
100
AcDbLine
 10
95.56328265599494
 20
284.0455500894739
 30
0.0
 11
93.04436660096598
 21
284.0455500894739
 31
0.0
  0
LINE
  5
4A55
330
1F
100
AcDbEntity
  8
SPOJOVACÍ
  6
Continuous
100
AcDbLine
 10
92.44812391581126
 20
284.0455500894739
 30
0.0
 11
89.91990610294214
 21
284.0455500894739
 31
0.0
  0
LINE
  5
4A56
330
1F
100
AcDbEntity
  8
SPOJOVACÍ
  6
Continuous
100
AcDbLine
 10
89.3255237694675
 20
284.0455500894739
 30
0.0
 11
86.80474736275845
 21
284.0455500894739
 31
0.0
  0
LINE
  5
4A57
330
1F
100
AcDbEntity
  8
SPOJOVACÍ
  6
Continuous
100
AcDbLine
 10
87.10612432069956
 20
281.3461799267378
 30
0.0
 11
84.58813844137239
 21
281.3461799267378
 31
0.0
  0
LINE
  5
4A58
330
1F
100
AcDbEntity
  8
SPOJOVACÍ
  6
Continuous
100
AcDbLine
 10
83.99189575621766
 20
281.3461799267378
 30
0.0
 11
82.74453001432902
 21
281.3461799267378
 31
0.0
  0
LINE
  5
4A59
330
1F
100
AcDbEntity
  8
SPOJOVACÍ
  6
Continuous
100
AcDbLine
 10
86.20385379882554
 20
284.0455500894739
 30
0.0
 11
83.68493774379658
 21
284.0455500894739
 31
0.0
  0
LINE
  5
4A5A
330
1F
100
AcDbEntity
  8
SPOJOVACÍ
  6
Continuous
100
AcDbLine
 10
83.08125365221258
 20
284.0455500894739
 30
0.0
 11
82.74453001432902
 21
284.0455500894739
 31
0.0
  0
LINE
  5
4A5B
330
1F
100
AcDbEntity
  8
SPOJOVACÍ
  6
Continuous
100
AcDbLine
 10
82.74453001432902
 20
281.3461799267378
 30
0.0
 11
81.54739376497218
 21
281.4959382294608
 31
0.0
  0
LINE
  5
4A5C
330
1F
100
AcDbEntity
  8
SPOJOVACÍ
  6
Continuous
100
AcDbLine
 10
71.94425884937572
 20
282.6958650059231
 30
0.0
 11
74.78036485064421
 21
283.050261987052
 31
0.0
  0
LINE
  5
4A5D
330
1F
100
AcDbEntity
  8
SPOJOVACÍ
  6
Continuous
100
AcDbLine
 10
80.92696650911875
 20
281.5731428219868
 30
0.0
 11
78.60524772305416
 21
281.8633576715063
 31
0.0
  0
LINE
  5
4A5E
330
1F
100
AcDbEntity
  8
SPOJOVACÍ
  6
Continuous
100
AcDbLine
 10
77.97458853338958
 20
281.9424226143445
 30
0.0
 11
75.65379992303405
 21
282.2326374594985
 31
0.0
  0
LINE
  5
4A5F
330
1F
100
AcDbEntity
  8
SPOJOVACÍ
  6
Continuous
100
AcDbLine
 10
75.03337266718062
 20
282.3098420520244
 30
0.0
 11
71.94425884937572
 21
282.6958650059231
 31
0.0
  0
LINE
  5
4A60
330
1F
100
AcDbEntity
  8
SPOJOVACÍ
  6
Continuous
100
AcDbLine
 10
75.34963243771108
 20
283.1218855242758
 30
0.0
 11
77.49461782269555
 21
283.3897761525867
 31
0.0
  0
LINE
  5
4A61
330
1F
100
AcDbEntity
  8
SPOJOVACÍ
  6
Continuous
100
AcDbLine
 10
78.06667593714428
 20
283.4613996854449
 30
0.0
 11
80.20328973999767
 21
283.7283601407824
 31
0.0
  0
LINE
  5
4A62
330
1F
100
AcDbEntity
  8
SPOJOVACÍ
  6
Continuous
100
AcDbLine
 10
80.77348750304281
 20
283.7999836780062
 30
0.0
 11
82.74453001432902
 21
284.0455500894739
 31
0.0
  0
LINE
  5
4A63
330
1F
100
AcDbEntity
  8
SPOJOVACÍ
  6
Continuous
100
AcDbLine
 10
96.90924703237307
 20
280.2960114529986
 30
0.0
 11
95.70932025591082
 21
285.0957185588475
 31
0.0
  0
LINE
  5
4A64
330
1F
100
AcDbEntity
  8
SPOJOVACÍ
  6
Continuous
100
AcDbLine
 10
96.90924703237307
 20
280.2960114529986
 30
0.0
 11
96.6915858963248
 21
280.6736628283096
 31
0.0
  0
LINE
  5
4A65
330
1F
100
AcDbEntity
  8
SPOJOVACÍ
  6
Continuous
100
AcDbLine
 10
96.90924703237307
 20
280.2960114529986
 30
0.0
 11
97.28782858120304
 21
280.6736628283096
 31
0.0
  0
LINE
  5
4A66
330
1F
100
AcDbEntity
  8
SPOJOVACÍ
  6
Continuous
100
AcDbLine
 10
95.70932025591082
 20
285.0957185588475
 30
0.0
 11
95.33166888278264
 21
284.7180671879021
 31
0.0
  0
LINE
  5
4A67
330
1F
100
AcDbEntity
  8
SPOJOVACÍ
  6
Continuous
100
AcDbLine
 10
95.70932025591082
 20
285.0957185588475
 30
0.0
 11
95.92791156793737
 21
284.7180671879021
 31
0.0
  0
LINE
  5
4A68
330
1F
100
AcDbEntity
  8
SPOJOVACÍ
  6
Continuous
100
AcDbLine
 10
96.6915858963248
 20
280.6736628283096
 30
0.0
 11
95.33166888278264
 21
284.7180671879021
 31
0.0
  0
LINE
  5
4A69
330
1F
100
AcDbEntity
  8
SPOJOVACÍ
  6
Continuous
100
AcDbLine
 10
97.28782858120304
 20
280.6736628283096
 30
0.0
 11
95.92791156793737
 21
284.7180671879021
 31
0.0
  0
LINE
  5
4A6A
330
1F
100
AcDbEntity
  8
SPOJOVACÍ
  6
Continuous
100
AcDbLine
 10
93.78943741341117
 20
280.2960114529986
 30
0.0
 11
92.58951063667245
 21
285.0957185588475
 31
0.0
  0
LINE
  5
4A6B
330
1F
100
AcDbEntity
  8
SPOJOVACÍ
  6
Continuous
100
AcDbLine
 10
93.78943741341117
 20
280.2960114529986
 30
0.0
 11
93.57084610138462
 21
280.6736628283096
 31
0.0
  0
LINE
  5
4A6C
330
1F
100
AcDbEntity
  8
SPOJOVACÍ
  6
Continuous
100
AcDbLine
 10
93.78943741341117
 20
280.2960114529986
 30
0.0
 11
94.16708878653935
 21
280.6736628283096
 31
0.0
  0
LINE
  5
4A6D
330
1F
100
AcDbEntity
  8
SPOJOVACÍ
  6
Continuous
100
AcDbLine
 10
92.58951063667245
 20
285.0957185588475
 30
0.0
 11
92.21185926382077
 21
284.7180671879021
 31
0.0
  0
LINE
  5
4A6E
330
1F
100
AcDbEntity
  8
SPOJOVACÍ
  6
Continuous
100
AcDbLine
 10
92.58951063667245
 20
285.0957185588475
 30
0.0
 11
92.808101948699
 21
284.7180671879021
 31
0.0
  0
LINE
  5
4A6F
330
1F
100
AcDbEntity
  8
SPOJOVACÍ
  6
Continuous
100
AcDbLine
 10
93.57084610138462
 20
280.6736628283096
 30
0.0
 11
92.21185926382077
 21
284.7180671879021
 31
0.0
  0
LINE
  5
4A70
330
1F
100
AcDbEntity
  8
SPOJOVACÍ
  6
Continuous
100
AcDbLine
 10
94.16708878653935
 20
280.6736628283096
 30
0.0
 11
92.808101948699
 21
284.7180671879021
 31
0.0
  0
LINE
  5
4A71
330
1F
100
AcDbEntity
  8
SPOJOVACÍ
  6
Continuous
100
AcDbLine
 10
81.35205684794982
 20
280.5499494474196
 30
0.0
 11
81.13346553592327
 21
280.9285309957039
 31
0.0
  0
LINE
  5
4A72
330
1F
100
AcDbEntity
  8
SPOJOVACÍ
  6
Continuous
100
AcDbLine
 10
81.35205684794982
 20
280.5499494474196
 30
0.0
 11
81.72970822107799
 21
280.9285309957039
 31
0.0
  0
LINE
  5
4A73
330
1F
100
AcDbEntity
  8
SPOJOVACÍ
  6
Continuous
100
AcDbLine
 10
80.37909296564521
 20
284.6752791001625
 30
0.0
 11
80.00051141653875
 21
284.2976277292171
 31
0.0
  0
LINE
  5
4A74
330
1F
100
AcDbEntity
  8
SPOJOVACÍ
  6
Continuous
100
AcDbLine
 10
80.37909296564521
 20
284.6752791001625
 30
0.0
 11
80.59675410169347
 21
284.2976277292171
 31
0.0
  0
LINE
  5
4A75
330
1F
100
AcDbEntity
  8
SPOJOVACÍ
  6
Continuous
100
AcDbLine
 10
81.13346553592327
 20
280.9285309957039
 30
0.0
 11
80.00051141653875
 21
284.2976277292171
 31
0.0
  0
LINE
  5
4A76
330
1F
100
AcDbEntity
  8
SPOJOVACÍ
  6
Continuous
100
AcDbLine
 10
81.72970822107799
 20
280.9285309957039
 30
0.0
 11
80.59675410169347
 21
284.2976277292171
 31
0.0
  0
LINE
  5
4A77
330
1F
100
AcDbEntity
  8
SPOJOVACÍ
  6
Continuous
100
AcDbLine
 10
81.35205684794982
 20
280.5499494474196
 30
0.0
 11
80.37909296564521
 21
284.6752791001625
 31
0.0
  0
LINE
  5
4A78
330
1F
100
AcDbEntity
  8
SPOJOVACÍ
  6
Continuous
100
AcDbLine
 10
78.33735709365192
 20
281.1145661535255
 30
0.0
 11
78.11969595760365
 21
281.4922175288364
 31
0.0
  0
LINE
  5
4A79
330
1F
100
AcDbEntity
  8
SPOJOVACÍ
  6
Continuous
100
AcDbLine
 10
78.33735709365192
 20
281.1145661535255
 30
0.0
 11
78.71593864275837
 21
281.4922175288364
 31
0.0
  0
LINE
  5
4A7A
330
1F
100
AcDbEntity
  8
SPOJOVACÍ
  6
Continuous
100
AcDbLine
 10
77.70390737688194
 20
284.2306550699566
 30
0.0
 11
77.32532582805197
 21
283.8530036990113
 31
0.0
  0
LINE
  5
4A7B
330
1F
100
AcDbEntity
  8
SPOJOVACÍ
  6
Continuous
100
AcDbLine
 10
77.70390737688194
 20
284.2306550699566
 30
0.0
 11
77.92156851293021
 21
283.8530036990113
 31
0.0
  0
LINE
  5
4A7C
330
1F
100
AcDbEntity
  8
SPOJOVACÍ
  6
Continuous
100
AcDbLine
 10
78.11969595760365
 20
281.4922175288364
 30
0.0
 11
77.32532582805197
 21
283.8530036990113
 31
0.0
  0
LINE
  5
4A7D
330
1F
100
AcDbEntity
  8
SPOJOVACÍ
  6
Continuous
100
AcDbLine
 10
78.71593864275837
 20
281.4922175288364
 30
0.0
 11
77.92156851293021
 21
283.8530036990113
 31
0.0
  0
LINE
  5
4A7E
330
1F
100
AcDbEntity
  8
SPOJOVACÍ
  6
Continuous
100
AcDbLine
 10
78.33735709365192
 20
281.1145661535255
 30
0.0
 11
77.70390737688194
 21
284.2306550699566
 31
0.0
  0
LINE
  5
4A7F
330
1F
100
AcDbEntity
  8
SPOJOVACÍ
  6
Continuous
100
AcDbLine
 10
75.32358751533229
 20
281.6791828639969
 30
0.0
 11
75.10499620331302
 21
282.0568342349423
 31
0.0
  0
LINE
  5
4A80
330
1F
100
AcDbEntity
  8
SPOJOVACÍ
  6
Continuous
100
AcDbLine
 10
75.32358751533229
 20
281.6791828639969
 30
0.0
 11
75.70123888846047
 21
282.0568342349423
 31
0.0
  0
LINE
  5
4A81
330
1F
100
AcDbEntity
  8
SPOJOVACÍ
  6
Continuous
100
AcDbLine
 10
75.01290879955831
 20
283.8334700054537
 30
0.0
 11
74.63432725072834
 21
283.4558186345083
 31
0.0
  0
LINE
  5
4A82
330
1F
100
AcDbEntity
  8
SPOJOVACÍ
  6
Continuous
100
AcDbLine
 10
75.01290879955831
 20
283.8334700054537
 30
0.0
 11
75.23056993587579
 21
283.4558186345083
 31
0.0
  0
LINE
  5
4A83
330
1F
100
AcDbEntity
  8
SPOJOVACÍ
  6
Continuous
100
AcDbLine
 10
75.10499620331302
 20
282.0568342349423
 30
0.0
 11
74.63432725072834
 21
283.4558186345083
 31
0.0
  0
LINE
  5
4A84
330
1F
100
AcDbEntity
  8
SPOJOVACÍ
  6
Continuous
100
AcDbLine
 10
75.70123888846047
 20
282.0568342349423
 30
0.0
 11
75.23056993587579
 21
283.4558186345083
 31
0.0
  0
LINE
  5
4A85
330
1F
100
AcDbEntity
  8
SPOJOVACÍ
  6
Continuous
100
AcDbLine
 10
75.32358751533229
 20
281.6791828639969
 30
0.0
 11
75.01290879955831
 21
283.8334700054537
 31
0.0
  0
LINE
  5
4A86
330
1F
100
AcDbEntity
  8
SPOJOVACÍ
  6
Continuous
100
AcDbLine
 10
90.66962779417281
 20
280.2960114529986
 30
0.0
 11
89.46970101771057
 21
285.0957185588475
 31
0.0
  0
LINE
  5
4A87
330
1F
100
AcDbEntity
  8
SPOJOVACÍ
  6
Continuous
100
AcDbLine
 10
90.66962779417281
 20
280.2960114529986
 30
0.0
 11
90.45103648214626
 21
280.6736628283096
 31
0.0
  0
LINE
  5
4A88
330
1F
100
AcDbEntity
  8
SPOJOVACÍ
  6
Continuous
100
AcDbLine
 10
90.66962779417281
 20
280.2960114529986
 30
0.0
 11
91.04727916730098
 21
280.6736628283096
 31
0.0
  0
LINE
  5
4A89
330
1F
100
AcDbEntity
  8
SPOJOVACÍ
  6
Continuous
100
AcDbLine
 10
89.46970101771057
 20
285.0957185588475
 30
0.0
 11
89.0911194688806
 21
284.7180671879021
 31
0.0
  0
LINE
  5
4A8A
330
1F
100
AcDbEntity
  8
SPOJOVACÍ
  6
Continuous
100
AcDbLine
 10
89.46970101771057
 20
285.0957185588475
 30
0.0
 11
89.68736215402804
 21
284.7180671879021
 31
0.0
  0
LINE
  5
4A8B
330
1F
100
AcDbEntity
  8
SPOJOVACÍ
  6
Continuous
100
AcDbLine
 10
90.45103648214626
 20
280.6736628283096
 30
0.0
 11
89.0911194688806
 21
284.7180671879021
 31
0.0
  0
LINE
  5
4A8C
330
1F
100
AcDbEntity
  8
SPOJOVACÍ
  6
Continuous
100
AcDbLine
 10
91.04727916730098
 20
280.6736628283096
 30
0.0
 11
89.68736215402804
 21
284.7180671879021
 31
0.0
  0
LINE
  5
4A8D
330
1F
100
AcDbEntity
  8
SPOJOVACÍ
  6
Continuous
100
AcDbLine
 10
87.54981817520365
 20
280.2960114529986
 30
0.0
 11
86.34989139874141
 21
285.0957185588475
 31
0.0
  0
LINE
  5
4A8E
330
1F
100
AcDbEntity
  8
SPOJOVACÍ
  6
Continuous
100
AcDbLine
 10
87.54981817520365
 20
280.2960114529986
 30
0.0
 11
87.33122686318438
 21
280.6736628283096
 31
0.0
  0
LINE
  5
4A8F
330
1F
100
AcDbEntity
  8
SPOJOVACÍ
  6
Continuous
100
AcDbLine
 10
87.54981817520365
 20
280.2960114529986
 30
0.0
 11
87.92746954833182
 21
280.6736628283096
 31
0.0
  0
LINE
  5
4A90
330
1F
100
AcDbEntity
  8
SPOJOVACÍ
  6
Continuous
100
AcDbLine
 10
86.34989139874141
 20
285.0957185588475
 30
0.0
 11
85.97130984991144
 21
284.7180671879021
 31
0.0
  0
LINE
  5
4A91
330
1F
100
AcDbEntity
  8
SPOJOVACÍ
  6
Continuous
100
AcDbLine
 10
86.34989139874141
 20
285.0957185588475
 30
0.0
 11
86.56755253478968
 21
284.7180671879021
 31
0.0
  0
LINE
  5
4A92
330
1F
100
AcDbEntity
  8
SPOJOVACÍ
  6
Continuous
100
AcDbLine
 10
87.33122686318438
 20
280.6736628283096
 30
0.0
 11
85.97130984991144
 21
284.7180671879021
 31
0.0
  0
LINE
  5
4A93
330
1F
100
AcDbEntity
  8
SPOJOVACÍ
  6
Continuous
100
AcDbLine
 10
87.92746954833182
 20
280.6736628283096
 30
0.0
 11
86.56755253478968
 21
284.7180671879021
 31
0.0
  0
LINE
  5
4A94
330
1F
100
AcDbEntity
  8
SPOJOVACÍ
  6
Continuous
100
AcDbLine
 10
84.42907838026348
 20
280.2960114529986
 30
0.0
 11
83.22915160380125
 21
285.0957185588475
 31
0.0
  0
LINE
  5
4A95
330
1F
100
AcDbEntity
  8
SPOJOVACÍ
  6
Continuous
100
AcDbLine
 10
84.42907838026348
 20
280.2960114529986
 30
0.0
 11
84.21141724421522
 21
280.6736628283096
 31
0.0
  0
LINE
  5
4A96
330
1F
100
AcDbEntity
  8
SPOJOVACÍ
  6
Continuous
100
AcDbLine
 10
84.42907838026348
 20
280.2960114529986
 30
0.0
 11
84.80765992936994
 21
280.6736628283096
 31
0.0
  0
LINE
  5
4A97
330
1F
100
AcDbEntity
  8
SPOJOVACÍ
  6
Continuous
100
AcDbLine
 10
83.22915160380125
 20
285.0957185588475
 30
0.0
 11
82.85150023067307
 21
284.7180671879021
 31
0.0
  0
LINE
  5
4A98
330
1F
100
AcDbEntity
  8
SPOJOVACÍ
  6
Continuous
100
AcDbLine
 10
83.22915160380125
 20
285.0957185588475
 30
0.0
 11
83.4477429158278
 21
284.7180671879021
 31
0.0
  0
LINE
  5
4A99
330
1F
100
AcDbEntity
  8
SPOJOVACÍ
  6
Continuous
100
AcDbLine
 10
84.21141724421522
 20
280.6736628283096
 30
0.0
 11
82.85150023067307
 21
284.7180671879021
 31
0.0
  0
LINE
  5
4A9A
330
1F
100
AcDbEntity
  8
SPOJOVACÍ
  6
Continuous
100
AcDbLine
 10
84.80765992936994
 20
280.6736628283096
 30
0.0
 11
83.4477429158278
 21
284.7180671879021
 31
0.0
  0
LINE
  5
4A9B
330
1F
100
AcDbEntity
  8
SPOJOVACÍ
  6
Continuous
100
AcDbLine
 10
55.37912218053225
 20
280.6736628283096
 30
0.0
 11
56.7390391940744
 21
284.7180671879021
 31
0.0
  0
LINE
  5
4A9C
330
1F
100
AcDbEntity
  8
SPOJOVACÍ
  6
Continuous
100
AcDbLine
 10
55.97536486568697
 20
280.6736628283096
 30
0.0
 11
57.33528187922911
 21
284.7180671879021
 31
0.0
  0
LINE
  5
4A9D
330
1F
100
AcDbEntity
  8
SPOJOVACÍ
  6
Continuous
100
AcDbLine
 10
56.95763050610094
 20
285.0957185588475
 30
0.0
 11
56.7390391940744
 21
284.7180671879021
 31
0.0
  0
LINE
  5
4A9E
330
1F
100
AcDbEntity
  8
SPOJOVACÍ
  6
Continuous
100
AcDbLine
 10
56.95763050610094
 20
285.0957185588475
 30
0.0
 11
57.33528187922911
 21
284.7180671879021
 31
0.0
  0
LINE
  5
4A9F
330
1F
100
AcDbEntity
  8
SPOJOVACÍ
  6
Continuous
100
AcDbLine
 10
55.7577037296387
 20
280.2960114529986
 30
0.0
 11
55.37912218053225
 21
280.6736628283096
 31
0.0
  0
LINE
  5
4AA0
330
1F
100
AcDbEntity
  8
SPOJOVACÍ
  6
Continuous
100
AcDbLine
 10
55.7577037296387
 20
280.2960114529986
 30
0.0
 11
55.97536486568697
 21
280.6736628283096
 31
0.0
  0
LINE
  5
4AA1
330
1F
100
AcDbEntity
  8
SPOJOVACÍ
  6
Continuous
100
AcDbLine
 10
55.7577037296387
 20
280.2960114529986
 30
0.0
 11
56.95763050610094
 21
285.0957185588475
 31
0.0
  0
LINE
  5
4AA2
330
1F
100
AcDbEntity
  8
SPOJOVACÍ
  6
Continuous
100
AcDbLine
 10
52.25931256157037
 20
280.6736628283096
 30
0.0
 11
53.61922957511251
 21
284.7180671879021
 31
0.0
  0
LINE
  5
4AA3
330
1F
100
AcDbEntity
  8
SPOJOVACÍ
  6
Continuous
100
AcDbLine
 10
52.85555524671782
 20
280.6736628283096
 30
0.0
 11
54.21547225999074
 21
284.7180671879021
 31
0.0
  0
LINE
  5
4AA4
330
1F
100
AcDbEntity
  8
SPOJOVACÍ
  6
Continuous
100
AcDbLine
 10
53.83689071116077
 20
285.0957185588475
 30
0.0
 11
53.61922957511251
 21
284.7180671879021
 31
0.0
  0
LINE
  5
4AA5
330
1F
100
AcDbEntity
  8
SPOJOVACÍ
  6
Continuous
100
AcDbLine
 10
53.83689071116077
 20
285.0957185588475
 30
0.0
 11
54.21547225999074
 21
284.7180671879021
 31
0.0
  0
LINE
  5
4AA6
330
1F
100
AcDbEntity
  8
SPOJOVACÍ
  6
Continuous
100
AcDbLine
 10
52.63696393469854
 20
280.2960114529986
 30
0.0
 11
52.25931256157037
 21
280.6736628283096
 31
0.0
  0
LINE
  5
4AA7
330
1F
100
AcDbEntity
  8
SPOJOVACÍ
  6
Continuous
100
AcDbLine
 10
52.63696393469854
 20
280.2960114529986
 30
0.0
 11
52.85555524671782
 21
280.6736628283096
 31
0.0
  0
LINE
  5
4AA8
330
1F
100
AcDbEntity
  8
SPOJOVACÍ
  6
Continuous
100
AcDbLine
 10
52.63696393469854
 20
280.2960114529986
 30
0.0
 11
53.83689071116077
 21
285.0957185588475
 31
0.0
  0
LINE
  5
4AA9
330
1F
100
AcDbEntity
  8
SPOJOVACÍ
  6
Continuous
100
AcDbLine
 10
49.13950294260121
 20
280.6736628283096
 30
0.0
 11
50.49941995587414
 21
284.7180671879021
 31
0.0
  0
LINE
  5
4AAA
330
1F
100
AcDbEntity
  8
SPOJOVACÍ
  6
Continuous
100
AcDbLine
 10
49.73574562775593
 20
280.6736628283096
 30
0.0
 11
51.09566264102159
 21
284.7180671879021
 31
0.0
  0
LINE
  5
4AAB
330
1F
100
AcDbEntity
  8
SPOJOVACÍ
  6
Continuous
100
AcDbLine
 10
50.71708109219162
 20
285.0957185588475
 30
0.0
 11
50.49941995587414
 21
284.7180671879021
 31
0.0
  0
LINE
  5
4AAC
330
1F
100
AcDbEntity
  8
SPOJOVACÍ
  6
Continuous
100
AcDbLine
 10
50.71708109219162
 20
285.0957185588475
 30
0.0
 11
51.09566264102159
 21
284.7180671879021
 31
0.0
  0
LINE
  5
4AAD
330
1F
100
AcDbEntity
  8
SPOJOVACÍ
  6
Continuous
100
AcDbLine
 10
49.51715431572939
 20
280.2960114529986
 30
0.0
 11
49.13950294260121
 21
280.6736628283096
 31
0.0
  0
LINE
  5
4AAE
330
1F
100
AcDbEntity
  8
SPOJOVACÍ
  6
Continuous
100
AcDbLine
 10
49.51715431572939
 20
280.2960114529986
 30
0.0
 11
49.73574562775593
 21
280.6736628283096
 31
0.0
  0
LINE
  5
4AAF
330
1F
100
AcDbEntity
  8
SPOJOVACÍ
  6
Continuous
100
AcDbLine
 10
49.51715431572939
 20
280.2960114529986
 30
0.0
 11
50.71708109219162
 21
285.0957185588475
 31
0.0
  0
LINE
  5
4AB0
330
1F
100
AcDbEntity
  8
SPOJOVACÍ
  6
Continuous
100
AcDbLine
 10
64.8631945945699
 20
281.6791828639969
 30
0.0
 11
65.17387331034388
 21
283.8334700054537
 31
0.0
  0
LINE
  5
4AB1
330
1F
100
AcDbEntity
  8
SPOJOVACÍ
  6
Continuous
100
AcDbLine
 10
64.48554322144173
 20
282.0568342349423
 30
0.0
 11
64.9562121740264
 21
283.4558186345083
 31
0.0
  0
LINE
  5
4AB2
330
1F
100
AcDbEntity
  8
SPOJOVACÍ
  6
Continuous
100
AcDbLine
 10
65.08178590658918
 20
282.0568342349423
 30
0.0
 11
65.55245485917385
 21
283.4558186345083
 31
0.0
  0
LINE
  5
4AB3
330
1F
100
AcDbEntity
  8
SPOJOVACÍ
  6
Continuous
100
AcDbLine
 10
65.17387331034388
 20
283.8334700054537
 30
0.0
 11
64.9562121740264
 21
283.4558186345083
 31
0.0
  0
LINE
  5
4AB4
330
1F
100
AcDbEntity
  8
SPOJOVACÍ
  6
Continuous
100
AcDbLine
 10
65.17387331034388
 20
283.8334700054537
 30
0.0
 11
65.55245485917385
 21
283.4558186345083
 31
0.0
  0
LINE
  5
4AB5
330
1F
100
AcDbEntity
  8
SPOJOVACÍ
  6
Continuous
100
AcDbLine
 10
64.8631945945699
 20
281.6791828639969
 30
0.0
 11
64.48554322144173
 21
282.0568342349423
 31
0.0
  0
LINE
  5
4AB6
330
1F
100
AcDbEntity
  8
SPOJOVACÍ
  6
Continuous
100
AcDbLine
 10
64.8631945945699
 20
281.6791828639969
 30
0.0
 11
65.08178590658918
 21
282.0568342349423
 31
0.0
  0
LINE
  5
4AB7
330
1F
100
AcDbEntity
  8
SPOJOVACÍ
  6
Continuous
100
AcDbLine
 10
61.84942501625028
 20
281.1145661535255
 30
0.0
 11
62.48287473302025
 21
284.2306550699566
 31
0.0
  0
LINE
  5
4AB8
330
1F
100
AcDbEntity
  8
SPOJOVACÍ
  6
Continuous
100
AcDbLine
 10
61.47084346714382
 20
281.4922175288364
 30
0.0
 11
62.26521359697199
 21
283.8530036990113
 31
0.0
  0
LINE
  5
4AB9
330
1F
100
AcDbEntity
  8
SPOJOVACÍ
  6
Continuous
100
AcDbLine
 10
62.06708615229854
 20
281.4922175288364
 30
0.0
 11
62.86145628185022
 21
283.8530036990113
 31
0.0
  0
LINE
  5
4ABA
330
1F
100
AcDbEntity
  8
SPOJOVACÍ
  6
Continuous
100
AcDbLine
 10
62.48287473302025
 20
284.2306550699566
 30
0.0
 11
62.26521359697199
 21
283.8530036990113
 31
0.0
  0
LINE
  5
4ABB
330
1F
100
AcDbEntity
  8
SPOJOVACÍ
  6
Continuous
100
AcDbLine
 10
62.48287473302025
 20
284.2306550699566
 30
0.0
 11
62.86145628185022
 21
283.8530036990113
 31
0.0
  0
LINE
  5
4ABC
330
1F
100
AcDbEntity
  8
SPOJOVACÍ
  6
Continuous
100
AcDbLine
 10
61.84942501625028
 20
281.1145661535255
 30
0.0
 11
61.47084346714382
 21
281.4922175288364
 31
0.0
  0
LINE
  5
4ABD
330
1F
100
AcDbEntity
  8
SPOJOVACÍ
  6
Continuous
100
AcDbLine
 10
61.84942501625028
 20
281.1145661535255
 30
0.0
 11
62.06708615229854
 21
281.4922175288364
 31
0.0
  0
LINE
  5
4ABE
330
1F
100
AcDbEntity
  8
SPOJOVACÍ
  6
Continuous
100
AcDbLine
 10
58.83472526195237
 20
280.5499494474196
 30
0.0
 11
59.80768914425699
 21
284.6752791001625
 31
0.0
  0
LINE
  5
4ABF
330
1F
100
AcDbEntity
  8
SPOJOVACÍ
  6
Continuous
100
AcDbLine
 10
58.4570738888242
 20
280.9285309957039
 30
0.0
 11
59.59002800820872
 21
284.2976277292171
 31
0.0
  0
LINE
  5
4AC0
330
1F
100
AcDbEntity
  8
SPOJOVACÍ
  6
Continuous
100
AcDbLine
 10
59.05331657397892
 20
280.9285309957039
 30
0.0
 11
60.18627069336344
 21
284.2976277292171
 31
0.0
  0
LINE
  5
4AC1
330
1F
100
AcDbEntity
  8
SPOJOVACÍ
  6
Continuous
100
AcDbLine
 10
59.80768914425699
 20
284.6752791001625
 30
0.0
 11
59.59002800820872
 21
284.2976277292171
 31
0.0
  0
LINE
  5
4AC2
330
1F
100
AcDbEntity
  8
SPOJOVACÍ
  6
Continuous
100
AcDbLine
 10
59.80768914425699
 20
284.6752791001625
 30
0.0
 11
60.18627069336344
 21
284.2976277292171
 31
0.0
  0
LINE
  5
4AC3
330
1F
100
AcDbEntity
  8
SPOJOVACÍ
  6
Continuous
100
AcDbLine
 10
58.83472526195237
 20
280.5499494474196
 30
0.0
 11
58.4570738888242
 21
280.9285309957039
 31
0.0
  0
LINE
  5
4AC4
330
1F
100
AcDbEntity
  8
SPOJOVACÍ
  6
Continuous
100
AcDbLine
 10
58.83472526195237
 20
280.5499494474196
 30
0.0
 11
59.05331657397892
 21
280.9285309957039
 31
0.0
  0
LINE
  5
4AC5
330
1F
100
AcDbEntity
  8
SPOJOVACÍ
  6
Continuous
100
AcDbLine
 10
46.01969332336284
 20
280.6736628283096
 30
0.0
 11
47.37868016120319
 21
284.7180671879021
 31
0.0
  0
LINE
  5
4AC6
330
1F
100
AcDbEntity
  8
SPOJOVACÍ
  6
Continuous
100
AcDbLine
 10
46.61593600851756
 20
280.6736628283096
 30
0.0
 11
47.97492284608142
 21
284.7180671879021
 31
0.0
  0
LINE
  5
4AC7
330
1F
100
AcDbEntity
  8
SPOJOVACÍ
  6
Continuous
100
AcDbLine
 10
47.59727147322974
 20
285.0957185588475
 30
0.0
 11
47.37868016120319
 21
284.7180671879021
 31
0.0
  0
LINE
  5
4AC8
330
1F
100
AcDbEntity
  8
SPOJOVACÍ
  6
Continuous
100
AcDbLine
 10
47.59727147322974
 20
285.0957185588475
 30
0.0
 11
47.97492284608142
 21
284.7180671879021
 31
0.0
  0
LINE
  5
4AC9
330
1F
100
AcDbEntity
  8
SPOJOVACÍ
  6
Continuous
100
AcDbLine
 10
46.39734469649101
 20
280.2960114529986
 30
0.0
 11
46.01969332336284
 21
280.6736628283096
 31
0.0
  0
LINE
  5
4ACA
330
1F
100
AcDbEntity
  8
SPOJOVACÍ
  6
Continuous
100
AcDbLine
 10
46.39734469649101
 20
280.2960114529986
 30
0.0
 11
46.61593600851756
 21
280.6736628283096
 31
0.0
  0
LINE
  5
4ACB
330
1F
100
AcDbEntity
  8
SPOJOVACÍ
  6
Continuous
100
AcDbLine
 10
46.39734469649101
 20
280.2960114529986
 30
0.0
 11
47.59727147322974
 21
285.0957185588475
 31
0.0
  0
LINE
  5
4ACC
330
1F
100
AcDbEntity
  8
SPOJOVACÍ
  6
Continuous
100
AcDbLine
 10
42.89895352869916
 20
280.6736628283096
 30
0.0
 11
44.25887054196482
 21
284.7180671879021
 31
0.0
  0
LINE
  5
4ACD
330
1F
100
AcDbEntity
  8
SPOJOVACÍ
  6
Continuous
100
AcDbLine
 10
43.4951962135774
 20
280.6736628283096
 30
0.0
 11
44.85511322711954
 21
284.7180671879021
 31
0.0
  0
LINE
  5
4ACE
330
1F
100
AcDbEntity
  8
SPOJOVACÍ
  6
Continuous
100
AcDbLine
 10
44.47746185399137
 20
285.0957185588475
 30
0.0
 11
44.25887054196482
 21
284.7180671879021
 31
0.0
  0
LINE
  5
4ACF
330
1F
100
AcDbEntity
  8
SPOJOVACÍ
  6
Continuous
100
AcDbLine
 10
44.47746185399137
 20
285.0957185588475
 30
0.0
 11
44.85511322711954
 21
284.7180671879021
 31
0.0
  0
LINE
  5
4AD0
330
1F
100
AcDbEntity
  8
SPOJOVACÍ
  6
Continuous
100
AcDbLine
 10
43.27753507752913
 20
280.2960114529986
 30
0.0
 11
42.89895352869916
 21
280.6736628283096
 31
0.0
  0
LINE
  5
4AD1
330
1F
100
AcDbEntity
  8
SPOJOVACÍ
  6
Continuous
100
AcDbLine
 10
43.27753507752913
 20
280.2960114529986
 30
0.0
 11
43.4951962135774
 21
280.6736628283096
 31
0.0
  0
LINE
  5
4AD2
330
1F
100
AcDbEntity
  8
SPOJOVACÍ
  6
Continuous
100
AcDbLine
 10
43.27753507752913
 20
280.2960114529986
 30
0.0
 11
44.47746185399137
 21
285.0957185588475
 31
0.0
  0
LINE
  5
4AD3
330
1F
100
AcDbEntity
  8
SPOJOVACÍ
  6
Continuous
100
AcDbLine
 10
59.41329460685938
 20
283.7999836780062
 30
0.0
 11
57.44225209557317
 21
284.0455500894739
 31
0.0
  0
LINE
  5
4AD4
330
1F
100
AcDbEntity
  8
SPOJOVACÍ
  6
Continuous
100
AcDbLine
 10
62.12010617275791
 20
283.4613996854449
 30
0.0
 11
59.98349236990453
 21
283.7283601407824
 31
0.0
  0
LINE
  5
4AD5
330
1F
100
AcDbEntity
  8
SPOJOVACÍ
  6
Continuous
100
AcDbLine
 10
64.83714967219111
 20
283.1218855242758
 30
0.0
 11
62.69216428720665
 21
283.3897761525867
 31
0.0
  0
LINE
  5
4AD6
330
1F
100
AcDbEntity
  8
SPOJOVACÍ
  6
Continuous
100
AcDbLine
 10
65.15340944272157
 20
282.3098420520244
 30
0.0
 11
68.24252326052647
 21
282.6958650059231
 31
0.0
  0
LINE
  5
4AD7
330
1F
100
AcDbEntity
  8
SPOJOVACÍ
  6
Continuous
100
AcDbLine
 10
62.21219357651261
 20
281.9424226143445
 30
0.0
 11
64.53298218686814
 21
282.2326374594985
 31
0.0
  0
LINE
  5
4AD8
330
1F
100
AcDbEntity
  8
SPOJOVACÍ
  6
Continuous
100
AcDbLine
 10
59.25981560078344
 20
281.5731428219868
 30
0.0
 11
61.58153438684803
 21
281.8633576715063
 31
0.0
  0
LINE
  5
4AD9
330
1F
100
AcDbEntity
  8
SPOJOVACÍ
  6
Continuous
100
AcDbLine
 10
68.24252326052647
 20
282.6958650059231
 30
0.0
 11
65.40641725925798
 21
283.050261987052
 31
0.0
  0
LINE
  5
4ADA
330
1F
100
AcDbEntity
  8
SPOJOVACÍ
  6
Continuous
100
AcDbLine
 10
57.44225209557317
 20
281.3461799267378
 30
0.0
 11
58.63938834493001
 21
281.4959382294608
 31
0.0
  0
LINE
  5
4ADB
330
1F
100
AcDbEntity
  8
SPOJOVACÍ
  6
Continuous
100
AcDbLine
 10
57.10552845768962
 20
284.0455500894739
 30
0.0
 11
57.44225209557317
 21
284.0455500894739
 31
0.0
  0
LINE
  5
4ADC
330
1F
100
AcDbEntity
  8
SPOJOVACÍ
  6
Continuous
100
AcDbLine
 10
53.98292831107665
 20
284.0455500894739
 30
0.0
 11
56.50184436610562
 21
284.0455500894739
 31
0.0
  0
LINE
  5
4ADD
330
1F
100
AcDbEntity
  8
SPOJOVACÍ
  6
Continuous
100
AcDbLine
 10
56.19488635368452
 20
281.3461799267378
 30
0.0
 11
57.44225209557317
 21
281.3461799267378
 31
0.0
  0
LINE
  5
4ADE
330
1F
100
AcDbEntity
  8
SPOJOVACÍ
  6
Continuous
100
AcDbLine
 10
53.08065778920263
 20
281.3461799267378
 30
0.0
 11
55.59864366852981
 21
281.3461799267378
 31
0.0
  0
LINE
  5
4ADF
330
1F
100
AcDbEntity
  8
SPOJOVACÍ
  6
Continuous
100
AcDbLine
 10
50.86125834043468
 20
284.0455500894739
 30
0.0
 11
53.38203474714373
 21
284.0455500894739
 31
0.0
  0
LINE
  5
4AE0
330
1F
100
AcDbEntity
  8
SPOJOVACÍ
  6
Continuous
100
AcDbLine
 10
47.73865819409093
 20
284.0455500894739
 30
0.0
 11
50.26687600696004
 21
284.0455500894739
 31
0.0
  0
LINE
  5
4AE1
330
1F
100
AcDbEntity
  8
SPOJOVACÍ
  6
Continuous
100
AcDbLine
 10
44.62349945390724
 20
284.0455500894739
 30
0.0
 11
47.1424155089362
 21
284.0455500894739
 31
0.0
  0
LINE
  5
4AE2
330
1F
100
AcDbEntity
  8
SPOJOVACÍ
  6
Continuous
100
AcDbLine
 10
49.94782570904772
 20
281.3461799267378
 30
0.0
 11
52.47604352191683
 21
281.3461799267378
 31
0.0
  0
LINE
  5
4AE3
330
1F
100
AcDbEntity
  8
SPOJOVACÍ
  6
Continuous
100
AcDbLine
 10
46.83266696886403
 20
281.3461799267378
 30
0.0
 11
49.35344337557308
 21
281.3461799267378
 31
0.0
  0
LINE
  5
4AE4
330
1F
100
AcDbEntity
  8
SPOJOVACÍ
  6
Continuous
100
AcDbLine
 10
43.71006682252027
 20
281.3461799267378
 30
0.0
 11
46.22898287754924
 21
281.3461799267378
 31
0.0
  0
LINE
  5
4AE5
330
1F
100
AcDbEntity
  8
SPOJOVACÍ
  6
Continuous
100
AcDbLine
 10
39.07686118366382
 20
281.3461799267378
 30
0.0
 11
43.11475431334383
 21
281.3461799267378
 31
0.0
  0
LINE
  5
4AE6
330
1F
100
AcDbEntity
  8
SPOJOVACÍ
  6
Continuous
100
AcDbLine
 10
39.07686118366382
 20
284.0455500894739
 30
0.0
 11
44.01981536259245
 21
284.0455500894739
 31
0.0
  0
LINE
  5
4AE7
330
1F
100
AcDbEntity
  8
SPOJOVACÍ
  6
Continuous
100
AcDbLine
 10
33.67719068930728
 20
277.5957111172891
 30
0.0
 11
34.42133132578146
 21
278.94539620084
 31
0.0
  0
LINE
  5
4AE8
330
1F
100
AcDbEntity
  8
SPOJOVACÍ
  6
Continuous
100
AcDbLine
 10
34.42133132578146
 20
278.94539620084
 30
0.0
 11
35.49010331519366
 21
280.0560261011986
 31
0.0
  0
LINE
  5
4AE9
330
1F
100
AcDbEntity
  8
SPOJOVACÍ
  6
Continuous
100
AcDbLine
 10
35.49010331519366
 20
280.0560261011986
 30
0.0
 11
36.80909259349118
 21
280.8522565805168
 31
0.0
  0
LINE
  5
4AEA
330
1F
100
AcDbEntity
  8
SPOJOVACÍ
  6
Continuous
100
AcDbLine
 10
36.80909259349118
 20
280.8522565805168
 30
0.0
 11
38.28993246054142
 21
281.2801374448162
 31
0.0
  0
LINE
  5
4AEB
330
1F
100
AcDbEntity
  8
SPOJOVACÍ
  6
Continuous
100
AcDbLine
 10
38.28993246054142
 20
281.2801374448162
 30
0.0
 11
39.07686118366382
 21
281.3461799267378
 31
0.0
  0
LINE
  5
4AEC
330
1F
100
AcDbEntity
  8
SPOJOVACÍ
  6
Continuous
100
AcDbLine
 10
34.93199783763248
 20
285.8435798994895
 30
0.0
 11
34.01391432719083
 21
287.0807137083892
 31
0.0
  0
LINE
  5
4AED
330
1F
100
AcDbEntity
  8
SPOJOVACÍ
  6
Continuous
100
AcDbLine
 10
34.01391432719083
 20
287.0807137083892
 30
0.0
 11
33.67719068930728
 21
287.796018894557
 31
0.0
  0
LINE
  5
4AEE
330
1F
100
AcDbEntity
  8
SPOJOVACÍ
  6
Continuous
100
AcDbLine
 10
33.67719068930728
 20
277.5957111172891
 30
0.0
 11
33.67719068930728
 21
287.796018894557
 31
0.0
  0
LINE
  5
4AEF
330
1F
100
AcDbEntity
  8
SPOJOVACÍ
  6
Continuous
100
AcDbLine
 10
32.47726391257583
 20
277.5957111172891
 30
0.0
 11
33.67719068930728
 21
277.5957111172891
 31
0.0
  0
LINE
  5
4AF0
330
1F
100
AcDbEntity
  8
SPOJOVACÍ
  6
Continuous
100
AcDbLine
 10
32.47726391257583
 20
277.5957111172891
 30
0.0
 11
32.47726391257583
 21
287.796018894557
 31
0.0
  0
LINE
  5
4AF1
330
1F
100
AcDbEntity
  8
SPOJOVACÍ
  6
Continuous
100
AcDbLine
 10
32.47726391257583
 20
287.796018894557
 30
0.0
 11
33.67719068930728
 21
287.796018894557
 31
0.0
  0
LINE
  5
4AF2
330
1F
100
AcDbEntity
  8
SPOJOVACÍ
  6
Continuous
100
AcDbLine
 10
39.07686118366382
 20
284.0455500894739
 30
0.0
 11
37.55323323023458
 21
284.2725129803574
 31
0.0
  0
LINE
  5
4AF3
330
1F
100
AcDbEntity
  8
SPOJOVACÍ
  6
Continuous
100
AcDbLine
 10
37.55323323023458
 20
284.2725129803574
 30
0.0
 11
36.13936602053127
 21
284.885498829505
 31
0.0
  0
LINE
  5
4AF4
330
1F
100
AcDbEntity
  8
SPOJOVACÍ
  6
Continuous
100
AcDbLine
 10
36.13936602053127
 20
284.885498829505
 30
0.0
 11
34.93199783763248
 21
285.8435798994895
 31
0.0
  0
LINE
  5
4AF5
330
1F
100
AcDbEntity
  8
POPIS
100
AcDbLine
 10
175.5901028828548
 20
93.21891754291835
 30
0.0
 11
117.8148517373801
 21
44.19708455373881
 31
0.0
  0
LINE
  5
4AF6
330
1F
100
AcDbEntity
  8
POPIS
100
AcDbLine
 10
177.8393559182977
 20
133.6549516098847
 30
0.0
 11
93.58012124008292
 21
49.73122019454592
 31
0.0
  0
TEXT
  5
4AF7
330
1F
100
AcDbEntity
  8
POPIS
100
AcDbText
 10
182.9480743127851
 20
120.9625568711393
 30
0.0
 40
25.0
  1
05
 41
0.85
  7
SIMPLEX7
100
AcDbText
  0
TEXT
  5
4AF8
330
1F
100
AcDbEntity
  8
POPIS
100
AcDbText
 10
182.9480743127851
 20
81.82914549726172
 30
0.0
 40
25.0
  1
06
 41
0.85
  7
SIMPLEX7
100
AcDbText
  0
INSERT
  5
4AF9
330
1F
100
AcDbEntity
  8
POPIS
100
AcDbBlockReference
  2
E_PUNKT
 10
93.55115961707179
 20
48.39477588462239
 30
0.0
 50
270.0
  0
INSERT
  5
4AFA
330
1F
100
AcDbEntity
  8
POPIS
100
AcDbBlockReference
  2
E_PUNKT
 10
119.0357834065062
 20
44.22469492936568
 30
0.0
 50
270.0
  0
INSERT
  5
4AFB
330
1F
100
AcDbEntity
  8
POPIS
100
AcDbBlockReference
  2
E_PUNKT
 10
58.48368288153051
 20
-0.8994491714512378
 30
0.0
 50
270.0
  0
INSERT
  5
4AFC
330
1F
100
AcDbEntity
  8
POPIS
100
AcDbBlockReference
  2
E_PUNKT
 10
71.08546750474397
 20
-24.2357323544312
 30
0.0
 50
270.0
  0
LINE
  5
4AFD
330
1F
100
AcDbEntity
  8
POPIS
100
AcDbLine
 10
58.51275121240451
 20
-0.9270595470781017
 30
0.0
 11
-25.03275402955205
 21
-56.98292261001654
 31
0.0
  0
LINE
  5
4AFE
330
1F
100
AcDbEntity
  8
POPIS
100
AcDbLine
 10
71.11453583561797
 20
-24.26334273005807
 30
0.0
 11
173.9031490050792
 21
-58.15077560439852
 31
0.0
  0
TEXT
  5
4AFF
330
1F
100
AcDbEntity
  8
POPIS
100
AcDbText
 10
-62.83622102604659
 20
-69.81277128616295
 30
0.0
 40
25.0
  1
07
 41
0.85
  7
SIMPLEX7
100
AcDbText
  0
TEXT
  5
4B00
330
1F
100
AcDbEntity
  8
POPIS
100
AcDbText
 10
182.9480743127851
 20
-69.81277128616295
 30
0.0
 40
25.0
  1
08
 41
0.85
  7
SIMPLEX7
100
AcDbText
  0
LINE
  5
4B01
330
1F
100
AcDbEntity
  8
STAVBA OBRYS
100
AcDbLine
 10
319.1371980891663
 20
51.36632240590813
 30
0.0
 11
319.1371980891663
 21
58.41479509736643
 31
0.0
  0
LINE
  5
4B02
330
1F
100
AcDbEntity
  8
STAVBA OBRYS
100
AcDbLine
 10
108.5266356449456
 20
51.36632240590813
 30
0.0
 11
107.7095181973263
 21
51.36632240590813
 31
0.0
  0
LINE
  5
4B03
330
1F
100
AcDbEntity
  8
STAVBA OBRYS
100
AcDbLine
 10
110.6391071117859
 20
60.69152218156784
 30
0.0
 11
110.5787540072951
 21
58.41479509736643
 31
0.0
  0
LINE
  5
4B04
330
1F
100
AcDbEntity
  8
STAVBA OBRYS
100
AcDbLine
 10
115.6842316369466
 20
60.69152218156784
 30
0.0
 11
115.6842316369466
 21
58.41479509736643
 31
0.0
  0
LINE
  5
4B05
330
1F
100
AcDbEntity
  8
STAVBA OBRYS
100
AcDbLine
 10
110.6391071117859
 20
92.68914643292635
 30
0.0
 11
107.7095181973263
 21
92.68914643292635
 31
0.0
  0
LWPOLYLINE
  5
4B06
330
1F
100
AcDbEntity
  8
STAVBA OBRYS
100
AcDbPolyline
 90
        4
 70
     1
 43
0.0
 10
110.6391071117859
 20
60.69152218156784
 10
115.6842316369466
 20
60.69152218156784
 10
115.6842316369466
 20
92.68914643292635
 10
110.6391071117859
 20
92.68914643292635
  0
LINE
  5
4B07
330
1F
100
AcDbEntity
  8
STAVBA OBRYS
100
AcDbLine
 10
318.2702567657242
 20
58.41479509736643
 30
0.0
 11
318.2702567657279
 21
53.41479509736643
 31
0.0
  0
LINE
  5
4B08
330
1F
100
AcDbEntity
  8
STAVBA OBRYS
100
AcDbLine
 10
314.2922926043347
 20
58.41479509736643
 30
0.0
 11
319.1371980891699
 21
58.41479509736643
 31
0.0
  0
LINE
  5
4B09
330
1F
100
AcDbEntity
  8
STAVBA OBRYS
100
AcDbLine
 10
214.2922926043347
 20
58.41479509736643
 30
0.0
 11
210.5787540072951
 21
58.41479509736643
 31
0.0
  0
LWPOLYLINE
  5
4B0A
330
1F
100
AcDbEntity
  8
STAVBA OBRYS
100
AcDbPolyline
 90
        4
 70
     1
 43
0.0
 10
214.2922926043347
 20
53.41479509736643
 10
314.2922926043347
 20
53.41479509736643
 10
314.2922926043347
 20
58.41479509736643
 10
214.2922926043347
 20
58.41479509736643
  0
LWPOLYLINE
  5
4B0B
330
1F
100
AcDbEntity
  8
STAVBA OBRYS
100
AcDbPolyline
 90
        4
 70
     1
 43
0.0
 10
110.5787540072951
 20
53.41479509736643
 10
210.5787540072951
 20
53.41479509736643
 10
210.5787540072951
 20
58.41479509736643
 10
110.5787540072951
 20
58.41479509736643
  0
LINE
  5
4B0C
330
1F
100
AcDbEntity
  8
STAVBA OBRYS
100
AcDbLine
 10
319.1371980891663
 20
53.41479509736643
 30
0.0
 11
110.5787540072951
 21
53.41479509736643
 31
0.0
  0
LINE
  5
4B0D
330
1F
100
AcDbEntity
  8
STAVBA OBRYS
100
AcDbLine
 10
123.5266356449455
 20
51.36632240590813
 30
0.0
 11
319.1371980891663
 21
51.36632240590813
 31
0.0
  0
LWPOLYLINE
  5
4B0E
330
1F
100
AcDbEntity
  8
STAVBA OBRYS
100
AcDbPolyline
 90
        4
 70
     1
 43
0.0
 10
31.94238992619193
 20
51.36632240590813
 10
16.94238992619193
 20
51.36632240590813
 10
16.94238992619193
 20
-2.633677594091864
 10
31.94238992619193
 20
-2.633677594091864
  0
LINE
  5
4B0F
330
1F
100
AcDbEntity
  8
STAVBA OBRYS
  6
IZOLACE
 48
0.7
100
AcDbLine
 10
24.44238992619193
 20
51.36632240590813
 30
0.0
 11
24.44238992619193
 21
-2.633677594091864
 31
0.0
  0
LINE
  5
4B10
330
1F
100
AcDbEntity
  8
STAVBA OBRYS
  6
IZOLACE
 48
0.7
100
AcDbLine
 10
116.0266356449455
 20
51.36632240590813
 30
0.0
 11
116.0266356449455
 21
-2.633677594091864
 31
0.0
  0
LINE
  5
4B11
330
1F
100
AcDbEntity
  8
STAVBA OBRYS
100
AcDbLine
 10
123.5266356449455
 20
27.36632240590813
 30
0.0
 11
319.1371980891663
 21
27.36632240590813
 31
0.0
  0
LINE
  5
4B12
330
1F
100
AcDbEntity
  8
STAVBA OBRYS
  6
IZOLACE
 48
1.5
100
AcDbLine
 10
123.5266356449455
 20
12.36632240590813
 30
0.0
 11
319.1371980891663
 21
12.36632240590813
 31
0.0
  0
LINE
  5
4B13
330
1F
100
AcDbEntity
  8
STAVBA OBRYS
100
AcDbLine
 10
123.5266356449455
 20
39.36632240590813
 30
0.0
 11
319.1371980891663
 21
39.36632240590813
 31
0.0
  0
LWPOLYLINE
  5
4B14
330
1F
100
AcDbEntity
  8
STAVBA OBRYS
100
AcDbPolyline
 90
        4
 70
     1
 43
0.0
 10
108.5266356449456
 20
51.36632240590813
 10
123.5266356449455
 20
51.36632240590813
 10
123.5266356449455
 20
-2.633677594091864
 10
108.5266356449456
 20
-2.633677594091864
  0
LINE
  5
4B15
330
1F
100
AcDbEntity
  8
STAVBA OBRYS
100
AcDbLine
 10
-80.13558967115841
 20
51.36632240590813
 30
0.0
 11
31.94238992619193
 21
51.36632240590813
 31
0.0
  0
LINE
  5
4B16
330
1F
100
AcDbEntity
  8
STAVBA OBRYS
100
AcDbLine
 10
-80.13558967115841
 20
39.36632240590813
 30
0.0
 11
16.94238992619193
 21
39.36632240590813
 31
0.0
  0
LINE
  5
4B17
330
1F
100
AcDbEntity
  8
STAVBA OBRYS
  6
IZOLACE
 48
1.5
100
AcDbLine
 10
-80.13558967115841
 20
12.36632240590813
 30
0.0
 11
16.94238992619193
 21
12.36632240590813
 31
0.0
  0
LINE
  5
4B18
330
1F
100
AcDbEntity
  8
STAVBA OBRYS
100
AcDbLine
 10
-80.13558967115841
 20
27.36632240590813
 30
0.0
 11
16.94238992619193
 21
27.36632240590813
 31
0.0
  0
LINE
  5
4B19
330
1F
100
AcDbEntity
  8
STAVBA OBRYS
100
AcDbLine
 10
-80.13558967115841
 20
-2.633677594091864
 30
0.0
 11
319.1371980891663
 21
-2.633677594091864
 31
0.0
  0
LINE
  5
4B1A
330
1F
100
AcDbEntity
  8
CETRIS
100
AcDbLine
 10
95.70951819732636
 20
1.765916935276322
 30
0.0
 11
107.7095181973263
 21
1.76591693527996
 31
0.0
  0
LINE
  5
4B1B
330
1F
100
AcDbEntity
  8
CETRIS
100
AcDbLine
 10
32.47726391257583
 20
1.765916935276322
 30
0.0
 11
44.47726391257583
 21
1.765916935276322
 31
0.0
  0
LINE
  5
4B1C
330
1F
100
AcDbEntity
  8
izolace
  6
IZOLACE
 48
1.5
100
AcDbLine
 10
70.23451278556876
 20
4.007356971086551
 30
0.0
 11
70.23451278556876
 21
336.8260011923656
 31
0.0
  0
LINE
  5
4B1D
330
1F
100
AcDbEntity
  8
NOSNÉ KONSTRUKCE
100
AcDbLine
 10
50.26530040140551
 20
2.318177868523775
 30
0.0
 11
50.26530040139824
 21
333.1480695282292
 31
0.0
  0
LINE
  5
4B1E
330
1F
100
AcDbEntity
  8
NOSNÉ KONSTRUKCE
100
AcDbLine
 10
89.61895684195315
 20
2.318177868523775
 30
0.0
 11
89.61895684194951
 21
340.3962301635978
 31
0.0
  0
LINE
  5
4B1F
330
1F
100
AcDbEntity
  8
SPOJOVACÍ
  6
Continuous
100
AcDbLine
 10
84.80765992936994
 20
30.6736628283096
 30
0.0
 11
83.4477429158278
 21
34.71806718790219
 31
0.0
  0
LINE
  5
4B20
330
1F
100
AcDbEntity
  8
SPOJOVACÍ
  6
Continuous
100
AcDbLine
 10
84.21141724421522
 20
30.6736628283096
 30
0.0
 11
82.85150023067307
 21
34.71806718790219
 31
0.0
  0
LINE
  5
4B21
330
1F
100
AcDbEntity
  8
SPOJOVACÍ
  6
Continuous
100
AcDbLine
 10
83.22915160380125
 20
35.09571855884757
 30
0.0
 11
83.4477429158278
 21
34.71806718790219
 31
0.0
  0
LINE
  5
4B22
330
1F
100
AcDbEntity
  8
SPOJOVACÍ
  6
Continuous
100
AcDbLine
 10
83.22915160380125
 20
35.09571855884757
 30
0.0
 11
82.85150023067307
 21
34.71806718790219
 31
0.0
  0
LINE
  5
4B23
330
1F
100
AcDbEntity
  8
SPOJOVACÍ
  6
Continuous
100
AcDbLine
 10
84.42907838026348
 20
30.29601145299864
 30
0.0
 11
84.80765992936994
 21
30.6736628283096
 31
0.0
  0
LINE
  5
4B24
330
1F
100
AcDbEntity
  8
SPOJOVACÍ
  6
Continuous
100
AcDbLine
 10
84.42907838026348
 20
30.29601145299864
 30
0.0
 11
84.21141724421522
 21
30.6736628283096
 31
0.0
  0
LINE
  5
4B25
330
1F
100
AcDbEntity
  8
SPOJOVACÍ
  6
Continuous
100
AcDbLine
 10
84.42907838026348
 20
30.29601145299864
 30
0.0
 11
83.22915160380125
 21
35.09571855884757
 31
0.0
  0
LINE
  5
4B26
330
1F
100
AcDbEntity
  8
SPOJOVACÍ
  6
Continuous
100
AcDbLine
 10
87.92746954833182
 20
30.6736628283096
 30
0.0
 11
86.56755253478968
 21
34.71806718790219
 31
0.0
  0
LINE
  5
4B27
330
1F
100
AcDbEntity
  8
SPOJOVACÍ
  6
Continuous
100
AcDbLine
 10
87.33122686318438
 20
30.6736628283096
 30
0.0
 11
85.97130984991144
 21
34.71806718790219
 31
0.0
  0
LINE
  5
4B28
330
1F
100
AcDbEntity
  8
SPOJOVACÍ
  6
Continuous
100
AcDbLine
 10
86.34989139874141
 20
35.09571855884757
 30
0.0
 11
86.56755253478968
 21
34.71806718790219
 31
0.0
  0
LINE
  5
4B29
330
1F
100
AcDbEntity
  8
SPOJOVACÍ
  6
Continuous
100
AcDbLine
 10
86.34989139874141
 20
35.09571855884757
 30
0.0
 11
85.97130984991144
 21
34.71806718790219
 31
0.0
  0
LINE
  5
4B2A
330
1F
100
AcDbEntity
  8
SPOJOVACÍ
  6
Continuous
100
AcDbLine
 10
87.54981817520365
 20
30.29601145299864
 30
0.0
 11
87.92746954833182
 21
30.6736628283096
 31
0.0
  0
LINE
  5
4B2B
330
1F
100
AcDbEntity
  8
SPOJOVACÍ
  6
Continuous
100
AcDbLine
 10
87.54981817520365
 20
30.29601145299864
 30
0.0
 11
87.33122686318438
 21
30.6736628283096
 31
0.0
  0
LINE
  5
4B2C
330
1F
100
AcDbEntity
  8
SPOJOVACÍ
  6
Continuous
100
AcDbLine
 10
87.54981817520365
 20
30.29601145299864
 30
0.0
 11
86.34989139874141
 21
35.09571855884757
 31
0.0
  0
LINE
  5
4B2D
330
1F
100
AcDbEntity
  8
SPOJOVACÍ
  6
Continuous
100
AcDbLine
 10
91.04727916730098
 20
30.6736628283096
 30
0.0
 11
89.68736215402804
 21
34.71806718790219
 31
0.0
  0
LINE
  5
4B2E
330
1F
100
AcDbEntity
  8
SPOJOVACÍ
  6
Continuous
100
AcDbLine
 10
90.45103648214626
 20
30.6736628283096
 30
0.0
 11
89.0911194688806
 21
34.71806718790219
 31
0.0
  0
LINE
  5
4B2F
330
1F
100
AcDbEntity
  8
SPOJOVACÍ
  6
Continuous
100
AcDbLine
 10
89.46970101771057
 20
35.09571855884757
 30
0.0
 11
89.68736215402804
 21
34.71806718790219
 31
0.0
  0
LINE
  5
4B30
330
1F
100
AcDbEntity
  8
SPOJOVACÍ
  6
Continuous
100
AcDbLine
 10
89.46970101771057
 20
35.09571855884757
 30
0.0
 11
89.0911194688806
 21
34.71806718790219
 31
0.0
  0
LINE
  5
4B31
330
1F
100
AcDbEntity
  8
SPOJOVACÍ
  6
Continuous
100
AcDbLine
 10
90.66962779417281
 20
30.29601145299864
 30
0.0
 11
91.04727916730098
 21
30.6736628283096
 31
0.0
  0
LINE
  5
4B32
330
1F
100
AcDbEntity
  8
SPOJOVACÍ
  6
Continuous
100
AcDbLine
 10
90.66962779417281
 20
30.29601145299864
 30
0.0
 11
90.45103648214626
 21
30.6736628283096
 31
0.0
  0
LINE
  5
4B33
330
1F
100
AcDbEntity
  8
SPOJOVACÍ
  6
Continuous
100
AcDbLine
 10
90.66962779417281
 20
30.29601145299864
 30
0.0
 11
89.46970101771057
 21
35.09571855884757
 31
0.0
  0
LINE
  5
4B34
330
1F
100
AcDbEntity
  8
SPOJOVACÍ
  6
Continuous
100
AcDbLine
 10
75.32358751533229
 20
31.67918286399697
 30
0.0
 11
75.01290879955831
 21
33.8334700054537
 31
0.0
  0
LINE
  5
4B35
330
1F
100
AcDbEntity
  8
SPOJOVACÍ
  6
Continuous
100
AcDbLine
 10
75.70123888846047
 20
32.05683423494235
 30
0.0
 11
75.23056993587579
 21
33.45581863450831
 31
0.0
  0
LINE
  5
4B36
330
1F
100
AcDbEntity
  8
SPOJOVACÍ
  6
Continuous
100
AcDbLine
 10
75.10499620331302
 20
32.05683423494235
 30
0.0
 11
74.63432725072834
 21
33.45581863450831
 31
0.0
  0
LINE
  5
4B37
330
1F
100
AcDbEntity
  8
SPOJOVACÍ
  6
Continuous
100
AcDbLine
 10
75.01290879955831
 20
33.8334700054537
 30
0.0
 11
75.23056993587579
 21
33.45581863450831
 31
0.0
  0
LINE
  5
4B38
330
1F
100
AcDbEntity
  8
SPOJOVACÍ
  6
Continuous
100
AcDbLine
 10
75.01290879955831
 20
33.8334700054537
 30
0.0
 11
74.63432725072834
 21
33.45581863450831
 31
0.0
  0
LINE
  5
4B39
330
1F
100
AcDbEntity
  8
SPOJOVACÍ
  6
Continuous
100
AcDbLine
 10
75.32358751533229
 20
31.67918286399697
 30
0.0
 11
75.70123888846047
 21
32.05683423494235
 31
0.0
  0
LINE
  5
4B3A
330
1F
100
AcDbEntity
  8
SPOJOVACÍ
  6
Continuous
100
AcDbLine
 10
75.32358751533229
 20
31.67918286399697
 30
0.0
 11
75.10499620331302
 21
32.05683423494235
 31
0.0
  0
LINE
  5
4B3B
330
1F
100
AcDbEntity
  8
SPOJOVACÍ
  6
Continuous
100
AcDbLine
 10
78.33735709365192
 20
31.11456615352551
 30
0.0
 11
77.70390737688194
 21
34.23065506995669
 31
0.0
  0
LINE
  5
4B3C
330
1F
100
AcDbEntity
  8
SPOJOVACÍ
  6
Continuous
100
AcDbLine
 10
78.71593864275837
 20
31.49221752883647
 30
0.0
 11
77.92156851293021
 21
33.85300369901131
 31
0.0
  0
LINE
  5
4B3D
330
1F
100
AcDbEntity
  8
SPOJOVACÍ
  6
Continuous
100
AcDbLine
 10
78.11969595760365
 20
31.49221752883647
 30
0.0
 11
77.32532582805197
 21
33.85300369901131
 31
0.0
  0
LINE
  5
4B3E
330
1F
100
AcDbEntity
  8
SPOJOVACÍ
  6
Continuous
100
AcDbLine
 10
77.70390737688194
 20
34.23065506995669
 30
0.0
 11
77.92156851293021
 21
33.85300369901131
 31
0.0
  0
LINE
  5
4B3F
330
1F
100
AcDbEntity
  8
SPOJOVACÍ
  6
Continuous
100
AcDbLine
 10
77.70390737688194
 20
34.23065506995669
 30
0.0
 11
77.32532582805197
 21
33.85300369901131
 31
0.0
  0
LINE
  5
4B40
330
1F
100
AcDbEntity
  8
SPOJOVACÍ
  6
Continuous
100
AcDbLine
 10
78.33735709365192
 20
31.11456615352551
 30
0.0
 11
78.71593864275837
 21
31.49221752883647
 31
0.0
  0
LINE
  5
4B41
330
1F
100
AcDbEntity
  8
SPOJOVACÍ
  6
Continuous
100
AcDbLine
 10
78.33735709365192
 20
31.11456615352551
 30
0.0
 11
78.11969595760365
 21
31.49221752883647
 31
0.0
  0
LINE
  5
4B42
330
1F
100
AcDbEntity
  8
SPOJOVACÍ
  6
Continuous
100
AcDbLine
 10
81.35205684794982
 20
30.54994944741963
 30
0.0
 11
80.37909296564521
 21
34.67527910016258
 31
0.0
  0
LINE
  5
4B43
330
1F
100
AcDbEntity
  8
SPOJOVACÍ
  6
Continuous
100
AcDbLine
 10
81.72970822107799
 20
30.9285309957039
 30
0.0
 11
80.59675410169347
 21
34.29762772921719
 31
0.0
  0
LINE
  5
4B44
330
1F
100
AcDbEntity
  8
SPOJOVACÍ
  6
Continuous
100
AcDbLine
 10
81.13346553592327
 20
30.9285309957039
 30
0.0
 11
80.00051141653875
 21
34.29762772921719
 31
0.0
  0
LINE
  5
4B45
330
1F
100
AcDbEntity
  8
SPOJOVACÍ
  6
Continuous
100
AcDbLine
 10
80.37909296564521
 20
34.67527910016258
 30
0.0
 11
80.59675410169347
 21
34.29762772921719
 31
0.0
  0
LINE
  5
4B46
330
1F
100
AcDbEntity
  8
SPOJOVACÍ
  6
Continuous
100
AcDbLine
 10
80.37909296564521
 20
34.67527910016258
 30
0.0
 11
80.00051141653875
 21
34.29762772921719
 31
0.0
  0
LINE
  5
4B47
330
1F
100
AcDbEntity
  8
SPOJOVACÍ
  6
Continuous
100
AcDbLine
 10
81.35205684794982
 20
30.54994944741963
 30
0.0
 11
81.72970822107799
 21
30.9285309957039
 31
0.0
  0
LINE
  5
4B48
330
1F
100
AcDbEntity
  8
SPOJOVACÍ
  6
Continuous
100
AcDbLine
 10
81.35205684794982
 20
30.54994944741963
 30
0.0
 11
81.13346553592327
 21
30.9285309957039
 31
0.0
  0
LINE
  5
4B49
330
1F
100
AcDbEntity
  8
SPOJOVACÍ
  6
Continuous
100
AcDbLine
 10
94.16708878653935
 20
30.6736628283096
 30
0.0
 11
92.808101948699
 21
34.71806718790219
 31
0.0
  0
LINE
  5
4B4A
330
1F
100
AcDbEntity
  8
SPOJOVACÍ
  6
Continuous
100
AcDbLine
 10
93.57084610138462
 20
30.6736628283096
 30
0.0
 11
92.21185926382077
 21
34.71806718790219
 31
0.0
  0
LINE
  5
4B4B
330
1F
100
AcDbEntity
  8
SPOJOVACÍ
  6
Continuous
100
AcDbLine
 10
92.58951063667245
 20
35.09571855884757
 30
0.0
 11
92.808101948699
 21
34.71806718790219
 31
0.0
  0
LINE
  5
4B4C
330
1F
100
AcDbEntity
  8
SPOJOVACÍ
  6
Continuous
100
AcDbLine
 10
92.58951063667245
 20
35.09571855884757
 30
0.0
 11
92.21185926382077
 21
34.71806718790219
 31
0.0
  0
LINE
  5
4B4D
330
1F
100
AcDbEntity
  8
SPOJOVACÍ
  6
Continuous
100
AcDbLine
 10
93.78943741341117
 20
30.29601145299864
 30
0.0
 11
94.16708878653935
 21
30.6736628283096
 31
0.0
  0
LINE
  5
4B4E
330
1F
100
AcDbEntity
  8
SPOJOVACÍ
  6
Continuous
100
AcDbLine
 10
93.78943741341117
 20
30.29601145299864
 30
0.0
 11
93.57084610138462
 21
30.6736628283096
 31
0.0
  0
LINE
  5
4B4F
330
1F
100
AcDbEntity
  8
SPOJOVACÍ
  6
Continuous
100
AcDbLine
 10
93.78943741341117
 20
30.29601145299864
 30
0.0
 11
92.58951063667245
 21
35.09571855884757
 31
0.0
  0
LINE
  5
4B50
330
1F
100
AcDbEntity
  8
SPOJOVACÍ
  6
Continuous
100
AcDbLine
 10
97.28782858120304
 20
30.6736628283096
 30
0.0
 11
95.92791156793737
 21
34.71806718790219
 31
0.0
  0
LINE
  5
4B51
330
1F
100
AcDbEntity
  8
SPOJOVACÍ
  6
Continuous
100
AcDbLine
 10
96.6915858963248
 20
30.6736628283096
 30
0.0
 11
95.33166888278264
 21
34.71806718790219
 31
0.0
  0
LINE
  5
4B52
330
1F
100
AcDbEntity
  8
SPOJOVACÍ
  6
Continuous
100
AcDbLine
 10
95.70932025591082
 20
35.09571855884757
 30
0.0
 11
95.92791156793737
 21
34.71806718790219
 31
0.0
  0
LINE
  5
4B53
330
1F
100
AcDbEntity
  8
SPOJOVACÍ
  6
Continuous
100
AcDbLine
 10
95.70932025591082
 20
35.09571855884757
 30
0.0
 11
95.33166888278264
 21
34.71806718790219
 31
0.0
  0
LINE
  5
4B54
330
1F
100
AcDbEntity
  8
SPOJOVACÍ
  6
Continuous
100
AcDbLine
 10
96.90924703237307
 20
30.29601145299864
 30
0.0
 11
97.28782858120304
 21
30.6736628283096
 31
0.0
  0
LINE
  5
4B55
330
1F
100
AcDbEntity
  8
SPOJOVACÍ
  6
Continuous
100
AcDbLine
 10
96.90924703237307
 20
30.29601145299864
 30
0.0
 11
96.6915858963248
 21
30.6736628283096
 31
0.0
  0
LINE
  5
4B56
330
1F
100
AcDbEntity
  8
SPOJOVACÍ
  6
Continuous
100
AcDbLine
 10
96.90924703237307
 20
30.29601145299864
 30
0.0
 11
95.70932025591082
 21
35.09571855884757
 31
0.0
  0
LINE
  5
4B57
330
1F
100
AcDbEntity
  8
SPOJOVACÍ
  6
Continuous
100
AcDbLine
 10
80.77348750304281
 20
33.79998367800624
 30
0.0
 11
82.74453001432902
 21
34.04555008947397
 31
0.0
  0
LINE
  5
4B58
330
1F
100
AcDbEntity
  8
SPOJOVACÍ
  6
Continuous
100
AcDbLine
 10
78.06667593714428
 20
33.46139968544491
 30
0.0
 11
80.20328973999767
 21
33.72836014078245
 31
0.0
  0
LINE
  5
4B59
330
1F
100
AcDbEntity
  8
SPOJOVACÍ
  6
Continuous
100
AcDbLine
 10
75.34963243771108
 20
33.12188552427585
 30
0.0
 11
77.49461782269555
 21
33.3897761525867
 31
0.0
  0
LINE
  5
4B5A
330
1F
100
AcDbEntity
  8
SPOJOVACÍ
  6
Continuous
100
AcDbLine
 10
75.03337266718062
 20
32.30984205202446
 30
0.0
 11
71.94425884937572
 21
32.69586500592311
 31
0.0
  0
LINE
  5
4B5B
330
1F
100
AcDbEntity
  8
SPOJOVACÍ
  6
Continuous
100
AcDbLine
 10
77.97458853338958
 20
31.94242261434453
 30
0.0
 11
75.65379992303405
 21
32.2326374594985
 31
0.0
  0
LINE
  5
4B5C
330
1F
100
AcDbEntity
  8
SPOJOVACÍ
  6
Continuous
100
AcDbLine
 10
80.92696650911875
 20
31.57314282198683
 30
0.0
 11
78.60524772305416
 21
31.86335767150637
 31
0.0
  0
LINE
  5
4B5D
330
1F
100
AcDbEntity
  8
SPOJOVACÍ
  6
Continuous
100
AcDbLine
 10
71.94425884937572
 20
32.69586500592311
 30
0.0
 11
74.78036485064421
 21
33.05026198705206
 31
0.0
  0
LINE
  5
4B5E
330
1F
100
AcDbEntity
  8
SPOJOVACÍ
  6
Continuous
100
AcDbLine
 10
82.74453001432902
 20
31.34617992673781
 30
0.0
 11
81.54739376497218
 21
31.49593822946087
 31
0.0
  0
LINE
  5
4B5F
330
1F
100
AcDbEntity
  8
SPOJOVACÍ
  6
Continuous
100
AcDbLine
 10
83.08125365221258
 20
34.04555008947397
 30
0.0
 11
82.74453001432902
 21
34.04555008947397
 31
0.0
  0
LINE
  5
4B60
330
1F
100
AcDbEntity
  8
SPOJOVACÍ
  6
Continuous
100
AcDbLine
 10
86.20385379882554
 20
34.04555008947397
 30
0.0
 11
83.68493774379658
 21
34.04555008947397
 31
0.0
  0
LINE
  5
4B61
330
1F
100
AcDbEntity
  8
SPOJOVACÍ
  6
Continuous
100
AcDbLine
 10
83.99189575621766
 20
31.34617992673781
 30
0.0
 11
82.74453001432902
 21
31.34617992673781
 31
0.0
  0
LINE
  5
4B62
330
1F
100
AcDbEntity
  8
SPOJOVACÍ
  6
Continuous
100
AcDbLine
 10
87.10612432069956
 20
31.34617992673781
 30
0.0
 11
84.58813844137239
 21
31.34617992673781
 31
0.0
  0
LINE
  5
4B63
330
1F
100
AcDbEntity
  8
SPOJOVACÍ
  6
Continuous
100
AcDbLine
 10
89.3255237694675
 20
34.04555008947397
 30
0.0
 11
86.80474736275845
 21
34.04555008947397
 31
0.0
  0
LINE
  5
4B64
330
1F
100
AcDbEntity
  8
SPOJOVACÍ
  6
Continuous
100
AcDbLine
 10
92.44812391581126
 20
34.04555008947397
 30
0.0
 11
89.91990610294214
 21
34.04555008947397
 31
0.0
  0
LINE
  5
4B65
330
1F
100
AcDbEntity
  8
SPOJOVACÍ
  6
Continuous
100
AcDbLine
 10
95.56328265599494
 20
34.04555008947397
 30
0.0
 11
93.04436660096598
 21
34.04555008947397
 31
0.0
  0
LINE
  5
4B66
330
1F
100
AcDbEntity
  8
SPOJOVACÍ
  6
Continuous
100
AcDbLine
 10
90.23895640085447
 20
31.34617992673781
 30
0.0
 11
87.71073858798535
 21
31.34617992673781
 31
0.0
  0
LINE
  5
4B67
330
1F
100
AcDbEntity
  8
SPOJOVACÍ
  6
Continuous
100
AcDbLine
 10
93.35411514103816
 20
31.34617992673781
 30
0.0
 11
90.83333873432911
 21
31.34617992673781
 31
0.0
  0
LINE
  5
4B68
330
1F
100
AcDbEntity
  8
SPOJOVACÍ
  6
Continuous
100
AcDbLine
 10
96.47671528738193
 20
31.34617992673781
 30
0.0
 11
93.95779923235295
 21
31.34617992673781
 31
0.0
  0
LINE
  5
4B69
330
1F
100
AcDbEntity
  8
SPOJOVACÍ
  6
Continuous
100
AcDbLine
 10
101.1099209262383
 20
31.34617992673781
 30
0.0
 11
97.07202779655837
 21
31.34617992673781
 31
0.0
  0
LINE
  5
4B6A
330
1F
100
AcDbEntity
  8
SPOJOVACÍ
  6
Continuous
100
AcDbLine
 10
101.1099209262383
 20
34.04555008947397
 30
0.0
 11
96.16696674730974
 21
34.04555008947397
 31
0.0
  0
LINE
  5
4B6B
330
1F
100
AcDbEntity
  8
SPOJOVACÍ
  6
Continuous
100
AcDbLine
 10
106.5095914205949
 20
27.59571111728917
 30
0.0
 11
105.7654507841207
 21
28.94539620084003
 31
0.0
  0
LINE
  5
4B6C
330
1F
100
AcDbEntity
  8
SPOJOVACÍ
  6
Continuous
100
AcDbLine
 10
105.7654507841207
 20
28.94539620084003
 30
0.0
 11
104.6966787947085
 21
30.05602610119865
 31
0.0
  0
LINE
  5
4B6D
330
1F
100
AcDbEntity
  8
SPOJOVACÍ
  6
Continuous
100
AcDbLine
 10
104.6966787947085
 20
30.05602610119865
 30
0.0
 11
103.377689516411
 21
30.85225658051683
 31
0.0
  0
LINE
  5
4B6E
330
1F
100
AcDbEntity
  8
SPOJOVACÍ
  6
Continuous
100
AcDbLine
 10
103.377689516411
 20
30.85225658051683
 30
0.0
 11
101.8968496493607
 21
31.2801374448162
 31
0.0
  0
LINE
  5
4B6F
330
1F
100
AcDbEntity
  8
SPOJOVACÍ
  6
Continuous
100
AcDbLine
 10
101.8968496493607
 20
31.2801374448162
 30
0.0
 11
101.1099209262383
 21
31.34617992673781
 31
0.0
  0
LINE
  5
4B70
330
1F
100
AcDbEntity
  8
SPOJOVACÍ
  6
Continuous
100
AcDbLine
 10
105.2547842722697
 20
35.84357989948955
 30
0.0
 11
106.1728677827113
 21
37.08071370838922
 31
0.0
  0
LINE
  5
4B71
330
1F
100
AcDbEntity
  8
SPOJOVACÍ
  6
Continuous
100
AcDbLine
 10
106.1728677827113
 20
37.08071370838922
 30
0.0
 11
106.5095914205949
 21
37.79601889455705
 31
0.0
  0
LINE
  5
4B72
330
1F
100
AcDbEntity
  8
SPOJOVACÍ
  6
Continuous
100
AcDbLine
 10
106.5095914205949
 20
27.59571111728917
 30
0.0
 11
106.5095914205949
 21
37.79601889455705
 31
0.0
  0
LINE
  5
4B73
330
1F
100
AcDbEntity
  8
SPOJOVACÍ
  6
Continuous
100
AcDbLine
 10
107.7095181973263
 20
27.59571111728917
 30
0.0
 11
106.5095914205949
 21
27.59571111728917
 31
0.0
  0
LINE
  5
4B74
330
1F
100
AcDbEntity
  8
SPOJOVACÍ
  6
Continuous
100
AcDbLine
 10
107.7095181973263
 20
27.59571111728917
 30
0.0
 11
107.7095181973263
 21
37.79601889455705
 31
0.0
  0
LINE
  5
4B75
330
1F
100
AcDbEntity
  8
SPOJOVACÍ
  6
Continuous
100
AcDbLine
 10
107.7095181973263
 20
37.79601889455705
 30
0.0
 11
106.5095914205949
 21
37.79601889455705
 31
0.0
  0
LINE
  5
4B76
330
1F
100
AcDbEntity
  8
SPOJOVACÍ
  6
Continuous
100
AcDbLine
 10
101.1099209262383
 20
34.04555008947397
 30
0.0
 11
102.6335488796676
 21
34.27251298035741
 31
0.0
  0
LINE
  5
4B77
330
1F
100
AcDbEntity
  8
SPOJOVACÍ
  6
Continuous
100
AcDbLine
 10
102.6335488796676
 20
34.27251298035741
 30
0.0
 11
104.0474160893709
 21
34.88549882950508
 31
0.0
  0
LINE
  5
4B78
330
1F
100
AcDbEntity
  8
SPOJOVACÍ
  6
Continuous
100
AcDbLine
 10
104.0474160893709
 20
34.88549882950508
 30
0.0
 11
105.2547842722697
 21
35.84357989948955
 31
0.0
  0
LINE
  5
4B79
330
1F
100
AcDbEntity
  8
SPOJOVACÍ
  6
Continuous
100
AcDbLine
 10
36.13936602053127
 20
34.88549882950508
 30
0.0
 11
34.93199783763248
 21
35.84357989948955
 31
0.0
  0
LINE
  5
4B7A
330
1F
100
AcDbEntity
  8
SPOJOVACÍ
  6
Continuous
100
AcDbLine
 10
37.55323323023458
 20
34.27251298035741
 30
0.0
 11
36.13936602053127
 21
34.88549882950508
 31
0.0
  0
LINE
  5
4B7B
330
1F
100
AcDbEntity
  8
SPOJOVACÍ
  6
Continuous
100
AcDbLine
 10
39.07686118366382
 20
34.04555008947397
 30
0.0
 11
37.55323323023458
 21
34.27251298035741
 31
0.0
  0
LINE
  5
4B7C
330
1F
100
AcDbEntity
  8
SPOJOVACÍ
  6
Continuous
100
AcDbLine
 10
32.47726391257583
 20
37.79601889455705
 30
0.0
 11
33.67719068930728
 21
37.79601889455705
 31
0.0
  0
LINE
  5
4B7D
330
1F
100
AcDbEntity
  8
SPOJOVACÍ
  6
Continuous
100
AcDbLine
 10
32.47726391257583
 20
27.59571111728917
 30
0.0
 11
32.47726391257583
 21
37.79601889455705
 31
0.0
  0
LINE
  5
4B7E
330
1F
100
AcDbEntity
  8
SPOJOVACÍ
  6
Continuous
100
AcDbLine
 10
32.47726391257583
 20
27.59571111728917
 30
0.0
 11
33.67719068930728
 21
27.59571111728917
 31
0.0
  0
LINE
  5
4B7F
330
1F
100
AcDbEntity
  8
SPOJOVACÍ
  6
Continuous
100
AcDbLine
 10
33.67719068930728
 20
27.59571111728917
 30
0.0
 11
33.67719068930728
 21
37.79601889455705
 31
0.0
  0
LINE
  5
4B80
330
1F
100
AcDbEntity
  8
SPOJOVACÍ
  6
Continuous
100
AcDbLine
 10
34.01391432719083
 20
37.08071370838922
 30
0.0
 11
33.67719068930728
 21
37.79601889455705
 31
0.0
  0
LINE
  5
4B81
330
1F
100
AcDbEntity
  8
SPOJOVACÍ
  6
Continuous
100
AcDbLine
 10
34.93199783763248
 20
35.84357989948955
 30
0.0
 11
34.01391432719083
 21
37.08071370838922
 31
0.0
  0
LINE
  5
4B82
330
1F
100
AcDbEntity
  8
SPOJOVACÍ
  6
Continuous
100
AcDbLine
 10
38.28993246054142
 20
31.2801374448162
 30
0.0
 11
39.07686118366382
 21
31.34617992673781
 31
0.0
  0
LINE
  5
4B83
330
1F
100
AcDbEntity
  8
SPOJOVACÍ
  6
Continuous
100
AcDbLine
 10
36.80909259349118
 20
30.85225658051683
 30
0.0
 11
38.28993246054142
 21
31.2801374448162
 31
0.0
  0
LINE
  5
4B84
330
1F
100
AcDbEntity
  8
SPOJOVACÍ
  6
Continuous
100
AcDbLine
 10
35.49010331519366
 20
30.05602610119865
 30
0.0
 11
36.80909259349118
 21
30.85225658051683
 31
0.0
  0
LINE
  5
4B85
330
1F
100
AcDbEntity
  8
SPOJOVACÍ
  6
Continuous
100
AcDbLine
 10
34.42133132578146
 20
28.94539620084003
 30
0.0
 11
35.49010331519366
 21
30.05602610119865
 31
0.0
  0
LINE
  5
4B86
330
1F
100
AcDbEntity
  8
SPOJOVACÍ
  6
Continuous
100
AcDbLine
 10
33.67719068930728
 20
27.59571111728917
 30
0.0
 11
34.42133132578146
 21
28.94539620084003
 31
0.0
  0
LINE
  5
4B87
330
1F
100
AcDbEntity
  8
SPOJOVACÍ
  6
Continuous
100
AcDbLine
 10
39.07686118366382
 20
34.04555008947397
 30
0.0
 11
44.01981536259245
 21
34.04555008947397
 31
0.0
  0
LINE
  5
4B88
330
1F
100
AcDbEntity
  8
SPOJOVACÍ
  6
Continuous
100
AcDbLine
 10
39.07686118366382
 20
31.34617992673781
 30
0.0
 11
43.11475431334383
 21
31.34617992673781
 31
0.0
  0
LINE
  5
4B89
330
1F
100
AcDbEntity
  8
SPOJOVACÍ
  6
Continuous
100
AcDbLine
 10
43.71006682252027
 20
31.34617992673781
 30
0.0
 11
46.22898287754924
 21
31.34617992673781
 31
0.0
  0
LINE
  5
4B8A
330
1F
100
AcDbEntity
  8
SPOJOVACÍ
  6
Continuous
100
AcDbLine
 10
46.83266696886403
 20
31.34617992673781
 30
0.0
 11
49.35344337557308
 21
31.34617992673781
 31
0.0
  0
LINE
  5
4B8B
330
1F
100
AcDbEntity
  8
SPOJOVACÍ
  6
Continuous
100
AcDbLine
 10
49.94782570904772
 20
31.34617992673781
 30
0.0
 11
52.47604352191683
 21
31.34617992673781
 31
0.0
  0
LINE
  5
4B8C
330
1F
100
AcDbEntity
  8
SPOJOVACÍ
  6
Continuous
100
AcDbLine
 10
44.62349945390724
 20
34.04555008947397
 30
0.0
 11
47.1424155089362
 21
34.04555008947397
 31
0.0
  0
LINE
  5
4B8D
330
1F
100
AcDbEntity
  8
SPOJOVACÍ
  6
Continuous
100
AcDbLine
 10
47.73865819409093
 20
34.04555008947397
 30
0.0
 11
50.26687600696004
 21
34.04555008947397
 31
0.0
  0
LINE
  5
4B8E
330
1F
100
AcDbEntity
  8
SPOJOVACÍ
  6
Continuous
100
AcDbLine
 10
50.86125834043468
 20
34.04555008947397
 30
0.0
 11
53.38203474714373
 21
34.04555008947397
 31
0.0
  0
LINE
  5
4B8F
330
1F
100
AcDbEntity
  8
SPOJOVACÍ
  6
Continuous
100
AcDbLine
 10
53.08065778920263
 20
31.34617992673781
 30
0.0
 11
55.59864366852981
 21
31.34617992673781
 31
0.0
  0
LINE
  5
4B90
330
1F
100
AcDbEntity
  8
SPOJOVACÍ
  6
Continuous
100
AcDbLine
 10
56.19488635368452
 20
31.34617992673781
 30
0.0
 11
57.44225209557317
 21
31.34617992673781
 31
0.0
  0
LINE
  5
4B91
330
1F
100
AcDbEntity
  8
SPOJOVACÍ
  6
Continuous
100
AcDbLine
 10
53.98292831107665
 20
34.04555008947397
 30
0.0
 11
56.50184436610562
 21
34.04555008947397
 31
0.0
  0
LINE
  5
4B92
330
1F
100
AcDbEntity
  8
SPOJOVACÍ
  6
Continuous
100
AcDbLine
 10
57.10552845768962
 20
34.04555008947397
 30
0.0
 11
57.44225209557317
 21
34.04555008947397
 31
0.0
  0
LINE
  5
4B93
330
1F
100
AcDbEntity
  8
SPOJOVACÍ
  6
Continuous
100
AcDbLine
 10
57.44225209557317
 20
31.34617992673781
 30
0.0
 11
58.63938834493001
 21
31.49593822946087
 31
0.0
  0
LINE
  5
4B94
330
1F
100
AcDbEntity
  8
SPOJOVACÍ
  6
Continuous
100
AcDbLine
 10
68.24252326052647
 20
32.69586500592311
 30
0.0
 11
65.40641725925798
 21
33.05026198705206
 31
0.0
  0
LINE
  5
4B95
330
1F
100
AcDbEntity
  8
SPOJOVACÍ
  6
Continuous
100
AcDbLine
 10
59.25981560078344
 20
31.57314282198683
 30
0.0
 11
61.58153438684803
 21
31.86335767150637
 31
0.0
  0
LINE
  5
4B96
330
1F
100
AcDbEntity
  8
SPOJOVACÍ
  6
Continuous
100
AcDbLine
 10
62.21219357651261
 20
31.94242261434453
 30
0.0
 11
64.53298218686814
 21
32.2326374594985
 31
0.0
  0
LINE
  5
4B97
330
1F
100
AcDbEntity
  8
SPOJOVACÍ
  6
Continuous
100
AcDbLine
 10
65.15340944272157
 20
32.30984205202446
 30
0.0
 11
68.24252326052647
 21
32.69586500592311
 31
0.0
  0
LINE
  5
4B98
330
1F
100
AcDbEntity
  8
SPOJOVACÍ
  6
Continuous
100
AcDbLine
 10
64.83714967219111
 20
33.12188552427585
 30
0.0
 11
62.69216428720665
 21
33.3897761525867
 31
0.0
  0
LINE
  5
4B99
330
1F
100
AcDbEntity
  8
SPOJOVACÍ
  6
Continuous
100
AcDbLine
 10
62.12010617275791
 20
33.46139968544491
 30
0.0
 11
59.98349236990453
 21
33.72836014078245
 31
0.0
  0
LINE
  5
4B9A
330
1F
100
AcDbEntity
  8
SPOJOVACÍ
  6
Continuous
100
AcDbLine
 10
59.41329460685938
 20
33.79998367800624
 30
0.0
 11
57.44225209557317
 21
34.04555008947397
 31
0.0
  0
LINE
  5
4B9B
330
1F
100
AcDbEntity
  8
SPOJOVACÍ
  6
Continuous
100
AcDbLine
 10
43.27753507752913
 20
30.29601145299864
 30
0.0
 11
44.47746185399137
 21
35.09571855884757
 31
0.0
  0
LINE
  5
4B9C
330
1F
100
AcDbEntity
  8
SPOJOVACÍ
  6
Continuous
100
AcDbLine
 10
43.27753507752913
 20
30.29601145299864
 30
0.0
 11
43.4951962135774
 21
30.6736628283096
 31
0.0
  0
LINE
  5
4B9D
330
1F
100
AcDbEntity
  8
SPOJOVACÍ
  6
Continuous
100
AcDbLine
 10
43.27753507752913
 20
30.29601145299864
 30
0.0
 11
42.89895352869916
 21
30.6736628283096
 31
0.0
  0
LINE
  5
4B9E
330
1F
100
AcDbEntity
  8
SPOJOVACÍ
  6
Continuous
100
AcDbLine
 10
44.47746185399137
 20
35.09571855884757
 30
0.0
 11
44.85511322711954
 21
34.71806718790219
 31
0.0
  0
LINE
  5
4B9F
330
1F
100
AcDbEntity
  8
SPOJOVACÍ
  6
Continuous
100
AcDbLine
 10
44.47746185399137
 20
35.09571855884757
 30
0.0
 11
44.25887054196482
 21
34.71806718790219
 31
0.0
  0
LINE
  5
4BA0
330
1F
100
AcDbEntity
  8
SPOJOVACÍ
  6
Continuous
100
AcDbLine
 10
43.4951962135774
 20
30.6736628283096
 30
0.0
 11
44.85511322711954
 21
34.71806718790219
 31
0.0
  0
LINE
  5
4BA1
330
1F
100
AcDbEntity
  8
SPOJOVACÍ
  6
Continuous
100
AcDbLine
 10
42.89895352869916
 20
30.6736628283096
 30
0.0
 11
44.25887054196482
 21
34.71806718790219
 31
0.0
  0
LINE
  5
4BA2
330
1F
100
AcDbEntity
  8
SPOJOVACÍ
  6
Continuous
100
AcDbLine
 10
46.39734469649101
 20
30.29601145299864
 30
0.0
 11
47.59727147322974
 21
35.09571855884757
 31
0.0
  0
LINE
  5
4BA3
330
1F
100
AcDbEntity
  8
SPOJOVACÍ
  6
Continuous
100
AcDbLine
 10
46.39734469649101
 20
30.29601145299864
 30
0.0
 11
46.61593600851756
 21
30.6736628283096
 31
0.0
  0
LINE
  5
4BA4
330
1F
100
AcDbEntity
  8
SPOJOVACÍ
  6
Continuous
100
AcDbLine
 10
46.39734469649101
 20
30.29601145299864
 30
0.0
 11
46.01969332336284
 21
30.6736628283096
 31
0.0
  0
LINE
  5
4BA5
330
1F
100
AcDbEntity
  8
SPOJOVACÍ
  6
Continuous
100
AcDbLine
 10
47.59727147322974
 20
35.09571855884757
 30
0.0
 11
47.97492284608142
 21
34.71806718790219
 31
0.0
  0
LINE
  5
4BA6
330
1F
100
AcDbEntity
  8
SPOJOVACÍ
  6
Continuous
100
AcDbLine
 10
47.59727147322974
 20
35.09571855884757
 30
0.0
 11
47.37868016120319
 21
34.71806718790219
 31
0.0
  0
LINE
  5
4BA7
330
1F
100
AcDbEntity
  8
SPOJOVACÍ
  6
Continuous
100
AcDbLine
 10
46.61593600851756
 20
30.6736628283096
 30
0.0
 11
47.97492284608142
 21
34.71806718790219
 31
0.0
  0
LINE
  5
4BA8
330
1F
100
AcDbEntity
  8
SPOJOVACÍ
  6
Continuous
100
AcDbLine
 10
46.01969332336284
 20
30.6736628283096
 30
0.0
 11
47.37868016120319
 21
34.71806718790219
 31
0.0
  0
LINE
  5
4BA9
330
1F
100
AcDbEntity
  8
SPOJOVACÍ
  6
Continuous
100
AcDbLine
 10
58.83472526195237
 20
30.54994944741963
 30
0.0
 11
59.05331657397892
 21
30.9285309957039
 31
0.0
  0
LINE
  5
4BAA
330
1F
100
AcDbEntity
  8
SPOJOVACÍ
  6
Continuous
100
AcDbLine
 10
58.83472526195237
 20
30.54994944741963
 30
0.0
 11
58.4570738888242
 21
30.9285309957039
 31
0.0
  0
LINE
  5
4BAB
330
1F
100
AcDbEntity
  8
SPOJOVACÍ
  6
Continuous
100
AcDbLine
 10
59.80768914425699
 20
34.67527910016258
 30
0.0
 11
60.18627069336344
 21
34.29762772921719
 31
0.0
  0
LINE
  5
4BAC
330
1F
100
AcDbEntity
  8
SPOJOVACÍ
  6
Continuous
100
AcDbLine
 10
59.80768914425699
 20
34.67527910016258
 30
0.0
 11
59.59002800820872
 21
34.29762772921719
 31
0.0
  0
LINE
  5
4BAD
330
1F
100
AcDbEntity
  8
SPOJOVACÍ
  6
Continuous
100
AcDbLine
 10
59.05331657397892
 20
30.9285309957039
 30
0.0
 11
60.18627069336344
 21
34.29762772921719
 31
0.0
  0
LINE
  5
4BAE
330
1F
100
AcDbEntity
  8
SPOJOVACÍ
  6
Continuous
100
AcDbLine
 10
58.4570738888242
 20
30.9285309957039
 30
0.0
 11
59.59002800820872
 21
34.29762772921719
 31
0.0
  0
LINE
  5
4BAF
330
1F
100
AcDbEntity
  8
SPOJOVACÍ
  6
Continuous
100
AcDbLine
 10
58.83472526195237
 20
30.54994944741963
 30
0.0
 11
59.80768914425699
 21
34.67527910016258
 31
0.0
  0
LINE
  5
4BB0
330
1F
100
AcDbEntity
  8
SPOJOVACÍ
  6
Continuous
100
AcDbLine
 10
61.84942501625028
 20
31.11456615352551
 30
0.0
 11
62.06708615229854
 21
31.49221752883647
 31
0.0
  0
LINE
  5
4BB1
330
1F
100
AcDbEntity
  8
SPOJOVACÍ
  6
Continuous
100
AcDbLine
 10
61.84942501625028
 20
31.11456615352551
 30
0.0
 11
61.47084346714382
 21
31.49221752883647
 31
0.0
  0
LINE
  5
4BB2
330
1F
100
AcDbEntity
  8
SPOJOVACÍ
  6
Continuous
100
AcDbLine
 10
62.48287473302025
 20
34.23065506995669
 30
0.0
 11
62.86145628185022
 21
33.85300369901131
 31
0.0
  0
LINE
  5
4BB3
330
1F
100
AcDbEntity
  8
SPOJOVACÍ
  6
Continuous
100
AcDbLine
 10
62.48287473302025
 20
34.23065506995669
 30
0.0
 11
62.26521359697199
 21
33.85300369901131
 31
0.0
  0
LINE
  5
4BB4
330
1F
100
AcDbEntity
  8
SPOJOVACÍ
  6
Continuous
100
AcDbLine
 10
62.06708615229854
 20
31.49221752883647
 30
0.0
 11
62.86145628185022
 21
33.85300369901131
 31
0.0
  0
LINE
  5
4BB5
330
1F
100
AcDbEntity
  8
SPOJOVACÍ
  6
Continuous
100
AcDbLine
 10
61.47084346714382
 20
31.49221752883647
 30
0.0
 11
62.26521359697199
 21
33.85300369901131
 31
0.0
  0
LINE
  5
4BB6
330
1F
100
AcDbEntity
  8
SPOJOVACÍ
  6
Continuous
100
AcDbLine
 10
61.84942501625028
 20
31.11456615352551
 30
0.0
 11
62.48287473302025
 21
34.23065506995669
 31
0.0
  0
LINE
  5
4BB7
330
1F
100
AcDbEntity
  8
SPOJOVACÍ
  6
Continuous
100
AcDbLine
 10
64.8631945945699
 20
31.67918286399697
 30
0.0
 11
65.08178590658918
 21
32.05683423494235
 31
0.0
  0
LINE
  5
4BB8
330
1F
100
AcDbEntity
  8
SPOJOVACÍ
  6
Continuous
100
AcDbLine
 10
64.8631945945699
 20
31.67918286399697
 30
0.0
 11
64.48554322144173
 21
32.05683423494235
 31
0.0
  0
LINE
  5
4BB9
330
1F
100
AcDbEntity
  8
SPOJOVACÍ
  6
Continuous
100
AcDbLine
 10
65.17387331034388
 20
33.8334700054537
 30
0.0
 11
65.55245485917385
 21
33.45581863450831
 31
0.0
  0
LINE
  5
4BBA
330
1F
100
AcDbEntity
  8
SPOJOVACÍ
  6
Continuous
100
AcDbLine
 10
65.17387331034388
 20
33.8334700054537
 30
0.0
 11
64.9562121740264
 21
33.45581863450831
 31
0.0
  0
LINE
  5
4BBB
330
1F
100
AcDbEntity
  8
SPOJOVACÍ
  6
Continuous
100
AcDbLine
 10
65.08178590658918
 20
32.05683423494235
 30
0.0
 11
65.55245485917385
 21
33.45581863450831
 31
0.0
  0
LINE
  5
4BBC
330
1F
100
AcDbEntity
  8
SPOJOVACÍ
  6
Continuous
100
AcDbLine
 10
64.48554322144173
 20
32.05683423494235
 30
0.0
 11
64.9562121740264
 21
33.45581863450831
 31
0.0
  0
LINE
  5
4BBD
330
1F
100
AcDbEntity
  8
SPOJOVACÍ
  6
Continuous
100
AcDbLine
 10
64.8631945945699
 20
31.67918286399697
 30
0.0
 11
65.17387331034388
 21
33.8334700054537
 31
0.0
  0
LINE
  5
4BBE
330
1F
100
AcDbEntity
  8
SPOJOVACÍ
  6
Continuous
100
AcDbLine
 10
49.51715431572939
 20
30.29601145299864
 30
0.0
 11
50.71708109219162
 21
35.09571855884757
 31
0.0
  0
LINE
  5
4BBF
330
1F
100
AcDbEntity
  8
SPOJOVACÍ
  6
Continuous
100
AcDbLine
 10
49.51715431572939
 20
30.29601145299864
 30
0.0
 11
49.73574562775593
 21
30.6736628283096
 31
0.0
  0
LINE
  5
4BC0
330
1F
100
AcDbEntity
  8
SPOJOVACÍ
  6
Continuous
100
AcDbLine
 10
49.51715431572939
 20
30.29601145299864
 30
0.0
 11
49.13950294260121
 21
30.6736628283096
 31
0.0
  0
LINE
  5
4BC1
330
1F
100
AcDbEntity
  8
SPOJOVACÍ
  6
Continuous
100
AcDbLine
 10
50.71708109219162
 20
35.09571855884757
 30
0.0
 11
51.09566264102159
 21
34.71806718790219
 31
0.0
  0
LINE
  5
4BC2
330
1F
100
AcDbEntity
  8
SPOJOVACÍ
  6
Continuous
100
AcDbLine
 10
50.71708109219162
 20
35.09571855884757
 30
0.0
 11
50.49941995587414
 21
34.71806718790219
 31
0.0
  0
LINE
  5
4BC3
330
1F
100
AcDbEntity
  8
SPOJOVACÍ
  6
Continuous
100
AcDbLine
 10
49.73574562775593
 20
30.6736628283096
 30
0.0
 11
51.09566264102159
 21
34.71806718790219
 31
0.0
  0
LINE
  5
4BC4
330
1F
100
AcDbEntity
  8
SPOJOVACÍ
  6
Continuous
100
AcDbLine
 10
49.13950294260121
 20
30.6736628283096
 30
0.0
 11
50.49941995587414
 21
34.71806718790219
 31
0.0
  0
LINE
  5
4BC5
330
1F
100
AcDbEntity
  8
SPOJOVACÍ
  6
Continuous
100
AcDbLine
 10
52.63696393469854
 20
30.29601145299864
 30
0.0
 11
53.83689071116077
 21
35.09571855884757
 31
0.0
  0
LINE
  5
4BC6
330
1F
100
AcDbEntity
  8
SPOJOVACÍ
  6
Continuous
100
AcDbLine
 10
52.63696393469854
 20
30.29601145299864
 30
0.0
 11
52.85555524671782
 21
30.6736628283096
 31
0.0
  0
LINE
  5
4BC7
330
1F
100
AcDbEntity
  8
SPOJOVACÍ
  6
Continuous
100
AcDbLine
 10
52.63696393469854
 20
30.29601145299864
 30
0.0
 11
52.25931256157037
 21
30.6736628283096
 31
0.0
  0
LINE
  5
4BC8
330
1F
100
AcDbEntity
  8
SPOJOVACÍ
  6
Continuous
100
AcDbLine
 10
53.83689071116077
 20
35.09571855884757
 30
0.0
 11
54.21547225999074
 21
34.71806718790219
 31
0.0
  0
LINE
  5
4BC9
330
1F
100
AcDbEntity
  8
SPOJOVACÍ
  6
Continuous
100
AcDbLine
 10
53.83689071116077
 20
35.09571855884757
 30
0.0
 11
53.61922957511251
 21
34.71806718790219
 31
0.0
  0
LINE
  5
4BCA
330
1F
100
AcDbEntity
  8
SPOJOVACÍ
  6
Continuous
100
AcDbLine
 10
52.85555524671782
 20
30.6736628283096
 30
0.0
 11
54.21547225999074
 21
34.71806718790219
 31
0.0
  0
LINE
  5
4BCB
330
1F
100
AcDbEntity
  8
SPOJOVACÍ
  6
Continuous
100
AcDbLine
 10
52.25931256157037
 20
30.6736628283096
 30
0.0
 11
53.61922957511251
 21
34.71806718790219
 31
0.0
  0
LINE
  5
4BCC
330
1F
100
AcDbEntity
  8
SPOJOVACÍ
  6
Continuous
100
AcDbLine
 10
55.7577037296387
 20
30.29601145299864
 30
0.0
 11
56.95763050610094
 21
35.09571855884757
 31
0.0
  0
LINE
  5
4BCD
330
1F
100
AcDbEntity
  8
SPOJOVACÍ
  6
Continuous
100
AcDbLine
 10
55.7577037296387
 20
30.29601145299864
 30
0.0
 11
55.97536486568697
 21
30.6736628283096
 31
0.0
  0
LINE
  5
4BCE
330
1F
100
AcDbEntity
  8
SPOJOVACÍ
  6
Continuous
100
AcDbLine
 10
55.7577037296387
 20
30.29601145299864
 30
0.0
 11
55.37912218053225
 21
30.6736628283096
 31
0.0
  0
LINE
  5
4BCF
330
1F
100
AcDbEntity
  8
SPOJOVACÍ
  6
Continuous
100
AcDbLine
 10
56.95763050610094
 20
35.09571855884757
 30
0.0
 11
57.33528187922911
 21
34.71806718790219
 31
0.0
  0
LINE
  5
4BD0
330
1F
100
AcDbEntity
  8
SPOJOVACÍ
  6
Continuous
100
AcDbLine
 10
56.95763050610094
 20
35.09571855884757
 30
0.0
 11
56.7390391940744
 21
34.71806718790219
 31
0.0
  0
LINE
  5
4BD1
330
1F
100
AcDbEntity
  8
SPOJOVACÍ
  6
Continuous
100
AcDbLine
 10
55.97536486568697
 20
30.6736628283096
 30
0.0
 11
57.33528187922911
 21
34.71806718790219
 31
0.0
  0
LINE
  5
4BD2
330
1F
100
AcDbEntity
  8
SPOJOVACÍ
  6
Continuous
100
AcDbLine
 10
55.37912218053225
 20
30.6736628283096
 30
0.0
 11
56.7390391940744
 21
34.71806718790219
 31
0.0
  0
LINE
  5
4BD3
330
1F
100
AcDbEntity
  8
SPOJOVACÍ
  6
CIKCAK
 48
0.25
100
AcDbLine
 10
66.92410399629352
 20
-1.804736673054435
 30
0.0
 11
66.92410399629352
 21
-49.26912248838664
 31
0.0
  0
LINE
  5
4BD4
330
1F
100
AcDbEntity
  8
SPOJOVACÍ
 48
0.25
100
AcDbLine
 10
66.92410399629352
 20
-49.26912248838664
 30
0.0
 11
70.44957041976795
 21
-54.91856282910624
 31
0.0
  0
LINE
  5
4BD5
330
1F
100
AcDbEntity
  8
SPOJOVACÍ
 48
0.25
100
AcDbLine
 10
73.97503684324238
 20
-49.26912248839028
 30
0.0
 11
70.44957041976795
 21
-54.91856282910624
 31
0.0
  0
LINE
  5
4BD6
330
1F
100
AcDbEntity
  8
SPOJOVACÍ
  6
CIKCAK
 48
0.25
100
AcDbLine
 10
73.97503684324238
 20
-1.804736673054435
 30
0.0
 11
73.97503684324238
 21
-49.26912248839028
 31
0.0
  0
LINE
  5
4BD7
330
1F
100
AcDbEntity
  8
SPOJOVACÍ
100
AcDbLine
 10
77.19957041976795
 20
2.565768604616891
 30
0.0
 11
63.69957041976795
 21
2.565768604616891
 31
0.0
  0
LINE
  5
4BD8
330
1F
100
AcDbEntity
  8
SPOJOVACÍ
  6
Continuous
100
AcDbLine
 10
73.29564674268749
 20
-15.60510382277527
 30
0.0
 11
67.60349409684841
 21
-17.02814198423323
 31
0.0
  0
LINE
  5
4BD9
330
1F
100
AcDbEntity
  8
SPOJOVACÍ
  6
Continuous
100
AcDbLine
 10
73.29564674268749
 20
-15.60510382277527
 30
0.0
 11
72.84777581478102
 21
-15.86323632631058
 31
0.0
  0
LINE
  5
4BDA
330
1F
100
AcDbEntity
  8
SPOJOVACÍ
  6
Continuous
100
AcDbLine
 10
73.29564674268749
 20
-15.60510382277527
 30
0.0
 11
72.84777581478102
 21
-15.15612976688601
 31
0.0
  0
LINE
  5
4BDB
330
1F
100
AcDbEntity
  8
SPOJOVACÍ
  6
Continuous
100
AcDbLine
 10
67.60349409684841
 20
-17.02814198423323
 30
0.0
 11
68.05136501957804
 21
-17.4760129095531
 31
0.0
  0
LINE
  5
4BDC
330
1F
100
AcDbEntity
  8
SPOJOVACÍ
  6
Continuous
100
AcDbLine
 10
67.60349409684841
 20
-17.02814198423323
 30
0.0
 11
68.05136501957804
 21
-16.76890635013217
 31
0.0
  0
LINE
  5
4BDD
330
1F
100
AcDbEntity
  8
SPOJOVACÍ
  6
Continuous
100
AcDbLine
 10
72.84777581478102
 20
-15.86323632631058
 30
0.0
 11
68.05136501957804
 21
-17.4760129095531
 31
0.0
  0
LINE
  5
4BDE
330
1F
100
AcDbEntity
  8
SPOJOVACÍ
  6
Continuous
100
AcDbLine
 10
72.84777581478102
 20
-15.15612976688601
 30
0.0
 11
68.05136501957804
 21
-16.76890635013217
 31
0.0
  0
LINE
  5
4BDF
330
1F
100
AcDbEntity
  8
SPOJOVACÍ
  6
Continuous
100
AcDbLine
 10
73.29564674268749
 20
-12.20911390852518
 30
0.0
 11
67.60349409684841
 21
-13.63215206998313
 31
0.0
  0
LINE
  5
4BE0
330
1F
100
AcDbEntity
  8
SPOJOVACÍ
  6
Continuous
100
AcDbLine
 10
73.29564674268749
 20
-12.20911390852518
 30
0.0
 11
72.84777581478102
 21
-12.46724641206049
 31
0.0
  0
LINE
  5
4BE1
330
1F
100
AcDbEntity
  8
SPOJOVACÍ
  6
Continuous
100
AcDbLine
 10
73.29564674268749
 20
-12.20911390852518
 30
0.0
 11
72.84777581478102
 21
-11.76013985263591
 31
0.0
  0
LINE
  5
4BE2
330
1F
100
AcDbEntity
  8
SPOJOVACÍ
  6
Continuous
100
AcDbLine
 10
67.60349409684841
 20
-13.63215206998313
 30
0.0
 11
68.05136501957804
 21
-14.08002299530301
 31
0.0
  0
LINE
  5
4BE3
330
1F
100
AcDbEntity
  8
SPOJOVACÍ
  6
Continuous
100
AcDbLine
 10
67.60349409684841
 20
-13.63215206998313
 30
0.0
 11
68.05136501957804
 21
-13.37291643588207
 31
0.0
  0
LINE
  5
4BE4
330
1F
100
AcDbEntity
  8
SPOJOVACÍ
  6
Continuous
100
AcDbLine
 10
72.84777581478102
 20
-12.46724641206049
 30
0.0
 11
68.05136501957804
 21
-14.08002299530301
 31
0.0
  0
LINE
  5
4BE5
330
1F
100
AcDbEntity
  8
SPOJOVACÍ
  6
Continuous
100
AcDbLine
 10
72.84777581478102
 20
-11.76013985263591
 30
0.0
 11
68.05136501957804
 21
-13.37291643588207
 31
0.0
  0
LINE
  5
4BE6
330
1F
100
AcDbEntity
  8
SPOJOVACÍ
  6
Continuous
100
AcDbLine
 10
72.84777581478102
 20
-18.5521196811361
 30
0.0
 11
68.05136501957804
 21
-20.16489626438226
 31
0.0
  0
LINE
  5
4BE7
330
1F
100
AcDbEntity
  8
SPOJOVACÍ
  6
Continuous
100
AcDbLine
 10
72.84777581478102
 20
-19.25922624056068
 30
0.0
 11
68.05136501957804
 21
-20.8720028238032
 31
0.0
  0
LINE
  5
4BE8
330
1F
100
AcDbEntity
  8
SPOJOVACÍ
  6
Continuous
100
AcDbLine
 10
67.60349409684841
 20
-20.42413189848332
 30
0.0
 11
68.05136501957804
 21
-20.16489626438226
 31
0.0
  0
LINE
  5
4BE9
330
1F
100
AcDbEntity
  8
SPOJOVACÍ
  6
Continuous
100
AcDbLine
 10
67.60349409684841
 20
-20.42413189848332
 30
0.0
 11
68.05136501957804
 21
-20.8720028238032
 31
0.0
  0
LINE
  5
4BEA
330
1F
100
AcDbEntity
  8
SPOJOVACÍ
  6
Continuous
100
AcDbLine
 10
73.29564674268749
 20
-19.00109373702537
 30
0.0
 11
72.84777581478102
 21
-18.5521196811361
 31
0.0
  0
LINE
  5
4BEB
330
1F
100
AcDbEntity
  8
SPOJOVACÍ
  6
Continuous
100
AcDbLine
 10
73.29564674268749
 20
-19.00109373702537
 30
0.0
 11
72.84777581478102
 21
-19.25922624056068
 31
0.0
  0
LINE
  5
4BEC
330
1F
100
AcDbEntity
  8
SPOJOVACÍ
  6
Continuous
100
AcDbLine
 10
73.29564674268749
 20
-19.00109373702537
 30
0.0
 11
67.60349409684841
 21
-20.42413189848332
 31
0.0
  0
LINE
  5
4BED
330
1F
100
AcDbEntity
  8
SPOJOVACÍ
  6
Continuous
100
AcDbLine
 10
72.84777581478102
 20
-21.9481095953862
 30
0.0
 11
68.05136501957804
 21
-23.56088617863235
 31
0.0
  0
LINE
  5
4BEE
330
1F
100
AcDbEntity
  8
SPOJOVACÍ
  6
Continuous
100
AcDbLine
 10
72.84777581478102
 20
-22.65521615481077
 30
0.0
 11
68.05136501957804
 21
-24.26799273805329
 31
0.0
  0
LINE
  5
4BEF
330
1F
100
AcDbEntity
  8
SPOJOVACÍ
  6
Continuous
100
AcDbLine
 10
67.60349409684841
 20
-23.82012181273342
 30
0.0
 11
68.05136501957804
 21
-23.56088617863235
 31
0.0
  0
LINE
  5
4BF0
330
1F
100
AcDbEntity
  8
SPOJOVACÍ
  6
Continuous
100
AcDbLine
 10
67.60349409684841
 20
-23.82012181273342
 30
0.0
 11
68.05136501957804
 21
-24.26799273805329
 31
0.0
  0
LINE
  5
4BF1
330
1F
100
AcDbEntity
  8
SPOJOVACÍ
  6
Continuous
100
AcDbLine
 10
73.29564674268749
 20
-22.39708365127546
 30
0.0
 11
72.84777581478102
 21
-21.9481095953862
 31
0.0
  0
LINE
  5
4BF2
330
1F
100
AcDbEntity
  8
SPOJOVACÍ
  6
Continuous
100
AcDbLine
 10
73.29564674268749
 20
-22.39708365127546
 30
0.0
 11
72.84777581478102
 21
-22.65521615481077
 31
0.0
  0
LINE
  5
4BF3
330
1F
100
AcDbEntity
  8
SPOJOVACÍ
  6
Continuous
100
AcDbLine
 10
73.29564674268749
 20
-22.39708365127546
 30
0.0
 11
67.60349409684841
 21
-23.82012181273342
 31
0.0
  0
LINE
  5
4BF4
330
1F
100
AcDbEntity
  8
SPOJOVACÍ
  6
Continuous
100
AcDbLine
 10
72.84777581478102
 20
-25.34409950963629
 30
0.0
 11
68.05136501957804
 21
-26.95687609288245
 31
0.0
  0
LINE
  5
4BF5
330
1F
100
AcDbEntity
  8
SPOJOVACÍ
  6
Continuous
100
AcDbLine
 10
72.84777581478102
 20
-26.05120606906087
 30
0.0
 11
68.05136501957804
 21
-27.66398265230339
 31
0.0
  0
LINE
  5
4BF6
330
1F
100
AcDbEntity
  8
SPOJOVACÍ
  6
Continuous
100
AcDbLine
 10
67.60349409684841
 20
-27.21611172698351
 30
0.0
 11
68.05136501957804
 21
-26.95687609288245
 31
0.0
  0
LINE
  5
4BF7
330
1F
100
AcDbEntity
  8
SPOJOVACÍ
  6
Continuous
100
AcDbLine
 10
67.60349409684841
 20
-27.21611172698351
 30
0.0
 11
68.05136501957804
 21
-27.66398265230339
 31
0.0
  0
LINE
  5
4BF8
330
1F
100
AcDbEntity
  8
SPOJOVACÍ
  6
Continuous
100
AcDbLine
 10
73.29564674268749
 20
-25.79307356552556
 30
0.0
 11
72.84777581478102
 21
-25.34409950963629
 31
0.0
  0
LINE
  5
4BF9
330
1F
100
AcDbEntity
  8
SPOJOVACÍ
  6
Continuous
100
AcDbLine
 10
73.29564674268749
 20
-25.79307356552556
 30
0.0
 11
72.84777581478102
 21
-26.05120606906087
 31
0.0
  0
LINE
  5
4BFA
330
1F
100
AcDbEntity
  8
SPOJOVACÍ
  6
Continuous
100
AcDbLine
 10
73.29564674268749
 20
-25.79307356552556
 30
0.0
 11
67.60349409684841
 21
-27.21611172698351
 31
0.0
  0
LINE
  5
4BFB
330
1F
100
AcDbEntity
  8
SPOJOVACÍ
  6
Continuous
100
AcDbLine
 10
72.84777581478102
 20
-28.74008942388639
 30
0.0
 11
68.05136501957804
 21
-30.35286600713254
 31
0.0
  0
LINE
  5
4BFC
330
1F
100
AcDbEntity
  8
SPOJOVACÍ
  6
Continuous
100
AcDbLine
 10
72.84777581478102
 20
-29.44719598331096
 30
0.0
 11
68.05136501957804
 21
-31.05997256655348
 31
0.0
  0
LINE
  5
4BFD
330
1F
100
AcDbEntity
  8
SPOJOVACÍ
  6
Continuous
100
AcDbLine
 10
67.60349409684841
 20
-30.61210164123361
 30
0.0
 11
68.05136501957804
 21
-30.35286600713254
 31
0.0
  0
LINE
  5
4BFE
330
1F
100
AcDbEntity
  8
SPOJOVACÍ
  6
Continuous
100
AcDbLine
 10
67.60349409684841
 20
-30.61210164123361
 30
0.0
 11
68.05136501957804
 21
-31.05997256655348
 31
0.0
  0
LINE
  5
4BFF
330
1F
100
AcDbEntity
  8
SPOJOVACÍ
  6
Continuous
100
AcDbLine
 10
73.29564674268749
 20
-29.18906347977565
 30
0.0
 11
72.84777581478102
 21
-28.74008942388639
 31
0.0
  0
LINE
  5
4C00
330
1F
100
AcDbEntity
  8
SPOJOVACÍ
  6
Continuous
100
AcDbLine
 10
73.29564674268749
 20
-29.18906347977565
 30
0.0
 11
72.84777581478102
 21
-29.44719598331096
 31
0.0
  0
LINE
  5
4C01
330
1F
100
AcDbEntity
  8
SPOJOVACÍ
  6
Continuous
100
AcDbLine
 10
73.29564674268749
 20
-29.18906347977565
 30
0.0
 11
67.60349409684841
 21
-30.61210164123361
 31
0.0
  0
LINE
  5
4C02
330
1F
100
AcDbEntity
  8
SPOJOVACÍ
  6
Continuous
100
AcDbLine
 10
72.84777581478102
 20
-32.13607933813648
 30
0.0
 11
68.05136501957804
 21
-33.74885592138264
 31
0.0
  0
LINE
  5
4C03
330
1F
100
AcDbEntity
  8
SPOJOVACÍ
  6
Continuous
100
AcDbLine
 10
72.84777581478102
 20
-32.84318589756106
 30
0.0
 11
68.05136501957804
 21
-34.45596248080358
 31
0.0
  0
LINE
  5
4C04
330
1F
100
AcDbEntity
  8
SPOJOVACÍ
  6
Continuous
100
AcDbLine
 10
67.60349409684841
 20
-34.0080915554837
 30
0.0
 11
68.05136501957804
 21
-33.74885592138264
 31
0.0
  0
LINE
  5
4C05
330
1F
100
AcDbEntity
  8
SPOJOVACÍ
  6
Continuous
100
AcDbLine
 10
67.60349409684841
 20
-34.0080915554837
 30
0.0
 11
68.05136501957804
 21
-34.45596248080358
 31
0.0
  0
LINE
  5
4C06
330
1F
100
AcDbEntity
  8
SPOJOVACÍ
  6
Continuous
100
AcDbLine
 10
73.29564674268749
 20
-32.58505339402574
 30
0.0
 11
72.84777581478102
 21
-32.13607933813648
 31
0.0
  0
LINE
  5
4C07
330
1F
100
AcDbEntity
  8
SPOJOVACÍ
  6
Continuous
100
AcDbLine
 10
73.29564674268749
 20
-32.58505339402574
 30
0.0
 11
72.84777581478102
 21
-32.84318589756106
 31
0.0
  0
LINE
  5
4C08
330
1F
100
AcDbEntity
  8
SPOJOVACÍ
  6
Continuous
100
AcDbLine
 10
73.29564674268749
 20
-32.58505339402574
 30
0.0
 11
67.60349409684841
 21
-34.0080915554837
 31
0.0
  0
LINE
  5
4C09
330
1F
100
AcDbEntity
  8
SPOJOVACÍ
  6
Continuous
100
AcDbLine
 10
72.84777581478102
 20
-35.53206925238657
 30
0.0
 11
68.05136501957804
 21
-37.14484583563273
 31
0.0
  0
LINE
  5
4C0A
330
1F
100
AcDbEntity
  8
SPOJOVACÍ
  6
Continuous
100
AcDbLine
 10
72.84777581478102
 20
-36.23917581181115
 30
0.0
 11
68.05136501957804
 21
-37.85195239505367
 31
0.0
  0
LINE
  5
4C0B
330
1F
100
AcDbEntity
  8
SPOJOVACÍ
  6
Continuous
100
AcDbLine
 10
67.60349409684841
 20
-37.40408146973379
 30
0.0
 11
68.05136501957804
 21
-37.14484583563273
 31
0.0
  0
LINE
  5
4C0C
330
1F
100
AcDbEntity
  8
SPOJOVACÍ
  6
Continuous
100
AcDbLine
 10
67.60349409684841
 20
-37.40408146973379
 30
0.0
 11
68.05136501957804
 21
-37.85195239505367
 31
0.0
  0
LINE
  5
4C0D
330
1F
100
AcDbEntity
  8
SPOJOVACÍ
  6
Continuous
100
AcDbLine
 10
73.29564674268749
 20
-35.98104330827584
 30
0.0
 11
72.84777581478102
 21
-35.53206925238657
 31
0.0
  0
LINE
  5
4C0E
330
1F
100
AcDbEntity
  8
SPOJOVACÍ
  6
Continuous
100
AcDbLine
 10
73.29564674268749
 20
-35.98104330827584
 30
0.0
 11
72.84777581478102
 21
-36.23917581181115
 31
0.0
  0
LINE
  5
4C0F
330
1F
100
AcDbEntity
  8
SPOJOVACÍ
  6
Continuous
100
AcDbLine
 10
73.29564674268749
 20
-35.98104330827584
 30
0.0
 11
67.60349409684841
 21
-37.40408146973379
 31
0.0
  0
LINE
  5
4C10
330
1F
100
AcDbEntity
  8
SPOJOVACÍ
  6
Continuous
100
AcDbLine
 10
73.29564674268749
 20
-39.37703322252593
 30
0.0
 11
67.60349409684841
 21
-40.80007138398388
 31
0.0
  0
LINE
  5
4C11
330
1F
100
AcDbEntity
  8
SPOJOVACÍ
  6
Continuous
100
AcDbLine
 10
73.29564674268749
 20
-39.37703322252593
 30
0.0
 11
72.84777581478102
 21
-39.63516572606124
 31
0.0
  0
LINE
  5
4C12
330
1F
100
AcDbEntity
  8
SPOJOVACÍ
  6
Continuous
100
AcDbLine
 10
73.29564674268749
 20
-39.37703322252593
 30
0.0
 11
72.84777581478102
 21
-38.92805916663667
 31
0.0
  0
LINE
  5
4C13
330
1F
100
AcDbEntity
  8
SPOJOVACÍ
  6
Continuous
100
AcDbLine
 10
67.60349409684841
 20
-40.80007138398388
 30
0.0
 11
68.05136501957804
 21
-41.24794230930376
 31
0.0
  0
LINE
  5
4C14
330
1F
100
AcDbEntity
  8
SPOJOVACÍ
  6
Continuous
100
AcDbLine
 10
67.60349409684841
 20
-40.80007138398388
 30
0.0
 11
68.05136501957804
 21
-40.54083574988283
 31
0.0
  0
LINE
  5
4C15
330
1F
100
AcDbEntity
  8
SPOJOVACÍ
  6
Continuous
100
AcDbLine
 10
72.84777581478102
 20
-39.63516572606124
 30
0.0
 11
68.05136501957804
 21
-41.24794230930376
 31
0.0
  0
LINE
  5
4C16
330
1F
100
AcDbEntity
  8
SPOJOVACÍ
  6
Continuous
100
AcDbLine
 10
72.84777581478102
 20
-38.92805916663667
 30
0.0
 11
68.05136501957804
 21
-40.54083574988283
 31
0.0
  0
LINE
  5
4C17
330
1F
100
AcDbEntity
  8
SPOJOVACÍ
  6
DASHED
100
AcDbLine
 10
70.44957041976795
 20
-54.11031119389111
 30
0.0
 11
68.73863291976795
 21
-41.40505107019737
 31
0.0
  0
LINE
  5
4C18
330
1F
100
AcDbEntity
  8
SPOJOVACÍ
  6
DASHED
100
AcDbLine
 10
70.44957041976795
 20
-54.11031119389111
 30
0.0
 11
72.16050791976795
 21
-41.40505107019737
 31
0.0
  0
LINE
  5
4C19
330
1F
100
AcDbEntity
  8
SPOJOVACÍ
  6
DASHED
100
AcDbLine
 10
68.73863291976795
 20
-41.40505107019737
 30
0.0
 11
68.73863291976795
 21
-0.6168656979617709
 31
0.0
  0
LINE
  5
4C1A
330
1F
100
AcDbEntity
  8
SPOJOVACÍ
  6
DASHED
100
AcDbLine
 10
72.16050791976795
 20
-41.40505107019737
 30
0.0
 11
72.16050791976795
 21
-0.6168656979581329
 31
0.0
  0
LINE
  5
4C1B
330
1F
100
AcDbEntity
  8
SPOJOVACÍ
  6
Continuous
100
AcDbLine
 10
72.84777581478102
 20
-42.32404908088676
 30
0.0
 11
68.05136501957804
 21
-43.93682566413292
 31
0.0
  0
LINE
  5
4C1C
330
1F
100
AcDbEntity
  8
SPOJOVACÍ
  6
Continuous
100
AcDbLine
 10
72.84777581478102
 20
-43.03115564031133
 30
0.0
 11
68.05136501957804
 21
-44.64393222355385
 31
0.0
  0
LINE
  5
4C1D
330
1F
100
AcDbEntity
  8
SPOJOVACÍ
  6
Continuous
100
AcDbLine
 10
67.60349409684841
 20
-44.19606129823399
 30
0.0
 11
68.05136501957804
 21
-43.93682566413292
 31
0.0
  0
LINE
  5
4C1E
330
1F
100
AcDbEntity
  8
SPOJOVACÍ
  6
Continuous
100
AcDbLine
 10
67.60349409684841
 20
-44.19606129823399
 30
0.0
 11
68.05136501957804
 21
-44.64393222355385
 31
0.0
  0
LINE
  5
4C1F
330
1F
100
AcDbEntity
  8
SPOJOVACÍ
  6
Continuous
100
AcDbLine
 10
73.29564674268749
 20
-42.77302313677603
 30
0.0
 11
72.84777581478102
 21
-42.32404908088676
 31
0.0
  0
LINE
  5
4C20
330
1F
100
AcDbEntity
  8
SPOJOVACÍ
  6
Continuous
100
AcDbLine
 10
73.29564674268749
 20
-42.77302313677603
 30
0.0
 11
72.84777581478102
 21
-43.03115564031133
 31
0.0
  0
LINE
  5
4C21
330
1F
100
AcDbEntity
  8
SPOJOVACÍ
  6
Continuous
100
AcDbLine
 10
73.29564674268749
 20
-42.77302313677603
 30
0.0
 11
67.60349409684841
 21
-44.19606129823399
 31
0.0
  0
LINE
  5
4C22
330
1F
100
AcDbEntity
  8
SPOJOVACÍ
  6
Continuous
100
AcDbLine
 10
71.49802387862928
 20
-52.25586742785265
 30
0.0
 11
69.27641526400384
 21
-52.57625485349592
 31
0.0
  0
LINE
  5
4C23
330
1F
100
AcDbEntity
  8
SPOJOVACÍ
  6
Continuous
100
AcDbLine
 10
71.10857090234185
 20
-51.86641444931694
 30
0.0
 11
69.66586824028763
 21
-52.35179180666557
 31
0.0
  0
LINE
  5
4C24
330
1F
100
AcDbEntity
  8
SPOJOVACÍ
  6
Continuous
100
AcDbLine
 10
71.10857090234185
 20
-52.48128971837388
 30
0.0
 11
69.66586824028763
 21
-52.96666707572978
 31
0.0
  0
LINE
  5
4C25
330
1F
100
AcDbEntity
  8
SPOJOVACÍ
  6
Continuous
100
AcDbLine
 10
69.27641526400384
 20
-52.57625485349592
 30
0.0
 11
69.66586824028763
 21
-52.35179180666557
 31
0.0
  0
LINE
  5
4C26
330
1F
100
AcDbEntity
  8
SPOJOVACÍ
  6
Continuous
100
AcDbLine
 10
69.27641526400384
 20
-52.57625485349592
 30
0.0
 11
69.66586824028763
 21
-52.96666707572978
 31
0.0
  0
LINE
  5
4C27
330
1F
100
AcDbEntity
  8
SPOJOVACÍ
  6
Continuous
100
AcDbLine
 10
71.49802387862928
 20
-52.25586742785265
 30
0.0
 11
71.10857090234185
 21
-51.86641444931694
 31
0.0
  0
LINE
  5
4C28
330
1F
100
AcDbEntity
  8
SPOJOVACÍ
  6
Continuous
100
AcDbLine
 10
71.49802387862928
 20
-52.25586742785265
 30
0.0
 11
71.10857090234185
 21
-52.48128971837388
 31
0.0
  0
LINE
  5
4C29
330
1F
100
AcDbEntity
  8
SPOJOVACÍ
  6
Continuous
100
AcDbLine
 10
72.08028486130479
 20
-49.14791755021099
 30
0.0
 11
68.86681816623149
 21
-49.80116257062866
 31
0.0
  0
LINE
  5
4C2A
330
1F
100
AcDbEntity
  8
SPOJOVACÍ
  6
Continuous
100
AcDbLine
 10
71.69083188051354
 20
-48.757505327697
 30
0.0
 11
69.25627114252256
 21
-49.57669952408207
 31
0.0
  0
LINE
  5
4C2B
330
1F
100
AcDbEntity
  8
SPOJOVACÍ
  6
Continuous
100
AcDbLine
 10
71.69083188051354
 20
-49.37238059676122
 30
0.0
 11
69.25627114252256
 21
-50.19157479285889
 31
0.0
  0
LINE
  5
4C2C
330
1F
100
AcDbEntity
  8
SPOJOVACÍ
  6
Continuous
100
AcDbLine
 10
68.86681816623149
 20
-49.80116257062866
 30
0.0
 11
69.25627114252256
 21
-49.57669952408207
 31
0.0
  0
LINE
  5
4C2D
330
1F
100
AcDbEntity
  8
SPOJOVACÍ
  6
Continuous
100
AcDbLine
 10
68.86681816623149
 20
-49.80116257062866
 30
0.0
 11
69.25627114252256
 21
-50.19157479285889
 31
0.0
  0
LINE
  5
4C2E
330
1F
100
AcDbEntity
  8
SPOJOVACÍ
  6
Continuous
100
AcDbLine
 10
72.08028486130479
 20
-49.14791755021099
 30
0.0
 11
71.69083188051354
 21
-48.757505327697
 31
0.0
  0
LINE
  5
4C2F
330
1F
100
AcDbEntity
  8
SPOJOVACÍ
  6
Continuous
100
AcDbLine
 10
72.08028486130479
 20
-49.14791755021099
 30
0.0
 11
71.69083188051354
 21
-49.37238059676122
 31
0.0
  0
LINE
  5
4C30
330
1F
100
AcDbEntity
  8
SPOJOVACÍ
  6
Continuous
100
AcDbLine
 10
72.66254583947284
 20
-46.03900842859104
 30
0.0
 11
68.40829963508349
 21
-47.04237743221995
 31
0.0
  0
LINE
  5
4C31
330
1F
100
AcDbEntity
  8
SPOJOVACÍ
  6
Continuous
100
AcDbLine
 10
72.2721336178065
 20
-45.64955545005171
 30
0.0
 11
68.79775261137092
 21
-46.81791438566972
 31
0.0
  0
LINE
  5
4C32
330
1F
100
AcDbEntity
  8
SPOJOVACÍ
  6
Continuous
100
AcDbLine
 10
72.2721336178065
 20
-46.26443071911956
 30
0.0
 11
68.79775261137092
 21
-47.43278965473393
 31
0.0
  0
LINE
  5
4C33
330
1F
100
AcDbEntity
  8
SPOJOVACÍ
  6
Continuous
100
AcDbLine
 10
68.40829963508349
 20
-47.04237743221995
 30
0.0
 11
68.79775261137092
 21
-46.81791438566972
 31
0.0
  0
LINE
  5
4C34
330
1F
100
AcDbEntity
  8
SPOJOVACÍ
  6
Continuous
100
AcDbLine
 10
68.40829963508349
 20
-47.04237743221995
 30
0.0
 11
68.79775261137092
 21
-47.43278965473393
 31
0.0
  0
LINE
  5
4C35
330
1F
100
AcDbEntity
  8
SPOJOVACÍ
  6
Continuous
100
AcDbLine
 10
72.66254583947284
 20
-46.03900842859104
 30
0.0
 11
72.2721336178065
 21
-45.64955545005171
 31
0.0
  0
LINE
  5
4C36
330
1F
100
AcDbEntity
  8
SPOJOVACÍ
  6
Continuous
100
AcDbLine
 10
72.66254583947284
 20
-46.03900842859104
 30
0.0
 11
72.2721336178065
 21
-46.26443071911956
 31
0.0
  0
LINE
  5
4C37
330
1F
100
AcDbEntity
  8
SPOJOVACÍ
  6
DASHDOT2
100
AcDbLine
 10
70.44957041976795
 20
13.9042319713543
 30
0.0
 11
70.44957041976795
 21
-54.50152323761461
 31
0.0
  0
LINE
  5
4C38
330
1F
100
AcDbEntity
  8
SPOJOVACÍ
100
AcDbLine
 10
77.19957041976795
 20
4.007356971086551
 30
0.0
 11
63.69957041976795
 21
4.007356971086551
 31
0.0
  0
LINE
  5
4C39
330
1F
100
AcDbEntity
  8
SPOJOVACÍ
100
AcDbLine
 10
63.69957041976795
 20
4.007356971086551
 30
0.0
 11
63.69957041976795
 21
2.565768604616891
 31
0.0
  0
LINE
  5
4C3A
330
1F
100
AcDbEntity
  8
SPOJOVACÍ
100
AcDbLine
 10
77.19957041976795
 20
4.007356971086551
 30
0.0
 11
77.19957041976795
 21
2.565768604616891
 31
0.0
  0
LINE
  5
4C3B
330
1F
100
AcDbEntity
  8
SPOJOVACÍ
100
AcDbLine
 10
63.69957041976795
 20
2.565768604616891
 30
0.0
 11
63.69957041976795
 21
3.442679226750328
 31
0.0
  0
LINE
  5
4C3C
330
1F
100
AcDbEntity
  8
SPOJOVACÍ
100
AcDbLine
 10
63.69957041976795
 20
2.565768604616891
 30
0.0
 11
68.73863291976795
 21
-0.6168656979617709
 31
0.0
  0
LINE
  5
4C3D
330
1F
100
AcDbEntity
  8
SPOJOVACÍ
  6
DASHED
100
AcDbLine
 10
77.19957041976795
 20
2.565768604616891
 30
0.0
 11
72.16050791976795
 21
-0.6168656979581329
 31
0.0
  0
LINE
  5
4C3E
330
1F
100
AcDbEntity
  8
SPOJOVACÍ
100
AcDbLine
 10
77.19957041976795
 20
2.565768604616891
 30
0.0
 11
77.19957041976795
 21
3.442679226750328
 31
0.0
  0
LINE
  5
4C3F
330
1F
100
AcDbEntity
  8
SPOJOVACÍ
100
AcDbLine
 10
77.19957041976795
 20
3.442679226750328
 30
0.0
 11
77.19957041976795
 21
2.565768604616891
 31
0.0
  0
HATCH
  5
4C40
330
1F
100
AcDbEntity
  8
izolace
100
AcDbHatch
 10
0.0
 20
0.0
 30
0.0
210
0.0
220
0.0
230
1.0
  2
SOLID
 70
     1
 71
     0
 91
        3
 92
        7
 72
     0
 73
     1
 93
        4
 10
94.94428263563078
 20
0.1952633269455646
 10
94.94428263563078
 20
-1.804736673050797
 10
88.24355769810336
 20
-1.804736673054435
 10
88.24355769810336
 20
0.1952633269455646
 97
        0
 92
        7
 72
     0
 73
     1
 93
        4
 10
75.74248069112491
 20
0.1952633269455646
 10
75.74248069112491
 20
-1.804736673054435
 10
63.2414036841501
 20
-1.804736673054435
 10
63.2414036841501
 20
0.1952633269455646
 97
        0
 92
        7
 72
     0
 73
     1
 93
        4
 10
50.74032667717529
 20
0.1952633269492026
 10
50.74032667717529
 20
-1.804736673058073
 10
44.93997460772789
 20
-1.804736673054435
 10
44.93997460772789
 20
0.1952633269492026
 97
        0
 75
     0
 76
     1
 47
0.0846398039763049
 98
        3
 10
90.07460664254086
 20
-0.5110387180949374
 10
73.40055323698379
 20
-0.3416530024452413
 10
50.20915657347996
 20
-0.5956728836946468
  0
LWPOLYLINE
  5
4C41
330
1F
100
AcDbEntity
  8
izolace
100
AcDbPolyline
 90
        4
 70
     1
 43
0.0
 10
75.74248069112491
 20
-1.804736673054435
 10
75.74248069112491
 20
0.1952633269492026
 10
88.24355769810336
 20
0.1952633269492026
 10
88.24355769810336
 20
-1.804736673054435
  0
LWPOLYLINE
  5
4C42
330
1F
100
AcDbEntity
  8
izolace
100
AcDbPolyline
 90
        4
 70
     1
 43
0.0
 10
50.74032667717529
 20
-1.804736673054435
 10
50.74032667717529
 20
0.1952633269492026
 10
63.2414036841501
 20
0.1952633269492026
 10
63.2414036841501
 20
-1.804736673054435
  0
LINE
  5
4C43
330
1F
100
AcDbEntity
  8
izolace
100
AcDbLine
 10
94.94428263563078
 20
-1.804736673047159
 30
0.0
 11
44.93997460772789
 21
-1.804736673054435
 31
0.0
  0
LINE
  5
4C44
330
1F
100
AcDbEntity
  8
izolace
100
AcDbLine
 10
94.94428263563078
 20
0.1952633269492026
 30
0.0
 11
44.93997460772789
 21
0.1952633269492026
 31
0.0
  0
LINE
  5
4C45
330
1F
100
AcDbEntity
  8
CETRIS
100
AcDbLine
 10
95.70951819732636
 20
1.765916935276322
 30
0.0
 11
95.70951819732636
 21
341.5179904028263
 31
0.0
  0
LINE
  5
4C46
330
1F
100
AcDbEntity
  8
CETRIS
100
AcDbLine
 10
107.7095181973263
 20
1.76591693527996
 30
0.0
 11
107.7095181973227
 21
343.7281516811261
 31
0.0
  0
LINE
  5
4C47
330
1F
100
AcDbEntity
  8
CETRIS
100
AcDbLine
 10
32.47726391257947
 20
1.765916935276322
 30
0.0
 11
32.47726391257947
 21
329.8718670728484
 31
0.0
  0
LINE
  5
4C48
330
1F
100
AcDbEntity
  8
CETRIS
100
AcDbLine
 10
44.47726391257583
 20
1.765916935276322
 30
0.0
 11
44.47726391257583
 21
332.0820283511474
 31
0.0
  0
POLYLINE
  5
4C49
102
{ACAD_REACTORS
330
4C9D
102
}
330
1F
100
AcDbEntity
  8
NOSNÉ KONSTRUKCE
100
AcDb2dPolyline
 66
     1
 10
0.0
 20
0.0
 30
0.0
  0
VERTEX
  5
4C4A
330
4C49
100
AcDbEntity
  8
NOSNÉ KONSTRUKCE
100
AcDbVertex
100
AcDb2dVertex
 10
50.26530040140551
 20
51.91375156654965
 30
0.0
  0
VERTEX
  5
4C4B
330
4C49
100
AcDbEntity
  8
NOSNÉ KONSTRUKCE
100
AcDbVertex
100
AcDb2dVertex
 10
46.30413601515011
 20
51.91375156654965
 30
0.0
 42
0.4142139852046967
  0
VERTEX
  5
4C4C
330
4C49
100
AcDbEntity
  8
NOSNÉ KONSTRUKCE
100
AcDbVertex
100
AcDb2dVertex
 10
44.93997460772789
 20
50.5496959062474
 30
0.0
  0
VERTEX
  5
4C4D
330
4C49
100
AcDbEntity
  8
NOSNÉ KONSTRUKCE
100
AcDbVertex
100
AcDb2dVertex
 10
44.93997460772789
 20
41.2100222574262
 30
0.0
 42
0.2679489850997925
  0
VERTEX
  5
4C4E
330
4C49
100
AcDbEntity
  8
NOSNÉ KONSTRUKCE
100
AcDbVertex
100
AcDb2dVertex
 10
45.62194957920564
 20
40.02877816049283
 30
0.0
 42
-0.5773500204086304
  0
VERTEX
  5
4C4F
330
4C49
100
AcDbEntity
  8
NOSNÉ KONSTRUKCE
100
AcDbVertex
100
AcDb2dVertex
 10
45.62194957920564
 20
37.66607851605283
 30
0.0
 42
0.2679489850997925
  0
VERTEX
  5
4C50
330
4C49
100
AcDbEntity
  8
NOSNÉ KONSTRUKCE
100
AcDbVertex
100
AcDb2dVertex
 10
44.93997460772789
 20
36.48483441911583
 30
0.0
  0
VERTEX
  5
4C51
330
4C49
100
AcDbEntity
  8
NOSNÉ KONSTRUKCE
100
AcDbVertex
100
AcDb2dVertex
 10
44.93997460772789
 20
28.44260492746241
 30
0.0
 42
0.2679489850997925
  0
VERTEX
  5
4C52
330
4C49
100
AcDbEntity
  8
NOSNÉ KONSTRUKCE
100
AcDbVertex
100
AcDb2dVertex
 10
45.62194957920564
 20
27.26136086228496
 30
0.0
 42
-0.5773500204086304
  0
VERTEX
  5
4C53
330
4C49
100
AcDbEntity
  8
NOSNÉ KONSTRUKCE
100
AcDbVertex
100
AcDb2dVertex
 10
45.62194957920564
 20
24.89876694312977
 30
0.0
 42
0.2679489850997925
  0
VERTEX
  5
4C54
330
4C49
100
AcDbEntity
  8
NOSNÉ KONSTRUKCE
100
AcDbVertex
100
AcDb2dVertex
 10
44.93997460772789
 20
23.7175228461964
 30
0.0
  0
VERTEX
  5
4C55
330
4C49
100
AcDbEntity
  8
NOSNÉ KONSTRUKCE
100
AcDbVertex
100
AcDb2dVertex
 10
44.93997460772789
 20
15.67529335453935
 30
0.0
 42
0.2679489850997925
  0
VERTEX
  5
4C56
330
4C49
100
AcDbEntity
  8
NOSNÉ KONSTRUKCE
100
AcDbVertex
100
AcDb2dVertex
 10
45.62194957920564
 20
14.49404925760598
 30
0.0
 42
-0.5773500204086304
  0
VERTEX
  5
4C57
330
4C49
100
AcDbEntity
  8
NOSNÉ KONSTRUKCE
100
AcDbVertex
100
AcDb2dVertex
 10
45.62194957920564
 20
12.13145537021034
 30
0.0
 42
0.2679489850997925
  0
VERTEX
  5
4C58
330
4C49
100
AcDbEntity
  8
NOSNÉ KONSTRUKCE
100
AcDbVertex
100
AcDb2dVertex
 10
44.93997460772789
 20
10.95021127327697
 30
0.0
  0
VERTEX
  5
4C59
330
4C49
100
AcDbEntity
  8
NOSNÉ KONSTRUKCE
100
AcDbVertex
100
AcDb2dVertex
 10
44.93997460772789
 20
2.182233528826941
 30
0.0
 42
0.4142139852046967
  0
VERTEX
  5
4C5A
330
4C49
100
AcDbEntity
  8
NOSNÉ KONSTRUKCE
100
AcDbVertex
100
AcDb2dVertex
 10
46.30413601515011
 20
0.8181778685246854
 30
0.0
  0
VERTEX
  5
4C5B
330
4C49
100
AcDbEntity
  8
NOSNÉ KONSTRUKCE
100
AcDbVertex
100
AcDb2dVertex
 10
52.42901137842181
 20
0.8181778685246854
 30
0.0
 42
0.247529000043869
  0
VERTEX
  5
4C5C
330
4C49
100
AcDbEntity
  8
NOSNÉ KONSTRUKCE
100
AcDbVertex
100
AcDb2dVertex
 10
53.55442867782312
 20
1.411866156704377
 30
0.0
 42
-0.247529000043869
  0
VERTEX
  5
4C5D
330
4C49
100
AcDbEntity
  8
NOSNÉ KONSTRUKCE
100
AcDbVertex
100
AcDb2dVertex
 10
54.68026890814053
 20
2.005448719595619
 30
0.0
  0
VERTEX
  5
4C5E
330
4C49
100
AcDbEntity
  8
NOSNÉ KONSTRUKCE
100
AcDbVertex
100
AcDb2dVertex
 10
58.4989058139281
 20
2.005448719595619
 30
0.0
 42
-0.247529000043869
  0
VERTEX
  5
4C5F
330
4C49
100
AcDbEntity
  8
NOSNÉ KONSTRUKCE
100
AcDbVertex
100
AcDb2dVertex
 10
59.62432311332941
 20
1.411866156704377
 30
0.0
 42
0.247529000043869
  0
VERTEX
  5
4C60
330
4C49
100
AcDbEntity
  8
NOSNÉ KONSTRUKCE
100
AcDbVertex
100
AcDb2dVertex
 10
60.75016334365045
 20
0.8181778685246854
 30
0.0
  0
VERTEX
  5
4C61
330
4C49
100
AcDbEntity
  8
NOSNÉ KONSTRUKCE
100
AcDbVertex
100
AcDb2dVertex
 10
79.13409389772914
 20
0.8181778685246854
 30
0.0
 42
0.247529000043869
  0
VERTEX
  5
4C62
330
4C49
100
AcDbEntity
  8
NOSNÉ KONSTRUKCE
100
AcDbVertex
100
AcDb2dVertex
 10
80.25993413002925
 20
1.411866156704377
 30
0.0
 42
-0.247529000043869
  0
VERTEX
  5
4C63
330
4C49
100
AcDbEntity
  8
NOSNÉ KONSTRUKCE
100
AcDbVertex
100
AcDb2dVertex
 10
81.38535142943419
 20
2.005448719595619
 30
0.0
  0
VERTEX
  5
4C64
330
4C49
100
AcDbEntity
  8
NOSNÉ KONSTRUKCE
100
AcDbVertex
100
AcDb2dVertex
 10
85.20398833323543
 20
2.005448719595619
 30
0.0
 42
-0.247529000043869
  0
VERTEX
  5
4C65
330
4C49
100
AcDbEntity
  8
NOSNÉ KONSTRUKCE
100
AcDbVertex
100
AcDb2dVertex
 10
86.32982856355283
 20
1.411866156704377
 30
0.0
 42
0.247529000043869
  0
VERTEX
  5
4C66
330
4C49
100
AcDbEntity
  8
NOSNÉ KONSTRUKCE
100
AcDbVertex
100
AcDb2dVertex
 10
87.45524586494047
 20
0.8181778685246854
 30
0.0
  0
VERTEX
  5
4C67
330
4C49
100
AcDbEntity
  8
NOSNÉ KONSTRUKCE
100
AcDbVertex
100
AcDb2dVertex
 10
93.5801212282122
 20
0.8181778685246854
 30
0.0
 42
0.4142139852046967
  0
VERTEX
  5
4C68
330
4C49
100
AcDbEntity
  8
NOSNÉ KONSTRUKCE
100
AcDbVertex
100
AcDb2dVertex
 10
94.94428263364808
 20
2.182233528826941
 30
0.0
  0
VERTEX
  5
4C69
330
4C49
100
AcDbEntity
  8
NOSNÉ KONSTRUKCE
100
AcDbVertex
100
AcDb2dVertex
 10
94.94428263364808
 20
10.95021127327697
 30
0.0
 42
0.2679489850997925
  0
VERTEX
  5
4C6A
330
4C49
100
AcDbEntity
  8
NOSNÉ KONSTRUKCE
100
AcDbVertex
100
AcDb2dVertex
 10
94.26230766415301
 20
12.13145537021034
 30
0.0
 42
-0.5773500204086304
  0
VERTEX
  5
4C6B
330
4C49
100
AcDbEntity
  8
NOSNÉ KONSTRUKCE
100
AcDbVertex
100
AcDb2dVertex
 10
94.26230766415301
 20
14.49404925760598
 30
0.0
 42
0.2679489850997925
  0
VERTEX
  5
4C6C
330
4C49
100
AcDbEntity
  8
NOSNÉ KONSTRUKCE
100
AcDbVertex
100
AcDb2dVertex
 10
94.94428263364808
 20
15.67529335453935
 30
0.0
  0
VERTEX
  5
4C6D
330
4C49
100
AcDbEntity
  8
NOSNÉ KONSTRUKCE
100
AcDbVertex
100
AcDb2dVertex
 10
94.94428263364808
 20
23.7175228461964
 30
0.0
 42
0.2679489850997925
  0
VERTEX
  5
4C6E
330
4C49
100
AcDbEntity
  8
NOSNÉ KONSTRUKCE
100
AcDbVertex
100
AcDb2dVertex
 10
94.26230766415301
 20
24.89876694312977
 30
0.0
 42
-0.5773500204086304
  0
VERTEX
  5
4C6F
330
4C49
100
AcDbEntity
  8
NOSNÉ KONSTRUKCE
100
AcDbVertex
100
AcDb2dVertex
 10
94.26230766415301
 20
27.26136086228496
 30
0.0
 42
0.2679489850997925
  0
VERTEX
  5
4C70
330
4C49
100
AcDbEntity
  8
NOSNÉ KONSTRUKCE
100
AcDbVertex
100
AcDb2dVertex
 10
94.94428263364808
 20
28.44260492746241
 30
0.0
  0
VERTEX
  5
4C71
330
4C49
100
AcDbEntity
  8
NOSNÉ KONSTRUKCE
100
AcDbVertex
100
AcDb2dVertex
 10
94.94428263364808
 20
36.48483441911583
 30
0.0
 42
0.2679489850997925
  0
VERTEX
  5
4C72
330
4C49
100
AcDbEntity
  8
NOSNÉ KONSTRUKCE
100
AcDbVertex
100
AcDb2dVertex
 10
94.26230766415301
 20
37.66607851605283
 30
0.0
 42
-0.5773500204086304
  0
VERTEX
  5
4C73
330
4C49
100
AcDbEntity
  8
NOSNÉ KONSTRUKCE
100
AcDbVertex
100
AcDb2dVertex
 10
94.26230766415301
 20
40.02877816049283
 30
0.0
 42
0.2679489850997925
  0
VERTEX
  5
4C74
330
4C49
100
AcDbEntity
  8
NOSNÉ KONSTRUKCE
100
AcDbVertex
100
AcDb2dVertex
 10
94.94428263364808
 20
41.2100222574262
 30
0.0
  0
VERTEX
  5
4C75
330
4C49
100
AcDbEntity
  8
NOSNÉ KONSTRUKCE
100
AcDbVertex
100
AcDb2dVertex
 10
94.94428263364808
 20
48.36727025952848
 30
0.0
 42
0.4142139852046967
  0
VERTEX
  5
4C76
330
4C49
100
AcDbEntity
  8
NOSNÉ KONSTRUKCE
100
AcDbVertex
100
AcDb2dVertex
 10
93.5801212282122
 20
49.73122019454592
 30
0.0
  0
VERTEX
  5
4C77
330
4C49
100
AcDbEntity
  8
NOSNÉ KONSTRUKCE
100
AcDbVertex
100
AcDb2dVertex
 10
89.61895684195315
 20
49.73122019454592
 30
0.0
  0
SEQEND
  5
4C78
330
4C49
100
AcDbEntity
  8
NOSNÉ KONSTRUKCE
  0
POLYLINE
  5
4C79
102
{ACAD_REACTORS
330
4C9D
102
}
330
1F
100
AcDbEntity
  8
NOSNÉ KONSTRUKCE
100
AcDb2dPolyline
 66
     1
 10
0.0
 20
0.0
 30
0.0
  0
VERTEX
  5
4C7A
330
4C79
100
AcDbEntity
  8
NOSNÉ KONSTRUKCE
100
AcDbVertex
100
AcDb2dVertex
 10
46.43997460772789
 20
41.28727791259359
 30
0.0
 42
-0.5590620544015654
  0
VERTEX
  5
4C7B
330
4C79
100
AcDbEntity
  8
NOSNÉ KONSTRUKCE
100
AcDbVertex
100
AcDb2dVertex
 10
46.43997460772789
 20
36.40757876394843
 30
0.0
  0
VERTEX
  5
4C7C
330
4C79
100
AcDbEntity
  8
NOSNÉ KONSTRUKCE
100
AcDbVertex
100
AcDb2dVertex
 10
46.43997460772789
 20
28.51986058699537
 30
0.0
 42
-0.5590616644338536
  0
VERTEX
  5
4C7D
330
4C79
100
AcDbEntity
  8
NOSNÉ KONSTRUKCE
100
AcDbVertex
100
AcDb2dVertex
 10
46.43997460773152
 20
23.64026721841571
 30
0.0
  0
VERTEX
  5
4C7E
330
4C79
100
AcDbEntity
  8
NOSNÉ KONSTRUKCE
100
AcDbVertex
100
AcDb2dVertex
 10
46.43997460772789
 20
15.75254898230912
 30
0.0
 42
-0.559061664315726
  0
VERTEX
  5
4C7F
330
4C79
100
AcDbEntity
  8
NOSNÉ KONSTRUKCE
100
AcDbVertex
100
AcDb2dVertex
 10
46.43997460772789
 20
10.8729556455072
 30
0.0
  0
VERTEX
  5
4C80
330
4C79
100
AcDbEntity
  8
NOSNÉ KONSTRUKCE
100
AcDbVertex
100
AcDb2dVertex
 10
46.43997460772789
 20
3.318177868524685
 30
0.0
 42
0.4142135623731029
  0
VERTEX
  5
4C81
330
4C79
100
AcDbEntity
  8
NOSNÉ KONSTRUKCE
100
AcDbVertex
100
AcDb2dVertex
 10
47.43997460772789
 20
2.318177868524685
 30
0.0
  0
VERTEX
  5
4C82
330
4C79
100
AcDbEntity
  8
NOSNÉ KONSTRUKCE
100
AcDbVertex
100
AcDb2dVertex
 10
52.35815300906233
 20
2.318177868524685
 30
0.0
 42
-0.2408510949208177
  0
VERTEX
  5
4C83
330
4C79
100
AcDbEntity
  8
NOSNÉ KONSTRUKCE
100
AcDbVertex
100
AcDb2dVertex
 10
54.68033366548024
 20
3.505448719595619
 30
0.0
  0
VERTEX
  5
4C84
330
4C79
100
AcDbEntity
  8
NOSNÉ KONSTRUKCE
100
AcDbVertex
100
AcDb2dVertex
 10
58.4989058139281
 20
3.505448719595619
 30
0.0
 42
-0.0000123233965856
  0
VERTEX
  5
4C85
330
4C79
100
AcDbEntity
  8
NOSNÉ KONSTRUKCE
100
AcDbVertex
100
AcDb2dVertex
 10
58.49897975430849
 20
3.505448717772992
 30
0.0
 42
-0.2408376921551036
  0
VERTEX
  5
4C86
330
4C79
100
AcDbEntity
  8
NOSNÉ KONSTRUKCE
100
AcDbVertex
100
AcDb2dVertex
 10
60.8206052014857
 20
2.318177868524685
 30
0.0
  0
VERTEX
  5
4C87
330
4C79
100
AcDbEntity
  8
NOSNÉ KONSTRUKCE
100
AcDbVertex
100
AcDb2dVertex
 10
79.06365204187659
 20
2.318177868524685
 30
0.0
 42
-0.2408376921551987
  0
VERTEX
  5
4C88
330
4C79
100
AcDbEntity
  8
NOSNÉ KONSTRUKCE
100
AcDbVertex
100
AcDb2dVertex
 10
81.3852774890538
 20
3.505448717772992
 30
0.0
 42
-0.0000123233965477
  0
VERTEX
  5
4C89
330
4C79
100
AcDbEntity
  8
NOSNÉ KONSTRUKCE
100
AcDbVertex
100
AcDb2dVertex
 10
81.38535142943055
 20
3.505448719595619
 30
0.0
  0
VERTEX
  5
4C8A
330
4C79
100
AcDbEntity
  8
NOSNÉ KONSTRUKCE
100
AcDbVertex
100
AcDb2dVertex
 10
85.20392357278524
 20
3.505448719595619
 30
0.0
 42
-0.240851095207779
  0
VERTEX
  5
4C8B
330
4C79
100
AcDbEntity
  8
NOSNÉ KONSTRUKCE
100
AcDbVertex
100
AcDb2dVertex
 10
87.52610423231363
 20
2.318177868524685
 30
0.0
  0
VERTEX
  5
4C8C
330
4C79
100
AcDbEntity
  8
NOSNÉ KONSTRUKCE
100
AcDbVertex
100
AcDb2dVertex
 10
92.44428263364808
 20
2.318177868524685
 30
0.0
 42
0.4142135623730951
  0
VERTEX
  5
4C8D
330
4C79
100
AcDbEntity
  8
NOSNÉ KONSTRUKCE
100
AcDbVertex
100
AcDb2dVertex
 10
93.44428263364807
 20
3.318177868524685
 30
0.0
  0
VERTEX
  5
4C8E
330
4C79
100
AcDbEntity
  8
NOSNÉ KONSTRUKCE
100
AcDbVertex
100
AcDb2dVertex
 10
93.44428263364807
 20
10.87295564672592
 30
0.0
 42
-0.5590616637825315
  0
VERTEX
  5
4C8F
330
4C79
100
AcDbEntity
  8
NOSNÉ KONSTRUKCE
100
AcDbVertex
100
AcDb2dVertex
 10
93.44428263364807
 20
15.75254898109039
 30
0.0
  0
VERTEX
  5
4C90
330
4C79
100
AcDbEntity
  8
NOSNÉ KONSTRUKCE
100
AcDbVertex
100
AcDb2dVertex
 10
93.44428263364807
 20
23.64026721963807
 30
0.0
 42
-0.5590616638998631
  0
VERTEX
  5
4C91
330
4C79
100
AcDbEntity
  8
NOSNÉ KONSTRUKCE
100
AcDbVertex
100
AcDb2dVertex
 10
93.44428263364807
 20
28.51986058577665
 30
0.0
  0
VERTEX
  5
4C92
330
4C79
100
AcDbEntity
  8
NOSNÉ KONSTRUKCE
100
AcDbVertex
100
AcDb2dVertex
 10
93.44428263364807
 20
36.4075787651708
 30
0.0
 42
-0.5590620538659819
  0
VERTEX
  5
4C93
330
4C79
100
AcDbEntity
  8
NOSNÉ KONSTRUKCE
100
AcDbVertex
100
AcDb2dVertex
 10
93.44428263364807
 20
41.2872779113676
 30
0.0
  0
VERTEX
  5
4C94
330
4C79
100
AcDbEntity
  8
NOSNÉ KONSTRUKCE
100
AcDbVertex
100
AcDb2dVertex
 10
93.44428263364807
 20
47.23122019454592
 30
0.0
 42
0.4142135623731143
  0
VERTEX
  5
4C95
330
4C79
100
AcDbEntity
  8
NOSNÉ KONSTRUKCE
100
AcDbVertex
100
AcDb2dVertex
 10
92.44428263364808
 20
48.23122019454593
 30
0.0
  0
VERTEX
  5
4C96
330
4C79
100
AcDbEntity
  8
NOSNÉ KONSTRUKCE
100
AcDbVertex
100
AcDb2dVertex
 10
89.61895684195315
 20
48.23122019454593
 30
0.0
  0
SEQEND
  5
4C97
330
4C79
100
AcDbEntity
  8
NOSNÉ KONSTRUKCE
  0
LINE
  5
4C98
102
{ACAD_REACTORS
330
4C9D
102
}
330
1F
100
AcDbEntity
  8
NOSNÉ KONSTRUKCE
100
AcDbLine
 10
46.43997460772789
 20
41.28727791259268
 30
0.0
 11
46.43997460772789
 21
49.41375156654874
 31
0.0
  0
LINE
  5
4C99
102
{ACAD_REACTORS
330
4C9D
102
}
330
1F
100
AcDbEntity
  8
NOSNÉ KONSTRUKCE
100
AcDbLine
 10
50.26530040140551
 20
51.91375156654874
 30
0.0
 11
50.26530040140551
 21
50.41375156654874
 31
0.0
  0
LINE
  5
4C9A
102
{ACAD_REACTORS
330
4C9D
102
}
330
1F
100
AcDbEntity
  8
NOSNÉ KONSTRUKCE
100
AcDbLine
 10
50.26530040140551
 20
50.41375156654874
 30
0.0
 11
47.43997460772789
 21
50.41375156654874
 31
0.0
  0
ARC
  5
4C9B
102
{ACAD_REACTORS
330
4C9D
102
}
330
1F
100
AcDbEntity
  8
NOSNÉ KONSTRUKCE
100
AcDbCircle
 10
47.43997460772789
 20
49.41375156654965
 30
0.0
 40
1.0
100
AcDbArc
 50
90.0
 51
180.0
  0
LINE
  5
4C9C
102
{ACAD_REACTORS
330
4C9D
102
}
330
1F
100
AcDbEntity
  8
NOSNÉ KONSTRUKCE
100
AcDbLine
 10
89.61895684195315
 20
48.23122019454501
 30
0.0
 11
89.61895684195315
 21
49.73122019454502
 31
0.0
  0
HATCH
  5
4C9D
330
1F
100
AcDbEntity
  8
NOSNÉ KONSTRUKCE
100
AcDbHatch
 10
0.0
 20
0.0
 30
0.0
210
0.0
220
0.0
230
1.0
  2
SOLID
 70
     1
 71
     1
 91
        1
 92
        1
 93
       78
 72
     1
 10
89.61895684195315
 20
48.23122019454501
 11
89.61895684195315
 21
49.73122019454502
 72
     1
 10
89.61895684195315
 20
49.73122019454592
 11
93.5801212282122
 21
49.73122019454592
 72
     2
 10
93.58022794794578
 20
48.36716550899552
 40
1.364054689724365
 50
269.9955173422458
 51
359.9956000565877
 73
     0
 72
     1
 10
94.94428263364808
 20
48.36727025952848
 11
94.94428263364808
 21
41.2100222574262
 72
     2
 10
93.58030683887319
 20
41.21000838497991
 40
1.363975794845409
 50
359.999417267794
 51
419.9993729340007
 73
     0
 72
     2
 10
94.94436088981364
 20
38.84742833827283
 40
1.364105569629164
 50
120.0000213811482
 51
239.9999786188517
 73
     1
 72
     2
 10
93.58030683886955
 20
36.48484829156393
 40
1.363975794849071
 50
300.0006270660934
 51
360.0005827322823
 73
     0
 72
     1
 10
94.94428263364808
 20
36.48483441911583
 11
94.94428263364808
 21
28.44260492746241
 72
     2
 10
93.58030686637631
 20
28.44259107089408
 40
1.36397576734296
 50
359.9994179347589
 51
419.9993736010261
 73
     0
 72
     2
 10
94.94433036952523
 20
26.08006390270736
 40
1.36404452909372
 50
120.0000213811012
 51
239.9999786188987
 73
     1
 72
     2
 10
93.58030683887319
 20
23.71753671864269
 40
1.363975794845433
 50
300.0006270659993
 51
360.000582732206
 73
     0
 72
     1
 10
94.94428263364808
 20
23.7175228461964
 11
94.94428263364808
 21
15.67529335453935
 72
     2
 10
93.58030683887319
 20
15.67527948209306
 40
1.363975794845409
 50
359.999417267794
 51
419.9993729340007
 73
     0
 72
     2
 10
94.94433036035752
 20
13.31275231390816
 40
1.364044510757576
 50
120.0000213811192
 51
239.9999786188807
 73
     1
 72
     2
 10
93.58030683887319
 20
10.95022514572326
 40
1.363975794845433
 50
300.0006270659993
 51
360.000582732206
 73
     0
 72
     1
 10
94.94428263364808
 20
10.95021127327697
 11
94.94428263364808
 21
2.182233528826941
 72
     2
 10
93.58017508537797
 20
2.18228541671749
 40
1.364107549255989
 50
0.0021794155003766
 51
90.00226212976937
 73
     0
 72
     1
 10
93.5801212282122
 20
0.8181778685246854
 11
87.45524586494047
 21
0.8181778685246854
 72
     2
 10
87.45541332873381
 20
2.182030627055496
 40
1.363852768812942
 50
90.00703519384401
 51
145.618700920993
 73
     0
 72
     2
 10
85.20413257209566
 20
0.6412478446135311
 40
1.364200882607376
 50
34.3943922355025
 51
90.00605796261657
 73
     1
 72
     1
 10
85.20398833323543
 20
2.005448719595619
 11
81.38535142943419
 21
2.005448719595619
 72
     2
 10
81.3854186560302
 20
0.641648825588959
 40
1.363799895665831
 50
90.00282431479556
 51
145.6144900419207
 73
     1
 72
     2
 10
79.13413789939204
 20
2.182431608030924
 40
1.364253740215838
 50
34.39018224989298
 51
90.00184797703083
 73
     0
 72
     1
 10
79.13409389772914
 20
0.8181778685246854
 11
60.75016334365045
 21
0.8181778685246854
 72
     2
 10
60.75011934297709
 20
2.182431606154636
 40
1.36425373834027
 50
89.99815206452478
 51
145.6098177916605
 73
     0
 72
     2
 10
58.4988385873321
 20
0.6416488255921422
 40
1.363799895660397
 50
34.3855099580552
 51
89.99717568520443
 73
     1
 72
     1
 10
58.4989058139281
 20
2.005448719595619
 11
54.68026890814053
 21
2.005448719595619
 72
     2
 10
54.6801246692803
 20
0.6412478446135311
 40
1.364200882609487
 50
89.99394203738342
 51
145.6056077644975
 73
     1
 72
     2
 10
52.42884391363531
 20
2.182030625172387
 40
1.363852766929037
 50
34.38129903727882
 51
89.99296476442301
 73
     0
 72
     1
 10
52.42901137842181
 20
0.8181778685246854
 11
46.30413601515011
 21
0.8181778685246854
 72
     2
 10
46.30408215699117
 20
2.182285417710659
 40
1.364107550250173
 50
89.99773782851688
 51
179.9978205427857
 73
     0
 72
     1
 10
44.93997460772789
 20
2.182233528826941
 11
44.93997460772789
 21
10.95021127327697
 72
     2
 10
46.30395040349594
 20
10.95022514400614
 40
1.3639757958377
 50
179.9994173399248
 51
239.9993730060641
 73
     0
 72
     2
 10
44.93992688300113
 20
13.31275231390816
 40
1.364044510757576
 50
300.0000213811192
 51
419.9999786188808
 73
     1
 72
     2
 10
46.30395040349594
 20
15.67527948381018
 40
1.363975795838583
 50
120.0006269939359
 51
180.0005826600751
 73
     0
 72
     1
 10
44.93997460772789
 20
15.67529335453935
 11
44.93997460772789
 21
23.7175228461964
 72
     2
 10
46.30395040349594
 20
23.71753671692556
 40
1.3639757958377
 50
179.9994173399248
 51
239.9993730060641
 73
     0
 72
     2
 10
44.93992687383342
 20
26.08006390270736
 40
1.36404452909372
 50
300.0000213811012
 51
419.9999786188987
 73
     1
 72
     2
 10
46.30395037599282
 20
28.4425910726112
 40
1.363975768335302
 50
120.0006263269104
 51
180.0005819931103
 73
     0
 72
     1
 10
44.93997460772789
 20
28.44260492746241
 11
44.93997460772789
 21
36.48483441911583
 72
     2
 10
46.30395040349958
 20
36.48484828984681
 40
1.363975795841094
 50
179.9994173398483
 51
239.9993730059699
 73
     0
 72
     2
 10
44.93989635354501
 20
38.84742833827283
 40
1.364105569629164
 50
300.0000213811482
 51
419.9999786188517
 73
     1
 72
     2
 10
46.30395040349594
 20
41.21000838669703
 40
1.363975795838583
 50
120.0006269939359
 51
180.0005826600751
 73
     0
 72
     1
 10
44.93997460772789
 20
41.2100222574262
 11
44.93997460772789
 21
50.5496959062474
 72
     2
 10
46.30408215699117
 20
50.54964401736367
 40
1.364107550249196
 50
180.0021794572142
 51
270.0022621714831
 73
     0
 72
     1
 10
46.30413601515011
 20
51.91375156654965
 11
50.26530040140551
 21
51.91375156654965
 72
     1
 10
50.26530040140551
 20
51.91375156654874
 11
50.26530040140551
 21
50.41375156654874
 72
     1
 10
50.26530040140551
 20
50.41375156654874
 11
47.43997460772789
 21
50.41375156654874
 72
     2
 10
47.43997460772789
 20
49.41375156654965
 40
1.0
 50
90.00000000000003
 51
180.0
 73
     1
 72
     1
 10
46.43997460772789
 20
49.41375156654874
 11
46.43997460772789
 21
41.28727791259268
 72
     2
 10
44.93989635355228
 20
38.84742833827101
 40
2.864105569627733
 50
301.5842014864361
 51
418.4157985135637
 73
     0
 72
     1
 10
46.43997460772789
 20
36.40757876394843
 11
46.43997460772789
 21
28.51986058699537
 72
     2
 10
44.93992687383706
 20
26.08006390270463
 40
2.86404452909292
 50
301.5842355323164
 51
418.4157644676025
 73
     0
 72
     1
 10
46.43997460773152
 20
23.64026721841571
 11
46.43997460772789
 21
15.75254898230912
 72
     2
 10
44.9399268829975
 20
13.31275231390816
 40
2.864044510759085
 50
301.5842355426949
 51
418.415764457305
 73
     0
 72
     1
 10
46.43997460772789
 20
10.8729556455072
 11
46.43997460772789
 21
3.318177868524685
 72
     2
 10
47.43997460772789
 20
3.318177868524685
 40
1.0
 50
180.0
 51
270.0
 73
     1
 72
     1
 10
47.43997460772789
 20
2.318177868524685
 11
52.35815300906233
 21
2.318177868524685
 72
     2
 10
54.68012466927302
 20
0.6412478446180785
 40
2.864200882602513
 50
215.8368500797323
 51
270.0041807823925
 73
     0
 72
     1
 10
54.68033366548024
 20
3.505448719595619
 11
58.4989058139281
 21
3.505448719595619
 72
     2
 10
58.49890580918054
 20
2.005448701145155
 40
1.500000018450464
 50
270.0000001813435
 51
270.0028244957978
 73
     0
 72
     2
 10
58.49883858733938
 20
0.6416488256016919
 40
2.863799895650613
 50
270.0028243144894
 51
324.1672517372337
 73
     0
 72
     1
 10
60.8206052014857
 20
2.318177868524685
 11
79.06365204187659
 21
2.318177868524685
 72
     2
 10
81.38541865602292
 20
0.6416488256026014
 40
2.863799895650137
 50
215.8327482627515
 51
269.9971756855105
 73
     0
 72
     2
 10
81.38535143418176
 20
2.00544877033451
 40
1.499999949261109
 50
269.9971755040718
 51
269.9999998185174
 73
     0
 72
     1
 10
81.38535142943055
 20
3.505448719595619
 11
85.20392357278524
 21
3.505448719595619
 72
     2
 10
85.20413257209929
 20
0.64124784461535
 40
2.864200882605558
 50
269.995819155458
 51
324.1631499202659
 73
     0
 72
     1
 10
87.52610423231363
 20
2.318177868524685
 11
92.44428263364808
 21
2.318177868524685
 72
     2
 10
92.44428263364808
 20
3.318177868524685
 40
1.0
 50
270.0
 51
360.0
 73
     1
 72
     1
 10
93.44428263364807
 20
3.318177868524685
 11
93.44428263364807
 21
10.87295564672592
 72
     2
 10
94.94433036036117
 20
13.31275231390816
 40
2.864044510759331
 50
121.5842355892532
 51
238.4157644107467
 73
     0
 72
     1
 10
93.44428263364807
 20
15.75254898109039
 11
93.44428263364807
 21
23.64026721963807
 72
     2
 10
94.94433036952887
 20
26.08006390270736
 40
2.864044529094653
 50
121.5842355790273
 51
238.4157644209726
 73
     0
 72
     1
 10
93.44428263364807
 20
28.51986058577665
 11
93.44428263364807
 21
36.4075787651708
 72
     2
 10
94.94436088981728
 20
38.84742833826919
 40
2.864105569629046
 50
121.5842015332367
 51
238.4157984667633
 73
     0
 72
     1
 10
93.44428263364807
 20
41.2872779113676
 11
93.44428263364807
 21
47.23122019454592
 72
     2
 10
92.44428263364808
 20
47.23122019454592
 40
1.0
 50
0.0
 51
90.0
 73
     1
 72
     1
 10
92.44428263364808
 20
48.23122019454593
 11
89.61895684195315
 21
48.23122019454593
 97
        7
330
4C9C
330
4C49
330
4C99
330
4C9A
330
4C9B
330
4C98
330
4C79
 75
     0
 76
     1
 98
        1
 10
-1715.997869240852
 20
-20922.2237831315
  0
LINE
  5
4C9E
330
1F
100
AcDbEntity
  8
SPOJOVACÍ
  6
Continuous
100
AcDbLine
 10
73.29564674010089
 20
-8.813123995144565
 30
0.0
 11
67.60349409425817
 21
-10.23616215660251
 31
0.0
  0
LINE
  5
4C9F
330
1F
100
AcDbEntity
  8
SPOJOVACÍ
  6
Continuous
100
AcDbLine
 10
73.29564674010089
 20
-8.813123995144565
 30
0.0
 11
72.84777581219441
 21
-9.071256498679872
 31
0.0
  0
LINE
  5
4CA0
330
1F
100
AcDbEntity
  8
SPOJOVACÍ
  6
Continuous
100
AcDbLine
 10
73.29564674010089
 20
-8.813123995144565
 30
0.0
 11
72.84777581219441
 21
-8.364149939255298
 31
0.0
  0
LINE
  5
4CA1
330
1F
100
AcDbEntity
  8
SPOJOVACÍ
  6
Continuous
100
AcDbLine
 10
67.60349409425817
 20
-10.23616215660251
 30
0.0
 11
68.0513650169878
 21
-10.68403308192239
 31
0.0
  0
LINE
  5
4CA2
330
1F
100
AcDbEntity
  8
SPOJOVACÍ
  6
Continuous
100
AcDbLine
 10
67.60349409425817
 20
-10.23616215660251
 30
0.0
 11
68.0513650169878
 21
-9.976926522501457
 31
0.0
  0
LINE
  5
4CA3
330
1F
100
AcDbEntity
  8
SPOJOVACÍ
  6
Continuous
100
AcDbLine
 10
72.84777581219441
 20
-9.071256498679872
 30
0.0
 11
68.0513650169878
 21
-10.68403308192239
 31
0.0
  0
LINE
  5
4CA4
330
1F
100
AcDbEntity
  8
SPOJOVACÍ
  6
Continuous
100
AcDbLine
 10
72.84777581219441
 20
-8.364149939255298
 30
0.0
 11
68.0513650169878
 21
-9.976926522501457
 31
0.0
  0
LINE
  5
4CA5
330
1F
100
AcDbEntity
  8
SPOJOVACÍ
  6
Continuous
100
AcDbLine
 10
72.84777581219441
 20
-1.572170110755109
 30
0.0
 11
68.0513650169878
 21
-3.184946694001268
 31
0.0
  0
LINE
  5
4CA6
330
1F
100
AcDbEntity
  8
SPOJOVACÍ
  6
Continuous
100
AcDbLine
 10
72.84777581219441
 20
-2.279276670179683
 30
0.0
 11
68.0513650169878
 21
-3.892053253422204
 31
0.0
  0
LINE
  5
4CA7
330
1F
100
AcDbEntity
  8
SPOJOVACÍ
  6
Continuous
100
AcDbLine
 10
67.60349409425817
 20
-3.444182328102328
 30
0.0
 11
68.0513650169878
 21
-3.184946694001268
 31
0.0
  0
LINE
  5
4CA8
330
1F
100
AcDbEntity
  8
SPOJOVACÍ
  6
Continuous
100
AcDbLine
 10
67.60349409425817
 20
-3.444182328102328
 30
0.0
 11
68.0513650169878
 21
-3.892053253422204
 31
0.0
  0
LINE
  5
4CA9
330
1F
100
AcDbEntity
  8
SPOJOVACÍ
  6
Continuous
100
AcDbLine
 10
73.29564674010089
 20
-2.021144166644376
 30
0.0
 11
72.84777581219441
 21
-1.572170110755109
 31
0.0
  0
LINE
  5
4CAA
330
1F
100
AcDbEntity
  8
SPOJOVACÍ
  6
Continuous
100
AcDbLine
 10
73.29564674010089
 20
-2.021144166644376
 30
0.0
 11
72.84777581219441
 21
-2.279276670179683
 31
0.0
  0
LINE
  5
4CAB
330
1F
100
AcDbEntity
  8
SPOJOVACÍ
  6
Continuous
100
AcDbLine
 10
73.29564674010089
 20
-2.021144166644376
 30
0.0
 11
67.60349409425817
 21
-3.444182328102328
 31
0.0
  0
LINE
  5
4CAC
330
1F
100
AcDbEntity
  8
SPOJOVACÍ
  6
Continuous
100
AcDbLine
 10
72.84777581219441
 20
-4.968160025005204
 30
0.0
 11
68.0513650169878
 21
-6.580936608251363
 31
0.0
  0
LINE
  5
4CAD
330
1F
100
AcDbEntity
  8
SPOJOVACÍ
  6
Continuous
100
AcDbLine
 10
72.84777581219441
 20
-5.675266584429778
 30
0.0
 11
68.0513650169878
 21
-7.288043167672299
 31
0.0
  0
LINE
  5
4CAE
330
1F
100
AcDbEntity
  8
SPOJOVACÍ
  6
Continuous
100
AcDbLine
 10
67.60349409425817
 20
-6.840172242352423
 30
0.0
 11
68.0513650169878
 21
-6.580936608251363
 31
0.0
  0
LINE
  5
4CAF
330
1F
100
AcDbEntity
  8
SPOJOVACÍ
  6
Continuous
100
AcDbLine
 10
67.60349409425817
 20
-6.840172242352423
 30
0.0
 11
68.0513650169878
 21
-7.288043167672299
 31
0.0
  0
LINE
  5
4CB0
330
1F
100
AcDbEntity
  8
SPOJOVACÍ
  6
Continuous
100
AcDbLine
 10
73.29564674010089
 20
-5.41713408089447
 30
0.0
 11
72.84777581219441
 21
-4.968160025005204
 31
0.0
  0
LINE
  5
4CB1
330
1F
100
AcDbEntity
  8
SPOJOVACÍ
  6
Continuous
100
AcDbLine
 10
73.29564674010089
 20
-5.41713408089447
 30
0.0
 11
72.84777581219441
 21
-5.675266584429778
 31
0.0
  0
LINE
  5
4CB2
330
1F
100
AcDbEntity
  8
SPOJOVACÍ
  6
Continuous
100
AcDbLine
 10
73.29564674010089
 20
-5.41713408089447
 30
0.0
 11
67.60349409425817
 21
-6.840172242352423
 31
0.0
  0
TEXT
  5
4CB3
330
1F
100
AcDbEntity
  8
POPIS
100
AcDbText
 10
453.0916846701102
 20
76.42603792288162
 30
0.0
 40
25.0
  1
08
 41
0.85
  7
SIMPLEX7
100
AcDbText
  0
TEXT
  5
4CB4
330
1F
100
AcDbEntity
  8
POPIS
100
AcDbText
 10
507.4353878298524
 20
76.42603792288162
 30
0.0
 40
25.0
  1
Přikotvení - hmoždinka
 41
0.7
  7
SIMPLEX7
100
AcDbText
  0
TEXT
  5
4CB5
330
1F
100
AcDbEntity
  8
POPIS
100
AcDbText
 10
507.4353878298524
 20
109.5912362866819
 30
0.0
 40
25.0
  1
Těsnící podložka
 41
0.7
  7
SIMPLEX7
100
AcDbText
  0
TEXT
  5
4CB6
330
1F
100
AcDbEntity
  8
POPIS
100
AcDbText
 10
453.0916846701102
 20
109.5912362866819
 30
0.0
 40
25.0
  1
07
 41
0.85
  7
SIMPLEX7
100
AcDbText
  0
CIRCLE
  5
4CB7
330
1F
100
AcDbEntity
  8
POPIS
100
AcDbCircle
 10
679.8206021240794
 20
351.0354572998384
 30
0.0
 40
11.13656048292026
  0
TEXT
  5
4CB8
330
1F
100
AcDbEntity
  8
POPIS
100
AcDbText
 10
675.0615730688978
 20
345.4901115548508
 30
0.0
 40
12.0
  1
R
 41
0.85
  7
SIMPLEX7
100
AcDbText
  0
TEXT
  5
4CB9
330
1F
100
AcDbEntity
  8
POPIS
100
AcDbText
 10
453.0916846701102
 20
143.84462882588
 30
0.0
 40
25.0
  1
06
 41
0.85
  7
SIMPLEX7
100
AcDbText
  0
TEXT
  5
4CBA
330
1F
100
AcDbEntity
  8
POPIS
100
AcDbText
 10
507.4353878298524
 20
143.84462882588
 30
0.0
 40
25.0
  1
Dilatace - pásek tl. 15 mm
 41
0.7
  7
SIMPLEX7
100
AcDbText
  0
TEXT
  5
4CBB
330
1F
100
AcDbEntity
  8
POPIS
100
AcDbText
 10
507.4353878298524
 20
214.5654403680581
 30
0.0
 40
25.0
  1
CW profil (ocelový nosník I, U) - stojina
 41
0.7
  7
SIMPLEX7
100
AcDbText
  0
TEXT
  5
4CBC
330
1F
100
AcDbEntity
  8
POPIS
100
AcDbText
 10
453.0916846701102
 20
214.5654403680581
 30
0.0
 40
25.0
  1
04
 41
0.85
  7
SIMPLEX7
100
AcDbText
  0
TEXT
  5
4CBD
330
1F
100
AcDbEntity
  8
POPIS
100
AcDbText
 10
507.4353878298524
 20
249.9696015862208
 30
0.0
 40
25.0
  1
Tepelná izolace 
 41
0.7
  7
SIMPLEX7
100
AcDbText
  0
TEXT
  5
4CBE
330
1F
100
AcDbEntity
  8
POPIS
100
AcDbText
 10
453.0916846701102
 20
249.9696015862208
 30
0.0
 40
25.0
  1
03
 41
0.85
  7
SIMPLEX7
100
AcDbText
  0
TEXT
  5
4CBF
330
1F
100
AcDbEntity
  8
POPIS
100
AcDbText
 10
507.4353878298524
 20
283.9197898309429
 30
0.0
 40
25.0
  1
Vrut Bűhnen 4,2x35 (45,55) mm
 41
0.7
  7
SIMPLEX7
100
AcDbText
  0
TEXT
  5
4CC0
330
1F
100
AcDbEntity
  8
POPIS
100
AcDbText
 10
453.0916846701102
 20
283.9197898309429
 30
0.0
 40
25.0
  1
02
 41
0.85
  7
SIMPLEX7
100
AcDbText
  0
TEXT
  5
4CC1
330
1F
100
AcDbEntity
  8
POPIS
100
AcDbText
 10
507.4353878298524
 20
320.5148014465702
 30
0.0
 40
25.0
  1
Deska CETRIS   
 41
0.7
  7
SIMPLEX7
100
AcDbText
  0
TEXT
  5
4CC2
330
1F
100
AcDbEntity
  8
POPIS
100
AcDbText
 10
453.0916846701102
 20
320.5148014465702
 30
0.0
 40
25.0
  1
01
 41
0.85
  7
SIMPLEX7
100
AcDbText
  0
TEXT
  5
4CC3
330
1F
100
AcDbEntity
  8
POPIS
100
AcDbText
 10
-89.01653745105887
 20
501.3367083738129
 30
0.0
 40
50.0
  1
Návaznost příčky na montovanou podlahu
 41
0.85
  7
SIMPLEX7
100
AcDbText
  0
TEXT
  5
4CC4
330
1F
100
AcDbEntity
  8
POPIS
100
AcDbText
 10
-89.01653745105887
 20
446.711965348012
 30
0.0
 40
35.0
  1
SVISLÝ ŘEZ
 41
0.85
  7
SIMPLEX7
100
AcDbText
  0
TEXT
  5
4CC5
330
1F
100
AcDbEntity
  8
POPIS
100
AcDbText
 10
453.0916846701102
 20
180.6801688287722
 30
0.0
 40
25.0
  1
05
 41
0.85
  7
SIMPLEX7
100
AcDbText
  0
TEXT
  5
4CC6
330
1F
100
AcDbEntity
  8
POPIS
100
AcDbText
 10
507.4353878298524
 20
180.6801688287722
 30
0.0
 40
25.0
  1
UW profil (ocelový nosník I, U)
 41
0.7
  7
SIMPLEX7
100
AcDbText
  0
ENDSEC
  0
SECTION
  2
OBJECTS
  0
DICTIONARY
  5
C
330
0
100
AcDbDictionary
281
     1
  3
ACAD_GROUP
350
D
  3
ACAD_LAYOUT
350
1A
  3
ACAD_MLINESTYLE
350
17
  3
ACAD_PLOTSETTINGS
350
19
  3
ACAD_PLOTSTYLENAME
350
E
  0
DICTIONARY
  5
D
102
{ACAD_REACTORS
330
C
102
}
330
C
100
AcDbDictionary
281
     1
  0
DICTIONARY
  5
1A
102
{ACAD_REACTORS
330
C
102
}
330
C
100
AcDbDictionary
281
     1
  3
Model
350
22
  3
Rozvržení1
350
1E
  3
Rozvržení2
350
26
  0
DICTIONARY
  5
17
102
{ACAD_REACTORS
330
C
102
}
330
C
100
AcDbDictionary
281
     1
  3
Standard
350
18
  0
DICTIONARY
  5
19
102
{ACAD_REACTORS
330
C
102
}
330
C
100
AcDbDictionary
281
     1
  0
ACDBDICTIONARYWDFLT
  5
E
102
{ACAD_REACTORS
330
C
102
}
330
C
100
AcDbDictionary
281
     1
  3
Normal
350
F
100
AcDbDictionaryWithDefault
340
F
  0
LAYOUT
  5
22
102
{ACAD_REACTORS
330
1A
102
}
330
1A
100
AcDbPlotSettings
  1

  2
HP DeskJet 690C
  4

  6

 40
0.0
 41
0.0
 42
0.0
 43
0.0
 44
0.0
 45
0.0
 46
0.0
 47
0.0
 48
0.0
 49
0.0
140
0.0
141
0.0
142
1.0
143
1.0
 70
  1712
 72
     0
 73
     0
 74
     0
  7
monochrome.ctb
 75
     0
147
1.0
148
0.0
149
0.0
100
AcDbLayout
  1
Model
 70
     1
 71
     0
 10
0.0
 20
0.0
 11
12.0
 21
9.0
 12
0.0
 22
0.0
 32
0.0
 14
0.0
 24
0.0
 34
0.0
 15
0.0
 25
0.0
 35
0.0
146
0.0
 13
0.0
 23
0.0
 33
0.0
 16
1.0
 26
0.0
 36
0.0
 17
0.0
 27
1.0
 37
0.0
 76
     0
330
1F
  0
LAYOUT
  5
1E
102
{ACAD_REACTORS
330
1A
102
}
330
1A
100
AcDbPlotSettings
  1

  2
HP DeskJet 690C
  4

  6

 40
0.0
 41
0.0
 42
0.0
 43
0.0
 44
0.0
 45
0.0
 46
0.0
 47
0.0
 48
0.0
 49
0.0
140
0.0
141
0.0
142
1.0
143
1.0
 70
   688
 72
     0
 73
     0
 74
     5
  7
monochrome.ctb
 75
    16
147
1.0
148
0.0
149
0.0
100
AcDbLayout
  1
Rozvržení1
 70
     1
 71
     1
 10
0.0
 20
0.0
 11
420.0
 21
297.0
 12
0.0
 22
0.0
 32
0.0
 14
1.000000000000000E+20
 24
1.000000000000000E+20
 34
1.000000000000000E+20
 15
-1.000000000000000E+20
 25
-1.000000000000000E+20
 35
-1.000000000000000E+20
146
0.0
 13
0.0
 23
0.0
 33
0.0
 16
1.0
 26
0.0
 36
0.0
 17
0.0
 27
1.0
 37
0.0
 76
     0
330
1B
  0
LAYOUT
  5
26
102
{ACAD_REACTORS
330
1A
102
}
330
1A
100
AcDbPlotSettings
  1

  2
HP DeskJet 690C
  4

  6

 40
0.0
 41
0.0
 42
0.0
 43
0.0
 44
0.0
 45
0.0
 46
0.0
 47
0.0
 48
0.0
 49
0.0
140
0.0
141
0.0
142
1.0
143
1.0
 70
   688
 72
     0
 73
     0
 74
     5
  7
monochrome.ctb
 75
    16
147
1.0
148
0.0
149
0.0
100
AcDbLayout
  1
Rozvržení2
 70
     1
 71
     2
 10
0.0
 20
0.0
 11
12.0
 21
9.0
 12
0.0
 22
0.0
 32
0.0
 14
0.0
 24
0.0
 34
0.0
 15
0.0
 25
0.0
 35
0.0
146
0.0
 13
0.0
 23
0.0
 33
0.0
 16
1.0
 26
0.0
 36
0.0
 17
0.0
 27
1.0
 37
0.0
 76
     0
330
23
  0
MLINESTYLE
  5
18
102
{ACAD_REACTORS
330
17
102
}
330
17
100
AcDbMlineStyle
  2
STANDARD
 70
     0
  3

 62
   256
 51
90.0
 52
90.0
 71
     2
 49
0.5
 62
   256
  6
BYLAYER
 49
-0.5
 62
   256
  6
BYLAYER
  0
ACDBPLACEHOLDER
  5
F
102
{ACAD_REACTORS
330
E
102
}
330
E
  0
ENDSEC
  0
EOF
