  0
SECTION
  2
HEADER
  9
$ACADVER
  1
AC1015
  9
$ACADMAINTVER
 70
    10
  9
$DWGCODEPAGE
  3
ANSI_1250
  9
$INSBASE
 10
0.0
 20
0.0
 30
0.0
  9
$EXTMIN
 10
-84.29239442021184
 20
-87.3400111791175
 30
0.0
  9
$EXTMAX
 10
1027.897237230538
 20
582.2890586862613
 30
0.0
  9
$LIMMIN
 10
0.0
 20
0.0
  9
$LIMMAX
 10
420.0
 20
297.0
  9
$ORTHOMODE
 70
     0
  9
$REGENMODE
 70
     1
  9
$FILLMODE
 70
     1
  9
$QTEXTMODE
 70
     0
  9
$MIRRTEXT
 70
     1
  9
$LTSCALE
 40
1.0
  9
$ATTMODE
 70
     1
  9
$TEXTSIZE
 40
2.5
  9
$TRACEWID
 40
1.0
  9
$TEXTSTYLE
  7
Standard
  9
$CLAYER
  8
0
  9
$CELTYPE
  6
ByLayer
  9
$CECOLOR
 62
   256
  9
$CELTSCALE
 40
1.0
  9
$DISPSILH
 70
     0
  9
$DIMSCALE
 40
1.0
  9
$DIMASZ
 40
2.5
  9
$DIMEXO
 40
0.625
  9
$DIMDLI
 40
3.75
  9
$DIMRND
 40
0.0
  9
$DIMDLE
 40
0.0
  9
$DIMEXE
 40
1.25
  9
$DIMTP
 40
0.0
  9
$DIMTM
 40
0.0
  9
$DIMTXT
 40
2.5
  9
$DIMCEN
 40
2.5
  9
$DIMTSZ
 40
0.0
  9
$DIMTOL
 70
     0
  9
$DIMLIM
 70
     0
  9
$DIMTIH
 70
     0
  9
$DIMTOH
 70
     0
  9
$DIMSE1
 70
     0
  9
$DIMSE2
 70
     0
  9
$DIMTAD
 70
     1
  9
$DIMZIN
 70
     8
  9
$DIMBLK
  1

  9
$DIMASO
 70
     1
  9
$DIMSHO
 70
     1
  9
$DIMPOST
  1

  9
$DIMAPOST
  1

  9
$DIMALT
 70
     0
  9
$DIMALTD
 70
     3
  9
$DIMALTF
 40
0.03937007874016
  9
$DIMLFAC
 40
1.0
  9
$DIMTOFL
 70
     1
  9
$DIMTVP
 40
0.0
  9
$DIMTIX
 70
     0
  9
$DIMSOXD
 70
     0
  9
$DIMSAH
 70
     0
  9
$DIMBLK1
  1

  9
$DIMBLK2
  1

  9
$DIMSTYLE
  2
ISO-25
  9
$DIMCLRD
 70
     0
  9
$DIMCLRE
 70
     0
  9
$DIMCLRT
 70
     0
  9
$DIMTFAC
 40
1.0
  9
$DIMGAP
 40
0.625
  9
$DIMJUST
 70
     0
  9
$DIMSD1
 70
     0
  9
$DIMSD2
 70
     0
  9
$DIMTOLJ
 70
     0
  9
$DIMTZIN
 70
     8
  9
$DIMALTZ
 70
     0
  9
$DIMALTTZ
 70
     0
  9
$DIMUPT
 70
     0
  9
$DIMDEC
 70
     2
  9
$DIMTDEC
 70
     2
  9
$DIMALTU
 70
     2
  9
$DIMALTTD
 70
     3
  9
$DIMTXSTY
  7
Standard
  9
$DIMAUNIT
 70
     0
  9
$DIMADEC
 70
     0
  9
$DIMALTRND
 40
0.0
  9
$DIMAZIN
 70
     0
  9
$DIMDSEP
 70
    44
  9
$DIMATFIT
 70
     3
  9
$DIMFRAC
 70
     0
  9
$DIMLDRBLK
  1

  9
$DIMLUNIT
 70
     2
  9
$DIMLWD
 70
    -2
  9
$DIMLWE
 70
    -2
  9
$DIMTMOVE
 70
     0
  9
$LUNITS
 70
     2
  9
$LUPREC
 70
     4
  9
$SKETCHINC
 40
1.0
  9
$FILLETRAD
 40
10.0
  9
$AUNITS
 70
     0
  9
$AUPREC
 70
     0
  9
$MENU
  1
.
  9
$ELEVATION
 40
0.0
  9
$PELEVATION
 40
0.0
  9
$THICKNESS
 40
0.0
  9
$LIMCHECK
 70
     0
  9
$CHAMFERA
 40
10.0
  9
$CHAMFERB
 40
10.0
  9
$CHAMFERC
 40
20.0
  9
$CHAMFERD
 40
0.0
  9
$SKPOLY
 70
     0
  9
$TDCREATE
 40
2452333.440837384
  9
$TDUCREATE
 40
2452333.399170718
  9
$TDUPDATE
 40
2452653.357977604
  9
$TDUUPDATE
 40
2452653.316310937
  9
$TDINDWG
 40
0.0067652199
  9
$TDUSRTIMER
 40
0.0067639468
  9
$USRTIMER
 70
     1
  9
$ANGBASE
 50
0.0
  9
$ANGDIR
 70
     0
  9
$PDMODE
 70
     0
  9
$PDSIZE
 40
0.0
  9
$PLINEWID
 40
0.0
  9
$SPLFRAME
 70
     0
  9
$SPLINETYPE
 70
     6
  9
$SPLINESEGS
 70
     8
  9
$HANDSEED
  5
461F
  9
$SURFTAB1
 70
     6
  9
$SURFTAB2
 70
     6
  9
$SURFTYPE
 70
     6
  9
$SURFU
 70
     6
  9
$SURFV
 70
     6
  9
$UCSBASE
  2

  9
$UCSNAME
  2

  9
$UCSORG
 10
0.0
 20
0.0
 30
0.0
  9
$UCSXDIR
 10
1.0
 20
0.0
 30
0.0
  9
$UCSYDIR
 10
0.0
 20
1.0
 30
0.0
  9
$UCSORTHOREF
  2

  9
$UCSORTHOVIEW
 70
     0
  9
$UCSORGTOP
 10
0.0
 20
0.0
 30
0.0
  9
$UCSORGBOTTOM
 10
0.0
 20
0.0
 30
0.0
  9
$UCSORGLEFT
 10
0.0
 20
0.0
 30
0.0
  9
$UCSORGRIGHT
 10
0.0
 20
0.0
 30
0.0
  9
$UCSORGFRONT
 10
0.0
 20
0.0
 30
0.0
  9
$UCSORGBACK
 10
0.0
 20
0.0
 30
0.0
  9
$PUCSBASE
  2

  9
$PUCSNAME
  2

  9
$PUCSORG
 10
0.0
 20
0.0
 30
0.0
  9
$PUCSXDIR
 10
1.0
 20
0.0
 30
0.0
  9
$PUCSYDIR
 10
0.0
 20
1.0
 30
0.0
  9
$PUCSORTHOREF
  2

  9
$PUCSORTHOVIEW
 70
     0
  9
$PUCSORGTOP
 10
0.0
 20
0.0
 30
0.0
  9
$PUCSORGBOTTOM
 10
0.0
 20
0.0
 30
0.0
  9
$PUCSORGLEFT
 10
0.0
 20
0.0
 30
0.0
  9
$PUCSORGRIGHT
 10
0.0
 20
0.0
 30
0.0
  9
$PUCSORGFRONT
 10
0.0
 20
0.0
 30
0.0
  9
$PUCSORGBACK
 10
0.0
 20
0.0
 30
0.0
  9
$USERI1
 70
     0
  9
$USERI2
 70
     0
  9
$USERI3
 70
     0
  9
$USERI4
 70
     0
  9
$USERI5
 70
     0
  9
$USERR1
 40
0.0
  9
$USERR2
 40
0.0
  9
$USERR3
 40
0.0
  9
$USERR4
 40
0.0
  9
$USERR5
 40
0.0
  9
$WORLDVIEW
 70
     1
  9
$SHADEDGE
 70
     3
  9
$SHADEDIF
 70
    70
  9
$TILEMODE
 70
     1
  9
$MAXACTVP
 70
    64
  9
$PINSBASE
 10
0.0
 20
0.0
 30
0.0
  9
$PLIMCHECK
 70
     0
  9
$PEXTMIN
 10
1.000000000000000E+20
 20
1.000000000000000E+20
 30
1.000000000000000E+20
  9
$PEXTMAX
 10
-1.000000000000000E+20
 20
-1.000000000000000E+20
 30
-1.000000000000000E+20
  9
$PLIMMIN
 10
0.0
 20
0.0
  9
$PLIMMAX
 10
420.0
 20
297.0
  9
$UNITMODE
 70
     0
  9
$VISRETAIN
 70
     1
  9
$PLINEGEN
 70
     0
  9
$PSLTSCALE
 70
     1
  9
$TREEDEPTH
 70
  3020
  9
$CMLSTYLE
  2
Standard
  9
$CMLJUST
 70
     0
  9
$CMLSCALE
 40
20.0
  9
$PROXYGRAPHICS
 70
     1
  9
$MEASUREMENT
 70
     1
  9
$CELWEIGHT
370
    -1
  9
$ENDCAPS
280
     0
  9
$JOINSTYLE
280
     0
  9
$LWDISPLAY
290
     0
  9
$INSUNITS
 70
     4
  9
$HYPERLINKBASE
  1

  9
$STYLESHEET
  1

  9
$XEDIT
290
     1
  9
$CEPSNTYPE
380
     0
  9
$PSTYLEMODE
290
     1
  9
$FINGERPRINTGUID
  2
{E0A79919-1611-4D48-A6CF-929FE36A9D62}
  9
$VERSIONGUID
  2
{5A6E50E2-B954-42F5-ABF3-4324B88FEB72}
  9
$EXTNAMES
290
     1
  9
$PSVPSCALE
 40
0.0
  9
$OLESTARTUP
290
     0
  0
ENDSEC
  0
SECTION
  2
CLASSES
  0
CLASS
  1
ACDBDICTIONARYWDFLT
  2
AcDbDictionaryWithDefault
  3
AutoCAD 2000
 90
        0
280
     0
281
     0
  0
CLASS
  1
ACDBPLACEHOLDER
  2
AcDbPlaceHolder
  3
AutoCAD 2000
 90
        0
280
     0
281
     0
  0
CLASS
  1
LAYOUT
  2
AcDbLayout
  3
AutoCAD 2000
 90
        0
280
     0
281
     0
  0
ENDSEC
  0
SECTION
  2
TABLES
  0
TABLE
  2
VPORT
  5
8
330
0
100
AcDbSymbolTable
 70
     2
  0
VPORT
  5
461E
330
8
100
AcDbSymbolTableRecord
100
AcDbViewportTableRecord
  2
*Active
 70
     0
 10
0.0
 20
0.0
 11
1.0
 21
1.0
 12
461.3370256490624
 22
250.9062667334516
 13
0.0
 23
0.0
 14
10.0
 24
10.0
 15
10.0
 25
10.0
 16
0.0
 26
0.0
 36
1.0
 17
0.0
 27
0.0
 37
0.0
 40
685.6562706402958
 41
1.685831622176591
 42
50.0
 43
0.0
 44
0.0
 50
0.0
 51
0.0
 71
     0
 72
   100
 73
     1
 74
     3
 75
     0
 76
     0
 77
     0
 78
     0
281
     0
 65
     1
110
0.0
120
0.0
130
0.0
111
1.0
121
0.0
131
0.0
112
0.0
122
1.0
132
0.0
 79
     0
146
0.0
  0
ENDTAB
  0
TABLE
  2
LTYPE
  5
5
330
0
100
AcDbSymbolTable
 70
     5
  0
LTYPE
  5
14
330
5
100
AcDbSymbolTableRecord
100
AcDbLinetypeTableRecord
  2
ByBlock
 70
     0
  3

 72
    65
 73
     0
 40
0.0
  0
LTYPE
  5
15
330
5
100
AcDbSymbolTableRecord
100
AcDbLinetypeTableRecord
  2
ByLayer
 70
     0
  3

 72
    65
 73
     0
 40
0.0
  0
LTYPE
  5
16
330
5
100
AcDbSymbolTableRecord
100
AcDbLinetypeTableRecord
  2
Continuous
 70
     0
  3
Solid line
 72
    65
 73
     0
 40
0.0
  0
LTYPE
  5
33
330
5
100
AcDbSymbolTableRecord
100
AcDbLinetypeTableRecord
  2
DASHED
 70
     0
  3
Dashed __ __ __ __ __ __ __ __ __ __ __ __ __ _
 72
    65
 73
     2
 40
19.04999999999999
 49
12.7
 74
     0
 49
-6.349999999999999
 74
     0
  0
LTYPE
  5
34
330
5
100
AcDbSymbolTableRecord
100
AcDbLinetypeTableRecord
  2
DASHDOT2
 70
     0
  3
Dash dot (.5x) _._._._._._._._._._._._._._._.
 72
    65
 73
     4
 40
12.7
 49
6.349999999999999
 74
     0
 49
-3.174999999999999
 74
     0
 49
0.0
 74
     0
 49
-3.174999999999999
 74
     0
  0
LTYPE
  5
35
330
5
100
AcDbSymbolTableRecord
100
AcDbLinetypeTableRecord
  2
CIKCAK
 70
     0
  3
Cik-cak /\/\/\/\/\/\/\/\/\/\/\/\/\/\/\/\/\/\/\/
 72
    65
 73
     4
 40
20.32254
 49
0.00254
 74
     0
 49
-5.08
 74
     4
 75
   131
340
3E
 46
5.08
 50
0.0
 44
-5.08
 45
0.0
 49
-10.16
 74
     4
 75
   131
340
3E
 46
5.08
 50
180.0
 44
5.08
 45
0.0
 49
-5.08
 74
     0
  0
LTYPE
  5
36
330
5
100
AcDbSymbolTableRecord
100
AcDbLinetypeTableRecord
  2
IZOLACE
 70
     0
  3
Izolace SSSSSSSSSSSSSSSSSSSSSSSSSSSSSSSSSSSSSSS
 72
    65
 73
     4
 40
10.16253999999999
 49
0.00254
 74
     0
 49
-2.54
 74
     4
 75
   134
340
3E
 46
2.54
 50
0.0
 44
-2.54
 45
0.0
 49
-5.08
 74
     4
 75
   134
340
3E
 46
2.54
 50
180.0
 44
2.54
 45
0.0
 49
-2.54
 74
     0
  0
ENDTAB
  0
TABLE
  2
LAYER
  5
2
330
0
100
AcDbSymbolTable
 70
     7
  0
LAYER
  5
10
330
2
100
AcDbSymbolTableRecord
100
AcDbLayerTableRecord
  2
0
 70
     0
 62
     7
  6
Continuous
370
    -3
390
F
  0
LAYER
  5
37
330
2
100
AcDbSymbolTableRecord
100
AcDbLayerTableRecord
  2
POPIS
 70
     0
 62
    30
  6
Continuous
370
    -3
390
F
  0
LAYER
  5
38
330
2
100
AcDbSymbolTableRecord
100
AcDbLayerTableRecord
  2
SPOJOVACÍ
 70
     0
 62
   180
  6
Continuous
370
    -3
390
F
  0
LAYER
  5
39
330
2
100
AcDbSymbolTableRecord
100
AcDbLayerTableRecord
  2
CETRIS
 70
     0
 62
     1
  6
Continuous
370
    -3
390
F
  0
LAYER
  5
3A
330
2
100
AcDbSymbolTableRecord
100
AcDbLayerTableRecord
  2
NOSNÉ KONSTRUKCE
 70
     0
 62
    33
  6
Continuous
370
    -3
390
F
  0
LAYER
  5
3B
330
2
100
AcDbSymbolTableRecord
100
AcDbLayerTableRecord
  2
izolace
 70
     0
 62
    73
  6
Continuous
370
    -3
390
F
  0
LAYER
  5
3C
330
2
100
AcDbSymbolTableRecord
100
AcDbLayerTableRecord
  2
STAVBA OBRYS
 70
     0
 62
     6
  6
Continuous
370
    -3
390
F
  0
ENDTAB
  0
TABLE
  2
STYLE
  5
3
330
0
100
AcDbSymbolTable
 70
     3
  0
STYLE
  5
11
330
3
100
AcDbSymbolTableRecord
100
AcDbTextStyleTableRecord
  2
Standard
 70
     0
 40
0.0
 41
1.0
 50
0.0
 71
     0
 42
2.5
  3
txt
  4

  0
STYLE
  5
3D
330
3
100
AcDbSymbolTableRecord
100
AcDbTextStyleTableRecord
  2
SIMPLEX7
 70
     0
 40
0.0
 41
0.85
 50
0.0
 71
     0
 42
102.0
  3

  4

1001
ACAD
1000
Arial CE
1071
    60962
  0
STYLE
  5
3E
330
3
100
AcDbSymbolTableRecord
100
AcDbTextStyleTableRecord
  2

 70
     1
 40
0.0
 41
1.0
 50
0.0
 71
     0
 42
2.5
  3
ltypeshp.shx
  4

  0
ENDTAB
  0
TABLE
  2
VIEW
  5
6
330
0
100
AcDbSymbolTable
 70
     0
  0
ENDTAB
  0
TABLE
  2
UCS
  5
7
330
0
100
AcDbSymbolTable
 70
     0
  0
ENDTAB
  0
TABLE
  2
APPID
  5
9
330
0
100
AcDbSymbolTable
 70
     1
  0
APPID
  5
12
330
9
100
AcDbSymbolTableRecord
100
AcDbRegAppTableRecord
  2
ACAD
 70
     0
  0
ENDTAB
  0
TABLE
  2
DIMSTYLE
  5
A
330
0
100
AcDbSymbolTable
 70
     1
100
AcDbDimStyleTable
 71
     0
  0
DIMSTYLE
105
27
330
A
100
AcDbSymbolTableRecord
100
AcDbDimStyleTableRecord
  2
ISO-25
 70
     0
 41
2.5
 42
0.625
 43
3.75
 44
1.25
 73
     0
 74
     0
 77
     1
 78
     8
140
2.5
141
2.5
143
0.03937007874016
147
0.625
171
     3
172
     1
271
     2
272
     2
274
     3
278
    44
283
     0
284
     8
340
11
  0
ENDTAB
  0
TABLE
  2
BLOCK_RECORD
  5
1
330
0
100
AcDbSymbolTable
 70
     2
  0
BLOCK_RECORD
  5
1F
330
1
100
AcDbSymbolTableRecord
100
AcDbBlockTableRecord
  2
*Model_Space
340
22
  0
BLOCK_RECORD
  5
1B
330
1
100
AcDbSymbolTableRecord
100
AcDbBlockTableRecord
  2
*Paper_Space
340
1E
  0
BLOCK_RECORD
  5
23
330
1
100
AcDbSymbolTableRecord
100
AcDbBlockTableRecord
  2
*Paper_Space0
340
26
  0
BLOCK_RECORD
  5
2B
330
1
100
AcDbSymbolTableRecord
100
AcDbBlockTableRecord
  2
E_PUNKT
340
0
102
{BLKREFS
331
4389
331
454D
331
454E
331
460F
331
4610
331
4611
102
}
  0
ENDTAB
  0
ENDSEC
  0
SECTION
  2
BLOCKS
  0
BLOCK
  5
20
330
1F
100
AcDbEntity
  8
0
100
AcDbBlockBegin
  2
*Model_Space
 70
     0
 10
0.0
 20
0.0
 30
0.0
  3
*Model_Space
  1

  0
ENDBLK
  5
21
330
1F
100
AcDbEntity
  8
0
100
AcDbBlockEnd
  0
BLOCK
  5
1C
330
1B
100
AcDbEntity
 67
     1
  8
0
100
AcDbBlockBegin
  2
*Paper_Space
 70
     0
 10
0.0
 20
0.0
 30
0.0
  3
*Paper_Space
  1

  0
ENDBLK
  5
1D
330
1B
100
AcDbEntity
 67
     1
  8
0
100
AcDbBlockEnd
  0
BLOCK
  5
24
330
23
100
AcDbEntity
  8
0
100
AcDbBlockBegin
  2
*Paper_Space0
 70
     0
 10
0.0
 20
0.0
 30
0.0
  3
*Paper_Space0
  1

  0
ENDBLK
  5
25
330
23
100
AcDbEntity
  8
0
100
AcDbBlockEnd
  0
BLOCK
  5
2D
330
2B
100
AcDbEntity
  8
0
100
AcDbBlockBegin
  2
E_PUNKT
 70
     0
 10
0.0
 20
0.0
 30
0.0
  3
E_PUNKT
  1

  0
LWPOLYLINE
  5
2C
330
2B
100
AcDbEntity
  8
POPIS
100
AcDbPolyline
 90
        2
 70
     1
 43
2.5
 10
1.27761037562675
 20
0.0290683308725193
 42
-1.0
 10
-1.222389624373249
 20
0.0290683308725193
 42
-1.0
  0
ENDBLK
  5
2E
330
2B
100
AcDbEntity
  8
0
100
AcDbBlockEnd
  0
ENDSEC
  0
SECTION
  2
ENTITIES
  0
LINE
  5
4380
330
1F
100
AcDbEntity
  8
NOSNÉ KONSTRUKCE
  6
DASHED
100
AcDbLine
 10
90.33345029307042
 20
20.03724032285475
 30
0.0
 11
90.33345029308497
 21
356.9656016089401
 31
0.0
  0
LINE
  5
4381
330
1F
100
AcDbEntity
  8
NOSNÉ KONSTRUKCE
  6
DASHED
100
AcDbLine
 10
85.39946000803707
 20
20.03724032285475
 30
0.0
 11
85.39946000805162
 21
356.4680520749188
 31
0.0
  0
LINE
  5
4382
330
1F
100
AcDbEntity
  8
NOSNÉ KONSTRUKCE
  6
DASHED
100
AcDbLine
 10
64.5178516247945
 20
20.03724032285475
 30
0.0
 11
64.51785162478723
 21
350.8671319825598
 31
0.0
  0
LINE
  5
4383
330
1F
100
AcDbEntity
  8
NOSNÉ KONSTRUKCE
  6
DASHED
100
AcDbLine
 10
59.00771656631355
 20
20.03724032285475
 30
0.0
 11
59.00771656630627
 21
350.8671319825598
 31
0.0
  0
HATCH
  5
4384
330
1F
100
AcDbEntity
  8
STAVBA OBRYS
100
AcDbHatch
 10
0.0
 20
0.0
 30
0.0
210
0.0
220
0.0
230
1.0
  2
AR-CONC
 70
     0
 71
     0
 91
        1
 92
        7
 72
     0
 73
     1
 93
        7
 10
323.8613411200169
 20
-34.91461513976088
 10
76.59956905607419
 20
-34.91461513976133
 10
75.1737134506186
 20
-37.19950037477116
 10
73.74785784515575
 20
-34.91461513976088
 10
-75.4114466403114
 20
-34.91461513976088
 10
-75.41144664030776
 20
-87.34001117911345
 10
323.8613411200133
 20
-87.34001117911345
 97
        0
 75
     0
 76
     1
 52
0.0
 41
0.25
 77
     0
 78
    13
 53
50.0
 43
-26459.97445886097
 44
-2136.302276369136
 45
45.546167249001
 46
-3.984771384725771
 79
     2
 49
4.7625
 49
-52.3875
 53
355.0
 43
-26459.97445886097
 44
-2136.302276369136
 45
-8.810706493916747
 46
47.76416072054499
 79
     2
 49
3.81
 49
-41.90999999999999
 53
100.451
 43
-26456.17895886097
 44
-2136.634338869136
 45
36.73562541648981
 46
43.77917195507296
 79
     2
 49
4.0475
 49
-44.5225
 53
46.1842
 43
-26459.97445886097
 44
-2123.602276369136
 45
67.76976022303248
 46
-10.51058198318178
 79
     2
 49
7.143749999999999
 49
-78.58125
 53
96.63559999999998
 43
-26454.32698386097
 44
-2124.478151369136
 45
59.35105861655928
 46
61.8563889725123
 79
     2
 49
6.071249999999992
 49
-66.78374999999987
 53
351.184
 43
-26459.97445886097
 44
-2123.602276369136
 45
59.35115145348348
 46
61.85627946514942
 79
     2
 49
5.714999999999999
 49
-62.865
 53
21.0
 43
-26453.62445886097
 44
-2126.777276369136
 45
37.90371995884582
 46
-25.56637962919062
 79
     2
 49
4.7625
 49
-52.3875
 53
326.0
 43
-26453.62445886097
 44
-2126.777276369136
 45
15.45050708691176
 46
46.04699153057981
 79
     2
 49
3.81
 49
-41.90999999999999
 53
71.45140000000001
 43
-26450.46583386097
 44
-2128.907801369135
 45
53.35412269253112
 46
20.48071442901436
 79
     2
 49
4.0475
 49
-44.5225
 53
37.5
 43
-26459.97445886097
 44
-2136.302276369136
 45
0.7721508126479542
 46
21.13875971828827
 79
     6
 49
0.0
 49
-41.402
 49
0.0
 49
-42.545
 49
0.0
 49
-42.06875
 53
7.499999999999999
 43
-26459.97445886097
 44
-2136.302276369136
 45
16.70491562757643
 46
25.04514370452987
 79
     6
 49
0.0
 49
-24.25699999999999
 49
0.0
 49
-40.4495
 49
0.0
 49
-16.03375
 53
327.4999999999999
 43
-26474.13495886097
 44
-2136.302276369136
 45
33.89764879171784
 46
-1.432185998168366
 79
     6
 49
0.0
 49
-15.875
 49
0.0
 49
-49.53
 49
0.0
 49
-65.7225
 53
317.5
 43
-26480.48495886097
 44
-2136.302276369136
 45
37.03229534650451
 46
6.356622758333253
 79
     6
 49
0.0
 49
-20.6375
 49
0.0
 49
-32.893
 49
0.0
 49
-46.6725
 47
2.548257043184555
 98
        1
 10
128.4090022608836
 20
-64.74509910411604
  0
HATCH
  5
4385
330
1F
100
AcDbEntity
  8
CETRIS
100
AcDbHatch
 10
0.0
 20
0.0
 30
0.0
210
0.0
220
0.0
230
1.0
  2
ANSI31
 70
     0
 71
     0
 91
       12
 92
        7
 72
     0
 73
     1
 93
       12
 10
112.4336612281697
 20
361.4472141354571
 10
100.4336612281733
 20
359.2370528571581
 10
100.4336612281697
 20
302.8144390378046
 10
100.6520545987807
 20
302.4371296422386
 10
100.8781861530371
 20
301.7646125438049
 10
105.8340639570853
 20
301.7646125438049
 10
107.3576919105109
 20
301.9915754346884
 10
108.7715591202106
 20
302.6045612838324
 10
109.9789273031167
 20
303.5626423538205
 10
110.8970108135583
 20
304.7997761627275
 10
111.2337344514419
 20
305.515081348888
 10
112.4336612281697
 20
305.515081348888
 97
        0
 92
        7
 72
     0
 73
     1
 93
       15
 10
112.4336612281661
 20
295.3147735716201
 10
111.2337344514419
 20
295.3147735716201
 10
110.4895938149641
 20
296.6644586551619
 10
109.4208218255555
 20
297.775088555526
 10
108.101832547258
 20
298.5713190348478
 10
106.6209926802041
 20
298.9991998991472
 10
105.8340639570853
 20
299.0652423810688
 10
101.7858400577936
 20
299.0652423810688
 10
102.0119716120427
 20
298.3927252826369
 10
101.63339006322
 20
298.0150739073259
 10
101.415728927179
 20
298.3927252826269
 10
101.1895973728717
 20
299.0652423810688
 10
100.4336612281733
 20
299.0652423810688
 10
100.4336612281733
 20
241.3989178299134
 10
112.4336612281697
 20
241.3989178299134
 97
        0
 92
        7
 72
     0
 73
     1
 93
        4
 10
112.4336612281697
 20
241.3989178299134
 10
100.4336612281733
 20
241.3989178299134
 10
100.4336612281733
 20
189.3410017136674
 10
112.4336612281697
 20
189.3410017136674
 97
        0
 92
        7
 72
     0
 73
     1
 93
        4
 10
112.4336612281733
 20
189.3410017136674
 10
100.4336612281733
 20
189.3410017136674
 10
100.4336612281733
 20
135.2747799721027
 10
112.4336612281733
 20
135.2747799721027
 97
        0
 92
        7
 72
     0
 73
     1
 93
        4
 10
112.4336612281697
 20
135.2747799721027
 10
100.4336612281733
 20
135.2747799721027
 10
100.4336612281733
 20
69.57120077729809
 10
112.4336612281733
 20
81.52341919976601
 97
        0
 92
        7
 72
     0
 73
     1
 93
       12
 10
112.4336612281733
 20
81.5234191997651
 10
100.4336612281697
 20
69.57120077730263
 10
100.4336612281624
 20
52.81443903781104
 10
100.652054598788
 20
52.43712964223499
 10
100.8781861530371
 20
51.76461254380495
 10
105.8340639570853
 20
51.76461254380495
 10
107.3576919105109
 20
51.99157543468749
 10
108.771559120207
 20
52.60456128383061
 10
109.978927303124
 20
53.56264235383054
 10
110.8970108135656
 20
54.79977616273294
 10
111.2337344514455
 20
55.51508134888803
 10
112.4336612281733
 20
55.51508134888803
 97
        0
 92
        7
 72
     0
 73
     1
 93
       16
 10
112.4336612281697
 20
45.31477357162015
 10
111.2337344514455
 20
45.31477357162015
 10
110.4895938149641
 20
46.66445865516919
 10
109.4208218255628
 20
47.77508855552236
 10
108.101832547258
 20
48.57131903484599
 10
106.6209926802041
 20
48.9991998991481
 10
105.834063957089
 20
49.0652423810688
 10
101.7858400577972
 20
49.0652423810688
 10
102.01197161205
 20
48.39272528264058
 10
101.63339006322
 20
48.01507390732599
 10
101.415728927179
 20
48.39272528263149
 10
101.1895973728753
 20
49.0652423810688
 10
100.4336612281733
 20
49.0652423810688
 10
100.4336612281733
 20
19.48497938960775
 10
108.2878222030851
 20
19.48497938961003
 10
112.4336612281733
 20
22.81058707654659
 97
        0
 92
        7
 72
     0
 73
     1
 93
       15
 10
49.20140694342649
 20
49.0652423810688
 10
48.4454707987245
 20
49.0652423810688
 10
48.21933924443897
 20
48.39272528264604
 10
48.00167810837251
 20
48.01507390732962
 10
47.62309655954618
 20
48.39272528264604
 10
47.84922811380261
 20
49.0652423810688
 10
43.80100421451811
 20
49.0652423810688
 10
43.0140754913848
 20
48.99919989914718
 10
41.53323562434548
 20
48.57131903485054
 10
40.21424634603341
 20
47.77508855553145
 10
39.1454743566212
 20
46.66445865517101
 10
38.40133372015793
 20
45.31477357162015
 10
37.20140694342285
 20
45.31477357162015
 10
37.20140694342285
 20
35.80017990113714
 10
49.20140694342285
 20
26.06557392347798
 97
        0
 92
        7
 72
     0
 73
     1
 93
        4
 10
37.20140694343013
 20
35.8001799011335
 10
37.20140694342285
 20
19.4849793896073
 10
49.20140694342649
 20
19.4849793896073
 10
49.20140694342285
 20
26.06557392347434
 97
        0
 92
        7
 72
     0
 73
     1
 93
       12
 10
49.20140694343377
 20
135.2747799721027
 10
37.20140694342649
 20
135.2747799721027
 10
37.20140694342285
 20
55.51508134888803
 10
38.40133372015429
 20
55.51508134888803
 10
38.73805735803421
 20
54.79977616273021
 10
39.65614086848677
 20
53.56264235380871
 10
40.86350905137829
 20
52.60456128383424
 10
42.2773762610816
 20
51.9915754346884
 10
43.80100421450356
 20
51.76461254380495
 10
48.75688201855905
 20
51.76461254380495
 10
48.98301357281912
 20
52.43712964224044
 10
49.20140694342285
 20
52.81443903780285
 97
        0
 92
        7
 72
     0
 73
     1
 93
       15
 10
49.20140694342649
 20
299.0652423810688
 10
48.4454707987245
 20
299.0652423810688
 10
48.21933924443897
 20
298.3927252826514
 10
48.00167810837615
 20
298.0150739073278
 10
47.62309655954618
 20
298.3927252826424
 10
47.84922811379533
 20
299.0652423810688
 10
43.80100421451811
 20
299.0652423810688
 10
43.0140754913848
 20
298.9991998991472
 10
41.5332356243382
 20
298.5713190348496
 10
40.2142463460516
 20
297.7750885555351
 10
39.14547435661393
 20
296.6644586551546
 10
38.40133372015429
 20
295.3147735716201
 10
37.20140694342649
 20
295.3147735716201
 10
37.20140694342649
 20
135.2747799721027
 10
49.20140694343013
 20
135.2747799721027
 97
        0
 92
        7
 72
     0
 73
     1
 93
       12
 10
49.20140694342649
 20
349.8010908054774
 10
37.20140694342649
 20
347.5909295271776
 10
37.20140694342649
 20
305.515081348888
 10
38.40133372015429
 20
305.515081348888
 10
38.73805735804149
 20
304.7997761627129
 10
39.65614086847949
 20
303.5626423538205
 10
40.86350905137464
 20
302.604561283836
 10
42.2773762610816
 20
301.9915754346884
 10
43.8010042145072
 20
301.7646125438049
 10
48.75688201855178
 20
301.7646125438049
 10
48.9830135728082
 20
302.4371296422458
 10
49.20140694343013
 20
302.8144390378028
 97
        0
 75
     0
 76
     1
 52
90.0
 41
1.0
 77
     0
 78
     1
 53
135.0
 43
-26459.97445886097
 44
-2136.302276369136
 45
-2.245064030267288
 46
-2.245064030267287
 79
     0
 47
0.6660490626292731
 98
       12
 10
107.9733773461741
 20
320.6938918393652
 10
111.3056708608494
 20
250.7587389633217
 10
111.3056708608494
 20
202.8032078046316
 10
110.6392045898103
 20
174.8291488962394
 10
111.3056708608494
 20
121.5452191587364
 10
110.6392045898103
 20
68.92733924358338
 10
106.6404637243542
 20
36.9569814010801
 10
45.99277094994272
 20
41.61933015754306
 10
41.32756381344757
 20
29.63044456533765
 10
43.99339105708373
 20
67.59523959887968
 10
43.99339105708373
 20
146.8550899878491
 10
46.65923722098182
 20
312.7013051812727
  0
HATCH
  5
4386
330
1F
100
AcDbEntity
  8
STAVBA OBRYS
100
AcDbHatch
 10
0.0
 20
0.0
 30
0.0
210
0.0
220
0.0
230
1.0
  2
ANSI35
 70
     0
 71
     0
 91
        1
 92
        7
 72
     0
 73
     1
 93
        3
 10
78.69917987408939
 20
15.08538486023911
 10
78.69917987409667
 20
-4.249713583224604
 10
102.8031071039297
 20
15.08538486023911
 97
        0
 75
     0
 76
     1
 52
0.0
 41
2.0
 77
     0
 78
     2
 53
45.0
 43
-26459.97445886097
 44
-2136.302276369136
 45
-8.980256121069151
 46
8.980256121069153
 79
     0
 53
45.0
 43
-26450.99419886097
 44
-2136.302276369136
 45
-8.980256121069151
 46
8.980256121069153
 79
     4
 49
15.875
 49
-3.174999999999999
 49
0.0
 49
-3.174999999999999
 47
0.5553406467409544
 98
        1
 10
84.5980165375588
 20
12.11452811623615
  0
HATCH
  5
4387
330
1F
100
AcDbEntity
  8
STAVBA OBRYS
100
AcDbHatch
 10
0.0
 20
0.0
 30
0.0
210
0.0
220
0.0
230
1.0
  2
ANSI35
 70
     0
 71
     0
 91
        2
 92
        7
 72
     0
 73
     1
 93
        6
 10
323.8613411200133
 20
15.08538486023911
 10
102.8031071039224
 20
15.08538486023866
 10
78.69917987409303
 20
-4.249713583225513
 10
78.69917987408939
 20
-31.5500600340602
 10
76.59956905607782
 20
-34.91461513976133
 10
323.8613411200133
 20
-34.91461513976133
 97
        0
 92
        7
 72
     1
 73
     1
 93
        8
 10
71.64824702714054
 20
15.08538486023911
 42
0.0
 10
62.65061333624567
 20
15.08538486023911
 42
-0.2146517840404374
 10
61.71500821151153
 20
14.66432578127654
 42
-0.2146517840404374
 10
60.77940308677739
 20
15.08538486023911
 42
0.0
 10
-75.41144664031503
 20
15.08538486023866
 42
0.0
 10
-75.41144664031503
 20
-34.91461513976088
 42
0.0
 10
73.74785784515939
 20
-34.91461513976088
 42
0.0
 10
71.64824702714054
 20
-31.5500600340552
 42
0.0
 97
        0
 75
     0
 76
     1
 52
0.0
 41
2.0
 77
     0
 78
     2
 53
45.0
 43
-26459.97445886097
 44
-2136.302276369136
 45
-8.980256121069151
 46
8.980256121069153
 79
     0
 53
45.0
 43
-26450.99419886097
 44
-2136.302276369136
 45
-8.980256121069151
 46
8.980256121069153
 79
     4
 49
15.875
 49
-3.174999999999999
 49
0.0
 49
-3.174999999999999
 47
0.5553406467409544
 98
        2
 10
170.172985788886
 20
-22.8719373893719
 10
26.25142509317106
 20
-17.31852909862851
  0
LINE
  5
4388
330
1F
100
AcDbEntity
  8
POPIS
100
AcDbLine
 10
61.71500821151153
 20
15.91432578127654
 30
0.0
 11
-28.63873698971997
 21
89.21083479294333
 31
0.0
  0
INSERT
  5
4389
330
1F
100
AcDbEntity
  8
POPIS
100
AcDbBlockReference
  2
E_PUNKT
 10
61.68593988063753
 20
15.94193615690341
 30
0.0
 50
270.0
  0
LINE
  5
438A
330
1F
100
AcDbEntity
  8
STAVBA OBRYS
100
AcDbLine
 10
115.1562586512884
 20
51.06212540296741
 30
0.0
 11
113.1562586512884
 21
51.06212540296741
 31
0.0
  0
LINE
  5
438B
330
1F
100
AcDbEntity
  8
STAVBA OBRYS
100
AcDbLine
 10
113.1562586512884
 20
51.06212540296741
 30
0.0
 11
113.1562586512884
 21
21.06212540296741
 31
0.0
  0
LINE
  5
438C
330
1F
100
AcDbEntity
  8
STAVBA OBRYS
100
AcDbLine
 10
113.5804225258691
 20
19.02667068552449
 30
0.0
 11
323.8613411200097
 21
19.02667068552449
 31
0.0
  0
LINE
  5
438D
330
1F
100
AcDbEntity
  8
STAVBA OBRYS
100
AcDbLine
 10
115.1562586512884
 20
23.06212540296741
 30
0.0
 11
115.1562586512884
 21
51.06212540296741
 31
0.0
  0
LINE
  5
438E
330
1F
100
AcDbEntity
  8
STAVBA OBRYS
100
AcDbLine
 10
143.1562586512884
 20
23.06212540296741
 30
0.0
 11
115.1562586512884
 21
23.06212540296741
 31
0.0
  0
LINE
  5
438F
330
1F
100
AcDbEntity
  8
STAVBA OBRYS
100
AcDbLine
 10
143.1562586512884
 20
21.06212540296741
 30
0.0
 11
143.1562586512884
 21
23.06212540296741
 31
0.0
  0
LINE
  5
4390
330
1F
100
AcDbEntity
  8
STAVBA OBRYS
100
AcDbLine
 10
113.1562586512884
 20
21.06212540296741
 30
0.0
 11
143.1562586512884
 21
21.06212540296741
 31
0.0
  0
LINE
  5
4391
330
1F
100
AcDbEntity
  8
STAVBA OBRYS
  6
CIKCAK
 48
0.2
100
AcDbLine
 10
143.1562586512884
 20
21.68029977558666
 30
0.0
 11
323.8613411200133
 21
21.68029977558666
 31
0.0
  0
LINE
  5
4392
330
1F
100
AcDbEntity
  8
STAVBA OBRYS
100
AcDbLine
 10
113.5804225258691
 20
16.83200923916496
 30
0.0
 11
113.5804225258691
 21
21.06212540296741
 31
0.0
  0
LINE
  5
4393
330
1F
100
AcDbEntity
  8
STAVBA OBRYS
100
AcDbLine
 10
323.8613411200133
 20
16.83200923916496
 30
0.0
 11
113.5804225258691
 21
16.83200923916496
 31
0.0
  0
LINE
  5
4394
330
1F
100
AcDbEntity
  8
STAVBA OBRYS
100
AcDbLine
 10
-75.4114466403114
 20
-34.91461513976088
 30
0.0
 11
323.8613411200133
 21
-34.91461513976088
 31
0.0
  0
TEXT
  5
4395
330
1F
100
AcDbEntity
  8
POPIS
100
AcDbText
 10
512.1595308606995
 20
198.3992312831032
 30
0.0
 40
25.0
  1
UW profil (ocelový nosník I, U)
 41
0.7
  7
SIMPLEX7
100
AcDbText
  0
TEXT
  5
4396
330
1F
100
AcDbEntity
  8
POPIS
100
AcDbText
 10
457.8158277009572
 20
198.3992312831032
 30
0.0
 40
25.0
  1
05
 41
0.85
  7
SIMPLEX7
100
AcDbText
  0
TEXT
  5
4397
330
1F
100
AcDbEntity
  8
POPIS
100
AcDbText
 10
-84.29239442021184
 20
464.431027802343
 30
0.0
 40
35.0
  1
SVISLÝ ŘEZ
 41
0.85
  7
SIMPLEX7
100
AcDbText
  0
TEXT
  5
4398
330
1F
100
AcDbEntity
  8
POPIS
100
AcDbText
 10
-84.29239442021184
 20
519.0557708281439
 30
0.0
 40
50.0
  1
Návaznost příčky na monolitickou podlahu
 41
0.85
  7
SIMPLEX7
100
AcDbText
  0
TEXT
  5
4399
330
1F
100
AcDbEntity
  8
POPIS
100
AcDbText
 10
457.8158277009572
 20
338.2338639009012
 30
0.0
 40
25.0
  1
01
 41
0.85
  7
SIMPLEX7
100
AcDbText
  0
TEXT
  5
439A
330
1F
100
AcDbEntity
  8
POPIS
100
AcDbText
 10
512.1595308606995
 20
338.2338639009012
 30
0.0
 40
25.0
  1
Deska CETRIS   
 41
0.7
  7
SIMPLEX7
100
AcDbText
  0
TEXT
  5
439B
330
1F
100
AcDbEntity
  8
POPIS
100
AcDbText
 10
457.8158277009572
 20
301.6388522852739
 30
0.0
 40
25.0
  1
02
 41
0.85
  7
SIMPLEX7
100
AcDbText
  0
TEXT
  5
439C
330
1F
100
AcDbEntity
  8
POPIS
100
AcDbText
 10
512.1595308606995
 20
301.6388522852739
 30
0.0
 40
25.0
  1
Vrut Bűhnen 4,2x35 (45,55) mm
 41
0.7
  7
SIMPLEX7
100
AcDbText
  0
TEXT
  5
439D
330
1F
100
AcDbEntity
  8
POPIS
100
AcDbText
 10
457.8158277009572
 20
267.6886640405518
 30
0.0
 40
25.0
  1
03
 41
0.85
  7
SIMPLEX7
100
AcDbText
  0
TEXT
  5
439E
330
1F
100
AcDbEntity
  8
POPIS
100
AcDbText
 10
512.1595308606995
 20
267.6886640405518
 30
0.0
 40
25.0
  1
Tepelná izolace 
 41
0.7
  7
SIMPLEX7
100
AcDbText
  0
TEXT
  5
439F
330
1F
100
AcDbEntity
  8
POPIS
100
AcDbText
 10
457.8158277009572
 20
232.2845028223891
 30
0.0
 40
25.0
  1
04
 41
0.85
  7
SIMPLEX7
100
AcDbText
  0
TEXT
  5
43A0
330
1F
100
AcDbEntity
  8
POPIS
100
AcDbText
 10
512.1595308606995
 20
232.2845028223891
 30
0.0
 40
25.0
  1
CW profil (ocelový nosník I, U) - stojina
 41
0.7
  7
SIMPLEX7
100
AcDbText
  0
TEXT
  5
43A1
330
1F
100
AcDbEntity
  8
POPIS
100
AcDbText
 10
512.1595308606995
 20
161.5636912802109
 30
0.0
 40
25.0
  1
Těsnící podložka
 41
0.7
  7
SIMPLEX7
100
AcDbText
  0
TEXT
  5
43A2
330
1F
100
AcDbEntity
  8
POPIS
100
AcDbText
 10
457.8158277009572
 20
161.5636912802109
 30
0.0
 40
25.0
  1
06
 41
0.85
  7
SIMPLEX7
100
AcDbText
  0
TEXT
  5
43A3
330
1F
100
AcDbEntity
  8
POPIS
100
AcDbText
 10
679.7857160997448
 20
363.2091740091818
 30
0.0
 40
12.0
  1
R
 41
0.85
  7
SIMPLEX7
100
AcDbText
  0
CIRCLE
  5
43A4
330
1F
100
AcDbEntity
  8
POPIS
100
AcDbCircle
 10
684.5447451549264
 20
368.7545197541694
 30
0.0
 40
11.13656048292026
  0
TEXT
  5
43A5
330
1F
100
AcDbEntity
  8
POPIS
100
AcDbText
 10
457.8158277009572
 20
127.3102987410128
 30
0.0
 40
25.0
  1
07
 41
0.85
  7
SIMPLEX7
100
AcDbText
  0
TEXT
  5
43A6
330
1F
100
AcDbEntity
  8
POPIS
100
AcDbText
 10
512.1595308606995
 20
127.3102987410128
 30
0.0
 40
25.0
  1
Přikotvení - hmoždinka
 41
0.7
  7
SIMPLEX7
100
AcDbText
  0
LINE
  5
43A7
330
1F
100
AcDbEntity
  8
SPOJOVACÍ
  6
Continuous
100
AcDbLine
 10
78.0197897709479
 20
12.30192837343651
 30
0.0
 11
72.32763712510518
 21
10.87889021197855
 31
0.0
  0
LINE
  5
43A8
330
1F
100
AcDbEntity
  8
SPOJOVACÍ
  6
Continuous
100
AcDbLine
 10
78.0197897709479
 20
12.30192837343651
 30
0.0
 11
77.57191884304143
 21
12.0437958699012
 31
0.0
  0
LINE
  5
43A9
330
1F
100
AcDbEntity
  8
SPOJOVACÍ
  6
Continuous
100
AcDbLine
 10
78.0197897709479
 20
12.30192837343651
 30
0.0
 11
77.57191884304143
 21
12.75090242932577
 31
0.0
  0
LINE
  5
43AA
330
1F
100
AcDbEntity
  8
SPOJOVACÍ
  6
Continuous
100
AcDbLine
 10
72.32763712510518
 20
10.87889021197855
 30
0.0
 11
72.77550804783482
 21
10.43101928665868
 31
0.0
  0
LINE
  5
43AB
330
1F
100
AcDbEntity
  8
SPOJOVACÍ
  6
Continuous
100
AcDbLine
 10
72.32763712510518
 20
10.87889021197855
 30
0.0
 11
72.77550804783482
 21
11.13812584607961
 31
0.0
  0
LINE
  5
43AC
330
1F
100
AcDbEntity
  8
SPOJOVACÍ
  6
Continuous
100
AcDbLine
 10
77.57191884304143
 20
12.0437958699012
 30
0.0
 11
72.77550804783482
 21
10.43101928665868
 31
0.0
  0
LINE
  5
43AD
330
1F
100
AcDbEntity
  8
SPOJOVACÍ
  6
Continuous
100
AcDbLine
 10
77.57191884304143
 20
12.75090242932577
 30
0.0
 11
72.77550804783482
 21
11.13812584607961
 31
0.0
  0
LINE
  5
43AE
330
1F
100
AcDbEntity
  8
SPOJOVACÍ
  6
Continuous
100
AcDbLine
 10
78.0197897709479
 20
15.6979182876866
 30
0.0
 11
72.32763712510518
 21
14.27488012622865
 31
0.0
  0
LINE
  5
43AF
330
1F
100
AcDbEntity
  8
SPOJOVACÍ
  6
Continuous
100
AcDbLine
 10
78.0197897709479
 20
15.6979182876866
 30
0.0
 11
77.57191884304143
 21
15.43978578415129
 31
0.0
  0
LINE
  5
43B0
330
1F
100
AcDbEntity
  8
SPOJOVACÍ
  6
Continuous
100
AcDbLine
 10
78.0197897709479
 20
15.6979182876866
 30
0.0
 11
77.57191884304143
 21
16.14689234357587
 31
0.0
  0
LINE
  5
43B1
330
1F
100
AcDbEntity
  8
SPOJOVACÍ
  6
Continuous
100
AcDbLine
 10
72.32763712510518
 20
14.27488012622865
 30
0.0
 11
72.77550804783482
 21
13.82700920090877
 31
0.0
  0
LINE
  5
43B2
330
1F
100
AcDbEntity
  8
SPOJOVACÍ
  6
Continuous
100
AcDbLine
 10
72.32763712510518
 20
14.27488012622865
 30
0.0
 11
72.77550804783482
 21
14.53411576032971
 31
0.0
  0
LINE
  5
43B3
330
1F
100
AcDbEntity
  8
SPOJOVACÍ
  6
Continuous
100
AcDbLine
 10
77.57191884304143
 20
15.43978578415129
 30
0.0
 11
72.77550804783482
 21
13.82700920090877
 31
0.0
  0
LINE
  5
43B4
330
1F
100
AcDbEntity
  8
SPOJOVACÍ
  6
Continuous
100
AcDbLine
 10
77.57191884304143
 20
16.14689234357587
 30
0.0
 11
72.77550804783482
 21
14.53411576032971
 31
0.0
  0
LINE
  5
43B5
330
1F
100
AcDbEntity
  8
SPOJOVACÍ
  6
Continuous
100
AcDbLine
 10
77.57191884304143
 20
9.354912515075682
 30
0.0
 11
72.77550804783482
 21
7.742135931829523
 31
0.0
  0
LINE
  5
43B6
330
1F
100
AcDbEntity
  8
SPOJOVACÍ
  6
Continuous
100
AcDbLine
 10
77.57191884304143
 20
8.647805955651108
 30
0.0
 11
72.77550804783482
 21
7.035029372408587
 31
0.0
  0
LINE
  5
43B7
330
1F
100
AcDbEntity
  8
SPOJOVACÍ
  6
Continuous
100
AcDbLine
 10
72.32763712510518
 20
7.482900297728463
 30
0.0
 11
72.77550804783482
 21
7.742135931829523
 31
0.0
  0
LINE
  5
43B8
330
1F
100
AcDbEntity
  8
SPOJOVACÍ
  6
Continuous
100
AcDbLine
 10
72.32763712510518
 20
7.482900297728463
 30
0.0
 11
72.77550804783482
 21
7.035029372408587
 31
0.0
  0
LINE
  5
43B9
330
1F
100
AcDbEntity
  8
SPOJOVACÍ
  6
Continuous
100
AcDbLine
 10
78.0197897709479
 20
8.905938459186415
 30
0.0
 11
77.57191884304143
 21
9.354912515075682
 31
0.0
  0
LINE
  5
43BA
330
1F
100
AcDbEntity
  8
SPOJOVACÍ
  6
Continuous
100
AcDbLine
 10
78.0197897709479
 20
8.905938459186415
 30
0.0
 11
77.57191884304143
 21
8.647805955651108
 31
0.0
  0
LINE
  5
43BB
330
1F
100
AcDbEntity
  8
SPOJOVACÍ
  6
Continuous
100
AcDbLine
 10
78.0197897709479
 20
8.905938459186415
 30
0.0
 11
72.32763712510518
 21
7.482900297728463
 31
0.0
  0
HATCH
  5
43BC
330
1F
100
AcDbEntity
  8
NOSNÉ KONSTRUKCE
100
AcDbHatch
 10
0.0
 20
0.0
 30
0.0
210
0.0
220
0.0
230
1.0
  2
SOLID
 70
     1
 71
     1
 91
        1
 92
        1
 93
       78
 72
     1
 10
94.34309987280016
 20
65.95028264887599
 11
94.34309987280016
 21
67.450282648876
 72
     1
 10
94.34309987280016
 20
67.4502826488769
 11
98.30426425905921
 21
67.4502826488769
 72
     2
 10
98.30437097879281
 20
66.0862279633265
 40
1.364054689724365
 50
269.9955173422458
 51
359.9956000565877
 73
     0
 72
     1
 10
99.66842566449509
 20
66.08633271385946
 11
99.66842566449509
 21
58.92908471175719
 72
     2
 10
98.30444986971656
 20
58.92907083931181
 40
1.363975794848016
 50
359.9994172678322
 51
419.9993729338874
 73
     0
 72
     2
 10
99.66850392066067
 20
56.56649079260382
 40
1.364105569629164
 50
120.0000213811482
 51
239.9999786188517
 73
     1
 72
     2
 10
98.30444986971293
 20
54.203910745894
 40
1.363975794852709
 50
300.0006270662067
 51
360.0005827322442
 73
     0
 72
     1
 10
99.66842566449509
 20
54.2038968734468
 11
99.66842566449509
 21
46.16166738179339
 72
     2
 10
98.30444989721968
 20
46.16165352522597
 40
1.363975767345567
 50
359.999417934797
 51
419.9993736009129
 73
     0
 72
     2
 10
99.66847340037226
 20
43.79912635703834
 40
1.36404452909372
 50
120.0000213811012
 51
239.9999786188987
 73
     1
 72
     2
 10
98.30444986971656
 20
41.43659917297276
 40
1.363975794849071
 50
300.0006270661125
 51
360.0005827321678
 73
     0
 72
     1
 10
99.66842566449509
 20
41.43658530052738
 11
99.66842566449509
 21
33.39435580887033
 72
     2
 10
98.30444986971656
 20
33.39434193642495
 40
1.363975794848016
 50
359.9994172678322
 51
419.9993729338874
 73
     0
 72
     2
 10
99.66847339120455
 20
31.03181476823914
 40
1.364044510757576
 50
120.0000213811192
 51
239.9999786188807
 73
     1
 72
     2
 10
98.30444986971656
 20
28.66928760005333
 40
1.363975794849071
 50
300.0006270661125
 51
360.0005827321678
 73
     0
 72
     1
 10
99.66842566449509
 20
28.66927372760796
 11
99.66842566449509
 21
19.90129598315792
 72
     2
 10
98.30431811622498
 20
19.90134787104847
 40
1.364107549255989
 50
0.0021794155003766
 51
90.00226212976937
 73
     0
 72
     1
 10
98.30426425905921
 20
18.53724032285566
 11
92.1793888957875
 21
18.53724032285566
 72
     2
 10
92.17955635958082
 20
19.90109308138647
 40
1.363852768812942
 50
90.00703519384401
 51
145.618700920993
 73
     0
 72
     2
 10
89.92827560294632
 20
18.36031029894451
 40
1.364200882607377
 50
34.39439223558881
 51
90.00605796276937
 73
     1
 72
     1
 10
89.92813136408244
 20
19.7245111739266
 11
86.1094944602812
 21
19.7245111739266
 72
     2
 10
86.10956168687357
 20
18.36071127991994
 40
1.363799895662828
 50
90.00282431464272
 51
145.6144900418344
 73
     1
 72
     2
 10
83.85828093023906
 20
19.9014940623619
 40
1.364253740215838
 50
34.39018224989298
 51
90.00184797703083
 73
     0
 72
     1
 10
83.85823692857616
 20
18.53724032285566
 11
65.47430637449747
 21
18.53724032285566
 72
     2
 10
65.4742623738241
 20
19.90149406048561
 40
1.36425373834027
 50
89.99815206452478
 51
145.6098177916605
 73
     0
 72
     2
 10
63.22298161817911
 20
18.36071127992312
 40
1.363799895660397
 50
34.3855099580552
 51
89.99717568520443
 73
     1
 72
     1
 10
63.22304884477512
 20
19.7245111739266
 11
59.40441193898755
 21
19.7245111739266
 72
     2
 10
59.40426770012368
 20
18.36031029894451
 40
1.364200882606485
 50
89.99394203723062
 51
145.6056077644111
 73
     1
 72
     2
 10
57.15298694448233
 20
19.90109307950336
 40
1.363852766929037
 50
34.38129903727882
 51
89.99296476442301
 73
     0
 72
     1
 10
57.15315440926883
 20
18.53724032285566
 11
51.02827904599712
 21
18.53724032285566
 72
     2
 10
51.02822518783819
 20
19.90134787204164
 40
1.364107550250173
 50
89.99773782851688
 51
179.9978205427857
 73
     0
 72
     1
 10
49.6641176385749
 20
19.90129598315792
 11
49.6641176385749
 21
28.66927372760796
 72
     2
 10
51.02809343434296
 20
28.66928759833621
 40
1.363975795838488
 50
179.9994173399629
 51
239.9993730060832
 73
     0
 72
     2
 10
49.66406991384815
 20
31.03181476823914
 40
1.364044510757576
 50
300.0000213811192
 51
419.9999786188808
 73
     1
 72
     2
 10
51.02809343434296
 20
33.39434193814208
 40
1.363975795838583
 50
120.0006269939167
 51
180.000582660037
 73
     0
 72
     1
 10
49.6641176385749
 20
33.39435580887033
 11
49.6641176385749
 21
41.43658530052738
 72
     2
 10
51.02809343434296
 20
41.43659917125563
 40
1.363975795838488
 50
179.9994173399629
 51
239.9993730060832
 73
     0
 72
     2
 10
49.66406990468044
 20
43.79912635703834
 40
1.36404452909372
 50
300.0000213811012
 51
419.9999786188987
 73
     1
 72
     2
 10
51.02809340683984
 20
46.16165352694309
 40
1.363975768335302
 50
120.0006263268913
 51
180.0005819930721
 73
     0
 72
     1
 10
49.6641176385749
 20
46.16166738179339
 11
49.6641176385749
 21
54.2038968734468
 72
     2
 10
51.0280934343466
 20
54.20391074417688
 40
1.363975795841882
 50
179.9994173398865
 51
239.999373005989
 73
     0
 72
     2
 10
49.66403938439203
 20
56.56649079260382
 40
1.364105569629164
 50
300.0000213811482
 51
419.9999786188517
 73
     1
 72
     2
 10
51.02809343434296
 20
58.92907084102893
 40
1.363975795838583
 50
120.0006269939167
 51
180.000582660037
 73
     0
 72
     1
 10
49.6641176385749
 20
58.92908471175719
 11
49.6641176385749
 21
68.26875836057837
 72
     2
 10
51.02822518783819
 20
68.26870647169466
 40
1.364107550249196
 50
180.0021794572142
 51
270.0022621714831
 73
     0
 72
     1
 10
51.02827904599712
 20
69.63281402088063
 11
54.98944343225253
 21
69.63281402088063
 72
     1
 10
54.98944343225253
 20
69.63281402087972
 11
54.98944343225253
 21
68.13281402087972
 72
     1
 10
54.98944343225253
 20
68.13281402087972
 11
52.1641176385749
 21
68.13281402087972
 72
     2
 10
52.1641176385749
 20
67.13281402088063
 40
1.0
 50
90.00000000000003
 51
180.0
 73
     1
 72
     1
 10
51.16411763857491
 20
67.13281402087972
 11
51.16411763857491
 21
59.00634036692366
 72
     2
 10
49.6640393843993
 20
56.56649079260199
 40
2.864105569627733
 50
301.5842014864361
 51
418.4157985135637
 73
     0
 72
     1
 10
51.16411763857491
 20
54.12664121827941
 11
51.16411763857491
 21
46.23892304132636
 72
     2
 10
49.66406990468044
 20
43.79912635703561
 40
2.864044529094826
 50
301.5842355323783
 51
418.4157644675405
 73
     0
 72
     1
 10
51.16411763857854
 20
41.35932967274669
 11
51.16411763857491
 21
33.4716114366401
 72
     2
 10
49.66406991384451
 20
31.03181476823914
 40
2.864044510759085
 50
301.5842355426949
 51
418.415764457305
 73
     0
 72
     1
 10
51.16411763857491
 20
28.59201809983818
 11
51.16411763857491
 21
21.03724032285566
 72
     2
 10
52.1641176385749
 20
21.03724032285566
 40
1.0
 50
180.0
 51
270.0
 73
     1
 72
     1
 10
52.1641176385749
 20
20.03724032285566
 11
57.08229603990935
 21
20.03724032285566
 72
     2
 10
59.40426770012004
 20
18.36031029894906
 40
2.864200882602513
 50
215.8368500797323
 51
270.0041807823925
 73
     0
 72
     1
 10
59.40447669632726
 20
21.2245111739266
 11
63.22304884477512
 21
21.2245111739266
 72
     2
 10
63.22304884002392
 20
19.72451115547613
 40
1.500000018450464
 50
270.0000001814824
 51
270.0028244959367
 73
     0
 72
     2
 10
63.2229816181864
 20
18.36071127993267
 40
2.863799895650613
 50
270.0028243144894
 51
324.1672517372337
 73
     0
 72
     1
 10
65.54474823233272
 20
20.03724032285566
 11
83.7877950727236
 21
20.03724032285566
 72
     2
 10
86.10956168686994
 20
18.36071127993358
 40
2.863799895650137
 50
215.8327482627515
 51
269.9971756855105
 73
     0
 72
     2
 10
86.10949446502877
 20
19.72451122466549
 40
1.499999949261109
 50
269.9971755040718
 51
269.9999998185174
 73
     0
 72
     1
 10
86.10949446027758
 20
21.2245111739266
 11
89.92806660363227
 21
21.2245111739266
 72
     2
 10
89.92827560294996
 20
18.36031029894633
 40
2.864200882605558
 50
269.9958191553852
 51
324.1631499202233
 73
     0
 72
     1
 10
92.25024726316064
 20
20.03724032285566
 11
97.16842566449509
 21
20.03724032285566
 72
     2
 10
97.16842566449509
 20
21.03724032285566
 40
1.0
 50
270.0
 51
360.0
 73
     1
 72
     1
 10
98.16842566449508
 20
21.03724032285566
 11
98.16842566449508
 21
28.59201810105691
 72
     2
 10
99.66847339120818
 20
31.03181476823914
 40
2.864044510759331
 50
121.5842355892532
 51
238.4157644107467
 73
     0
 72
     1
 10
98.16842566449508
 20
33.47161143542138
 11
98.16842566449508
 21
41.35932967396906
 72
     2
 10
99.66847340037588
 20
43.79912635703834
 40
2.864044529094653
 50
121.5842355790273
 51
238.4157644209726
 73
     0
 72
     1
 10
98.16842566449508
 20
46.23892304010763
 11
98.16842566449508
 21
54.12664121950178
 72
     2
 10
99.66850392066431
 20
56.56649079260017
 40
2.864105569629046
 50
121.5842015332367
 51
238.4157984667633
 73
     0
 72
     1
 10
98.16842566449508
 20
59.00634036569858
 11
98.16842566449508
 21
64.9502826488769
 72
     2
 10
97.16842566449509
 20
64.9502826488769
 40
1.0
 50
0.0
 51
90.0
 73
     1
 72
     1
 10
97.16842566449509
 20
65.95028264887691
 11
94.34309987280016
 21
65.95028264887691
 97
        7
330
43BD
330
43E1
330
43C0
330
43BF
330
43BE
330
43C1
330
43C2
 75
     0
 76
     1
 98
        1
 10
-1711.273726210005
 20
-20904.50472067717
  0
LINE
  5
43BD
102
{ACAD_REACTORS
330
43BC
102
}
330
1F
100
AcDbEntity
  8
NOSNÉ KONSTRUKCE
100
AcDbLine
 10
94.34309987280016
 20
65.95028264887599
 30
0.0
 11
94.34309987280016
 21
67.450282648876
 31
0.0
  0
ARC
  5
43BE
102
{ACAD_REACTORS
330
43BC
102
}
330
1F
100
AcDbEntity
  8
NOSNÉ KONSTRUKCE
100
AcDbCircle
 10
52.1641176385749
 20
67.13281402088063
 30
0.0
 40
1.0
100
AcDbArc
 50
90.0
 51
180.0
  0
LINE
  5
43BF
102
{ACAD_REACTORS
330
43BC
102
}
330
1F
100
AcDbEntity
  8
NOSNÉ KONSTRUKCE
100
AcDbLine
 10
54.98944343225253
 20
68.13281402087972
 30
0.0
 11
52.1641176385749
 21
68.13281402087972
 31
0.0
  0
LINE
  5
43C0
102
{ACAD_REACTORS
330
43BC
102
}
330
1F
100
AcDbEntity
  8
NOSNÉ KONSTRUKCE
100
AcDbLine
 10
54.98944343225253
 20
69.63281402087972
 30
0.0
 11
54.98944343225253
 21
68.13281402087972
 31
0.0
  0
LINE
  5
43C1
102
{ACAD_REACTORS
330
43BC
102
}
330
1F
100
AcDbEntity
  8
NOSNÉ KONSTRUKCE
100
AcDbLine
 10
51.16411763857491
 20
59.00634036692366
 30
0.0
 11
51.16411763857491
 21
67.13281402087972
 31
0.0
  0
POLYLINE
  5
43C2
102
{ACAD_REACTORS
330
43BC
102
}
330
1F
100
AcDbEntity
  8
NOSNÉ KONSTRUKCE
100
AcDb2dPolyline
 66
     1
 10
0.0
 20
0.0
 30
0.0
  0
VERTEX
  5
43C3
330
43C2
100
AcDbEntity
  8
NOSNÉ KONSTRUKCE
100
AcDbVertex
100
AcDb2dVertex
 10
51.16411763857491
 20
59.00634036692458
 30
0.0
 42
-0.5590620544015654
  0
VERTEX
  5
43C4
330
43C2
100
AcDbEntity
  8
NOSNÉ KONSTRUKCE
100
AcDbVertex
100
AcDb2dVertex
 10
51.16411763857491
 20
54.12664121827941
 30
0.0
  0
VERTEX
  5
43C5
330
43C2
100
AcDbEntity
  8
NOSNÉ KONSTRUKCE
100
AcDbVertex
100
AcDb2dVertex
 10
51.16411763857491
 20
46.23892304132636
 30
0.0
 42
-0.5590616644338536
  0
VERTEX
  5
43C6
330
43C2
100
AcDbEntity
  8
NOSNÉ KONSTRUKCE
100
AcDbVertex
100
AcDb2dVertex
 10
51.16411763857854
 20
41.35932967274669
 30
0.0
  0
VERTEX
  5
43C7
330
43C2
100
AcDbEntity
  8
NOSNÉ KONSTRUKCE
100
AcDbVertex
100
AcDb2dVertex
 10
51.16411763857491
 20
33.4716114366401
 30
0.0
 42
-0.559061664315726
  0
VERTEX
  5
43C8
330
43C2
100
AcDbEntity
  8
NOSNÉ KONSTRUKCE
100
AcDbVertex
100
AcDb2dVertex
 10
51.16411763857491
 20
28.59201809983818
 30
0.0
  0
VERTEX
  5
43C9
330
43C2
100
AcDbEntity
  8
NOSNÉ KONSTRUKCE
100
AcDbVertex
100
AcDb2dVertex
 10
51.16411763857491
 20
21.03724032285566
 30
0.0
 42
0.4142135623731029
  0
VERTEX
  5
43CA
330
43C2
100
AcDbEntity
  8
NOSNÉ KONSTRUKCE
100
AcDbVertex
100
AcDb2dVertex
 10
52.1641176385749
 20
20.03724032285566
 30
0.0
  0
VERTEX
  5
43CB
330
43C2
100
AcDbEntity
  8
NOSNÉ KONSTRUKCE
100
AcDbVertex
100
AcDb2dVertex
 10
57.08229603990935
 20
20.03724032285566
 30
0.0
 42
-0.2408510949208177
  0
VERTEX
  5
43CC
330
43C2
100
AcDbEntity
  8
NOSNÉ KONSTRUKCE
100
AcDbVertex
100
AcDb2dVertex
 10
59.40447669632726
 20
21.2245111739266
 30
0.0
  0
VERTEX
  5
43CD
330
43C2
100
AcDbEntity
  8
NOSNÉ KONSTRUKCE
100
AcDbVertex
100
AcDb2dVertex
 10
63.22304884477512
 20
21.2245111739266
 30
0.0
 42
-0.0000123233965856
  0
VERTEX
  5
43CE
330
43C2
100
AcDbEntity
  8
NOSNÉ KONSTRUKCE
100
AcDbVertex
100
AcDb2dVertex
 10
63.22312278515551
 20
21.22451117210397
 30
0.0
 42
-0.2408376921551036
  0
VERTEX
  5
43CF
330
43C2
100
AcDbEntity
  8
NOSNÉ KONSTRUKCE
100
AcDbVertex
100
AcDb2dVertex
 10
65.54474823233272
 20
20.03724032285566
 30
0.0
  0
VERTEX
  5
43D0
330
43C2
100
AcDbEntity
  8
NOSNÉ KONSTRUKCE
100
AcDbVertex
100
AcDb2dVertex
 10
83.7877950727236
 20
20.03724032285566
 30
0.0
 42
-0.2408376921551987
  0
VERTEX
  5
43D1
330
43C2
100
AcDbEntity
  8
NOSNÉ KONSTRUKCE
100
AcDbVertex
100
AcDb2dVertex
 10
86.10942051990083
 20
21.22451117210397
 30
0.0
 42
-0.0000123233965477
  0
VERTEX
  5
43D2
330
43C2
100
AcDbEntity
  8
NOSNÉ KONSTRUKCE
100
AcDbVertex
100
AcDb2dVertex
 10
86.10949446027758
 20
21.2245111739266
 30
0.0
  0
VERTEX
  5
43D3
330
43C2
100
AcDbEntity
  8
NOSNÉ KONSTRUKCE
100
AcDbVertex
100
AcDb2dVertex
 10
89.92806660363227
 20
21.2245111739266
 30
0.0
 42
-0.240851095207779
  0
VERTEX
  5
43D4
330
43C2
100
AcDbEntity
  8
NOSNÉ KONSTRUKCE
100
AcDbVertex
100
AcDb2dVertex
 10
92.25024726316064
 20
20.03724032285566
 30
0.0
  0
VERTEX
  5
43D5
330
43C2
100
AcDbEntity
  8
NOSNÉ KONSTRUKCE
100
AcDbVertex
100
AcDb2dVertex
 10
97.16842566449509
 20
20.03724032285566
 30
0.0
 42
0.4142135623730951
  0
VERTEX
  5
43D6
330
43C2
100
AcDbEntity
  8
NOSNÉ KONSTRUKCE
100
AcDbVertex
100
AcDb2dVertex
 10
98.16842566449508
 20
21.03724032285566
 30
0.0
  0
VERTEX
  5
43D7
330
43C2
100
AcDbEntity
  8
NOSNÉ KONSTRUKCE
100
AcDbVertex
100
AcDb2dVertex
 10
98.16842566449508
 20
28.59201810105691
 30
0.0
 42
-0.5590616637825315
  0
VERTEX
  5
43D8
330
43C2
100
AcDbEntity
  8
NOSNÉ KONSTRUKCE
100
AcDbVertex
100
AcDb2dVertex
 10
98.16842566449508
 20
33.47161143542138
 30
0.0
  0
VERTEX
  5
43D9
330
43C2
100
AcDbEntity
  8
NOSNÉ KONSTRUKCE
100
AcDbVertex
100
AcDb2dVertex
 10
98.16842566449508
 20
41.35932967396906
 30
0.0
 42
-0.5590616638998631
  0
VERTEX
  5
43DA
330
43C2
100
AcDbEntity
  8
NOSNÉ KONSTRUKCE
100
AcDbVertex
100
AcDb2dVertex
 10
98.16842566449508
 20
46.23892304010763
 30
0.0
  0
VERTEX
  5
43DB
330
43C2
100
AcDbEntity
  8
NOSNÉ KONSTRUKCE
100
AcDbVertex
100
AcDb2dVertex
 10
98.16842566449508
 20
54.12664121950178
 30
0.0
 42
-0.5590620538659819
  0
VERTEX
  5
43DC
330
43C2
100
AcDbEntity
  8
NOSNÉ KONSTRUKCE
100
AcDbVertex
100
AcDb2dVertex
 10
98.16842566449508
 20
59.00634036569858
 30
0.0
  0
VERTEX
  5
43DD
330
43C2
100
AcDbEntity
  8
NOSNÉ KONSTRUKCE
100
AcDbVertex
100
AcDb2dVertex
 10
98.16842566449508
 20
64.9502826488769
 30
0.0
 42
0.4142135623731143
  0
VERTEX
  5
43DE
330
43C2
100
AcDbEntity
  8
NOSNÉ KONSTRUKCE
100
AcDbVertex
100
AcDb2dVertex
 10
97.16842566449509
 20
65.95028264887691
 30
0.0
  0
VERTEX
  5
43DF
330
43C2
100
AcDbEntity
  8
NOSNÉ KONSTRUKCE
100
AcDbVertex
100
AcDb2dVertex
 10
94.34309987280016
 20
65.95028264887691
 30
0.0
  0
SEQEND
  5
43E0
330
43C2
100
AcDbEntity
  8
NOSNÉ KONSTRUKCE
  0
POLYLINE
  5
43E1
102
{ACAD_REACTORS
330
43BC
102
}
330
1F
100
AcDbEntity
  8
NOSNÉ KONSTRUKCE
100
AcDb2dPolyline
 66
     1
 10
0.0
 20
0.0
 30
0.0
  0
VERTEX
  5
43E2
330
43E1
100
AcDbEntity
  8
NOSNÉ KONSTRUKCE
100
AcDbVertex
100
AcDb2dVertex
 10
54.98944343225253
 20
69.63281402088063
 30
0.0
  0
VERTEX
  5
43E3
330
43E1
100
AcDbEntity
  8
NOSNÉ KONSTRUKCE
100
AcDbVertex
100
AcDb2dVertex
 10
51.02827904599712
 20
69.63281402088063
 30
0.0
 42
0.4142139852046967
  0
VERTEX
  5
43E4
330
43E1
100
AcDbEntity
  8
NOSNÉ KONSTRUKCE
100
AcDbVertex
100
AcDb2dVertex
 10
49.6641176385749
 20
68.26875836057837
 30
0.0
  0
VERTEX
  5
43E5
330
43E1
100
AcDbEntity
  8
NOSNÉ KONSTRUKCE
100
AcDbVertex
100
AcDb2dVertex
 10
49.6641176385749
 20
58.92908471175719
 30
0.0
 42
0.2679489850997925
  0
VERTEX
  5
43E6
330
43E1
100
AcDbEntity
  8
NOSNÉ KONSTRUKCE
100
AcDbVertex
100
AcDb2dVertex
 10
50.34609261005266
 20
57.74784061482382
 30
0.0
 42
-0.5773500204086304
  0
VERTEX
  5
43E7
330
43E1
100
AcDbEntity
  8
NOSNÉ KONSTRUKCE
100
AcDbVertex
100
AcDb2dVertex
 10
50.34609261005266
 20
55.38514097038381
 30
0.0
 42
0.2679489850997925
  0
VERTEX
  5
43E8
330
43E1
100
AcDbEntity
  8
NOSNÉ KONSTRUKCE
100
AcDbVertex
100
AcDb2dVertex
 10
49.6641176385749
 20
54.2038968734468
 30
0.0
  0
VERTEX
  5
43E9
330
43E1
100
AcDbEntity
  8
NOSNÉ KONSTRUKCE
100
AcDbVertex
100
AcDb2dVertex
 10
49.6641176385749
 20
46.16166738179339
 30
0.0
 42
0.2679489850997925
  0
VERTEX
  5
43EA
330
43E1
100
AcDbEntity
  8
NOSNÉ KONSTRUKCE
100
AcDbVertex
100
AcDb2dVertex
 10
50.34609261005266
 20
44.98042331661594
 30
0.0
 42
-0.5773500204086304
  0
VERTEX
  5
43EB
330
43E1
100
AcDbEntity
  8
NOSNÉ KONSTRUKCE
100
AcDbVertex
100
AcDb2dVertex
 10
50.34609261005266
 20
42.61782939746075
 30
0.0
 42
0.2679489850997925
  0
VERTEX
  5
43EC
330
43E1
100
AcDbEntity
  8
NOSNÉ KONSTRUKCE
100
AcDbVertex
100
AcDb2dVertex
 10
49.6641176385749
 20
41.43658530052738
 30
0.0
  0
VERTEX
  5
43ED
330
43E1
100
AcDbEntity
  8
NOSNÉ KONSTRUKCE
100
AcDbVertex
100
AcDb2dVertex
 10
49.6641176385749
 20
33.39435580887033
 30
0.0
 42
0.2679489850997925
  0
VERTEX
  5
43EE
330
43E1
100
AcDbEntity
  8
NOSNÉ KONSTRUKCE
100
AcDbVertex
100
AcDb2dVertex
 10
50.34609261005266
 20
32.21311171193696
 30
0.0
 42
-0.5773500204086304
  0
VERTEX
  5
43EF
330
43E1
100
AcDbEntity
  8
NOSNÉ KONSTRUKCE
100
AcDbVertex
100
AcDb2dVertex
 10
50.34609261005266
 20
29.85051782454132
 30
0.0
 42
0.2679489850997925
  0
VERTEX
  5
43F0
330
43E1
100
AcDbEntity
  8
NOSNÉ KONSTRUKCE
100
AcDbVertex
100
AcDb2dVertex
 10
49.6641176385749
 20
28.66927372760796
 30
0.0
  0
VERTEX
  5
43F1
330
43E1
100
AcDbEntity
  8
NOSNÉ KONSTRUKCE
100
AcDbVertex
100
AcDb2dVertex
 10
49.6641176385749
 20
19.90129598315792
 30
0.0
 42
0.4142139852046967
  0
VERTEX
  5
43F2
330
43E1
100
AcDbEntity
  8
NOSNÉ KONSTRUKCE
100
AcDbVertex
100
AcDb2dVertex
 10
51.02827904599712
 20
18.53724032285566
 30
0.0
  0
VERTEX
  5
43F3
330
43E1
100
AcDbEntity
  8
NOSNÉ KONSTRUKCE
100
AcDbVertex
100
AcDb2dVertex
 10
57.15315440926883
 20
18.53724032285566
 30
0.0
 42
0.247529000043869
  0
VERTEX
  5
43F4
330
43E1
100
AcDbEntity
  8
NOSNÉ KONSTRUKCE
100
AcDbVertex
100
AcDb2dVertex
 10
58.27857170867014
 20
19.13092861103535
 30
0.0
 42
-0.247529000043869
  0
VERTEX
  5
43F5
330
43E1
100
AcDbEntity
  8
NOSNÉ KONSTRUKCE
100
AcDbVertex
100
AcDb2dVertex
 10
59.40441193898755
 20
19.7245111739266
 30
0.0
  0
VERTEX
  5
43F6
330
43E1
100
AcDbEntity
  8
NOSNÉ KONSTRUKCE
100
AcDbVertex
100
AcDb2dVertex
 10
63.22304884477512
 20
19.7245111739266
 30
0.0
 42
-0.247529000043869
  0
VERTEX
  5
43F7
330
43E1
100
AcDbEntity
  8
NOSNÉ KONSTRUKCE
100
AcDbVertex
100
AcDb2dVertex
 10
64.34846614417643
 20
19.13092861103535
 30
0.0
 42
0.247529000043869
  0
VERTEX
  5
43F8
330
43E1
100
AcDbEntity
  8
NOSNÉ KONSTRUKCE
100
AcDbVertex
100
AcDb2dVertex
 10
65.47430637449747
 20
18.53724032285566
 30
0.0
  0
VERTEX
  5
43F9
330
43E1
100
AcDbEntity
  8
NOSNÉ KONSTRUKCE
100
AcDbVertex
100
AcDb2dVertex
 10
83.85823692857616
 20
18.53724032285566
 30
0.0
 42
0.247529000043869
  0
VERTEX
  5
43FA
330
43E1
100
AcDbEntity
  8
NOSNÉ KONSTRUKCE
100
AcDbVertex
100
AcDb2dVertex
 10
84.98407716087626
 20
19.13092861103535
 30
0.0
 42
-0.247529000043869
  0
VERTEX
  5
43FB
330
43E1
100
AcDbEntity
  8
NOSNÉ KONSTRUKCE
100
AcDbVertex
100
AcDb2dVertex
 10
86.1094944602812
 20
19.7245111739266
 30
0.0
  0
VERTEX
  5
43FC
330
43E1
100
AcDbEntity
  8
NOSNÉ KONSTRUKCE
100
AcDbVertex
100
AcDb2dVertex
 10
89.92813136408244
 20
19.7245111739266
 30
0.0
 42
-0.247529000043869
  0
VERTEX
  5
43FD
330
43E1
100
AcDbEntity
  8
NOSNÉ KONSTRUKCE
100
AcDbVertex
100
AcDb2dVertex
 10
91.05397159439986
 20
19.13092861103535
 30
0.0
 42
0.247529000043869
  0
VERTEX
  5
43FE
330
43E1
100
AcDbEntity
  8
NOSNÉ KONSTRUKCE
100
AcDbVertex
100
AcDb2dVertex
 10
92.1793888957875
 20
18.53724032285566
 30
0.0
  0
VERTEX
  5
43FF
330
43E1
100
AcDbEntity
  8
NOSNÉ KONSTRUKCE
100
AcDbVertex
100
AcDb2dVertex
 10
98.30426425905921
 20
18.53724032285566
 30
0.0
 42
0.4142139852046967
  0
VERTEX
  5
4400
330
43E1
100
AcDbEntity
  8
NOSNÉ KONSTRUKCE
100
AcDbVertex
100
AcDb2dVertex
 10
99.66842566449509
 20
19.90129598315792
 30
0.0
  0
VERTEX
  5
4401
330
43E1
100
AcDbEntity
  8
NOSNÉ KONSTRUKCE
100
AcDbVertex
100
AcDb2dVertex
 10
99.66842566449509
 20
28.66927372760796
 30
0.0
 42
0.2679489850997925
  0
VERTEX
  5
4402
330
43E1
100
AcDbEntity
  8
NOSNÉ KONSTRUKCE
100
AcDbVertex
100
AcDb2dVertex
 10
98.98645069500004
 20
29.85051782454132
 30
0.0
 42
-0.5773500204086304
  0
VERTEX
  5
4403
330
43E1
100
AcDbEntity
  8
NOSNÉ KONSTRUKCE
100
AcDbVertex
100
AcDb2dVertex
 10
98.98645069500004
 20
32.21311171193696
 30
0.0
 42
0.2679489850997925
  0
VERTEX
  5
4404
330
43E1
100
AcDbEntity
  8
NOSNÉ KONSTRUKCE
100
AcDbVertex
100
AcDb2dVertex
 10
99.66842566449509
 20
33.39435580887033
 30
0.0
  0
VERTEX
  5
4405
330
43E1
100
AcDbEntity
  8
NOSNÉ KONSTRUKCE
100
AcDbVertex
100
AcDb2dVertex
 10
99.66842566449509
 20
41.43658530052738
 30
0.0
 42
0.2679489850997925
  0
VERTEX
  5
4406
330
43E1
100
AcDbEntity
  8
NOSNÉ KONSTRUKCE
100
AcDbVertex
100
AcDb2dVertex
 10
98.98645069500004
 20
42.61782939746075
 30
0.0
 42
-0.5773500204086304
  0
VERTEX
  5
4407
330
43E1
100
AcDbEntity
  8
NOSNÉ KONSTRUKCE
100
AcDbVertex
100
AcDb2dVertex
 10
98.98645069500004
 20
44.98042331661594
 30
0.0
 42
0.2679489850997925
  0
VERTEX
  5
4408
330
43E1
100
AcDbEntity
  8
NOSNÉ KONSTRUKCE
100
AcDbVertex
100
AcDb2dVertex
 10
99.66842566449509
 20
46.16166738179339
 30
0.0
  0
VERTEX
  5
4409
330
43E1
100
AcDbEntity
  8
NOSNÉ KONSTRUKCE
100
AcDbVertex
100
AcDb2dVertex
 10
99.66842566449509
 20
54.2038968734468
 30
0.0
 42
0.2679489850997925
  0
VERTEX
  5
440A
330
43E1
100
AcDbEntity
  8
NOSNÉ KONSTRUKCE
100
AcDbVertex
100
AcDb2dVertex
 10
98.98645069500004
 20
55.38514097038381
 30
0.0
 42
-0.5773500204086304
  0
VERTEX
  5
440B
330
43E1
100
AcDbEntity
  8
NOSNÉ KONSTRUKCE
100
AcDbVertex
100
AcDb2dVertex
 10
98.98645069500004
 20
57.74784061482382
 30
0.0
 42
0.2679489850997925
  0
VERTEX
  5
440C
330
43E1
100
AcDbEntity
  8
NOSNÉ KONSTRUKCE
100
AcDbVertex
100
AcDb2dVertex
 10
99.66842566449509
 20
58.92908471175719
 30
0.0
  0
VERTEX
  5
440D
330
43E1
100
AcDbEntity
  8
NOSNÉ KONSTRUKCE
100
AcDbVertex
100
AcDb2dVertex
 10
99.66842566449509
 20
66.08633271385946
 30
0.0
 42
0.4142139852046967
  0
VERTEX
  5
440E
330
43E1
100
AcDbEntity
  8
NOSNÉ KONSTRUKCE
100
AcDbVertex
100
AcDb2dVertex
 10
98.30426425905921
 20
67.4502826488769
 30
0.0
  0
VERTEX
  5
440F
330
43E1
100
AcDbEntity
  8
NOSNÉ KONSTRUKCE
100
AcDbVertex
100
AcDb2dVertex
 10
94.34309987280016
 20
67.4502826488769
 30
0.0
  0
SEQEND
  5
4410
330
43E1
100
AcDbEntity
  8
NOSNÉ KONSTRUKCE
  0
LINE
  5
4411
330
1F
100
AcDbEntity
  8
CETRIS
100
AcDbLine
 10
49.20140694342285
 20
19.4849793896073
 30
0.0
 11
49.20140694342285
 21
349.8010908054784
 31
0.0
  0
LINE
  5
4412
330
1F
100
AcDbEntity
  8
CETRIS
100
AcDbLine
 10
37.20140694342649
 20
19.4849793896073
 30
0.0
 11
37.20140694342649
 21
347.5909295271794
 31
0.0
  0
LINE
  5
4413
330
1F
100
AcDbEntity
  8
CETRIS
100
AcDbLine
 10
112.4336612281733
 20
19.48497938961094
 30
0.0
 11
112.4336612281697
 21
361.4472141354571
 31
0.0
  0
LINE
  5
4414
330
1F
100
AcDbEntity
  8
CETRIS
100
AcDbLine
 10
100.4336612281733
 20
19.4849793896073
 30
0.0
 11
100.4336612281733
 21
359.2370528571572
 31
0.0
  0
LINE
  5
4415
330
1F
100
AcDbEntity
  8
izolace
100
AcDbLine
 10
99.66842566647779
 20
17.91432578128018
 30
0.0
 11
49.6641176385749
 21
17.91432578128018
 31
0.0
  0
LINE
  5
4416
330
1F
100
AcDbEntity
  8
izolace
100
AcDbLine
 10
99.66842566647779
 20
15.91432578128382
 30
0.0
 11
49.6641176385749
 21
15.91432578127654
 31
0.0
  0
LWPOLYLINE
  5
4417
330
1F
100
AcDbEntity
  8
izolace
100
AcDbPolyline
 90
        4
 70
     1
 43
0.0
 10
55.46446970802231
 20
15.91432578127654
 10
55.46446970802231
 20
17.91432578128018
 10
67.96554671499712
 20
17.91432578128018
 10
67.96554671499712
 20
15.91432578127654
  0
LWPOLYLINE
  5
4418
330
1F
100
AcDbEntity
  8
izolace
100
AcDbPolyline
 90
        4
 70
     1
 43
0.0
 10
80.46662372197193
 20
15.91432578127654
 10
80.46662372197193
 20
17.91432578128018
 10
92.96770072895037
 20
17.91432578128018
 10
92.96770072895037
 20
15.91432578127654
  0
HATCH
  5
4419
330
1F
100
AcDbEntity
  8
izolace
100
AcDbHatch
 10
0.0
 20
0.0
 30
0.0
210
0.0
220
0.0
230
1.0
  2
SOLID
 70
     1
 71
     0
 91
        3
 92
        7
 72
     0
 73
     1
 93
        4
 10
99.66842566647779
 20
17.91432578127654
 10
99.66842566647779
 20
15.91432578128018
 10
92.96770072895037
 20
15.91432578127654
 10
92.96770072895037
 20
17.91432578127654
 97
        0
 92
        7
 72
     0
 73
     1
 93
        4
 10
80.46662372197193
 20
17.91432578127654
 10
80.46662372197193
 20
15.91432578127654
 10
67.96554671499712
 20
15.91432578127654
 10
67.96554671499712
 20
17.91432578127654
 97
        0
 92
        7
 72
     0
 73
     1
 93
        4
 10
55.46446970802231
 20
17.91432578128018
 10
55.46446970802231
 20
15.9143257812729
 10
49.6641176385749
 20
15.91432578127654
 10
49.6641176385749
 20
17.91432578128018
 97
        0
 75
     0
 76
     1
 47
0.0846398039763049
 98
        3
 10
94.79874967338787
 20
17.20802373623604
 10
78.12469626783081
 20
17.37740945188574
 10
54.93329960432697
 20
17.12338957063633
  0
LINE
  5
441A
330
1F
100
AcDbEntity
  8
SPOJOVACÍ
100
AcDbLine
 10
81.92371345061497
 20
21.1617416810813
 30
0.0
 11
81.92371345061497
 21
20.28483105894787
 31
0.0
  0
LINE
  5
441B
330
1F
100
AcDbEntity
  8
SPOJOVACÍ
100
AcDbLine
 10
81.92371345061497
 20
20.28483105894787
 30
0.0
 11
81.92371345061497
 21
21.1617416810813
 31
0.0
  0
LINE
  5
441C
330
1F
100
AcDbEntity
  8
SPOJOVACÍ
  6
DASHED
100
AcDbLine
 10
81.92371345061497
 20
20.28483105894787
 30
0.0
 11
76.88465095061497
 21
17.10219675637284
 31
0.0
  0
LINE
  5
441D
330
1F
100
AcDbEntity
  8
SPOJOVACÍ
100
AcDbLine
 10
68.42371345061497
 20
20.28483105894787
 30
0.0
 11
73.46277595061497
 21
17.10219675636921
 31
0.0
  0
LINE
  5
441E
330
1F
100
AcDbEntity
  8
SPOJOVACÍ
100
AcDbLine
 10
68.42371345061497
 20
20.28483105894787
 30
0.0
 11
68.42371345061497
 21
21.1617416810813
 31
0.0
  0
LINE
  5
441F
330
1F
100
AcDbEntity
  8
SPOJOVACÍ
100
AcDbLine
 10
81.92371345061497
 20
21.72641942541753
 30
0.0
 11
81.92371345061497
 21
20.28483105894787
 31
0.0
  0
LINE
  5
4420
330
1F
100
AcDbEntity
  8
SPOJOVACÍ
100
AcDbLine
 10
68.42371345061497
 20
21.72641942541753
 30
0.0
 11
68.42371345061497
 21
20.28483105894787
 31
0.0
  0
LINE
  5
4421
330
1F
100
AcDbEntity
  8
SPOJOVACÍ
100
AcDbLine
 10
81.92371345061497
 20
21.72641942541753
 30
0.0
 11
68.42371345061497
 21
21.72641942541753
 31
0.0
  0
LINE
  5
4422
330
1F
100
AcDbEntity
  8
SPOJOVACÍ
  6
DASHDOT2
100
AcDbLine
 10
75.17371345061497
 20
31.62329442568529
 30
0.0
 11
75.17371345061497
 21
-36.78246078328362
 31
0.0
  0
LINE
  5
4423
330
1F
100
AcDbEntity
  8
SPOJOVACÍ
  6
Continuous
100
AcDbLine
 10
77.38668887031986
 20
-28.31994597426006
 30
0.0
 11
76.99627664865352
 21
-28.54536826478858
 31
0.0
  0
LINE
  5
4424
330
1F
100
AcDbEntity
  8
SPOJOVACÍ
  6
Continuous
100
AcDbLine
 10
77.38668887031986
 20
-28.31994597426006
 30
0.0
 11
76.99627664865352
 21
-27.93049299572072
 31
0.0
  0
LINE
  5
4425
330
1F
100
AcDbEntity
  8
SPOJOVACÍ
  6
Continuous
100
AcDbLine
 10
73.13244266593051
 20
-29.32331497788897
 30
0.0
 11
73.52189564221794
 21
-29.71372720040296
 31
0.0
  0
LINE
  5
4426
330
1F
100
AcDbEntity
  8
SPOJOVACÍ
  6
Continuous
100
AcDbLine
 10
73.13244266593051
 20
-29.32331497788897
 30
0.0
 11
73.52189564221794
 21
-29.09885193133874
 31
0.0
  0
LINE
  5
4427
330
1F
100
AcDbEntity
  8
SPOJOVACÍ
  6
Continuous
100
AcDbLine
 10
76.99627664865352
 20
-28.54536826478858
 30
0.0
 11
73.52189564221794
 21
-29.71372720040296
 31
0.0
  0
LINE
  5
4428
330
1F
100
AcDbEntity
  8
SPOJOVACÍ
  6
Continuous
100
AcDbLine
 10
76.99627664865352
 20
-27.93049299572072
 30
0.0
 11
73.52189564221794
 21
-29.09885193133874
 31
0.0
  0
LINE
  5
4429
330
1F
100
AcDbEntity
  8
SPOJOVACÍ
  6
Continuous
100
AcDbLine
 10
77.38668887031986
 20
-28.31994597426006
 30
0.0
 11
73.13244266593051
 21
-29.32331497788897
 31
0.0
  0
LINE
  5
442A
330
1F
100
AcDbEntity
  8
SPOJOVACÍ
  6
Continuous
100
AcDbLine
 10
76.80442789215181
 20
-31.42885509588001
 30
0.0
 11
76.41497491136056
 21
-31.65331814243023
 31
0.0
  0
LINE
  5
442B
330
1F
100
AcDbEntity
  8
SPOJOVACÍ
  6
Continuous
100
AcDbLine
 10
76.80442789215181
 20
-31.42885509588001
 30
0.0
 11
76.41497491136056
 21
-31.03844287336602
 31
0.0
  0
LINE
  5
442C
330
1F
100
AcDbEntity
  8
SPOJOVACÍ
  6
Continuous
100
AcDbLine
 10
73.59096119707851
 20
-32.08210011629768
 30
0.0
 11
73.98041417336958
 21
-32.4725123385279
 31
0.0
  0
LINE
  5
442D
330
1F
100
AcDbEntity
  8
SPOJOVACÍ
  6
Continuous
100
AcDbLine
 10
73.59096119707851
 20
-32.08210011629768
 30
0.0
 11
73.98041417336958
 21
-31.85763706975109
 31
0.0
  0
LINE
  5
442E
330
1F
100
AcDbEntity
  8
SPOJOVACÍ
  6
Continuous
100
AcDbLine
 10
76.41497491136056
 20
-31.65331814243023
 30
0.0
 11
73.98041417336958
 21
-32.4725123385279
 31
0.0
  0
LINE
  5
442F
330
1F
100
AcDbEntity
  8
SPOJOVACÍ
  6
Continuous
100
AcDbLine
 10
76.41497491136056
 20
-31.03844287336602
 30
0.0
 11
73.98041417336958
 21
-31.85763706975109
 31
0.0
  0
LINE
  5
4430
330
1F
100
AcDbEntity
  8
SPOJOVACÍ
  6
Continuous
100
AcDbLine
 10
76.80442789215181
 20
-31.42885509588001
 30
0.0
 11
73.59096119707851
 21
-32.08210011629768
 31
0.0
  0
LINE
  5
4431
330
1F
100
AcDbEntity
  8
SPOJOVACÍ
  6
Continuous
100
AcDbLine
 10
76.2221669094763
 20
-34.53680497352166
 30
0.0
 11
75.83271393318887
 21
-34.7622272640429
 31
0.0
  0
LINE
  5
4432
330
1F
100
AcDbEntity
  8
SPOJOVACÍ
  6
Continuous
100
AcDbLine
 10
76.2221669094763
 20
-34.53680497352166
 30
0.0
 11
75.83271393318887
 21
-34.14735199498597
 31
0.0
  0
LINE
  5
4433
330
1F
100
AcDbEntity
  8
SPOJOVACÍ
  6
Continuous
100
AcDbLine
 10
74.00055829485086
 20
-34.85719239916494
 30
0.0
 11
74.39001127113465
 21
-35.2476046213988
 31
0.0
  0
LINE
  5
4434
330
1F
100
AcDbEntity
  8
SPOJOVACÍ
  6
Continuous
100
AcDbLine
 10
74.00055829485086
 20
-34.85719239916494
 30
0.0
 11
74.39001127113465
 21
-34.63272935233459
 31
0.0
  0
LINE
  5
4435
330
1F
100
AcDbEntity
  8
SPOJOVACÍ
  6
Continuous
100
AcDbLine
 10
75.83271393318887
 20
-34.7622272640429
 30
0.0
 11
74.39001127113465
 21
-35.2476046213988
 31
0.0
  0
LINE
  5
4436
330
1F
100
AcDbEntity
  8
SPOJOVACÍ
  6
Continuous
100
AcDbLine
 10
75.83271393318887
 20
-34.14735199498597
 30
0.0
 11
74.39001127113465
 21
-34.63272935233459
 31
0.0
  0
LINE
  5
4437
330
1F
100
AcDbEntity
  8
SPOJOVACÍ
  6
Continuous
100
AcDbLine
 10
76.2221669094763
 20
-34.53680497352166
 30
0.0
 11
74.00055829485086
 21
-34.85719239916494
 31
0.0
  0
LINE
  5
4438
330
1F
100
AcDbEntity
  8
SPOJOVACÍ
  6
Continuous
100
AcDbLine
 10
78.01978977353451
 20
-25.05396068244505
 30
0.0
 11
72.32763712769543
 21
-26.476998843903
 31
0.0
  0
LINE
  5
4439
330
1F
100
AcDbEntity
  8
SPOJOVACÍ
  6
Continuous
100
AcDbLine
 10
78.01978977353451
 20
-25.05396068244505
 30
0.0
 11
77.57191884562804
 21
-25.31209318598035
 31
0.0
  0
LINE
  5
443A
330
1F
100
AcDbEntity
  8
SPOJOVACÍ
  6
Continuous
100
AcDbLine
 10
78.01978977353451
 20
-25.05396068244505
 30
0.0
 11
77.57191884562804
 21
-24.60498662655578
 31
0.0
  0
LINE
  5
443B
330
1F
100
AcDbEntity
  8
SPOJOVACÍ
  6
Continuous
100
AcDbLine
 10
72.32763712769543
 20
-26.476998843903
 30
0.0
 11
72.77550805042506
 21
-26.92486976922288
 31
0.0
  0
LINE
  5
443C
330
1F
100
AcDbEntity
  8
SPOJOVACÍ
  6
Continuous
100
AcDbLine
 10
72.32763712769543
 20
-26.476998843903
 30
0.0
 11
72.77550805042506
 21
-26.21776320980194
 31
0.0
  0
LINE
  5
443D
330
1F
100
AcDbEntity
  8
SPOJOVACÍ
  6
Continuous
100
AcDbLine
 10
77.57191884562804
 20
-25.31209318598035
 30
0.0
 11
72.77550805042506
 21
-26.92486976922288
 31
0.0
  0
LINE
  5
443E
330
1F
100
AcDbEntity
  8
SPOJOVACÍ
  6
Continuous
100
AcDbLine
 10
77.57191884562804
 20
-24.60498662655578
 30
0.0
 11
72.77550805042506
 21
-26.21776320980194
 31
0.0
  0
LINE
  5
443F
330
1F
100
AcDbEntity
  8
SPOJOVACÍ
  6
DASHED
100
AcDbLine
 10
76.88465095061497
 20
-23.68598861586639
 30
0.0
 11
76.88465095061497
 21
17.10219675637284
 31
0.0
  0
LINE
  5
4440
330
1F
100
AcDbEntity
  8
SPOJOVACÍ
  6
DASHED
100
AcDbLine
 10
73.46277595061497
 20
-23.68598861586639
 30
0.0
 11
73.46277595061497
 21
17.10219675636921
 31
0.0
  0
LINE
  5
4441
330
1F
100
AcDbEntity
  8
SPOJOVACÍ
  6
DASHED
100
AcDbLine
 10
75.17371345061497
 20
-36.39124873956012
 30
0.0
 11
76.88465095061497
 21
-23.68598861586639
 31
0.0
  0
LINE
  5
4442
330
1F
100
AcDbEntity
  8
SPOJOVACÍ
  6
DASHED
100
AcDbLine
 10
75.17371345061497
 20
-36.39124873956012
 30
0.0
 11
73.46277595061497
 21
-23.68598861586639
 31
0.0
  0
LINE
  5
4443
330
1F
100
AcDbEntity
  8
SPOJOVACÍ
  6
Continuous
100
AcDbLine
 10
77.57191884562804
 20
-21.20899671230568
 30
0.0
 11
72.77550805042506
 21
-22.82177329555185
 31
0.0
  0
LINE
  5
4444
330
1F
100
AcDbEntity
  8
SPOJOVACÍ
  6
Continuous
100
AcDbLine
 10
77.57191884562804
 20
-21.91610327173026
 30
0.0
 11
72.77550805042506
 21
-23.52887985497278
 31
0.0
  0
LINE
  5
4445
330
1F
100
AcDbEntity
  8
SPOJOVACÍ
  6
Continuous
100
AcDbLine
 10
72.32763712769543
 20
-23.08100892965291
 30
0.0
 11
72.77550805042506
 21
-22.82177329555185
 31
0.0
  0
LINE
  5
4446
330
1F
100
AcDbEntity
  8
SPOJOVACÍ
  6
Continuous
100
AcDbLine
 10
72.32763712769543
 20
-23.08100892965291
 30
0.0
 11
72.77550805042506
 21
-23.52887985497278
 31
0.0
  0
LINE
  5
4447
330
1F
100
AcDbEntity
  8
SPOJOVACÍ
  6
Continuous
100
AcDbLine
 10
78.01978977353451
 20
-21.65797076819495
 30
0.0
 11
77.57191884562804
 21
-21.20899671230568
 31
0.0
  0
LINE
  5
4448
330
1F
100
AcDbEntity
  8
SPOJOVACÍ
  6
Continuous
100
AcDbLine
 10
78.01978977353451
 20
-21.65797076819495
 30
0.0
 11
77.57191884562804
 21
-21.91610327173026
 31
0.0
  0
LINE
  5
4449
330
1F
100
AcDbEntity
  8
SPOJOVACÍ
  6
Continuous
100
AcDbLine
 10
78.01978977353451
 20
-21.65797076819495
 30
0.0
 11
72.32763712769543
 21
-23.08100892965291
 31
0.0
  0
LINE
  5
444A
330
1F
100
AcDbEntity
  8
SPOJOVACÍ
  6
Continuous
100
AcDbLine
 10
78.01978977353451
 20
-18.26198085394486
 30
0.0
 11
72.32763712769543
 21
-19.68501901540281
 31
0.0
  0
LINE
  5
444B
330
1F
100
AcDbEntity
  8
SPOJOVACÍ
  6
Continuous
100
AcDbLine
 10
78.01978977353451
 20
-18.26198085394486
 30
0.0
 11
77.57191884562804
 21
-18.52011335748017
 31
0.0
  0
LINE
  5
444C
330
1F
100
AcDbEntity
  8
SPOJOVACÍ
  6
Continuous
100
AcDbLine
 10
78.01978977353451
 20
-18.26198085394486
 30
0.0
 11
77.57191884562804
 21
-17.81300679805559
 31
0.0
  0
LINE
  5
444D
330
1F
100
AcDbEntity
  8
SPOJOVACÍ
  6
Continuous
100
AcDbLine
 10
72.32763712769543
 20
-19.68501901540281
 30
0.0
 11
72.77550805042506
 21
-20.13288994072269
 31
0.0
  0
LINE
  5
444E
330
1F
100
AcDbEntity
  8
SPOJOVACÍ
  6
Continuous
100
AcDbLine
 10
72.32763712769543
 20
-19.68501901540281
 30
0.0
 11
72.77550805042506
 21
-19.42578338130175
 31
0.0
  0
LINE
  5
444F
330
1F
100
AcDbEntity
  8
SPOJOVACÍ
  6
Continuous
100
AcDbLine
 10
77.57191884562804
 20
-18.52011335748017
 30
0.0
 11
72.77550805042506
 21
-20.13288994072269
 31
0.0
  0
LINE
  5
4450
330
1F
100
AcDbEntity
  8
SPOJOVACÍ
  6
Continuous
100
AcDbLine
 10
77.57191884562804
 20
-17.81300679805559
 30
0.0
 11
72.77550805042506
 21
-19.42578338130175
 31
0.0
  0
LINE
  5
4451
330
1F
100
AcDbEntity
  8
SPOJOVACÍ
  6
Continuous
100
AcDbLine
 10
78.01978977353451
 20
-14.86599093969476
 30
0.0
 11
72.32763712769543
 21
-16.28902910115272
 31
0.0
  0
LINE
  5
4452
330
1F
100
AcDbEntity
  8
SPOJOVACÍ
  6
Continuous
100
AcDbLine
 10
78.01978977353451
 20
-14.86599093969476
 30
0.0
 11
77.57191884562804
 21
-15.12412344323007
 31
0.0
  0
LINE
  5
4453
330
1F
100
AcDbEntity
  8
SPOJOVACÍ
  6
Continuous
100
AcDbLine
 10
78.01978977353451
 20
-14.86599093969476
 30
0.0
 11
77.57191884562804
 21
-14.4170168838055
 31
0.0
  0
LINE
  5
4454
330
1F
100
AcDbEntity
  8
SPOJOVACÍ
  6
Continuous
100
AcDbLine
 10
72.32763712769543
 20
-16.28902910115272
 30
0.0
 11
72.77550805042506
 21
-16.73690002647259
 31
0.0
  0
LINE
  5
4455
330
1F
100
AcDbEntity
  8
SPOJOVACÍ
  6
Continuous
100
AcDbLine
 10
72.32763712769543
 20
-16.28902910115272
 30
0.0
 11
72.77550805042506
 21
-16.02979346705166
 31
0.0
  0
LINE
  5
4456
330
1F
100
AcDbEntity
  8
SPOJOVACÍ
  6
Continuous
100
AcDbLine
 10
77.57191884562804
 20
-15.12412344323007
 30
0.0
 11
72.77550805042506
 21
-16.73690002647259
 31
0.0
  0
LINE
  5
4457
330
1F
100
AcDbEntity
  8
SPOJOVACÍ
  6
Continuous
100
AcDbLine
 10
77.57191884562804
 20
-14.4170168838055
 30
0.0
 11
72.77550805042506
 21
-16.02979346705166
 31
0.0
  0
LINE
  5
4458
330
1F
100
AcDbEntity
  8
SPOJOVACÍ
  6
Continuous
100
AcDbLine
 10
78.01978977353451
 20
-11.47000102544467
 30
0.0
 11
72.32763712769543
 21
-12.89303918690262
 31
0.0
  0
LINE
  5
4459
330
1F
100
AcDbEntity
  8
SPOJOVACÍ
  6
Continuous
100
AcDbLine
 10
78.01978977353451
 20
-11.47000102544467
 30
0.0
 11
77.57191884562804
 21
-11.72813352897998
 31
0.0
  0
LINE
  5
445A
330
1F
100
AcDbEntity
  8
SPOJOVACÍ
  6
Continuous
100
AcDbLine
 10
78.01978977353451
 20
-11.47000102544467
 30
0.0
 11
77.57191884562804
 21
-11.0210269695554
 31
0.0
  0
LINE
  5
445B
330
1F
100
AcDbEntity
  8
SPOJOVACÍ
  6
Continuous
100
AcDbLine
 10
72.32763712769543
 20
-12.89303918690262
 30
0.0
 11
72.77550805042506
 21
-13.3409101122225
 31
0.0
  0
LINE
  5
445C
330
1F
100
AcDbEntity
  8
SPOJOVACÍ
  6
Continuous
100
AcDbLine
 10
72.32763712769543
 20
-12.89303918690262
 30
0.0
 11
72.77550805042506
 21
-12.63380355280156
 31
0.0
  0
LINE
  5
445D
330
1F
100
AcDbEntity
  8
SPOJOVACÍ
  6
Continuous
100
AcDbLine
 10
77.57191884562804
 20
-11.72813352897998
 30
0.0
 11
72.77550805042506
 21
-13.3409101122225
 31
0.0
  0
LINE
  5
445E
330
1F
100
AcDbEntity
  8
SPOJOVACÍ
  6
Continuous
100
AcDbLine
 10
77.57191884562804
 20
-11.0210269695554
 30
0.0
 11
72.77550805042506
 21
-12.63380355280156
 31
0.0
  0
LINE
  5
445F
330
1F
100
AcDbEntity
  8
SPOJOVACÍ
  6
Continuous
100
AcDbLine
 10
78.01978977353451
 20
-8.074011111194579
 30
0.0
 11
72.32763712769543
 21
-9.497049272652532
 31
0.0
  0
LINE
  5
4460
330
1F
100
AcDbEntity
  8
SPOJOVACÍ
  6
Continuous
100
AcDbLine
 10
78.01978977353451
 20
-8.074011111194579
 30
0.0
 11
77.57191884562804
 21
-8.332143614729886
 31
0.0
  0
LINE
  5
4461
330
1F
100
AcDbEntity
  8
SPOJOVACÍ
  6
Continuous
100
AcDbLine
 10
78.01978977353451
 20
-8.074011111194579
 30
0.0
 11
77.57191884562804
 21
-7.625037055305313
 31
0.0
  0
LINE
  5
4462
330
1F
100
AcDbEntity
  8
SPOJOVACÍ
  6
Continuous
100
AcDbLine
 10
72.32763712769543
 20
-9.497049272652532
 30
0.0
 11
72.77550805042506
 21
-9.944920197972408
 31
0.0
  0
LINE
  5
4463
330
1F
100
AcDbEntity
  8
SPOJOVACÍ
  6
Continuous
100
AcDbLine
 10
72.32763712769543
 20
-9.497049272652532
 30
0.0
 11
72.77550805042506
 21
-9.237813638551472
 31
0.0
  0
LINE
  5
4464
330
1F
100
AcDbEntity
  8
SPOJOVACÍ
  6
Continuous
100
AcDbLine
 10
77.57191884562804
 20
-8.332143614729886
 30
0.0
 11
72.77550805042506
 21
-9.944920197972408
 31
0.0
  0
LINE
  5
4465
330
1F
100
AcDbEntity
  8
SPOJOVACÍ
  6
Continuous
100
AcDbLine
 10
77.57191884562804
 20
-7.625037055305313
 30
0.0
 11
72.77550805042506
 21
-9.237813638551472
 31
0.0
  0
LINE
  5
4466
330
1F
100
AcDbEntity
  8
SPOJOVACÍ
  6
Continuous
100
AcDbLine
 10
78.01978977353451
 20
-4.678021196944484
 30
0.0
 11
72.32763712769543
 21
-6.101059358402437
 31
0.0
  0
LINE
  5
4467
330
1F
100
AcDbEntity
  8
SPOJOVACÍ
  6
Continuous
100
AcDbLine
 10
78.01978977353451
 20
-4.678021196944484
 30
0.0
 11
77.57191884562804
 21
-4.936153700479792
 31
0.0
  0
LINE
  5
4468
330
1F
100
AcDbEntity
  8
SPOJOVACÍ
  6
Continuous
100
AcDbLine
 10
78.01978977353451
 20
-4.678021196944484
 30
0.0
 11
77.57191884562804
 21
-4.229047141055218
 31
0.0
  0
LINE
  5
4469
330
1F
100
AcDbEntity
  8
SPOJOVACÍ
  6
Continuous
100
AcDbLine
 10
72.32763712769543
 20
-6.101059358402437
 30
0.0
 11
72.77550805042506
 21
-6.548930283722313
 31
0.0
  0
LINE
  5
446A
330
1F
100
AcDbEntity
  8
SPOJOVACÍ
  6
Continuous
100
AcDbLine
 10
72.32763712769543
 20
-6.101059358402437
 30
0.0
 11
72.77550805042506
 21
-5.841823724301377
 31
0.0
  0
LINE
  5
446B
330
1F
100
AcDbEntity
  8
SPOJOVACÍ
  6
Continuous
100
AcDbLine
 10
77.57191884562804
 20
-4.936153700479792
 30
0.0
 11
72.77550805042506
 21
-6.548930283722313
 31
0.0
  0
LINE
  5
446C
330
1F
100
AcDbEntity
  8
SPOJOVACÍ
  6
Continuous
100
AcDbLine
 10
77.57191884562804
 20
-4.229047141055218
 30
0.0
 11
72.77550805042506
 21
-5.841823724301377
 31
0.0
  0
LINE
  5
446D
330
1F
100
AcDbEntity
  8
SPOJOVACÍ
  6
Continuous
100
AcDbLine
 10
78.01978977353451
 20
-1.28203128269439
 30
0.0
 11
72.32763712769543
 21
-2.705069444152343
 31
0.0
  0
LINE
  5
446E
330
1F
100
AcDbEntity
  8
SPOJOVACÍ
  6
Continuous
100
AcDbLine
 10
78.01978977353451
 20
-1.28203128269439
 30
0.0
 11
77.57191884562804
 21
-1.540163786229697
 31
0.0
  0
LINE
  5
446F
330
1F
100
AcDbEntity
  8
SPOJOVACÍ
  6
Continuous
100
AcDbLine
 10
78.01978977353451
 20
-1.28203128269439
 30
0.0
 11
77.57191884562804
 21
-0.8330572268051241
 31
0.0
  0
LINE
  5
4470
330
1F
100
AcDbEntity
  8
SPOJOVACÍ
  6
Continuous
100
AcDbLine
 10
72.32763712769543
 20
-2.705069444152343
 30
0.0
 11
72.77550805042506
 21
-3.152940369472219
 31
0.0
  0
LINE
  5
4471
330
1F
100
AcDbEntity
  8
SPOJOVACÍ
  6
Continuous
100
AcDbLine
 10
72.32763712769543
 20
-2.705069444152343
 30
0.0
 11
72.77550805042506
 21
-2.445833810051283
 31
0.0
  0
LINE
  5
4472
330
1F
100
AcDbEntity
  8
SPOJOVACÍ
  6
Continuous
100
AcDbLine
 10
77.57191884562804
 20
-1.540163786229697
 30
0.0
 11
72.77550805042506
 21
-3.152940369472219
 31
0.0
  0
LINE
  5
4473
330
1F
100
AcDbEntity
  8
SPOJOVACÍ
  6
Continuous
100
AcDbLine
 10
77.57191884562804
 20
-0.8330572268051241
 30
0.0
 11
72.77550805042506
 21
-2.445833810051283
 31
0.0
  0
LINE
  5
4474
330
1F
100
AcDbEntity
  8
SPOJOVACÍ
  6
Continuous
100
AcDbLine
 10
77.57191884562804
 20
5.958922601695064
 30
0.0
 11
72.77550805042506
 21
4.346146018448905
 31
0.0
  0
LINE
  5
4475
330
1F
100
AcDbEntity
  8
SPOJOVACÍ
  6
Continuous
100
AcDbLine
 10
77.57191884562804
 20
5.25181604227049
 30
0.0
 11
72.77550805042506
 21
3.639039459027969
 31
0.0
  0
LINE
  5
4476
330
1F
100
AcDbEntity
  8
SPOJOVACÍ
  6
Continuous
100
AcDbLine
 10
72.32763712769543
 20
4.086910384347845
 30
0.0
 11
72.77550805042506
 21
4.346146018448905
 31
0.0
  0
LINE
  5
4477
330
1F
100
AcDbEntity
  8
SPOJOVACÍ
  6
Continuous
100
AcDbLine
 10
72.32763712769543
 20
4.086910384347845
 30
0.0
 11
72.77550805042506
 21
3.639039459027969
 31
0.0
  0
LINE
  5
4478
330
1F
100
AcDbEntity
  8
SPOJOVACÍ
  6
Continuous
100
AcDbLine
 10
78.01978977353451
 20
5.509948545805798
 30
0.0
 11
77.57191884562804
 21
5.958922601695064
 31
0.0
  0
LINE
  5
4479
330
1F
100
AcDbEntity
  8
SPOJOVACÍ
  6
Continuous
100
AcDbLine
 10
78.01978977353451
 20
5.509948545805798
 30
0.0
 11
77.57191884562804
 21
5.25181604227049
 31
0.0
  0
LINE
  5
447A
330
1F
100
AcDbEntity
  8
SPOJOVACÍ
  6
Continuous
100
AcDbLine
 10
78.01978977353451
 20
5.509948545805798
 30
0.0
 11
72.32763712769543
 21
4.086910384347845
 31
0.0
  0
LINE
  5
447B
330
1F
100
AcDbEntity
  8
SPOJOVACÍ
  6
Continuous
100
AcDbLine
 10
77.57191884562804
 20
2.56293268744497
 30
0.0
 11
72.77550805042506
 21
0.9501561041988111
 31
0.0
  0
LINE
  5
447C
330
1F
100
AcDbEntity
  8
SPOJOVACÍ
  6
Continuous
100
AcDbLine
 10
77.57191884562804
 20
1.855826128020396
 30
0.0
 11
72.77550805042506
 21
0.2430495447778753
 31
0.0
  0
LINE
  5
447D
330
1F
100
AcDbEntity
  8
SPOJOVACÍ
  6
Continuous
100
AcDbLine
 10
72.32763712769543
 20
0.6909204700977512
 30
0.0
 11
72.77550805042506
 21
0.9501561041988111
 31
0.0
  0
LINE
  5
447E
330
1F
100
AcDbEntity
  8
SPOJOVACÍ
  6
Continuous
100
AcDbLine
 10
72.32763712769543
 20
0.6909204700977512
 30
0.0
 11
72.77550805042506
 21
0.2430495447778753
 31
0.0
  0
LINE
  5
447F
330
1F
100
AcDbEntity
  8
SPOJOVACÍ
  6
Continuous
100
AcDbLine
 10
78.01978977353451
 20
2.113958631555703
 30
0.0
 11
77.57191884562804
 21
2.56293268744497
 31
0.0
  0
LINE
  5
4480
330
1F
100
AcDbEntity
  8
SPOJOVACÍ
  6
Continuous
100
AcDbLine
 10
78.01978977353451
 20
2.113958631555703
 30
0.0
 11
77.57191884562804
 21
1.855826128020396
 31
0.0
  0
LINE
  5
4481
330
1F
100
AcDbEntity
  8
SPOJOVACÍ
  6
Continuous
100
AcDbLine
 10
78.01978977353451
 20
2.113958631555703
 30
0.0
 11
72.32763712769543
 21
0.6909204700977512
 31
0.0
  0
LINE
  5
4482
330
1F
100
AcDbEntity
  8
SPOJOVACÍ
100
AcDbLine
 10
81.92371345061497
 20
20.28483105894787
 30
0.0
 11
68.42371345061497
 21
20.28483105894787
 31
0.0
  0
LINE
  5
4483
330
1F
100
AcDbEntity
  8
SPOJOVACÍ
  6
CIKCAK
 48
0.25
100
AcDbLine
 10
78.69917987408939
 20
15.91432578127654
 30
0.0
 11
78.69917987408939
 21
-31.55006003405929
 31
0.0
  0
LINE
  5
4484
330
1F
100
AcDbEntity
  8
SPOJOVACÍ
 48
0.25
100
AcDbLine
 10
78.69917987408939
 20
-31.55006003405929
 30
0.0
 11
75.17371345061497
 21
-37.19950037477525
 31
0.0
  0
LINE
  5
4485
330
1F
100
AcDbEntity
  8
SPOJOVACÍ
 48
0.25
100
AcDbLine
 10
71.64824702714054
 20
-31.55006003405566
 30
0.0
 11
75.17371345061497
 21
-37.19950037477525
 31
0.0
  0
LINE
  5
4486
330
1F
100
AcDbEntity
  8
SPOJOVACÍ
  6
CIKCAK
 48
0.25
100
AcDbLine
 10
71.64824702714054
 20
15.91432578127654
 30
0.0
 11
71.64824702714054
 21
-31.55006003405566
 31
0.0
  0
LINE
  5
4487
330
1F
100
AcDbEntity
  8
SPOJOVACÍ
  6
Continuous
100
AcDbLine
 10
60.10326521137926
 20
48.39272528264058
 30
0.0
 11
61.46318222492141
 21
52.43712964223317
 31
0.0
  0
LINE
  5
4488
330
1F
100
AcDbEntity
  8
SPOJOVACÍ
  6
Continuous
100
AcDbLine
 10
60.69950789653399
 20
48.39272528264058
 30
0.0
 11
62.05942491007613
 21
52.43712964223317
 31
0.0
  0
LINE
  5
4489
330
1F
100
AcDbEntity
  8
SPOJOVACÍ
  6
Continuous
100
AcDbLine
 10
61.68177353694796
 20
52.81478101317856
 30
0.0
 11
61.46318222492141
 21
52.43712964223317
 31
0.0
  0
LINE
  5
448A
330
1F
100
AcDbEntity
  8
SPOJOVACÍ
  6
Continuous
100
AcDbLine
 10
61.68177353694796
 20
52.81478101317856
 30
0.0
 11
62.05942491007613
 21
52.43712964223317
 31
0.0
  0
LINE
  5
448B
330
1F
100
AcDbEntity
  8
SPOJOVACÍ
  6
Continuous
100
AcDbLine
 10
60.48184676048572
 20
48.01507390732962
 30
0.0
 11
60.10326521137926
 21
48.39272528264058
 31
0.0
  0
LINE
  5
448C
330
1F
100
AcDbEntity
  8
SPOJOVACÍ
  6
Continuous
100
AcDbLine
 10
60.48184676048572
 20
48.01507390732962
 30
0.0
 11
60.69950789653399
 21
48.39272528264058
 31
0.0
  0
LINE
  5
448D
330
1F
100
AcDbEntity
  8
SPOJOVACÍ
  6
Continuous
100
AcDbLine
 10
60.48184676048572
 20
48.01507390732962
 30
0.0
 11
61.68177353694796
 21
52.81478101317856
 31
0.0
  0
LINE
  5
448E
330
1F
100
AcDbEntity
  8
SPOJOVACÍ
  6
Continuous
100
AcDbLine
 10
56.98345559241738
 20
48.39272528264058
 30
0.0
 11
58.34337260595953
 21
52.43712964223317
 31
0.0
  0
LINE
  5
448F
330
1F
100
AcDbEntity
  8
SPOJOVACÍ
  6
Continuous
100
AcDbLine
 10
57.57969827756483
 20
48.39272528264058
 30
0.0
 11
58.93961529083776
 21
52.43712964223317
 31
0.0
  0
LINE
  5
4490
330
1F
100
AcDbEntity
  8
SPOJOVACÍ
  6
Continuous
100
AcDbLine
 10
58.56103374200779
 20
52.81478101317856
 30
0.0
 11
58.34337260595953
 21
52.43712964223317
 31
0.0
  0
LINE
  5
4491
330
1F
100
AcDbEntity
  8
SPOJOVACÍ
  6
Continuous
100
AcDbLine
 10
58.56103374200779
 20
52.81478101317856
 30
0.0
 11
58.93961529083776
 21
52.43712964223317
 31
0.0
  0
LINE
  5
4492
330
1F
100
AcDbEntity
  8
SPOJOVACÍ
  6
Continuous
100
AcDbLine
 10
57.36110696554556
 20
48.01507390732962
 30
0.0
 11
56.98345559241738
 21
48.39272528264058
 31
0.0
  0
LINE
  5
4493
330
1F
100
AcDbEntity
  8
SPOJOVACÍ
  6
Continuous
100
AcDbLine
 10
57.36110696554556
 20
48.01507390732962
 30
0.0
 11
57.57969827756483
 21
48.39272528264058
 31
0.0
  0
LINE
  5
4494
330
1F
100
AcDbEntity
  8
SPOJOVACÍ
  6
Continuous
100
AcDbLine
 10
57.36110696554556
 20
48.01507390732962
 30
0.0
 11
58.56103374200779
 21
52.81478101317856
 31
0.0
  0
LINE
  5
4495
330
1F
100
AcDbEntity
  8
SPOJOVACÍ
  6
Continuous
100
AcDbLine
 10
53.86364597344822
 20
48.39272528264058
 30
0.0
 11
55.22356298672116
 21
52.43712964223317
 31
0.0
  0
LINE
  5
4496
330
1F
100
AcDbEntity
  8
SPOJOVACÍ
  6
Continuous
100
AcDbLine
 10
54.45988865860295
 20
48.39272528264058
 30
0.0
 11
55.8198056718686
 21
52.43712964223317
 31
0.0
  0
LINE
  5
4497
330
1F
100
AcDbEntity
  8
SPOJOVACÍ
  6
Continuous
100
AcDbLine
 10
55.44122412303863
 20
52.81478101317856
 30
0.0
 11
55.22356298672116
 21
52.43712964223317
 31
0.0
  0
LINE
  5
4498
330
1F
100
AcDbEntity
  8
SPOJOVACÍ
  6
Continuous
100
AcDbLine
 10
55.44122412303863
 20
52.81478101317856
 30
0.0
 11
55.8198056718686
 21
52.43712964223317
 31
0.0
  0
LINE
  5
4499
330
1F
100
AcDbEntity
  8
SPOJOVACÍ
  6
Continuous
100
AcDbLine
 10
54.2412973465764
 20
48.01507390732962
 30
0.0
 11
53.86364597344822
 21
48.39272528264058
 31
0.0
  0
LINE
  5
449A
330
1F
100
AcDbEntity
  8
SPOJOVACÍ
  6
Continuous
100
AcDbLine
 10
54.2412973465764
 20
48.01507390732962
 30
0.0
 11
54.45988865860295
 21
48.39272528264058
 31
0.0
  0
LINE
  5
449B
330
1F
100
AcDbEntity
  8
SPOJOVACÍ
  6
Continuous
100
AcDbLine
 10
54.2412973465764
 20
48.01507390732962
 30
0.0
 11
55.44122412303863
 21
52.81478101317856
 31
0.0
  0
LINE
  5
449C
330
1F
100
AcDbEntity
  8
SPOJOVACÍ
  6
Continuous
100
AcDbLine
 10
69.58733762541692
 20
49.39824531832795
 30
0.0
 11
69.89801634119089
 21
51.55253245978468
 31
0.0
  0
LINE
  5
449D
330
1F
100
AcDbEntity
  8
SPOJOVACÍ
  6
Continuous
100
AcDbLine
 10
69.20968625228875
 20
49.77589668927334
 30
0.0
 11
69.68035520487342
 21
51.1748810888393
 31
0.0
  0
LINE
  5
449E
330
1F
100
AcDbEntity
  8
SPOJOVACÍ
  6
Continuous
100
AcDbLine
 10
69.80592893743619
 20
49.77589668927334
 30
0.0
 11
70.27659789002086
 21
51.1748810888393
 31
0.0
  0
LINE
  5
449F
330
1F
100
AcDbEntity
  8
SPOJOVACÍ
  6
Continuous
100
AcDbLine
 10
69.89801634119089
 20
51.55253245978468
 30
0.0
 11
69.68035520487342
 21
51.1748810888393
 31
0.0
  0
LINE
  5
44A0
330
1F
100
AcDbEntity
  8
SPOJOVACÍ
  6
Continuous
100
AcDbLine
 10
69.89801634119089
 20
51.55253245978468
 30
0.0
 11
70.27659789002086
 21
51.1748810888393
 31
0.0
  0
LINE
  5
44A1
330
1F
100
AcDbEntity
  8
SPOJOVACÍ
  6
Continuous
100
AcDbLine
 10
69.58733762541692
 20
49.39824531832795
 30
0.0
 11
69.20968625228875
 21
49.77589668927334
 31
0.0
  0
LINE
  5
44A2
330
1F
100
AcDbEntity
  8
SPOJOVACÍ
  6
Continuous
100
AcDbLine
 10
69.58733762541692
 20
49.39824531832795
 30
0.0
 11
69.80592893743619
 21
49.77589668927334
 31
0.0
  0
LINE
  5
44A3
330
1F
100
AcDbEntity
  8
SPOJOVACÍ
  6
Continuous
100
AcDbLine
 10
66.5735680470973
 20
48.83362860785649
 30
0.0
 11
67.20701776386727
 21
51.94971752428767
 31
0.0
  0
LINE
  5
44A4
330
1F
100
AcDbEntity
  8
SPOJOVACÍ
  6
Continuous
100
AcDbLine
 10
66.19498649799083
 20
49.21127998316745
 30
0.0
 11
66.98935662781901
 21
51.57206615334229
 31
0.0
  0
LINE
  5
44A5
330
1F
100
AcDbEntity
  8
SPOJOVACÍ
  6
Continuous
100
AcDbLine
 10
66.79122918314556
 20
49.21127998316745
 30
0.0
 11
67.58559931269724
 21
51.57206615334229
 31
0.0
  0
LINE
  5
44A6
330
1F
100
AcDbEntity
  8
SPOJOVACÍ
  6
Continuous
100
AcDbLine
 10
67.20701776386727
 20
51.94971752428767
 30
0.0
 11
66.98935662781901
 21
51.57206615334229
 31
0.0
  0
LINE
  5
44A7
330
1F
100
AcDbEntity
  8
SPOJOVACÍ
  6
Continuous
100
AcDbLine
 10
67.20701776386727
 20
51.94971752428767
 30
0.0
 11
67.58559931269724
 21
51.57206615334229
 31
0.0
  0
LINE
  5
44A8
330
1F
100
AcDbEntity
  8
SPOJOVACÍ
  6
Continuous
100
AcDbLine
 10
66.5735680470973
 20
48.83362860785649
 30
0.0
 11
66.19498649799083
 21
49.21127998316745
 31
0.0
  0
LINE
  5
44A9
330
1F
100
AcDbEntity
  8
SPOJOVACÍ
  6
Continuous
100
AcDbLine
 10
66.5735680470973
 20
48.83362860785649
 30
0.0
 11
66.79122918314556
 21
49.21127998316745
 31
0.0
  0
LINE
  5
44AA
330
1F
100
AcDbEntity
  8
SPOJOVACÍ
  6
Continuous
100
AcDbLine
 10
63.55886829279938
 20
48.26901190175061
 30
0.0
 11
64.531832175104
 21
52.39434155449356
 31
0.0
  0
LINE
  5
44AB
330
1F
100
AcDbEntity
  8
SPOJOVACÍ
  6
Continuous
100
AcDbLine
 10
63.18121691967121
 20
48.64759345003489
 30
0.0
 11
64.31417103905573
 21
52.01669018354817
 31
0.0
  0
LINE
  5
44AC
330
1F
100
AcDbEntity
  8
SPOJOVACÍ
  6
Continuous
100
AcDbLine
 10
63.77745960482593
 20
48.64759345003489
 30
0.0
 11
64.91041372421046
 21
52.01669018354817
 31
0.0
  0
LINE
  5
44AD
330
1F
100
AcDbEntity
  8
SPOJOVACÍ
  6
Continuous
100
AcDbLine
 10
64.531832175104
 20
52.39434155449356
 30
0.0
 11
64.31417103905573
 21
52.01669018354817
 31
0.0
  0
LINE
  5
44AE
330
1F
100
AcDbEntity
  8
SPOJOVACÍ
  6
Continuous
100
AcDbLine
 10
64.531832175104
 20
52.39434155449356
 30
0.0
 11
64.91041372421046
 21
52.01669018354817
 31
0.0
  0
LINE
  5
44AF
330
1F
100
AcDbEntity
  8
SPOJOVACÍ
  6
Continuous
100
AcDbLine
 10
63.55886829279938
 20
48.26901190175061
 30
0.0
 11
63.18121691967121
 21
48.64759345003489
 31
0.0
  0
LINE
  5
44B0
330
1F
100
AcDbEntity
  8
SPOJOVACÍ
  6
Continuous
100
AcDbLine
 10
63.55886829279938
 20
48.26901190175061
 30
0.0
 11
63.77745960482593
 21
48.64759345003489
 31
0.0
  0
LINE
  5
44B1
330
1F
100
AcDbEntity
  8
SPOJOVACÍ
  6
Continuous
100
AcDbLine
 10
50.74383635420986
 20
48.39272528264058
 30
0.0
 11
52.1028231920502
 21
52.43712964223317
 31
0.0
  0
LINE
  5
44B2
330
1F
100
AcDbEntity
  8
SPOJOVACÍ
  6
Continuous
100
AcDbLine
 10
51.34007903936458
 20
48.39272528264058
 30
0.0
 11
52.69906587692844
 21
52.43712964223317
 31
0.0
  0
LINE
  5
44B3
330
1F
100
AcDbEntity
  8
SPOJOVACÍ
  6
Continuous
100
AcDbLine
 10
52.32141450407675
 20
52.81478101317856
 30
0.0
 11
52.1028231920502
 21
52.43712964223317
 31
0.0
  0
LINE
  5
44B4
330
1F
100
AcDbEntity
  8
SPOJOVACÍ
  6
Continuous
100
AcDbLine
 10
52.32141450407675
 20
52.81478101317856
 30
0.0
 11
52.69906587692844
 21
52.43712964223317
 31
0.0
  0
LINE
  5
44B5
330
1F
100
AcDbEntity
  8
SPOJOVACÍ
  6
Continuous
100
AcDbLine
 10
51.12148772733803
 20
48.01507390732962
 30
0.0
 11
50.74383635420986
 21
48.39272528264058
 31
0.0
  0
LINE
  5
44B6
330
1F
100
AcDbEntity
  8
SPOJOVACÍ
  6
Continuous
100
AcDbLine
 10
51.12148772733803
 20
48.01507390732962
 30
0.0
 11
51.34007903936458
 21
48.39272528264058
 31
0.0
  0
LINE
  5
44B7
330
1F
100
AcDbEntity
  8
SPOJOVACÍ
  6
Continuous
100
AcDbLine
 10
51.12148772733803
 20
48.01507390732962
 30
0.0
 11
52.32141450407675
 21
52.81478101317856
 31
0.0
  0
LINE
  5
44B8
330
1F
100
AcDbEntity
  8
SPOJOVACÍ
  6
Continuous
100
AcDbLine
 10
47.62309655954618
 20
48.39272528264058
 30
0.0
 11
48.98301357281184
 21
52.43712964223317
 31
0.0
  0
LINE
  5
44B9
330
1F
100
AcDbEntity
  8
SPOJOVACÍ
  6
Continuous
100
AcDbLine
 10
48.21933924442442
 20
48.39272528264058
 30
0.0
 11
49.57925625796656
 21
52.43712964223317
 31
0.0
  0
LINE
  5
44BA
330
1F
100
AcDbEntity
  8
SPOJOVACÍ
  6
Continuous
100
AcDbLine
 10
49.20160488483839
 20
52.81478101317856
 30
0.0
 11
48.98301357281184
 21
52.43712964223317
 31
0.0
  0
LINE
  5
44BB
330
1F
100
AcDbEntity
  8
SPOJOVACÍ
  6
Continuous
100
AcDbLine
 10
49.20160488483839
 20
52.81478101317856
 30
0.0
 11
49.57925625796656
 21
52.43712964223317
 31
0.0
  0
LINE
  5
44BC
330
1F
100
AcDbEntity
  8
SPOJOVACÍ
  6
Continuous
100
AcDbLine
 10
48.00167810837615
 20
48.01507390732962
 30
0.0
 11
47.62309655954618
 21
48.39272528264058
 31
0.0
  0
LINE
  5
44BD
330
1F
100
AcDbEntity
  8
SPOJOVACÍ
  6
Continuous
100
AcDbLine
 10
48.00167810837615
 20
48.01507390732962
 30
0.0
 11
48.21933924442442
 21
48.39272528264058
 31
0.0
  0
LINE
  5
44BE
330
1F
100
AcDbEntity
  8
SPOJOVACÍ
  6
Continuous
100
AcDbLine
 10
48.00167810837615
 20
48.01507390732962
 30
0.0
 11
49.20160488483839
 21
52.81478101317856
 31
0.0
  0
LINE
  5
44BF
330
1F
100
AcDbEntity
  8
SPOJOVACÍ
  6
Continuous
100
AcDbLine
 10
64.13743763770639
 20
51.51904613233722
 30
0.0
 11
62.16639512642018
 21
51.76461254380495
 31
0.0
  0
LINE
  5
44C0
330
1F
100
AcDbEntity
  8
SPOJOVACÍ
  6
Continuous
100
AcDbLine
 10
66.84424920360493
 20
51.18046213977589
 30
0.0
 11
64.70763540075154
 21
51.44742259511343
 31
0.0
  0
LINE
  5
44C1
330
1F
100
AcDbEntity
  8
SPOJOVACÍ
  6
Continuous
100
AcDbLine
 10
69.56129270303813
 20
50.84094797860683
 30
0.0
 11
67.41630731805367
 21
51.10883860691768
 31
0.0
  0
LINE
  5
44C2
330
1F
100
AcDbEntity
  8
SPOJOVACÍ
  6
Continuous
100
AcDbLine
 10
69.87755247356858
 20
50.02890450635544
 30
0.0
 11
72.96666629137348
 21
50.41492746025409
 31
0.0
  0
LINE
  5
44C3
330
1F
100
AcDbEntity
  8
SPOJOVACÍ
  6
Continuous
100
AcDbLine
 10
66.93633660735963
 20
49.66148506867551
 30
0.0
 11
69.25712521771515
 21
49.95169991382948
 31
0.0
  0
LINE
  5
44C4
330
1F
100
AcDbEntity
  8
SPOJOVACÍ
  6
Continuous
100
AcDbLine
 10
63.98395863163045
 20
49.29220527631781
 30
0.0
 11
66.30567741769505
 21
49.58242012583736
 31
0.0
  0
LINE
  5
44C5
330
1F
100
AcDbEntity
  8
SPOJOVACÍ
  6
Continuous
100
AcDbLine
 10
72.96666629137348
 20
50.41492746025409
 30
0.0
 11
70.13056029010499
 21
50.76932444138305
 31
0.0
  0
LINE
  5
44C6
330
1F
100
AcDbEntity
  8
SPOJOVACÍ
  6
Continuous
100
AcDbLine
 10
62.16639512642018
 20
49.0652423810688
 30
0.0
 11
63.36353137577702
 21
49.21500068379185
 31
0.0
  0
LINE
  5
44C7
330
1F
100
AcDbEntity
  8
SPOJOVACÍ
  6
Continuous
100
AcDbLine
 10
61.82967148853663
 20
51.76461254380495
 30
0.0
 11
62.16639512642018
 21
51.76461254380495
 31
0.0
  0
LINE
  5
44C8
330
1F
100
AcDbEntity
  8
SPOJOVACÍ
  6
Continuous
100
AcDbLine
 10
58.70707134192366
 20
51.76461254380495
 30
0.0
 11
61.22598739695263
 21
51.76461254380495
 31
0.0
  0
LINE
  5
44C9
330
1F
100
AcDbEntity
  8
SPOJOVACÍ
  6
Continuous
100
AcDbLine
 10
60.91902938453154
 20
49.0652423810688
 30
0.0
 11
62.16639512642018
 21
49.0652423810688
 31
0.0
  0
LINE
  5
44CA
330
1F
100
AcDbEntity
  8
SPOJOVACÍ
  6
Continuous
100
AcDbLine
 10
57.80480082004965
 20
49.0652423810688
 30
0.0
 11
60.32278669937682
 21
49.0652423810688
 31
0.0
  0
LINE
  5
44CB
330
1F
100
AcDbEntity
  8
SPOJOVACÍ
  6
Continuous
100
AcDbLine
 10
55.5854013712817
 20
51.76461254380495
 30
0.0
 11
58.10617777799075
 21
51.76461254380495
 31
0.0
  0
LINE
  5
44CC
330
1F
100
AcDbEntity
  8
SPOJOVACÍ
  6
Continuous
100
AcDbLine
 10
52.46280122493795
 20
51.76461254380495
 30
0.0
 11
54.99101903780706
 21
51.76461254380495
 31
0.0
  0
LINE
  5
44CD
330
1F
100
AcDbEntity
  8
SPOJOVACÍ
  6
Continuous
100
AcDbLine
 10
49.34764248475426
 20
51.76461254380495
 30
0.0
 11
51.86655853978322
 21
51.76461254380495
 31
0.0
  0
LINE
  5
44CE
330
1F
100
AcDbEntity
  8
SPOJOVACÍ
  6
Continuous
100
AcDbLine
 10
54.67196873989474
 20
49.0652423810688
 30
0.0
 11
57.20018655276385
 21
49.0652423810688
 31
0.0
  0
LINE
  5
44CF
330
1F
100
AcDbEntity
  8
SPOJOVACÍ
  6
Continuous
100
AcDbLine
 10
51.55680999971105
 20
49.0652423810688
 30
0.0
 11
54.07758640642009
 21
49.0652423810688
 31
0.0
  0
LINE
  5
44D0
330
1F
100
AcDbEntity
  8
SPOJOVACÍ
  6
Continuous
100
AcDbLine
 10
48.43420985336729
 20
49.0652423810688
 30
0.0
 11
50.95312590839625
 21
49.0652423810688
 31
0.0
  0
LINE
  5
44D1
330
1F
100
AcDbEntity
  8
SPOJOVACÍ
  6
Continuous
100
AcDbLine
 10
43.80100421451084
 20
49.0652423810688
 30
0.0
 11
47.83889734419085
 21
49.0652423810688
 31
0.0
  0
LINE
  5
44D2
330
1F
100
AcDbEntity
  8
SPOJOVACÍ
  6
Continuous
100
AcDbLine
 10
43.80100421451084
 20
51.76461254380495
 30
0.0
 11
48.74395839343947
 21
51.76461254380495
 31
0.0
  0
LINE
  5
44D3
330
1F
100
AcDbEntity
  8
SPOJOVACÍ
  6
Continuous
100
AcDbLine
 10
38.40133372015429
 20
45.31477357162015
 30
0.0
 11
39.14547435662848
 21
46.66445865517101
 31
0.0
  0
LINE
  5
44D4
330
1F
100
AcDbEntity
  8
SPOJOVACÍ
  6
Continuous
100
AcDbLine
 10
39.14547435662848
 20
46.66445865517101
 30
0.0
 11
40.21424634604068
 21
47.77508855552963
 31
0.0
  0
LINE
  5
44D5
330
1F
100
AcDbEntity
  8
SPOJOVACÍ
  6
Continuous
100
AcDbLine
 10
40.21424634604068
 20
47.77508855552963
 30
0.0
 11
41.5332356243382
 21
48.57131903484781
 31
0.0
  0
LINE
  5
44D6
330
1F
100
AcDbEntity
  8
SPOJOVACÍ
  6
Continuous
100
AcDbLine
 10
41.5332356243382
 20
48.57131903484781
 30
0.0
 11
43.01407549138843
 21
48.99919989914718
 31
0.0
  0
LINE
  5
44D7
330
1F
100
AcDbEntity
  8
SPOJOVACÍ
  6
Continuous
100
AcDbLine
 10
43.01407549138843
 20
48.99919989914718
 30
0.0
 11
43.80100421451084
 21
49.0652423810688
 31
0.0
  0
LINE
  5
44D8
330
1F
100
AcDbEntity
  8
SPOJOVACÍ
  6
Continuous
100
AcDbLine
 10
39.65614086847949
 20
53.56264235382053
 30
0.0
 11
38.73805735803784
 21
54.7997761627202
 31
0.0
  0
LINE
  5
44D9
330
1F
100
AcDbEntity
  8
SPOJOVACÍ
  6
Continuous
100
AcDbLine
 10
38.73805735803784
 20
54.7997761627202
 30
0.0
 11
38.40133372015429
 21
55.51508134888803
 31
0.0
  0
LINE
  5
44DA
330
1F
100
AcDbEntity
  8
SPOJOVACÍ
  6
Continuous
100
AcDbLine
 10
38.40133372015429
 20
45.31477357162015
 30
0.0
 11
38.40133372015429
 21
55.51508134888803
 31
0.0
  0
LINE
  5
44DB
330
1F
100
AcDbEntity
  8
SPOJOVACÍ
  6
Continuous
100
AcDbLine
 10
37.20140694342285
 20
45.31477357162015
 30
0.0
 11
38.40133372015429
 21
45.31477357162015
 31
0.0
  0
LINE
  5
44DC
330
1F
100
AcDbEntity
  8
SPOJOVACÍ
  6
Continuous
100
AcDbLine
 10
37.20140694342285
 20
45.31477357162015
 30
0.0
 11
37.20140694342285
 21
55.51508134888803
 31
0.0
  0
LINE
  5
44DD
330
1F
100
AcDbEntity
  8
SPOJOVACÍ
  6
Continuous
100
AcDbLine
 10
37.20140694342285
 20
55.51508134888803
 30
0.0
 11
38.40133372015429
 21
55.51508134888803
 31
0.0
  0
LINE
  5
44DE
330
1F
100
AcDbEntity
  8
SPOJOVACÍ
  6
Continuous
100
AcDbLine
 10
43.80100421451084
 20
51.76461254380495
 30
0.0
 11
42.2773762610816
 21
51.9915754346884
 31
0.0
  0
LINE
  5
44DF
330
1F
100
AcDbEntity
  8
SPOJOVACÍ
  6
Continuous
100
AcDbLine
 10
42.2773762610816
 20
51.9915754346884
 30
0.0
 11
40.86350905137829
 21
52.60456128383606
 31
0.0
  0
LINE
  5
44E0
330
1F
100
AcDbEntity
  8
SPOJOVACÍ
  6
Continuous
100
AcDbLine
 10
40.86350905137829
 20
52.60456128383606
 30
0.0
 11
39.65614086847949
 21
53.56264235382053
 31
0.0
  0
LINE
  5
44E1
330
1F
100
AcDbEntity
  8
SPOJOVACÍ
  6
Continuous
100
AcDbLine
 10
108.7715591202179
 20
52.60456128383606
 30
0.0
 11
109.9789273031167
 21
53.56264235382053
 31
0.0
  0
LINE
  5
44E2
330
1F
100
AcDbEntity
  8
SPOJOVACÍ
  6
Continuous
100
AcDbLine
 10
107.3576919105146
 20
51.9915754346884
 30
0.0
 11
108.7715591202179
 21
52.60456128383606
 31
0.0
  0
LINE
  5
44E3
330
1F
100
AcDbEntity
  8
SPOJOVACÍ
  6
Continuous
100
AcDbLine
 10
105.8340639570853
 20
51.76461254380495
 30
0.0
 11
107.3576919105146
 21
51.9915754346884
 31
0.0
  0
LINE
  5
44E4
330
1F
100
AcDbEntity
  8
SPOJOVACÍ
  6
Continuous
100
AcDbLine
 10
112.4336612281733
 20
55.51508134888803
 30
0.0
 11
111.2337344514419
 21
55.51508134888803
 31
0.0
  0
LINE
  5
44E5
330
1F
100
AcDbEntity
  8
SPOJOVACÍ
  6
Continuous
100
AcDbLine
 10
112.4336612281733
 20
45.31477357162015
 30
0.0
 11
112.4336612281733
 21
55.51508134888803
 31
0.0
  0
LINE
  5
44E6
330
1F
100
AcDbEntity
  8
SPOJOVACÍ
  6
Continuous
100
AcDbLine
 10
112.4336612281733
 20
45.31477357162015
 30
0.0
 11
111.2337344514419
 21
45.31477357162015
 31
0.0
  0
LINE
  5
44E7
330
1F
100
AcDbEntity
  8
SPOJOVACÍ
  6
Continuous
100
AcDbLine
 10
111.2337344514419
 20
45.31477357162015
 30
0.0
 11
111.2337344514419
 21
55.51508134888803
 31
0.0
  0
LINE
  5
44E8
330
1F
100
AcDbEntity
  8
SPOJOVACÍ
  6
Continuous
100
AcDbLine
 10
110.8970108135583
 20
54.7997761627202
 30
0.0
 11
111.2337344514419
 21
55.51508134888803
 31
0.0
  0
LINE
  5
44E9
330
1F
100
AcDbEntity
  8
SPOJOVACÍ
  6
Continuous
100
AcDbLine
 10
109.9789273031167
 20
53.56264235382053
 30
0.0
 11
110.8970108135583
 21
54.7997761627202
 31
0.0
  0
LINE
  5
44EA
330
1F
100
AcDbEntity
  8
SPOJOVACÍ
  6
Continuous
100
AcDbLine
 10
106.6209926802077
 20
48.99919989914718
 30
0.0
 11
105.8340639570853
 21
49.0652423810688
 31
0.0
  0
LINE
  5
44EB
330
1F
100
AcDbEntity
  8
SPOJOVACÍ
  6
Continuous
100
AcDbLine
 10
108.101832547258
 20
48.57131903484781
 30
0.0
 11
106.6209926802077
 21
48.99919989914718
 31
0.0
  0
LINE
  5
44EC
330
1F
100
AcDbEntity
  8
SPOJOVACÍ
  6
Continuous
100
AcDbLine
 10
109.4208218255555
 20
47.77508855552963
 30
0.0
 11
108.101832547258
 21
48.57131903484781
 31
0.0
  0
LINE
  5
44ED
330
1F
100
AcDbEntity
  8
SPOJOVACÍ
  6
Continuous
100
AcDbLine
 10
110.4895938149677
 20
46.66445865517101
 30
0.0
 11
109.4208218255555
 21
47.77508855552963
 31
0.0
  0
LINE
  5
44EE
330
1F
100
AcDbEntity
  8
SPOJOVACÍ
  6
Continuous
100
AcDbLine
 10
111.2337344514419
 20
45.31477357162015
 30
0.0
 11
110.4895938149677
 21
46.66445865517101
 31
0.0
  0
LINE
  5
44EF
330
1F
100
AcDbEntity
  8
SPOJOVACÍ
  6
Continuous
100
AcDbLine
 10
105.8340639570853
 20
51.76461254380495
 30
0.0
 11
100.8911097781567
 21
51.76461254380495
 31
0.0
  0
LINE
  5
44F0
330
1F
100
AcDbEntity
  8
SPOJOVACÍ
  6
Continuous
100
AcDbLine
 10
105.8340639570853
 20
49.0652423810688
 30
0.0
 11
101.7961708274053
 21
49.0652423810688
 31
0.0
  0
LINE
  5
44F1
330
1F
100
AcDbEntity
  8
SPOJOVACÍ
  6
Continuous
100
AcDbLine
 10
101.2008583182289
 20
49.0652423810688
 30
0.0
 11
98.68194226319998
 21
49.0652423810688
 31
0.0
  0
LINE
  5
44F2
330
1F
100
AcDbEntity
  8
SPOJOVACÍ
  6
Continuous
100
AcDbLine
 10
98.07825817188518
 20
49.0652423810688
 30
0.0
 11
95.55748176517614
 21
49.0652423810688
 31
0.0
  0
LINE
  5
44F3
330
1F
100
AcDbEntity
  8
SPOJOVACÍ
  6
Continuous
100
AcDbLine
 10
94.9630994317015
 20
49.0652423810688
 30
0.0
 11
92.43488161883238
 21
49.0652423810688
 31
0.0
  0
LINE
  5
44F4
330
1F
100
AcDbEntity
  8
SPOJOVACÍ
  6
Continuous
100
AcDbLine
 10
100.2874256868419
 20
51.76461254380495
 30
0.0
 11
97.76850963181301
 21
51.76461254380495
 31
0.0
  0
LINE
  5
44F5
330
1F
100
AcDbEntity
  8
SPOJOVACÍ
  6
Continuous
100
AcDbLine
 10
97.17226694665829
 20
51.76461254380495
 30
0.0
 11
94.64404913378917
 21
51.76461254380495
 31
0.0
  0
LINE
  5
44F6
330
1F
100
AcDbEntity
  8
SPOJOVACÍ
  6
Continuous
100
AcDbLine
 10
94.04966680031453
 20
51.76461254380495
 30
0.0
 11
91.52889039360548
 21
51.76461254380495
 31
0.0
  0
LINE
  5
44F7
330
1F
100
AcDbEntity
  8
SPOJOVACÍ
  6
Continuous
100
AcDbLine
 10
91.83026735154658
 20
49.0652423810688
 30
0.0
 11
89.31228147221942
 21
49.0652423810688
 31
0.0
  0
LINE
  5
44F8
330
1F
100
AcDbEntity
  8
SPOJOVACÍ
  6
Continuous
100
AcDbLine
 10
88.71603878706469
 20
49.0652423810688
 30
0.0
 11
87.46867304517605
 21
49.0652423810688
 31
0.0
  0
LINE
  5
44F9
330
1F
100
AcDbEntity
  8
SPOJOVACÍ
  6
Continuous
100
AcDbLine
 10
90.92799682967257
 20
51.76461254380495
 30
0.0
 11
88.4090807746436
 21
51.76461254380495
 31
0.0
  0
LINE
  5
44FA
330
1F
100
AcDbEntity
  8
SPOJOVACÍ
  6
Continuous
100
AcDbLine
 10
87.8053966830596
 20
51.76461254380495
 30
0.0
 11
87.46867304517605
 21
51.76461254380495
 31
0.0
  0
LINE
  5
44FB
330
1F
100
AcDbEntity
  8
SPOJOVACÍ
  6
Continuous
100
AcDbLine
 10
87.46867304517605
 20
49.0652423810688
 30
0.0
 11
86.27153679581921
 21
49.21500068379185
 31
0.0
  0
LINE
  5
44FC
330
1F
100
AcDbEntity
  8
SPOJOVACÍ
  6
Continuous
100
AcDbLine
 10
76.66840188022274
 20
50.41492746025409
 30
0.0
 11
79.50450788149123
 21
50.76932444138305
 31
0.0
  0
LINE
  5
44FD
330
1F
100
AcDbEntity
  8
SPOJOVACÍ
  6
Continuous
100
AcDbLine
 10
85.65110953996578
 20
49.29220527631781
 30
0.0
 11
83.32939075390118
 21
49.58242012583736
 31
0.0
  0
LINE
  5
44FE
330
1F
100
AcDbEntity
  8
SPOJOVACÍ
  6
Continuous
100
AcDbLine
 10
82.6987315642366
 20
49.66148506867551
 30
0.0
 11
80.37794295388108
 21
49.95169991382948
 31
0.0
  0
LINE
  5
44FF
330
1F
100
AcDbEntity
  8
SPOJOVACÍ
  6
Continuous
100
AcDbLine
 10
79.75751569802764
 20
50.02890450635544
 30
0.0
 11
76.66840188022274
 21
50.41492746025409
 31
0.0
  0
LINE
  5
4500
330
1F
100
AcDbEntity
  8
SPOJOVACÍ
  6
Continuous
100
AcDbLine
 10
80.0737754685581
 20
50.84094797860683
 30
0.0
 11
82.21876085354256
 21
51.10883860691768
 31
0.0
  0
LINE
  5
4501
330
1F
100
AcDbEntity
  8
SPOJOVACÍ
  6
Continuous
100
AcDbLine
 10
82.7908189679913
 20
51.18046213977589
 30
0.0
 11
84.92743277084469
 21
51.44742259511343
 31
0.0
  0
LINE
  5
4502
330
1F
100
AcDbEntity
  8
SPOJOVACÍ
  6
Continuous
100
AcDbLine
 10
85.49763053388984
 20
51.51904613233722
 30
0.0
 11
87.46867304517605
 21
51.76461254380495
 31
0.0
  0
LINE
  5
4503
330
1F
100
AcDbEntity
  8
SPOJOVACÍ
  6
Continuous
100
AcDbLine
 10
101.63339006322
 20
48.01507390732962
 30
0.0
 11
100.4334632867578
 21
52.81478101317856
 31
0.0
  0
LINE
  5
4504
330
1F
100
AcDbEntity
  8
SPOJOVACÍ
  6
Continuous
100
AcDbLine
 10
101.63339006322
 20
48.01507390732962
 30
0.0
 11
101.4157289271718
 21
48.39272528264058
 31
0.0
  0
LINE
  5
4505
330
1F
100
AcDbEntity
  8
SPOJOVACÍ
  6
Continuous
100
AcDbLine
 10
101.63339006322
 20
48.01507390732962
 30
0.0
 11
102.01197161205
 21
48.39272528264058
 31
0.0
  0
LINE
  5
4506
330
1F
100
AcDbEntity
  8
SPOJOVACÍ
  6
Continuous
100
AcDbLine
 10
100.4334632867578
 20
52.81478101317856
 30
0.0
 11
100.0558119136296
 21
52.43712964223317
 31
0.0
  0
LINE
  5
4507
330
1F
100
AcDbEntity
  8
SPOJOVACÍ
  6
Continuous
100
AcDbLine
 10
100.4334632867578
 20
52.81478101317856
 30
0.0
 11
100.6520545987843
 21
52.43712964223317
 31
0.0
  0
LINE
  5
4508
330
1F
100
AcDbEntity
  8
SPOJOVACÍ
  6
Continuous
100
AcDbLine
 10
101.4157289271718
 20
48.39272528264058
 30
0.0
 11
100.0558119136296
 21
52.43712964223317
 31
0.0
  0
LINE
  5
4509
330
1F
100
AcDbEntity
  8
SPOJOVACÍ
  6
Continuous
100
AcDbLine
 10
102.01197161205
 20
48.39272528264058
 30
0.0
 11
100.6520545987843
 21
52.43712964223317
 31
0.0
  0
LINE
  5
450A
330
1F
100
AcDbEntity
  8
SPOJOVACÍ
  6
Continuous
100
AcDbLine
 10
98.5135804442582
 20
48.01507390732962
 30
0.0
 11
97.31365366751948
 21
52.81478101317856
 31
0.0
  0
LINE
  5
450B
330
1F
100
AcDbEntity
  8
SPOJOVACÍ
  6
Continuous
100
AcDbLine
 10
98.5135804442582
 20
48.01507390732962
 30
0.0
 11
98.29498913223165
 21
48.39272528264058
 31
0.0
  0
LINE
  5
450C
330
1F
100
AcDbEntity
  8
SPOJOVACÍ
  6
Continuous
100
AcDbLine
 10
98.5135804442582
 20
48.01507390732962
 30
0.0
 11
98.89123181738638
 21
48.39272528264058
 31
0.0
  0
LINE
  5
450D
330
1F
100
AcDbEntity
  8
SPOJOVACÍ
  6
Continuous
100
AcDbLine
 10
97.31365366751948
 20
52.81478101317856
 30
0.0
 11
96.93600229466779
 21
52.43712964223317
 31
0.0
  0
LINE
  5
450E
330
1F
100
AcDbEntity
  8
SPOJOVACÍ
  6
Continuous
100
AcDbLine
 10
97.31365366751948
 20
52.81478101317856
 30
0.0
 11
97.53224497954603
 21
52.43712964223317
 31
0.0
  0
LINE
  5
450F
330
1F
100
AcDbEntity
  8
SPOJOVACÍ
  6
Continuous
100
AcDbLine
 10
98.29498913223165
 20
48.39272528264058
 30
0.0
 11
96.93600229466779
 21
52.43712964223317
 31
0.0
  0
LINE
  5
4510
330
1F
100
AcDbEntity
  8
SPOJOVACÍ
  6
Continuous
100
AcDbLine
 10
98.89123181738638
 20
48.39272528264058
 30
0.0
 11
97.53224497954603
 21
52.43712964223317
 31
0.0
  0
LINE
  5
4511
330
1F
100
AcDbEntity
  8
SPOJOVACÍ
  6
Continuous
100
AcDbLine
 10
86.07619987879685
 20
48.26901190175061
 30
0.0
 11
85.8576085667703
 21
48.64759345003489
 31
0.0
  0
LINE
  5
4512
330
1F
100
AcDbEntity
  8
SPOJOVACÍ
  6
Continuous
100
AcDbLine
 10
86.07619987879685
 20
48.26901190175061
 30
0.0
 11
86.45385125192502
 21
48.64759345003489
 31
0.0
  0
LINE
  5
4513
330
1F
100
AcDbEntity
  8
SPOJOVACÍ
  6
Continuous
100
AcDbLine
 10
85.10323599649224
 20
52.39434155449356
 30
0.0
 11
84.72465444738578
 21
52.01669018354817
 31
0.0
  0
LINE
  5
4514
330
1F
100
AcDbEntity
  8
SPOJOVACÍ
  6
Continuous
100
AcDbLine
 10
85.10323599649224
 20
52.39434155449356
 30
0.0
 11
85.3208971325405
 21
52.01669018354817
 31
0.0
  0
LINE
  5
4515
330
1F
100
AcDbEntity
  8
SPOJOVACÍ
  6
Continuous
100
AcDbLine
 10
85.8576085667703
 20
48.64759345003489
 30
0.0
 11
84.72465444738578
 21
52.01669018354817
 31
0.0
  0
LINE
  5
4516
330
1F
100
AcDbEntity
  8
SPOJOVACÍ
  6
Continuous
100
AcDbLine
 10
86.45385125192502
 20
48.64759345003489
 30
0.0
 11
85.3208971325405
 21
52.01669018354817
 31
0.0
  0
LINE
  5
4517
330
1F
100
AcDbEntity
  8
SPOJOVACÍ
  6
Continuous
100
AcDbLine
 10
86.07619987879685
 20
48.26901190175061
 30
0.0
 11
85.10323599649224
 21
52.39434155449356
 31
0.0
  0
LINE
  5
4518
330
1F
100
AcDbEntity
  8
SPOJOVACÍ
  6
Continuous
100
AcDbLine
 10
83.06150012449894
 20
48.83362860785649
 30
0.0
 11
82.84383898845067
 21
49.21127998316745
 31
0.0
  0
LINE
  5
4519
330
1F
100
AcDbEntity
  8
SPOJOVACÍ
  6
Continuous
100
AcDbLine
 10
83.06150012449894
 20
48.83362860785649
 30
0.0
 11
83.4400816736054
 21
49.21127998316745
 31
0.0
  0
LINE
  5
451A
330
1F
100
AcDbEntity
  8
SPOJOVACÍ
  6
Continuous
100
AcDbLine
 10
82.42805040772896
 20
51.94971752428767
 30
0.0
 11
82.04946885889899
 21
51.57206615334229
 31
0.0
  0
LINE
  5
451B
330
1F
100
AcDbEntity
  8
SPOJOVACÍ
  6
Continuous
100
AcDbLine
 10
82.42805040772896
 20
51.94971752428767
 30
0.0
 11
82.64571154377723
 21
51.57206615334229
 31
0.0
  0
LINE
  5
451C
330
1F
100
AcDbEntity
  8
SPOJOVACÍ
  6
Continuous
100
AcDbLine
 10
82.84383898845067
 20
49.21127998316745
 30
0.0
 11
82.04946885889899
 21
51.57206615334229
 31
0.0
  0
LINE
  5
451D
330
1F
100
AcDbEntity
  8
SPOJOVACÍ
  6
Continuous
100
AcDbLine
 10
83.4400816736054
 20
49.21127998316745
 30
0.0
 11
82.64571154377723
 21
51.57206615334229
 31
0.0
  0
LINE
  5
451E
330
1F
100
AcDbEntity
  8
SPOJOVACÍ
  6
Continuous
100
AcDbLine
 10
83.06150012449894
 20
48.83362860785649
 30
0.0
 11
82.42805040772896
 21
51.94971752428767
 31
0.0
  0
LINE
  5
451F
330
1F
100
AcDbEntity
  8
SPOJOVACÍ
  6
Continuous
100
AcDbLine
 10
80.04773054617931
 20
49.39824531832795
 30
0.0
 11
79.82913923416004
 21
49.77589668927334
 31
0.0
  0
LINE
  5
4520
330
1F
100
AcDbEntity
  8
SPOJOVACÍ
  6
Continuous
100
AcDbLine
 10
80.04773054617931
 20
49.39824531832795
 30
0.0
 11
80.42538191930749
 21
49.77589668927334
 31
0.0
  0
LINE
  5
4521
330
1F
100
AcDbEntity
  8
SPOJOVACÍ
  6
Continuous
100
AcDbLine
 10
79.73705183040533
 20
51.55253245978468
 30
0.0
 11
79.35847028157536
 21
51.1748810888393
 31
0.0
  0
LINE
  5
4522
330
1F
100
AcDbEntity
  8
SPOJOVACÍ
  6
Continuous
100
AcDbLine
 10
79.73705183040533
 20
51.55253245978468
 30
0.0
 11
79.95471296672281
 21
51.1748810888393
 31
0.0
  0
LINE
  5
4523
330
1F
100
AcDbEntity
  8
SPOJOVACÍ
  6
Continuous
100
AcDbLine
 10
79.82913923416004
 20
49.77589668927334
 30
0.0
 11
79.35847028157536
 21
51.1748810888393
 31
0.0
  0
LINE
  5
4524
330
1F
100
AcDbEntity
  8
SPOJOVACÍ
  6
Continuous
100
AcDbLine
 10
80.42538191930749
 20
49.77589668927334
 30
0.0
 11
79.95471296672281
 21
51.1748810888393
 31
0.0
  0
LINE
  5
4525
330
1F
100
AcDbEntity
  8
SPOJOVACÍ
  6
Continuous
100
AcDbLine
 10
80.04773054617931
 20
49.39824531832795
 30
0.0
 11
79.73705183040533
 21
51.55253245978468
 31
0.0
  0
LINE
  5
4526
330
1F
100
AcDbEntity
  8
SPOJOVACÍ
  6
Continuous
100
AcDbLine
 10
95.39377082501983
 20
48.01507390732962
 30
0.0
 11
94.1938440485576
 21
52.81478101317856
 31
0.0
  0
LINE
  5
4527
330
1F
100
AcDbEntity
  8
SPOJOVACÍ
  6
Continuous
100
AcDbLine
 10
95.39377082501983
 20
48.01507390732962
 30
0.0
 11
95.17517951299328
 21
48.39272528264058
 31
0.0
  0
LINE
  5
4528
330
1F
100
AcDbEntity
  8
SPOJOVACÍ
  6
Continuous
100
AcDbLine
 10
95.39377082501983
 20
48.01507390732962
 30
0.0
 11
95.77142219814801
 21
48.39272528264058
 31
0.0
  0
LINE
  5
4529
330
1F
100
AcDbEntity
  8
SPOJOVACÍ
  6
Continuous
100
AcDbLine
 10
94.1938440485576
 20
52.81478101317856
 30
0.0
 11
93.81526249972763
 21
52.43712964223317
 31
0.0
  0
LINE
  5
452A
330
1F
100
AcDbEntity
  8
SPOJOVACÍ
  6
Continuous
100
AcDbLine
 10
94.1938440485576
 20
52.81478101317856
 30
0.0
 11
94.41150518487507
 21
52.43712964223317
 31
0.0
  0
LINE
  5
452B
330
1F
100
AcDbEntity
  8
SPOJOVACÍ
  6
Continuous
100
AcDbLine
 10
95.17517951299328
 20
48.39272528264058
 30
0.0
 11
93.81526249972763
 21
52.43712964223317
 31
0.0
  0
LINE
  5
452C
330
1F
100
AcDbEntity
  8
SPOJOVACÍ
  6
Continuous
100
AcDbLine
 10
95.77142219814801
 20
48.39272528264058
 30
0.0
 11
94.41150518487507
 21
52.43712964223317
 31
0.0
  0
LINE
  5
452D
330
1F
100
AcDbEntity
  8
SPOJOVACÍ
  6
Continuous
100
AcDbLine
 10
92.27396120605067
 20
48.01507390732962
 30
0.0
 11
91.07403442958844
 21
52.81478101317856
 31
0.0
  0
LINE
  5
452E
330
1F
100
AcDbEntity
  8
SPOJOVACÍ
  6
Continuous
100
AcDbLine
 10
92.27396120605067
 20
48.01507390732962
 30
0.0
 11
92.05536989403141
 21
48.39272528264058
 31
0.0
  0
LINE
  5
452F
330
1F
100
AcDbEntity
  8
SPOJOVACÍ
  6
Continuous
100
AcDbLine
 10
92.27396120605067
 20
48.01507390732962
 30
0.0
 11
92.65161257917885
 21
48.39272528264058
 31
0.0
  0
LINE
  5
4530
330
1F
100
AcDbEntity
  8
SPOJOVACÍ
  6
Continuous
100
AcDbLine
 10
91.07403442958844
 20
52.81478101317856
 30
0.0
 11
90.69545288075847
 21
52.43712964223317
 31
0.0
  0
LINE
  5
4531
330
1F
100
AcDbEntity
  8
SPOJOVACÍ
  6
Continuous
100
AcDbLine
 10
91.07403442958844
 20
52.81478101317856
 30
0.0
 11
91.2916955656367
 21
52.43712964223317
 31
0.0
  0
LINE
  5
4532
330
1F
100
AcDbEntity
  8
SPOJOVACÍ
  6
Continuous
100
AcDbLine
 10
92.05536989403141
 20
48.39272528264058
 30
0.0
 11
90.69545288075847
 21
52.43712964223317
 31
0.0
  0
LINE
  5
4533
330
1F
100
AcDbEntity
  8
SPOJOVACÍ
  6
Continuous
100
AcDbLine
 10
92.65161257917885
 20
48.39272528264058
 30
0.0
 11
91.2916955656367
 21
52.43712964223317
 31
0.0
  0
LINE
  5
4534
330
1F
100
AcDbEntity
  8
SPOJOVACÍ
  6
Continuous
100
AcDbLine
 10
89.15322141111051
 20
48.01507390732962
 30
0.0
 11
87.95329463464828
 21
52.81478101317856
 31
0.0
  0
LINE
  5
4535
330
1F
100
AcDbEntity
  8
SPOJOVACÍ
  6
Continuous
100
AcDbLine
 10
89.15322141111051
 20
48.01507390732962
 30
0.0
 11
88.93556027506225
 21
48.39272528264058
 31
0.0
  0
LINE
  5
4536
330
1F
100
AcDbEntity
  8
SPOJOVACÍ
  6
Continuous
100
AcDbLine
 10
89.15322141111051
 20
48.01507390732962
 30
0.0
 11
89.53180296021697
 21
48.39272528264058
 31
0.0
  0
LINE
  5
4537
330
1F
100
AcDbEntity
  8
SPOJOVACÍ
  6
Continuous
100
AcDbLine
 10
87.95329463464828
 20
52.81478101317856
 30
0.0
 11
87.5756432615201
 21
52.43712964223317
 31
0.0
  0
LINE
  5
4538
330
1F
100
AcDbEntity
  8
SPOJOVACÍ
  6
Continuous
100
AcDbLine
 10
87.95329463464828
 20
52.81478101317856
 30
0.0
 11
88.17188594667483
 21
52.43712964223317
 31
0.0
  0
LINE
  5
4539
330
1F
100
AcDbEntity
  8
SPOJOVACÍ
  6
Continuous
100
AcDbLine
 10
88.93556027506225
 20
48.39272528264058
 30
0.0
 11
87.5756432615201
 21
52.43712964223317
 31
0.0
  0
LINE
  5
453A
330
1F
100
AcDbEntity
  8
SPOJOVACÍ
  6
Continuous
100
AcDbLine
 10
89.53180296021697
 20
48.39272528264058
 30
0.0
 11
88.17188594667483
 21
52.43712964223317
 31
0.0
  0
LINE
  5
453B
330
1F
100
AcDbEntity
  8
NOSNÉ KONSTRUKCE
100
AcDbLine
 10
94.34309987280016
 20
20.03724032285475
 30
0.0
 11
94.34309987279652
 21
358.1152926179283
 31
0.0
  0
LINE
  5
453C
330
1F
100
AcDbEntity
  8
NOSNÉ KONSTRUKCE
100
AcDbLine
 10
54.98944343225253
 20
20.03724032285475
 30
0.0
 11
54.98944343224525
 21
350.8671319825598
 31
0.0
  0
LINE
  5
453D
330
1F
100
AcDbEntity
  8
izolace
  6
IZOLACE
 48
1.5
100
AcDbLine
 10
74.95865581641578
 20
21.72641942541753
 30
0.0
 11
74.95865581641578
 21
354.5450636466966
 31
0.0
  0
LINE
  5
453E
330
1F
100
AcDbEntity
  8
CETRIS
100
AcDbLine
 10
37.20140694342285
 20
19.4849793896073
 30
0.0
 11
49.20140694342285
 21
19.4849793896073
 31
0.0
  0
LINE
  5
453F
330
1F
100
AcDbEntity
  8
CETRIS
100
AcDbLine
 10
100.4336612281733
 20
19.4849793896073
 30
0.0
 11
112.4336612281733
 21
19.48497938961094
 31
0.0
  0
LINE
  5
4540
330
1F
100
AcDbEntity
  8
STAVBA OBRYS
100
AcDbLine
 10
-75.4114466403114
 20
15.08538486023911
 30
0.0
 11
323.8613411200133
 21
15.08538486023911
 31
0.0
  0
LINE
  5
4541
330
1F
100
AcDbEntity
  8
STAVBA OBRYS
100
AcDbLine
 10
-75.29074043132254
 20
16.83200923916496
 30
0.0
 11
36.05464564573071
 21
16.83200923916496
 31
0.0
  0
LINE
  5
4542
330
1F
100
AcDbEntity
  8
STAVBA OBRYS
100
AcDbLine
 10
36.05464564573071
 20
16.83200923916496
 30
0.0
 11
36.05464564573071
 21
21.06212540296741
 31
0.0
  0
LINE
  5
4543
330
1F
100
AcDbEntity
  8
STAVBA OBRYS
  6
CIKCAK
 48
0.2
100
AcDbLine
 10
6.478809520311415
 20
21.68029977558666
 30
0.0
 11
-75.28165926326597
 21
21.68029977558666
 31
0.0
  0
LINE
  5
4544
330
1F
100
AcDbEntity
  8
STAVBA OBRYS
100
AcDbLine
 10
36.47880952031141
 20
21.06212540296741
 30
0.0
 11
6.478809520311415
 21
21.06212540296741
 31
0.0
  0
LINE
  5
4545
330
1F
100
AcDbEntity
  8
STAVBA OBRYS
100
AcDbLine
 10
6.478809520311415
 20
21.06212540296741
 30
0.0
 11
6.478809520311415
 21
23.06212540296741
 31
0.0
  0
LINE
  5
4546
330
1F
100
AcDbEntity
  8
STAVBA OBRYS
100
AcDbLine
 10
6.478809520311415
 20
23.06212540296741
 30
0.0
 11
34.47880952031141
 21
23.06212540296741
 31
0.0
  0
LINE
  5
4547
330
1F
100
AcDbEntity
  8
STAVBA OBRYS
100
AcDbLine
 10
34.47880952031141
 20
23.06212540296741
 30
0.0
 11
34.47880952031141
 21
51.06212540296741
 31
0.0
  0
LINE
  5
4548
330
1F
100
AcDbEntity
  8
STAVBA OBRYS
100
AcDbLine
 10
34.47880952031141
 20
51.06212540296741
 30
0.0
 11
36.47880952031141
 21
51.06212540296741
 31
0.0
  0
LINE
  5
4549
330
1F
100
AcDbEntity
  8
STAVBA OBRYS
100
AcDbLine
 10
36.47880952031141
 20
51.06212540296741
 30
0.0
 11
36.47880952031141
 21
21.06212540296741
 31
0.0
  0
LINE
  5
454A
330
1F
100
AcDbEntity
  8
STAVBA OBRYS
100
AcDbLine
 10
113.2507786757926
 20
15.96285856197113
 30
0.0
 11
112.4336612281733
 21
15.96285856197113
 31
0.0
  0
LINE
  5
454B
330
1F
100
AcDbEntity
  8
STAVBA OBRYS
100
AcDbLine
 10
36.05464564573071
 20
19.02667068552449
 30
0.0
 11
-75.28538197812281
 21
19.02667068552449
 31
0.0
  0
TEXT
  5
454C
330
1F
100
AcDbEntity
  8
POPIS
100
AcDbText
 10
-65.49890823148939
 20
77.33058382068605
 30
0.0
 40
25.0
  1
06
 41
0.85
  7
SIMPLEX7
100
AcDbText
  0
INSERT
  5
454D
330
1F
100
AcDbEntity
  8
POPIS
100
AcDbBlockReference
  2
E_PUNKT
 10
75.80961053559099
 20
-6.516669900100225
 30
0.0
 50
270.0
  0
INSERT
  5
454E
330
1F
100
AcDbEntity
  8
POPIS
100
AcDbBlockReference
  2
E_PUNKT
 10
98.27530264791882
 20
66.11383833895337
 30
0.0
 50
270.0
  0
TEXT
  5
454F
330
1F
100
AcDbEntity
  8
POPIS
100
AcDbText
 10
187.6722173436321
 20
65.87160119449158
 30
0.0
 40
25.0
  1
07
 41
0.85
  7
SIMPLEX7
100
AcDbText
  0
TEXT
  5
4550
330
1F
100
AcDbEntity
  8
POPIS
100
AcDbText
 10
187.6722173436321
 20
138.6816193254698
 30
0.0
 40
25.0
  1
05
 41
0.85
  7
SIMPLEX7
100
AcDbText
  0
LINE
  5
4551
330
1F
100
AcDbEntity
  8
POPIS
100
AcDbLine
 10
182.5634989491447
 20
151.3740140642157
 30
0.0
 11
98.30426427092994
 21
67.4502826488769
 31
0.0
  0
LINE
  5
4552
330
1F
100
AcDbEntity
  8
POPIS
100
AcDbLine
 10
180.3142459137018
 20
77.26137324014866
 30
0.0
 11
75.83867886646499
 21
-6.544280275727089
 31
0.0
  0
LINE
  5
4553
330
1F
100
AcDbEntity
  8
SPOJOVACÍ
  6
Continuous
100
AcDbLine
 10
40.86350905137829
 20
302.604561283836
 30
0.0
 11
39.65614086847949
 21
303.5626423538205
 31
0.0
  0
LINE
  5
4554
330
1F
100
AcDbEntity
  8
SPOJOVACÍ
  6
Continuous
100
AcDbLine
 10
42.2773762610816
 20
301.9915754346884
 30
0.0
 11
40.86350905137829
 21
302.604561283836
 31
0.0
  0
LINE
  5
4555
330
1F
100
AcDbEntity
  8
SPOJOVACÍ
  6
Continuous
100
AcDbLine
 10
43.80100421451084
 20
301.7646125438049
 30
0.0
 11
42.2773762610816
 21
301.9915754346884
 31
0.0
  0
LINE
  5
4556
330
1F
100
AcDbEntity
  8
SPOJOVACÍ
  6
Continuous
100
AcDbLine
 10
37.20140694342285
 20
305.515081348888
 30
0.0
 11
38.40133372015429
 21
305.515081348888
 31
0.0
  0
LINE
  5
4557
330
1F
100
AcDbEntity
  8
SPOJOVACÍ
  6
Continuous
100
AcDbLine
 10
37.20140694342285
 20
295.3147735716201
 30
0.0
 11
37.20140694342285
 21
305.515081348888
 31
0.0
  0
LINE
  5
4558
330
1F
100
AcDbEntity
  8
SPOJOVACÍ
  6
Continuous
100
AcDbLine
 10
37.20140694342285
 20
295.3147735716201
 30
0.0
 11
38.40133372015429
 21
295.3147735716201
 31
0.0
  0
LINE
  5
4559
330
1F
100
AcDbEntity
  8
SPOJOVACÍ
  6
Continuous
100
AcDbLine
 10
38.40133372015429
 20
295.3147735716201
 30
0.0
 11
38.40133372015429
 21
305.515081348888
 31
0.0
  0
LINE
  5
455A
330
1F
100
AcDbEntity
  8
SPOJOVACÍ
  6
Continuous
100
AcDbLine
 10
38.73805735803784
 20
304.7997761627202
 30
0.0
 11
38.40133372015429
 21
305.515081348888
 31
0.0
  0
LINE
  5
455B
330
1F
100
AcDbEntity
  8
SPOJOVACÍ
  6
Continuous
100
AcDbLine
 10
39.65614086847949
 20
303.5626423538205
 30
0.0
 11
38.73805735803784
 21
304.7997761627202
 31
0.0
  0
LINE
  5
455C
330
1F
100
AcDbEntity
  8
SPOJOVACÍ
  6
Continuous
100
AcDbLine
 10
43.01407549138843
 20
298.9991998991472
 30
0.0
 11
43.80100421451084
 21
299.0652423810688
 31
0.0
  0
LINE
  5
455D
330
1F
100
AcDbEntity
  8
SPOJOVACÍ
  6
Continuous
100
AcDbLine
 10
41.5332356243382
 20
298.5713190348478
 30
0.0
 11
43.01407549138843
 21
298.9991998991472
 31
0.0
  0
LINE
  5
455E
330
1F
100
AcDbEntity
  8
SPOJOVACÍ
  6
Continuous
100
AcDbLine
 10
40.21424634604068
 20
297.7750885555296
 30
0.0
 11
41.5332356243382
 21
298.5713190348478
 31
0.0
  0
LINE
  5
455F
330
1F
100
AcDbEntity
  8
SPOJOVACÍ
  6
Continuous
100
AcDbLine
 10
39.14547435662848
 20
296.664458655171
 30
0.0
 11
40.21424634604068
 21
297.7750885555296
 31
0.0
  0
LINE
  5
4560
330
1F
100
AcDbEntity
  8
SPOJOVACÍ
  6
Continuous
100
AcDbLine
 10
38.40133372015429
 20
295.3147735716201
 30
0.0
 11
39.14547435662848
 21
296.664458655171
 31
0.0
  0
LINE
  5
4561
330
1F
100
AcDbEntity
  8
SPOJOVACÍ
  6
Continuous
100
AcDbLine
 10
43.80100421451084
 20
301.7646125438049
 30
0.0
 11
48.74395839343947
 21
301.7646125438049
 31
0.0
  0
LINE
  5
4562
330
1F
100
AcDbEntity
  8
SPOJOVACÍ
  6
Continuous
100
AcDbLine
 10
43.80100421451084
 20
299.0652423810688
 30
0.0
 11
47.83889734419085
 21
299.0652423810688
 31
0.0
  0
LINE
  5
4563
330
1F
100
AcDbEntity
  8
SPOJOVACÍ
  6
Continuous
100
AcDbLine
 10
48.43420985336729
 20
299.0652423810688
 30
0.0
 11
50.95312590839625
 21
299.0652423810688
 31
0.0
  0
LINE
  5
4564
330
1F
100
AcDbEntity
  8
SPOJOVACÍ
  6
Continuous
100
AcDbLine
 10
51.55680999971105
 20
299.0652423810688
 30
0.0
 11
54.07758640642009
 21
299.0652423810688
 31
0.0
  0
LINE
  5
4565
330
1F
100
AcDbEntity
  8
SPOJOVACÍ
  6
Continuous
100
AcDbLine
 10
54.67196873989474
 20
299.0652423810688
 30
0.0
 11
57.20018655276385
 21
299.0652423810688
 31
0.0
  0
LINE
  5
4566
330
1F
100
AcDbEntity
  8
SPOJOVACÍ
  6
Continuous
100
AcDbLine
 10
49.34764248475426
 20
301.7646125438049
 30
0.0
 11
51.86655853978322
 21
301.7646125438049
 31
0.0
  0
LINE
  5
4567
330
1F
100
AcDbEntity
  8
SPOJOVACÍ
  6
Continuous
100
AcDbLine
 10
52.46280122493795
 20
301.7646125438049
 30
0.0
 11
54.99101903780706
 21
301.7646125438049
 31
0.0
  0
LINE
  5
4568
330
1F
100
AcDbEntity
  8
SPOJOVACÍ
  6
Continuous
100
AcDbLine
 10
55.5854013712817
 20
301.7646125438049
 30
0.0
 11
58.10617777799075
 21
301.7646125438049
 31
0.0
  0
LINE
  5
4569
330
1F
100
AcDbEntity
  8
SPOJOVACÍ
  6
Continuous
100
AcDbLine
 10
57.80480082004965
 20
299.0652423810688
 30
0.0
 11
60.32278669937682
 21
299.0652423810688
 31
0.0
  0
LINE
  5
456A
330
1F
100
AcDbEntity
  8
SPOJOVACÍ
  6
Continuous
100
AcDbLine
 10
60.91902938453154
 20
299.0652423810688
 30
0.0
 11
62.16639512642018
 21
299.0652423810688
 31
0.0
  0
LINE
  5
456B
330
1F
100
AcDbEntity
  8
SPOJOVACÍ
  6
Continuous
100
AcDbLine
 10
58.70707134192366
 20
301.7646125438049
 30
0.0
 11
61.22598739695263
 21
301.7646125438049
 31
0.0
  0
LINE
  5
456C
330
1F
100
AcDbEntity
  8
SPOJOVACÍ
  6
Continuous
100
AcDbLine
 10
61.82967148853663
 20
301.7646125438049
 30
0.0
 11
62.16639512642018
 21
301.7646125438049
 31
0.0
  0
LINE
  5
456D
330
1F
100
AcDbEntity
  8
SPOJOVACÍ
  6
Continuous
100
AcDbLine
 10
62.16639512642018
 20
299.0652423810688
 30
0.0
 11
63.36353137577702
 21
299.2150006837918
 31
0.0
  0
LINE
  5
456E
330
1F
100
AcDbEntity
  8
SPOJOVACÍ
  6
Continuous
100
AcDbLine
 10
72.96666629137348
 20
300.4149274602541
 30
0.0
 11
70.13056029010499
 21
300.769324441383
 31
0.0
  0
LINE
  5
456F
330
1F
100
AcDbEntity
  8
SPOJOVACÍ
  6
Continuous
100
AcDbLine
 10
63.98395863163045
 20
299.2922052763178
 30
0.0
 11
66.30567741769505
 21
299.5824201258373
 31
0.0
  0
LINE
  5
4570
330
1F
100
AcDbEntity
  8
SPOJOVACÍ
  6
Continuous
100
AcDbLine
 10
66.93633660735963
 20
299.6614850686755
 30
0.0
 11
69.25712521771515
 21
299.9516999138295
 31
0.0
  0
LINE
  5
4571
330
1F
100
AcDbEntity
  8
SPOJOVACÍ
  6
Continuous
100
AcDbLine
 10
69.87755247356858
 20
300.0289045063554
 30
0.0
 11
72.96666629137348
 21
300.4149274602541
 31
0.0
  0
LINE
  5
4572
330
1F
100
AcDbEntity
  8
SPOJOVACÍ
  6
Continuous
100
AcDbLine
 10
69.56129270303813
 20
300.8409479786068
 30
0.0
 11
67.41630731805367
 21
301.1088386069177
 31
0.0
  0
LINE
  5
4573
330
1F
100
AcDbEntity
  8
SPOJOVACÍ
  6
Continuous
100
AcDbLine
 10
66.84424920360493
 20
301.1804621397759
 30
0.0
 11
64.70763540075154
 21
301.4474225951134
 31
0.0
  0
LINE
  5
4574
330
1F
100
AcDbEntity
  8
SPOJOVACÍ
  6
Continuous
100
AcDbLine
 10
64.13743763770639
 20
301.5190461323372
 30
0.0
 11
62.16639512642018
 21
301.7646125438049
 31
0.0
  0
LINE
  5
4575
330
1F
100
AcDbEntity
  8
SPOJOVACÍ
  6
Continuous
100
AcDbLine
 10
48.00167810837615
 20
298.0150739073296
 30
0.0
 11
49.20160488483839
 21
302.8147810131785
 31
0.0
  0
LINE
  5
4576
330
1F
100
AcDbEntity
  8
SPOJOVACÍ
  6
Continuous
100
AcDbLine
 10
48.00167810837615
 20
298.0150739073296
 30
0.0
 11
48.21933924442442
 21
298.3927252826406
 31
0.0
  0
LINE
  5
4577
330
1F
100
AcDbEntity
  8
SPOJOVACÍ
  6
Continuous
100
AcDbLine
 10
48.00167810837615
 20
298.0150739073296
 30
0.0
 11
47.62309655954618
 21
298.3927252826406
 31
0.0
  0
LINE
  5
4578
330
1F
100
AcDbEntity
  8
SPOJOVACÍ
  6
Continuous
100
AcDbLine
 10
49.20160488483839
 20
302.8147810131785
 30
0.0
 11
49.57925625796656
 21
302.4371296422331
 31
0.0
  0
LINE
  5
4579
330
1F
100
AcDbEntity
  8
SPOJOVACÍ
  6
Continuous
100
AcDbLine
 10
49.20160488483839
 20
302.8147810131785
 30
0.0
 11
48.98301357281184
 21
302.4371296422331
 31
0.0
  0
LINE
  5
457A
330
1F
100
AcDbEntity
  8
SPOJOVACÍ
  6
Continuous
100
AcDbLine
 10
48.21933924442442
 20
298.3927252826406
 30
0.0
 11
49.57925625796656
 21
302.4371296422331
 31
0.0
  0
LINE
  5
457B
330
1F
100
AcDbEntity
  8
SPOJOVACÍ
  6
Continuous
100
AcDbLine
 10
47.62309655954618
 20
298.3927252826406
 30
0.0
 11
48.98301357281184
 21
302.4371296422331
 31
0.0
  0
LINE
  5
457C
330
1F
100
AcDbEntity
  8
SPOJOVACÍ
  6
Continuous
100
AcDbLine
 10
51.12148772733803
 20
298.0150739073296
 30
0.0
 11
52.32141450407675
 21
302.8147810131785
 31
0.0
  0
LINE
  5
457D
330
1F
100
AcDbEntity
  8
SPOJOVACÍ
  6
Continuous
100
AcDbLine
 10
51.12148772733803
 20
298.0150739073296
 30
0.0
 11
51.34007903936458
 21
298.3927252826406
 31
0.0
  0
LINE
  5
457E
330
1F
100
AcDbEntity
  8
SPOJOVACÍ
  6
Continuous
100
AcDbLine
 10
51.12148772733803
 20
298.0150739073296
 30
0.0
 11
50.74383635420986
 21
298.3927252826406
 31
0.0
  0
LINE
  5
457F
330
1F
100
AcDbEntity
  8
SPOJOVACÍ
  6
Continuous
100
AcDbLine
 10
52.32141450407675
 20
302.8147810131785
 30
0.0
 11
52.69906587692844
 21
302.4371296422331
 31
0.0
  0
LINE
  5
4580
330
1F
100
AcDbEntity
  8
SPOJOVACÍ
  6
Continuous
100
AcDbLine
 10
52.32141450407675
 20
302.8147810131785
 30
0.0
 11
52.1028231920502
 21
302.4371296422331
 31
0.0
  0
LINE
  5
4581
330
1F
100
AcDbEntity
  8
SPOJOVACÍ
  6
Continuous
100
AcDbLine
 10
51.34007903936458
 20
298.3927252826406
 30
0.0
 11
52.69906587692844
 21
302.4371296422331
 31
0.0
  0
LINE
  5
4582
330
1F
100
AcDbEntity
  8
SPOJOVACÍ
  6
Continuous
100
AcDbLine
 10
50.74383635420986
 20
298.3927252826406
 30
0.0
 11
52.1028231920502
 21
302.4371296422331
 31
0.0
  0
LINE
  5
4583
330
1F
100
AcDbEntity
  8
SPOJOVACÍ
  6
Continuous
100
AcDbLine
 10
63.55886829279938
 20
298.2690119017506
 30
0.0
 11
63.77745960482593
 21
298.6475934500349
 31
0.0
  0
LINE
  5
4584
330
1F
100
AcDbEntity
  8
SPOJOVACÍ
  6
Continuous
100
AcDbLine
 10
63.55886829279938
 20
298.2690119017506
 30
0.0
 11
63.18121691967121
 21
298.6475934500349
 31
0.0
  0
LINE
  5
4585
330
1F
100
AcDbEntity
  8
SPOJOVACÍ
  6
Continuous
100
AcDbLine
 10
64.531832175104
 20
302.3943415544935
 30
0.0
 11
64.91041372421046
 21
302.0166901835481
 31
0.0
  0
LINE
  5
4586
330
1F
100
AcDbEntity
  8
SPOJOVACÍ
  6
Continuous
100
AcDbLine
 10
64.531832175104
 20
302.3943415544935
 30
0.0
 11
64.31417103905573
 21
302.0166901835481
 31
0.0
  0
LINE
  5
4587
330
1F
100
AcDbEntity
  8
SPOJOVACÍ
  6
Continuous
100
AcDbLine
 10
63.77745960482593
 20
298.6475934500349
 30
0.0
 11
64.91041372421046
 21
302.0166901835481
 31
0.0
  0
LINE
  5
4588
330
1F
100
AcDbEntity
  8
SPOJOVACÍ
  6
Continuous
100
AcDbLine
 10
63.18121691967121
 20
298.6475934500349
 30
0.0
 11
64.31417103905573
 21
302.0166901835481
 31
0.0
  0
LINE
  5
4589
330
1F
100
AcDbEntity
  8
SPOJOVACÍ
  6
Continuous
100
AcDbLine
 10
63.55886829279938
 20
298.2690119017506
 30
0.0
 11
64.531832175104
 21
302.3943415544935
 31
0.0
  0
LINE
  5
458A
330
1F
100
AcDbEntity
  8
SPOJOVACÍ
  6
Continuous
100
AcDbLine
 10
66.5735680470973
 20
298.8336286078565
 30
0.0
 11
66.79122918314556
 21
299.2112799831674
 31
0.0
  0
LINE
  5
458B
330
1F
100
AcDbEntity
  8
SPOJOVACÍ
  6
Continuous
100
AcDbLine
 10
66.5735680470973
 20
298.8336286078565
 30
0.0
 11
66.19498649799083
 21
299.2112799831674
 31
0.0
  0
LINE
  5
458C
330
1F
100
AcDbEntity
  8
SPOJOVACÍ
  6
Continuous
100
AcDbLine
 10
67.20701776386727
 20
301.9497175242876
 30
0.0
 11
67.58559931269724
 21
301.5720661533423
 31
0.0
  0
LINE
  5
458D
330
1F
100
AcDbEntity
  8
SPOJOVACÍ
  6
Continuous
100
AcDbLine
 10
67.20701776386727
 20
301.9497175242876
 30
0.0
 11
66.98935662781901
 21
301.5720661533423
 31
0.0
  0
LINE
  5
458E
330
1F
100
AcDbEntity
  8
SPOJOVACÍ
  6
Continuous
100
AcDbLine
 10
66.79122918314556
 20
299.2112799831674
 30
0.0
 11
67.58559931269724
 21
301.5720661533423
 31
0.0
  0
LINE
  5
458F
330
1F
100
AcDbEntity
  8
SPOJOVACÍ
  6
Continuous
100
AcDbLine
 10
66.19498649799083
 20
299.2112799831674
 30
0.0
 11
66.98935662781901
 21
301.5720661533423
 31
0.0
  0
LINE
  5
4590
330
1F
100
AcDbEntity
  8
SPOJOVACÍ
  6
Continuous
100
AcDbLine
 10
66.5735680470973
 20
298.8336286078565
 30
0.0
 11
67.20701776386727
 21
301.9497175242876
 31
0.0
  0
LINE
  5
4591
330
1F
100
AcDbEntity
  8
SPOJOVACÍ
  6
Continuous
100
AcDbLine
 10
69.58733762541692
 20
299.3982453183279
 30
0.0
 11
69.80592893743619
 21
299.7758966892733
 31
0.0
  0
LINE
  5
4592
330
1F
100
AcDbEntity
  8
SPOJOVACÍ
  6
Continuous
100
AcDbLine
 10
69.58733762541692
 20
299.3982453183279
 30
0.0
 11
69.20968625228875
 21
299.7758966892733
 31
0.0
  0
LINE
  5
4593
330
1F
100
AcDbEntity
  8
SPOJOVACÍ
  6
Continuous
100
AcDbLine
 10
69.89801634119089
 20
301.5525324597847
 30
0.0
 11
70.27659789002086
 21
301.1748810888393
 31
0.0
  0
LINE
  5
4594
330
1F
100
AcDbEntity
  8
SPOJOVACÍ
  6
Continuous
100
AcDbLine
 10
69.89801634119089
 20
301.5525324597847
 30
0.0
 11
69.68035520487342
 21
301.1748810888393
 31
0.0
  0
LINE
  5
4595
330
1F
100
AcDbEntity
  8
SPOJOVACÍ
  6
Continuous
100
AcDbLine
 10
69.80592893743619
 20
299.7758966892733
 30
0.0
 11
70.27659789002086
 21
301.1748810888393
 31
0.0
  0
LINE
  5
4596
330
1F
100
AcDbEntity
  8
SPOJOVACÍ
  6
Continuous
100
AcDbLine
 10
69.20968625228875
 20
299.7758966892733
 30
0.0
 11
69.68035520487342
 21
301.1748810888393
 31
0.0
  0
LINE
  5
4597
330
1F
100
AcDbEntity
  8
SPOJOVACÍ
  6
Continuous
100
AcDbLine
 10
69.58733762541692
 20
299.3982453183279
 30
0.0
 11
69.89801634119089
 21
301.5525324597847
 31
0.0
  0
LINE
  5
4598
330
1F
100
AcDbEntity
  8
SPOJOVACÍ
  6
Continuous
100
AcDbLine
 10
54.2412973465764
 20
298.0150739073296
 30
0.0
 11
55.44122412303863
 21
302.8147810131785
 31
0.0
  0
LINE
  5
4599
330
1F
100
AcDbEntity
  8
SPOJOVACÍ
  6
Continuous
100
AcDbLine
 10
54.2412973465764
 20
298.0150739073296
 30
0.0
 11
54.45988865860295
 21
298.3927252826406
 31
0.0
  0
LINE
  5
459A
330
1F
100
AcDbEntity
  8
SPOJOVACÍ
  6
Continuous
100
AcDbLine
 10
54.2412973465764
 20
298.0150739073296
 30
0.0
 11
53.86364597344822
 21
298.3927252826406
 31
0.0
  0
LINE
  5
459B
330
1F
100
AcDbEntity
  8
SPOJOVACÍ
  6
Continuous
100
AcDbLine
 10
55.44122412303863
 20
302.8147810131785
 30
0.0
 11
55.8198056718686
 21
302.4371296422331
 31
0.0
  0
LINE
  5
459C
330
1F
100
AcDbEntity
  8
SPOJOVACÍ
  6
Continuous
100
AcDbLine
 10
55.44122412303863
 20
302.8147810131785
 30
0.0
 11
55.22356298672116
 21
302.4371296422331
 31
0.0
  0
LINE
  5
459D
330
1F
100
AcDbEntity
  8
SPOJOVACÍ
  6
Continuous
100
AcDbLine
 10
54.45988865860295
 20
298.3927252826406
 30
0.0
 11
55.8198056718686
 21
302.4371296422331
 31
0.0
  0
LINE
  5
459E
330
1F
100
AcDbEntity
  8
SPOJOVACÍ
  6
Continuous
100
AcDbLine
 10
53.86364597344822
 20
298.3927252826406
 30
0.0
 11
55.22356298672116
 21
302.4371296422331
 31
0.0
  0
LINE
  5
459F
330
1F
100
AcDbEntity
  8
SPOJOVACÍ
  6
Continuous
100
AcDbLine
 10
57.36110696554556
 20
298.0150739073296
 30
0.0
 11
58.56103374200779
 21
302.8147810131785
 31
0.0
  0
LINE
  5
45A0
330
1F
100
AcDbEntity
  8
SPOJOVACÍ
  6
Continuous
100
AcDbLine
 10
57.36110696554556
 20
298.0150739073296
 30
0.0
 11
57.57969827756483
 21
298.3927252826406
 31
0.0
  0
LINE
  5
45A1
330
1F
100
AcDbEntity
  8
SPOJOVACÍ
  6
Continuous
100
AcDbLine
 10
57.36110696554556
 20
298.0150739073296
 30
0.0
 11
56.98345559241738
 21
298.3927252826406
 31
0.0
  0
LINE
  5
45A2
330
1F
100
AcDbEntity
  8
SPOJOVACÍ
  6
Continuous
100
AcDbLine
 10
58.56103374200779
 20
302.8147810131785
 30
0.0
 11
58.93961529083776
 21
302.4371296422331
 31
0.0
  0
LINE
  5
45A3
330
1F
100
AcDbEntity
  8
SPOJOVACÍ
  6
Continuous
100
AcDbLine
 10
58.56103374200779
 20
302.8147810131785
 30
0.0
 11
58.34337260595953
 21
302.4371296422331
 31
0.0
  0
LINE
  5
45A4
330
1F
100
AcDbEntity
  8
SPOJOVACÍ
  6
Continuous
100
AcDbLine
 10
57.57969827756483
 20
298.3927252826406
 30
0.0
 11
58.93961529083776
 21
302.4371296422331
 31
0.0
  0
LINE
  5
45A5
330
1F
100
AcDbEntity
  8
SPOJOVACÍ
  6
Continuous
100
AcDbLine
 10
56.98345559241738
 20
298.3927252826406
 30
0.0
 11
58.34337260595953
 21
302.4371296422331
 31
0.0
  0
LINE
  5
45A6
330
1F
100
AcDbEntity
  8
SPOJOVACÍ
  6
Continuous
100
AcDbLine
 10
60.48184676048572
 20
298.0150739073296
 30
0.0
 11
61.68177353694796
 21
302.8147810131785
 31
0.0
  0
LINE
  5
45A7
330
1F
100
AcDbEntity
  8
SPOJOVACÍ
  6
Continuous
100
AcDbLine
 10
60.48184676048572
 20
298.0150739073296
 30
0.0
 11
60.69950789653399
 21
298.3927252826406
 31
0.0
  0
LINE
  5
45A8
330
1F
100
AcDbEntity
  8
SPOJOVACÍ
  6
Continuous
100
AcDbLine
 10
60.48184676048572
 20
298.0150739073296
 30
0.0
 11
60.10326521137926
 21
298.3927252826406
 31
0.0
  0
LINE
  5
45A9
330
1F
100
AcDbEntity
  8
SPOJOVACÍ
  6
Continuous
100
AcDbLine
 10
61.68177353694796
 20
302.8147810131785
 30
0.0
 11
62.05942491007613
 21
302.4371296422331
 31
0.0
  0
LINE
  5
45AA
330
1F
100
AcDbEntity
  8
SPOJOVACÍ
  6
Continuous
100
AcDbLine
 10
61.68177353694796
 20
302.8147810131785
 30
0.0
 11
61.46318222492141
 21
302.4371296422331
 31
0.0
  0
LINE
  5
45AB
330
1F
100
AcDbEntity
  8
SPOJOVACÍ
  6
Continuous
100
AcDbLine
 10
60.69950789653399
 20
298.3927252826406
 30
0.0
 11
62.05942491007613
 21
302.4371296422331
 31
0.0
  0
LINE
  5
45AC
330
1F
100
AcDbEntity
  8
SPOJOVACÍ
  6
Continuous
100
AcDbLine
 10
60.10326521137926
 20
298.3927252826406
 30
0.0
 11
61.46318222492141
 21
302.4371296422331
 31
0.0
  0
LINE
  5
45AD
330
1F
100
AcDbEntity
  8
SPOJOVACÍ
  6
Continuous
100
AcDbLine
 10
89.53180296021697
 20
298.3927252826406
 30
0.0
 11
88.17188594667483
 21
302.4371296422331
 31
0.0
  0
LINE
  5
45AE
330
1F
100
AcDbEntity
  8
SPOJOVACÍ
  6
Continuous
100
AcDbLine
 10
88.93556027506225
 20
298.3927252826406
 30
0.0
 11
87.5756432615201
 21
302.4371296422331
 31
0.0
  0
LINE
  5
45AF
330
1F
100
AcDbEntity
  8
SPOJOVACÍ
  6
Continuous
100
AcDbLine
 10
87.95329463464828
 20
302.8147810131785
 30
0.0
 11
88.17188594667483
 21
302.4371296422331
 31
0.0
  0
LINE
  5
45B0
330
1F
100
AcDbEntity
  8
SPOJOVACÍ
  6
Continuous
100
AcDbLine
 10
87.95329463464828
 20
302.8147810131785
 30
0.0
 11
87.5756432615201
 21
302.4371296422331
 31
0.0
  0
LINE
  5
45B1
330
1F
100
AcDbEntity
  8
SPOJOVACÍ
  6
Continuous
100
AcDbLine
 10
89.15322141111051
 20
298.0150739073296
 30
0.0
 11
89.53180296021697
 21
298.3927252826406
 31
0.0
  0
LINE
  5
45B2
330
1F
100
AcDbEntity
  8
SPOJOVACÍ
  6
Continuous
100
AcDbLine
 10
89.15322141111051
 20
298.0150739073296
 30
0.0
 11
88.93556027506225
 21
298.3927252826406
 31
0.0
  0
LINE
  5
45B3
330
1F
100
AcDbEntity
  8
SPOJOVACÍ
  6
Continuous
100
AcDbLine
 10
89.15322141111051
 20
298.0150739073296
 30
0.0
 11
87.95329463464828
 21
302.8147810131785
 31
0.0
  0
LINE
  5
45B4
330
1F
100
AcDbEntity
  8
SPOJOVACÍ
  6
Continuous
100
AcDbLine
 10
92.65161257917885
 20
298.3927252826406
 30
0.0
 11
91.2916955656367
 21
302.4371296422331
 31
0.0
  0
LINE
  5
45B5
330
1F
100
AcDbEntity
  8
SPOJOVACÍ
  6
Continuous
100
AcDbLine
 10
92.05536989403141
 20
298.3927252826406
 30
0.0
 11
90.69545288075847
 21
302.4371296422331
 31
0.0
  0
LINE
  5
45B6
330
1F
100
AcDbEntity
  8
SPOJOVACÍ
  6
Continuous
100
AcDbLine
 10
91.07403442958844
 20
302.8147810131785
 30
0.0
 11
91.2916955656367
 21
302.4371296422331
 31
0.0
  0
LINE
  5
45B7
330
1F
100
AcDbEntity
  8
SPOJOVACÍ
  6
Continuous
100
AcDbLine
 10
91.07403442958844
 20
302.8147810131785
 30
0.0
 11
90.69545288075847
 21
302.4371296422331
 31
0.0
  0
LINE
  5
45B8
330
1F
100
AcDbEntity
  8
SPOJOVACÍ
  6
Continuous
100
AcDbLine
 10
92.27396120605067
 20
298.0150739073296
 30
0.0
 11
92.65161257917885
 21
298.3927252826406
 31
0.0
  0
LINE
  5
45B9
330
1F
100
AcDbEntity
  8
SPOJOVACÍ
  6
Continuous
100
AcDbLine
 10
92.27396120605067
 20
298.0150739073296
 30
0.0
 11
92.05536989403141
 21
298.3927252826406
 31
0.0
  0
LINE
  5
45BA
330
1F
100
AcDbEntity
  8
SPOJOVACÍ
  6
Continuous
100
AcDbLine
 10
92.27396120605067
 20
298.0150739073296
 30
0.0
 11
91.07403442958844
 21
302.8147810131785
 31
0.0
  0
LINE
  5
45BB
330
1F
100
AcDbEntity
  8
SPOJOVACÍ
  6
Continuous
100
AcDbLine
 10
95.77142219814801
 20
298.3927252826406
 30
0.0
 11
94.41150518487507
 21
302.4371296422331
 31
0.0
  0
LINE
  5
45BC
330
1F
100
AcDbEntity
  8
SPOJOVACÍ
  6
Continuous
100
AcDbLine
 10
95.17517951299328
 20
298.3927252826406
 30
0.0
 11
93.81526249972763
 21
302.4371296422331
 31
0.0
  0
LINE
  5
45BD
330
1F
100
AcDbEntity
  8
SPOJOVACÍ
  6
Continuous
100
AcDbLine
 10
94.1938440485576
 20
302.8147810131785
 30
0.0
 11
94.41150518487507
 21
302.4371296422331
 31
0.0
  0
LINE
  5
45BE
330
1F
100
AcDbEntity
  8
SPOJOVACÍ
  6
Continuous
100
AcDbLine
 10
94.1938440485576
 20
302.8147810131785
 30
0.0
 11
93.81526249972763
 21
302.4371296422331
 31
0.0
  0
LINE
  5
45BF
330
1F
100
AcDbEntity
  8
SPOJOVACÍ
  6
Continuous
100
AcDbLine
 10
95.39377082501983
 20
298.0150739073296
 30
0.0
 11
95.77142219814801
 21
298.3927252826406
 31
0.0
  0
LINE
  5
45C0
330
1F
100
AcDbEntity
  8
SPOJOVACÍ
  6
Continuous
100
AcDbLine
 10
95.39377082501983
 20
298.0150739073296
 30
0.0
 11
95.17517951299328
 21
298.3927252826406
 31
0.0
  0
LINE
  5
45C1
330
1F
100
AcDbEntity
  8
SPOJOVACÍ
  6
Continuous
100
AcDbLine
 10
95.39377082501983
 20
298.0150739073296
 30
0.0
 11
94.1938440485576
 21
302.8147810131785
 31
0.0
  0
LINE
  5
45C2
330
1F
100
AcDbEntity
  8
SPOJOVACÍ
  6
Continuous
100
AcDbLine
 10
80.04773054617931
 20
299.3982453183279
 30
0.0
 11
79.73705183040533
 21
301.5525324597847
 31
0.0
  0
LINE
  5
45C3
330
1F
100
AcDbEntity
  8
SPOJOVACÍ
  6
Continuous
100
AcDbLine
 10
80.42538191930749
 20
299.7758966892733
 30
0.0
 11
79.95471296672281
 21
301.1748810888393
 31
0.0
  0
LINE
  5
45C4
330
1F
100
AcDbEntity
  8
SPOJOVACÍ
  6
Continuous
100
AcDbLine
 10
79.82913923416004
 20
299.7758966892733
 30
0.0
 11
79.35847028157536
 21
301.1748810888393
 31
0.0
  0
LINE
  5
45C5
330
1F
100
AcDbEntity
  8
SPOJOVACÍ
  6
Continuous
100
AcDbLine
 10
79.73705183040533
 20
301.5525324597847
 30
0.0
 11
79.95471296672281
 21
301.1748810888393
 31
0.0
  0
LINE
  5
45C6
330
1F
100
AcDbEntity
  8
SPOJOVACÍ
  6
Continuous
100
AcDbLine
 10
79.73705183040533
 20
301.5525324597847
 30
0.0
 11
79.35847028157536
 21
301.1748810888393
 31
0.0
  0
LINE
  5
45C7
330
1F
100
AcDbEntity
  8
SPOJOVACÍ
  6
Continuous
100
AcDbLine
 10
80.04773054617931
 20
299.3982453183279
 30
0.0
 11
80.42538191930749
 21
299.7758966892733
 31
0.0
  0
LINE
  5
45C8
330
1F
100
AcDbEntity
  8
SPOJOVACÍ
  6
Continuous
100
AcDbLine
 10
80.04773054617931
 20
299.3982453183279
 30
0.0
 11
79.82913923416004
 21
299.7758966892733
 31
0.0
  0
LINE
  5
45C9
330
1F
100
AcDbEntity
  8
SPOJOVACÍ
  6
Continuous
100
AcDbLine
 10
83.06150012449894
 20
298.8336286078565
 30
0.0
 11
82.42805040772896
 21
301.9497175242876
 31
0.0
  0
LINE
  5
45CA
330
1F
100
AcDbEntity
  8
SPOJOVACÍ
  6
Continuous
100
AcDbLine
 10
83.4400816736054
 20
299.2112799831674
 30
0.0
 11
82.64571154377723
 21
301.5720661533423
 31
0.0
  0
LINE
  5
45CB
330
1F
100
AcDbEntity
  8
SPOJOVACÍ
  6
Continuous
100
AcDbLine
 10
82.84383898845067
 20
299.2112799831674
 30
0.0
 11
82.04946885889899
 21
301.5720661533423
 31
0.0
  0
LINE
  5
45CC
330
1F
100
AcDbEntity
  8
SPOJOVACÍ
  6
Continuous
100
AcDbLine
 10
82.42805040772896
 20
301.9497175242876
 30
0.0
 11
82.64571154377723
 21
301.5720661533423
 31
0.0
  0
LINE
  5
45CD
330
1F
100
AcDbEntity
  8
SPOJOVACÍ
  6
Continuous
100
AcDbLine
 10
82.42805040772896
 20
301.9497175242876
 30
0.0
 11
82.04946885889899
 21
301.5720661533423
 31
0.0
  0
LINE
  5
45CE
330
1F
100
AcDbEntity
  8
SPOJOVACÍ
  6
Continuous
100
AcDbLine
 10
83.06150012449894
 20
298.8336286078565
 30
0.0
 11
83.4400816736054
 21
299.2112799831674
 31
0.0
  0
LINE
  5
45CF
330
1F
100
AcDbEntity
  8
SPOJOVACÍ
  6
Continuous
100
AcDbLine
 10
83.06150012449894
 20
298.8336286078565
 30
0.0
 11
82.84383898845067
 21
299.2112799831674
 31
0.0
  0
LINE
  5
45D0
330
1F
100
AcDbEntity
  8
SPOJOVACÍ
  6
Continuous
100
AcDbLine
 10
86.07619987879685
 20
298.2690119017506
 30
0.0
 11
85.10323599649224
 21
302.3943415544935
 31
0.0
  0
LINE
  5
45D1
330
1F
100
AcDbEntity
  8
SPOJOVACÍ
  6
Continuous
100
AcDbLine
 10
86.45385125192502
 20
298.6475934500349
 30
0.0
 11
85.3208971325405
 21
302.0166901835481
 31
0.0
  0
LINE
  5
45D2
330
1F
100
AcDbEntity
  8
SPOJOVACÍ
  6
Continuous
100
AcDbLine
 10
85.8576085667703
 20
298.6475934500349
 30
0.0
 11
84.72465444738578
 21
302.0166901835481
 31
0.0
  0
LINE
  5
45D3
330
1F
100
AcDbEntity
  8
SPOJOVACÍ
  6
Continuous
100
AcDbLine
 10
85.10323599649224
 20
302.3943415544935
 30
0.0
 11
85.3208971325405
 21
302.0166901835481
 31
0.0
  0
LINE
  5
45D4
330
1F
100
AcDbEntity
  8
SPOJOVACÍ
  6
Continuous
100
AcDbLine
 10
85.10323599649224
 20
302.3943415544935
 30
0.0
 11
84.72465444738578
 21
302.0166901835481
 31
0.0
  0
LINE
  5
45D5
330
1F
100
AcDbEntity
  8
SPOJOVACÍ
  6
Continuous
100
AcDbLine
 10
86.07619987879685
 20
298.2690119017506
 30
0.0
 11
86.45385125192502
 21
298.6475934500349
 31
0.0
  0
LINE
  5
45D6
330
1F
100
AcDbEntity
  8
SPOJOVACÍ
  6
Continuous
100
AcDbLine
 10
86.07619987879685
 20
298.2690119017506
 30
0.0
 11
85.8576085667703
 21
298.6475934500349
 31
0.0
  0
LINE
  5
45D7
330
1F
100
AcDbEntity
  8
SPOJOVACÍ
  6
Continuous
100
AcDbLine
 10
98.89123181738638
 20
298.3927252826406
 30
0.0
 11
97.53224497954603
 21
302.4371296422331
 31
0.0
  0
LINE
  5
45D8
330
1F
100
AcDbEntity
  8
SPOJOVACÍ
  6
Continuous
100
AcDbLine
 10
98.29498913223165
 20
298.3927252826406
 30
0.0
 11
96.93600229466779
 21
302.4371296422331
 31
0.0
  0
LINE
  5
45D9
330
1F
100
AcDbEntity
  8
SPOJOVACÍ
  6
Continuous
100
AcDbLine
 10
97.31365366751948
 20
302.8147810131785
 30
0.0
 11
97.53224497954603
 21
302.4371296422331
 31
0.0
  0
LINE
  5
45DA
330
1F
100
AcDbEntity
  8
SPOJOVACÍ
  6
Continuous
100
AcDbLine
 10
97.31365366751948
 20
302.8147810131785
 30
0.0
 11
96.93600229466779
 21
302.4371296422331
 31
0.0
  0
LINE
  5
45DB
330
1F
100
AcDbEntity
  8
SPOJOVACÍ
  6
Continuous
100
AcDbLine
 10
98.5135804442582
 20
298.0150739073296
 30
0.0
 11
98.89123181738638
 21
298.3927252826406
 31
0.0
  0
LINE
  5
45DC
330
1F
100
AcDbEntity
  8
SPOJOVACÍ
  6
Continuous
100
AcDbLine
 10
98.5135804442582
 20
298.0150739073296
 30
0.0
 11
98.29498913223165
 21
298.3927252826406
 31
0.0
  0
LINE
  5
45DD
330
1F
100
AcDbEntity
  8
SPOJOVACÍ
  6
Continuous
100
AcDbLine
 10
98.5135804442582
 20
298.0150739073296
 30
0.0
 11
97.31365366751948
 21
302.8147810131785
 31
0.0
  0
LINE
  5
45DE
330
1F
100
AcDbEntity
  8
SPOJOVACÍ
  6
Continuous
100
AcDbLine
 10
102.01197161205
 20
298.3927252826406
 30
0.0
 11
100.6520545987843
 21
302.4371296422331
 31
0.0
  0
LINE
  5
45DF
330
1F
100
AcDbEntity
  8
SPOJOVACÍ
  6
Continuous
100
AcDbLine
 10
101.4157289271718
 20
298.3927252826406
 30
0.0
 11
100.0558119136296
 21
302.4371296422331
 31
0.0
  0
LINE
  5
45E0
330
1F
100
AcDbEntity
  8
SPOJOVACÍ
  6
Continuous
100
AcDbLine
 10
100.4334632867578
 20
302.8147810131785
 30
0.0
 11
100.6520545987843
 21
302.4371296422331
 31
0.0
  0
LINE
  5
45E1
330
1F
100
AcDbEntity
  8
SPOJOVACÍ
  6
Continuous
100
AcDbLine
 10
100.4334632867578
 20
302.8147810131785
 30
0.0
 11
100.0558119136296
 21
302.4371296422331
 31
0.0
  0
LINE
  5
45E2
330
1F
100
AcDbEntity
  8
SPOJOVACÍ
  6
Continuous
100
AcDbLine
 10
101.63339006322
 20
298.0150739073296
 30
0.0
 11
102.01197161205
 21
298.3927252826406
 31
0.0
  0
LINE
  5
45E3
330
1F
100
AcDbEntity
  8
SPOJOVACÍ
  6
Continuous
100
AcDbLine
 10
101.63339006322
 20
298.0150739073296
 30
0.0
 11
101.4157289271718
 21
298.3927252826406
 31
0.0
  0
LINE
  5
45E4
330
1F
100
AcDbEntity
  8
SPOJOVACÍ
  6
Continuous
100
AcDbLine
 10
101.63339006322
 20
298.0150739073296
 30
0.0
 11
100.4334632867578
 21
302.8147810131785
 31
0.0
  0
LINE
  5
45E5
330
1F
100
AcDbEntity
  8
SPOJOVACÍ
  6
Continuous
100
AcDbLine
 10
85.49763053388984
 20
301.5190461323372
 30
0.0
 11
87.46867304517605
 21
301.7646125438049
 31
0.0
  0
LINE
  5
45E6
330
1F
100
AcDbEntity
  8
SPOJOVACÍ
  6
Continuous
100
AcDbLine
 10
82.7908189679913
 20
301.1804621397759
 30
0.0
 11
84.92743277084469
 21
301.4474225951134
 31
0.0
  0
LINE
  5
45E7
330
1F
100
AcDbEntity
  8
SPOJOVACÍ
  6
Continuous
100
AcDbLine
 10
80.0737754685581
 20
300.8409479786068
 30
0.0
 11
82.21876085354256
 21
301.1088386069177
 31
0.0
  0
LINE
  5
45E8
330
1F
100
AcDbEntity
  8
SPOJOVACÍ
  6
Continuous
100
AcDbLine
 10
79.75751569802764
 20
300.0289045063554
 30
0.0
 11
76.66840188022274
 21
300.4149274602541
 31
0.0
  0
LINE
  5
45E9
330
1F
100
AcDbEntity
  8
SPOJOVACÍ
  6
Continuous
100
AcDbLine
 10
82.6987315642366
 20
299.6614850686755
 30
0.0
 11
80.37794295388108
 21
299.9516999138295
 31
0.0
  0
LINE
  5
45EA
330
1F
100
AcDbEntity
  8
SPOJOVACÍ
  6
Continuous
100
AcDbLine
 10
85.65110953996578
 20
299.2922052763178
 30
0.0
 11
83.32939075390118
 21
299.5824201258373
 31
0.0
  0
LINE
  5
45EB
330
1F
100
AcDbEntity
  8
SPOJOVACÍ
  6
Continuous
100
AcDbLine
 10
76.66840188022274
 20
300.4149274602541
 30
0.0
 11
79.50450788149123
 21
300.769324441383
 31
0.0
  0
LINE
  5
45EC
330
1F
100
AcDbEntity
  8
SPOJOVACÍ
  6
Continuous
100
AcDbLine
 10
87.46867304517605
 20
299.0652423810688
 30
0.0
 11
86.27153679581921
 21
299.2150006837918
 31
0.0
  0
LINE
  5
45ED
330
1F
100
AcDbEntity
  8
SPOJOVACÍ
  6
Continuous
100
AcDbLine
 10
87.8053966830596
 20
301.7646125438049
 30
0.0
 11
87.46867304517605
 21
301.7646125438049
 31
0.0
  0
LINE
  5
45EE
330
1F
100
AcDbEntity
  8
SPOJOVACÍ
  6
Continuous
100
AcDbLine
 10
90.92799682967257
 20
301.7646125438049
 30
0.0
 11
88.4090807746436
 21
301.7646125438049
 31
0.0
  0
LINE
  5
45EF
330
1F
100
AcDbEntity
  8
SPOJOVACÍ
  6
Continuous
100
AcDbLine
 10
88.71603878706469
 20
299.0652423810688
 30
0.0
 11
87.46867304517605
 21
299.0652423810688
 31
0.0
  0
LINE
  5
45F0
330
1F
100
AcDbEntity
  8
SPOJOVACÍ
  6
Continuous
100
AcDbLine
 10
91.83026735154658
 20
299.0652423810688
 30
0.0
 11
89.31228147221942
 21
299.0652423810688
 31
0.0
  0
LINE
  5
45F1
330
1F
100
AcDbEntity
  8
SPOJOVACÍ
  6
Continuous
100
AcDbLine
 10
94.04966680031453
 20
301.7646125438049
 30
0.0
 11
91.52889039360548
 21
301.7646125438049
 31
0.0
  0
LINE
  5
45F2
330
1F
100
AcDbEntity
  8
SPOJOVACÍ
  6
Continuous
100
AcDbLine
 10
97.17226694665829
 20
301.7646125438049
 30
0.0
 11
94.64404913378917
 21
301.7646125438049
 31
0.0
  0
LINE
  5
45F3
330
1F
100
AcDbEntity
  8
SPOJOVACÍ
  6
Continuous
100
AcDbLine
 10
100.2874256868419
 20
301.7646125438049
 30
0.0
 11
97.76850963181301
 21
301.7646125438049
 31
0.0
  0
LINE
  5
45F4
330
1F
100
AcDbEntity
  8
SPOJOVACÍ
  6
Continuous
100
AcDbLine
 10
94.9630994317015
 20
299.0652423810688
 30
0.0
 11
92.43488161883238
 21
299.0652423810688
 31
0.0
  0
LINE
  5
45F5
330
1F
100
AcDbEntity
  8
SPOJOVACÍ
  6
Continuous
100
AcDbLine
 10
98.07825817188518
 20
299.0652423810688
 30
0.0
 11
95.55748176517614
 21
299.0652423810688
 31
0.0
  0
LINE
  5
45F6
330
1F
100
AcDbEntity
  8
SPOJOVACÍ
  6
Continuous
100
AcDbLine
 10
101.2008583182289
 20
299.0652423810688
 30
0.0
 11
98.68194226319998
 21
299.0652423810688
 31
0.0
  0
LINE
  5
45F7
330
1F
100
AcDbEntity
  8
SPOJOVACÍ
  6
Continuous
100
AcDbLine
 10
105.8340639570853
 20
299.0652423810688
 30
0.0
 11
101.7961708274053
 21
299.0652423810688
 31
0.0
  0
LINE
  5
45F8
330
1F
100
AcDbEntity
  8
SPOJOVACÍ
  6
Continuous
100
AcDbLine
 10
105.8340639570853
 20
301.7646125438049
 30
0.0
 11
100.8911097781567
 21
301.7646125438049
 31
0.0
  0
LINE
  5
45F9
330
1F
100
AcDbEntity
  8
SPOJOVACÍ
  6
Continuous
100
AcDbLine
 10
111.2337344514419
 20
295.3147735716201
 30
0.0
 11
110.4895938149677
 21
296.664458655171
 31
0.0
  0
LINE
  5
45FA
330
1F
100
AcDbEntity
  8
SPOJOVACÍ
  6
Continuous
100
AcDbLine
 10
110.4895938149677
 20
296.664458655171
 30
0.0
 11
109.4208218255555
 21
297.7750885555296
 31
0.0
  0
LINE
  5
45FB
330
1F
100
AcDbEntity
  8
SPOJOVACÍ
  6
Continuous
100
AcDbLine
 10
109.4208218255555
 20
297.7750885555296
 30
0.0
 11
108.101832547258
 21
298.5713190348478
 31
0.0
  0
LINE
  5
45FC
330
1F
100
AcDbEntity
  8
SPOJOVACÍ
  6
Continuous
100
AcDbLine
 10
108.101832547258
 20
298.5713190348478
 30
0.0
 11
106.6209926802077
 21
298.9991998991472
 31
0.0
  0
LINE
  5
45FD
330
1F
100
AcDbEntity
  8
SPOJOVACÍ
  6
Continuous
100
AcDbLine
 10
106.6209926802077
 20
298.9991998991472
 30
0.0
 11
105.8340639570853
 21
299.0652423810688
 31
0.0
  0
LINE
  5
45FE
330
1F
100
AcDbEntity
  8
SPOJOVACÍ
  6
Continuous
100
AcDbLine
 10
109.9789273031167
 20
303.5626423538205
 30
0.0
 11
110.8970108135583
 21
304.7997761627202
 31
0.0
  0
LINE
  5
45FF
330
1F
100
AcDbEntity
  8
SPOJOVACÍ
  6
Continuous
100
AcDbLine
 10
110.8970108135583
 20
304.7997761627202
 30
0.0
 11
111.2337344514419
 21
305.515081348888
 31
0.0
  0
LINE
  5
4600
330
1F
100
AcDbEntity
  8
SPOJOVACÍ
  6
Continuous
100
AcDbLine
 10
111.2337344514419
 20
295.3147735716201
 30
0.0
 11
111.2337344514419
 21
305.515081348888
 31
0.0
  0
LINE
  5
4601
330
1F
100
AcDbEntity
  8
SPOJOVACÍ
  6
Continuous
100
AcDbLine
 10
112.4336612281733
 20
295.3147735716201
 30
0.0
 11
111.2337344514419
 21
295.3147735716201
 31
0.0
  0
LINE
  5
4602
330
1F
100
AcDbEntity
  8
SPOJOVACÍ
  6
Continuous
100
AcDbLine
 10
112.4336612281733
 20
295.3147735716201
 30
0.0
 11
112.4336612281733
 21
305.515081348888
 31
0.0
  0
LINE
  5
4603
330
1F
100
AcDbEntity
  8
SPOJOVACÍ
  6
Continuous
100
AcDbLine
 10
112.4336612281733
 20
305.515081348888
 30
0.0
 11
111.2337344514419
 21
305.515081348888
 31
0.0
  0
LINE
  5
4604
330
1F
100
AcDbEntity
  8
SPOJOVACÍ
  6
Continuous
100
AcDbLine
 10
105.8340639570853
 20
301.7646125438049
 30
0.0
 11
107.3576919105146
 21
301.9915754346884
 31
0.0
  0
LINE
  5
4605
330
1F
100
AcDbEntity
  8
SPOJOVACÍ
  6
Continuous
100
AcDbLine
 10
107.3576919105146
 20
301.9915754346884
 30
0.0
 11
108.7715591202179
 21
302.604561283836
 31
0.0
  0
LINE
  5
4606
330
1F
100
AcDbEntity
  8
SPOJOVACÍ
  6
Continuous
100
AcDbLine
 10
108.7715591202179
 20
302.604561283836
 30
0.0
 11
109.9789273031167
 21
303.5626423538205
 31
0.0
  0
TEXT
  5
4607
330
1F
100
AcDbEntity
  8
POPIS
100
AcDbText
 10
187.6722173436321
 20
178.5725786358588
 30
0.0
 40
25.0
  1
04
 41
0.85
  7
SIMPLEX7
100
AcDbText
  0
TEXT
  5
4608
330
1F
100
AcDbEntity
  8
POPIS
100
AcDbText
 10
187.6722173436321
 20
229.63363124871
 30
0.0
 40
25.0
  1
03
 41
0.85
  7
SIMPLEX7
100
AcDbText
  0
TEXT
  5
4609
330
1F
100
AcDbEntity
  8
POPIS
100
AcDbText
 10
187.6722173436321
 20
287.147384526207
 30
0.0
 40
25.0
  1
02
 41
0.85
  7
SIMPLEX7
100
AcDbText
  0
TEXT
  5
460A
330
1F
100
AcDbEntity
  8
POPIS
100
AcDbText
 10
187.6722173436321
 20
332.6234079179475
 30
0.0
 40
25.0
  1
01
 41
0.85
  7
SIMPLEX7
100
AcDbText
  0
LINE
  5
460B
330
1F
100
AcDbEntity
  8
POPIS
100
AcDbLine
 10
182.5160061323406
 20
343.3166374520196
 30
0.0
 11
112.8219896100274
 21
343.3166374520196
 31
0.0
  0
LINE
  5
460C
330
1F
100
AcDbEntity
  8
POPIS
100
AcDbLine
 10
182.5160061323406
 20
300.4232002886246
 30
0.0
 11
112.8219896100274
 21
300.4232002886246
 31
0.0
  0
LINE
  5
460D
330
1F
100
AcDbEntity
  8
POPIS
100
AcDbLine
 10
182.5160061323406
 20
241.3989178299134
 30
0.0
 11
75.82346345813153
 21
241.3989178299134
 31
0.0
  0
LINE
  5
460E
330
1F
100
AcDbEntity
  8
POPIS
100
AcDbLine
 10
182.5160061323406
 20
189.3410017136674
 30
0.0
 11
94.34309987279652
 21
189.3410017136674
 31
0.0
  0
INSERT
  5
460F
330
1F
100
AcDbEntity
  8
POPIS
100
AcDbBlockReference
  2
E_PUNKT
 10
111.2046661205679
 20
300.4425378358809
 30
0.0
 50
270.0
  0
INSERT
  5
4610
330
1F
100
AcDbEntity
  8
POPIS
100
AcDbBlockReference
  2
E_PUNKT
 10
74.54439512725753
 20
241.4265282055402
 30
0.0
 50
270.0
  0
INSERT
  5
4611
330
1F
100
AcDbEntity
  8
POPIS
100
AcDbBlockReference
  2
E_PUNKT
 10
94.31403154192617
 20
189.1038768460184
 30
0.0
 50
270.0
  0
ENDSEC
  0
SECTION
  2
OBJECTS
  0
DICTIONARY
  5
C
330
0
100
AcDbDictionary
281
     1
  3
ACAD_GROUP
350
D
  3
ACAD_LAYOUT
350
1A
  3
ACAD_MLINESTYLE
350
17
  3
ACAD_PLOTSETTINGS
350
19
  3
ACAD_PLOTSTYLENAME
350
E
  0
DICTIONARY
  5
D
102
{ACAD_REACTORS
330
C
102
}
330
C
100
AcDbDictionary
281
     1
  0
DICTIONARY
  5
1A
102
{ACAD_REACTORS
330
C
102
}
330
C
100
AcDbDictionary
281
     1
  3
Model
350
22
  3
Rozvržení1
350
1E
  3
Rozvržení2
350
26
  0
DICTIONARY
  5
17
102
{ACAD_REACTORS
330
C
102
}
330
C
100
AcDbDictionary
281
     1
  3
Standard
350
18
  0
DICTIONARY
  5
19
102
{ACAD_REACTORS
330
C
102
}
330
C
100
AcDbDictionary
281
     1
  0
ACDBDICTIONARYWDFLT
  5
E
102
{ACAD_REACTORS
330
C
102
}
330
C
100
AcDbDictionary
281
     1
  3
Normal
350
F
100
AcDbDictionaryWithDefault
340
F
  0
LAYOUT
  5
22
102
{ACAD_REACTORS
330
1A
102
}
330
1A
100
AcDbPlotSettings
  1

  2
HP DeskJet 690C
  4

  6

 40
0.0
 41
0.0
 42
0.0
 43
0.0
 44
0.0
 45
0.0
 46
0.0
 47
0.0
 48
0.0
 49
0.0
140
0.0
141
0.0
142
1.0
143
1.0
 70
  1712
 72
     0
 73
     0
 74
     0
  7
monochrome.ctb
 75
     0
147
1.0
148
0.0
149
0.0
100
AcDbLayout
  1
Model
 70
     1
 71
     0
 10
0.0
 20
0.0
 11
12.0
 21
9.0
 12
0.0
 22
0.0
 32
0.0
 14
0.0
 24
0.0
 34
0.0
 15
0.0
 25
0.0
 35
0.0
146
0.0
 13
0.0
 23
0.0
 33
0.0
 16
1.0
 26
0.0
 36
0.0
 17
0.0
 27
1.0
 37
0.0
 76
     0
330
1F
  0
LAYOUT
  5
1E
102
{ACAD_REACTORS
330
1A
102
}
330
1A
100
AcDbPlotSettings
  1

  2
HP DeskJet 690C
  4

  6

 40
0.0
 41
0.0
 42
0.0
 43
0.0
 44
0.0
 45
0.0
 46
0.0
 47
0.0
 48
0.0
 49
0.0
140
0.0
141
0.0
142
1.0
143
1.0
 70
   688
 72
     0
 73
     0
 74
     5
  7
monochrome.ctb
 75
    16
147
1.0
148
0.0
149
0.0
100
AcDbLayout
  1
Rozvržení1
 70
     1
 71
     1
 10
0.0
 20
0.0
 11
420.0
 21
297.0
 12
0.0
 22
0.0
 32
0.0
 14
1.000000000000000E+20
 24
1.000000000000000E+20
 34
1.000000000000000E+20
 15
-1.000000000000000E+20
 25
-1.000000000000000E+20
 35
-1.000000000000000E+20
146
0.0
 13
0.0
 23
0.0
 33
0.0
 16
1.0
 26
0.0
 36
0.0
 17
0.0
 27
1.0
 37
0.0
 76
     0
330
1B
  0
LAYOUT
  5
26
102
{ACAD_REACTORS
330
1A
102
}
330
1A
100
AcDbPlotSettings
  1

  2
HP DeskJet 690C
  4

  6

 40
0.0
 41
0.0
 42
0.0
 43
0.0
 44
0.0
 45
0.0
 46
0.0
 47
0.0
 48
0.0
 49
0.0
140
0.0
141
0.0
142
1.0
143
1.0
 70
   688
 72
     0
 73
     0
 74
     5
  7
monochrome.ctb
 75
    16
147
1.0
148
0.0
149
0.0
100
AcDbLayout
  1
Rozvržení2
 70
     1
 71
     2
 10
0.0
 20
0.0
 11
12.0
 21
9.0
 12
0.0
 22
0.0
 32
0.0
 14
0.0
 24
0.0
 34
0.0
 15
0.0
 25
0.0
 35
0.0
146
0.0
 13
0.0
 23
0.0
 33
0.0
 16
1.0
 26
0.0
 36
0.0
 17
0.0
 27
1.0
 37
0.0
 76
     0
330
23
  0
MLINESTYLE
  5
18
102
{ACAD_REACTORS
330
17
102
}
330
17
100
AcDbMlineStyle
  2
STANDARD
 70
     0
  3

 62
   256
 51
90.0
 52
90.0
 71
     2
 49
0.5
 62
   256
  6
BYLAYER
 49
-0.5
 62
   256
  6
BYLAYER
  0
ACDBPLACEHOLDER
  5
F
102
{ACAD_REACTORS
330
E
102
}
330
E
  0
ENDSEC
  0
EOF
