  0
SECTION
  2
HEADER
  9
$ACADVER
  1
AC1015
  9
$ACADMAINTVER
 70
    10
  9
$DWGCODEPAGE
  3
ANSI_1250
  9
$INSBASE
 10
0.0
 20
0.0
 30
0.0
  9
$EXTMIN
 10
-118.4537074401229
 20
-100.1466483277282
 30
0.0
  9
$EXTMAX
 10
900.5169763673913
 20
648.5969773884079
 30
0.0
  9
$LIMMIN
 10
0.0
 20
0.0
  9
$LIMMAX
 10
420.0
 20
297.0
  9
$ORTHOMODE
 70
     0
  9
$REGENMODE
 70
     1
  9
$FILLMODE
 70
     1
  9
$QTEXTMODE
 70
     0
  9
$MIRRTEXT
 70
     1
  9
$LTSCALE
 40
1.0
  9
$ATTMODE
 70
     1
  9
$TEXTSIZE
 40
2.5
  9
$TRACEWID
 40
1.0
  9
$TEXTSTYLE
  7
Standard
  9
$CLAYER
  8
0
  9
$CELTYPE
  6
ByLayer
  9
$CECOLOR
 62
   256
  9
$CELTSCALE
 40
1.0
  9
$DISPSILH
 70
     0
  9
$DIMSCALE
 40
1.0
  9
$DIMASZ
 40
2.5
  9
$DIMEXO
 40
0.625
  9
$DIMDLI
 40
3.75
  9
$DIMRND
 40
0.0
  9
$DIMDLE
 40
0.0
  9
$DIMEXE
 40
1.25
  9
$DIMTP
 40
0.0
  9
$DIMTM
 40
0.0
  9
$DIMTXT
 40
2.5
  9
$DIMCEN
 40
2.5
  9
$DIMTSZ
 40
0.0
  9
$DIMTOL
 70
     0
  9
$DIMLIM
 70
     0
  9
$DIMTIH
 70
     0
  9
$DIMTOH
 70
     0
  9
$DIMSE1
 70
     0
  9
$DIMSE2
 70
     0
  9
$DIMTAD
 70
     1
  9
$DIMZIN
 70
     8
  9
$DIMBLK
  1

  9
$DIMASO
 70
     1
  9
$DIMSHO
 70
     1
  9
$DIMPOST
  1

  9
$DIMAPOST
  1

  9
$DIMALT
 70
     0
  9
$DIMALTD
 70
     3
  9
$DIMALTF
 40
0.03937007874016
  9
$DIMLFAC
 40
1.0
  9
$DIMTOFL
 70
     1
  9
$DIMTVP
 40
0.0
  9
$DIMTIX
 70
     0
  9
$DIMSOXD
 70
     0
  9
$DIMSAH
 70
     0
  9
$DIMBLK1
  1

  9
$DIMBLK2
  1

  9
$DIMSTYLE
  2
ISO-25
  9
$DIMCLRD
 70
     0
  9
$DIMCLRE
 70
     0
  9
$DIMCLRT
 70
     0
  9
$DIMTFAC
 40
1.0
  9
$DIMGAP
 40
0.625
  9
$DIMJUST
 70
     0
  9
$DIMSD1
 70
     0
  9
$DIMSD2
 70
     0
  9
$DIMTOLJ
 70
     0
  9
$DIMTZIN
 70
     8
  9
$DIMALTZ
 70
     0
  9
$DIMALTTZ
 70
     0
  9
$DIMUPT
 70
     0
  9
$DIMDEC
 70
     2
  9
$DIMTDEC
 70
     2
  9
$DIMALTU
 70
     2
  9
$DIMALTTD
 70
     3
  9
$DIMTXSTY
  7
Standard
  9
$DIMAUNIT
 70
     0
  9
$DIMADEC
 70
     0
  9
$DIMALTRND
 40
0.0
  9
$DIMAZIN
 70
     0
  9
$DIMDSEP
 70
    44
  9
$DIMATFIT
 70
     3
  9
$DIMFRAC
 70
     0
  9
$DIMLDRBLK
  1

  9
$DIMLUNIT
 70
     2
  9
$DIMLWD
 70
    -2
  9
$DIMLWE
 70
    -2
  9
$DIMTMOVE
 70
     0
  9
$LUNITS
 70
     2
  9
$LUPREC
 70
     4
  9
$SKETCHINC
 40
1.0
  9
$FILLETRAD
 40
10.0
  9
$AUNITS
 70
     0
  9
$AUPREC
 70
     0
  9
$MENU
  1
.
  9
$ELEVATION
 40
0.0
  9
$PELEVATION
 40
0.0
  9
$THICKNESS
 40
0.0
  9
$LIMCHECK
 70
     0
  9
$CHAMFERA
 40
10.0
  9
$CHAMFERB
 40
10.0
  9
$CHAMFERC
 40
20.0
  9
$CHAMFERD
 40
0.0
  9
$SKPOLY
 70
     0
  9
$TDCREATE
 40
2452333.440837384
  9
$TDUCREATE
 40
2452333.399170718
  9
$TDUPDATE
 40
2452653.357485336
  9
$TDUUPDATE
 40
2452653.315818668
  9
$TDINDWG
 40
0.0059986690
  9
$TDUSRTIMER
 40
0.0059973958
  9
$USRTIMER
 70
     1
  9
$ANGBASE
 50
0.0
  9
$ANGDIR
 70
     0
  9
$PDMODE
 70
     0
  9
$PDSIZE
 40
0.0
  9
$PLINEWID
 40
0.0
  9
$SPLFRAME
 70
     0
  9
$SPLINETYPE
 70
     6
  9
$SPLINESEGS
 70
     8
  9
$HANDSEED
  5
40F6
  9
$SURFTAB1
 70
     6
  9
$SURFTAB2
 70
     6
  9
$SURFTYPE
 70
     6
  9
$SURFU
 70
     6
  9
$SURFV
 70
     6
  9
$UCSBASE
  2

  9
$UCSNAME
  2

  9
$UCSORG
 10
0.0
 20
0.0
 30
0.0
  9
$UCSXDIR
 10
1.0
 20
0.0
 30
0.0
  9
$UCSYDIR
 10
0.0
 20
1.0
 30
0.0
  9
$UCSORTHOREF
  2

  9
$UCSORTHOVIEW
 70
     0
  9
$UCSORGTOP
 10
0.0
 20
0.0
 30
0.0
  9
$UCSORGBOTTOM
 10
0.0
 20
0.0
 30
0.0
  9
$UCSORGLEFT
 10
0.0
 20
0.0
 30
0.0
  9
$UCSORGRIGHT
 10
0.0
 20
0.0
 30
0.0
  9
$UCSORGFRONT
 10
0.0
 20
0.0
 30
0.0
  9
$UCSORGBACK
 10
0.0
 20
0.0
 30
0.0
  9
$PUCSBASE
  2

  9
$PUCSNAME
  2

  9
$PUCSORG
 10
0.0
 20
0.0
 30
0.0
  9
$PUCSXDIR
 10
1.0
 20
0.0
 30
0.0
  9
$PUCSYDIR
 10
0.0
 20
1.0
 30
0.0
  9
$PUCSORTHOREF
  2

  9
$PUCSORTHOVIEW
 70
     0
  9
$PUCSORGTOP
 10
0.0
 20
0.0
 30
0.0
  9
$PUCSORGBOTTOM
 10
0.0
 20
0.0
 30
0.0
  9
$PUCSORGLEFT
 10
0.0
 20
0.0
 30
0.0
  9
$PUCSORGRIGHT
 10
0.0
 20
0.0
 30
0.0
  9
$PUCSORGFRONT
 10
0.0
 20
0.0
 30
0.0
  9
$PUCSORGBACK
 10
0.0
 20
0.0
 30
0.0
  9
$USERI1
 70
     0
  9
$USERI2
 70
     0
  9
$USERI3
 70
     0
  9
$USERI4
 70
     0
  9
$USERI5
 70
     0
  9
$USERR1
 40
0.0
  9
$USERR2
 40
0.0
  9
$USERR3
 40
0.0
  9
$USERR4
 40
0.0
  9
$USERR5
 40
0.0
  9
$WORLDVIEW
 70
     1
  9
$SHADEDGE
 70
     3
  9
$SHADEDIF
 70
    70
  9
$TILEMODE
 70
     1
  9
$MAXACTVP
 70
    64
  9
$PINSBASE
 10
0.0
 20
0.0
 30
0.0
  9
$PLIMCHECK
 70
     0
  9
$PEXTMIN
 10
1.000000000000000E+20
 20
1.000000000000000E+20
 30
1.000000000000000E+20
  9
$PEXTMAX
 10
-1.000000000000000E+20
 20
-1.000000000000000E+20
 30
-1.000000000000000E+20
  9
$PLIMMIN
 10
0.0
 20
0.0
  9
$PLIMMAX
 10
420.0
 20
297.0
  9
$UNITMODE
 70
     0
  9
$VISRETAIN
 70
     1
  9
$PLINEGEN
 70
     0
  9
$PSLTSCALE
 70
     1
  9
$TREEDEPTH
 70
  3020
  9
$CMLSTYLE
  2
Standard
  9
$CMLJUST
 70
     0
  9
$CMLSCALE
 40
20.0
  9
$PROXYGRAPHICS
 70
     1
  9
$MEASUREMENT
 70
     1
  9
$CELWEIGHT
370
    -1
  9
$ENDCAPS
280
     0
  9
$JOINSTYLE
280
     0
  9
$LWDISPLAY
290
     0
  9
$INSUNITS
 70
     4
  9
$HYPERLINKBASE
  1

  9
$STYLESHEET
  1

  9
$XEDIT
290
     1
  9
$CEPSNTYPE
380
     0
  9
$PSTYLEMODE
290
     1
  9
$FINGERPRINTGUID
  2
{E0A79919-1611-4D48-A6CF-929FE36A9D62}
  9
$VERSIONGUID
  2
{6A1CCC2A-E935-4807-9D03-57531C78F892}
  9
$EXTNAMES
290
     1
  9
$PSVPSCALE
 40
0.0
  9
$OLESTARTUP
290
     0
  0
ENDSEC
  0
SECTION
  2
CLASSES
  0
CLASS
  1
ACDBDICTIONARYWDFLT
  2
AcDbDictionaryWithDefault
  3
AutoCAD 2000
 90
        0
280
     0
281
     0
  0
CLASS
  1
ACDBPLACEHOLDER
  2
AcDbPlaceHolder
  3
AutoCAD 2000
 90
        0
280
     0
281
     0
  0
CLASS
  1
LAYOUT
  2
AcDbLayout
  3
AutoCAD 2000
 90
        0
280
     0
281
     0
  0
ENDSEC
  0
SECTION
  2
TABLES
  0
TABLE
  2
VPORT
  5
8
330
0
100
AcDbSymbolTable
 70
     2
  0
VPORT
  5
40F5
330
8
100
AcDbSymbolTableRecord
100
AcDbViewportTableRecord
  2
*Active
 70
     0
 10
0.0
 20
0.0
 11
1.0
 21
1.0
 12
381.7311167378054
 22
274.4945962189172
 13
0.0
 23
0.0
 14
10.0
 24
10.0
 15
10.0
 25
10.0
 16
0.0
 26
0.0
 36
1.0
 17
0.0
 27
0.0
 37
0.0
 40
759.2080745353975
 41
1.445564516129032
 42
50.0
 43
0.0
 44
0.0
 50
0.0
 51
0.0
 71
     0
 72
   100
 73
     1
 74
     3
 75
     0
 76
     0
 77
     0
 78
     0
281
     0
 65
     1
110
0.0
120
0.0
130
0.0
111
1.0
121
0.0
131
0.0
112
0.0
122
1.0
132
0.0
 79
     0
146
0.0
  0
ENDTAB
  0
TABLE
  2
LTYPE
  5
5
330
0
100
AcDbSymbolTable
 70
     5
  0
LTYPE
  5
14
330
5
100
AcDbSymbolTableRecord
100
AcDbLinetypeTableRecord
  2
ByBlock
 70
     0
  3

 72
    65
 73
     0
 40
0.0
  0
LTYPE
  5
15
330
5
100
AcDbSymbolTableRecord
100
AcDbLinetypeTableRecord
  2
ByLayer
 70
     0
  3

 72
    65
 73
     0
 40
0.0
  0
LTYPE
  5
16
330
5
100
AcDbSymbolTableRecord
100
AcDbLinetypeTableRecord
  2
Continuous
 70
     0
  3
Solid line
 72
    65
 73
     0
 40
0.0
  0
LTYPE
  5
33
330
5
100
AcDbSymbolTableRecord
100
AcDbLinetypeTableRecord
  2
DASHED
 70
     0
  3
Dashed __ __ __ __ __ __ __ __ __ __ __ __ __ _
 72
    65
 73
     2
 40
19.04999999999999
 49
12.7
 74
     0
 49
-6.349999999999999
 74
     0
  0
LTYPE
  5
34
330
5
100
AcDbSymbolTableRecord
100
AcDbLinetypeTableRecord
  2
DASHDOT2
 70
     0
  3
Dash dot (.5x) _._._._._._._._._._._._._._._.
 72
    65
 73
     4
 40
12.7
 49
6.349999999999999
 74
     0
 49
-3.174999999999999
 74
     0
 49
0.0
 74
     0
 49
-3.174999999999999
 74
     0
  0
LTYPE
  5
35
330
5
100
AcDbSymbolTableRecord
100
AcDbLinetypeTableRecord
  2
CIKCAK
 70
     0
  3
Cik-cak /\/\/\/\/\/\/\/\/\/\/\/\/\/\/\/\/\/\/\/
 72
    65
 73
     4
 40
20.32254
 49
0.00254
 74
     0
 49
-5.08
 74
     4
 75
   131
340
3E
 46
5.08
 50
0.0
 44
-5.08
 45
0.0
 49
-10.16
 74
     4
 75
   131
340
3E
 46
5.08
 50
180.0
 44
5.08
 45
0.0
 49
-5.08
 74
     0
  0
LTYPE
  5
36
330
5
100
AcDbSymbolTableRecord
100
AcDbLinetypeTableRecord
  2
IZOLACE
 70
     0
  3
Izolace SSSSSSSSSSSSSSSSSSSSSSSSSSSSSSSSSSSSSSS
 72
    65
 73
     4
 40
10.16253999999999
 49
0.00254
 74
     0
 49
-2.54
 74
     4
 75
   134
340
3E
 46
2.54
 50
0.0
 44
-2.54
 45
0.0
 49
-5.08
 74
     4
 75
   134
340
3E
 46
2.54
 50
180.0
 44
2.54
 45
0.0
 49
-2.54
 74
     0
  0
ENDTAB
  0
TABLE
  2
LAYER
  5
2
330
0
100
AcDbSymbolTable
 70
     7
  0
LAYER
  5
10
330
2
100
AcDbSymbolTableRecord
100
AcDbLayerTableRecord
  2
0
 70
     0
 62
     7
  6
Continuous
370
    -3
390
F
  0
LAYER
  5
37
330
2
100
AcDbSymbolTableRecord
100
AcDbLayerTableRecord
  2
POPIS
 70
     0
 62
    30
  6
Continuous
370
    -3
390
F
  0
LAYER
  5
38
330
2
100
AcDbSymbolTableRecord
100
AcDbLayerTableRecord
  2
SPOJOVACÍ
 70
     0
 62
   180
  6
Continuous
370
    -3
390
F
  0
LAYER
  5
39
330
2
100
AcDbSymbolTableRecord
100
AcDbLayerTableRecord
  2
CETRIS
 70
     0
 62
     1
  6
Continuous
370
    -3
390
F
  0
LAYER
  5
3A
330
2
100
AcDbSymbolTableRecord
100
AcDbLayerTableRecord
  2
NOSNÉ KONSTRUKCE
 70
     0
 62
    33
  6
Continuous
370
    -3
390
F
  0
LAYER
  5
3B
330
2
100
AcDbSymbolTableRecord
100
AcDbLayerTableRecord
  2
izolace
 70
     0
 62
    73
  6
Continuous
370
    -3
390
F
  0
LAYER
  5
3C
330
2
100
AcDbSymbolTableRecord
100
AcDbLayerTableRecord
  2
STAVBA OBRYS
 70
     0
 62
     6
  6
Continuous
370
    -3
390
F
  0
ENDTAB
  0
TABLE
  2
STYLE
  5
3
330
0
100
AcDbSymbolTable
 70
     3
  0
STYLE
  5
11
330
3
100
AcDbSymbolTableRecord
100
AcDbTextStyleTableRecord
  2
Standard
 70
     0
 40
0.0
 41
1.0
 50
0.0
 71
     0
 42
2.5
  3
txt
  4

  0
STYLE
  5
3D
330
3
100
AcDbSymbolTableRecord
100
AcDbTextStyleTableRecord
  2
SIMPLEX7
 70
     0
 40
0.0
 41
0.85
 50
0.0
 71
     0
 42
102.0
  3

  4

1001
ACAD
1000
Arial CE
1071
    60962
  0
STYLE
  5
3E
330
3
100
AcDbSymbolTableRecord
100
AcDbTextStyleTableRecord
  2

 70
     1
 40
0.0
 41
1.0
 50
0.0
 71
     0
 42
2.5
  3
ltypeshp.shx
  4

  0
ENDTAB
  0
TABLE
  2
VIEW
  5
6
330
0
100
AcDbSymbolTable
 70
     0
  0
ENDTAB
  0
TABLE
  2
UCS
  5
7
330
0
100
AcDbSymbolTable
 70
     0
  0
ENDTAB
  0
TABLE
  2
APPID
  5
9
330
0
100
AcDbSymbolTable
 70
     1
  0
APPID
  5
12
330
9
100
AcDbSymbolTableRecord
100
AcDbRegAppTableRecord
  2
ACAD
 70
     0
  0
ENDTAB
  0
TABLE
  2
DIMSTYLE
  5
A
330
0
100
AcDbSymbolTable
 70
     1
100
AcDbDimStyleTable
 71
     0
  0
DIMSTYLE
105
27
330
A
100
AcDbSymbolTableRecord
100
AcDbDimStyleTableRecord
  2
ISO-25
 70
     0
 41
2.5
 42
0.625
 43
3.75
 44
1.25
 73
     0
 74
     0
 77
     1
 78
     8
140
2.5
141
2.5
143
0.03937007874016
147
0.625
171
     3
172
     1
271
     2
272
     2
274
     3
278
    44
283
     0
284
     8
340
11
  0
ENDTAB
  0
TABLE
  2
BLOCK_RECORD
  5
1
330
0
100
AcDbSymbolTable
 70
     2
  0
BLOCK_RECORD
  5
1F
330
1
100
AcDbSymbolTableRecord
100
AcDbBlockTableRecord
  2
*Model_Space
340
22
  0
BLOCK_RECORD
  5
1B
330
1
100
AcDbSymbolTableRecord
100
AcDbBlockTableRecord
  2
*Paper_Space
340
1E
  0
BLOCK_RECORD
  5
23
330
1
100
AcDbSymbolTableRecord
100
AcDbBlockTableRecord
  2
*Paper_Space0
340
26
  0
BLOCK_RECORD
  5
2B
330
1
100
AcDbSymbolTableRecord
100
AcDbBlockTableRecord
  2
E_PUNKT
340
0
102
{BLKREFS
331
3E7F
331
3E87
331
3E88
331
3E8E
331
3E8F
331
3E90
331
3F9C
102
}
  0
ENDTAB
  0
ENDSEC
  0
SECTION
  2
BLOCKS
  0
BLOCK
  5
20
330
1F
100
AcDbEntity
  8
0
100
AcDbBlockBegin
  2
*Model_Space
 70
     0
 10
0.0
 20
0.0
 30
0.0
  3
*Model_Space
  1

  0
ENDBLK
  5
21
330
1F
100
AcDbEntity
  8
0
100
AcDbBlockEnd
  0
BLOCK
  5
1C
330
1B
100
AcDbEntity
 67
     1
  8
0
100
AcDbBlockBegin
  2
*Paper_Space
 70
     0
 10
0.0
 20
0.0
 30
0.0
  3
*Paper_Space
  1

  0
ENDBLK
  5
1D
330
1B
100
AcDbEntity
 67
     1
  8
0
100
AcDbBlockEnd
  0
BLOCK
  5
24
330
23
100
AcDbEntity
  8
0
100
AcDbBlockBegin
  2
*Paper_Space0
 70
     0
 10
0.0
 20
0.0
 30
0.0
  3
*Paper_Space0
  1

  0
ENDBLK
  5
25
330
23
100
AcDbEntity
  8
0
100
AcDbBlockEnd
  0
BLOCK
  5
2D
330
2B
100
AcDbEntity
  8
0
100
AcDbBlockBegin
  2
E_PUNKT
 70
     0
 10
0.0
 20
0.0
 30
0.0
  3
E_PUNKT
  1

  0
LWPOLYLINE
  5
2C
330
2B
100
AcDbEntity
  8
POPIS
100
AcDbPolyline
 90
        2
 70
     1
 43
2.5
 10
1.27761037562675
 20
0.0290683308725193
 42
-1.0
 10
-1.222389624373249
 20
0.0290683308725193
 42
-1.0
  0
ENDBLK
  5
2E
330
2B
100
AcDbEntity
  8
0
100
AcDbBlockEnd
  0
ENDSEC
  0
SECTION
  2
ENTITIES
  0
POLYLINE
  5
3E02
330
1F
100
AcDbEntity
  8
NOSNÉ KONSTRUKCE
100
AcDb2dPolyline
 66
     1
 10
0.0
 20
0.0
 30
0.0
  0
VERTEX
  5
3E03
330
3E02
100
AcDbEntity
  8
NOSNÉ KONSTRUKCE
100
AcDbVertex
100
AcDb2dVertex
 10
17.36088540799426
 20
202.3334658018301
 30
0.0
 42
0.5590620544015654
  0
VERTEX
  5
3E04
330
3E02
100
AcDbEntity
  8
NOSNÉ KONSTRUKCE
100
AcDbVertex
100
AcDb2dVertex
 10
17.36088540799426
 20
207.2131649504752
 30
0.0
  0
VERTEX
  5
3E05
330
3E02
100
AcDbEntity
  8
NOSNÉ KONSTRUKCE
100
AcDbVertex
100
AcDb2dVertex
 10
17.36088540799426
 20
215.1008831274283
 30
0.0
 42
0.5590616644338536
  0
VERTEX
  5
3E06
330
3E02
100
AcDbEntity
  8
NOSNÉ KONSTRUKCE
100
AcDbVertex
100
AcDb2dVertex
 10
17.36088540799789
 20
219.980476496008
 30
0.0
  0
VERTEX
  5
3E07
330
3E02
100
AcDbEntity
  8
NOSNÉ KONSTRUKCE
100
AcDbVertex
100
AcDb2dVertex
 10
17.36088540799426
 20
227.8681947321146
 30
0.0
 42
0.559061664315726
  0
VERTEX
  5
3E08
330
3E02
100
AcDbEntity
  8
NOSNÉ KONSTRUKCE
100
AcDbVertex
100
AcDb2dVertex
 10
17.36088540799426
 20
232.7477880689165
 30
0.0
  0
VERTEX
  5
3E09
330
3E02
100
AcDbEntity
  8
NOSNÉ KONSTRUKCE
100
AcDbVertex
100
AcDb2dVertex
 10
17.36088540799426
 20
240.302565845899
 30
0.0
 42
-0.4142135623731029
  0
VERTEX
  5
3E0A
330
3E02
100
AcDbEntity
  8
NOSNÉ KONSTRUKCE
100
AcDbVertex
100
AcDb2dVertex
 10
18.36088540799426
 20
241.302565845899
 30
0.0
  0
VERTEX
  5
3E0B
330
3E02
100
AcDbEntity
  8
NOSNÉ KONSTRUKCE
100
AcDbVertex
100
AcDb2dVertex
 10
23.2790638093287
 20
241.302565845899
 30
0.0
 42
0.2408510949208177
  0
VERTEX
  5
3E0C
330
3E02
100
AcDbEntity
  8
NOSNÉ KONSTRUKCE
100
AcDbVertex
100
AcDb2dVertex
 10
25.60124446574661
 20
240.1152949948281
 30
0.0
  0
VERTEX
  5
3E0D
330
3E02
100
AcDbEntity
  8
NOSNÉ KONSTRUKCE
100
AcDbVertex
100
AcDb2dVertex
 10
29.41981661419447
 20
240.1152949948281
 30
0.0
 42
0.0000123233965856
  0
VERTEX
  5
3E0E
330
3E02
100
AcDbEntity
  8
NOSNÉ KONSTRUKCE
100
AcDbVertex
100
AcDb2dVertex
 10
29.41989055457486
 20
240.1152949966507
 30
0.0
 42
0.2408376921551036
  0
VERTEX
  5
3E0F
330
3E02
100
AcDbEntity
  8
NOSNÉ KONSTRUKCE
100
AcDbVertex
100
AcDb2dVertex
 10
31.74151600175207
 20
241.302565845899
 30
0.0
  0
VERTEX
  5
3E10
330
3E02
100
AcDbEntity
  8
NOSNÉ KONSTRUKCE
100
AcDbVertex
100
AcDb2dVertex
 10
49.98456284214296
 20
241.302565845899
 30
0.0
 42
0.2408376921551987
  0
VERTEX
  5
3E11
330
3E02
100
AcDbEntity
  8
NOSNÉ KONSTRUKCE
100
AcDbVertex
100
AcDb2dVertex
 10
52.30618828932017
 20
240.1152949966507
 30
0.0
 42
0.0000123233965477
  0
VERTEX
  5
3E12
330
3E02
100
AcDbEntity
  8
NOSNÉ KONSTRUKCE
100
AcDbVertex
100
AcDb2dVertex
 10
52.30626222969693
 20
240.1152949948281
 30
0.0
  0
VERTEX
  5
3E13
330
3E02
100
AcDbEntity
  8
NOSNÉ KONSTRUKCE
100
AcDbVertex
100
AcDb2dVertex
 10
56.12483437305161
 20
240.1152949948281
 30
0.0
 42
0.240851095207779
  0
VERTEX
  5
3E14
330
3E02
100
AcDbEntity
  8
NOSNÉ KONSTRUKCE
100
AcDbVertex
100
AcDb2dVertex
 10
58.44701503258
 20
241.302565845899
 30
0.0
  0
VERTEX
  5
3E15
330
3E02
100
AcDbEntity
  8
NOSNÉ KONSTRUKCE
100
AcDbVertex
100
AcDb2dVertex
 10
63.36519343391444
 20
241.302565845899
 30
0.0
 42
-0.4142135623730951
  0
VERTEX
  5
3E16
330
3E02
100
AcDbEntity
  8
NOSNÉ KONSTRUKCE
100
AcDbVertex
100
AcDb2dVertex
 10
64.36519343391444
 20
240.302565845899
 30
0.0
  0
VERTEX
  5
3E17
330
3E02
100
AcDbEntity
  8
NOSNÉ KONSTRUKCE
100
AcDbVertex
100
AcDb2dVertex
 10
64.36519343391444
 20
232.7477880676978
 30
0.0
 42
0.5590616637825315
  0
VERTEX
  5
3E18
330
3E02
100
AcDbEntity
  8
NOSNÉ KONSTRUKCE
100
AcDbVertex
100
AcDb2dVertex
 10
64.36519343391444
 20
227.8681947333333
 30
0.0
  0
VERTEX
  5
3E19
330
3E02
100
AcDbEntity
  8
NOSNÉ KONSTRUKCE
100
AcDbVertex
100
AcDb2dVertex
 10
64.36519343391444
 20
219.9804764947856
 30
0.0
 42
0.5590616638998631
  0
VERTEX
  5
3E1A
330
3E02
100
AcDbEntity
  8
NOSNÉ KONSTRUKCE
100
AcDbVertex
100
AcDb2dVertex
 10
64.36519343391444
 20
215.100883128647
 30
0.0
  0
VERTEX
  5
3E1B
330
3E02
100
AcDbEntity
  8
NOSNÉ KONSTRUKCE
100
AcDbVertex
100
AcDb2dVertex
 10
64.36519343391444
 20
207.2131649492529
 30
0.0
 42
0.5590620538659819
  0
VERTEX
  5
3E1C
330
3E02
100
AcDbEntity
  8
NOSNÉ KONSTRUKCE
100
AcDbVertex
100
AcDb2dVertex
 10
64.36519343391444
 20
202.3334658030561
 30
0.0
  0
VERTEX
  5
3E1D
330
3E02
100
AcDbEntity
  8
NOSNÉ KONSTRUKCE
100
AcDbVertex
100
AcDb2dVertex
 10
64.36519343391444
 20
196.3895235198777
 30
0.0
 42
-0.4142135623731143
  0
VERTEX
  5
3E1E
330
3E02
100
AcDbEntity
  8
NOSNÉ KONSTRUKCE
100
AcDbVertex
100
AcDb2dVertex
 10
63.36519343391444
 20
195.3895235198777
 30
0.0
  0
VERTEX
  5
3E1F
330
3E02
100
AcDbEntity
  8
NOSNÉ KONSTRUKCE
100
AcDbVertex
100
AcDb2dVertex
 10
60.53986764221952
 20
195.3895235198777
 30
0.0
  0
SEQEND
  5
3E20
330
3E02
100
AcDbEntity
  8
NOSNÉ KONSTRUKCE
  0
LINE
  5
3E21
330
1F
100
AcDbEntity
  8
NOSNÉ KONSTRUKCE
100
AcDbLine
 10
31.67107414391682
 20
242.4887430758662
 30
0.0
 11
50.05500469799551
 21
242.4887430758662
 31
0.0
  0
HATCH
  5
3E22
330
1F
100
AcDbEntity
  8
NOSNÉ KONSTRUKCE
100
AcDbHatch
 10
0.0
 20
0.0
 30
0.0
210
0.0
220
0.0
230
1.0
  2
SOLID
 70
     1
 71
     0
 91
        1
 92
        1
 93
       78
 72
     1
 10
60.53986764221952
 20
195.3110751809853
 11
60.53986764221952
 21
193.8110751809853
 72
     1
 10
60.53986764221952
 20
193.8110751809853
 11
64.50103202847856
 21
193.8110751809853
 72
     2
 10
64.50113874821216
 20
195.1751298665357
 40
1.364054689724365
 50
269.9955173422458
 51
359.9956000565877
 73
     1
 72
     1
 10
65.86519343391444
 20
195.1750251160027
 11
65.86519343391444
 21
202.332273118105
 72
     2
 10
64.50121763913592
 20
202.3322869905504
 40
1.363975794848016
 50
359.9994172678322
 51
419.9993729338874
 73
     1
 72
     2
 10
65.86527169008002
 20
204.6948670372584
 40
1.364105569629164
 50
120.0000213811482
 51
239.9999786188517
 73
     0
 72
     2
 10
64.50121763913228
 20
207.0574470839682
 40
1.363975794852709
 50
300.0006270662067
 51
360.0005827322442
 73
     1
 72
     1
 10
65.86519343391444
 20
207.0574609564153
 11
65.86519343391444
 21
215.0996904480688
 72
     2
 10
64.50121766663904
 20
215.0997043046362
 40
1.363975767345567
 50
359.999417934797
 51
419.9993736009129
 73
     1
 72
     2
 10
65.8652411697916
 20
217.4622314728238
 40
1.36404452909372
 50
120.0000213811012
 51
239.9999786188987
 73
     0
 72
     2
 10
64.50121763913592
 20
219.8247586568894
 40
1.363975794849071
 50
300.0006270661125
 51
360.0005827321678
 73
     1
 72
     1
 10
65.86519343391444
 20
219.8247725293348
 11
65.86519343391444
 21
227.8670020209919
 72
     2
 10
64.50121763913592
 20
227.8670158934372
 40
1.363975794848016
 50
359.9994172678322
 51
419.9993729338874
 73
     1
 72
     2
 10
65.86524116062389
 20
230.229543061623
 40
1.364044510757576
 50
120.0000213811192
 51
239.9999786188807
 73
     0
 72
     2
 10
64.50121763913592
 20
232.5920702298089
 40
1.363975794849071
 50
300.0006270661125
 51
360.0005827321678
 73
     1
 72
     1
 10
65.86519343391444
 20
232.5920841022542
 11
65.86519343391444
 21
241.3600618467043
 72
     2
 10
64.50108588564432
 20
241.3600099588137
 40
1.364107549255989
 50
0.0021794155003851
 51
90.00226212976937
 73
     1
 72
     1
 10
64.50103202847856
 20
242.7241175070065
 11
58.37615666520685
 21
242.7241175070065
 72
     2
 10
58.37632412900018
 20
241.3602647484757
 40
1.363852768812942
 50
90.007035193844
 51
145.618700920993
 73
     1
 72
     2
 10
56.12504337236567
 20
242.9010475309177
 40
1.364200882607377
 50
34.39439223558883
 51
90.00605796276937
 73
     0
 72
     1
 10
56.1248991335018
 20
241.5368466559356
 11
52.30626222970056
 21
241.5368466559356
 72
     2
 10
52.30632945629293
 20
242.9006465499432
 40
1.363799895663342
 50
90.00282431464272
 51
145.6144900418028
 73
     0
 72
     2
 10
50.05504869965841
 20
241.3598637675003
 40
1.364253740215838
 50
34.39018224989295
 51
90.00184797703083
 73
     1
 72
     1
 10
50.05500469799551
 20
242.7241175070065
 11
31.67107414391682
 21
242.7241175070065
 72
     2
 10
31.67103014324345
 20
241.3598637693766
 40
1.36425373834027
 50
89.99815206452479
 51
145.6098177916605
 73
     1
 72
     2
 10
29.41974938759847
 20
242.9006465499395
 40
1.363799895660852
 50
34.38550995807098
 51
89.99717568520445
 73
     0
 72
     1
 10
29.41981661419447
 20
241.5368466559356
 11
25.6011797084069
 21
241.5368466559356
 72
     2
 10
25.60103546954303
 20
242.9010475309177
 40
1.364200882606485
 50
89.99394203723062
 51
145.6056077644112
 73
     0
 72
     2
 10
23.34975471390169
 20
241.3602647503584
 40
1.363852766929492
 50
34.38129903729457
 51
89.99296476442305
 73
     1
 72
     1
 10
23.34992217868819
 20
242.7241175070065
 11
17.22504681541647
 21
242.7241175070065
 72
     2
 10
17.22499295725754
 20
241.3600099578205
 40
1.364107550250173
 50
89.99773782851685
 51
179.9978205427857
 73
     1
 72
     1
 10
15.86088540799426
 20
241.3600618467043
 11
15.86088540799426
 21
232.5920841022542
 72
     2
 10
17.22486120376231
 20
232.592070231526
 40
1.363975795838488
 50
179.9994173399629
 51
239.9993730060832
 73
     1
 72
     2
 10
15.8608376832675
 20
230.229543061623
 40
1.364044510757576
 50
300.0000213811192
 51
419.9999786188808
 73
     0
 72
     2
 10
17.22486120376231
 20
227.8670158917201
 40
1.363975795838583
 50
120.0006269939168
 51
180.000582660037
 73
     1
 72
     1
 10
15.86088540799426
 20
227.8670020209919
 11
15.86088540799426
 21
219.8247725293348
 72
     2
 10
17.22486120376231
 20
219.8247586586065
 40
1.363975795838488
 50
179.9994173399629
 51
239.9993730060832
 73
     1
 72
     2
 10
15.86083767409979
 20
217.4622314728238
 40
1.36404452909372
 50
300.0000213811012
 51
419.9999786188987
 73
     0
 72
     2
 10
17.22486117625919
 20
215.0997043029191
 40
1.363975768335302
 50
120.0006263268913
 51
180.0005819930721
 73
     1
 72
     1
 10
15.86088540799426
 20
215.0996904480688
 11
15.86088540799426
 21
207.0574609564153
 72
     2
 10
17.22486120376595
 20
207.0574470856853
 40
1.363975795841882
 50
179.9994173398865
 51
239.999373005989
 73
     1
 72
     2
 10
15.86080715381138
 20
204.6948670372584
 40
1.364105569629164
 50
300.0000213811482
 51
419.9999786188517
 73
     0
 72
     2
 10
17.22486120376231
 20
202.3322869888332
 40
1.363975795838583
 50
120.0006269939168
 51
180.000582660037
 73
     1
 72
     1
 10
15.86088540799426
 20
202.332273118105
 11
15.86088540799426
 21
195.1751308083484
 72
     2
 10
17.2249929572539
 20
195.1751827301722
 40
1.364107550249196
 50
180.0021794572142
 51
270.0022621714831
 73
     1
 72
     1
 10
17.22504681541283
 20
193.8110751809862
 11
21.18621120166824
 21
193.8110751809862
 72
     1
 10
21.18621120166824
 20
193.8110751809862
 11
21.18621120166824
 21
195.3110751809862
 72
     1
 10
21.18621120166824
 20
195.3110751809862
 11
18.36088540799062
 21
195.3110751809862
 72
     2
 10
18.36088540799062
 20
196.3110751809853
 40
1.0
 50
90.0
 51
180.0
 73
     0
 72
     1
 10
17.36088540799062
 20
196.3110751809853
 11
17.36088540799426
 21
202.2550174629385
 72
     2
 10
15.86080715381865
 20
204.6948670372602
 40
2.864105569627733
 50
301.5842014864361
 51
418.4157985135637
 73
     1
 72
     1
 10
17.36088540799426
 20
207.1347166115828
 11
17.36088540799426
 21
215.0224347885358
 72
     2
 10
15.86083767409979
 20
217.4622314728265
 40
2.864044529094826
 50
301.5842355323783
 51
418.4157644675405
 73
     1
 72
     1
 10
17.36088540799789
 20
219.9020281571155
 11
17.36088540799426
 21
227.7897463932221
 72
     2
 10
15.86083768326386
 20
230.229543061623
 40
2.864044510759085
 50
301.5842355426949
 51
418.415764457305
 73
     1
 72
     1
 10
17.36088540799426
 20
232.669339730024
 11
17.36088540799426
 21
240.2241175070065
 72
     2
 10
18.36088540799426
 20
240.2241175070065
 40
1.0
 50
180.0
 51
270.0
 73
     0
 72
     1
 10
18.36088540799426
 20
241.2241175070065
 11
23.2790638093287
 21
241.2241175070065
 72
     2
 10
25.60103546953939
 20
242.9010475309131
 40
2.864200882602513
 50
215.8368500797323
 51
270.0041807823925
 73
     1
 72
     1
 10
25.60124446574661
 20
240.0368466559356
 11
29.41981661419447
 21
240.0368466559356
 72
     2
 10
29.41981660944327
 20
241.5368466743865
 40
1.500000018450919
 50
270.0000001814824
 51
270.0028244959367
 73
     1
 72
     2
 10
29.41974938760575
 20
242.9006465499295
 40
2.863799895650613
 50
270.0028243144894
 51
324.1672517372337
 73
     1
 72
     1
 10
31.74151600175207
 20
241.2241175070065
 11
49.98456284214296
 21
241.2241175070065
 72
     2
 10
52.30632945628929
 20
242.9006465499286
 40
2.863799895650137
 50
215.8327482627515
 51
269.9971756855105
 73
     1
 72
     2
 10
52.30626223444812
 20
241.5368466051967
 40
1.499999949261109
 50
269.9971755040718
 51
269.9999998185174
 73
     1
 72
     1
 10
52.30626222969693
 20
240.0368466559356
 11
56.12483437305161
 21
240.0368466559356
 72
     2
 10
56.12504337236931
 20
242.9010475309159
 40
2.864200882605558
 50
269.9958191553852
 51
324.1631499202233
 73
     1
 72
     1
 10
58.44701503258
 20
241.2241175070065
 11
63.36519343391444
 21
241.2241175070065
 72
     2
 10
63.36519343391444
 20
240.2241175070065
 40
1.0
 50
270.0
 51
360.0
 73
     0
 72
     1
 10
64.36519343391444
 20
240.2241175070065
 11
64.36519343391444
 21
232.6693397288053
 72
     2
 10
65.86524116062753
 20
230.229543061623
 40
2.864044510759331
 50
121.5842355892532
 51
238.4157644107467
 73
     1
 72
     1
 10
64.36519343391444
 20
227.7897463944408
 11
64.36519343391444
 21
219.9020281558931
 72
     2
 10
65.86524116979524
 20
217.4622314728238
 40
2.864044529094653
 50
121.5842355790273
 51
238.4157644209726
 73
     1
 72
     1
 10
64.36519343391444
 20
215.0224347897546
 11
64.36519343391444
 21
207.1347166103604
 72
     2
 10
65.86527169008366
 20
204.694867037262
 40
2.864105569629046
 50
121.5842015332367
 51
238.4157984667633
 73
     1
 72
     1
 10
64.36519343391444
 20
202.2550174641636
 11
64.36519343391444
 21
196.3110751809853
 72
     2
 10
63.36519343391444
 20
196.3110751809853
 40
1.0
 50
360.0
 51
450.0
 73
     0
 72
     1
 10
63.36519343391444
 20
195.3110751809853
 11
60.53986764221952
 21
195.3110751809853
 97
        0
 75
     0
 76
     1
 98
        1
 10
-28996.31821189132
 20
-4007.649959533337
  0
LINE
  5
3E23
330
1F
100
AcDbEntity
  8
NOSNÉ KONSTRUKCE
  6
DASHED
100
AcDbLine
 10
56.17213727315936
 20
241.2633254848741
 30
0.0
 11
56.17213727317391
 21
-95.66503580121082
 31
0.0
  0
LINE
  5
3E24
330
1F
100
AcDbEntity
  8
NOSNÉ KONSTRUKCE
  6
DASHED
100
AcDbLine
 10
51.238146988126
 20
241.2633254848741
 30
0.0
 11
51.23814698814055
 21
-95.16748626718992
 31
0.0
  0
LINE
  5
3E25
330
1F
100
AcDbEntity
  8
NOSNÉ KONSTRUKCE
  6
DASHED
100
AcDbLine
 10
30.35653860488344
 20
241.2633254848741
 30
0.0
 11
30.35653860487616
 21
-89.56656617483133
 31
0.0
  0
LINE
  5
3E26
330
1F
100
AcDbEntity
  8
NOSNÉ KONSTRUKCE
  6
DASHED
100
AcDbLine
 10
24.84640354640248
 20
241.2633254848741
 30
0.0
 11
24.84640354639521
 21
-89.56656617483133
 31
0.0
  0
HATCH
  5
3E27
330
1F
100
AcDbEntity
  8
STAVBA OBRYS
100
AcDbHatch
 10
0.0
 20
0.0
 30
0.0
210
0.0
220
0.0
230
1.0
  2
AR-CONC
 70
     0
 71
     0
 91
        1
 92
        1
 93
        4
 72
     1
 10
242.7473748661217
 20
412.0776547970717
 11
-108.1712410620672
 21
412.0776547970717
 72
     1
 10
-108.1712410620672
 20
412.0776547970717
 11
-108.1712410620672
 21
452.0776547970716
 72
     1
 10
-108.1712410620672
 20
452.0776547970716
 11
242.7473748661217
 21
452.0776547970716
 72
     1
 10
242.7473748661217
 20
452.0776547970716
 11
242.7473748661217
 21
412.0776547970717
 97
        0
 75
     0
 76
     1
 52
0.0
 41
0.25
 77
     0
 78
    13
 53
50.0
 43
-23444.18159238021
 44
-2069.994357666989
 45
45.546167249001
 46
-3.984771384725771
 79
     2
 49
4.7625
 49
-52.3875
 53
355.0
 43
-23444.18159238021
 44
-2069.994357666989
 45
-8.810706493916747
 46
47.76416072054499
 79
     2
 49
3.81
 49
-41.90999999999999
 53
100.451
 43
-23440.38609238022
 44
-2070.326420166989
 45
36.73562541648981
 46
43.77917195507296
 79
     2
 49
4.0475
 49
-44.5225
 53
46.1842
 43
-23444.18159238021
 44
-2057.294357666989
 45
67.76976022303248
 46
-10.51058198318178
 79
     2
 49
7.143749999999999
 49
-78.58125
 53
96.63559999999998
 43
-23438.53411738022
 44
-2058.170232666989
 45
59.35105861655928
 46
61.8563889725123
 79
     2
 49
6.071249999999998
 49
-66.78374999999997
 53
351.184
 43
-23444.18159238021
 44
-2057.294357666989
 45
59.35115145348348
 46
61.85627946514942
 79
     2
 49
5.714999999999999
 49
-62.865
 53
21.0
 43
-23437.83159238022
 44
-2060.469357666989
 45
37.90371995884582
 46
-25.56637962919062
 79
     2
 49
4.7625
 49
-52.3875
 53
326.0
 43
-23437.83159238022
 44
-2060.469357666989
 45
15.45050708691176
 46
46.04699153057981
 79
     2
 49
3.81
 49
-41.90999999999999
 53
71.45140000000001
 43
-23434.67296738022
 44
-2062.599882666989
 45
53.35412269253112
 46
20.48071442901436
 79
     2
 49
4.0475
 49
-44.5225
 53
37.5
 43
-23444.18159238021
 44
-2069.994357666989
 45
0.7721508126479542
 46
21.13875971828827
 79
     6
 49
0.0
 49
-41.402
 49
0.0
 49
-42.545
 49
0.0
 49
-42.06875
 53
7.499999999999999
 43
-23444.18159238021
 44
-2069.994357666989
 45
16.70491562757643
 46
25.04514370452987
 79
     6
 49
0.0
 49
-24.25699999999999
 49
0.0
 49
-40.4495
 49
0.0
 49
-16.03375
 53
327.4999999999999
 43
-23458.34209238022
 44
-2069.994357666989
 45
33.89764879171784
 46
-1.432185998168366
 79
     6
 49
0.0
 49
-15.875
 49
0.0
 49
-49.53
 49
0.0
 49
-65.7225
 53
317.5
 43
-23464.69209238022
 44
-2069.994357666989
 45
37.03229534650451
 46
6.356622758333253
 79
     6
 49
0.0
 49
-20.6375
 49
0.0
 49
-32.893
 49
0.0
 49
-46.6725
 98
        1
 10
-23444.18159238021
 20
-2069.994357666989
  0
LWPOLYLINE
  5
3E28
330
1F
100
AcDbEntity
  8
STAVBA OBRYS
100
AcDbPolyline
 90
        6
 70
     0
 43
0.0
 10
-66.68914418262978
 20
470.0560072099532
 42
-0.0132290984651571
 10
-69.30832377106674
 20
467.7494447477592
 42
-0.0157521173632038
 10
-73.19301301729467
 20
464.7091734335561
 42
-0.0073640874174249
 10
-78.75087656100697
 20
460.7595492928366
 42
-0.0194185739168057
 10
-80.93644752588046
 20
459.3762735051795
 42
-0.0567960585128809
 10
-88.22956762452269
 20
456.1893884291647
  0
LWPOLYLINE
  5
3E29
330
1F
100
AcDbEntity
  8
STAVBA OBRYS
100
AcDbPolyline
 90
        2
 70
     0
 43
0.0
 10
-58.92228576493256
 20
470.060956472951
 10
-50.2760234116173
 20
461.4106955559572
  0
LWPOLYLINE
  5
3E2A
330
1F
100
AcDbEntity
  8
STAVBA OBRYS
100
AcDbPolyline
 90
        4
 70
     0
 43
0.0
 10
-53.40546339268951
 20
470.0644719490145
 42
-0.0269616495147096
 10
-56.07467441741357
 20
465.7689369792832
 42
-0.0258674098621065
 10
-59.95071383649667
 20
460.7915299522018
 42
-0.079372571536355
 10
-67.40605099877178
 20
452.0555467220082
  0
LWPOLYLINE
  5
3E2B
330
1F
100
AcDbEntity
  8
STAVBA OBRYS
100
AcDbPolyline
 90
        4
 70
     0
 43
0.0
 10
-42.10658958180249
 20
470.0716719126384
 42
-0.0061395084242039
 10
-43.55108952083139
 20
465.4796956759118
 42
-0.0582629403736403
 10
-45.53975155221599
 20
461.1826265330318
 42
-0.0424769481457602
 10
-52.25382507642246
 20
452.0652021511513
  0
LWPOLYLINE
  5
3E2C
330
1F
100
AcDbEntity
  8
STAVBA OBRYS
100
AcDbPolyline
 90
        6
 70
     0
 43
0.0
 10
-109.7542864736639
 20
470.0285648769212
 42
0.0124742646996712
 10
-107.2921694216053
 20
467.8448977887645
 42
0.0157521173632038
 10
-103.4228094886271
 20
464.785140623101
 42
0.0073640874174249
 10
-97.88486675169009
 20
460.8076328272699
 42
0.0194185739168057
 10
-95.70627566469523
 20
459.4133899420984
 42
0.0567960585128809
 10
-88.42926480164862
 20
456.1898902662623
  0
POLYLINE
  5
3E2D
330
1F
100
AcDbEntity
  8
STAVBA OBRYS
100
AcDb2dPolyline
 66
     1
 10
0.0
 20
0.0
 30
0.0
  0
VERTEX
  5
3E2E
330
3E2D
100
AcDbEntity
  8
STAVBA OBRYS
100
AcDbVertex
100
AcDb2dVertex
 10
-82.38966099611536
 20
470.0460023942659
 30
0.0
 42
-0.0141362754529377
  0
VERTEX
  5
3E2F
330
3E2D
100
AcDbEntity
  8
STAVBA OBRYS
100
AcDbVertex
100
AcDb2dVertex
 10
-84.98636719446551
 20
468.6087118560161
 30
0.0
 42
-0.056967459841729
  0
VERTEX
  5
3E30
330
3E2D
100
AcDbEntity
  8
STAVBA OBRYS
100
AcDbVertex
100
AcDb2dVertex
 10
-87.55488193180246
 20
467.6317919251504
 30
0.0
 42
-0.0373408083348504
  0
VERTEX
  5
3E31
330
3E2D
100
AcDbEntity
  8
STAVBA OBRYS
100
AcDbVertex
100
AcDb2dVertex
 10
-87.8216771793301
 20
467.58462325695
 30
0.0
 42
-0.0052305969362967
  0
VERTEX
  5
3E32
330
3E2D
100
AcDbEntity
  8
STAVBA OBRYS
100
AcDbVertex
100
AcDb2dVertex
 10
-88.23680515156558
 20
467.5472103577766
 30
0.0
  0
SEQEND
  5
3E33
330
3E2D
100
AcDbEntity
  8
STAVBA OBRYS
  0
POLYLINE
  5
3E34
330
1F
100
AcDbEntity
  8
STAVBA OBRYS
100
AcDb2dPolyline
 66
     1
 10
0.0
 20
0.0
 30
0.0
  0
VERTEX
  5
3E35
330
3E34
100
AcDbEntity
  8
STAVBA OBRYS
100
AcDbVertex
100
AcDb2dVertex
 10
-94.13719367596753
 20
470.0385165324531
 30
0.0
 42
0.0137909154721682
  0
VERTEX
  5
3E36
330
3E34
100
AcDbEntity
  8
STAVBA OBRYS
100
AcDbVertex
100
AcDb2dVertex
 10
-91.61000538165501
 20
468.6253569954605
 30
0.0
 42
0.056967459841729
  0
VERTEX
  5
3E37
330
3E34
100
AcDbEntity
  8
STAVBA OBRYS
100
AcDbVertex
100
AcDb2dVertex
 10
-89.04643303496015
 20
467.635540178814
 30
0.0
 42
0.0373408083348504
  0
VERTEX
  5
3E38
330
3E34
100
AcDbEntity
  8
STAVBA OBRYS
100
AcDbVertex
100
AcDb2dVertex
 10
-88.77987822442776
 20
467.5870312070164
 30
0.0
 42
0.0052305969362967
  0
VERTEX
  5
3E39
330
3E34
100
AcDbEntity
  8
STAVBA OBRYS
100
AcDbVertex
100
AcDb2dVertex
 10
-88.36494353065393
 20
467.5475323682984
 30
0.0
  0
SEQEND
  5
3E3A
330
3E34
100
AcDbEntity
  8
STAVBA OBRYS
  0
POLYLINE
  5
3E3B
330
1F
100
AcDbEntity
  8
STAVBA OBRYS
100
AcDb2dPolyline
 66
     1
 10
0.0
 20
0.0
 30
0.0
  0
VERTEX
  5
3E3C
330
3E3B
100
AcDbEntity
  8
STAVBA OBRYS
100
AcDbVertex
100
AcDb2dVertex
 10
105.8627961725363
 20
470.102239365802
 30
0.0
 42
0.0137909154721682
  0
VERTEX
  5
3E3D
330
3E3B
100
AcDbEntity
  8
STAVBA OBRYS
100
AcDbVertex
100
AcDb2dVertex
 10
108.3899844668488
 20
468.6890798288094
 30
0.0
 42
0.056967459841729
  0
VERTEX
  5
3E3E
330
3E3B
100
AcDbEntity
  8
STAVBA OBRYS
100
AcDbVertex
100
AcDb2dVertex
 10
110.9535568135437
 20
467.6992630121629
 30
0.0
 42
0.0373408083348504
  0
VERTEX
  5
3E3F
330
3E3B
100
AcDbEntity
  8
STAVBA OBRYS
100
AcDbVertex
100
AcDb2dVertex
 10
111.2201116240761
 20
467.6507540403653
 30
0.0
 42
0.0052305969362967
  0
VERTEX
  5
3E40
330
3E3B
100
AcDbEntity
  8
STAVBA OBRYS
100
AcDbVertex
100
AcDb2dVertex
 10
111.6350463178499
 20
467.6112552016474
 30
0.0
  0
SEQEND
  5
3E41
330
3E3B
100
AcDbEntity
  8
STAVBA OBRYS
  0
POLYLINE
  5
3E42
330
1F
100
AcDbEntity
  8
STAVBA OBRYS
100
AcDb2dPolyline
 66
     1
 10
0.0
 20
0.0
 30
0.0
  0
VERTEX
  5
3E43
330
3E42
100
AcDbEntity
  8
STAVBA OBRYS
100
AcDbVertex
100
AcDb2dVertex
 10
117.6103288523885
 20
470.1097252276148
 30
0.0
 42
-0.0141362754529377
  0
VERTEX
  5
3E44
330
3E42
100
AcDbEntity
  8
STAVBA OBRYS
100
AcDbVertex
100
AcDb2dVertex
 10
115.0136226540383
 20
468.6724346893651
 30
0.0
 42
-0.056967459841729
  0
VERTEX
  5
3E45
330
3E42
100
AcDbEntity
  8
STAVBA OBRYS
100
AcDbVertex
100
AcDb2dVertex
 10
112.4451079167014
 20
467.6955147584993
 30
0.0
 42
-0.0373408083348504
  0
VERTEX
  5
3E46
330
3E42
100
AcDbEntity
  8
STAVBA OBRYS
100
AcDbVertex
100
AcDb2dVertex
 10
112.1783126691738
 20
467.648346090299
 30
0.0
 42
-0.0052305969362967
  0
VERTEX
  5
3E47
330
3E42
100
AcDbEntity
  8
STAVBA OBRYS
100
AcDbVertex
100
AcDb2dVertex
 10
111.7631846969383
 20
467.6109331911256
 30
0.0
  0
SEQEND
  5
3E48
330
3E42
100
AcDbEntity
  8
STAVBA OBRYS
  0
LWPOLYLINE
  5
3E49
330
1F
100
AcDbEntity
  8
STAVBA OBRYS
100
AcDbPolyline
 90
        6
 70
     0
 43
0.0
 10
90.24570337483998
 20
470.0922877102701
 42
0.0124742646996712
 10
92.70782042689859
 20
467.9086206221135
 42
0.0157521173632038
 10
96.5771803598767
 20
464.84886345645
 42
0.0073640874174249
 10
102.1151230968138
 20
460.8713556606188
 42
0.0194185739168057
 10
104.2937141838086
 20
459.4771127754474
 42
0.0567960585128809
 10
111.5707250468552
 20
456.2536130996112
  0
LWPOLYLINE
  5
3E4A
330
1F
100
AcDbEntity
  8
STAVBA OBRYS
100
AcDbPolyline
 90
        2
 70
     0
 43
0.0
 10
81.79781306604889
 20
470.0869044743857
 10
72.60218693805689
 20
462.8440748987249
  0
LWPOLYLINE
  5
3E4B
330
1F
100
AcDbEntity
  8
STAVBA OBRYS
100
AcDbPolyline
 90
        4
 70
     0
 43
0.0
 10
76.9367633967671
 20
470.0838068753354
 42
0.0256269988680247
 10
79.46438428506406
 20
465.9946495163775
 42
0.0258674098621065
 10
83.31535855457003
 20
460.9978245777637
 42
0.0807730785506472
 10
90.88059907058084
 20
452.0926886293172
  0
LWPOLYLINE
  5
3E4C
330
1F
100
AcDbEntity
  8
STAVBA OBRYS
100
AcDbPolyline
 90
        2
 70
     0
 43
0.0
 10
67.28417510039832
 20
464.2924331576304
 42
0.0558582670487531
 10
75.77275174430941
 20
452.0830614794767
  0
LWPOLYLINE
  5
3E4D
330
1F
100
AcDbEntity
  8
STAVBA OBRYS
100
AcDbPolyline
 90
        4
 70
     0
 43
0.0
 10
157.8934002667014
 20
470.1353947459873
 42
-0.0061395084242039
 10
156.4489003276725
 20
465.5434185092607
 42
-0.0582629403736403
 10
154.4602382962879
 20
461.2463493663807
 42
-0.0424769481457602
 10
147.7461647720814
 20
452.1289249845002
  0
LWPOLYLINE
  5
3E4E
330
1F
100
AcDbEntity
  8
STAVBA OBRYS
100
AcDbPolyline
 90
        4
 70
     0
 43
0.0
 10
146.5945264558143
 20
470.1281947823635
 42
-0.0269616495147096
 10
143.9253154310903
 20
465.8326598126321
 42
-0.0258674098621065
 10
140.0492760120072
 20
460.8552527855507
 42
-0.079372571536355
 10
132.5939388497321
 20
452.1192695553572
  0
LWPOLYLINE
  5
3E4F
330
1F
100
AcDbEntity
  8
STAVBA OBRYS
100
AcDbPolyline
 90
        2
 70
     0
 43
0.0
 10
141.0777040835713
 20
470.1246793062999
 10
149.7239664368866
 20
461.4744183893061
  0
LWPOLYLINE
  5
3E50
330
1F
100
AcDbEntity
  8
STAVBA OBRYS
100
AcDbPolyline
 90
        6
 70
     0
 43
0.0
 10
133.3108456658741
 20
470.1197300433022
 42
-0.0132290984651571
 10
130.6916660774371
 20
467.8131675811081
 42
-0.0157521173632038
 10
126.8069768312092
 20
464.7728962669051
 42
-0.0073640874174249
 10
121.2491132874969
 20
460.8232721261855
 42
-0.0194185739168057
 10
119.0635423226234
 20
459.4399963385284
 42
-0.0567960585128809
 10
111.7704222239811
 20
456.2531112625136
  0
LWPOLYLINE
  5
3E51
330
1F
100
AcDbEntity
  8
STAVBA OBRYS
100
AcDbPolyline
 90
        6
 70
     0
 43
0.0
 10
233.3165890511885
 20
452.1095162137461
 42
0.0132290984651571
 10
230.695940187645
 20
454.4144091922797
 42
0.0157521173632038
 10
226.8093143832014
 20
457.4522044552876
 42
0.0073640874174249
 10
221.2489351556181
 20
461.3982861661705
 42
0.0194185739168057
 10
219.0624831720055
 20
462.7801689653087
 42
0.0567960585128809
 10
211.7673337807212
 20
465.9624060117592
  0
LWPOLYLINE
  5
3E52
330
1F
100
AcDbEntity
  8
STAVBA OBRYS
100
AcDbPolyline
 90
        2
 70
     0
 43
0.0
 10
241.0834490457931
 20
452.109516213747
 10
242.7359047555404
 20
453.7648444224522
  0
LWPOLYLINE
  5
3E53
330
1F
100
AcDbEntity
  8
STAVBA OBRYS
100
AcDbPolyline
 90
        3
 70
     0
 43
0.0
 10
242.7359047555404
 20
458.0484418555687
 42
0.0175375526296756
 10
240.0491144421142
 20
461.378285509052
 42
0.079372571536355
 10
232.5882119777455
 20
470.1095162137452
  0
LWPOLYLINE
  5
3E54
330
1F
100
AcDbEntity
  8
STAVBA OBRYS
100
AcDbPolyline
 90
        2
 70
     0
 43
0.0
 10
167.2862185726156
 20
457.8947378531873
 42
-0.0558582670487531
 10
175.7670133359173
 20
470.109516213747
  0
LWPOLYLINE
  5
3E55
330
1F
100
AcDbEntity
  8
STAVBA OBRYS
100
AcDbPolyline
 90
        4
 70
     0
 43
0.0
 10
176.9424953364508
 20
452.1095162137461
 42
-0.0256269988680247
 10
179.4675099847703
 20
456.2002834140474
 42
-0.0258674098621065
 10
183.3152993541447
 20
461.1995612879471
 42
-0.0807730785506472
 10
190.8748637295324
 20
470.1095162137461
  0
LWPOLYLINE
  5
3E56
330
1F
100
AcDbEntity
  8
STAVBA OBRYS
100
AcDbPolyline
 90
        2
 70
     0
 43
0.0
 10
181.8035459926726
 20
452.109516213747
 10
172.6033063956823
 20
459.3464846056821
  0
LWPOLYLINE
  5
3E57
330
1F
100
AcDbEntity
  8
STAVBA OBRYS
100
AcDbPolyline
 90
        6
 70
     0
 43
0.0
 10
190.2514380166397
 20
452.1095162137461
 42
-0.0124742646996712
 10
192.7121630743462
 20
454.2947517892179
 42
-0.0157521173632038
 10
196.5795724578641
 20
457.3569739993171
 42
-0.0073640874174249
 10
202.1149794898996
 20
461.3380099214363
 42
-0.0194185739168057
 10
204.2926816835501
 20
462.7336407834326
 42
-0.0567960585128809
 10
211.5676369639226
 20
465.9617769220711
  0
POLYLINE
  5
3E58
330
1F
100
AcDbEntity
  8
STAVBA OBRYS
100
AcDb2dPolyline
 66
     1
 10
0.0
 20
0.0
 30
0.0
  0
VERTEX
  5
3E59
330
3E58
100
AcDbEntity
  8
STAVBA OBRYS
100
AcDbVertex
100
AcDb2dVertex
 10
217.6160690500295
 20
452.1095162137461
 30
0.0
 42
0.0141362754529377
  0
VERTEX
  5
3E5A
330
3E58
100
AcDbEntity
  8
STAVBA OBRYS
100
AcDbVertex
100
AcDb2dVertex
 10
215.0184474966776
 20
453.5451517655027
 30
0.0
 42
0.056967459841729
  0
VERTEX
  5
3E5B
330
3E58
100
AcDbEntity
  8
STAVBA OBRYS
100
AcDbVertex
100
AcDb2dVertex
 10
212.4493107597994
 20
454.5204347677425
 30
0.0
 42
0.0373408083348504
  0
VERTEX
  5
3E5C
330
3E58
100
AcDbEntity
  8
STAVBA OBRYS
100
AcDbVertex
100
AcDb2dVertex
 10
212.1824855092312
 20
454.5674334168842
 30
0.0
 42
0.0052305969362967
  0
VERTEX
  5
3E5D
330
3E58
100
AcDbEntity
  8
STAVBA OBRYS
100
AcDbVertex
100
AcDb2dVertex
 10
211.7673337807212
 20
454.604581777169
 30
0.0
  0
SEQEND
  5
3E5E
330
3E58
100
AcDbEntity
  8
STAVBA OBRYS
  0
POLYLINE
  5
3E5F
330
1F
100
AcDbEntity
  8
STAVBA OBRYS
100
AcDb2dPolyline
 66
     1
 10
0.0
 20
0.0
 30
0.0
  0
VERTEX
  5
3E60
330
3E5F
100
AcDbEntity
  8
STAVBA OBRYS
100
AcDbVertex
100
AcDb2dVertex
 10
205.8685339850748
 20
452.1095162137461
 30
0.0
 42
-0.0137909154721682
  0
VERTEX
  5
3E61
330
3E5F
100
AcDbEntity
  8
STAVBA OBRYS
100
AcDbVertex
100
AcDb2dVertex
 10
208.3948212610415
 20
453.5242858597293
 30
0.0
 42
-0.056967459841729
  0
VERTEX
  5
3E62
330
3E5F
100
AcDbEntity
  8
STAVBA OBRYS
100
AcDbVertex
100
AcDb2dVertex
 10
210.9577623479639
 20
454.5157360562642
 30
0.0
 42
-0.0373408083348504
  0
VERTEX
  5
3E63
330
3E5F
100
AcDbEntity
  8
STAVBA OBRYS
100
AcDbVertex
100
AcDb2dVertex
 10
211.2242861930866
 20
454.5644148744822
 30
0.0
 42
-0.0052305969362967
  0
VERTEX
  5
3E64
330
3E5F
100
AcDbEntity
  8
STAVBA OBRYS
100
AcDbVertex
100
AcDb2dVertex
 10
211.639195632841
 20
454.6041781133107
 30
0.0
  0
SEQEND
  5
3E65
330
3E5F
100
AcDbEntity
  8
STAVBA OBRYS
  0
POLYLINE
  5
3E66
330
1F
100
AcDbEntity
  8
STAVBA OBRYS
100
AcDb2dPolyline
 66
     1
 10
0.0
 20
0.0
 30
0.0
  0
VERTEX
  5
3E67
330
3E66
100
AcDbEntity
  8
STAVBA OBRYS
100
AcDbVertex
100
AcDb2dVertex
 10
5.868533985071167
 20
452.0776547970716
 30
0.0
 42
-0.0137909154721682
  0
VERTEX
  5
3E68
330
3E66
100
AcDbEntity
  8
STAVBA OBRYS
100
AcDbVertex
100
AcDb2dVertex
 10
8.394821261037918
 20
453.4924244430539
 30
0.0
 42
-0.056967459841729
  0
VERTEX
  5
3E69
330
3E66
100
AcDbEntity
  8
STAVBA OBRYS
100
AcDbVertex
100
AcDb2dVertex
 10
10.95776234796028
 20
454.4838746395897
 30
0.0
 42
-0.0373408083348504
  0
VERTEX
  5
3E6A
330
3E66
100
AcDbEntity
  8
STAVBA OBRYS
100
AcDbVertex
100
AcDb2dVertex
 10
11.224286193083
 20
454.5325534578076
 30
0.0
 42
-0.0052305969362967
  0
VERTEX
  5
3E6B
330
3E66
100
AcDbEntity
  8
STAVBA OBRYS
100
AcDbVertex
100
AcDb2dVertex
 10
11.63919563283741
 20
454.5723166966362
 30
0.0
  0
SEQEND
  5
3E6C
330
3E66
100
AcDbEntity
  8
STAVBA OBRYS
  0
POLYLINE
  5
3E6D
330
1F
100
AcDbEntity
  8
STAVBA OBRYS
100
AcDb2dPolyline
 66
     1
 10
0.0
 20
0.0
 30
0.0
  0
VERTEX
  5
3E6E
330
3E6D
100
AcDbEntity
  8
STAVBA OBRYS
100
AcDbVertex
100
AcDb2dVertex
 10
17.61606905002588
 20
452.0776547970716
 30
0.0
 42
0.0141362754529377
  0
VERTEX
  5
3E6F
330
3E6D
100
AcDbEntity
  8
STAVBA OBRYS
100
AcDbVertex
100
AcDb2dVertex
 10
15.01844749667395
 20
453.5132903488292
 30
0.0
 42
0.056967459841729
  0
VERTEX
  5
3E70
330
3E6D
100
AcDbEntity
  8
STAVBA OBRYS
100
AcDbVertex
100
AcDb2dVertex
 10
12.44931075979582
 20
454.4885733510681
 30
0.0
 42
0.0373408083348504
  0
VERTEX
  5
3E71
330
3E6D
100
AcDbEntity
  8
STAVBA OBRYS
100
AcDbVertex
100
AcDb2dVertex
 10
12.1824855092276
 20
454.5355720002088
 30
0.0
 42
0.0052305969362967
  0
VERTEX
  5
3E72
330
3E6D
100
AcDbEntity
  8
STAVBA OBRYS
100
AcDbVertex
100
AcDb2dVertex
 10
11.76733378071765
 20
454.5727203604946
 30
0.0
  0
SEQEND
  5
3E73
330
3E6D
100
AcDbEntity
  8
STAVBA OBRYS
  0
LWPOLYLINE
  5
3E74
330
1F
100
AcDbEntity
  8
STAVBA OBRYS
100
AcDbPolyline
 90
        6
 70
     0
 43
0.0
 10
-9.748561983363856
 20
452.0776547970716
 42
-0.0124742646996712
 10
-7.287836925657416
 20
454.2628903725443
 42
-0.0157521173632038
 10
-3.420427542139464
 20
457.3251125826417
 42
-0.0073640874174249
 10
2.114979489895972
 20
461.3061485047618
 42
-0.0194185739168057
 10
4.292681683546447
 20
462.7017793667581
 42
-0.0567960585128809
 10
11.56763696391897
 20
465.9299155053966
  0
LWPOLYLINE
  5
3E75
330
1F
100
AcDbEntity
  8
STAVBA OBRYS
100
AcDbPolyline
 90
        2
 70
     0
 43
0.0
 10
-18.19645400733099
 20
452.0776547970725
 10
-27.39669360432128
 20
459.3146231890067
  0
LWPOLYLINE
  5
3E76
330
1F
100
AcDbEntity
  8
STAVBA OBRYS
100
AcDbPolyline
 90
        4
 70
     0
 43
0.0
 10
-23.05750466355277
 20
452.0776547970716
 42
-0.0256269988680247
 10
-20.53249001523329
 20
456.168421997373
 42
-0.0258674098621065
 10
-16.68470064585892
 20
461.1676998712726
 42
-0.0807730785506472
 10
-9.125136270471216
 20
470.0776547970717
  0
LWPOLYLINE
  5
3E77
330
1F
100
AcDbEntity
  8
STAVBA OBRYS
100
AcDbPolyline
 90
        2
 70
     0
 43
0.0
 10
-32.71378142738797
 20
457.8628764365138
 42
-0.0558582670487531
 10
-24.2329866640863
 20
470.0776547970717
  0
LWPOLYLINE
  5
3E78
330
1F
100
AcDbEntity
  8
STAVBA OBRYS
100
AcDbPolyline
 90
        4
 70
     0
 43
0.0
 10
57.89914864300988
 20
452.0776547970716
 42
0.0061395084242039
 10
56.45172286004196
 20
456.668709625247
 42
0.0582629403736403
 10
54.460323018346
 20
460.9645106639662
 42
0.0424769481457602
 10
47.74044097644616
 20
470.0776547970717
  0
LWPOLYLINE
  5
3E79
330
1F
100
AcDbEntity
  8
STAVBA OBRYS
100
AcDbPolyline
 90
        4
 70
     0
 43
0.0
 10
46.60027253811165
 20
452.0776547970716
 42
0.0269616495147096
 10
43.92832481886614
 20
456.3714879978732
 42
0.0258674098621065
 10
40.04911444211063
 20
461.3464240923775
 42
0.079372571536355
 10
32.58821197774193
 20
470.0776547970717
  0
LWPOLYLINE
  5
3E7A
330
1F
100
AcDbEntity
  8
STAVBA OBRYS
100
AcDbPolyline
 90
        2
 70
     0
 43
0.0
 10
41.08344904578951
 20
452.0776547970725
 10
49.72419745258628
 20
460.7334236008745
  0
LWPOLYLINE
  5
3E7B
330
1F
100
AcDbEntity
  8
STAVBA OBRYS
100
AcDbPolyline
 90
        6
 70
     0
 43
0.0
 10
33.3165890511849
 20
452.0776547970716
 42
0.0132290984651571
 10
30.69594018764144
 20
454.3825477756053
 42
0.0157521173632038
 10
26.80931438319783
 20
457.4203430386131
 42
0.0073640874174249
 10
21.2489351556145
 20
461.366424749497
 42
0.0194185739168057
 10
19.06248317200186
 20
462.7483075486342
 42
0.0567960585128809
 10
11.76733378071765
 20
465.9305445950848
  0
LINE
  5
3E7C
330
1F
100
AcDbEntity
  8
STAVBA OBRYS
100
AcDbLine
 10
167.2823267709867
 20
470.1095162137461
 30
0.0
 11
167.2880618262792
 21
452.1095162137461
 31
0.0
  0
LINE
  5
3E7D
330
1F
100
AcDbEntity
  8
STAVBA OBRYS
100
AcDbLine
 10
-32.71766307751716
 20
470.0457933803972
 30
0.0
 11
-32.71192802222469
 21
452.0457933803972
 31
0.0
  0
LINE
  5
3E7E
330
1F
100
AcDbEntity
  8
STAVBA OBRYS
100
AcDbLine
 10
67.28233184673479
 20
470.0776547970717
 30
0.0
 11
67.28806690202725
 21
452.0776547970716
 31
0.0
  0
INSERT
  5
3E7F
330
1F
100
AcDbEntity
  8
POPIS
100
AcDbBlockReference
  2
E_PUNKT
 10
20.79906208146019
 20
40.75685902281827
 30
0.0
 50
270.0
  0
LINE
  5
3E80
330
1F
100
AcDbEntity
  8
POPIS
100
AcDbLine
 10
-50.65543860025321
 20
40.72924864719323
 30
0.0
 11
20.82813041233419
 21
40.72924864719141
 31
0.0
  0
TEXT
  5
3E81
330
1F
100
AcDbEntity
  8
POPIS
100
AcDbText
 10
-89.53653720163094
 20
32.52810815114014
 30
0.0
 40
25.0
  1
04
 41
0.85
  7
SIMPLEX7
100
AcDbText
  0
TEXT
  5
3E82
330
1F
100
AcDbEntity
  8
POPIS
100
AcDbText
 10
477.9982178407884
 20
188.8018995264172
 30
0.0
 40
25.0
  1
UW profil (ocelový nosník I, U)
 41
0.7
  7
SIMPLEX7
100
AcDbText
  0
TEXT
  5
3E83
330
1F
100
AcDbEntity
  8
POPIS
100
AcDbText
 10
423.6545146810462
 20
188.8018995264172
 30
0.0
 40
25.0
  1
05
 41
0.85
  7
SIMPLEX7
100
AcDbText
  0
HATCH
  5
3E84
330
1F
100
AcDbEntity
  8
CETRIS
100
AcDbHatch
 10
0.0
 20
0.0
 30
0.0
210
0.0
220
0.0
230
1.0
  2
ANSI31
 70
     0
 71
     0
 91
        6
 92
        7
 72
     0
 73
     1
 93
       15
 10
78.27234820826231
 20
228.8390701934703
 10
66.27234820825868
 20
228.8390701934703
 10
66.27234820825868
 20
212.2353234266601
 10
67.02828435296066
 20
212.2353234266601
 10
67.25441590726439
 20
212.9078405250883
 10
67.47207704330901
 20
213.2854919003974
 10
67.85065859213898
 20
212.9078405250865
 10
67.62452703788255
 20
212.2353234266601
 10
71.67275093717432
 20
212.2353234266601
 10
72.45967966030036
 20
212.3013659085817
 10
73.94051952735424
 20
212.7292467728829
 10
75.25950880565904
 20
213.5254772522001
 10
76.32828079505305
 20
214.6361071525633
 10
77.07242143152723
 20
215.9857922361087
 10
78.27234820826231
 20
215.9857922361087
 97
        0
 92
        7
 72
     0
 73
     1
 93
       12
 10
78.27234820826595
 20
205.7854844588408
 10
77.07242143153814
 20
205.7854844588408
 10
76.73569779366187
 20
206.5007896449859
 10
75.81761428320203
 20
207.7379234539147
 10
74.61024610031052
 20
208.6960045238928
 10
73.19637889061448
 20
209.3089903730395
 10
71.6727509371816
 20
209.5359532639239
 10
66.71687313312975
 20
209.5359532639239
 10
66.49074157886968
 20
208.8634361654921
 10
66.27234820826231
 20
208.486126769936
 10
66.27234820826231
 20
76.57282918658973
 10
78.27234820826595
 20
76.57282918658973
 97
        0
 92
        7
 72
     0
 73
     1
 93
        4
 10
78.27234820826231
 20
76.57282918658973
 10
66.27234820826231
 20
76.57282918658973
 10
66.27234820826231
 20
-97.93648704942974
 10
78.27234820825868
 20
-100.1466483277296
 97
        0
 92
        7
 72
     0
 73
     1
 93
        4
 10
15.04009392350815
 20
189.0932842950832
 10
3.04009392351179
 20
180.1481694337024
 10
3.040093923519066
 20
-86.29036371945051
 10
15.04009392350815
 20
-88.50052499774767
 97
        0
 92
        7
 72
     0
 73
     1
 93
       15
 10
15.04009392351543
 20
228.8390701934703
 10
3.040093923508152
 20
228.8390701934703
 10
3.040093923508152
 20
215.9857922361087
 10
4.240020700239597
 20
215.9857922361087
 10
4.984161336721058
 20
214.6361071525469
 10
6.052933326133256
 20
213.5254772521938
 10
7.37192260442714
 20
212.729246772881
 10
8.852762471477376
 20
212.3013659085817
 10
9.639691194599777
 20
212.2353234266601
 10
13.68791509388427
 20
212.2353234266591
 10
13.46178353964239
 20
212.9078405250883
 10
13.84036508846145
 20
213.2854919003992
 10
14.05802622450971
 20
212.9078405250983
 10
14.28415777881707
 20
212.2353234266601
 10
15.04009392351179
 20
212.2353234266601
 97
        0
 92
        7
 72
     0
 73
     1
 93
       12
 10
15.04009392351179
 20
208.4861267699251
 10
14.82170055288986
 20
208.8634361655084
 10
14.59556899864071
 20
209.5359532639239
 10
9.639691194603415
 20
209.5359532639239
 10
8.116063241166898
 20
209.3089903730405
 10
6.7021960314745
 20
208.6960045238928
 10
5.494827848568434
 20
207.7379234539156
 10
4.5767443381377
 20
206.5007896450087
 10
4.240020700239597
 20
205.7854844588408
 10
3.040093923515428
 20
205.7854844588408
 10
3.040093923515428
 20
180.1481694337097
 10
15.04009392350815
 20
189.0932842950823
 97
        0
 75
     0
 76
     1
 52
90.0
 41
1.0
 77
     0
 78
     1
 53
135.0
 43
-23444.18159238021
 44
-2069.994357666989
 45
-2.245064030267288
 46
-2.245064030267287
 79
     0
 47
0.869265801651106
 98
        6
 10
71.27734852916217
 20
222.1687946184619
 10
71.27734852916217
 20
168.2743014700034
 10
70.40764337196776
 20
61.35462504803661
 10
9.525800558316745
 20
19.62984266461796
 10
8.656038996349138
 20
222.1687946184619
 10
9.525800558316745
 20
196.0908230589492
  0
LINE
  5
3E85
330
1F
100
AcDbEntity
  8
POPIS
100
AcDbLine
 10
135.9570373538521
 20
137.7186014420011
 30
0.0
 11
78.27234820826231
 21
137.7186014420011
 31
0.0
  0
LINE
  5
3E86
330
1F
100
AcDbEntity
  8
POPIS
100
AcDbLine
 10
135.9570373538521
 20
211.5212912159776
 30
0.0
 11
75.8346847757424
 21
211.5212912159776
 31
0.0
  0
INSERT
  5
3E87
330
1F
100
AcDbEntity
  8
POPIS
100
AcDbBlockReference
  2
E_PUNKT
 10
75.81537447017797
 20
211.4033949381044
 30
0.0
 50
270.0
  0
INSERT
  5
3E88
330
1F
100
AcDbEntity
  8
POPIS
100
AcDbBlockReference
  2
E_PUNKT
 10
34.27094836040521
 20
77.05588863452419
 30
0.0
 50
270.0
  0
LINE
  5
3E89
330
1F
100
AcDbEntity
  8
POPIS
100
AcDbLine
 10
135.9570373538521
 20
76.57282918658973
 30
0.0
 11
38.46680630652588
 21
76.57282918658973
 31
0.0
  0
TEXT
  5
3E8A
330
1F
100
AcDbEntity
  8
POPIS
100
AcDbText
 10
138.0070942554197
 20
64.66154790848975
 30
0.0
 40
25.0
  1
03
 41
0.85
  7
SIMPLEX7
100
AcDbText
  0
LINE
  5
3E8B
330
1F
100
AcDbEntity
  8
POPIS
100
AcDbLine
 10
20.08133291531737
 20
192.8511561138665
 30
0.0
 11
-50.65543860025321
 21
140.122110603036
 31
0.0
  0
LINE
  5
3E8C
330
1F
100
AcDbEntity
  8
POPIS
100
AcDbLine
 10
6.228716100260839
 20
231.7351424504384
 30
0.0
 11
-50.65543860025321
 21
190.4945688396554
 31
0.0
  0
LINE
  5
3E8D
330
1F
100
AcDbEntity
  8
POPIS
100
AcDbLine
 10
27.40763575324342
 20
244.6057183971778
 30
0.0
 11
-50.56017094278615
 21
294.3140890082657
 31
0.0
  0
INSERT
  5
3E8E
330
1F
100
AcDbEntity
  8
POPIS
100
AcDbBlockReference
  2
E_PUNKT
 10
19.97008283374486
 20
192.5475244623083
 30
0.0
 50
270.0
  0
INSERT
  5
3E8F
330
1F
100
AcDbEntity
  8
POPIS
100
AcDbBlockReference
  2
E_PUNKT
 10
6.096257824967665
 20
231.3424428785
 30
0.0
 50
270.0
  0
INSERT
  5
3E90
330
1F
100
AcDbEntity
  8
POPIS
100
AcDbBlockReference
  2
E_PUNKT
 10
27.37856742236942
 20
244.6333287728047
 30
0.0
 50
270.0
  0
TEXT
  5
3E91
330
1F
100
AcDbEntity
  8
POPIS
100
AcDbText
 10
138.0070942554197
 20
197.4965379970116
 30
0.0
 40
25.0
  1
02
 41
0.85
  7
SIMPLEX7
100
AcDbText
  0
TEXT
  5
3E92
330
1F
100
AcDbEntity
  8
POPIS
100
AcDbText
 10
138.0070942554197
 20
125.7212153641547
 30
0.0
 40
25.0
  1
01
 41
0.85
  7
SIMPLEX7
100
AcDbText
  0
TEXT
  5
3E93
330
1F
100
AcDbEntity
  8
POPIS
100
AcDbText
 10
-89.53653720163094
 20
125.7212153641575
 30
0.0
 40
25.0
  1
05
 41
0.85
  7
SIMPLEX7
100
AcDbText
  0
TEXT
  5
3E94
330
1F
100
AcDbEntity
  8
POPIS
100
AcDbText
 10
-89.53653720163094
 20
179.1008575865542
 30
0.0
 40
25.0
  1
06
 41
0.85
  7
SIMPLEX7
100
AcDbText
  0
TEXT
  5
3E95
330
1F
100
AcDbEntity
  8
POPIS
100
AcDbText
 10
-89.53653720163094
 20
283.7249870194699
 30
0.0
 40
25.0
  1
07
 41
0.85
  7
SIMPLEX7
100
AcDbText
  0
TEXT
  5
3E96
330
1F
100
AcDbEntity
  8
POPIS
100
AcDbText
 10
-89.53653720163094
 20
345.6453887303704
 30
0.0
 40
25.0
  1
08
 41
0.85
  7
SIMPLEX7
100
AcDbText
  0
TEXT
  5
3E97
330
1F
100
AcDbEntity
  8
POPIS
100
AcDbText
 10
-118.4537074401229
 20
530.7389465044897
 30
0.0
 40
35.0
  1
SVISLÝ ŘEZ
 41
0.85
  7
SIMPLEX7
100
AcDbText
  0
TEXT
  5
3E98
330
1F
100
AcDbEntity
  8
POPIS
100
AcDbText
 10
-118.4537074401229
 20
585.3636895302905
 30
0.0
 40
50.0
  1
Napojení příčky na stropní konstrukci
 41
0.85
  7
SIMPLEX7
100
AcDbText
  0
TEXT
  5
3E99
330
1F
100
AcDbEntity
  8
POPIS
100
AcDbText
 10
423.6545146810462
 20
328.6365321442152
 30
0.0
 40
25.0
  1
01
 41
0.85
  7
SIMPLEX7
100
AcDbText
  0
TEXT
  5
3E9A
330
1F
100
AcDbEntity
  8
POPIS
100
AcDbText
 10
477.9982178407884
 20
328.6365321442152
 30
0.0
 40
25.0
  1
Deska CETRIS   
 41
0.7
  7
SIMPLEX7
100
AcDbText
  0
TEXT
  5
3E9B
330
1F
100
AcDbEntity
  8
POPIS
100
AcDbText
 10
423.6545146810462
 20
292.0415205285879
 30
0.0
 40
25.0
  1
02
 41
0.85
  7
SIMPLEX7
100
AcDbText
  0
TEXT
  5
3E9C
330
1F
100
AcDbEntity
  8
POPIS
100
AcDbText
 10
477.9982178407884
 20
292.0415205285879
 30
0.0
 40
25.0
  1
Vrut Bűhnen 4,2x35 (45,55) mm
 41
0.7
  7
SIMPLEX7
100
AcDbText
  0
TEXT
  5
3E9D
330
1F
100
AcDbEntity
  8
POPIS
100
AcDbText
 10
423.6545146810462
 20
258.0913322838658
 30
0.0
 40
25.0
  1
03
 41
0.85
  7
SIMPLEX7
100
AcDbText
  0
TEXT
  5
3E9E
330
1F
100
AcDbEntity
  8
POPIS
100
AcDbText
 10
477.9982178407884
 20
258.0913322838658
 30
0.0
 40
25.0
  1
Tepelná izolace 
 41
0.7
  7
SIMPLEX7
100
AcDbText
  0
TEXT
  5
3E9F
330
1F
100
AcDbEntity
  8
POPIS
100
AcDbText
 10
423.6545146810462
 20
222.6871710657031
 30
0.0
 40
25.0
  1
04
 41
0.85
  7
SIMPLEX7
100
AcDbText
  0
TEXT
  5
3EA0
330
1F
100
AcDbEntity
  8
POPIS
100
AcDbText
 10
477.9982178407884
 20
222.6871710657031
 30
0.0
 40
25.0
  1
CW profil (ocelový nosník I, U) - stojina
 41
0.7
  7
SIMPLEX7
100
AcDbText
  0
TEXT
  5
3EA1
330
1F
100
AcDbEntity
  8
POPIS
100
AcDbText
 10
477.9982178407884
 20
151.966359523525
 30
0.0
 40
25.0
  1
Trvale pružný tmel
 41
0.7
  7
SIMPLEX7
100
AcDbText
  0
TEXT
  5
3EA2
330
1F
100
AcDbEntity
  8
POPIS
100
AcDbText
 10
423.6545146810462
 20
151.966359523525
 30
0.0
 40
25.0
  1
06
 41
0.85
  7
SIMPLEX7
100
AcDbText
  0
TEXT
  5
3EA3
330
1F
100
AcDbEntity
  8
POPIS
100
AcDbText
 10
645.6244030798337
 20
353.6118422524958
 30
0.0
 40
12.0
  1
R
 41
0.85
  7
SIMPLEX7
100
AcDbText
  0
CIRCLE
  5
3EA4
330
1F
100
AcDbEntity
  8
POPIS
100
AcDbCircle
 10
650.3834321350153
 20
359.1571879974834
 30
0.0
 40
11.13656048292026
  0
TEXT
  5
3EA5
330
1F
100
AcDbEntity
  8
POPIS
100
AcDbText
 10
423.6545146810462
 20
117.7129669843269
 30
0.0
 40
25.0
  1
07
 41
0.85
  7
SIMPLEX7
100
AcDbText
  0
TEXT
  5
3EA6
330
1F
100
AcDbEntity
  8
POPIS
100
AcDbText
 10
477.9982178407884
 20
117.7129669843269
 30
0.0
 40
25.0
  1
Těsnící podložka
 41
0.7
  7
SIMPLEX7
100
AcDbText
  0
TEXT
  5
3EA7
330
1F
100
AcDbEntity
  8
POPIS
100
AcDbText
 10
477.9982178407884
 20
84.54776862052666
 30
0.0
 40
25.0
  1
Přikotvení 
 41
0.7
  7
SIMPLEX7
100
AcDbText
  0
TEXT
  5
3EA8
330
1F
100
AcDbEntity
  8
POPIS
100
AcDbText
 10
423.6545146810462
 20
84.54776862052666
 30
0.0
 40
25.0
  1
08
 41
0.85
  7
SIMPLEX7
100
AcDbText
  0
LINE
  5
3EA9
330
1F
100
AcDbEntity
  8
STAVBA OBRYS
100
AcDbLine
 10
242.7359047555404
 20
470.0776547970717
 30
0.0
 11
-108.1712410620672
 21
470.0776547970717
 31
0.0
  0
LINE
  5
3EAA
330
1F
100
AcDbEntity
  8
STAVBA OBRYS
100
AcDbLine
 10
242.7473748661217
 20
452.0776547970716
 30
0.0
 11
-108.1712410620672
 21
452.0776547970716
 31
0.0
  0
LINE
  5
3EAB
330
1F
100
AcDbEntity
  8
STAVBA OBRYS
100
AcDbLine
 10
45.16625144931857
 20
403.8719022394697
 30
0.0
 11
26.34819070950141
 21
404.7179586543396
 31
0.0
  0
LINE
  5
3EAC
330
1F
100
AcDbEntity
  8
STAVBA OBRYS
100
AcDbLine
 10
60.08437879928931
 20
411.2233636609134
 30
0.0
 11
80.32561540914718
 21
411.5373438187424
 31
0.0
  0
LINE
  5
3EAD
330
1F
100
AcDbEntity
  8
STAVBA OBRYS
100
AcDbLine
 10
80.35099705049322
 20
400.4767892880962
 30
0.0
 11
66.86771715688189
 21
401.6391317483547
 31
0.0
  0
LINE
  5
3EAE
330
1F
100
AcDbEntity
  8
STAVBA OBRYS
100
AcDbLine
 10
103.7348308262993
 20
404.2950180122542
 30
0.0
 11
68.00164694493322
 21
404.2950180122542
 31
0.0
  0
LINE
  5
3EAF
330
1F
100
AcDbEntity
  8
STAVBA OBRYS
100
AcDbLine
 10
66.86771715688189
 20
401.6391317483547
 30
0.0
 11
42.14280548528802
 21
399.310827460028
 31
0.0
  0
LINE
  5
3EB0
330
1F
100
AcDbEntity
  8
STAVBA OBRYS
100
AcDbLine
 10
68.00164694493322
 20
404.2950180122542
 30
0.0
 11
45.16625144931857
 21
403.8719022394697
 31
0.0
  0
LINE
  5
3EB1
330
1F
100
AcDbEntity
  8
STAVBA OBRYS
100
AcDbLine
 10
33.26825078689978
 20
410.1894503811389
 30
0.0
 11
60.08437879928931
 21
411.2233636609134
 31
0.0
  0
LINE
  5
3EB2
330
1F
100
AcDbEntity
  8
STAVBA OBRYS
100
AcDbLine
 10
150.0125623456809
 20
408.3104439053466
 30
0.0
 11
143.9708838464397
 21
409.1833828827701
 31
0.0
  0
LINE
  5
3EB3
330
1F
100
AcDbEntity
  8
STAVBA OBRYS
100
AcDbLine
 10
80.32561540914718
 20
411.5373438187424
 30
0.0
 11
116.9825683666316
 21
410.7533128603507
 31
0.0
  0
LINE
  5
3EB4
330
1F
100
AcDbEntity
  8
STAVBA OBRYS
100
AcDbLine
 10
82.81234787186292
 20
399.8137516559553
 30
0.0
 11
80.35099705049322
 21
400.4767892880962
 31
0.0
  0
LINE
  5
3EB5
330
1F
100
AcDbEntity
  8
STAVBA OBRYS
100
AcDbLine
 10
128.6123029391641
 20
403.0245907212418
 30
0.0
 11
103.7348308262993
 21
404.2950180122542
 31
0.0
  0
LINE
  5
3EB6
330
1F
100
AcDbEntity
  8
STAVBA OBRYS
100
AcDbLine
 10
116.9825683666316
 20
410.7533128603507
 30
0.0
 11
143.9708838464397
 21
409.1833828827701
 31
0.0
  0
LINE
  5
3EB7
330
1F
100
AcDbEntity
  8
STAVBA OBRYS
100
AcDbLine
 10
182.997042549949
 20
410.0028778080421
 30
0.0
 11
200.6537087698274
 21
411.8958800115768
 31
0.0
  0
LINE
  5
3EB8
330
1F
100
AcDbEntity
  8
STAVBA OBRYS
100
AcDbLine
 10
194.1170697477431
 20
405.5624680813533
 30
0.0
 11
166.5048024478131
 21
404.7140182135743
 31
0.0
  0
LINE
  5
3EB9
330
1F
100
AcDbEntity
  8
STAVBA OBRYS
100
AcDbLine
 10
223.5070801960868
 20
405.3509101949575
 30
0.0
 11
194.1170697477431
 21
405.5624680813533
 31
0.0
  0
LINE
  5
3EBA
330
1F
100
AcDbEntity
  8
STAVBA OBRYS
100
AcDbLine
 10
198.6676534859219
 20
399.5959402406996
 30
0.0
 11
190.6684316823997
 21
399.8869782767404
 31
0.0
  0
LINE
  5
3EBB
330
1F
100
AcDbEntity
  8
STAVBA OBRYS
100
AcDbLine
 10
207.248650650807
 20
400.6145879610675
 30
0.0
 11
198.6676534859219
 21
399.5959402406996
 31
0.0
  0
LINE
  5
3EBC
330
1F
100
AcDbEntity
  8
STAVBA OBRYS
100
AcDbLine
 10
220.97833270445
 20
401.4914381907991
 30
0.0
 11
207.248650650807
 21
400.6145879610675
 31
0.0
  0
LINE
  5
3EBD
330
1F
100
AcDbEntity
  8
STAVBA OBRYS
100
AcDbLine
 10
150.0125623456809
 20
408.3104439053466
 30
0.0
 11
182.997042549949
 21
410.0028778080421
 31
0.0
  0
LINE
  5
3EBE
330
1F
100
AcDbEntity
  8
STAVBA OBRYS
100
AcDbLine
 10
136.0576024404839
 20
402.8100264244902
 30
0.0
 11
128.6123029391641
 21
403.0245907212418
 31
0.0
  0
LINE
  5
3EBF
330
1F
100
AcDbEntity
  8
STAVBA OBRYS
100
AcDbLine
 10
166.5048024478131
 20
404.7140182135743
 30
0.0
 11
136.0576024404839
 21
402.8100264244902
 31
0.0
  0
LINE
  5
3EC0
330
1F
100
AcDbEntity
  8
STAVBA OBRYS
100
AcDbLine
 10
182.9600795200134
 20
400.0325118889858
 30
0.0
 11
178.8059552015332
 21
399.8137516559553
 31
0.0
  0
LINE
  5
3EC1
330
1F
100
AcDbEntity
  8
STAVBA OBRYS
100
AcDbLine
 10
190.6684316823997
 20
399.8869782767404
 30
0.0
 11
182.9600795200134
 21
400.0325118889858
 31
0.0
  0
LINE
  5
3EC2
330
1F
100
AcDbEntity
  8
STAVBA OBRYS
100
AcDbLine
 10
232.400266373905
 20
411.8958800115768
 30
0.0
 11
242.8740662838393
 21
410.5258472686517
 31
0.0
  0
LINE
  5
3EC3
330
1F
100
AcDbEntity
  8
STAVBA OBRYS
100
AcDbLine
 10
242.7359047555404
 20
405.2440232825709
 30
0.0
 11
223.5070801960868
 21
405.3509101949575
 31
0.0
  0
LINE
  5
3EC4
330
1F
100
AcDbEntity
  8
STAVBA OBRYS
100
AcDbLine
 10
242.7359047555404
 20
399.9558529974245
 30
0.0
 11
241.0491316828596
 21
400.036218822145
 31
0.0
  0
LINE
  5
3EC5
330
1F
100
AcDbEntity
  8
STAVBA OBRYS
100
AcDbLine
 10
241.0491316828596
 20
400.036218822145
 30
0.0
 11
220.97833270445
 21
401.4914381907991
 31
0.0
  0
LINE
  5
3EC6
330
1F
100
AcDbEntity
  8
STAVBA OBRYS
100
AcDbLine
 10
25.98135653978568
 20
408.8434541927971
 30
0.0
 11
33.26825078689978
 21
410.1894503811389
 31
0.0
  0
LINE
  5
3EC7
330
1F
100
AcDbEntity
  8
STAVBA OBRYS
100
AcDbLine
 10
26.34819070950141
 20
404.7179586543396
 30
0.0
 11
5.254224756027156
 21
405.1393523085688
 31
0.0
  0
LINE
  5
3EC8
330
1F
100
AcDbEntity
  8
STAVBA OBRYS
100
AcDbLine
 10
6.362790942276092
 20
408.7312829790288
 30
0.0
 11
25.98135653978568
 21
408.8434541927971
 31
0.0
  0
LINE
  5
3EC9
330
1F
100
AcDbEntity
  8
STAVBA OBRYS
100
AcDbLine
 10
-15.26272827625109
 20
400.036218822145
 30
0.0
 11
-35.33352725466068
 21
401.4914381907991
 31
0.0
  0
LINE
  5
3ECA
330
1F
100
AcDbEntity
  8
STAVBA OBRYS
100
AcDbLine
 10
-10.5934347452345
 20
399.8137516559553
 30
0.0
 11
-15.26272827625109
 21
400.036218822145
 31
0.0
  0
LINE
  5
3ECB
330
1F
100
AcDbEntity
  8
STAVBA OBRYS
100
AcDbLine
 10
19.1631838186953
 20
398.5832177757009
 30
0.0
 11
12.807310545228
 21
399.0176002902343
 31
0.0
  0
LINE
  5
3ECC
330
1F
100
AcDbEntity
  8
STAVBA OBRYS
100
AcDbLine
 10
12.807310545228
 20
399.0176002902343
 30
0.0
 11
-3.045716280797591
 21
399.4541427500633
 31
0.0
  0
LINE
  5
3ECD
330
1F
100
AcDbEntity
  8
STAVBA OBRYS
100
AcDbLine
 10
5.254224756027156
 20
405.1393523085688
 30
0.0
 11
-32.80477976302393
 21
405.3509101949575
 31
0.0
  0
LINE
  5
3ECE
330
1F
100
AcDbEntity
  8
STAVBA OBRYS
100
AcDbLine
 10
-13.43779367527133
 20
410.5258472686517
 30
0.0
 11
6.362790942276092
 21
408.7312829790288
 31
0.0
  0
LINE
  5
3ECF
330
1F
100
AcDbEntity
  8
STAVBA OBRYS
100
AcDbLine
 10
-23.91159358520565
 20
411.8958800115768
 30
0.0
 11
-13.43779367527133
 21
410.5258472686517
 31
0.0
  0
LINE
  5
3ED0
330
1F
100
AcDbEntity
  8
STAVBA OBRYS
100
AcDbLine
 10
-49.06320930830372
 20
400.6145879610675
 30
0.0
 11
-55.80938261856829
 21
399.8137516559553
 31
0.0
  0
LINE
  5
3ED1
330
1F
100
AcDbEntity
  8
STAVBA OBRYS
100
AcDbLine
 10
-65.64342827671101
 20
399.8869782767404
 30
0.0
 11
-73.3517804390973
 21
400.0325118889858
 31
0.0
  0
LINE
  5
3ED2
330
1F
100
AcDbEntity
  8
STAVBA OBRYS
100
AcDbLine
 10
-73.3517804390973
 20
400.0325118889858
 30
0.0
 11
-77.50590475757746
 21
399.8137516559553
 31
0.0
  0
LINE
  5
3ED3
330
1F
100
AcDbEntity
  8
STAVBA OBRYS
100
AcDbLine
 10
-89.80705751129756
 20
404.7140182135743
 30
0.0
 11
-107.7709305877066
 21
403.5906614901513
 31
0.0
  0
LINE
  5
3ED4
330
1F
100
AcDbEntity
  8
STAVBA OBRYS
100
AcDbLine
 10
-106.2992976134297
 20
408.3104439053466
 30
0.0
 11
-73.31481740916172
 21
410.0028778080421
 31
0.0
  0
LINE
  5
3ED5
330
1F
100
AcDbEntity
  8
STAVBA OBRYS
100
AcDbLine
 10
-63.63078419227861
 20
399.8137516559553
 30
0.0
 11
-65.64342827671101
 21
399.8869782767404
 31
0.0
  0
LINE
  5
3ED6
330
1F
100
AcDbEntity
  8
STAVBA OBRYS
100
AcDbLine
 10
-32.80477976302393
 20
405.3509101949575
 30
0.0
 11
-62.1947902113676
 21
405.5624680813533
 31
0.0
  0
LINE
  5
3ED7
330
1F
100
AcDbEntity
  8
STAVBA OBRYS
100
AcDbLine
 10
-62.1947902113676
 20
405.5624680813533
 30
0.0
 11
-89.80705751129756
 21
404.7140182135743
 31
0.0
  0
LINE
  5
3ED8
330
1F
100
AcDbEntity
  8
STAVBA OBRYS
100
AcDbLine
 10
-73.31481740916172
 20
410.0028778080421
 30
0.0
 11
-55.65815118928333
 21
411.8958800115768
 31
0.0
  0
LINE
  5
3ED9
330
1F
100
AcDbEntity
  8
STAVBA OBRYS
100
AcDbLine
 10
-35.33352725466068
 20
401.4914381907991
 30
0.0
 11
-49.06320930830372
 21
400.6145879610675
 31
0.0
  0
LINE
  5
3EDA
330
1F
100
AcDbEntity
  8
STAVBA OBRYS
100
AcDbLine
 10
242.7473748661217
 20
412.0776547970717
 30
0.0
 11
-108.1712410620672
 21
412.0776547970717
 31
0.0
  0
LWPOLYLINE
  5
3EDB
330
1F
100
AcDbEntity
  8
STAVBA OBRYS
100
AcDbPolyline
 90
        3
 70
     0
 43
0.0
 10
137.5515494203685
 20
383.8942723809876
 10
161.5470523387597
 20
394.9535072416109
 10
166.3469774992194
 20
395.7279842120214
  0
LWPOLYLINE
  5
3EDC
330
1F
100
AcDbEntity
  8
STAVBA OBRYS
100
AcDbPolyline
 90
        2
 70
     0
 43
0.0
 10
187.9047316984255
 20
376.2923371888754
 10
191.2477553081738
 20
377.9650724702504
  0
LWPOLYLINE
  5
3EDD
330
1F
100
AcDbEntity
  8
STAVBA OBRYS
100
AcDbPolyline
 90
        2
 70
     0
 43
0.0
 10
191.2477553081738
 20
385.0240908543754
 42
0.0463617997943772
 10
179.1405330813617
 20
399.0533449885978
  0
LWPOLYLINE
  5
3EDE
330
1F
100
AcDbEntity
  8
STAVBA OBRYS
100
AcDbPolyline
 90
       10
 70
     0
 43
0.0
 10
160.0984959385208
 20
339.088773129927
 42
0.0168162630274194
 10
159.9364652436455
 20
341.1180189124705
 42
0.0575155827655532
 10
159.1204265072341
 20
344.8375685053314
 42
0.0310289133982999
 10
155.5170648934403
 20
353.5316015349043
 42
0.0882970623535771
 10
153.5523985893272
 20
356.2200443958644
 42
0.0171636441953577
 10
150.1763617150976
 20
359.2367452221586
 42
0.0157521173632038
 10
146.289735910654
 20
362.2745404851665
 42
0.0073640874174249
 10
140.7293566830707
 20
366.2206221960504
 42
0.0194185739168057
 10
138.542904699458
 20
367.6025049951876
 42
0.0567960585128809
 10
131.2477553081738
 20
370.7847420416381
 42
0.0229547400386702
  0
LWPOLYLINE
  5
3EDF
330
1F
100
AcDbEntity
  8
STAVBA OBRYS
100
AcDbPolyline
 90
        3
 70
     0
 43
0.0
 10
139.2978322574166
 20
345.7095699645496
 10
159.4040934010921
 20
355.7700590061112
 10
169.2046189800424
 20
365.5876210474279
  0
LWPOLYLINE
  5
3EE0
330
1F
100
AcDbEntity
  8
STAVBA OBRYS
100
AcDbPolyline
 90
        8
 70
     0
 43
0.0
 10
170.7389670067353
 20
339.088773129927
 42
0.0120721047703132
 10
170.6561877786883
 20
341.1694388964196
 42
0.044358077361292
 10
170.1814344970811
 20
344.4043989185201
 42
0.0188067511131767
 10
167.7576463590197
 20
353.0950739288881
 42
0.0457786284636091
 10
166.3080188914831
 20
356.5134063883441
 42
0.0295006114745606
 10
163.4087463463223
 20
361.2256854444266
 42
0.0258674098621065
 10
159.5295359695668
 20
366.2006215389309
 42
0.2409478365688615
 10
131.2477553081738
 20
383.5100784728991
 42
0.0884720560394402
  0
LWPOLYLINE
  5
3EE1
330
1F
100
AcDbEntity
  8
STAVBA OBRYS
100
AcDbPolyline
 90
        4
 70
     0
 43
0.0
 10
191.2477553081738
 20
351.3285693350025
 42
0.0067884601454819
 10
188.8527433589191
 20
363.4832049488858
 42
0.0219777111230329
 10
187.7654083565397
 20
367.7049408558886
 42
0.1401208794308008
 10
154.44626249186
 20
399.088773129927
 42
0.1401208794308008
  0
LWPOLYLINE
  5
3EE2
330
1F
100
AcDbEntity
  8
STAVBA OBRYS
100
AcDbPolyline
 90
        3
 70
     0
 43
0.0
 10
162.4489254077128
 20
346.8877766130334
 10
186.444428326104
 20
357.9470114736567
 10
191.24435348656
 20
358.7214884440681
  0
LWPOLYLINE
  5
3EE3
330
1F
100
AcDbEntity
  8
STAVBA OBRYS
100
AcDbPolyline
 90
        6
 70
     0
 43
0.0
 10
181.0880254627848
 20
339.088773129927
 42
0.0128837512779302
 10
180.7462751105162
 20
343.0885709160228
 42
0.0351641677647434
 10
179.9929634446856
 20
347.4130222612292
 42
0.0187319685742942
 10
175.9321443874981
 20
361.5229070718004
 42
0.0582629403736403
 10
173.9407445458022
 20
365.8187081105196
 42
0.2042445348716764
 10
131.2477553081738
 20
396.1287259379604
  0
LWPOLYLINE
  5
3EE4
330
1F
100
AcDbEntity
  8
STAVBA OBRYS
100
AcDbPolyline
 90
        2
 70
     0
 43
0.0
 10
137.9822225299652
 20
398.9161775019055
 10
138.3567076501461
 20
399.088773129927
  0
LWPOLYLINE
  5
3EE5
330
1F
100
AcDbEntity
  8
STAVBA OBRYS
100
AcDbPolyline
 90
        7
 70
     0
 43
0.0
 10
136.6654774837919
 20
339.088773129927
 42
0.0203924744732807
 10
135.5829767025028
 20
340.3045291649121
 42
0.0273961979096945
 10
134.563139482267
 20
341.2503408137435
 42
0.0243529190212958
 10
133.1673948913634
 20
342.2988520273446
 42
0.0398020282482987
 10
132.237444646293
 20
342.8264065194806
 42
0.104168275620852
 10
131.7737512826828
 20
342.934426271693
 42
0.007272956268647
 10
131.2477553081738
 20
342.9565702932467
 42
0.007272956268647
  0
POLYLINE
  5
3EE6
330
1F
100
AcDbEntity
  8
STAVBA OBRYS
100
AcDb2dPolyline
 66
     1
 10
0.0
 20
0.0
 30
0.0
  0
VERTEX
  5
3EE7
330
3EE6
100
AcDbEntity
  8
STAVBA OBRYS
100
AcDbVertex
100
AcDb2dVertex
 10
143.0851010852133
 20
339.0887731299288
 30
0.0
 42
0.0064239028828688
  0
VERTEX
  5
3EE8
330
3EE6
100
AcDbEntity
  8
STAVBA OBRYS
100
AcDbVertex
100
AcDb2dVertex
 10
143.0384589569952
 20
339.351709521149
 30
0.0
 42
0.0832048017309575
  0
VERTEX
  5
3EE9
330
3EE6
100
AcDbEntity
  8
STAVBA OBRYS
100
AcDbVertex
100
AcDb2dVertex
 10
142.0974398337788
 20
342.1479658167344
 30
0.0
 42
0.0336767237692336
  0
VERTEX
  5
3EEA
330
3EE6
100
AcDbEntity
  8
STAVBA OBRYS
100
AcDbVertex
100
AcDb2dVertex
 10
140.0540599630734
 20
345.4218952400868
 30
0.0
 42
0.0844635135812105
  0
VERTEX
  5
3EEB
330
3EE6
100
AcDbEntity
  8
STAVBA OBRYS
100
AcDbVertex
100
AcDb2dVertex
 10
138.9502882512027
 20
346.5072011660821
 30
0.0
 42
0.0495829410719565
  0
VERTEX
  5
3EEC
330
3EE6
100
AcDbEntity
  8
STAVBA OBRYS
100
AcDbVertex
100
AcDb2dVertex
 10
136.8518741263764
 20
347.679180574857
 30
0.0
 42
0.0322692699774654
  0
VERTEX
  5
3EED
330
3EE6
100
AcDbEntity
  8
STAVBA OBRYS
100
AcDbVertex
100
AcDb2dVertex
 10
133.3822491090689
 20
348.9290087765374
 30
0.0
 42
0.0276160659512937
  0
VERTEX
  5
3EEE
330
3EE6
100
AcDbEntity
  8
STAVBA OBRYS
100
AcDbVertex
100
AcDb2dVertex
 10
132.3555573831221
 20
349.1650912912708
 30
0.0
 42
0.0126891984598699
  0
VERTEX
  5
3EEF
330
3EE6
100
AcDbEntity
  8
STAVBA OBRYS
100
AcDbVertex
100
AcDb2dVertex
 10
131.2477553081738
 20
349.3273341587208
 30
0.0
  0
SEQEND
  5
3EF0
330
3EE6
100
AcDbEntity
  8
STAVBA OBRYS
  0
POLYLINE
  5
3EF1
330
1F
100
AcDbEntity
  8
STAVBA OBRYS
100
AcDb2dPolyline
 66
     1
 10
0.0
 20
0.0
 30
0.0
  0
VERTEX
  5
3EF2
330
3EF1
100
AcDbEntity
  8
STAVBA OBRYS
100
AcDbVertex
100
AcDb2dVertex
 10
151.7587623100993
 20
339.0887731299288
 30
0.0
 42
0.0072417954699014
  0
VERTEX
  5
3EF3
330
3EF1
100
AcDbEntity
  8
STAVBA OBRYS
100
AcDbVertex
100
AcDb2dVertex
 10
151.6920778686875
 20
339.5824593834575
 30
0.0
 42
0.0707158694326265
  0
VERTEX
  5
3EF4
330
3EF1
100
AcDbEntity
  8
STAVBA OBRYS
100
AcDbVertex
100
AcDb2dVertex
 10
151.0547260489842
 20
341.9057835265711
 30
0.0
 42
0.033952657250207
  0
VERTEX
  5
3EF5
330
3EF1
100
AcDbEntity
  8
STAVBA OBRYS
100
AcDbVertex
100
AcDb2dVertex
 10
148.3563390416933
 20
347.1294287967783
 30
0.0
 42
0.0571374688189033
  0
VERTEX
  5
3EF6
330
3EF1
100
AcDbEntity
  8
STAVBA OBRYS
100
AcDbVertex
100
AcDb2dVertex
 10
146.2129509298687
 20
349.8977379372025
 30
0.0
 42
0.0274923553235744
  0
VERTEX
  5
3EF7
330
3EF1
100
AcDbEntity
  8
STAVBA OBRYS
100
AcDbVertex
100
AcDb2dVertex
 10
143.0961840532075
 20
352.7598283249634
 30
0.0
 42
0.0255412025538677
  0
VERTEX
  5
3EF8
330
3EF1
100
AcDbEntity
  8
STAVBA OBRYS
100
AcDbVertex
100
AcDb2dVertex
 10
139.4344680079524
 20
355.4678847373878
 30
0.0
 42
0.0272796991712396
  0
VERTEX
  5
3EF9
330
3EF1
100
AcDbEntity
  8
STAVBA OBRYS
100
AcDbVertex
100
AcDb2dVertex
 10
134.4988690241301
 20
358.3674877953825
 30
0.0
 42
0.056967459841729
  0
VERTEX
  5
3EFA
330
3EF1
100
AcDbEntity
  8
STAVBA OBRYS
100
AcDbVertex
100
AcDb2dVertex
 10
131.929732287252
 20
359.3427707976214
 30
0.0
 42
0.0373408083348504
  0
VERTEX
  5
3EFB
330
3EF1
100
AcDbEntity
  8
STAVBA OBRYS
100
AcDbVertex
100
AcDb2dVertex
 10
131.6629070366838
 20
359.3897694467622
 30
0.0
 42
0.0052305969362967
  0
VERTEX
  5
3EFC
330
3EF1
100
AcDbEntity
  8
STAVBA OBRYS
100
AcDbVertex
100
AcDb2dVertex
 10
131.2477553081738
 20
359.4269178070479
 30
0.0
  0
SEQEND
  5
3EFD
330
3EF1
100
AcDbEntity
  8
STAVBA OBRYS
  0
POLYLINE
  5
3EFE
330
1F
100
AcDbEntity
  8
STAVBA OBRYS
100
AcDb2dPolyline
 66
     1
 10
0.0
 20
0.0
 30
0.0
  0
VERTEX
  5
3EFF
330
3EFE
100
AcDbEntity
  8
STAVBA OBRYS
100
AcDbVertex
100
AcDb2dVertex
 10
110.7371554010136
 20
338.9595458827933
 30
0.0
 42
-0.0072417954699014
  0
VERTEX
  5
3F00
330
3EFE
100
AcDbEntity
  8
STAVBA OBRYS
100
AcDbVertex
100
AcDb2dVertex
 10
110.8007281052854
 20
339.4536424754977
 30
0.0
 42
-0.0707158694326265
  0
VERTEX
  5
3F01
330
3EFE
100
AcDbEntity
  8
STAVBA OBRYS
100
AcDbVertex
100
AcDb2dVertex
 10
111.4234294377714
 20
341.7809360681857
 30
0.0
 42
-0.033952657250207
  0
VERTEX
  5
3F02
330
3EFE
100
AcDbEntity
  8
STAVBA OBRYS
100
AcDbVertex
100
AcDb2dVertex
 10
114.0888519105832
 20
347.0214785392962
 30
0.0
 42
-0.0571374688189033
  0
VERTEX
  5
3F03
330
3EFE
100
AcDbEntity
  8
STAVBA OBRYS
100
AcDbVertex
100
AcDb2dVertex
 10
116.2147560670131
 20
349.8032369063247
 30
0.0
 42
-0.0274923553235744
  0
VERTEX
  5
3F04
330
3EFE
100
AcDbEntity
  8
STAVBA OBRYS
100
AcDbVertex
100
AcDb2dVertex
 10
119.3134288110344
 20
352.6849073206248
 30
0.0
 42
-0.0255412025538677
  0
VERTEX
  5
3F05
330
3EFE
100
AcDbEntity
  8
STAVBA OBRYS
100
AcDbVertex
100
AcDb2dVertex
 10
122.9580103810916
 20
355.4159802065295
 30
0.0
 42
-0.0272796991712396
  0
VERTEX
  5
3F06
330
3EFE
100
AcDbEntity
  8
STAVBA OBRYS
100
AcDbVertex
100
AcDb2dVertex
 10
127.8752427884941
 20
358.3466218896072
 30
0.0
 42
-0.056967459841729
  0
VERTEX
  5
3F07
330
3EFE
100
AcDbEntity
  8
STAVBA OBRYS
100
AcDbVertex
100
AcDb2dVertex
 10
130.4381838754164
 20
359.3380720861431
 30
0.0
 42
-0.0373408083348504
  0
VERTEX
  5
3F08
330
3EFE
100
AcDbEntity
  8
STAVBA OBRYS
100
AcDbVertex
100
AcDb2dVertex
 10
130.7047077205392
 20
359.386750904361
 30
0.0
 42
-0.0052305969362967
  0
VERTEX
  5
3F09
330
3EFE
100
AcDbEntity
  8
STAVBA OBRYS
100
AcDbVertex
100
AcDb2dVertex
 10
131.1196171602936
 20
359.4265141431896
 30
0.0
  0
SEQEND
  5
3F0A
330
3EFE
100
AcDbEntity
  8
STAVBA OBRYS
  0
POLYLINE
  5
3F0B
330
1F
100
AcDbEntity
  8
STAVBA OBRYS
100
AcDb2dPolyline
 66
     1
 10
0.0
 20
0.0
 30
0.0
  0
VERTEX
  5
3F0C
330
3F0B
100
AcDbEntity
  8
STAVBA OBRYS
100
AcDbVertex
100
AcDb2dVertex
 10
119.4106444743305
 20
339.0141932905279
 30
0.0
 42
-0.0064239028828688
  0
VERTEX
  5
3F0D
330
3F0B
100
AcDbEntity
  8
STAVBA OBRYS
100
AcDbVertex
100
AcDb2dVertex
 10
119.4556290762378
 20
339.2774183264644
 30
0.0
 42
-0.0832048017309575
  0
VERTEX
  5
3F0E
330
3F0B
100
AcDbEntity
  8
STAVBA OBRYS
100
AcDbVertex
100
AcDb2dVertex
 10
120.3790120303787
 20
342.0795479060624
 30
0.0
 42
-0.0336767237692336
  0
VERTEX
  5
3F0F
330
3F0B
100
AcDbEntity
  8
STAVBA OBRYS
100
AcDbVertex
100
AcDb2dVertex
 10
122.401724328018
 20
345.3662864302067
 30
0.0
 42
-0.0844635135812105
  0
VERTEX
  5
3F10
330
3F0B
100
AcDbEntity
  8
STAVBA OBRYS
100
AcDbVertex
100
AcDb2dVertex
 10
123.4986362871353
 20
346.458525002531
 30
0.0
 42
-0.0495829410719565
  0
VERTEX
  5
3F11
330
3F0B
100
AcDbEntity
  8
STAVBA OBRYS
100
AcDbVertex
100
AcDb2dVertex
 10
125.5896248415741
 20
347.6437019678177
 30
0.0
 42
-0.0322692699774654
  0
VERTEX
  5
3F12
330
3F0B
100
AcDbEntity
  8
STAVBA OBRYS
100
AcDbVertex
100
AcDb2dVertex
 10
129.0513065958369
 20
348.915365337856
 30
0.0
 42
-0.0276160659512937
  0
VERTEX
  5
3F13
330
3F0B
100
AcDbEntity
  8
STAVBA OBRYS
100
AcDbVertex
100
AcDb2dVertex
 10
130.0764905335785
 20
349.1579117203772
 30
0.0
 42
-0.0126891984598699
  0
VERTEX
  5
3F14
330
3F0B
100
AcDbEntity
  8
STAVBA OBRYS
100
AcDbVertex
100
AcDb2dVertex
 10
131.1832484287154
 20
349.3271309476066
 30
0.0
  0
SEQEND
  5
3F15
330
3F0B
100
AcDbEntity
  8
STAVBA OBRYS
  0
LWPOLYLINE
  5
3F16
330
1F
100
AcDbEntity
  8
STAVBA OBRYS
100
AcDbPolyline
 90
        7
 70
     0
 43
0.0
 10
125.8301406614704
 20
339.0546393927369
 42
-0.0203924744732807
 10
126.9049602262351
 20
340.2771914698704
 42
-0.0273961979096945
 10
127.9188182273068
 20
341.2294097140237
 42
-0.0243529190212958
 10
129.3079290913559
 20
342.2866938458799
 42
-0.0398020282482987
 10
130.2345370825536
 20
342.8200969121725
 42
-0.104168275620852
 10
130.6975406768873
 20
342.9310359673044
 42
-0.007272956268647
 10
131.2233866957652
 20
342.9564935266606
 42
-0.007272956268647
  0
LWPOLYLINE
  5
3F17
330
1F
100
AcDbEntity
  8
STAVBA OBRYS
100
AcDbPolyline
 90
        2
 70
     0
 43
0.0
 10
124.1364860501383
 20
398.8725603317196
 10
123.7609209436344
 20
399.0427931335787
  0
LWPOLYLINE
  5
3F18
330
1F
100
AcDbEntity
  8
STAVBA OBRYS
100
AcDbPolyline
 90
        2
 70
     0
 43
0.0
 10
91.82875893793278
 20
370.6838610742241
 42
-0.1802323375873774
 10
130.8883816276287
 20
396.1275938303978
  0
LWPOLYLINE
  5
3F19
330
1F
100
AcDbEntity
  8
STAVBA OBRYS
100
AcDbPolyline
 90
        2
 70
     0
 43
0.0
 10
99.99806775079958
 20
346.6910424277019
 10
91.82875893793278
 20
350.3939538654329
  0
LWPOLYLINE
  5
3F1A
330
1F
100
AcDbEntity
  8
STAVBA OBRYS
100
AcDbPolyline
 90
        2
 70
     0
 43
0.0
 10
91.82875893793278
 20
388.1307706886153
 42
-0.05777617107121
 10
107.6716854413647
 20
398.9414227386668
  0
LWPOLYLINE
  5
3F1B
330
1F
100
AcDbEntity
  8
STAVBA OBRYS
100
AcDbPolyline
 90
        8
 70
     0
 43
0.0
 10
91.75732741635545
 20
338.8399632800072
 42
-0.0120721047703132
 10
91.8269960054098
 20
340.9211092912599
 42
-0.044358077361292
 10
92.28135836970285
 20
344.1589962356882
 42
-0.0188067511131767
 10
94.65034380018584
 20
352.8647695559728
 42
-0.0457786284636091
 10
96.07840568446079
 20
356.292167381246
 42
-0.0295006114745606
 10
98.94793151222291
 20
361.0226194439263
 42
-0.0258674098621065
 10
102.7957208815972
 20
366.021897317826
 42
-0.2409478365688615
 10
130.9678839687006
 20
383.509196815511
 42
-0.0884720560394402
  0
LWPOLYLINE
  5
3F1C
330
1F
100
AcDbEntity
  8
STAVBA OBRYS
100
AcDbPolyline
 90
        3
 70
     0
 43
0.0
 10
124.150983582684
 20
348.0057787995964
 10
102.9868775232574
 20
355.5923321434101
 10
92.08372792313491
 20
364.1688206355601
  0
LWPOLYLINE
  5
3F1D
330
1F
100
AcDbEntity
  8
STAVBA OBRYS
100
AcDbPolyline
 90
       10
 70
     0
 43
0.0
 10
102.397587296495
 20
338.9070023475805
 42
-0.0168162630274194
 10
102.5468297451374
 20
340.937228710224
 42
-0.0575155827655532
 10
103.3394176895129
 20
344.6618458373258
 42
-0.0310289133982999
 10
106.8879320271884
 20
353.3784088775618
 42
-0.0882970623535771
 10
108.8356211114408
 20
356.0791765340317
 42
-0.0171636441953577
 10
112.1925846017987
 20
359.1170878190977
 42
-0.0157521173632038
 10
116.0599939853167
 20
362.1793100291951
 42
-0.0073640874174249
 10
121.5954010173521
 20
366.1603459513152
 42
-0.0194185739168057
 10
123.7731032110026
 20
367.5559768133115
 42
-0.0567960585128809
 10
131.0480584913751
 20
370.7841129519501
 42
-0.0229547400386702
  0
LWPOLYLINE
  5
3F1E
330
1F
100
AcDbEntity
  8
STAVBA OBRYS
100
AcDbPolyline
 90
        3
 70
     0
 43
0.0
 10
124.6617944021894
 20
383.8536667664637
 10
100.5970902967131
 20
394.761501213541
 10
95.79238090004617
 20
395.5057214344695
  0
LWPOLYLINE
  5
3F1F
330
1F
100
AcDbEntity
  8
STAVBA OBRYS
100
AcDbPolyline
 90
        3
 70
     0
 43
0.0
 10
124.6617944021894
 20
294.3238794933903
 10
100.5970902967131
 20
283.416045046313
 10
95.79238090004617
 20
282.6718248253845
  0
LWPOLYLINE
  5
3F20
330
1F
100
AcDbEntity
  8
STAVBA OBRYS
100
AcDbPolyline
 90
        3
 70
     0
 43
0.0
 10
91.82875893793278
 20
271.1165786699065
 42
0.1594823739701661
 10
131.3898350503772
 20
260.1405720630908
 42
0.2797225762992413
 10
191.2477553081738
 20
293.1534554054786
  0
LWPOLYLINE
  5
3F21
330
1F
100
AcDbEntity
  8
STAVBA OBRYS
100
AcDbPolyline
 90
       10
 70
     0
 43
0.0
 10
102.397587296495
 20
339.2705439122736
 42
0.0168162630274194
 10
102.5468297451374
 20
337.24031754963
 42
0.0575155827655532
 10
103.3394176895129
 20
333.5157004225283
 42
0.0310289133982999
 10
106.8879320271884
 20
324.7991373822923
 42
0.0882970623535771
 10
108.8356211114408
 20
322.0983697258223
 42
0.0171636441953577
 10
112.1925846017987
 20
319.0604584407564
 42
0.0157521173632038
 10
116.0599939853167
 20
315.998236230659
 42
0.0073640874174249
 10
121.5954010173521
 20
312.0172003085389
 42
0.0194185739168057
 10
123.7731032110026
 20
310.6215694465426
 42
0.0567960585128809
 10
131.0480584913751
 20
307.393433307904
 42
0.0229547400386702
  0
LWPOLYLINE
  5
3F22
330
1F
100
AcDbEntity
  8
STAVBA OBRYS
100
AcDbPolyline
 90
        3
 70
     0
 43
0.0
 10
118.5728429361264
 20
337.2132771558089
 10
102.3579002518603
 20
321.6392343062842
 10
95.91234550004481
 20
309.355519477286
  0
LWPOLYLINE
  5
3F23
330
1F
100
AcDbEntity
  8
STAVBA OBRYS
100
AcDbPolyline
 90
        8
 70
     0
 43
0.0
 10
91.75732741635545
 20
339.3375829798468
 42
0.0120721047703132
 10
91.8269960054098
 20
337.2564369685941
 42
0.044358077361292
 10
92.28135836970285
 20
334.0185500241658
 42
0.0188067511131767
 10
94.65034380018584
 20
325.3127767038812
 42
0.0457786284636091
 10
96.07840568446079
 20
321.8853788786081
 42
0.0295006114745606
 10
98.94793151222291
 20
317.1549268159277
 42
0.0258674098621065
 10
102.7957208815972
 20
312.155648942028
 42
0.2409478365688615
 10
130.9678839687006
 20
294.6683494443431
 42
0.0884720560394402
  0
LWPOLYLINE
  5
3F24
330
1F
100
AcDbEntity
  8
STAVBA OBRYS
100
AcDbPolyline
 90
        5
 70
     0
 43
0.0
 10
91.82875893793278
 20
289.7454674849258
 42
0.1515799785300641
 10
131.0097120206449
 20
273.5628392405041
 42
0.2517236249987814
 10
187.7654083565397
 20
310.4726054039655
 42
0.0219777111230329
 10
188.8527433589191
 20
314.6943413109683
 42
0.0067884601454819
 10
191.2477553081738
 20
326.8489769248516
  0
LWPOLYLINE
  5
3F25
330
1F
100
AcDbEntity
  8
STAVBA OBRYS
100
AcDbPolyline
 90
        2
 70
     0
 43
0.0
 10
99.99806775079958
 20
331.4865038321521
 10
91.82875893793278
 20
327.7835923944211
  0
LWPOLYLINE
  5
3F26
330
1F
100
AcDbEntity
  8
STAVBA OBRYS
100
AcDbPolyline
 90
        2
 70
     0
 43
0.0
 10
91.82875893793278
 20
307.0568952824859
 42
0.2237289391062531
 10
131.2631273737973
 20
284.7058321901994
  0
LWPOLYLINE
  5
3F27
330
1F
100
AcDbEntity
  8
STAVBA OBRYS
100
AcDbPolyline
 90
        2
 70
     0
 43
0.0
 10
124.1364860501383
 20
279.3049859281344
 10
123.7609209436344
 20
279.1347531262753
  0
LWPOLYLINE
  5
3F28
330
1F
100
AcDbEntity
  8
STAVBA OBRYS
100
AcDbPolyline
 90
        7
 70
     0
 43
0.0
 10
125.8301406614704
 20
339.1229068671171
 42
0.0203924744732807
 10
126.9049602262351
 20
337.9003547899837
 42
0.0273961979096945
 10
127.9188182273068
 20
336.9481365458304
 42
0.0243529190212958
 10
129.3079290913559
 20
335.8908524139741
 42
0.0398020282482987
 10
130.2345370825536
 20
335.3574493476816
 42
0.104168275620852
 10
130.6975406768873
 20
335.2465102925497
 42
0.007272956268647
 10
131.2233866957652
 20
335.2210527331934
 42
0.007272956268647
  0
POLYLINE
  5
3F29
330
1F
100
AcDbEntity
  8
STAVBA OBRYS
100
AcDb2dPolyline
 66
     1
 10
0.0
 20
0.0
 30
0.0
  0
VERTEX
  5
3F2A
330
3F29
100
AcDbEntity
  8
STAVBA OBRYS
100
AcDbVertex
100
AcDb2dVertex
 10
119.4106444743305
 20
339.1633529693261
 30
0.0
 42
0.0064239028828688
  0
VERTEX
  5
3F2B
330
3F29
100
AcDbEntity
  8
STAVBA OBRYS
100
AcDbVertex
100
AcDb2dVertex
 10
119.4556290762378
 20
338.9001279333896
 30
0.0
 42
0.0832048017309575
  0
VERTEX
  5
3F2C
330
3F29
100
AcDbEntity
  8
STAVBA OBRYS
100
AcDbVertex
100
AcDb2dVertex
 10
120.3790120303787
 20
336.0979983537916
 30
0.0
 42
0.0336767237692336
  0
VERTEX
  5
3F2D
330
3F29
100
AcDbEntity
  8
STAVBA OBRYS
100
AcDbVertex
100
AcDb2dVertex
 10
122.401724328018
 20
332.8112598296474
 30
0.0
 42
0.0844635135812105
  0
VERTEX
  5
3F2E
330
3F29
100
AcDbEntity
  8
STAVBA OBRYS
100
AcDbVertex
100
AcDb2dVertex
 10
123.4986362871353
 20
331.7190212573231
 30
0.0
 42
0.0495829410719565
  0
VERTEX
  5
3F2F
330
3F29
100
AcDbEntity
  8
STAVBA OBRYS
100
AcDbVertex
100
AcDb2dVertex
 10
125.5896248415741
 20
330.5338442920364
 30
0.0
 42
0.0322692699774654
  0
VERTEX
  5
3F30
330
3F29
100
AcDbEntity
  8
STAVBA OBRYS
100
AcDbVertex
100
AcDb2dVertex
 10
129.0513065958369
 20
329.262180921998
 30
0.0
 42
0.0276160659512937
  0
VERTEX
  5
3F31
330
3F29
100
AcDbEntity
  8
STAVBA OBRYS
100
AcDbVertex
100
AcDb2dVertex
 10
130.0764905335785
 20
329.0196345394769
 30
0.0
 42
0.0126891984598699
  0
VERTEX
  5
3F32
330
3F29
100
AcDbEntity
  8
STAVBA OBRYS
100
AcDbVertex
100
AcDb2dVertex
 10
131.1832484287154
 20
328.8504153122474
 30
0.0
  0
SEQEND
  5
3F33
330
3F29
100
AcDbEntity
  8
STAVBA OBRYS
  0
POLYLINE
  5
3F34
330
1F
100
AcDbEntity
  8
STAVBA OBRYS
100
AcDb2dPolyline
 66
     1
 10
0.0
 20
0.0
 30
0.0
  0
VERTEX
  5
3F35
330
3F34
100
AcDbEntity
  8
STAVBA OBRYS
100
AcDbVertex
100
AcDb2dVertex
 10
110.7371554010136
 20
339.2180003770608
 30
0.0
 42
0.0072417954699014
  0
VERTEX
  5
3F36
330
3F34
100
AcDbEntity
  8
STAVBA OBRYS
100
AcDbVertex
100
AcDb2dVertex
 10
110.8007281052854
 20
338.7239037843563
 30
0.0
 42
0.0707158694326265
  0
VERTEX
  5
3F37
330
3F34
100
AcDbEntity
  8
STAVBA OBRYS
100
AcDbVertex
100
AcDb2dVertex
 10
111.4234294377714
 20
336.3966101916683
 30
0.0
 42
0.033952657250207
  0
VERTEX
  5
3F38
330
3F34
100
AcDbEntity
  8
STAVBA OBRYS
100
AcDbVertex
100
AcDb2dVertex
 10
114.0888519105832
 20
331.1560677205578
 30
0.0
 42
0.0571374688189033
  0
VERTEX
  5
3F39
330
3F34
100
AcDbEntity
  8
STAVBA OBRYS
100
AcDbVertex
100
AcDb2dVertex
 10
116.2147560670131
 20
328.3743093535294
 30
0.0
 42
0.0274923553235744
  0
VERTEX
  5
3F3A
330
3F34
100
AcDbEntity
  8
STAVBA OBRYS
100
AcDbVertex
100
AcDb2dVertex
 10
119.3134288110344
 20
325.4926389392293
 30
0.0
 42
0.0255412025538677
  0
VERTEX
  5
3F3B
330
3F34
100
AcDbEntity
  8
STAVBA OBRYS
100
AcDbVertex
100
AcDb2dVertex
 10
122.9580103810916
 20
322.7615660533246
 30
0.0
 42
0.0272796991712396
  0
VERTEX
  5
3F3C
330
3F34
100
AcDbEntity
  8
STAVBA OBRYS
100
AcDbVertex
100
AcDb2dVertex
 10
127.8752427884941
 20
319.8309243702468
 30
0.0
 42
0.056967459841729
  0
VERTEX
  5
3F3D
330
3F34
100
AcDbEntity
  8
STAVBA OBRYS
100
AcDbVertex
100
AcDb2dVertex
 10
130.4381838754164
 20
318.8394741737109
 30
0.0
 42
0.0373408083348504
  0
VERTEX
  5
3F3E
330
3F34
100
AcDbEntity
  8
STAVBA OBRYS
100
AcDbVertex
100
AcDb2dVertex
 10
130.7047077205392
 20
318.790795355493
 30
0.0
 42
0.0052305969362967
  0
VERTEX
  5
3F3F
330
3F34
100
AcDbEntity
  8
STAVBA OBRYS
100
AcDbVertex
100
AcDb2dVertex
 10
131.1196171602936
 20
318.7510321166645
 30
0.0
  0
SEQEND
  5
3F40
330
3F34
100
AcDbEntity
  8
STAVBA OBRYS
  0
POLYLINE
  5
3F41
330
1F
100
AcDbEntity
  8
STAVBA OBRYS
100
AcDb2dPolyline
 66
     1
 10
0.0
 20
0.0
 30
0.0
  0
VERTEX
  5
3F42
330
3F41
100
AcDbEntity
  8
STAVBA OBRYS
100
AcDbVertex
100
AcDb2dVertex
 10
151.7587623100993
 20
339.0887731299252
 30
0.0
 42
-0.0072417954699014
  0
VERTEX
  5
3F43
330
3F41
100
AcDbEntity
  8
STAVBA OBRYS
100
AcDbVertex
100
AcDb2dVertex
 10
151.6920778686875
 20
338.5950868763965
 30
0.0
 42
-0.0707158694326265
  0
VERTEX
  5
3F44
330
3F41
100
AcDbEntity
  8
STAVBA OBRYS
100
AcDbVertex
100
AcDb2dVertex
 10
151.0547260489842
 20
336.271762733283
 30
0.0
 42
-0.033952657250207
  0
VERTEX
  5
3F45
330
3F41
100
AcDbEntity
  8
STAVBA OBRYS
100
AcDbVertex
100
AcDb2dVertex
 10
148.3563390416933
 20
331.0481174630757
 30
0.0
 42
-0.0571374688189033
  0
VERTEX
  5
3F46
330
3F41
100
AcDbEntity
  8
STAVBA OBRYS
100
AcDbVertex
100
AcDb2dVertex
 10
146.2129509298687
 20
328.2798083226515
 30
0.0
 42
-0.0274923553235744
  0
VERTEX
  5
3F47
330
3F41
100
AcDbEntity
  8
STAVBA OBRYS
100
AcDbVertex
100
AcDb2dVertex
 10
143.0961840532075
 20
325.4177179348906
 30
0.0
 42
-0.0255412025538677
  0
VERTEX
  5
3F48
330
3F41
100
AcDbEntity
  8
STAVBA OBRYS
100
AcDbVertex
100
AcDb2dVertex
 10
139.4344680079524
 20
322.7096615224662
 30
0.0
 42
-0.0272796991712396
  0
VERTEX
  5
3F49
330
3F41
100
AcDbEntity
  8
STAVBA OBRYS
100
AcDbVertex
100
AcDb2dVertex
 10
134.4988690241301
 20
319.8100584644715
 30
0.0
 42
-0.056967459841729
  0
VERTEX
  5
3F4A
330
3F41
100
AcDbEntity
  8
STAVBA OBRYS
100
AcDbVertex
100
AcDb2dVertex
 10
131.929732287252
 20
318.8347754622326
 30
0.0
 42
-0.0373408083348504
  0
VERTEX
  5
3F4B
330
3F41
100
AcDbEntity
  8
STAVBA OBRYS
100
AcDbVertex
100
AcDb2dVertex
 10
131.6629070366838
 20
318.7877768130919
 30
0.0
 42
-0.0052305969362967
  0
VERTEX
  5
3F4C
330
3F41
100
AcDbEntity
  8
STAVBA OBRYS
100
AcDbVertex
100
AcDb2dVertex
 10
131.2477553081738
 20
318.7506284528061
 30
0.0
  0
SEQEND
  5
3F4D
330
3F41
100
AcDbEntity
  8
STAVBA OBRYS
  0
POLYLINE
  5
3F4E
330
1F
100
AcDbEntity
  8
STAVBA OBRYS
100
AcDb2dPolyline
 66
     1
 10
0.0
 20
0.0
 30
0.0
  0
VERTEX
  5
3F4F
330
3F4E
100
AcDbEntity
  8
STAVBA OBRYS
100
AcDbVertex
100
AcDb2dVertex
 10
143.0851010852133
 20
339.0887731299252
 30
0.0
 42
-0.0064239028828688
  0
VERTEX
  5
3F50
330
3F4E
100
AcDbEntity
  8
STAVBA OBRYS
100
AcDbVertex
100
AcDb2dVertex
 10
143.0384589569952
 20
338.825836738705
 30
0.0
 42
-0.0832048017309575
  0
VERTEX
  5
3F51
330
3F4E
100
AcDbEntity
  8
STAVBA OBRYS
100
AcDbVertex
100
AcDb2dVertex
 10
142.0974398337788
 20
336.0295804431197
 30
0.0
 42
-0.0336767237692336
  0
VERTEX
  5
3F52
330
3F4E
100
AcDbEntity
  8
STAVBA OBRYS
100
AcDbVertex
100
AcDb2dVertex
 10
140.0540599630734
 20
332.7556510197672
 30
0.0
 42
-0.0844635135812105
  0
VERTEX
  5
3F53
330
3F4E
100
AcDbEntity
  8
STAVBA OBRYS
100
AcDbVertex
100
AcDb2dVertex
 10
138.9502882512027
 20
331.6703450937719
 30
0.0
 42
-0.0495829410719565
  0
VERTEX
  5
3F54
330
3F4E
100
AcDbEntity
  8
STAVBA OBRYS
100
AcDbVertex
100
AcDb2dVertex
 10
136.8518741263764
 20
330.4983656849971
 30
0.0
 42
-0.0322692699774654
  0
VERTEX
  5
3F55
330
3F4E
100
AcDbEntity
  8
STAVBA OBRYS
100
AcDbVertex
100
AcDb2dVertex
 10
133.3822491090689
 20
329.2485374833166
 30
0.0
 42
-0.0276160659512937
  0
VERTEX
  5
3F56
330
3F4E
100
AcDbEntity
  8
STAVBA OBRYS
100
AcDbVertex
100
AcDb2dVertex
 10
132.3555573831221
 20
329.0124549685832
 30
0.0
 42
-0.0126891984598699
  0
VERTEX
  5
3F57
330
3F4E
100
AcDbEntity
  8
STAVBA OBRYS
100
AcDbVertex
100
AcDb2dVertex
 10
131.2477553081738
 20
328.8502121011332
 30
0.0
  0
SEQEND
  5
3F58
330
3F4E
100
AcDbEntity
  8
STAVBA OBRYS
  0
LWPOLYLINE
  5
3F59
330
1F
100
AcDbEntity
  8
STAVBA OBRYS
100
AcDbPolyline
 90
        7
 70
     0
 43
0.0
 10
136.6654774837919
 20
339.088773129927
 42
-0.0203924744732807
 10
135.5829767025028
 20
337.8730170949419
 42
-0.0273961979096945
 10
134.563139482267
 20
336.9272054461106
 42
-0.0243529190212958
 10
133.1673948913634
 20
335.8786942325094
 42
-0.0398020282482987
 10
132.237444646293
 20
335.3511397403734
 42
-0.104168275620852
 10
131.7737512826828
 20
335.243119988161
 42
-0.007272956268647
 10
131.2477553081738
 20
335.2209759666074
 42
-0.007272956268647
  0
LWPOLYLINE
  5
3F5A
330
1F
100
AcDbEntity
  8
STAVBA OBRYS
100
AcDbPolyline
 90
        2
 70
     0
 43
0.0
 10
137.9822225299652
 20
279.2613687579486
 10
138.3567076501461
 20
279.088773129927
  0
LWPOLYLINE
  5
3F5B
330
1F
100
AcDbEntity
  8
STAVBA OBRYS
100
AcDbPolyline
 90
        6
 70
     0
 43
0.0
 10
181.0880254627848
 20
339.088773129927
 42
-0.0128837512779302
 10
180.7462751105162
 20
335.0889753438313
 42
-0.0351641677647434
 10
179.9929634446856
 20
330.7645239986249
 42
-0.0187319685742942
 10
175.9321443874981
 20
316.6546391880537
 42
-0.0582629403736403
 10
173.9407445458022
 20
312.3588381493344
 42
-0.2538762603868234
 10
131.2631273737973
 20
284.7058321901994
  0
LWPOLYLINE
  5
3F5C
330
1F
100
AcDbEntity
  8
STAVBA OBRYS
100
AcDbPolyline
 90
        3
 70
     0
 43
0.0
 10
162.4489254077128
 20
331.2897696468206
 10
186.444428326104
 20
320.2305347861973
 10
191.24435348656
 20
319.456057815786
  0
LWPOLYLINE
  5
3F5D
330
1F
100
AcDbEntity
  8
STAVBA OBRYS
100
AcDbPolyline
 90
        8
 70
     0
 43
0.0
 10
170.7389670067353
 20
339.088773129927
 42
-0.0120721047703132
 10
170.6561877786883
 20
337.0081073634345
 42
-0.044358077361292
 10
170.1814344970811
 20
333.773147341334
 42
-0.0188067511131767
 10
167.7576463590197
 20
325.0824723309659
 42
-0.0457786284636091
 10
166.3080188914831
 20
321.6641398715099
 42
-0.0295006114745606
 10
163.4087463463223
 20
316.9518608154274
 42
-0.0258674098621065
 10
159.5295359695668
 20
311.9769247209231
 42
-0.2409478365688615
 10
131.2477553081738
 20
294.6674677869549
 42
-0.0884720560394402
  0
LWPOLYLINE
  5
3F5E
330
1F
100
AcDbEntity
  8
STAVBA OBRYS
100
AcDbPolyline
 90
        3
 70
     0
 43
0.0
 10
139.2978322574166
 20
332.4679762953045
 10
159.4040934010921
 20
322.4074872537429
 10
169.2046189800424
 20
312.5899252124262
  0
LWPOLYLINE
  5
3F5F
330
1F
100
AcDbEntity
  8
STAVBA OBRYS
100
AcDbPolyline
 90
       10
 70
     0
 43
0.0
 10
160.0984959385208
 20
339.088773129927
 42
-0.0168162630274194
 10
159.9364652436455
 20
337.0595273473835
 42
-0.0575155827655532
 10
159.1204265072341
 20
333.3399777545226
 42
-0.0310289133982999
 10
155.5170648934403
 20
324.6459447249498
 42
-0.0882970623535771
 10
153.5523985893272
 20
321.9575018639897
 42
-0.0171636441953577
 10
150.1763617150976
 20
318.9408010376954
 42
-0.0157521173632038
 10
146.289735910654
 20
315.9030057746875
 42
-0.0073640874174249
 10
140.7293566830707
 20
311.9569240638037
 42
-0.0194185739168057
 10
138.542904699458
 20
310.5750412646665
 42
-0.0567960585128809
 10
131.2477553081738
 20
307.3928042182159
 42
-0.0229547400386702
  0
LWPOLYLINE
  5
3F60
330
1F
100
AcDbEntity
  8
STAVBA OBRYS
100
AcDbPolyline
 90
        2
 70
     0
 43
0.0
 10
187.9047316984255
 20
301.8852090709787
 10
191.2477553081738
 20
300.2124737896036
  0
LWPOLYLINE
  5
3F61
330
1F
100
AcDbEntity
  8
STAVBA OBRYS
100
AcDbPolyline
 90
        3
 70
     0
 43
0.0
 10
137.5515494203685
 20
294.2832738788664
 10
161.5470523387597
 20
283.2240390182431
 10
166.3469774992194
 20
282.4495620478327
  0
HATCH
  5
3F62
330
1F
100
AcDbEntity
  8
STAVBA OBRYS
100
AcDbHatch
 10
0.0
 20
0.0
 30
0.0
210
0.0
220
0.0
230
1.0
  2
AR-CONC
 70
     0
 71
     0
 91
        3
 92
        7
 72
     0
 73
     1
 93
        7
 10
242.7359047555368
 20
246.5571151746597
 10
200.5024773405424
 20
246.5571151746597
 10
198.6676534859256
 20
246.339303759404
 10
192.681075766843
 20
246.5571151746597
 10
67.29487121498493
 20
246.5571151746597
 10
72.55459166949766
 20
234.0571151746597
 10
242.7359047555404
 20
234.0571151746597
 97
        0
 92
        7
 72
     0
 73
     1
 93
        4
 10
-1.769880333991409
 20
246.5571151746597
 10
-108.1712410620672
 20
246.5571151746597
 10
-108.1712410620672
 20
234.0571151746597
 10
-18.86617936903678
 20
234.0571151746597
 97
        0
 92
        7
 72
     0
 73
     1
 93
        5
 10
13.93245543627597
 20
245.6840674886433
 10
12.80731054521709
 20
245.7609638089387
 10
-2.290174265861082
 20
246.176701019819
 10
-18.86617936903678
 20
234.0571151746597
 10
9.040093923508152
 20
234.0571151746597
 97
        0
 75
     0
 76
     1
 52
90.0
 41
0.1
 77
     0
 78
    13
 53
140.0
 43
-23444.18159238021
 44
-2069.994357666989
 45
1.593908553890309
 46
18.2184668996004
 79
     2
 49
1.905
 49
-20.955
 53
85.00000000000001
 43
-23444.18159238021
 44
-2069.994357666989
 45
-19.10566428821799
 46
-3.524282597566697
 79
     2
 49
1.524
 49
-16.764
 53
190.4509999999999
 43
-23444.04876738022
 44
-2068.476157666989
 45
-17.51166878202918
 46
14.69425016659592
 79
     2
 49
1.619
 49
-17.809
 53
136.1841999999999
 43
-23449.26159238021
 44
-2069.994357666989
 45
4.204232793272717
 46
27.10790408921299
 79
     2
 49
2.857499999999999
 49
-31.4325
 53
186.6355999999999
 43
-23448.91124238022
 44
-2067.735367666989
 45
-24.74255558900492
 46
23.74042344662371
 79
     2
 49
2.4285
 49
-26.7135
 53
81.18400000000004
 43
-23449.26159238021
 44
-2069.994357666989
 45
-24.74251178605976
 46
23.74046058139339
 79
     2
 49
2.286
 49
-25.146
 53
111.0
 43
-23447.99159238022
 44
-2067.454357666989
 45
10.22655185167625
 46
15.16148798353833
 79
     2
 49
1.905
 49
-20.955
 53
56.00000000000004
 43
-23447.99159238022
 44
-2067.454357666989
 45
-18.41879661223192
 46
6.180202834764708
 79
     2
 49
1.524
 49
-16.764
 53
161.4514
 43
-23447.13938238021
 44
-2066.190907666989
 45
-8.192285771605742
 46
21.34164907701245
 79
     2
 49
1.618999999999999
 49
-17.80899999999999
 53
127.5
 43
-23444.18159238021
 44
-2069.994357666989
 45
-8.455503887315311
 46
0.3088603250591822
 79
     6
 49
0.0
 49
-16.5608
 49
0.0
 49
-17.018
 49
0.0
 49
-16.8275
 53
97.49999999999998
 43
-23444.18159238021
 44
-2069.994357666989
 45
-10.01805748181195
 46
6.681966251030575
 79
     6
 49
0.0
 49
-9.702799999999999
 49
0.0
 49
-16.1798
 49
0.0
 49
-6.4135
 53
57.5
 43
-23444.18159238021
 44
-2075.658557666989
 45
0.5728743992673473
 46
13.55905951668713
 79
     6
 49
0.0
 49
-6.35
 49
0.0
 49
-19.812
 49
0.0
 49
-26.289
 53
47.5
 43
-23444.18159238021
 44
-2078.198557666989
 45
-2.5426491033333
 46
14.8129181386018
 79
     6
 49
0.0
 49
-8.255
 49
0.0
 49
-13.1572
 49
0.0
 49
-18.669
 47
0.7753914505930569
 98
        3
 10
106.4914108347078
 20
238.5090802525891
 10
-43.79802861995961
 20
239.0709227859632
 10
-1.12821452807077
 20
238.2955612653757
  0
LINE
  5
3F63
330
1F
100
AcDbEntity
  8
STAVBA OBRYS
100
AcDbLine
 10
9.04009392351179
 20
234.0571151746597
 30
0.0
 11
14.29981437802814
 21
246.5571151746597
 31
0.0
  0
LINE
  5
3F64
330
1F
100
AcDbEntity
  8
STAVBA OBRYS
100
AcDbLine
 10
241.0491316828596
 20
246.7795823408495
 30
0.0
 11
220.97833270445
 21
248.2348017095036
 31
0.0
  0
LINE
  5
3F65
330
1F
100
AcDbEntity
  8
STAVBA OBRYS
100
AcDbLine
 10
242.7359047555404
 20
246.699216516129
 30
0.0
 11
241.0491316828596
 21
246.7795823408495
 31
0.0
  0
LINE
  5
3F66
330
1F
100
AcDbEntity
  8
STAVBA OBRYS
100
AcDbLine
 10
242.7359047555404
 20
251.9873868012754
 30
0.0
 11
223.5070801960868
 21
252.0942737136619
 31
0.0
  0
LINE
  5
3F67
330
1F
100
AcDbEntity
  8
STAVBA OBRYS
100
AcDbLine
 10
232.400266373905
 20
258.6392435302812
 30
0.0
 11
242.8740662838393
 21
257.2692107873562
 31
0.0
  0
LINE
  5
3F68
330
1F
100
AcDbEntity
  8
STAVBA OBRYS
100
AcDbLine
 10
190.6684316823997
 20
246.6303417954449
 30
0.0
 11
182.9600795200134
 21
246.7758754076902
 31
0.0
  0
LINE
  5
3F69
330
1F
100
AcDbEntity
  8
STAVBA OBRYS
100
AcDbLine
 10
182.9600795200134
 20
246.7758754076902
 30
0.0
 11
178.8059552015332
 21
246.5571151746597
 31
0.0
  0
LINE
  5
3F6A
330
1F
100
AcDbEntity
  8
STAVBA OBRYS
100
AcDbLine
 10
166.5048024478131
 20
251.4573817322788
 30
0.0
 11
136.0576024404839
 21
249.5533899431947
 31
0.0
  0
LINE
  5
3F6B
330
1F
100
AcDbEntity
  8
STAVBA OBRYS
100
AcDbLine
 10
136.0576024404839
 20
249.5533899431947
 30
0.0
 11
128.6123029391641
 21
249.7679542399463
 31
0.0
  0
LINE
  5
3F6C
330
1F
100
AcDbEntity
  8
STAVBA OBRYS
100
AcDbLine
 10
150.0125623456809
 20
255.0538074240511
 30
0.0
 11
182.997042549949
 21
256.7462413267465
 31
0.0
  0
LINE
  5
3F6D
330
1F
100
AcDbEntity
  8
STAVBA OBRYS
100
AcDbLine
 10
220.97833270445
 20
248.2348017095036
 30
0.0
 11
207.248650650807
 21
247.3579514797719
 31
0.0
  0
LINE
  5
3F6E
330
1F
100
AcDbEntity
  8
STAVBA OBRYS
100
AcDbLine
 10
207.248650650807
 20
247.3579514797719
 30
0.0
 11
198.6676534859219
 21
246.339303759404
 31
0.0
  0
LINE
  5
3F6F
330
1F
100
AcDbEntity
  8
STAVBA OBRYS
100
AcDbLine
 10
198.6676534859219
 20
246.339303759404
 30
0.0
 11
190.6684316823997
 21
246.6303417954449
 31
0.0
  0
LINE
  5
3F70
330
1F
100
AcDbEntity
  8
STAVBA OBRYS
100
AcDbLine
 10
223.5070801960868
 20
252.0942737136619
 30
0.0
 11
194.1170697477431
 21
252.3058316000577
 31
0.0
  0
LINE
  5
3F71
330
1F
100
AcDbEntity
  8
STAVBA OBRYS
100
AcDbLine
 10
194.1170697477431
 20
252.3058316000577
 30
0.0
 11
166.5048024478131
 21
251.4573817322788
 31
0.0
  0
LINE
  5
3F72
330
1F
100
AcDbEntity
  8
STAVBA OBRYS
100
AcDbLine
 10
182.997042549949
 20
256.7462413267465
 30
0.0
 11
200.6537087698274
 21
258.6392435302812
 31
0.0
  0
LINE
  5
3F73
330
1F
100
AcDbEntity
  8
STAVBA OBRYS
100
AcDbLine
 10
-73.31481740916172
 20
256.7462413267465
 30
0.0
 11
-55.65815118928333
 21
258.6392435302812
 31
0.0
  0
LINE
  5
3F74
330
1F
100
AcDbEntity
  8
STAVBA OBRYS
100
AcDbLine
 10
-62.1947902113676
 20
252.3058316000577
 30
0.0
 11
-89.80705751129756
 21
251.4573817322788
 31
0.0
  0
LINE
  5
3F75
330
1F
100
AcDbEntity
  8
STAVBA OBRYS
100
AcDbLine
 10
-32.80477976302393
 20
252.0942737136619
 30
0.0
 11
-62.1947902113676
 21
252.3058316000577
 31
0.0
  0
LINE
  5
3F76
330
1F
100
AcDbEntity
  8
STAVBA OBRYS
100
AcDbLine
 10
-63.63078419227861
 20
246.5571151746597
 30
0.0
 11
-65.64342827671101
 21
246.6303417954449
 31
0.0
  0
LINE
  5
3F77
330
1F
100
AcDbEntity
  8
STAVBA OBRYS
100
AcDbLine
 10
-106.2992976134297
 20
255.0538074240511
 30
0.0
 11
-73.31481740916172
 21
256.7462413267465
 31
0.0
  0
LINE
  5
3F78
330
1F
100
AcDbEntity
  8
STAVBA OBRYS
100
AcDbLine
 10
-107.670625376642
 20
255.1011201047666
 30
0.0
 11
-106.2992976134297
 21
255.0538074240511
 31
0.0
  0
LINE
  5
3F79
330
1F
100
AcDbEntity
  8
STAVBA OBRYS
100
AcDbLine
 10
-89.80705751129756
 20
251.4573817322788
 30
0.0
 11
-107.7709305877066
 21
250.3340250088557
 31
0.0
  0
LINE
  5
3F7A
330
1F
100
AcDbEntity
  8
STAVBA OBRYS
100
AcDbLine
 10
-73.3517804390973
 20
246.7758754076902
 30
0.0
 11
-77.50590475757746
 21
246.5571151746597
 31
0.0
  0
LINE
  5
3F7B
330
1F
100
AcDbEntity
  8
STAVBA OBRYS
100
AcDbLine
 10
-65.64342827671101
 20
246.6303417954449
 30
0.0
 11
-73.3517804390973
 21
246.7758754076902
 31
0.0
  0
LINE
  5
3F7C
330
1F
100
AcDbEntity
  8
STAVBA OBRYS
100
AcDbLine
 10
-49.06320930830372
 20
247.3579514797719
 30
0.0
 11
-55.80938261856829
 21
246.5571151746597
 31
0.0
  0
LINE
  5
3F7D
330
1F
100
AcDbEntity
  8
STAVBA OBRYS
100
AcDbLine
 10
6.362790942276092
 20
255.4746464977332
 30
0.0
 11
25.98135653978568
 21
255.5868177115015
 31
0.0
  0
LINE
  5
3F7E
330
1F
100
AcDbEntity
  8
STAVBA OBRYS
100
AcDbLine
 10
-23.91159358520565
 20
258.6392435302812
 30
0.0
 11
-13.43779367527133
 21
257.2692107873562
 31
0.0
  0
LINE
  5
3F7F
330
1F
100
AcDbEntity
  8
STAVBA OBRYS
100
AcDbLine
 10
-13.43779367527133
 20
257.2692107873562
 30
0.0
 11
6.362790942276092
 21
255.4746464977332
 31
0.0
  0
LINE
  5
3F80
330
1F
100
AcDbEntity
  8
STAVBA OBRYS
100
AcDbLine
 10
5.254224756027156
 20
251.8827158272732
 30
0.0
 11
-32.80477976302393
 21
252.0942737136619
 31
0.0
  0
LINE
  5
3F81
330
1F
100
AcDbEntity
  8
STAVBA OBRYS
100
AcDbLine
 10
26.34819070950141
 20
251.461322173044
 30
0.0
 11
5.254224756027156
 21
251.8827158272732
 31
0.0
  0
LINE
  5
3F82
330
1F
100
AcDbEntity
  8
STAVBA OBRYS
100
AcDbLine
 10
12.807310545228
 20
245.7609638089387
 30
0.0
 11
-3.045716280797591
 21
246.1975062687678
 31
0.0
  0
LINE
  5
3F83
330
1F
100
AcDbEntity
  8
STAVBA OBRYS
100
AcDbLine
 10
19.1631838186953
 20
245.3265812944053
 30
0.0
 11
12.807310545228
 21
245.7609638089387
 31
0.0
  0
LINE
  5
3F84
330
1F
100
AcDbEntity
  8
STAVBA OBRYS
100
AcDbLine
 10
-10.5934347452345
 20
246.5571151746597
 30
0.0
 11
-15.26272827625109
 21
246.7795823408495
 31
0.0
  0
LINE
  5
3F85
330
1F
100
AcDbEntity
  8
STAVBA OBRYS
100
AcDbLine
 10
-15.26272827625109
 20
246.7795823408495
 30
0.0
 11
-35.33352725466068
 21
248.2348017095036
 31
0.0
  0
LINE
  5
3F86
330
1F
100
AcDbEntity
  8
STAVBA OBRYS
100
AcDbLine
 10
-35.33352725466068
 20
248.2348017095036
 30
0.0
 11
-49.06320930830372
 21
247.3579514797719
 31
0.0
  0
LINE
  5
3F87
330
1F
100
AcDbEntity
  8
STAVBA OBRYS
100
AcDbLine
 10
33.26825078689978
 20
256.9328138998433
 30
0.0
 11
60.08437879928931
 21
257.9667271796178
 31
0.0
  0
LINE
  5
3F88
330
1F
100
AcDbEntity
  8
STAVBA OBRYS
100
AcDbLine
 10
45.16625144931857
 20
250.6152657581741
 30
0.0
 11
26.34819070950141
 21
251.461322173044
 31
0.0
  0
LINE
  5
3F89
330
1F
100
AcDbEntity
  8
STAVBA OBRYS
100
AcDbLine
 10
68.00164694493322
 20
251.0383815309586
 30
0.0
 11
45.16625144931857
 21
250.6152657581741
 31
0.0
  0
LINE
  5
3F8A
330
1F
100
AcDbEntity
  8
STAVBA OBRYS
100
AcDbLine
 10
42.14280548528802
 20
246.0541909787324
 30
0.0
 11
28.47139116551659
 21
245.7631529426915
 31
0.0
  0
LINE
  5
3F8B
330
1F
100
AcDbEntity
  8
STAVBA OBRYS
100
AcDbLine
 10
66.86771715688189
 20
248.3824952670592
 30
0.0
 11
42.14280548528802
 21
246.0541909787324
 31
0.0
  0
LINE
  5
3F8C
330
1F
100
AcDbEntity
  8
STAVBA OBRYS
100
AcDbLine
 10
25.98135653978568
 20
255.5868177115015
 30
0.0
 11
33.26825078689978
 21
256.9328138998433
 31
0.0
  0
LINE
  5
3F8D
330
1F
100
AcDbEntity
  8
STAVBA OBRYS
100
AcDbLine
 10
28.47139116551659
 20
245.7631529426915
 30
0.0
 11
19.1631838186953
 21
245.3265812944053
 31
0.0
  0
LINE
  5
3F8E
330
1F
100
AcDbEntity
  8
STAVBA OBRYS
100
AcDbLine
 10
116.9825683666316
 20
257.4966763790552
 30
0.0
 11
143.9708838464397
 21
255.9267464014745
 31
0.0
  0
LINE
  5
3F8F
330
1F
100
AcDbEntity
  8
STAVBA OBRYS
100
AcDbLine
 10
128.6123029391641
 20
249.7679542399463
 30
0.0
 11
103.7348308262993
 21
251.0383815309586
 31
0.0
  0
LINE
  5
3F90
330
1F
100
AcDbEntity
  8
STAVBA OBRYS
100
AcDbLine
 10
103.7348308262993
 20
251.0383815309586
 30
0.0
 11
68.00164694493322
 21
251.0383815309586
 31
0.0
  0
LINE
  5
3F91
330
1F
100
AcDbEntity
  8
STAVBA OBRYS
100
AcDbLine
 10
80.35099705049322
 20
247.2201528068006
 30
0.0
 11
66.86771715688189
 21
248.3824952670592
 31
0.0
  0
LINE
  5
3F92
330
1F
100
AcDbEntity
  8
STAVBA OBRYS
100
AcDbLine
 10
82.81234787186292
 20
246.5571151746597
 30
0.0
 11
80.35099705049322
 21
247.2201528068006
 31
0.0
  0
LINE
  5
3F93
330
1F
100
AcDbEntity
  8
STAVBA OBRYS
100
AcDbLine
 10
80.32561540914718
 20
258.2807073374468
 30
0.0
 11
116.9825683666316
 21
257.4966763790552
 31
0.0
  0
LINE
  5
3F94
330
1F
100
AcDbEntity
  8
STAVBA OBRYS
100
AcDbLine
 10
60.08437879928931
 20
257.9667271796178
 30
0.0
 11
80.32561540914718
 21
258.2807073374468
 31
0.0
  0
LINE
  5
3F95
330
1F
100
AcDbEntity
  8
STAVBA OBRYS
100
AcDbLine
 10
150.0125623456809
 20
255.0538074240511
 30
0.0
 11
143.9708838464397
 21
255.9267464014745
 31
0.0
  0
LWPOLYLINE
  5
3F96
330
1F
100
AcDbEntity
  8
STAVBA OBRYS
100
AcDbPolyline
 90
        4
 70
     1
 43
0.0
 10
91.82875893793278
 20
258.8210183157761
 10
191.8287589379327
 20
258.8210183157761
 10
191.8287589379327
 20
398.8210183157761
 10
91.82875893793278
 20
398.8210183157761
  0
LINE
  5
3F97
330
1F
100
AcDbEntity
  8
STAVBA OBRYS
100
AcDbLine
 10
242.7473748661217
 20
398.8210183157761
 30
0.0
 11
-108.1712410620672
 21
398.8210183157761
 31
0.0
  0
LINE
  5
3F98
330
1F
100
AcDbEntity
  8
STAVBA OBRYS
100
AcDbLine
 10
242.7473748661217
 20
258.8210183157761
 30
0.0
 11
-108.1712410620672
 21
258.8210183157761
 31
0.0
  0
LINE
  5
3F99
330
1F
100
AcDbEntity
  8
STAVBA OBRYS
100
AcDbLine
 10
9.04009392351179
 20
234.0571151746597
 30
0.0
 11
-108.1712410620672
 21
234.0571151746597
 31
0.0
  0
LINE
  5
3F9A
330
1F
100
AcDbEntity
  8
STAVBA OBRYS
100
AcDbLine
 10
242.7473748661217
 20
246.5571151746597
 30
0.0
 11
-108.1712410620672
 21
246.5571151746597
 31
0.0
  0
LINE
  5
3F9B
330
1F
100
AcDbEntity
  8
STAVBA OBRYS
100
AcDbLine
 10
72.27234820826232
 20
234.0571151746597
 30
0.0
 11
242.7359047555404
 21
234.0571151746597
 31
0.0
  0
INSERT
  5
3F9C
330
1F
100
AcDbEntity
  8
POPIS
100
AcDbBlockReference
  2
E_PUNKT
 10
40.98333209983354
 20
277.8650926322224
 30
0.0
 50
270.0
  0
LINE
  5
3F9D
330
1F
100
AcDbEntity
  8
POPIS
100
AcDbLine
 10
41.0124004307039
 20
277.8374822565973
 30
0.0
 11
-50.63648659734792
 21
352.8122256143432
 31
0.0
  0
HATCH
  5
3F9E
330
1F
100
AcDbEntity
  8
izolace
100
AcDbHatch
 10
0.0
 20
0.0
 30
0.0
210
0.0
220
0.0
230
1.0
  2
AR-SAND
 70
     0
 71
     0
 91
        2
 92
        7
 72
     0
 73
     1
 93
        4
 10
78.27234820826231
 20
228.8390701934703
 10
78.27234820826231
 20
234.0571151746597
 10
66.27234820826231
 20
234.0571151746597
 10
66.27234820826231
 20
228.8390701934703
 97
        0
 92
        7
 72
     0
 73
     1
 93
        4
 10
15.04009392351179
 20
228.8390701934703
 10
15.04009392351179
 20
234.0571151746597
 10
3.04009392351179
 20
234.0571151746597
 10
3.04009392351179
 20
228.8390701934666
 97
        0
 75
     0
 76
     1
 52
90.0
 41
0.05
 77
     0
 78
     4
 53
127.5
 43
-23444.18159238021
 44
-2069.994357666989
 45
-2.447066186646711
 46
-0.0800015647992021
 79
     6
 49
0.0
 49
-1.9304
 49
0.0
 49
-2.159
 49
0.0
 49
-2.06375
 53
97.49999999999998
 43
-23444.18159238021
 44
-2069.994357666989
 45
-3.584125502841771
 46
2.247616415690013
 79
     6
 49
0.0
 49
-1.0414
 49
0.0
 49
-1.7399
 49
0.0
 49
-0.6667500000000001
 53
57.5
 43
-23444.18159238021
 44
-2071.556457666989
 45
-0.0071859233927282
 46
3.95496185120729
 79
     6
 49
0.0
 49
-0.635
 49
0.0
 49
-2.286
 49
0.0
 49
-2.9845
 53
47.5
 43
-23444.18159238021
 44
-2071.556457666989
 45
-1.11464661628608
 46
3.817782262361486
 79
     6
 49
0.0
 49
-0.3175
 49
0.0
 49
-1.498599999999999
 49
0.0
 49
-1.7145
 47
0.4414942775221867
 98
        2
 10
73.78704979464271
 20
231.4912257970107
 10
8.445891503805228
 20
231.0494910036912
  0
LWPOLYLINE
  5
3F9F
330
1F
100
AcDbEntity
  8
izolace
100
AcDbPolyline
 90
        4
 70
     1
 43
0.0
 10
78.27234820826231
 20
228.8390701934703
 10
78.27234820826231
 20
234.0571151746597
 10
66.27234820826231
 20
234.0571151746597
 10
66.27234820826231
 20
228.8390701934703
  0
LWPOLYLINE
  5
3FA0
330
1F
100
AcDbEntity
  8
izolace
100
AcDbPolyline
 90
        4
 70
     1
 43
0.0
 10
3.04009392351179
 20
228.8390701934703
 10
3.04009392351179
 20
234.0571151746597
 10
15.04009392351179
 20
234.0571151746597
 10
15.04009392351179
 20
228.8390701934703
  0
LINE
  5
3FA1
330
1F
100
AcDbEntity
  8
izolace
  6
IZOLACE
 48
1.5
100
AcDbLine
 10
40.79734279650472
 20
239.5741463823113
 30
0.0
 11
40.79734279650472
 21
-93.24449783896772
 31
0.0
  0
LINE
  5
3FA2
330
1F
100
AcDbEntity
  8
NOSNÉ KONSTRUKCE
100
AcDbLine
 10
20.82813041234146
 20
241.2633254848741
 30
0.0
 11
20.82813041233419
 21
-89.56656617483133
 31
0.0
  0
LINE
  5
3FA3
330
1F
100
AcDbEntity
  8
NOSNÉ KONSTRUKCE
100
AcDbLine
 10
60.1817868528891
 20
241.2633254848741
 30
0.0
 11
60.18178685288546
 21
-96.8147268101999
 31
0.0
  0
LINE
  5
3FA4
330
1F
100
AcDbEntity
  8
SPOJOVACÍ
  6
Continuous
100
AcDbLine
 10
55.3704899403059
 20
212.9078405250883
 30
0.0
 11
54.01057292676376
 21
208.8634361654957
 31
0.0
  0
LINE
  5
3FA5
330
1F
100
AcDbEntity
  8
SPOJOVACÍ
  6
Continuous
100
AcDbLine
 10
54.77424725515118
 20
212.9078405250883
 30
0.0
 11
53.41433024160903
 21
208.8634361654957
 31
0.0
  0
LINE
  5
3FA6
330
1F
100
AcDbEntity
  8
SPOJOVACÍ
  6
Continuous
100
AcDbLine
 10
53.79198161473721
 20
208.4857847945503
 30
0.0
 11
54.01057292676376
 21
208.8634361654957
 31
0.0
  0
LINE
  5
3FA7
330
1F
100
AcDbEntity
  8
SPOJOVACÍ
  6
Continuous
100
AcDbLine
 10
53.79198161473721
 20
208.4857847945503
 30
0.0
 11
53.41433024160903
 21
208.8634361654957
 31
0.0
  0
LINE
  5
3FA8
330
1F
100
AcDbEntity
  8
SPOJOVACÍ
  6
Continuous
100
AcDbLine
 10
54.99190839119944
 20
213.2854919003992
 30
0.0
 11
55.3704899403059
 21
212.9078405250883
 31
0.0
  0
LINE
  5
3FA9
330
1F
100
AcDbEntity
  8
SPOJOVACÍ
  6
Continuous
100
AcDbLine
 10
54.99190839119944
 20
213.2854919003992
 30
0.0
 11
54.77424725515118
 21
212.9078405250883
 31
0.0
  0
LINE
  5
3FAA
330
1F
100
AcDbEntity
  8
SPOJOVACÍ
  6
Continuous
100
AcDbLine
 10
54.99190839119944
 20
213.2854919003992
 30
0.0
 11
53.79198161473721
 21
208.4857847945503
 31
0.0
  0
LINE
  5
3FAB
330
1F
100
AcDbEntity
  8
SPOJOVACÍ
  6
Continuous
100
AcDbLine
 10
58.49029955926778
 20
212.9078405250883
 30
0.0
 11
57.13038254572563
 21
208.8634361654957
 31
0.0
  0
LINE
  5
3FAC
330
1F
100
AcDbEntity
  8
SPOJOVACÍ
  6
Continuous
100
AcDbLine
 10
57.89405687412034
 20
212.9078405250883
 30
0.0
 11
56.5341398608474
 21
208.8634361654957
 31
0.0
  0
LINE
  5
3FAD
330
1F
100
AcDbEntity
  8
SPOJOVACÍ
  6
Continuous
100
AcDbLine
 10
56.91272140967737
 20
208.4857847945503
 30
0.0
 11
57.13038254572563
 21
208.8634361654957
 31
0.0
  0
LINE
  5
3FAE
330
1F
100
AcDbEntity
  8
SPOJOVACÍ
  6
Continuous
100
AcDbLine
 10
56.91272140967737
 20
208.4857847945503
 30
0.0
 11
56.5341398608474
 21
208.8634361654957
 31
0.0
  0
LINE
  5
3FAF
330
1F
100
AcDbEntity
  8
SPOJOVACÍ
  6
Continuous
100
AcDbLine
 10
58.11264818613961
 20
213.2854919003992
 30
0.0
 11
58.49029955926778
 21
212.9078405250883
 31
0.0
  0
LINE
  5
3FB0
330
1F
100
AcDbEntity
  8
SPOJOVACÍ
  6
Continuous
100
AcDbLine
 10
58.11264818613961
 20
213.2854919003992
 30
0.0
 11
57.89405687412034
 21
212.9078405250883
 31
0.0
  0
LINE
  5
3FB1
330
1F
100
AcDbEntity
  8
SPOJOVACÍ
  6
Continuous
100
AcDbLine
 10
58.11264818613961
 20
213.2854919003992
 30
0.0
 11
56.91272140967737
 21
208.4857847945503
 31
0.0
  0
LINE
  5
3FB2
330
1F
100
AcDbEntity
  8
SPOJOVACÍ
  6
Continuous
100
AcDbLine
 10
61.61010917823694
 20
212.9078405250883
 30
0.0
 11
60.250192164964
 21
208.8634361654957
 31
0.0
  0
LINE
  5
3FB3
330
1F
100
AcDbEntity
  8
SPOJOVACÍ
  6
Continuous
100
AcDbLine
 10
61.01386649308222
 20
212.9078405250883
 30
0.0
 11
59.65394947981656
 21
208.8634361654957
 31
0.0
  0
LINE
  5
3FB4
330
1F
100
AcDbEntity
  8
SPOJOVACÍ
  6
Continuous
100
AcDbLine
 10
60.03253102864653
 20
208.4857847945503
 30
0.0
 11
60.250192164964
 21
208.8634361654957
 31
0.0
  0
LINE
  5
3FB5
330
1F
100
AcDbEntity
  8
SPOJOVACÍ
  6
Continuous
100
AcDbLine
 10
60.03253102864653
 20
208.4857847945503
 30
0.0
 11
59.65394947981656
 21
208.8634361654957
 31
0.0
  0
LINE
  5
3FB6
330
1F
100
AcDbEntity
  8
SPOJOVACÍ
  6
Continuous
100
AcDbLine
 10
61.23245780510877
 20
213.2854919003992
 30
0.0
 11
61.61010917823694
 21
212.9078405250883
 31
0.0
  0
LINE
  5
3FB7
330
1F
100
AcDbEntity
  8
SPOJOVACÍ
  6
Continuous
100
AcDbLine
 10
61.23245780510877
 20
213.2854919003992
 30
0.0
 11
61.01386649308222
 21
212.9078405250883
 31
0.0
  0
LINE
  5
3FB8
330
1F
100
AcDbEntity
  8
SPOJOVACÍ
  6
Continuous
100
AcDbLine
 10
61.23245780510877
 20
213.2854919003992
 30
0.0
 11
60.03253102864653
 21
208.4857847945503
 31
0.0
  0
LINE
  5
3FB9
330
1F
100
AcDbEntity
  8
SPOJOVACÍ
  6
Continuous
100
AcDbLine
 10
45.88641752626824
 20
211.9023204894009
 30
0.0
 11
45.57573881049427
 21
209.7480333479442
 31
0.0
  0
LINE
  5
3FBA
330
1F
100
AcDbEntity
  8
SPOJOVACÍ
  6
Continuous
100
AcDbLine
 10
46.26406889939642
 20
211.5246691184555
 30
0.0
 11
45.79339994681174
 21
210.1256847188896
 31
0.0
  0
LINE
  5
3FBB
330
1F
100
AcDbEntity
  8
SPOJOVACÍ
  6
Continuous
100
AcDbLine
 10
45.66782621424898
 20
211.5246691184555
 30
0.0
 11
45.1971572616643
 21
210.1256847188896
 31
0.0
  0
LINE
  5
3FBC
330
1F
100
AcDbEntity
  8
SPOJOVACÍ
  6
Continuous
100
AcDbLine
 10
45.57573881049427
 20
209.7480333479442
 30
0.0
 11
45.79339994681174
 21
210.1256847188896
 31
0.0
  0
LINE
  5
3FBD
330
1F
100
AcDbEntity
  8
SPOJOVACÍ
  6
Continuous
100
AcDbLine
 10
45.57573881049427
 20
209.7480333479442
 30
0.0
 11
45.1971572616643
 21
210.1256847188896
 31
0.0
  0
LINE
  5
3FBE
330
1F
100
AcDbEntity
  8
SPOJOVACÍ
  6
Continuous
100
AcDbLine
 10
45.88641752626824
 20
211.9023204894009
 30
0.0
 11
46.26406889939642
 21
211.5246691184555
 31
0.0
  0
LINE
  5
3FBF
330
1F
100
AcDbEntity
  8
SPOJOVACÍ
  6
Continuous
100
AcDbLine
 10
45.88641752626824
 20
211.9023204894009
 30
0.0
 11
45.66782621424898
 21
211.5246691184555
 31
0.0
  0
LINE
  5
3FC0
330
1F
100
AcDbEntity
  8
SPOJOVACÍ
  6
Continuous
100
AcDbLine
 10
48.90018710458787
 20
212.4669371998724
 30
0.0
 11
48.26673738781789
 21
209.3508482834412
 31
0.0
  0
LINE
  5
3FC1
330
1F
100
AcDbEntity
  8
SPOJOVACÍ
  6
Continuous
100
AcDbLine
 10
49.27876865369433
 20
212.0892858245614
 30
0.0
 11
48.48439852386616
 21
209.7284996543866
 31
0.0
  0
LINE
  5
3FC2
330
1F
100
AcDbEntity
  8
SPOJOVACÍ
  6
Continuous
100
AcDbLine
 10
48.6825259685396
 20
212.0892858245614
 30
0.0
 11
47.88815583898792
 21
209.7284996543866
 31
0.0
  0
LINE
  5
3FC3
330
1F
100
AcDbEntity
  8
SPOJOVACÍ
  6
Continuous
100
AcDbLine
 10
48.26673738781789
 20
209.3508482834412
 30
0.0
 11
48.48439852386616
 21
209.7284996543866
 31
0.0
  0
LINE
  5
3FC4
330
1F
100
AcDbEntity
  8
SPOJOVACÍ
  6
Continuous
100
AcDbLine
 10
48.26673738781789
 20
209.3508482834412
 30
0.0
 11
47.88815583898792
 21
209.7284996543866
 31
0.0
  0
LINE
  5
3FC5
330
1F
100
AcDbEntity
  8
SPOJOVACÍ
  6
Continuous
100
AcDbLine
 10
48.90018710458787
 20
212.4669371998724
 30
0.0
 11
49.27876865369433
 21
212.0892858245614
 31
0.0
  0
LINE
  5
3FC6
330
1F
100
AcDbEntity
  8
SPOJOVACÍ
  6
Continuous
100
AcDbLine
 10
48.90018710458787
 20
212.4669371998724
 30
0.0
 11
48.6825259685396
 21
212.0892858245614
 31
0.0
  0
LINE
  5
3FC7
330
1F
100
AcDbEntity
  8
SPOJOVACÍ
  6
Continuous
100
AcDbLine
 10
51.91488685888578
 20
213.0315539059782
 30
0.0
 11
50.94192297658117
 21
208.9062242532353
 31
0.0
  0
LINE
  5
3FC8
330
1F
100
AcDbEntity
  8
SPOJOVACÍ
  6
Continuous
100
AcDbLine
 10
52.29253823201395
 20
212.652972357694
 30
0.0
 11
51.15958411262943
 21
209.2838756241807
 31
0.0
  0
LINE
  5
3FC9
330
1F
100
AcDbEntity
  8
SPOJOVACÍ
  6
Continuous
100
AcDbLine
 10
51.69629554685923
 20
212.652972357694
 30
0.0
 11
50.56334142747471
 21
209.2838756241807
 31
0.0
  0
LINE
  5
3FCA
330
1F
100
AcDbEntity
  8
SPOJOVACÍ
  6
Continuous
100
AcDbLine
 10
50.94192297658117
 20
208.9062242532353
 30
0.0
 11
51.15958411262943
 21
209.2838756241807
 31
0.0
  0
LINE
  5
3FCB
330
1F
100
AcDbEntity
  8
SPOJOVACÍ
  6
Continuous
100
AcDbLine
 10
50.94192297658117
 20
208.9062242532353
 30
0.0
 11
50.56334142747471
 21
209.2838756241807
 31
0.0
  0
LINE
  5
3FCC
330
1F
100
AcDbEntity
  8
SPOJOVACÍ
  6
Continuous
100
AcDbLine
 10
51.91488685888578
 20
213.0315539059782
 30
0.0
 11
52.29253823201395
 21
212.652972357694
 31
0.0
  0
LINE
  5
3FCD
330
1F
100
AcDbEntity
  8
SPOJOVACÍ
  6
Continuous
100
AcDbLine
 10
51.91488685888578
 20
213.0315539059782
 30
0.0
 11
51.69629554685923
 21
212.652972357694
 31
0.0
  0
LINE
  5
3FCE
330
1F
100
AcDbEntity
  8
SPOJOVACÍ
  6
Continuous
100
AcDbLine
 10
64.72991879747531
 20
212.9078405250883
 30
0.0
 11
63.37093195963496
 21
208.8634361654957
 31
0.0
  0
LINE
  5
3FCF
330
1F
100
AcDbEntity
  8
SPOJOVACÍ
  6
Continuous
100
AcDbLine
 10
64.13367611232058
 20
212.9078405250883
 30
0.0
 11
62.77468927475672
 21
208.8634361654957
 31
0.0
  0
LINE
  5
3FD0
330
1F
100
AcDbEntity
  8
SPOJOVACÍ
  6
Continuous
100
AcDbLine
 10
63.15234064760841
 20
208.4857847945503
 30
0.0
 11
63.37093195963496
 21
208.8634361654957
 31
0.0
  0
LINE
  5
3FD1
330
1F
100
AcDbEntity
  8
SPOJOVACÍ
  6
Continuous
100
AcDbLine
 10
63.15234064760841
 20
208.4857847945503
 30
0.0
 11
62.77468927475672
 21
208.8634361654957
 31
0.0
  0
LINE
  5
3FD2
330
1F
100
AcDbEntity
  8
SPOJOVACÍ
  6
Continuous
100
AcDbLine
 10
64.35226742434713
 20
213.2854919003992
 30
0.0
 11
64.72991879747531
 21
212.9078405250883
 31
0.0
  0
LINE
  5
3FD3
330
1F
100
AcDbEntity
  8
SPOJOVACÍ
  6
Continuous
100
AcDbLine
 10
64.35226742434713
 20
213.2854919003992
 30
0.0
 11
64.13367611232058
 21
212.9078405250883
 31
0.0
  0
LINE
  5
3FD4
330
1F
100
AcDbEntity
  8
SPOJOVACÍ
  6
Continuous
100
AcDbLine
 10
64.35226742434713
 20
213.2854919003992
 30
0.0
 11
63.15234064760841
 21
208.4857847945503
 31
0.0
  0
LINE
  5
3FD5
330
1F
100
AcDbEntity
  8
SPOJOVACÍ
  6
Continuous
100
AcDbLine
 10
67.85065859213898
 20
212.9078405250883
 30
0.0
 11
66.49074157887333
 21
208.8634361654957
 31
0.0
  0
LINE
  5
3FD6
330
1F
100
AcDbEntity
  8
SPOJOVACÍ
  6
Continuous
100
AcDbLine
 10
67.25441590726075
 20
212.9078405250883
 30
0.0
 11
65.8944988937186
 21
208.8634361654957
 31
0.0
  0
LINE
  5
3FD7
330
1F
100
AcDbEntity
  8
SPOJOVACÍ
  6
Continuous
100
AcDbLine
 10
66.27215026684678
 20
208.4857847945503
 30
0.0
 11
66.49074157887333
 21
208.8634361654957
 31
0.0
  0
LINE
  5
3FD8
330
1F
100
AcDbEntity
  8
SPOJOVACÍ
  6
Continuous
100
AcDbLine
 10
66.27215026684678
 20
208.4857847945503
 30
0.0
 11
65.8944988937186
 21
208.8634361654957
 31
0.0
  0
LINE
  5
3FD9
330
1F
100
AcDbEntity
  8
SPOJOVACÍ
  6
Continuous
100
AcDbLine
 10
67.47207704330901
 20
213.2854919003992
 30
0.0
 11
67.85065859213898
 21
212.9078405250883
 31
0.0
  0
LINE
  5
3FDA
330
1F
100
AcDbEntity
  8
SPOJOVACÍ
  6
Continuous
100
AcDbLine
 10
67.47207704330901
 20
213.2854919003992
 30
0.0
 11
67.25441590726075
 21
212.9078405250883
 31
0.0
  0
LINE
  5
3FDB
330
1F
100
AcDbEntity
  8
SPOJOVACÍ
  6
Continuous
100
AcDbLine
 10
67.47207704330901
 20
213.2854919003992
 30
0.0
 11
66.27215026684678
 21
208.4857847945503
 31
0.0
  0
LINE
  5
3FDC
330
1F
100
AcDbEntity
  8
SPOJOVACÍ
  6
Continuous
100
AcDbLine
 10
51.33631751397877
 20
209.7815196753916
 30
0.0
 11
53.30736002526498
 21
209.5359532639239
 31
0.0
  0
LINE
  5
3FDD
330
1F
100
AcDbEntity
  8
SPOJOVACÍ
  6
Continuous
100
AcDbLine
 10
48.62950594808023
 20
210.120103667953
 30
0.0
 11
50.76611975093363
 21
209.8531432126154
 31
0.0
  0
LINE
  5
3FDE
330
1F
100
AcDbEntity
  8
SPOJOVACÍ
  6
Continuous
100
AcDbLine
 10
45.91246244864703
 20
210.459617829122
 30
0.0
 11
48.0574478336315
 21
210.1917272008112
 31
0.0
  0
LINE
  5
3FDF
330
1F
100
AcDbEntity
  8
SPOJOVACÍ
  6
Continuous
100
AcDbLine
 10
45.59620267811658
 20
211.2716613013734
 30
0.0
 11
42.50708886031168
 21
210.8856383474748
 31
0.0
  0
LINE
  5
3FE0
330
1F
100
AcDbEntity
  8
SPOJOVACÍ
  6
Continuous
100
AcDbLine
 10
48.53741854432553
 20
211.6390807390533
 30
0.0
 11
46.21662993397001
 21
211.3488658938994
 31
0.0
  0
LINE
  5
3FE1
330
1F
100
AcDbEntity
  8
SPOJOVACÍ
  6
Continuous
100
AcDbLine
 10
51.48979652005471
 20
212.008360531411
 30
0.0
 11
49.16807773399011
 21
211.7181456818915
 31
0.0
  0
LINE
  5
3FE2
330
1F
100
AcDbEntity
  8
SPOJOVACÍ
  6
Continuous
100
AcDbLine
 10
42.50708886031168
 20
210.8856383474748
 30
0.0
 11
45.34319486158017
 21
210.5312413663458
 31
0.0
  0
LINE
  5
3FE3
330
1F
100
AcDbEntity
  8
SPOJOVACÍ
  6
Continuous
100
AcDbLine
 10
53.30736002526498
 20
212.2353234266601
 30
0.0
 11
52.11022377590814
 21
212.085565123937
 31
0.0
  0
LINE
  5
3FE4
330
1F
100
AcDbEntity
  8
SPOJOVACÍ
  6
Continuous
100
AcDbLine
 10
53.64408366314854
 20
209.5359532639239
 30
0.0
 11
53.30736002526498
 21
209.5359532639239
 31
0.0
  0
LINE
  5
3FE5
330
1F
100
AcDbEntity
  8
SPOJOVACÍ
  6
Continuous
100
AcDbLine
 10
56.7666838097615
 20
209.5359532639239
 30
0.0
 11
54.24776775473254
 21
209.5359532639239
 31
0.0
  0
LINE
  5
3FE6
330
1F
100
AcDbEntity
  8
SPOJOVACÍ
  6
Continuous
100
AcDbLine
 10
54.55472576715362
 20
212.2353234266601
 30
0.0
 11
53.30736002526498
 21
212.2353234266601
 31
0.0
  0
LINE
  5
3FE7
330
1F
100
AcDbEntity
  8
SPOJOVACÍ
  6
Continuous
100
AcDbLine
 10
57.66895433163552
 20
212.2353234266601
 30
0.0
 11
55.15096845230835
 21
212.2353234266601
 31
0.0
  0
LINE
  5
3FE8
330
1F
100
AcDbEntity
  8
SPOJOVACÍ
  6
Continuous
100
AcDbLine
 10
59.88835378040346
 20
209.5359532639239
 30
0.0
 11
57.36757737369441
 21
209.5359532639239
 31
0.0
  0
LINE
  5
3FE9
330
1F
100
AcDbEntity
  8
SPOJOVACÍ
  6
Continuous
100
AcDbLine
 10
63.01095392674722
 20
209.5359532639239
 30
0.0
 11
60.4827361138781
 21
209.5359532639239
 31
0.0
  0
LINE
  5
3FEA
330
1F
100
AcDbEntity
  8
SPOJOVACÍ
  6
Continuous
100
AcDbLine
 10
66.1261126669309
 20
209.5359532639239
 30
0.0
 11
63.60719661190194
 21
209.5359532639239
 31
0.0
  0
LINE
  5
3FEB
330
1F
100
AcDbEntity
  8
SPOJOVACÍ
  6
Continuous
100
AcDbLine
 10
60.80178641179043
 20
212.2353234266601
 30
0.0
 11
58.27356859892131
 21
212.2353234266601
 31
0.0
  0
LINE
  5
3FEC
330
1F
100
AcDbEntity
  8
SPOJOVACÍ
  6
Continuous
100
AcDbLine
 10
63.91694515197412
 20
212.2353234266601
 30
0.0
 11
61.39616874526507
 21
212.2353234266601
 31
0.0
  0
LINE
  5
3FED
330
1F
100
AcDbEntity
  8
SPOJOVACÍ
  6
Continuous
100
AcDbLine
 10
67.03954529831787
 20
212.2353234266601
 30
0.0
 11
64.52062924328891
 21
212.2353234266601
 31
0.0
  0
LINE
  5
3FEE
330
1F
100
AcDbEntity
  8
SPOJOVACÍ
  6
Continuous
100
AcDbLine
 10
71.67275093717432
 20
212.2353234266601
 30
0.0
 11
67.63485780749431
 21
212.2353234266601
 31
0.0
  0
LINE
  5
3FEF
330
1F
100
AcDbEntity
  8
SPOJOVACÍ
  6
Continuous
100
AcDbLine
 10
71.67275093717432
 20
209.5359532639239
 30
0.0
 11
66.7297967582457
 21
209.5359532639239
 31
0.0
  0
LINE
  5
3FF0
330
1F
100
AcDbEntity
  8
SPOJOVACÍ
  6
Continuous
100
AcDbLine
 10
77.07242143153087
 20
215.9857922361087
 30
0.0
 11
76.32828079505668
 21
214.6361071525578
 31
0.0
  0
LINE
  5
3FF1
330
1F
100
AcDbEntity
  8
SPOJOVACÍ
  6
Continuous
100
AcDbLine
 10
76.32828079505668
 20
214.6361071525578
 30
0.0
 11
75.25950880564448
 21
213.5254772521992
 31
0.0
  0
LINE
  5
3FF2
330
1F
100
AcDbEntity
  8
SPOJOVACÍ
  6
Continuous
100
AcDbLine
 10
75.25950880564448
 20
213.5254772521992
 30
0.0
 11
73.94051952734696
 21
212.729246772881
 31
0.0
  0
LINE
  5
3FF3
330
1F
100
AcDbEntity
  8
SPOJOVACÍ
  6
Continuous
100
AcDbLine
 10
73.94051952734696
 20
212.729246772881
 30
0.0
 11
72.45967966029673
 21
212.3013659085817
 31
0.0
  0
LINE
  5
3FF4
330
1F
100
AcDbEntity
  8
SPOJOVACÍ
  6
Continuous
100
AcDbLine
 10
72.45967966029673
 20
212.3013659085817
 30
0.0
 11
71.67275093717432
 21
212.2353234266601
 31
0.0
  0
LINE
  5
3FF5
330
1F
100
AcDbEntity
  8
SPOJOVACÍ
  6
Continuous
100
AcDbLine
 10
75.81761428320567
 20
207.7379234539083
 30
0.0
 11
76.73569779364732
 21
206.5007896450087
 31
0.0
  0
LINE
  5
3FF6
330
1F
100
AcDbEntity
  8
SPOJOVACÍ
  6
Continuous
100
AcDbLine
 10
76.73569779364732
 20
206.5007896450087
 30
0.0
 11
77.07242143153087
 21
205.7854844588408
 31
0.0
  0
LINE
  5
3FF7
330
1F
100
AcDbEntity
  8
SPOJOVACÍ
  6
Continuous
100
AcDbLine
 10
77.07242143153087
 20
215.9857922361087
 30
0.0
 11
77.07242143153087
 21
205.7854844588408
 31
0.0
  0
LINE
  5
3FF8
330
1F
100
AcDbEntity
  8
SPOJOVACÍ
  6
Continuous
100
AcDbLine
 10
78.27234820826231
 20
215.9857922361087
 30
0.0
 11
77.07242143153087
 21
215.9857922361087
 31
0.0
  0
LINE
  5
3FF9
330
1F
100
AcDbEntity
  8
SPOJOVACÍ
  6
Continuous
100
AcDbLine
 10
78.27234820826231
 20
215.9857922361087
 30
0.0
 11
78.27234820826231
 21
205.7854844588408
 31
0.0
  0
LINE
  5
3FFA
330
1F
100
AcDbEntity
  8
SPOJOVACÍ
  6
Continuous
100
AcDbLine
 10
78.27234820826231
 20
205.7854844588408
 30
0.0
 11
77.07242143153087
 21
205.7854844588408
 31
0.0
  0
LINE
  5
3FFB
330
1F
100
AcDbEntity
  8
SPOJOVACÍ
  6
Continuous
100
AcDbLine
 10
71.67275093717432
 20
209.5359532639239
 30
0.0
 11
73.19637889060357
 21
209.3089903730405
 31
0.0
  0
LINE
  5
3FFC
330
1F
100
AcDbEntity
  8
SPOJOVACÍ
  6
Continuous
100
AcDbLine
 10
73.19637889060357
 20
209.3089903730405
 30
0.0
 11
74.61024610030688
 21
208.6960045238928
 31
0.0
  0
LINE
  5
3FFD
330
1F
100
AcDbEntity
  8
SPOJOVACÍ
  6
Continuous
100
AcDbLine
 10
74.61024610030688
 20
208.6960045238928
 30
0.0
 11
75.81761428320567
 21
207.7379234539083
 31
0.0
  0
LINE
  5
3FFE
330
1F
100
AcDbEntity
  8
SPOJOVACÍ
  6
Continuous
100
AcDbLine
 10
6.702196031467224
 20
208.6960045238928
 30
0.0
 11
5.494827848568434
 21
207.7379234539083
 31
0.0
  0
LINE
  5
3FFF
330
1F
100
AcDbEntity
  8
SPOJOVACÍ
  6
Continuous
100
AcDbLine
 10
8.116063241170536
 20
209.3089903730405
 30
0.0
 11
6.702196031467224
 21
208.6960045238928
 31
0.0
  0
LINE
  5
4000
330
1F
100
AcDbEntity
  8
SPOJOVACÍ
  6
Continuous
100
AcDbLine
 10
9.639691194599777
 20
209.5359532639239
 30
0.0
 11
8.116063241170536
 21
209.3089903730405
 31
0.0
  0
LINE
  5
4001
330
1F
100
AcDbEntity
  8
SPOJOVACÍ
  6
Continuous
100
AcDbLine
 10
3.04009392351179
 20
205.7854844588408
 30
0.0
 11
4.240020700243235
 21
205.7854844588408
 31
0.0
  0
LINE
  5
4002
330
1F
100
AcDbEntity
  8
SPOJOVACÍ
  6
Continuous
100
AcDbLine
 10
3.04009392351179
 20
215.9857922361087
 30
0.0
 11
3.04009392351179
 21
205.7854844588408
 31
0.0
  0
LINE
  5
4003
330
1F
100
AcDbEntity
  8
SPOJOVACÍ
  6
Continuous
100
AcDbLine
 10
3.04009392351179
 20
215.9857922361087
 30
0.0
 11
4.240020700243235
 21
215.9857922361087
 31
0.0
  0
LINE
  5
4004
330
1F
100
AcDbEntity
  8
SPOJOVACÍ
  6
Continuous
100
AcDbLine
 10
4.240020700243235
 20
215.9857922361087
 30
0.0
 11
4.240020700243235
 21
205.7854844588408
 31
0.0
  0
LINE
  5
4005
330
1F
100
AcDbEntity
  8
SPOJOVACÍ
  6
Continuous
100
AcDbLine
 10
4.576744338126786
 20
206.5007896450087
 30
0.0
 11
4.240020700243235
 21
205.7854844588408
 31
0.0
  0
LINE
  5
4006
330
1F
100
AcDbEntity
  8
SPOJOVACÍ
  6
Continuous
100
AcDbLine
 10
5.494827848568434
 20
207.7379234539083
 30
0.0
 11
4.576744338126786
 21
206.5007896450087
 31
0.0
  0
LINE
  5
4007
330
1F
100
AcDbEntity
  8
SPOJOVACÍ
  6
Continuous
100
AcDbLine
 10
8.852762471477376
 20
212.3013659085817
 30
0.0
 11
9.639691194599777
 21
212.2353234266601
 31
0.0
  0
LINE
  5
4008
330
1F
100
AcDbEntity
  8
SPOJOVACÍ
  6
Continuous
100
AcDbLine
 10
7.37192260442714
 20
212.729246772881
 30
0.0
 11
8.852762471477376
 21
212.3013659085817
 31
0.0
  0
LINE
  5
4009
330
1F
100
AcDbEntity
  8
SPOJOVACÍ
  6
Continuous
100
AcDbLine
 10
6.052933326129618
 20
213.5254772521992
 30
0.0
 11
7.37192260442714
 21
212.729246772881
 31
0.0
  0
LINE
  5
400A
330
1F
100
AcDbEntity
  8
SPOJOVACÍ
  6
Continuous
100
AcDbLine
 10
4.98416133671742
 20
214.6361071525578
 30
0.0
 11
6.052933326129618
 21
213.5254772521992
 31
0.0
  0
LINE
  5
400B
330
1F
100
AcDbEntity
  8
SPOJOVACÍ
  6
Continuous
100
AcDbLine
 10
4.240020700243235
 20
215.9857922361087
 30
0.0
 11
4.98416133671742
 21
214.6361071525578
 31
0.0
  0
LINE
  5
400C
330
1F
100
AcDbEntity
  8
SPOJOVACÍ
  6
Continuous
100
AcDbLine
 10
9.639691194599777
 20
209.5359532639239
 30
0.0
 11
14.5826453735284
 21
209.5359532639239
 31
0.0
  0
LINE
  5
400D
330
1F
100
AcDbEntity
  8
SPOJOVACÍ
  6
Continuous
100
AcDbLine
 10
9.639691194599777
 20
212.2353234266601
 30
0.0
 11
13.67758432427979
 21
212.2353234266601
 31
0.0
  0
LINE
  5
400E
330
1F
100
AcDbEntity
  8
SPOJOVACÍ
  6
Continuous
100
AcDbLine
 10
14.27289683345622
 20
212.2353234266601
 30
0.0
 11
16.79181288848519
 21
212.2353234266601
 31
0.0
  0
LINE
  5
400F
330
1F
100
AcDbEntity
  8
SPOJOVACÍ
  6
Continuous
100
AcDbLine
 10
17.39549697979998
 20
212.2353234266601
 30
0.0
 11
19.91627338650903
 21
212.2353234266601
 31
0.0
  0
LINE
  5
4010
330
1F
100
AcDbEntity
  8
SPOJOVACÍ
  6
Continuous
100
AcDbLine
 10
20.51065571998367
 20
212.2353234266601
 30
0.0
 11
23.03887353285279
 21
212.2353234266601
 31
0.0
  0
LINE
  5
4011
330
1F
100
AcDbEntity
  8
SPOJOVACÍ
  6
Continuous
100
AcDbLine
 10
15.18632946484319
 20
209.5359532639239
 30
0.0
 11
17.70524551987216
 21
209.5359532639239
 31
0.0
  0
LINE
  5
4012
330
1F
100
AcDbEntity
  8
SPOJOVACÍ
  6
Continuous
100
AcDbLine
 10
18.30148820502688
 20
209.5359532639239
 30
0.0
 11
20.829706017896
 21
209.5359532639239
 31
0.0
  0
LINE
  5
4013
330
1F
100
AcDbEntity
  8
SPOJOVACÍ
  6
Continuous
100
AcDbLine
 10
21.42408835137064
 20
209.5359532639239
 30
0.0
 11
23.94486475807969
 21
209.5359532639239
 31
0.0
  0
LINE
  5
4014
330
1F
100
AcDbEntity
  8
SPOJOVACÍ
  6
Continuous
100
AcDbLine
 10
23.64348780013858
 20
212.2353234266601
 30
0.0
 11
26.16147367946576
 21
212.2353234266601
 31
0.0
  0
LINE
  5
4015
330
1F
100
AcDbEntity
  8
SPOJOVACÍ
  6
Continuous
100
AcDbLine
 10
26.75771636462048
 20
212.2353234266601
 30
0.0
 11
28.00508210650912
 21
212.2353234266601
 31
0.0
  0
LINE
  5
4016
330
1F
100
AcDbEntity
  8
SPOJOVACÍ
  6
Continuous
100
AcDbLine
 10
24.5457583220126
 20
209.5359532639239
 30
0.0
 11
27.06467437704157
 21
209.5359532639239
 31
0.0
  0
LINE
  5
4017
330
1F
100
AcDbEntity
  8
SPOJOVACÍ
  6
Continuous
100
AcDbLine
 10
27.66835846862557
 20
209.5359532639239
 30
0.0
 11
28.00508210650912
 21
209.5359532639239
 31
0.0
  0
LINE
  5
4018
330
1F
100
AcDbEntity
  8
SPOJOVACÍ
  6
Continuous
100
AcDbLine
 10
28.00508210650912
 20
212.2353234266601
 30
0.0
 11
29.20221835586596
 21
212.085565123937
 31
0.0
  0
LINE
  5
4019
330
1F
100
AcDbEntity
  8
SPOJOVACÍ
  6
Continuous
100
AcDbLine
 10
38.80535327146242
 20
210.8856383474748
 30
0.0
 11
35.96924727019393
 21
210.5312413663458
 31
0.0
  0
LINE
  5
401A
330
1F
100
AcDbEntity
  8
SPOJOVACÍ
  6
Continuous
100
AcDbLine
 10
29.82264561171939
 20
212.008360531411
 30
0.0
 11
32.14436439778399
 21
211.7181456818915
 31
0.0
  0
LINE
  5
401B
330
1F
100
AcDbEntity
  8
SPOJOVACÍ
  6
Continuous
100
AcDbLine
 10
32.77502358744857
 20
211.6390807390533
 30
0.0
 11
35.09581219780409
 21
211.3488658938994
 31
0.0
  0
LINE
  5
401C
330
1F
100
AcDbEntity
  8
SPOJOVACÍ
  6
Continuous
100
AcDbLine
 10
35.71623945365752
 20
211.2716613013734
 30
0.0
 11
38.80535327146242
 21
210.8856383474748
 31
0.0
  0
LINE
  5
401D
330
1F
100
AcDbEntity
  8
SPOJOVACÍ
  6
Continuous
100
AcDbLine
 10
35.39997968312707
 20
210.459617829122
 30
0.0
 11
33.2549942981426
 21
210.1917272008112
 31
0.0
  0
LINE
  5
401E
330
1F
100
AcDbEntity
  8
SPOJOVACÍ
  6
Continuous
100
AcDbLine
 10
32.68293618369387
 20
210.120103667953
 30
0.0
 11
30.54632238084048
 21
209.8531432126154
 31
0.0
  0
LINE
  5
401F
330
1F
100
AcDbEntity
  8
SPOJOVACÍ
  6
Continuous
100
AcDbLine
 10
29.97612461779533
 20
209.7815196753916
 30
0.0
 11
28.00508210650912
 21
209.5359532639239
 31
0.0
  0
LINE
  5
4020
330
1F
100
AcDbEntity
  8
SPOJOVACÍ
  6
Continuous
100
AcDbLine
 10
13.84036508846509
 20
213.2854919003992
 30
0.0
 11
15.04029186492732
 21
208.4857847945503
 31
0.0
  0
LINE
  5
4021
330
1F
100
AcDbEntity
  8
SPOJOVACÍ
  6
Continuous
100
AcDbLine
 10
13.84036508846509
 20
213.2854919003992
 30
0.0
 11
14.05802622451335
 21
212.9078405250883
 31
0.0
  0
LINE
  5
4022
330
1F
100
AcDbEntity
  8
SPOJOVACÍ
  6
Continuous
100
AcDbLine
 10
13.84036508846509
 20
213.2854919003992
 30
0.0
 11
13.46178353963512
 21
212.9078405250883
 31
0.0
  0
LINE
  5
4023
330
1F
100
AcDbEntity
  8
SPOJOVACÍ
  6
Continuous
100
AcDbLine
 10
15.04029186492732
 20
208.4857847945503
 30
0.0
 11
15.41794323805549
 21
208.8634361654957
 31
0.0
  0
LINE
  5
4024
330
1F
100
AcDbEntity
  8
SPOJOVACÍ
  6
Continuous
100
AcDbLine
 10
15.04029186492732
 20
208.4857847945503
 30
0.0
 11
14.82170055290078
 21
208.8634361654957
 31
0.0
  0
LINE
  5
4025
330
1F
100
AcDbEntity
  8
SPOJOVACÍ
  6
Continuous
100
AcDbLine
 10
14.05802622451335
 20
212.9078405250883
 30
0.0
 11
15.41794323805549
 21
208.8634361654957
 31
0.0
  0
LINE
  5
4026
330
1F
100
AcDbEntity
  8
SPOJOVACÍ
  6
Continuous
100
AcDbLine
 10
13.46178353963512
 20
212.9078405250883
 30
0.0
 11
14.82170055290078
 21
208.8634361654957
 31
0.0
  0
LINE
  5
4027
330
1F
100
AcDbEntity
  8
SPOJOVACÍ
  6
Continuous
100
AcDbLine
 10
16.96017470742697
 20
213.2854919003992
 30
0.0
 11
18.16010148416569
 21
208.4857847945503
 31
0.0
  0
LINE
  5
4028
330
1F
100
AcDbEntity
  8
SPOJOVACÍ
  6
Continuous
100
AcDbLine
 10
16.96017470742697
 20
213.2854919003992
 30
0.0
 11
17.17876601945351
 21
212.9078405250883
 31
0.0
  0
LINE
  5
4029
330
1F
100
AcDbEntity
  8
SPOJOVACÍ
  6
Continuous
100
AcDbLine
 10
16.96017470742697
 20
213.2854919003992
 30
0.0
 11
16.5825233342988
 21
212.9078405250883
 31
0.0
  0
LINE
  5
402A
330
1F
100
AcDbEntity
  8
SPOJOVACÍ
  6
Continuous
100
AcDbLine
 10
18.16010148416569
 20
208.4857847945503
 30
0.0
 11
18.53775285701738
 21
208.8634361654957
 31
0.0
  0
LINE
  5
402B
330
1F
100
AcDbEntity
  8
SPOJOVACÍ
  6
Continuous
100
AcDbLine
 10
18.16010148416569
 20
208.4857847945503
 30
0.0
 11
17.94151017213914
 21
208.8634361654957
 31
0.0
  0
LINE
  5
402C
330
1F
100
AcDbEntity
  8
SPOJOVACÍ
  6
Continuous
100
AcDbLine
 10
17.17876601945351
 20
212.9078405250883
 30
0.0
 11
18.53775285701738
 21
208.8634361654957
 31
0.0
  0
LINE
  5
402D
330
1F
100
AcDbEntity
  8
SPOJOVACÍ
  6
Continuous
100
AcDbLine
 10
16.5825233342988
 20
212.9078405250883
 30
0.0
 11
17.94151017213914
 21
208.8634361654957
 31
0.0
  0
LINE
  5
402E
330
1F
100
AcDbEntity
  8
SPOJOVACÍ
  6
Continuous
100
AcDbLine
 10
29.39755527288832
 20
213.0315539059782
 30
0.0
 11
29.61614658491487
 21
212.652972357694
 31
0.0
  0
LINE
  5
402F
330
1F
100
AcDbEntity
  8
SPOJOVACÍ
  6
Continuous
100
AcDbLine
 10
29.39755527288832
 20
213.0315539059782
 30
0.0
 11
29.01990389976015
 21
212.652972357694
 31
0.0
  0
LINE
  5
4030
330
1F
100
AcDbEntity
  8
SPOJOVACÍ
  6
Continuous
100
AcDbLine
 10
30.37051915519294
 20
208.9062242532353
 30
0.0
 11
30.74910070429939
 21
209.2838756241807
 31
0.0
  0
LINE
  5
4031
330
1F
100
AcDbEntity
  8
SPOJOVACÍ
  6
Continuous
100
AcDbLine
 10
30.37051915519294
 20
208.9062242532353
 30
0.0
 11
30.15285801914467
 21
209.2838756241807
 31
0.0
  0
LINE
  5
4032
330
1F
100
AcDbEntity
  8
SPOJOVACÍ
  6
Continuous
100
AcDbLine
 10
29.61614658491487
 20
212.652972357694
 30
0.0
 11
30.74910070429939
 21
209.2838756241807
 31
0.0
  0
LINE
  5
4033
330
1F
100
AcDbEntity
  8
SPOJOVACÍ
  6
Continuous
100
AcDbLine
 10
29.01990389976015
 20
212.652972357694
 30
0.0
 11
30.15285801914467
 21
209.2838756241807
 31
0.0
  0
LINE
  5
4034
330
1F
100
AcDbEntity
  8
SPOJOVACÍ
  6
Continuous
100
AcDbLine
 10
29.39755527288832
 20
213.0315539059782
 30
0.0
 11
30.37051915519294
 21
208.9062242532353
 31
0.0
  0
LINE
  5
4035
330
1F
100
AcDbEntity
  8
SPOJOVACÍ
  6
Continuous
100
AcDbLine
 10
32.41225502718623
 20
212.4669371998724
 30
0.0
 11
32.6299161632345
 21
212.0892858245614
 31
0.0
  0
LINE
  5
4036
330
1F
100
AcDbEntity
  8
SPOJOVACÍ
  6
Continuous
100
AcDbLine
 10
32.41225502718623
 20
212.4669371998724
 30
0.0
 11
32.03367347807978
 21
212.0892858245614
 31
0.0
  0
LINE
  5
4037
330
1F
100
AcDbEntity
  8
SPOJOVACÍ
  6
Continuous
100
AcDbLine
 10
33.04570474395621
 20
209.3508482834412
 30
0.0
 11
33.42428629278618
 21
209.7284996543866
 31
0.0
  0
LINE
  5
4038
330
1F
100
AcDbEntity
  8
SPOJOVACÍ
  6
Continuous
100
AcDbLine
 10
33.04570474395621
 20
209.3508482834412
 30
0.0
 11
32.82804360790794
 21
209.7284996543866
 31
0.0
  0
LINE
  5
4039
330
1F
100
AcDbEntity
  8
SPOJOVACÍ
  6
Continuous
100
AcDbLine
 10
32.6299161632345
 20
212.0892858245614
 30
0.0
 11
33.42428629278618
 21
209.7284996543866
 31
0.0
  0
LINE
  5
403A
330
1F
100
AcDbEntity
  8
SPOJOVACÍ
  6
Continuous
100
AcDbLine
 10
32.03367347807978
 20
212.0892858245614
 30
0.0
 11
32.82804360790794
 21
209.7284996543866
 31
0.0
  0
LINE
  5
403B
330
1F
100
AcDbEntity
  8
SPOJOVACÍ
  6
Continuous
100
AcDbLine
 10
32.41225502718623
 20
212.4669371998724
 30
0.0
 11
33.04570474395621
 21
209.3508482834412
 31
0.0
  0
LINE
  5
403C
330
1F
100
AcDbEntity
  8
SPOJOVACÍ
  6
Continuous
100
AcDbLine
 10
35.42602460550586
 20
211.9023204894009
 30
0.0
 11
35.64461591752513
 21
211.5246691184555
 31
0.0
  0
LINE
  5
403D
330
1F
100
AcDbEntity
  8
SPOJOVACÍ
  6
Continuous
100
AcDbLine
 10
35.42602460550586
 20
211.9023204894009
 30
0.0
 11
35.04837323237768
 21
211.5246691184555
 31
0.0
  0
LINE
  5
403E
330
1F
100
AcDbEntity
  8
SPOJOVACÍ
  6
Continuous
100
AcDbLine
 10
35.73670332127983
 20
209.7480333479442
 30
0.0
 11
36.1152848701098
 21
210.1256847188896
 31
0.0
  0
LINE
  5
403F
330
1F
100
AcDbEntity
  8
SPOJOVACÍ
  6
Continuous
100
AcDbLine
 10
35.73670332127983
 20
209.7480333479442
 30
0.0
 11
35.51904218496236
 21
210.1256847188896
 31
0.0
  0
LINE
  5
4040
330
1F
100
AcDbEntity
  8
SPOJOVACÍ
  6
Continuous
100
AcDbLine
 10
35.64461591752513
 20
211.5246691184555
 30
0.0
 11
36.1152848701098
 21
210.1256847188896
 31
0.0
  0
LINE
  5
4041
330
1F
100
AcDbEntity
  8
SPOJOVACÍ
  6
Continuous
100
AcDbLine
 10
35.04837323237768
 20
211.5246691184555
 30
0.0
 11
35.51904218496236
 21
210.1256847188896
 31
0.0
  0
LINE
  5
4042
330
1F
100
AcDbEntity
  8
SPOJOVACÍ
  6
Continuous
100
AcDbLine
 10
35.42602460550586
 20
211.9023204894009
 30
0.0
 11
35.73670332127983
 21
209.7480333479442
 31
0.0
  0
LINE
  5
4043
330
1F
100
AcDbEntity
  8
SPOJOVACÍ
  6
Continuous
100
AcDbLine
 10
20.07998432666533
 20
213.2854919003992
 30
0.0
 11
21.27991110312757
 21
208.4857847945503
 31
0.0
  0
LINE
  5
4044
330
1F
100
AcDbEntity
  8
SPOJOVACÍ
  6
Continuous
100
AcDbLine
 10
20.07998432666533
 20
213.2854919003992
 30
0.0
 11
20.29857563869188
 21
212.9078405250883
 31
0.0
  0
LINE
  5
4045
330
1F
100
AcDbEntity
  8
SPOJOVACÍ
  6
Continuous
100
AcDbLine
 10
20.07998432666533
 20
213.2854919003992
 30
0.0
 11
19.70233295353716
 21
212.9078405250883
 31
0.0
  0
LINE
  5
4046
330
1F
100
AcDbEntity
  8
SPOJOVACÍ
  6
Continuous
100
AcDbLine
 10
21.27991110312757
 20
208.4857847945503
 30
0.0
 11
21.65849265195754
 21
208.8634361654957
 31
0.0
  0
LINE
  5
4047
330
1F
100
AcDbEntity
  8
SPOJOVACÍ
  6
Continuous
100
AcDbLine
 10
21.27991110312757
 20
208.4857847945503
 30
0.0
 11
21.0622499668101
 21
208.8634361654957
 31
0.0
  0
LINE
  5
4048
330
1F
100
AcDbEntity
  8
SPOJOVACÍ
  6
Continuous
100
AcDbLine
 10
20.29857563869188
 20
212.9078405250883
 30
0.0
 11
21.65849265195754
 21
208.8634361654957
 31
0.0
  0
LINE
  5
4049
330
1F
100
AcDbEntity
  8
SPOJOVACÍ
  6
Continuous
100
AcDbLine
 10
19.70233295353716
 20
212.9078405250883
 30
0.0
 11
21.0622499668101
 21
208.8634361654957
 31
0.0
  0
LINE
  5
404A
330
1F
100
AcDbEntity
  8
SPOJOVACÍ
  6
Continuous
100
AcDbLine
 10
23.19979394563449
 20
213.2854919003992
 30
0.0
 11
24.39972072209673
 21
208.4857847945503
 31
0.0
  0
LINE
  5
404B
330
1F
100
AcDbEntity
  8
SPOJOVACÍ
  6
Continuous
100
AcDbLine
 10
23.19979394563449
 20
213.2854919003992
 30
0.0
 11
23.41838525765376
 21
212.9078405250883
 31
0.0
  0
LINE
  5
404C
330
1F
100
AcDbEntity
  8
SPOJOVACÍ
  6
Continuous
100
AcDbLine
 10
23.19979394563449
 20
213.2854919003992
 30
0.0
 11
22.82214257250632
 21
212.9078405250883
 31
0.0
  0
LINE
  5
404D
330
1F
100
AcDbEntity
  8
SPOJOVACÍ
  6
Continuous
100
AcDbLine
 10
24.39972072209673
 20
208.4857847945503
 30
0.0
 11
24.7783022709267
 21
208.8634361654957
 31
0.0
  0
LINE
  5
404E
330
1F
100
AcDbEntity
  8
SPOJOVACÍ
  6
Continuous
100
AcDbLine
 10
24.39972072209673
 20
208.4857847945503
 30
0.0
 11
24.18205958604846
 21
208.8634361654957
 31
0.0
  0
LINE
  5
404F
330
1F
100
AcDbEntity
  8
SPOJOVACÍ
  6
Continuous
100
AcDbLine
 10
23.41838525765376
 20
212.9078405250883
 30
0.0
 11
24.7783022709267
 21
208.8634361654957
 31
0.0
  0
LINE
  5
4050
330
1F
100
AcDbEntity
  8
SPOJOVACÍ
  6
Continuous
100
AcDbLine
 10
22.82214257250632
 20
212.9078405250883
 30
0.0
 11
24.18205958604846
 21
208.8634361654957
 31
0.0
  0
LINE
  5
4051
330
1F
100
AcDbEntity
  8
SPOJOVACÍ
  6
Continuous
100
AcDbLine
 10
26.32053374057466
 20
213.2854919003992
 30
0.0
 11
27.52046051703689
 21
208.4857847945503
 31
0.0
  0
LINE
  5
4052
330
1F
100
AcDbEntity
  8
SPOJOVACÍ
  6
Continuous
100
AcDbLine
 10
26.32053374057466
 20
213.2854919003992
 30
0.0
 11
26.53819487662292
 21
212.9078405250883
 31
0.0
  0
LINE
  5
4053
330
1F
100
AcDbEntity
  8
SPOJOVACÍ
  6
Continuous
100
AcDbLine
 10
26.32053374057466
 20
213.2854919003992
 30
0.0
 11
25.9419521914682
 21
212.9078405250883
 31
0.0
  0
LINE
  5
4054
330
1F
100
AcDbEntity
  8
SPOJOVACÍ
  6
Continuous
100
AcDbLine
 10
27.52046051703689
 20
208.4857847945503
 30
0.0
 11
27.89811189016507
 21
208.8634361654957
 31
0.0
  0
LINE
  5
4055
330
1F
100
AcDbEntity
  8
SPOJOVACÍ
  6
Continuous
100
AcDbLine
 10
27.52046051703689
 20
208.4857847945503
 30
0.0
 11
27.30186920501035
 21
208.8634361654957
 31
0.0
  0
LINE
  5
4056
330
1F
100
AcDbEntity
  8
SPOJOVACÍ
  6
Continuous
100
AcDbLine
 10
26.53819487662292
 20
212.9078405250883
 30
0.0
 11
27.89811189016507
 21
208.8634361654957
 31
0.0
  0
LINE
  5
4057
330
1F
100
AcDbEntity
  8
SPOJOVACÍ
  6
Continuous
100
AcDbLine
 10
25.9419521914682
 20
212.9078405250883
 30
0.0
 11
27.30186920501035
 21
208.8634361654957
 31
0.0
  0
LINE
  5
4058
330
1F
100
AcDbEntity
  8
SPOJOVACÍ
  6
CIKCAK
 48
0.25
100
AcDbLine
 10
37.48693400722947
 20
245.3862400264523
 30
0.0
 11
37.48693400722947
 21
292.8506258417845
 31
0.0
  0
LINE
  5
4059
330
1F
100
AcDbEntity
  8
SPOJOVACÍ
 48
0.25
100
AcDbLine
 10
37.48693400722947
 20
292.8506258417845
 30
0.0
 11
41.0124004307039
 21
298.5000661825041
 31
0.0
  0
LINE
  5
405A
330
1F
100
AcDbEntity
  8
SPOJOVACÍ
 48
0.25
100
AcDbLine
 10
44.53786685417833
 20
292.8506258417882
 30
0.0
 11
41.0124004307039
 21
298.5000661825041
 31
0.0
  0
LINE
  5
405B
330
1F
100
AcDbEntity
  8
SPOJOVACÍ
  6
CIKCAK
 48
0.25
100
AcDbLine
 10
44.53786685417833
 20
245.3862400264523
 30
0.0
 11
44.53786685417833
 21
292.8506258417882
 31
0.0
  0
LINE
  5
405C
330
1F
100
AcDbEntity
  8
SPOJOVACÍ
100
AcDbLine
 10
47.7624004307039
 20
241.015734748781
 30
0.0
 11
34.2624004307039
 21
241.015734748781
 31
0.0
  0
LINE
  5
405D
330
1F
100
AcDbEntity
  8
SPOJOVACÍ
  6
Continuous
100
AcDbLine
 10
43.85847675362344
 20
259.1866071761732
 30
0.0
 11
38.16632410778436
 21
260.6096453376311
 31
0.0
  0
LINE
  5
405E
330
1F
100
AcDbEntity
  8
SPOJOVACÍ
  6
Continuous
100
AcDbLine
 10
43.85847675362344
 20
259.1866071761732
 30
0.0
 11
43.41060582571697
 21
259.4447396797085
 31
0.0
  0
LINE
  5
405F
330
1F
100
AcDbEntity
  8
SPOJOVACÍ
  6
Continuous
100
AcDbLine
 10
43.85847675362344
 20
259.1866071761732
 30
0.0
 11
43.41060582571697
 21
258.7376331202839
 31
0.0
  0
LINE
  5
4060
330
1F
100
AcDbEntity
  8
SPOJOVACÍ
  6
Continuous
100
AcDbLine
 10
38.16632410778436
 20
260.6096453376311
 30
0.0
 11
38.61419503051399
 21
261.057516262951
 31
0.0
  0
LINE
  5
4061
330
1F
100
AcDbEntity
  8
SPOJOVACÍ
  6
Continuous
100
AcDbLine
 10
38.16632410778436
 20
260.6096453376311
 30
0.0
 11
38.61419503051399
 21
260.3504097035301
 31
0.0
  0
LINE
  5
4062
330
1F
100
AcDbEntity
  8
SPOJOVACÍ
  6
Continuous
100
AcDbLine
 10
43.41060582571697
 20
259.4447396797085
 30
0.0
 11
38.61419503051399
 21
261.057516262951
 31
0.0
  0
LINE
  5
4063
330
1F
100
AcDbEntity
  8
SPOJOVACÍ
  6
Continuous
100
AcDbLine
 10
43.41060582571697
 20
258.7376331202839
 30
0.0
 11
38.61419503051399
 21
260.3504097035301
 31
0.0
  0
LINE
  5
4064
330
1F
100
AcDbEntity
  8
SPOJOVACÍ
  6
Continuous
100
AcDbLine
 10
43.85847675362344
 20
255.790617261923
 30
0.0
 11
38.16632410778436
 21
257.213655423381
 31
0.0
  0
LINE
  5
4065
330
1F
100
AcDbEntity
  8
SPOJOVACÍ
  6
Continuous
100
AcDbLine
 10
43.85847675362344
 20
255.790617261923
 30
0.0
 11
43.41060582571697
 21
256.0487497654583
 31
0.0
  0
LINE
  5
4066
330
1F
100
AcDbEntity
  8
SPOJOVACÍ
  6
Continuous
100
AcDbLine
 10
43.85847675362344
 20
255.790617261923
 30
0.0
 11
43.41060582571697
 21
255.3416432060338
 31
0.0
  0
LINE
  5
4067
330
1F
100
AcDbEntity
  8
SPOJOVACÍ
  6
Continuous
100
AcDbLine
 10
38.16632410778436
 20
257.213655423381
 30
0.0
 11
38.61419503051399
 21
257.6615263487009
 31
0.0
  0
LINE
  5
4068
330
1F
100
AcDbEntity
  8
SPOJOVACÍ
  6
Continuous
100
AcDbLine
 10
38.16632410778436
 20
257.213655423381
 30
0.0
 11
38.61419503051399
 21
256.9544197892799
 31
0.0
  0
LINE
  5
4069
330
1F
100
AcDbEntity
  8
SPOJOVACÍ
  6
Continuous
100
AcDbLine
 10
43.41060582571697
 20
256.0487497654583
 30
0.0
 11
38.61419503051399
 21
257.6615263487009
 31
0.0
  0
LINE
  5
406A
330
1F
100
AcDbEntity
  8
SPOJOVACÍ
  6
Continuous
100
AcDbLine
 10
43.41060582571697
 20
255.3416432060338
 30
0.0
 11
38.61419503051399
 21
256.9544197892799
 31
0.0
  0
LINE
  5
406B
330
1F
100
AcDbEntity
  8
SPOJOVACÍ
  6
Continuous
100
AcDbLine
 10
43.41060582571697
 20
262.133623034534
 30
0.0
 11
38.61419503051399
 21
263.7463996177801
 31
0.0
  0
LINE
  5
406C
330
1F
100
AcDbEntity
  8
SPOJOVACÍ
  6
Continuous
100
AcDbLine
 10
43.41060582571697
 20
262.8407295939585
 30
0.0
 11
38.61419503051399
 21
264.4535061772011
 31
0.0
  0
LINE
  5
406D
330
1F
100
AcDbEntity
  8
SPOJOVACÍ
  6
Continuous
100
AcDbLine
 10
38.16632410778436
 20
264.0056352518812
 30
0.0
 11
38.61419503051399
 21
263.7463996177801
 31
0.0
  0
LINE
  5
406E
330
1F
100
AcDbEntity
  8
SPOJOVACÍ
  6
Continuous
100
AcDbLine
 10
38.16632410778436
 20
264.0056352518812
 30
0.0
 11
38.61419503051399
 21
264.4535061772011
 31
0.0
  0
LINE
  5
406F
330
1F
100
AcDbEntity
  8
SPOJOVACÍ
  6
Continuous
100
AcDbLine
 10
43.85847675362344
 20
262.5825970904232
 30
0.0
 11
43.41060582571697
 21
262.133623034534
 31
0.0
  0
LINE
  5
4070
330
1F
100
AcDbEntity
  8
SPOJOVACÍ
  6
Continuous
100
AcDbLine
 10
43.85847675362344
 20
262.5825970904232
 30
0.0
 11
43.41060582571697
 21
262.8407295939585
 31
0.0
  0
LINE
  5
4071
330
1F
100
AcDbEntity
  8
SPOJOVACÍ
  6
Continuous
100
AcDbLine
 10
43.85847675362344
 20
262.5825970904232
 30
0.0
 11
38.16632410778436
 21
264.0056352518812
 31
0.0
  0
LINE
  5
4072
330
1F
100
AcDbEntity
  8
SPOJOVACÍ
  6
Continuous
100
AcDbLine
 10
43.41060582571697
 20
265.5296129487841
 30
0.0
 11
38.61419503051399
 21
267.1423895320302
 31
0.0
  0
LINE
  5
4073
330
1F
100
AcDbEntity
  8
SPOJOVACÍ
  6
Continuous
100
AcDbLine
 10
43.41060582571697
 20
266.2367195082087
 30
0.0
 11
38.61419503051399
 21
267.8494960914512
 31
0.0
  0
LINE
  5
4074
330
1F
100
AcDbEntity
  8
SPOJOVACÍ
  6
Continuous
100
AcDbLine
 10
38.16632410778436
 20
267.4016251661313
 30
0.0
 11
38.61419503051399
 21
267.1423895320302
 31
0.0
  0
LINE
  5
4075
330
1F
100
AcDbEntity
  8
SPOJOVACÍ
  6
Continuous
100
AcDbLine
 10
38.16632410778436
 20
267.4016251661313
 30
0.0
 11
38.61419503051399
 21
267.8494960914512
 31
0.0
  0
LINE
  5
4076
330
1F
100
AcDbEntity
  8
SPOJOVACÍ
  6
Continuous
100
AcDbLine
 10
43.85847675362344
 20
265.9785870046734
 30
0.0
 11
43.41060582571697
 21
265.5296129487841
 31
0.0
  0
LINE
  5
4077
330
1F
100
AcDbEntity
  8
SPOJOVACÍ
  6
Continuous
100
AcDbLine
 10
43.85847675362344
 20
265.9785870046734
 30
0.0
 11
43.41060582571697
 21
266.2367195082087
 31
0.0
  0
LINE
  5
4078
330
1F
100
AcDbEntity
  8
SPOJOVACÍ
  6
Continuous
100
AcDbLine
 10
43.85847675362344
 20
265.9785870046734
 30
0.0
 11
38.16632410778436
 21
267.4016251661313
 31
0.0
  0
LINE
  5
4079
330
1F
100
AcDbEntity
  8
SPOJOVACÍ
  6
Continuous
100
AcDbLine
 10
43.41060582571697
 20
268.9256028630342
 30
0.0
 11
38.61419503051399
 21
270.5383794462803
 31
0.0
  0
LINE
  5
407A
330
1F
100
AcDbEntity
  8
SPOJOVACÍ
  6
Continuous
100
AcDbLine
 10
43.41060582571697
 20
269.6327094224587
 30
0.0
 11
38.61419503051399
 21
271.2454860057013
 31
0.0
  0
LINE
  5
407B
330
1F
100
AcDbEntity
  8
SPOJOVACÍ
  6
Continuous
100
AcDbLine
 10
38.16632410778436
 20
270.7976150803814
 30
0.0
 11
38.61419503051399
 21
270.5383794462803
 31
0.0
  0
LINE
  5
407C
330
1F
100
AcDbEntity
  8
SPOJOVACÍ
  6
Continuous
100
AcDbLine
 10
38.16632410778436
 20
270.7976150803814
 30
0.0
 11
38.61419503051399
 21
271.2454860057013
 31
0.0
  0
LINE
  5
407D
330
1F
100
AcDbEntity
  8
SPOJOVACÍ
  6
Continuous
100
AcDbLine
 10
43.85847675362344
 20
269.3745769189234
 30
0.0
 11
43.41060582571697
 21
268.9256028630342
 31
0.0
  0
LINE
  5
407E
330
1F
100
AcDbEntity
  8
SPOJOVACÍ
  6
Continuous
100
AcDbLine
 10
43.85847675362344
 20
269.3745769189234
 30
0.0
 11
43.41060582571697
 21
269.6327094224587
 31
0.0
  0
LINE
  5
407F
330
1F
100
AcDbEntity
  8
SPOJOVACÍ
  6
Continuous
100
AcDbLine
 10
43.85847675362344
 20
269.3745769189234
 30
0.0
 11
38.16632410778436
 21
270.7976150803814
 31
0.0
  0
LINE
  5
4080
330
1F
100
AcDbEntity
  8
SPOJOVACÍ
  6
Continuous
100
AcDbLine
 10
43.41060582571697
 20
272.3215927772843
 30
0.0
 11
38.61419503051399
 21
273.9343693605304
 31
0.0
  0
LINE
  5
4081
330
1F
100
AcDbEntity
  8
SPOJOVACÍ
  6
Continuous
100
AcDbLine
 10
43.41060582571697
 20
273.0286993367089
 30
0.0
 11
38.61419503051399
 21
274.6414759199514
 31
0.0
  0
LINE
  5
4082
330
1F
100
AcDbEntity
  8
SPOJOVACÍ
  6
Continuous
100
AcDbLine
 10
38.16632410778436
 20
274.1936049946315
 30
0.0
 11
38.61419503051399
 21
273.9343693605304
 31
0.0
  0
LINE
  5
4083
330
1F
100
AcDbEntity
  8
SPOJOVACÍ
  6
Continuous
100
AcDbLine
 10
38.16632410778436
 20
274.1936049946315
 30
0.0
 11
38.61419503051399
 21
274.6414759199514
 31
0.0
  0
LINE
  5
4084
330
1F
100
AcDbEntity
  8
SPOJOVACÍ
  6
Continuous
100
AcDbLine
 10
43.85847675362344
 20
272.7705668331735
 30
0.0
 11
43.41060582571697
 21
272.3215927772843
 31
0.0
  0
LINE
  5
4085
330
1F
100
AcDbEntity
  8
SPOJOVACÍ
  6
Continuous
100
AcDbLine
 10
43.85847675362344
 20
272.7705668331735
 30
0.0
 11
43.41060582571697
 21
273.0286993367089
 31
0.0
  0
LINE
  5
4086
330
1F
100
AcDbEntity
  8
SPOJOVACÍ
  6
Continuous
100
AcDbLine
 10
43.85847675362344
 20
272.7705668331735
 30
0.0
 11
38.16632410778436
 21
274.1936049946315
 31
0.0
  0
LINE
  5
4087
330
1F
100
AcDbEntity
  8
SPOJOVACÍ
  6
Continuous
100
AcDbLine
 10
43.41060582571697
 20
275.7175826915343
 30
0.0
 11
38.61419503051399
 21
277.3303592747805
 31
0.0
  0
LINE
  5
4088
330
1F
100
AcDbEntity
  8
SPOJOVACÍ
  6
Continuous
100
AcDbLine
 10
43.41060582571697
 20
276.4246892509589
 30
0.0
 11
38.61419503051399
 21
278.0374658342015
 31
0.0
  0
LINE
  5
4089
330
1F
100
AcDbEntity
  8
SPOJOVACÍ
  6
Continuous
100
AcDbLine
 10
38.16632410778436
 20
277.5895949088816
 30
0.0
 11
38.61419503051399
 21
277.3303592747805
 31
0.0
  0
LINE
  5
408A
330
1F
100
AcDbEntity
  8
SPOJOVACÍ
  6
Continuous
100
AcDbLine
 10
38.16632410778436
 20
277.5895949088816
 30
0.0
 11
38.61419503051399
 21
278.0374658342015
 31
0.0
  0
LINE
  5
408B
330
1F
100
AcDbEntity
  8
SPOJOVACÍ
  6
Continuous
100
AcDbLine
 10
43.85847675362344
 20
276.1665567474236
 30
0.0
 11
43.41060582571697
 21
275.7175826915343
 31
0.0
  0
LINE
  5
408C
330
1F
100
AcDbEntity
  8
SPOJOVACÍ
  6
Continuous
100
AcDbLine
 10
43.85847675362344
 20
276.1665567474236
 30
0.0
 11
43.41060582571697
 21
276.4246892509589
 31
0.0
  0
LINE
  5
408D
330
1F
100
AcDbEntity
  8
SPOJOVACÍ
  6
Continuous
100
AcDbLine
 10
43.85847675362344
 20
276.1665567474236
 30
0.0
 11
38.16632410778436
 21
277.5895949088816
 31
0.0
  0
LINE
  5
408E
330
1F
100
AcDbEntity
  8
SPOJOVACÍ
  6
Continuous
100
AcDbLine
 10
43.41060582571697
 20
279.1135726057845
 30
0.0
 11
38.61419503051399
 21
280.7263491890306
 31
0.0
  0
LINE
  5
408F
330
1F
100
AcDbEntity
  8
SPOJOVACÍ
  6
Continuous
100
AcDbLine
 10
43.41060582571697
 20
279.820679165209
 30
0.0
 11
38.61419503051399
 21
281.4334557484515
 31
0.0
  0
LINE
  5
4090
330
1F
100
AcDbEntity
  8
SPOJOVACÍ
  6
Continuous
100
AcDbLine
 10
38.16632410778436
 20
280.9855848231317
 30
0.0
 11
38.61419503051399
 21
280.7263491890306
 31
0.0
  0
LINE
  5
4091
330
1F
100
AcDbEntity
  8
SPOJOVACÍ
  6
Continuous
100
AcDbLine
 10
38.16632410778436
 20
280.9855848231317
 30
0.0
 11
38.61419503051399
 21
281.4334557484515
 31
0.0
  0
LINE
  5
4092
330
1F
100
AcDbEntity
  8
SPOJOVACÍ
  6
Continuous
100
AcDbLine
 10
43.85847675362344
 20
279.5625466616737
 30
0.0
 11
43.41060582571697
 21
279.1135726057845
 31
0.0
  0
LINE
  5
4093
330
1F
100
AcDbEntity
  8
SPOJOVACÍ
  6
Continuous
100
AcDbLine
 10
43.85847675362344
 20
279.5625466616737
 30
0.0
 11
43.41060582571697
 21
279.820679165209
 31
0.0
  0
LINE
  5
4094
330
1F
100
AcDbEntity
  8
SPOJOVACÍ
  6
Continuous
100
AcDbLine
 10
43.85847675362344
 20
279.5625466616737
 30
0.0
 11
38.16632410778436
 21
280.9855848231317
 31
0.0
  0
LINE
  5
4095
330
1F
100
AcDbEntity
  8
SPOJOVACÍ
  6
Continuous
100
AcDbLine
 10
43.85847675362344
 20
282.9585365759238
 30
0.0
 11
38.16632410778436
 21
284.3815747373818
 31
0.0
  0
LINE
  5
4096
330
1F
100
AcDbEntity
  8
SPOJOVACÍ
  6
Continuous
100
AcDbLine
 10
43.85847675362344
 20
282.9585365759238
 30
0.0
 11
43.41060582571697
 21
283.2166690794591
 31
0.0
  0
LINE
  5
4097
330
1F
100
AcDbEntity
  8
SPOJOVACÍ
  6
Continuous
100
AcDbLine
 10
43.85847675362344
 20
282.9585365759238
 30
0.0
 11
43.41060582571697
 21
282.5095625200345
 31
0.0
  0
LINE
  5
4098
330
1F
100
AcDbEntity
  8
SPOJOVACÍ
  6
Continuous
100
AcDbLine
 10
38.16632410778436
 20
284.3815747373818
 30
0.0
 11
38.61419503051399
 21
284.8294456627016
 31
0.0
  0
LINE
  5
4099
330
1F
100
AcDbEntity
  8
SPOJOVACÍ
  6
Continuous
100
AcDbLine
 10
38.16632410778436
 20
284.3815747373818
 30
0.0
 11
38.61419503051399
 21
284.1223391032807
 31
0.0
  0
LINE
  5
409A
330
1F
100
AcDbEntity
  8
SPOJOVACÍ
  6
Continuous
100
AcDbLine
 10
43.41060582571697
 20
283.2166690794591
 30
0.0
 11
38.61419503051399
 21
284.8294456627016
 31
0.0
  0
LINE
  5
409B
330
1F
100
AcDbEntity
  8
SPOJOVACÍ
  6
Continuous
100
AcDbLine
 10
43.41060582571697
 20
282.5095625200345
 30
0.0
 11
38.61419503051399
 21
284.1223391032807
 31
0.0
  0
LINE
  5
409C
330
1F
100
AcDbEntity
  8
SPOJOVACÍ
  6
DASHED
100
AcDbLine
 10
41.0124004307039
 20
297.691814547289
 30
0.0
 11
39.3014629307039
 21
284.9865544235953
 31
0.0
  0
LINE
  5
409D
330
1F
100
AcDbEntity
  8
SPOJOVACÍ
  6
DASHED
100
AcDbLine
 10
41.0124004307039
 20
297.691814547289
 30
0.0
 11
42.7233379307039
 21
284.9865544235953
 31
0.0
  0
LINE
  5
409E
330
1F
100
AcDbEntity
  8
SPOJOVACÍ
  6
DASHED
100
AcDbLine
 10
39.3014629307039
 20
284.9865544235953
 30
0.0
 11
39.3014629307039
 21
244.1983690513596
 31
0.0
  0
LINE
  5
409F
330
1F
100
AcDbEntity
  8
SPOJOVACÍ
  6
DASHED
100
AcDbLine
 10
42.7233379307039
 20
284.9865544235953
 30
0.0
 11
42.7233379307039
 21
244.198369051356
 31
0.0
  0
LINE
  5
40A0
330
1F
100
AcDbEntity
  8
SPOJOVACÍ
  6
Continuous
100
AcDbLine
 10
43.41060582571697
 20
285.9055524342847
 30
0.0
 11
38.61419503051399
 21
287.5183290175308
 31
0.0
  0
LINE
  5
40A1
330
1F
100
AcDbEntity
  8
SPOJOVACÍ
  6
Continuous
100
AcDbLine
 10
43.41060582571697
 20
286.6126589937092
 30
0.0
 11
38.61419503051399
 21
288.2254355769518
 31
0.0
  0
LINE
  5
40A2
330
1F
100
AcDbEntity
  8
SPOJOVACÍ
  6
Continuous
100
AcDbLine
 10
38.16632410778436
 20
287.7775646516318
 30
0.0
 11
38.61419503051399
 21
287.5183290175308
 31
0.0
  0
LINE
  5
40A3
330
1F
100
AcDbEntity
  8
SPOJOVACÍ
  6
Continuous
100
AcDbLine
 10
38.16632410778436
 20
287.7775646516318
 30
0.0
 11
38.61419503051399
 21
288.2254355769518
 31
0.0
  0
LINE
  5
40A4
330
1F
100
AcDbEntity
  8
SPOJOVACÍ
  6
Continuous
100
AcDbLine
 10
43.85847675362344
 20
286.3545264901739
 30
0.0
 11
43.41060582571697
 21
285.9055524342847
 31
0.0
  0
LINE
  5
40A5
330
1F
100
AcDbEntity
  8
SPOJOVACÍ
  6
Continuous
100
AcDbLine
 10
43.85847675362344
 20
286.3545264901739
 30
0.0
 11
43.41060582571697
 21
286.6126589937092
 31
0.0
  0
LINE
  5
40A6
330
1F
100
AcDbEntity
  8
SPOJOVACÍ
  6
Continuous
100
AcDbLine
 10
43.85847675362344
 20
286.3545264901739
 30
0.0
 11
38.16632410778436
 21
287.7775646516318
 31
0.0
  0
LINE
  5
40A7
330
1F
100
AcDbEntity
  8
SPOJOVACÍ
  6
Continuous
100
AcDbLine
 10
42.06085388956523
 20
295.8373707812505
 30
0.0
 11
39.8392452749398
 21
296.1577582068938
 31
0.0
  0
LINE
  5
40A8
330
1F
100
AcDbEntity
  8
SPOJOVACÍ
  6
Continuous
100
AcDbLine
 10
41.6714009132778
 20
295.4479178027148
 30
0.0
 11
40.22869825122358
 21
295.9332951600634
 31
0.0
  0
LINE
  5
40A9
330
1F
100
AcDbEntity
  8
SPOJOVACÍ
  6
Continuous
100
AcDbLine
 10
41.6714009132778
 20
296.0627930717718
 30
0.0
 11
40.22869825122358
 21
296.5481704291277
 31
0.0
  0
LINE
  5
40AA
330
1F
100
AcDbEntity
  8
SPOJOVACÍ
  6
Continuous
100
AcDbLine
 10
39.8392452749398
 20
296.1577582068938
 30
0.0
 11
40.22869825122358
 21
295.9332951600634
 31
0.0
  0
LINE
  5
40AB
330
1F
100
AcDbEntity
  8
SPOJOVACÍ
  6
Continuous
100
AcDbLine
 10
39.8392452749398
 20
296.1577582068938
 30
0.0
 11
40.22869825122358
 21
296.5481704291277
 31
0.0
  0
LINE
  5
40AC
330
1F
100
AcDbEntity
  8
SPOJOVACÍ
  6
Continuous
100
AcDbLine
 10
42.06085388956523
 20
295.8373707812505
 30
0.0
 11
41.6714009132778
 21
295.4479178027148
 31
0.0
  0
LINE
  5
40AD
330
1F
100
AcDbEntity
  8
SPOJOVACÍ
  6
Continuous
100
AcDbLine
 10
42.06085388956523
 20
295.8373707812505
 30
0.0
 11
41.6714009132778
 21
296.0627930717718
 31
0.0
  0
LINE
  5
40AE
330
1F
100
AcDbEntity
  8
SPOJOVACÍ
  6
Continuous
100
AcDbLine
 10
42.64311487224074
 20
292.7294209036089
 30
0.0
 11
39.42964817716745
 21
293.3826659240265
 31
0.0
  0
LINE
  5
40AF
330
1F
100
AcDbEntity
  8
SPOJOVACÍ
  6
Continuous
100
AcDbLine
 10
42.25366189144949
 20
292.3390086810949
 30
0.0
 11
39.81910115345852
 21
293.15820287748
 31
0.0
  0
LINE
  5
40B0
330
1F
100
AcDbEntity
  8
SPOJOVACÍ
  6
Continuous
100
AcDbLine
 10
42.25366189144949
 20
292.9538839501591
 30
0.0
 11
39.81910115345852
 21
293.7730781462568
 31
0.0
  0
LINE
  5
40B1
330
1F
100
AcDbEntity
  8
SPOJOVACÍ
  6
Continuous
100
AcDbLine
 10
39.42964817716745
 20
293.3826659240265
 30
0.0
 11
39.81910115345852
 21
293.15820287748
 31
0.0
  0
LINE
  5
40B2
330
1F
100
AcDbEntity
  8
SPOJOVACÍ
  6
Continuous
100
AcDbLine
 10
39.42964817716745
 20
293.3826659240265
 30
0.0
 11
39.81910115345852
 21
293.7730781462568
 31
0.0
  0
LINE
  5
40B3
330
1F
100
AcDbEntity
  8
SPOJOVACÍ
  6
Continuous
100
AcDbLine
 10
42.64311487224074
 20
292.7294209036089
 30
0.0
 11
42.25366189144949
 21
292.3390086810949
 31
0.0
  0
LINE
  5
40B4
330
1F
100
AcDbEntity
  8
SPOJOVACÍ
  6
Continuous
100
AcDbLine
 10
42.64311487224074
 20
292.7294209036089
 30
0.0
 11
42.25366189144949
 21
292.9538839501591
 31
0.0
  0
LINE
  5
40B5
330
1F
100
AcDbEntity
  8
SPOJOVACÍ
  6
Continuous
100
AcDbLine
 10
43.22537585040879
 20
289.6205117819889
 30
0.0
 11
38.97112964601944
 21
290.6238807856178
 31
0.0
  0
LINE
  5
40B6
330
1F
100
AcDbEntity
  8
SPOJOVACÍ
  6
Continuous
100
AcDbLine
 10
42.83496362874245
 20
289.2310588034496
 30
0.0
 11
39.36058262230687
 21
290.3994177390676
 31
0.0
  0
LINE
  5
40B7
330
1F
100
AcDbEntity
  8
SPOJOVACÍ
  6
Continuous
100
AcDbLine
 10
42.83496362874245
 20
289.8459340725174
 30
0.0
 11
39.36058262230687
 21
291.0142930081318
 31
0.0
  0
LINE
  5
40B8
330
1F
100
AcDbEntity
  8
SPOJOVACÍ
  6
Continuous
100
AcDbLine
 10
38.97112964601944
 20
290.6238807856178
 30
0.0
 11
39.36058262230687
 21
290.3994177390676
 31
0.0
  0
LINE
  5
40B9
330
1F
100
AcDbEntity
  8
SPOJOVACÍ
  6
Continuous
100
AcDbLine
 10
38.97112964601944
 20
290.6238807856178
 30
0.0
 11
39.36058262230687
 21
291.0142930081318
 31
0.0
  0
LINE
  5
40BA
330
1F
100
AcDbEntity
  8
SPOJOVACÍ
  6
Continuous
100
AcDbLine
 10
43.22537585040879
 20
289.6205117819889
 30
0.0
 11
42.83496362874245
 21
289.2310588034496
 31
0.0
  0
LINE
  5
40BB
330
1F
100
AcDbEntity
  8
SPOJOVACÍ
  6
Continuous
100
AcDbLine
 10
43.22537585040879
 20
289.6205117819889
 30
0.0
 11
42.83496362874245
 21
289.8459340725174
 31
0.0
  0
LINE
  5
40BC
330
1F
100
AcDbEntity
  8
SPOJOVACÍ
  6
DASHDOT2
100
AcDbLine
 10
41.0124004307039
 20
229.6772713820436
 30
0.0
 11
41.0124004307039
 21
298.0830265910125
 31
0.0
  0
LINE
  5
40BD
330
1F
100
AcDbEntity
  8
SPOJOVACÍ
100
AcDbLine
 10
47.7624004307039
 20
239.5741463823113
 30
0.0
 11
34.2624004307039
 21
239.5741463823113
 31
0.0
  0
LINE
  5
40BE
330
1F
100
AcDbEntity
  8
SPOJOVACÍ
100
AcDbLine
 10
34.2624004307039
 20
239.5741463823113
 30
0.0
 11
34.2624004307039
 21
241.015734748781
 31
0.0
  0
LINE
  5
40BF
330
1F
100
AcDbEntity
  8
SPOJOVACÍ
100
AcDbLine
 10
47.7624004307039
 20
239.5741463823113
 30
0.0
 11
47.7624004307039
 21
241.015734748781
 31
0.0
  0
LINE
  5
40C0
330
1F
100
AcDbEntity
  8
SPOJOVACÍ
100
AcDbLine
 10
34.2624004307039
 20
241.015734748781
 30
0.0
 11
34.2624004307039
 21
240.1388241266475
 31
0.0
  0
LINE
  5
40C1
330
1F
100
AcDbEntity
  8
SPOJOVACÍ
100
AcDbLine
 10
34.2624004307039
 20
241.015734748781
 30
0.0
 11
39.3014629307039
 21
244.1983690513596
 31
0.0
  0
LINE
  5
40C2
330
1F
100
AcDbEntity
  8
SPOJOVACÍ
  6
DASHED
100
AcDbLine
 10
47.7624004307039
 20
241.015734748781
 30
0.0
 11
42.7233379307039
 21
244.198369051356
 31
0.0
  0
LINE
  5
40C3
330
1F
100
AcDbEntity
  8
SPOJOVACÍ
100
AcDbLine
 10
47.7624004307039
 20
241.015734748781
 30
0.0
 11
47.7624004307039
 21
240.1388241266475
 31
0.0
  0
LINE
  5
40C4
330
1F
100
AcDbEntity
  8
SPOJOVACÍ
100
AcDbLine
 10
47.7624004307039
 20
240.1388241266475
 30
0.0
 11
47.7624004307039
 21
241.015734748781
 31
0.0
  0
LINE
  5
40C5
330
1F
100
AcDbEntity
  8
CETRIS
100
AcDbLine
 10
66.27234820826231
 20
228.8390701934739
 30
0.0
 11
78.27234820826231
 21
228.8390701934703
 31
0.0
  0
LINE
  5
40C6
330
1F
100
AcDbEntity
  8
CETRIS
100
AcDbLine
 10
3.04009392351179
 20
228.8390701934739
 30
0.0
 11
15.04009392351179
 21
228.8390701934739
 31
0.0
  0
HATCH
  5
40C7
330
1F
100
AcDbEntity
  8
izolace
100
AcDbHatch
 10
0.0
 20
0.0
 30
0.0
210
0.0
220
0.0
230
1.0
  2
SOLID
 70
     1
 71
     0
 91
        3
 92
        7
 72
     0
 73
     1
 93
        4
 10
65.50711264656673
 20
243.3862400264523
 10
65.50711264656673
 20
245.3862400264487
 10
58.80638770903932
 20
245.3862400264523
 10
58.80638770903932
 20
243.3862400264523
 97
        0
 92
        7
 72
     0
 73
     1
 93
        4
 10
46.30531070206086
 20
243.3862400264523
 10
46.30531070206086
 20
245.3862400264523
 10
33.80423369508605
 20
245.3862400264523
 10
33.80423369508605
 20
243.3862400264523
 97
        0
 92
        7
 72
     0
 73
     1
 93
        4
 10
21.30315668811124
 20
243.3862400264487
 10
21.30315668811124
 20
245.386240026456
 10
15.50280461866384
 20
245.3862400264523
 10
15.50280461866384
 20
243.3862400264487
 97
        0
 75
     0
 76
     1
 47
0.0846398039763049
 98
        3
 10
60.63743665347681
 20
244.0925420714928
 10
43.96338324791975
 20
243.9231563558431
 10
20.77198658441591
 20
244.1771762370925
  0
LWPOLYLINE
  5
40C8
330
1F
100
AcDbEntity
  8
izolace
100
AcDbPolyline
 90
        4
 70
     1
 43
0.0
 10
46.30531070206086
 20
245.3862400264523
 10
46.30531070206086
 20
243.3862400264487
 10
58.80638770903932
 20
243.3862400264487
 10
58.80638770903932
 20
245.3862400264523
  0
LWPOLYLINE
  5
40C9
330
1F
100
AcDbEntity
  8
izolace
100
AcDbPolyline
 90
        4
 70
     1
 43
0.0
 10
21.30315668811124
 20
245.3862400264523
 10
21.30315668811124
 20
243.3862400264487
 10
33.80423369508605
 20
243.3862400264487
 10
33.80423369508605
 20
245.3862400264523
  0
LINE
  5
40CA
330
1F
100
AcDbEntity
  8
izolace
100
AcDbLine
 10
65.50711264656673
 20
245.386240026445
 30
0.0
 11
15.50280461866384
 21
245.3862400264523
 31
0.0
  0
LINE
  5
40CB
330
1F
100
AcDbEntity
  8
izolace
100
AcDbLine
 10
65.50711264656673
 20
243.3862400264487
 30
0.0
 11
15.50280461866384
 21
243.3862400264487
 31
0.0
  0
LINE
  5
40CC
330
1F
100
AcDbEntity
  8
CETRIS
100
AcDbLine
 10
66.27234820826231
 20
228.8390701934703
 30
0.0
 11
66.27234820826231
 21
-97.93648704942837
 31
0.0
  0
LINE
  5
40CD
330
1F
100
AcDbEntity
  8
CETRIS
100
AcDbLine
 10
78.27234820826231
 20
228.8390701934703
 30
0.0
 11
78.27234820825868
 21
-100.1466483277282
 31
0.0
  0
LINE
  5
40CE
330
1F
100
AcDbEntity
  8
CETRIS
100
AcDbLine
 10
3.04009392351179
 20
228.8390701934739
 30
0.0
 11
3.040093923515428
 21
-86.29036371945051
 31
0.0
  0
LINE
  5
40CF
330
1F
100
AcDbEntity
  8
CETRIS
100
AcDbLine
 10
15.04009392351179
 20
228.8390701934739
 30
0.0
 11
15.04009392351179
 21
-88.5005249977495
 31
0.0
  0
LINE
  5
40D0
330
1F
100
AcDbEntity
  8
NOSNÉ KONSTRUKCE
100
AcDbLine
 10
20.82813041234146
 20
191.6677517868491
 30
0.0
 11
20.82813041234146
 21
193.1677517868491
 31
0.0
  0
LINE
  5
40D1
330
1F
100
AcDbEntity
  8
NOSNÉ KONSTRUKCE
100
AcDbLine
 10
20.82813041234146
 20
193.1677517868491
 30
0.0
 11
18.00280461866384
 21
193.1677517868491
 31
0.0
  0
LINE
  5
40D2
330
1F
100
AcDbEntity
  8
NOSNÉ KONSTRUKCE
100
AcDbLine
 10
60.1817868528891
 20
195.3502831588528
 30
0.0
 11
60.1817868528891
 21
193.8502831588529
 31
0.0
  0
LINE
  5
40D3
330
1F
100
AcDbEntity
  8
STAVBA OBRYS
100
AcDbLine
 10
72.55459166949766
 20
234.0571151746597
 30
0.0
 11
67.2948712149813
 21
246.5571151746597
 31
0.0
  0
LINE
  5
40D4
330
1F
100
AcDbEntity
  8
SPOJOVACÍ
  6
Continuous
100
AcDbLine
 10
43.85847675103685
 20
252.3946273485424
 30
0.0
 11
38.16632410519412
 21
253.8176655100004
 31
0.0
  0
LINE
  5
40D5
330
1F
100
AcDbEntity
  8
SPOJOVACÍ
  6
Continuous
100
AcDbLine
 10
43.85847675103685
 20
252.3946273485424
 30
0.0
 11
43.41060582313036
 21
252.6527598520778
 31
0.0
  0
LINE
  5
40D6
330
1F
100
AcDbEntity
  8
SPOJOVACÍ
  6
Continuous
100
AcDbLine
 10
43.85847675103685
 20
252.3946273485424
 30
0.0
 11
43.41060582313036
 21
251.9456532926532
 31
0.0
  0
LINE
  5
40D7
330
1F
100
AcDbEntity
  8
SPOJOVACÍ
  6
Continuous
100
AcDbLine
 10
38.16632410519412
 20
253.8176655100004
 30
0.0
 11
38.61419502792375
 21
254.2655364353203
 31
0.0
  0
LINE
  5
40D8
330
1F
100
AcDbEntity
  8
SPOJOVACÍ
  6
Continuous
100
AcDbLine
 10
38.16632410519412
 20
253.8176655100004
 30
0.0
 11
38.61419502792375
 21
253.5584298758994
 31
0.0
  0
LINE
  5
40D9
330
1F
100
AcDbEntity
  8
SPOJOVACÍ
  6
Continuous
100
AcDbLine
 10
43.41060582313036
 20
252.6527598520778
 30
0.0
 11
38.61419502792375
 21
254.2655364353203
 31
0.0
  0
LINE
  5
40DA
330
1F
100
AcDbEntity
  8
SPOJOVACÍ
  6
Continuous
100
AcDbLine
 10
43.41060582313036
 20
251.9456532926532
 30
0.0
 11
38.61419502792375
 21
253.5584298758994
 31
0.0
  0
LINE
  5
40DB
330
1F
100
AcDbEntity
  8
SPOJOVACÍ
  6
Continuous
100
AcDbLine
 10
43.41060582313036
 20
245.153673464153
 30
0.0
 11
38.61419502792375
 21
246.7664500473992
 31
0.0
  0
LINE
  5
40DC
330
1F
100
AcDbEntity
  8
SPOJOVACÍ
  6
Continuous
100
AcDbLine
 10
43.41060582313036
 20
245.8607800235776
 30
0.0
 11
38.61419502792375
 21
247.4735566068201
 31
0.0
  0
LINE
  5
40DD
330
1F
100
AcDbEntity
  8
SPOJOVACÍ
  6
Continuous
100
AcDbLine
 10
38.16632410519412
 20
247.0256856815002
 30
0.0
 11
38.61419502792375
 21
246.7664500473992
 31
0.0
  0
LINE
  5
40DE
330
1F
100
AcDbEntity
  8
SPOJOVACÍ
  6
Continuous
100
AcDbLine
 10
38.16632410519412
 20
247.0256856815002
 30
0.0
 11
38.61419502792375
 21
247.4735566068201
 31
0.0
  0
LINE
  5
40DF
330
1F
100
AcDbEntity
  8
SPOJOVACÍ
  6
Continuous
100
AcDbLine
 10
43.85847675103685
 20
245.6026475200423
 30
0.0
 11
43.41060582313036
 21
245.153673464153
 31
0.0
  0
LINE
  5
40E0
330
1F
100
AcDbEntity
  8
SPOJOVACÍ
  6
Continuous
100
AcDbLine
 10
43.85847675103685
 20
245.6026475200423
 30
0.0
 11
43.41060582313036
 21
245.8607800235776
 31
0.0
  0
LINE
  5
40E1
330
1F
100
AcDbEntity
  8
SPOJOVACÍ
  6
Continuous
100
AcDbLine
 10
43.85847675103685
 20
245.6026475200423
 30
0.0
 11
38.16632410519412
 21
247.0256856815002
 31
0.0
  0
LINE
  5
40E2
330
1F
100
AcDbEntity
  8
SPOJOVACÍ
  6
Continuous
100
AcDbLine
 10
43.41060582313036
 20
248.5496633784031
 30
0.0
 11
38.61419502792375
 21
250.1624399616492
 31
0.0
  0
LINE
  5
40E3
330
1F
100
AcDbEntity
  8
SPOJOVACÍ
  6
Continuous
100
AcDbLine
 10
43.41060582313036
 20
249.2567699378276
 30
0.0
 11
38.61419502792375
 21
250.8695465210702
 31
0.0
  0
LINE
  5
40E4
330
1F
100
AcDbEntity
  8
SPOJOVACÍ
  6
Continuous
100
AcDbLine
 10
38.16632410519412
 20
250.4216755957503
 30
0.0
 11
38.61419502792375
 21
250.1624399616492
 31
0.0
  0
LINE
  5
40E5
330
1F
100
AcDbEntity
  8
SPOJOVACÍ
  6
Continuous
100
AcDbLine
 10
38.16632410519412
 20
250.4216755957503
 30
0.0
 11
38.61419502792375
 21
250.8695465210702
 31
0.0
  0
LINE
  5
40E6
330
1F
100
AcDbEntity
  8
SPOJOVACÍ
  6
Continuous
100
AcDbLine
 10
43.85847675103685
 20
248.9986374342923
 30
0.0
 11
43.41060582313036
 21
248.5496633784031
 31
0.0
  0
LINE
  5
40E7
330
1F
100
AcDbEntity
  8
SPOJOVACÍ
  6
Continuous
100
AcDbLine
 10
43.85847675103685
 20
248.9986374342923
 30
0.0
 11
43.41060582313036
 21
249.2567699378276
 31
0.0
  0
LINE
  5
40E8
330
1F
100
AcDbEntity
  8
SPOJOVACÍ
  6
Continuous
100
AcDbLine
 10
43.85847675103685
 20
248.9986374342923
 30
0.0
 11
38.16632410519412
 21
250.4216755957503
 31
0.0
  0
ENDSEC
  0
SECTION
  2
OBJECTS
  0
DICTIONARY
  5
C
330
0
100
AcDbDictionary
281
     1
  3
ACAD_GROUP
350
D
  3
ACAD_LAYOUT
350
1A
  3
ACAD_MLINESTYLE
350
17
  3
ACAD_PLOTSETTINGS
350
19
  3
ACAD_PLOTSTYLENAME
350
E
  0
DICTIONARY
  5
D
102
{ACAD_REACTORS
330
C
102
}
330
C
100
AcDbDictionary
281
     1
  0
DICTIONARY
  5
1A
102
{ACAD_REACTORS
330
C
102
}
330
C
100
AcDbDictionary
281
     1
  3
Model
350
22
  3
Rozvržení1
350
1E
  3
Rozvržení2
350
26
  0
DICTIONARY
  5
17
102
{ACAD_REACTORS
330
C
102
}
330
C
100
AcDbDictionary
281
     1
  3
Standard
350
18
  0
DICTIONARY
  5
19
102
{ACAD_REACTORS
330
C
102
}
330
C
100
AcDbDictionary
281
     1
  0
ACDBDICTIONARYWDFLT
  5
E
102
{ACAD_REACTORS
330
C
102
}
330
C
100
AcDbDictionary
281
     1
  3
Normal
350
F
100
AcDbDictionaryWithDefault
340
F
  0
LAYOUT
  5
22
102
{ACAD_REACTORS
330
1A
102
}
330
1A
100
AcDbPlotSettings
  1

  2
HP DeskJet 690C
  4

  6

 40
0.0
 41
0.0
 42
0.0
 43
0.0
 44
0.0
 45
0.0
 46
0.0
 47
0.0
 48
0.0
 49
0.0
140
0.0
141
0.0
142
1.0
143
1.0
 70
  1712
 72
     0
 73
     0
 74
     0
  7
monochrome.ctb
 75
     0
147
1.0
148
0.0
149
0.0
100
AcDbLayout
  1
Model
 70
     1
 71
     0
 10
0.0
 20
0.0
 11
12.0
 21
9.0
 12
0.0
 22
0.0
 32
0.0
 14
0.0
 24
0.0
 34
0.0
 15
0.0
 25
0.0
 35
0.0
146
0.0
 13
0.0
 23
0.0
 33
0.0
 16
1.0
 26
0.0
 36
0.0
 17
0.0
 27
1.0
 37
0.0
 76
     0
330
1F
  0
LAYOUT
  5
1E
102
{ACAD_REACTORS
330
1A
102
}
330
1A
100
AcDbPlotSettings
  1

  2
HP DeskJet 690C
  4

  6

 40
0.0
 41
0.0
 42
0.0
 43
0.0
 44
0.0
 45
0.0
 46
0.0
 47
0.0
 48
0.0
 49
0.0
140
0.0
141
0.0
142
1.0
143
1.0
 70
   688
 72
     0
 73
     0
 74
     5
  7
monochrome.ctb
 75
    16
147
1.0
148
0.0
149
0.0
100
AcDbLayout
  1
Rozvržení1
 70
     1
 71
     1
 10
0.0
 20
0.0
 11
420.0
 21
297.0
 12
0.0
 22
0.0
 32
0.0
 14
1.000000000000000E+20
 24
1.000000000000000E+20
 34
1.000000000000000E+20
 15
-1.000000000000000E+20
 25
-1.000000000000000E+20
 35
-1.000000000000000E+20
146
0.0
 13
0.0
 23
0.0
 33
0.0
 16
1.0
 26
0.0
 36
0.0
 17
0.0
 27
1.0
 37
0.0
 76
     0
330
1B
  0
LAYOUT
  5
26
102
{ACAD_REACTORS
330
1A
102
}
330
1A
100
AcDbPlotSettings
  1

  2
HP DeskJet 690C
  4

  6

 40
0.0
 41
0.0
 42
0.0
 43
0.0
 44
0.0
 45
0.0
 46
0.0
 47
0.0
 48
0.0
 49
0.0
140
0.0
141
0.0
142
1.0
143
1.0
 70
   688
 72
     0
 73
     0
 74
     5
  7
monochrome.ctb
 75
    16
147
1.0
148
0.0
149
0.0
100
AcDbLayout
  1
Rozvržení2
 70
     1
 71
     2
 10
0.0
 20
0.0
 11
12.0
 21
9.0
 12
0.0
 22
0.0
 32
0.0
 14
0.0
 24
0.0
 34
0.0
 15
0.0
 25
0.0
 35
0.0
146
0.0
 13
0.0
 23
0.0
 33
0.0
 16
1.0
 26
0.0
 36
0.0
 17
0.0
 27
1.0
 37
0.0
 76
     0
330
23
  0
MLINESTYLE
  5
18
102
{ACAD_REACTORS
330
17
102
}
330
17
100
AcDbMlineStyle
  2
STANDARD
 70
     0
  3

 62
   256
 51
90.0
 52
90.0
 71
     2
 49
0.5
 62
   256
  6
BYLAYER
 49
-0.5
 62
   256
  6
BYLAYER
  0
ACDBPLACEHOLDER
  5
F
102
{ACAD_REACTORS
330
E
102
}
330
E
  0
ENDSEC
  0
EOF
