  0
SECTION
  2
HEADER
  9
$ACADVER
  1
AC1015
  9
$ACADMAINTVER
 70
    10
  9
$DWGCODEPAGE
  3
ANSI_1250
  9
$INSBASE
 10
0.0
 20
0.0
 30
0.0
  9
$EXTMIN
 10
-119.1536619760905
 20
-86.03496676458467
 30
0.0
  9
$EXTMAX
 10
1217.21676220153
 20
479.5527622798111
 30
0.0
  9
$LIMMIN
 10
0.0
 20
0.0
  9
$LIMMAX
 10
420.0
 20
297.0
  9
$ORTHOMODE
 70
     0
  9
$REGENMODE
 70
     1
  9
$FILLMODE
 70
     1
  9
$QTEXTMODE
 70
     0
  9
$MIRRTEXT
 70
     1
  9
$LTSCALE
 40
1.0
  9
$ATTMODE
 70
     1
  9
$TEXTSIZE
 40
2.5
  9
$TRACEWID
 40
1.0
  9
$TEXTSTYLE
  7
Standard
  9
$CLAYER
  8
0
  9
$CELTYPE
  6
ByLayer
  9
$CECOLOR
 62
   256
  9
$CELTSCALE
 40
1.0
  9
$DISPSILH
 70
     0
  9
$DIMSCALE
 40
1.0
  9
$DIMASZ
 40
2.5
  9
$DIMEXO
 40
0.625
  9
$DIMDLI
 40
3.75
  9
$DIMRND
 40
0.0
  9
$DIMDLE
 40
0.0
  9
$DIMEXE
 40
1.25
  9
$DIMTP
 40
0.0
  9
$DIMTM
 40
0.0
  9
$DIMTXT
 40
2.5
  9
$DIMCEN
 40
2.5
  9
$DIMTSZ
 40
0.0
  9
$DIMTOL
 70
     0
  9
$DIMLIM
 70
     0
  9
$DIMTIH
 70
     0
  9
$DIMTOH
 70
     0
  9
$DIMSE1
 70
     0
  9
$DIMSE2
 70
     0
  9
$DIMTAD
 70
     1
  9
$DIMZIN
 70
     8
  9
$DIMBLK
  1

  9
$DIMASO
 70
     1
  9
$DIMSHO
 70
     1
  9
$DIMPOST
  1

  9
$DIMAPOST
  1

  9
$DIMALT
 70
     0
  9
$DIMALTD
 70
     3
  9
$DIMALTF
 40
0.03937007874016
  9
$DIMLFAC
 40
1.0
  9
$DIMTOFL
 70
     1
  9
$DIMTVP
 40
0.0
  9
$DIMTIX
 70
     0
  9
$DIMSOXD
 70
     0
  9
$DIMSAH
 70
     0
  9
$DIMBLK1
  1

  9
$DIMBLK2
  1

  9
$DIMSTYLE
  2
ISO-25
  9
$DIMCLRD
 70
     0
  9
$DIMCLRE
 70
     0
  9
$DIMCLRT
 70
     0
  9
$DIMTFAC
 40
1.0
  9
$DIMGAP
 40
0.625
  9
$DIMJUST
 70
     0
  9
$DIMSD1
 70
     0
  9
$DIMSD2
 70
     0
  9
$DIMTOLJ
 70
     0
  9
$DIMTZIN
 70
     8
  9
$DIMALTZ
 70
     0
  9
$DIMALTTZ
 70
     0
  9
$DIMUPT
 70
     0
  9
$DIMDEC
 70
     2
  9
$DIMTDEC
 70
     2
  9
$DIMALTU
 70
     2
  9
$DIMALTTD
 70
     3
  9
$DIMTXSTY
  7
Standard
  9
$DIMAUNIT
 70
     0
  9
$DIMADEC
 70
     0
  9
$DIMALTRND
 40
0.0
  9
$DIMAZIN
 70
     0
  9
$DIMDSEP
 70
    44
  9
$DIMATFIT
 70
     3
  9
$DIMFRAC
 70
     0
  9
$DIMLDRBLK
  1

  9
$DIMLUNIT
 70
     2
  9
$DIMLWD
 70
    -2
  9
$DIMLWE
 70
    -2
  9
$DIMTMOVE
 70
     0
  9
$LUNITS
 70
     2
  9
$LUPREC
 70
     4
  9
$SKETCHINC
 40
1.0
  9
$FILLETRAD
 40
10.0
  9
$AUNITS
 70
     0
  9
$AUPREC
 70
     0
  9
$MENU
  1
.
  9
$ELEVATION
 40
0.0
  9
$PELEVATION
 40
0.0
  9
$THICKNESS
 40
0.0
  9
$LIMCHECK
 70
     0
  9
$CHAMFERA
 40
10.0
  9
$CHAMFERB
 40
10.0
  9
$CHAMFERC
 40
20.0
  9
$CHAMFERD
 40
0.0
  9
$SKPOLY
 70
     0
  9
$TDCREATE
 40
2452333.440837384
  9
$TDUCREATE
 40
2452333.399170718
  9
$TDUPDATE
 40
2452653.356918206
  9
$TDUUPDATE
 40
2452653.315251539
  9
$TDINDWG
 40
0.0053638773
  9
$TDUSRTIMER
 40
0.0053626042
  9
$USRTIMER
 70
     1
  9
$ANGBASE
 50
0.0
  9
$ANGDIR
 70
     0
  9
$PDMODE
 70
     0
  9
$PDSIZE
 40
0.0
  9
$PLINEWID
 40
0.0
  9
$SPLFRAME
 70
     0
  9
$SPLINETYPE
 70
     6
  9
$SPLINESEGS
 70
     8
  9
$HANDSEED
  5
35F6
  9
$SURFTAB1
 70
     6
  9
$SURFTAB2
 70
     6
  9
$SURFTYPE
 70
     6
  9
$SURFU
 70
     6
  9
$SURFV
 70
     6
  9
$UCSBASE
  2

  9
$UCSNAME
  2

  9
$UCSORG
 10
0.0
 20
0.0
 30
0.0
  9
$UCSXDIR
 10
1.0
 20
0.0
 30
0.0
  9
$UCSYDIR
 10
0.0
 20
1.0
 30
0.0
  9
$UCSORTHOREF
  2

  9
$UCSORTHOVIEW
 70
     0
  9
$UCSORGTOP
 10
0.0
 20
0.0
 30
0.0
  9
$UCSORGBOTTOM
 10
0.0
 20
0.0
 30
0.0
  9
$UCSORGLEFT
 10
0.0
 20
0.0
 30
0.0
  9
$UCSORGRIGHT
 10
0.0
 20
0.0
 30
0.0
  9
$UCSORGFRONT
 10
0.0
 20
0.0
 30
0.0
  9
$UCSORGBACK
 10
0.0
 20
0.0
 30
0.0
  9
$PUCSBASE
  2

  9
$PUCSNAME
  2

  9
$PUCSORG
 10
0.0
 20
0.0
 30
0.0
  9
$PUCSXDIR
 10
1.0
 20
0.0
 30
0.0
  9
$PUCSYDIR
 10
0.0
 20
1.0
 30
0.0
  9
$PUCSORTHOREF
  2

  9
$PUCSORTHOVIEW
 70
     0
  9
$PUCSORGTOP
 10
0.0
 20
0.0
 30
0.0
  9
$PUCSORGBOTTOM
 10
0.0
 20
0.0
 30
0.0
  9
$PUCSORGLEFT
 10
0.0
 20
0.0
 30
0.0
  9
$PUCSORGRIGHT
 10
0.0
 20
0.0
 30
0.0
  9
$PUCSORGFRONT
 10
0.0
 20
0.0
 30
0.0
  9
$PUCSORGBACK
 10
0.0
 20
0.0
 30
0.0
  9
$USERI1
 70
     0
  9
$USERI2
 70
     0
  9
$USERI3
 70
     0
  9
$USERI4
 70
     0
  9
$USERI5
 70
     0
  9
$USERR1
 40
0.0
  9
$USERR2
 40
0.0
  9
$USERR3
 40
0.0
  9
$USERR4
 40
0.0
  9
$USERR5
 40
0.0
  9
$WORLDVIEW
 70
     1
  9
$SHADEDGE
 70
     3
  9
$SHADEDIF
 70
    70
  9
$TILEMODE
 70
     1
  9
$MAXACTVP
 70
    64
  9
$PINSBASE
 10
0.0
 20
0.0
 30
0.0
  9
$PLIMCHECK
 70
     0
  9
$PEXTMIN
 10
1.000000000000000E+20
 20
1.000000000000000E+20
 30
1.000000000000000E+20
  9
$PEXTMAX
 10
-1.000000000000000E+20
 20
-1.000000000000000E+20
 30
-1.000000000000000E+20
  9
$PLIMMIN
 10
0.0
 20
0.0
  9
$PLIMMAX
 10
420.0
 20
297.0
  9
$UNITMODE
 70
     0
  9
$VISRETAIN
 70
     1
  9
$PLINEGEN
 70
     0
  9
$PSLTSCALE
 70
     1
  9
$TREEDEPTH
 70
  3020
  9
$CMLSTYLE
  2
Standard
  9
$CMLJUST
 70
     0
  9
$CMLSCALE
 40
20.0
  9
$PROXYGRAPHICS
 70
     1
  9
$MEASUREMENT
 70
     1
  9
$CELWEIGHT
370
    -1
  9
$ENDCAPS
280
     0
  9
$JOINSTYLE
280
     0
  9
$LWDISPLAY
290
     0
  9
$INSUNITS
 70
     4
  9
$HYPERLINKBASE
  1

  9
$STYLESHEET
  1

  9
$XEDIT
290
     1
  9
$CEPSNTYPE
380
     0
  9
$PSTYLEMODE
290
     1
  9
$FINGERPRINTGUID
  2
{E0A79919-1611-4D48-A6CF-929FE36A9D62}
  9
$VERSIONGUID
  2
{DB098471-E913-4895-AD22-5D384EB3971F}
  9
$EXTNAMES
290
     1
  9
$PSVPSCALE
 40
0.0
  9
$OLESTARTUP
290
     0
  0
ENDSEC
  0
SECTION
  2
CLASSES
  0
CLASS
  1
ACDBDICTIONARYWDFLT
  2
AcDbDictionaryWithDefault
  3
AutoCAD 2000
 90
        0
280
     0
281
     0
  0
CLASS
  1
ACDBPLACEHOLDER
  2
AcDbPlaceHolder
  3
AutoCAD 2000
 90
        0
280
     0
281
     0
  0
CLASS
  1
LAYOUT
  2
AcDbLayout
  3
AutoCAD 2000
 90
        0
280
     0
281
     0
  0
ENDSEC
  0
SECTION
  2
TABLES
  0
TABLE
  2
VPORT
  5
8
330
0
100
AcDbSymbolTable
 70
     2
  0
VPORT
  5
35F5
330
8
100
AcDbSymbolTableRecord
100
AcDbViewportTableRecord
  2
*Active
 70
     0
 10
0.0
 20
0.0
 11
1.0
 21
1.0
 12
546.2779473396436
 22
183.2980525063703
 13
0.0
 23
0.0
 14
10.0
 24
10.0
 15
10.0
 25
10.0
 16
0.0
 26
0.0
 36
1.0
 17
0.0
 27
0.0
 37
0.0
 40
612.3512030258966
 41
2.2475
 42
50.0
 43
0.0
 44
0.0
 50
0.0
 51
0.0
 71
     0
 72
   100
 73
     1
 74
     3
 75
     0
 76
     0
 77
     0
 78
     0
281
     0
 65
     1
110
0.0
120
0.0
130
0.0
111
1.0
121
0.0
131
0.0
112
0.0
122
1.0
132
0.0
 79
     0
146
0.0
  0
ENDTAB
  0
TABLE
  2
LTYPE
  5
5
330
0
100
AcDbSymbolTable
 70
     5
  0
LTYPE
  5
14
330
5
100
AcDbSymbolTableRecord
100
AcDbLinetypeTableRecord
  2
ByBlock
 70
     0
  3

 72
    65
 73
     0
 40
0.0
  0
LTYPE
  5
15
330
5
100
AcDbSymbolTableRecord
100
AcDbLinetypeTableRecord
  2
ByLayer
 70
     0
  3

 72
    65
 73
     0
 40
0.0
  0
LTYPE
  5
16
330
5
100
AcDbSymbolTableRecord
100
AcDbLinetypeTableRecord
  2
Continuous
 70
     0
  3
Solid line
 72
    65
 73
     0
 40
0.0
  0
LTYPE
  5
33
330
5
100
AcDbSymbolTableRecord
100
AcDbLinetypeTableRecord
  2
DASHED
 70
     0
  3
Dashed __ __ __ __ __ __ __ __ __ __ __ __ __ _
 72
    65
 73
     2
 40
19.04999999999999
 49
12.7
 74
     0
 49
-6.349999999999999
 74
     0
  0
LTYPE
  5
34
330
5
100
AcDbSymbolTableRecord
100
AcDbLinetypeTableRecord
  2
DASHDOT2
 70
     0
  3
Dash dot (.5x) _._._._._._._._._._._._._._._.
 72
    65
 73
     4
 40
12.7
 49
6.349999999999999
 74
     0
 49
-3.174999999999999
 74
     0
 49
0.0
 74
     0
 49
-3.174999999999999
 74
     0
  0
LTYPE
  5
35
330
5
100
AcDbSymbolTableRecord
100
AcDbLinetypeTableRecord
  2
CIKCAK
 70
     0
  3
Cik-cak /\/\/\/\/\/\/\/\/\/\/\/\/\/\/\/\/\/\/\/
 72
    65
 73
     4
 40
20.32254
 49
0.00254
 74
     0
 49
-5.08
 74
     4
 75
   131
340
3E
 46
5.08
 50
0.0
 44
-5.08
 45
0.0
 49
-10.16
 74
     4
 75
   131
340
3E
 46
5.08
 50
180.0
 44
5.08
 45
0.0
 49
-5.08
 74
     0
  0
LTYPE
  5
36
330
5
100
AcDbSymbolTableRecord
100
AcDbLinetypeTableRecord
  2
IZOLACE
 70
     0
  3
Izolace SSSSSSSSSSSSSSSSSSSSSSSSSSSSSSSSSSSSSSS
 72
    65
 73
     4
 40
10.16253999999999
 49
0.00254
 74
     0
 49
-2.54
 74
     4
 75
   134
340
3E
 46
2.54
 50
0.0
 44
-2.54
 45
0.0
 49
-5.08
 74
     4
 75
   134
340
3E
 46
2.54
 50
180.0
 44
2.54
 45
0.0
 49
-2.54
 74
     0
  0
ENDTAB
  0
TABLE
  2
LAYER
  5
2
330
0
100
AcDbSymbolTable
 70
     7
  0
LAYER
  5
10
330
2
100
AcDbSymbolTableRecord
100
AcDbLayerTableRecord
  2
0
 70
     0
 62
     7
  6
Continuous
370
    -3
390
F
  0
LAYER
  5
37
330
2
100
AcDbSymbolTableRecord
100
AcDbLayerTableRecord
  2
POPIS
 70
     0
 62
    30
  6
Continuous
370
    -3
390
F
  0
LAYER
  5
38
330
2
100
AcDbSymbolTableRecord
100
AcDbLayerTableRecord
  2
SPOJOVACÍ
 70
     0
 62
   180
  6
Continuous
370
    -3
390
F
  0
LAYER
  5
39
330
2
100
AcDbSymbolTableRecord
100
AcDbLayerTableRecord
  2
CETRIS
 70
     0
 62
     1
  6
Continuous
370
    -3
390
F
  0
LAYER
  5
3A
330
2
100
AcDbSymbolTableRecord
100
AcDbLayerTableRecord
  2
NOSNÉ KONSTRUKCE
 70
     0
 62
    33
  6
Continuous
370
    -3
390
F
  0
LAYER
  5
3B
330
2
100
AcDbSymbolTableRecord
100
AcDbLayerTableRecord
  2
izolace
 70
     0
 62
    73
  6
Continuous
370
    -3
390
F
  0
LAYER
  5
3C
330
2
100
AcDbSymbolTableRecord
100
AcDbLayerTableRecord
  2
STAVBA OBRYS
 70
     0
 62
     6
  6
Continuous
370
    -3
390
F
  0
ENDTAB
  0
TABLE
  2
STYLE
  5
3
330
0
100
AcDbSymbolTable
 70
     3
  0
STYLE
  5
11
330
3
100
AcDbSymbolTableRecord
100
AcDbTextStyleTableRecord
  2
Standard
 70
     0
 40
0.0
 41
1.0
 50
0.0
 71
     0
 42
2.5
  3
txt
  4

  0
STYLE
  5
3D
330
3
100
AcDbSymbolTableRecord
100
AcDbTextStyleTableRecord
  2
SIMPLEX7
 70
     0
 40
0.0
 41
0.85
 50
0.0
 71
     0
 42
102.0
  3

  4

1001
ACAD
1000
Arial CE
1071
    60962
  0
STYLE
  5
3E
330
3
100
AcDbSymbolTableRecord
100
AcDbTextStyleTableRecord
  2

 70
     1
 40
0.0
 41
1.0
 50
0.0
 71
     0
 42
2.5
  3
ltypeshp.shx
  4

  0
ENDTAB
  0
TABLE
  2
VIEW
  5
6
330
0
100
AcDbSymbolTable
 70
     0
  0
ENDTAB
  0
TABLE
  2
UCS
  5
7
330
0
100
AcDbSymbolTable
 70
     0
  0
ENDTAB
  0
TABLE
  2
APPID
  5
9
330
0
100
AcDbSymbolTable
 70
     1
  0
APPID
  5
12
330
9
100
AcDbSymbolTableRecord
100
AcDbRegAppTableRecord
  2
ACAD
 70
     0
  0
ENDTAB
  0
TABLE
  2
DIMSTYLE
  5
A
330
0
100
AcDbSymbolTable
 70
     1
100
AcDbDimStyleTable
 71
     0
  0
DIMSTYLE
105
27
330
A
100
AcDbSymbolTableRecord
100
AcDbDimStyleTableRecord
  2
ISO-25
 70
     0
 41
2.5
 42
0.625
 43
3.75
 44
1.25
 73
     0
 74
     0
 77
     1
 78
     8
140
2.5
141
2.5
143
0.03937007874016
147
0.625
171
     3
172
     1
271
     2
272
     2
274
     3
278
    44
283
     0
284
     8
340
11
  0
ENDTAB
  0
TABLE
  2
BLOCK_RECORD
  5
1
330
0
100
AcDbSymbolTable
 70
     2
  0
BLOCK_RECORD
  5
1F
330
1
100
AcDbSymbolTableRecord
100
AcDbBlockTableRecord
  2
*Model_Space
340
22
  0
BLOCK_RECORD
  5
1B
330
1
100
AcDbSymbolTableRecord
100
AcDbBlockTableRecord
  2
*Paper_Space
340
1E
  0
BLOCK_RECORD
  5
23
330
1
100
AcDbSymbolTableRecord
100
AcDbBlockTableRecord
  2
*Paper_Space0
340
26
  0
BLOCK_RECORD
  5
2B
330
1
100
AcDbSymbolTableRecord
100
AcDbBlockTableRecord
  2
E_PUNKT
340
0
102
{BLKREFS
331
3358
331
335E
331
3360
331
3361
331
3366
331
336C
331
336E
102
}
  0
ENDTAB
  0
ENDSEC
  0
SECTION
  2
BLOCKS
  0
BLOCK
  5
20
330
1F
100
AcDbEntity
  8
0
100
AcDbBlockBegin
  2
*Model_Space
 70
     0
 10
0.0
 20
0.0
 30
0.0
  3
*Model_Space
  1

  0
ENDBLK
  5
21
330
1F
100
AcDbEntity
  8
0
100
AcDbBlockEnd
  0
BLOCK
  5
1C
330
1B
100
AcDbEntity
 67
     1
  8
0
100
AcDbBlockBegin
  2
*Paper_Space
 70
     0
 10
0.0
 20
0.0
 30
0.0
  3
*Paper_Space
  1

  0
ENDBLK
  5
1D
330
1B
100
AcDbEntity
 67
     1
  8
0
100
AcDbBlockEnd
  0
BLOCK
  5
24
330
23
100
AcDbEntity
  8
0
100
AcDbBlockBegin
  2
*Paper_Space0
 70
     0
 10
0.0
 20
0.0
 30
0.0
  3
*Paper_Space0
  1

  0
ENDBLK
  5
25
330
23
100
AcDbEntity
  8
0
100
AcDbBlockEnd
  0
BLOCK
  5
2D
330
2B
100
AcDbEntity
  8
0
100
AcDbBlockBegin
  2
E_PUNKT
 70
     0
 10
0.0
 20
0.0
 30
0.0
  3
E_PUNKT
  1

  0
LWPOLYLINE
  5
2C
330
2B
100
AcDbEntity
  8
POPIS
100
AcDbPolyline
 90
        2
 70
     1
 43
2.5
 10
1.27761037562675
 20
0.0290683308725193
 42
-1.0
 10
-1.222389624373249
 20
0.0290683308725193
 42
-1.0
  0
ENDBLK
  5
2E
330
2B
100
AcDbEntity
  8
0
100
AcDbBlockEnd
  0
ENDSEC
  0
SECTION
  2
ENTITIES
  0
HATCH
  5
3354
330
1F
100
AcDbEntity
  8
NOSNÉ KONSTRUKCE
100
AcDbHatch
 10
0.0
 20
0.0
 30
0.0
210
0.0
220
0.0
230
1.0
  2
SOLID
 70
     1
 71
     0
 91
        1
 92
        1
 93
       78
 72
     1
 10
159.9091200564811
 20
82.89574403552245
 11
161.4091200564811
 21
82.89574403552245
 72
     1
 10
161.4091200564811
 20
82.89574403552245
 11
161.4091200564811
 21
86.8569084217815
 72
     2
 10
160.0450653709279
 20
86.85701514151508
 40
1.364054689724365
 50
359.9955173422458
 51
449.9956000565878
 73
     1
 72
     1
 10
160.0451701214636
 20
88.22106982721738
 11
152.8879221193614
 21
88.22106982721738
 72
     2
 10
152.8879082469151
 20
86.85709403243885
 40
1.363975794848016
 50
449.9994172678322
 51
509.9993729338875
 73
     1
 72
     2
 10
150.5253282002062
 20
88.22114808338296
 40
1.364105569629164
 50
30.00002138114828
 51
149.9999786188517
 73
     0
 72
     2
 10
148.1627481534973
 20
86.85709403243521
 40
1.363975794852709
 50
390.0006270662067
 51
450.0005827322442
 73
     1
 72
     1
 10
148.162734281051
 20
88.22106982721738
 11
140.1205047893976
 21
88.22106982721738
 72
     2
 10
140.1204909328311
 20
86.85709405994197
 40
1.363975767345567
 50
449.9994179347971
 51
509.9993736009129
 73
     1
 72
     2
 10
137.7579637646425
 20
88.22111756309453
 40
1.36404452909372
 50
30.0000213811012
 51
149.9999786188987
 73
     0
 72
     2
 10
135.3954365805778
 20
86.85709403243885
 40
1.363975794849071
 50
390.0006270661125
 51
450.0005827321678
 73
     1
 72
     1
 10
135.3954227081316
 20
88.22106982721738
 11
127.3531932164745
 21
88.22106982721738
 72
     2
 10
127.3531793440282
 20
86.85709403243885
 40
1.363975794848016
 50
449.9994172678322
 51
509.9993729338875
 73
     1
 72
     2
 10
124.9906521758433
 20
88.22111755392683
 40
1.364044510757576
 50
30.00002138111922
 51
149.9999786188807
 73
     0
 72
     2
 10
122.6281250076584
 20
86.85709403243885
 40
1.363975794849071
 50
390.0006270661125
 51
450.0005827321678
 73
     1
 72
     1
 10
122.6281111352121
 20
88.22106982721738
 11
113.8601333907621
 21
88.22106982721738
 72
     2
 10
113.8601852786536
 20
86.85696227894727
 40
1.364107549255989
 50
90.00217941550038
 51
180.0022621297693
 73
     1
 72
     1
 10
112.4960777304598
 20
86.8569084217815
 11
112.4960777304598
 21
80.73203305850979
 72
     2
 10
113.8599304889879
 20
80.73220052230311
 40
1.363852768812942
 50
180.007035193844
 51
235.6187009209929
 73
     1
 72
     2
 10
112.3191477065496
 20
78.4809197656686
 40
1.364200882607377
 50
-55.60560776441116
 51
0.0060579627693785
 73
     0
 72
     1
 10
113.6833485815308
 20
78.48077552680473
 11
113.6833485815308
 21
74.6621386230035
 72
     2
 10
112.3195486875205
 20
74.66220584959586
 40
1.363799895663342
 50
0.002824314642729
 51
55.61449004180289
 73
     0
 72
     2
 10
113.8603314699661
 20
72.41092509296135
 40
1.364253740215838
 50
124.3901822498929
 51
180.0018479770308
 73
     1
 72
     1
 10
112.4960777304598
 20
72.41088109129845
 11
112.4960777304598
 21
54.02695053721976
 72
     2
 10
113.8603314680889
 20
54.02690653654639
 40
1.36425373834027
 50
179.9981520645247
 51
235.6098177916606
 73
     1
 72
     2
 10
112.3195486875278
 20
51.77562578090141
 40
1.363799895660852
 50
-55.61449004192901
 51
-0.0028243147955483
 73
     0
 72
     1
 10
113.6833485815308
 20
51.77569300749741
 11
113.6833485815308
 21
47.95705610170983
 72
     2
 10
112.3191477065496
 20
47.95691186284597
 40
1.364200882606485
 50
-0.0060579627693785
 51
55.60560776441121
 73
     0
 72
     2
 10
113.8599304871071
 20
45.70563110720462
 40
1.363852766929492
 50
124.3812990372945
 51
179.992964764423
 73
     1
 72
     1
 10
112.4960777304598
 20
45.70579857199112
 11
112.4960777304598
 21
39.58092320871941
 72
     2
 10
113.8601852796431
 20
39.58086935056048
 40
1.364107550250173
 50
179.9977378285168
 51
269.9978205427857
 73
     1
 72
     1
 10
113.8601333907621
 20
38.21676180129719
 11
122.6281111352121
 21
38.21676180129719
 72
     2
 10
122.6281250059413
 20
39.58073759706525
 40
1.363975795838488
 50
269.9994173399629
 51
329.9993730060831
 73
     1
 72
     2
 10
124.9906521758433
 20
38.21671407657044
 40
1.364044510757576
 50
210.0000213811191
 51
329.9999786188807
 73
     0
 72
     2
 10
127.3531793457453
 20
39.58073759706525
 40
1.363975795838583
 50
210.0006269939167
 51
270.000582660037
 73
     1
 72
     1
 10
127.3531932164745
 20
38.21676180129719
 11
135.3954227081316
 21
38.21676180129719
 72
     2
 10
135.3954365788607
 20
39.58073759706525
 40
1.363975795838488
 50
269.9994173399629
 51
329.9993730060831
 73
     1
 72
     2
 10
137.7579637646425
 20
38.21671406740273
 40
1.36404452909372
 50
210.0000213811012
 51
329.9999786188988
 73
     0
 72
     2
 10
140.1204909345482
 20
39.58073756956213
 40
1.363975768335302
 50
210.0006263268913
 51
270.0005819930721
 73
     1
 72
     1
 10
140.1205047893976
 20
38.21676180129719
 11
148.162734281051
 21
38.21676180129719
 72
     2
 10
148.1627481517801
 20
39.58073759706889
 40
1.363975795841882
 50
269.9994173398865
 51
329.999373005989
 73
     1
 72
     2
 10
150.5253282002062
 20
38.21668354711431
 40
1.364105569629164
 50
210.0000213811482
 51
329.9999786188517
 73
     0
 72
     2
 10
152.8879082486322
 20
39.58073759706525
 40
1.363975795838583
 50
210.0006269939167
 51
270.000582660037
 73
     1
 72
     1
 10
152.8879221193614
 20
38.21676180129719
 11
160.0450644291171
 21
38.21676180129719
 72
     2
 10
160.0450125072942
 20
39.58086935055684
 40
1.364107550249196
 50
270.0021794572142
 51
360.0022621714831
 73
     1
 72
     1
 10
161.4091200564811
 20
39.58092320871577
 11
161.4091200564811
 21
43.54208759497118
 72
     1
 10
161.4091200564811
 20
43.54208759497118
 11
159.9091200564811
 21
43.54208759497118
 72
     1
 10
159.9091200564811
 20
43.54208759497118
 11
159.9091200564811
 21
40.71676180129355
 72
     2
 10
158.9091200564811
 20
40.71676180129355
 40
1.0
 50
0.0
 51
90.0
 73
     0
 72
     1
 10
158.9091200564811
 20
39.71676180129355
 11
152.9651777745288
 21
39.71676180129719
 72
     2
 10
150.5253282002062
 20
38.21668354712159
 40
2.864105569627733
 50
391.5842014864362
 51
508.4157985135637
 73
     1
 72
     1
 10
148.0854786258836
 20
39.71676180129719
 11
140.1977604489305
 21
39.71676180129719
 72
     2
 10
137.7579637646389
 20
38.21671406740273
 40
2.864044529094826
 50
391.5842355323783
 51
508.4157644675406
 73
     1
 72
     1
 10
135.3181670803509
 20
39.71676180130083
 11
127.4304488442443
 21
39.71676180129719
 72
     2
 10
124.9906521758433
 20
38.2167140765668
 40
2.864044510759085
 50
391.5842355426949
 51
508.415764457305
 73
     1
 72
     1
 10
122.5508555074424
 20
39.71676180129719
 11
114.9960777304599
 21
39.71676180129719
 72
     2
 10
114.9960777304599
 20
40.7167618012972
 40
1.0
 50
90.0
 51
180.0
 73
     0
 72
     1
 10
113.9960777304598
 20
40.7167618012972
 11
113.9960777304598
 21
45.63494020263163
 72
     2
 10
112.3191477065532
 20
47.95691186284233
 40
2.864200882602513
 50
305.8368500797323
 51
360.0041807823925
 73
     1
 72
     1
 10
115.1833485815308
 20
47.95712085904955
 11
115.1833485815308
 21
51.77569300749741
 72
     2
 10
113.683348563079
 20
51.77569300274621
 40
1.500000018450919
 50
360.0000001814824
 51
360.0028244959368
 73
     1
 72
     2
 10
112.319548687535
 20
51.77562578090868
 40
2.863799895650613
 50
360.0028243144894
 51
414.1672517372337
 73
     1
 72
     1
 10
113.9960777304598
 20
54.09739239505501
 11
113.9960777304598
 21
72.34043923544589
 72
     2
 10
112.319548687535
 20
74.66220584959223
 40
2.863799895650137
 50
305.8327482627515
 51
359.9971756855105
 73
     1
 72
     2
 10
113.6833486322697
 20
74.66213862775106
 40
1.499999949261109
 50
359.9971755040718
 51
359.9999998185174
 73
     1
 72
     1
 10
115.1833485815308
 20
74.66213862299986
 11
115.1833485815308
 21
78.48071076635455
 72
     2
 10
112.3191477065496
 20
78.48091976567224
 40
2.864200882605558
 50
359.9958191553852
 51
414.1631499202233
 73
     1
 72
     1
 10
113.9960777304598
 20
80.80289142588293
 11
113.9960777304598
 21
85.72106982721738
 72
     2
 10
114.9960777304599
 20
85.72106982721738
 40
1.0
 50
180.0
 51
270.0
 73
     0
 72
     1
 10
114.9960777304599
 20
86.72106982721738
 11
122.5508555086611
 21
86.72106982721738
 72
     2
 10
124.9906521758433
 20
88.22111755393047
 40
2.864044510759331
 50
211.5842355892532
 51
328.4157644107466
 73
     1
 72
     1
 10
127.4304488430256
 20
86.72106982721738
 11
135.3181670815732
 21
86.72106982721738
 72
     2
 10
137.7579637646425
 20
88.22111756309817
 40
2.864044529094653
 50
211.5842355790273
 51
328.4157644209727
 73
     1
 72
     1
 10
140.1977604477118
 20
86.72106982721738
 11
148.0854786271059
 21
86.72106982721738
 72
     2
 10
150.5253282002025
 20
88.22114808338659
 40
2.864105569629046
 50
211.5842015332367
 51
328.4157984667633
 73
     1
 72
     1
 10
152.9651777733028
 20
86.72106982721738
 11
158.9091200564811
 21
86.72106982721738
 72
     2
 10
158.9091200564811
 20
85.72106982721738
 40
1.0
 50
270.0
 51
360.0
 73
     0
 72
     1
 10
159.9091200564811
 20
85.72106982721738
 11
159.9091200564811
 21
82.89574403552245
 97
        0
 75
     0
 76
     1
 98
        1
 10
4362.870154770802
 20
-28973.96233549802
  0
HATCH
  5
3355
330
1F
100
AcDbEntity
  8
NOSNÉ KONSTRUKCE
100
AcDbHatch
 10
0.0
 20
0.0
 30
0.0
210
0.0
220
0.0
230
1.0
  2
SOLID
 70
     1
 71
     0
 91
        1
 92
        1
 93
       78
 72
     1
 10
559.4019594703362
 20
82.89574403552245
 11
560.9019594703362
 21
82.89574403552245
 72
     1
 10
560.9019594703362
 20
82.89574403552245
 11
560.9019594703362
 21
86.8569084217815
 72
     2
 10
559.537904784783
 20
86.85701514151508
 40
1.364054689724365
 50
359.9955173422458
 51
449.9956000565878
 73
     1
 72
     1
 10
559.5380095353188
 20
88.22106982721738
 11
552.3807615332165
 21
88.22106982721738
 72
     2
 10
552.3807476607702
 20
86.85709403243885
 40
1.363975794848016
 50
449.9994172678322
 51
509.9993729338875
 73
     1
 72
     2
 10
550.0181676140613
 20
88.22114808338296
 40
1.364105569629164
 50
30.00002138114828
 51
149.9999786188517
 73
     0
 72
     2
 10
547.6555875673524
 20
86.85709403243521
 40
1.363975794852709
 50
390.0006270662067
 51
450.0005827322442
 73
     1
 72
     1
 10
547.6555736949061
 20
88.22106982721738
 11
539.6133442032527
 21
88.22106982721738
 72
     2
 10
539.6133303466862
 20
86.85709405994197
 40
1.363975767345567
 50
449.9994179347971
 51
509.9993736009129
 73
     1
 72
     2
 10
537.2508031784977
 20
88.22111756309453
 40
1.36404452909372
 50
30.0000213811012
 51
149.9999786188987
 73
     0
 72
     2
 10
534.888275994433
 20
86.85709403243885
 40
1.363975794849071
 50
390.0006270661125
 51
450.0005827321678
 73
     1
 72
     1
 10
534.8882621219867
 20
88.22106982721738
 11
526.8460326303296
 21
88.22106982721738
 72
     2
 10
526.8460187578833
 20
86.85709403243885
 40
1.363975794848016
 50
449.9994172678322
 51
509.9993729338875
 73
     1
 72
     2
 10
524.4834915896984
 20
88.22111755392683
 40
1.364044510757576
 50
30.00002138111922
 51
149.9999786188807
 73
     0
 72
     2
 10
522.1209644215135
 20
86.85709403243885
 40
1.363975794849071
 50
390.0006270661125
 51
450.0005827321678
 73
     1
 72
     1
 10
522.1209505490673
 20
88.22106982721738
 11
513.3529728046172
 21
88.22106982721738
 72
     2
 10
513.3530246925086
 20
86.85696227894727
 40
1.364107549255989
 50
90.00217941550038
 51
180.0022621297693
 73
     1
 72
     1
 10
511.988917144315
 20
86.8569084217815
 11
511.988917144315
 21
80.73203305850979
 72
     2
 10
513.352769902843
 20
80.73220052230311
 40
1.363852768812942
 50
180.007035193844
 51
235.6187009209929
 73
     1
 72
     2
 10
511.8119871204047
 20
78.4809197656686
 40
1.364200882607377
 50
-55.60560776441116
 51
0.0060579627693785
 73
     0
 72
     1
 10
513.1761879953859
 20
78.48077552680473
 11
513.1761879953859
 21
74.6621386230035
 72
     2
 10
511.8123881013756
 20
74.66220584959586
 40
1.363799895663342
 50
0.002824314642729
 51
55.61449004180289
 73
     0
 72
     2
 10
513.3531708838212
 20
72.41092509296135
 40
1.364253740215838
 50
124.3901822498929
 51
180.0018479770308
 73
     1
 72
     1
 10
511.988917144315
 20
72.41088109129845
 11
511.988917144315
 21
54.02695053721976
 72
     2
 10
513.353170881944
 20
54.02690653654639
 40
1.36425373834027
 50
179.9981520645247
 51
235.6098177916606
 73
     1
 72
     2
 10
511.8123881013828
 20
51.77562578090141
 40
1.363799895660852
 50
-55.61449004192901
 51
-0.0028243147955483
 73
     0
 72
     1
 10
513.1761879953859
 20
51.77569300749741
 11
513.1761879953859
 21
47.95705610170983
 72
     2
 10
511.8119871204047
 20
47.95691186284597
 40
1.364200882606485
 50
-0.0060579627693785
 51
55.60560776441121
 73
     0
 72
     2
 10
513.3527699009622
 20
45.70563110720462
 40
1.363852766929492
 50
124.3812990372945
 51
179.992964764423
 73
     1
 72
     1
 10
511.988917144315
 20
45.70579857199112
 11
511.988917144315
 21
39.58092320871941
 72
     2
 10
513.3530246934982
 20
39.58086935056048
 40
1.364107550250173
 50
179.9977378285168
 51
269.9978205427857
 73
     1
 72
     1
 10
513.3529728046172
 20
38.21676180129719
 11
522.1209505490673
 21
38.21676180129719
 72
     2
 10
522.1209644197964
 20
39.58073759706525
 40
1.363975795838488
 50
269.9994173399629
 51
329.9993730060831
 73
     1
 72
     2
 10
524.4834915896984
 20
38.21671407657044
 40
1.364044510757576
 50
210.0000213811191
 51
329.9999786188807
 73
     0
 72
     2
 10
526.8460187596004
 20
39.58073759706525
 40
1.363975795838583
 50
210.0006269939167
 51
270.000582660037
 73
     1
 72
     1
 10
526.8460326303296
 20
38.21676180129719
 11
534.8882621219867
 21
38.21676180129719
 72
     2
 10
534.8882759927159
 20
39.58073759706525
 40
1.363975795838488
 50
269.9994173399629
 51
329.9993730060831
 73
     1
 72
     2
 10
537.2508031784977
 20
38.21671406740273
 40
1.36404452909372
 50
210.0000213811012
 51
329.9999786188988
 73
     0
 72
     2
 10
539.6133303484033
 20
39.58073756956213
 40
1.363975768335302
 50
210.0006263268913
 51
270.0005819930721
 73
     1
 72
     1
 10
539.6133442032527
 20
38.21676180129719
 11
547.6555736949061
 21
38.21676180129719
 72
     2
 10
547.6555875656353
 20
39.58073759706889
 40
1.363975795841882
 50
269.9994173398865
 51
329.999373005989
 73
     1
 72
     2
 10
550.0181676140613
 20
38.21668354711431
 40
1.364105569629164
 50
210.0000213811482
 51
329.9999786188517
 73
     0
 72
     2
 10
552.3807476624873
 20
39.58073759706525
 40
1.363975795838583
 50
210.0006269939167
 51
270.000582660037
 73
     1
 72
     1
 10
552.3807615332165
 20
38.21676180129719
 11
559.5379038429722
 21
38.21676180129719
 72
     2
 10
559.5378519211493
 20
39.58086935055684
 40
1.364107550249196
 50
270.0021794572142
 51
360.0022621714831
 73
     1
 72
     1
 10
560.9019594703362
 20
39.58092320871577
 11
560.9019594703362
 21
43.54208759497118
 72
     1
 10
560.9019594703362
 20
43.54208759497118
 11
559.4019594703362
 21
43.54208759497118
 72
     1
 10
559.4019594703362
 20
43.54208759497118
 11
559.4019594703362
 21
40.71676180129355
 72
     2
 10
558.4019594703362
 20
40.71676180129355
 40
1.0
 50
0.0
 51
90.0
 73
     0
 72
     1
 10
558.4019594703362
 20
39.71676180129355
 11
552.4580171883838
 21
39.71676180129719
 72
     2
 10
550.0181676140613
 20
38.21668354712159
 40
2.864105569627733
 50
391.5842014864362
 51
508.4157985135637
 73
     1
 72
     1
 10
547.5783180397387
 20
39.71676180129719
 11
539.6905998627857
 21
39.71676180129719
 72
     2
 10
537.250803178494
 20
38.21671406740273
 40
2.864044529094826
 50
391.5842355323783
 51
508.4157644675406
 73
     1
 72
     1
 10
534.811006494206
 20
39.71676180130083
 11
526.9232882580994
 21
39.71676180129719
 72
     2
 10
524.4834915896984
 20
38.2167140765668
 40
2.864044510759085
 50
391.5842355426949
 51
508.415764457305
 73
     1
 72
     1
 10
522.0436949212975
 20
39.71676180129719
 11
514.488917144315
 21
39.71676180129719
 72
     2
 10
514.488917144315
 20
40.7167618012972
 40
1.0
 50
90.0
 51
180.0
 73
     0
 72
     1
 10
513.4889171443149
 20
40.7167618012972
 11
513.4889171443149
 21
45.63494020263163
 72
     2
 10
511.8119871204084
 20
47.95691186284233
 40
2.864200882602513
 50
305.8368500797323
 51
360.0041807823925
 73
     1
 72
     1
 10
514.6761879953859
 20
47.95712085904955
 11
514.6761879953859
 21
51.77569300749741
 72
     2
 10
513.176187976934
 20
51.77569300274621
 40
1.500000018450919
 50
360.0000001814824
 51
360.0028244959368
 73
     1
 72
     2
 10
511.8123881013901
 20
51.77562578090868
 40
2.863799895650613
 50
360.0028243144894
 51
414.1672517372337
 73
     1
 72
     1
 10
513.4889171443149
 20
54.09739239505501
 11
513.4889171443149
 21
72.34043923544589
 72
     2
 10
511.8123881013901
 20
74.66220584959223
 40
2.863799895650137
 50
305.8327482627515
 51
359.9971756855105
 73
     1
 72
     2
 10
513.1761880461247
 20
74.66213862775106
 40
1.499999949261109
 50
359.9971755040718
 51
359.9999998185174
 73
     1
 72
     1
 10
514.6761879953859
 20
74.66213862299986
 11
514.6761879953859
 21
78.48071076635455
 72
     2
 10
511.8119871204047
 20
78.48091976567224
 40
2.864200882605558
 50
359.9958191553852
 51
414.1631499202233
 73
     1
 72
     1
 10
513.4889171443149
 20
80.80289142588293
 11
513.4889171443149
 21
85.72106982721738
 72
     2
 10
514.488917144315
 20
85.72106982721738
 40
1.0
 50
180.0
 51
270.0
 73
     0
 72
     1
 10
514.488917144315
 20
86.72106982721738
 11
522.0436949225162
 21
86.72106982721738
 72
     2
 10
524.4834915896984
 20
88.22111755393047
 40
2.864044510759331
 50
211.5842355892532
 51
328.4157644107466
 73
     1
 72
     1
 10
526.9232882568807
 20
86.72106982721738
 11
534.8110064954283
 21
86.72106982721738
 72
     2
 10
537.2508031784977
 20
88.22111756309817
 40
2.864044529094653
 50
211.5842355790273
 51
328.4157644209727
 73
     1
 72
     1
 10
539.6905998615669
 20
86.72106982721738
 11
547.5783180409611
 21
86.72106982721738
 72
     2
 10
550.0181676140576
 20
88.22114808338659
 40
2.864105569629046
 50
211.5842015332367
 51
328.4157984667633
 73
     1
 72
     1
 10
552.4580171871579
 20
86.72106982721738
 11
558.4019594703362
 21
86.72106982721738
 72
     2
 10
558.4019594703362
 20
85.72106982721738
 40
1.0
 50
270.0
 51
360.0
 73
     0
 72
     1
 10
559.4019594703362
 20
85.72106982721738
 11
559.4019594703362
 21
82.89574403552245
 97
        0
 75
     0
 76
     1
 98
        1
 10
4762.362994184656
 20
-28973.96233549802
  0
TEXT
  5
3356
330
1F
100
AcDbEntity
  8
POPIS
100
AcDbText
 10
740.3543005151854
 20
-49.88245643307942
 30
0.0
 40
25.0
  1
07
 41
0.85
  7
SIMPLEX7
100
AcDbText
  0
TEXT
  5
3357
330
1F
100
AcDbEntity
  8
POPIS
100
AcDbText
 10
794.6980036749277
 20
-49.88245643307942
 30
0.0
 40
25.0
  1
Těsnící podložka
 41
0.7
  7
SIMPLEX7
100
AcDbText
  0
INSERT
  5
3358
330
1F
100
AcDbEntity
  8
POPIS
100
AcDbBlockReference
  2
E_PUNKT
 10
110.7268366543661
 20
47.6210044384033
 30
0.0
  0
LINE
  5
3359
330
1F
100
AcDbEntity
  8
POPIS
100
AcDbLine
 10
110.754447029992
 20
47.65007276927593
 30
0.0
 11
172.1189470710099
 21
-33.85565511761984
 31
0.0
  0
TEXT
  5
335A
330
1F
100
AcDbEntity
  8
POPIS
100
AcDbText
 10
173.6001933999081
 20
-64.69969669605285
 30
0.0
 40
25.0
  1
07
 41
0.85
  7
SIMPLEX7
100
AcDbText
  0
TEXT
  5
335B
330
1F
100
AcDbEntity
  8
POPIS
100
AcDbText
 10
-119.1536619760905
 20
416.3194744216938
 30
0.0
 40
50.0
  1
Napojení příčky na montovanou stěnu
 41
0.85
  7
SIMPLEX7
100
AcDbText
  0
TEXT
  5
335C
330
1F
100
AcDbEntity
  8
POPIS
100
AcDbText
 10
-119.1536619760905
 20
361.694731395893
 30
0.0
 40
35.0
  1
PŮDORYS
 41
0.85
  7
SIMPLEX7
100
AcDbText
  0
TEXT
  5
335D
330
1F
100
AcDbEntity
  8
POPIS
100
AcDbText
 10
127.359111260282
 20
-64.69969669605376
 30
0.0
 40
25.0
  1
06
 41
0.85
  7
SIMPLEX7
100
AcDbText
  0
INSERT
  5
335E
330
1F
100
AcDbEntity
  8
POPIS
100
AcDbBlockReference
  2
E_PUNKT
 10
77.71107389982114
 20
63.46600293119848
 30
0.0
  0
LINE
  5
335F
330
1F
100
AcDbEntity
  8
POPIS
100
AcDbLine
 10
77.7386842754471
 20
63.49507126207067
 30
0.0
 11
148.9169011077477
 21
-33.85565511762075
 31
0.0
  0
INSERT
  5
3360
330
1F
100
AcDbEntity
  8
POPIS
100
AcDbBlockReference
  2
E_PUNKT
 10
159.1982729975655
 20
86.4607151450768
 30
0.0
  0
INSERT
  5
3361
330
1F
100
AcDbEntity
  8
POPIS
100
AcDbBlockReference
  2
E_PUNKT
 10
111.8806092641365
 20
96.89942748953075
 30
0.0
  0
TEXT
  5
3362
330
1F
100
AcDbEntity
  8
POPIS
100
AcDbText
 10
195.5490403366833
 20
165.1167455098879
 30
0.0
 40
25.0
  1
03
 41
0.85
  7
SIMPLEX7
100
AcDbText
  0
LINE
  5
3363
330
1F
100
AcDbEntity
  8
POPIS
100
AcDbLine
 10
159.850034248598
 20
87.44121921378377
 30
0.0
 11
213.2054878251341
 21
160.4156823733641
 31
0.0
  0
LINE
  5
3364
330
1F
100
AcDbEntity
  8
POPIS
100
AcDbLine
 10
111.9082196397624
 20
96.92849582040294
 30
0.0
 11
158.3270281950766
 21
160.4156823733641
 31
0.0
  0
TEXT
  5
3365
330
1F
100
AcDbEntity
  8
POPIS
100
AcDbText
 10
140.6705807066258
 20
165.1167455098879
 30
0.0
 40
25.0
  1
05
 41
0.85
  7
SIMPLEX7
100
AcDbText
  0
INSERT
  5
3366
330
1F
100
AcDbEntity
  8
POPIS
100
AcDbBlockReference
  2
E_PUNKT
 10
602.9481074431508
 20
63.25094529699885
 30
0.0
  0
TEXT
  5
3367
330
1F
100
AcDbEntity
  8
POPIS
100
AcDbText
 10
585.319270330326
 20
165.1167455098879
 30
0.0
 40
25.0
  1
04
 41
0.85
  7
SIMPLEX7
100
AcDbText
  0
LINE
  5
3368
330
1F
100
AcDbEntity
  8
POPIS
100
AcDbLine
 10
602.9757178187768
 20
63.28001362787148
 30
0.0
 11
602.9757178187768
 21
160.4156823733641
 31
0.0
  0
TEXT
  5
3369
330
1F
100
AcDbEntity
  8
POPIS
100
AcDbText
 10
314.9448292767313
 20
165.1167455098911
 30
0.0
 40
25.0
  1
01
 41
0.85
  7
SIMPLEX7
100
AcDbText
  0
LINE
  5
336A
330
1F
100
AcDbEntity
  8
POPIS
100
AcDbLine
 10
332.6012767651822
 20
100.7550190396317
 30
0.0
 11
332.6012767651822
 21
160.4156823733673
 31
0.0
  0
LINE
  5
336B
330
1F
100
AcDbEntity
  8
POPIS
100
AcDbLine
 10
520.0353802832081
 20
100.7550190396286
 30
0.0
 11
520.0353802832081
 21
160.4156823733641
 31
0.0
  0
INSERT
  5
336C
330
1F
100
AcDbEntity
  8
POPIS
100
AcDbBlockReference
  2
E_PUNKT
 10
520.0077699075822
 20
100.7259507087559
 30
0.0
  0
TEXT
  5
336D
330
1F
100
AcDbEntity
  8
POPIS
100
AcDbText
 10
502.3789327947573
 20
165.1167455098879
 30
0.0
 40
25.0
  1
02
 41
0.85
  7
SIMPLEX7
100
AcDbText
  0
INSERT
  5
336E
330
1F
100
AcDbEntity
  8
POPIS
100
AcDbBlockReference
  2
E_PUNKT
 10
332.4785442664409
 20
100.7259507087559
 30
0.0
  0
TEXT
  5
336F
330
1F
100
AcDbEntity
  8
POPIS
100
AcDbText
 10
740.3543005151854
 20
159.5923170356185
 30
0.0
 40
25.0
  1
01
 41
0.85
  7
SIMPLEX7
100
AcDbText
  0
TEXT
  5
3370
330
1F
100
AcDbEntity
  8
POPIS
100
AcDbText
 10
794.6980036749277
 20
159.5923170356185
 30
0.0
 40
25.0
  1
Deska CETRIS   
 41
0.7
  7
SIMPLEX7
100
AcDbText
  0
TEXT
  5
3371
330
1F
100
AcDbEntity
  8
POPIS
100
AcDbText
 10
740.3543005151854
 20
122.9973054199912
 30
0.0
 40
25.0
  1
02
 41
0.85
  7
SIMPLEX7
100
AcDbText
  0
TEXT
  5
3372
330
1F
100
AcDbEntity
  8
POPIS
100
AcDbText
 10
794.6980036749277
 20
122.9973054199912
 30
0.0
 40
25.0
  1
Vrut Bűhnen 4,2x35 (45,55) mm
 41
0.7
  7
SIMPLEX7
100
AcDbText
  0
TEXT
  5
3373
330
1F
100
AcDbEntity
  8
POPIS
100
AcDbText
 10
740.3543005151854
 20
89.0471171752692
 30
0.0
 40
25.0
  1
03
 41
0.85
  7
SIMPLEX7
100
AcDbText
  0
TEXT
  5
3374
330
1F
100
AcDbEntity
  8
POPIS
100
AcDbText
 10
794.6980036749277
 20
89.0471171752692
 30
0.0
 40
25.0
  1
CW profil (ocelový nosník I, U) - stojina
 41
0.7
  7
SIMPLEX7
100
AcDbText
  0
TEXT
  5
3375
330
1F
100
AcDbEntity
  8
POPIS
100
AcDbText
 10
740.3543005151854
 20
53.64295595710649
 30
0.0
 40
25.0
  1
04
 41
0.85
  7
SIMPLEX7
100
AcDbText
  0
TEXT
  5
3376
330
1F
100
AcDbEntity
  8
POPIS
100
AcDbText
 10
794.6980036749277
 20
53.64295595710649
 30
0.0
 40
25.0
  1
Tepelná izolace
 41
0.7
  7
SIMPLEX7
100
AcDbText
  0
TEXT
  5
3377
330
1F
100
AcDbEntity
  8
POPIS
100
AcDbText
 10
794.6980036749277
 20
17.53613446991806
 30
0.0
 40
25.0
  1
Trvale pružný tmel
 41
0.7
  7
SIMPLEX7
100
AcDbText
  0
TEXT
  5
3378
330
1F
100
AcDbEntity
  8
POPIS
100
AcDbText
 10
740.3543005151854
 20
17.53613446991806
 30
0.0
 40
25.0
  1
05
 41
0.85
  7
SIMPLEX7
100
AcDbText
  0
TEXT
  5
3379
330
1F
100
AcDbEntity
  8
POPIS
100
AcDbText
 10
962.324188913973
 20
184.5676271438991
 30
0.0
 40
12.0
  1
R
 41
0.85
  7
SIMPLEX7
100
AcDbText
  0
CIRCLE
  5
337A
330
1F
100
AcDbEntity
  8
POPIS
100
AcDbCircle
 10
967.0832179691545
 20
190.1129728888867
 30
0.0
 40
11.13656048292026
  0
TEXT
  5
337B
330
1F
100
AcDbEntity
  8
POPIS
100
AcDbText
 10
740.3543005151854
 20
-16.71725806928003
 30
0.0
 40
25.0
  1
06
 41
0.85
  7
SIMPLEX7
100
AcDbText
  0
TEXT
  5
337C
330
1F
100
AcDbEntity
  8
POPIS
100
AcDbText
 10
794.6980036749277
 20
-16.71725806928003
 30
0.0
 40
25.0
  1
Přikotvení - hmoždinka
 41
0.7
  7
SIMPLEX7
100
AcDbText
  0
HATCH
  5
337D
330
1F
100
AcDbEntity
  8
STAVBA OBRYS
100
AcDbHatch
 10
0.0
 20
0.0
 30
0.0
210
0.0
220
0.0
230
1.0
  2
ANSI31
 70
     0
 71
     0
 91
        3
 92
        7
 72
     0
 73
     1
 93
        4
 10
96.52172105509942
 20
265.2192785501478
 10
84.0217210551067
 20
265.2199815133871
 10
84.02172105510306
 20
67.020537685546
 10
96.52172105510306
 20
67.020537685546
 97
        0
 92
        7
 72
     0
 73
     1
 93
        4
 10
96.5217210551067
 20
59.96960483859623
 10
84.02172105510306
 20
59.96960483859578
 10
84.02172105510306
 20
-85.68857023070092
 10
96.52172105510306
 20
-85.68857023070092
 97
        0
 92
        7
 72
     0
 73
     1
 93
        4
 10
-64.93827894490334
 20
265.2283585857143
 10
-77.43827894490334
 20
265.2290615489532
 10
-77.43827894490334
 20
-85.68857023070092
 10
-64.93827894490334
 20
-85.68857023070092
 97
        0
 75
     0
 76
     1
 52
0.0
 41
1.0
 77
     0
 78
     1
 53
45.0
 43
-21723.37060960213
 44
-984.431856310292
 45
-2.245064030267287
 46
2.245064030267288
 79
     0
 47
1.016993693765011
 98
        3
 10
91.73042889067927
 20
235.216594535313
 10
91.73042889067927
 20
35.88582705117409
 10
-73.11250330264977
 20
50.12373744906148
  0
HATCH
  5
337E
330
1F
100
AcDbEntity
  8
izolace
100
AcDbHatch
 10
0.0
 20
0.0
 30
0.0
210
0.0
220
0.0
230
1.0
  2
AR-SAND
 70
     0
 71
     0
 91
        1
 92
        7
 72
     0
 73
     1
 93
        4
 10
540.1460992703372
 20
100.7550190396286
 10
535.1460992703372
 20
100.7550190396281
 10
535.1460992703372
 20
88.75501903962907
 10
540.1460992703372
 20
88.75501903962861
 97
        0
 75
     0
 76
     1
 52
90.0
 41
0.05
 77
     0
 78
     4
 53
127.5
 43
-25023.28431642831
 44
-1395.636185898462
 45
-2.447066186646711
 46
-0.0800015647992021
 79
     6
 49
0.0
 49
-1.9304
 49
0.0
 49
-2.159
 49
0.0
 49
-2.06375
 53
97.49999999999996
 43
-25023.28431642831
 44
-1395.636185898462
 45
-3.584125502841771
 46
2.247616415690013
 79
     6
 49
0.0
 49
-1.0414
 49
0.0
 49
-1.7399
 49
0.0
 49
-0.6667500000000001
 53
57.5
 43
-25023.28431642831
 44
-1397.198285898462
 45
-0.0071859233927282
 46
3.95496185120729
 79
     6
 49
0.0
 49
-0.635
 49
0.0
 49
-2.286
 49
0.0
 49
-2.9845
 53
47.5
 43
-25023.28431642831
 44
-1397.198285898462
 45
-1.11464661628608
 46
3.817782262361486
 79
     6
 49
0.0
 49
-0.3175
 49
0.0
 49
-1.498599999999999
 49
0.0
 49
-1.7145
 47
0.2359071171925059
 98
        1
 10
537.1702513675312
 20
94.58848493884437
  0
HATCH
  5
337F
330
1F
100
AcDbEntity
  8
CETRIS
100
AcDbHatch
 10
0.0
 20
0.0
 30
0.0
210
0.0
220
0.0
230
1.0
  2
ANSI31
 70
     0
 71
     0
 91
        8
 92
        7
 72
     0
 73
     1
 93
       23
 10
518.5905730809075
 20
94.15542176854746
 10
518.5245305989932
 20
94.94235049166258
 10
518.0966497346938
 20
96.42319035872191
 10
517.3004192553683
 20
97.74217963701397
 10
516.189789355017
 20
98.81095162641981
 10
514.8401042714625
 20
99.55509226289581
 10
514.8401042714625
 20
100.755019039629
 10
149.7906820731999
 20
100.7550190396286
 10
149.7906820732035
 20
99.55509226289809
 10
149.0753768870357
 20
99.21836862501317
 10
147.8382430781397
 20
98.30028511457426
 10
146.8801620081552
 20
97.09291693167727
 10
146.2671761590075
 20
95.67904972196805
 10
146.0402132681205
 20
94.15542176856929
 10
146.0402132681205
 20
89.19954396449378
 10
146.712730366545
 20
88.9734124102369
 10
147.0900397621129
 20
88.75501903962861
 10
518.5905730809075
 20
88.75501903962907
 10
518.5905730809148
 20
89.51095518432651
 10
517.9180559824721
 20
89.73708673863024
 10
517.5404046071756
 20
89.95474787467486
 10
517.9180559824829
 20
90.33332942350439
 10
518.5905730809075
 20
90.10719786925113
 97
        0
 92
        7
 72
     0
 73
     1
 93
       12
 10
535.1460992703372
 20
100.755019039629
 10
525.0404120487304
 20
100.7550190396286
 10
525.0404120487304
 20
99.55509226289581
 10
524.3251068625625
 20
99.218368625015
 10
523.0879730536665
 20
98.30028511457607
 10
522.129891983682
 20
97.09291693167092
 10
521.5169061345307
 20
95.67904972196215
 10
521.2899432436473
 20
94.15542176852836
 10
521.2899432436473
 20
89.19954396449242
 10
521.9624603420755
 20
88.97341241023964
 10
522.3397697376397
 20
88.75501903962907
 10
535.1460992703372
 20
88.75501903962861
 97
        0
 92
        7
 72
     0
 73
     1
 93
       12
 10
553.7752924061472
 20
95.67904972196851
 10
553.1623065569996
 20
97.09291693166683
 10
552.2042254870115
 20
98.30028511457697
 10
550.9670916781045
 20
99.2183686250159
 10
550.2517864919403
 20
99.55509226289855
 10
550.2517864919476
 20
100.7550190396286
 10
540.1460992703408
 20
100.755019039629
 10
540.1460992703335
 20
88.75501903962907
 10
552.9524288030346
 20
88.75501903962861
 10
553.3297381985879
 20
88.97341241023644
 10
554.002255297027
 20
89.19954396449332
 10
554.002255297027
 20
94.15542176853199
 97
        0
 92
        7
 72
     0
 73
     1
 93
       15
 10
640.1382403187902
 20
100.7550190396286
 10
560.4520942692118
 20
100.7550190396286
 10
560.4520942692118
 20
99.55509226289535
 10
559.102409185661
 20
98.81095162641891
 10
557.991779285306
 20
97.74217963700397
 10
557.1955488059842
 20
96.423190358711
 10
556.7676679416812
 20
94.94235049163711
 10
556.7016254597596
 20
94.15542176852836
 10
556.7016254597632
 20
90.10719786925159
 10
557.3741425581878
 20
90.33332942350439
 10
557.751793933506
 20
89.9547478746776
 10
557.3741425581878
 20
89.73708673862478
 10
556.7016254597632
 20
89.51095518432651
 10
556.7016254597632
 20
88.75501903962907
 10
637.9280790404894
 20
88.75501903962817
 97
        0
 92
        7
 72
     0
 73
     1
 93
       12
 10
628.4921169888088
 20
37.522764754879
 10
534.4568594574205
 20
37.522764754879
 10
534.0795500618563
 20
37.30437138426617
 10
533.4070329634281
 20
37.07823983001202
 10
533.4070329634244
 20
32.12236202598927
 10
533.6339958543042
 20
30.59873407253184
 10
534.2469817034555
 20
29.18486686283853
 10
535.20506277344
 20
27.97749867993883
 10
536.4421965823397
 20
27.05941516948991
 10
537.1575017685112
 20
26.72269153160681
 10
537.1575017685112
 20
25.522764754879
 10
626.2819557105116
 20
25.522764754879
 97
        0
 92
        7
 72
     0
 73
     1
 93
       23
 10
530.7076628006919
 20
36.17058592525467
 10
530.0351457022637
 20
35.94445437100233
 10
529.6574943269527
 20
36.3230359198314
 10
530.0351457022673
 20
36.54069705588421
 10
530.7076628006919
 20
36.76682861018202
 10
530.7076628006956
 20
37.522764754879
 10
147.0900397621129
 20
37.522764754879
 10
146.712730366556
 20
37.30437138426935
 10
146.0402132681205
 20
37.07823983001475
 10
146.0402132681205
 20
32.12236202592652
 10
146.2671761590075
 20
30.59873407252729
 10
146.8801620081479
 20
29.18486686283489
 10
147.8382430781324
 20
27.97749867993928
 10
149.0753768870284
 20
27.05941516949491
 10
149.7906820732035
 20
26.72269153160999
 10
149.7906820732035
 20
25.522764754879
 10
526.9571939912433
 20
25.522764754879
 10
526.9571939912469
 20
26.72269153161181
 10
528.3068790748014
 20
27.46683216808509
 10
529.4175089751528
 20
28.53560415749683
 10
530.2137394544673
 20
29.85459343578708
 10
530.6416203187667
 20
31.33543330283777
 10
530.7076628006883
 20
32.12236202592879
 97
        0
 92
        7
 72
     0
 73
     1
 93
       15
 10
143.3408431053843
 20
36.17058592525558
 10
142.6683260069524
 20
35.94445437100279
 10
142.2906746316451
 20
36.3230359198314
 10
142.6683260069634
 20
36.54069705588193
 10
143.3408431053843
 20
36.76682861017974
 10
143.3408431053843
 20
37.522764754879
 10
114.2397660362925
 20
37.52276475487946
 10
114.2397660362925
 20
25.522764754879
 10
139.5903742959393
 20
25.522764754879
 10
139.5903742959357
 20
26.72269153161045
 10
140.9400593794792
 20
27.46683216808373
 10
142.0506892798451
 20
28.53560415749501
 10
142.8469197591524
 20
29.85459343578389
 10
143.2748006234627
 20
31.3354333028414
 10
143.3408431053843
 20
32.12236202604794
 97
        0
 92
        7
 72
     0
 73
     1
 93
       15
 10
143.3408431053843
 20
94.15542176852381
 10
143.2748006234663
 20
94.94235049167077
 10
142.8469197591597
 20
96.42319035872418
 10
142.0506892798415
 20
97.74217963701307
 10
140.9400593794865
 20
98.81095162642617
 10
139.5903742959357
 20
99.55509226289763
 10
139.5903742959357
 20
100.7550190396286
 10
114.2397660362925
 20
100.7550190396286
 10
114.2397660362925
 20
88.75501903962861
 10
143.3408431053879
 20
88.75501903962907
 10
143.3408431053807
 20
89.51095518432834
 10
142.6683260069561
 20
89.73708673863024
 10
142.2906746316451
 20
89.95474787467349
 10
142.6683260069561
 20
90.33332942350666
 10
143.3408431053843
 20
90.10719786925296
 97
        0
 75
     0
 76
     1
 52
90.0
 41
1.0
 77
     0
 78
     1
 53
135.0
 43
-21723.37060960213
 44
-984.431856310292
 45
-2.245064030267288
 46
-2.245064030267287
 79
     0
 47
0.7084555761931278
 98
        8
 10
482.8272865873926
 20
93.09939610802889
 10
523.9401436154706
 20
94.51630112457172
 10
543.0788841439874
 20
94.51630112457172
 10
572.8502727448989
 20
93.09939610802889
 10
570.7237407666228
 20
33.58912244851257
 10
499.1306629638687
 20
33.58912244851257
 10
129.1149378922176
 20
32.8806662879528
 10
134.0768340225344
 20
93.80785226858865
  0
LINE
  5
3380
330
1F
100
AcDbEntity
  8
SPOJOVACÍ
  6
Continuous
100
AcDbLine
 10
557.3741425581914
 20
77.8531607716722
 30
0.0
 11
553.3297381985988
 21
76.49324375813006
 31
0.0
  0
LINE
  5
3381
330
1F
100
AcDbEntity
  8
SPOJOVACÍ
  6
Continuous
100
AcDbLine
 10
557.3741425581914
 20
77.25691808651749
 30
0.0
 11
553.3297381985988
 21
75.89700107297534
 31
0.0
  0
LINE
  5
3382
330
1F
100
AcDbEntity
  8
SPOJOVACÍ
  6
Continuous
100
AcDbLine
 10
552.9520868276534
 20
76.27465244610352
 30
0.0
 11
553.3297381985988
 21
76.49324375813006
 31
0.0
  0
LINE
  5
3383
330
1F
100
AcDbEntity
  8
SPOJOVACÍ
  6
Continuous
100
AcDbLine
 10
552.9520868276534
 20
76.27465244610352
 30
0.0
 11
553.3297381985988
 21
75.89700107297534
 31
0.0
  0
LINE
  5
3384
330
1F
100
AcDbEntity
  8
SPOJOVACÍ
  6
Continuous
100
AcDbLine
 10
557.7517939335024
 20
77.47457922256575
 30
0.0
 11
557.3741425581914
 21
77.8531607716722
 31
0.0
  0
LINE
  5
3385
330
1F
100
AcDbEntity
  8
SPOJOVACÍ
  6
Continuous
100
AcDbLine
 10
557.7517939335024
 20
77.47457922256575
 30
0.0
 11
557.3741425581914
 21
77.25691808651749
 31
0.0
  0
LINE
  5
3386
330
1F
100
AcDbEntity
  8
SPOJOVACÍ
  6
Continuous
100
AcDbLine
 10
557.7517939335024
 20
77.47457922256575
 30
0.0
 11
552.9520868276534
 21
76.27465244610352
 31
0.0
  0
LINE
  5
3387
330
1F
100
AcDbEntity
  8
SPOJOVACÍ
  6
Continuous
100
AcDbLine
 10
557.3741425581914
 20
80.97297039063409
 30
0.0
 11
553.3297381985988
 21
79.61305337709195
 31
0.0
  0
LINE
  5
3388
330
1F
100
AcDbEntity
  8
SPOJOVACÍ
  6
Continuous
100
AcDbLine
 10
557.3741425581914
 20
80.37672770548665
 30
0.0
 11
553.3297381985988
 21
79.01681069221371
 31
0.0
  0
LINE
  5
3389
330
1F
100
AcDbEntity
  8
SPOJOVACÍ
  6
Continuous
100
AcDbLine
 10
552.9520868276534
 20
79.39539224104368
 30
0.0
 11
553.3297381985988
 21
79.61305337709195
 31
0.0
  0
LINE
  5
338A
330
1F
100
AcDbEntity
  8
SPOJOVACÍ
  6
Continuous
100
AcDbLine
 10
552.9520868276534
 20
79.39539224104368
 30
0.0
 11
553.3297381985988
 21
79.01681069221371
 31
0.0
  0
LINE
  5
338B
330
1F
100
AcDbEntity
  8
SPOJOVACÍ
  6
Continuous
100
AcDbLine
 10
557.7517939335024
 20
80.59531901750592
 30
0.0
 11
557.3741425581914
 21
80.97297039063409
 31
0.0
  0
LINE
  5
338C
330
1F
100
AcDbEntity
  8
SPOJOVACÍ
  6
Continuous
100
AcDbLine
 10
557.7517939335024
 20
80.59531901750592
 30
0.0
 11
557.3741425581914
 21
80.37672770548665
 31
0.0
  0
LINE
  5
338D
330
1F
100
AcDbEntity
  8
SPOJOVACÍ
  6
Continuous
100
AcDbLine
 10
557.7517939335024
 20
80.59531901750592
 30
0.0
 11
552.9520868276534
 21
79.39539224104368
 31
0.0
  0
LINE
  5
338E
330
1F
100
AcDbEntity
  8
SPOJOVACÍ
  6
Continuous
100
AcDbLine
 10
557.3741425581914
 20
84.09278000960325
 30
0.0
 11
553.3297381985988
 21
82.73286299633031
 31
0.0
  0
LINE
  5
338F
330
1F
100
AcDbEntity
  8
SPOJOVACÍ
  6
Continuous
100
AcDbLine
 10
557.3741425581914
 20
83.49653732444853
 30
0.0
 11
553.3297381985988
 21
82.13662031118287
 31
0.0
  0
LINE
  5
3390
330
1F
100
AcDbEntity
  8
SPOJOVACÍ
  6
Continuous
100
AcDbLine
 10
552.9520868276534
 20
82.51520186001284
 30
0.0
 11
553.3297381985988
 21
82.73286299633031
 31
0.0
  0
LINE
  5
3391
330
1F
100
AcDbEntity
  8
SPOJOVACÍ
  6
Continuous
100
AcDbLine
 10
552.9520868276534
 20
82.51520186001284
 30
0.0
 11
553.3297381985988
 21
82.13662031118287
 31
0.0
  0
LINE
  5
3392
330
1F
100
AcDbEntity
  8
SPOJOVACÍ
  6
Continuous
100
AcDbLine
 10
557.7517939335024
 20
83.71512863647508
 30
0.0
 11
557.3741425581914
 21
84.09278000960325
 31
0.0
  0
LINE
  5
3393
330
1F
100
AcDbEntity
  8
SPOJOVACÍ
  6
Continuous
100
AcDbLine
 10
557.7517939335024
 20
83.71512863647508
 30
0.0
 11
557.3741425581914
 21
83.49653732444853
 31
0.0
  0
LINE
  5
3394
330
1F
100
AcDbEntity
  8
SPOJOVACÍ
  6
Continuous
100
AcDbLine
 10
557.7517939335024
 20
83.71512863647508
 30
0.0
 11
552.9520868276534
 21
82.51520186001284
 31
0.0
  0
LINE
  5
3395
330
1F
100
AcDbEntity
  8
SPOJOVACÍ
  6
Continuous
100
AcDbLine
 10
556.368622522504
 20
68.36908835763455
 30
0.0
 11
554.2143353810473
 21
68.05840964186057
 31
0.0
  0
LINE
  5
3396
330
1F
100
AcDbEntity
  8
SPOJOVACÍ
  6
Continuous
100
AcDbLine
 10
555.9909711515587
 20
68.74673973076273
 30
0.0
 11
554.5919867519927
 21
68.27607077817805
 31
0.0
  0
LINE
  5
3397
330
1F
100
AcDbEntity
  8
SPOJOVACÍ
  6
Continuous
100
AcDbLine
 10
555.9909711515587
 20
68.15049704561528
 30
0.0
 11
554.5919867519927
 21
67.6798280930306
 31
0.0
  0
LINE
  5
3398
330
1F
100
AcDbEntity
  8
SPOJOVACÍ
  6
Continuous
100
AcDbLine
 10
554.2143353810473
 20
68.05840964186057
 30
0.0
 11
554.5919867519927
 21
68.27607077817805
 31
0.0
  0
LINE
  5
3399
330
1F
100
AcDbEntity
  8
SPOJOVACÍ
  6
Continuous
100
AcDbLine
 10
554.2143353810473
 20
68.05840964186057
 30
0.0
 11
554.5919867519927
 21
67.6798280930306
 31
0.0
  0
LINE
  5
339A
330
1F
100
AcDbEntity
  8
SPOJOVACÍ
  6
Continuous
100
AcDbLine
 10
556.368622522504
 20
68.36908835763455
 30
0.0
 11
555.9909711515587
 21
68.74673973076273
 31
0.0
  0
LINE
  5
339B
330
1F
100
AcDbEntity
  8
SPOJOVACÍ
  6
Continuous
100
AcDbLine
 10
556.368622522504
 20
68.36908835763455
 30
0.0
 11
555.9909711515587
 21
68.15049704561528
 31
0.0
  0
LINE
  5
339C
330
1F
100
AcDbEntity
  8
SPOJOVACÍ
  6
Continuous
100
AcDbLine
 10
556.9332392329755
 20
71.38285793595418
 30
0.0
 11
553.8171503165443
 21
70.74940821918421
 31
0.0
  0
LINE
  5
339D
330
1F
100
AcDbEntity
  8
SPOJOVACÍ
  6
Continuous
100
AcDbLine
 10
556.5555878576645
 20
71.76143948506063
 30
0.0
 11
554.1948016874897
 21
70.96706935523247
 31
0.0
  0
LINE
  5
339E
330
1F
100
AcDbEntity
  8
SPOJOVACÍ
  6
Continuous
100
AcDbLine
 10
556.5555878576645
 20
71.16519679990592
 30
0.0
 11
554.1948016874897
 21
70.37082667035424
 31
0.0
  0
LINE
  5
339F
330
1F
100
AcDbEntity
  8
SPOJOVACÍ
  6
Continuous
100
AcDbLine
 10
553.8171503165443
 20
70.74940821918421
 30
0.0
 11
554.1948016874897
 21
70.96706935523247
 31
0.0
  0
LINE
  5
33A0
330
1F
100
AcDbEntity
  8
SPOJOVACÍ
  6
Continuous
100
AcDbLine
 10
553.8171503165443
 20
70.74940821918421
 30
0.0
 11
554.1948016874897
 21
70.37082667035424
 31
0.0
  0
LINE
  5
33A1
330
1F
100
AcDbEntity
  8
SPOJOVACÍ
  6
Continuous
100
AcDbLine
 10
556.9332392329755
 20
71.38285793595418
 30
0.0
 11
556.5555878576645
 21
71.76143948506063
 31
0.0
  0
LINE
  5
33A2
330
1F
100
AcDbEntity
  8
SPOJOVACÍ
  6
Continuous
100
AcDbLine
 10
556.9332392329755
 20
71.38285793595418
 30
0.0
 11
556.5555878576645
 21
71.16519679990592
 31
0.0
  0
LINE
  5
33A3
330
1F
100
AcDbEntity
  8
SPOJOVACÍ
  6
Continuous
100
AcDbLine
 10
557.4978559390814
 20
74.39755769025208
 30
0.0
 11
553.3725262863384
 21
73.42459380794747
 31
0.0
  0
LINE
  5
33A4
330
1F
100
AcDbEntity
  8
SPOJOVACÍ
  6
Continuous
100
AcDbLine
 10
557.1192743907971
 20
74.77520906338026
 30
0.0
 11
553.7501776572838
 21
73.64225494399573
 31
0.0
  0
LINE
  5
33A5
330
1F
100
AcDbEntity
  8
SPOJOVACÍ
  6
Continuous
100
AcDbLine
 10
557.1192743907971
 20
74.17896637822554
 30
0.0
 11
553.7501776572838
 21
73.04601225884102
 31
0.0
  0
LINE
  5
33A6
330
1F
100
AcDbEntity
  8
SPOJOVACÍ
  6
Continuous
100
AcDbLine
 10
553.3725262863384
 20
73.42459380794747
 30
0.0
 11
553.7501776572838
 21
73.64225494399573
 31
0.0
  0
LINE
  5
33A7
330
1F
100
AcDbEntity
  8
SPOJOVACÍ
  6
Continuous
100
AcDbLine
 10
553.3725262863384
 20
73.42459380794747
 30
0.0
 11
553.7501776572838
 21
73.04601225884102
 31
0.0
  0
LINE
  5
33A8
330
1F
100
AcDbEntity
  8
SPOJOVACÍ
  6
Continuous
100
AcDbLine
 10
557.4978559390814
 20
74.39755769025208
 30
0.0
 11
557.1192743907971
 21
74.77520906338026
 31
0.0
  0
LINE
  5
33A9
330
1F
100
AcDbEntity
  8
SPOJOVACÍ
  6
Continuous
100
AcDbLine
 10
557.4978559390814
 20
74.39755769025208
 30
0.0
 11
557.1192743907971
 21
74.17896637822554
 31
0.0
  0
LINE
  5
33AA
330
1F
100
AcDbEntity
  8
SPOJOVACÍ
  6
Continuous
100
AcDbLine
 10
557.3741425581914
 20
87.21258962884162
 30
0.0
 11
553.3297381985988
 21
85.85360279100127
 31
0.0
  0
LINE
  5
33AB
330
1F
100
AcDbEntity
  8
SPOJOVACÍ
  6
Continuous
100
AcDbLine
 10
557.3741425581914
 20
86.61634694368689
 30
0.0
 11
553.3297381985988
 21
85.25736010612304
 31
0.0
  0
LINE
  5
33AC
330
1F
100
AcDbEntity
  8
SPOJOVACÍ
  6
Continuous
100
AcDbLine
 10
552.9520868276534
 20
85.63501147897472
 30
0.0
 11
553.3297381985988
 21
85.85360279100127
 31
0.0
  0
LINE
  5
33AD
330
1F
100
AcDbEntity
  8
SPOJOVACÍ
  6
Continuous
100
AcDbLine
 10
552.9520868276534
 20
85.63501147897472
 30
0.0
 11
553.3297381985988
 21
85.25736010612304
 31
0.0
  0
LINE
  5
33AE
330
1F
100
AcDbEntity
  8
SPOJOVACÍ
  6
Continuous
100
AcDbLine
 10
557.7517939335024
 20
86.83493825571344
 30
0.0
 11
557.3741425581914
 21
87.21258962884162
 31
0.0
  0
LINE
  5
33AF
330
1F
100
AcDbEntity
  8
SPOJOVACÍ
  6
Continuous
100
AcDbLine
 10
557.7517939335024
 20
86.83493825571344
 30
0.0
 11
557.3741425581914
 21
86.61634694368689
 31
0.0
  0
LINE
  5
33B0
330
1F
100
AcDbEntity
  8
SPOJOVACÍ
  6
Continuous
100
AcDbLine
 10
557.7517939335024
 20
86.83493825571344
 30
0.0
 11
552.9520868276534
 21
85.63501147897472
 31
0.0
  0
LINE
  5
33B1
330
1F
100
AcDbEntity
  8
SPOJOVACÍ
  6
Continuous
100
AcDbLine
 10
557.3741425581914
 20
90.33332942350529
 30
0.0
 11
553.3297381985988
 21
88.97341241023964
 31
0.0
  0
LINE
  5
33B2
330
1F
100
AcDbEntity
  8
SPOJOVACÍ
  6
Continuous
100
AcDbLine
 10
557.3741425581914
 20
89.73708673862706
 30
0.0
 11
553.3297381985988
 21
88.37716972508491
 31
0.0
  0
LINE
  5
33B3
330
1F
100
AcDbEntity
  8
SPOJOVACÍ
  6
Continuous
100
AcDbLine
 10
552.9520868276534
 20
88.75482109821309
 30
0.0
 11
553.3297381985988
 21
88.97341241023964
 31
0.0
  0
LINE
  5
33B4
330
1F
100
AcDbEntity
  8
SPOJOVACÍ
  6
Continuous
100
AcDbLine
 10
552.9520868276534
 20
88.75482109821309
 30
0.0
 11
553.3297381985988
 21
88.37716972508491
 31
0.0
  0
LINE
  5
33B5
330
1F
100
AcDbEntity
  8
SPOJOVACÍ
  6
Continuous
100
AcDbLine
 10
557.7517939335024
 20
89.95474787467532
 30
0.0
 11
557.3741425581914
 21
90.33332942350529
 31
0.0
  0
LINE
  5
33B6
330
1F
100
AcDbEntity
  8
SPOJOVACÍ
  6
Continuous
100
AcDbLine
 10
557.7517939335024
 20
89.95474787467532
 30
0.0
 11
557.3741425581914
 21
89.73708673862706
 31
0.0
  0
LINE
  5
33B7
330
1F
100
AcDbEntity
  8
SPOJOVACÍ
  6
Continuous
100
AcDbLine
 10
557.7517939335024
 20
89.95474787467532
 30
0.0
 11
552.9520868276534
 21
88.75482109821309
 31
0.0
  0
LINE
  5
33B8
330
1F
100
AcDbEntity
  8
SPOJOVACÍ
  6
Continuous
100
AcDbLine
 10
554.2478217084948
 20
73.81898834534507
 30
0.0
 11
554.002255297027
 21
75.79003085663129
 31
0.0
  0
LINE
  5
33B9
330
1F
100
AcDbEntity
  8
SPOJOVACÍ
  6
Continuous
100
AcDbLine
 10
554.5864057010561
 20
71.11217677944654
 30
0.0
 11
554.3194452457186
 21
73.24879058229993
 31
0.0
  0
LINE
  5
33BA
330
1F
100
AcDbEntity
  8
SPOJOVACÍ
  6
Continuous
100
AcDbLine
 10
554.9259198622252
 20
68.39513328001334
 30
0.0
 11
554.6580292339143
 21
70.54011866499781
 31
0.0
  0
LINE
  5
33BB
330
1F
100
AcDbEntity
  8
SPOJOVACÍ
  6
Continuous
100
AcDbLine
 10
555.7379633344766
 20
68.07887350948289
 30
0.0
 11
555.3519403805779
 21
64.98975969167799
 31
0.0
  0
LINE
  5
33BC
330
1F
100
AcDbEntity
  8
SPOJOVACÍ
  6
Continuous
100
AcDbLine
 10
556.1053827721565
 20
71.02008937569184
 30
0.0
 11
555.8151679270025
 21
68.69930076533631
 31
0.0
  0
LINE
  5
33BD
330
1F
100
AcDbEntity
  8
SPOJOVACÍ
  6
Continuous
100
AcDbLine
 10
556.4746625645142
 20
73.97246735142101
 30
0.0
 11
556.1844477149946
 21
71.65074856535643
 31
0.0
  0
LINE
  5
33BE
330
1F
100
AcDbEntity
  8
SPOJOVACÍ
  6
Continuous
100
AcDbLine
 10
555.3519403805779
 20
64.98975969167799
 30
0.0
 11
554.997543399449
 21
67.82586569294648
 31
0.0
  0
LINE
  5
33BF
330
1F
100
AcDbEntity
  8
SPOJOVACÍ
  6
Continuous
100
AcDbLine
 10
556.7016254597632
 20
75.79003085663129
 30
0.0
 11
556.5518671570401
 21
74.59289460727444
 31
0.0
  0
LINE
  5
33C0
330
1F
100
AcDbEntity
  8
SPOJOVACÍ
  6
Continuous
100
AcDbLine
 10
554.002255297027
 20
76.12675449451484
 30
0.0
 11
554.002255297027
 21
75.79003085663129
 31
0.0
  0
LINE
  5
33C1
330
1F
100
AcDbEntity
  8
SPOJOVACÍ
  6
Continuous
100
AcDbLine
 10
554.002255297027
 20
79.24935464112781
 30
0.0
 11
554.002255297027
 21
76.73043858609884
 31
0.0
  0
LINE
  5
33C2
330
1F
100
AcDbEntity
  8
SPOJOVACÍ
  6
Continuous
100
AcDbLine
 10
556.7016254597632
 20
77.03739659851994
 30
0.0
 11
556.7016254597632
 21
75.79003085663129
 31
0.0
  0
LINE
  5
33C3
330
1F
100
AcDbEntity
  8
SPOJOVACÍ
  6
Continuous
100
AcDbLine
 10
556.7016254597632
 20
80.15162516300183
 30
0.0
 11
556.7016254597632
 21
77.63363928367465
 31
0.0
  0
LINE
  5
33C4
330
1F
100
AcDbEntity
  8
SPOJOVACÍ
  6
Continuous
100
AcDbLine
 10
554.002255297027
 20
82.37102461176977
 30
0.0
 11
554.002255297027
 21
79.85024820506072
 31
0.0
  0
LINE
  5
33C5
330
1F
100
AcDbEntity
  8
SPOJOVACÍ
  6
Continuous
100
AcDbLine
 10
554.002255297027
 20
85.49362475811353
 30
0.0
 11
554.002255297027
 21
82.96540694524441
 31
0.0
  0
LINE
  5
33C6
330
1F
100
AcDbEntity
  8
SPOJOVACÍ
  6
Continuous
100
AcDbLine
 10
554.002255297027
 20
88.60878349829722
 30
0.0
 11
554.002255297027
 21
86.08986744326825
 31
0.0
  0
LINE
  5
33C7
330
1F
100
AcDbEntity
  8
SPOJOVACÍ
  6
Continuous
100
AcDbLine
 10
556.7016254597632
 20
83.28445724315674
 30
0.0
 11
556.7016254597632
 21
80.75623943028762
 31
0.0
  0
LINE
  5
33C8
330
1F
100
AcDbEntity
  8
SPOJOVACÍ
  6
Continuous
100
AcDbLine
 10
556.7016254597632
 20
86.39961598334043
 30
0.0
 11
556.7016254597632
 21
83.87883957663138
 31
0.0
  0
LINE
  5
33C9
330
1F
100
AcDbEntity
  8
SPOJOVACÍ
  6
Continuous
100
AcDbLine
 10
556.7016254597632
 20
89.52221612968418
 30
0.0
 11
556.7016254597632
 21
87.00330007465522
 31
0.0
  0
LINE
  5
33CA
330
1F
100
AcDbEntity
  8
SPOJOVACÍ
  6
Continuous
100
AcDbLine
 10
556.7016254597632
 20
94.15542176854064
 30
0.0
 11
556.7016254597632
 21
90.11752863886062
 31
0.0
  0
LINE
  5
33CB
330
1F
100
AcDbEntity
  8
SPOJOVACÍ
  6
Continuous
100
AcDbLine
 10
554.002255297027
 20
94.15542176854064
 30
0.0
 11
554.002255297027
 21
89.21246758961201
 31
0.0
  0
LINE
  5
33CC
330
1F
100
AcDbEntity
  8
SPOJOVACÍ
  6
Continuous
100
AcDbLine
 10
560.4520942692118
 20
99.55509226289718
 30
0.0
 11
559.102409185661
 21
98.81095162642299
 31
0.0
  0
LINE
  5
33CD
330
1F
100
AcDbEntity
  8
SPOJOVACÍ
  6
Continuous
100
AcDbLine
 10
559.102409185661
 20
98.81095162642299
 30
0.0
 11
557.9917792853024
 21
97.74217963701079
 31
0.0
  0
LINE
  5
33CE
330
1F
100
AcDbEntity
  8
SPOJOVACÍ
  6
Continuous
100
AcDbLine
 10
557.9917792853024
 20
97.74217963701079
 30
0.0
 11
557.1955488059842
 21
96.42319035871327
 31
0.0
  0
LINE
  5
33CF
330
1F
100
AcDbEntity
  8
SPOJOVACÍ
  6
Continuous
100
AcDbLine
 10
557.1955488059842
 20
96.42319035871327
 30
0.0
 11
556.7676679416848
 21
94.94235049166304
 31
0.0
  0
LINE
  5
33D0
330
1F
100
AcDbEntity
  8
SPOJOVACÍ
  6
Continuous
100
AcDbLine
 10
556.7676679416848
 20
94.94235049166304
 30
0.0
 11
556.7016254597632
 21
94.15542176854064
 31
0.0
  0
LINE
  5
33D1
330
1F
100
AcDbEntity
  8
SPOJOVACÍ
  6
Continuous
100
AcDbLine
 10
552.2042254870115
 20
98.30028511457198
 30
0.0
 11
550.9670916781118
 21
99.21836862501363
 31
0.0
  0
LINE
  5
33D2
330
1F
100
AcDbEntity
  8
SPOJOVACÍ
  6
Continuous
100
AcDbLine
 10
550.9670916781118
 20
99.21836862501363
 30
0.0
 11
550.251786491944
 21
99.55509226289718
 31
0.0
  0
LINE
  5
33D3
330
1F
100
AcDbEntity
  8
SPOJOVACÍ
  6
Continuous
100
AcDbLine
 10
560.4520942692118
 20
99.55509226289718
 30
0.0
 11
550.251786491944
 21
99.55509226289718
 31
0.0
  0
LINE
  5
33D4
330
1F
100
AcDbEntity
  8
SPOJOVACÍ
  6
Continuous
100
AcDbLine
 10
560.4520942692118
 20
100.7550190396286
 30
0.0
 11
560.4520942692118
 21
99.55509226289718
 31
0.0
  0
LINE
  5
33D5
330
1F
100
AcDbEntity
  8
SPOJOVACÍ
  6
Continuous
100
AcDbLine
 10
560.4520942692118
 20
100.7550190396286
 30
0.0
 11
550.251786491944
 21
100.7550190396286
 31
0.0
  0
LINE
  5
33D6
330
1F
100
AcDbEntity
  8
SPOJOVACÍ
  6
Continuous
100
AcDbLine
 10
550.251786491944
 20
100.7550190396286
 30
0.0
 11
550.251786491944
 21
99.55509226289718
 31
0.0
  0
LINE
  5
33D7
330
1F
100
AcDbEntity
  8
SPOJOVACÍ
  6
Continuous
100
AcDbLine
 10
554.002255297027
 20
94.15542176854064
 30
0.0
 11
553.7752924061436
 21
95.67904972196988
 31
0.0
  0
LINE
  5
33D8
330
1F
100
AcDbEntity
  8
SPOJOVACÍ
  6
Continuous
100
AcDbLine
 10
553.7752924061436
 20
95.67904972196988
 30
0.0
 11
553.1623065569959
 21
97.09291693167319
 31
0.0
  0
LINE
  5
33D9
330
1F
100
AcDbEntity
  8
SPOJOVACÍ
  6
Continuous
100
AcDbLine
 10
553.1623065569959
 20
97.09291693167319
 30
0.0
 11
552.2042254870115
 21
98.30028511457198
 31
0.0
  0
LWPOLYLINE
  5
33DA
330
1F
100
AcDbEntity
  8
izolace
100
AcDbPolyline
 90
        4
 70
     1
 43
0.0
 10
540.1460992703372
 20
100.7550190396286
 10
535.1460992703372
 20
100.7550190396286
 10
535.1460992703372
 20
88.75501903962907
 10
540.1460992703372
 20
88.75501903962861
  0
LINE
  5
33DB
330
1F
100
AcDbEntity
  8
CETRIS
100
AcDbLine
 10
540.1460992703372
 20
100.755019039629
 30
0.0
 11
640.1382403187902
 21
100.7550190396286
 31
0.0
  0
LINE
  5
33DC
330
1F
100
AcDbEntity
  8
CETRIS
100
AcDbLine
 10
540.1460992703372
 20
88.75501903962907
 30
0.0
 11
637.9280790404894
 21
88.75501903962861
 31
0.0
  0
LINE
  5
33DD
330
1F
100
AcDbEntity
  8
CETRIS
100
AcDbLine
 10
540.1460992703372
 20
88.75501903962907
 30
0.0
 11
540.1460992703372
 21
100.7550190396286
 31
0.0
  0
LINE
  5
33DE
330
1F
100
AcDbEntity
  8
CETRIS
100
AcDbLine
 10
535.1460992703372
 20
88.75501903962907
 30
0.0
 11
535.1460992703372
 21
100.7550190396286
 31
0.0
  0
HATCH
  5
33DF
330
1F
100
AcDbEntity
  8
izolace
100
AcDbHatch
 10
0.0
 20
0.0
 30
0.0
210
0.0
220
0.0
230
1.0
  2
AR-SAND
 70
     0
 71
     0
 91
        2
 92
        7
 72
     0
 73
     1
 93
        4
 10
114.2397660362925
 20
100.7550190396286
 10
109.021721055103
 20
100.7550190396286
 10
109.021721055103
 20
88.75501903962861
 10
114.2397660362925
 20
88.75501903962861
 97
        0
 92
        7
 72
     0
 73
     1
 93
        4
 10
114.2397660362925
 20
37.522764754879
 10
109.021721055103
 20
37.522764754879
 10
109.021721055103
 20
25.522764754879
 10
114.2397660362961
 20
25.522764754879
 97
        0
 75
     0
 76
     1
 52
90.0
 41
0.05
 77
     0
 78
     4
 53
127.5
 43
-25023.28431642831
 44
-1395.636185898462
 45
-2.447066186646711
 46
-0.0800015647992021
 79
     6
 49
0.0
 49
-1.9304
 49
0.0
 49
-2.159
 49
0.0
 49
-2.06375
 53
97.49999999999996
 43
-25023.28431642831
 44
-1395.636185898462
 45
-3.584125502841771
 46
2.247616415690013
 79
     6
 49
0.0
 49
-1.0414
 49
0.0
 49
-1.7399
 49
0.0
 49
-0.6667500000000001
 53
57.5
 43
-25023.28431642831
 44
-1397.198285898462
 45
-0.0071859233927282
 46
3.95496185120729
 79
     6
 49
0.0
 49
-0.635
 49
0.0
 49
-2.286
 49
0.0
 49
-2.9845
 53
47.5
 43
-25023.28431642831
 44
-1397.198285898462
 45
-1.11464661628608
 46
3.817782262361486
 79
     6
 49
0.0
 49
-0.3175
 49
0.0
 49
-1.498599999999999
 49
0.0
 49
-1.7145
 47
0.4414942775221867
 98
        2
 10
111.587610432752
 20
96.26972062600765
 10
112.0293452260715
 20
30.92856233517017
  0
HATCH
  5
33E0
330
1F
100
AcDbEntity
  8
STAVBA OBRYS
100
AcDbHatch
 10
0.0
 20
0.0
 30
0.0
210
0.0
220
0.0
230
1.0
  2
AR-SAND
 70
     0
 71
     0
 91
        1
 92
        7
 72
     0
 73
     1
 93
        4
 10
-89.93827894489971
 20
265.230045697488
 10
-94.93827894490335
 20
265.230045697488
 10
-94.93827894490335
 20
-85.68857023070092
 10
-89.93827894490335
 20
-85.68857023070092
 97
        0
 75
     0
 76
     1
 52
90.0
 41
0.1
 77
     0
 78
     4
 53
127.5
 43
-21723.37060960213
 44
-984.431856310292
 45
-4.894132373293423
 46
-0.1600031295984043
 79
     6
 49
0.0
 49
-3.8608
 49
0.0
 49
-4.318
 49
0.0
 49
-4.1275
 53
97.49999999999994
 43
-21723.37060960213
 44
-984.431856310292
 45
-7.168251005683543
 46
4.495232831380026
 79
     6
 49
0.0
 49
-2.0828
 49
0.0
 49
-3.4798
 49
0.0
 49
-1.3335
 53
57.5
 43
-21723.37060960213
 44
-987.5560563102922
 45
-0.0143718467854564
 46
7.909923702414579
 79
     6
 49
0.0
 49
-1.27
 49
0.0
 49
-4.572
 49
0.0
 49
-5.969
 53
47.5
 43
-21723.37060960213
 44
-987.5560563102922
 45
-2.229293232572161
 46
7.635564524722972
 79
     6
 49
0.0
 49
-0.635
 49
0.0
 49
-2.997199999999999
 49
0.0
 49
-3.429
 47
0.7430834659420257
 98
        1
 10
-92.1302137160552
 20
140.44312859943
  0
HATCH
  5
33E1
330
1F
100
AcDbEntity
  8
STAVBA OBRYS
100
AcDbHatch
 10
0.0
 20
0.0
 30
0.0
210
0.0
220
0.0
230
1.0
  2
AR-CONC
 70
     0
 71
     0
 91
        3
 92
        7
 72
     0
 73
     1
 93
        4
 10
109.021721055103
 20
265.2300456974884
 10
96.52172105510306
 20
265.2300456974884
 10
96.52172105510306
 20
67.020537685546
 10
109.021721055103
 20
67.020537685546
 97
        0
 92
        7
 72
     0
 73
     1
 93
        4
 10
109.0217210551067
 20
59.9696048385967
 10
96.52172105510306
 20
59.96960483859623
 10
96.52172105510306
 20
-85.68857023070092
 10
109.021721055103
 20
-85.68857023070092
 97
        0
 92
        7
 72
     0
 73
     1
 93
        4
 10
-77.43827894490334
 20
265.230045697488
 10
-89.93827894490335
 20
265.230045697488
 10
-89.93827894490335
 20
-85.68857023070092
 10
-77.43827894490334
 20
-85.68857023070092
 97
        0
 75
     0
 76
     1
 52
90.0
 41
0.1
 77
     0
 78
    13
 53
140.0
 43
-21723.37060960213
 44
-984.431856310292
 45
1.593908553890309
 46
18.2184668996004
 79
     2
 49
1.905
 49
-20.955
 53
85.00000000000001
 43
-21723.37060960213
 44
-984.431856310292
 45
-19.10566428821799
 46
-3.524282597566697
 79
     2
 49
1.524
 49
-16.764
 53
190.4509999999999
 43
-21723.23778460213
 44
-982.913656310292
 45
-17.51166878202918
 46
14.69425016659592
 79
     2
 49
1.619
 49
-17.809
 53
136.1841999999999
 43
-21728.45060960213
 44
-984.431856310292
 45
4.204232793272717
 46
27.10790408921299
 79
     2
 49
2.857499999999999
 49
-31.4325
 53
186.6355999999999
 43
-21728.10025960214
 44
-982.1728663102922
 45
-24.74255558900492
 46
23.74042344662371
 79
     2
 49
2.4285
 49
-26.7135
 53
81.18400000000004
 43
-21728.45060960213
 44
-984.431856310292
 45
-24.74251178605976
 46
23.74046058139339
 79
     2
 49
2.286
 49
-25.146
 53
111.0
 43
-21727.18060960213
 44
-981.891856310292
 45
10.22655185167625
 46
15.16148798353833
 79
     2
 49
1.905
 49
-20.955
 53
56.00000000000004
 43
-21727.18060960213
 44
-981.891856310292
 45
-18.41879661223192
 46
6.180202834764708
 79
     2
 49
1.524
 49
-16.764
 53
161.4514
 43
-21726.32839960213
 44
-980.6284063102921
 45
-8.192285771605742
 46
21.34164907701245
 79
     2
 49
1.618999999999998
 49
-17.80899999999998
 53
127.5
 43
-21723.37060960213
 44
-984.431856310292
 45
-8.455503887315311
 46
0.3088603250591822
 79
     6
 49
0.0
 49
-16.5608
 49
0.0
 49
-17.018
 49
0.0
 49
-16.8275
 53
97.49999999999994
 43
-21723.37060960213
 44
-984.431856310292
 45
-10.01805748181195
 46
6.681966251030575
 79
     6
 49
0.0
 49
-9.702799999999999
 49
0.0
 49
-16.1798
 49
0.0
 49
-6.4135
 53
57.5
 43
-21723.37060960213
 44
-990.0960563102922
 45
0.5728743992673473
 46
13.55905951668713
 79
     6
 49
0.0
 49
-6.35
 49
0.0
 49
-19.812
 49
0.0
 49
-26.289
 53
47.5
 43
-21723.37060960213
 44
-992.6360563102921
 45
-2.5426491033333
 46
14.8129181386018
 79
     6
 49
0.0
 49
-8.255
 49
0.0
 49
-13.1572
 49
0.0
 49
-18.669
 47
0.7430834659420257
 98
        3
 10
102.10519635875
 20
132.2246814876284
 10
102.10519635875
 20
32.65148730923959
 10
-84.51055635395698
 20
34.13763164763207
  0
LWPOLYLINE
  5
33E2
330
1F
100
AcDbEntity
  8
izolace
100
AcDbPolyline
 90
        4
 70
     1
 43
0.0
 10
114.2397660362925
 20
100.7550190396286
 10
109.021721055103
 20
100.7550190396286
 10
109.021721055103
 20
88.75501903962861
 10
114.2397660362925
 20
88.75501903962861
  0
LWPOLYLINE
  5
33E3
330
1F
100
AcDbEntity
  8
izolace
100
AcDbPolyline
 90
        4
 70
     1
 43
0.0
 10
114.2397660362925
 20
25.522764754879
 10
109.021721055103
 20
25.522764754879
 10
109.021721055103
 20
37.522764754879
 10
114.2397660362925
 20
37.522764754879
  0
LINE
  5
33E4
330
1F
100
AcDbEntity
  8
STAVBA OBRYS
100
AcDbLine
 10
114.2397660362888
 20
37.522764754879
 30
0.0
 11
107.449356771683
 21
37.522764754879
 31
0.0
  0
LINE
  5
33E5
330
1F
100
AcDbEntity
  8
izolace
  6
IZOLACE
 48
1.5
100
AcDbLine
 10
116.002020149733
 20
63.28001362787148
 30
0.0
 11
633.2360898300261
 21
63.28001362787148
 31
0.0
  0
LINE
  5
33E6
330
1F
100
AcDbEntity
  8
SPOJOVACÍ
  6
Continuous
100
AcDbLine
 10
530.0351457022637
 20
48.42462302283542
 30
0.0
 11
534.0795500618563
 21
49.78454003637756
 31
0.0
  0
LINE
  5
33E7
330
1F
100
AcDbEntity
  8
SPOJOVACÍ
  6
Continuous
100
AcDbLine
 10
530.0351457022637
 20
49.02086570799013
 30
0.0
 11
534.0795500618563
 21
50.38078272153228
 31
0.0
  0
LINE
  5
33E8
330
1F
100
AcDbEntity
  8
SPOJOVACÍ
  6
Continuous
100
AcDbLine
 10
534.4572014328017
 20
50.00313134840411
 30
0.0
 11
534.0795500618563
 21
49.78454003637756
 31
0.0
  0
LINE
  5
33E9
330
1F
100
AcDbEntity
  8
SPOJOVACÍ
  6
Continuous
100
AcDbLine
 10
534.4572014328017
 20
50.00313134840411
 30
0.0
 11
534.0795500618563
 21
50.38078272153228
 31
0.0
  0
LINE
  5
33EA
330
1F
100
AcDbEntity
  8
SPOJOVACÍ
  6
Continuous
100
AcDbLine
 10
529.6574943269527
 20
48.80320457194187
 30
0.0
 11
530.0351457022637
 21
48.42462302283542
 31
0.0
  0
LINE
  5
33EB
330
1F
100
AcDbEntity
  8
SPOJOVACÍ
  6
Continuous
100
AcDbLine
 10
529.6574943269527
 20
48.80320457194187
 30
0.0
 11
530.0351457022637
 21
49.02086570799013
 31
0.0
  0
LINE
  5
33EC
330
1F
100
AcDbEntity
  8
SPOJOVACÍ
  6
Continuous
100
AcDbLine
 10
529.6574943269527
 20
48.80320457194187
 30
0.0
 11
534.4572014328017
 21
50.00313134840411
 31
0.0
  0
LINE
  5
33ED
330
1F
100
AcDbEntity
  8
SPOJOVACÍ
  6
Continuous
100
AcDbLine
 10
530.0351457022637
 20
45.30481340387353
 30
0.0
 11
534.0795500618563
 21
46.66473041741568
 31
0.0
  0
LINE
  5
33EE
330
1F
100
AcDbEntity
  8
SPOJOVACÍ
  6
Continuous
100
AcDbLine
 10
530.0351457022637
 20
45.90105608902098
 30
0.0
 11
534.0795500618563
 21
47.26097310229391
 31
0.0
  0
LINE
  5
33EF
330
1F
100
AcDbEntity
  8
SPOJOVACÍ
  6
Continuous
100
AcDbLine
 10
534.4572014328017
 20
46.88239155346394
 30
0.0
 11
534.0795500618563
 21
46.66473041741568
 31
0.0
  0
LINE
  5
33F0
330
1F
100
AcDbEntity
  8
SPOJOVACÍ
  6
Continuous
100
AcDbLine
 10
534.4572014328017
 20
46.88239155346394
 30
0.0
 11
534.0795500618563
 21
47.26097310229391
 31
0.0
  0
LINE
  5
33F1
330
1F
100
AcDbEntity
  8
SPOJOVACÍ
  6
Continuous
100
AcDbLine
 10
529.6574943269527
 20
45.68246477700171
 30
0.0
 11
530.0351457022637
 21
45.30481340387353
 31
0.0
  0
LINE
  5
33F2
330
1F
100
AcDbEntity
  8
SPOJOVACÍ
  6
Continuous
100
AcDbLine
 10
529.6574943269527
 20
45.68246477700171
 30
0.0
 11
530.0351457022637
 21
45.90105608902098
 31
0.0
  0
LINE
  5
33F3
330
1F
100
AcDbEntity
  8
SPOJOVACÍ
  6
Continuous
100
AcDbLine
 10
529.6574943269527
 20
45.68246477700171
 30
0.0
 11
534.4572014328017
 21
46.88239155346394
 31
0.0
  0
LINE
  5
33F4
330
1F
100
AcDbEntity
  8
SPOJOVACÍ
  6
Continuous
100
AcDbLine
 10
530.0351457022637
 20
42.18500378490438
 30
0.0
 11
534.0795500618563
 21
43.54492079817731
 31
0.0
  0
LINE
  5
33F5
330
1F
100
AcDbEntity
  8
SPOJOVACÍ
  6
Continuous
100
AcDbLine
 10
530.0351457022637
 20
42.7812464700591
 30
0.0
 11
534.0795500618563
 21
44.14116348332476
 31
0.0
  0
LINE
  5
33F6
330
1F
100
AcDbEntity
  8
SPOJOVACÍ
  6
Continuous
100
AcDbLine
 10
534.4572014328017
 20
43.76258193449479
 30
0.0
 11
534.0795500618563
 21
43.54492079817731
 31
0.0
  0
LINE
  5
33F7
330
1F
100
AcDbEntity
  8
SPOJOVACÍ
  6
Continuous
100
AcDbLine
 10
534.4572014328017
 20
43.76258193449479
 30
0.0
 11
534.0795500618563
 21
44.14116348332476
 31
0.0
  0
LINE
  5
33F8
330
1F
100
AcDbEntity
  8
SPOJOVACÍ
  6
Continuous
100
AcDbLine
 10
529.6574943269527
 20
42.56265515803256
 30
0.0
 11
530.0351457022637
 21
42.18500378490438
 31
0.0
  0
LINE
  5
33F9
330
1F
100
AcDbEntity
  8
SPOJOVACÍ
  6
Continuous
100
AcDbLine
 10
529.6574943269527
 20
42.56265515803256
 30
0.0
 11
530.0351457022637
 21
42.7812464700591
 31
0.0
  0
LINE
  5
33FA
330
1F
100
AcDbEntity
  8
SPOJOVACÍ
  6
Continuous
100
AcDbLine
 10
529.6574943269527
 20
42.56265515803256
 30
0.0
 11
534.4572014328017
 21
43.76258193449479
 31
0.0
  0
LINE
  5
33FB
330
1F
100
AcDbEntity
  8
SPOJOVACÍ
  6
Continuous
100
AcDbLine
 10
531.0406657379511
 20
57.90869543687307
 30
0.0
 11
533.1949528794078
 21
58.21937415264705
 31
0.0
  0
LINE
  5
33FC
330
1F
100
AcDbEntity
  8
SPOJOVACÍ
  6
Continuous
100
AcDbLine
 10
531.4183171088965
 20
57.5310440637449
 30
0.0
 11
532.8173015084624
 21
58.00171301632957
 31
0.0
  0
LINE
  5
33FD
330
1F
100
AcDbEntity
  8
SPOJOVACÍ
  6
Continuous
100
AcDbLine
 10
531.4183171088965
 20
58.12728674889235
 30
0.0
 11
532.8173015084624
 21
58.59795570147702
 31
0.0
  0
LINE
  5
33FE
330
1F
100
AcDbEntity
  8
SPOJOVACÍ
  6
Continuous
100
AcDbLine
 10
533.1949528794078
 20
58.21937415264705
 30
0.0
 11
532.8173015084624
 21
58.00171301632957
 31
0.0
  0
LINE
  5
33FF
330
1F
100
AcDbEntity
  8
SPOJOVACÍ
  6
Continuous
100
AcDbLine
 10
533.1949528794078
 20
58.21937415264705
 30
0.0
 11
532.8173015084624
 21
58.59795570147702
 31
0.0
  0
LINE
  5
3400
330
1F
100
AcDbEntity
  8
SPOJOVACÍ
  6
Continuous
100
AcDbLine
 10
531.0406657379511
 20
57.90869543687307
 30
0.0
 11
531.4183171088965
 21
57.5310440637449
 31
0.0
  0
LINE
  5
3401
330
1F
100
AcDbEntity
  8
SPOJOVACÍ
  6
Continuous
100
AcDbLine
 10
531.0406657379511
 20
57.90869543687307
 30
0.0
 11
531.4183171088965
 21
58.12728674889235
 31
0.0
  0
LINE
  5
3402
330
1F
100
AcDbEntity
  8
SPOJOVACÍ
  6
Continuous
100
AcDbLine
 10
530.4760490274796
 20
54.89492585855344
 30
0.0
 11
533.5921379439108
 21
55.52837557532342
 31
0.0
  0
LINE
  5
3403
330
1F
100
AcDbEntity
  8
SPOJOVACÍ
  6
Continuous
100
AcDbLine
 10
530.8537004027906
 20
54.51634430944699
 30
0.0
 11
533.2144865729654
 21
55.31071443927515
 31
0.0
  0
LINE
  5
3404
330
1F
100
AcDbEntity
  8
SPOJOVACÍ
  6
Continuous
100
AcDbLine
 10
530.8537004027906
 20
55.11258699460171
 30
0.0
 11
533.2144865729654
 21
55.90695712415339
 31
0.0
  0
LINE
  5
3405
330
1F
100
AcDbEntity
  8
SPOJOVACÍ
  6
Continuous
100
AcDbLine
 10
533.5921379439108
 20
55.52837557532342
 30
0.0
 11
533.2144865729654
 21
55.31071443927515
 31
0.0
  0
LINE
  5
3406
330
1F
100
AcDbEntity
  8
SPOJOVACÍ
  6
Continuous
100
AcDbLine
 10
533.5921379439108
 20
55.52837557532342
 30
0.0
 11
533.2144865729654
 21
55.90695712415339
 31
0.0
  0
LINE
  5
3407
330
1F
100
AcDbEntity
  8
SPOJOVACÍ
  6
Continuous
100
AcDbLine
 10
530.4760490274796
 20
54.89492585855344
 30
0.0
 11
530.8537004027906
 21
54.51634430944699
 31
0.0
  0
LINE
  5
3408
330
1F
100
AcDbEntity
  8
SPOJOVACÍ
  6
Continuous
100
AcDbLine
 10
530.4760490274796
 20
54.89492585855344
 30
0.0
 11
530.8537004027906
 21
55.11258699460171
 31
0.0
  0
LINE
  5
3409
330
1F
100
AcDbEntity
  8
SPOJOVACÍ
  6
Continuous
100
AcDbLine
 10
529.9114323213737
 20
51.88022610425554
 30
0.0
 11
534.0367619741167
 21
52.85318998656015
 31
0.0
  0
LINE
  5
340A
330
1F
100
AcDbEntity
  8
SPOJOVACÍ
  6
Continuous
100
AcDbLine
 10
530.290013869658
 20
51.50257473112737
 30
0.0
 11
533.6591106031713
 21
52.63552885051189
 31
0.0
  0
LINE
  5
340B
330
1F
100
AcDbEntity
  8
SPOJOVACÍ
  6
Continuous
100
AcDbLine
 10
530.290013869658
 20
52.09881741628208
 30
0.0
 11
533.6591106031713
 21
53.2317715356666
 31
0.0
  0
LINE
  5
340C
330
1F
100
AcDbEntity
  8
SPOJOVACÍ
  6
Continuous
100
AcDbLine
 10
534.0367619741167
 20
52.85318998656015
 30
0.0
 11
533.6591106031713
 21
52.63552885051189
 31
0.0
  0
LINE
  5
340D
330
1F
100
AcDbEntity
  8
SPOJOVACÍ
  6
Continuous
100
AcDbLine
 10
534.0367619741167
 20
52.85318998656015
 30
0.0
 11
533.6591106031713
 21
53.2317715356666
 31
0.0
  0
LINE
  5
340E
330
1F
100
AcDbEntity
  8
SPOJOVACÍ
  6
Continuous
100
AcDbLine
 10
529.9114323213737
 20
51.88022610425554
 30
0.0
 11
530.290013869658
 21
51.50257473112737
 31
0.0
  0
LINE
  5
340F
330
1F
100
AcDbEntity
  8
SPOJOVACÍ
  6
Continuous
100
AcDbLine
 10
529.9114323213737
 20
51.88022610425554
 30
0.0
 11
530.290013869658
 21
52.09881741628208
 31
0.0
  0
LINE
  5
3410
330
1F
100
AcDbEntity
  8
SPOJOVACÍ
  6
Continuous
100
AcDbLine
 10
530.0351457022637
 20
39.06519416566601
 30
0.0
 11
534.0795500618563
 21
40.42418100350636
 31
0.0
  0
LINE
  5
3411
330
1F
100
AcDbEntity
  8
SPOJOVACÍ
  6
Continuous
100
AcDbLine
 10
530.0351457022637
 20
39.66143685082073
 30
0.0
 11
534.0795500618563
 21
41.0204236883846
 31
0.0
  0
LINE
  5
3412
330
1F
100
AcDbEntity
  8
SPOJOVACÍ
  6
Continuous
100
AcDbLine
 10
534.4572014328017
 20
40.6427723155329
 30
0.0
 11
534.0795500618563
 21
40.42418100350636
 31
0.0
  0
LINE
  5
3413
330
1F
100
AcDbEntity
  8
SPOJOVACÍ
  6
Continuous
100
AcDbLine
 10
534.4572014328017
 20
40.6427723155329
 30
0.0
 11
534.0795500618563
 21
41.0204236883846
 31
0.0
  0
LINE
  5
3414
330
1F
100
AcDbEntity
  8
SPOJOVACÍ
  6
Continuous
100
AcDbLine
 10
529.6574943269527
 20
39.44284553879418
 30
0.0
 11
530.0351457022637
 21
39.06519416566601
 31
0.0
  0
LINE
  5
3415
330
1F
100
AcDbEntity
  8
SPOJOVACÍ
  6
Continuous
100
AcDbLine
 10
529.6574943269527
 20
39.44284553879418
 30
0.0
 11
530.0351457022637
 21
39.66143685082073
 31
0.0
  0
LINE
  5
3416
330
1F
100
AcDbEntity
  8
SPOJOVACÍ
  6
Continuous
100
AcDbLine
 10
529.6574943269527
 20
39.44284553879418
 30
0.0
 11
534.4572014328017
 21
40.6427723155329
 31
0.0
  0
LINE
  5
3417
330
1F
100
AcDbEntity
  8
SPOJOVACÍ
  6
Continuous
100
AcDbLine
 10
530.0351457022637
 20
35.94445437100233
 30
0.0
 11
534.0795500618563
 21
37.30437138426799
 31
0.0
  0
LINE
  5
3418
330
1F
100
AcDbEntity
  8
SPOJOVACÍ
  6
Continuous
100
AcDbLine
 10
530.0351457022637
 20
36.54069705588057
 30
0.0
 11
534.0795500618563
 21
37.90061406942271
 31
0.0
  0
LINE
  5
3419
330
1F
100
AcDbEntity
  8
SPOJOVACÍ
  6
Continuous
100
AcDbLine
 10
534.4572014328017
 20
37.52296269629454
 30
0.0
 11
534.0795500618563
 21
37.30437138426799
 31
0.0
  0
LINE
  5
341A
330
1F
100
AcDbEntity
  8
SPOJOVACÍ
  6
Continuous
100
AcDbLine
 10
534.4572014328017
 20
37.52296269629454
 30
0.0
 11
534.0795500618563
 21
37.90061406942271
 31
0.0
  0
LINE
  5
341B
330
1F
100
AcDbEntity
  8
SPOJOVACÍ
  6
Continuous
100
AcDbLine
 10
529.6574943269527
 20
36.3230359198323
 30
0.0
 11
530.0351457022637
 21
35.94445437100233
 31
0.0
  0
LINE
  5
341C
330
1F
100
AcDbEntity
  8
SPOJOVACÍ
  6
Continuous
100
AcDbLine
 10
529.6574943269527
 20
36.3230359198323
 30
0.0
 11
530.0351457022637
 21
36.54069705588057
 31
0.0
  0
LINE
  5
341D
330
1F
100
AcDbEntity
  8
SPOJOVACÍ
  6
Continuous
100
AcDbLine
 10
529.6574943269527
 20
36.3230359198323
 30
0.0
 11
534.4572014328017
 21
37.52296269629454
 31
0.0
  0
LINE
  5
341E
330
1F
100
AcDbEntity
  8
SPOJOVACÍ
  6
Continuous
100
AcDbLine
 10
533.1614665519603
 20
52.45879544916255
 30
0.0
 11
533.4070329634281
 21
50.48775293787634
 31
0.0
  0
LINE
  5
341F
330
1F
100
AcDbEntity
  8
SPOJOVACÍ
  6
Continuous
100
AcDbLine
 10
532.822882559399
 20
55.16560701506108
 30
0.0
 11
533.0898430147366
 21
53.0289932122077
 31
0.0
  0
LINE
  5
3420
330
1F
100
AcDbEntity
  8
SPOJOVACÍ
  6
Continuous
100
AcDbLine
 10
532.48336839823
 20
57.88265051449428
 30
0.0
 11
532.7512590265408
 21
55.73766512950982
 31
0.0
  0
LINE
  5
3421
330
1F
100
AcDbEntity
  8
SPOJOVACÍ
  6
Continuous
100
AcDbLine
 10
531.6713249259786
 20
58.19891028502474
 30
0.0
 11
532.0573478798772
 21
61.28802410282964
 31
0.0
  0
LINE
  5
3422
330
1F
100
AcDbEntity
  8
SPOJOVACÍ
  6
Continuous
100
AcDbLine
 10
531.3039054882986
 20
55.25769441881578
 30
0.0
 11
531.5941203334526
 21
57.57848302917131
 31
0.0
  0
LINE
  5
3423
330
1F
100
AcDbEntity
  8
SPOJOVACÍ
  6
Continuous
100
AcDbLine
 10
530.9346256959409
 20
52.30531644308661
 30
0.0
 11
531.2248405454605
 21
54.6270352291512
 31
0.0
  0
LINE
  5
3424
330
1F
100
AcDbEntity
  8
SPOJOVACÍ
  6
Continuous
100
AcDbLine
 10
532.0573478798772
 20
61.28802410282964
 30
0.0
 11
532.4117448610062
 21
58.45191810156115
 31
0.0
  0
LINE
  5
3425
330
1F
100
AcDbEntity
  8
SPOJOVACÍ
  6
Continuous
100
AcDbLine
 10
530.7076628006919
 20
50.48775293787634
 30
0.0
 11
530.857421103415
 21
51.68488918723318
 31
0.0
  0
LINE
  5
3426
330
1F
100
AcDbEntity
  8
SPOJOVACÍ
  6
Continuous
100
AcDbLine
 10
533.4070329634281
 20
50.15102929999279
 30
0.0
 11
533.4070329634281
 21
50.48775293787634
 31
0.0
  0
LINE
  5
3427
330
1F
100
AcDbEntity
  8
SPOJOVACÍ
  6
Continuous
100
AcDbLine
 10
533.4070329634281
 20
47.02842915337981
 30
0.0
 11
533.4070329634281
 21
49.54734520840879
 31
0.0
  0
LINE
  5
3428
330
1F
100
AcDbEntity
  8
SPOJOVACÍ
  6
Continuous
100
AcDbLine
 10
530.7076628006919
 20
49.24038719598769
 30
0.0
 11
530.7076628006919
 21
50.48775293787634
 31
0.0
  0
LINE
  5
3429
330
1F
100
AcDbEntity
  8
SPOJOVACÍ
  6
Continuous
100
AcDbLine
 10
530.7076628006919
 20
46.1261586315058
 30
0.0
 11
530.7076628006919
 21
48.64414451083297
 31
0.0
  0
LINE
  5
342A
330
1F
100
AcDbEntity
  8
SPOJOVACÍ
  6
Continuous
100
AcDbLine
 10
533.4070329634281
 20
43.90675918273785
 30
0.0
 11
533.4070329634281
 21
46.4275355894469
 31
0.0
  0
LINE
  5
342B
330
1F
100
AcDbEntity
  8
SPOJOVACÍ
  6
Continuous
100
AcDbLine
 10
533.4070329634281
 20
40.7841590363941
 30
0.0
 11
533.4070329634281
 21
43.31237684926321
 31
0.0
  0
LINE
  5
342C
330
1F
100
AcDbEntity
  8
SPOJOVACÍ
  6
Continuous
100
AcDbLine
 10
533.4070329634281
 20
37.66900029621041
 30
0.0
 11
533.4070329634281
 21
40.18791635123938
 31
0.0
  0
LINE
  5
342D
330
1F
100
AcDbEntity
  8
SPOJOVACÍ
  6
Continuous
100
AcDbLine
 10
530.7076628006919
 20
42.99332655135088
 30
0.0
 11
530.7076628006919
 21
45.52154436422
 31
0.0
  0
LINE
  5
342E
330
1F
100
AcDbEntity
  8
SPOJOVACÍ
  6
Continuous
100
AcDbLine
 10
530.7076628006919
 20
39.8781678111672
 30
0.0
 11
530.7076628006919
 21
42.39894421787624
 31
0.0
  0
LINE
  5
342F
330
1F
100
AcDbEntity
  8
SPOJOVACÍ
  6
Continuous
100
AcDbLine
 10
530.7076628006919
 20
36.75556766482344
 30
0.0
 11
530.7076628006919
 21
39.27448371985241
 31
0.0
  0
LINE
  5
3430
330
1F
100
AcDbEntity
  8
SPOJOVACÍ
  6
Continuous
100
AcDbLine
 10
530.7076628006919
 20
32.12236202596699
 30
0.0
 11
530.7076628006919
 21
36.160255155647
 31
0.0
  0
LINE
  5
3431
330
1F
100
AcDbEntity
  8
SPOJOVACÍ
  6
Continuous
100
AcDbLine
 10
533.4070329634281
 20
32.12236202596699
 30
0.0
 11
533.4070329634281
 21
37.06531620489562
 31
0.0
  0
LINE
  5
3432
330
1F
100
AcDbEntity
  8
SPOJOVACÍ
  6
Continuous
100
AcDbLine
 10
526.9571939912433
 20
26.72269153161045
 30
0.0
 11
528.3068790747941
 21
27.46683216808463
 31
0.0
  0
LINE
  5
3433
330
1F
100
AcDbEntity
  8
SPOJOVACÍ
  6
Continuous
100
AcDbLine
 10
528.3068790747941
 20
27.46683216808463
 30
0.0
 11
529.4175089751528
 21
28.53560415749683
 31
0.0
  0
LINE
  5
3434
330
1F
100
AcDbEntity
  8
SPOJOVACÍ
  6
Continuous
100
AcDbLine
 10
529.4175089751528
 20
28.53560415749683
 30
0.0
 11
530.2137394544709
 21
29.85459343579435
 31
0.0
  0
LINE
  5
3435
330
1F
100
AcDbEntity
  8
SPOJOVACÍ
  6
Continuous
100
AcDbLine
 10
530.2137394544709
 20
29.85459343579435
 30
0.0
 11
530.6416203187703
 21
31.33543330284459
 31
0.0
  0
LINE
  5
3436
330
1F
100
AcDbEntity
  8
SPOJOVACÍ
  6
Continuous
100
AcDbLine
 10
530.6416203187703
 20
31.33543330284459
 30
0.0
 11
530.7076628006919
 21
32.12236202596699
 31
0.0
  0
LINE
  5
3437
330
1F
100
AcDbEntity
  8
SPOJOVACÍ
  6
Continuous
100
AcDbLine
 10
535.2050627734437
 20
27.97749867993565
 30
0.0
 11
536.4421965823433
 21
27.059415169494
 31
0.0
  0
LINE
  5
3438
330
1F
100
AcDbEntity
  8
SPOJOVACÍ
  6
Continuous
100
AcDbLine
 10
536.4421965823433
 20
27.059415169494
 30
0.0
 11
537.1575017685112
 21
26.72269153161045
 31
0.0
  0
LINE
  5
3439
330
1F
100
AcDbEntity
  8
SPOJOVACÍ
  6
Continuous
100
AcDbLine
 10
526.9571939912433
 20
26.72269153161045
 30
0.0
 11
537.1575017685112
 21
26.72269153161045
 31
0.0
  0
LINE
  5
343A
330
1F
100
AcDbEntity
  8
SPOJOVACÍ
  6
Continuous
100
AcDbLine
 10
526.9571939912433
 20
25.522764754879
 30
0.0
 11
526.9571939912433
 21
26.72269153161045
 31
0.0
  0
LINE
  5
343B
330
1F
100
AcDbEntity
  8
SPOJOVACÍ
  6
Continuous
100
AcDbLine
 10
526.9571939912433
 20
25.522764754879
 30
0.0
 11
537.1575017685112
 21
25.522764754879
 31
0.0
  0
LINE
  5
343C
330
1F
100
AcDbEntity
  8
SPOJOVACÍ
  6
Continuous
100
AcDbLine
 10
537.1575017685112
 20
25.522764754879
 30
0.0
 11
537.1575017685112
 21
26.72269153161045
 31
0.0
  0
LINE
  5
343D
330
1F
100
AcDbEntity
  8
SPOJOVACÍ
  6
Continuous
100
AcDbLine
 10
533.4070329634281
 20
32.12236202596699
 30
0.0
 11
533.6339958543115
 21
30.59873407253775
 31
0.0
  0
LINE
  5
343E
330
1F
100
AcDbEntity
  8
SPOJOVACÍ
  6
Continuous
100
AcDbLine
 10
533.6339958543115
 20
30.59873407253775
 30
0.0
 11
534.2469817034592
 21
29.18486686283443
 31
0.0
  0
LINE
  5
343F
330
1F
100
AcDbEntity
  8
SPOJOVACÍ
  6
Continuous
100
AcDbLine
 10
534.2469817034592
 20
29.18486686283443
 30
0.0
 11
535.2050627734437
 21
27.97749867993565
 31
0.0
  0
LINE
  5
3440
330
1F
100
AcDbEntity
  8
SPOJOVACÍ
  6
Continuous
100
AcDbLine
 10
522.1298919836784
 20
97.09291693167319
 30
0.0
 11
523.0879730536629
 21
98.30028511457198
 31
0.0
  0
LINE
  5
3441
330
1F
100
AcDbEntity
  8
SPOJOVACÍ
  6
Continuous
100
AcDbLine
 10
521.5169061345307
 20
95.67904972196988
 30
0.0
 11
522.1298919836784
 21
97.09291693167319
 31
0.0
  0
LINE
  5
3442
330
1F
100
AcDbEntity
  8
SPOJOVACÍ
  6
Continuous
100
AcDbLine
 10
521.2899432436473
 20
94.15542176854064
 30
0.0
 11
521.5169061345307
 21
95.67904972196988
 31
0.0
  0
LINE
  5
3443
330
1F
100
AcDbEntity
  8
SPOJOVACÍ
  6
Continuous
100
AcDbLine
 10
525.0404120487304
 20
100.7550190396286
 30
0.0
 11
525.0404120487304
 21
99.55509226289718
 31
0.0
  0
LINE
  5
3444
330
1F
100
AcDbEntity
  8
SPOJOVACÍ
  6
Continuous
100
AcDbLine
 10
514.8401042714625
 20
100.7550190396286
 30
0.0
 11
525.0404120487304
 21
100.7550190396286
 31
0.0
  0
LINE
  5
3445
330
1F
100
AcDbEntity
  8
SPOJOVACÍ
  6
Continuous
100
AcDbLine
 10
514.8401042714625
 20
100.7550190396286
 30
0.0
 11
514.8401042714625
 21
99.55509226289718
 31
0.0
  0
LINE
  5
3446
330
1F
100
AcDbEntity
  8
SPOJOVACÍ
  6
Continuous
100
AcDbLine
 10
514.8401042714625
 20
99.55509226289718
 30
0.0
 11
525.0404120487304
 21
99.55509226289718
 31
0.0
  0
LINE
  5
3447
330
1F
100
AcDbEntity
  8
SPOJOVACÍ
  6
Continuous
100
AcDbLine
 10
524.3251068625625
 20
99.21836862501363
 30
0.0
 11
525.0404120487304
 21
99.55509226289718
 31
0.0
  0
LINE
  5
3448
330
1F
100
AcDbEntity
  8
SPOJOVACÍ
  6
Continuous
100
AcDbLine
 10
523.0879730536629
 20
98.30028511457198
 30
0.0
 11
524.3251068625625
 21
99.21836862501363
 31
0.0
  0
LINE
  5
3449
330
1F
100
AcDbEntity
  8
SPOJOVACÍ
  6
Continuous
100
AcDbLine
 10
518.5245305989895
 20
94.94235049166304
 30
0.0
 11
518.5905730809111
 21
94.15542176854064
 31
0.0
  0
LINE
  5
344A
330
1F
100
AcDbEntity
  8
SPOJOVACÍ
  6
Continuous
100
AcDbLine
 10
518.0966497346902
 20
96.42319035871327
 30
0.0
 11
518.5245305989895
 21
94.94235049166304
 31
0.0
  0
LINE
  5
344B
330
1F
100
AcDbEntity
  8
SPOJOVACÍ
  6
Continuous
100
AcDbLine
 10
517.300419255372
 20
97.74217963701079
 30
0.0
 11
518.0966497346902
 21
96.42319035871327
 31
0.0
  0
LINE
  5
344C
330
1F
100
AcDbEntity
  8
SPOJOVACÍ
  6
Continuous
100
AcDbLine
 10
516.1897893550134
 20
98.81095162642299
 30
0.0
 11
517.300419255372
 21
97.74217963701079
 31
0.0
  0
LINE
  5
344D
330
1F
100
AcDbEntity
  8
SPOJOVACÍ
  6
Continuous
100
AcDbLine
 10
514.8401042714625
 20
99.55509226289718
 30
0.0
 11
516.1897893550134
 21
98.81095162642299
 31
0.0
  0
LINE
  5
344E
330
1F
100
AcDbEntity
  8
SPOJOVACÍ
  6
Continuous
100
AcDbLine
 10
521.2899432436473
 20
94.15542176854064
 30
0.0
 11
521.2899432436473
 21
89.21246758961201
 31
0.0
  0
LINE
  5
344F
330
1F
100
AcDbEntity
  8
SPOJOVACÍ
  6
Continuous
100
AcDbLine
 10
518.5905730809111
 20
94.15542176854064
 30
0.0
 11
518.5905730809111
 21
90.11752863886062
 31
0.0
  0
LINE
  5
3450
330
1F
100
AcDbEntity
  8
SPOJOVACÍ
  6
Continuous
100
AcDbLine
 10
518.5905730809111
 20
89.52221612968418
 30
0.0
 11
518.5905730809111
 21
87.00330007465522
 31
0.0
  0
LINE
  5
3451
330
1F
100
AcDbEntity
  8
SPOJOVACÍ
  6
Continuous
100
AcDbLine
 10
518.5905730809111
 20
86.39961598334043
 30
0.0
 11
518.5905730809111
 21
83.87883957663138
 31
0.0
  0
LINE
  5
3452
330
1F
100
AcDbEntity
  8
SPOJOVACÍ
  6
Continuous
100
AcDbLine
 10
518.5905730809111
 20
83.28445724315674
 30
0.0
 11
518.5905730809111
 21
80.75623943028762
 31
0.0
  0
LINE
  5
3453
330
1F
100
AcDbEntity
  8
SPOJOVACÍ
  6
Continuous
100
AcDbLine
 10
521.2899432436473
 20
88.60878349829722
 30
0.0
 11
521.2899432436473
 21
86.08986744326825
 31
0.0
  0
LINE
  5
3454
330
1F
100
AcDbEntity
  8
SPOJOVACÍ
  6
Continuous
100
AcDbLine
 10
521.2899432436473
 20
85.49362475811353
 30
0.0
 11
521.2899432436473
 21
82.96540694524441
 31
0.0
  0
LINE
  5
3455
330
1F
100
AcDbEntity
  8
SPOJOVACÍ
  6
Continuous
100
AcDbLine
 10
521.2899432436473
 20
82.37102461176977
 30
0.0
 11
521.2899432436473
 21
79.85024820506072
 31
0.0
  0
LINE
  5
3456
330
1F
100
AcDbEntity
  8
SPOJOVACÍ
  6
Continuous
100
AcDbLine
 10
518.5905730809111
 20
80.15162516300183
 30
0.0
 11
518.5905730809111
 21
77.63363928367465
 31
0.0
  0
LINE
  5
3457
330
1F
100
AcDbEntity
  8
SPOJOVACÍ
  6
Continuous
100
AcDbLine
 10
518.5905730809111
 20
77.03739659851994
 30
0.0
 11
518.5905730809111
 21
75.79003085663129
 31
0.0
  0
LINE
  5
3458
330
1F
100
AcDbEntity
  8
SPOJOVACÍ
  6
Continuous
100
AcDbLine
 10
521.2899432436473
 20
79.24935464112781
 30
0.0
 11
521.2899432436473
 21
76.73043858609884
 31
0.0
  0
LINE
  5
3459
330
1F
100
AcDbEntity
  8
SPOJOVACÍ
  6
Continuous
100
AcDbLine
 10
521.2899432436473
 20
76.12675449451484
 30
0.0
 11
521.2899432436473
 21
75.79003085663129
 31
0.0
  0
LINE
  5
345A
330
1F
100
AcDbEntity
  8
SPOJOVACÍ
  6
Continuous
100
AcDbLine
 10
518.5905730809111
 20
75.79003085663129
 30
0.0
 11
518.7403313836342
 21
74.59289460727444
 31
0.0
  0
LINE
  5
345B
330
1F
100
AcDbEntity
  8
SPOJOVACÍ
  6
Continuous
100
AcDbLine
 10
519.9402581600964
 20
64.98975969167799
 30
0.0
 11
520.2946551412254
 21
67.82586569294648
 31
0.0
  0
LINE
  5
345C
330
1F
100
AcDbEntity
  8
SPOJOVACÍ
  6
Continuous
100
AcDbLine
 10
518.8175359761602
 20
73.97246735142101
 30
0.0
 11
519.1077508256797
 21
71.65074856535643
 31
0.0
  0
LINE
  5
345D
330
1F
100
AcDbEntity
  8
SPOJOVACÍ
  6
Continuous
100
AcDbLine
 10
519.1868157685179
 20
71.02008937569184
 30
0.0
 11
519.4770306136718
 21
68.69930076533631
 31
0.0
  0
LINE
  5
345E
330
1F
100
AcDbEntity
  8
SPOJOVACÍ
  6
Continuous
100
AcDbLine
 10
519.5542352061978
 20
68.07887350948289
 30
0.0
 11
519.9402581600964
 21
64.98975969167799
 31
0.0
  0
LINE
  5
345F
330
1F
100
AcDbEntity
  8
SPOJOVACÍ
  6
Continuous
100
AcDbLine
 10
520.3662786784492
 20
68.39513328001334
 30
0.0
 11
520.63416930676
 21
70.54011866499781
 31
0.0
  0
LINE
  5
3460
330
1F
100
AcDbEntity
  8
SPOJOVACÍ
  6
Continuous
100
AcDbLine
 10
520.7057928396182
 20
71.11217677944654
 30
0.0
 11
520.9727532949558
 21
73.24879058229993
 31
0.0
  0
LINE
  5
3461
330
1F
100
AcDbEntity
  8
SPOJOVACÍ
  6
Continuous
100
AcDbLine
 10
521.0443768321796
 20
73.81898834534507
 30
0.0
 11
521.2899432436473
 21
75.79003085663129
 31
0.0
  0
LINE
  5
3462
330
1F
100
AcDbEntity
  8
SPOJOVACÍ
  6
Continuous
100
AcDbLine
 10
517.540404607172
 20
89.95474787467532
 30
0.0
 11
522.3401117130209
 21
88.75482109821309
 31
0.0
  0
LINE
  5
3463
330
1F
100
AcDbEntity
  8
SPOJOVACÍ
  6
Continuous
100
AcDbLine
 10
517.540404607172
 20
89.95474787467532
 30
0.0
 11
517.9180559824829
 21
89.73708673862706
 31
0.0
  0
LINE
  5
3464
330
1F
100
AcDbEntity
  8
SPOJOVACÍ
  6
Continuous
100
AcDbLine
 10
517.540404607172
 20
89.95474787467532
 30
0.0
 11
517.9180559824829
 21
90.33332942350529
 31
0.0
  0
LINE
  5
3465
330
1F
100
AcDbEntity
  8
SPOJOVACÍ
  6
Continuous
100
AcDbLine
 10
522.3401117130209
 20
88.75482109821309
 30
0.0
 11
521.9624603420755
 21
88.37716972508491
 31
0.0
  0
LINE
  5
3466
330
1F
100
AcDbEntity
  8
SPOJOVACÍ
  6
Continuous
100
AcDbLine
 10
522.3401117130209
 20
88.75482109821309
 30
0.0
 11
521.9624603420755
 21
88.97341241023964
 31
0.0
  0
LINE
  5
3467
330
1F
100
AcDbEntity
  8
SPOJOVACÍ
  6
Continuous
100
AcDbLine
 10
517.9180559824829
 20
89.73708673862706
 30
0.0
 11
521.9624603420755
 21
88.37716972508491
 31
0.0
  0
LINE
  5
3468
330
1F
100
AcDbEntity
  8
SPOJOVACÍ
  6
Continuous
100
AcDbLine
 10
517.9180559824829
 20
90.33332942350529
 30
0.0
 11
521.9624603420755
 21
88.97341241023964
 31
0.0
  0
LINE
  5
3469
330
1F
100
AcDbEntity
  8
SPOJOVACÍ
  6
Continuous
100
AcDbLine
 10
517.540404607172
 20
86.83493825571344
 30
0.0
 11
522.3401117130209
 21
85.63501147897472
 31
0.0
  0
LINE
  5
346A
330
1F
100
AcDbEntity
  8
SPOJOVACÍ
  6
Continuous
100
AcDbLine
 10
517.540404607172
 20
86.83493825571344
 30
0.0
 11
517.9180559824829
 21
86.61634694368689
 31
0.0
  0
LINE
  5
346B
330
1F
100
AcDbEntity
  8
SPOJOVACÍ
  6
Continuous
100
AcDbLine
 10
517.540404607172
 20
86.83493825571344
 30
0.0
 11
517.9180559824829
 21
87.21258962884162
 31
0.0
  0
LINE
  5
346C
330
1F
100
AcDbEntity
  8
SPOJOVACÍ
  6
Continuous
100
AcDbLine
 10
522.3401117130209
 20
85.63501147897472
 30
0.0
 11
521.9624603420755
 21
85.25736010612304
 31
0.0
  0
LINE
  5
346D
330
1F
100
AcDbEntity
  8
SPOJOVACÍ
  6
Continuous
100
AcDbLine
 10
522.3401117130209
 20
85.63501147897472
 30
0.0
 11
521.9624603420755
 21
85.85360279100127
 31
0.0
  0
LINE
  5
346E
330
1F
100
AcDbEntity
  8
SPOJOVACÍ
  6
Continuous
100
AcDbLine
 10
517.9180559824829
 20
86.61634694368689
 30
0.0
 11
521.9624603420755
 21
85.25736010612304
 31
0.0
  0
LINE
  5
346F
330
1F
100
AcDbEntity
  8
SPOJOVACÍ
  6
Continuous
100
AcDbLine
 10
517.9180559824829
 20
87.21258962884162
 30
0.0
 11
521.9624603420755
 21
85.85360279100127
 31
0.0
  0
LINE
  5
3470
330
1F
100
AcDbEntity
  8
SPOJOVACÍ
  6
Continuous
100
AcDbLine
 10
517.794342601593
 20
74.39755769025208
 30
0.0
 11
518.1729241498772
 21
74.17896637822554
 31
0.0
  0
LINE
  5
3471
330
1F
100
AcDbEntity
  8
SPOJOVACÍ
  6
Continuous
100
AcDbLine
 10
517.794342601593
 20
74.39755769025208
 30
0.0
 11
518.1729241498772
 21
74.77520906338026
 31
0.0
  0
LINE
  5
3472
330
1F
100
AcDbEntity
  8
SPOJOVACÍ
  6
Continuous
100
AcDbLine
 10
521.9196722543359
 20
73.42459380794747
 30
0.0
 11
521.5420208833905
 21
73.04601225884102
 31
0.0
  0
LINE
  5
3473
330
1F
100
AcDbEntity
  8
SPOJOVACÍ
  6
Continuous
100
AcDbLine
 10
521.9196722543359
 20
73.42459380794747
 30
0.0
 11
521.5420208833905
 21
73.64225494399573
 31
0.0
  0
LINE
  5
3474
330
1F
100
AcDbEntity
  8
SPOJOVACÍ
  6
Continuous
100
AcDbLine
 10
518.1729241498772
 20
74.17896637822554
 30
0.0
 11
521.5420208833905
 21
73.04601225884102
 31
0.0
  0
LINE
  5
3475
330
1F
100
AcDbEntity
  8
SPOJOVACÍ
  6
Continuous
100
AcDbLine
 10
518.1729241498772
 20
74.77520906338026
 30
0.0
 11
521.5420208833905
 21
73.64225494399573
 31
0.0
  0
LINE
  5
3476
330
1F
100
AcDbEntity
  8
SPOJOVACÍ
  6
Continuous
100
AcDbLine
 10
517.794342601593
 20
74.39755769025208
 30
0.0
 11
521.9196722543359
 21
73.42459380794747
 31
0.0
  0
LINE
  5
3477
330
1F
100
AcDbEntity
  8
SPOJOVACÍ
  6
Continuous
100
AcDbLine
 10
518.3589593076988
 20
71.38285793595418
 30
0.0
 11
518.7366106830098
 21
71.16519679990592
 31
0.0
  0
LINE
  5
3478
330
1F
100
AcDbEntity
  8
SPOJOVACÍ
  6
Continuous
100
AcDbLine
 10
518.3589593076988
 20
71.38285793595418
 30
0.0
 11
518.7366106830098
 21
71.76143948506063
 31
0.0
  0
LINE
  5
3479
330
1F
100
AcDbEntity
  8
SPOJOVACÍ
  6
Continuous
100
AcDbLine
 10
521.47504822413
 20
70.74940821918421
 30
0.0
 11
521.0973968531846
 21
70.37082667035424
 31
0.0
  0
LINE
  5
347A
330
1F
100
AcDbEntity
  8
SPOJOVACÍ
  6
Continuous
100
AcDbLine
 10
521.47504822413
 20
70.74940821918421
 30
0.0
 11
521.0973968531846
 21
70.96706935523247
 31
0.0
  0
LINE
  5
347B
330
1F
100
AcDbEntity
  8
SPOJOVACÍ
  6
Continuous
100
AcDbLine
 10
518.7366106830098
 20
71.16519679990592
 30
0.0
 11
521.0973968531846
 21
70.37082667035424
 31
0.0
  0
LINE
  5
347C
330
1F
100
AcDbEntity
  8
SPOJOVACÍ
  6
Continuous
100
AcDbLine
 10
518.7366106830098
 20
71.76143948506063
 30
0.0
 11
521.0973968531846
 21
70.96706935523247
 31
0.0
  0
LINE
  5
347D
330
1F
100
AcDbEntity
  8
SPOJOVACÍ
  6
Continuous
100
AcDbLine
 10
518.3589593076988
 20
71.38285793595418
 30
0.0
 11
521.47504822413
 21
70.74940821918421
 31
0.0
  0
LINE
  5
347E
330
1F
100
AcDbEntity
  8
SPOJOVACÍ
  6
Continuous
100
AcDbLine
 10
518.9235760181703
 20
68.36908835763455
 30
0.0
 11
519.3012273891157
 21
68.15049704561528
 31
0.0
  0
LINE
  5
347F
330
1F
100
AcDbEntity
  8
SPOJOVACÍ
  6
Continuous
100
AcDbLine
 10
518.9235760181703
 20
68.36908835763455
 30
0.0
 11
519.3012273891157
 21
68.74673973076273
 31
0.0
  0
LINE
  5
3480
330
1F
100
AcDbEntity
  8
SPOJOVACÍ
  6
Continuous
100
AcDbLine
 10
521.077863159627
 20
68.05840964186057
 30
0.0
 11
520.7002117886816
 21
67.6798280930306
 31
0.0
  0
LINE
  5
3481
330
1F
100
AcDbEntity
  8
SPOJOVACÍ
  6
Continuous
100
AcDbLine
 10
521.077863159627
 20
68.05840964186057
 30
0.0
 11
520.7002117886816
 21
68.27607077817805
 31
0.0
  0
LINE
  5
3482
330
1F
100
AcDbEntity
  8
SPOJOVACÍ
  6
Continuous
100
AcDbLine
 10
519.3012273891157
 20
68.15049704561528
 30
0.0
 11
520.7002117886816
 21
67.6798280930306
 31
0.0
  0
LINE
  5
3483
330
1F
100
AcDbEntity
  8
SPOJOVACÍ
  6
Continuous
100
AcDbLine
 10
519.3012273891157
 20
68.74673973076273
 30
0.0
 11
520.7002117886816
 21
68.27607077817805
 31
0.0
  0
LINE
  5
3484
330
1F
100
AcDbEntity
  8
SPOJOVACÍ
  6
Continuous
100
AcDbLine
 10
518.9235760181703
 20
68.36908835763455
 30
0.0
 11
521.077863159627
 21
68.05840964186057
 31
0.0
  0
LINE
  5
3485
330
1F
100
AcDbEntity
  8
SPOJOVACÍ
  6
Continuous
100
AcDbLine
 10
517.540404607172
 20
83.71512863647508
 30
0.0
 11
522.3401117130209
 21
82.51520186001284
 31
0.0
  0
LINE
  5
3486
330
1F
100
AcDbEntity
  8
SPOJOVACÍ
  6
Continuous
100
AcDbLine
 10
517.540404607172
 20
83.71512863647508
 30
0.0
 11
517.9180559824829
 21
83.49653732444853
 31
0.0
  0
LINE
  5
3487
330
1F
100
AcDbEntity
  8
SPOJOVACÍ
  6
Continuous
100
AcDbLine
 10
517.540404607172
 20
83.71512863647508
 30
0.0
 11
517.9180559824829
 21
84.09278000960325
 31
0.0
  0
LINE
  5
3488
330
1F
100
AcDbEntity
  8
SPOJOVACÍ
  6
Continuous
100
AcDbLine
 10
522.3401117130209
 20
82.51520186001284
 30
0.0
 11
521.9624603420755
 21
82.13662031118287
 31
0.0
  0
LINE
  5
3489
330
1F
100
AcDbEntity
  8
SPOJOVACÍ
  6
Continuous
100
AcDbLine
 10
522.3401117130209
 20
82.51520186001284
 30
0.0
 11
521.9624603420755
 21
82.73286299633031
 31
0.0
  0
LINE
  5
348A
330
1F
100
AcDbEntity
  8
SPOJOVACÍ
  6
Continuous
100
AcDbLine
 10
517.9180559824829
 20
83.49653732444853
 30
0.0
 11
521.9624603420755
 21
82.13662031118287
 31
0.0
  0
LINE
  5
348B
330
1F
100
AcDbEntity
  8
SPOJOVACÍ
  6
Continuous
100
AcDbLine
 10
517.9180559824829
 20
84.09278000960325
 30
0.0
 11
521.9624603420755
 21
82.73286299633031
 31
0.0
  0
LINE
  5
348C
330
1F
100
AcDbEntity
  8
SPOJOVACÍ
  6
Continuous
100
AcDbLine
 10
517.540404607172
 20
80.59531901750592
 30
0.0
 11
522.3401117130209
 21
79.39539224104368
 31
0.0
  0
LINE
  5
348D
330
1F
100
AcDbEntity
  8
SPOJOVACÍ
  6
Continuous
100
AcDbLine
 10
517.540404607172
 20
80.59531901750592
 30
0.0
 11
517.9180559824829
 21
80.37672770548665
 31
0.0
  0
LINE
  5
348E
330
1F
100
AcDbEntity
  8
SPOJOVACÍ
  6
Continuous
100
AcDbLine
 10
517.540404607172
 20
80.59531901750592
 30
0.0
 11
517.9180559824829
 21
80.97297039063409
 31
0.0
  0
LINE
  5
348F
330
1F
100
AcDbEntity
  8
SPOJOVACÍ
  6
Continuous
100
AcDbLine
 10
522.3401117130209
 20
79.39539224104368
 30
0.0
 11
521.9624603420755
 21
79.01681069221371
 31
0.0
  0
LINE
  5
3490
330
1F
100
AcDbEntity
  8
SPOJOVACÍ
  6
Continuous
100
AcDbLine
 10
522.3401117130209
 20
79.39539224104368
 30
0.0
 11
521.9624603420755
 21
79.61305337709195
 31
0.0
  0
LINE
  5
3491
330
1F
100
AcDbEntity
  8
SPOJOVACÍ
  6
Continuous
100
AcDbLine
 10
517.9180559824829
 20
80.37672770548665
 30
0.0
 11
521.9624603420755
 21
79.01681069221371
 31
0.0
  0
LINE
  5
3492
330
1F
100
AcDbEntity
  8
SPOJOVACÍ
  6
Continuous
100
AcDbLine
 10
517.9180559824829
 20
80.97297039063409
 30
0.0
 11
521.9624603420755
 21
79.61305337709195
 31
0.0
  0
LINE
  5
3493
330
1F
100
AcDbEntity
  8
SPOJOVACÍ
  6
Continuous
100
AcDbLine
 10
517.540404607172
 20
77.47457922256575
 30
0.0
 11
522.3401117130209
 21
76.27465244610352
 31
0.0
  0
LINE
  5
3494
330
1F
100
AcDbEntity
  8
SPOJOVACÍ
  6
Continuous
100
AcDbLine
 10
517.540404607172
 20
77.47457922256575
 30
0.0
 11
517.9180559824829
 21
77.25691808651749
 31
0.0
  0
LINE
  5
3495
330
1F
100
AcDbEntity
  8
SPOJOVACÍ
  6
Continuous
100
AcDbLine
 10
517.540404607172
 20
77.47457922256575
 30
0.0
 11
517.9180559824829
 21
77.8531607716722
 31
0.0
  0
LINE
  5
3496
330
1F
100
AcDbEntity
  8
SPOJOVACÍ
  6
Continuous
100
AcDbLine
 10
522.3401117130209
 20
76.27465244610352
 30
0.0
 11
521.9624603420755
 21
75.89700107297534
 31
0.0
  0
LINE
  5
3497
330
1F
100
AcDbEntity
  8
SPOJOVACÍ
  6
Continuous
100
AcDbLine
 10
522.3401117130209
 20
76.27465244610352
 30
0.0
 11
521.9624603420755
 21
76.49324375813006
 31
0.0
  0
LINE
  5
3498
330
1F
100
AcDbEntity
  8
SPOJOVACÍ
  6
Continuous
100
AcDbLine
 10
517.9180559824829
 20
77.25691808651749
 30
0.0
 11
521.9624603420755
 21
75.89700107297534
 31
0.0
  0
LINE
  5
3499
330
1F
100
AcDbEntity
  8
SPOJOVACÍ
  6
Continuous
100
AcDbLine
 10
517.9180559824829
 20
77.8531607716722
 30
0.0
 11
521.9624603420755
 21
76.49324375813006
 31
0.0
  0
LINE
  5
349A
330
1F
100
AcDbEntity
  8
NOSNÉ KONSTRUKCE
100
AcDbLine
 10
114.3128410471703
 20
43.31080124370823
 30
0.0
 11
629.5581581658929
 21
43.31080124370823
 31
0.0
  0
LINE
  5
349B
330
1F
100
AcDbEntity
  8
NOSNÉ KONSTRUKCE
100
AcDbLine
 10
114.3128410471703
 20
82.66445768425587
 30
0.0
 11
636.8063188012614
 21
82.66445768425587
 31
0.0
  0
LINE
  5
349C
330
1F
100
AcDbEntity
  8
SPOJOVACÍ
  6
Continuous
100
AcDbLine
 10
142.6683260069561
 20
77.8531607716722
 30
0.0
 11
146.7127303665487
 21
76.49324375813006
 31
0.0
  0
LINE
  5
349D
330
1F
100
AcDbEntity
  8
SPOJOVACÍ
  6
Continuous
100
AcDbLine
 10
142.6683260069561
 20
77.25691808651749
 30
0.0
 11
146.7127303665487
 21
75.89700107297534
 31
0.0
  0
LINE
  5
349E
330
1F
100
AcDbEntity
  8
SPOJOVACÍ
  6
Continuous
100
AcDbLine
 10
147.0903817374941
 20
76.27465244610352
 30
0.0
 11
146.7127303665487
 21
76.49324375813006
 31
0.0
  0
LINE
  5
349F
330
1F
100
AcDbEntity
  8
SPOJOVACÍ
  6
Continuous
100
AcDbLine
 10
147.0903817374941
 20
76.27465244610352
 30
0.0
 11
146.7127303665487
 21
75.89700107297534
 31
0.0
  0
LINE
  5
34A0
330
1F
100
AcDbEntity
  8
SPOJOVACÍ
  6
Continuous
100
AcDbLine
 10
142.2906746316451
 20
77.47457922256575
 30
0.0
 11
142.6683260069561
 21
77.8531607716722
 31
0.0
  0
LINE
  5
34A1
330
1F
100
AcDbEntity
  8
SPOJOVACÍ
  6
Continuous
100
AcDbLine
 10
142.2906746316451
 20
77.47457922256575
 30
0.0
 11
142.6683260069561
 21
77.25691808651749
 31
0.0
  0
LINE
  5
34A2
330
1F
100
AcDbEntity
  8
SPOJOVACÍ
  6
Continuous
100
AcDbLine
 10
142.2906746316451
 20
77.47457922256575
 30
0.0
 11
147.0903817374941
 21
76.27465244610352
 31
0.0
  0
LINE
  5
34A3
330
1F
100
AcDbEntity
  8
SPOJOVACÍ
  6
Continuous
100
AcDbLine
 10
142.6683260069561
 20
80.97297039063409
 30
0.0
 11
146.7127303665487
 21
79.61305337709195
 31
0.0
  0
LINE
  5
34A4
330
1F
100
AcDbEntity
  8
SPOJOVACÍ
  6
Continuous
100
AcDbLine
 10
142.6683260069561
 20
80.37672770548665
 30
0.0
 11
146.7127303665487
 21
79.01681069221371
 31
0.0
  0
LINE
  5
34A5
330
1F
100
AcDbEntity
  8
SPOJOVACÍ
  6
Continuous
100
AcDbLine
 10
147.0903817374941
 20
79.39539224104368
 30
0.0
 11
146.7127303665487
 21
79.61305337709195
 31
0.0
  0
LINE
  5
34A6
330
1F
100
AcDbEntity
  8
SPOJOVACÍ
  6
Continuous
100
AcDbLine
 10
147.0903817374941
 20
79.39539224104368
 30
0.0
 11
146.7127303665487
 21
79.01681069221371
 31
0.0
  0
LINE
  5
34A7
330
1F
100
AcDbEntity
  8
SPOJOVACÍ
  6
Continuous
100
AcDbLine
 10
142.2906746316451
 20
80.59531901750592
 30
0.0
 11
142.6683260069561
 21
80.97297039063409
 31
0.0
  0
LINE
  5
34A8
330
1F
100
AcDbEntity
  8
SPOJOVACÍ
  6
Continuous
100
AcDbLine
 10
142.2906746316451
 20
80.59531901750592
 30
0.0
 11
142.6683260069561
 21
80.37672770548665
 31
0.0
  0
LINE
  5
34A9
330
1F
100
AcDbEntity
  8
SPOJOVACÍ
  6
Continuous
100
AcDbLine
 10
142.2906746316451
 20
80.59531901750592
 30
0.0
 11
147.0903817374941
 21
79.39539224104368
 31
0.0
  0
LINE
  5
34AA
330
1F
100
AcDbEntity
  8
SPOJOVACÍ
  6
Continuous
100
AcDbLine
 10
142.6683260069561
 20
84.09278000960325
 30
0.0
 11
146.7127303665487
 21
82.73286299633031
 31
0.0
  0
LINE
  5
34AB
330
1F
100
AcDbEntity
  8
SPOJOVACÍ
  6
Continuous
100
AcDbLine
 10
142.6683260069561
 20
83.49653732444853
 30
0.0
 11
146.7127303665487
 21
82.13662031118287
 31
0.0
  0
LINE
  5
34AC
330
1F
100
AcDbEntity
  8
SPOJOVACÍ
  6
Continuous
100
AcDbLine
 10
147.0903817374941
 20
82.51520186001284
 30
0.0
 11
146.7127303665487
 21
82.73286299633031
 31
0.0
  0
LINE
  5
34AD
330
1F
100
AcDbEntity
  8
SPOJOVACÍ
  6
Continuous
100
AcDbLine
 10
147.0903817374941
 20
82.51520186001284
 30
0.0
 11
146.7127303665487
 21
82.13662031118287
 31
0.0
  0
LINE
  5
34AE
330
1F
100
AcDbEntity
  8
SPOJOVACÍ
  6
Continuous
100
AcDbLine
 10
142.2906746316451
 20
83.71512863647508
 30
0.0
 11
142.6683260069561
 21
84.09278000960325
 31
0.0
  0
LINE
  5
34AF
330
1F
100
AcDbEntity
  8
SPOJOVACÍ
  6
Continuous
100
AcDbLine
 10
142.2906746316451
 20
83.71512863647508
 30
0.0
 11
142.6683260069561
 21
83.49653732444853
 31
0.0
  0
LINE
  5
34B0
330
1F
100
AcDbEntity
  8
SPOJOVACÍ
  6
Continuous
100
AcDbLine
 10
142.2906746316451
 20
83.71512863647508
 30
0.0
 11
147.0903817374941
 21
82.51520186001284
 31
0.0
  0
LINE
  5
34B1
330
1F
100
AcDbEntity
  8
SPOJOVACÍ
  6
Continuous
100
AcDbLine
 10
143.6738460426435
 20
68.36908835763455
 30
0.0
 11
145.8281331841002
 21
68.05840964186057
 31
0.0
  0
LINE
  5
34B2
330
1F
100
AcDbEntity
  8
SPOJOVACÍ
  6
Continuous
100
AcDbLine
 10
144.0514974135888
 20
68.74673973076273
 30
0.0
 11
145.4504818131548
 21
68.27607077817805
 31
0.0
  0
LINE
  5
34B3
330
1F
100
AcDbEntity
  8
SPOJOVACÍ
  6
Continuous
100
AcDbLine
 10
144.0514974135888
 20
68.15049704561528
 30
0.0
 11
145.4504818131548
 21
67.6798280930306
 31
0.0
  0
LINE
  5
34B4
330
1F
100
AcDbEntity
  8
SPOJOVACÍ
  6
Continuous
100
AcDbLine
 10
145.8281331841002
 20
68.05840964186057
 30
0.0
 11
145.4504818131548
 21
68.27607077817805
 31
0.0
  0
LINE
  5
34B5
330
1F
100
AcDbEntity
  8
SPOJOVACÍ
  6
Continuous
100
AcDbLine
 10
145.8281331841002
 20
68.05840964186057
 30
0.0
 11
145.4504818131548
 21
67.6798280930306
 31
0.0
  0
LINE
  5
34B6
330
1F
100
AcDbEntity
  8
SPOJOVACÍ
  6
Continuous
100
AcDbLine
 10
143.6738460426435
 20
68.36908835763455
 30
0.0
 11
144.0514974135888
 21
68.74673973076273
 31
0.0
  0
LINE
  5
34B7
330
1F
100
AcDbEntity
  8
SPOJOVACÍ
  6
Continuous
100
AcDbLine
 10
143.6738460426435
 20
68.36908835763455
 30
0.0
 11
144.0514974135888
 21
68.15049704561528
 31
0.0
  0
LINE
  5
34B8
330
1F
100
AcDbEntity
  8
SPOJOVACÍ
  6
Continuous
100
AcDbLine
 10
143.109229332172
 20
71.38285793595418
 30
0.0
 11
146.2253182486032
 21
70.74940821918421
 31
0.0
  0
LINE
  5
34B9
330
1F
100
AcDbEntity
  8
SPOJOVACÍ
  6
Continuous
100
AcDbLine
 10
143.486880707483
 20
71.76143948506063
 30
0.0
 11
145.8476668776578
 21
70.96706935523247
 31
0.0
  0
LINE
  5
34BA
330
1F
100
AcDbEntity
  8
SPOJOVACÍ
  6
Continuous
100
AcDbLine
 10
143.486880707483
 20
71.16519679990592
 30
0.0
 11
145.8476668776578
 21
70.37082667035424
 31
0.0
  0
LINE
  5
34BB
330
1F
100
AcDbEntity
  8
SPOJOVACÍ
  6
Continuous
100
AcDbLine
 10
146.2253182486032
 20
70.74940821918421
 30
0.0
 11
145.8476668776578
 21
70.96706935523247
 31
0.0
  0
LINE
  5
34BC
330
1F
100
AcDbEntity
  8
SPOJOVACÍ
  6
Continuous
100
AcDbLine
 10
146.2253182486032
 20
70.74940821918421
 30
0.0
 11
145.8476668776578
 21
70.37082667035424
 31
0.0
  0
LINE
  5
34BD
330
1F
100
AcDbEntity
  8
SPOJOVACÍ
  6
Continuous
100
AcDbLine
 10
143.109229332172
 20
71.38285793595418
 30
0.0
 11
143.486880707483
 21
71.76143948506063
 31
0.0
  0
LINE
  5
34BE
330
1F
100
AcDbEntity
  8
SPOJOVACÍ
  6
Continuous
100
AcDbLine
 10
143.109229332172
 20
71.38285793595418
 30
0.0
 11
143.486880707483
 21
71.16519679990592
 31
0.0
  0
LINE
  5
34BF
330
1F
100
AcDbEntity
  8
SPOJOVACÍ
  6
Continuous
100
AcDbLine
 10
142.5446126260661
 20
74.39755769025208
 30
0.0
 11
146.6699422788091
 21
73.42459380794747
 31
0.0
  0
LINE
  5
34C0
330
1F
100
AcDbEntity
  8
SPOJOVACÍ
  6
Continuous
100
AcDbLine
 10
142.9231941743504
 20
74.77520906338026
 30
0.0
 11
146.2922909078637
 21
73.64225494399573
 31
0.0
  0
LINE
  5
34C1
330
1F
100
AcDbEntity
  8
SPOJOVACÍ
  6
Continuous
100
AcDbLine
 10
142.9231941743504
 20
74.17896637822554
 30
0.0
 11
146.2922909078637
 21
73.04601225884102
 31
0.0
  0
LINE
  5
34C2
330
1F
100
AcDbEntity
  8
SPOJOVACÍ
  6
Continuous
100
AcDbLine
 10
146.6699422788091
 20
73.42459380794747
 30
0.0
 11
146.2922909078637
 21
73.64225494399573
 31
0.0
  0
LINE
  5
34C3
330
1F
100
AcDbEntity
  8
SPOJOVACÍ
  6
Continuous
100
AcDbLine
 10
146.6699422788091
 20
73.42459380794747
 30
0.0
 11
146.2922909078637
 21
73.04601225884102
 31
0.0
  0
LINE
  5
34C4
330
1F
100
AcDbEntity
  8
SPOJOVACÍ
  6
Continuous
100
AcDbLine
 10
142.5446126260661
 20
74.39755769025208
 30
0.0
 11
142.9231941743504
 21
74.77520906338026
 31
0.0
  0
LINE
  5
34C5
330
1F
100
AcDbEntity
  8
SPOJOVACÍ
  6
Continuous
100
AcDbLine
 10
142.5446126260661
 20
74.39755769025208
 30
0.0
 11
142.9231941743504
 21
74.17896637822554
 31
0.0
  0
LINE
  5
34C6
330
1F
100
AcDbEntity
  8
SPOJOVACÍ
  6
Continuous
100
AcDbLine
 10
142.6683260069561
 20
87.21258962884162
 30
0.0
 11
146.7127303665487
 21
85.85360279100127
 31
0.0
  0
LINE
  5
34C7
330
1F
100
AcDbEntity
  8
SPOJOVACÍ
  6
Continuous
100
AcDbLine
 10
142.6683260069561
 20
86.61634694368689
 30
0.0
 11
146.7127303665487
 21
85.25736010612304
 31
0.0
  0
LINE
  5
34C8
330
1F
100
AcDbEntity
  8
SPOJOVACÍ
  6
Continuous
100
AcDbLine
 10
147.0903817374941
 20
85.63501147897472
 30
0.0
 11
146.7127303665487
 21
85.85360279100127
 31
0.0
  0
LINE
  5
34C9
330
1F
100
AcDbEntity
  8
SPOJOVACÍ
  6
Continuous
100
AcDbLine
 10
147.0903817374941
 20
85.63501147897472
 30
0.0
 11
146.7127303665487
 21
85.25736010612304
 31
0.0
  0
LINE
  5
34CA
330
1F
100
AcDbEntity
  8
SPOJOVACÍ
  6
Continuous
100
AcDbLine
 10
142.2906746316451
 20
86.83493825571344
 30
0.0
 11
142.6683260069561
 21
87.21258962884162
 31
0.0
  0
LINE
  5
34CB
330
1F
100
AcDbEntity
  8
SPOJOVACÍ
  6
Continuous
100
AcDbLine
 10
142.2906746316451
 20
86.83493825571344
 30
0.0
 11
142.6683260069561
 21
86.61634694368689
 31
0.0
  0
LINE
  5
34CC
330
1F
100
AcDbEntity
  8
SPOJOVACÍ
  6
Continuous
100
AcDbLine
 10
142.2906746316451
 20
86.83493825571344
 30
0.0
 11
147.0903817374941
 21
85.63501147897472
 31
0.0
  0
LINE
  5
34CD
330
1F
100
AcDbEntity
  8
SPOJOVACÍ
  6
Continuous
100
AcDbLine
 10
142.6683260069561
 20
90.33332942350529
 30
0.0
 11
146.7127303665487
 21
88.97341241023964
 31
0.0
  0
LINE
  5
34CE
330
1F
100
AcDbEntity
  8
SPOJOVACÍ
  6
Continuous
100
AcDbLine
 10
142.6683260069561
 20
89.73708673862706
 30
0.0
 11
146.7127303665487
 21
88.37716972508491
 31
0.0
  0
LINE
  5
34CF
330
1F
100
AcDbEntity
  8
SPOJOVACÍ
  6
Continuous
100
AcDbLine
 10
147.0903817374941
 20
88.75482109821309
 30
0.0
 11
146.7127303665487
 21
88.97341241023964
 31
0.0
  0
LINE
  5
34D0
330
1F
100
AcDbEntity
  8
SPOJOVACÍ
  6
Continuous
100
AcDbLine
 10
147.0903817374941
 20
88.75482109821309
 30
0.0
 11
146.7127303665487
 21
88.37716972508491
 31
0.0
  0
LINE
  5
34D1
330
1F
100
AcDbEntity
  8
SPOJOVACÍ
  6
Continuous
100
AcDbLine
 10
142.2906746316451
 20
89.95474787467532
 30
0.0
 11
142.6683260069561
 21
90.33332942350529
 31
0.0
  0
LINE
  5
34D2
330
1F
100
AcDbEntity
  8
SPOJOVACÍ
  6
Continuous
100
AcDbLine
 10
142.2906746316451
 20
89.95474787467532
 30
0.0
 11
142.6683260069561
 21
89.73708673862706
 31
0.0
  0
LINE
  5
34D3
330
1F
100
AcDbEntity
  8
SPOJOVACÍ
  6
Continuous
100
AcDbLine
 10
142.2906746316451
 20
89.95474787467532
 30
0.0
 11
147.0903817374941
 21
88.75482109821309
 31
0.0
  0
LINE
  5
34D4
330
1F
100
AcDbEntity
  8
SPOJOVACÍ
  6
Continuous
100
AcDbLine
 10
145.7946468566527
 20
73.81898834534507
 30
0.0
 11
146.0402132681205
 21
75.79003085663129
 31
0.0
  0
LINE
  5
34D5
330
1F
100
AcDbEntity
  8
SPOJOVACÍ
  6
Continuous
100
AcDbLine
 10
145.4560628640914
 20
71.11217677944654
 30
0.0
 11
145.7230233194289
 21
73.24879058229993
 31
0.0
  0
LINE
  5
34D6
330
1F
100
AcDbEntity
  8
SPOJOVACÍ
  6
Continuous
100
AcDbLine
 10
145.1165487029223
 20
68.39513328001334
 30
0.0
 11
145.3844393312332
 21
70.54011866499781
 31
0.0
  0
LINE
  5
34D7
330
1F
100
AcDbEntity
  8
SPOJOVACÍ
  6
Continuous
100
AcDbLine
 10
144.3045052306709
 20
68.07887350948289
 30
0.0
 11
144.6905281845696
 21
64.98975969167799
 31
0.0
  0
LINE
  5
34D8
330
1F
100
AcDbEntity
  8
SPOJOVACÍ
  6
Continuous
100
AcDbLine
 10
143.937085792991
 20
71.02008937569184
 30
0.0
 11
144.227300638145
 21
68.69930076533631
 31
0.0
  0
LINE
  5
34D9
330
1F
100
AcDbEntity
  8
SPOJOVACÍ
  6
Continuous
100
AcDbLine
 10
143.5678060006333
 20
73.97246735142101
 30
0.0
 11
143.8580208501529
 21
71.65074856535643
 31
0.0
  0
LINE
  5
34DA
330
1F
100
AcDbEntity
  8
SPOJOVACÍ
  6
Continuous
100
AcDbLine
 10
144.6905281845696
 20
64.98975969167799
 30
0.0
 11
145.0449251656985
 21
67.82586569294648
 31
0.0
  0
LINE
  5
34DB
330
1F
100
AcDbEntity
  8
SPOJOVACÍ
  6
Continuous
100
AcDbLine
 10
143.3408431053843
 20
75.79003085663129
 30
0.0
 11
143.4906014081074
 21
74.59289460727444
 31
0.0
  0
LINE
  5
34DC
330
1F
100
AcDbEntity
  8
SPOJOVACÍ
  6
Continuous
100
AcDbLine
 10
146.0402132681205
 20
76.12675449451484
 30
0.0
 11
146.0402132681205
 21
75.79003085663129
 31
0.0
  0
LINE
  5
34DD
330
1F
100
AcDbEntity
  8
SPOJOVACÍ
  6
Continuous
100
AcDbLine
 10
146.0402132681205
 20
79.24935464112781
 30
0.0
 11
146.0402132681205
 21
76.73043858609884
 31
0.0
  0
LINE
  5
34DE
330
1F
100
AcDbEntity
  8
SPOJOVACÍ
  6
Continuous
100
AcDbLine
 10
143.3408431053843
 20
77.03739659851994
 30
0.0
 11
143.3408431053843
 21
75.79003085663129
 31
0.0
  0
LINE
  5
34DF
330
1F
100
AcDbEntity
  8
SPOJOVACÍ
  6
Continuous
100
AcDbLine
 10
143.3408431053843
 20
80.15162516300183
 30
0.0
 11
143.3408431053843
 21
77.63363928367465
 31
0.0
  0
LINE
  5
34E0
330
1F
100
AcDbEntity
  8
SPOJOVACÍ
  6
Continuous
100
AcDbLine
 10
146.0402132681205
 20
82.37102461176977
 30
0.0
 11
146.0402132681205
 21
79.85024820506072
 31
0.0
  0
LINE
  5
34E1
330
1F
100
AcDbEntity
  8
SPOJOVACÍ
  6
Continuous
100
AcDbLine
 10
146.0402132681205
 20
85.49362475811353
 30
0.0
 11
146.0402132681205
 21
82.96540694524441
 31
0.0
  0
LINE
  5
34E2
330
1F
100
AcDbEntity
  8
SPOJOVACÍ
  6
Continuous
100
AcDbLine
 10
146.0402132681205
 20
88.60878349829722
 30
0.0
 11
146.0402132681205
 21
86.08986744326825
 31
0.0
  0
LINE
  5
34E3
330
1F
100
AcDbEntity
  8
SPOJOVACÍ
  6
Continuous
100
AcDbLine
 10
143.3408431053843
 20
83.28445724315674
 30
0.0
 11
143.3408431053843
 21
80.75623943028762
 31
0.0
  0
LINE
  5
34E4
330
1F
100
AcDbEntity
  8
SPOJOVACÍ
  6
Continuous
100
AcDbLine
 10
143.3408431053843
 20
86.39961598334043
 30
0.0
 11
143.3408431053843
 21
83.87883957663138
 31
0.0
  0
LINE
  5
34E5
330
1F
100
AcDbEntity
  8
SPOJOVACÍ
  6
Continuous
100
AcDbLine
 10
143.3408431053843
 20
89.52221612968418
 30
0.0
 11
143.3408431053843
 21
87.00330007465522
 31
0.0
  0
LINE
  5
34E6
330
1F
100
AcDbEntity
  8
SPOJOVACÍ
  6
Continuous
100
AcDbLine
 10
143.3408431053843
 20
94.15542176854064
 30
0.0
 11
143.3408431053843
 21
90.11752863886062
 31
0.0
  0
LINE
  5
34E7
330
1F
100
AcDbEntity
  8
SPOJOVACÍ
  6
Continuous
100
AcDbLine
 10
146.0402132681205
 20
94.15542176854064
 30
0.0
 11
146.0402132681205
 21
89.21246758961201
 31
0.0
  0
LINE
  5
34E8
330
1F
100
AcDbEntity
  8
SPOJOVACÍ
  6
Continuous
100
AcDbLine
 10
139.5903742959357
 20
99.55509226289718
 30
0.0
 11
140.9400593794865
 21
98.81095162642299
 31
0.0
  0
LINE
  5
34E9
330
1F
100
AcDbEntity
  8
SPOJOVACÍ
  6
Continuous
100
AcDbLine
 10
140.9400593794865
 20
98.81095162642299
 30
0.0
 11
142.0506892798451
 21
97.74217963701079
 31
0.0
  0
LINE
  5
34EA
330
1F
100
AcDbEntity
  8
SPOJOVACÍ
  6
Continuous
100
AcDbLine
 10
142.0506892798451
 20
97.74217963701079
 30
0.0
 11
142.8469197591633
 21
96.42319035871327
 31
0.0
  0
LINE
  5
34EB
330
1F
100
AcDbEntity
  8
SPOJOVACÍ
  6
Continuous
100
AcDbLine
 10
142.8469197591633
 20
96.42319035871327
 30
0.0
 11
143.2748006234627
 21
94.94235049166304
 31
0.0
  0
LINE
  5
34EC
330
1F
100
AcDbEntity
  8
SPOJOVACÍ
  6
Continuous
100
AcDbLine
 10
143.2748006234627
 20
94.94235049166304
 30
0.0
 11
143.3408431053843
 21
94.15542176854064
 31
0.0
  0
LINE
  5
34ED
330
1F
100
AcDbEntity
  8
SPOJOVACÍ
  6
Continuous
100
AcDbLine
 10
147.838243078136
 20
98.30028511457198
 30
0.0
 11
149.0753768870357
 21
99.21836862501363
 31
0.0
  0
LINE
  5
34EE
330
1F
100
AcDbEntity
  8
SPOJOVACÍ
  6
Continuous
100
AcDbLine
 10
149.0753768870357
 20
99.21836862501363
 30
0.0
 11
149.7906820732035
 21
99.55509226289718
 31
0.0
  0
LINE
  5
34EF
330
1F
100
AcDbEntity
  8
SPOJOVACÍ
  6
Continuous
100
AcDbLine
 10
139.5903742959357
 20
99.55509226289718
 30
0.0
 11
149.7906820732035
 21
99.55509226289718
 31
0.0
  0
LINE
  5
34F0
330
1F
100
AcDbEntity
  8
SPOJOVACÍ
  6
Continuous
100
AcDbLine
 10
139.5903742959357
 20
100.7550190396286
 30
0.0
 11
139.5903742959357
 21
99.55509226289718
 31
0.0
  0
LINE
  5
34F1
330
1F
100
AcDbEntity
  8
SPOJOVACÍ
  6
Continuous
100
AcDbLine
 10
139.5903742959357
 20
100.7550190396286
 30
0.0
 11
149.7906820732035
 21
100.7550190396286
 31
0.0
  0
LINE
  5
34F2
330
1F
100
AcDbEntity
  8
SPOJOVACÍ
  6
Continuous
100
AcDbLine
 10
149.7906820732035
 20
100.7550190396286
 30
0.0
 11
149.7906820732035
 21
99.55509226289718
 31
0.0
  0
LINE
  5
34F3
330
1F
100
AcDbEntity
  8
SPOJOVACÍ
  6
Continuous
100
AcDbLine
 10
146.0402132681205
 20
94.15542176854064
 30
0.0
 11
146.2671761590039
 21
95.67904972196988
 31
0.0
  0
LINE
  5
34F4
330
1F
100
AcDbEntity
  8
SPOJOVACÍ
  6
Continuous
100
AcDbLine
 10
146.2671761590039
 20
95.67904972196988
 30
0.0
 11
146.8801620081516
 21
97.09291693167319
 31
0.0
  0
LINE
  5
34F5
330
1F
100
AcDbEntity
  8
SPOJOVACÍ
  6
Continuous
100
AcDbLine
 10
146.8801620081516
 20
97.09291693167319
 30
0.0
 11
147.838243078136
 21
98.30028511457198
 31
0.0
  0
LINE
  5
34F6
330
1F
100
AcDbEntity
  8
SPOJOVACÍ
  6
Continuous
100
AcDbLine
 10
146.8801620081516
 20
29.18486686283443
 30
0.0
 11
147.838243078136
 21
27.97749867993565
 31
0.0
  0
LINE
  5
34F7
330
1F
100
AcDbEntity
  8
SPOJOVACÍ
  6
Continuous
100
AcDbLine
 10
146.2671761590039
 20
30.59873407253775
 30
0.0
 11
146.8801620081516
 21
29.18486686283443
 31
0.0
  0
LINE
  5
34F8
330
1F
100
AcDbEntity
  8
SPOJOVACÍ
  6
Continuous
100
AcDbLine
 10
146.0402132681205
 20
32.12236202596699
 30
0.0
 11
146.2671761590039
 21
30.59873407253775
 31
0.0
  0
LINE
  5
34F9
330
1F
100
AcDbEntity
  8
SPOJOVACÍ
  6
Continuous
100
AcDbLine
 10
149.7906820732035
 20
25.522764754879
 30
0.0
 11
149.7906820732035
 21
26.72269153161045
 31
0.0
  0
LINE
  5
34FA
330
1F
100
AcDbEntity
  8
SPOJOVACÍ
  6
Continuous
100
AcDbLine
 10
139.5903742959357
 20
25.522764754879
 30
0.0
 11
149.7906820732035
 21
25.522764754879
 31
0.0
  0
LINE
  5
34FB
330
1F
100
AcDbEntity
  8
SPOJOVACÍ
  6
Continuous
100
AcDbLine
 10
139.5903742959357
 20
25.522764754879
 30
0.0
 11
139.5903742959357
 21
26.72269153161045
 31
0.0
  0
LINE
  5
34FC
330
1F
100
AcDbEntity
  8
SPOJOVACÍ
  6
Continuous
100
AcDbLine
 10
139.5903742959357
 20
26.72269153161045
 30
0.0
 11
149.7906820732035
 21
26.72269153161045
 31
0.0
  0
LINE
  5
34FD
330
1F
100
AcDbEntity
  8
SPOJOVACÍ
  6
Continuous
100
AcDbLine
 10
149.0753768870357
 20
27.059415169494
 30
0.0
 11
149.7906820732035
 21
26.72269153161045
 31
0.0
  0
LINE
  5
34FE
330
1F
100
AcDbEntity
  8
SPOJOVACÍ
  6
Continuous
100
AcDbLine
 10
147.838243078136
 20
27.97749867993565
 30
0.0
 11
149.0753768870357
 21
27.059415169494
 31
0.0
  0
LINE
  5
34FF
330
1F
100
AcDbEntity
  8
SPOJOVACÍ
  6
Continuous
100
AcDbLine
 10
143.2748006234627
 20
31.33543330284459
 30
0.0
 11
143.3408431053843
 21
32.12236202596699
 31
0.0
  0
LINE
  5
3500
330
1F
100
AcDbEntity
  8
SPOJOVACÍ
  6
Continuous
100
AcDbLine
 10
142.8469197591633
 20
29.85459343579435
 30
0.0
 11
143.2748006234627
 21
31.33543330284459
 31
0.0
  0
LINE
  5
3501
330
1F
100
AcDbEntity
  8
SPOJOVACÍ
  6
Continuous
100
AcDbLine
 10
142.0506892798451
 20
28.53560415749683
 30
0.0
 11
142.8469197591633
 21
29.85459343579435
 31
0.0
  0
LINE
  5
3502
330
1F
100
AcDbEntity
  8
SPOJOVACÍ
  6
Continuous
100
AcDbLine
 10
140.9400593794865
 20
27.46683216808463
 30
0.0
 11
142.0506892798451
 21
28.53560415749683
 31
0.0
  0
LINE
  5
3503
330
1F
100
AcDbEntity
  8
SPOJOVACÍ
  6
Continuous
100
AcDbLine
 10
139.5903742959357
 20
26.72269153161045
 30
0.0
 11
140.9400593794865
 21
27.46683216808463
 31
0.0
  0
LINE
  5
3504
330
1F
100
AcDbEntity
  8
SPOJOVACÍ
  6
Continuous
100
AcDbLine
 10
146.0402132681205
 20
32.12236202596699
 30
0.0
 11
146.0402132681205
 21
37.06531620489562
 31
0.0
  0
LINE
  5
3505
330
1F
100
AcDbEntity
  8
SPOJOVACÍ
  6
Continuous
100
AcDbLine
 10
143.3408431053843
 20
32.12236202596699
 30
0.0
 11
143.3408431053843
 21
36.160255155647
 31
0.0
  0
LINE
  5
3506
330
1F
100
AcDbEntity
  8
SPOJOVACÍ
  6
Continuous
100
AcDbLine
 10
143.3408431053843
 20
36.75556766482344
 30
0.0
 11
143.3408431053843
 21
39.27448371985241
 31
0.0
  0
LINE
  5
3507
330
1F
100
AcDbEntity
  8
SPOJOVACÍ
  6
Continuous
100
AcDbLine
 10
143.3408431053843
 20
39.8781678111672
 30
0.0
 11
143.3408431053843
 21
42.39894421787624
 31
0.0
  0
LINE
  5
3508
330
1F
100
AcDbEntity
  8
SPOJOVACÍ
  6
Continuous
100
AcDbLine
 10
143.3408431053843
 20
42.99332655135088
 30
0.0
 11
143.3408431053843
 21
45.52154436422
 31
0.0
  0
LINE
  5
3509
330
1F
100
AcDbEntity
  8
SPOJOVACÍ
  6
Continuous
100
AcDbLine
 10
146.0402132681205
 20
37.66900029621041
 30
0.0
 11
146.0402132681205
 21
40.18791635123938
 31
0.0
  0
LINE
  5
350A
330
1F
100
AcDbEntity
  8
SPOJOVACÍ
  6
Continuous
100
AcDbLine
 10
146.0402132681205
 20
40.7841590363941
 30
0.0
 11
146.0402132681205
 21
43.31237684926321
 31
0.0
  0
LINE
  5
350B
330
1F
100
AcDbEntity
  8
SPOJOVACÍ
  6
Continuous
100
AcDbLine
 10
146.0402132681205
 20
43.90675918273785
 30
0.0
 11
146.0402132681205
 21
46.4275355894469
 31
0.0
  0
LINE
  5
350C
330
1F
100
AcDbEntity
  8
SPOJOVACÍ
  6
Continuous
100
AcDbLine
 10
143.3408431053843
 20
46.1261586315058
 30
0.0
 11
143.3408431053843
 21
48.64414451083297
 31
0.0
  0
LINE
  5
350D
330
1F
100
AcDbEntity
  8
SPOJOVACÍ
  6
Continuous
100
AcDbLine
 10
143.3408431053843
 20
49.24038719598769
 30
0.0
 11
143.3408431053843
 21
50.48775293787634
 31
0.0
  0
LINE
  5
350E
330
1F
100
AcDbEntity
  8
SPOJOVACÍ
  6
Continuous
100
AcDbLine
 10
146.0402132681205
 20
47.02842915337981
 30
0.0
 11
146.0402132681205
 21
49.54734520840879
 31
0.0
  0
LINE
  5
350F
330
1F
100
AcDbEntity
  8
SPOJOVACÍ
  6
Continuous
100
AcDbLine
 10
146.0402132681205
 20
50.15102929999279
 30
0.0
 11
146.0402132681205
 21
50.48775293787634
 31
0.0
  0
LINE
  5
3510
330
1F
100
AcDbEntity
  8
SPOJOVACÍ
  6
Continuous
100
AcDbLine
 10
143.3408431053843
 20
50.48775293787634
 30
0.0
 11
143.4906014081074
 21
51.68488918723318
 31
0.0
  0
LINE
  5
3511
330
1F
100
AcDbEntity
  8
SPOJOVACÍ
  6
Continuous
100
AcDbLine
 10
144.6905281845696
 20
61.28802410282964
 30
0.0
 11
145.0449251656985
 21
58.45191810156115
 31
0.0
  0
LINE
  5
3512
330
1F
100
AcDbEntity
  8
SPOJOVACÍ
  6
Continuous
100
AcDbLine
 10
143.5678060006333
 20
52.30531644308661
 30
0.0
 11
143.8580208501529
 21
54.6270352291512
 31
0.0
  0
LINE
  5
3513
330
1F
100
AcDbEntity
  8
SPOJOVACÍ
  6
Continuous
100
AcDbLine
 10
143.937085792991
 20
55.25769441881578
 30
0.0
 11
144.227300638145
 21
57.57848302917131
 31
0.0
  0
LINE
  5
3514
330
1F
100
AcDbEntity
  8
SPOJOVACÍ
  6
Continuous
100
AcDbLine
 10
144.3045052306709
 20
58.19891028502474
 30
0.0
 11
144.6905281845696
 21
61.28802410282964
 31
0.0
  0
LINE
  5
3515
330
1F
100
AcDbEntity
  8
SPOJOVACÍ
  6
Continuous
100
AcDbLine
 10
145.1165487029223
 20
57.88265051449428
 30
0.0
 11
145.3844393312332
 21
55.73766512950982
 31
0.0
  0
LINE
  5
3516
330
1F
100
AcDbEntity
  8
SPOJOVACÍ
  6
Continuous
100
AcDbLine
 10
145.4560628640914
 20
55.16560701506108
 30
0.0
 11
145.7230233194289
 21
53.0289932122077
 31
0.0
  0
LINE
  5
3517
330
1F
100
AcDbEntity
  8
SPOJOVACÍ
  6
Continuous
100
AcDbLine
 10
145.7946468566527
 20
52.45879544916255
 30
0.0
 11
146.0402132681205
 21
50.48775293787634
 31
0.0
  0
LINE
  5
3518
330
1F
100
AcDbEntity
  8
SPOJOVACÍ
  6
Continuous
100
AcDbLine
 10
142.2906746316451
 20
36.3230359198323
 30
0.0
 11
147.0903817374941
 21
37.52296269629454
 31
0.0
  0
LINE
  5
3519
330
1F
100
AcDbEntity
  8
SPOJOVACÍ
  6
Continuous
100
AcDbLine
 10
142.2906746316451
 20
36.3230359198323
 30
0.0
 11
142.6683260069561
 21
36.54069705588057
 31
0.0
  0
LINE
  5
351A
330
1F
100
AcDbEntity
  8
SPOJOVACÍ
  6
Continuous
100
AcDbLine
 10
142.2906746316451
 20
36.3230359198323
 30
0.0
 11
142.6683260069561
 21
35.94445437100233
 31
0.0
  0
LINE
  5
351B
330
1F
100
AcDbEntity
  8
SPOJOVACÍ
  6
Continuous
100
AcDbLine
 10
147.0903817374941
 20
37.52296269629454
 30
0.0
 11
146.7127303665487
 21
37.90061406942271
 31
0.0
  0
LINE
  5
351C
330
1F
100
AcDbEntity
  8
SPOJOVACÍ
  6
Continuous
100
AcDbLine
 10
147.0903817374941
 20
37.52296269629454
 30
0.0
 11
146.7127303665487
 21
37.30437138426799
 31
0.0
  0
LINE
  5
351D
330
1F
100
AcDbEntity
  8
SPOJOVACÍ
  6
Continuous
100
AcDbLine
 10
142.6683260069561
 20
36.54069705588057
 30
0.0
 11
146.7127303665487
 21
37.90061406942271
 31
0.0
  0
LINE
  5
351E
330
1F
100
AcDbEntity
  8
SPOJOVACÍ
  6
Continuous
100
AcDbLine
 10
142.6683260069561
 20
35.94445437100233
 30
0.0
 11
146.7127303665487
 21
37.30437138426799
 31
0.0
  0
LINE
  5
351F
330
1F
100
AcDbEntity
  8
SPOJOVACÍ
  6
Continuous
100
AcDbLine
 10
142.2906746316451
 20
39.44284553879418
 30
0.0
 11
147.0903817374941
 21
40.6427723155329
 31
0.0
  0
LINE
  5
3520
330
1F
100
AcDbEntity
  8
SPOJOVACÍ
  6
Continuous
100
AcDbLine
 10
142.2906746316451
 20
39.44284553879418
 30
0.0
 11
142.6683260069561
 21
39.66143685082073
 31
0.0
  0
LINE
  5
3521
330
1F
100
AcDbEntity
  8
SPOJOVACÍ
  6
Continuous
100
AcDbLine
 10
142.2906746316451
 20
39.44284553879418
 30
0.0
 11
142.6683260069561
 21
39.06519416566601
 31
0.0
  0
LINE
  5
3522
330
1F
100
AcDbEntity
  8
SPOJOVACÍ
  6
Continuous
100
AcDbLine
 10
147.0903817374941
 20
40.6427723155329
 30
0.0
 11
146.7127303665487
 21
41.0204236883846
 31
0.0
  0
LINE
  5
3523
330
1F
100
AcDbEntity
  8
SPOJOVACÍ
  6
Continuous
100
AcDbLine
 10
147.0903817374941
 20
40.6427723155329
 30
0.0
 11
146.7127303665487
 21
40.42418100350636
 31
0.0
  0
LINE
  5
3524
330
1F
100
AcDbEntity
  8
SPOJOVACÍ
  6
Continuous
100
AcDbLine
 10
142.6683260069561
 20
39.66143685082073
 30
0.0
 11
146.7127303665487
 21
41.0204236883846
 31
0.0
  0
LINE
  5
3525
330
1F
100
AcDbEntity
  8
SPOJOVACÍ
  6
Continuous
100
AcDbLine
 10
142.6683260069561
 20
39.06519416566601
 30
0.0
 11
146.7127303665487
 21
40.42418100350636
 31
0.0
  0
LINE
  5
3526
330
1F
100
AcDbEntity
  8
SPOJOVACÍ
  6
Continuous
100
AcDbLine
 10
142.5446126260661
 20
51.88022610425554
 30
0.0
 11
142.9231941743504
 21
52.09881741628208
 31
0.0
  0
LINE
  5
3527
330
1F
100
AcDbEntity
  8
SPOJOVACÍ
  6
Continuous
100
AcDbLine
 10
142.5446126260661
 20
51.88022610425554
 30
0.0
 11
142.9231941743504
 21
51.50257473112737
 31
0.0
  0
LINE
  5
3528
330
1F
100
AcDbEntity
  8
SPOJOVACÍ
  6
Continuous
100
AcDbLine
 10
146.6699422788091
 20
52.85318998656015
 30
0.0
 11
146.2922909078637
 21
53.2317715356666
 31
0.0
  0
LINE
  5
3529
330
1F
100
AcDbEntity
  8
SPOJOVACÍ
  6
Continuous
100
AcDbLine
 10
146.6699422788091
 20
52.85318998656015
 30
0.0
 11
146.2922909078637
 21
52.63552885051189
 31
0.0
  0
LINE
  5
352A
330
1F
100
AcDbEntity
  8
SPOJOVACÍ
  6
Continuous
100
AcDbLine
 10
142.9231941743504
 20
52.09881741628208
 30
0.0
 11
146.2922909078637
 21
53.2317715356666
 31
0.0
  0
LINE
  5
352B
330
1F
100
AcDbEntity
  8
SPOJOVACÍ
  6
Continuous
100
AcDbLine
 10
142.9231941743504
 20
51.50257473112737
 30
0.0
 11
146.2922909078637
 21
52.63552885051189
 31
0.0
  0
LINE
  5
352C
330
1F
100
AcDbEntity
  8
SPOJOVACÍ
  6
Continuous
100
AcDbLine
 10
142.5446126260661
 20
51.88022610425554
 30
0.0
 11
146.6699422788091
 21
52.85318998656015
 31
0.0
  0
LINE
  5
352D
330
1F
100
AcDbEntity
  8
SPOJOVACÍ
  6
Continuous
100
AcDbLine
 10
143.109229332172
 20
54.89492585855344
 30
0.0
 11
143.486880707483
 21
55.11258699460171
 31
0.0
  0
LINE
  5
352E
330
1F
100
AcDbEntity
  8
SPOJOVACÍ
  6
Continuous
100
AcDbLine
 10
143.109229332172
 20
54.89492585855344
 30
0.0
 11
143.486880707483
 21
54.51634430944699
 31
0.0
  0
LINE
  5
352F
330
1F
100
AcDbEntity
  8
SPOJOVACÍ
  6
Continuous
100
AcDbLine
 10
146.2253182486032
 20
55.52837557532342
 30
0.0
 11
145.8476668776578
 21
55.90695712415339
 31
0.0
  0
LINE
  5
3530
330
1F
100
AcDbEntity
  8
SPOJOVACÍ
  6
Continuous
100
AcDbLine
 10
146.2253182486032
 20
55.52837557532342
 30
0.0
 11
145.8476668776578
 21
55.31071443927515
 31
0.0
  0
LINE
  5
3531
330
1F
100
AcDbEntity
  8
SPOJOVACÍ
  6
Continuous
100
AcDbLine
 10
143.486880707483
 20
55.11258699460171
 30
0.0
 11
145.8476668776578
 21
55.90695712415339
 31
0.0
  0
LINE
  5
3532
330
1F
100
AcDbEntity
  8
SPOJOVACÍ
  6
Continuous
100
AcDbLine
 10
143.486880707483
 20
54.51634430944699
 30
0.0
 11
145.8476668776578
 21
55.31071443927515
 31
0.0
  0
LINE
  5
3533
330
1F
100
AcDbEntity
  8
SPOJOVACÍ
  6
Continuous
100
AcDbLine
 10
143.109229332172
 20
54.89492585855344
 30
0.0
 11
146.2253182486032
 21
55.52837557532342
 31
0.0
  0
LINE
  5
3534
330
1F
100
AcDbEntity
  8
SPOJOVACÍ
  6
Continuous
100
AcDbLine
 10
143.6738460426435
 20
57.90869543687307
 30
0.0
 11
144.0514974135888
 21
58.12728674889235
 31
0.0
  0
LINE
  5
3535
330
1F
100
AcDbEntity
  8
SPOJOVACÍ
  6
Continuous
100
AcDbLine
 10
143.6738460426435
 20
57.90869543687307
 30
0.0
 11
144.0514974135888
 21
57.5310440637449
 31
0.0
  0
LINE
  5
3536
330
1F
100
AcDbEntity
  8
SPOJOVACÍ
  6
Continuous
100
AcDbLine
 10
145.8281331841002
 20
58.21937415264705
 30
0.0
 11
145.4504818131548
 21
58.59795570147702
 31
0.0
  0
LINE
  5
3537
330
1F
100
AcDbEntity
  8
SPOJOVACÍ
  6
Continuous
100
AcDbLine
 10
145.8281331841002
 20
58.21937415264705
 30
0.0
 11
145.4504818131548
 21
58.00171301632957
 31
0.0
  0
LINE
  5
3538
330
1F
100
AcDbEntity
  8
SPOJOVACÍ
  6
Continuous
100
AcDbLine
 10
144.0514974135888
 20
58.12728674889235
 30
0.0
 11
145.4504818131548
 21
58.59795570147702
 31
0.0
  0
LINE
  5
3539
330
1F
100
AcDbEntity
  8
SPOJOVACÍ
  6
Continuous
100
AcDbLine
 10
144.0514974135888
 20
57.5310440637449
 30
0.0
 11
145.4504818131548
 21
58.00171301632957
 31
0.0
  0
LINE
  5
353A
330
1F
100
AcDbEntity
  8
SPOJOVACÍ
  6
Continuous
100
AcDbLine
 10
143.6738460426435
 20
57.90869543687307
 30
0.0
 11
145.8281331841002
 21
58.21937415264705
 31
0.0
  0
LINE
  5
353B
330
1F
100
AcDbEntity
  8
SPOJOVACÍ
  6
Continuous
100
AcDbLine
 10
142.2906746316451
 20
42.56265515803256
 30
0.0
 11
147.0903817374941
 21
43.76258193449479
 31
0.0
  0
LINE
  5
353C
330
1F
100
AcDbEntity
  8
SPOJOVACÍ
  6
Continuous
100
AcDbLine
 10
142.2906746316451
 20
42.56265515803256
 30
0.0
 11
142.6683260069561
 21
42.7812464700591
 31
0.0
  0
LINE
  5
353D
330
1F
100
AcDbEntity
  8
SPOJOVACÍ
  6
Continuous
100
AcDbLine
 10
142.2906746316451
 20
42.56265515803256
 30
0.0
 11
142.6683260069561
 21
42.18500378490438
 31
0.0
  0
LINE
  5
353E
330
1F
100
AcDbEntity
  8
SPOJOVACÍ
  6
Continuous
100
AcDbLine
 10
147.0903817374941
 20
43.76258193449479
 30
0.0
 11
146.7127303665487
 21
44.14116348332476
 31
0.0
  0
LINE
  5
353F
330
1F
100
AcDbEntity
  8
SPOJOVACÍ
  6
Continuous
100
AcDbLine
 10
147.0903817374941
 20
43.76258193449479
 30
0.0
 11
146.7127303665487
 21
43.54492079817731
 31
0.0
  0
LINE
  5
3540
330
1F
100
AcDbEntity
  8
SPOJOVACÍ
  6
Continuous
100
AcDbLine
 10
142.6683260069561
 20
42.7812464700591
 30
0.0
 11
146.7127303665487
 21
44.14116348332476
 31
0.0
  0
LINE
  5
3541
330
1F
100
AcDbEntity
  8
SPOJOVACÍ
  6
Continuous
100
AcDbLine
 10
142.6683260069561
 20
42.18500378490438
 30
0.0
 11
146.7127303665487
 21
43.54492079817731
 31
0.0
  0
LINE
  5
3542
330
1F
100
AcDbEntity
  8
SPOJOVACÍ
  6
Continuous
100
AcDbLine
 10
142.2906746316451
 20
45.68246477700171
 30
0.0
 11
147.0903817374941
 21
46.88239155346394
 31
0.0
  0
LINE
  5
3543
330
1F
100
AcDbEntity
  8
SPOJOVACÍ
  6
Continuous
100
AcDbLine
 10
142.2906746316451
 20
45.68246477700171
 30
0.0
 11
142.6683260069561
 21
45.90105608902098
 31
0.0
  0
LINE
  5
3544
330
1F
100
AcDbEntity
  8
SPOJOVACÍ
  6
Continuous
100
AcDbLine
 10
142.2906746316451
 20
45.68246477700171
 30
0.0
 11
142.6683260069561
 21
45.30481340387353
 31
0.0
  0
LINE
  5
3545
330
1F
100
AcDbEntity
  8
SPOJOVACÍ
  6
Continuous
100
AcDbLine
 10
147.0903817374941
 20
46.88239155346394
 30
0.0
 11
146.7127303665487
 21
47.26097310229391
 31
0.0
  0
LINE
  5
3546
330
1F
100
AcDbEntity
  8
SPOJOVACÍ
  6
Continuous
100
AcDbLine
 10
147.0903817374941
 20
46.88239155346394
 30
0.0
 11
146.7127303665487
 21
46.66473041741568
 31
0.0
  0
LINE
  5
3547
330
1F
100
AcDbEntity
  8
SPOJOVACÍ
  6
Continuous
100
AcDbLine
 10
142.6683260069561
 20
45.90105608902098
 30
0.0
 11
146.7127303665487
 21
47.26097310229391
 31
0.0
  0
LINE
  5
3548
330
1F
100
AcDbEntity
  8
SPOJOVACÍ
  6
Continuous
100
AcDbLine
 10
142.6683260069561
 20
45.30481340387353
 30
0.0
 11
146.7127303665487
 21
46.66473041741568
 31
0.0
  0
LINE
  5
3549
330
1F
100
AcDbEntity
  8
SPOJOVACÍ
  6
Continuous
100
AcDbLine
 10
142.2906746316451
 20
48.80320457194187
 30
0.0
 11
147.0903817374941
 21
50.00313134840411
 31
0.0
  0
LINE
  5
354A
330
1F
100
AcDbEntity
  8
SPOJOVACÍ
  6
Continuous
100
AcDbLine
 10
142.2906746316451
 20
48.80320457194187
 30
0.0
 11
142.6683260069561
 21
49.02086570799013
 31
0.0
  0
LINE
  5
354B
330
1F
100
AcDbEntity
  8
SPOJOVACÍ
  6
Continuous
100
AcDbLine
 10
142.2906746316451
 20
48.80320457194187
 30
0.0
 11
142.6683260069561
 21
48.42462302283542
 31
0.0
  0
LINE
  5
354C
330
1F
100
AcDbEntity
  8
SPOJOVACÍ
  6
Continuous
100
AcDbLine
 10
147.0903817374941
 20
50.00313134840411
 30
0.0
 11
146.7127303665487
 21
50.38078272153228
 31
0.0
  0
LINE
  5
354D
330
1F
100
AcDbEntity
  8
SPOJOVACÍ
  6
Continuous
100
AcDbLine
 10
147.0903817374941
 20
50.00313134840411
 30
0.0
 11
146.7127303665487
 21
49.78454003637756
 31
0.0
  0
LINE
  5
354E
330
1F
100
AcDbEntity
  8
SPOJOVACÍ
  6
Continuous
100
AcDbLine
 10
142.6683260069561
 20
49.02086570799013
 30
0.0
 11
146.7127303665487
 21
50.38078272153228
 31
0.0
  0
LINE
  5
354F
330
1F
100
AcDbEntity
  8
SPOJOVACÍ
  6
Continuous
100
AcDbLine
 10
142.6683260069561
 20
48.42462302283542
 30
0.0
 11
146.7127303665487
 21
49.78454003637756
 31
0.0
  0
HATCH
  5
3550
330
1F
100
AcDbEntity
  8
NOSNÉ KONSTRUKCE
100
AcDbHatch
 10
0.0
 20
0.0
 30
0.0
210
0.0
220
0.0
230
1.0
  2
SOLID
 70
     1
 71
     1
 91
        1
 92
        7
 72
     1
 73
     1
 93
       16
 10
70.4486253519766
 20
167.909306468648
 42
0.0
 10
-51.36518324177325
 20
167.909306468648
 42
-0.4142135623730707
 10
-58.7151832417718
 20
175.259306468647
 42
0.0
 10
-58.71518324177543
 20
203.1893064686482
 42
0.0
 10
-64.93827894490698
 20
203.1893064686482
 42
0.0
 10
-64.93827894491062
 20
128.7093064686477
 42
0.0
 10
-58.71518324176816
 20
128.7093064686491
 42
0.0
 10
-58.7151832417718
 20
156.6393064686466
 42
-0.4142135623730922
 10
-51.36518324177325
 20
163.9893064686479
 42
0.0
 10
70.4486253519766
 20
163.9893064686479
 42
-0.4142135623731899
 10
77.79862535197878
 20
156.6393064686475
 42
0.0
 10
77.79862535197515
 20
128.7093064686482
 42
0.0
 10
84.02172105509942
 20
128.7093064686482
 42
0.0
 10
84.02172105509942
 20
203.1893064686482
 42
0.0
 10
77.79862535197515
 20
203.1893064686482
 42
0.0
 10
77.79862535197878
 20
175.2593064686488
 42
-0.4142135623731584
 97
       16
330
3561
330
3563
330
3562
330
3566
330
3569
330
3568
330
3567
330
3558
330
356B
330
356C
330
356A
330
3565
330
3564
330
355F
330
355E
330
355D
 75
     0
 76
     1
 47
0.4724247592908173
 98
        1
 10
78.9349207950703
 20
166.3243123017468
  0
LINE
  5
3551
330
1F
100
AcDbEntity
  8
izolace
  6
IZOLACE
 48
6.0
100
AcDbLine
 10
9.54172017891085
 20
167.909306468648
 30
0.0
 11
9.541720178914488
 21
266.554863270468
 31
0.0
  0
LINE
  5
3552
330
1F
100
AcDbEntity
  8
STAVBA OBRYS
100
AcDbLine
 10
70.4486253519766
 20
167.909306468648
 30
0.0
 11
70.44862535197296
 21
264.5797458864048
 31
0.0
  0
LINE
  5
3553
330
1F
100
AcDbEntity
  8
STAVBA OBRYS
100
AcDbLine
 10
-51.36518259921524
 20
167.9093064686475
 30
0.0
 11
-51.36518259921524
 21
264.5797458864048
 31
0.0
  0
LINE
  5
3554
330
1F
100
AcDbEntity
  8
izolace
  6
IZOLACE
 48
6.0
100
AcDbLine
 10
9.541720178914488
 20
-82.93143888311766
 30
0.0
 11
9.54172017891085
 21
163.9893064686479
 31
0.0
  0
LINE
  5
3555
330
1F
100
AcDbEntity
  8
STAVBA OBRYS
100
AcDbLine
 10
-51.36518324177325
 20
163.9893064686479
 30
0.0
 11
-51.36518324177325
 21
-86.03496676458467
 31
0.0
  0
LINE
  5
3556
330
1F
100
AcDbEntity
  8
STAVBA OBRYS
100
AcDbLine
 10
70.44862359959859
 20
163.989306468647
 30
0.0
 11
70.44862359960223
 21
-85.68857023070092
 31
0.0
  0
LINE
  5
3557
330
1F
100
AcDbEntity
  8
STAVBA OBRYS
100
AcDbLine
 10
-94.93827894490335
 20
265.230045697488
 30
0.0
 11
-94.93827894490335
 21
-85.68857023070092
 31
0.0
  0
LINE
  5
3558
102
{ACAD_REACTORS
330
3550
102
}
330
1F
100
AcDbEntity
  8
STAVBA OBRYS
100
AcDbLine
 10
-64.93827894490334
 20
265.230045697488
 30
0.0
 11
-64.93827894490334
 21
-85.68857023070092
 31
0.0
  0
LINE
  5
3559
330
1F
100
AcDbEntity
  8
STAVBA OBRYS
100
AcDbLine
 10
-77.43827894490334
 20
265.230045697488
 30
0.0
 11
-77.43827894490334
 21
-85.68857023070092
 31
0.0
  0
LINE
  5
355A
330
1F
100
AcDbEntity
  8
STAVBA OBRYS
100
AcDbLine
 10
-89.93827894490335
 20
265.230045697488
 30
0.0
 11
-89.93827894490335
 21
-85.68857023070092
 31
0.0
  0
LINE
  5
355B
330
1F
100
AcDbEntity
  8
STAVBA OBRYS
100
AcDbLine
 10
109.021721055103
 20
265.230045697488
 30
0.0
 11
109.021721055103
 21
-85.68857023070092
 31
0.0
  0
LINE
  5
355C
330
1F
100
AcDbEntity
  8
STAVBA OBRYS
100
AcDbLine
 10
96.52172105510306
 20
265.230045697488
 30
0.0
 11
96.52172105510306
 21
-85.68857023070092
 31
0.0
  0
LINE
  5
355D
102
{ACAD_REACTORS
330
3550
102
}
330
1F
100
AcDbEntity
  8
STAVBA OBRYS
100
AcDbLine
 10
84.02172105510306
 20
265.230045697488
 30
0.0
 11
84.02172105510306
 21
-85.68857023070092
 31
0.0
  0
LINE
  5
355E
102
{ACAD_REACTORS
330
3550
102
}
330
1F
100
AcDbEntity
  8
NOSNÉ KONSTRUKCE
100
AcDbLine
 10
77.79862535197878
 20
128.7093064686482
 30
0.0
 11
84.02172105510306
 21
128.7093064686482
 31
0.0
  0
LINE
  5
355F
102
{ACAD_REACTORS
330
3550
102
}
330
1F
100
AcDbEntity
  8
NOSNÉ KONSTRUKCE
100
AcDbLine
 10
77.79862535197878
 20
156.6393064686485
 30
0.0
 11
77.79862535197878
 21
128.7093064686482
 31
0.0
  0
LINE
  5
3560
330
1F
100
AcDbEntity
  8
NOSNÉ KONSTRUKCE
100
AcDbLine
 10
84.02172105510306
 20
128.7093064686482
 30
0.0
 11
84.02172105510306
 21
203.1893064686482
 31
0.0
  0
LINE
  5
3561
102
{ACAD_REACTORS
330
3550
102
}
330
1F
100
AcDbEntity
  8
NOSNÉ KONSTRUKCE
100
AcDbLine
 10
77.79862535197878
 20
203.1893064686482
 30
0.0
 11
84.02172105510306
 21
203.1893064686482
 31
0.0
  0
ARC
  5
3562
102
{ACAD_REACTORS
330
3550
102
}
330
1F
100
AcDbEntity
  8
NOSNÉ KONSTRUKCE
100
AcDbCircle
 10
70.4486253519766
 20
175.2593064686474
 30
0.0
 40
7.349999999999999
100
AcDbArc
 50
269.9999230467716
 51
359.9999255511882
  0
LINE
  5
3563
102
{ACAD_REACTORS
330
3550
102
}
330
1F
100
AcDbEntity
  8
NOSNÉ KONSTRUKCE
100
AcDbLine
 10
77.79862535197878
 20
175.2593064686483
 30
0.0
 11
77.79862535197878
 21
203.1893064686482
 31
0.0
  0
ARC
  5
3564
102
{ACAD_REACTORS
330
3550
102
}
330
1F
100
AcDbEntity
  8
NOSNÉ KONSTRUKCE
100
AcDbCircle
 10
70.4486253519766
 20
156.6393064686475
 30
0.0
 40
7.349999999999999
100
AcDbArc
 50
0.0000111559617483
 51
90.00001366037835
  0
LINE
  5
3565
102
{ACAD_REACTORS
330
3550
102
}
330
1F
100
AcDbEntity
  8
NOSNÉ KONSTRUKCE
100
AcDbLine
 10
-51.36518324177325
 20
163.9893064686479
 30
0.0
 11
70.4486253519766
 21
163.9893064686479
 31
0.0
  0
LINE
  5
3566
102
{ACAD_REACTORS
330
3550
102
}
330
1F
100
AcDbEntity
  8
NOSNÉ KONSTRUKCE
100
AcDbLine
 10
-51.36518324177325
 20
167.909306468648
 30
0.0
 11
70.4486253519766
 21
167.909306468648
 31
0.0
  0
LINE
  5
3567
102
{ACAD_REACTORS
330
3550
102
}
330
1F
100
AcDbEntity
  8
NOSNÉ KONSTRUKCE
100
AcDbLine
 10
-64.93827894489607
 20
203.1893064686482
 30
0.0
 11
-58.7151832417718
 21
203.1893064686482
 31
0.0
  0
LINE
  5
3568
102
{ACAD_REACTORS
330
3550
102
}
330
1F
100
AcDbEntity
  8
NOSNÉ KONSTRUKCE
100
AcDbLine
 10
-58.7151832417718
 20
175.2593064686483
 30
0.0
 11
-58.7151832417718
 21
203.1893064686482
 31
0.0
  0
ARC
  5
3569
102
{ACAD_REACTORS
330
3550
102
}
330
1F
100
AcDbEntity
  8
NOSNÉ KONSTRUKCE
100
AcDbCircle
 10
-51.36518324177325
 20
175.2593064686474
 30
0.0
 40
7.349999999999999
100
AcDbArc
 50
180.0000025044165
 51
270.0000050090415
  0
ARC
  5
356A
102
{ACAD_REACTORS
330
3550
102
}
330
1F
100
AcDbEntity
  8
NOSNÉ KONSTRUKCE
100
AcDbCircle
 10
-51.36518324177325
 20
156.6393064686475
 30
0.0
 40
7.349999999999999
100
AcDbArc
 50
89.9999316981083
 51
179.9999342025248
  0
LINE
  5
356B
102
{ACAD_REACTORS
330
3550
102
}
330
1F
100
AcDbEntity
  8
NOSNÉ KONSTRUKCE
100
AcDbLine
 10
-64.93827894489607
 20
128.7093064686482
 30
0.0
 11
-58.7151832417718
 21
128.7093064686482
 31
0.0
  0
LINE
  5
356C
102
{ACAD_REACTORS
330
3550
102
}
330
1F
100
AcDbEntity
  8
NOSNÉ KONSTRUKCE
100
AcDbLine
 10
-58.7151832417718
 20
156.6393064686485
 30
0.0
 11
-58.7151832417718
 21
128.7093064686482
 31
0.0
  0
LINE
  5
356D
330
1F
100
AcDbEntity
  8
NOSNÉ KONSTRUKCE
100
AcDbLine
 10
-64.93827894489607
 20
128.7093064686482
 30
0.0
 11
-64.93827894489607
 21
203.1893064686482
 31
0.0
  0
LINE
  5
356E
330
1F
100
AcDbEntity
  8
SPOJOVACÍ
  6
CIKCAK
 48
0.25
100
AcDbLine
 10
112.5238404191999
 20
59.9696048385967
 30
0.0
 11
72.93146408805603
 21
59.96960483859578
 31
0.0
  0
LINE
  5
356F
330
1F
100
AcDbEntity
  8
SPOJOVACÍ
 48
0.25
100
AcDbLine
 10
72.93146408805603
 20
59.96960483859578
 30
0.0
 11
67.28202374733644
 21
63.49507126207157
 31
0.0
  0
LINE
  5
3570
330
1F
100
AcDbEntity
  8
SPOJOVACÍ
 48
0.25
100
AcDbLine
 10
72.93146408805239
 20
67.020537685546
 30
0.0
 11
67.28202374733644
 21
63.49507126207157
 31
0.0
  0
LINE
  5
3571
330
1F
100
AcDbEntity
  8
SPOJOVACÍ
  6
CIKCAK
 48
0.25
100
AcDbLine
 10
112.5238404192035
 20
67.020537685546
 30
0.0
 11
72.93146408805239
 21
67.020537685546
 31
0.0
  0
LINE
  5
3572
330
1F
100
AcDbEntity
  8
SPOJOVACÍ
100
AcDbLine
 10
114.5604317832634
 20
70.24507126207112
 30
0.0
 11
114.5604317832634
 21
56.74507126207112
 31
0.0
  0
LINE
  5
3573
330
1F
100
AcDbEntity
  8
SPOJOVACÍ
  6
Continuous
100
AcDbLine
 10
106.5954827536673
 20
66.34114758499203
 30
0.0
 11
105.1724445922094
 21
60.6489949391493
 31
0.0
  0
LINE
  5
3574
330
1F
100
AcDbEntity
  8
SPOJOVACÍ
  6
Continuous
100
AcDbLine
 10
106.5954827536673
 20
66.34114758499203
 30
0.0
 11
106.337350250132
 21
65.89327665708418
 31
0.0
  0
LINE
  5
3575
330
1F
100
AcDbEntity
  8
SPOJOVACÍ
  6
Continuous
100
AcDbLine
 10
106.5954827536673
 20
66.34114758499203
 30
0.0
 11
107.0444568095566
 21
65.89327665708418
 31
0.0
  0
LINE
  5
3576
330
1F
100
AcDbEntity
  8
SPOJOVACÍ
  6
Continuous
100
AcDbLine
 10
105.1724445922094
 20
60.6489949391493
 30
0.0
 11
104.7245736668895
 21
61.09686586187985
 31
0.0
  0
LINE
  5
3577
330
1F
100
AcDbEntity
  8
SPOJOVACÍ
  6
Continuous
100
AcDbLine
 10
105.1724445922094
 20
60.6489949391493
 30
0.0
 11
105.4316802263105
 21
61.09686586187985
 31
0.0
  0
LINE
  5
3578
330
1F
100
AcDbEntity
  8
SPOJOVACÍ
  6
Continuous
100
AcDbLine
 10
106.337350250132
 20
65.89327665708418
 30
0.0
 11
104.7245736668895
 21
61.09686586187985
 31
0.0
  0
LINE
  5
3579
330
1F
100
AcDbEntity
  8
SPOJOVACÍ
  6
Continuous
100
AcDbLine
 10
107.0444568095566
 20
65.89327665708418
 30
0.0
 11
105.4316802263105
 21
61.09686586187985
 31
0.0
  0
LINE
  5
357A
330
1F
100
AcDbEntity
  8
SPOJOVACÍ
  6
Continuous
100
AcDbLine
 10
109.9914726679174
 20
66.34114758499203
 30
0.0
 11
108.5684345064595
 21
60.6489949391493
 31
0.0
  0
LINE
  5
357B
330
1F
100
AcDbEntity
  8
SPOJOVACÍ
  6
Continuous
100
AcDbLine
 10
109.9914726679174
 20
66.34114758499203
 30
0.0
 11
109.7333401643821
 21
65.89327665708418
 31
0.0
  0
LINE
  5
357C
330
1F
100
AcDbEntity
  8
SPOJOVACÍ
  6
Continuous
100
AcDbLine
 10
109.9914726679174
 20
66.34114758499203
 30
0.0
 11
110.4404467238067
 21
65.89327665708418
 31
0.0
  0
LINE
  5
357D
330
1F
100
AcDbEntity
  8
SPOJOVACÍ
  6
Continuous
100
AcDbLine
 10
108.5684345064595
 20
60.6489949391493
 30
0.0
 11
108.1205635811396
 21
61.09686586187985
 31
0.0
  0
LINE
  5
357E
330
1F
100
AcDbEntity
  8
SPOJOVACÍ
  6
Continuous
100
AcDbLine
 10
108.5684345064595
 20
60.6489949391493
 30
0.0
 11
108.8276701405606
 21
61.09686586187985
 31
0.0
  0
LINE
  5
357F
330
1F
100
AcDbEntity
  8
SPOJOVACÍ
  6
Continuous
100
AcDbLine
 10
109.7333401643821
 20
65.89327665708418
 30
0.0
 11
108.1205635811396
 21
61.09686586187985
 31
0.0
  0
LINE
  5
3580
330
1F
100
AcDbEntity
  8
SPOJOVACÍ
  6
Continuous
100
AcDbLine
 10
110.4404467238067
 20
65.89327665708418
 30
0.0
 11
108.8276701405606
 21
61.09686586187985
 31
0.0
  0
LINE
  5
3581
330
1F
100
AcDbEntity
  8
SPOJOVACÍ
  6
Continuous
100
AcDbLine
 10
103.6484668953065
 20
65.89327665708418
 30
0.0
 11
102.0356903120604
 21
61.09686586187985
 31
0.0
  0
LINE
  5
3582
330
1F
100
AcDbEntity
  8
SPOJOVACÍ
  6
Continuous
100
AcDbLine
 10
102.9413603358819
 20
65.89327665708418
 30
0.0
 11
101.3285837526394
 21
61.09686586187985
 31
0.0
  0
LINE
  5
3583
330
1F
100
AcDbEntity
  8
SPOJOVACÍ
  6
Continuous
100
AcDbLine
 10
101.7764546779593
 20
60.6489949391493
 30
0.0
 11
102.0356903120604
 21
61.09686586187985
 31
0.0
  0
LINE
  5
3584
330
1F
100
AcDbEntity
  8
SPOJOVACÍ
  6
Continuous
100
AcDbLine
 10
101.7764546779593
 20
60.6489949391493
 30
0.0
 11
101.3285837526394
 21
61.09686586187985
 31
0.0
  0
LINE
  5
3585
330
1F
100
AcDbEntity
  8
SPOJOVACÍ
  6
Continuous
100
AcDbLine
 10
103.1994928394172
 20
66.34114758499203
 30
0.0
 11
103.6484668953065
 21
65.89327665708418
 31
0.0
  0
LINE
  5
3586
330
1F
100
AcDbEntity
  8
SPOJOVACÍ
  6
Continuous
100
AcDbLine
 10
103.1994928394172
 20
66.34114758499203
 30
0.0
 11
102.9413603358819
 21
65.89327665708418
 31
0.0
  0
LINE
  5
3587
330
1F
100
AcDbEntity
  8
SPOJOVACÍ
  6
Continuous
100
AcDbLine
 10
103.1994928394172
 20
66.34114758499203
 30
0.0
 11
101.7764546779593
 21
60.6489949391493
 31
0.0
  0
LINE
  5
3588
330
1F
100
AcDbEntity
  8
SPOJOVACÍ
  6
Continuous
100
AcDbLine
 10
100.2524769810564
 20
65.89327665708418
 30
0.0
 11
98.63970039781031
 21
61.09686586187985
 31
0.0
  0
LINE
  5
3589
330
1F
100
AcDbEntity
  8
SPOJOVACÍ
  6
Continuous
100
AcDbLine
 10
99.5453704216319
 20
65.89327665708418
 30
0.0
 11
97.93259383838938
 21
61.09686586187985
 31
0.0
  0
LINE
  5
358A
330
1F
100
AcDbEntity
  8
SPOJOVACÍ
  6
Continuous
100
AcDbLine
 10
98.38046476370926
 20
60.6489949391493
 30
0.0
 11
98.63970039781031
 21
61.09686586187985
 31
0.0
  0
LINE
  5
358B
330
1F
100
AcDbEntity
  8
SPOJOVACÍ
  6
Continuous
100
AcDbLine
 10
98.38046476370926
 20
60.6489949391493
 30
0.0
 11
97.93259383838938
 21
61.09686586187985
 31
0.0
  0
LINE
  5
358C
330
1F
100
AcDbEntity
  8
SPOJOVACÍ
  6
Continuous
100
AcDbLine
 10
99.80350292516721
 20
66.34114758499203
 30
0.0
 11
100.2524769810564
 21
65.89327665708418
 31
0.0
  0
LINE
  5
358D
330
1F
100
AcDbEntity
  8
SPOJOVACÍ
  6
Continuous
100
AcDbLine
 10
99.80350292516721
 20
66.34114758499203
 30
0.0
 11
99.5453704216319
 21
65.89327665708418
 31
0.0
  0
LINE
  5
358E
330
1F
100
AcDbEntity
  8
SPOJOVACÍ
  6
Continuous
100
AcDbLine
 10
99.80350292516721
 20
66.34114758499203
 30
0.0
 11
98.38046476370926
 21
60.6489949391493
 31
0.0
  0
LINE
  5
358F
330
1F
100
AcDbEntity
  8
SPOJOVACÍ
  6
Continuous
100
AcDbLine
 10
96.85648706680638
 20
65.89327665708418
 30
0.0
 11
95.24371048356021
 21
61.09686586187985
 31
0.0
  0
LINE
  5
3590
330
1F
100
AcDbEntity
  8
SPOJOVACÍ
  6
Continuous
100
AcDbLine
 10
96.14938050738182
 20
65.89327665708418
 30
0.0
 11
94.53660392413928
 21
61.09686586187985
 31
0.0
  0
LINE
  5
3591
330
1F
100
AcDbEntity
  8
SPOJOVACÍ
  6
Continuous
100
AcDbLine
 10
94.98447484945916
 20
60.6489949391493
 30
0.0
 11
95.24371048356021
 21
61.09686586187985
 31
0.0
  0
LINE
  5
3592
330
1F
100
AcDbEntity
  8
SPOJOVACÍ
  6
Continuous
100
AcDbLine
 10
94.98447484945916
 20
60.6489949391493
 30
0.0
 11
94.53660392413928
 21
61.09686586187985
 31
0.0
  0
LINE
  5
3593
330
1F
100
AcDbEntity
  8
SPOJOVACÍ
  6
Continuous
100
AcDbLine
 10
96.40751301091711
 20
66.34114758499203
 30
0.0
 11
96.85648706680638
 21
65.89327665708418
 31
0.0
  0
LINE
  5
3594
330
1F
100
AcDbEntity
  8
SPOJOVACÍ
  6
Continuous
100
AcDbLine
 10
96.40751301091711
 20
66.34114758499203
 30
0.0
 11
96.14938050738182
 21
65.89327665708418
 31
0.0
  0
LINE
  5
3595
330
1F
100
AcDbEntity
  8
SPOJOVACÍ
  6
Continuous
100
AcDbLine
 10
96.40751301091711
 20
66.34114758499203
 30
0.0
 11
94.98447484945916
 21
60.6489949391493
 31
0.0
  0
LINE
  5
3596
330
1F
100
AcDbEntity
  8
SPOJOVACÍ
  6
Continuous
100
AcDbLine
 10
93.46049715255629
 20
65.89327665708418
 30
0.0
 11
91.84772056931013
 21
61.09686586187985
 31
0.0
  0
LINE
  5
3597
330
1F
100
AcDbEntity
  8
SPOJOVACÍ
  6
Continuous
100
AcDbLine
 10
92.75339059313171
 20
65.89327665708418
 30
0.0
 11
91.14061400988919
 21
61.09686586187985
 31
0.0
  0
LINE
  5
3598
330
1F
100
AcDbEntity
  8
SPOJOVACÍ
  6
Continuous
100
AcDbLine
 10
91.58848493520906
 20
60.6489949391493
 30
0.0
 11
91.84772056931013
 21
61.09686586187985
 31
0.0
  0
LINE
  5
3599
330
1F
100
AcDbEntity
  8
SPOJOVACÍ
  6
Continuous
100
AcDbLine
 10
91.58848493520906
 20
60.6489949391493
 30
0.0
 11
91.14061400988919
 21
61.09686586187985
 31
0.0
  0
LINE
  5
359A
330
1F
100
AcDbEntity
  8
SPOJOVACÍ
  6
Continuous
100
AcDbLine
 10
93.01152309666703
 20
66.34114758499203
 30
0.0
 11
93.46049715255629
 21
65.89327665708418
 31
0.0
  0
LINE
  5
359B
330
1F
100
AcDbEntity
  8
SPOJOVACÍ
  6
Continuous
100
AcDbLine
 10
93.01152309666703
 20
66.34114758499203
 30
0.0
 11
92.75339059313171
 21
65.89327665708418
 31
0.0
  0
LINE
  5
359C
330
1F
100
AcDbEntity
  8
SPOJOVACÍ
  6
Continuous
100
AcDbLine
 10
93.01152309666703
 20
66.34114758499203
 30
0.0
 11
91.58848493520906
 21
60.6489949391493
 31
0.0
  0
LINE
  5
359D
330
1F
100
AcDbEntity
  8
SPOJOVACÍ
  6
Continuous
100
AcDbLine
 10
90.06450723830619
 20
65.89327665708418
 30
0.0
 11
88.45173065506003
 21
61.09686586187985
 31
0.0
  0
LINE
  5
359E
330
1F
100
AcDbEntity
  8
SPOJOVACÍ
  6
Continuous
100
AcDbLine
 10
89.35740067888161
 20
65.89327665708418
 30
0.0
 11
87.74462409563909
 21
61.09686586187985
 31
0.0
  0
LINE
  5
359F
330
1F
100
AcDbEntity
  8
SPOJOVACÍ
  6
Continuous
100
AcDbLine
 10
88.19249502095898
 20
60.6489949391493
 30
0.0
 11
88.45173065506003
 21
61.09686586187985
 31
0.0
  0
LINE
  5
35A0
330
1F
100
AcDbEntity
  8
SPOJOVACÍ
  6
Continuous
100
AcDbLine
 10
88.19249502095898
 20
60.6489949391493
 30
0.0
 11
87.74462409563909
 21
61.09686586187985
 31
0.0
  0
LINE
  5
35A1
330
1F
100
AcDbEntity
  8
SPOJOVACÍ
  6
Continuous
100
AcDbLine
 10
89.61553318241692
 20
66.34114758499203
 30
0.0
 11
90.06450723830619
 21
65.89327665708418
 31
0.0
  0
LINE
  5
35A2
330
1F
100
AcDbEntity
  8
SPOJOVACÍ
  6
Continuous
100
AcDbLine
 10
89.61553318241692
 20
66.34114758499203
 30
0.0
 11
89.35740067888161
 21
65.89327665708418
 31
0.0
  0
LINE
  5
35A3
330
1F
100
AcDbEntity
  8
SPOJOVACÍ
  6
Continuous
100
AcDbLine
 10
89.61553318241692
 20
66.34114758499203
 30
0.0
 11
88.19249502095898
 21
60.6489949391493
 31
0.0
  0
LINE
  5
35A4
330
1F
100
AcDbEntity
  8
SPOJOVACÍ
  6
Continuous
100
AcDbLine
 10
86.66851732405609
 20
65.89327665708418
 30
0.0
 11
85.05574074080994
 21
61.09686586187985
 31
0.0
  0
LINE
  5
35A5
330
1F
100
AcDbEntity
  8
SPOJOVACÍ
  6
Continuous
100
AcDbLine
 10
85.96141076463153
 20
65.89327665708418
 30
0.0
 11
84.34863418138901
 21
61.09686586187985
 31
0.0
  0
LINE
  5
35A6
330
1F
100
AcDbEntity
  8
SPOJOVACÍ
  6
Continuous
100
AcDbLine
 10
84.79650510670888
 20
60.6489949391493
 30
0.0
 11
85.05574074080994
 21
61.09686586187985
 31
0.0
  0
LINE
  5
35A7
330
1F
100
AcDbEntity
  8
SPOJOVACÍ
  6
Continuous
100
AcDbLine
 10
84.79650510670888
 20
60.6489949391493
 30
0.0
 11
84.34863418138901
 21
61.09686586187985
 31
0.0
  0
LINE
  5
35A8
330
1F
100
AcDbEntity
  8
SPOJOVACÍ
  6
Continuous
100
AcDbLine
 10
86.21954326816682
 20
66.34114758499203
 30
0.0
 11
86.66851732405609
 21
65.89327665708418
 31
0.0
  0
LINE
  5
35A9
330
1F
100
AcDbEntity
  8
SPOJOVACÍ
  6
Continuous
100
AcDbLine
 10
86.21954326816682
 20
66.34114758499203
 30
0.0
 11
85.96141076463153
 21
65.89327665708418
 31
0.0
  0
LINE
  5
35AA
330
1F
100
AcDbEntity
  8
SPOJOVACÍ
  6
Continuous
100
AcDbLine
 10
86.21954326816682
 20
66.34114758499203
 30
0.0
 11
84.79650510670888
 21
60.6489949391493
 31
0.0
  0
LINE
  5
35AB
330
1F
100
AcDbEntity
  8
SPOJOVACÍ
  6
Continuous
100
AcDbLine
 10
82.82355335391674
 20
66.34114758499203
 30
0.0
 11
81.40051519245877
 21
60.6489949391493
 31
0.0
  0
LINE
  5
35AC
330
1F
100
AcDbEntity
  8
SPOJOVACÍ
  6
Continuous
100
AcDbLine
 10
82.82355335391674
 20
66.34114758499203
 30
0.0
 11
82.56542085038143
 21
65.89327665708418
 31
0.0
  0
LINE
  5
35AD
330
1F
100
AcDbEntity
  8
SPOJOVACÍ
  6
Continuous
100
AcDbLine
 10
82.82355335391674
 20
66.34114758499203
 30
0.0
 11
83.272527409806
 21
65.89327665708418
 31
0.0
  0
LINE
  5
35AE
330
1F
100
AcDbEntity
  8
SPOJOVACÍ
  6
Continuous
100
AcDbLine
 10
81.40051519245877
 20
60.6489949391493
 30
0.0
 11
80.95264426713891
 21
61.09686586187985
 31
0.0
  0
LINE
  5
35AF
330
1F
100
AcDbEntity
  8
SPOJOVACÍ
  6
Continuous
100
AcDbLine
 10
81.40051519245877
 20
60.6489949391493
 30
0.0
 11
81.65975082655984
 21
61.09686586187985
 31
0.0
  0
LINE
  5
35B0
330
1F
100
AcDbEntity
  8
SPOJOVACÍ
  6
Continuous
100
AcDbLine
 10
82.56542085038143
 20
65.89327665708418
 30
0.0
 11
80.95264426713891
 21
61.09686586187985
 31
0.0
  0
LINE
  5
35B1
330
1F
100
AcDbEntity
  8
SPOJOVACÍ
  6
Continuous
100
AcDbLine
 10
83.272527409806
 20
65.89327665708418
 30
0.0
 11
81.65975082655984
 21
61.09686586187985
 31
0.0
  0
LINE
  5
35B2
330
1F
100
AcDbEntity
  8
SPOJOVACÍ
  6
DASHED
100
AcDbLine
 10
66.45978646182391
 20
63.49507126207067
 30
0.0
 11
79.165046585514
 21
61.78413376207067
 31
0.0
  0
LINE
  5
35B3
330
1F
100
AcDbEntity
  8
SPOJOVACÍ
  6
DASHED
100
AcDbLine
 10
66.45978646182391
 20
63.49507126207067
 30
0.0
 11
79.16504658551764
 21
65.20600876207021
 31
0.0
  0
LINE
  5
35B4
330
1F
100
AcDbEntity
  8
SPOJOVACÍ
  6
DASHED
100
AcDbLine
 10
79.165046585514
 20
61.78413376207067
 30
0.0
 11
111.3777974806847
 21
61.78413376207067
 31
0.0
  0
LINE
  5
35B5
330
1F
100
AcDbEntity
  8
SPOJOVACÍ
  6
DASHED
100
AcDbLine
 10
79.16504658551764
 20
65.20600876207021
 30
0.0
 11
111.3777974806884
 21
65.20600876207021
 31
0.0
  0
LINE
  5
35B6
330
1F
100
AcDbEntity
  8
SPOJOVACÍ
  6
Continuous
100
AcDbLine
 10
79.8765374955559
 20
65.89327665708418
 30
0.0
 11
78.26376091230975
 21
61.09686586187985
 31
0.0
  0
LINE
  5
35B7
330
1F
100
AcDbEntity
  8
SPOJOVACÍ
  6
Continuous
100
AcDbLine
 10
79.16943093613133
 20
65.89327665708418
 30
0.0
 11
77.55665435288881
 21
61.09686586187985
 31
0.0
  0
LINE
  5
35B8
330
1F
100
AcDbEntity
  8
SPOJOVACÍ
  6
Continuous
100
AcDbLine
 10
78.00452527820869
 20
60.6489949391493
 30
0.0
 11
78.26376091230975
 21
61.09686586187985
 31
0.0
  0
LINE
  5
35B9
330
1F
100
AcDbEntity
  8
SPOJOVACÍ
  6
Continuous
100
AcDbLine
 10
78.00452527820869
 20
60.6489949391493
 30
0.0
 11
77.55665435288881
 21
61.09686586187985
 31
0.0
  0
LINE
  5
35BA
330
1F
100
AcDbEntity
  8
SPOJOVACÍ
  6
Continuous
100
AcDbLine
 10
79.42756343966664
 20
66.34114758499203
 30
0.0
 11
79.8765374955559
 21
65.89327665708418
 31
0.0
  0
LINE
  5
35BB
330
1F
100
AcDbEntity
  8
SPOJOVACÍ
  6
Continuous
100
AcDbLine
 10
79.42756343966664
 20
66.34114758499203
 30
0.0
 11
79.16943093613133
 21
65.89327665708418
 31
0.0
  0
LINE
  5
35BC
330
1F
100
AcDbEntity
  8
SPOJOVACÍ
  6
Continuous
100
AcDbLine
 10
79.42756343966664
 20
66.34114758499203
 30
0.0
 11
78.00452527820869
 21
60.6489949391493
 31
0.0
  0
LINE
  5
35BD
330
1F
100
AcDbEntity
  8
SPOJOVACÍ
  6
Continuous
100
AcDbLine
 10
69.94471914859002
 20
64.543524720932
 30
0.0
 11
69.62433172294675
 21
62.32191610630474
 31
0.0
  0
LINE
  5
35BE
330
1F
100
AcDbEntity
  8
SPOJOVACÍ
  6
Continuous
100
AcDbLine
 10
70.33417212712572
 20
64.15407174464457
 30
0.0
 11
69.8487947697771
 21
62.71136908259217
 31
0.0
  0
LINE
  5
35BF
330
1F
100
AcDbEntity
  8
SPOJOVACÍ
  6
Continuous
100
AcDbLine
 10
69.71929685806879
 20
64.15407174464457
 30
0.0
 11
69.23391950071288
 21
62.71136908259217
 31
0.0
  0
LINE
  5
35C0
330
1F
100
AcDbEntity
  8
SPOJOVACÍ
  6
Continuous
100
AcDbLine
 10
69.62433172294675
 20
62.32191610630474
 30
0.0
 11
69.8487947697771
 21
62.71136908259217
 31
0.0
  0
LINE
  5
35C1
330
1F
100
AcDbEntity
  8
SPOJOVACÍ
  6
Continuous
100
AcDbLine
 10
69.62433172294675
 20
62.32191610630474
 30
0.0
 11
69.23391950071288
 21
62.71136908259217
 31
0.0
  0
LINE
  5
35C2
330
1F
100
AcDbEntity
  8
SPOJOVACÍ
  6
Continuous
100
AcDbLine
 10
69.94471914859002
 20
64.543524720932
 30
0.0
 11
70.33417212712572
 21
64.15407174464457
 31
0.0
  0
LINE
  5
35C3
330
1F
100
AcDbEntity
  8
SPOJOVACÍ
  6
Continuous
100
AcDbLine
 10
69.94471914859002
 20
64.543524720932
 30
0.0
 11
69.71929685806879
 21
64.15407174464457
 31
0.0
  0
LINE
  5
35C4
330
1F
100
AcDbEntity
  8
SPOJOVACÍ
  6
Continuous
100
AcDbLine
 10
73.05266902623168
 20
65.12578570360568
 30
0.0
 11
72.39942400581401
 21
61.91231900853603
 31
0.0
  0
LINE
  5
35C5
330
1F
100
AcDbEntity
  8
SPOJOVACÍ
  6
Continuous
100
AcDbLine
 10
73.44308124874567
 20
64.73633272281626
 30
0.0
 11
72.6238870523606
 21
62.30177198482346
 31
0.0
  0
LINE
  5
35C6
330
1F
100
AcDbEntity
  8
SPOJOVACÍ
  6
Continuous
100
AcDbLine
 10
72.82820597968146
 20
64.73633272281626
 30
0.0
 11
72.00901178358378
 21
62.30177198482346
 31
0.0
  0
LINE
  5
35C7
330
1F
100
AcDbEntity
  8
SPOJOVACÍ
  6
Continuous
100
AcDbLine
 10
72.39942400581401
 20
61.91231900853603
 30
0.0
 11
72.6238870523606
 21
62.30177198482346
 31
0.0
  0
LINE
  5
35C8
330
1F
100
AcDbEntity
  8
SPOJOVACÍ
  6
Continuous
100
AcDbLine
 10
72.39942400581401
 20
61.91231900853603
 30
0.0
 11
72.00901178358378
 21
62.30177198482346
 31
0.0
  0
LINE
  5
35C9
330
1F
100
AcDbEntity
  8
SPOJOVACÍ
  6
Continuous
100
AcDbLine
 10
73.05266902623168
 20
65.12578570360568
 30
0.0
 11
73.44308124874567
 21
64.73633272281626
 31
0.0
  0
LINE
  5
35CA
330
1F
100
AcDbEntity
  8
SPOJOVACÍ
  6
Continuous
100
AcDbLine
 10
73.05266902623168
 20
65.12578570360568
 30
0.0
 11
72.82820597968146
 21
64.73633272281626
 31
0.0
  0
LINE
  5
35CB
330
1F
100
AcDbEntity
  8
SPOJOVACÍ
  6
Continuous
100
AcDbLine
 10
76.16157814785163
 20
65.70804668177737
 30
0.0
 11
75.15820914422272
 21
61.45380047738621
 31
0.0
  0
LINE
  5
35CC
330
1F
100
AcDbEntity
  8
SPOJOVACÍ
  6
Continuous
100
AcDbLine
 10
76.55103112639096
 20
65.31763446010922
 30
0.0
 11
75.38267219077295
 21
61.84325345367364
 31
0.0
  0
LINE
  5
35CD
330
1F
100
AcDbEntity
  8
SPOJOVACÍ
  6
Continuous
100
AcDbLine
 10
75.93615585732312
 20
65.31763446010922
 30
0.0
 11
74.76779692170874
 21
61.84325345367364
 31
0.0
  0
LINE
  5
35CE
330
1F
100
AcDbEntity
  8
SPOJOVACÍ
  6
Continuous
100
AcDbLine
 10
75.15820914422272
 20
61.45380047738621
 30
0.0
 11
75.38267219077295
 21
61.84325345367364
 31
0.0
  0
LINE
  5
35CF
330
1F
100
AcDbEntity
  8
SPOJOVACÍ
  6
Continuous
100
AcDbLine
 10
75.15820914422272
 20
61.45380047738621
 30
0.0
 11
74.76779692170874
 21
61.84325345367364
 31
0.0
  0
LINE
  5
35D0
330
1F
100
AcDbEntity
  8
SPOJOVACÍ
  6
Continuous
100
AcDbLine
 10
76.16157814785163
 20
65.70804668177737
 30
0.0
 11
76.55103112639096
 21
65.31763446010922
 31
0.0
  0
LINE
  5
35D1
330
1F
100
AcDbEntity
  8
SPOJOVACÍ
  6
Continuous
100
AcDbLine
 10
76.16157814785163
 20
65.70804668177737
 30
0.0
 11
75.93615585732312
 21
65.31763446010922
 31
0.0
  0
LINE
  5
35D2
330
1F
100
AcDbEntity
  8
SPOJOVACÍ
  6
DASHDOT2
100
AcDbLine
 10
125.8988951500008
 20
63.49507126207112
 30
0.0
 11
57.49313994103193
 21
63.49507126207067
 31
0.0
  0
LINE
  5
35D3
330
1F
100
AcDbEntity
  8
SPOJOVACÍ
100
AcDbLine
 10
116.002020149733
 20
70.24507126207112
 30
0.0
 11
116.002020149733
 21
56.74507126207157
 31
0.0
  0
LINE
  5
35D4
330
1F
100
AcDbEntity
  8
SPOJOVACÍ
100
AcDbLine
 10
116.002020149733
 20
56.74507126207157
 30
0.0
 11
114.5604317832634
 21
56.74507126207112
 31
0.0
  0
LINE
  5
35D5
330
1F
100
AcDbEntity
  8
SPOJOVACÍ
100
AcDbLine
 10
116.002020149733
 20
70.24507126207112
 30
0.0
 11
114.5604317832634
 21
70.24507126207112
 31
0.0
  0
LINE
  5
35D6
330
1F
100
AcDbEntity
  8
SPOJOVACÍ
100
AcDbLine
 10
114.5604317832634
 20
56.74507126207112
 30
0.0
 11
115.4373424053968
 21
56.74507126207157
 31
0.0
  0
LINE
  5
35D7
330
1F
100
AcDbEntity
  8
SPOJOVACÍ
100
AcDbLine
 10
114.5604317832634
 20
56.74507126207112
 30
0.0
 11
111.3777974806847
 21
61.78413376207067
 31
0.0
  0
LINE
  5
35D8
330
1F
100
AcDbEntity
  8
SPOJOVACÍ
  6
DASHED
100
AcDbLine
 10
114.5604317832634
 20
70.24507126207112
 30
0.0
 11
111.3777974806884
 21
65.20600876207021
 31
0.0
  0
LINE
  5
35D9
330
1F
100
AcDbEntity
  8
SPOJOVACÍ
100
AcDbLine
 10
114.5604317832634
 20
70.24507126207112
 30
0.0
 11
115.4373424053968
 21
70.24507126207112
 31
0.0
  0
LINE
  5
35DA
330
1F
100
AcDbEntity
  8
SPOJOVACÍ
100
AcDbLine
 10
115.4373424053968
 20
70.24507126207112
 30
0.0
 11
114.5604317832634
 21
70.24507126207112
 31
0.0
  0
LINE
  5
35DB
330
1F
100
AcDbEntity
  8
CETRIS
100
AcDbLine
 10
114.2397660362888
 20
88.75501903962861
 30
0.0
 11
114.2397660362925
 21
100.755019039629
 31
0.0
  0
LINE
  5
35DC
330
1F
100
AcDbEntity
  8
CETRIS
100
AcDbLine
 10
114.2397660362888
 20
25.52276475487855
 30
0.0
 11
114.2397660362888
 21
37.522764754879
 31
0.0
  0
HATCH
  5
35DD
330
1F
100
AcDbEntity
  8
izolace
100
AcDbHatch
 10
0.0
 20
0.0
 30
0.0
210
0.0
220
0.0
230
1.0
  2
SOLID
 70
     1
 71
     0
 91
        3
 92
        7
 72
     0
 73
     1
 93
        4
 10
112.189926505592
 20
87.98978347793303
 10
110.1899265055957
 20
87.98978347793303
 10
110.189926505592
 20
81.28905854040516
 10
112.189926505592
 20
81.28905854040516
 97
        0
 92
        7
 72
     0
 73
     1
 93
        4
 10
112.189926505592
 20
68.78798153342945
 10
110.189926505592
 20
68.78798153342945
 10
110.189926505592
 20
56.28690452645372
 10
112.189926505592
 20
56.28690452645372
 97
        0
 92
        7
 72
     0
 73
     1
 93
        4
 10
112.1899265055957
 20
43.78582751947845
 10
110.1899265055884
 20
43.78582751947891
 10
110.189926505592
 20
37.98547545003106
 10
112.1899265055957
 20
37.98547545003106
 97
        0
 75
     0
 76
     1
 47
0.0846398039763049
 98
        3
 10
111.4836244605516
 20
83.12010748484448
 10
111.6530101762012
 20
66.44605407928742
 10
111.3989902949518
 20
43.25465741578358
  0
LWPOLYLINE
  5
35DE
330
1F
100
AcDbEntity
  8
izolace
100
AcDbPolyline
 90
        4
 70
     1
 43
0.0
 10
110.189926505592
 20
68.78798153342945
 10
112.1899265055957
 20
68.78798153342945
 10
112.1899265055957
 20
81.28905854040516
 10
110.189926505592
 20
81.28905854040516
  0
LWPOLYLINE
  5
35DF
330
1F
100
AcDbEntity
  8
izolace
100
AcDbPolyline
 90
        4
 70
     1
 43
0.0
 10
110.189926505592
 20
43.78582751947845
 10
112.1899265055957
 20
43.78582751947845
 10
112.1899265055957
 20
56.28690452645372
 10
110.189926505592
 20
56.28690452645372
  0
LINE
  5
35E0
330
1F
100
AcDbEntity
  8
izolace
100
AcDbLine
 10
110.1899265055993
 20
87.98978347793303
 30
0.0
 11
110.189926505592
 21
37.98547545003106
 31
0.0
  0
LINE
  5
35E1
330
1F
100
AcDbEntity
  8
izolace
100
AcDbLine
 10
112.1899265055957
 20
87.98978347793303
 30
0.0
 11
112.1899265055957
 21
37.98547545003106
 31
0.0
  0
LINE
  5
35E2
330
1F
100
AcDbEntity
  8
CETRIS
100
AcDbLine
 10
114.2397660362925
 20
88.75501903962861
 30
0.0
 11
535.1460992703372
 21
88.75501903962907
 31
0.0
  0
LINE
  5
35E3
330
1F
100
AcDbEntity
  8
CETRIS
100
AcDbLine
 10
114.2397660362925
 20
100.7550190396286
 30
0.0
 11
535.1460992703372
 21
100.755019039629
 31
0.0
  0
LINE
  5
35E4
330
1F
100
AcDbEntity
  8
CETRIS
100
AcDbLine
 10
114.2397660362925
 20
25.522764754879
 30
0.0
 11
626.2819557105079
 21
25.522764754879
 31
0.0
  0
LINE
  5
35E5
330
1F
100
AcDbEntity
  8
CETRIS
100
AcDbLine
 10
114.2397660362925
 20
37.522764754879
 30
0.0
 11
628.4921169888088
 21
37.522764754879
 31
0.0
  0
LINE
  5
35E6
330
1F
100
AcDbEntity
  8
NOSNÉ KONSTRUKCE
100
AcDbLine
 10
560.2258833731915
 20
82.66445768425587
 30
0.0
 11
561.7258833731916
 21
82.66445768425587
 31
0.0
  0
LINE
  5
35E7
330
1F
100
AcDbEntity
  8
NOSNÉ KONSTRUKCE
100
AcDbLine
 10
163.9084147451952
 20
43.31080124370913
 30
0.0
 11
162.4084147451952
 21
43.31080124370913
 31
0.0
  0
LINE
  5
35E8
330
1F
100
AcDbEntity
  8
NOSNÉ KONSTRUKCE
100
AcDbLine
 10
160.2258833731915
 20
82.66445768425587
 30
0.0
 11
161.7258833731915
 21
82.66445768425587
 31
0.0
  0
ENDSEC
  0
SECTION
  2
OBJECTS
  0
DICTIONARY
  5
C
330
0
100
AcDbDictionary
281
     1
  3
ACAD_GROUP
350
D
  3
ACAD_LAYOUT
350
1A
  3
ACAD_MLINESTYLE
350
17
  3
ACAD_PLOTSETTINGS
350
19
  3
ACAD_PLOTSTYLENAME
350
E
  0
DICTIONARY
  5
D
102
{ACAD_REACTORS
330
C
102
}
330
C
100
AcDbDictionary
281
     1
  0
DICTIONARY
  5
1A
102
{ACAD_REACTORS
330
C
102
}
330
C
100
AcDbDictionary
281
     1
  3
Model
350
22
  3
Rozvržení1
350
1E
  3
Rozvržení2
350
26
  0
DICTIONARY
  5
17
102
{ACAD_REACTORS
330
C
102
}
330
C
100
AcDbDictionary
281
     1
  3
Standard
350
18
  0
DICTIONARY
  5
19
102
{ACAD_REACTORS
330
C
102
}
330
C
100
AcDbDictionary
281
     1
  0
ACDBDICTIONARYWDFLT
  5
E
102
{ACAD_REACTORS
330
C
102
}
330
C
100
AcDbDictionary
281
     1
  3
Normal
350
F
100
AcDbDictionaryWithDefault
340
F
  0
LAYOUT
  5
22
102
{ACAD_REACTORS
330
1A
102
}
330
1A
100
AcDbPlotSettings
  1

  2
HP DeskJet 690C
  4

  6

 40
0.0
 41
0.0
 42
0.0
 43
0.0
 44
0.0
 45
0.0
 46
0.0
 47
0.0
 48
0.0
 49
0.0
140
0.0
141
0.0
142
1.0
143
1.0
 70
  1712
 72
     0
 73
     0
 74
     0
  7
monochrome.ctb
 75
     0
147
1.0
148
0.0
149
0.0
100
AcDbLayout
  1
Model
 70
     1
 71
     0
 10
0.0
 20
0.0
 11
12.0
 21
9.0
 12
0.0
 22
0.0
 32
0.0
 14
0.0
 24
0.0
 34
0.0
 15
0.0
 25
0.0
 35
0.0
146
0.0
 13
0.0
 23
0.0
 33
0.0
 16
1.0
 26
0.0
 36
0.0
 17
0.0
 27
1.0
 37
0.0
 76
     0
330
1F
  0
LAYOUT
  5
1E
102
{ACAD_REACTORS
330
1A
102
}
330
1A
100
AcDbPlotSettings
  1

  2
HP DeskJet 690C
  4

  6

 40
0.0
 41
0.0
 42
0.0
 43
0.0
 44
0.0
 45
0.0
 46
0.0
 47
0.0
 48
0.0
 49
0.0
140
0.0
141
0.0
142
1.0
143
1.0
 70
   688
 72
     0
 73
     0
 74
     5
  7
monochrome.ctb
 75
    16
147
1.0
148
0.0
149
0.0
100
AcDbLayout
  1
Rozvržení1
 70
     1
 71
     1
 10
0.0
 20
0.0
 11
420.0
 21
297.0
 12
0.0
 22
0.0
 32
0.0
 14
1.000000000000000E+20
 24
1.000000000000000E+20
 34
1.000000000000000E+20
 15
-1.000000000000000E+20
 25
-1.000000000000000E+20
 35
-1.000000000000000E+20
146
0.0
 13
0.0
 23
0.0
 33
0.0
 16
1.0
 26
0.0
 36
0.0
 17
0.0
 27
1.0
 37
0.0
 76
     0
330
1B
  0
LAYOUT
  5
26
102
{ACAD_REACTORS
330
1A
102
}
330
1A
100
AcDbPlotSettings
  1

  2
HP DeskJet 690C
  4

  6

 40
0.0
 41
0.0
 42
0.0
 43
0.0
 44
0.0
 45
0.0
 46
0.0
 47
0.0
 48
0.0
 49
0.0
140
0.0
141
0.0
142
1.0
143
1.0
 70
   688
 72
     0
 73
     0
 74
     5
  7
monochrome.ctb
 75
    16
147
1.0
148
0.0
149
0.0
100
AcDbLayout
  1
Rozvržení2
 70
     1
 71
     2
 10
0.0
 20
0.0
 11
12.0
 21
9.0
 12
0.0
 22
0.0
 32
0.0
 14
0.0
 24
0.0
 34
0.0
 15
0.0
 25
0.0
 35
0.0
146
0.0
 13
0.0
 23
0.0
 33
0.0
 16
1.0
 26
0.0
 36
0.0
 17
0.0
 27
1.0
 37
0.0
 76
     0
330
23
  0
MLINESTYLE
  5
18
102
{ACAD_REACTORS
330
17
102
}
330
17
100
AcDbMlineStyle
  2
STANDARD
 70
     0
  3

 62
   256
 51
90.0
 52
90.0
 71
     2
 49
0.5
 62
   256
  6
BYLAYER
 49
-0.5
 62
   256
  6
BYLAYER
  0
ACDBPLACEHOLDER
  5
F
102
{ACAD_REACTORS
330
E
102
}
330
E
  0
ENDSEC
  0
EOF
