  0
SECTION
  2
HEADER
  9
$ACADVER
  1
AC1015
  9
$ACADMAINTVER
 70
    10
  9
$DWGCODEPAGE
  3
ANSI_1250
  9
$INSBASE
 10
0.0
 20
0.0
 30
0.0
  9
$EXTMIN
 10
-102.3914333059471
 20
-80.3545648994841
 30
0.0
  9
$EXTMAX
 10
1174.77838523659
 20
573.6281385008906
 30
0.0
  9
$LIMMIN
 10
0.0
 20
0.0
  9
$LIMMAX
 10
420.0
 20
297.0
  9
$ORTHOMODE
 70
     0
  9
$REGENMODE
 70
     1
  9
$FILLMODE
 70
     1
  9
$QTEXTMODE
 70
     0
  9
$MIRRTEXT
 70
     1
  9
$LTSCALE
 40
1.0
  9
$ATTMODE
 70
     1
  9
$TEXTSIZE
 40
2.5
  9
$TRACEWID
 40
1.0
  9
$TEXTSTYLE
  7
Standard
  9
$CLAYER
  8
0
  9
$CELTYPE
  6
ByLayer
  9
$CECOLOR
 62
   256
  9
$CELTSCALE
 40
1.0
  9
$DISPSILH
 70
     0
  9
$DIMSCALE
 40
1.0
  9
$DIMASZ
 40
2.5
  9
$DIMEXO
 40
0.625
  9
$DIMDLI
 40
3.75
  9
$DIMRND
 40
0.0
  9
$DIMDLE
 40
0.0
  9
$DIMEXE
 40
1.25
  9
$DIMTP
 40
0.0
  9
$DIMTM
 40
0.0
  9
$DIMTXT
 40
2.5
  9
$DIMCEN
 40
2.5
  9
$DIMTSZ
 40
0.0
  9
$DIMTOL
 70
     0
  9
$DIMLIM
 70
     0
  9
$DIMTIH
 70
     0
  9
$DIMTOH
 70
     0
  9
$DIMSE1
 70
     0
  9
$DIMSE2
 70
     0
  9
$DIMTAD
 70
     1
  9
$DIMZIN
 70
     8
  9
$DIMBLK
  1

  9
$DIMASO
 70
     1
  9
$DIMSHO
 70
     1
  9
$DIMPOST
  1

  9
$DIMAPOST
  1

  9
$DIMALT
 70
     0
  9
$DIMALTD
 70
     3
  9
$DIMALTF
 40
0.03937007874016
  9
$DIMLFAC
 40
1.0
  9
$DIMTOFL
 70
     1
  9
$DIMTVP
 40
0.0
  9
$DIMTIX
 70
     0
  9
$DIMSOXD
 70
     0
  9
$DIMSAH
 70
     0
  9
$DIMBLK1
  1

  9
$DIMBLK2
  1

  9
$DIMSTYLE
  2
ISO-25
  9
$DIMCLRD
 70
     0
  9
$DIMCLRE
 70
     0
  9
$DIMCLRT
 70
     0
  9
$DIMTFAC
 40
1.0
  9
$DIMGAP
 40
0.625
  9
$DIMJUST
 70
     0
  9
$DIMSD1
 70
     0
  9
$DIMSD2
 70
     0
  9
$DIMTOLJ
 70
     0
  9
$DIMTZIN
 70
     8
  9
$DIMALTZ
 70
     0
  9
$DIMALTTZ
 70
     0
  9
$DIMUPT
 70
     0
  9
$DIMDEC
 70
     2
  9
$DIMTDEC
 70
     2
  9
$DIMALTU
 70
     2
  9
$DIMALTTD
 70
     3
  9
$DIMTXSTY
  7
Standard
  9
$DIMAUNIT
 70
     0
  9
$DIMADEC
 70
     0
  9
$DIMALTRND
 40
0.0
  9
$DIMAZIN
 70
     0
  9
$DIMDSEP
 70
    44
  9
$DIMATFIT
 70
     3
  9
$DIMFRAC
 70
     0
  9
$DIMLDRBLK
  1

  9
$DIMLUNIT
 70
     2
  9
$DIMLWD
 70
    -2
  9
$DIMLWE
 70
    -2
  9
$DIMTMOVE
 70
     0
  9
$LUNITS
 70
     2
  9
$LUPREC
 70
     4
  9
$SKETCHINC
 40
1.0
  9
$FILLETRAD
 40
10.0
  9
$AUNITS
 70
     0
  9
$AUPREC
 70
     0
  9
$MENU
  1
.
  9
$ELEVATION
 40
0.0
  9
$PELEVATION
 40
0.0
  9
$THICKNESS
 40
0.0
  9
$LIMCHECK
 70
     0
  9
$CHAMFERA
 40
10.0
  9
$CHAMFERB
 40
10.0
  9
$CHAMFERC
 40
20.0
  9
$CHAMFERD
 40
0.0
  9
$SKPOLY
 70
     0
  9
$TDCREATE
 40
2452333.440837384
  9
$TDUCREATE
 40
2452333.399170718
  9
$TDUPDATE
 40
2452653.356105127
  9
$TDUUPDATE
 40
2452653.314438460
  9
$TDINDWG
 40
0.0050344907
  9
$TDUSRTIMER
 40
0.0050332176
  9
$USRTIMER
 70
     1
  9
$ANGBASE
 50
0.0
  9
$ANGDIR
 70
     0
  9
$PDMODE
 70
     0
  9
$PDSIZE
 40
0.0
  9
$PLINEWID
 40
0.0
  9
$SPLFRAME
 70
     0
  9
$SPLINETYPE
 70
     6
  9
$SPLINESEGS
 70
     8
  9
$HANDSEED
  5
30C7
  9
$SURFTAB1
 70
     6
  9
$SURFTAB2
 70
     6
  9
$SURFTYPE
 70
     6
  9
$SURFU
 70
     6
  9
$SURFV
 70
     6
  9
$UCSBASE
  2

  9
$UCSNAME
  2

  9
$UCSORG
 10
0.0
 20
0.0
 30
0.0
  9
$UCSXDIR
 10
1.0
 20
0.0
 30
0.0
  9
$UCSYDIR
 10
0.0
 20
1.0
 30
0.0
  9
$UCSORTHOREF
  2

  9
$UCSORTHOVIEW
 70
     0
  9
$UCSORGTOP
 10
0.0
 20
0.0
 30
0.0
  9
$UCSORGBOTTOM
 10
0.0
 20
0.0
 30
0.0
  9
$UCSORGLEFT
 10
0.0
 20
0.0
 30
0.0
  9
$UCSORGRIGHT
 10
0.0
 20
0.0
 30
0.0
  9
$UCSORGFRONT
 10
0.0
 20
0.0
 30
0.0
  9
$UCSORGBACK
 10
0.0
 20
0.0
 30
0.0
  9
$PUCSBASE
  2

  9
$PUCSNAME
  2

  9
$PUCSORG
 10
0.0
 20
0.0
 30
0.0
  9
$PUCSXDIR
 10
1.0
 20
0.0
 30
0.0
  9
$PUCSYDIR
 10
0.0
 20
1.0
 30
0.0
  9
$PUCSORTHOREF
  2

  9
$PUCSORTHOVIEW
 70
     0
  9
$PUCSORGTOP
 10
0.0
 20
0.0
 30
0.0
  9
$PUCSORGBOTTOM
 10
0.0
 20
0.0
 30
0.0
  9
$PUCSORGLEFT
 10
0.0
 20
0.0
 30
0.0
  9
$PUCSORGRIGHT
 10
0.0
 20
0.0
 30
0.0
  9
$PUCSORGFRONT
 10
0.0
 20
0.0
 30
0.0
  9
$PUCSORGBACK
 10
0.0
 20
0.0
 30
0.0
  9
$USERI1
 70
     0
  9
$USERI2
 70
     0
  9
$USERI3
 70
     0
  9
$USERI4
 70
     0
  9
$USERI5
 70
     0
  9
$USERR1
 40
0.0
  9
$USERR2
 40
0.0
  9
$USERR3
 40
0.0
  9
$USERR4
 40
0.0
  9
$USERR5
 40
0.0
  9
$WORLDVIEW
 70
     1
  9
$SHADEDGE
 70
     3
  9
$SHADEDIF
 70
    70
  9
$TILEMODE
 70
     1
  9
$MAXACTVP
 70
    64
  9
$PINSBASE
 10
0.0
 20
0.0
 30
0.0
  9
$PLIMCHECK
 70
     0
  9
$PEXTMIN
 10
1.000000000000000E+20
 20
1.000000000000000E+20
 30
1.000000000000000E+20
  9
$PEXTMAX
 10
-1.000000000000000E+20
 20
-1.000000000000000E+20
 30
-1.000000000000000E+20
  9
$PLIMMIN
 10
0.0
 20
0.0
  9
$PLIMMAX
 10
420.0
 20
297.0
  9
$UNITMODE
 70
     0
  9
$VISRETAIN
 70
     1
  9
$PLINEGEN
 70
     0
  9
$PSLTSCALE
 70
     1
  9
$TREEDEPTH
 70
  3020
  9
$CMLSTYLE
  2
Standard
  9
$CMLJUST
 70
     0
  9
$CMLSCALE
 40
20.0
  9
$PROXYGRAPHICS
 70
     1
  9
$MEASUREMENT
 70
     1
  9
$CELWEIGHT
370
    -1
  9
$ENDCAPS
280
     0
  9
$JOINSTYLE
280
     0
  9
$LWDISPLAY
290
     0
  9
$INSUNITS
 70
     4
  9
$HYPERLINKBASE
  1

  9
$STYLESHEET
  1

  9
$XEDIT
290
     1
  9
$CEPSNTYPE
380
     0
  9
$PSTYLEMODE
290
     1
  9
$FINGERPRINTGUID
  2
{E0A79919-1611-4D48-A6CF-929FE36A9D62}
  9
$VERSIONGUID
  2
{841F26F2-6959-4A6C-8A24-D05956E31279}
  9
$EXTNAMES
290
     1
  9
$PSVPSCALE
 40
0.0
  9
$OLESTARTUP
290
     0
  0
ENDSEC
  0
SECTION
  2
CLASSES
  0
CLASS
  1
ACDBDICTIONARYWDFLT
  2
AcDbDictionaryWithDefault
  3
AutoCAD 2000
 90
        0
280
     0
281
     0
  0
CLASS
  1
ACDBPLACEHOLDER
  2
AcDbPlaceHolder
  3
AutoCAD 2000
 90
        0
280
     0
281
     0
  0
CLASS
  1
LAYOUT
  2
AcDbLayout
  3
AutoCAD 2000
 90
        0
280
     0
281
     0
  0
ENDSEC
  0
SECTION
  2
TABLES
  0
TABLE
  2
VPORT
  5
8
330
0
100
AcDbSymbolTable
 70
     2
  0
VPORT
  5
30C6
330
8
100
AcDbSymbolTableRecord
100
AcDbViewportTableRecord
  2
*Active
 70
     0
 10
0.0
 20
0.0
 11
1.0
 21
1.0
 12
532.5347324426132
 22
235.2866613097381
 13
0.0
 23
0.0
 14
10.0
 24
10.0
 15
10.0
 25
10.0
 16
0.0
 26
0.0
 36
1.0
 17
0.0
 27
0.0
 37
0.0
 40
723.9260899462176
 41
1.837209302325581
 42
50.0
 43
0.0
 44
0.0
 50
0.0
 51
0.0
 71
     0
 72
   100
 73
     1
 74
     3
 75
     0
 76
     0
 77
     0
 78
     0
281
     0
 65
     1
110
0.0
120
0.0
130
0.0
111
1.0
121
0.0
131
0.0
112
0.0
122
1.0
132
0.0
 79
     0
146
0.0
  0
ENDTAB
  0
TABLE
  2
LTYPE
  5
5
330
0
100
AcDbSymbolTable
 70
     5
  0
LTYPE
  5
14
330
5
100
AcDbSymbolTableRecord
100
AcDbLinetypeTableRecord
  2
ByBlock
 70
     0
  3

 72
    65
 73
     0
 40
0.0
  0
LTYPE
  5
15
330
5
100
AcDbSymbolTableRecord
100
AcDbLinetypeTableRecord
  2
ByLayer
 70
     0
  3

 72
    65
 73
     0
 40
0.0
  0
LTYPE
  5
16
330
5
100
AcDbSymbolTableRecord
100
AcDbLinetypeTableRecord
  2
Continuous
 70
     0
  3
Solid line
 72
    65
 73
     0
 40
0.0
  0
LTYPE
  5
33
330
5
100
AcDbSymbolTableRecord
100
AcDbLinetypeTableRecord
  2
DASHED
 70
     0
  3
Dashed __ __ __ __ __ __ __ __ __ __ __ __ __ _
 72
    65
 73
     2
 40
19.04999999999999
 49
12.7
 74
     0
 49
-6.349999999999999
 74
     0
  0
LTYPE
  5
34
330
5
100
AcDbSymbolTableRecord
100
AcDbLinetypeTableRecord
  2
DASHDOT2
 70
     0
  3
Dash dot (.5x) _._._._._._._._._._._._._._._.
 72
    65
 73
     4
 40
12.7
 49
6.349999999999999
 74
     0
 49
-3.174999999999999
 74
     0
 49
0.0
 74
     0
 49
-3.174999999999999
 74
     0
  0
LTYPE
  5
35
330
5
100
AcDbSymbolTableRecord
100
AcDbLinetypeTableRecord
  2
CIKCAK
 70
     0
  3
Cik-cak /\/\/\/\/\/\/\/\/\/\/\/\/\/\/\/\/\/\/\/
 72
    65
 73
     4
 40
20.32254
 49
0.00254
 74
     0
 49
-5.08
 74
     4
 75
   131
340
3E
 46
5.08
 50
0.0
 44
-5.08
 45
0.0
 49
-10.16
 74
     4
 75
   131
340
3E
 46
5.08
 50
180.0
 44
5.08
 45
0.0
 49
-5.08
 74
     0
  0
LTYPE
  5
36
330
5
100
AcDbSymbolTableRecord
100
AcDbLinetypeTableRecord
  2
IZOLACE
 70
     0
  3
Izolace SSSSSSSSSSSSSSSSSSSSSSSSSSSSSSSSSSSSSSS
 72
    65
 73
     4
 40
10.16253999999999
 49
0.00254
 74
     0
 49
-2.54
 74
     4
 75
   134
340
3E
 46
2.54
 50
0.0
 44
-2.54
 45
0.0
 49
-5.08
 74
     4
 75
   134
340
3E
 46
2.54
 50
180.0
 44
2.54
 45
0.0
 49
-2.54
 74
     0
  0
ENDTAB
  0
TABLE
  2
LAYER
  5
2
330
0
100
AcDbSymbolTable
 70
     7
  0
LAYER
  5
10
330
2
100
AcDbSymbolTableRecord
100
AcDbLayerTableRecord
  2
0
 70
     0
 62
     7
  6
Continuous
370
    -3
390
F
  0
LAYER
  5
37
330
2
100
AcDbSymbolTableRecord
100
AcDbLayerTableRecord
  2
POPIS
 70
     0
 62
    30
  6
Continuous
370
    -3
390
F
  0
LAYER
  5
38
330
2
100
AcDbSymbolTableRecord
100
AcDbLayerTableRecord
  2
SPOJOVACÍ
 70
     0
 62
   180
  6
Continuous
370
    -3
390
F
  0
LAYER
  5
39
330
2
100
AcDbSymbolTableRecord
100
AcDbLayerTableRecord
  2
CETRIS
 70
     0
 62
     1
  6
Continuous
370
    -3
390
F
  0
LAYER
  5
3A
330
2
100
AcDbSymbolTableRecord
100
AcDbLayerTableRecord
  2
NOSNÉ KONSTRUKCE
 70
     0
 62
    33
  6
Continuous
370
    -3
390
F
  0
LAYER
  5
3B
330
2
100
AcDbSymbolTableRecord
100
AcDbLayerTableRecord
  2
izolace
 70
     0
 62
    73
  6
Continuous
370
    -3
390
F
  0
LAYER
  5
3C
330
2
100
AcDbSymbolTableRecord
100
AcDbLayerTableRecord
  2
STAVBA OBRYS
 70
     0
 62
     6
  6
Continuous
370
    -3
390
F
  0
ENDTAB
  0
TABLE
  2
STYLE
  5
3
330
0
100
AcDbSymbolTable
 70
     3
  0
STYLE
  5
11
330
3
100
AcDbSymbolTableRecord
100
AcDbTextStyleTableRecord
  2
Standard
 70
     0
 40
0.0
 41
1.0
 50
0.0
 71
     0
 42
2.5
  3
txt
  4

  0
STYLE
  5
3D
330
3
100
AcDbSymbolTableRecord
100
AcDbTextStyleTableRecord
  2
SIMPLEX7
 70
     0
 40
0.0
 41
0.85
 50
0.0
 71
     0
 42
102.0
  3

  4

1001
ACAD
1000
Arial CE
1071
    60962
  0
STYLE
  5
3E
330
3
100
AcDbSymbolTableRecord
100
AcDbTextStyleTableRecord
  2

 70
     1
 40
0.0
 41
1.0
 50
0.0
 71
     0
 42
2.5
  3
ltypeshp.shx
  4

  0
ENDTAB
  0
TABLE
  2
VIEW
  5
6
330
0
100
AcDbSymbolTable
 70
     0
  0
ENDTAB
  0
TABLE
  2
UCS
  5
7
330
0
100
AcDbSymbolTable
 70
     0
  0
ENDTAB
  0
TABLE
  2
APPID
  5
9
330
0
100
AcDbSymbolTable
 70
     1
  0
APPID
  5
12
330
9
100
AcDbSymbolTableRecord
100
AcDbRegAppTableRecord
  2
ACAD
 70
     0
  0
ENDTAB
  0
TABLE
  2
DIMSTYLE
  5
A
330
0
100
AcDbSymbolTable
 70
     1
100
AcDbDimStyleTable
 71
     0
  0
DIMSTYLE
105
27
330
A
100
AcDbSymbolTableRecord
100
AcDbDimStyleTableRecord
  2
ISO-25
 70
     0
 41
2.5
 42
0.625
 43
3.75
 44
1.25
 73
     0
 74
     0
 77
     1
 78
     8
140
2.5
141
2.5
143
0.03937007874016
147
0.625
171
     3
172
     1
271
     2
272
     2
274
     3
278
    44
283
     0
284
     8
340
11
  0
ENDTAB
  0
TABLE
  2
BLOCK_RECORD
  5
1
330
0
100
AcDbSymbolTable
 70
     2
  0
BLOCK_RECORD
  5
1F
330
1
100
AcDbSymbolTableRecord
100
AcDbBlockTableRecord
  2
*Model_Space
340
22
  0
BLOCK_RECORD
  5
1B
330
1
100
AcDbSymbolTableRecord
100
AcDbBlockTableRecord
  2
*Paper_Space
340
1E
  0
BLOCK_RECORD
  5
23
330
1
100
AcDbSymbolTableRecord
100
AcDbBlockTableRecord
  2
*Paper_Space0
340
26
  0
BLOCK_RECORD
  5
2B
330
1
100
AcDbSymbolTableRecord
100
AcDbBlockTableRecord
  2
E_PUNKT
340
0
102
{BLKREFS
331
30A2
331
30A4
331
30AA
331
30AF
331
30B0
331
2D86
331
30B7
102
}
  0
ENDTAB
  0
ENDSEC
  0
SECTION
  2
BLOCKS
  0
BLOCK
  5
20
330
1F
100
AcDbEntity
  8
0
100
AcDbBlockBegin
  2
*Model_Space
 70
     0
 10
0.0
 20
0.0
 30
0.0
  3
*Model_Space
  1

  0
ENDBLK
  5
21
330
1F
100
AcDbEntity
  8
0
100
AcDbBlockEnd
  0
BLOCK
  5
1C
330
1B
100
AcDbEntity
 67
     1
  8
0
100
AcDbBlockBegin
  2
*Paper_Space
 70
     0
 10
0.0
 20
0.0
 30
0.0
  3
*Paper_Space
  1

  0
ENDBLK
  5
1D
330
1B
100
AcDbEntity
 67
     1
  8
0
100
AcDbBlockEnd
  0
BLOCK
  5
24
330
23
100
AcDbEntity
  8
0
100
AcDbBlockBegin
  2
*Paper_Space0
 70
     0
 10
0.0
 20
0.0
 30
0.0
  3
*Paper_Space0
  1

  0
ENDBLK
  5
25
330
23
100
AcDbEntity
  8
0
100
AcDbBlockEnd
  0
BLOCK
  5
2D
330
2B
100
AcDbEntity
  8
0
100
AcDbBlockBegin
  2
E_PUNKT
 70
     0
 10
0.0
 20
0.0
 30
0.0
  3
E_PUNKT
  1

  0
LWPOLYLINE
  5
2C
330
2B
100
AcDbEntity
  8
POPIS
100
AcDbPolyline
 90
        2
 70
     1
 43
2.5
 10
1.27761037562675
 20
0.0290683308725193
 42
-1.0
 10
-1.222389624373249
 20
0.0290683308725193
 42
-1.0
  0
ENDBLK
  5
2E
330
2B
100
AcDbEntity
  8
0
100
AcDbBlockEnd
  0
ENDSEC
  0
SECTION
  2
ENTITIES
  0
HATCH
  5
2D81
330
1F
100
AcDbEntity
  8
NOSNÉ KONSTRUKCE
100
AcDbHatch
 10
0.0
 20
0.0
 30
0.0
210
0.0
220
0.0
230
1.0
  2
SOLID
 70
     1
 71
     0
 91
        1
 92
        1
 93
       78
 72
     1
 10
455.878282608912
 20
135.3335614042571
 11
457.3782826089121
 21
135.3335614042571
 72
     1
 10
457.3782826089121
 20
135.3335614042571
 11
457.3782826089121
 21
139.2947257905161
 72
     2
 10
456.0142279233589
 20
139.2948325102497
 40
1.364054689724365
 50
359.9955173422458
 51
449.9956000565878
 73
     1
 72
     1
 10
456.0143326738946
 20
140.658887195952
 11
448.8570846717923
 21
140.658887195952
 72
     2
 10
448.857070799346
 20
139.2949114011735
 40
1.363975794848016
 50
449.9994172678322
 51
509.9993729338875
 73
     1
 72
     2
 10
446.4944907526371
 20
140.6589654521176
 40
1.364105569629164
 50
30.00002138114828
 51
149.9999786188517
 73
     0
 72
     2
 10
444.1319107059282
 20
139.2949114011698
 40
1.363975794852709
 50
390.0006270662067
 51
450.0005827322442
 73
     1
 72
     1
 10
444.1318968334819
 20
140.658887195952
 11
436.0896673418285
 21
140.658887195952
 72
     2
 10
436.089653485262
 20
139.2949114286766
 40
1.363975767345567
 50
449.9994179347971
 51
509.9993736009129
 73
     1
 72
     2
 10
433.7271263170735
 20
140.6589349318292
 40
1.36404452909372
 50
30.0000213811012
 51
149.9999786188987
 73
     0
 72
     2
 10
431.3645991330088
 20
139.2949114011735
 40
1.363975794849071
 50
390.0006270661125
 51
450.0005827321678
 73
     1
 72
     1
 10
431.3645852605625
 20
140.658887195952
 11
423.3223557689054
 21
140.658887195952
 72
     2
 10
423.3223418964591
 20
139.2949114011735
 40
1.363975794848016
 50
449.9994172678322
 51
509.9993729338875
 73
     1
 72
     2
 10
420.9598147282743
 20
140.6589349226615
 40
1.364044510757576
 50
30.00002138111922
 51
149.9999786188807
 73
     0
 72
     2
 10
418.5972875600894
 20
139.2949114011735
 40
1.363975794849071
 50
390.0006270661125
 51
450.0005827321678
 73
     1
 72
     1
 10
418.5972736876431
 20
140.658887195952
 11
409.8292959431931
 21
140.658887195952
 72
     2
 10
409.8293478310845
 20
139.2947796476819
 40
1.364107549255989
 50
90.00217941550038
 51
180.0022621297693
 73
     1
 72
     1
 10
408.4652402828908
 20
139.2947257905161
 11
408.4652402828908
 21
133.1698504272444
 72
     2
 10
409.8290930414188
 20
133.1700178910377
 40
1.363852768812942
 50
180.007035193844
 51
235.6187009209929
 73
     1
 72
     2
 10
408.2883102589805
 20
130.9187371344032
 40
1.364200882607377
 50
-55.60560776441116
 51
0.0060579627693785
 73
     0
 72
     1
 10
409.6525111339617
 20
130.9185928955393
 11
409.6525111339617
 21
127.0999559917381
 72
     2
 10
408.2887112399514
 20
127.1000232183305
 40
1.363799895663342
 50
0.002824314642729
 51
55.61449004180289
 73
     0
 72
     2
 10
409.829494022397
 20
124.848742461696
 40
1.364253740215838
 50
124.3901822498929
 51
180.0018479770308
 73
     1
 72
     1
 10
408.4652402828908
 20
124.8486984600331
 11
408.4652402828908
 21
106.4647679059544
 72
     2
 10
409.8294940205198
 20
106.464723905281
 40
1.36425373834027
 50
179.9981520645247
 51
235.6098177916606
 73
     1
 72
     2
 10
408.2887112399587
 20
104.213443149636
 40
1.363799895660852
 50
-55.61449004192901
 51
-0.0028243147955483
 73
     0
 72
     1
 10
409.6525111339617
 20
104.213510376232
 11
409.6525111339617
 21
100.3948734704445
 72
     2
 10
408.2883102589805
 20
100.3947292315806
 40
1.364200882606485
 50
-0.0060579627693785
 51
55.60560776441121
 73
     0
 72
     2
 10
409.829093039538
 20
98.14344847593929
 40
1.363852766929492
 50
124.3812990372945
 51
179.992964764423
 73
     1
 72
     1
 10
408.4652402828908
 20
98.14361594072579
 11
408.4652402828908
 21
92.01874057745408
 72
     2
 10
409.829347832074
 20
92.01868671929515
 40
1.364107550250173
 50
179.9977378285168
 51
269.9978205427857
 73
     1
 72
     1
 10
409.8292959431931
 20
90.65457917003186
 11
418.5972736876431
 21
90.65457917003186
 72
     2
 10
418.5972875583722
 20
92.01855496579993
 40
1.363975795838488
 50
269.9994173399629
 51
329.9993730060831
 73
     1
 72
     2
 10
420.9598147282743
 20
90.65453144530511
 40
1.364044510757576
 50
210.0000213811191
 51
329.9999786188807
 73
     0
 72
     2
 10
423.3223418981763
 20
92.01855496579993
 40
1.363975795838583
 50
210.0006269939167
 51
270.000582660037
 73
     1
 72
     1
 10
423.3223557689054
 20
90.65457917003186
 11
431.3645852605625
 21
90.65457917003186
 72
     2
 10
431.3645991312917
 20
92.01855496579993
 40
1.363975795838488
 50
269.9994173399629
 51
329.9993730060831
 73
     1
 72
     2
 10
433.7271263170735
 20
90.65453143613741
 40
1.36404452909372
 50
210.0000213811012
 51
329.9999786188988
 73
     0
 72
     2
 10
436.0896534869791
 20
92.01855493829681
 40
1.363975768335302
 50
210.0006263268913
 51
270.0005819930721
 73
     1
 72
     1
 10
436.0896673418285
 20
90.65457917003186
 11
444.1318968334819
 21
90.65457917003186
 72
     2
 10
444.1319107042111
 20
92.01855496580355
 40
1.363975795841882
 50
269.9994173398865
 51
329.999373005989
 73
     1
 72
     2
 10
446.4944907526371
 20
90.65450091584898
 40
1.364105569629164
 50
210.0000213811482
 51
329.9999786188517
 73
     0
 72
     2
 10
448.8570708010631
 20
92.01855496579993
 40
1.363975795838583
 50
210.0006269939167
 51
270.000582660037
 73
     1
 72
     1
 10
448.8570846717923
 20
90.65457917003186
 11
456.014226981548
 21
90.65457917003186
 72
     2
 10
456.0141750597251
 20
92.01868671929151
 40
1.364107550249196
 50
270.0021794572142
 51
360.0022621714831
 73
     1
 72
     1
 10
457.3782826089121
 20
92.01874057745044
 11
457.3782826089121
 21
95.97990496370584
 72
     1
 10
457.3782826089121
 20
95.97990496370584
 11
455.878282608912
 21
95.97990496370584
 72
     1
 10
455.878282608912
 20
95.97990496370584
 11
455.878282608912
 21
93.15457917002822
 72
     2
 10
454.878282608912
 20
93.15457917002822
 40
1.0
 50
0.0
 51
90.0
 73
     0
 72
     1
 10
454.878282608912
 20
92.15457917002822
 11
448.9343403269597
 21
92.15457917003186
 72
     2
 10
446.4944907526371
 20
90.65450091585626
 40
2.864105569627733
 50
391.5842014864362
 51
508.4157985135637
 73
     1
 72
     1
 10
444.0546411783145
 20
92.15457917003186
 11
436.1669230013615
 21
92.15457917003186
 72
     2
 10
433.7271263170698
 20
90.65453143613741
 40
2.864044529094826
 50
391.5842355323783
 51
508.4157644675406
 73
     1
 72
     1
 10
431.2873296327818
 20
92.15457917003551
 11
423.3996113966752
 21
92.15457917003186
 72
     2
 10
420.9598147282743
 20
90.65453144530147
 40
2.864044510759085
 50
391.5842355426949
 51
508.415764457305
 73
     1
 72
     1
 10
418.5200180598733
 20
92.15457917003186
 11
410.9652402828908
 21
92.15457917003186
 72
     2
 10
410.9652402828908
 20
93.15457917003186
 40
1.0
 50
90.0
 51
180.0
 73
     0
 72
     1
 10
409.9652402828907
 20
93.15457917003186
 11
409.9652402828907
 21
98.07275757136631
 72
     2
 10
408.2883102589842
 20
100.3947292315769
 40
2.864200882602513
 50
305.8368500797323
 51
360.0041807823925
 73
     1
 72
     1
 10
411.1525111339617
 20
100.3949382277842
 11
411.1525111339617
 21
104.213510376232
 72
     2
 10
409.6525111155099
 20
104.2135103714808
 40
1.500000018450919
 50
360.0000001814824
 51
360.0028244959368
 73
     1
 72
     2
 10
408.2887112399659
 20
104.2134431496433
 40
2.863799895650613
 50
360.0028243144894
 51
414.1672517372337
 73
     1
 72
     1
 10
409.9652402828907
 20
106.5352097637896
 11
409.9652402828907
 21
124.7782566041805
 72
     2
 10
408.2887112399659
 20
127.1000232183268
 40
2.863799895650137
 50
305.8327482627515
 51
359.9971756855105
 73
     1
 72
     2
 10
409.6525111847006
 20
127.0999559964857
 40
1.499999949261109
 50
359.9971755040718
 51
359.9999998185174
 73
     1
 72
     1
 10
411.1525111339617
 20
127.0999559917345
 11
411.1525111339617
 21
130.9185281350892
 72
     2
 10
408.2883102589805
 20
130.9187371344069
 40
2.864200882605558
 50
359.9958191553852
 51
414.1631499202233
 73
     1
 72
     1
 10
409.9652402828907
 20
133.2407087946176
 11
409.9652402828907
 21
138.158887195952
 72
     2
 10
410.9652402828908
 20
138.158887195952
 40
1.0
 50
180.0
 51
270.0
 73
     0
 72
     1
 10
410.9652402828908
 20
139.158887195952
 11
418.520018061092
 21
139.158887195952
 72
     2
 10
420.9598147282743
 20
140.6589349226651
 40
2.864044510759331
 50
211.5842355892532
 51
328.4157644107466
 73
     1
 72
     1
 10
423.3996113954565
 20
139.158887195952
 11
431.2873296340042
 21
139.158887195952
 72
     2
 10
433.7271263170735
 20
140.6589349318328
 40
2.864044529094653
 50
211.5842355790273
 51
328.4157644209727
 73
     1
 72
     1
 10
436.1669230001427
 20
139.158887195952
 11
444.0546411795369
 21
139.158887195952
 72
     2
 10
446.4944907526334
 20
140.6589654521212
 40
2.864105569629046
 50
211.5842015332367
 51
328.4157984667633
 73
     1
 72
     1
 10
448.9343403257337
 20
139.158887195952
 11
454.878282608912
 21
139.158887195952
 72
     2
 10
454.878282608912
 20
138.158887195952
 40
1.0
 50
270.0
 51
360.0
 73
     0
 72
     1
 10
455.878282608912
 20
138.158887195952
 11
455.878282608912
 21
135.3335614042571
 97
        0
 75
     0
 76
     1
 98
        1
 10
4658.839317323232
 20
-28921.52451812929
  0
HATCH
  5
2D82
330
1F
100
AcDbEntity
  8
NOSNÉ KONSTRUKCE
100
AcDbHatch
 10
0.0
 20
0.0
 30
0.0
210
0.0
220
0.0
230
1.0
  2
SOLID
 70
     1
 71
     0
 91
        1
 92
        1
 93
       78
 72
     1
 10
55.6240211769657
 20
135.3335614042571
 11
57.12402117696569
 21
135.3335614042571
 72
     1
 10
57.12402117696569
 20
135.3335614042571
 11
57.12402117696569
 21
139.2947257905161
 72
     2
 10
55.75996649141257
 20
139.2948325102497
 40
1.364054689724365
 50
359.9955173422458
 51
449.9956000565878
 73
     1
 72
     1
 10
55.76007124194825
 20
140.658887195952
 11
48.60282323984598
 21
140.658887195952
 72
     2
 10
48.60280936739968
 20
139.2949114011735
 40
1.363975794848016
 50
449.9994172678322
 51
509.9993729338875
 73
     1
 72
     2
 10
46.24022932069078
 20
140.6589654521176
 40
1.364105569629164
 50
30.00002138114828
 51
149.9999786188517
 73
     0
 72
     2
 10
43.87764927398189
 20
139.2949114011698
 40
1.363975794852709
 50
390.0006270662067
 51
450.0005827322442
 73
     1
 72
     1
 10
43.87763540153559
 20
140.658887195952
 11
35.83540590988218
 21
140.658887195952
 72
     2
 10
35.83539205331567
 20
139.2949114286766
 40
1.363975767345567
 50
449.9994179347971
 51
509.9993736009129
 73
     1
 72
     2
 10
33.47286488512713
 20
140.6589349318292
 40
1.36404452909372
 50
30.0000213811012
 51
149.9999786188987
 73
     0
 72
     2
 10
31.11033770106246
 20
139.2949114011735
 40
1.363975794849071
 50
390.0006270661125
 51
450.0005827321678
 73
     1
 72
     1
 10
31.11032382861617
 20
140.658887195952
 11
23.06809433695911
 21
140.658887195952
 72
     2
 10
23.06808046451283
 20
139.2949114011735
 40
1.363975794848016
 50
449.9994172678322
 51
509.9993729338875
 73
     1
 72
     2
 10
20.70555329632793
 20
140.6589349226615
 40
1.364044510757576
 50
30.00002138111922
 51
149.9999786188807
 73
     0
 72
     2
 10
18.34302612814303
 20
139.2949114011735
 40
1.363975794849071
 50
390.0006270661125
 51
450.0005827321678
 73
     1
 72
     1
 10
18.34301225569674
 20
140.658887195952
 11
9.575034511246713
 21
140.658887195952
 72
     2
 10
9.575086399138172
 20
139.2947796476819
 40
1.364107549255989
 50
90.00217941550038
 51
180.0022621297693
 73
     1
 72
     1
 10
8.210978850944457
 20
139.2947257905161
 11
8.210978850944457
 21
133.1698504272444
 72
     2
 10
9.574831609472539
 20
133.1700178910377
 40
1.363852768812942
 50
180.007035193844
 51
235.6187009209929
 73
     1
 72
     2
 10
8.034048827034212
 20
130.9187371344032
 40
1.364200882607377
 50
-55.60560776441116
 51
0.0060579627693785
 73
     0
 72
     1
 10
9.398249702015391
 20
130.9185928955393
 11
9.398249702015391
 21
127.0999559917381
 72
     2
 10
8.034449808005092
 20
127.1000232183305
 40
1.363799895663342
 50
0.002824314642729
 51
55.61449004180289
 73
     0
 72
     2
 10
9.575232590450696
 20
124.848742461696
 40
1.364253740215838
 50
124.3901822498929
 51
180.0018479770308
 73
     1
 72
     1
 10
8.210978850944457
 20
124.8486984600331
 11
8.210978850944457
 21
106.4647679059544
 72
     2
 10
9.575232588573499
 20
106.464723905281
 40
1.36425373834027
 50
179.9981520645247
 51
235.6098177916606
 73
     1
 72
     2
 10
8.034449808012368
 20
104.213443149636
 40
1.363799895660852
 50
-55.61449004192901
 51
-0.0028243147955483
 73
     0
 72
     1
 10
9.398249702015391
 20
104.213510376232
 11
9.398249702015391
 21
100.3948734704445
 72
     2
 10
8.034048827034212
 20
100.3947292315806
 40
1.364200882606485
 50
-0.0060579627693785
 51
55.60560776441121
 73
     0
 72
     2
 10
9.574831607591704
 20
98.14344847593929
 40
1.363852766929492
 50
124.3812990372945
 51
179.992964764423
 73
     1
 72
     1
 10
8.210978850944457
 20
98.14361594072579
 11
8.210978850944457
 21
92.01874057745408
 72
     2
 10
9.575086400127702
 20
92.01868671929515
 40
1.364107550250173
 50
179.9977378285168
 51
269.9978205427857
 73
     1
 72
     1
 10
9.575034511246713
 20
90.65457917003186
 11
18.34301225569674
 21
90.65457917003186
 72
     2
 10
18.34302612642591
 20
92.01855496579993
 40
1.363975795838488
 50
269.9994173399629
 51
329.9993730060831
 73
     1
 72
     2
 10
20.70555329632793
 20
90.65453144530511
 40
1.364044510757576
 50
210.0000213811191
 51
329.9999786188807
 73
     0
 72
     2
 10
23.06808046622995
 20
92.01855496579993
 40
1.363975795838583
 50
210.0006269939167
 51
270.000582660037
 73
     1
 72
     1
 10
23.06809433695911
 20
90.65457917003186
 11
31.11032382861617
 21
90.65457917003186
 72
     2
 10
31.11033769934533
 20
92.01855496579993
 40
1.363975795838488
 50
269.9994173399629
 51
329.9993730060831
 73
     1
 72
     2
 10
33.47286488512713
 20
90.65453143613741
 40
1.36404452909372
 50
210.0000213811012
 51
329.9999786188988
 73
     0
 72
     2
 10
35.8353920550328
 20
92.01855493829681
 40
1.363975768335302
 50
210.0006263268913
 51
270.0005819930721
 73
     1
 72
     1
 10
35.83540590988218
 20
90.65457917003186
 11
43.87763540153559
 21
90.65457917003186
 72
     2
 10
43.87764927226476
 20
92.01855496580355
 40
1.363975795841882
 50
269.9994173398865
 51
329.999373005989
 73
     1
 72
     2
 10
46.24022932069078
 20
90.65450091584898
 40
1.364105569629164
 50
210.0000213811482
 51
329.9999786188517
 73
     0
 72
     2
 10
48.60280936911681
 20
92.01855496579993
 40
1.363975795838583
 50
210.0006269939167
 51
270.000582660037
 73
     1
 72
     1
 10
48.60282323984598
 20
90.65457917003186
 11
55.7599655496017
 21
90.65457917003186
 72
     2
 10
55.75991362777881
 20
92.01868671929151
 40
1.364107550249196
 50
270.0021794572142
 51
360.0022621714831
 73
     1
 72
     1
 10
57.12402117696569
 20
92.01874057745044
 11
57.12402117696569
 21
95.97990496370584
 72
     1
 10
57.12402117696569
 20
95.97990496370584
 11
55.6240211769657
 21
95.97990496370584
 72
     1
 10
55.6240211769657
 20
95.97990496370584
 11
55.6240211769657
 21
93.15457917002822
 72
     2
 10
54.62402117696569
 20
93.15457917002822
 40
1.0
 50
0.0
 51
90.0
 73
     0
 72
     1
 10
54.62402117696569
 20
92.15457917002822
 11
48.68007889501337
 21
92.15457917003186
 72
     2
 10
46.24022932069078
 20
90.65450091585626
 40
2.864105569627733
 50
391.5842014864362
 51
508.4157985135637
 73
     1
 72
     1
 10
43.8003797463682
 20
92.15457917003186
 11
35.91266156941514
 21
92.15457917003186
 72
     2
 10
33.4728648851235
 20
90.65453143613741
 40
2.864044529094826
 50
391.5842355323783
 51
508.4157644675406
 73
     1
 72
     1
 10
31.03306820083548
 20
92.15457917003551
 11
23.14534996472889
 21
92.15457917003186
 72
     2
 10
20.70555329632793
 20
90.65453144530147
 40
2.864044510759085
 50
391.5842355426949
 51
508.415764457305
 73
     1
 72
     1
 10
18.26575662792697
 20
92.15457917003186
 11
10.71097885094445
 21
92.15457917003186
 72
     2
 10
10.71097885094445
 20
93.15457917003186
 40
1.0
 50
90.0
 51
180.0
 73
     0
 72
     1
 10
9.710978850944457
 20
93.15457917003186
 11
9.710978850944457
 21
98.07275757136631
 72
     2
 10
8.03404882703785
 20
100.3947292315769
 40
2.864200882602513
 50
305.8368500797323
 51
360.0041807823925
 73
     1
 72
     1
 10
10.89824970201539
 20
100.3949382277842
 11
10.89824970201539
 21
104.213510376232
 72
     2
 10
9.398249683563562
 20
104.2135103714808
 40
1.500000018450919
 50
360.0000001814824
 51
360.0028244959368
 73
     1
 72
     2
 10
8.034449808019644
 20
104.2134431496433
 40
2.863799895650613
 50
360.0028243144894
 51
414.1672517372337
 73
     1
 72
     1
 10
9.710978850944457
 20
106.5352097637896
 11
9.710978850944457
 21
124.7782566041805
 72
     2
 10
8.034449808019644
 20
127.1000232183268
 40
2.863799895650137
 50
305.8327482627515
 51
359.9971756855105
 73
     1
 72
     2
 10
9.398249752754281
 20
127.0999559964857
 40
1.499999949261109
 50
359.9971755040718
 51
359.9999998185174
 73
     1
 72
     1
 10
10.89824970201539
 20
127.0999559917345
 11
10.89824970201539
 21
130.9185281350892
 72
     2
 10
8.034048827034212
 20
130.9187371344069
 40
2.864200882605558
 50
359.9958191553852
 51
414.1631499202233
 73
     1
 72
     1
 10
9.710978850944457
 20
133.2407087946176
 11
9.710978850944457
 21
138.158887195952
 72
     2
 10
10.71097885094445
 20
138.158887195952
 40
1.0
 50
180.0
 51
270.0
 73
     0
 72
     1
 10
10.71097885094445
 20
139.158887195952
 11
18.26575662914569
 21
139.158887195952
 72
     2
 10
20.70555329632793
 20
140.6589349226651
 40
2.864044510759331
 50
211.5842355892532
 51
328.4157644107466
 73
     1
 72
     1
 10
23.14534996351017
 20
139.158887195952
 11
31.03306820205784
 21
139.158887195952
 72
     2
 10
33.47286488512713
 20
140.6589349318328
 40
2.864044529094653
 50
211.5842355790273
 51
328.4157644209727
 73
     1
 72
     1
 10
35.91266156819642
 20
139.158887195952
 11
43.80037974759057
 21
139.158887195952
 72
     2
 10
46.24022932068714
 20
140.6589654521212
 40
2.864105569629046
 50
211.5842015332367
 51
328.4157984667633
 73
     1
 72
     1
 10
48.68007889378737
 20
139.158887195952
 11
54.62402117696569
 21
139.158887195952
 72
     2
 10
54.62402117696569
 20
138.158887195952
 40
1.0
 50
270.0
 51
360.0
 73
     0
 72
     1
 10
55.6240211769657
 20
138.158887195952
 11
55.6240211769657
 21
135.3335614042571
 97
        0
 75
     0
 76
     1
 98
        1
 10
4258.585055891286
 20
-28921.52451812929
  0
HATCH
  5
2D83
330
1F
100
AcDbEntity
  8
NOSNÉ KONSTRUKCE
100
AcDbHatch
 10
0.0
 20
0.0
 30
0.0
210
0.0
220
0.0
230
1.0
  2
SOLID
 70
     1
 71
     0
 91
        1
 92
        1
 93
       78
 72
     1
 10
-52.23554185977969
 20
136.7952662073148
 11
-52.23554185977969
 21
138.2952662073148
 72
     1
 10
-52.23554185977969
 20
138.2952662073148
 11
-56.19670624603873
 21
138.2952662073148
 72
     2
 10
-56.19681296577232
 20
136.9312115217617
 40
1.364054689724365
 50
449.9955173422458
 51
539.9956000565877
 73
     1
 72
     1
 10
-57.56086765147461
 20
136.9313162722974
 11
-57.56086765147461
 21
129.7740682701951
 72
     2
 10
-56.19689185669608
 20
129.7740543977488
 40
1.363975794848016
 50
539.999417267832
 51
599.9993729338874
 73
     1
 72
     2
 10
-57.56094590764019
 20
127.4114743510399
 40
1.364105569629164
 50
-59.99997861885172
 51
59.99997861885172
 73
     0
 72
     2
 10
-56.19689185669244
 20
125.048894304331
 40
1.363975794852709
 50
480.0006270662066
 51
540.0005827322441
 73
     1
 72
     1
 10
-57.56086765147461
 20
125.0488804318847
 11
-57.56086765147461
 21
117.0066509402313
 72
     2
 10
-56.1968918841992
 20
117.0066370836648
 40
1.363975767345567
 50
539.999417934797
 51
599.9993736009129
 73
     1
 72
     2
 10
-57.56091538735176
 20
114.6441099154762
 40
1.36404452909372
 50
-59.99997861889879
 51
59.99997861889879
 73
     0
 72
     2
 10
-56.19689185669608
 20
112.2815827314116
 40
1.363975794849071
 50
480.0006270661126
 51
540.0005827321678
 73
     1
 72
     1
 10
-57.56086765147461
 20
112.2815688589653
 11
-57.56086765147461
 21
104.2393393673082
 72
     2
 10
-56.19689185669608
 20
104.2393254948619
 40
1.363975794848016
 50
539.999417267832
 51
599.9993729338874
 73
     1
 72
     2
 10
-57.56091537818406
 20
101.876798326677
 40
1.364044510757576
 50
-59.99997861888077
 51
59.99997861888077
 73
     0
 72
     2
 10
-56.19689185669608
 20
99.5142711584922
 40
1.363975794849071
 50
480.0006270661126
 51
540.0005827321678
 73
     1
 72
     1
 10
-57.56086765147461
 20
99.5142572860459
 11
-57.56086765147461
 21
90.74627954159586
 72
     2
 10
-56.1967601032045
 20
90.74633142948732
 40
1.364107549255989
 50
180.0021794155003
 51
270.0022621297693
 73
     1
 72
     1
 10
-56.19670624603873
 20
89.38222388129361
 11
-50.07183088276701
 21
89.38222388129361
 72
     2
 10
-50.07199834656034
 20
90.74607663982169
 40
1.363852768812942
 50
270.007035193844
 51
325.618700920993
 73
     1
 72
     2
 10
-47.82071758992583
 20
89.20529385738337
 40
1.364200882607377
 50
-145.6056077644111
 51
-89.99394203723062
 73
     0
 72
     1
 10
-47.82057335106197
 20
90.56949473236455
 11
-44.00193644726073
 21
90.56949473236455
 72
     2
 10
-44.00200367385309
 20
89.20569483835425
 40
1.363799895663342
 50
-89.99717568535727
 51
-34.38550995819711
 73
     0
 72
     2
 10
-41.75072291721858
 20
90.74647762079985
 40
1.364253740215838
 50
214.3901822498929
 51
270.0018479770308
 73
     1
 72
     1
 10
-41.75067891555568
 20
89.38222388129361
 11
-23.36674836147699
 21
89.38222388129361
 72
     2
 10
-23.36670436080362
 20
90.74647761892265
 40
1.36425373834027
 50
269.9981520645247
 51
325.6098177916606
 73
     1
 72
     2
 10
-21.11542360515863
 20
89.20569483836152
 40
1.363799895660852
 50
-145.614490041929
 51
-90.00282431479554
 73
     0
 72
     1
 10
-21.11549083175464
 20
90.56949473236455
 11
-17.29685392596707
 21
90.56949473236455
 72
     2
 10
-17.2967096871032
 20
89.20529385738337
 40
1.364200882606485
 50
-90.00605796276937
 51
-34.39439223558878
 73
     0
 72
     2
 10
-15.04542893146185
 20
90.74607663794086
 40
1.363852766929492
 50
214.3812990372945
 51
269.992964764423
 73
     1
 72
     1
 10
-15.04559639624835
 20
89.38222388129361
 11
-8.920721032976643
 21
89.38222388129361
 72
     2
 10
-8.920667174817708
 20
90.74633143047686
 40
1.364107550250173
 50
269.9977378285168
 51
359.9978205427857
 73
     1
 72
     1
 10
-7.556559625554427
 20
90.74627954159586
 11
-7.556559625554427
 21
99.5142572860459
 72
     2
 10
-8.920535421322483
 20
99.51427115677507
 40
1.363975795838488
 50
359.9994173399629
 51
419.9993730060832
 73
     1
 72
     2
 10
-7.556511900827672
 20
101.876798326677
 40
1.364044510757576
 50
120.0000213811192
 51
239.9999786188807
 73
     0
 72
     2
 10
-8.920535421322483
 20
104.2393254965791
 40
1.363975795838583
 50
300.0006269939167
 51
360.000582660037
 73
     1
 72
     1
 10
-7.556559625554427
 20
104.2393393673082
 11
-7.556559625554427
 21
112.2815688589653
 72
     2
 10
-8.920535421322483
 20
112.2815827296944
 40
1.363975795838488
 50
359.9994173399629
 51
419.9993730060832
 73
     1
 72
     2
 10
-7.556511891659965
 20
114.6441099154762
 40
1.36404452909372
 50
120.0000213811012
 51
239.9999786188987
 73
     0
 72
     2
 10
-8.920535393819363
 20
117.0066370853819
 40
1.363975768335302
 50
300.0006263268913
 51
360.000581993072
 73
     1
 72
     1
 10
-7.556559625554427
 20
117.0066509402313
 11
-7.556559625554427
 21
125.0488804318847
 72
     2
 10
-8.920535421326121
 20
125.0488943026139
 40
1.363975795841882
 50
359.9994173398865
 51
419.999373005989
 73
     1
 72
     2
 10
-7.556481371371546
 20
127.4114743510399
 40
1.364105569629164
 50
120.0000213811482
 51
239.9999786188517
 73
     0
 72
     2
 10
-8.920535421322483
 20
129.7740543994659
 40
1.363975795838583
 50
300.0006269939167
 51
360.000582660037
 73
     1
 72
     1
 10
-7.556559625554427
 20
129.7740682701951
 11
-7.556559625554427
 21
136.9312105799508
 72
     2
 10
-8.92066717481407
 20
136.9311586581279
 40
1.364107550249196
 50
360.0021794572142
 51
450.0022621714832
 73
     1
 72
     1
 10
-8.920721032973006
 20
138.2952662073148
 11
-12.88188541922841
 21
138.2952662073148
 72
     1
 10
-12.88188541922841
 20
138.2952662073148
 11
-12.88188541922841
 21
136.7952662073148
 72
     1
 10
-12.88188541922841
 20
136.7952662073148
 11
-10.05655962555078
 21
136.7952662073148
 72
     2
 10
-10.05655962555078
 20
135.7952662073148
 40
1.0
 50
-90.0
 51
0.0
 73
     0
 72
     1
 10
-9.056559625550789
 20
135.7952662073148
 11
-9.056559625554427
 21
129.8513239253625
 72
     2
 10
-7.556481371378822
 20
127.4114743510399
 40
2.864105569627733
 50
481.5842014864361
 51
598.4157985135638
 73
     1
 72
     1
 10
-9.056559625554427
 20
124.9716247767173
 11
-9.056559625554427
 21
117.0839065997643
 72
     2
 10
-7.556511891659965
 20
114.6441099154726
 40
2.864044529094826
 50
481.5842355323783
 51
598.4157644675406
 73
     1
 72
     1
 10
-9.056559625558065
 20
112.2043132311846
 11
-9.056559625554427
 21
104.316594995078
 72
     2
 10
-7.556511900824034
 20
101.876798326677
 40
2.864044510759085
 50
481.5842355426949
 51
598.415764457305
 73
     1
 72
     1
 10
-9.056559625554427
 20
99.43700165827614
 11
-9.056559625554427
 21
91.88222388129361
 72
     2
 10
-10.05655962555442
 20
91.88222388129361
 40
1.0
 50
0.0
 51
90.0
 73
     0
 72
     1
 10
-10.05655962555442
 20
90.88222388129361
 11
-14.97473802688887
 21
90.88222388129361
 72
     2
 10
-17.29670968709956
 20
89.20529385738701
 40
2.864200882602513
 50
395.8368500797323
 51
450.0041807823925
 73
     1
 72
     1
 10
-17.29691868330678
 20
92.06949473236454
 11
-21.11549083175464
 21
92.06949473236454
 72
     2
 10
-21.11549082700344
 20
90.56949471391272
 40
1.500000018450919
 50
450.0000001814824
 51
450.0028244959367
 73
     1
 72
     2
 10
-21.11542360516591
 20
89.2056948383688
 40
2.863799895650613
 50
450.0028243144894
 51
504.1672517372338
 73
     1
 72
     1
 10
-23.43719021931224
 20
90.88222388129361
 11
-41.68023705970313
 21
90.88222388129361
 72
     2
 10
-44.00200367384946
 20
89.2056948383688
 40
2.863799895650137
 50
395.8327482627515
 51
449.9971756855106
 73
     1
 72
     2
 10
-44.00193645200829
 20
90.56949478310343
 40
1.499999949261109
 50
449.9971755040718
 51
449.9999998185175
 73
     1
 72
     1
 10
-44.00193644725709
 20
92.06949473236454
 11
-47.82050859061178
 21
92.06949473236454
 72
     2
 10
-47.82071758992947
 20
89.20529385738337
 40
2.864200882605558
 50
449.9958191553853
 51
504.1631499202233
 73
     1
 72
     1
 10
-50.14268925014016
 20
90.88222388129361
 11
-55.06086765147461
 21
90.88222388129361
 72
     2
 10
-55.06086765147461
 20
91.88222388129361
 40
1.0
 50
90.0
 51
180.0
 73
     0
 72
     1
 10
-56.06086765147461
 20
91.88222388129361
 11
-56.06086765147461
 21
99.43700165949486
 72
     2
 10
-57.5609153781877
 20
101.876798326677
 40
2.864044510759331
 50
301.5842355892532
 51
418.4157644107466
 73
     1
 72
     1
 10
-56.06086765147461
 20
104.3165949938593
 11
-56.06086765147461
 21
112.204313232407
 72
     2
 10
-57.56091538735541
 20
114.6441099154762
 40
2.864044529094653
 50
301.5842355790272
 51
418.4157644209727
 73
     1
 72
     1
 10
-56.06086765147461
 20
117.0839065985455
 11
-56.06086765147461
 21
124.9716247779397
 72
     2
 10
-57.56094590764383
 20
127.4114743510363
 40
2.864105569629046
 50
301.5842015332367
 51
418.4157984667633
 73
     1
 72
     1
 10
-56.06086765147461
 20
129.8513239241365
 11
-56.06086765147461
 21
135.7952662073148
 72
     2
 10
-55.06086765147461
 20
135.7952662073148
 40
1.0
 50
180.0
 51
270.0
 73
     0
 72
     1
 10
-55.06086765147461
 20
136.7952662073148
 11
-52.23554185977969
 21
136.7952662073148
 97
        0
 75
     0
 76
     1
 98
        1
 10
29004.62253767376
 20
4339.756300921635
  0
HATCH
  5
2D84
330
1F
100
AcDbEntity
  8
CETRIS
100
AcDbHatch
 10
0.0
 20
0.0
 30
0.0
210
0.0
220
0.0
230
1.0
  2
ANSI31
 70
     0
 71
     0
 91
        1
 92
        7
 72
     0
 73
     1
 93
       15
 10
-58.27139609714845
 20
96.79248315481528
 10
-59.02733224184681
 20
96.79248315481528
 10
-59.25346379613961
 20
96.11996605641071
 10
-59.47112493219879
 20
95.7423146810761
 10
-59.84970648102512
 20
96.11996605638706
 10
-59.62357492676869
 20
96.79248315481528
 10
-63.67179882606047
 20
96.79248315481528
 10
-64.45872754917923
 20
96.72644067289366
 10
-65.93956741623674
 20
96.29855980859247
 10
-67.2585566945379
 20
95.50232932926974
 10
-68.32732868395374
 20
94.3916994289184
 10
-69.07146932041701
 20
93.04201434536663
 10
-70.27139609714845
 20
93.04201434536663
 10
-70.27139609715209
 20
-80.3545648994841
 10
-58.27139609714845
 20
-80.3545648994841
 97
        0
 75
     0
 76
     1
 52
0.0
 41
1.0
 77
     0
 78
     1
 53
45.0
 43
-21827.43147246963
 44
-86.38996574023622
 45
-2.245064030267287
 46
2.245064030267288
 79
     0
 47
0.4795348606788023
 98
        1
 10
-62.44540079239209
 20
55.35266517490526
  0
HATCH
  5
2D85
330
1F
100
AcDbEntity
  8
CETRIS
100
AcDbHatch
 10
0.0
 20
0.0
 30
0.0
210
0.0
220
0.0
230
1.0
  2
ANSI31
 70
     0
 71
     0
 91
        6
 92
        7
 72
     0
 73
     1
 93
        4
 10
4.96085818760207
 20
399.6317259636416
 10
-7.039141812397929
 20
399.6317259636416
 10
-7.039141812397929
 20
119.4583550542811
 10
4.96085818760207
 20
119.4583550542811
 97
        0
 92
        7
 72
     0
 73
     1
 93
       14
 10
-58.27139609714845
 20
399.6317259636416
 10
-70.27139609714845
 20
399.6317259636416
 10
-70.27139609714845
 20
138.6540043431159
 10
-69.07146932042064
 20
138.6540043431159
 10
-68.32732868394282
 20
137.3043192595641
 10
-67.25855669452698
 20
136.193689359201
 10
-65.9395674162331
 20
135.3974588798882
 10
-64.45872754918287
 20
134.9695780155889
 10
-63.67179882605682
 20
134.9035355336673
 10
-59.62357492677234
 20
134.9035355336673
 10
-59.84970648102512
 20
135.5760526320946
 10
-59.40322334528514
 20
136.0214387603573
 10
-59.02733224184681
 20
134.9035355336673
 10
-58.27139609714845
 20
134.9035355336673
 97
        0
 92
        7
 72
     0
 73
     1
 93
       12
 10
-58.27139609714845
 20
131.1543388769414
 10
-58.48978946776674
 20
131.531648272522
 10
-58.71592102201225
 20
132.2041653709311
 10
-63.67179882605682
 20
132.2041653709311
 10
-65.19542677949335
 20
131.9772024800477
 10
-66.60929398919302
 20
131.3642166309
 10
-67.81666217208453
 20
130.4061355609192
 10
-68.73474568254073
 20
129.1690017520122
 10
-69.07146932041337
 20
128.453696565848
 10
-70.27139609714481
 20
128.453696565848
 10
-70.27139609714845
 20
118.3480093442413
 10
-58.27139609714845
 20
118.3480093442413
 97
        0
 92
        7
 72
     0
 73
     1
 93
       12
 10
-58.27139609714845
 20
113.3480093442412
 10
-70.27139609714845
 20
113.3480093442412
 10
-70.27139609714481
 20
103.2423221226345
 10
-69.07146932041337
 20
103.2423221226345
 10
-68.73474568252618
 20
102.5270169364721
 10
-67.81666217209909
 20
101.2898831275651
 10
-66.60929398918938
 20
100.3318020575852
 10
-65.19542677948606
 20
99.71881620843397
 10
-63.67179882605682
 20
99.49185331755144
 10
-58.71592102201589
 20
99.49185331755144
 10
-58.48978946776674
 20
100.164370415965
 10
-58.27139609714845
 20
100.5416798115438
 97
        0
 92
        7
 72
     0
 73
     1
 93
        4
 10
4.960858187605708
 20
73.14695651006605
 10
-7.039141812401567
 20
89.55940358371298
 10
-7.039141812397929
 20
-80.3545648994841
 10
4.960858187605708
 20
-80.3545648994841
 97
        0
 92
        7
 72
     0
 73
     1
 93
        4
 10
4.960858187605708
 20
112.4074222073322
 10
-7.039141812397929
 20
112.4074222073313
 10
-7.039141812397929
 20
89.55940358371117
 10
4.96085818760207
 20
73.14695651006696
 97
        0
 75
     0
 76
     1
 52
0.0
 41
1.0
 77
     0
 78
     1
 53
45.0
 43
-21827.43147246963
 44
-86.38996574023622
 45
-2.245064030267287
 46
2.245064030267288
 79
     0
 47
0.8051415304097151
 98
        6
 10
-1.894936005759291
 20
222.0197997926879
 10
-65.67840943109309
 20
190.7704506532463
 10
-64.83600418284891
 20
122.9964564106267
 10
-64.1616287460854
 20
105.0724002251518
 10
-1.3262631090181
 20
-30.19140756069828
 10
-2.131836042091663
 20
98.6312383008626
  0
INSERT
  5
2D86
330
1F
100
AcDbEntity
  8
POPIS
100
AcDbBlockReference
  2
E_PUNKT
 10
-70.24232776627809
 20
98.20967998148445
 30
0.0
 50
90.0
  0
HATCH
  5
2D87
330
1F
100
AcDbEntity
  8
izolace
100
AcDbHatch
 10
0.0
 20
0.0
 30
0.0
210
0.0
220
0.0
230
1.0
  2
AR-SAND
 70
     0
 71
     0
 91
        1
 92
        7
 72
     0
 73
     1
 93
        4
 10
-70.27139609714845
 20
118.3480093442413
 10
-70.27139609714845
 20
113.3480093442412
 10
-58.27139609714845
 20
113.3480093442412
 10
-58.27139609714845
 20
118.3480093442413
 97
        0
 75
     0
 76
     1
 52
180.0
 41
0.1
 77
     0
 78
     4
 53
217.5
 43
1014.915479252769
 44
-22145.16869952822
 45
0.1600031295984039
 46
-4.894132373293423
 79
     6
 49
0.0
 49
-3.8608
 49
0.0
 49
-4.318
 49
0.0
 49
-4.1275
 53
187.5
 43
1014.915479252769
 44
-22145.16869952822
 45
-4.495232831380026
 46
-7.168251005683543
 79
     6
 49
0.0
 49
-2.0828
 49
0.0
 49
-3.4798
 49
0.0
 49
-1.3335
 53
147.4999999999999
 43
1018.039679252768
 44
-22145.16869952822
 45
-7.909923702414579
 46
-0.014371846785456
 79
     6
 49
0.0
 49
-1.27
 49
0.0
 49
-4.572
 49
0.0
 49
-5.969
 53
137.5
 43
1018.039679252768
 44
-22145.16869952822
 45
-7.635564524722972
 46
-2.229293232572161
 79
     6
 49
0.0
 49
-0.635
 49
0.0
 49
-2.997199999999999
 49
0.0
 49
-3.429
 47
0.2359071171925059
 98
        1
 10
-64.10486199636557
 20
115.3721614414353
  0
LINE
  5
2D88
330
1F
100
AcDbEntity
  8
SPOJOVACÍ
  6
Continuous
100
AcDbLine
 10
-47.36953782919203
 20
135.5760526320955
 30
0.0
 11
-46.00962081564989
 21
131.5316482725029
 31
0.0
  0
LINE
  5
2D89
330
1F
100
AcDbEntity
  8
SPOJOVACÍ
  6
Continuous
100
AcDbLine
 10
-46.77329514403732
 20
135.5760526320955
 30
0.0
 11
-45.41337813049517
 21
131.5316482725029
 31
0.0
  0
LINE
  5
2D8A
330
1F
100
AcDbEntity
  8
SPOJOVACÍ
  6
Continuous
100
AcDbLine
 10
-45.79102950362335
 20
131.1539969015575
 30
0.0
 11
-46.00962081564989
 21
131.5316482725029
 31
0.0
  0
LINE
  5
2D8B
330
1F
100
AcDbEntity
  8
SPOJOVACÍ
  6
Continuous
100
AcDbLine
 10
-45.79102950362335
 20
131.1539969015575
 30
0.0
 11
-45.41337813049517
 21
131.5316482725029
 31
0.0
  0
LINE
  5
2D8C
330
1F
100
AcDbEntity
  8
SPOJOVACÍ
  6
Continuous
100
AcDbLine
 10
-46.99095628008558
 20
135.9537040074064
 30
0.0
 11
-47.36953782919203
 21
135.5760526320955
 31
0.0
  0
LINE
  5
2D8D
330
1F
100
AcDbEntity
  8
SPOJOVACÍ
  6
Continuous
100
AcDbLine
 10
-46.99095628008558
 20
135.9537040074064
 30
0.0
 11
-46.77329514403732
 21
135.5760526320955
 31
0.0
  0
LINE
  5
2D8E
330
1F
100
AcDbEntity
  8
SPOJOVACÍ
  6
Continuous
100
AcDbLine
 10
-46.99095628008558
 20
135.9537040074064
 30
0.0
 11
-45.79102950362335
 21
131.1539969015575
 31
0.0
  0
LINE
  5
2D8F
330
1F
100
AcDbEntity
  8
SPOJOVACÍ
  6
Continuous
100
AcDbLine
 10
-50.48934744815392
 20
135.5760526320955
 30
0.0
 11
-49.12943043461178
 21
131.5316482725029
 31
0.0
  0
LINE
  5
2D90
330
1F
100
AcDbEntity
  8
SPOJOVACÍ
  6
Continuous
100
AcDbLine
 10
-49.89310476300648
 20
135.5760526320955
 30
0.0
 11
-48.53318774973354
 21
131.5316482725029
 31
0.0
  0
LINE
  5
2D91
330
1F
100
AcDbEntity
  8
SPOJOVACÍ
  6
Continuous
100
AcDbLine
 10
-48.91176929856351
 20
131.1539969015575
 30
0.0
 11
-49.12943043461178
 21
131.5316482725029
 31
0.0
  0
LINE
  5
2D92
330
1F
100
AcDbEntity
  8
SPOJOVACÍ
  6
Continuous
100
AcDbLine
 10
-48.91176929856351
 20
131.1539969015575
 30
0.0
 11
-48.53318774973354
 21
131.5316482725029
 31
0.0
  0
LINE
  5
2D93
330
1F
100
AcDbEntity
  8
SPOJOVACÍ
  6
Continuous
100
AcDbLine
 10
-50.11169607502575
 20
135.9537040074064
 30
0.0
 11
-50.48934744815392
 21
135.5760526320955
 31
0.0
  0
LINE
  5
2D94
330
1F
100
AcDbEntity
  8
SPOJOVACÍ
  6
Continuous
100
AcDbLine
 10
-50.11169607502575
 20
135.9537040074064
 30
0.0
 11
-49.89310476300648
 21
135.5760526320955
 31
0.0
  0
LINE
  5
2D95
330
1F
100
AcDbEntity
  8
SPOJOVACÍ
  6
Continuous
100
AcDbLine
 10
-50.11169607502575
 20
135.9537040074064
 30
0.0
 11
-48.91176929856351
 21
131.1539969015575
 31
0.0
  0
LINE
  5
2D96
330
1F
100
AcDbEntity
  8
SPOJOVACÍ
  6
Continuous
100
AcDbLine
 10
-53.60915706712308
 20
135.5760526320955
 30
0.0
 11
-52.24924005385014
 21
131.5316482725029
 31
0.0
  0
LINE
  5
2D97
330
1F
100
AcDbEntity
  8
SPOJOVACÍ
  6
Continuous
100
AcDbLine
 10
-53.01291438196836
 20
135.5760526320955
 30
0.0
 11
-51.6529973687027
 21
131.5316482725029
 31
0.0
  0
LINE
  5
2D98
330
1F
100
AcDbEntity
  8
SPOJOVACÍ
  6
Continuous
100
AcDbLine
 10
-52.03157891753267
 20
131.1539969015575
 30
0.0
 11
-52.24924005385014
 21
131.5316482725029
 31
0.0
  0
LINE
  5
2D99
330
1F
100
AcDbEntity
  8
SPOJOVACÍ
  6
Continuous
100
AcDbLine
 10
-52.03157891753267
 20
131.1539969015575
 30
0.0
 11
-51.6529973687027
 21
131.5316482725029
 31
0.0
  0
LINE
  5
2D9A
330
1F
100
AcDbEntity
  8
SPOJOVACÍ
  6
Continuous
100
AcDbLine
 10
-53.23150569399491
 20
135.9537040074064
 30
0.0
 11
-53.60915706712308
 21
135.5760526320955
 31
0.0
  0
LINE
  5
2D9B
330
1F
100
AcDbEntity
  8
SPOJOVACÍ
  6
Continuous
100
AcDbLine
 10
-53.23150569399491
 20
135.9537040074064
 30
0.0
 11
-53.01291438196836
 21
135.5760526320955
 31
0.0
  0
LINE
  5
2D9C
330
1F
100
AcDbEntity
  8
SPOJOVACÍ
  6
Continuous
100
AcDbLine
 10
-53.23150569399491
 20
135.9537040074064
 30
0.0
 11
-52.03157891753267
 21
131.1539969015575
 31
0.0
  0
LINE
  5
2D9D
330
1F
100
AcDbEntity
  8
SPOJOVACÍ
  6
Continuous
100
AcDbLine
 10
-37.88546541515438
 20
134.5705325964081
 30
0.0
 11
-37.57478669938041
 21
132.4162454549514
 31
0.0
  0
LINE
  5
2D9E
330
1F
100
AcDbEntity
  8
SPOJOVACÍ
  6
Continuous
100
AcDbLine
 10
-38.26311678828256
 20
134.1928812254627
 30
0.0
 11
-37.79244783569788
 21
132.7938968258968
 31
0.0
  0
LINE
  5
2D9F
330
1F
100
AcDbEntity
  8
SPOJOVACÍ
  6
Continuous
100
AcDbLine
 10
-37.66687410313511
 20
134.1928812254627
 30
0.0
 11
-37.19620515055044
 21
132.7938968258968
 31
0.0
  0
LINE
  5
2DA0
330
1F
100
AcDbEntity
  8
SPOJOVACÍ
  6
Continuous
100
AcDbLine
 10
-37.57478669938041
 20
132.4162454549514
 30
0.0
 11
-37.79244783569788
 21
132.7938968258968
 31
0.0
  0
LINE
  5
2DA1
330
1F
100
AcDbEntity
  8
SPOJOVACÍ
  6
Continuous
100
AcDbLine
 10
-37.57478669938041
 20
132.4162454549514
 30
0.0
 11
-37.19620515055044
 21
132.7938968258968
 31
0.0
  0
LINE
  5
2DA2
330
1F
100
AcDbEntity
  8
SPOJOVACÍ
  6
Continuous
100
AcDbLine
 10
-37.88546541515438
 20
134.5705325964081
 30
0.0
 11
-38.26311678828256
 21
134.1928812254627
 31
0.0
  0
LINE
  5
2DA3
330
1F
100
AcDbEntity
  8
SPOJOVACÍ
  6
Continuous
100
AcDbLine
 10
-37.88546541515438
 20
134.5705325964081
 30
0.0
 11
-37.66687410313511
 21
134.1928812254627
 31
0.0
  0
LINE
  5
2DA4
330
1F
100
AcDbEntity
  8
SPOJOVACÍ
  6
Continuous
100
AcDbLine
 10
-40.89923499347401
 20
135.1351493068796
 30
0.0
 11
-40.26578527670404
 21
132.0190603904484
 31
0.0
  0
LINE
  5
2DA5
330
1F
100
AcDbEntity
  8
SPOJOVACÍ
  6
Continuous
100
AcDbLine
 10
-41.27781654258046
 20
134.7574979315686
 30
0.0
 11
-40.4834464127523
 21
132.3967117613938
 31
0.0
  0
LINE
  5
2DA6
330
1F
100
AcDbEntity
  8
SPOJOVACÍ
  6
Continuous
100
AcDbLine
 10
-40.68157385742575
 20
134.7574979315686
 30
0.0
 11
-39.88720372787406
 21
132.3967117613938
 31
0.0
  0
LINE
  5
2DA7
330
1F
100
AcDbEntity
  8
SPOJOVACÍ
  6
Continuous
100
AcDbLine
 10
-40.26578527670404
 20
132.0190603904484
 30
0.0
 11
-40.4834464127523
 21
132.3967117613938
 31
0.0
  0
LINE
  5
2DA8
330
1F
100
AcDbEntity
  8
SPOJOVACÍ
  6
Continuous
100
AcDbLine
 10
-40.26578527670404
 20
132.0190603904484
 30
0.0
 11
-39.88720372787406
 21
132.3967117613938
 31
0.0
  0
LINE
  5
2DA9
330
1F
100
AcDbEntity
  8
SPOJOVACÍ
  6
Continuous
100
AcDbLine
 10
-40.89923499347401
 20
135.1351493068796
 30
0.0
 11
-41.27781654258046
 21
134.7574979315686
 31
0.0
  0
LINE
  5
2DAA
330
1F
100
AcDbEntity
  8
SPOJOVACÍ
  6
Continuous
100
AcDbLine
 10
-40.89923499347401
 20
135.1351493068796
 30
0.0
 11
-40.68157385742575
 21
134.7574979315686
 31
0.0
  0
LINE
  5
2DAB
330
1F
100
AcDbEntity
  8
SPOJOVACÍ
  6
Continuous
100
AcDbLine
 10
-43.91393474777191
 20
135.6997660129855
 30
0.0
 11
-42.9409708654673
 21
131.5744363602425
 31
0.0
  0
LINE
  5
2DAC
330
1F
100
AcDbEntity
  8
SPOJOVACÍ
  6
Continuous
100
AcDbLine
 10
-44.29158612090009
 20
135.3211844647012
 30
0.0
 11
-43.15863200151556
 21
131.9520877311879
 31
0.0
  0
LINE
  5
2DAD
330
1F
100
AcDbEntity
  8
SPOJOVACÍ
  6
Continuous
100
AcDbLine
 10
-43.69534343574537
 20
135.3211844647012
 30
0.0
 11
-42.56238931636085
 21
131.9520877311879
 31
0.0
  0
LINE
  5
2DAE
330
1F
100
AcDbEntity
  8
SPOJOVACÍ
  6
Continuous
100
AcDbLine
 10
-42.9409708654673
 20
131.5744363602425
 30
0.0
 11
-43.15863200151556
 21
131.9520877311879
 31
0.0
  0
LINE
  5
2DAF
330
1F
100
AcDbEntity
  8
SPOJOVACÍ
  6
Continuous
100
AcDbLine
 10
-42.9409708654673
 20
131.5744363602425
 30
0.0
 11
-42.56238931636085
 21
131.9520877311879
 31
0.0
  0
LINE
  5
2DB0
330
1F
100
AcDbEntity
  8
SPOJOVACÍ
  6
Continuous
100
AcDbLine
 10
-43.91393474777191
 20
135.6997660129855
 30
0.0
 11
-44.29158612090009
 21
135.3211844647012
 31
0.0
  0
LINE
  5
2DB1
330
1F
100
AcDbEntity
  8
SPOJOVACÍ
  6
Continuous
100
AcDbLine
 10
-43.91393474777191
 20
135.6997660129855
 30
0.0
 11
-43.69534343574537
 21
135.3211844647012
 31
0.0
  0
LINE
  5
2DB2
330
1F
100
AcDbEntity
  8
SPOJOVACÍ
  6
Continuous
100
AcDbLine
 10
-56.72896668636145
 20
135.5760526320955
 30
0.0
 11
-55.3699798485211
 21
131.5316482725029
 31
0.0
  0
LINE
  5
2DB3
330
1F
100
AcDbEntity
  8
SPOJOVACÍ
  6
Continuous
100
AcDbLine
 10
-56.13272400120672
 20
135.5760526320955
 30
0.0
 11
-54.77373716364287
 21
131.5316482725029
 31
0.0
  0
LINE
  5
2DB4
330
1F
100
AcDbEntity
  8
SPOJOVACÍ
  6
Continuous
100
AcDbLine
 10
-55.15138853649455
 20
131.1539969015575
 30
0.0
 11
-55.3699798485211
 21
131.5316482725029
 31
0.0
  0
LINE
  5
2DB5
330
1F
100
AcDbEntity
  8
SPOJOVACÍ
  6
Continuous
100
AcDbLine
 10
-55.15138853649455
 20
131.1539969015575
 30
0.0
 11
-54.77373716364287
 21
131.5316482725029
 31
0.0
  0
LINE
  5
2DB6
330
1F
100
AcDbEntity
  8
SPOJOVACÍ
  6
Continuous
100
AcDbLine
 10
-56.35131531323327
 20
135.9537040074064
 30
0.0
 11
-56.72896668636145
 21
135.5760526320955
 31
0.0
  0
LINE
  5
2DB7
330
1F
100
AcDbEntity
  8
SPOJOVACÍ
  6
Continuous
100
AcDbLine
 10
-56.35131531323327
 20
135.9537040074064
 30
0.0
 11
-56.13272400120672
 21
135.5760526320955
 31
0.0
  0
LINE
  5
2DB8
330
1F
100
AcDbEntity
  8
SPOJOVACÍ
  6
Continuous
100
AcDbLine
 10
-56.35131531323327
 20
135.9537040074064
 30
0.0
 11
-55.15138853649455
 21
131.1539969015575
 31
0.0
  0
LINE
  5
2DB9
330
1F
100
AcDbEntity
  8
SPOJOVACÍ
  6
Continuous
100
AcDbLine
 10
-59.84970648102512
 20
135.5760526320955
 30
0.0
 11
-58.48978946775947
 21
131.5316482725029
 31
0.0
  0
LINE
  5
2DBA
330
1F
100
AcDbEntity
  8
SPOJOVACÍ
  6
Continuous
100
AcDbLine
 10
-59.25346379614689
 20
135.5760526320955
 30
0.0
 11
-57.89354678260474
 21
131.5316482725029
 31
0.0
  0
LINE
  5
2DBB
330
1F
100
AcDbEntity
  8
SPOJOVACÍ
  6
Continuous
100
AcDbLine
 10
-58.27119815573292
 20
131.1539969015575
 30
0.0
 11
-58.48978946775947
 21
131.5316482725029
 31
0.0
  0
LINE
  5
2DBC
330
1F
100
AcDbEntity
  8
SPOJOVACÍ
  6
Continuous
100
AcDbLine
 10
-58.27119815573292
 20
131.1539969015575
 30
0.0
 11
-57.89354678260474
 21
131.5316482725029
 31
0.0
  0
LINE
  5
2DBD
330
1F
100
AcDbEntity
  8
SPOJOVACÍ
  6
Continuous
100
AcDbLine
 10
-59.47112493219515
 20
135.9537040074064
 30
0.0
 11
-59.84970648102512
 21
135.5760526320955
 31
0.0
  0
LINE
  5
2DBE
330
1F
100
AcDbEntity
  8
SPOJOVACÍ
  6
Continuous
100
AcDbLine
 10
-59.47112493219515
 20
135.9537040074064
 30
0.0
 11
-59.25346379614689
 21
135.5760526320955
 31
0.0
  0
LINE
  5
2DBF
330
1F
100
AcDbEntity
  8
SPOJOVACÍ
  6
Continuous
100
AcDbLine
 10
-59.47112493219515
 20
135.9537040074064
 30
0.0
 11
-58.27119815573292
 21
131.1539969015575
 31
0.0
  0
LINE
  5
2DC0
330
1F
100
AcDbEntity
  8
SPOJOVACÍ
  6
Continuous
100
AcDbLine
 10
-43.3353654028649
 20
132.4497317823988
 30
0.0
 11
-45.30640791415112
 21
132.2041653709311
 31
0.0
  0
LINE
  5
2DC1
330
1F
100
AcDbEntity
  8
SPOJOVACÍ
  6
Continuous
100
AcDbLine
 10
-40.62855383696637
 20
132.7883157749602
 30
0.0
 11
-42.76516763981976
 21
132.5213553196226
 31
0.0
  0
LINE
  5
2DC2
330
1F
100
AcDbEntity
  8
SPOJOVACÍ
  6
Continuous
100
AcDbLine
 10
-37.91151033753317
 20
133.1278299361292
 30
0.0
 11
-40.05649572251764
 21
132.8599393078184
 31
0.0
  0
LINE
  5
2DC3
330
1F
100
AcDbEntity
  8
SPOJOVACÍ
  6
Continuous
100
AcDbLine
 10
-37.59525056700272
 20
133.9398734083806
 30
0.0
 11
-34.50613674919782
 21
133.553850454482
 31
0.0
  0
LINE
  5
2DC4
330
1F
100
AcDbEntity
  8
SPOJOVACÍ
  6
Continuous
100
AcDbLine
 10
-40.53646643321167
 20
134.3072928460605
 30
0.0
 11
-38.21567782285615
 21
134.0170780009066
 31
0.0
  0
LINE
  5
2DC5
330
1F
100
AcDbEntity
  8
SPOJOVACÍ
  6
Continuous
100
AcDbLine
 10
-43.48884440894084
 20
134.6765726384183
 30
0.0
 11
-41.16712562287625
 21
134.3863577888987
 31
0.0
  0
LINE
  5
2DC6
330
1F
100
AcDbEntity
  8
SPOJOVACÍ
  6
Continuous
100
AcDbLine
 10
-34.50613674919782
 20
133.553850454482
 30
0.0
 11
-37.34224275046631
 21
133.199453473353
 31
0.0
  0
LINE
  5
2DC7
330
1F
100
AcDbEntity
  8
SPOJOVACÍ
  6
Continuous
100
AcDbLine
 10
-45.30640791415112
 20
134.9035355336673
 30
0.0
 11
-44.10927166479427
 21
134.7537772309442
 31
0.0
  0
LINE
  5
2DC8
330
1F
100
AcDbEntity
  8
SPOJOVACÍ
  6
Continuous
100
AcDbLine
 10
-45.64313155203467
 20
132.2041653709311
 30
0.0
 11
-45.30640791415112
 21
132.2041653709311
 31
0.0
  0
LINE
  5
2DC9
330
1F
100
AcDbEntity
  8
SPOJOVACÍ
  6
Continuous
100
AcDbLine
 10
-48.76573169864764
 20
132.2041653709311
 30
0.0
 11
-46.24681564361867
 21
132.2041653709311
 31
0.0
  0
LINE
  5
2DCA
330
1F
100
AcDbEntity
  8
SPOJOVACÍ
  6
Continuous
100
AcDbLine
 10
-46.55377365603976
 20
134.9035355336673
 30
0.0
 11
-45.30640791415112
 21
134.9035355336673
 31
0.0
  0
LINE
  5
2DCB
330
1F
100
AcDbEntity
  8
SPOJOVACÍ
  6
Continuous
100
AcDbLine
 10
-49.66800222052166
 20
134.9035355336673
 30
0.0
 11
-47.15001634119448
 21
134.9035355336673
 31
0.0
  0
LINE
  5
2DCC
330
1F
100
AcDbEntity
  8
SPOJOVACÍ
  6
Continuous
100
AcDbLine
 10
-51.8874016692896
 20
132.2041653709311
 30
0.0
 11
-49.36662526258055
 21
132.2041653709311
 31
0.0
  0
LINE
  5
2DCD
330
1F
100
AcDbEntity
  8
SPOJOVACÍ
  6
Continuous
100
AcDbLine
 10
-55.01000181563336
 20
132.2041653709311
 30
0.0
 11
-52.48178400276424
 21
132.2041653709311
 31
0.0
  0
LINE
  5
2DCE
330
1F
100
AcDbEntity
  8
SPOJOVACÍ
  6
Continuous
100
AcDbLine
 10
-58.12516055581705
 20
132.2041653709311
 30
0.0
 11
-55.60624450078808
 21
132.2041653709311
 31
0.0
  0
LINE
  5
2DCF
330
1F
100
AcDbEntity
  8
SPOJOVACÍ
  6
Continuous
100
AcDbLine
 10
-52.80083430067657
 20
134.9035355336673
 30
0.0
 11
-50.27261648780745
 21
134.9035355336673
 31
0.0
  0
LINE
  5
2DD0
330
1F
100
AcDbEntity
  8
SPOJOVACÍ
  6
Continuous
100
AcDbLine
 10
-55.91599304086026
 20
134.9035355336673
 30
0.0
 11
-53.39521663415121
 21
134.9035355336673
 31
0.0
  0
LINE
  5
2DD1
330
1F
100
AcDbEntity
  8
SPOJOVACÍ
  6
Continuous
100
AcDbLine
 10
-59.03859318720401
 20
134.9035355336673
 30
0.0
 11
-56.51967713217505
 21
134.9035355336673
 31
0.0
  0
LINE
  5
2DD2
330
1F
100
AcDbEntity
  8
SPOJOVACÍ
  6
Continuous
100
AcDbLine
 10
-63.67179882606047
 20
134.9035355336673
 30
0.0
 11
-59.63390569638045
 21
134.9035355336673
 31
0.0
  0
LINE
  5
2DD3
330
1F
100
AcDbEntity
  8
SPOJOVACÍ
  6
Continuous
100
AcDbLine
 10
-63.67179882606047
 20
132.2041653709311
 30
0.0
 11
-58.72884464713184
 21
132.2041653709311
 31
0.0
  0
LINE
  5
2DD4
330
1F
100
AcDbEntity
  8
SPOJOVACÍ
  6
Continuous
100
AcDbLine
 10
-69.07146932041701
 20
138.6540043431159
 30
0.0
 11
-68.32732868394282
 21
137.304319259565
 31
0.0
  0
LINE
  5
2DD5
330
1F
100
AcDbEntity
  8
SPOJOVACÍ
  6
Continuous
100
AcDbLine
 10
-68.32732868394282
 20
137.304319259565
 30
0.0
 11
-67.25855669453062
 21
136.1936893592064
 31
0.0
  0
LINE
  5
2DD6
330
1F
100
AcDbEntity
  8
SPOJOVACÍ
  6
Continuous
100
AcDbLine
 10
-67.25855669453062
 20
136.1936893592064
 30
0.0
 11
-65.9395674162331
 21
135.3974588798882
 31
0.0
  0
LINE
  5
2DD7
330
1F
100
AcDbEntity
  8
SPOJOVACÍ
  6
Continuous
100
AcDbLine
 10
-65.9395674162331
 20
135.3974588798882
 30
0.0
 11
-64.45872754918287
 21
134.9695780155889
 31
0.0
  0
LINE
  5
2DD8
330
1F
100
AcDbEntity
  8
SPOJOVACÍ
  6
Continuous
100
AcDbLine
 10
-64.45872754918287
 20
134.9695780155889
 30
0.0
 11
-63.67179882606047
 21
134.9035355336673
 31
0.0
  0
LINE
  5
2DD9
330
1F
100
AcDbEntity
  8
SPOJOVACÍ
  6
Continuous
100
AcDbLine
 10
-67.81666217209181
 20
130.4061355609155
 30
0.0
 11
-68.73474568253346
 21
129.1690017520159
 31
0.0
  0
LINE
  5
2DDA
330
1F
100
AcDbEntity
  8
SPOJOVACÍ
  6
Continuous
100
AcDbLine
 10
-68.73474568253346
 20
129.1690017520159
 30
0.0
 11
-69.07146932041701
 21
128.453696565848
 31
0.0
  0
LINE
  5
2DDB
330
1F
100
AcDbEntity
  8
SPOJOVACÍ
  6
Continuous
100
AcDbLine
 10
-69.07146932041701
 20
138.6540043431159
 30
0.0
 11
-69.07146932041701
 21
128.453696565848
 31
0.0
  0
LINE
  5
2DDC
330
1F
100
AcDbEntity
  8
SPOJOVACÍ
  6
Continuous
100
AcDbLine
 10
-70.27139609714845
 20
138.6540043431159
 30
0.0
 11
-69.07146932041701
 21
138.6540043431159
 31
0.0
  0
LINE
  5
2DDD
330
1F
100
AcDbEntity
  8
SPOJOVACÍ
  6
Continuous
100
AcDbLine
 10
-70.27139609714845
 20
138.6540043431159
 30
0.0
 11
-70.27139609714845
 21
128.453696565848
 31
0.0
  0
LINE
  5
2DDE
330
1F
100
AcDbEntity
  8
SPOJOVACÍ
  6
Continuous
100
AcDbLine
 10
-70.27139609714845
 20
128.453696565848
 30
0.0
 11
-69.07146932041701
 21
128.453696565848
 31
0.0
  0
LINE
  5
2DDF
330
1F
100
AcDbEntity
  8
SPOJOVACÍ
  6
Continuous
100
AcDbLine
 10
-63.67179882606047
 20
132.2041653709311
 30
0.0
 11
-65.19542677948971
 21
131.9772024800477
 31
0.0
  0
LINE
  5
2DE0
330
1F
100
AcDbEntity
  8
SPOJOVACÍ
  6
Continuous
100
AcDbLine
 10
-65.19542677948971
 20
131.9772024800477
 30
0.0
 11
-66.60929398919302
 21
131.3642166309
 31
0.0
  0
LINE
  5
2DE1
330
1F
100
AcDbEntity
  8
SPOJOVACÍ
  6
Continuous
100
AcDbLine
 10
-66.60929398919302
 20
131.3642166309
 30
0.0
 11
-67.81666217209181
 21
130.4061355609155
 31
0.0
  0
LWPOLYLINE
  5
2DE2
330
1F
100
AcDbEntity
  8
izolace
100
AcDbPolyline
 90
        4
 70
     1
 43
0.0
 10
-70.27139609714845
 20
118.3480093442413
 10
-70.27139609714845
 20
113.3480093442412
 10
-58.27139609714845
 20
113.3480093442412
 10
-58.27139609714845
 20
118.3480093442413
  0
LINE
  5
2DE3
330
1F
100
AcDbEntity
  8
CETRIS
100
AcDbLine
 10
-58.27139609714845
 20
118.3480093442413
 30
0.0
 11
-70.27139609714845
 21
118.3480093442413
 31
0.0
  0
LINE
  5
2DE4
330
1F
100
AcDbEntity
  8
CETRIS
100
AcDbLine
 10
-58.27139609714845
 20
113.3480093442412
 30
0.0
 11
-70.27139609714845
 21
113.3480093442412
 31
0.0
  0
LINE
  5
2DE5
330
1F
100
AcDbEntity
  8
SPOJOVACÍ
  6
Continuous
100
AcDbLine
 10
-66.60929398919302
 20
100.3318020575825
 30
0.0
 11
-67.81666217209181
 21
101.289883127567
 31
0.0
  0
LINE
  5
2DE6
330
1F
100
AcDbEntity
  8
SPOJOVACÍ
  6
Continuous
100
AcDbLine
 10
-65.19542677948971
 20
99.71881620843488
 30
0.0
 11
-66.60929398919302
 21
100.3318020575825
 31
0.0
  0
LINE
  5
2DE7
330
1F
100
AcDbEntity
  8
SPOJOVACÍ
  6
Continuous
100
AcDbLine
 10
-63.67179882606047
 20
99.49185331755144
 30
0.0
 11
-65.19542677948971
 21
99.71881620843488
 31
0.0
  0
LINE
  5
2DE8
330
1F
100
AcDbEntity
  8
SPOJOVACÍ
  6
Continuous
100
AcDbLine
 10
-70.27139609714845
 20
103.2423221226345
 30
0.0
 11
-69.07146932041701
 21
103.2423221226345
 31
0.0
  0
LINE
  5
2DE9
330
1F
100
AcDbEntity
  8
SPOJOVACÍ
  6
Continuous
100
AcDbLine
 10
-70.27139609714845
 20
93.04201434536663
 30
0.0
 11
-70.27139609714845
 21
103.2423221226345
 31
0.0
  0
LINE
  5
2DEA
330
1F
100
AcDbEntity
  8
SPOJOVACÍ
  6
Continuous
100
AcDbLine
 10
-70.27139609714845
 20
93.04201434536663
 30
0.0
 11
-69.07146932041701
 21
93.04201434536663
 31
0.0
  0
LINE
  5
2DEB
330
1F
100
AcDbEntity
  8
SPOJOVACÍ
  6
Continuous
100
AcDbLine
 10
-69.07146932041701
 20
93.04201434536663
 30
0.0
 11
-69.07146932041701
 21
103.2423221226345
 31
0.0
  0
LINE
  5
2DEC
330
1F
100
AcDbEntity
  8
SPOJOVACÍ
  6
Continuous
100
AcDbLine
 10
-68.73474568253346
 20
102.5270169364666
 30
0.0
 11
-69.07146932041701
 21
103.2423221226345
 31
0.0
  0
LINE
  5
2DED
330
1F
100
AcDbEntity
  8
SPOJOVACÍ
  6
Continuous
100
AcDbLine
 10
-67.81666217209181
 20
101.289883127567
 30
0.0
 11
-68.73474568253346
 21
102.5270169364666
 31
0.0
  0
LINE
  5
2DEE
330
1F
100
AcDbEntity
  8
SPOJOVACÍ
  6
Continuous
100
AcDbLine
 10
-64.45872754918287
 20
96.72644067289366
 30
0.0
 11
-63.67179882606047
 21
96.79248315481528
 31
0.0
  0
LINE
  5
2DEF
330
1F
100
AcDbEntity
  8
SPOJOVACÍ
  6
Continuous
100
AcDbLine
 10
-65.9395674162331
 20
96.2985598085943
 30
0.0
 11
-64.45872754918287
 21
96.72644067289366
 31
0.0
  0
LINE
  5
2DF0
330
1F
100
AcDbEntity
  8
SPOJOVACÍ
  6
Continuous
100
AcDbLine
 10
-67.25855669453062
 20
95.50232932927611
 30
0.0
 11
-65.9395674162331
 21
96.2985598085943
 31
0.0
  0
LINE
  5
2DF1
330
1F
100
AcDbEntity
  8
SPOJOVACÍ
  6
Continuous
100
AcDbLine
 10
-68.32732868394282
 20
94.3916994289175
 30
0.0
 11
-67.25855669453062
 21
95.50232932927611
 31
0.0
  0
LINE
  5
2DF2
330
1F
100
AcDbEntity
  8
SPOJOVACÍ
  6
Continuous
100
AcDbLine
 10
-69.07146932041701
 20
93.04201434536663
 30
0.0
 11
-68.32732868394282
 21
94.3916994289175
 31
0.0
  0
LINE
  5
2DF3
330
1F
100
AcDbEntity
  8
SPOJOVACÍ
  6
Continuous
100
AcDbLine
 10
-63.67179882606047
 20
99.49185331755144
 30
0.0
 11
-58.72884464713184
 21
99.49185331755144
 31
0.0
  0
LINE
  5
2DF4
330
1F
100
AcDbEntity
  8
SPOJOVACÍ
  6
Continuous
100
AcDbLine
 10
-63.67179882606047
 20
96.79248315481528
 30
0.0
 11
-59.63390569638045
 21
96.79248315481528
 31
0.0
  0
LINE
  5
2DF5
330
1F
100
AcDbEntity
  8
SPOJOVACÍ
  6
Continuous
100
AcDbLine
 10
-59.03859318720401
 20
96.79248315481528
 30
0.0
 11
-56.51967713217505
 21
96.79248315481528
 31
0.0
  0
LINE
  5
2DF6
330
1F
100
AcDbEntity
  8
SPOJOVACÍ
  6
Continuous
100
AcDbLine
 10
-55.91599304086026
 20
96.79248315481528
 30
0.0
 11
-53.39521663415121
 21
96.79248315481528
 31
0.0
  0
LINE
  5
2DF7
330
1F
100
AcDbEntity
  8
SPOJOVACÍ
  6
Continuous
100
AcDbLine
 10
-52.80083430067657
 20
96.79248315481528
 30
0.0
 11
-50.27261648780745
 21
96.79248315481528
 31
0.0
  0
LINE
  5
2DF8
330
1F
100
AcDbEntity
  8
SPOJOVACÍ
  6
Continuous
100
AcDbLine
 10
-58.12516055581705
 20
99.49185331755144
 30
0.0
 11
-55.60624450078808
 21
99.49185331755144
 31
0.0
  0
LINE
  5
2DF9
330
1F
100
AcDbEntity
  8
SPOJOVACÍ
  6
Continuous
100
AcDbLine
 10
-55.01000181563336
 20
99.49185331755144
 30
0.0
 11
-52.48178400276424
 21
99.49185331755144
 31
0.0
  0
LINE
  5
2DFA
330
1F
100
AcDbEntity
  8
SPOJOVACÍ
  6
Continuous
100
AcDbLine
 10
-51.8874016692896
 20
99.49185331755144
 30
0.0
 11
-49.36662526258055
 21
99.49185331755144
 31
0.0
  0
LINE
  5
2DFB
330
1F
100
AcDbEntity
  8
SPOJOVACÍ
  6
Continuous
100
AcDbLine
 10
-49.66800222052166
 20
96.79248315481528
 30
0.0
 11
-47.15001634119448
 21
96.79248315481528
 31
0.0
  0
LINE
  5
2DFC
330
1F
100
AcDbEntity
  8
SPOJOVACÍ
  6
Continuous
100
AcDbLine
 10
-46.55377365603976
 20
96.79248315481528
 30
0.0
 11
-45.30640791415112
 21
96.79248315481528
 31
0.0
  0
LINE
  5
2DFD
330
1F
100
AcDbEntity
  8
SPOJOVACÍ
  6
Continuous
100
AcDbLine
 10
-48.76573169864764
 20
99.49185331755144
 30
0.0
 11
-46.24681564361867
 21
99.49185331755144
 31
0.0
  0
LINE
  5
2DFE
330
1F
100
AcDbEntity
  8
SPOJOVACÍ
  6
Continuous
100
AcDbLine
 10
-45.64313155203467
 20
99.49185331755144
 30
0.0
 11
-45.30640791415112
 21
99.49185331755144
 31
0.0
  0
LINE
  5
2DFF
330
1F
100
AcDbEntity
  8
SPOJOVACÍ
  6
Continuous
100
AcDbLine
 10
-45.30640791415112
 20
96.79248315481528
 30
0.0
 11
-44.10927166479427
 21
96.94224145753834
 31
0.0
  0
LINE
  5
2E00
330
1F
100
AcDbEntity
  8
SPOJOVACÍ
  6
Continuous
100
AcDbLine
 10
-34.50613674919782
 20
98.14216823400057
 30
0.0
 11
-37.34224275046631
 21
98.49656521512953
 31
0.0
  0
LINE
  5
2E01
330
1F
100
AcDbEntity
  8
SPOJOVACÍ
  6
Continuous
100
AcDbLine
 10
-43.48884440894084
 20
97.01944605006429
 30
0.0
 11
-41.16712562287625
 21
97.30966089958384
 31
0.0
  0
LINE
  5
2E02
330
1F
100
AcDbEntity
  8
SPOJOVACÍ
  6
Continuous
100
AcDbLine
 10
-40.53646643321167
 20
97.388725842422
 30
0.0
 11
-38.21567782285615
 21
97.67894068757597
 31
0.0
  0
LINE
  5
2E03
330
1F
100
AcDbEntity
  8
SPOJOVACÍ
  6
Continuous
100
AcDbLine
 10
-37.59525056700272
 20
97.75614528010192
 30
0.0
 11
-34.50613674919782
 21
98.14216823400057
 31
0.0
  0
LINE
  5
2E04
330
1F
100
AcDbEntity
  8
SPOJOVACÍ
  6
Continuous
100
AcDbLine
 10
-37.91151033753317
 20
98.56818875235331
 30
0.0
 11
-40.05649572251764
 21
98.83607938066417
 31
0.0
  0
LINE
  5
2E05
330
1F
100
AcDbEntity
  8
SPOJOVACÍ
  6
Continuous
100
AcDbLine
 10
-40.62855383696637
 20
98.90770291352238
 30
0.0
 11
-42.76516763981976
 21
99.17466336885992
 31
0.0
  0
LINE
  5
2E06
330
1F
100
AcDbEntity
  8
SPOJOVACÍ
  6
Continuous
100
AcDbLine
 10
-43.3353654028649
 20
99.2462869060837
 30
0.0
 11
-45.30640791415112
 21
99.49185331755144
 31
0.0
  0
LINE
  5
2E07
330
1F
100
AcDbEntity
  8
SPOJOVACÍ
  6
Continuous
100
AcDbLine
 10
-59.47112493219515
 20
95.7423146810761
 30
0.0
 11
-58.27119815573292
 21
100.542021786925
 31
0.0
  0
LINE
  5
2E08
330
1F
100
AcDbEntity
  8
SPOJOVACÍ
  6
Continuous
100
AcDbLine
 10
-59.47112493219515
 20
95.7423146810761
 30
0.0
 11
-59.25346379614689
 21
96.11996605638706
 31
0.0
  0
LINE
  5
2E09
330
1F
100
AcDbEntity
  8
SPOJOVACÍ
  6
Continuous
100
AcDbLine
 10
-59.47112493219515
 20
95.7423146810761
 30
0.0
 11
-59.84970648102512
 21
96.11996605638706
 31
0.0
  0
LINE
  5
2E0A
330
1F
100
AcDbEntity
  8
SPOJOVACÍ
  6
Continuous
100
AcDbLine
 10
-58.27119815573292
 20
100.542021786925
 30
0.0
 11
-57.89354678260474
 21
100.1643704159796
 31
0.0
  0
LINE
  5
2E0B
330
1F
100
AcDbEntity
  8
SPOJOVACÍ
  6
Continuous
100
AcDbLine
 10
-58.27119815573292
 20
100.542021786925
 30
0.0
 11
-58.48978946775947
 21
100.1643704159796
 31
0.0
  0
LINE
  5
2E0C
330
1F
100
AcDbEntity
  8
SPOJOVACÍ
  6
Continuous
100
AcDbLine
 10
-59.25346379614689
 20
96.11996605638706
 30
0.0
 11
-57.89354678260474
 21
100.1643704159796
 31
0.0
  0
LINE
  5
2E0D
330
1F
100
AcDbEntity
  8
SPOJOVACÍ
  6
Continuous
100
AcDbLine
 10
-59.84970648102512
 20
96.11996605638706
 30
0.0
 11
-58.48978946775947
 21
100.1643704159796
 31
0.0
  0
LINE
  5
2E0E
330
1F
100
AcDbEntity
  8
SPOJOVACÍ
  6
Continuous
100
AcDbLine
 10
-56.35131531323327
 20
95.7423146810761
 30
0.0
 11
-55.15138853649455
 21
100.542021786925
 31
0.0
  0
LINE
  5
2E0F
330
1F
100
AcDbEntity
  8
SPOJOVACÍ
  6
Continuous
100
AcDbLine
 10
-56.35131531323327
 20
95.7423146810761
 30
0.0
 11
-56.13272400120672
 21
96.11996605638706
 31
0.0
  0
LINE
  5
2E10
330
1F
100
AcDbEntity
  8
SPOJOVACÍ
  6
Continuous
100
AcDbLine
 10
-56.35131531323327
 20
95.7423146810761
 30
0.0
 11
-56.72896668636145
 21
96.11996605638706
 31
0.0
  0
LINE
  5
2E11
330
1F
100
AcDbEntity
  8
SPOJOVACÍ
  6
Continuous
100
AcDbLine
 10
-55.15138853649455
 20
100.542021786925
 30
0.0
 11
-54.77373716364287
 21
100.1643704159796
 31
0.0
  0
LINE
  5
2E12
330
1F
100
AcDbEntity
  8
SPOJOVACÍ
  6
Continuous
100
AcDbLine
 10
-55.15138853649455
 20
100.542021786925
 30
0.0
 11
-55.3699798485211
 21
100.1643704159796
 31
0.0
  0
LINE
  5
2E13
330
1F
100
AcDbEntity
  8
SPOJOVACÍ
  6
Continuous
100
AcDbLine
 10
-56.13272400120672
 20
96.11996605638706
 30
0.0
 11
-54.77373716364287
 21
100.1643704159796
 31
0.0
  0
LINE
  5
2E14
330
1F
100
AcDbEntity
  8
SPOJOVACÍ
  6
Continuous
100
AcDbLine
 10
-56.72896668636145
 20
96.11996605638706
 30
0.0
 11
-55.3699798485211
 21
100.1643704159796
 31
0.0
  0
LINE
  5
2E15
330
1F
100
AcDbEntity
  8
SPOJOVACÍ
  6
Continuous
100
AcDbLine
 10
-43.91393474777191
 20
95.9962526754971
 30
0.0
 11
-43.69534343574537
 21
96.37483422378137
 31
0.0
  0
LINE
  5
2E16
330
1F
100
AcDbEntity
  8
SPOJOVACÍ
  6
Continuous
100
AcDbLine
 10
-43.91393474777191
 20
95.9962526754971
 30
0.0
 11
-44.29158612090009
 21
96.37483422378137
 31
0.0
  0
LINE
  5
2E17
330
1F
100
AcDbEntity
  8
SPOJOVACÍ
  6
Continuous
100
AcDbLine
 10
-42.9409708654673
 20
100.12158232824
 30
0.0
 11
-42.56238931636085
 21
99.74393095729466
 31
0.0
  0
LINE
  5
2E18
330
1F
100
AcDbEntity
  8
SPOJOVACÍ
  6
Continuous
100
AcDbLine
 10
-42.9409708654673
 20
100.12158232824
 30
0.0
 11
-43.15863200151556
 21
99.74393095729466
 31
0.0
  0
LINE
  5
2E19
330
1F
100
AcDbEntity
  8
SPOJOVACÍ
  6
Continuous
100
AcDbLine
 10
-43.69534343574537
 20
96.37483422378137
 30
0.0
 11
-42.56238931636085
 21
99.74393095729466
 31
0.0
  0
LINE
  5
2E1A
330
1F
100
AcDbEntity
  8
SPOJOVACÍ
  6
Continuous
100
AcDbLine
 10
-44.29158612090009
 20
96.37483422378137
 30
0.0
 11
-43.15863200151556
 21
99.74393095729466
 31
0.0
  0
LINE
  5
2E1B
330
1F
100
AcDbEntity
  8
SPOJOVACÍ
  6
Continuous
100
AcDbLine
 10
-43.91393474777191
 20
95.9962526754971
 30
0.0
 11
-42.9409708654673
 21
100.12158232824
 31
0.0
  0
LINE
  5
2E1C
330
1F
100
AcDbEntity
  8
SPOJOVACÍ
  6
Continuous
100
AcDbLine
 10
-40.89923499347401
 20
96.56086938160298
 30
0.0
 11
-40.68157385742575
 21
96.93852075691394
 31
0.0
  0
LINE
  5
2E1D
330
1F
100
AcDbEntity
  8
SPOJOVACÍ
  6
Continuous
100
AcDbLine
 10
-40.89923499347401
 20
96.56086938160298
 30
0.0
 11
-41.27781654258046
 21
96.93852075691394
 31
0.0
  0
LINE
  5
2E1E
330
1F
100
AcDbEntity
  8
SPOJOVACÍ
  6
Continuous
100
AcDbLine
 10
-40.26578527670404
 20
99.67695829803416
 30
0.0
 11
-39.88720372787406
 21
99.29930692708877
 31
0.0
  0
LINE
  5
2E1F
330
1F
100
AcDbEntity
  8
SPOJOVACÍ
  6
Continuous
100
AcDbLine
 10
-40.26578527670404
 20
99.67695829803416
 30
0.0
 11
-40.4834464127523
 21
99.29930692708877
 31
0.0
  0
LINE
  5
2E20
330
1F
100
AcDbEntity
  8
SPOJOVACÍ
  6
Continuous
100
AcDbLine
 10
-40.68157385742575
 20
96.93852075691394
 30
0.0
 11
-39.88720372787406
 21
99.29930692708877
 31
0.0
  0
LINE
  5
2E21
330
1F
100
AcDbEntity
  8
SPOJOVACÍ
  6
Continuous
100
AcDbLine
 10
-41.27781654258046
 20
96.93852075691394
 30
0.0
 11
-40.4834464127523
 21
99.29930692708877
 31
0.0
  0
LINE
  5
2E22
330
1F
100
AcDbEntity
  8
SPOJOVACÍ
  6
Continuous
100
AcDbLine
 10
-40.89923499347401
 20
96.56086938160298
 30
0.0
 11
-40.26578527670404
 21
99.67695829803416
 31
0.0
  0
LINE
  5
2E23
330
1F
100
AcDbEntity
  8
SPOJOVACÍ
  6
Continuous
100
AcDbLine
 10
-37.88546541515438
 20
97.12548609207443
 30
0.0
 11
-37.66687410313511
 21
97.50313746301982
 31
0.0
  0
LINE
  5
2E24
330
1F
100
AcDbEntity
  8
SPOJOVACÍ
  6
Continuous
100
AcDbLine
 10
-37.88546541515438
 20
97.12548609207443
 30
0.0
 11
-38.26311678828256
 21
97.50313746301982
 31
0.0
  0
LINE
  5
2E25
330
1F
100
AcDbEntity
  8
SPOJOVACÍ
  6
Continuous
100
AcDbLine
 10
-37.57478669938041
 20
99.27977323353117
 30
0.0
 11
-37.19620515055044
 21
98.90212186258578
 31
0.0
  0
LINE
  5
2E26
330
1F
100
AcDbEntity
  8
SPOJOVACÍ
  6
Continuous
100
AcDbLine
 10
-37.57478669938041
 20
99.27977323353117
 30
0.0
 11
-37.79244783569788
 21
98.90212186258578
 31
0.0
  0
LINE
  5
2E27
330
1F
100
AcDbEntity
  8
SPOJOVACÍ
  6
Continuous
100
AcDbLine
 10
-37.66687410313511
 20
97.50313746301982
 30
0.0
 11
-37.19620515055044
 21
98.90212186258578
 31
0.0
  0
LINE
  5
2E28
330
1F
100
AcDbEntity
  8
SPOJOVACÍ
  6
Continuous
100
AcDbLine
 10
-38.26311678828256
 20
97.50313746301982
 30
0.0
 11
-37.79244783569788
 21
98.90212186258578
 31
0.0
  0
LINE
  5
2E29
330
1F
100
AcDbEntity
  8
SPOJOVACÍ
  6
Continuous
100
AcDbLine
 10
-37.88546541515438
 20
97.12548609207443
 30
0.0
 11
-37.57478669938041
 21
99.27977323353117
 31
0.0
  0
LINE
  5
2E2A
330
1F
100
AcDbEntity
  8
SPOJOVACÍ
  6
Continuous
100
AcDbLine
 10
-53.23150569399491
 20
95.7423146810761
 30
0.0
 11
-52.03157891753267
 21
100.542021786925
 31
0.0
  0
LINE
  5
2E2B
330
1F
100
AcDbEntity
  8
SPOJOVACÍ
  6
Continuous
100
AcDbLine
 10
-53.23150569399491
 20
95.7423146810761
 30
0.0
 11
-53.01291438196836
 21
96.11996605638706
 31
0.0
  0
LINE
  5
2E2C
330
1F
100
AcDbEntity
  8
SPOJOVACÍ
  6
Continuous
100
AcDbLine
 10
-53.23150569399491
 20
95.7423146810761
 30
0.0
 11
-53.60915706712308
 21
96.11996605638706
 31
0.0
  0
LINE
  5
2E2D
330
1F
100
AcDbEntity
  8
SPOJOVACÍ
  6
Continuous
100
AcDbLine
 10
-52.03157891753267
 20
100.542021786925
 30
0.0
 11
-51.6529973687027
 21
100.1643704159796
 31
0.0
  0
LINE
  5
2E2E
330
1F
100
AcDbEntity
  8
SPOJOVACÍ
  6
Continuous
100
AcDbLine
 10
-52.03157891753267
 20
100.542021786925
 30
0.0
 11
-52.24924005385014
 21
100.1643704159796
 31
0.0
  0
LINE
  5
2E2F
330
1F
100
AcDbEntity
  8
SPOJOVACÍ
  6
Continuous
100
AcDbLine
 10
-53.01291438196836
 20
96.11996605638706
 30
0.0
 11
-51.6529973687027
 21
100.1643704159796
 31
0.0
  0
LINE
  5
2E30
330
1F
100
AcDbEntity
  8
SPOJOVACÍ
  6
Continuous
100
AcDbLine
 10
-53.60915706712308
 20
96.11996605638706
 30
0.0
 11
-52.24924005385014
 21
100.1643704159796
 31
0.0
  0
LINE
  5
2E31
330
1F
100
AcDbEntity
  8
SPOJOVACÍ
  6
Continuous
100
AcDbLine
 10
-50.11169607502575
 20
95.7423146810761
 30
0.0
 11
-48.91176929856351
 21
100.542021786925
 31
0.0
  0
LINE
  5
2E32
330
1F
100
AcDbEntity
  8
SPOJOVACÍ
  6
Continuous
100
AcDbLine
 10
-50.11169607502575
 20
95.7423146810761
 30
0.0
 11
-49.89310476300648
 21
96.11996605638706
 31
0.0
  0
LINE
  5
2E33
330
1F
100
AcDbEntity
  8
SPOJOVACÍ
  6
Continuous
100
AcDbLine
 10
-50.11169607502575
 20
95.7423146810761
 30
0.0
 11
-50.48934744815392
 21
96.11996605638706
 31
0.0
  0
LINE
  5
2E34
330
1F
100
AcDbEntity
  8
SPOJOVACÍ
  6
Continuous
100
AcDbLine
 10
-48.91176929856351
 20
100.542021786925
 30
0.0
 11
-48.53318774973354
 21
100.1643704159796
 31
0.0
  0
LINE
  5
2E35
330
1F
100
AcDbEntity
  8
SPOJOVACÍ
  6
Continuous
100
AcDbLine
 10
-48.91176929856351
 20
100.542021786925
 30
0.0
 11
-49.12943043461178
 21
100.1643704159796
 31
0.0
  0
LINE
  5
2E36
330
1F
100
AcDbEntity
  8
SPOJOVACÍ
  6
Continuous
100
AcDbLine
 10
-49.89310476300648
 20
96.11996605638706
 30
0.0
 11
-48.53318774973354
 21
100.1643704159796
 31
0.0
  0
LINE
  5
2E37
330
1F
100
AcDbEntity
  8
SPOJOVACÍ
  6
Continuous
100
AcDbLine
 10
-50.48934744815392
 20
96.11996605638706
 30
0.0
 11
-49.12943043461178
 21
100.1643704159796
 31
0.0
  0
LINE
  5
2E38
330
1F
100
AcDbEntity
  8
SPOJOVACÍ
  6
Continuous
100
AcDbLine
 10
-46.99095628008558
 20
95.7423146810761
 30
0.0
 11
-45.79102950362335
 21
100.542021786925
 31
0.0
  0
LINE
  5
2E39
330
1F
100
AcDbEntity
  8
SPOJOVACÍ
  6
Continuous
100
AcDbLine
 10
-46.99095628008558
 20
95.7423146810761
 30
0.0
 11
-46.77329514403732
 21
96.11996605638706
 31
0.0
  0
LINE
  5
2E3A
330
1F
100
AcDbEntity
  8
SPOJOVACÍ
  6
Continuous
100
AcDbLine
 10
-46.99095628008558
 20
95.7423146810761
 30
0.0
 11
-47.36953782919203
 21
96.11996605638706
 31
0.0
  0
LINE
  5
2E3B
330
1F
100
AcDbEntity
  8
SPOJOVACÍ
  6
Continuous
100
AcDbLine
 10
-45.79102950362335
 20
100.542021786925
 30
0.0
 11
-45.41337813049517
 21
100.1643704159796
 31
0.0
  0
LINE
  5
2E3C
330
1F
100
AcDbEntity
  8
SPOJOVACÍ
  6
Continuous
100
AcDbLine
 10
-45.79102950362335
 20
100.542021786925
 30
0.0
 11
-46.00962081564989
 21
100.1643704159796
 31
0.0
  0
LINE
  5
2E3D
330
1F
100
AcDbEntity
  8
SPOJOVACÍ
  6
Continuous
100
AcDbLine
 10
-46.77329514403732
 20
96.11996605638706
 30
0.0
 11
-45.41337813049517
 21
100.1643704159796
 31
0.0
  0
LINE
  5
2E3E
330
1F
100
AcDbEntity
  8
SPOJOVACÍ
  6
Continuous
100
AcDbLine
 10
-47.36953782919203
 20
96.11996605638706
 30
0.0
 11
-46.00962081564989
 21
100.1643704159796
 31
0.0
  0
LINE
  5
2E3F
330
1F
100
AcDbEntity
  8
NOSNÉ KONSTRUKCE
100
AcDbLine
 10
-52.18083474177524
 20
138.4277934470956
 30
0.0
 11
-52.18083474177524
 21
139.9277934470956
 31
0.0
  0
LINE
  5
2E40
330
1F
100
AcDbEntity
  8
NOSNÉ KONSTRUKCE
100
AcDbLine
 10
-12.82717830123124
 20
142.1103248190993
 30
0.0
 11
-12.82717830123124
 21
140.6103248190993
 31
0.0
  0
LINE
  5
2E41
330
1F
100
AcDbEntity
  8
izolace
  6
IZOLACE
 48
1.5
100
AcDbLine
 10
-32.79639068539086
 20
-78.59231078604352
 30
0.0
 11
-32.79639068538722
 21
399.6317259636416
 31
0.0
  0
LINE
  5
2E42
330
1F
100
AcDbEntity
  8
NOSNÉ KONSTRUKCE
100
AcDbLine
 10
-12.8271783012276
 20
-80.2814898886063
 30
0.0
 11
-12.82717830122396
 21
399.6317259636416
 31
0.0
  0
LINE
  5
2E43
330
1F
100
AcDbEntity
  8
NOSNÉ KONSTRUKCE
100
AcDbLine
 10
-52.18083474177524
 20
-80.2814898886063
 30
0.0
 11
-52.18083474177524
 21
399.6317259636416
 31
0.0
  0
LINE
  5
2E44
330
1F
100
AcDbEntity
  8
CETRIS
100
AcDbLine
 10
-58.27139609714845
 20
-80.3545648994841
 30
0.0
 11
-58.27139609714845
 21
399.6317259636416
 31
0.0
  0
LINE
  5
2E45
330
1F
100
AcDbEntity
  8
CETRIS
100
AcDbLine
 10
-70.27139609714845
 20
-80.3545648994841
 30
0.0
 11
-70.27139609714845
 21
399.6317259636416
 31
0.0
  0
LINE
  5
2E46
330
1F
100
AcDbEntity
  8
CETRIS
100
AcDbLine
 10
-7.039141812397929
 20
-80.3545648994841
 30
0.0
 11
-7.039141812397929
 21
399.6317259636416
 31
0.0
  0
LINE
  5
2E47
330
1F
100
AcDbEntity
  8
CETRIS
100
AcDbLine
 10
4.96085818760207
 20
-80.3545648994841
 30
0.0
 11
4.96085818760207
 21
399.6317259636416
 31
0.0
  0
LINE
  5
2E48
330
1F
100
AcDbEntity
  8
SPOJOVACÍ
  6
DASHED
100
AcDbLine
 10
-24.89581628198334
 20
117.6438261308048
 30
0.0
 11
7.316934613187413
 21
117.6438261308048
 31
0.0
  0
LINE
  5
2E49
330
1F
100
AcDbEntity
  8
SPOJOVACÍ
  6
DASHED
100
AcDbLine
 10
-24.89581628198698
 20
114.2219511308057
 30
0.0
 11
7.316934613183775
 21
114.2219511308057
 31
0.0
  0
LINE
  5
2E4A
330
1F
100
AcDbEntity
  8
SPOJOVACÍ
100
AcDbLine
 10
11.37647953789587
 20
122.6828886308066
 30
0.0
 11
10.49956891576243
 21
122.6828886308066
 31
0.0
  0
LINE
  5
2E4B
330
1F
100
AcDbEntity
  8
SPOJOVACÍ
100
AcDbLine
 10
10.49956891576243
 20
122.6828886308066
 30
0.0
 11
11.37647953789587
 21
122.6828886308066
 31
0.0
  0
LINE
  5
2E4C
330
1F
100
AcDbEntity
  8
SPOJOVACÍ
  6
DASHED
100
AcDbLine
 10
10.49956891576243
 20
122.6828886308066
 30
0.0
 11
7.316934613187413
 21
117.6438261308048
 31
0.0
  0
LINE
  5
2E4D
330
1F
100
AcDbEntity
  8
SPOJOVACÍ
100
AcDbLine
 10
10.49956891576243
 20
109.1828886308066
 30
0.0
 11
7.316934613183775
 21
114.2219511308057
 31
0.0
  0
LINE
  5
2E4E
330
1F
100
AcDbEntity
  8
SPOJOVACÍ
100
AcDbLine
 10
10.49956891576243
 20
109.1828886308066
 30
0.0
 11
11.37647953789587
 21
109.1828886308066
 31
0.0
  0
LINE
  5
2E4F
330
1F
100
AcDbEntity
  8
SPOJOVACÍ
100
AcDbLine
 10
11.94115728223209
 20
122.6828886308066
 30
0.0
 11
10.49956891576243
 21
122.6828886308066
 31
0.0
  0
LINE
  5
2E50
330
1F
100
AcDbEntity
  8
SPOJOVACÍ
100
AcDbLine
 10
11.94115728223209
 20
109.1828886308066
 30
0.0
 11
10.49956891576243
 21
109.1828886308066
 31
0.0
  0
LINE
  5
2E51
330
1F
100
AcDbEntity
  8
SPOJOVACÍ
100
AcDbLine
 10
11.94115728223209
 20
122.6828886308066
 30
0.0
 11
11.94115728223209
 21
109.1828886308066
 31
0.0
  0
LINE
  5
2E52
330
1F
100
AcDbEntity
  8
SPOJOVACÍ
100
AcDbLine
 10
10.49956891576243
 20
122.6828886308066
 30
0.0
 11
10.49956891576243
 21
109.1828886308066
 31
0.0
  0
LINE
  5
2E53
330
1F
100
AcDbEntity
  8
SPOJOVACÍ
  6
Continuous
100
AcDbLine
 10
-0.8613700280836837
 20
118.7789649537271
 30
0.0
 11
-0.4123959721944175
 21
118.3310940258197
 31
0.0
  0
LINE
  5
2E54
330
1F
100
AcDbEntity
  8
SPOJOVACÍ
  6
Continuous
100
AcDbLine
 10
-0.4123959721944175
 20
118.3310940258197
 30
0.0
 11
-2.025172555440576
 21
113.5346832306149
 31
0.0
  0
LINE
  5
2E55
330
1F
100
AcDbEntity
  8
SPOJOVACÍ
  6
Continuous
100
AcDbLine
 10
6.379583856305771
 20
118.3310940258197
 30
0.0
 11
4.766807273059612
 21
113.5346832306149
 31
0.0
  0
LINE
  5
2E56
330
1F
100
AcDbEntity
  8
SPOJOVACÍ
  6
Continuous
100
AcDbLine
 10
5.672477296881197
 20
118.3310940258197
 30
0.0
 11
4.059700713638676
 21
113.5346832306149
 31
0.0
  0
LINE
  5
2E57
330
1F
100
AcDbEntity
  8
SPOJOVACÍ
  6
Continuous
100
AcDbLine
 10
4.507571638958552
 20
113.0868123078844
 30
0.0
 11
4.766807273059612
 21
113.5346832306149
 31
0.0
  0
LINE
  5
2E58
330
1F
100
AcDbEntity
  8
SPOJOVACÍ
  6
Continuous
100
AcDbLine
 10
4.507571638958552
 20
113.0868123078844
 30
0.0
 11
4.059700713638676
 21
113.5346832306149
 31
0.0
  0
LINE
  5
2E59
330
1F
100
AcDbEntity
  8
SPOJOVACÍ
  6
Continuous
100
AcDbLine
 10
5.930609800416505
 20
118.7789649537271
 30
0.0
 11
6.379583856305771
 21
118.3310940258197
 31
0.0
  0
LINE
  5
2E5A
330
1F
100
AcDbEntity
  8
SPOJOVACÍ
  6
Continuous
100
AcDbLine
 10
5.930609800416505
 20
118.7789649537271
 30
0.0
 11
5.672477296881197
 21
118.3310940258197
 31
0.0
  0
LINE
  5
2E5B
330
1F
100
AcDbEntity
  8
SPOJOVACÍ
  6
Continuous
100
AcDbLine
 10
5.930609800416505
 20
118.7789649537271
 30
0.0
 11
4.507571638958552
 21
113.0868123078844
 31
0.0
  0
LINE
  5
2E5C
330
1F
100
AcDbEntity
  8
SPOJOVACÍ
  6
Continuous
100
AcDbLine
 10
2.983593942055676
 20
118.3310940258197
 30
0.0
 11
1.370817358809517
 21
113.5346832306149
 31
0.0
  0
LINE
  5
2E5D
330
1F
100
AcDbEntity
  8
SPOJOVACÍ
  6
Continuous
100
AcDbLine
 10
2.276487382631103
 20
118.3310940258197
 30
0.0
 11
0.6637107993885821
 21
113.5346832306149
 31
0.0
  0
LINE
  5
2E5E
330
1F
100
AcDbEntity
  8
SPOJOVACÍ
  6
Continuous
100
AcDbLine
 10
1.111581724708457
 20
113.0868123078844
 30
0.0
 11
1.370817358809517
 21
113.5346832306149
 31
0.0
  0
LINE
  5
2E5F
330
1F
100
AcDbEntity
  8
SPOJOVACÍ
  6
Continuous
100
AcDbLine
 10
1.111581724708457
 20
113.0868123078844
 30
0.0
 11
0.6637107993885821
 21
113.5346832306149
 31
0.0
  0
LINE
  5
2E60
330
1F
100
AcDbEntity
  8
SPOJOVACÍ
  6
Continuous
100
AcDbLine
 10
2.53461988616641
 20
118.7789649537271
 30
0.0
 11
2.983593942055676
 21
118.3310940258197
 31
0.0
  0
LINE
  5
2E61
330
1F
100
AcDbEntity
  8
SPOJOVACÍ
  6
Continuous
100
AcDbLine
 10
2.53461988616641
 20
118.7789649537271
 30
0.0
 11
2.276487382631103
 21
118.3310940258197
 31
0.0
  0
LINE
  5
2E62
330
1F
100
AcDbEntity
  8
SPOJOVACÍ
  6
Continuous
100
AcDbLine
 10
2.53461988616641
 20
118.7789649537271
 30
0.0
 11
1.111581724708457
 21
113.0868123078844
 31
0.0
  0
LINE
  5
2E63
330
1F
100
AcDbEntity
  8
SPOJOVACÍ
  6
CIKCAK
 48
0.25
100
AcDbLine
 10
8.462977551698941
 20
112.4074222073322
 30
0.0
 11
-31.12939877944495
 21
112.4074222073304
 31
0.0
  0
LINE
  5
2E64
330
1F
100
AcDbEntity
  8
SPOJOVACÍ
  6
CIKCAK
 48
0.25
100
AcDbLine
 10
8.462977551702579
 20
119.4583550542811
 30
0.0
 11
-31.12939877944859
 21
119.4583550542811
 31
0.0
  0
LINE
  5
2E65
330
1F
100
AcDbEntity
  8
SPOJOVACÍ
  6
Continuous
100
AcDbLine
 10
-24.63329942783434
 20
118.7789649537271
 30
0.0
 11
-26.05633758929229
 21
113.0868123078844
 31
0.0
  0
LINE
  5
2E66
330
1F
100
AcDbEntity
  8
SPOJOVACÍ
  6
Continuous
100
AcDbLine
 10
-24.63329942783434
 20
118.7789649537271
 30
0.0
 11
-24.89143193136965
 21
118.3310940258197
 31
0.0
  0
LINE
  5
2E67
330
1F
100
AcDbEntity
  8
SPOJOVACÍ
  6
Continuous
100
AcDbLine
 10
-24.63329942783434
 20
118.7789649537271
 30
0.0
 11
-24.18432537194508
 21
118.3310940258197
 31
0.0
  0
LINE
  5
2E68
330
1F
100
AcDbEntity
  8
SPOJOVACÍ
  6
Continuous
100
AcDbLine
 10
-24.18432537194508
 20
118.3310940258197
 30
0.0
 11
-25.79710195519123
 21
113.5346832306149
 31
0.0
  0
LINE
  5
2E69
330
1F
100
AcDbEntity
  8
SPOJOVACÍ
  6
Continuous
100
AcDbLine
 10
-20.78833545769498
 20
118.3310940258197
 30
0.0
 11
-22.40111204094114
 21
113.5346832306149
 31
0.0
  0
LINE
  5
2E6A
330
1F
100
AcDbEntity
  8
SPOJOVACÍ
  6
Continuous
100
AcDbLine
 10
-21.49544201711955
 20
118.3310940258197
 30
0.0
 11
-23.10821860036207
 21
113.5346832306149
 31
0.0
  0
LINE
  5
2E6B
330
1F
100
AcDbEntity
  8
SPOJOVACÍ
  6
Continuous
100
AcDbLine
 10
-22.6603476750422
 20
113.0868123078844
 30
0.0
 11
-22.40111204094114
 21
113.5346832306149
 31
0.0
  0
LINE
  5
2E6C
330
1F
100
AcDbEntity
  8
SPOJOVACÍ
  6
Continuous
100
AcDbLine
 10
-22.6603476750422
 20
113.0868123078844
 30
0.0
 11
-23.10821860036207
 21
113.5346832306149
 31
0.0
  0
LINE
  5
2E6D
330
1F
100
AcDbEntity
  8
SPOJOVACÍ
  6
Continuous
100
AcDbLine
 10
-21.23730951358425
 20
118.7789649537271
 30
0.0
 11
-20.78833545769498
 21
118.3310940258197
 31
0.0
  0
LINE
  5
2E6E
330
1F
100
AcDbEntity
  8
SPOJOVACÍ
  6
Continuous
100
AcDbLine
 10
-21.23730951358425
 20
118.7789649537271
 30
0.0
 11
-21.49544201711955
 21
118.3310940258197
 31
0.0
  0
LINE
  5
2E6F
330
1F
100
AcDbEntity
  8
SPOJOVACÍ
  6
Continuous
100
AcDbLine
 10
-21.23730951358425
 20
118.7789649537271
 30
0.0
 11
-22.6603476750422
 21
113.0868123078844
 31
0.0
  0
LINE
  5
2E70
330
1F
100
AcDbEntity
  8
SPOJOVACÍ
  6
Continuous
100
AcDbLine
 10
-17.84131959933415
 20
118.7789649537271
 30
0.0
 11
-19.26435776079211
 21
113.0868123078844
 31
0.0
  0
LINE
  5
2E71
330
1F
100
AcDbEntity
  8
SPOJOVACÍ
  6
Continuous
100
AcDbLine
 10
-17.84131959933415
 20
118.7789649537271
 30
0.0
 11
-18.09945210286946
 21
118.3310940258197
 31
0.0
  0
LINE
  5
2E72
330
1F
100
AcDbEntity
  8
SPOJOVACÍ
  6
Continuous
100
AcDbLine
 10
-17.84131959933415
 20
118.7789649537271
 30
0.0
 11
-17.39234554344489
 21
118.3310940258197
 31
0.0
  0
LINE
  5
2E73
330
1F
100
AcDbEntity
  8
SPOJOVACÍ
  6
Continuous
100
AcDbLine
 10
-19.26435776079211
 20
113.0868123078844
 30
0.0
 11
-19.71222868611198
 21
113.5346832306149
 31
0.0
  0
LINE
  5
2E74
330
1F
100
AcDbEntity
  8
SPOJOVACÍ
  6
Continuous
100
AcDbLine
 10
-19.26435776079211
 20
113.0868123078844
 30
0.0
 11
-19.00512212669104
 21
113.5346832306149
 31
0.0
  0
LINE
  5
2E75
330
1F
100
AcDbEntity
  8
SPOJOVACÍ
  6
Continuous
100
AcDbLine
 10
-18.09945210286946
 20
118.3310940258197
 30
0.0
 11
-19.71222868611198
 21
113.5346832306149
 31
0.0
  0
LINE
  5
2E76
330
1F
100
AcDbEntity
  8
SPOJOVACÍ
  6
Continuous
100
AcDbLine
 10
-17.39234554344489
 20
118.3310940258197
 30
0.0
 11
-19.00512212669104
 21
113.5346832306149
 31
0.0
  0
LINE
  5
2E77
330
1F
100
AcDbEntity
  8
SPOJOVACÍ
  6
Continuous
100
AcDbLine
 10
-14.44532968508406
 20
118.7789649537271
 30
0.0
 11
-15.86836784654201
 21
113.0868123078844
 31
0.0
  0
LINE
  5
2E78
330
1F
100
AcDbEntity
  8
SPOJOVACÍ
  6
Continuous
100
AcDbLine
 10
-14.44532968508406
 20
118.7789649537271
 30
0.0
 11
-14.70346218861936
 21
118.3310940258197
 31
0.0
  0
LINE
  5
2E79
330
1F
100
AcDbEntity
  8
SPOJOVACÍ
  6
Continuous
100
AcDbLine
 10
-14.44532968508406
 20
118.7789649537271
 30
0.0
 11
-13.99635562919479
 21
118.3310940258197
 31
0.0
  0
LINE
  5
2E7A
330
1F
100
AcDbEntity
  8
SPOJOVACÍ
  6
Continuous
100
AcDbLine
 10
-15.86836784654201
 20
113.0868123078844
 30
0.0
 11
-16.31623877186189
 21
113.5346832306149
 31
0.0
  0
LINE
  5
2E7B
330
1F
100
AcDbEntity
  8
SPOJOVACÍ
  6
Continuous
100
AcDbLine
 10
-15.86836784654201
 20
113.0868123078844
 30
0.0
 11
-15.60913221244095
 21
113.5346832306149
 31
0.0
  0
LINE
  5
2E7C
330
1F
100
AcDbEntity
  8
SPOJOVACÍ
  6
Continuous
100
AcDbLine
 10
-14.70346218861936
 20
118.3310940258197
 30
0.0
 11
-16.31623877186189
 21
113.5346832306149
 31
0.0
  0
LINE
  5
2E7D
330
1F
100
AcDbEntity
  8
SPOJOVACÍ
  6
Continuous
100
AcDbLine
 10
-13.99635562919479
 20
118.3310940258197
 30
0.0
 11
-15.60913221244095
 21
113.5346832306149
 31
0.0
  0
LINE
  5
2E7E
330
1F
100
AcDbEntity
  8
SPOJOVACÍ
  6
Continuous
100
AcDbLine
 10
-11.04933977083396
 20
118.7789649537271
 30
0.0
 11
-12.47237793229192
 21
113.0868123078844
 31
0.0
  0
LINE
  5
2E7F
330
1F
100
AcDbEntity
  8
SPOJOVACÍ
  6
Continuous
100
AcDbLine
 10
-11.04933977083396
 20
118.7789649537271
 30
0.0
 11
-11.30747227436927
 21
118.3310940258197
 31
0.0
  0
LINE
  5
2E80
330
1F
100
AcDbEntity
  8
SPOJOVACÍ
  6
Continuous
100
AcDbLine
 10
-11.04933977083396
 20
118.7789649537271
 30
0.0
 11
-10.6003657149447
 21
118.3310940258197
 31
0.0
  0
LINE
  5
2E81
330
1F
100
AcDbEntity
  8
SPOJOVACÍ
  6
Continuous
100
AcDbLine
 10
-12.47237793229192
 20
113.0868123078844
 30
0.0
 11
-12.92024885761179
 21
113.5346832306149
 31
0.0
  0
LINE
  5
2E82
330
1F
100
AcDbEntity
  8
SPOJOVACÍ
  6
Continuous
100
AcDbLine
 10
-12.47237793229192
 20
113.0868123078844
 30
0.0
 11
-12.21314229819085
 21
113.5346832306149
 31
0.0
  0
LINE
  5
2E83
330
1F
100
AcDbEntity
  8
SPOJOVACÍ
  6
Continuous
100
AcDbLine
 10
-11.30747227436927
 20
118.3310940258197
 30
0.0
 11
-12.92024885761179
 21
113.5346832306149
 31
0.0
  0
LINE
  5
2E84
330
1F
100
AcDbEntity
  8
SPOJOVACÍ
  6
Continuous
100
AcDbLine
 10
-10.6003657149447
 20
118.3310940258197
 30
0.0
 11
-12.21314229819085
 21
113.5346832306149
 31
0.0
  0
LINE
  5
2E85
330
1F
100
AcDbEntity
  8
SPOJOVACÍ
  6
Continuous
100
AcDbLine
 10
-7.653349856583872
 20
118.7789649537271
 30
0.0
 11
-9.076388018041825
 21
113.0868123078844
 31
0.0
  0
LINE
  5
2E86
330
1F
100
AcDbEntity
  8
SPOJOVACÍ
  6
Continuous
100
AcDbLine
 10
-7.653349856583872
 20
118.7789649537271
 30
0.0
 11
-7.91148236011918
 21
118.3310940258197
 31
0.0
  0
LINE
  5
2E87
330
1F
100
AcDbEntity
  8
SPOJOVACÍ
  6
Continuous
100
AcDbLine
 10
-7.653349856583872
 20
118.7789649537271
 30
0.0
 11
-7.204375800694606
 21
118.3310940258197
 31
0.0
  0
LINE
  5
2E88
330
1F
100
AcDbEntity
  8
SPOJOVACÍ
  6
Continuous
100
AcDbLine
 10
-9.076388018041825
 20
113.0868123078844
 30
0.0
 11
-9.524258943361701
 21
113.5346832306149
 31
0.0
  0
LINE
  5
2E89
330
1F
100
AcDbEntity
  8
SPOJOVACÍ
  6
Continuous
100
AcDbLine
 10
-9.076388018041825
 20
113.0868123078844
 30
0.0
 11
-8.817152383940765
 21
113.5346832306149
 31
0.0
  0
LINE
  5
2E8A
330
1F
100
AcDbEntity
  8
SPOJOVACÍ
  6
Continuous
100
AcDbLine
 10
-7.91148236011918
 20
118.3310940258197
 30
0.0
 11
-9.524258943361701
 21
113.5346832306149
 31
0.0
  0
LINE
  5
2E8B
330
1F
100
AcDbEntity
  8
SPOJOVACÍ
  6
Continuous
100
AcDbLine
 10
-7.204375800694606
 20
118.3310940258197
 30
0.0
 11
-8.817152383940765
 21
113.5346832306149
 31
0.0
  0
LINE
  5
2E8C
330
1F
100
AcDbEntity
  8
SPOJOVACÍ
  6
Continuous
100
AcDbLine
 10
-4.257359942333778
 20
118.7789649537271
 30
0.0
 11
-5.680398103791731
 21
113.0868123078844
 31
0.0
  0
LINE
  5
2E8D
330
1F
100
AcDbEntity
  8
SPOJOVACÍ
  6
Continuous
100
AcDbLine
 10
-4.257359942333778
 20
118.7789649537271
 30
0.0
 11
-4.515492445869085
 21
118.3310940258197
 31
0.0
  0
LINE
  5
2E8E
330
1F
100
AcDbEntity
  8
SPOJOVACÍ
  6
Continuous
100
AcDbLine
 10
-4.257359942333778
 20
118.7789649537271
 30
0.0
 11
-3.808385886444511
 21
118.3310940258197
 31
0.0
  0
LINE
  5
2E8F
330
1F
100
AcDbEntity
  8
SPOJOVACÍ
  6
Continuous
100
AcDbLine
 10
-5.680398103791731
 20
113.0868123078844
 30
0.0
 11
-6.128269029111606
 21
113.5346832306149
 31
0.0
  0
LINE
  5
2E90
330
1F
100
AcDbEntity
  8
SPOJOVACÍ
  6
Continuous
100
AcDbLine
 10
-5.680398103791731
 20
113.0868123078844
 30
0.0
 11
-5.421162469690671
 21
113.5346832306149
 31
0.0
  0
LINE
  5
2E91
330
1F
100
AcDbEntity
  8
SPOJOVACÍ
  6
Continuous
100
AcDbLine
 10
-4.515492445869085
 20
118.3310940258197
 30
0.0
 11
-6.128269029111606
 21
113.5346832306149
 31
0.0
  0
LINE
  5
2E92
330
1F
100
AcDbEntity
  8
SPOJOVACÍ
  6
Continuous
100
AcDbLine
 10
-3.808385886444511
 20
118.3310940258197
 30
0.0
 11
-5.421162469690671
 21
113.5346832306149
 31
0.0
  0
LINE
  5
2E93
330
1F
100
AcDbEntity
  8
SPOJOVACÍ
  6
Continuous
100
AcDbLine
 10
-0.8613700280836837
 20
118.7789649537271
 30
0.0
 11
-2.284408189541636
 21
113.0868123078844
 31
0.0
  0
LINE
  5
2E94
330
1F
100
AcDbEntity
  8
SPOJOVACÍ
  6
Continuous
100
AcDbLine
 10
-0.8613700280836837
 20
118.7789649537271
 30
0.0
 11
-1.119502531618991
 21
118.3310940258197
 31
0.0
  0
LINE
  5
2E95
330
1F
100
AcDbEntity
  8
SPOJOVACÍ
  6
Continuous
100
AcDbLine
 10
-2.284408189541636
 20
113.0868123078844
 30
0.0
 11
-2.732279114861512
 21
113.5346832306149
 31
0.0
  0
LINE
  5
2E96
330
1F
100
AcDbEntity
  8
SPOJOVACÍ
  6
Continuous
100
AcDbLine
 10
-2.284408189541636
 20
113.0868123078844
 30
0.0
 11
-2.025172555440576
 21
113.5346832306149
 31
0.0
  0
LINE
  5
2E97
330
1F
100
AcDbEntity
  8
SPOJOVACÍ
  6
Continuous
100
AcDbLine
 10
-1.119502531618991
 20
118.3310940258197
 30
0.0
 11
-2.732279114861512
 21
113.5346832306149
 31
0.0
  0
LINE
  5
2E98
330
1F
100
AcDbEntity
  8
SPOJOVACÍ
  6
Continuous
100
AcDbLine
 10
-27.89928471964936
 20
118.1458640505125
 30
0.0
 11
-28.12470701017787
 21
117.7554518288443
 31
0.0
  0
LINE
  5
2E99
330
1F
100
AcDbEntity
  8
SPOJOVACÍ
  6
Continuous
100
AcDbLine
 10
-27.89928471964936
 20
118.1458640505125
 30
0.0
 11
-27.50983174111002
 21
117.7554518288443
 31
0.0
  0
LINE
  5
2E9A
330
1F
100
AcDbEntity
  8
SPOJOVACÍ
  6
Continuous
100
AcDbLine
 10
-28.90265372327826
 20
113.8916178461213
 30
0.0
 11
-29.29306594579225
 21
114.2810708224087
 31
0.0
  0
LINE
  5
2E9B
330
1F
100
AcDbEntity
  8
SPOJOVACÍ
  6
Continuous
100
AcDbLine
 10
-28.90265372327826
 20
113.8916178461213
 30
0.0
 11
-28.67819067672803
 21
114.2810708224087
 31
0.0
  0
LINE
  5
2E9C
330
1F
100
AcDbEntity
  8
SPOJOVACÍ
  6
Continuous
100
AcDbLine
 10
-28.12470701017787
 20
117.7554518288443
 30
0.0
 11
-29.29306594579225
 21
114.2810708224087
 31
0.0
  0
LINE
  5
2E9D
330
1F
100
AcDbEntity
  8
SPOJOVACÍ
  6
Continuous
100
AcDbLine
 10
-27.50983174111002
 20
117.7554518288443
 30
0.0
 11
-28.67819067672803
 21
114.2810708224087
 31
0.0
  0
LINE
  5
2E9E
330
1F
100
AcDbEntity
  8
SPOJOVACÍ
  6
Continuous
100
AcDbLine
 10
-27.89928471964936
 20
118.1458640505125
 30
0.0
 11
-28.90265372327826
 21
113.8916178461213
 31
0.0
  0
LINE
  5
2E9F
330
1F
100
AcDbEntity
  8
SPOJOVACÍ
  6
Continuous
100
AcDbLine
 10
-31.0081938412693
 20
117.5636030723408
 30
0.0
 11
-31.23265688781953
 21
117.1741500915513
 31
0.0
  0
LINE
  5
2EA0
330
1F
100
AcDbEntity
  8
SPOJOVACÍ
  6
Continuous
100
AcDbLine
 10
-31.0081938412693
 20
117.5636030723408
 30
0.0
 11
-30.61778161875531
 21
117.1741500915513
 31
0.0
  0
LINE
  5
2EA1
330
1F
100
AcDbEntity
  8
SPOJOVACÍ
  6
Continuous
100
AcDbLine
 10
-31.66143886168697
 20
114.3501363772711
 30
0.0
 11
-32.0518510839172
 21
114.7395893535585
 31
0.0
  0
LINE
  5
2EA2
330
1F
100
AcDbEntity
  8
SPOJOVACÍ
  6
Continuous
100
AcDbLine
 10
-31.66143886168697
 20
114.3501363772711
 30
0.0
 11
-31.43697581514038
 21
114.7395893535585
 31
0.0
  0
LINE
  5
2EA3
330
1F
100
AcDbEntity
  8
SPOJOVACÍ
  6
Continuous
100
AcDbLine
 10
-31.23265688781953
 20
117.1741500915513
 30
0.0
 11
-32.0518510839172
 21
114.7395893535585
 31
0.0
  0
LINE
  5
2EA4
330
1F
100
AcDbEntity
  8
SPOJOVACÍ
  6
Continuous
100
AcDbLine
 10
-30.61778161875531
 20
117.1741500915513
 30
0.0
 11
-31.43697581514038
 21
114.7395893535585
 31
0.0
  0
LINE
  5
2EA5
330
1F
100
AcDbEntity
  8
SPOJOVACÍ
  6
Continuous
100
AcDbLine
 10
-31.0081938412693
 20
117.5636030723408
 30
0.0
 11
-31.66143886168697
 21
114.3501363772711
 31
0.0
  0
LINE
  5
2EA6
330
1F
100
AcDbEntity
  8
SPOJOVACÍ
  6
Continuous
100
AcDbLine
 10
-34.11614371891096
 20
116.9813420896671
 30
0.0
 11
-34.3415660094322
 21
116.5918891133796
 31
0.0
  0
LINE
  5
2EA7
330
1F
100
AcDbEntity
  8
SPOJOVACÍ
  6
Continuous
100
AcDbLine
 10
-34.11614371891096
 20
116.9813420896671
 30
0.0
 11
-33.72669074037526
 21
116.5918891133796
 31
0.0
  0
LINE
  5
2EA8
330
1F
100
AcDbEntity
  8
SPOJOVACÍ
  6
Continuous
100
AcDbLine
 10
-34.43653114455424
 20
114.7597334750398
 30
0.0
 11
-34.8269433667881
 21
115.1491864513273
 31
0.0
  0
LINE
  5
2EA9
330
1F
100
AcDbEntity
  8
SPOJOVACÍ
  6
Continuous
100
AcDbLine
 10
-34.43653114455424
 20
114.7597334750398
 30
0.0
 11
-34.21206809772388
 21
115.1491864513273
 31
0.0
  0
LINE
  5
2EAA
330
1F
100
AcDbEntity
  8
SPOJOVACÍ
  6
Continuous
100
AcDbLine
 10
-34.3415660094322
 20
116.5918891133796
 30
0.0
 11
-34.8269433667881
 21
115.1491864513273
 31
0.0
  0
LINE
  5
2EAB
330
1F
100
AcDbEntity
  8
SPOJOVACÍ
  6
Continuous
100
AcDbLine
 10
-33.72669074037526
 20
116.5918891133796
 30
0.0
 11
-34.21206809772388
 21
115.1491864513273
 31
0.0
  0
LINE
  5
2EAC
330
1F
100
AcDbEntity
  8
SPOJOVACÍ
  6
Continuous
100
AcDbLine
 10
-34.11614371891096
 20
116.9813420896671
 30
0.0
 11
-34.43653114455424
 21
114.7597334750398
 31
0.0
  0
LINE
  5
2EAD
330
1F
100
AcDbEntity
  8
SPOJOVACÍ
  6
Continuous
100
AcDbLine
 10
-26.05633758929229
 20
113.0868123078844
 30
0.0
 11
-26.50420851461217
 21
113.5346832306149
 31
0.0
  0
LINE
  5
2EAE
330
1F
100
AcDbEntity
  8
SPOJOVACÍ
  6
Continuous
100
AcDbLine
 10
-26.05633758929229
 20
113.0868123078844
 30
0.0
 11
-25.79710195519123
 21
113.5346832306149
 31
0.0
  0
LINE
  5
2EAF
330
1F
100
AcDbEntity
  8
SPOJOVACÍ
  6
Continuous
100
AcDbLine
 10
-24.89143193136965
 20
118.3310940258197
 30
0.0
 11
-26.50420851461217
 21
113.5346832306149
 31
0.0
  0
LINE
  5
2EB0
330
1F
100
AcDbEntity
  8
SPOJOVACÍ
  6
DASHED
100
AcDbLine
 10
-37.60107640567707
 20
115.9328886308057
 30
0.0
 11
-24.89581628198334
 21
117.6438261308048
 31
0.0
  0
LINE
  5
2EB1
330
1F
100
AcDbEntity
  8
SPOJOVACÍ
  6
DASHED
100
AcDbLine
 10
-37.60107640567707
 20
115.9328886308057
 30
0.0
 11
-24.89581628198698
 21
114.2219511308057
 31
0.0
  0
LINE
  5
2EB2
330
1F
100
AcDbEntity
  8
SPOJOVACÍ
 48
0.25
100
AcDbLine
 10
-31.12939877944859
 20
119.4583550542811
 30
0.0
 11
-36.77883912016454
 21
115.9328886308067
 31
0.0
  0
LINE
  5
2EB3
330
1F
100
AcDbEntity
  8
SPOJOVACÍ
 48
0.25
100
AcDbLine
 10
-31.12939877944495
 20
112.4074222073304
 30
0.0
 11
-36.77883912016454
 21
115.9328886308067
 31
0.0
  0
LINE
  5
2EB4
330
1F
100
AcDbEntity
  8
SPOJOVACÍ
  6
DASHDOT2
100
AcDbLine
 10
21.83803228249985
 20
115.9328886308067
 30
0.0
 11
-46.56772292646905
 21
115.9328886308057
 31
0.0
  0
LINE
  5
2EB5
330
1F
100
AcDbEntity
  8
NOSNÉ KONSTRUKCE
100
AcDbLine
 10
56.16502050569057
 20
135.1022750529909
 30
0.0
 11
57.66502050569056
 21
135.1022750529909
 31
0.0
  0
LINE
  5
2EB6
330
1F
100
AcDbEntity
  8
NOSNÉ KONSTRUKCE
100
AcDbLine
 10
59.84755187769429
 20
95.74861861244427
 30
0.0
 11
58.34755187769428
 21
95.74861861244427
 31
0.0
  0
LINE
  5
2EB7
330
1F
100
AcDbEntity
  8
NOSNÉ KONSTRUKCE
100
AcDbLine
 10
459.8475518776942
 20
95.74861861244427
 30
0.0
 11
458.3475518776943
 21
95.74861861244427
 31
0.0
  0
LINE
  5
2EB8
330
1F
100
AcDbEntity
  8
NOSNÉ KONSTRUKCE
100
AcDbLine
 10
456.1650205056905
 20
135.1022750529909
 30
0.0
 11
457.6650205056905
 21
135.1022750529909
 31
0.0
  0
LINE
  5
2EB9
330
1F
100
AcDbEntity
  8
CETRIS
100
AcDbLine
 10
10.17890316879152
 20
89.96058212361459
 30
0.0
 11
524.4312541213077
 21
89.96058212361459
 31
0.0
  0
LINE
  5
2EBA
330
1F
100
AcDbEntity
  8
CETRIS
100
AcDbLine
 10
10.17890316879152
 20
77.96058212361458
 30
0.0
 11
522.221092843007
 21
77.96058212361458
 31
0.0
  0
LINE
  5
2EBB
330
1F
100
AcDbEntity
  8
CETRIS
100
AcDbLine
 10
10.17890316879152
 20
153.1928364083633
 30
0.0
 11
431.0852364028362
 21
153.1928364083642
 31
0.0
  0
LINE
  5
2EBC
330
1F
100
AcDbEntity
  8
CETRIS
100
AcDbLine
 10
10.17890316879152
 20
141.1928364083632
 30
0.0
 11
431.0852364028362
 21
141.1928364083641
 31
0.0
  0
LINE
  5
2EBD
330
1F
100
AcDbEntity
  8
izolace
100
AcDbLine
 10
8.129063638094748
 20
140.4276008466676
 30
0.0
 11
8.129063638094748
 21
90.42329281876664
 31
0.0
  0
LINE
  5
2EBE
330
1F
100
AcDbEntity
  8
izolace
100
AcDbLine
 10
6.129063638098386
 20
140.4276008466676
 30
0.0
 11
6.12906363809111
 21
90.42329281876664
 31
0.0
  0
LWPOLYLINE
  5
2EBF
330
1F
100
AcDbEntity
  8
izolace
100
AcDbPolyline
 90
        4
 70
     1
 43
0.0
 10
6.12906363809111
 20
96.22364488821403
 10
8.129063638094748
 20
96.22364488821403
 10
8.129063638094748
 20
108.7247218951888
 10
6.12906363809111
 20
108.7247218951888
  0
LWPOLYLINE
  5
2EC0
330
1F
100
AcDbEntity
  8
izolace
100
AcDbPolyline
 90
        4
 70
     1
 43
0.0
 10
6.12906363809111
 20
121.2257989021645
 10
8.129063638094748
 20
121.2257989021645
 10
8.129063638094748
 20
133.7268759091402
 10
6.12906363809111
 20
133.7268759091402
  0
HATCH
  5
2EC1
330
1F
100
AcDbEntity
  8
izolace
100
AcDbHatch
 10
0.0
 20
0.0
 30
0.0
210
0.0
220
0.0
230
1.0
  2
SOLID
 70
     1
 71
     0
 91
        3
 92
        7
 72
     0
 73
     1
 93
        4
 10
8.12906363809111
 20
140.4276008466676
 10
6.129063638094748
 20
140.4276008466676
 10
6.12906363809111
 20
133.7268759091402
 10
8.12906363809111
 20
133.7268759091402
 97
        0
 92
        7
 72
     0
 73
     1
 93
        4
 10
8.12906363809111
 20
121.2257989021645
 10
6.12906363809111
 20
121.2257989021645
 10
6.12906363809111
 20
108.7247218951888
 10
8.12906363809111
 20
108.7247218951888
 97
        0
 92
        7
 72
     0
 73
     1
 93
        4
 10
8.129063638094748
 20
96.22364488821403
 10
6.129063638087473
 20
96.22364488821403
 10
6.12906363809111
 20
90.42329281876664
 10
8.129063638094748
 20
90.42329281876664
 97
        0
 75
     0
 76
     1
 47
0.0846398039763049
 98
        3
 10
7.422761593050609
 20
135.5579248535796
 10
7.592147308700305
 20
118.8838714480225
 10
7.338127427450899
 20
95.6924747845187
  0
LINE
  5
2EC2
330
1F
100
AcDbEntity
  8
CETRIS
100
AcDbLine
 10
10.17890316878788
 20
77.96058212361367
 30
0.0
 11
10.17890316878788
 21
89.96058212361459
 31
0.0
  0
LINE
  5
2EC3
330
1F
100
AcDbEntity
  8
CETRIS
100
AcDbLine
 10
10.17890316878788
 20
141.1928364083632
 30
0.0
 11
10.17890316879152
 21
153.1928364083642
 31
0.0
  0
LINE
  5
2EC4
330
1F
100
AcDbEntity
  8
SPOJOVACÍ
  6
Continuous
100
AcDbLine
 10
38.60746313945515
 20
100.8624403915709
 30
0.0
 11
42.65186749904773
 21
102.2223574051131
 31
0.0
  0
LINE
  5
2EC5
330
1F
100
AcDbEntity
  8
SPOJOVACÍ
  6
Continuous
100
AcDbLine
 10
38.60746313945515
 20
101.4586830767257
 30
0.0
 11
42.65186749904773
 21
102.8186000902678
 31
0.0
  0
LINE
  5
2EC6
330
1F
100
AcDbEntity
  8
SPOJOVACÍ
  6
Continuous
100
AcDbLine
 10
43.02951886999312
 20
102.4409487171396
 30
0.0
 11
42.65186749904773
 21
102.2223574051131
 31
0.0
  0
LINE
  5
2EC7
330
1F
100
AcDbEntity
  8
SPOJOVACÍ
  6
Continuous
100
AcDbLine
 10
43.02951886999312
 20
102.4409487171396
 30
0.0
 11
42.65186749904773
 21
102.8186000902678
 31
0.0
  0
LINE
  5
2EC8
330
1F
100
AcDbEntity
  8
SPOJOVACÍ
  6
Continuous
100
AcDbLine
 10
38.22981176414419
 20
101.2410219406774
 30
0.0
 11
38.60746313945515
 21
100.8624403915709
 31
0.0
  0
LINE
  5
2EC9
330
1F
100
AcDbEntity
  8
SPOJOVACÍ
  6
Continuous
100
AcDbLine
 10
38.22981176414419
 20
101.2410219406774
 30
0.0
 11
38.60746313945515
 21
101.4586830767257
 31
0.0
  0
LINE
  5
2ECA
330
1F
100
AcDbEntity
  8
SPOJOVACÍ
  6
Continuous
100
AcDbLine
 10
38.22981176414419
 20
101.2410219406774
 30
0.0
 11
43.02951886999312
 21
102.4409487171396
 31
0.0
  0
LINE
  5
2ECB
330
1F
100
AcDbEntity
  8
SPOJOVACÍ
  6
Continuous
100
AcDbLine
 10
38.60746313945515
 20
97.74263077260911
 30
0.0
 11
42.65186749904773
 21
99.10254778615126
 31
0.0
  0
LINE
  5
2ECC
330
1F
100
AcDbEntity
  8
SPOJOVACÍ
  6
Continuous
100
AcDbLine
 10
38.60746313945515
 20
98.33887345775657
 30
0.0
 11
42.65186749904773
 21
99.69879047102949
 31
0.0
  0
LINE
  5
2ECD
330
1F
100
AcDbEntity
  8
SPOJOVACÍ
  6
Continuous
100
AcDbLine
 10
43.02951886999312
 20
99.32020892219952
 30
0.0
 11
42.65186749904773
 21
99.10254778615126
 31
0.0
  0
LINE
  5
2ECE
330
1F
100
AcDbEntity
  8
SPOJOVACÍ
  6
Continuous
100
AcDbLine
 10
43.02951886999312
 20
99.32020892219952
 30
0.0
 11
42.65186749904773
 21
99.69879047102949
 31
0.0
  0
LINE
  5
2ECF
330
1F
100
AcDbEntity
  8
SPOJOVACÍ
  6
Continuous
100
AcDbLine
 10
38.22981176414419
 20
98.12028214573729
 30
0.0
 11
38.60746313945515
 21
97.74263077260911
 31
0.0
  0
LINE
  5
2ED0
330
1F
100
AcDbEntity
  8
SPOJOVACÍ
  6
Continuous
100
AcDbLine
 10
38.22981176414419
 20
98.12028214573729
 30
0.0
 11
38.60746313945515
 21
98.33887345775657
 31
0.0
  0
LINE
  5
2ED1
330
1F
100
AcDbEntity
  8
SPOJOVACÍ
  6
Continuous
100
AcDbLine
 10
38.22981176414419
 20
98.12028214573729
 30
0.0
 11
43.02951886999312
 21
99.32020892219952
 31
0.0
  0
LINE
  5
2ED2
330
1F
100
AcDbEntity
  8
SPOJOVACÍ
  6
Continuous
100
AcDbLine
 10
38.60746313945515
 20
94.62282115363995
 30
0.0
 11
42.65186749904773
 21
95.98273816691289
 31
0.0
  0
LINE
  5
2ED3
330
1F
100
AcDbEntity
  8
SPOJOVACÍ
  6
Continuous
100
AcDbLine
 10
38.60746313945515
 20
95.21906383879468
 30
0.0
 11
42.65186749904773
 21
96.57898085206035
 31
0.0
  0
LINE
  5
2ED4
330
1F
100
AcDbEntity
  8
SPOJOVACÍ
  6
Continuous
100
AcDbLine
 10
43.02951886999312
 20
96.20039930323038
 30
0.0
 11
42.65186749904773
 21
95.98273816691289
 31
0.0
  0
LINE
  5
2ED5
330
1F
100
AcDbEntity
  8
SPOJOVACÍ
  6
Continuous
100
AcDbLine
 10
43.02951886999312
 20
96.20039930323038
 30
0.0
 11
42.65186749904773
 21
96.57898085206035
 31
0.0
  0
LINE
  5
2ED6
330
1F
100
AcDbEntity
  8
SPOJOVACÍ
  6
Continuous
100
AcDbLine
 10
38.22981176414419
 20
95.00047252676813
 30
0.0
 11
38.60746313945515
 21
94.62282115363995
 31
0.0
  0
LINE
  5
2ED7
330
1F
100
AcDbEntity
  8
SPOJOVACÍ
  6
Continuous
100
AcDbLine
 10
38.22981176414419
 20
95.00047252676813
 30
0.0
 11
38.60746313945515
 21
95.21906383879468
 31
0.0
  0
LINE
  5
2ED8
330
1F
100
AcDbEntity
  8
SPOJOVACÍ
  6
Continuous
100
AcDbLine
 10
38.22981176414419
 20
95.00047252676813
 30
0.0
 11
43.02951886999312
 21
96.20039930323038
 31
0.0
  0
LINE
  5
2ED9
330
1F
100
AcDbEntity
  8
SPOJOVACÍ
  6
Continuous
100
AcDbLine
 10
39.61298317514252
 20
110.3465128056086
 30
0.0
 11
41.76727031659924
 21
110.6571915213826
 31
0.0
  0
LINE
  5
2EDA
330
1F
100
AcDbEntity
  8
SPOJOVACÍ
  6
Continuous
100
AcDbLine
 10
39.9906345460879
 20
109.9688614324804
 30
0.0
 11
41.38961894565386
 21
110.4395303850651
 31
0.0
  0
LINE
  5
2EDB
330
1F
100
AcDbEntity
  8
SPOJOVACÍ
  6
Continuous
100
AcDbLine
 10
39.9906345460879
 20
110.5651041176279
 30
0.0
 11
41.38961894565386
 21
111.0357730702125
 31
0.0
  0
LINE
  5
2EDC
330
1F
100
AcDbEntity
  8
SPOJOVACÍ
  6
Continuous
100
AcDbLine
 10
41.76727031659924
 20
110.6571915213826
 30
0.0
 11
41.38961894565386
 21
110.4395303850651
 31
0.0
  0
LINE
  5
2EDD
330
1F
100
AcDbEntity
  8
SPOJOVACÍ
  6
Continuous
100
AcDbLine
 10
41.76727031659924
 20
110.6571915213826
 30
0.0
 11
41.38961894565386
 21
111.0357730702125
 31
0.0
  0
LINE
  5
2EDE
330
1F
100
AcDbEntity
  8
SPOJOVACÍ
  6
Continuous
100
AcDbLine
 10
39.61298317514252
 20
110.3465128056086
 30
0.0
 11
39.9906345460879
 21
109.9688614324804
 31
0.0
  0
LINE
  5
2EDF
330
1F
100
AcDbEntity
  8
SPOJOVACÍ
  6
Continuous
100
AcDbLine
 10
39.61298317514252
 20
110.3465128056086
 30
0.0
 11
39.9906345460879
 21
110.5651041176279
 31
0.0
  0
LINE
  5
2EE0
330
1F
100
AcDbEntity
  8
SPOJOVACÍ
  6
Continuous
100
AcDbLine
 10
39.04836646467106
 20
107.332743227289
 30
0.0
 11
42.16445538110224
 21
107.966192944059
 31
0.0
  0
LINE
  5
2EE1
330
1F
100
AcDbEntity
  8
SPOJOVACÍ
  6
Continuous
100
AcDbLine
 10
39.42601783998202
 20
106.9541616781825
 30
0.0
 11
41.78680401015685
 21
107.7485318080107
 31
0.0
  0
LINE
  5
2EE2
330
1F
100
AcDbEntity
  8
SPOJOVACÍ
  6
Continuous
100
AcDbLine
 10
39.42601783998202
 20
107.5504043633372
 30
0.0
 11
41.78680401015685
 21
108.3447744928889
 31
0.0
  0
LINE
  5
2EE3
330
1F
100
AcDbEntity
  8
SPOJOVACÍ
  6
Continuous
100
AcDbLine
 10
42.16445538110224
 20
107.966192944059
 30
0.0
 11
41.78680401015685
 21
107.7485318080107
 31
0.0
  0
LINE
  5
2EE4
330
1F
100
AcDbEntity
  8
SPOJOVACÍ
  6
Continuous
100
AcDbLine
 10
42.16445538110224
 20
107.966192944059
 30
0.0
 11
41.78680401015685
 21
108.3447744928889
 31
0.0
  0
LINE
  5
2EE5
330
1F
100
AcDbEntity
  8
SPOJOVACÍ
  6
Continuous
100
AcDbLine
 10
39.04836646467106
 20
107.332743227289
 30
0.0
 11
39.42601783998202
 21
106.9541616781825
 31
0.0
  0
LINE
  5
2EE6
330
1F
100
AcDbEntity
  8
SPOJOVACÍ
  6
Continuous
100
AcDbLine
 10
39.04836646467106
 20
107.332743227289
 30
0.0
 11
39.42601783998202
 21
107.5504043633372
 31
0.0
  0
LINE
  5
2EE7
330
1F
100
AcDbEntity
  8
SPOJOVACÍ
  6
Continuous
100
AcDbLine
 10
38.48374975856518
 20
104.3180434729911
 30
0.0
 11
42.60907941130812
 21
105.2910073552957
 31
0.0
  0
LINE
  5
2EE8
330
1F
100
AcDbEntity
  8
SPOJOVACÍ
  6
Continuous
100
AcDbLine
 10
38.86233130684945
 20
103.9403920998629
 30
0.0
 11
42.23142804036274
 21
105.0733462192474
 31
0.0
  0
LINE
  5
2EE9
330
1F
100
AcDbEntity
  8
SPOJOVACÍ
  6
Continuous
100
AcDbLine
 10
38.86233130684945
 20
104.5366347850176
 30
0.0
 11
42.23142804036274
 21
105.6695889044021
 31
0.0
  0
LINE
  5
2EEA
330
1F
100
AcDbEntity
  8
SPOJOVACÍ
  6
Continuous
100
AcDbLine
 10
42.60907941130812
 20
105.2910073552957
 30
0.0
 11
42.23142804036274
 21
105.0733462192474
 31
0.0
  0
LINE
  5
2EEB
330
1F
100
AcDbEntity
  8
SPOJOVACÍ
  6
Continuous
100
AcDbLine
 10
42.60907941130812
 20
105.2910073552957
 30
0.0
 11
42.23142804036274
 21
105.6695889044021
 31
0.0
  0
LINE
  5
2EEC
330
1F
100
AcDbEntity
  8
SPOJOVACÍ
  6
Continuous
100
AcDbLine
 10
38.48374975856518
 20
104.3180434729911
 30
0.0
 11
38.86233130684945
 21
103.9403920998629
 31
0.0
  0
LINE
  5
2EED
330
1F
100
AcDbEntity
  8
SPOJOVACÍ
  6
Continuous
100
AcDbLine
 10
38.48374975856518
 20
104.3180434729911
 30
0.0
 11
38.86233130684945
 21
104.5366347850176
 31
0.0
  0
LINE
  5
2EEE
330
1F
100
AcDbEntity
  8
SPOJOVACÍ
  6
Continuous
100
AcDbLine
 10
38.60746313945515
 20
91.50301153440159
 30
0.0
 11
42.65186749904773
 21
92.86199837224193
 31
0.0
  0
LINE
  5
2EEF
330
1F
100
AcDbEntity
  8
SPOJOVACÍ
  6
Continuous
100
AcDbLine
 10
38.60746313945515
 20
92.09925421955631
 30
0.0
 11
42.65186749904773
 21
93.45824105712017
 31
0.0
  0
LINE
  5
2EF0
330
1F
100
AcDbEntity
  8
SPOJOVACÍ
  6
Continuous
100
AcDbLine
 10
43.02951886999312
 20
93.08058968426848
 30
0.0
 11
42.65186749904773
 21
92.86199837224193
 31
0.0
  0
LINE
  5
2EF1
330
1F
100
AcDbEntity
  8
SPOJOVACÍ
  6
Continuous
100
AcDbLine
 10
43.02951886999312
 20
93.08058968426848
 30
0.0
 11
42.65186749904773
 21
93.45824105712017
 31
0.0
  0
LINE
  5
2EF2
330
1F
100
AcDbEntity
  8
SPOJOVACÍ
  6
Continuous
100
AcDbLine
 10
38.22981176414419
 20
91.88066290752976
 30
0.0
 11
38.60746313945515
 21
91.50301153440159
 31
0.0
  0
LINE
  5
2EF3
330
1F
100
AcDbEntity
  8
SPOJOVACÍ
  6
Continuous
100
AcDbLine
 10
38.22981176414419
 20
91.88066290752976
 30
0.0
 11
38.60746313945515
 21
92.09925421955631
 31
0.0
  0
LINE
  5
2EF4
330
1F
100
AcDbEntity
  8
SPOJOVACÍ
  6
Continuous
100
AcDbLine
 10
38.22981176414419
 20
91.88066290752976
 30
0.0
 11
43.02951886999312
 21
93.08058968426848
 31
0.0
  0
LINE
  5
2EF5
330
1F
100
AcDbEntity
  8
SPOJOVACÍ
  6
Continuous
100
AcDbLine
 10
38.60746313945515
 20
88.38227173973791
 30
0.0
 11
42.65186749904773
 21
89.74218875300357
 31
0.0
  0
LINE
  5
2EF6
330
1F
100
AcDbEntity
  8
SPOJOVACÍ
  6
Continuous
100
AcDbLine
 10
38.60746313945515
 20
88.97851442461615
 30
0.0
 11
42.65186749904773
 21
90.33843143815829
 31
0.0
  0
LINE
  5
2EF7
330
1F
100
AcDbEntity
  8
SPOJOVACÍ
  6
Continuous
100
AcDbLine
 10
43.02951886999312
 20
89.96078006503012
 30
0.0
 11
42.65186749904773
 21
89.74218875300357
 31
0.0
  0
LINE
  5
2EF8
330
1F
100
AcDbEntity
  8
SPOJOVACÍ
  6
Continuous
100
AcDbLine
 10
43.02951886999312
 20
89.96078006503012
 30
0.0
 11
42.65186749904773
 21
90.33843143815829
 31
0.0
  0
LINE
  5
2EF9
330
1F
100
AcDbEntity
  8
SPOJOVACÍ
  6
Continuous
100
AcDbLine
 10
38.22981176414419
 20
88.76085328856788
 30
0.0
 11
38.60746313945515
 21
88.38227173973791
 31
0.0
  0
LINE
  5
2EFA
330
1F
100
AcDbEntity
  8
SPOJOVACÍ
  6
Continuous
100
AcDbLine
 10
38.22981176414419
 20
88.76085328856788
 30
0.0
 11
38.60746313945515
 21
88.97851442461615
 31
0.0
  0
LINE
  5
2EFB
330
1F
100
AcDbEntity
  8
SPOJOVACÍ
  6
Continuous
100
AcDbLine
 10
38.22981176414419
 20
88.76085328856788
 30
0.0
 11
43.02951886999312
 21
89.96078006503012
 31
0.0
  0
LINE
  5
2EFC
330
1F
100
AcDbEntity
  8
SPOJOVACÍ
  6
Continuous
100
AcDbLine
 10
41.73378398915178
 20
104.8966128178981
 30
0.0
 11
41.97935040061952
 21
102.9255703066119
 31
0.0
  0
LINE
  5
2EFD
330
1F
100
AcDbEntity
  8
SPOJOVACÍ
  6
Continuous
100
AcDbLine
 10
41.39519999659046
 20
107.6034243837966
 30
0.0
 11
41.662160451928
 21
105.4668105809432
 31
0.0
  0
LINE
  5
2EFE
330
1F
100
AcDbEntity
  8
SPOJOVACÍ
  6
Continuous
100
AcDbLine
 10
41.05568583542139
 20
110.3204678832298
 30
0.0
 11
41.32357646373225
 21
108.1754824982454
 31
0.0
  0
LINE
  5
2EFF
330
1F
100
AcDbEntity
  8
SPOJOVACÍ
  6
Continuous
100
AcDbLine
 10
40.24364236317
 20
110.6367276537603
 30
0.0
 11
40.62966531706865
 21
113.7258414715652
 31
0.0
  0
LINE
  5
2F00
330
1F
100
AcDbEntity
  8
SPOJOVACÍ
  6
Continuous
100
AcDbLine
 10
39.87622292549008
 20
107.6955117875513
 30
0.0
 11
40.16643777064405
 21
110.0163003979068
 31
0.0
  0
LINE
  5
2F01
330
1F
100
AcDbEntity
  8
SPOJOVACÍ
  6
Continuous
100
AcDbLine
 10
39.50694313313238
 20
104.7431338118221
 30
0.0
 11
39.79715798265192
 21
107.0648525978867
 31
0.0
  0
LINE
  5
2F02
330
1F
100
AcDbEntity
  8
SPOJOVACÍ
  6
Continuous
100
AcDbLine
 10
40.62966531706865
 20
113.7258414715652
 30
0.0
 11
40.98406229819761
 21
110.8897354702967
 31
0.0
  0
LINE
  5
2F03
330
1F
100
AcDbEntity
  8
SPOJOVACÍ
  6
Continuous
100
AcDbLine
 10
39.27998023788336
 20
102.9255703066119
 30
0.0
 11
39.42973854060642
 21
104.1227065559687
 31
0.0
  0
LINE
  5
2F04
330
1F
100
AcDbEntity
  8
SPOJOVACÍ
  6
Continuous
100
AcDbLine
 10
41.97935040061952
 20
102.5888466687283
 30
0.0
 11
41.97935040061952
 21
102.9255703066119
 31
0.0
  0
LINE
  5
2F05
330
1F
100
AcDbEntity
  8
SPOJOVACÍ
  6
Continuous
100
AcDbLine
 10
41.97935040061952
 20
99.46624652211539
 30
0.0
 11
41.97935040061952
 21
101.9851625771443
 31
0.0
  0
LINE
  5
2F06
330
1F
100
AcDbEntity
  8
SPOJOVACÍ
  6
Continuous
100
AcDbLine
 10
39.27998023788336
 20
101.6782045647232
 30
0.0
 11
39.27998023788336
 21
102.9255703066119
 31
0.0
  0
LINE
  5
2F07
330
1F
100
AcDbEntity
  8
SPOJOVACÍ
  6
Continuous
100
AcDbLine
 10
39.27998023788336
 20
98.56397600024138
 30
0.0
 11
39.27998023788336
 21
101.0819618795685
 31
0.0
  0
LINE
  5
2F08
330
1F
100
AcDbEntity
  8
SPOJOVACÍ
  6
Continuous
100
AcDbLine
 10
41.97935040061952
 20
96.34457655147343
 30
0.0
 11
41.97935040061952
 21
98.86535295818248
 31
0.0
  0
LINE
  5
2F09
330
1F
100
AcDbEntity
  8
SPOJOVACÍ
  6
Continuous
100
AcDbLine
 10
41.97935040061952
 20
93.22197640512968
 30
0.0
 11
41.97935040061952
 21
95.75019421799879
 31
0.0
  0
LINE
  5
2F0A
330
1F
100
AcDbEntity
  8
SPOJOVACÍ
  6
Continuous
100
AcDbLine
 10
41.97935040061952
 20
90.10681766494599
 30
0.0
 11
41.97935040061952
 21
92.62573371997495
 31
0.0
  0
LINE
  5
2F0B
330
1F
100
AcDbEntity
  8
SPOJOVACÍ
  6
Continuous
100
AcDbLine
 10
39.27998023788336
 20
95.43114392008646
 30
0.0
 11
39.27998023788336
 21
97.95936173295558
 31
0.0
  0
LINE
  5
2F0C
330
1F
100
AcDbEntity
  8
SPOJOVACÍ
  6
Continuous
100
AcDbLine
 10
39.27998023788336
 20
92.31598517990278
 30
0.0
 11
39.27998023788336
 21
94.83676158661182
 31
0.0
  0
LINE
  5
2F0D
330
1F
100
AcDbEntity
  8
SPOJOVACÍ
  6
Continuous
100
AcDbLine
 10
39.27998023788336
 20
89.19338503355902
 30
0.0
 11
39.27998023788336
 21
91.71230108858798
 31
0.0
  0
LINE
  5
2F0E
330
1F
100
AcDbEntity
  8
SPOJOVACÍ
  6
Continuous
100
AcDbLine
 10
39.27998023788336
 20
84.56017939470257
 30
0.0
 11
39.27998023788336
 21
88.59807252438258
 31
0.0
  0
LINE
  5
2F0F
330
1F
100
AcDbEntity
  8
SPOJOVACÍ
  6
Continuous
100
AcDbLine
 10
41.97935040061952
 20
84.56017939470257
 30
0.0
 11
41.97935040061952
 21
89.50313357363119
 31
0.0
  0
LINE
  5
2F10
330
1F
100
AcDbEntity
  8
SPOJOVACÍ
  6
Continuous
100
AcDbLine
 10
35.52951142843471
 20
79.16050890034603
 30
0.0
 11
36.87919651198558
 21
79.90464953682021
 31
0.0
  0
LINE
  5
2F11
330
1F
100
AcDbEntity
  8
SPOJOVACÍ
  6
Continuous
100
AcDbLine
 10
36.87919651198558
 20
79.90464953682021
 30
0.0
 11
37.9898264123442
 21
80.97342152623241
 31
0.0
  0
LINE
  5
2F12
330
1F
100
AcDbEntity
  8
SPOJOVACÍ
  6
Continuous
100
AcDbLine
 10
37.9898264123442
 20
80.97342152623241
 30
0.0
 11
38.78605689166238
 21
82.29241080452993
 31
0.0
  0
LINE
  5
2F13
330
1F
100
AcDbEntity
  8
SPOJOVACÍ
  6
Continuous
100
AcDbLine
 10
38.78605689166238
 20
82.29241080452993
 30
0.0
 11
39.21393775596175
 21
83.77325067158016
 31
0.0
  0
LINE
  5
2F14
330
1F
100
AcDbEntity
  8
SPOJOVACÍ
  6
Continuous
100
AcDbLine
 10
39.21393775596175
 20
83.77325067158016
 30
0.0
 11
39.27998023788336
 21
84.56017939470257
 31
0.0
  0
LINE
  5
2F15
330
1F
100
AcDbEntity
  8
SPOJOVACÍ
  6
Continuous
100
AcDbLine
 10
43.77738021063509
 20
80.41531604867122
 30
0.0
 11
45.01451401953477
 21
79.49723253822958
 31
0.0
  0
LINE
  5
2F16
330
1F
100
AcDbEntity
  8
SPOJOVACÍ
  6
Continuous
100
AcDbLine
 10
45.01451401953477
 20
79.49723253822958
 30
0.0
 11
45.72981920570259
 21
79.16050890034603
 31
0.0
  0
LINE
  5
2F17
330
1F
100
AcDbEntity
  8
SPOJOVACÍ
  6
Continuous
100
AcDbLine
 10
35.52951142843471
 20
79.16050890034603
 30
0.0
 11
45.72981920570259
 21
79.16050890034603
 31
0.0
  0
LINE
  5
2F18
330
1F
100
AcDbEntity
  8
SPOJOVACÍ
  6
Continuous
100
AcDbLine
 10
35.52951142843471
 20
77.96058212361458
 30
0.0
 11
35.52951142843471
 21
79.16050890034603
 31
0.0
  0
LINE
  5
2F19
330
1F
100
AcDbEntity
  8
SPOJOVACÍ
  6
Continuous
100
AcDbLine
 10
35.52951142843471
 20
77.96058212361458
 30
0.0
 11
45.72981920570259
 21
77.96058212361458
 31
0.0
  0
LINE
  5
2F1A
330
1F
100
AcDbEntity
  8
SPOJOVACÍ
  6
Continuous
100
AcDbLine
 10
45.72981920570259
 20
77.96058212361458
 30
0.0
 11
45.72981920570259
 21
79.16050890034603
 31
0.0
  0
LINE
  5
2F1B
330
1F
100
AcDbEntity
  8
SPOJOVACÍ
  6
Continuous
100
AcDbLine
 10
41.97935040061952
 20
84.56017939470257
 30
0.0
 11
42.20631329150296
 21
83.03655144127333
 31
0.0
  0
LINE
  5
2F1C
330
1F
100
AcDbEntity
  8
SPOJOVACÍ
  6
Continuous
100
AcDbLine
 10
42.20631329150296
 20
83.03655144127333
 30
0.0
 11
42.81929914065062
 21
81.62268423157001
 31
0.0
  0
LINE
  5
2F1D
330
1F
100
AcDbEntity
  8
SPOJOVACÍ
  6
Continuous
100
AcDbLine
 10
42.81929914065062
 20
81.62268423157001
 30
0.0
 11
43.77738021063509
 21
80.41531604867122
 31
0.0
  0
LINE
  5
2F1E
330
1F
100
AcDbEntity
  8
SPOJOVACÍ
  6
Continuous
100
AcDbLine
 10
42.81929914065062
 20
149.5307343004078
 30
0.0
 11
43.77738021063509
 21
150.7381024833066
 31
0.0
  0
LINE
  5
2F1F
330
1F
100
AcDbEntity
  8
SPOJOVACÍ
  6
Continuous
100
AcDbLine
 10
42.20631329150296
 20
148.1168670907045
 30
0.0
 11
42.81929914065062
 21
149.5307343004078
 31
0.0
  0
LINE
  5
2F20
330
1F
100
AcDbEntity
  8
SPOJOVACÍ
  6
Continuous
100
AcDbLine
 10
41.97935040061952
 20
146.5932391372753
 30
0.0
 11
42.20631329150296
 21
148.1168670907045
 31
0.0
  0
LINE
  5
2F21
330
1F
100
AcDbEntity
  8
SPOJOVACÍ
  6
Continuous
100
AcDbLine
 10
45.72981920570259
 20
153.1928364083633
 30
0.0
 11
45.72981920570259
 21
151.9929096316318
 31
0.0
  0
LINE
  5
2F22
330
1F
100
AcDbEntity
  8
SPOJOVACÍ
  6
Continuous
100
AcDbLine
 10
35.52951142843471
 20
153.1928364083633
 30
0.0
 11
45.72981920570259
 21
153.1928364083633
 31
0.0
  0
LINE
  5
2F23
330
1F
100
AcDbEntity
  8
SPOJOVACÍ
  6
Continuous
100
AcDbLine
 10
35.52951142843471
 20
153.1928364083633
 30
0.0
 11
35.52951142843471
 21
151.9929096316318
 31
0.0
  0
LINE
  5
2F24
330
1F
100
AcDbEntity
  8
SPOJOVACÍ
  6
Continuous
100
AcDbLine
 10
35.52951142843471
 20
151.9929096316318
 30
0.0
 11
45.72981920570259
 21
151.9929096316318
 31
0.0
  0
LINE
  5
2F25
330
1F
100
AcDbEntity
  8
SPOJOVACÍ
  6
Continuous
100
AcDbLine
 10
45.01451401953477
 20
151.6561859937483
 30
0.0
 11
45.72981920570259
 21
151.9929096316318
 31
0.0
  0
LINE
  5
2F26
330
1F
100
AcDbEntity
  8
SPOJOVACÍ
  6
Continuous
100
AcDbLine
 10
43.77738021063509
 20
150.7381024833066
 30
0.0
 11
45.01451401953477
 21
151.6561859937483
 31
0.0
  0
LINE
  5
2F27
330
1F
100
AcDbEntity
  8
SPOJOVACÍ
  6
Continuous
100
AcDbLine
 10
39.21393775596175
 20
147.3801678603977
 30
0.0
 11
39.27998023788336
 21
146.5932391372753
 31
0.0
  0
LINE
  5
2F28
330
1F
100
AcDbEntity
  8
SPOJOVACÍ
  6
Continuous
100
AcDbLine
 10
38.78605689166238
 20
148.8610077274479
 30
0.0
 11
39.21393775596175
 21
147.3801678603977
 31
0.0
  0
LINE
  5
2F29
330
1F
100
AcDbEntity
  8
SPOJOVACÍ
  6
Continuous
100
AcDbLine
 10
37.9898264123442
 20
150.1799970057454
 30
0.0
 11
38.78605689166238
 21
148.8610077274479
 31
0.0
  0
LINE
  5
2F2A
330
1F
100
AcDbEntity
  8
SPOJOVACÍ
  6
Continuous
100
AcDbLine
 10
36.87919651198558
 20
151.2487689951576
 30
0.0
 11
37.9898264123442
 21
150.1799970057454
 31
0.0
  0
LINE
  5
2F2B
330
1F
100
AcDbEntity
  8
SPOJOVACÍ
  6
Continuous
100
AcDbLine
 10
35.52951142843471
 20
151.9929096316318
 30
0.0
 11
36.87919651198558
 21
151.2487689951576
 31
0.0
  0
LINE
  5
2F2C
330
1F
100
AcDbEntity
  8
SPOJOVACÍ
  6
Continuous
100
AcDbLine
 10
41.97935040061952
 20
146.5932391372753
 30
0.0
 11
41.97935040061952
 21
141.6502849583466
 31
0.0
  0
LINE
  5
2F2D
330
1F
100
AcDbEntity
  8
SPOJOVACÍ
  6
Continuous
100
AcDbLine
 10
39.27998023788336
 20
146.5932391372753
 30
0.0
 11
39.27998023788336
 21
142.5553460075953
 31
0.0
  0
LINE
  5
2F2E
330
1F
100
AcDbEntity
  8
SPOJOVACÍ
  6
Continuous
100
AcDbLine
 10
39.27998023788336
 20
141.9600334984188
 30
0.0
 11
39.27998023788336
 21
139.4411174433898
 31
0.0
  0
LINE
  5
2F2F
330
1F
100
AcDbEntity
  8
SPOJOVACÍ
  6
Continuous
100
AcDbLine
 10
39.27998023788336
 20
138.8374333520751
 30
0.0
 11
39.27998023788336
 21
136.316656945366
 31
0.0
  0
LINE
  5
2F30
330
1F
100
AcDbEntity
  8
SPOJOVACÍ
  6
Continuous
100
AcDbLine
 10
39.27998023788336
 20
135.7222746118914
 30
0.0
 11
39.27998023788336
 21
133.1940567990222
 31
0.0
  0
LINE
  5
2F31
330
1F
100
AcDbEntity
  8
SPOJOVACÍ
  6
Continuous
100
AcDbLine
 10
41.97935040061952
 20
141.0466008670318
 30
0.0
 11
41.97935040061952
 21
138.5276848120029
 31
0.0
  0
LINE
  5
2F32
330
1F
100
AcDbEntity
  8
SPOJOVACÍ
  6
Continuous
100
AcDbLine
 10
41.97935040061952
 20
137.9314421268482
 30
0.0
 11
41.97935040061952
 21
135.403224313979
 31
0.0
  0
LINE
  5
2F33
330
1F
100
AcDbEntity
  8
SPOJOVACÍ
  6
Continuous
100
AcDbLine
 10
41.97935040061952
 20
134.8088419805044
 30
0.0
 11
41.97935040061952
 21
132.2880655737953
 31
0.0
  0
LINE
  5
2F34
330
1F
100
AcDbEntity
  8
SPOJOVACÍ
  6
Continuous
100
AcDbLine
 10
39.27998023788336
 20
132.5894425317365
 30
0.0
 11
39.27998023788336
 21
130.0714566524093
 31
0.0
  0
LINE
  5
2F35
330
1F
100
AcDbEntity
  8
SPOJOVACÍ
  6
Continuous
100
AcDbLine
 10
39.27998023788336
 20
129.4752139672546
 30
0.0
 11
39.27998023788336
 21
128.2278482253659
 31
0.0
  0
LINE
  5
2F36
330
1F
100
AcDbEntity
  8
SPOJOVACÍ
  6
Continuous
100
AcDbLine
 10
41.97935040061952
 20
131.6871720098624
 30
0.0
 11
41.97935040061952
 21
129.1682559548335
 31
0.0
  0
LINE
  5
2F37
330
1F
100
AcDbEntity
  8
SPOJOVACÍ
  6
Continuous
100
AcDbLine
 10
41.97935040061952
 20
128.5645718632495
 30
0.0
 11
41.97935040061952
 21
128.2278482253659
 31
0.0
  0
LINE
  5
2F38
330
1F
100
AcDbEntity
  8
SPOJOVACÍ
  6
Continuous
100
AcDbLine
 10
39.27998023788336
 20
128.2278482253659
 30
0.0
 11
39.42973854060642
 21
127.0307119760091
 31
0.0
  0
LINE
  5
2F39
330
1F
100
AcDbEntity
  8
SPOJOVACÍ
  6
Continuous
100
AcDbLine
 10
40.62966531706865
 20
117.4275770604126
 30
0.0
 11
40.98406229819761
 21
120.2636830616811
 31
0.0
  0
LINE
  5
2F3A
330
1F
100
AcDbEntity
  8
SPOJOVACÍ
  6
Continuous
100
AcDbLine
 10
39.50694313313238
 20
126.4102847201556
 30
0.0
 11
39.79715798265192
 21
124.088565934091
 31
0.0
  0
LINE
  5
2F3B
330
1F
100
AcDbEntity
  8
SPOJOVACÍ
  6
Continuous
100
AcDbLine
 10
39.87622292549008
 20
123.4579067444265
 30
0.0
 11
40.16643777064405
 21
121.1371181340709
 31
0.0
  0
LINE
  5
2F3C
330
1F
100
AcDbEntity
  8
SPOJOVACÍ
  6
Continuous
100
AcDbLine
 10
40.24364236317
 20
120.5166908782175
 30
0.0
 11
40.62966531706865
 21
117.4275770604126
 31
0.0
  0
LINE
  5
2F3D
330
1F
100
AcDbEntity
  8
SPOJOVACÍ
  6
Continuous
100
AcDbLine
 10
41.05568583542139
 20
120.832950648748
 30
0.0
 11
41.32357646373225
 21
122.9779360337324
 31
0.0
  0
LINE
  5
2F3E
330
1F
100
AcDbEntity
  8
SPOJOVACÍ
  6
Continuous
100
AcDbLine
 10
41.39519999659046
 20
123.5499941481812
 30
0.0
 11
41.662160451928
 21
125.6866079510346
 31
0.0
  0
LINE
  5
2F3F
330
1F
100
AcDbEntity
  8
SPOJOVACÍ
  6
Continuous
100
AcDbLine
 10
41.73378398915178
 20
126.2568057140797
 30
0.0
 11
41.97935040061952
 21
128.2278482253659
 31
0.0
  0
LINE
  5
2F40
330
1F
100
AcDbEntity
  8
SPOJOVACÍ
  6
Continuous
100
AcDbLine
 10
38.22981176414419
 20
142.39256524341
 30
0.0
 11
43.02951886999312
 21
141.1926384669477
 31
0.0
  0
LINE
  5
2F41
330
1F
100
AcDbEntity
  8
SPOJOVACÍ
  6
Continuous
100
AcDbLine
 10
38.22981176414419
 20
142.39256524341
 30
0.0
 11
38.60746313945515
 21
142.1749041073617
 31
0.0
  0
LINE
  5
2F42
330
1F
100
AcDbEntity
  8
SPOJOVACÍ
  6
Continuous
100
AcDbLine
 10
38.22981176414419
 20
142.39256524341
 30
0.0
 11
38.60746313945515
 21
142.7711467922399
 31
0.0
  0
LINE
  5
2F43
330
1F
100
AcDbEntity
  8
SPOJOVACÍ
  6
Continuous
100
AcDbLine
 10
43.02951886999312
 20
141.1926384669477
 30
0.0
 11
42.65186749904773
 21
140.8149870938195
 31
0.0
  0
LINE
  5
2F44
330
1F
100
AcDbEntity
  8
SPOJOVACÍ
  6
Continuous
100
AcDbLine
 10
43.02951886999312
 20
141.1926384669477
 30
0.0
 11
42.65186749904773
 21
141.4112297789743
 31
0.0
  0
LINE
  5
2F45
330
1F
100
AcDbEntity
  8
SPOJOVACÍ
  6
Continuous
100
AcDbLine
 10
38.60746313945515
 20
142.1749041073617
 30
0.0
 11
42.65186749904773
 21
140.8149870938195
 31
0.0
  0
LINE
  5
2F46
330
1F
100
AcDbEntity
  8
SPOJOVACÍ
  6
Continuous
100
AcDbLine
 10
38.60746313945515
 20
142.7711467922399
 30
0.0
 11
42.65186749904773
 21
141.4112297789743
 31
0.0
  0
LINE
  5
2F47
330
1F
100
AcDbEntity
  8
SPOJOVACÍ
  6
Continuous
100
AcDbLine
 10
38.22981176414419
 20
139.2727556244481
 30
0.0
 11
43.02951886999312
 21
138.0728288477093
 31
0.0
  0
LINE
  5
2F48
330
1F
100
AcDbEntity
  8
SPOJOVACÍ
  6
Continuous
100
AcDbLine
 10
38.22981176414419
 20
139.2727556244481
 30
0.0
 11
38.60746313945515
 21
139.0541643124215
 31
0.0
  0
LINE
  5
2F49
330
1F
100
AcDbEntity
  8
SPOJOVACÍ
  6
Continuous
100
AcDbLine
 10
38.22981176414419
 20
139.2727556244481
 30
0.0
 11
38.60746313945515
 21
139.6504069975762
 31
0.0
  0
LINE
  5
2F4A
330
1F
100
AcDbEntity
  8
SPOJOVACÍ
  6
Continuous
100
AcDbLine
 10
43.02951886999312
 20
138.0728288477093
 30
0.0
 11
42.65186749904773
 21
137.6951774748577
 31
0.0
  0
LINE
  5
2F4B
330
1F
100
AcDbEntity
  8
SPOJOVACÍ
  6
Continuous
100
AcDbLine
 10
43.02951886999312
 20
138.0728288477093
 30
0.0
 11
42.65186749904773
 21
138.2914201597359
 31
0.0
  0
LINE
  5
2F4C
330
1F
100
AcDbEntity
  8
SPOJOVACÍ
  6
Continuous
100
AcDbLine
 10
38.60746313945515
 20
139.0541643124215
 30
0.0
 11
42.65186749904773
 21
137.6951774748577
 31
0.0
  0
LINE
  5
2F4D
330
1F
100
AcDbEntity
  8
SPOJOVACÍ
  6
Continuous
100
AcDbLine
 10
38.60746313945515
 20
139.6504069975762
 30
0.0
 11
42.65186749904773
 21
138.2914201597359
 31
0.0
  0
LINE
  5
2F4E
330
1F
100
AcDbEntity
  8
SPOJOVACÍ
  6
Continuous
100
AcDbLine
 10
38.48374975856518
 20
126.8353750589867
 30
0.0
 11
38.86233130684945
 21
126.6167837469602
 31
0.0
  0
LINE
  5
2F4F
330
1F
100
AcDbEntity
  8
SPOJOVACÍ
  6
Continuous
100
AcDbLine
 10
38.48374975856518
 20
126.8353750589867
 30
0.0
 11
38.86233130684945
 21
127.2130264321149
 31
0.0
  0
LINE
  5
2F50
330
1F
100
AcDbEntity
  8
SPOJOVACÍ
  6
Continuous
100
AcDbLine
 10
42.60907941130812
 20
125.8624111766821
 30
0.0
 11
42.23142804036274
 21
125.4838296275756
 31
0.0
  0
LINE
  5
2F51
330
1F
100
AcDbEntity
  8
SPOJOVACÍ
  6
Continuous
100
AcDbLine
 10
42.60907941130812
 20
125.8624111766821
 30
0.0
 11
42.23142804036274
 21
126.0800723127304
 31
0.0
  0
LINE
  5
2F52
330
1F
100
AcDbEntity
  8
SPOJOVACÍ
  6
Continuous
100
AcDbLine
 10
38.86233130684945
 20
126.6167837469602
 30
0.0
 11
42.23142804036274
 21
125.4838296275756
 31
0.0
  0
LINE
  5
2F53
330
1F
100
AcDbEntity
  8
SPOJOVACÍ
  6
Continuous
100
AcDbLine
 10
38.86233130684945
 20
127.2130264321149
 30
0.0
 11
42.23142804036274
 21
126.0800723127304
 31
0.0
  0
LINE
  5
2F54
330
1F
100
AcDbEntity
  8
SPOJOVACÍ
  6
Continuous
100
AcDbLine
 10
38.48374975856518
 20
126.8353750589867
 30
0.0
 11
42.60907941130812
 21
125.8624111766821
 31
0.0
  0
LINE
  5
2F55
330
1F
100
AcDbEntity
  8
SPOJOVACÍ
  6
Continuous
100
AcDbLine
 10
39.04836646467106
 20
123.8206753046888
 30
0.0
 11
39.42601783998202
 21
123.6030141686405
 31
0.0
  0
LINE
  5
2F56
330
1F
100
AcDbEntity
  8
SPOJOVACÍ
  6
Continuous
100
AcDbLine
 10
39.04836646467106
 20
123.8206753046888
 30
0.0
 11
39.42601783998202
 21
124.1992568537953
 31
0.0
  0
LINE
  5
2F57
330
1F
100
AcDbEntity
  8
SPOJOVACÍ
  6
Continuous
100
AcDbLine
 10
42.16445538110224
 20
123.1872255879188
 30
0.0
 11
41.78680401015685
 21
122.8086440390889
 31
0.0
  0
LINE
  5
2F58
330
1F
100
AcDbEntity
  8
SPOJOVACÍ
  6
Continuous
100
AcDbLine
 10
42.16445538110224
 20
123.1872255879188
 30
0.0
 11
41.78680401015685
 21
123.4048867239671
 31
0.0
  0
LINE
  5
2F59
330
1F
100
AcDbEntity
  8
SPOJOVACÍ
  6
Continuous
100
AcDbLine
 10
39.42601783998202
 20
123.6030141686405
 30
0.0
 11
41.78680401015685
 21
122.8086440390889
 31
0.0
  0
LINE
  5
2F5A
330
1F
100
AcDbEntity
  8
SPOJOVACÍ
  6
Continuous
100
AcDbLine
 10
39.42601783998202
 20
124.1992568537953
 30
0.0
 11
41.78680401015685
 21
123.4048867239671
 31
0.0
  0
LINE
  5
2F5B
330
1F
100
AcDbEntity
  8
SPOJOVACÍ
  6
Continuous
100
AcDbLine
 10
39.04836646467106
 20
123.8206753046888
 30
0.0
 11
42.16445538110224
 21
123.1872255879188
 31
0.0
  0
LINE
  5
2F5C
330
1F
100
AcDbEntity
  8
SPOJOVACÍ
  6
Continuous
100
AcDbLine
 10
39.61298317514252
 20
120.8069057263692
 30
0.0
 11
39.9906345460879
 21
120.5883144143499
 31
0.0
  0
LINE
  5
2F5D
330
1F
100
AcDbEntity
  8
SPOJOVACÍ
  6
Continuous
100
AcDbLine
 10
39.61298317514252
 20
120.8069057263692
 30
0.0
 11
39.9906345460879
 21
121.1845570994974
 31
0.0
  0
LINE
  5
2F5E
330
1F
100
AcDbEntity
  8
SPOJOVACÍ
  6
Continuous
100
AcDbLine
 10
41.76727031659924
 20
120.4962270105952
 30
0.0
 11
41.38961894565386
 21
120.1176454617652
 31
0.0
  0
LINE
  5
2F5F
330
1F
100
AcDbEntity
  8
SPOJOVACÍ
  6
Continuous
100
AcDbLine
 10
41.76727031659924
 20
120.4962270105952
 30
0.0
 11
41.38961894565386
 21
120.7138881469127
 31
0.0
  0
LINE
  5
2F60
330
1F
100
AcDbEntity
  8
SPOJOVACÍ
  6
Continuous
100
AcDbLine
 10
39.9906345460879
 20
120.5883144143499
 30
0.0
 11
41.38961894565386
 21
120.1176454617652
 31
0.0
  0
LINE
  5
2F61
330
1F
100
AcDbEntity
  8
SPOJOVACÍ
  6
Continuous
100
AcDbLine
 10
39.9906345460879
 20
121.1845570994974
 30
0.0
 11
41.38961894565386
 21
120.7138881469127
 31
0.0
  0
LINE
  5
2F62
330
1F
100
AcDbEntity
  8
SPOJOVACÍ
  6
Continuous
100
AcDbLine
 10
39.61298317514252
 20
120.8069057263692
 30
0.0
 11
41.76727031659924
 21
120.4962270105952
 31
0.0
  0
LINE
  5
2F63
330
1F
100
AcDbEntity
  8
SPOJOVACÍ
  6
Continuous
100
AcDbLine
 10
38.22981176414419
 20
136.1529460052097
 30
0.0
 11
43.02951886999312
 21
134.9530192287475
 31
0.0
  0
LINE
  5
2F64
330
1F
100
AcDbEntity
  8
SPOJOVACÍ
  6
Continuous
100
AcDbLine
 10
38.22981176414419
 20
136.1529460052097
 30
0.0
 11
38.60746313945515
 21
135.9343546931832
 31
0.0
  0
LINE
  5
2F65
330
1F
100
AcDbEntity
  8
SPOJOVACÍ
  6
Continuous
100
AcDbLine
 10
38.22981176414419
 20
136.1529460052097
 30
0.0
 11
38.60746313945515
 21
136.5305973783379
 31
0.0
  0
LINE
  5
2F66
330
1F
100
AcDbEntity
  8
SPOJOVACÍ
  6
Continuous
100
AcDbLine
 10
43.02951886999312
 20
134.9530192287475
 30
0.0
 11
42.65186749904773
 21
134.5744376799175
 31
0.0
  0
LINE
  5
2F67
330
1F
100
AcDbEntity
  8
SPOJOVACÍ
  6
Continuous
100
AcDbLine
 10
43.02951886999312
 20
134.9530192287475
 30
0.0
 11
42.65186749904773
 21
135.1706803650649
 31
0.0
  0
LINE
  5
2F68
330
1F
100
AcDbEntity
  8
SPOJOVACÍ
  6
Continuous
100
AcDbLine
 10
38.60746313945515
 20
135.9343546931832
 30
0.0
 11
42.65186749904773
 21
134.5744376799175
 31
0.0
  0
LINE
  5
2F69
330
1F
100
AcDbEntity
  8
SPOJOVACÍ
  6
Continuous
100
AcDbLine
 10
38.60746313945515
 20
136.5305973783379
 30
0.0
 11
42.65186749904773
 21
135.1706803650649
 31
0.0
  0
LINE
  5
2F6A
330
1F
100
AcDbEntity
  8
SPOJOVACÍ
  6
Continuous
100
AcDbLine
 10
38.22981176414419
 20
133.0331363862405
 30
0.0
 11
43.02951886999312
 21
131.8332096097783
 31
0.0
  0
LINE
  5
2F6B
330
1F
100
AcDbEntity
  8
SPOJOVACÍ
  6
Continuous
100
AcDbLine
 10
38.22981176414419
 20
133.0331363862405
 30
0.0
 11
38.60746313945515
 21
132.8145450742213
 31
0.0
  0
LINE
  5
2F6C
330
1F
100
AcDbEntity
  8
SPOJOVACÍ
  6
Continuous
100
AcDbLine
 10
38.22981176414419
 20
133.0331363862405
 30
0.0
 11
38.60746313945515
 21
133.4107877593687
 31
0.0
  0
LINE
  5
2F6D
330
1F
100
AcDbEntity
  8
SPOJOVACÍ
  6
Continuous
100
AcDbLine
 10
43.02951886999312
 20
131.8332096097783
 30
0.0
 11
42.65186749904773
 21
131.4546280609483
 31
0.0
  0
LINE
  5
2F6E
330
1F
100
AcDbEntity
  8
SPOJOVACÍ
  6
Continuous
100
AcDbLine
 10
43.02951886999312
 20
131.8332096097783
 30
0.0
 11
42.65186749904773
 21
132.0508707458266
 31
0.0
  0
LINE
  5
2F6F
330
1F
100
AcDbEntity
  8
SPOJOVACÍ
  6
Continuous
100
AcDbLine
 10
38.60746313945515
 20
132.8145450742213
 30
0.0
 11
42.65186749904773
 21
131.4546280609483
 31
0.0
  0
LINE
  5
2F70
330
1F
100
AcDbEntity
  8
SPOJOVACÍ
  6
Continuous
100
AcDbLine
 10
38.60746313945515
 20
133.4107877593687
 30
0.0
 11
42.65186749904773
 21
132.0508707458266
 31
0.0
  0
LINE
  5
2F71
330
1F
100
AcDbEntity
  8
SPOJOVACÍ
  6
Continuous
100
AcDbLine
 10
38.22981176414419
 20
129.9123965913004
 30
0.0
 11
43.02951886999312
 21
128.7124698148381
 31
0.0
  0
LINE
  5
2F72
330
1F
100
AcDbEntity
  8
SPOJOVACÍ
  6
Continuous
100
AcDbLine
 10
38.22981176414419
 20
129.9123965913004
 30
0.0
 11
38.60746313945515
 21
129.6947354552521
 31
0.0
  0
LINE
  5
2F73
330
1F
100
AcDbEntity
  8
SPOJOVACÍ
  6
Continuous
100
AcDbLine
 10
38.22981176414419
 20
129.9123965913004
 30
0.0
 11
38.60746313945515
 21
130.2909781404068
 31
0.0
  0
LINE
  5
2F74
330
1F
100
AcDbEntity
  8
SPOJOVACÍ
  6
Continuous
100
AcDbLine
 10
43.02951886999312
 20
128.7124698148381
 30
0.0
 11
42.65186749904773
 21
128.33481844171
 31
0.0
  0
LINE
  5
2F75
330
1F
100
AcDbEntity
  8
SPOJOVACÍ
  6
Continuous
100
AcDbLine
 10
43.02951886999312
 20
128.7124698148381
 30
0.0
 11
42.65186749904773
 21
128.9310611268647
 31
0.0
  0
LINE
  5
2F76
330
1F
100
AcDbEntity
  8
SPOJOVACÍ
  6
Continuous
100
AcDbLine
 10
38.60746313945515
 20
129.6947354552521
 30
0.0
 11
42.65186749904773
 21
128.33481844171
 31
0.0
  0
LINE
  5
2F77
330
1F
100
AcDbEntity
  8
SPOJOVACÍ
  6
Continuous
100
AcDbLine
 10
38.60746313945515
 20
130.2909781404068
 30
0.0
 11
42.65186749904773
 21
128.9310611268647
 31
0.0
  0
LINE
  5
2F78
330
1F
100
AcDbEntity
  8
NOSNÉ KONSTRUKCE
100
AcDbLine
 10
10.25197817966932
 20
135.1022750529909
 30
0.0
 11
532.7454559337605
 21
135.1022750529909
 31
0.0
  0
LINE
  5
2F79
330
1F
100
AcDbEntity
  8
NOSNÉ KONSTRUKCE
100
AcDbLine
 10
10.25197817966932
 20
95.74861861244334
 30
0.0
 11
525.4972952983918
 21
95.74861861244334
 31
0.0
  0
LINE
  5
2F7A
330
1F
100
AcDbEntity
  8
SPOJOVACÍ
  6
Continuous
100
AcDbLine
 10
413.857193114982
 20
130.2909781404068
 30
0.0
 11
417.9015974745746
 21
128.9310611268647
 31
0.0
  0
LINE
  5
2F7B
330
1F
100
AcDbEntity
  8
SPOJOVACÍ
  6
Continuous
100
AcDbLine
 10
413.857193114982
 20
129.6947354552521
 30
0.0
 11
417.9015974745746
 21
128.33481844171
 31
0.0
  0
LINE
  5
2F7C
330
1F
100
AcDbEntity
  8
SPOJOVACÍ
  6
Continuous
100
AcDbLine
 10
418.2792488455199
 20
128.7124698148381
 30
0.0
 11
417.9015974745746
 21
128.9310611268647
 31
0.0
  0
LINE
  5
2F7D
330
1F
100
AcDbEntity
  8
SPOJOVACÍ
  6
Continuous
100
AcDbLine
 10
418.2792488455199
 20
128.7124698148381
 30
0.0
 11
417.9015974745746
 21
128.33481844171
 31
0.0
  0
LINE
  5
2F7E
330
1F
100
AcDbEntity
  8
SPOJOVACÍ
  6
Continuous
100
AcDbLine
 10
413.479541739671
 20
129.9123965913004
 30
0.0
 11
413.857193114982
 21
130.2909781404068
 31
0.0
  0
LINE
  5
2F7F
330
1F
100
AcDbEntity
  8
SPOJOVACÍ
  6
Continuous
100
AcDbLine
 10
413.479541739671
 20
129.9123965913004
 30
0.0
 11
413.857193114982
 21
129.6947354552521
 31
0.0
  0
LINE
  5
2F80
330
1F
100
AcDbEntity
  8
SPOJOVACÍ
  6
Continuous
100
AcDbLine
 10
413.479541739671
 20
129.9123965913004
 30
0.0
 11
418.2792488455199
 21
128.7124698148381
 31
0.0
  0
LINE
  5
2F81
330
1F
100
AcDbEntity
  8
SPOJOVACÍ
  6
Continuous
100
AcDbLine
 10
413.857193114982
 20
133.4107877593687
 30
0.0
 11
417.9015974745746
 21
132.0508707458266
 31
0.0
  0
LINE
  5
2F82
330
1F
100
AcDbEntity
  8
SPOJOVACÍ
  6
Continuous
100
AcDbLine
 10
413.857193114982
 20
132.8145450742213
 30
0.0
 11
417.9015974745746
 21
131.4546280609483
 31
0.0
  0
LINE
  5
2F83
330
1F
100
AcDbEntity
  8
SPOJOVACÍ
  6
Continuous
100
AcDbLine
 10
418.2792488455199
 20
131.8332096097783
 30
0.0
 11
417.9015974745746
 21
132.0508707458266
 31
0.0
  0
LINE
  5
2F84
330
1F
100
AcDbEntity
  8
SPOJOVACÍ
  6
Continuous
100
AcDbLine
 10
418.2792488455199
 20
131.8332096097783
 30
0.0
 11
417.9015974745746
 21
131.4546280609483
 31
0.0
  0
LINE
  5
2F85
330
1F
100
AcDbEntity
  8
SPOJOVACÍ
  6
Continuous
100
AcDbLine
 10
413.479541739671
 20
133.0331363862405
 30
0.0
 11
413.857193114982
 21
133.4107877593687
 31
0.0
  0
LINE
  5
2F86
330
1F
100
AcDbEntity
  8
SPOJOVACÍ
  6
Continuous
100
AcDbLine
 10
413.479541739671
 20
133.0331363862405
 30
0.0
 11
413.857193114982
 21
132.8145450742213
 31
0.0
  0
LINE
  5
2F87
330
1F
100
AcDbEntity
  8
SPOJOVACÍ
  6
Continuous
100
AcDbLine
 10
413.479541739671
 20
133.0331363862405
 30
0.0
 11
418.2792488455199
 21
131.8332096097783
 31
0.0
  0
LINE
  5
2F88
330
1F
100
AcDbEntity
  8
SPOJOVACÍ
  6
Continuous
100
AcDbLine
 10
413.857193114982
 20
136.5305973783379
 30
0.0
 11
417.9015974745746
 21
135.1706803650649
 31
0.0
  0
LINE
  5
2F89
330
1F
100
AcDbEntity
  8
SPOJOVACÍ
  6
Continuous
100
AcDbLine
 10
413.857193114982
 20
135.9343546931832
 30
0.0
 11
417.9015974745746
 21
134.5744376799175
 31
0.0
  0
LINE
  5
2F8A
330
1F
100
AcDbEntity
  8
SPOJOVACÍ
  6
Continuous
100
AcDbLine
 10
418.2792488455199
 20
134.9530192287475
 30
0.0
 11
417.9015974745746
 21
135.1706803650649
 31
0.0
  0
LINE
  5
2F8B
330
1F
100
AcDbEntity
  8
SPOJOVACÍ
  6
Continuous
100
AcDbLine
 10
418.2792488455199
 20
134.9530192287475
 30
0.0
 11
417.9015974745746
 21
134.5744376799175
 31
0.0
  0
LINE
  5
2F8C
330
1F
100
AcDbEntity
  8
SPOJOVACÍ
  6
Continuous
100
AcDbLine
 10
413.479541739671
 20
136.1529460052097
 30
0.0
 11
413.857193114982
 21
136.5305973783379
 31
0.0
  0
LINE
  5
2F8D
330
1F
100
AcDbEntity
  8
SPOJOVACÍ
  6
Continuous
100
AcDbLine
 10
413.479541739671
 20
136.1529460052097
 30
0.0
 11
413.857193114982
 21
135.9343546931832
 31
0.0
  0
LINE
  5
2F8E
330
1F
100
AcDbEntity
  8
SPOJOVACÍ
  6
Continuous
100
AcDbLine
 10
413.479541739671
 20
136.1529460052097
 30
0.0
 11
418.2792488455199
 21
134.9530192287475
 31
0.0
  0
LINE
  5
2F8F
330
1F
100
AcDbEntity
  8
SPOJOVACÍ
  6
Continuous
100
AcDbLine
 10
414.8627131506693
 20
120.8069057263692
 30
0.0
 11
417.0170002921261
 21
120.4962270105952
 31
0.0
  0
LINE
  5
2F90
330
1F
100
AcDbEntity
  8
SPOJOVACÍ
  6
Continuous
100
AcDbLine
 10
415.2403645216147
 20
121.1845570994974
 30
0.0
 11
416.6393489211807
 21
120.7138881469127
 31
0.0
  0
LINE
  5
2F91
330
1F
100
AcDbEntity
  8
SPOJOVACÍ
  6
Continuous
100
AcDbLine
 10
415.2403645216147
 20
120.5883144143499
 30
0.0
 11
416.6393489211807
 21
120.1176454617652
 31
0.0
  0
LINE
  5
2F92
330
1F
100
AcDbEntity
  8
SPOJOVACÍ
  6
Continuous
100
AcDbLine
 10
417.0170002921261
 20
120.4962270105952
 30
0.0
 11
416.6393489211807
 21
120.7138881469127
 31
0.0
  0
LINE
  5
2F93
330
1F
100
AcDbEntity
  8
SPOJOVACÍ
  6
Continuous
100
AcDbLine
 10
417.0170002921261
 20
120.4962270105952
 30
0.0
 11
416.6393489211807
 21
120.1176454617652
 31
0.0
  0
LINE
  5
2F94
330
1F
100
AcDbEntity
  8
SPOJOVACÍ
  6
Continuous
100
AcDbLine
 10
414.8627131506693
 20
120.8069057263692
 30
0.0
 11
415.2403645216147
 21
121.1845570994974
 31
0.0
  0
LINE
  5
2F95
330
1F
100
AcDbEntity
  8
SPOJOVACÍ
  6
Continuous
100
AcDbLine
 10
414.8627131506693
 20
120.8069057263692
 30
0.0
 11
415.2403645216147
 21
120.5883144143499
 31
0.0
  0
LINE
  5
2F96
330
1F
100
AcDbEntity
  8
SPOJOVACÍ
  6
Continuous
100
AcDbLine
 10
414.2980964401979
 20
123.8206753046888
 30
0.0
 11
417.4141853566291
 21
123.1872255879188
 31
0.0
  0
LINE
  5
2F97
330
1F
100
AcDbEntity
  8
SPOJOVACÍ
  6
Continuous
100
AcDbLine
 10
414.6757478155088
 20
124.1992568537953
 30
0.0
 11
417.0365339856837
 21
123.4048867239671
 31
0.0
  0
LINE
  5
2F98
330
1F
100
AcDbEntity
  8
SPOJOVACÍ
  6
Continuous
100
AcDbLine
 10
414.6757478155088
 20
123.6030141686405
 30
0.0
 11
417.0365339856837
 21
122.8086440390889
 31
0.0
  0
LINE
  5
2F99
330
1F
100
AcDbEntity
  8
SPOJOVACÍ
  6
Continuous
100
AcDbLine
 10
417.4141853566291
 20
123.1872255879188
 30
0.0
 11
417.0365339856837
 21
123.4048867239671
 31
0.0
  0
LINE
  5
2F9A
330
1F
100
AcDbEntity
  8
SPOJOVACÍ
  6
Continuous
100
AcDbLine
 10
417.4141853566291
 20
123.1872255879188
 30
0.0
 11
417.0365339856837
 21
122.8086440390889
 31
0.0
  0
LINE
  5
2F9B
330
1F
100
AcDbEntity
  8
SPOJOVACÍ
  6
Continuous
100
AcDbLine
 10
414.2980964401979
 20
123.8206753046888
 30
0.0
 11
414.6757478155088
 21
124.1992568537953
 31
0.0
  0
LINE
  5
2F9C
330
1F
100
AcDbEntity
  8
SPOJOVACÍ
  6
Continuous
100
AcDbLine
 10
414.2980964401979
 20
123.8206753046888
 30
0.0
 11
414.6757478155088
 21
123.6030141686405
 31
0.0
  0
LINE
  5
2F9D
330
1F
100
AcDbEntity
  8
SPOJOVACÍ
  6
Continuous
100
AcDbLine
 10
413.733479734092
 20
126.8353750589867
 30
0.0
 11
417.8588093868349
 21
125.8624111766821
 31
0.0
  0
LINE
  5
2F9E
330
1F
100
AcDbEntity
  8
SPOJOVACÍ
  6
Continuous
100
AcDbLine
 10
414.1120612823763
 20
127.2130264321149
 30
0.0
 11
417.4811580158896
 21
126.0800723127304
 31
0.0
  0
LINE
  5
2F9F
330
1F
100
AcDbEntity
  8
SPOJOVACÍ
  6
Continuous
100
AcDbLine
 10
414.1120612823763
 20
126.6167837469602
 30
0.0
 11
417.4811580158896
 21
125.4838296275756
 31
0.0
  0
LINE
  5
2FA0
330
1F
100
AcDbEntity
  8
SPOJOVACÍ
  6
Continuous
100
AcDbLine
 10
417.8588093868349
 20
125.8624111766821
 30
0.0
 11
417.4811580158896
 21
126.0800723127304
 31
0.0
  0
LINE
  5
2FA1
330
1F
100
AcDbEntity
  8
SPOJOVACÍ
  6
Continuous
100
AcDbLine
 10
417.8588093868349
 20
125.8624111766821
 30
0.0
 11
417.4811580158896
 21
125.4838296275756
 31
0.0
  0
LINE
  5
2FA2
330
1F
100
AcDbEntity
  8
SPOJOVACÍ
  6
Continuous
100
AcDbLine
 10
413.733479734092
 20
126.8353750589867
 30
0.0
 11
414.1120612823763
 21
127.2130264321149
 31
0.0
  0
LINE
  5
2FA3
330
1F
100
AcDbEntity
  8
SPOJOVACÍ
  6
Continuous
100
AcDbLine
 10
413.733479734092
 20
126.8353750589867
 30
0.0
 11
414.1120612823763
 21
126.6167837469602
 31
0.0
  0
LINE
  5
2FA4
330
1F
100
AcDbEntity
  8
SPOJOVACÍ
  6
Continuous
100
AcDbLine
 10
413.857193114982
 20
139.6504069975762
 30
0.0
 11
417.9015974745746
 21
138.2914201597359
 31
0.0
  0
LINE
  5
2FA5
330
1F
100
AcDbEntity
  8
SPOJOVACÍ
  6
Continuous
100
AcDbLine
 10
413.857193114982
 20
139.0541643124215
 30
0.0
 11
417.9015974745746
 21
137.6951774748577
 31
0.0
  0
LINE
  5
2FA6
330
1F
100
AcDbEntity
  8
SPOJOVACÍ
  6
Continuous
100
AcDbLine
 10
418.2792488455199
 20
138.0728288477093
 30
0.0
 11
417.9015974745746
 21
138.2914201597359
 31
0.0
  0
LINE
  5
2FA7
330
1F
100
AcDbEntity
  8
SPOJOVACÍ
  6
Continuous
100
AcDbLine
 10
418.2792488455199
 20
138.0728288477093
 30
0.0
 11
417.9015974745746
 21
137.6951774748577
 31
0.0
  0
LINE
  5
2FA8
330
1F
100
AcDbEntity
  8
SPOJOVACÍ
  6
Continuous
100
AcDbLine
 10
413.479541739671
 20
139.2727556244481
 30
0.0
 11
413.857193114982
 21
139.6504069975762
 31
0.0
  0
LINE
  5
2FA9
330
1F
100
AcDbEntity
  8
SPOJOVACÍ
  6
Continuous
100
AcDbLine
 10
413.479541739671
 20
139.2727556244481
 30
0.0
 11
413.857193114982
 21
139.0541643124215
 31
0.0
  0
LINE
  5
2FAA
330
1F
100
AcDbEntity
  8
SPOJOVACÍ
  6
Continuous
100
AcDbLine
 10
413.479541739671
 20
139.2727556244481
 30
0.0
 11
418.2792488455199
 21
138.0728288477093
 31
0.0
  0
LINE
  5
2FAB
330
1F
100
AcDbEntity
  8
SPOJOVACÍ
  6
Continuous
100
AcDbLine
 10
413.857193114982
 20
142.7711467922399
 30
0.0
 11
417.9015974745746
 21
141.4112297789743
 31
0.0
  0
LINE
  5
2FAC
330
1F
100
AcDbEntity
  8
SPOJOVACÍ
  6
Continuous
100
AcDbLine
 10
413.857193114982
 20
142.1749041073617
 30
0.0
 11
417.9015974745746
 21
140.8149870938195
 31
0.0
  0
LINE
  5
2FAD
330
1F
100
AcDbEntity
  8
SPOJOVACÍ
  6
Continuous
100
AcDbLine
 10
418.2792488455199
 20
141.1926384669477
 30
0.0
 11
417.9015974745746
 21
141.4112297789743
 31
0.0
  0
LINE
  5
2FAE
330
1F
100
AcDbEntity
  8
SPOJOVACÍ
  6
Continuous
100
AcDbLine
 10
418.2792488455199
 20
141.1926384669477
 30
0.0
 11
417.9015974745746
 21
140.8149870938195
 31
0.0
  0
LINE
  5
2FAF
330
1F
100
AcDbEntity
  8
SPOJOVACÍ
  6
Continuous
100
AcDbLine
 10
413.479541739671
 20
142.39256524341
 30
0.0
 11
413.857193114982
 21
142.7711467922399
 31
0.0
  0
LINE
  5
2FB0
330
1F
100
AcDbEntity
  8
SPOJOVACÍ
  6
Continuous
100
AcDbLine
 10
413.479541739671
 20
142.39256524341
 30
0.0
 11
413.857193114982
 21
142.1749041073617
 31
0.0
  0
LINE
  5
2FB1
330
1F
100
AcDbEntity
  8
SPOJOVACÍ
  6
Continuous
100
AcDbLine
 10
413.479541739671
 20
142.39256524341
 30
0.0
 11
418.2792488455199
 21
141.1926384669477
 31
0.0
  0
LINE
  5
2FB2
330
1F
100
AcDbEntity
  8
SPOJOVACÍ
  6
Continuous
100
AcDbLine
 10
416.9835139646786
 20
126.2568057140797
 30
0.0
 11
417.2290803761463
 21
128.2278482253659
 31
0.0
  0
LINE
  5
2FB3
330
1F
100
AcDbEntity
  8
SPOJOVACÍ
  6
Continuous
100
AcDbLine
 10
416.6449299721173
 20
123.5499941481812
 30
0.0
 11
416.9118904274548
 21
125.6866079510346
 31
0.0
  0
LINE
  5
2FB4
330
1F
100
AcDbEntity
  8
SPOJOVACÍ
  6
Continuous
100
AcDbLine
 10
416.3054158109482
 20
120.832950648748
 30
0.0
 11
416.5733064392591
 21
122.9779360337324
 31
0.0
  0
LINE
  5
2FB5
330
1F
100
AcDbEntity
  8
SPOJOVACÍ
  6
Continuous
100
AcDbLine
 10
415.4933723386968
 20
120.5166908782175
 30
0.0
 11
415.8793952925955
 21
117.4275770604126
 31
0.0
  0
LINE
  5
2FB6
330
1F
100
AcDbEntity
  8
SPOJOVACÍ
  6
Continuous
100
AcDbLine
 10
415.1259529010169
 20
123.4579067444265
 30
0.0
 11
415.4161677461709
 21
121.1371181340709
 31
0.0
  0
LINE
  5
2FB7
330
1F
100
AcDbEntity
  8
SPOJOVACÍ
  6
Continuous
100
AcDbLine
 10
414.7566731086592
 20
126.4102847201556
 30
0.0
 11
415.0468879581787
 21
124.088565934091
 31
0.0
  0
LINE
  5
2FB8
330
1F
100
AcDbEntity
  8
SPOJOVACÍ
  6
Continuous
100
AcDbLine
 10
415.8793952925955
 20
117.4275770604126
 30
0.0
 11
416.2337922737244
 21
120.2636830616811
 31
0.0
  0
LINE
  5
2FB9
330
1F
100
AcDbEntity
  8
SPOJOVACÍ
  6
Continuous
100
AcDbLine
 10
414.5297102134102
 20
128.2278482253659
 30
0.0
 11
414.6794685161332
 21
127.0307119760091
 31
0.0
  0
LINE
  5
2FBA
330
1F
100
AcDbEntity
  8
SPOJOVACÍ
  6
Continuous
100
AcDbLine
 10
417.2290803761463
 20
128.5645718632495
 30
0.0
 11
417.2290803761463
 21
128.2278482253659
 31
0.0
  0
LINE
  5
2FBB
330
1F
100
AcDbEntity
  8
SPOJOVACÍ
  6
Continuous
100
AcDbLine
 10
417.2290803761463
 20
131.6871720098624
 30
0.0
 11
417.2290803761463
 21
129.1682559548335
 31
0.0
  0
LINE
  5
2FBC
330
1F
100
AcDbEntity
  8
SPOJOVACÍ
  6
Continuous
100
AcDbLine
 10
414.5297102134102
 20
129.4752139672546
 30
0.0
 11
414.5297102134102
 21
128.2278482253659
 31
0.0
  0
LINE
  5
2FBD
330
1F
100
AcDbEntity
  8
SPOJOVACÍ
  6
Continuous
100
AcDbLine
 10
414.5297102134102
 20
132.5894425317365
 30
0.0
 11
414.5297102134102
 21
130.0714566524093
 31
0.0
  0
LINE
  5
2FBE
330
1F
100
AcDbEntity
  8
SPOJOVACÍ
  6
Continuous
100
AcDbLine
 10
417.2290803761463
 20
134.8088419805044
 30
0.0
 11
417.2290803761463
 21
132.2880655737953
 31
0.0
  0
LINE
  5
2FBF
330
1F
100
AcDbEntity
  8
SPOJOVACÍ
  6
Continuous
100
AcDbLine
 10
417.2290803761463
 20
137.9314421268482
 30
0.0
 11
417.2290803761463
 21
135.403224313979
 31
0.0
  0
LINE
  5
2FC0
330
1F
100
AcDbEntity
  8
SPOJOVACÍ
  6
Continuous
100
AcDbLine
 10
417.2290803761463
 20
141.0466008670318
 30
0.0
 11
417.2290803761463
 21
138.5276848120029
 31
0.0
  0
LINE
  5
2FC1
330
1F
100
AcDbEntity
  8
SPOJOVACÍ
  6
Continuous
100
AcDbLine
 10
414.5297102134102
 20
135.7222746118914
 30
0.0
 11
414.5297102134102
 21
133.1940567990222
 31
0.0
  0
LINE
  5
2FC2
330
1F
100
AcDbEntity
  8
SPOJOVACÍ
  6
Continuous
100
AcDbLine
 10
414.5297102134102
 20
138.8374333520751
 30
0.0
 11
414.5297102134102
 21
136.316656945366
 31
0.0
  0
LINE
  5
2FC3
330
1F
100
AcDbEntity
  8
SPOJOVACÍ
  6
Continuous
100
AcDbLine
 10
414.5297102134102
 20
141.9600334984188
 30
0.0
 11
414.5297102134102
 21
139.4411174433898
 31
0.0
  0
LINE
  5
2FC4
330
1F
100
AcDbEntity
  8
SPOJOVACÍ
  6
Continuous
100
AcDbLine
 10
414.5297102134102
 20
146.5932391372753
 30
0.0
 11
414.5297102134102
 21
142.5553460075953
 31
0.0
  0
LINE
  5
2FC5
330
1F
100
AcDbEntity
  8
SPOJOVACÍ
  6
Continuous
100
AcDbLine
 10
417.2290803761463
 20
146.5932391372753
 30
0.0
 11
417.2290803761463
 21
141.6502849583466
 31
0.0
  0
LINE
  5
2FC6
330
1F
100
AcDbEntity
  8
SPOJOVACÍ
  6
Continuous
100
AcDbLine
 10
410.7792414039615
 20
151.9929096316318
 30
0.0
 11
412.1289264875124
 21
151.2487689951576
 31
0.0
  0
LINE
  5
2FC7
330
1F
100
AcDbEntity
  8
SPOJOVACÍ
  6
Continuous
100
AcDbLine
 10
412.1289264875124
 20
151.2487689951576
 30
0.0
 11
413.239556387871
 21
150.1799970057454
 31
0.0
  0
LINE
  5
2FC8
330
1F
100
AcDbEntity
  8
SPOJOVACÍ
  6
Continuous
100
AcDbLine
 10
413.239556387871
 20
150.1799970057454
 30
0.0
 11
414.0357868671892
 21
148.8610077274479
 31
0.0
  0
LINE
  5
2FC9
330
1F
100
AcDbEntity
  8
SPOJOVACÍ
  6
Continuous
100
AcDbLine
 10
414.0357868671892
 20
148.8610077274479
 30
0.0
 11
414.4636677314886
 21
147.3801678603977
 31
0.0
  0
LINE
  5
2FCA
330
1F
100
AcDbEntity
  8
SPOJOVACÍ
  6
Continuous
100
AcDbLine
 10
414.4636677314886
 20
147.3801678603977
 30
0.0
 11
414.5297102134102
 21
146.5932391372753
 31
0.0
  0
LINE
  5
2FCB
330
1F
100
AcDbEntity
  8
SPOJOVACÍ
  6
Continuous
100
AcDbLine
 10
419.0271101861619
 20
150.7381024833066
 30
0.0
 11
420.2642439950616
 21
151.6561859937483
 31
0.0
  0
LINE
  5
2FCC
330
1F
100
AcDbEntity
  8
SPOJOVACÍ
  6
Continuous
100
AcDbLine
 10
420.2642439950616
 20
151.6561859937483
 30
0.0
 11
420.9795491812294
 21
151.9929096316318
 31
0.0
  0
LINE
  5
2FCD
330
1F
100
AcDbEntity
  8
SPOJOVACÍ
  6
Continuous
100
AcDbLine
 10
410.7792414039615
 20
151.9929096316318
 30
0.0
 11
420.9795491812294
 21
151.9929096316318
 31
0.0
  0
LINE
  5
2FCE
330
1F
100
AcDbEntity
  8
SPOJOVACÍ
  6
Continuous
100
AcDbLine
 10
410.7792414039615
 20
153.1928364083633
 30
0.0
 11
410.7792414039615
 21
151.9929096316318
 31
0.0
  0
LINE
  5
2FCF
330
1F
100
AcDbEntity
  8
SPOJOVACÍ
  6
Continuous
100
AcDbLine
 10
410.7792414039615
 20
153.1928364083633
 30
0.0
 11
420.9795491812294
 21
153.1928364083633
 31
0.0
  0
LINE
  5
2FD0
330
1F
100
AcDbEntity
  8
SPOJOVACÍ
  6
Continuous
100
AcDbLine
 10
420.9795491812294
 20
153.1928364083633
 30
0.0
 11
420.9795491812294
 21
151.9929096316318
 31
0.0
  0
LINE
  5
2FD1
330
1F
100
AcDbEntity
  8
SPOJOVACÍ
  6
Continuous
100
AcDbLine
 10
417.2290803761463
 20
146.5932391372753
 30
0.0
 11
417.4560432670298
 21
148.1168670907045
 31
0.0
  0
LINE
  5
2FD2
330
1F
100
AcDbEntity
  8
SPOJOVACÍ
  6
Continuous
100
AcDbLine
 10
417.4560432670298
 20
148.1168670907045
 30
0.0
 11
418.0690291161774
 21
149.5307343004078
 31
0.0
  0
LINE
  5
2FD3
330
1F
100
AcDbEntity
  8
SPOJOVACÍ
  6
Continuous
100
AcDbLine
 10
418.0690291161774
 20
149.5307343004078
 30
0.0
 11
419.0271101861619
 21
150.7381024833066
 31
0.0
  0
LINE
  5
2FD4
330
1F
100
AcDbEntity
  8
SPOJOVACÍ
  6
Continuous
100
AcDbLine
 10
430.1861188359582
 20
81.62268423157001
 30
0.0
 11
431.1441999059427
 21
80.41531604867122
 31
0.0
  0
LINE
  5
2FD5
330
1F
100
AcDbEntity
  8
SPOJOVACÍ
  6
Continuous
100
AcDbLine
 10
429.5731329868106
 20
83.03655144127333
 30
0.0
 11
430.1861188359582
 21
81.62268423157001
 31
0.0
  0
LINE
  5
2FD6
330
1F
100
AcDbEntity
  8
SPOJOVACÍ
  6
Continuous
100
AcDbLine
 10
429.3461700959271
 20
84.56017939470257
 30
0.0
 11
429.5731329868106
 21
83.03655144127333
 31
0.0
  0
LINE
  5
2FD7
330
1F
100
AcDbEntity
  8
SPOJOVACÍ
  6
Continuous
100
AcDbLine
 10
433.0966389010102
 20
77.96058212361458
 30
0.0
 11
433.0966389010102
 21
79.16050890034603
 31
0.0
  0
LINE
  5
2FD8
330
1F
100
AcDbEntity
  8
SPOJOVACÍ
  6
Continuous
100
AcDbLine
 10
422.8963311237423
 20
77.96058212361458
 30
0.0
 11
433.0966389010102
 21
77.96058212361458
 31
0.0
  0
LINE
  5
2FD9
330
1F
100
AcDbEntity
  8
SPOJOVACÍ
  6
Continuous
100
AcDbLine
 10
422.8963311237423
 20
77.96058212361458
 30
0.0
 11
422.8963311237423
 21
79.16050890034603
 31
0.0
  0
LINE
  5
2FDA
330
1F
100
AcDbEntity
  8
SPOJOVACÍ
  6
Continuous
100
AcDbLine
 10
422.8963311237423
 20
79.16050890034603
 30
0.0
 11
433.0966389010102
 21
79.16050890034603
 31
0.0
  0
LINE
  5
2FDB
330
1F
100
AcDbEntity
  8
SPOJOVACÍ
  6
Continuous
100
AcDbLine
 10
432.3813337148424
 20
79.49723253822958
 30
0.0
 11
433.0966389010102
 21
79.16050890034603
 31
0.0
  0
LINE
  5
2FDC
330
1F
100
AcDbEntity
  8
SPOJOVACÍ
  6
Continuous
100
AcDbLine
 10
431.1441999059427
 20
80.41531604867122
 30
0.0
 11
432.3813337148424
 21
79.49723253822958
 31
0.0
  0
LINE
  5
2FDD
330
1F
100
AcDbEntity
  8
SPOJOVACÍ
  6
Continuous
100
AcDbLine
 10
426.5807574512693
 20
83.77325067158016
 30
0.0
 11
426.646799933191
 21
84.56017939470257
 31
0.0
  0
LINE
  5
2FDE
330
1F
100
AcDbEntity
  8
SPOJOVACÍ
  6
Continuous
100
AcDbLine
 10
426.15287658697
 20
82.29241080452993
 30
0.0
 11
426.5807574512693
 21
83.77325067158016
 31
0.0
  0
LINE
  5
2FDF
330
1F
100
AcDbEntity
  8
SPOJOVACÍ
  6
Continuous
100
AcDbLine
 10
425.3566461076518
 20
80.97342152623241
 30
0.0
 11
426.15287658697
 21
82.29241080452993
 31
0.0
  0
LINE
  5
2FE0
330
1F
100
AcDbEntity
  8
SPOJOVACÍ
  6
Continuous
100
AcDbLine
 10
424.2460162072932
 20
79.90464953682021
 30
0.0
 11
425.3566461076518
 21
80.97342152623241
 31
0.0
  0
LINE
  5
2FE1
330
1F
100
AcDbEntity
  8
SPOJOVACÍ
  6
Continuous
100
AcDbLine
 10
422.8963311237423
 20
79.16050890034603
 30
0.0
 11
424.2460162072932
 21
79.90464953682021
 31
0.0
  0
LINE
  5
2FE2
330
1F
100
AcDbEntity
  8
SPOJOVACÍ
  6
Continuous
100
AcDbLine
 10
429.3461700959271
 20
84.56017939470257
 30
0.0
 11
429.3461700959271
 21
89.50313357363119
 31
0.0
  0
LINE
  5
2FE3
330
1F
100
AcDbEntity
  8
SPOJOVACÍ
  6
Continuous
100
AcDbLine
 10
426.646799933191
 20
84.56017939470257
 30
0.0
 11
426.646799933191
 21
88.59807252438258
 31
0.0
  0
LINE
  5
2FE4
330
1F
100
AcDbEntity
  8
SPOJOVACÍ
  6
Continuous
100
AcDbLine
 10
426.646799933191
 20
89.19338503355902
 30
0.0
 11
426.646799933191
 21
91.71230108858798
 31
0.0
  0
LINE
  5
2FE5
330
1F
100
AcDbEntity
  8
SPOJOVACÍ
  6
Continuous
100
AcDbLine
 10
426.646799933191
 20
92.31598517990278
 30
0.0
 11
426.646799933191
 21
94.83676158661182
 31
0.0
  0
LINE
  5
2FE6
330
1F
100
AcDbEntity
  8
SPOJOVACÍ
  6
Continuous
100
AcDbLine
 10
426.646799933191
 20
95.43114392008646
 30
0.0
 11
426.646799933191
 21
97.95936173295558
 31
0.0
  0
LINE
  5
2FE7
330
1F
100
AcDbEntity
  8
SPOJOVACÍ
  6
Continuous
100
AcDbLine
 10
429.3461700959271
 20
90.10681766494599
 30
0.0
 11
429.3461700959271
 21
92.62573371997495
 31
0.0
  0
LINE
  5
2FE8
330
1F
100
AcDbEntity
  8
SPOJOVACÍ
  6
Continuous
100
AcDbLine
 10
429.3461700959271
 20
93.22197640512968
 30
0.0
 11
429.3461700959271
 21
95.75019421799879
 31
0.0
  0
LINE
  5
2FE9
330
1F
100
AcDbEntity
  8
SPOJOVACÍ
  6
Continuous
100
AcDbLine
 10
429.3461700959271
 20
96.34457655147343
 30
0.0
 11
429.3461700959271
 21
98.86535295818248
 31
0.0
  0
LINE
  5
2FEA
330
1F
100
AcDbEntity
  8
SPOJOVACÍ
  6
Continuous
100
AcDbLine
 10
426.646799933191
 20
98.56397600024138
 30
0.0
 11
426.646799933191
 21
101.0819618795685
 31
0.0
  0
LINE
  5
2FEB
330
1F
100
AcDbEntity
  8
SPOJOVACÍ
  6
Continuous
100
AcDbLine
 10
426.646799933191
 20
101.6782045647232
 30
0.0
 11
426.646799933191
 21
102.9255703066119
 31
0.0
  0
LINE
  5
2FEC
330
1F
100
AcDbEntity
  8
SPOJOVACÍ
  6
Continuous
100
AcDbLine
 10
429.3461700959271
 20
99.46624652211539
 30
0.0
 11
429.3461700959271
 21
101.9851625771443
 31
0.0
  0
LINE
  5
2FED
330
1F
100
AcDbEntity
  8
SPOJOVACÍ
  6
Continuous
100
AcDbLine
 10
429.3461700959271
 20
102.5888466687283
 30
0.0
 11
429.3461700959271
 21
102.9255703066119
 31
0.0
  0
LINE
  5
2FEE
330
1F
100
AcDbEntity
  8
SPOJOVACÍ
  6
Continuous
100
AcDbLine
 10
426.646799933191
 20
102.9255703066119
 30
0.0
 11
426.796558235914
 21
104.1227065559687
 31
0.0
  0
LINE
  5
2FEF
330
1F
100
AcDbEntity
  8
SPOJOVACÍ
  6
Continuous
100
AcDbLine
 10
427.9964850123763
 20
113.7258414715652
 30
0.0
 11
428.3508819935052
 21
110.8897354702967
 31
0.0
  0
LINE
  5
2FF0
330
1F
100
AcDbEntity
  8
SPOJOVACÍ
  6
Continuous
100
AcDbLine
 10
426.87376282844
 20
104.7431338118221
 30
0.0
 11
427.1639776779595
 21
107.0648525978867
 31
0.0
  0
LINE
  5
2FF1
330
1F
100
AcDbEntity
  8
SPOJOVACÍ
  6
Continuous
100
AcDbLine
 10
427.2430426207977
 20
107.6955117875513
 30
0.0
 11
427.5332574659516
 21
110.0163003979068
 31
0.0
  0
LINE
  5
2FF2
330
1F
100
AcDbEntity
  8
SPOJOVACÍ
  6
Continuous
100
AcDbLine
 10
427.6104620584776
 20
110.6367276537603
 30
0.0
 11
427.9964850123763
 21
113.7258414715652
 31
0.0
  0
LINE
  5
2FF3
330
1F
100
AcDbEntity
  8
SPOJOVACÍ
  6
Continuous
100
AcDbLine
 10
428.422505530729
 20
110.3204678832298
 30
0.0
 11
428.6903961590398
 21
108.1754824982454
 31
0.0
  0
LINE
  5
2FF4
330
1F
100
AcDbEntity
  8
SPOJOVACÍ
  6
Continuous
100
AcDbLine
 10
428.7620196918981
 20
107.6034243837966
 30
0.0
 11
429.0289801472356
 21
105.4668105809432
 31
0.0
  0
LINE
  5
2FF5
330
1F
100
AcDbEntity
  8
SPOJOVACÍ
  6
Continuous
100
AcDbLine
 10
429.1006036844594
 20
104.8966128178981
 30
0.0
 11
429.3461700959271
 21
102.9255703066119
 31
0.0
  0
LINE
  5
2FF6
330
1F
100
AcDbEntity
  8
SPOJOVACÍ
  6
Continuous
100
AcDbLine
 10
425.5966314594518
 20
88.76085328856788
 30
0.0
 11
430.3963385653007
 21
89.96078006503012
 31
0.0
  0
LINE
  5
2FF7
330
1F
100
AcDbEntity
  8
SPOJOVACÍ
  6
Continuous
100
AcDbLine
 10
425.5966314594518
 20
88.76085328856788
 30
0.0
 11
425.9742828347627
 21
88.97851442461615
 31
0.0
  0
LINE
  5
2FF8
330
1F
100
AcDbEntity
  8
SPOJOVACÍ
  6
Continuous
100
AcDbLine
 10
425.5966314594518
 20
88.76085328856788
 30
0.0
 11
425.9742828347627
 21
88.38227173973791
 31
0.0
  0
LINE
  5
2FF9
330
1F
100
AcDbEntity
  8
SPOJOVACÍ
  6
Continuous
100
AcDbLine
 10
430.3963385653007
 20
89.96078006503012
 30
0.0
 11
430.0186871943553
 21
90.33843143815829
 31
0.0
  0
LINE
  5
2FFA
330
1F
100
AcDbEntity
  8
SPOJOVACÍ
  6
Continuous
100
AcDbLine
 10
430.3963385653007
 20
89.96078006503012
 30
0.0
 11
430.0186871943553
 21
89.74218875300357
 31
0.0
  0
LINE
  5
2FFB
330
1F
100
AcDbEntity
  8
SPOJOVACÍ
  6
Continuous
100
AcDbLine
 10
425.9742828347627
 20
88.97851442461615
 30
0.0
 11
430.0186871943553
 21
90.33843143815829
 31
0.0
  0
LINE
  5
2FFC
330
1F
100
AcDbEntity
  8
SPOJOVACÍ
  6
Continuous
100
AcDbLine
 10
425.9742828347627
 20
88.38227173973791
 30
0.0
 11
430.0186871943553
 21
89.74218875300357
 31
0.0
  0
LINE
  5
2FFD
330
1F
100
AcDbEntity
  8
SPOJOVACÍ
  6
Continuous
100
AcDbLine
 10
425.5966314594518
 20
91.88066290752976
 30
0.0
 11
430.3963385653007
 21
93.08058968426848
 31
0.0
  0
LINE
  5
2FFE
330
1F
100
AcDbEntity
  8
SPOJOVACÍ
  6
Continuous
100
AcDbLine
 10
425.5966314594518
 20
91.88066290752976
 30
0.0
 11
425.9742828347627
 21
92.09925421955631
 31
0.0
  0
LINE
  5
2FFF
330
1F
100
AcDbEntity
  8
SPOJOVACÍ
  6
Continuous
100
AcDbLine
 10
425.5966314594518
 20
91.88066290752976
 30
0.0
 11
425.9742828347627
 21
91.50301153440159
 31
0.0
  0
LINE
  5
3000
330
1F
100
AcDbEntity
  8
SPOJOVACÍ
  6
Continuous
100
AcDbLine
 10
430.3963385653007
 20
93.08058968426848
 30
0.0
 11
430.0186871943553
 21
93.45824105712017
 31
0.0
  0
LINE
  5
3001
330
1F
100
AcDbEntity
  8
SPOJOVACÍ
  6
Continuous
100
AcDbLine
 10
430.3963385653007
 20
93.08058968426848
 30
0.0
 11
430.0186871943553
 21
92.86199837224193
 31
0.0
  0
LINE
  5
3002
330
1F
100
AcDbEntity
  8
SPOJOVACÍ
  6
Continuous
100
AcDbLine
 10
425.9742828347627
 20
92.09925421955631
 30
0.0
 11
430.0186871943553
 21
93.45824105712017
 31
0.0
  0
LINE
  5
3003
330
1F
100
AcDbEntity
  8
SPOJOVACÍ
  6
Continuous
100
AcDbLine
 10
425.9742828347627
 20
91.50301153440159
 30
0.0
 11
430.0186871943553
 21
92.86199837224193
 31
0.0
  0
LINE
  5
3004
330
1F
100
AcDbEntity
  8
SPOJOVACÍ
  6
Continuous
100
AcDbLine
 10
425.8505694538728
 20
104.3180434729911
 30
0.0
 11
426.2291510021571
 21
104.5366347850176
 31
0.0
  0
LINE
  5
3005
330
1F
100
AcDbEntity
  8
SPOJOVACÍ
  6
Continuous
100
AcDbLine
 10
425.8505694538728
 20
104.3180434729911
 30
0.0
 11
426.2291510021571
 21
103.9403920998629
 31
0.0
  0
LINE
  5
3006
330
1F
100
AcDbEntity
  8
SPOJOVACÍ
  6
Continuous
100
AcDbLine
 10
429.9758991066157
 20
105.2910073552957
 30
0.0
 11
429.5982477356703
 21
105.6695889044021
 31
0.0
  0
LINE
  5
3007
330
1F
100
AcDbEntity
  8
SPOJOVACÍ
  6
Continuous
100
AcDbLine
 10
429.9758991066157
 20
105.2910073552957
 30
0.0
 11
429.5982477356703
 21
105.0733462192474
 31
0.0
  0
LINE
  5
3008
330
1F
100
AcDbEntity
  8
SPOJOVACÍ
  6
Continuous
100
AcDbLine
 10
426.2291510021571
 20
104.5366347850176
 30
0.0
 11
429.5982477356703
 21
105.6695889044021
 31
0.0
  0
LINE
  5
3009
330
1F
100
AcDbEntity
  8
SPOJOVACÍ
  6
Continuous
100
AcDbLine
 10
426.2291510021571
 20
103.9403920998629
 30
0.0
 11
429.5982477356703
 21
105.0733462192474
 31
0.0
  0
LINE
  5
300A
330
1F
100
AcDbEntity
  8
SPOJOVACÍ
  6
Continuous
100
AcDbLine
 10
425.8505694538728
 20
104.3180434729911
 30
0.0
 11
429.9758991066157
 21
105.2910073552957
 31
0.0
  0
LINE
  5
300B
330
1F
100
AcDbEntity
  8
SPOJOVACÍ
  6
Continuous
100
AcDbLine
 10
426.4151861599787
 20
107.332743227289
 30
0.0
 11
426.7928375352896
 21
107.5504043633372
 31
0.0
  0
LINE
  5
300C
330
1F
100
AcDbEntity
  8
SPOJOVACÍ
  6
Continuous
100
AcDbLine
 10
426.4151861599787
 20
107.332743227289
 30
0.0
 11
426.7928375352896
 21
106.9541616781825
 31
0.0
  0
LINE
  5
300D
330
1F
100
AcDbEntity
  8
SPOJOVACÍ
  6
Continuous
100
AcDbLine
 10
429.5312750764098
 20
107.966192944059
 30
0.0
 11
429.1536237054645
 21
108.3447744928889
 31
0.0
  0
LINE
  5
300E
330
1F
100
AcDbEntity
  8
SPOJOVACÍ
  6
Continuous
100
AcDbLine
 10
429.5312750764098
 20
107.966192944059
 30
0.0
 11
429.1536237054645
 21
107.7485318080107
 31
0.0
  0
LINE
  5
300F
330
1F
100
AcDbEntity
  8
SPOJOVACÍ
  6
Continuous
100
AcDbLine
 10
426.7928375352896
 20
107.5504043633372
 30
0.0
 11
429.1536237054645
 21
108.3447744928889
 31
0.0
  0
LINE
  5
3010
330
1F
100
AcDbEntity
  8
SPOJOVACÍ
  6
Continuous
100
AcDbLine
 10
426.7928375352896
 20
106.9541616781825
 30
0.0
 11
429.1536237054645
 21
107.7485318080107
 31
0.0
  0
LINE
  5
3011
330
1F
100
AcDbEntity
  8
SPOJOVACÍ
  6
Continuous
100
AcDbLine
 10
426.4151861599787
 20
107.332743227289
 30
0.0
 11
429.5312750764098
 21
107.966192944059
 31
0.0
  0
LINE
  5
3012
330
1F
100
AcDbEntity
  8
SPOJOVACÍ
  6
Continuous
100
AcDbLine
 10
426.9798028704501
 20
110.3465128056086
 30
0.0
 11
427.3574542413955
 21
110.5651041176279
 31
0.0
  0
LINE
  5
3013
330
1F
100
AcDbEntity
  8
SPOJOVACÍ
  6
Continuous
100
AcDbLine
 10
426.9798028704501
 20
110.3465128056086
 30
0.0
 11
427.3574542413955
 21
109.9688614324804
 31
0.0
  0
LINE
  5
3014
330
1F
100
AcDbEntity
  8
SPOJOVACÍ
  6
Continuous
100
AcDbLine
 10
429.1340900119068
 20
110.6571915213826
 30
0.0
 11
428.7564386409615
 21
111.0357730702125
 31
0.0
  0
LINE
  5
3015
330
1F
100
AcDbEntity
  8
SPOJOVACÍ
  6
Continuous
100
AcDbLine
 10
429.1340900119068
 20
110.6571915213826
 30
0.0
 11
428.7564386409615
 21
110.4395303850651
 31
0.0
  0
LINE
  5
3016
330
1F
100
AcDbEntity
  8
SPOJOVACÍ
  6
Continuous
100
AcDbLine
 10
427.3574542413955
 20
110.5651041176279
 30
0.0
 11
428.7564386409615
 21
111.0357730702125
 31
0.0
  0
LINE
  5
3017
330
1F
100
AcDbEntity
  8
SPOJOVACÍ
  6
Continuous
100
AcDbLine
 10
427.3574542413955
 20
109.9688614324804
 30
0.0
 11
428.7564386409615
 21
110.4395303850651
 31
0.0
  0
LINE
  5
3018
330
1F
100
AcDbEntity
  8
SPOJOVACÍ
  6
Continuous
100
AcDbLine
 10
426.9798028704501
 20
110.3465128056086
 30
0.0
 11
429.1340900119068
 21
110.6571915213826
 31
0.0
  0
LINE
  5
3019
330
1F
100
AcDbEntity
  8
SPOJOVACÍ
  6
Continuous
100
AcDbLine
 10
425.5966314594518
 20
95.00047252676813
 30
0.0
 11
430.3963385653007
 21
96.20039930323038
 31
0.0
  0
LINE
  5
301A
330
1F
100
AcDbEntity
  8
SPOJOVACÍ
  6
Continuous
100
AcDbLine
 10
425.5966314594518
 20
95.00047252676813
 30
0.0
 11
425.9742828347627
 21
95.21906383879468
 31
0.0
  0
LINE
  5
301B
330
1F
100
AcDbEntity
  8
SPOJOVACÍ
  6
Continuous
100
AcDbLine
 10
425.5966314594518
 20
95.00047252676813
 30
0.0
 11
425.9742828347627
 21
94.62282115363995
 31
0.0
  0
LINE
  5
301C
330
1F
100
AcDbEntity
  8
SPOJOVACÍ
  6
Continuous
100
AcDbLine
 10
430.3963385653007
 20
96.20039930323038
 30
0.0
 11
430.0186871943553
 21
96.57898085206035
 31
0.0
  0
LINE
  5
301D
330
1F
100
AcDbEntity
  8
SPOJOVACÍ
  6
Continuous
100
AcDbLine
 10
430.3963385653007
 20
96.20039930323038
 30
0.0
 11
430.0186871943553
 21
95.98273816691289
 31
0.0
  0
LINE
  5
301E
330
1F
100
AcDbEntity
  8
SPOJOVACÍ
  6
Continuous
100
AcDbLine
 10
425.9742828347627
 20
95.21906383879468
 30
0.0
 11
430.0186871943553
 21
96.57898085206035
 31
0.0
  0
LINE
  5
301F
330
1F
100
AcDbEntity
  8
SPOJOVACÍ
  6
Continuous
100
AcDbLine
 10
425.9742828347627
 20
94.62282115363995
 30
0.0
 11
430.0186871943553
 21
95.98273816691289
 31
0.0
  0
LINE
  5
3020
330
1F
100
AcDbEntity
  8
SPOJOVACÍ
  6
Continuous
100
AcDbLine
 10
425.5966314594518
 20
98.12028214573729
 30
0.0
 11
430.3963385653007
 21
99.32020892219952
 31
0.0
  0
LINE
  5
3021
330
1F
100
AcDbEntity
  8
SPOJOVACÍ
  6
Continuous
100
AcDbLine
 10
425.5966314594518
 20
98.12028214573729
 30
0.0
 11
425.9742828347627
 21
98.33887345775657
 31
0.0
  0
LINE
  5
3022
330
1F
100
AcDbEntity
  8
SPOJOVACÍ
  6
Continuous
100
AcDbLine
 10
425.5966314594518
 20
98.12028214573729
 30
0.0
 11
425.9742828347627
 21
97.74263077260911
 31
0.0
  0
LINE
  5
3023
330
1F
100
AcDbEntity
  8
SPOJOVACÍ
  6
Continuous
100
AcDbLine
 10
430.3963385653007
 20
99.32020892219952
 30
0.0
 11
430.0186871943553
 21
99.69879047102949
 31
0.0
  0
LINE
  5
3024
330
1F
100
AcDbEntity
  8
SPOJOVACÍ
  6
Continuous
100
AcDbLine
 10
430.3963385653007
 20
99.32020892219952
 30
0.0
 11
430.0186871943553
 21
99.10254778615126
 31
0.0
  0
LINE
  5
3025
330
1F
100
AcDbEntity
  8
SPOJOVACÍ
  6
Continuous
100
AcDbLine
 10
425.9742828347627
 20
98.33887345775657
 30
0.0
 11
430.0186871943553
 21
99.69879047102949
 31
0.0
  0
LINE
  5
3026
330
1F
100
AcDbEntity
  8
SPOJOVACÍ
  6
Continuous
100
AcDbLine
 10
425.9742828347627
 20
97.74263077260911
 30
0.0
 11
430.0186871943553
 21
99.10254778615126
 31
0.0
  0
LINE
  5
3027
330
1F
100
AcDbEntity
  8
SPOJOVACÍ
  6
Continuous
100
AcDbLine
 10
425.5966314594518
 20
101.2410219406774
 30
0.0
 11
430.3963385653007
 21
102.4409487171396
 31
0.0
  0
LINE
  5
3028
330
1F
100
AcDbEntity
  8
SPOJOVACÍ
  6
Continuous
100
AcDbLine
 10
425.5966314594518
 20
101.2410219406774
 30
0.0
 11
425.9742828347627
 21
101.4586830767257
 31
0.0
  0
LINE
  5
3029
330
1F
100
AcDbEntity
  8
SPOJOVACÍ
  6
Continuous
100
AcDbLine
 10
425.5966314594518
 20
101.2410219406774
 30
0.0
 11
425.9742828347627
 21
100.8624403915709
 31
0.0
  0
LINE
  5
302A
330
1F
100
AcDbEntity
  8
SPOJOVACÍ
  6
Continuous
100
AcDbLine
 10
430.3963385653007
 20
102.4409487171396
 30
0.0
 11
430.0186871943553
 21
102.8186000902678
 31
0.0
  0
LINE
  5
302B
330
1F
100
AcDbEntity
  8
SPOJOVACÍ
  6
Continuous
100
AcDbLine
 10
430.3963385653007
 20
102.4409487171396
 30
0.0
 11
430.0186871943553
 21
102.2223574051131
 31
0.0
  0
LINE
  5
302C
330
1F
100
AcDbEntity
  8
SPOJOVACÍ
  6
Continuous
100
AcDbLine
 10
425.9742828347627
 20
101.4586830767257
 30
0.0
 11
430.0186871943553
 21
102.8186000902678
 31
0.0
  0
LINE
  5
302D
330
1F
100
AcDbEntity
  8
SPOJOVACÍ
  6
Continuous
100
AcDbLine
 10
425.9742828347627
 20
100.8624403915709
 30
0.0
 11
430.0186871943553
 21
102.2223574051131
 31
0.0
  0
LINE
  5
302E
330
1F
100
AcDbEntity
  8
izolace
  6
IZOLACE
 48
1.5
100
AcDbLine
 10
11.94115728223209
 20
115.7178309966066
 30
0.0
 11
529.1752269625251
 21
115.7178309966066
 31
0.0
  0
LINE
  5
302F
330
1F
100
AcDbEntity
  8
STAVBA OBRYS
100
AcDbLine
 10
10.17890316878788
 20
89.96058212361459
 30
0.0
 11
3.388493904182041
 21
89.96058212361459
 31
0.0
  0
LWPOLYLINE
  5
3030
330
1F
100
AcDbEntity
  8
izolace
100
AcDbPolyline
 90
        4
 70
     1
 43
0.0
 10
10.17890316879152
 20
77.96058212361458
 10
4.96085818760207
 20
77.96058212361458
 10
4.96085818760207
 20
89.96058212361459
 10
10.17890316879152
 20
89.96058212361459
  0
LWPOLYLINE
  5
3031
330
1F
100
AcDbEntity
  8
izolace
100
AcDbPolyline
 90
        4
 70
     1
 43
0.0
 10
10.17890316879152
 20
153.1928364083633
 10
4.96085818760207
 20
153.1928364083633
 10
4.96085818760207
 20
141.1928364083632
 10
10.17890316879152
 20
141.1928364083632
  0
HATCH
  5
3032
330
1F
100
AcDbEntity
  8
izolace
100
AcDbHatch
 10
0.0
 20
0.0
 30
0.0
210
0.0
220
0.0
230
1.0
  2
AR-SAND
 70
     0
 71
     0
 91
        2
 92
        7
 72
     0
 73
     1
 93
        4
 10
10.17890316879152
 20
153.1928364083633
 10
4.96085818760207
 20
153.1928364083633
 10
4.96085818760207
 20
141.1928364083632
 10
10.17890316879152
 20
141.1928364083632
 97
        0
 92
        7
 72
     0
 73
     1
 93
        4
 10
10.17890316879152
 20
89.96058212361459
 10
4.96085818760207
 20
89.96058212361459
 10
4.96085818760207
 20
77.96058212361458
 10
10.17890316879515
 20
77.96058212361458
 97
        0
 75
     0
 76
     1
 52
90.0
 41
0.1
 77
     0
 78
     4
 53
127.5
 43
-21827.43147246963
 44
-931.9940389415569
 45
-4.894132373293423
 46
-0.1600031295984043
 79
     6
 49
0.0
 49
-3.8608
 49
0.0
 49
-4.318
 49
0.0
 49
-4.1275
 53
97.49999999999985
 43
-21827.43147246963
 44
-931.9940389415569
 45
-7.168251005683543
 46
4.495232831380026
 79
     6
 49
0.0
 49
-2.082799999999999
 49
0.0
 49
-3.4798
 49
0.0
 49
-1.333499999999999
 53
57.5
 43
-21827.43147246963
 44
-935.1182389415571
 45
-0.0143718467854564
 46
7.909923702414579
 79
     6
 49
0.0
 49
-1.27
 49
0.0
 49
-4.572
 49
0.0
 49
-5.969
 53
47.5
 43
-21827.43147246963
 44
-935.1182389415571
 45
-2.229293232572161
 46
7.635564524722972
 79
     6
 49
0.0
 49
-0.635
 49
0.0
 49
-2.997199999999999
 49
0.0
 49
-3.429
 47
0.4414942775221867
 98
        2
 10
7.526747565251071
 20
148.7075379947427
 10
7.968482358570554
 20
83.3663797039053
  0
LINE
  5
3033
330
1F
100
AcDbEntity
  8
CETRIS
100
AcDbLine
 10
431.0852364028362
 20
141.1928364083641
 30
0.0
 11
431.0852364028362
 21
153.1928364083633
 31
0.0
  0
LINE
  5
3034
330
1F
100
AcDbEntity
  8
CETRIS
100
AcDbLine
 10
436.0852364028362
 20
141.1928364083641
 30
0.0
 11
436.0852364028362
 21
153.1928364083633
 31
0.0
  0
LINE
  5
3035
330
1F
100
AcDbEntity
  8
CETRIS
100
AcDbLine
 10
436.0852364028362
 20
141.1928364083641
 30
0.0
 11
533.8672161729885
 21
141.1928364083632
 31
0.0
  0
LINE
  5
3036
330
1F
100
AcDbEntity
  8
CETRIS
100
AcDbLine
 10
436.0852364028362
 20
153.1928364083642
 30
0.0
 11
536.0773774512892
 21
153.1928364083633
 31
0.0
  0
LWPOLYLINE
  5
3037
330
1F
100
AcDbEntity
  8
izolace
100
AcDbPolyline
 90
        4
 70
     1
 43
0.0
 10
436.0852364028362
 20
153.1928364083633
 10
431.0852364028362
 20
153.1928364083633
 10
431.0852364028362
 20
141.1928364083641
 10
436.0852364028362
 20
141.1928364083632
  0
LINE
  5
3038
330
1F
100
AcDbEntity
  8
SPOJOVACÍ
  6
Continuous
100
AcDbLine
 10
449.101443689495
 20
149.5307343004078
 30
0.0
 11
448.1433626195105
 21
150.7381024833066
 31
0.0
  0
LINE
  5
3039
330
1F
100
AcDbEntity
  8
SPOJOVACÍ
  6
Continuous
100
AcDbLine
 10
449.7144295386426
 20
148.1168670907045
 30
0.0
 11
449.101443689495
 21
149.5307343004078
 31
0.0
  0
LINE
  5
303A
330
1F
100
AcDbEntity
  8
SPOJOVACÍ
  6
Continuous
100
AcDbLine
 10
449.9413924295261
 20
146.5932391372753
 30
0.0
 11
449.7144295386426
 21
148.1168670907045
 31
0.0
  0
LINE
  5
303B
330
1F
100
AcDbEntity
  8
SPOJOVACÍ
  6
Continuous
100
AcDbLine
 10
446.190923624443
 20
153.1928364083633
 30
0.0
 11
446.190923624443
 21
151.9929096316318
 31
0.0
  0
LINE
  5
303C
330
1F
100
AcDbEntity
  8
SPOJOVACÍ
  6
Continuous
100
AcDbLine
 10
456.3912314017109
 20
153.1928364083633
 30
0.0
 11
446.190923624443
 21
153.1928364083633
 31
0.0
  0
LINE
  5
303D
330
1F
100
AcDbEntity
  8
SPOJOVACÍ
  6
Continuous
100
AcDbLine
 10
456.3912314017109
 20
153.1928364083633
 30
0.0
 11
456.3912314017109
 21
151.9929096316318
 31
0.0
  0
LINE
  5
303E
330
1F
100
AcDbEntity
  8
SPOJOVACÍ
  6
Continuous
100
AcDbLine
 10
456.3912314017109
 20
151.9929096316318
 30
0.0
 11
446.190923624443
 21
151.9929096316318
 31
0.0
  0
LINE
  5
303F
330
1F
100
AcDbEntity
  8
SPOJOVACÍ
  6
Continuous
100
AcDbLine
 10
446.9062288106108
 20
151.6561859937483
 30
0.0
 11
446.190923624443
 21
151.9929096316318
 31
0.0
  0
LINE
  5
3040
330
1F
100
AcDbEntity
  8
SPOJOVACÍ
  6
Continuous
100
AcDbLine
 10
448.1433626195105
 20
150.7381024833066
 30
0.0
 11
446.9062288106108
 21
151.6561859937483
 31
0.0
  0
LINE
  5
3041
330
1F
100
AcDbEntity
  8
SPOJOVACÍ
  6
Continuous
100
AcDbLine
 10
452.7068050741839
 20
147.3801678603977
 30
0.0
 11
452.6407625922622
 21
146.5932391372753
 31
0.0
  0
LINE
  5
3042
330
1F
100
AcDbEntity
  8
SPOJOVACÍ
  6
Continuous
100
AcDbLine
 10
453.1346859384832
 20
148.8610077274479
 30
0.0
 11
452.7068050741839
 21
147.3801678603977
 31
0.0
  0
LINE
  5
3043
330
1F
100
AcDbEntity
  8
SPOJOVACÍ
  6
Continuous
100
AcDbLine
 10
453.9309164178014
 20
150.1799970057454
 30
0.0
 11
453.1346859384832
 21
148.8610077274479
 31
0.0
  0
LINE
  5
3044
330
1F
100
AcDbEntity
  8
SPOJOVACÍ
  6
Continuous
100
AcDbLine
 10
455.04154631816
 20
151.2487689951576
 30
0.0
 11
453.9309164178014
 21
150.1799970057454
 31
0.0
  0
LINE
  5
3045
330
1F
100
AcDbEntity
  8
SPOJOVACÍ
  6
Continuous
100
AcDbLine
 10
456.3912314017109
 20
151.9929096316318
 30
0.0
 11
455.04154631816
 21
151.2487689951576
 31
0.0
  0
LINE
  5
3046
330
1F
100
AcDbEntity
  8
SPOJOVACÍ
  6
Continuous
100
AcDbLine
 10
449.9413924295261
 20
146.5932391372753
 30
0.0
 11
449.9413924295261
 21
141.6502849583466
 31
0.0
  0
LINE
  5
3047
330
1F
100
AcDbEntity
  8
SPOJOVACÍ
  6
Continuous
100
AcDbLine
 10
452.6407625922622
 20
146.5932391372753
 30
0.0
 11
452.6407625922622
 21
142.5553460075953
 31
0.0
  0
LINE
  5
3048
330
1F
100
AcDbEntity
  8
SPOJOVACÍ
  6
Continuous
100
AcDbLine
 10
452.6407625922622
 20
141.9600334984188
 30
0.0
 11
452.6407625922622
 21
139.4411174433898
 31
0.0
  0
LINE
  5
3049
330
1F
100
AcDbEntity
  8
SPOJOVACÍ
  6
Continuous
100
AcDbLine
 10
452.6407625922622
 20
138.8374333520751
 30
0.0
 11
452.6407625922622
 21
136.316656945366
 31
0.0
  0
LINE
  5
304A
330
1F
100
AcDbEntity
  8
SPOJOVACÍ
  6
Continuous
100
AcDbLine
 10
452.6407625922622
 20
135.7222746118914
 30
0.0
 11
452.6407625922622
 21
133.1940567990222
 31
0.0
  0
LINE
  5
304B
330
1F
100
AcDbEntity
  8
SPOJOVACÍ
  6
Continuous
100
AcDbLine
 10
449.9413924295261
 20
141.0466008670318
 30
0.0
 11
449.9413924295261
 21
138.5276848120029
 31
0.0
  0
LINE
  5
304C
330
1F
100
AcDbEntity
  8
SPOJOVACÍ
  6
Continuous
100
AcDbLine
 10
449.9413924295261
 20
137.9314421268482
 30
0.0
 11
449.9413924295261
 21
135.403224313979
 31
0.0
  0
LINE
  5
304D
330
1F
100
AcDbEntity
  8
SPOJOVACÍ
  6
Continuous
100
AcDbLine
 10
449.9413924295261
 20
134.8088419805044
 30
0.0
 11
449.9413924295261
 21
132.2880655737953
 31
0.0
  0
LINE
  5
304E
330
1F
100
AcDbEntity
  8
SPOJOVACÍ
  6
Continuous
100
AcDbLine
 10
452.6407625922622
 20
132.5894425317365
 30
0.0
 11
452.6407625922622
 21
130.0714566524093
 31
0.0
  0
LINE
  5
304F
330
1F
100
AcDbEntity
  8
SPOJOVACÍ
  6
Continuous
100
AcDbLine
 10
452.6407625922622
 20
129.4752139672546
 30
0.0
 11
452.6407625922622
 21
128.2278482253659
 31
0.0
  0
LINE
  5
3050
330
1F
100
AcDbEntity
  8
SPOJOVACÍ
  6
Continuous
100
AcDbLine
 10
449.9413924295261
 20
131.6871720098624
 30
0.0
 11
449.9413924295261
 21
129.1682559548335
 31
0.0
  0
LINE
  5
3051
330
1F
100
AcDbEntity
  8
SPOJOVACÍ
  6
Continuous
100
AcDbLine
 10
449.9413924295261
 20
128.5645718632495
 30
0.0
 11
449.9413924295261
 21
128.2278482253659
 31
0.0
  0
LINE
  5
3052
330
1F
100
AcDbEntity
  8
SPOJOVACÍ
  6
Continuous
100
AcDbLine
 10
452.6407625922622
 20
128.2278482253659
 30
0.0
 11
452.4910042895392
 21
127.0307119760091
 31
0.0
  0
LINE
  5
3053
330
1F
100
AcDbEntity
  8
SPOJOVACÍ
  6
Continuous
100
AcDbLine
 10
451.2910775130769
 20
117.4275770604126
 30
0.0
 11
450.936680531948
 21
120.2636830616811
 31
0.0
  0
LINE
  5
3054
330
1F
100
AcDbEntity
  8
SPOJOVACÍ
  6
Continuous
100
AcDbLine
 10
452.4137996970132
 20
126.4102847201556
 30
0.0
 11
452.1235848474937
 21
124.088565934091
 31
0.0
  0
LINE
  5
3055
330
1F
100
AcDbEntity
  8
SPOJOVACÍ
  6
Continuous
100
AcDbLine
 10
452.0445199046555
 20
123.4579067444265
 30
0.0
 11
451.7543050595016
 21
121.1371181340709
 31
0.0
  0
LINE
  5
3056
330
1F
100
AcDbEntity
  8
SPOJOVACÍ
  6
Continuous
100
AcDbLine
 10
451.6771004669756
 20
120.5166908782175
 30
0.0
 11
451.2910775130769
 21
117.4275770604126
 31
0.0
  0
LINE
  5
3057
330
1F
100
AcDbEntity
  8
SPOJOVACÍ
  6
Continuous
100
AcDbLine
 10
450.8650569947242
 20
120.832950648748
 30
0.0
 11
450.5971663664134
 21
122.9779360337324
 31
0.0
  0
LINE
  5
3058
330
1F
100
AcDbEntity
  8
SPOJOVACÍ
  6
Continuous
100
AcDbLine
 10
450.5255428335551
 20
123.5499941481812
 30
0.0
 11
450.2585823782176
 21
125.6866079510346
 31
0.0
  0
LINE
  5
3059
330
1F
100
AcDbEntity
  8
SPOJOVACÍ
  6
Continuous
100
AcDbLine
 10
450.1869588409938
 20
126.2568057140797
 30
0.0
 11
449.9413924295261
 21
128.2278482253659
 31
0.0
  0
LINE
  5
305A
330
1F
100
AcDbEntity
  8
SPOJOVACÍ
  6
Continuous
100
AcDbLine
 10
453.6909310660014
 20
142.39256524341
 30
0.0
 11
448.8912239601525
 21
141.1926384669477
 31
0.0
  0
LINE
  5
305B
330
1F
100
AcDbEntity
  8
SPOJOVACÍ
  6
Continuous
100
AcDbLine
 10
453.6909310660014
 20
142.39256524341
 30
0.0
 11
453.3132796906905
 21
142.1749041073617
 31
0.0
  0
LINE
  5
305C
330
1F
100
AcDbEntity
  8
SPOJOVACÍ
  6
Continuous
100
AcDbLine
 10
453.6909310660014
 20
142.39256524341
 30
0.0
 11
453.3132796906905
 21
142.7711467922399
 31
0.0
  0
LINE
  5
305D
330
1F
100
AcDbEntity
  8
SPOJOVACÍ
  6
Continuous
100
AcDbLine
 10
448.8912239601525
 20
141.1926384669477
 30
0.0
 11
449.2688753310979
 21
140.8149870938195
 31
0.0
  0
LINE
  5
305E
330
1F
100
AcDbEntity
  8
SPOJOVACÍ
  6
Continuous
100
AcDbLine
 10
448.8912239601525
 20
141.1926384669477
 30
0.0
 11
449.2688753310979
 21
141.4112297789743
 31
0.0
  0
LINE
  5
305F
330
1F
100
AcDbEntity
  8
SPOJOVACÍ
  6
Continuous
100
AcDbLine
 10
453.3132796906905
 20
142.1749041073617
 30
0.0
 11
449.2688753310979
 21
140.8149870938195
 31
0.0
  0
LINE
  5
3060
330
1F
100
AcDbEntity
  8
SPOJOVACÍ
  6
Continuous
100
AcDbLine
 10
453.3132796906905
 20
142.7711467922399
 30
0.0
 11
449.2688753310979
 21
141.4112297789743
 31
0.0
  0
LINE
  5
3061
330
1F
100
AcDbEntity
  8
SPOJOVACÍ
  6
Continuous
100
AcDbLine
 10
453.6909310660014
 20
139.2727556244481
 30
0.0
 11
448.8912239601525
 21
138.0728288477093
 31
0.0
  0
LINE
  5
3062
330
1F
100
AcDbEntity
  8
SPOJOVACÍ
  6
Continuous
100
AcDbLine
 10
453.6909310660014
 20
139.2727556244481
 30
0.0
 11
453.3132796906905
 21
139.0541643124215
 31
0.0
  0
LINE
  5
3063
330
1F
100
AcDbEntity
  8
SPOJOVACÍ
  6
Continuous
100
AcDbLine
 10
453.6909310660014
 20
139.2727556244481
 30
0.0
 11
453.3132796906905
 21
139.6504069975762
 31
0.0
  0
LINE
  5
3064
330
1F
100
AcDbEntity
  8
SPOJOVACÍ
  6
Continuous
100
AcDbLine
 10
448.8912239601525
 20
138.0728288477093
 30
0.0
 11
449.2688753310979
 21
137.6951774748577
 31
0.0
  0
LINE
  5
3065
330
1F
100
AcDbEntity
  8
SPOJOVACÍ
  6
Continuous
100
AcDbLine
 10
448.8912239601525
 20
138.0728288477093
 30
0.0
 11
449.2688753310979
 21
138.2914201597359
 31
0.0
  0
LINE
  5
3066
330
1F
100
AcDbEntity
  8
SPOJOVACÍ
  6
Continuous
100
AcDbLine
 10
453.3132796906905
 20
139.0541643124215
 30
0.0
 11
449.2688753310979
 21
137.6951774748577
 31
0.0
  0
LINE
  5
3067
330
1F
100
AcDbEntity
  8
SPOJOVACÍ
  6
Continuous
100
AcDbLine
 10
453.3132796906905
 20
139.6504069975762
 30
0.0
 11
449.2688753310979
 21
138.2914201597359
 31
0.0
  0
LINE
  5
3068
330
1F
100
AcDbEntity
  8
SPOJOVACÍ
  6
Continuous
100
AcDbLine
 10
453.4369930715804
 20
126.8353750589867
 30
0.0
 11
453.0584115232962
 21
126.6167837469602
 31
0.0
  0
LINE
  5
3069
330
1F
100
AcDbEntity
  8
SPOJOVACÍ
  6
Continuous
100
AcDbLine
 10
453.4369930715804
 20
126.8353750589867
 30
0.0
 11
453.0584115232962
 21
127.2130264321149
 31
0.0
  0
LINE
  5
306A
330
1F
100
AcDbEntity
  8
SPOJOVACÍ
  6
Continuous
100
AcDbLine
 10
449.3116634188375
 20
125.8624111766821
 30
0.0
 11
449.6893147897829
 21
125.4838296275756
 31
0.0
  0
LINE
  5
306B
330
1F
100
AcDbEntity
  8
SPOJOVACÍ
  6
Continuous
100
AcDbLine
 10
449.3116634188375
 20
125.8624111766821
 30
0.0
 11
449.6893147897829
 21
126.0800723127304
 31
0.0
  0
LINE
  5
306C
330
1F
100
AcDbEntity
  8
SPOJOVACÍ
  6
Continuous
100
AcDbLine
 10
453.0584115232962
 20
126.6167837469602
 30
0.0
 11
449.6893147897829
 21
125.4838296275756
 31
0.0
  0
LINE
  5
306D
330
1F
100
AcDbEntity
  8
SPOJOVACÍ
  6
Continuous
100
AcDbLine
 10
453.0584115232962
 20
127.2130264321149
 30
0.0
 11
449.6893147897829
 21
126.0800723127304
 31
0.0
  0
LINE
  5
306E
330
1F
100
AcDbEntity
  8
SPOJOVACÍ
  6
Continuous
100
AcDbLine
 10
453.4369930715804
 20
126.8353750589867
 30
0.0
 11
449.3116634188375
 21
125.8624111766821
 31
0.0
  0
LINE
  5
306F
330
1F
100
AcDbEntity
  8
SPOJOVACÍ
  6
Continuous
100
AcDbLine
 10
452.8723763654745
 20
123.8206753046888
 30
0.0
 11
452.4947249901636
 21
123.6030141686405
 31
0.0
  0
LINE
  5
3070
330
1F
100
AcDbEntity
  8
SPOJOVACÍ
  6
Continuous
100
AcDbLine
 10
452.8723763654745
 20
123.8206753046888
 30
0.0
 11
452.4947249901636
 21
124.1992568537953
 31
0.0
  0
LINE
  5
3071
330
1F
100
AcDbEntity
  8
SPOJOVACÍ
  6
Continuous
100
AcDbLine
 10
449.7562874490434
 20
123.1872255879188
 30
0.0
 11
450.1339388199887
 21
122.8086440390889
 31
0.0
  0
LINE
  5
3072
330
1F
100
AcDbEntity
  8
SPOJOVACÍ
  6
Continuous
100
AcDbLine
 10
449.7562874490434
 20
123.1872255879188
 30
0.0
 11
450.1339388199887
 21
123.4048867239671
 31
0.0
  0
LINE
  5
3073
330
1F
100
AcDbEntity
  8
SPOJOVACÍ
  6
Continuous
100
AcDbLine
 10
452.4947249901636
 20
123.6030141686405
 30
0.0
 11
450.1339388199887
 21
122.8086440390889
 31
0.0
  0
LINE
  5
3074
330
1F
100
AcDbEntity
  8
SPOJOVACÍ
  6
Continuous
100
AcDbLine
 10
452.4947249901636
 20
124.1992568537953
 30
0.0
 11
450.1339388199887
 21
123.4048867239671
 31
0.0
  0
LINE
  5
3075
330
1F
100
AcDbEntity
  8
SPOJOVACÍ
  6
Continuous
100
AcDbLine
 10
452.8723763654745
 20
123.8206753046888
 30
0.0
 11
449.7562874490434
 21
123.1872255879188
 31
0.0
  0
LINE
  5
3076
330
1F
100
AcDbEntity
  8
SPOJOVACÍ
  6
Continuous
100
AcDbLine
 10
452.3077596550031
 20
120.8069057263692
 30
0.0
 11
451.9301082840577
 21
120.5883144143499
 31
0.0
  0
LINE
  5
3077
330
1F
100
AcDbEntity
  8
SPOJOVACÍ
  6
Continuous
100
AcDbLine
 10
452.3077596550031
 20
120.8069057263692
 30
0.0
 11
451.9301082840577
 21
121.1845570994974
 31
0.0
  0
LINE
  5
3078
330
1F
100
AcDbEntity
  8
SPOJOVACÍ
  6
Continuous
100
AcDbLine
 10
450.1534725135464
 20
120.4962270105952
 30
0.0
 11
450.5311238844917
 21
120.1176454617652
 31
0.0
  0
LINE
  5
3079
330
1F
100
AcDbEntity
  8
SPOJOVACÍ
  6
Continuous
100
AcDbLine
 10
450.1534725135464
 20
120.4962270105952
 30
0.0
 11
450.5311238844917
 21
120.7138881469127
 31
0.0
  0
LINE
  5
307A
330
1F
100
AcDbEntity
  8
SPOJOVACÍ
  6
Continuous
100
AcDbLine
 10
451.9301082840577
 20
120.5883144143499
 30
0.0
 11
450.5311238844917
 21
120.1176454617652
 31
0.0
  0
LINE
  5
307B
330
1F
100
AcDbEntity
  8
SPOJOVACÍ
  6
Continuous
100
AcDbLine
 10
451.9301082840577
 20
121.1845570994974
 30
0.0
 11
450.5311238844917
 21
120.7138881469127
 31
0.0
  0
LINE
  5
307C
330
1F
100
AcDbEntity
  8
SPOJOVACÍ
  6
Continuous
100
AcDbLine
 10
452.3077596550031
 20
120.8069057263692
 30
0.0
 11
450.1534725135464
 21
120.4962270105952
 31
0.0
  0
LINE
  5
307D
330
1F
100
AcDbEntity
  8
SPOJOVACÍ
  6
Continuous
100
AcDbLine
 10
453.6909310660014
 20
136.1529460052097
 30
0.0
 11
448.8912239601525
 21
134.9530192287475
 31
0.0
  0
LINE
  5
307E
330
1F
100
AcDbEntity
  8
SPOJOVACÍ
  6
Continuous
100
AcDbLine
 10
453.6909310660014
 20
136.1529460052097
 30
0.0
 11
453.3132796906905
 21
135.9343546931832
 31
0.0
  0
LINE
  5
307F
330
1F
100
AcDbEntity
  8
SPOJOVACÍ
  6
Continuous
100
AcDbLine
 10
453.6909310660014
 20
136.1529460052097
 30
0.0
 11
453.3132796906905
 21
136.5305973783379
 31
0.0
  0
LINE
  5
3080
330
1F
100
AcDbEntity
  8
SPOJOVACÍ
  6
Continuous
100
AcDbLine
 10
448.8912239601525
 20
134.9530192287475
 30
0.0
 11
449.2688753310979
 21
134.5744376799175
 31
0.0
  0
LINE
  5
3081
330
1F
100
AcDbEntity
  8
SPOJOVACÍ
  6
Continuous
100
AcDbLine
 10
448.8912239601525
 20
134.9530192287475
 30
0.0
 11
449.2688753310979
 21
135.1706803650649
 31
0.0
  0
LINE
  5
3082
330
1F
100
AcDbEntity
  8
SPOJOVACÍ
  6
Continuous
100
AcDbLine
 10
453.3132796906905
 20
135.9343546931832
 30
0.0
 11
449.2688753310979
 21
134.5744376799175
 31
0.0
  0
LINE
  5
3083
330
1F
100
AcDbEntity
  8
SPOJOVACÍ
  6
Continuous
100
AcDbLine
 10
453.3132796906905
 20
136.5305973783379
 30
0.0
 11
449.2688753310979
 21
135.1706803650649
 31
0.0
  0
LINE
  5
3084
330
1F
100
AcDbEntity
  8
SPOJOVACÍ
  6
Continuous
100
AcDbLine
 10
453.6909310660014
 20
133.0331363862405
 30
0.0
 11
448.8912239601525
 21
131.8332096097783
 31
0.0
  0
LINE
  5
3085
330
1F
100
AcDbEntity
  8
SPOJOVACÍ
  6
Continuous
100
AcDbLine
 10
453.6909310660014
 20
133.0331363862405
 30
0.0
 11
453.3132796906905
 21
132.8145450742213
 31
0.0
  0
LINE
  5
3086
330
1F
100
AcDbEntity
  8
SPOJOVACÍ
  6
Continuous
100
AcDbLine
 10
453.6909310660014
 20
133.0331363862405
 30
0.0
 11
453.3132796906905
 21
133.4107877593687
 31
0.0
  0
LINE
  5
3087
330
1F
100
AcDbEntity
  8
SPOJOVACÍ
  6
Continuous
100
AcDbLine
 10
448.8912239601525
 20
131.8332096097783
 30
0.0
 11
449.2688753310979
 21
131.4546280609483
 31
0.0
  0
LINE
  5
3088
330
1F
100
AcDbEntity
  8
SPOJOVACÍ
  6
Continuous
100
AcDbLine
 10
448.8912239601525
 20
131.8332096097783
 30
0.0
 11
449.2688753310979
 21
132.0508707458266
 31
0.0
  0
LINE
  5
3089
330
1F
100
AcDbEntity
  8
SPOJOVACÍ
  6
Continuous
100
AcDbLine
 10
453.3132796906905
 20
132.8145450742213
 30
0.0
 11
449.2688753310979
 21
131.4546280609483
 31
0.0
  0
LINE
  5
308A
330
1F
100
AcDbEntity
  8
SPOJOVACÍ
  6
Continuous
100
AcDbLine
 10
453.3132796906905
 20
133.4107877593687
 30
0.0
 11
449.2688753310979
 21
132.0508707458266
 31
0.0
  0
LINE
  5
308B
330
1F
100
AcDbEntity
  8
SPOJOVACÍ
  6
Continuous
100
AcDbLine
 10
453.6909310660014
 20
129.9123965913004
 30
0.0
 11
448.8912239601525
 21
128.7124698148381
 31
0.0
  0
LINE
  5
308C
330
1F
100
AcDbEntity
  8
SPOJOVACÍ
  6
Continuous
100
AcDbLine
 10
453.6909310660014
 20
129.9123965913004
 30
0.0
 11
453.3132796906905
 21
129.6947354552521
 31
0.0
  0
LINE
  5
308D
330
1F
100
AcDbEntity
  8
SPOJOVACÍ
  6
Continuous
100
AcDbLine
 10
453.6909310660014
 20
129.9123965913004
 30
0.0
 11
453.3132796906905
 21
130.2909781404068
 31
0.0
  0
LINE
  5
308E
330
1F
100
AcDbEntity
  8
SPOJOVACÍ
  6
Continuous
100
AcDbLine
 10
448.8912239601525
 20
128.7124698148381
 30
0.0
 11
449.2688753310979
 21
128.33481844171
 31
0.0
  0
LINE
  5
308F
330
1F
100
AcDbEntity
  8
SPOJOVACÍ
  6
Continuous
100
AcDbLine
 10
448.8912239601525
 20
128.7124698148381
 30
0.0
 11
449.2688753310979
 21
128.9310611268647
 31
0.0
  0
LINE
  5
3090
330
1F
100
AcDbEntity
  8
SPOJOVACÍ
  6
Continuous
100
AcDbLine
 10
453.3132796906905
 20
129.6947354552521
 30
0.0
 11
449.2688753310979
 21
128.33481844171
 31
0.0
  0
LINE
  5
3091
330
1F
100
AcDbEntity
  8
SPOJOVACÍ
  6
Continuous
100
AcDbLine
 10
453.3132796906905
 20
130.2909781404068
 30
0.0
 11
449.2688753310979
 21
128.9310611268647
 31
0.0
  0
HATCH
  5
3092
330
1F
100
AcDbEntity
  8
CETRIS
100
AcDbHatch
 10
0.0
 20
0.0
 30
0.0
210
0.0
220
0.0
230
1.0
  2
ANSI31
 70
     0
 71
     0
 91
        8
 92
        7
 72
     0
 73
     1
 93
       23
 10
414.5297102134065
 20
146.5932391372825
 10
414.4636677314922
 20
147.3801678603977
 10
414.0357868671928
 20
148.861007727457
 10
413.2395563878674
 20
150.1799970057491
 10
412.128926487516
 20
151.2487689951549
 10
410.7792414039615
 20
151.9929096316309
 10
410.7792414039615
 20
153.1928364083642
 10
45.72981920569896
 20
153.1928364083633
 10
45.72981920570259
 20
151.9929096316336
 10
45.01451401953477
 20
151.6561859937483
 10
43.77738021063874
 20
150.7381024833093
 10
42.81929914065426
 20
149.5307343004124
 10
42.2063132915066
 20
148.1168670907027
 10
41.97935040061952
 20
146.5932391373044
 10
41.97935040061952
 20
141.6373613332289
 10
42.6518674990441
 20
141.4112297789724
 10
43.02917689461196
 20
141.1928364083632
 10
414.5297102134065
 20
141.1928364083641
 10
414.5297102134138
 20
141.9487725530616
 10
413.857193114971
 20
142.1749041073653
 10
413.4795417396746
 20
142.39256524341
 10
413.857193114982
 20
142.7711467922399
 10
414.5297102134065
 20
142.5450152379862
 97
        0
 92
        7
 72
     0
 73
     1
 93
       12
 10
431.0852364028362
 20
153.1928364083642
 10
420.9795491812294
 20
153.1928364083633
 10
420.9795491812294
 20
151.9929096316309
 10
420.2642439950616
 20
151.6561859937501
 10
419.0271101861656
 20
150.7381024833112
 10
418.0690291161811
 20
149.530734300406
 10
417.4560432670298
 20
148.1168670906972
 10
417.2290803761463
 20
146.5932391372634
 10
417.2290803761463
 20
141.637361333227
 10
417.9015974745746
 20
141.4112297789743
 10
418.2789068701388
 20
141.1928364083641
 10
431.0852364028362
 20
141.1928364083632
 97
        0
 92
        7
 72
     0
 73
     1
 93
       12
 10
449.7144295386463
 20
148.1168670907036
 10
449.1014436894986
 20
149.5307343004023
 10
448.1433626195105
 20
150.738102483312
 10
446.9062288106036
 20
151.656185993751
 10
446.1909236244394
 20
151.9929096316336
 10
446.1909236244467
 20
153.1928364083633
 10
436.0852364028398
 20
153.1928364083642
 10
436.0852364028326
 20
141.1928364083641
 10
448.8915659355336
 20
141.1928364083632
 10
449.2688753310869
 20
141.4112297789715
 10
449.9413924295261
 20
141.6373613332289
 10
449.9413924295261
 20
146.5932391372671
 97
        0
 92
        7
 72
     0
 73
     1
 93
       15
 10
536.0773774512892
 20
153.1928364083633
 10
456.3912314017109
 20
153.1928364083633
 10
456.3912314017109
 20
151.99290963163
 10
455.04154631816
 20
151.248768995154
 10
453.930916417805
 20
150.179997005739
 10
453.1346859384832
 20
148.8610077274461
 10
452.7068050741802
 20
147.3801678603722
 10
452.6407625922586
 20
146.5932391372634
 10
452.6407625922622
 20
142.5450152379871
 10
453.3132796906868
 20
142.7711467922399
 10
453.6909310660051
 20
142.3925652434127
 10
453.3132796906868
 20
142.1749041073599
 10
452.6407625922622
 20
141.9487725530616
 10
452.6407625922622
 20
141.1928364083641
 10
533.8672161729885
 20
141.1928364083632
 97
        0
 92
        7
 72
     0
 73
     1
 93
       12
 10
524.4312541213077
 20
89.96058212361459
 10
430.3959965899196
 20
89.96058212361459
 10
430.0186871943553
 20
89.74218875300175
 10
429.3461700959271
 20
89.51605719874715
 10
429.3461700959235
 20
84.5601793947244
 10
429.5731329868033
 20
83.03655144126697
 10
430.1861188359546
 20
81.62268423157366
 10
431.1441999059391
 20
80.41531604867396
 10
432.3813337148387
 20
79.49723253822503
 10
433.0966389010102
 20
79.16050890034239
 10
433.0966389010102
 20
77.96058212361458
 10
522.2210928430106
 20
77.96058212361458
 97
        0
 92
        7
 72
     0
 73
     1
 93
       23
 10
426.646799933191
 20
88.6084032939898
 10
425.9742828347627
 20
88.38227173973791
 10
425.5966314594518
 20
88.76085328856607
 10
425.9742828347664
 20
88.97851442461979
 10
426.646799933191
 20
89.20464597891713
 10
426.6467999331946
 20
89.96058212361459
 10
43.02917689461196
 20
89.96058212361459
 10
42.65186749905502
 20
89.74218875300449
 10
41.97935040061952
 20
89.51605719874988
 10
41.97935040061952
 20
84.56017939466164
 10
42.2063132915066
 20
83.03655144126242
 10
42.81929914064699
 20
81.62268423157001
 10
43.77738021063146
 20
80.41531604867486
 10
45.01451401952749
 20
79.49723253822958
 10
45.72981920570259
 20
79.16050890034512
 10
45.72981920570259
 20
77.96058212361458
 10
422.8963311237423
 20
77.96058212361458
 10
422.896331123746
 20
79.16050890034694
 10
424.2460162073005
 20
79.90464953682021
 10
425.3566461076518
 20
80.97342152623241
 10
426.1528765869663
 20
82.29241080452267
 10
426.5807574512657
 20
83.7732506715729
 10
426.6467999331873
 20
84.56017939466438
 97
        0
 92
        7
 72
     0
 73
     1
 93
       15
 10
39.27998023788336
 20
88.60840329399071
 10
38.60746313945151
 20
88.38227173973791
 10
38.22981176414419
 20
88.76085328856607
 10
38.60746313946242
 20
88.97851442461705
 10
39.27998023788336
 20
89.20464597891442
 10
39.27998023788336
 20
89.96058212361459
 10
10.17890316879152
 20
89.96058212361459
 10
10.17890316879152
 20
77.96058212361458
 10
35.52951142843835
 20
77.96058212361458
 10
35.52951142843471
 20
79.16050890034603
 10
36.8791965119783
 20
79.9046495368184
 10
37.9898264123442
 20
80.9734215262306
 10
38.78605689165146
 20
82.29241080451902
 10
39.21393775596175
 20
83.77325067157654
 10
39.27998023788336
 20
84.56017939478261
 97
        0
 92
        7
 72
     0
 73
     1
 93
       15
 10
39.27998023788336
 20
146.5932391372589
 10
39.21393775596539
 20
147.3801678604058
 10
38.78605689165874
 20
148.8610077274588
 10
37.98982641234056
 20
150.1799970057482
 10
36.87919651198558
 20
151.2487689951613
 10
35.52951142843471
 20
151.9929096316327
 10
35.52951142843471
 20
153.1928364083633
 10
10.17890316879152
 20
153.1928364083633
 10
10.17890316879152
 20
141.1928364083632
 10
39.279980237887
 20
141.1928364083641
 10
39.27998023787973
 20
141.9487725530634
 10
38.60746313945515
 20
142.1749041073653
 10
38.22981176414419
 20
142.3925652434081
 10
38.60746313945515
 20
142.7711467922417
 10
39.27998023788336
 20
142.545015237988
 97
        0
 75
     0
 76
     1
 52
90.0
 41
1.0
 77
     0
 78
     1
 53
135.0
 43
-21827.43147246963
 44
-931.9940389415569
 45
-2.245064030267288
 46
-2.245064030267287
 79
     0
 47
0.7084555761931278
 98
        8
 10
378.7664237198916
 20
145.537213476764
 10
419.8792807479696
 20
146.9541184933068
 10
439.0180212764865
 20
146.9541184933068
 10
468.7894098773979
 20
145.537213476764
 10
466.6628778991219
 20
86.02693981724769
 10
395.0698000963677
 20
86.02693981724769
 10
25.05407502471666
 20
85.31848365668793
 10
30.01597115503341
 20
146.2456696373237
  0
HATCH
  5
3093
330
1F
100
AcDbEntity
  8
izolace
100
AcDbHatch
 10
0.0
 20
0.0
 30
0.0
210
0.0
220
0.0
230
1.0
  2
AR-SAND
 70
     0
 71
     0
 91
        1
 92
        7
 72
     0
 73
     1
 93
        4
 10
436.0852364028362
 20
153.1928364083633
 10
431.0852364028362
 20
153.1928364083633
 10
431.0852364028362
 20
141.1928364083641
 10
436.0852364028362
 20
141.1928364083632
 97
        0
 75
     0
 76
     1
 52
90.0
 41
0.1
 77
     0
 78
     4
 53
127.5
 43
-21827.43147246963
 44
-931.9940389415569
 45
-4.894132373293423
 46
-0.1600031295984043
 79
     6
 49
0.0
 49
-3.8608
 49
0.0
 49
-4.318
 49
0.0
 49
-4.1275
 53
97.49999999999985
 43
-21827.43147246963
 44
-931.9940389415569
 45
-7.168251005683543
 46
4.495232831380026
 79
     6
 49
0.0
 49
-2.082799999999999
 49
0.0
 49
-3.4798
 49
0.0
 49
-1.333499999999999
 53
57.5
 43
-21827.43147246963
 44
-935.1182389415571
 45
-0.0143718467854564
 46
7.909923702414579
 79
     6
 49
0.0
 49
-1.27
 49
0.0
 49
-4.572
 49
0.0
 49
-5.969
 53
47.5
 43
-21827.43147246963
 44
-935.1182389415571
 45
-2.229293232572161
 46
7.635564524722972
 79
     6
 49
0.0
 49
-0.635
 49
0.0
 49
-2.997199999999999
 49
0.0
 49
-3.429
 47
0.2359071171925059
 98
        1
 10
433.1093885000302
 20
147.0263023075794
  0
TEXT
  5
3094
330
1F
100
AcDbEntity
  8
POPIS
100
AcDbText
 10
752.2596267099872
 20
12.20952045258218
 30
0.0
 40
25.0
  1
Přikotvení - vrut
 41
0.7
  7
SIMPLEX7
100
AcDbText
  0
TEXT
  5
3095
330
1F
100
AcDbEntity
  8
POPIS
100
AcDbText
 10
697.915923550245
 20
12.20952045258218
 30
0.0
 40
25.0
  1
06
 41
0.85
  7
SIMPLEX7
100
AcDbText
  0
CIRCLE
  5
3096
330
1F
100
AcDbEntity
  8
POPIS
100
AcDbCircle
 10
924.6448410042141
 20
219.0397514107489
 30
0.0
 40
11.13656048292026
  0
TEXT
  5
3097
330
1F
100
AcDbEntity
  8
POPIS
100
AcDbText
 10
919.8858119490326
 20
213.4944056657614
 30
0.0
 40
12.0
  1
R
 41
0.85
  7
SIMPLEX7
100
AcDbText
  0
TEXT
  5
3098
330
1F
100
AcDbEntity
  8
POPIS
100
AcDbText
 10
697.915923550245
 20
46.46291299178028
 30
0.0
 40
25.0
  1
05
 41
0.85
  7
SIMPLEX7
100
AcDbText
  0
TEXT
  5
3099
330
1F
100
AcDbEntity
  8
POPIS
100
AcDbText
 10
752.2596267099872
 20
46.46291299178028
 30
0.0
 40
25.0
  1
Trvale pružný tmel
 41
0.7
  7
SIMPLEX7
100
AcDbText
  0
TEXT
  5
309A
330
1F
100
AcDbEntity
  8
POPIS
100
AcDbText
 10
752.2596267099872
 20
82.56973447896871
 30
0.0
 40
25.0
  1
Tepelná izolace
 41
0.7
  7
SIMPLEX7
100
AcDbText
  0
TEXT
  5
309B
330
1F
100
AcDbEntity
  8
POPIS
100
AcDbText
 10
697.915923550245
 20
82.56973447896871
 30
0.0
 40
25.0
  1
04
 41
0.85
  7
SIMPLEX7
100
AcDbText
  0
TEXT
  5
309C
330
1F
100
AcDbEntity
  8
POPIS
100
AcDbText
 10
752.2596267099872
 20
117.9738956971314
 30
0.0
 40
25.0
  1
CW profil (ocelový nosník I, U) - stojina
 41
0.7
  7
SIMPLEX7
100
AcDbText
  0
TEXT
  5
309D
330
1F
100
AcDbEntity
  8
POPIS
100
AcDbText
 10
697.915923550245
 20
117.9738956971314
 30
0.0
 40
25.0
  1
03
 41
0.85
  7
SIMPLEX7
100
AcDbText
  0
TEXT
  5
309E
330
1F
100
AcDbEntity
  8
POPIS
100
AcDbText
 10
752.2596267099872
 20
151.9240839418535
 30
0.0
 40
25.0
  1
Vrut Bűhnen 4,2x35 (45,55) mm
 41
0.7
  7
SIMPLEX7
100
AcDbText
  0
TEXT
  5
309F
330
1F
100
AcDbEntity
  8
POPIS
100
AcDbText
 10
697.915923550245
 20
151.9240839418535
 30
0.0
 40
25.0
  1
02
 41
0.85
  7
SIMPLEX7
100
AcDbText
  0
TEXT
  5
30A0
330
1F
100
AcDbEntity
  8
POPIS
100
AcDbText
 10
752.2596267099872
 20
188.5190955574808
 30
0.0
 40
25.0
  1
Deska CETRIS   
 41
0.7
  7
SIMPLEX7
100
AcDbText
  0
TEXT
  5
30A1
330
1F
100
AcDbEntity
  8
POPIS
100
AcDbText
 10
697.915923550245
 20
188.5190955574808
 30
0.0
 40
25.0
  1
01
 41
0.85
  7
SIMPLEX7
100
AcDbText
  0
INSERT
  5
30A2
330
1F
100
AcDbEntity
  8
POPIS
100
AcDbBlockReference
  2
E_PUNKT
 10
228.4176813989399
 20
153.1637680774911
 30
0.0
  0
TEXT
  5
30A3
330
1F
100
AcDbEntity
  8
POPIS
100
AcDbText
 10
398.3180699272563
 20
217.554562878623
 30
0.0
 40
25.0
  1
02
 41
0.85
  7
SIMPLEX7
100
AcDbText
  0
INSERT
  5
30A4
330
1F
100
AcDbEntity
  8
POPIS
100
AcDbBlockReference
  2
E_PUNKT
 10
415.9469070400811
 20
153.1637680774911
 30
0.0
  0
LINE
  5
30A5
330
1F
100
AcDbEntity
  8
POPIS
100
AcDbLine
 10
415.9745174157071
 20
153.1928364083633
 30
0.0
 11
415.9745174157071
 21
212.8534997420993
 31
0.0
  0
LINE
  5
30A6
330
1F
100
AcDbEntity
  8
POPIS
100
AcDbLine
 10
228.5404138976812
 20
153.1928364083669
 30
0.0
 11
228.5404138976812
 21
212.8534997421029
 31
0.0
  0
TEXT
  5
30A7
330
1F
100
AcDbEntity
  8
POPIS
100
AcDbText
 10
210.8839664092304
 20
217.5545628786258
 30
0.0
 40
25.0
  1
01
 41
0.85
  7
SIMPLEX7
100
AcDbText
  0
LINE
  5
30A8
330
1F
100
AcDbEntity
  8
POPIS
100
AcDbLine
 10
498.9148549512758
 20
115.7178309966066
 30
0.0
 11
498.9148549512758
 21
212.8534997420993
 31
0.0
  0
TEXT
  5
30A9
330
1F
100
AcDbEntity
  8
POPIS
100
AcDbText
 10
481.258407462825
 20
217.554562878623
 30
0.0
 40
25.0
  1
04
 41
0.85
  7
SIMPLEX7
100
AcDbText
  0
INSERT
  5
30AA
330
1F
100
AcDbEntity
  8
POPIS
100
AcDbBlockReference
  2
E_PUNKT
 10
498.8872445756499
 20
115.6887626657335
 30
0.0
  0
TEXT
  5
30AB
330
1F
100
AcDbEntity
  8
POPIS
100
AcDbText
 10
36.60971783912486
 20
217.554562878623
 30
0.0
 40
25.0
  1
05
 41
0.85
  7
SIMPLEX7
100
AcDbText
  0
LINE
  5
30AC
330
1F
100
AcDbEntity
  8
POPIS
100
AcDbLine
 10
7.847356772261491
 20
149.366313189138
 30
0.0
 11
54.26616532757567
 21
212.8534997420993
 31
0.0
  0
LINE
  5
30AD
330
1F
100
AcDbEntity
  8
POPIS
100
AcDbLine
 10
55.78917138109705
 20
139.8790365825188
 30
0.0
 11
109.1446249576331
 21
212.8534997420993
 31
0.0
  0
TEXT
  5
30AE
330
1F
100
AcDbEntity
  8
POPIS
100
AcDbText
 10
91.48817746918235
 20
217.554562878623
 30
0.0
 40
25.0
  1
03
 41
0.85
  7
SIMPLEX7
100
AcDbText
  0
INSERT
  5
30AF
330
1F
100
AcDbEntity
  8
POPIS
100
AcDbBlockReference
  2
E_PUNKT
 10
7.819746396635537
 20
149.3372448582658
 30
0.0
  0
INSERT
  5
30B0
330
1F
100
AcDbEntity
  8
POPIS
100
AcDbBlockReference
  2
E_PUNKT
 10
55.13741013006461
 20
138.8985325138119
 30
0.0
  0
LINE
  5
30B1
330
1F
100
AcDbEntity
  8
POPIS
100
AcDbLine
 10
-26.32217859205388
 20
115.9328886308057
 30
0.0
 11
44.85603824024678
 21
18.58216225111436
 31
0.0
  0
TEXT
  5
30B2
330
1F
100
AcDbEntity
  8
POPIS
100
AcDbText
 10
23.29824839278103
 20
-12.26187932731863
 30
0.0
 40
25.0
  1
06
 41
0.85
  7
SIMPLEX7
100
AcDbText
  0
TEXT
  5
30B3
330
1F
100
AcDbEntity
  8
POPIS
100
AcDbText
 10
-102.3914333059471
 20
455.7701076169723
 30
0.0
 40
35.0
  1
PŮDORYS
 41
0.85
  7
SIMPLEX7
100
AcDbText
  0
TEXT
  5
30B4
330
1F
100
AcDbEntity
  8
POPIS
100
AcDbText
 10
-102.3914333059471
 20
510.3948506427732
 30
0.0
 40
50.0
  1
Napojení příčky na příčku
 41
0.85
  7
SIMPLEX7
100
AcDbText
  0
TEXT
  5
30B5
330
1F
100
AcDbEntity
  8
POPIS
100
AcDbText
 10
69.53933053240712
 20
-12.26187932731773
 30
0.0
 40
25.0
  1
07
 41
0.85
  7
SIMPLEX7
100
AcDbText
  0
LINE
  5
30B6
330
1F
100
AcDbEntity
  8
POPIS
100
AcDbLine
 10
6.693584162491106
 20
100.087890138011
 30
0.0
 11
68.05808420350899
 21
18.58216225111527
 31
0.0
  0
INSERT
  5
30B7
330
1F
100
AcDbEntity
  8
POPIS
100
AcDbBlockReference
  2
E_PUNKT
 10
6.665973786865151
 20
100.0588218071388
 30
0.0
  0
TEXT
  5
30B8
330
1F
100
AcDbEntity
  8
POPIS
100
AcDbText
 10
752.2596267099872
 20
-20.9556779112172
 30
0.0
 40
25.0
  1
Těsnící podložka
 41
0.7
  7
SIMPLEX7
100
AcDbText
  0
TEXT
  5
30B9
330
1F
100
AcDbEntity
  8
POPIS
100
AcDbText
 10
697.915923550245
 20
-20.9556779112172
 30
0.0
 40
25.0
  1
07
 41
0.85
  7
SIMPLEX7
100
AcDbText
  0
ENDSEC
  0
SECTION
  2
OBJECTS
  0
DICTIONARY
  5
C
330
0
100
AcDbDictionary
281
     1
  3
ACAD_GROUP
350
D
  3
ACAD_LAYOUT
350
1A
  3
ACAD_MLINESTYLE
350
17
  3
ACAD_PLOTSETTINGS
350
19
  3
ACAD_PLOTSTYLENAME
350
E
  0
DICTIONARY
  5
D
102
{ACAD_REACTORS
330
C
102
}
330
C
100
AcDbDictionary
281
     1
  0
DICTIONARY
  5
1A
102
{ACAD_REACTORS
330
C
102
}
330
C
100
AcDbDictionary
281
     1
  3
Model
350
22
  3
Rozvržení1
350
1E
  3
Rozvržení2
350
26
  0
DICTIONARY
  5
17
102
{ACAD_REACTORS
330
C
102
}
330
C
100
AcDbDictionary
281
     1
  3
Standard
350
18
  0
DICTIONARY
  5
19
102
{ACAD_REACTORS
330
C
102
}
330
C
100
AcDbDictionary
281
     1
  0
ACDBDICTIONARYWDFLT
  5
E
102
{ACAD_REACTORS
330
C
102
}
330
C
100
AcDbDictionary
281
     1
  3
Normal
350
F
100
AcDbDictionaryWithDefault
340
F
  0
LAYOUT
  5
22
102
{ACAD_REACTORS
330
1A
102
}
330
1A
100
AcDbPlotSettings
  1

  2
HP DeskJet 690C
  4

  6

 40
0.0
 41
0.0
 42
0.0
 43
0.0
 44
0.0
 45
0.0
 46
0.0
 47
0.0
 48
0.0
 49
0.0
140
0.0
141
0.0
142
1.0
143
1.0
 70
  1712
 72
     0
 73
     0
 74
     0
  7
monochrome.ctb
 75
     0
147
1.0
148
0.0
149
0.0
100
AcDbLayout
  1
Model
 70
     1
 71
     0
 10
0.0
 20
0.0
 11
12.0
 21
9.0
 12
0.0
 22
0.0
 32
0.0
 14
0.0
 24
0.0
 34
0.0
 15
0.0
 25
0.0
 35
0.0
146
0.0
 13
0.0
 23
0.0
 33
0.0
 16
1.0
 26
0.0
 36
0.0
 17
0.0
 27
1.0
 37
0.0
 76
     0
330
1F
  0
LAYOUT
  5
1E
102
{ACAD_REACTORS
330
1A
102
}
330
1A
100
AcDbPlotSettings
  1

  2
HP DeskJet 690C
  4

  6

 40
0.0
 41
0.0
 42
0.0
 43
0.0
 44
0.0
 45
0.0
 46
0.0
 47
0.0
 48
0.0
 49
0.0
140
0.0
141
0.0
142
1.0
143
1.0
 70
   688
 72
     0
 73
     0
 74
     5
  7
monochrome.ctb
 75
    16
147
1.0
148
0.0
149
0.0
100
AcDbLayout
  1
Rozvržení1
 70
     1
 71
     1
 10
0.0
 20
0.0
 11
420.0
 21
297.0
 12
0.0
 22
0.0
 32
0.0
 14
1.000000000000000E+20
 24
1.000000000000000E+20
 34
1.000000000000000E+20
 15
-1.000000000000000E+20
 25
-1.000000000000000E+20
 35
-1.000000000000000E+20
146
0.0
 13
0.0
 23
0.0
 33
0.0
 16
1.0
 26
0.0
 36
0.0
 17
0.0
 27
1.0
 37
0.0
 76
     0
330
1B
  0
LAYOUT
  5
26
102
{ACAD_REACTORS
330
1A
102
}
330
1A
100
AcDbPlotSettings
  1

  2
HP DeskJet 690C
  4

  6

 40
0.0
 41
0.0
 42
0.0
 43
0.0
 44
0.0
 45
0.0
 46
0.0
 47
0.0
 48
0.0
 49
0.0
140
0.0
141
0.0
142
1.0
143
1.0
 70
   688
 72
     0
 73
     0
 74
     5
  7
monochrome.ctb
 75
    16
147
1.0
148
0.0
149
0.0
100
AcDbLayout
  1
Rozvržení2
 70
     1
 71
     2
 10
0.0
 20
0.0
 11
12.0
 21
9.0
 12
0.0
 22
0.0
 32
0.0
 14
0.0
 24
0.0
 34
0.0
 15
0.0
 25
0.0
 35
0.0
146
0.0
 13
0.0
 23
0.0
 33
0.0
 16
1.0
 26
0.0
 36
0.0
 17
0.0
 27
1.0
 37
0.0
 76
     0
330
23
  0
MLINESTYLE
  5
18
102
{ACAD_REACTORS
330
17
102
}
330
17
100
AcDbMlineStyle
  2
STANDARD
 70
     0
  3

 62
   256
 51
90.0
 52
90.0
 71
     2
 49
0.5
 62
   256
  6
BYLAYER
 49
-0.5
 62
   256
  6
BYLAYER
  0
ACDBPLACEHOLDER
  5
F
102
{ACAD_REACTORS
330
E
102
}
330
E
  0
ENDSEC
  0
EOF
