  0
SECTION
  2
HEADER
  9
$ACADVER
  1
AC1015
  9
$ACADMAINTVER
 70
    10
  9
$DWGCODEPAGE
  3
ANSI_1250
  9
$INSBASE
 10
0.0
 20
0.0
 30
0.0
  9
$EXTMIN
 10
-94.89232318161247
 20
-95.54041232601411
 30
0.0
  9
$EXTMAX
 10
726.5705069872365
 20
578.4050582729613
 30
0.0
  9
$LIMMIN
 10
0.0
 20
0.0
  9
$LIMMAX
 10
420.0
 20
297.0
  9
$ORTHOMODE
 70
     1
  9
$REGENMODE
 70
     1
  9
$FILLMODE
 70
     1
  9
$QTEXTMODE
 70
     0
  9
$MIRRTEXT
 70
     1
  9
$LTSCALE
 40
1.0
  9
$ATTMODE
 70
     1
  9
$TEXTSIZE
 40
2.5
  9
$TRACEWID
 40
1.0
  9
$TEXTSTYLE
  7
Standard
  9
$CLAYER
  8
0
  9
$CELTYPE
  6
ByLayer
  9
$CECOLOR
 62
   256
  9
$CELTSCALE
 40
1.0
  9
$DISPSILH
 70
     0
  9
$DIMSCALE
 40
1.0
  9
$DIMASZ
 40
2.5
  9
$DIMEXO
 40
0.625
  9
$DIMDLI
 40
3.75
  9
$DIMRND
 40
0.0
  9
$DIMDLE
 40
0.0
  9
$DIMEXE
 40
1.25
  9
$DIMTP
 40
0.0
  9
$DIMTM
 40
0.0
  9
$DIMTXT
 40
2.5
  9
$DIMCEN
 40
2.5
  9
$DIMTSZ
 40
0.0
  9
$DIMTOL
 70
     0
  9
$DIMLIM
 70
     0
  9
$DIMTIH
 70
     0
  9
$DIMTOH
 70
     0
  9
$DIMSE1
 70
     0
  9
$DIMSE2
 70
     0
  9
$DIMTAD
 70
     1
  9
$DIMZIN
 70
     8
  9
$DIMBLK
  1

  9
$DIMASO
 70
     1
  9
$DIMSHO
 70
     1
  9
$DIMPOST
  1

  9
$DIMAPOST
  1

  9
$DIMALT
 70
     0
  9
$DIMALTD
 70
     3
  9
$DIMALTF
 40
0.03937007874016
  9
$DIMLFAC
 40
1.0
  9
$DIMTOFL
 70
     1
  9
$DIMTVP
 40
0.0
  9
$DIMTIX
 70
     0
  9
$DIMSOXD
 70
     0
  9
$DIMSAH
 70
     0
  9
$DIMBLK1
  1

  9
$DIMBLK2
  1

  9
$DIMSTYLE
  2
ISO-25
  9
$DIMCLRD
 70
     0
  9
$DIMCLRE
 70
     0
  9
$DIMCLRT
 70
     0
  9
$DIMTFAC
 40
1.0
  9
$DIMGAP
 40
0.625
  9
$DIMJUST
 70
     0
  9
$DIMSD1
 70
     0
  9
$DIMSD2
 70
     0
  9
$DIMTOLJ
 70
     0
  9
$DIMTZIN
 70
     8
  9
$DIMALTZ
 70
     0
  9
$DIMALTTZ
 70
     0
  9
$DIMUPT
 70
     0
  9
$DIMDEC
 70
     2
  9
$DIMTDEC
 70
     2
  9
$DIMALTU
 70
     2
  9
$DIMALTTD
 70
     3
  9
$DIMTXSTY
  7
Standard
  9
$DIMAUNIT
 70
     0
  9
$DIMADEC
 70
     0
  9
$DIMALTRND
 40
0.0
  9
$DIMAZIN
 70
     0
  9
$DIMDSEP
 70
    44
  9
$DIMATFIT
 70
     3
  9
$DIMFRAC
 70
     0
  9
$DIMLDRBLK
  1

  9
$DIMLUNIT
 70
     2
  9
$DIMLWD
 70
    -2
  9
$DIMLWE
 70
    -2
  9
$DIMTMOVE
 70
     0
  9
$LUNITS
 70
     2
  9
$LUPREC
 70
     4
  9
$SKETCHINC
 40
1.0
  9
$FILLETRAD
 40
10.0
  9
$AUNITS
 70
     0
  9
$AUPREC
 70
     0
  9
$MENU
  1
.
  9
$ELEVATION
 40
0.0
  9
$PELEVATION
 40
0.0
  9
$THICKNESS
 40
0.0
  9
$LIMCHECK
 70
     0
  9
$CHAMFERA
 40
10.0
  9
$CHAMFERB
 40
10.0
  9
$CHAMFERC
 40
20.0
  9
$CHAMFERD
 40
0.0
  9
$SKPOLY
 70
     0
  9
$TDCREATE
 40
2452333.440837384
  9
$TDUCREATE
 40
2452333.399170718
  9
$TDUPDATE
 40
2452653.355015185
  9
$TDUUPDATE
 40
2452653.313348518
  9
$TDINDWG
 40
0.0044427431
  9
$TDUSRTIMER
 40
0.0044414699
  9
$USRTIMER
 70
     1
  9
$ANGBASE
 50
0.0
  9
$ANGDIR
 70
     0
  9
$PDMODE
 70
     0
  9
$PDSIZE
 40
0.0
  9
$PLINEWID
 40
0.0
  9
$SPLFRAME
 70
     0
  9
$SPLINETYPE
 70
     6
  9
$SPLINESEGS
 70
     8
  9
$HANDSEED
  5
2A52
  9
$SURFTAB1
 70
     6
  9
$SURFTAB2
 70
     6
  9
$SURFTYPE
 70
     6
  9
$SURFU
 70
     6
  9
$SURFV
 70
     6
  9
$UCSBASE
  2

  9
$UCSNAME
  2

  9
$UCSORG
 10
0.0
 20
0.0
 30
0.0
  9
$UCSXDIR
 10
1.0
 20
0.0
 30
0.0
  9
$UCSYDIR
 10
0.0
 20
1.0
 30
0.0
  9
$UCSORTHOREF
  2

  9
$UCSORTHOVIEW
 70
     0
  9
$UCSORGTOP
 10
0.0
 20
0.0
 30
0.0
  9
$UCSORGBOTTOM
 10
0.0
 20
0.0
 30
0.0
  9
$UCSORGLEFT
 10
0.0
 20
0.0
 30
0.0
  9
$UCSORGRIGHT
 10
0.0
 20
0.0
 30
0.0
  9
$UCSORGFRONT
 10
0.0
 20
0.0
 30
0.0
  9
$UCSORGBACK
 10
0.0
 20
0.0
 30
0.0
  9
$PUCSBASE
  2

  9
$PUCSNAME
  2

  9
$PUCSORG
 10
0.0
 20
0.0
 30
0.0
  9
$PUCSXDIR
 10
1.0
 20
0.0
 30
0.0
  9
$PUCSYDIR
 10
0.0
 20
1.0
 30
0.0
  9
$PUCSORTHOREF
  2

  9
$PUCSORTHOVIEW
 70
     0
  9
$PUCSORGTOP
 10
0.0
 20
0.0
 30
0.0
  9
$PUCSORGBOTTOM
 10
0.0
 20
0.0
 30
0.0
  9
$PUCSORGLEFT
 10
0.0
 20
0.0
 30
0.0
  9
$PUCSORGRIGHT
 10
0.0
 20
0.0
 30
0.0
  9
$PUCSORGFRONT
 10
0.0
 20
0.0
 30
0.0
  9
$PUCSORGBACK
 10
0.0
 20
0.0
 30
0.0
  9
$USERI1
 70
     0
  9
$USERI2
 70
     0
  9
$USERI3
 70
     0
  9
$USERI4
 70
     0
  9
$USERI5
 70
     0
  9
$USERR1
 40
0.0
  9
$USERR2
 40
0.0
  9
$USERR3
 40
0.0
  9
$USERR4
 40
0.0
  9
$USERR5
 40
0.0
  9
$WORLDVIEW
 70
     1
  9
$SHADEDGE
 70
     3
  9
$SHADEDIF
 70
    70
  9
$TILEMODE
 70
     1
  9
$MAXACTVP
 70
    64
  9
$PINSBASE
 10
0.0
 20
0.0
 30
0.0
  9
$PLIMCHECK
 70
     0
  9
$PEXTMIN
 10
1.000000000000000E+20
 20
1.000000000000000E+20
 30
1.000000000000000E+20
  9
$PEXTMAX
 10
-1.000000000000000E+20
 20
-1.000000000000000E+20
 30
-1.000000000000000E+20
  9
$PLIMMIN
 10
0.0
 20
0.0
  9
$PLIMMAX
 10
420.0
 20
297.0
  9
$UNITMODE
 70
     0
  9
$VISRETAIN
 70
     1
  9
$PLINEGEN
 70
     0
  9
$PSLTSCALE
 70
     1
  9
$TREEDEPTH
 70
  3020
  9
$CMLSTYLE
  2
Standard
  9
$CMLJUST
 70
     0
  9
$CMLSCALE
 40
20.0
  9
$PROXYGRAPHICS
 70
     1
  9
$MEASUREMENT
 70
     1
  9
$CELWEIGHT
370
    -1
  9
$ENDCAPS
280
     0
  9
$JOINSTYLE
280
     0
  9
$LWDISPLAY
290
     0
  9
$INSUNITS
 70
     4
  9
$HYPERLINKBASE
  1

  9
$STYLESHEET
  1

  9
$XEDIT
290
     1
  9
$CEPSNTYPE
380
     0
  9
$PSTYLEMODE
290
     1
  9
$FINGERPRINTGUID
  2
{E0A79919-1611-4D48-A6CF-929FE36A9D62}
  9
$VERSIONGUID
  2
{FA461B5C-DF5F-4657-8E83-907E1520A4FE}
  9
$EXTNAMES
290
     1
  9
$PSVPSCALE
 40
0.0
  9
$OLESTARTUP
290
     0
  0
ENDSEC
  0
SECTION
  2
CLASSES
  0
CLASS
  1
ACDBDICTIONARYWDFLT
  2
AcDbDictionaryWithDefault
  3
AutoCAD 2000
 90
        0
280
     0
281
     0
  0
CLASS
  1
ACDBPLACEHOLDER
  2
AcDbPlaceHolder
  3
AutoCAD 2000
 90
        0
280
     0
281
     0
  0
CLASS
  1
LAYOUT
  2
AcDbLayout
  3
AutoCAD 2000
 90
        0
280
     0
281
     0
  0
ENDSEC
  0
SECTION
  2
TABLES
  0
TABLE
  2
VPORT
  5
8
330
0
100
AcDbSymbolTable
 70
     3
  0
VPORT
  5
2A51
330
8
100
AcDbSymbolTableRecord
100
AcDbViewportTableRecord
  2
*Active
 70
     0
 10
0.0
 20
0.0
 11
1.0
 21
1.0
 12
331.9626163218683
 22
236.8136917313155
 13
0.0
 23
0.0
 14
10.0
 24
10.0
 15
10.0
 25
10.0
 16
0.0
 26
0.0
 36
1.0
 17
0.0
 27
0.0
 37
0.0
 40
774.6559087199062
 41
1.25296442687747
 42
50.0
 43
0.0
 44
0.0
 50
0.0
 51
0.0
 71
     0
 72
   100
 73
     1
 74
     3
 75
     0
 76
     0
 77
     0
 78
     0
281
     0
 65
     1
110
0.0
120
0.0
130
0.0
111
1.0
121
0.0
131
0.0
112
0.0
122
1.0
132
0.0
 79
     0
146
0.0
  0
ENDTAB
  0
TABLE
  2
LTYPE
  5
5
330
0
100
AcDbSymbolTable
 70
     3
  0
LTYPE
  5
14
330
5
100
AcDbSymbolTableRecord
100
AcDbLinetypeTableRecord
  2
ByBlock
 70
     0
  3

 72
    65
 73
     0
 40
0.0
  0
LTYPE
  5
15
330
5
100
AcDbSymbolTableRecord
100
AcDbLinetypeTableRecord
  2
ByLayer
 70
     0
  3

 72
    65
 73
     0
 40
0.0
  0
LTYPE
  5
16
330
5
100
AcDbSymbolTableRecord
100
AcDbLinetypeTableRecord
  2
Continuous
 70
     0
  3
Solid line
 72
    65
 73
     0
 40
0.0
  0
LTYPE
  5
33
330
5
100
AcDbSymbolTableRecord
100
AcDbLinetypeTableRecord
  2
DASHED
 70
     0
  3
Dashed __ __ __ __ __ __ __ __ __ __ __ __ __ _
 72
    65
 73
     2
 40
19.04999999999999
 49
12.7
 74
     0
 49
-6.349999999999999
 74
     0
  0
LTYPE
  5
36
330
5
100
AcDbSymbolTableRecord
100
AcDbLinetypeTableRecord
  2
IZOLACE
 70
     0
  3
Izolace SSSSSSSSSSSSSSSSSSSSSSSSSSSSSSSSSSSSSSS
 72
    65
 73
     4
 40
10.16253999999999
 49
0.00254
 74
     0
 49
-2.54
 74
     4
 75
   134
340
3E
 46
2.54
 50
0.0
 44
-2.54
 45
0.0
 49
-5.08
 74
     4
 75
   134
340
3E
 46
2.54
 50
180.0
 44
2.54
 45
0.0
 49
-2.54
 74
     0
  0
ENDTAB
  0
TABLE
  2
LAYER
  5
2
330
0
100
AcDbSymbolTable
 70
     6
  0
LAYER
  5
10
330
2
100
AcDbSymbolTableRecord
100
AcDbLayerTableRecord
  2
0
 70
     0
 62
     7
  6
Continuous
370
    -3
390
F
  0
LAYER
  5
37
330
2
100
AcDbSymbolTableRecord
100
AcDbLayerTableRecord
  2
POPIS
 70
     0
 62
    30
  6
Continuous
370
    -3
390
F
  0
LAYER
  5
38
330
2
100
AcDbSymbolTableRecord
100
AcDbLayerTableRecord
  2
SPOJOVACÍ
 70
     0
 62
   180
  6
Continuous
370
    -3
390
F
  0
LAYER
  5
39
330
2
100
AcDbSymbolTableRecord
100
AcDbLayerTableRecord
  2
CETRIS
 70
     0
 62
     1
  6
Continuous
370
    -3
390
F
  0
LAYER
  5
3B
330
2
100
AcDbSymbolTableRecord
100
AcDbLayerTableRecord
  2
izolace
 70
     0
 62
    73
  6
Continuous
370
    -3
390
F
  0
LAYER
  5
3C
330
2
100
AcDbSymbolTableRecord
100
AcDbLayerTableRecord
  2
STAVBA OBRYS
 70
     0
 62
     6
  6
Continuous
370
    -3
390
F
  0
ENDTAB
  0
TABLE
  2
STYLE
  5
3
330
0
100
AcDbSymbolTable
 70
     3
  0
STYLE
  5
11
330
3
100
AcDbSymbolTableRecord
100
AcDbTextStyleTableRecord
  2
Standard
 70
     0
 40
0.0
 41
1.0
 50
0.0
 71
     0
 42
2.5
  3
txt
  4

  0
STYLE
  5
3D
330
3
100
AcDbSymbolTableRecord
100
AcDbTextStyleTableRecord
  2
SIMPLEX7
 70
     0
 40
0.0
 41
0.85
 50
0.0
 71
     0
 42
102.0
  3

  4

1001
ACAD
1000
Arial CE
1071
    60962
  0
STYLE
  5
3E
330
3
100
AcDbSymbolTableRecord
100
AcDbTextStyleTableRecord
  2

 70
     1
 40
0.0
 41
1.0
 50
0.0
 71
     0
 42
2.5
  3
ltypeshp.shx
  4

  0
ENDTAB
  0
TABLE
  2
VIEW
  5
6
330
0
100
AcDbSymbolTable
 70
     0
  0
ENDTAB
  0
TABLE
  2
UCS
  5
7
330
0
100
AcDbSymbolTable
 70
     0
  0
ENDTAB
  0
TABLE
  2
APPID
  5
9
330
0
100
AcDbSymbolTable
 70
     1
  0
APPID
  5
12
330
9
100
AcDbSymbolTableRecord
100
AcDbRegAppTableRecord
  2
ACAD
 70
     0
  0
ENDTAB
  0
TABLE
  2
DIMSTYLE
  5
A
330
0
100
AcDbSymbolTable
 70
     1
100
AcDbDimStyleTable
 71
     0
  0
DIMSTYLE
105
27
330
A
100
AcDbSymbolTableRecord
100
AcDbDimStyleTableRecord
  2
ISO-25
 70
     0
 41
2.5
 42
0.625
 43
3.75
 44
1.25
 73
     0
 74
     0
 77
     1
 78
     8
140
2.5
141
2.5
143
0.03937007874016
147
0.625
171
     3
172
     1
271
     2
272
     2
274
     3
278
    44
283
     0
284
     8
340
11
  0
ENDTAB
  0
TABLE
  2
BLOCK_RECORD
  5
1
330
0
100
AcDbSymbolTable
 70
     2
  0
BLOCK_RECORD
  5
1F
330
1
100
AcDbSymbolTableRecord
100
AcDbBlockTableRecord
  2
*Model_Space
340
22
  0
BLOCK_RECORD
  5
1B
330
1
100
AcDbSymbolTableRecord
100
AcDbBlockTableRecord
  2
*Paper_Space
340
1E
  0
BLOCK_RECORD
  5
23
330
1
100
AcDbSymbolTableRecord
100
AcDbBlockTableRecord
  2
*Paper_Space0
340
26
  0
BLOCK_RECORD
  5
2B
330
1
100
AcDbSymbolTableRecord
100
AcDbBlockTableRecord
  2
E_PUNKT
340
0
102
{BLKREFS
331
27BE
331
27BF
331
27C0
331
27C1
331
27C2
331
27C3
331
27C4
331
27D3
102
}
  0
ENDTAB
  0
ENDSEC
  0
SECTION
  2
BLOCKS
  0
BLOCK
  5
20
330
1F
100
AcDbEntity
  8
0
100
AcDbBlockBegin
  2
*Model_Space
 70
     0
 10
0.0
 20
0.0
 30
0.0
  3
*Model_Space
  1

  0
ENDBLK
  5
21
330
1F
100
AcDbEntity
  8
0
100
AcDbBlockEnd
  0
BLOCK
  5
1C
330
1B
100
AcDbEntity
 67
     1
  8
0
100
AcDbBlockBegin
  2
*Paper_Space
 70
     0
 10
0.0
 20
0.0
 30
0.0
  3
*Paper_Space
  1

  0
ENDBLK
  5
1D
330
1B
100
AcDbEntity
 67
     1
  8
0
100
AcDbBlockEnd
  0
BLOCK
  5
24
330
23
100
AcDbEntity
  8
0
100
AcDbBlockBegin
  2
*Paper_Space0
 70
     0
 10
0.0
 20
0.0
 30
0.0
  3
*Paper_Space0
  1

  0
ENDBLK
  5
25
330
23
100
AcDbEntity
  8
0
100
AcDbBlockEnd
  0
BLOCK
  5
2D
330
2B
100
AcDbEntity
  8
0
100
AcDbBlockBegin
  2
E_PUNKT
 70
     0
 10
0.0
 20
0.0
 30
0.0
  3
E_PUNKT
  1

  0
LWPOLYLINE
  5
2C
330
2B
100
AcDbEntity
  8
POPIS
100
AcDbPolyline
 90
        2
 70
     1
 43
2.5
 10
1.27761037562675
 20
0.0290683308725193
 42
-1.0
 10
-1.222389624373249
 20
0.0290683308725193
 42
-1.0
  0
ENDBLK
  5
2E
330
2B
100
AcDbEntity
  8
0
100
AcDbBlockEnd
  0
ENDSEC
  0
SECTION
  2
ENTITIES
  0
HATCH
  5
2746
330
1F
100
AcDbEntity
  8
STAVBA OBRYS
100
AcDbHatch
 10
0.0
 20
0.0
 30
0.0
210
0.0
220
0.0
230
1.0
  2
AR-CONC
 70
     0
 71
     0
 91
       12
 92
        7
 72
     0
 73
     1
 93
       16
 10
120.3999641464533
 20
200.9253256823338
 10
107.8999641464497
 20
200.9253256823338
 10
107.8999641464497
 20
171.3137842400291
 10
107.9258406844555
 20
171.2367745294276
 10
110.0710040502408
 20
171.2367745294276
 10
109.8787922290857
 20
171.8084140630934
 10
110.1997958962447
 20
172.1294177283942
 10
110.3855985114669
 20
171.8084140631025
 10
110.5778103325856
 20
171.2367745294276
 10
114.7903064660267
 20
171.2367745294276
 10
116.0853902264452
 20
171.4296929866794
 10
117.2871773546858
 20
171.9507309584522
 10
118.3134403101421
 20
172.7650998679417
 10
119.0938112940266
 20
173.8166636055001
 10
119.3800263862276
 20
174.4246730137482
 10
120.3999641464497
 20
174.4246730137482
 97
        0
 92
        7
 72
     0
 73
     1
 93
       16
 10
120.3999641464497
 20
-83.65427020362142
 10
119.3800263862312
 20
-83.65427020362142
 10
119.0938112940339
 20
-83.04626079539241
 10
118.313440310153
 20
-81.99469705781586
 10
117.2871773546676
 20
-81.18032814832725
 10
116.0853902264416
 20
-80.65929017655173
 10
114.7903064660231
 20
-80.46637171930081
 10
110.5778103325819
 20
-80.46637171930081
 10
110.3855985114705
 20
-81.03801125296753
 10
110.1997958962447
 20
-81.35901491826746
 10
109.8787922290857
 20
-81.0380112529666
 10
110.0710040502444
 20
-80.46637171930081
 10
107.9258406844555
 20
-80.46637171930081
 10
107.8999641464497
 20
-80.54338142991685
 10
107.8999641464497
 20
-95.54041232601333
 10
120.3999641464497
 20
-95.54041232601333
 97
        0
 92
        7
 72
     1
 73
     1
 93
       26
 10
120.3999641464461
 20
42.96210302811402
 42
0.0
 10
115.7569712076283
 20
42.96210302811402
 42
-0.4983977788784931
 10
114.5551913705558
 20
41.36826407860178
 42
-1.0
 10
114.5551913705558
 20
43.86826407860178
 42
-0.3347590527635138
 10
115.7569712076283
 20
42.96210302811402
 42
0.0
 10
120.3999641464533
 20
42.96210302811402
 42
0.0
 10
120.3999641464533
 20
88.94922369269432
 42
0.0
 10
107.8999641464497
 20
88.94922369269432
 42
0.0
 10
107.899964146457
 20
-78.17190708097507
 42
0.0
 10
108.190012515598
 20
-78.17190708097507
 42
0.0
 10
108.3820928649029
 20
-77.60026754729472
 42
0.0
 10
108.5678954801214
 20
-77.27926387829677
 42
0.0
 10
108.888899147284
 20
-77.60026754730745
 42
0.0
 10
108.6968187979464
 20
-78.17190708097507
 42
0.0
 10
110.8425098694451
 20
-78.17190708097507
 42
0.0
 10
111.0347216906038
 20
-77.60026754731291
 42
0.0
 10
111.2197336562412
 20
-77.2792638782995
 42
0.0
 10
111.5415279727449
 20
-77.60026754731291
 42
0.0
 10
111.3493161516298
 20
-78.17190708097507
 42
0.0
 10
114.7903064660304
 20
-78.17190708097507
 42
0.0
 10
115.4591958806768
 20
-78.1157709713417
 42
0.0
 10
116.7179097676662
 20
-77.75207223668906
 42
0.0
 10
117.8390506542264
 20
-77.07527632926678
 42
0.0
 10
118.7475068452286
 20
-76.13124091397105
 42
0.0
 10
119.3800263862276
 20
-74.98400859294372
 42
0.0
 10
120.3999641464497
 20
-74.98400859294372
 42
0.0
 97
        0
 92
        7
 72
     0
 73
     1
 93
       16
 10
120.3999641464461
 20
116.3457297963785
 10
119.3800263862276
 20
116.3457297963785
 10
119.0938112940266
 20
116.9537392046166
 10
118.3134403101566
 20
118.0053029421868
 10
117.2871773546858
 20
118.8196718516718
 10
116.085390226438
 20
119.3407098234491
 10
114.7903064660267
 20
119.5336282806992
 10
110.5778103325892
 20
119.5336282806992
 10
110.3855985114705
 20
118.9619887470324
 10
110.1997958962483
 20
118.6409850817325
 10
109.8787922290857
 20
118.9619887470352
 10
110.0710040502408
 20
119.5336282806992
 10
107.9258406844519
 20
119.5336282806992
 10
107.8999641464461
 20
119.4566185700749
 10
107.8999641464497
 20
88.94922369269432
 10
120.3999641464461
 20
88.94922369269432
 97
        0
 92
        7
 72
     1
 73
     1
 93
       21
 10
120.3999641464497
 20
132.8852014050488
 42
0.2929822252595474
 10
113.1196183644415
 20
144.2432474449686
 42
0.0
 10
107.8999641464461
 20
144.2432474449686
 42
0.0
 10
107.8999641464461
 20
121.8280929190249
 42
0.0
 10
108.1900125156016
 20
121.8280929190249
 42
0.0
 10
108.3820928649029
 20
122.3997324526989
 42
0.0
 10
108.5678954801214
 20
122.7207361217059
 42
0.0
 10
108.8888991472767
 20
122.399732452687
 42
0.0
 10
108.69681879795
 20
121.8280929190249
 42
0.0
 10
110.8425098694488
 20
121.8280929190249
 42
0.0
 10
111.0347216906002
 20
122.3997324526843
 42
0.0
 10
111.2197336562303
 20
122.720736121705
 42
0.0
 10
111.5415279727412
 20
122.3997324526861
 42
0.0
 10
111.3493161516298
 20
121.8280929190249
 42
0.0
 10
114.7903064660267
 20
121.8280929190249
 42
0.0
 10
115.4591958806804
 20
121.8842290286582
 42
0.0
 10
116.7179097676698
 20
122.2479277633118
 42
0.0
 10
117.8390506542191
 20
122.9247236707313
 42
0.0
 10
118.7475068452213
 20
123.8687590860416
 42
0.0
 10
119.3800263862312
 20
125.0159914070562
 42
0.0
 10
120.3999641464497
 20
125.0159914070562
 42
0.0
 97
        0
 92
        7
 72
     1
 73
     1
 93
       20
 10
120.3999641464533
 20
165.7544114030705
 42
0.0
 10
119.3800263862276
 20
165.7544114030705
 42
0.0
 10
118.7475068452322
 20
166.9016437240887
 42
0.0
 10
117.8390506542264
 20
167.8456791393908
 42
0.0
 10
116.7179097676626
 20
168.5224750468131
 42
0.0
 10
115.4591958806768
 20
168.8861737814694
 42
0.0
 10
114.7903064660231
 20
168.9423098911019
 42
0.0
 10
111.3493161516262
 20
168.9423098911019
 42
0.0
 10
111.5415279727449
 20
168.3706703574406
 42
0.0
 10
111.2197336562412
 20
168.0496666884263
 42
0.0
 10
111.0347216906038
 20
168.3706703574524
 42
0.0
 10
110.8425098694524
 20
168.9423098911019
 42
0.0
 10
108.6968187979427
 20
168.9423098911019
 42
0.0
 10
108.8888991472804
 20
168.3706703574379
 42
0.0
 10
108.5678954801251
 20
168.0496666884245
 42
0.0
 10
108.3820928649029
 20
168.3706703574188
 42
0.0
 10
108.1900125156053
 20
168.9423098911019
 42
0.0
 10
107.8999641464461
 20
168.9423098911019
 42
0.0
 10
107.8999641464461
 20
145.3852014050634
 42
0.4142135623731848
 10
120.3999641464497
 20
157.8852014050634
 42
0.0
 97
        0
 92
        7
 72
     0
 73
     1
 93
        4
 10
120.3999641464497
 20
256.1597031704603
 10
107.8999641464424
 20
256.1597031704603
 10
107.8999641464497
 20
200.9253256823338
 10
120.3999641464497
 20
200.9253256823338
 97
        0
 92
        7
 72
     0
 73
     1
 93
        4
 10
120.3999641464424
 20
300.5860137047983
 10
107.8999641464461
 20
300.5860137047983
 10
107.8999641464424
 20
256.1597031704603
 10
120.3999641464461
 20
256.1597031704603
 97
        0
 92
        7
 72
     0
 73
     1
 93
        4
 10
120.3999641464497
 20
342.4820264133103
 10
107.8999641464424
 20
342.4820264133103
 10
107.8999641464461
 20
300.5860137047983
 10
120.3999641464461
 20
300.5860137047983
 97
        0
 92
        7
 72
     0
 73
     1
 93
       20
 10
120.3999641464461
 20
365.7544114030705
 10
119.3800263862276
 20
365.7544114030705
 10
118.7475068452213
 20
366.9016437240869
 10
117.8390506542373
 20
367.8456791393881
 10
116.7179097676735
 20
368.5224750468122
 10
115.4591958806768
 20
368.8861737814685
 10
114.7903064660231
 20
368.9423098911019
 10
111.3493161516262
 20
368.9423098911019
 10
111.5415279727412
 20
368.370670357436
 10
111.2197336562376
 20
368.0496666884272
 10
111.0347216906111
 20
368.3706703574169
 10
110.8425098694451
 20
368.9423098911019
 10
108.6968187979391
 20
368.9423098911019
 10
108.888899147284
 20
368.3706703574352
 10
108.5678954801251
 20
368.0496666884254
 10
108.3820928649029
 20
368.3706703574315
 10
108.1900125156053
 20
368.9423098911019
 10
107.8999641464461
 20
368.9423098911019
 10
107.8999641464497
 20
342.4820264133103
 10
120.3999641464497
 20
342.4820264133103
 97
        0
 92
        7
 72
     0
 73
     1
 93
       16
 10
120.3999641464461
 20
385.4212279464462
 10
107.8999641464424
 20
385.4212279464462
 10
107.8999641464424
 20
371.31378424006
 10
107.9258406844519
 20
371.2367745294276
 10
110.0710040502408
 20
371.2367745294276
 10
109.8787922290894
 20
371.8084140630934
 10
110.1997958962483
 20
372.1294177283915
 10
110.3855985114632
 20
371.8084140631007
 10
110.5778103325783
 20
371.2367745294276
 10
114.7903064660267
 20
371.2367745294276
 10
116.0853902264416
 20
371.4296929866785
 10
117.2871773546858
 20
371.9507309584531
 10
118.313440310153
 20
372.7650998679408
 10
119.0938112940193
 20
373.8166636055119
 10
119.3800263862276
 20
374.4246730137482
 10
120.3999641464497
 20
374.4246730137482
 97
        0
 92
        7
 72
     0
 73
     1
 93
        4
 10
120.3999641464461
 20
400.5719786437574
 10
107.8999641464461
 20
400.5719786437574
 10
107.8999641464388
 20
385.4212279464462
 10
120.3999641464461
 20
385.4212279464462
 97
        0
 75
     0
 76
     1
 52
90.0
 41
0.1
 77
     0
 78
    13
 53
140.0
 43
-26020.95537735191
 44
46.32048684865265
 45
1.593908553890309
 46
18.2184668996004
 79
     2
 49
1.905
 49
-20.955
 53
85.00000000000001
 43
-26020.95537735191
 44
46.32048684865265
 45
-19.10566428821799
 46
-3.524282597566697
 79
     2
 49
1.524
 49
-16.764
 53
190.4509999999999
 43
-26020.82255235191
 44
47.83868684865308
 45
-17.51166878202918
 46
14.69425016659592
 79
     2
 49
1.619
 49
-17.809
 53
136.1841999999999
 43
-26026.03537735191
 44
46.32048684865265
 45
4.204232793272717
 46
27.10790408921299
 79
     2
 49
2.857499999999999
 49
-31.4325
 53
186.6355999999999
 43
-26025.68502735191
 44
48.57947684865291
 45
-24.74255558900492
 46
23.74042344662371
 79
     2
 49
2.4285
 49
-26.7135
 53
81.18400000000004
 43
-26026.03537735191
 44
46.32048684865265
 45
-24.74251178605976
 46
23.74046058139339
 79
     2
 49
2.286
 49
-25.146
 53
111.0
 43
-26024.76537735192
 44
48.86048684865262
 45
10.22655185167625
 46
15.16148798353833
 79
     2
 49
1.905
 49
-20.955
 53
56.00000000000004
 43
-26024.76537735192
 44
48.86048684865262
 45
-18.41879661223192
 46
6.180202834764708
 79
     2
 49
1.524
 49
-16.764
 53
161.4514
 43
-26023.91316735192
 44
50.12393684865299
 45
-8.192285771605742
 46
21.34164907701245
 79
     2
 49
1.618999999999999
 49
-17.80899999999998
 53
127.5
 43
-26020.95537735191
 44
46.32048684865265
 45
-8.455503887315311
 46
0.3088603250591822
 79
     6
 49
0.0
 49
-16.5608
 49
0.0
 49
-17.018
 49
0.0
 49
-16.8275
 53
97.49999999999998
 43
-26020.95537735191
 44
46.32048684865265
 45
-10.01805748181195
 46
6.681966251030575
 79
     6
 49
0.0
 49
-9.702799999999999
 49
0.0
 49
-16.1798
 49
0.0
 49
-6.4135
 53
57.5
 43
-26020.95537735191
 44
40.65628684865248
 45
0.5728743992673473
 46
13.55905951668713
 79
     6
 49
0.0
 49
-6.35
 49
0.0
 49
-19.812
 49
0.0
 49
-26.289
 53
47.5
 43
-26020.95537735191
 44
38.11628684865252
 45
-2.5426491033333
 46
14.8129181386018
 79
     6
 49
0.0
 49
-8.255
 49
0.0
 49
-13.1572
 49
0.0
 49
-18.669
 47
0.7924205402650885
 98
       12
 10
115.6297347019271
 20
185.2141416356706
 10
115.6297347019271
 20
-89.75578237035836
 10
114.8368555068727
 20
-60.43623190095707
 10
113.2509987812582
 20
108.3493434826185
 10
113.2509987812582
 20
129.7447005705279
 10
112.4581195862037
 20
159.0642801714956
 10
112.4581195862037
 20
216.1185657392514
 10
113.2509987812582
 20
273.1728221754409
 10
117.2155422597852
 20
327.0574478695442
 10
115.6297347019271
 20
356.3769983389455
 10
114.0439271440618
 20
375.395103238722
 10
114.8368555068727
 20
390.4510823161862
  0
HATCH
  5
2747
330
1F
100
AcDbEntity
  8
CETRIS
100
AcDbHatch
 10
0.0
 20
0.0
 30
0.0
210
0.0
220
0.0
230
1.0
  2
ANSI31
 70
     0
 71
     0
 91
        1
 92
        7
 72
     0
 73
     1
 93
       23
 10
107.8999641464533
 20
-80.75086764865421
 10
107.5479577198957
 20
-81.35901491827111
 10
107.2269540529696
 20
-81.0380112529666
 10
107.4190344022708
 20
-80.46637171930081
 10
105.2733433307612
 20
-80.46637171930081
 10
104.9538358939453
 20
-81.41658945890151
 10
104.5743252272723
 20
-81.03801125296934
 10
104.7665370483873
 20
-80.46637171930081
 10
102.621505154445
 20
-80.46637171930081
 10
102.301997717629
 20
-81.41658945871597
 10
101.9224870511416
 20
-81.03801125296298
 10
102.1146988722566
 20
-80.46637171930081
 10
99.96966697833251
 20
-80.46637171930081
 10
99.64992490214264
 20
-81.4172872781229
 10
99.270648874789
 20
-81.03801125296298
 10
99.45147645745874
 20
-80.50022853797702
 10
97.49668035264676
 20
-80.25668621868964
 10
97.22681004919195
 20
-81.0592069406049
 10
96.84730838278028
 20
-80.68063771308255
 10
97.01041474046997
 20
-80.19560386440582
 10
95.89996414644975
 20
-80.05685796853425
 10
95.89996414644975
 20
-95.54041232601333
 10
107.899964146457
 20
-95.54041232601333
 97
        0
 75
     0
 76
     1
 52
0.0
 41
1.0
 77
     0
 78
     1
 53
45.0
 43
-26020.95537735191
 44
-445.7326853102032
 45
-2.245064030267287
 46
2.245064030267288
 79
     0
 47
0.8604646607751414
 98
        1
 10
101.4274038296925
 20
-85.39284952709307
  0
HATCH
  5
2748
330
1F
100
AcDbEntity
  8
CETRIS
100
AcDbHatch
 10
0.0
 20
0.0
 30
0.0
210
0.0
220
0.0
230
1.0
  2
ANSI31
 70
     0
 71
     0
 91
        4
 92
        7
 72
     1
 73
     1
 93
       22
 10
-27.10384380472987
 20
300.5860137047974
 42
0.0
 10
-31.80160394405266
 20
300.5860137047974
 42
-0.4142135623730951
 10
-33.05160394405266
 20
299.3360137047974
 42
-1.0
 10
-33.05160394405266
 20
301.8360137047974
 42
-0.4142135623730951
 10
-31.80160394405266
 20
300.5860137047974
 42
0.0
 10
-27.10384380473715
 20
300.5860137047974
 42
0.0
 10
-27.10384380473715
 20
342.4820264133094
 42
0.0
 10
-40.67694015042525
 20
342.4820264133094
 42
0.0
 10
-40.67694015042525
 20
267.9947071376835
 42
0.0
 10
-39.47701337369744
 20
267.9947071376835
 42
0.0
 10
-39.14028973580298
 20
267.2794019515303
 42
0.0
 10
-38.2222062253686
 20
266.0422681426142
 42
0.0
 10
-37.01483804247709
 20
265.0841870726325
 42
0.0
 10
-35.60097083276287
 20
264.4712012234839
 42
0.0
 10
-34.0773428793409
 20
264.2442383326005
 42
0.0
 10
-29.12146507528905
 20
264.2442383326005
 42
0.0
 10
-28.89533352104354
 20
264.9167554310196
 42
0.0
 10
-28.67674220900971
 20
265.2944068019713
 42
0.0
 10
-28.29909083588518
 20
264.9167554310259
 42
0.0
 10
-28.52522239018526
 20
264.2442383326005
 42
0.0
 10
-27.10384380473351
 20
264.2442383326005
 42
0.0
 10
-27.10384380473715
 20
276.5230150136566
 42
0.0
 97
        0
 92
        7
 72
     0
 73
     1
 93
       18
 10
-27.10384380473715
 20
260.8416841363531
 10
-27.13451073964188
 20
260.8723510714343
 10
-27.10384380473351
 20
260.9636172130666
 10
-27.10384380473351
 20
261.5448681698643
 10
-29.43287629511996
 20
261.5448681698643
 10
-29.65900784941641
 20
260.8723510714434
 10
-29.87666898547558
 20
260.4946996961269
 10
-30.2552505343092
 20
260.872351071437
 10
-30.02911898006004
 20
261.5448681698643
 10
-34.0773428793409
 20
261.5448681698643
 10
-34.86427160246694
 20
261.4788256879427
 10
-36.3451114695099
 20
261.0509448236433
 10
-37.66410074780742
 20
260.2547143443206
 10
-38.73287273720871
 20
259.1440844439783
 10
-39.47701337369744
 20
257.7943993604157
 10
-40.67694015042889
 20
257.7943993604157
 10
-40.67694015043253
 20
249.178367356976
 10
-27.10384380473715
 20
249.178367356976
 97
        0
 92
        7
 72
     0
 73
     1
 93
        4
 10
-27.10384380473351
 20
385.4212279464453
 10
-40.67694015042161
 20
385.4212279464444
 10
-40.67694015042525
 20
342.4820264133094
 10
-27.10384380473715
 20
342.4820264133094
 97
        0
 92
        7
 72
     0
 73
     1
 93
        4
 10
-27.10384380474079
 20
400.5719786437574
 10
-40.67694015042889
 20
400.5719786437574
 10
-40.67694015042889
 20
385.4212279464453
 10
-27.10384380473351
 20
385.4212279464453
 97
        0
 75
     0
 76
     1
 52
90.0
 41
1.0
 77
     0
 78
     1
 53
135.0
 43
-26020.95537735191
 44
-445.7326853102032
 45
-2.245064030267288
 46
-2.245064030267287
 79
     0
 47
0.8604646607751414
 98
        4
 10
-32.8590442572904
 20
281.47788716412
 10
-33.72006142111149
 20
253.0825654753197
 10
-33.72006142111149
 20
363.2220492348486
 10
-29.41510133467181
 20
389.035993844979
  0
TEXT
  5
2749
330
1F
100
AcDbEntity
  8
POPIS
100
AcDbText
 10
381.4116605805638
 20
34.23310514822208
 30
0.0
 40
25.0
  1
08
 41
0.85
  7
SIMPLEX7
100
AcDbText
  0
TEXT
  5
274A
330
1F
100
AcDbEntity
  8
POPIS
100
AcDbText
 10
435.7553637403062
 20
34.23310514822208
 30
0.0
 40
25.0
  1
Sádrokarton 
 41
0.7
  7
SIMPLEX7
100
AcDbText
  0
TEXT
  5
274B
330
1F
100
AcDbEntity
  8
POPIS
100
AcDbText
 10
607.17962238386
 20
88.75254735516922
 30
0.0
 40
9.600000000000001
  1
R
 41
0.85
  7
SIMPLEX7
100
AcDbText
  0
CIRCLE
  5
274C
330
1F
100
AcDbEntity
  8
POPIS
100
AcDbCircle
 10
610.9868456280046
 20
93.18882395115872
 30
0.0
 40
8.909248386336209
  0
TEXT
  5
274D
330
1F
100
AcDbEntity
  8
POPIS
100
AcDbText
 10
606.9068663625357
 20
229.063455652377
 30
0.0
 40
9.600000000000001
  1
R
 41
0.85
  7
SIMPLEX7
100
AcDbText
  0
CIRCLE
  5
274E
330
1F
100
AcDbEntity
  8
POPIS
100
AcDbCircle
 10
610.7140896066803
 20
233.4997322483665
 30
0.0
 40
8.909248386336209
  0
TEXT
  5
274F
330
1F
100
AcDbEntity
  8
POPIS
100
AcDbText
 10
435.7553637403062
 20
103.7707294802199
 30
0.0
 40
25.0
  1
Parozábrana
 41
0.7
  7
SIMPLEX7
100
AcDbText
  0
TEXT
  5
2750
330
1F
100
AcDbEntity
  8
POPIS
100
AcDbText
 10
381.4116605805638
 20
103.7707294802199
 30
0.0
 40
25.0
  1
06
 41
0.85
  7
SIMPLEX7
100
AcDbText
  0
TEXT
  5
2751
330
1F
100
AcDbEntity
  8
POPIS
100
AcDbText
 10
381.4116605805638
 20
138.024122019418
 30
0.0
 40
25.0
  1
05
 41
0.85
  7
SIMPLEX7
100
AcDbText
  0
TEXT
  5
2752
330
1F
100
AcDbEntity
  8
POPIS
100
AcDbText
 10
435.7553637403062
 20
138.024122019418
 30
0.0
 40
25.0
  1
Tepelná izolace
 41
0.7
  7
SIMPLEX7
100
AcDbText
  0
TEXT
  5
2753
330
1F
100
AcDbEntity
  8
POPIS
100
AcDbText
 10
435.7553637403062
 20
174.1309435066065
 30
0.0
 40
25.0
  1
Nosná dřevěná konstrukce
 41
0.7
  7
SIMPLEX7
100
AcDbText
  0
TEXT
  5
2754
330
1F
100
AcDbEntity
  8
POPIS
100
AcDbText
 10
381.4116605805638
 20
174.1309435066065
 30
0.0
 40
25.0
  1
04
 41
0.85
  7
SIMPLEX7
100
AcDbText
  0
TEXT
  5
2755
330
1F
100
AcDbEntity
  8
POPIS
100
AcDbText
 10
435.7553637403062
 20
209.5351047247691
 30
0.0
 40
25.0
  1
Deska CETRIS     
 41
0.7
  7
SIMPLEX7
100
AcDbText
  0
TEXT
  5
2756
330
1F
100
AcDbEntity
  8
POPIS
100
AcDbText
 10
381.4116605805638
 20
209.5351047247691
 30
0.0
 40
25.0
  1
03
 41
0.85
  7
SIMPLEX7
100
AcDbText
  0
TEXT
  5
2757
330
1F
100
AcDbEntity
  8
POPIS
100
AcDbText
 10
435.7553637403062
 20
280.155395672229
 30
0.0
 40
25.0
  1
Minerální vlna
 41
0.7
  7
SIMPLEX7
100
AcDbText
  0
TEXT
  5
2758
330
1F
100
AcDbEntity
  8
POPIS
100
AcDbText
 10
381.4116605805638
 20
280.155395672229
 30
0.0
 40
25.0
  1
02
 41
0.85
  7
SIMPLEX7
100
AcDbText
  0
TEXT
  5
2759
330
1F
100
AcDbEntity
  8
POPIS
100
AcDbText
 10
435.7553637403062
 20
316.7504072878563
 30
0.0
 40
25.0
  1
Minerální omítkovina
 41
0.7
  7
SIMPLEX7
100
AcDbText
  0
TEXT
  5
275A
330
1F
100
AcDbEntity
  8
POPIS
100
AcDbText
 10
381.4116605805638
 20
316.7504072878563
 30
0.0
 40
25.0
  1
01
 41
0.85
  7
SIMPLEX7
100
AcDbText
  0
TEXT
  5
275B
330
1F
100
AcDbEntity
  8
POPIS
100
AcDbText
 10
435.7553637403062
 20
70.60553111642059
 30
0.0
 40
25.0
  1
Deska CETRIS     
 41
0.7
  7
SIMPLEX7
100
AcDbText
  0
TEXT
  5
275C
330
1F
100
AcDbEntity
  8
POPIS
100
AcDbText
 10
381.4116605805638
 20
70.60553111642059
 30
0.0
 40
25.0
  1
07
 41
0.85
  7
SIMPLEX7
100
AcDbText
  0
TEXT
  5
275D
330
1F
100
AcDbEntity
  8
POPIS
100
AcDbText
 10
-94.89232318161247
 20
515.1717704148439
 30
0.0
 40
50.0
  1
Obvodová stěnová konstrukce 
 41
0.85
  7
SIMPLEX7
100
AcDbText
  0
HATCH
  5
275E
330
1F
100
AcDbEntity
  8
STAVBA OBRYS
100
AcDbHatch
 10
0.0
 20
0.0
 30
0.0
210
0.0
220
0.0
230
1.0
  2
AR-CONC
 70
     0
 71
     0
 91
        2
 92
        7
 72
     1
 73
     1
 93
        5
 10
-80.67694015042889
 20
385.4212279464444
 42
0.0
 10
-84.42694015042889
 20
385.4212279464444
 42
-0.4142135623730951
 10
-85.67694015042889
 20
384.1712279464444
 42
0.0
 10
-85.67694015043253
 20
-94.79168176373525
 42
0.0
 10
-80.67694015042889
 20
-94.79168176373525
 42
0.0
 97
        0
 92
        7
 72
     1
 73
     1
 93
        6
 10
-85.67694015042889
 20
384.1712279464444
 42
-1.0
 10
-85.67694015042889
 20
386.6712279464444
 42
0.0
 10
-85.67694015042524
 20
400.5719786437574
 42
0.0
 10
-90.67694015042889
 20
400.5719786437574
 42
0.0
 10
-90.67694015042889
 20
-94.79168176373525
 42
0.0
 10
-85.67694015043253
 20
-94.79168176373525
 42
0.0
 97
        0
 75
     0
 76
     1
 52
90.0
 41
0.1
 77
     0
 78
    13
 53
140.0
 43
-26020.95537735191
 44
-445.7326853102032
 45
1.593908553890309
 46
18.2184668996004
 79
     2
 49
1.905
 49
-20.955
 53
85.00000000000001
 43
-26020.95537735191
 44
-445.7326853102032
 45
-19.10566428821799
 46
-3.524282597566697
 79
     2
 49
1.524
 49
-16.764
 53
190.4509999999999
 43
-26020.82255235191
 44
-444.2144853102028
 45
-17.51166878202918
 46
14.69425016659592
 79
     2
 49
1.619
 49
-17.809
 53
136.1841999999999
 43
-26026.03537735191
 44
-445.7326853102032
 45
4.204232793272717
 46
27.10790408921299
 79
     2
 49
2.857499999999999
 49
-31.4325
 53
186.6355999999999
 43
-26025.68502735191
 44
-443.473695310203
 45
-24.74255558900492
 46
23.74042344662371
 79
     2
 49
2.4285
 49
-26.7135
 53
81.18400000000004
 43
-26026.03537735191
 44
-445.7326853102032
 45
-24.74251178605976
 46
23.74046058139339
 79
     2
 49
2.286
 49
-25.146
 53
111.0
 43
-26024.76537735192
 44
-443.1926853102033
 45
10.22655185167625
 46
15.16148798353833
 79
     2
 49
1.905
 49
-20.955
 53
56.00000000000004
 43
-26024.76537735192
 44
-443.1926853102033
 45
-18.41879661223192
 46
6.180202834764708
 79
     2
 49
1.524
 49
-16.764
 53
161.4514
 43
-26023.91316735192
 44
-441.9292353102037
 45
-8.192285771605742
 46
21.34164907701245
 79
     2
 49
1.618999999999999
 49
-17.80899999999998
 53
127.5
 43
-26020.95537735191
 44
-445.7326853102032
 45
-8.455503887315311
 46
0.3088603250591822
 79
     6
 49
0.0
 49
-16.5608
 49
0.0
 49
-17.018
 49
0.0
 49
-16.8275
 53
97.49999999999996
 43
-26020.95537735191
 44
-445.7326853102032
 45
-10.01805748181195
 46
6.681966251030575
 79
     6
 49
0.0
 49
-9.702799999999999
 49
0.0
 49
-16.1798
 49
0.0
 49
-6.4135
 53
57.5
 43
-26020.95537735191
 44
-451.3968853102034
 45
0.5728743992673473
 46
13.55905951668713
 79
     6
 49
0.0
 49
-6.35
 49
0.0
 49
-19.812
 49
0.0
 49
-26.289
 53
47.5
 43
-26020.95537735191
 44
-453.9368853102033
 45
-2.5426491033333
 46
14.8129181386018
 79
     6
 49
0.0
 49
-8.255
 49
0.0
 49
-13.1572
 49
0.0
 49
-18.669
 47
0.9787225881951403
 98
        2
 10
-83.5053278065834
 20
231.7340203031334
 10
-87.42265414360099
 20
231.7340203031334
  0
HATCH
  5
275F
330
1F
100
AcDbEntity
  8
CETRIS
100
AcDbHatch
 10
0.0
 20
0.0
 30
0.0
210
0.0
220
0.0
230
1.0
  2
ANSI31
 70
     0
 71
     0
 91
        6
 92
        7
 72
     0
 73
     1
 93
        4
 10
107.8999641464461
 20
400.5719786437574
 10
95.89996414644975
 20
400.5719786437574
 10
95.89996414644611
 20
385.4212279464462
 10
107.8999641464424
 20
385.4212279464462
 97
        0
 92
        7
 72
     0
 73
     1
 93
       28
 10
107.8999641464497
 20
385.4212279464462
 10
95.89996414644611
 20
385.4212279464462
 10
95.89996414644975
 20
377.8919126046556
 10
95.89996414644975
 20
370.827260778661
 10
97.01041474046633
 20
370.9660066745326
 10
96.84730838278392
 20
371.4510405232102
 10
97.16910269951677
 20
371.7720441885111
 10
97.35411466515415
 20
371.451040523213
 10
97.49668035262857
 20
371.0270890288146
 10
99.45147645746601
 20
371.2706313481038
 10
99.270648874789
 20
371.8084140630907
 10
99.59165254195159
 20
372.1294177283942
 10
99.77745515717016
 20
371.8084140630998
 10
99.96966697832887
 20
371.2367745294276
 10
102.1146988722603
 20
371.2367745294276
 10
101.9224870511452
 20
371.808414063087
 10
102.2442813676561
 20
372.1294177283961
 10
102.4292933333081
 20
371.8084140630616
 10
102.6215051544486
 20
371.2367745294276
 10
104.7665370483873
 20
371.2367745294276
 10
104.5743252272686
 20
371.8084140630925
 10
104.8961195437795
 20
372.1294177283951
 10
105.0811315096425
 20
371.808414063107
 10
105.2733433307612
 20
371.2367745294276
 10
107.4190344022636
 20
371.2367745294276
 10
107.2269540529696
 20
371.8084140630934
 10
107.5479577198884
 20
372.1294177283942
 10
107.8999641464497
 20
371.5212704587874
 97
        0
 92
        7
 72
     0
 73
     1
 93
       25
 10
107.8999641464497
 20
368.9423098911019
 10
106.0448491498091
 20
368.9423098911019
 10
106.2370609709278
 20
368.3706703574433
 10
105.9160573037652
 20
368.0496666884236
 10
105.7302546885503
 20
368.3706703574443
 10
105.5380428674316
 20
368.9423098911019
 10
103.3930109736493
 20
368.9423098911019
 10
103.5852227948043
 20
368.3706703574397
 10
103.264219127649
 20
368.0496666884263
 10
103.0784165124414
 20
368.3706703574306
 10
102.8862046913227
 20
368.9423098911019
 10
100.7411727975368
 20
368.9423098911019
 10
100.9333846186919
 20
368.3706703574388
 10
100.6115903019444
 20
368.049666688419
 10
100.4265783363143
 20
368.3706703574306
 10
100.2343665151556
 20
368.9423098911019
 10
99.17972419090347
 20
368.9423098911019
 10
98.15462294141525
 20
369.0705471099853
 10
98.31712566663828
 20
368.5873082997212
 10
97.99612199948297
 20
368.2655139836823
 10
97.8103193842535
 20
368.5873082997048
 10
97.62568271927648
 20
369.1363674135926
 10
95.89996414644611
 20
369.3520822361341
 10
95.89996414644611
 20
342.4820264133103
 10
107.8999641464497
 20
342.4820264133103
 97
        0
 92
        7
 72
     0
 73
     1
 93
        5
 10
107.8999641464461
 20
342.4820264133103
 10
95.89996414644611
 20
342.4820264133103
 10
95.89996414644975
 20
330.6084471849852
 10
95.89996414644975
 20
300.5860137047983
 10
107.8999641464497
 20
300.5860137047983
 97
        0
 92
        7
 72
     0
 73
     1
 93
        5
 10
107.8999641464461
 20
300.5860137047983
 10
95.89996414644611
 20
300.5860137047983
 10
95.89996414644975
 20
283.3249817653148
 10
95.89996414644975
 20
256.1597031704603
 10
107.8999641464497
 20
256.1597031704603
 97
        0
 92
        7
 72
     0
 73
     1
 93
       12
 10
106.700037369711
 20
254.776504003449
 10
107.8999641464533
 20
254.776504003449
 10
107.8999641464533
 20
256.1597031704603
 10
95.89996414644611
 20
256.1597031704603
 10
95.89996414644611
 20
252.0758616923593
 10
96.11835751706076
 20
251.6985522968015
 10
96.34448907131719
 20
251.026035198366
 10
101.3003668753581
 20
251.026035198366
 10
102.823994828791
 20
251.2529980892494
 10
104.2378620384906
 20
251.8659839383934
 10
105.4452302213858
 20
252.8240650083779
 10
106.3633137318347
 20
254.0611988172849
 97
        0
 75
     0
 76
     1
 52
0.0
 41
1.0
 77
     0
 78
     1
 53
45.0
 43
-26020.95537735191
 44
-445.7326853102032
 45
-2.245064030267287
 46
2.245064030267288
 79
     0
 47
0.4429849781637515
 98
        6
 10
103.7915966943246
 20
391.4235081492178
 10
103.1017854842712
 20
380.3932948677637
 10
105.1712191144242
 20
353.507108090357
 10
104.4814079043708
 20
327.310329818977
 10
103.7915966943246
 20
283.1894518612415
 10
99.13601016744269
 20
254.4305164147871
  0
HATCH
  5
2760
330
1F
100
AcDbEntity
  8
CETRIS
100
AcDbHatch
 10
0.0
 20
0.0
 30
0.0
210
0.0
220
0.0
230
1.0
  2
ANSI31
 70
     0
 71
     0
 91
        7
 92
        7
 72
     1
 73
     1
 93
       54
 10
107.8999641464461
 20
88.94922369269432
 42
0.0
 10
102.9956147516413
 20
88.94922369269432
 42
-0.4263640095865357
 10
101.7466809302559
 20
87.64760674004618
 42
-1.0
 10
101.7466809302559
 20
90.14760674004618
 42
-0.4021666184496856
 10
102.9956147516413
 20
88.94922369269432
 42
0.0
 10
107.8999641464497
 20
88.94922369269432
 42
0.0
 10
107.8999641464497
 20
119.2491323513366
 42
0.0
 10
107.5479577198921
 20
118.640985081728
 42
0.0
 10
107.2269540529696
 20
118.9619887470352
 42
0.0
 10
107.4190344022672
 20
119.5336282806992
 42
0.0
 10
105.2733433307612
 20
119.5336282806992
 42
0.0
 10
105.0811315096534
 20
118.961988747057
 42
0.0
 10
104.8961195437795
 20
118.6409850817316
 42
0.0
 10
104.5743252272723
 20
118.9619887470315
 42
0.0
 10
104.7665370483873
 20
119.5336282806992
 42
0.0
 10
102.621505154445
 20
119.5336282806992
 42
0.0
 10
102.4292933332899
 20
118.9619887470342
 42
0.0
 10
102.2442813676525
 20
118.6409850817289
 42
0.0
 10
101.9224870511452
 20
118.961988747037
 42
0.0
 10
102.1146988722603
 20
119.5336282806992
 42
0.0
 10
99.96966697832887
 20
119.5336282806992
 42
0.0
 10
99.77745515718471
 20
118.9619887470533
 42
0.0
 10
99.59165254194795
 20
118.6409850817325
 42
0.0
 10
99.27064887479264
 20
118.9619887470333
 42
0.0
 10
99.45147645746601
 20
119.4997714620229
 42
0.0
 10
97.49668035263949
 20
119.7433137813112
 42
0.0
 10
97.35411466516872
 20
119.3193622869356
 42
0.0
 10
97.16910269952041
 20
118.9983586216129
 42
0.0
 10
96.84730838277666
 20
119.3193622869138
 42
0.0
 10
97.01041474046997
 20
119.8043961355941
 42
0.0
 10
95.89996414644975
 20
119.9431420314666
 42
0.0
 10
95.89996414644975
 20
-78.58167942600733
 42
0.0
 10
97.62568271929104
 20
-78.36596460346402
 42
0.0
 10
97.81031938425712
 20
-77.81690548960625
 42
0.0
 10
97.99612199947933
 20
-77.49511117355552
 42
0.0
 10
98.31712566664192
 20
-77.81690548959352
 42
0.0
 10
98.15462294141889
 20
-78.30014429985761
 42
0.0
 10
99.17972419090347
 20
-78.17190708097507
 42
0.0
 10
100.234366515152
 20
-78.17190708097507
 42
0.0
 10
100.4265783363143
 20
-77.60026754729927
 42
0.0
 10
100.6115903019444
 20
-77.27926387829495
 42
0.0
 10
100.9333846186882
 20
-77.60026754730927
 42
0.0
 10
100.7411727975368
 20
-78.17190708097507
 42
0.0
 10
102.8862046913118
 20
-78.17190708097507
 42
0.0
 10
103.0784165124341
 20
-77.60026754728653
 42
0.0
 10
103.2642191276454
 20
-77.27926387829859
 42
0.0
 10
103.5852227948043
 20
-77.60026754731109
 42
0.0
 10
103.3930109736493
 20
-78.17190708097507
 42
0.0
 10
105.5380428674388
 20
-78.17190708097507
 42
0.0
 10
105.7302546885539
 20
-77.60026754731291
 42
0.0
 10
105.9160573037688
 20
-77.27926387829768
 42
0.0
 10
106.2370609709278
 20
-77.60026754731109
 42
0.0
 10
106.0448491498127
 20
-78.17190708097507
 42
0.0
 10
107.8999641464533
 20
-78.17190708097507
 42
0.0
 97
        0
 92
        7
 72
     1
 73
     1
 93
       27
 10
107.8999641464461
 20
144.2432474449686
 42
0.0
 10
96.08297856098852
 20
144.2432474449686
 42
-0.1864700104517666
 10
95.89996414644975
 20
143.3610094628028
 42
0.0
 10
95.89996414644975
 20
141.4745855063037
 42
0.0
 10
95.89996414644611
 20
121.4183205739926
 42
0.0
 10
97.62568271929104
 20
121.6340353965359
 42
0.0
 10
97.81031938426076
 20
122.1830945104037
 42
0.0
 10
97.99612199947569
 20
122.5048888264472
 42
0.0
 10
98.31712566664192
 20
122.1830945104073
 42
0.0
 10
98.15462294141889
 20
121.6998557001414
 42
0.0
 10
99.17972419090711
 20
121.8280929190249
 42
0.0
 10
100.234366515152
 20
121.8280929190249
 42
0.0
 10
100.4265783363034
 20
122.3997324526898
 42
0.0
 10
100.6115903019481
 20
122.7207361217014
 42
0.0
 10
100.9333846186882
 20
122.3997324526971
 42
0.0
 10
100.7411727975331
 20
121.8280929190249
 42
0.0
 10
102.8862046913118
 20
121.8280929190249
 42
0.0
 10
103.0784165124378
 20
122.3997324527052
 42
0.0
 10
103.2642191276454
 20
122.7207361217023
 42
0.0
 10
103.5852227948043
 20
122.3997324526916
 42
0.0
 10
103.3930109736456
 20
121.8280929190249
 42
0.0
 10
105.5380428674352
 20
121.8280929190249
 42
0.0
 10
105.7302546885393
 20
122.399732452687
 42
0.0
 10
105.9160573037688
 20
122.7207361217023
 42
0.0
 10
106.2370609709314
 20
122.3997324526916
 42
0.0
 10
106.0448491498091
 20
121.8280929190249
 42
0.0
 10
107.8999641464497
 20
121.8280929190249
 42
0.0
 97
        0
 92
        7
 72
     1
 73
     1
 93
       26
 10
107.8999641464461
 20
168.9423098911019
 42
0.0
 10
106.0448491498127
 20
168.9423098911019
 42
0.0
 10
106.2370609709241
 20
168.370670357436
 42
0.0
 10
105.9160573037725
 20
168.0496666884263
 42
0.0
 10
105.7302546885393
 20
168.3706703574651
 42
0.0
 10
105.5380428674388
 20
168.9423098911019
 42
0.0
 10
103.3930109736529
 20
168.9423098911019
 42
0.0
 10
103.5852227948043
 20
168.3706703574388
 42
0.0
 10
103.2642191276454
 20
168.0496666884245
 42
0.0
 10
103.0784165124341
 20
168.3706703574451
 42
0.0
 10
102.8862046913191
 20
168.9423098911019
 42
0.0
 10
100.7411727975331
 20
168.9423098911019
 42
0.0
 10
100.9333846186846
 20
168.3706703574406
 42
0.0
 10
100.6115903019372
 20
168.0496666884199
 42
0.0
 10
100.4265783362998
 20
168.3706703574333
 42
0.0
 10
100.2343665151447
 20
168.9423098911019
 42
0.0
 10
99.17972419090347
 20
168.9423098911019
 42
0.0
 10
98.15462294141525
 20
169.0705471099853
 42
0.0
 10
98.31712566663464
 20
168.5873082997258
 42
0.0
 10
97.99612199947933
 20
168.2655139836769
 42
0.0
 10
97.81031938425712
 20
168.5873082997176
 42
0.0
 10
97.62568271928376
 20
169.1363674135917
 42
0.0
 10
95.89996414645339
 20
169.3520822361341
 42
0.0
 10
95.89996414645339
 20
144.7169182728965
 42
-0.1026292068418625
 10
96.08297856098852
 20
144.2432474449686
 42
0.0
 10
107.8999641464497
 20
144.2432474449686
 42
0.0
 97
        0
 92
        7
 72
     0
 73
     1
 93
       15
 10
-27.10384380473715
 20
229.2656538694962
 10
-28.52522239018526
 20
229.2656538694962
 10
-28.29909083588518
 20
228.5931367710671
 10
-28.67674220901335
 20
228.2154854001209
 10
-28.89533352105445
 20
228.5931367710826
 10
-29.1214650753036
 20
229.2656538694962
 10
-34.0773428793409
 20
229.2656538694962
 10
-35.6009708327665
 20
229.0386909786128
 10
-37.01483804247345
 20
228.4257051294642
 10
-38.2222062253686
 20
227.4676240594843
 10
-39.14028973582117
 20
226.2304902505692
 10
-39.47701337370108
 20
225.5151850644132
 10
-40.67694015042525
 20
225.5151850644132
 10
-40.67694015041797
 20
-94.79168176373525
 10
-27.10384380474079
 20
-94.79168176373525
 97
        0
 92
        7
 72
     0
 73
     1
 93
       18
 10
-27.10384380474079
 20
244.178367356976
 10
-40.67694015042525
 20
244.178367356976
 10
-40.67694015042525
 20
235.715492841681
 10
-39.4770133736938
 20
235.715492841681
 10
-38.7328727372269
 20
234.3658077581402
 10
-37.6641007478147
 20
233.2551778577725
 10
-36.34511146950262
 20
232.4589473784525
 10
-34.86427160246694
 20
232.031066514154
 10
-34.0773428793409
 20
231.9650240322324
 10
-30.02911898005641
 20
231.9650240322324
 10
-30.25525053430192
 20
232.637541130657
 10
-29.87666898547558
 20
233.0151925059698
 10
-29.65900784942732
 20
232.6375411306652
 10
-29.43287629512724
 20
231.9650240322324
 10
-27.10384380473715
 20
231.9650240322324
 10
-27.10384380474079
 20
232.546274989022
 10
-27.13451073963824
 20
232.6375411306606
 10
-27.10384380473715
 20
232.6682080657427
 97
        0
 92
        7
 72
     0
 73
     1
 93
       28
 10
107.8999641464497
 20
200.9253256823338
 10
95.89996414644611
 20
200.9253256823338
 10
95.89996414644975
 20
188.758050925974
 10
95.89996414645339
 20
170.827260778661
 10
97.01041474047361
 20
170.9660066745326
 10
96.84730838277666
 20
171.4510405232102
 10
97.16910269951677
 20
171.772044188512
 10
97.35411466515779
 20
171.4510405232057
 10
97.49668035263585
 20
171.0270890288155
 10
99.45147645746965
 20
171.2706313481038
 10
99.270648874789
 20
171.8084140630888
 10
99.59165254194795
 20
172.1294177283933
 10
99.77745515718106
 20
171.8084140630907
 10
99.96966697833977
 20
171.2367745294276
 10
102.1146988722603
 20
171.2367745294276
 10
101.9224870511452
 20
171.8084140630898
 10
102.2442813676525
 20
172.1294177283979
 10
102.4292933333044
 20
171.8084140630825
 10
102.6215051544486
 20
171.2367745294276
 10
104.766537048391
 20
171.2367745294276
 10
104.5743252272723
 20
171.8084140630934
 10
104.8961195437759
 20
172.1294177283952
 10
105.0811315096352
 20
171.808414063097
 10
105.2733433307575
 20
171.2367745294276
 10
107.4190344022636
 20
171.2367745294276
 10
107.2269540529696
 20
171.8084140630916
 10
107.5479577198921
 20
172.1294177283961
 10
107.8999641464533
 20
171.5212704587792
 97
        0
 92
        7
 72
     0
 73
     1
 93
       16
 10
107.8999641464497
 20
244.5761962261812
 10
106.7000373697146
 20
244.5761962261812
 10
105.9558967332513
 20
245.9258813097256
 10
104.8871247438246
 20
247.0365112100925
 10
103.5681354655416
 20
247.8327416894024
 10
102.0872955984877
 20
248.2606225537082
 10
101.3003668753581
 20
248.3266650356298
 10
97.25214297607363
 20
248.3266650356298
 10
97.47827453032641
 20
247.6541479372052
 10
97.09969298148918
 20
247.2764965618906
 10
96.88203184544818
 20
247.6541479371934
 10
96.6559002911481
 20
248.3266650356298
 10
95.89996414644611
 20
248.3266650356298
 10
95.89996414644975
 20
236.0415163456444
 10
95.89996414645339
 20
200.9253256823338
 10
107.8999641464497
 20
200.9253256823338
 97
        0
 75
     0
 76
     1
 52
0.0
 41
1.0
 77
     0
 78
     1
 53
45.0
 43
-26020.95537735191
 44
-445.7326853102032
 45
-2.245064030267287
 46
2.245064030267288
 79
     0
 47
0.689388909751642
 98
        7
 10
101.7110566803958
 20
47.10131900938984
 10
101.7110566803958
 20
134.6537160826727
 10
101.0212454703423
 20
156.7141674774965
 10
-31.42271641358183
 20
147.7521052183609
 10
-32.11252762363528
 20
239.4408291682001
 10
102.4008678904419
 20
189.1154484796705
 10
103.0906791004954
 20
217.3803777733727
  0
LINE
  5
2761
330
1F
100
AcDbEntity
  8
CETRIS
100
AcDbLine
 10
-40.67694015042889
 20
244.178367356976
 30
0.0
 11
-27.10384380473351
 21
244.178367356976
 31
0.0
  0
LINE
  5
2762
330
1F
100
AcDbEntity
  8
CETRIS
100
AcDbLine
 10
-40.67694015042889
 20
249.178367356976
 30
0.0
 11
-27.10384380473351
 21
249.178367356976
 31
0.0
  0
LINE
  5
2763
330
1F
100
AcDbEntity
  8
SPOJOVACÍ
  6
Continuous
100
AcDbLine
 10
-17.77508188247247
 20
232.6375411306606
 30
0.0
 11
-16.41516486893033
 21
228.593136771068
 31
0.0
  0
LINE
  5
2764
330
1F
100
AcDbEntity
  8
SPOJOVACÍ
  6
Continuous
100
AcDbLine
 10
-17.17883919731775
 20
232.6375411306606
 30
0.0
 11
-15.81892218377561
 21
228.593136771068
 31
0.0
  0
LINE
  5
2765
330
1F
100
AcDbEntity
  8
SPOJOVACÍ
  6
Continuous
100
AcDbLine
 10
-16.19657355690378
 20
228.2154854001226
 30
0.0
 11
-16.41516486893033
 21
228.593136771068
 31
0.0
  0
LINE
  5
2766
330
1F
100
AcDbEntity
  8
SPOJOVACÍ
  6
Continuous
100
AcDbLine
 10
-16.19657355690378
 20
228.2154854001226
 30
0.0
 11
-15.81892218377561
 21
228.593136771068
 31
0.0
  0
LINE
  5
2767
330
1F
100
AcDbEntity
  8
SPOJOVACÍ
  6
Continuous
100
AcDbLine
 10
-17.39650033336602
 20
233.0151925059716
 30
0.0
 11
-17.77508188247247
 21
232.6375411306606
 31
0.0
  0
LINE
  5
2768
330
1F
100
AcDbEntity
  8
SPOJOVACÍ
  6
Continuous
100
AcDbLine
 10
-17.39650033336602
 20
233.0151925059716
 30
0.0
 11
-17.17883919731775
 21
232.6375411306606
 31
0.0
  0
LINE
  5
2769
330
1F
100
AcDbEntity
  8
SPOJOVACÍ
  6
Continuous
100
AcDbLine
 10
-17.39650033336602
 20
233.0151925059716
 30
0.0
 11
-16.19657355690378
 21
228.2154854001226
 31
0.0
  0
LINE
  5
276A
330
1F
100
AcDbEntity
  8
SPOJOVACÍ
  6
Continuous
100
AcDbLine
 10
-20.89489150143435
 20
232.6375411306606
 30
0.0
 11
-19.53497448789221
 21
228.593136771068
 31
0.0
  0
LINE
  5
276B
330
1F
100
AcDbEntity
  8
SPOJOVACÍ
  6
Continuous
100
AcDbLine
 10
-20.29864881628691
 20
232.6375411306606
 30
0.0
 11
-18.93873180301397
 21
228.593136771068
 31
0.0
  0
LINE
  5
276C
330
1F
100
AcDbEntity
  8
SPOJOVACÍ
  6
Continuous
100
AcDbLine
 10
-19.31731335184394
 20
228.2154854001226
 30
0.0
 11
-19.53497448789221
 21
228.593136771068
 31
0.0
  0
LINE
  5
276D
330
1F
100
AcDbEntity
  8
SPOJOVACÍ
  6
Continuous
100
AcDbLine
 10
-19.31731335184394
 20
228.2154854001226
 30
0.0
 11
-18.93873180301397
 21
228.593136771068
 31
0.0
  0
LINE
  5
276E
330
1F
100
AcDbEntity
  8
SPOJOVACÍ
  6
Continuous
100
AcDbLine
 10
-20.51724012830618
 20
233.0151925059716
 30
0.0
 11
-20.89489150143435
 21
232.6375411306606
 31
0.0
  0
LINE
  5
276F
330
1F
100
AcDbEntity
  8
SPOJOVACÍ
  6
Continuous
100
AcDbLine
 10
-20.51724012830618
 20
233.0151925059716
 30
0.0
 11
-20.29864881628691
 21
232.6375411306606
 31
0.0
  0
LINE
  5
2770
330
1F
100
AcDbEntity
  8
SPOJOVACÍ
  6
Continuous
100
AcDbLine
 10
-20.51724012830618
 20
233.0151925059716
 30
0.0
 11
-19.31731335184394
 21
228.2154854001226
 31
0.0
  0
LINE
  5
2771
330
1F
100
AcDbEntity
  8
SPOJOVACÍ
  6
Continuous
100
AcDbLine
 10
-24.01470112040351
 20
232.6375411306606
 30
0.0
 11
-22.65478410713058
 21
228.593136771068
 31
0.0
  0
LINE
  5
2772
330
1F
100
AcDbEntity
  8
SPOJOVACÍ
  6
Continuous
100
AcDbLine
 10
-23.41845843524879
 20
232.6375411306606
 30
0.0
 11
-22.05854142198313
 21
228.593136771068
 31
0.0
  0
LINE
  5
2773
330
1F
100
AcDbEntity
  8
SPOJOVACÍ
  6
Continuous
100
AcDbLine
 10
-22.4371229708131
 20
228.2154854001226
 30
0.0
 11
-22.65478410713058
 21
228.593136771068
 31
0.0
  0
LINE
  5
2774
330
1F
100
AcDbEntity
  8
SPOJOVACÍ
  6
Continuous
100
AcDbLine
 10
-22.4371229708131
 20
228.2154854001226
 30
0.0
 11
-22.05854142198313
 21
228.593136771068
 31
0.0
  0
LINE
  5
2775
330
1F
100
AcDbEntity
  8
SPOJOVACÍ
  6
Continuous
100
AcDbLine
 10
-23.63704974727534
 20
233.0151925059716
 30
0.0
 11
-24.01470112040351
 21
232.6375411306606
 31
0.0
  0
LINE
  5
2776
330
1F
100
AcDbEntity
  8
SPOJOVACÍ
  6
Continuous
100
AcDbLine
 10
-23.63704974727534
 20
233.0151925059716
 30
0.0
 11
-23.41845843524879
 21
232.6375411306606
 31
0.0
  0
LINE
  5
2777
330
1F
100
AcDbEntity
  8
SPOJOVACÍ
  6
Continuous
100
AcDbLine
 10
-23.63704974727534
 20
233.0151925059716
 30
0.0
 11
-22.4371229708131
 21
228.2154854001226
 31
0.0
  0
LINE
  5
2778
330
1F
100
AcDbEntity
  8
SPOJOVACÍ
  6
Continuous
100
AcDbLine
 10
-8.291009468434822
 20
231.6320210949732
 30
0.0
 11
-7.980330752660847
 21
229.4777339535165
 31
0.0
  0
LINE
  5
2779
330
1F
100
AcDbEntity
  8
SPOJOVACÍ
  6
Continuous
100
AcDbLine
 10
-8.668660841562996
 20
231.2543697240279
 30
0.0
 11
-8.197991888978322
 21
229.8553853244619
 31
0.0
  0
LINE
  5
277A
330
1F
100
AcDbEntity
  8
SPOJOVACÍ
  6
Continuous
100
AcDbLine
 10
-8.072418156415551
 20
231.2543697240279
 30
0.0
 11
-7.601749203830877
 21
229.8553853244619
 31
0.0
  0
LINE
  5
277B
330
1F
100
AcDbEntity
  8
SPOJOVACÍ
  6
Continuous
100
AcDbLine
 10
-7.980330752660847
 20
229.4777339535165
 30
0.0
 11
-8.197991888978322
 21
229.8553853244619
 31
0.0
  0
LINE
  5
277C
330
1F
100
AcDbEntity
  8
SPOJOVACÍ
  6
Continuous
100
AcDbLine
 10
-7.980330752660847
 20
229.4777339535165
 30
0.0
 11
-7.601749203830877
 21
229.8553853244619
 31
0.0
  0
LINE
  5
277D
330
1F
100
AcDbEntity
  8
SPOJOVACÍ
  6
Continuous
100
AcDbLine
 10
-8.291009468434822
 20
231.6320210949732
 30
0.0
 11
-8.668660841562996
 21
231.2543697240279
 31
0.0
  0
LINE
  5
277E
330
1F
100
AcDbEntity
  8
SPOJOVACÍ
  6
Continuous
100
AcDbLine
 10
-8.291009468434822
 20
231.6320210949732
 30
0.0
 11
-8.072418156415551
 21
231.2543697240279
 31
0.0
  0
LINE
  5
277F
330
1F
100
AcDbEntity
  8
SPOJOVACÍ
  6
Continuous
100
AcDbLine
 10
-11.30477904675444
 20
232.1966378054447
 30
0.0
 11
-10.67132932998447
 21
229.0805488890135
 31
0.0
  0
LINE
  5
2780
330
1F
100
AcDbEntity
  8
SPOJOVACÍ
  6
Continuous
100
AcDbLine
 10
-11.6833605958609
 20
231.8189864301337
 30
0.0
 11
-10.88899046603273
 21
229.4582002599589
 31
0.0
  0
LINE
  5
2781
330
1F
100
AcDbEntity
  8
SPOJOVACÍ
  6
Continuous
100
AcDbLine
 10
-11.08711791070618
 20
231.8189864301337
 30
0.0
 11
-10.2927477811545
 21
229.4582002599589
 31
0.0
  0
LINE
  5
2782
330
1F
100
AcDbEntity
  8
SPOJOVACÍ
  6
Continuous
100
AcDbLine
 10
-10.67132932998447
 20
229.0805488890135
 30
0.0
 11
-10.88899046603273
 21
229.4582002599589
 31
0.0
  0
LINE
  5
2783
330
1F
100
AcDbEntity
  8
SPOJOVACÍ
  6
Continuous
100
AcDbLine
 10
-10.67132932998447
 20
229.0805488890135
 30
0.0
 11
-10.2927477811545
 21
229.4582002599589
 31
0.0
  0
LINE
  5
2784
330
1F
100
AcDbEntity
  8
SPOJOVACÍ
  6
Continuous
100
AcDbLine
 10
-11.30477904675444
 20
232.1966378054447
 30
0.0
 11
-11.6833605958609
 21
231.8189864301337
 31
0.0
  0
LINE
  5
2785
330
1F
100
AcDbEntity
  8
SPOJOVACÍ
  6
Continuous
100
AcDbLine
 10
-11.30477904675444
 20
232.1966378054447
 30
0.0
 11
-11.08711791070618
 21
231.8189864301337
 31
0.0
  0
LINE
  5
2786
330
1F
100
AcDbEntity
  8
SPOJOVACÍ
  6
Continuous
100
AcDbLine
 10
-14.31947880105235
 20
232.7612545115506
 30
0.0
 11
-13.34651491874774
 21
228.6359248588076
 31
0.0
  0
LINE
  5
2787
330
1F
100
AcDbEntity
  8
SPOJOVACÍ
  6
Continuous
100
AcDbLine
 10
-14.69713017418053
 20
232.3826729632663
 30
0.0
 11
-13.564176054796
 21
229.013576229753
 31
0.0
  0
LINE
  5
2788
330
1F
100
AcDbEntity
  8
SPOJOVACÍ
  6
Continuous
100
AcDbLine
 10
-14.1008874890258
 20
232.3826729632663
 30
0.0
 11
-12.96793336964128
 21
229.013576229753
 31
0.0
  0
LINE
  5
2789
330
1F
100
AcDbEntity
  8
SPOJOVACÍ
  6
Continuous
100
AcDbLine
 10
-13.34651491874774
 20
228.6359248588076
 30
0.0
 11
-13.564176054796
 21
229.013576229753
 31
0.0
  0
LINE
  5
278A
330
1F
100
AcDbEntity
  8
SPOJOVACÍ
  6
Continuous
100
AcDbLine
 10
-13.34651491874774
 20
228.6359248588076
 30
0.0
 11
-12.96793336964128
 21
229.013576229753
 31
0.0
  0
LINE
  5
278B
330
1F
100
AcDbEntity
  8
SPOJOVACÍ
  6
Continuous
100
AcDbLine
 10
-14.31947880105235
 20
232.7612545115506
 30
0.0
 11
-14.69713017418053
 21
232.3826729632663
 31
0.0
  0
LINE
  5
278C
330
1F
100
AcDbEntity
  8
SPOJOVACÍ
  6
Continuous
100
AcDbLine
 10
-14.31947880105235
 20
232.7612545115506
 30
0.0
 11
-14.1008874890258
 21
232.3826729632663
 31
0.0
  0
LINE
  5
278D
330
1F
100
AcDbEntity
  8
SPOJOVACÍ
  6
Continuous
100
AcDbLine
 10
-27.13451073964188
 20
232.6375411306606
 30
0.0
 11
-25.77552390180153
 21
228.593136771068
 31
0.0
  0
LINE
  5
278E
330
1F
100
AcDbEntity
  8
SPOJOVACÍ
  6
Continuous
100
AcDbLine
 10
-26.53826805448716
 20
232.6375411306606
 30
0.0
 11
-25.1792812169233
 21
228.593136771068
 31
0.0
  0
LINE
  5
278F
330
1F
100
AcDbEntity
  8
SPOJOVACÍ
  6
Continuous
100
AcDbLine
 10
-25.55693258977498
 20
228.2154854001226
 30
0.0
 11
-25.77552390180153
 21
228.593136771068
 31
0.0
  0
LINE
  5
2790
330
1F
100
AcDbEntity
  8
SPOJOVACÍ
  6
Continuous
100
AcDbLine
 10
-25.55693258977498
 20
228.2154854001226
 30
0.0
 11
-25.1792812169233
 21
228.593136771068
 31
0.0
  0
LINE
  5
2791
330
1F
100
AcDbEntity
  8
SPOJOVACÍ
  6
Continuous
100
AcDbLine
 10
-26.75685936651371
 20
233.0151925059716
 30
0.0
 11
-27.13451073964188
 21
232.6375411306606
 31
0.0
  0
LINE
  5
2792
330
1F
100
AcDbEntity
  8
SPOJOVACÍ
  6
Continuous
100
AcDbLine
 10
-26.75685936651371
 20
233.0151925059716
 30
0.0
 11
-26.53826805448716
 21
232.6375411306606
 31
0.0
  0
LINE
  5
2793
330
1F
100
AcDbEntity
  8
SPOJOVACÍ
  6
Continuous
100
AcDbLine
 10
-26.75685936651371
 20
233.0151925059716
 30
0.0
 11
-25.55693258977498
 21
228.2154854001226
 31
0.0
  0
LINE
  5
2794
330
1F
100
AcDbEntity
  8
SPOJOVACÍ
  6
Continuous
100
AcDbLine
 10
-30.25525053430555
 20
232.6375411306606
 30
0.0
 11
-28.8953335210399
 21
228.593136771068
 31
0.0
  0
LINE
  5
2795
330
1F
100
AcDbEntity
  8
SPOJOVACÍ
  6
Continuous
100
AcDbLine
 10
-29.65900784942732
 20
232.6375411306606
 30
0.0
 11
-28.29909083588518
 21
228.593136771068
 31
0.0
  0
LINE
  5
2796
330
1F
100
AcDbEntity
  8
SPOJOVACÍ
  6
Continuous
100
AcDbLine
 10
-28.67674220901335
 20
228.2154854001226
 30
0.0
 11
-28.8953335210399
 21
228.593136771068
 31
0.0
  0
LINE
  5
2797
330
1F
100
AcDbEntity
  8
SPOJOVACÍ
  6
Continuous
100
AcDbLine
 10
-28.67674220901335
 20
228.2154854001226
 30
0.0
 11
-28.29909083588518
 21
228.593136771068
 31
0.0
  0
LINE
  5
2798
330
1F
100
AcDbEntity
  8
SPOJOVACÍ
  6
Continuous
100
AcDbLine
 10
-29.87666898547558
 20
233.0151925059716
 30
0.0
 11
-30.25525053430555
 21
232.6375411306606
 31
0.0
  0
LINE
  5
2799
330
1F
100
AcDbEntity
  8
SPOJOVACÍ
  6
Continuous
100
AcDbLine
 10
-29.87666898547558
 20
233.0151925059716
 30
0.0
 11
-29.65900784942732
 21
232.6375411306606
 31
0.0
  0
LINE
  5
279A
330
1F
100
AcDbEntity
  8
SPOJOVACÍ
  6
Continuous
100
AcDbLine
 10
-29.87666898547558
 20
233.0151925059716
 30
0.0
 11
-28.67674220901335
 21
228.2154854001226
 31
0.0
  0
LINE
  5
279B
330
1F
100
AcDbEntity
  8
SPOJOVACÍ
  6
Continuous
100
AcDbLine
 10
-13.74090945614534
 20
229.511220280964
 30
0.0
 11
-15.71195196743156
 21
229.2656538694962
 31
0.0
  0
LINE
  5
279C
330
1F
100
AcDbEntity
  8
SPOJOVACÍ
  6
Continuous
100
AcDbLine
 10
-11.03409789024681
 20
229.8498042735253
 30
0.0
 11
-13.1707116931002
 21
229.5828438181878
 31
0.0
  0
LINE
  5
279D
330
1F
100
AcDbEntity
  8
SPOJOVACÍ
  6
Continuous
100
AcDbLine
 10
-8.317054390813609
 20
230.1893184346944
 30
0.0
 11
-10.46203977579807
 21
229.9214278063835
 31
0.0
  0
LINE
  5
279E
330
1F
100
AcDbEntity
  8
SPOJOVACÍ
  6
Continuous
100
AcDbLine
 10
-8.000794620283159
 20
231.0013619069458
 30
0.0
 11
-4.911680802478258
 21
230.6153389530471
 31
0.0
  0
LINE
  5
279F
330
1F
100
AcDbEntity
  8
SPOJOVACÍ
  6
Continuous
100
AcDbLine
 10
-10.9420104864921
 20
231.3687813446257
 30
0.0
 11
-8.621221876136587
 21
231.0785664994717
 31
0.0
  0
LINE
  5
27A0
330
1F
100
AcDbEntity
  8
SPOJOVACÍ
  6
Continuous
100
AcDbLine
 10
-13.89438846222128
 20
231.7380611369834
 30
0.0
 11
-11.57266967615669
 21
231.4478462874638
 31
0.0
  0
LINE
  5
27A1
330
1F
100
AcDbEntity
  8
SPOJOVACÍ
  6
Continuous
100
AcDbLine
 10
-4.911680802478258
 20
230.6153389530471
 30
0.0
 11
-7.747786803746748
 21
230.2609419719181
 31
0.0
  0
LINE
  5
27A2
330
1F
100
AcDbEntity
  8
SPOJOVACÍ
  6
Continuous
100
AcDbLine
 10
-15.71195196743156
 20
231.9650240322324
 30
0.0
 11
-14.51481571807471
 21
231.8152657295093
 31
0.0
  0
LINE
  5
27A3
330
1F
100
AcDbEntity
  8
SPOJOVACÍ
  6
Continuous
100
AcDbLine
 10
-16.04867560531511
 20
229.2656538694962
 30
0.0
 11
-15.71195196743156
 21
229.2656538694962
 31
0.0
  0
LINE
  5
27A4
330
1F
100
AcDbEntity
  8
SPOJOVACÍ
  6
Continuous
100
AcDbLine
 10
-19.17127575192807
 20
229.2656538694962
 30
0.0
 11
-16.65235969689911
 21
229.2656538694962
 31
0.0
  0
LINE
  5
27A5
330
1F
100
AcDbEntity
  8
SPOJOVACÍ
  6
Continuous
100
AcDbLine
 10
-16.9593177093202
 20
231.9650240322324
 30
0.0
 11
-15.71195196743156
 21
231.9650240322324
 31
0.0
  0
LINE
  5
27A6
330
1F
100
AcDbEntity
  8
SPOJOVACÍ
  6
Continuous
100
AcDbLine
 10
-20.07354627380209
 20
231.9650240322324
 30
0.0
 11
-17.55556039447492
 21
231.9650240322324
 31
0.0
  0
LINE
  5
27A7
330
1F
100
AcDbEntity
  8
SPOJOVACÍ
  6
Continuous
100
AcDbLine
 10
-22.29294572257003
 20
229.2656538694962
 30
0.0
 11
-19.77216931586099
 21
229.2656538694962
 31
0.0
  0
LINE
  5
27A8
330
1F
100
AcDbEntity
  8
SPOJOVACÍ
  6
Continuous
100
AcDbLine
 10
-25.41554586891379
 20
229.2656538694962
 30
0.0
 11
-22.88732805604468
 21
229.2656538694962
 31
0.0
  0
LINE
  5
27A9
330
1F
100
AcDbEntity
  8
SPOJOVACÍ
  6
Continuous
100
AcDbLine
 10
-28.53070460909748
 20
229.2656538694962
 30
0.0
 11
-26.01178855406852
 21
229.2656538694962
 31
0.0
  0
LINE
  5
27AA
330
1F
100
AcDbEntity
  8
SPOJOVACÍ
  6
Continuous
100
AcDbLine
 10
-23.206378353957
 20
231.9650240322324
 30
0.0
 11
-20.67816054108789
 21
231.9650240322324
 31
0.0
  0
LINE
  5
27AB
330
1F
100
AcDbEntity
  8
SPOJOVACÍ
  6
Continuous
100
AcDbLine
 10
-26.32153709414069
 20
231.9650240322324
 30
0.0
 11
-23.80076068743164
 21
231.9650240322324
 31
0.0
  0
LINE
  5
27AC
330
1F
100
AcDbEntity
  8
SPOJOVACÍ
  6
Continuous
100
AcDbLine
 10
-29.44413724048445
 20
231.9650240322324
 30
0.0
 11
-26.92522118545548
 21
231.9650240322324
 31
0.0
  0
LINE
  5
27AD
330
1F
100
AcDbEntity
  8
SPOJOVACÍ
  6
Continuous
100
AcDbLine
 10
-34.0773428793409
 20
231.9650240322324
 30
0.0
 11
-30.03944974966088
 21
231.9650240322324
 31
0.0
  0
LINE
  5
27AE
330
1F
100
AcDbEntity
  8
SPOJOVACÍ
  6
Continuous
100
AcDbLine
 10
-34.0773428793409
 20
229.2656538694962
 30
0.0
 11
-29.13438870041227
 21
229.2656538694962
 31
0.0
  0
LINE
  5
27AF
330
1F
100
AcDbEntity
  8
SPOJOVACÍ
  6
Continuous
100
AcDbLine
 10
-39.47701337369744
 20
235.715492841681
 30
0.0
 11
-38.73287273722326
 21
234.3658077581302
 31
0.0
  0
LINE
  5
27B0
330
1F
100
AcDbEntity
  8
SPOJOVACÍ
  6
Continuous
100
AcDbLine
 10
-38.73287273722326
 20
234.3658077581302
 30
0.0
 11
-37.66410074781106
 21
233.2551778577716
 31
0.0
  0
LINE
  5
27B1
330
1F
100
AcDbEntity
  8
SPOJOVACÍ
  6
Continuous
100
AcDbLine
 10
-37.66410074781106
 20
233.2551778577716
 30
0.0
 11
-36.34511146951354
 21
232.4589473784534
 31
0.0
  0
LINE
  5
27B2
330
1F
100
AcDbEntity
  8
SPOJOVACÍ
  6
Continuous
100
AcDbLine
 10
-36.34511146951354
 20
232.4589473784534
 30
0.0
 11
-34.8642716024633
 21
232.031066514154
 31
0.0
  0
LINE
  5
27B3
330
1F
100
AcDbEntity
  8
SPOJOVACÍ
  6
Continuous
100
AcDbLine
 10
-34.8642716024633
 20
232.031066514154
 30
0.0
 11
-34.0773428793409
 21
231.9650240322324
 31
0.0
  0
LINE
  5
27B4
330
1F
100
AcDbEntity
  8
SPOJOVACÍ
  6
Continuous
100
AcDbLine
 10
-38.22220622537225
 20
227.4676240594807
 30
0.0
 11
-39.14028973581389
 21
226.230490250581
 31
0.0
  0
LINE
  5
27B5
330
1F
100
AcDbEntity
  8
SPOJOVACÍ
  6
Continuous
100
AcDbLine
 10
-39.14028973581389
 20
226.230490250581
 30
0.0
 11
-39.47701337369744
 21
225.5151850644132
 31
0.0
  0
LINE
  5
27B6
330
1F
100
AcDbEntity
  8
SPOJOVACÍ
  6
Continuous
100
AcDbLine
 10
-39.47701337369744
 20
235.715492841681
 30
0.0
 11
-39.47701337369744
 21
225.5151850644132
 31
0.0
  0
LINE
  5
27B7
330
1F
100
AcDbEntity
  8
SPOJOVACÍ
  6
Continuous
100
AcDbLine
 10
-40.67694015042889
 20
235.715492841681
 30
0.0
 11
-39.47701337369744
 21
235.715492841681
 31
0.0
  0
LINE
  5
27B8
330
1F
100
AcDbEntity
  8
SPOJOVACÍ
  6
Continuous
100
AcDbLine
 10
-40.67694015042889
 20
235.715492841681
 30
0.0
 11
-40.67694015042889
 21
225.5151850644132
 31
0.0
  0
LINE
  5
27B9
330
1F
100
AcDbEntity
  8
SPOJOVACÍ
  6
Continuous
100
AcDbLine
 10
-40.67694015042889
 20
225.5151850644132
 30
0.0
 11
-39.47701337369744
 21
225.5151850644132
 31
0.0
  0
LINE
  5
27BA
330
1F
100
AcDbEntity
  8
SPOJOVACÍ
  6
Continuous
100
AcDbLine
 10
-34.0773428793409
 20
229.2656538694962
 30
0.0
 11
-35.60097083277014
 21
229.0386909786128
 31
0.0
  0
LINE
  5
27BB
330
1F
100
AcDbEntity
  8
SPOJOVACÍ
  6
Continuous
100
AcDbLine
 10
-35.60097083277014
 20
229.0386909786128
 30
0.0
 11
-37.01483804247345
 21
228.4257051294651
 31
0.0
  0
LINE
  5
27BC
330
1F
100
AcDbEntity
  8
SPOJOVACÍ
  6
Continuous
100
AcDbLine
 10
-37.01483804247345
 20
228.4257051294651
 30
0.0
 11
-38.22220622537225
 21
227.4676240594807
 31
0.0
  0
LINE
  5
27BD
330
1F
100
AcDbEntity
  8
izolace
  6
IZOLACE
 48
5.799999999999999
100
AcDbLine
 10
32.80111280873734
 20
-83.55414541597303
 30
0.0
 11
32.80111280875553
 21
216.5230150136566
 31
0.0
  0
INSERT
  5
27BE
330
1F
100
AcDbEntity
  8
POPIS
100
AcDbBlockReference
  2
E_PUNKT
 10
114.5261230396818
 20
42.64587445422864
 30
0.0
 50
270.0
  0
INSERT
  5
27BF
330
1F
100
AcDbEntity
  8
POPIS
100
AcDbBlockReference
  2
E_PUNKT
 10
101.7176125993819
 20
88.92521711567303
 30
0.0
 50
270.0
  0
INSERT
  5
27C0
330
1F
100
AcDbEntity
  8
POPIS
100
AcDbBlockReference
  2
E_PUNKT
 10
94.82071591447583
 20
144.0665742434793
 30
0.0
 50
270.0
  0
INSERT
  5
27C1
330
1F
100
AcDbEntity
  8
POPIS
100
AcDbBlockReference
  2
E_PUNKT
 10
33.15275047638988
 20
201.1051891422138
 30
0.0
 50
270.0
  0
INSERT
  5
27C2
330
1F
100
AcDbEntity
  8
POPIS
100
AcDbBlockReference
  2
E_PUNKT
 10
20.91621927653159
 20
256.1873135460863
 30
0.0
 50
270.0
  0
INSERT
  5
27C3
330
1F
100
AcDbEntity
  8
POPIS
100
AcDbBlockReference
  2
E_PUNKT
 10
-33.08067227492665
 20
300.6136240804234
 30
0.0
 50
270.0
  0
INSERT
  5
27C4
330
1F
100
AcDbEntity
  8
POPIS
100
AcDbBlockReference
  2
E_PUNKT
 10
-60.70600848130289
 20
342.5096367889354
 30
0.0
 50
270.0
  0
LINE
  5
27C5
330
1F
100
AcDbEntity
  8
POPIS
100
AcDbLine
 10
232.9626672122421
 20
42.96210302811494
 30
0.0
 11
113.3534115334832
 21
42.96210302811402
 31
0.0
  0
TEXT
  5
27C6
330
1F
100
AcDbEntity
  8
POPIS
100
AcDbText
 10
235.0127241138098
 20
30.96471695026855
 30
0.0
 40
25.0
  1
08
 41
0.85
  7
SIMPLEX7
100
AcDbText
  0
LINE
  5
27C7
330
1F
100
AcDbEntity
  8
POPIS
100
AcDbLine
 10
232.9626672122421
 20
88.94922369269522
 30
0.0
 11
100.4977471088704
 21
88.94922369269432
 31
0.0
  0
TEXT
  5
27C8
330
1F
100
AcDbEntity
  8
POPIS
100
AcDbText
 10
235.0127241138098
 20
76.95183761484884
 30
0.0
 40
25.0
  1
07
 41
0.85
  7
SIMPLEX7
100
AcDbText
  0
LINE
  5
27C9
330
1F
100
AcDbEntity
  8
POPIS
100
AcDbLine
 10
232.9626672122421
 20
144.2432474449695
 30
0.0
 11
93.61658992971115
 21
144.2432474449686
 31
0.0
  0
TEXT
  5
27CA
330
1F
100
AcDbEntity
  8
POPIS
100
AcDbText
 10
235.0127241138098
 20
132.2458613671232
 30
0.0
 40
25.0
  1
06
 41
0.85
  7
SIMPLEX7
100
AcDbText
  0
LINE
  5
27CB
330
1F
100
AcDbEntity
  8
POPIS
100
AcDbLine
 10
232.9626672122421
 20
200.9253256823348
 30
0.0
 11
31.94112585639504
 21
200.9253256823329
 31
0.0
  0
TEXT
  5
27CC
330
1F
100
AcDbEntity
  8
POPIS
100
AcDbText
 10
235.0127241138098
 20
188.9279396044884
 30
0.0
 40
25.0
  1
05
 41
0.85
  7
SIMPLEX7
100
AcDbText
  0
LINE
  5
27CD
330
1F
100
AcDbEntity
  8
POPIS
100
AcDbLine
 10
232.9626672122421
 20
256.1597031704613
 30
0.0
 11
20.94528760740558
 21
256.1597031704594
 31
0.0
  0
TEXT
  5
27CE
330
1F
100
AcDbEntity
  8
POPIS
100
AcDbText
 10
235.0127241138098
 20
244.1623170926149
 30
0.0
 40
25.0
  1
04
 41
0.85
  7
SIMPLEX7
100
AcDbText
  0
LINE
  5
27CF
330
1F
100
AcDbEntity
  8
POPIS
100
AcDbLine
 10
232.9626672122421
 20
300.5860137047992
 30
0.0
 11
-33.05160394405266
 21
300.5860137047974
 31
0.0
  0
TEXT
  5
27D0
330
1F
100
AcDbEntity
  8
POPIS
100
AcDbText
 10
235.0127241138098
 20
288.5886276269528
 30
0.0
 40
25.0
  1
03
 41
0.85
  7
SIMPLEX7
100
AcDbText
  0
LINE
  5
27D1
330
1F
100
AcDbEntity
  8
POPIS
100
AcDbLine
 10
232.9626672122421
 20
342.4820264133112
 30
0.0
 11
-60.67694015042889
 21
342.4820264133094
 31
0.0
  0
TEXT
  5
27D2
330
1F
100
AcDbEntity
  8
POPIS
100
AcDbText
 10
235.0127241138098
 20
330.4846403354648
 30
0.0
 40
25.0
  1
02
 41
0.85
  7
SIMPLEX7
100
AcDbText
  0
INSERT
  5
27D3
330
1F
100
AcDbEntity
  8
POPIS
100
AcDbBlockReference
  2
E_PUNKT
 10
-85.70600848130288
 20
385.4488383220713
 30
0.0
 50
270.0
  0
TEXT
  5
27D4
330
1F
100
AcDbEntity
  8
POPIS
100
AcDbText
 10
235.0127241138098
 20
373.4238418686008
 30
0.0
 40
25.0
  1
01
 41
0.85
  7
SIMPLEX7
100
AcDbText
  0
LINE
  5
27D5
330
1F
100
AcDbEntity
  8
POPIS
100
AcDbLine
 10
232.9626672122421
 20
385.4212279464471
 30
0.0
 11
-85.67694015042889
 21
385.4212279464444
 31
0.0
  0
LINE
  5
27D6
330
1F
100
AcDbEntity
  8
SPOJOVACÍ
  6
Continuous
100
AcDbLine
 10
100.9333846186882
 20
368.3706703574379
 30
0.0
 11
99.77745515717742
 21
371.8084140630916
 31
0.0
  0
LINE
  5
27D7
330
1F
100
AcDbEntity
  8
SPOJOVACÍ
  6
Continuous
100
AcDbLine
 10
100.4265783363071
 20
368.3706703574379
 30
0.0
 11
99.27064887479264
 21
371.8084140630916
 31
0.0
  0
LINE
  5
27D8
330
1F
100
AcDbEntity
  8
SPOJOVACÍ
  6
Continuous
100
AcDbLine
 10
99.59165254195159
 20
372.1294177283951
 30
0.0
 11
99.77745515717742
 21
371.8084140630916
 31
0.0
  0
LINE
  5
27D9
330
1F
100
AcDbEntity
  8
SPOJOVACÍ
  6
Continuous
100
AcDbLine
 10
99.59165254195159
 20
372.1294177283951
 30
0.0
 11
99.27064887479264
 21
371.8084140630916
 31
0.0
  0
LINE
  5
27DA
330
1F
100
AcDbEntity
  8
SPOJOVACÍ
  6
Continuous
100
AcDbLine
 10
100.6115903019444
 20
368.0496666884236
 30
0.0
 11
100.9333846186882
 21
368.3706703574379
 31
0.0
  0
LINE
  5
27DB
330
1F
100
AcDbEntity
  8
SPOJOVACÍ
  6
Continuous
100
AcDbLine
 10
100.6115903019444
 20
368.0496666884236
 30
0.0
 11
100.4265783363071
 21
368.3706703574379
 31
0.0
  0
LINE
  5
27DC
330
1F
100
AcDbEntity
  8
SPOJOVACÍ
  6
Continuous
100
AcDbLine
 10
100.6115903019444
 20
368.0496666884236
 30
0.0
 11
99.59165254195159
 21
372.1294177283951
 31
0.0
  0
LINE
  5
27DD
330
1F
100
AcDbEntity
  8
SPOJOVACÍ
  6
Continuous
100
AcDbLine
 10
103.5852227948043
 20
368.3706703574379
 30
0.0
 11
102.4292933332935
 21
371.8084140630916
 31
0.0
  0
LINE
  5
27DE
330
1F
100
AcDbEntity
  8
SPOJOVACÍ
  6
Continuous
100
AcDbLine
 10
103.0784165124305
 20
368.3706703574379
 30
0.0
 11
101.9224870511452
 21
371.8084140630916
 31
0.0
  0
LINE
  5
27DF
330
1F
100
AcDbEntity
  8
SPOJOVACÍ
  6
Continuous
100
AcDbLine
 10
102.2442813676525
 20
372.1294177283951
 30
0.0
 11
102.4292933332935
 21
371.8084140630916
 31
0.0
  0
LINE
  5
27E0
330
1F
100
AcDbEntity
  8
SPOJOVACÍ
  6
Continuous
100
AcDbLine
 10
102.2442813676525
 20
372.1294177283951
 30
0.0
 11
101.9224870511452
 21
371.8084140630916
 31
0.0
  0
LINE
  5
27E1
330
1F
100
AcDbEntity
  8
SPOJOVACÍ
  6
Continuous
100
AcDbLine
 10
103.2642191276454
 20
368.0496666884236
 30
0.0
 11
103.5852227948043
 21
368.3706703574379
 31
0.0
  0
LINE
  5
27E2
330
1F
100
AcDbEntity
  8
SPOJOVACÍ
  6
Continuous
100
AcDbLine
 10
103.2642191276454
 20
368.0496666884236
 30
0.0
 11
103.0784165124305
 21
368.3706703574379
 31
0.0
  0
LINE
  5
27E3
330
1F
100
AcDbEntity
  8
SPOJOVACÍ
  6
Continuous
100
AcDbLine
 10
103.2642191276454
 20
368.0496666884236
 30
0.0
 11
102.2442813676525
 21
372.1294177283951
 31
0.0
  0
LINE
  5
27E4
330
1F
100
AcDbEntity
  8
SPOJOVACÍ
  6
Continuous
100
AcDbLine
 10
106.2370609709278
 20
368.3706703574379
 30
0.0
 11
105.0811315096461
 21
371.8084140630916
 31
0.0
  0
LINE
  5
27E5
330
1F
100
AcDbEntity
  8
SPOJOVACÍ
  6
Continuous
100
AcDbLine
 10
105.7302546885466
 20
368.3706703574379
 30
0.0
 11
104.5743252272723
 21
371.8084140630916
 31
0.0
  0
LINE
  5
27E6
330
1F
100
AcDbEntity
  8
SPOJOVACÍ
  6
Continuous
100
AcDbLine
 10
104.8961195437759
 20
372.1294177283951
 30
0.0
 11
105.0811315096461
 21
371.8084140630916
 31
0.0
  0
LINE
  5
27E7
330
1F
100
AcDbEntity
  8
SPOJOVACÍ
  6
Continuous
100
AcDbLine
 10
104.8961195437759
 20
372.1294177283951
 30
0.0
 11
104.5743252272723
 21
371.8084140630916
 31
0.0
  0
LINE
  5
27E8
330
1F
100
AcDbEntity
  8
SPOJOVACÍ
  6
Continuous
100
AcDbLine
 10
105.9160573037688
 20
368.0496666884236
 30
0.0
 11
106.2370609709278
 21
368.3706703574379
 31
0.0
  0
LINE
  5
27E9
330
1F
100
AcDbEntity
  8
SPOJOVACÍ
  6
Continuous
100
AcDbLine
 10
105.9160573037688
 20
368.0496666884236
 30
0.0
 11
105.7302546885466
 21
368.3706703574379
 31
0.0
  0
LINE
  5
27EA
330
1F
100
AcDbEntity
  8
SPOJOVACÍ
  6
Continuous
100
AcDbLine
 10
105.9160573037688
 20
368.0496666884236
 30
0.0
 11
104.8961195437759
 21
372.1294177283951
 31
0.0
  0
LINE
  5
27EB
330
1F
100
AcDbEntity
  8
SPOJOVACÍ
  6
Continuous
100
AcDbLine
 10
92.87192306675478
 20
369.2253623877721
 30
0.0
 11
92.60784615834836
 21
371.0565064580104
 31
0.0
  0
LINE
  5
27EC
330
1F
100
AcDbEntity
  8
SPOJOVACÍ
  6
Continuous
100
AcDbLine
 10
93.19292673391373
 20
369.5463660530757
 30
0.0
 11
92.79285812421495
 21
370.7355027927068
 31
0.0
  0
LINE
  5
27ED
330
1F
100
AcDbEntity
  8
SPOJOVACÍ
  6
Continuous
100
AcDbLine
 10
92.68612045153986
 20
369.5463660530757
 30
0.0
 11
92.28605184184107
 21
370.7355027927068
 31
0.0
  0
LINE
  5
27EE
330
1F
100
AcDbEntity
  8
SPOJOVACÍ
  6
Continuous
100
AcDbLine
 10
92.60784615834836
 20
371.0565064580104
 30
0.0
 11
92.79285812421495
 21
370.7355027927068
 31
0.0
  0
LINE
  5
27EF
330
1F
100
AcDbEntity
  8
SPOJOVACÍ
  6
Continuous
100
AcDbLine
 10
92.60784615834836
 20
371.0565064580104
 30
0.0
 11
92.28605184184107
 21
370.7355027927068
 31
0.0
  0
LINE
  5
27F0
330
1F
100
AcDbEntity
  8
SPOJOVACÍ
  6
Continuous
100
AcDbLine
 10
92.87192306675478
 20
369.2253623877721
 30
0.0
 11
93.19292673391373
 21
369.5463660530757
 31
0.0
  0
LINE
  5
27F1
330
1F
100
AcDbEntity
  8
SPOJOVACÍ
  6
Continuous
100
AcDbLine
 10
92.87192306675478
 20
369.2253623877721
 30
0.0
 11
92.68612045153986
 21
369.5463660530757
 31
0.0
  0
LINE
  5
27F2
330
1F
100
AcDbEntity
  8
SPOJOVACÍ
  6
Continuous
100
AcDbLine
 10
95.43362720832647
 20
368.7454381838714
 30
0.0
 11
94.89519494907199
 21
371.3941137628379
 31
0.0
  0
LINE
  5
27F3
330
1F
100
AcDbEntity
  8
SPOJOVACÍ
  6
Continuous
100
AcDbLine
 10
95.7554215250666
 20
369.0664418528857
 30
0.0
 11
95.08020691471301
 21
371.0731100975343
 31
0.0
  0
LINE
  5
27F4
330
1F
100
AcDbEntity
  8
SPOJOVACÍ
  6
Continuous
100
AcDbLine
 10
95.24861524268544
 20
369.0664418528857
 30
0.0
 11
94.5734006325647
 21
371.0731100975343
 31
0.0
  0
LINE
  5
27F5
330
1F
100
AcDbEntity
  8
SPOJOVACÍ
  6
Continuous
100
AcDbLine
 10
94.89519494907199
 20
371.3941137628379
 30
0.0
 11
95.08020691471301
 21
371.0731100975343
 31
0.0
  0
LINE
  5
27F6
330
1F
100
AcDbEntity
  8
SPOJOVACÍ
  6
Continuous
100
AcDbLine
 10
94.89519494907199
 20
371.3941137628379
 30
0.0
 11
94.5734006325647
 21
371.0731100975343
 31
0.0
  0
LINE
  5
27F7
330
1F
100
AcDbEntity
  8
SPOJOVACÍ
  6
Continuous
100
AcDbLine
 10
95.43362720832647
 20
368.7454381838714
 30
0.0
 11
95.7554215250666
 21
369.0664418528857
 31
0.0
  0
LINE
  5
27F8
330
1F
100
AcDbEntity
  8
SPOJOVACÍ
  6
Continuous
100
AcDbLine
 10
95.43362720832647
 20
368.7454381838714
 30
0.0
 11
95.24861524268544
 21
369.0664418528857
 31
0.0
  0
LINE
  5
27F9
330
1F
100
AcDbEntity
  8
SPOJOVACÍ
  6
Continuous
100
AcDbLine
 10
97.99612199947933
 20
368.2655139836814
 30
0.0
 11
97.16910269952041
 21
371.7720441885129
 31
0.0
  0
LINE
  5
27FA
330
1F
100
AcDbEntity
  8
SPOJOVACÍ
  6
Continuous
100
AcDbLine
 10
98.31712566663828
 20
368.587308299723
 30
0.0
 11
97.35411466516143
 21
371.4510405232093
 31
0.0
  0
LINE
  5
27FB
330
1F
100
AcDbEntity
  8
SPOJOVACÍ
  6
Continuous
100
AcDbLine
 10
97.81031938425712
 20
368.587308299723
 30
0.0
 11
96.84730838278028
 21
371.4510405232093
 31
0.0
  0
LINE
  5
27FC
330
1F
100
AcDbEntity
  8
SPOJOVACÍ
  6
Continuous
100
AcDbLine
 10
97.16910269952041
 20
371.7720441885129
 30
0.0
 11
97.35411466516143
 21
371.4510405232093
 31
0.0
  0
LINE
  5
27FD
330
1F
100
AcDbEntity
  8
SPOJOVACÍ
  6
Continuous
100
AcDbLine
 10
97.16910269952041
 20
371.7720441885129
 30
0.0
 11
96.84730838278028
 21
371.4510405232093
 31
0.0
  0
LINE
  5
27FE
330
1F
100
AcDbEntity
  8
SPOJOVACÍ
  6
Continuous
100
AcDbLine
 10
97.99612199947933
 20
368.2655139836814
 30
0.0
 11
98.31712566663828
 21
368.587308299723
 31
0.0
  0
LINE
  5
27FF
330
1F
100
AcDbEntity
  8
SPOJOVACÍ
  6
Continuous
100
AcDbLine
 10
97.99612199947933
 20
368.2655139836814
 30
0.0
 11
97.81031938425712
 21
368.587308299723
 31
0.0
  0
LINE
  5
2800
330
1F
100
AcDbEntity
  8
SPOJOVACÍ
  6
Continuous
100
AcDbLine
 10
108.8888991472804
 20
368.3706703574379
 30
0.0
 11
107.7337603351179
 21
371.8084140630916
 31
0.0
  0
LINE
  5
2801
330
1F
100
AcDbEntity
  8
SPOJOVACÍ
  6
Continuous
100
AcDbLine
 10
108.3820928648992
 20
368.3706703574379
 30
0.0
 11
107.2269540529696
 21
371.8084140630916
 31
0.0
  0
LINE
  5
2802
330
1F
100
AcDbEntity
  8
SPOJOVACÍ
  6
Continuous
100
AcDbLine
 10
107.5479577198921
 20
372.1294177283951
 30
0.0
 11
107.7337603351179
 21
371.8084140630916
 31
0.0
  0
LINE
  5
2803
330
1F
100
AcDbEntity
  8
SPOJOVACÍ
  6
Continuous
100
AcDbLine
 10
107.5479577198921
 20
372.1294177283951
 30
0.0
 11
107.2269540529696
 21
371.8084140630916
 31
0.0
  0
LINE
  5
2804
330
1F
100
AcDbEntity
  8
SPOJOVACÍ
  6
Continuous
100
AcDbLine
 10
108.5678954801214
 20
368.0496666884236
 30
0.0
 11
108.8888991472804
 21
368.3706703574379
 31
0.0
  0
LINE
  5
2805
330
1F
100
AcDbEntity
  8
SPOJOVACÍ
  6
Continuous
100
AcDbLine
 10
108.5678954801214
 20
368.0496666884236
 30
0.0
 11
108.3820928648992
 21
368.3706703574379
 31
0.0
  0
LINE
  5
2806
330
1F
100
AcDbEntity
  8
SPOJOVACÍ
  6
Continuous
100
AcDbLine
 10
108.5678954801214
 20
368.0496666884236
 30
0.0
 11
107.5479577198921
 21
372.1294177283951
 31
0.0
  0
LINE
  5
2807
330
1F
100
AcDbEntity
  8
SPOJOVACÍ
  6
Continuous
100
AcDbLine
 10
111.5415279727449
 20
368.3706703574379
 30
0.0
 11
110.3855985114705
 21
371.8084140630916
 31
0.0
  0
LINE
  5
2808
330
1F
100
AcDbEntity
  8
SPOJOVACÍ
  6
Continuous
100
AcDbLine
 10
111.0347216906002
 20
368.3706703574379
 30
0.0
 11
109.8787922290857
 21
371.8084140630916
 31
0.0
  0
LINE
  5
2809
330
1F
100
AcDbEntity
  8
SPOJOVACÍ
  6
Continuous
100
AcDbLine
 10
110.1997958962447
 20
372.1294177283951
 30
0.0
 11
110.3855985114705
 21
371.8084140630916
 31
0.0
  0
LINE
  5
280A
330
1F
100
AcDbEntity
  8
SPOJOVACÍ
  6
Continuous
100
AcDbLine
 10
110.1997958962447
 20
372.1294177283951
 30
0.0
 11
109.8787922290857
 21
371.8084140630916
 31
0.0
  0
LINE
  5
280B
330
1F
100
AcDbEntity
  8
SPOJOVACÍ
  6
Continuous
100
AcDbLine
 10
111.2197336562376
 20
368.0496666884236
 30
0.0
 11
111.5415279727449
 21
368.3706703574379
 31
0.0
  0
LINE
  5
280C
330
1F
100
AcDbEntity
  8
SPOJOVACÍ
  6
Continuous
100
AcDbLine
 10
111.2197336562376
 20
368.0496666884236
 30
0.0
 11
111.0347216906002
 21
368.3706703574379
 31
0.0
  0
LINE
  5
280D
330
1F
100
AcDbEntity
  8
SPOJOVACÍ
  6
Continuous
100
AcDbLine
 10
111.2197336562376
 20
368.0496666884236
 30
0.0
 11
110.1997958962447
 21
372.1294177283951
 31
0.0
  0
LINE
  5
280E
330
1F
100
AcDbEntity
  8
SPOJOVACÍ
  6
Continuous
100
AcDbLine
 10
97.50433805631018
 20
371.02804307968
 30
0.0
 11
99.17972419090347
 21
371.2367745294276
 31
0.0
  0
LINE
  5
280F
330
1F
100
AcDbEntity
  8
SPOJOVACÍ
  6
Continuous
100
AcDbLine
 10
95.20354822529681
 20
370.7402466860029
 30
0.0
 11
97.01966995772
 21
370.9671630730398
 31
0.0
  0
LINE
  5
2810
330
1F
100
AcDbEntity
  8
SPOJOVACÍ
  6
Continuous
100
AcDbLine
 10
92.89406125077858
 20
370.4516596490092
 30
0.0
 11
94.71729882801355
 21
370.6793666830734
 31
0.0
  0
LINE
  5
2811
330
1F
100
AcDbEntity
  8
SPOJOVACÍ
  6
Continuous
100
AcDbLine
 10
92.62524044582733
 20
369.7614226975955
 30
0.0
 11
89.99949370069135
 21
370.0895422084093
 31
0.0
  0
LINE
  5
2812
330
1F
100
AcDbEntity
  8
SPOJOVACÍ
  6
Continuous
100
AcDbLine
 10
95.12527393210531
 20
369.4491161755676
 30
0.0
 11
93.15260361330274
 21
369.6957987939484
 31
0.0
  0
LINE
  5
2813
330
1F
100
AcDbEntity
  8
SPOJOVACÍ
  6
Continuous
100
AcDbLine
 10
97.63479521147292
 20
369.1352283520635
 30
0.0
 11
95.66133424331837
 21
369.3819109741551
 31
0.0
  0
LINE
  5
2814
330
1F
100
AcDbEntity
  8
SPOJOVACÍ
  6
Continuous
100
AcDbLine
 10
89.99949370069135
 20
370.0895422084093
 30
0.0
 11
92.41018380176956
 21
370.390779642369
 31
0.0
  0
LINE
  5
2815
330
1F
100
AcDbEntity
  8
SPOJOVACÍ
  6
Continuous
100
AcDbLine
 10
99.17972419090347
 20
368.9423098911019
 30
0.0
 11
98.16215837894834
 21
369.0696044484165
 31
0.0
  0
LINE
  5
2816
330
1F
100
AcDbEntity
  8
SPOJOVACÍ
  6
Continuous
100
AcDbLine
 10
99.46593928310448
 20
371.2367745294276
 30
0.0
 11
99.17972419090347
 21
371.2367745294276
 31
0.0
  0
LINE
  5
2817
330
1F
100
AcDbEntity
  8
SPOJOVACÍ
  6
Continuous
100
AcDbLine
 10
102.120149407724
 20
371.2367745294276
 30
0.0
 11
99.97907076094907
 21
371.2367745294276
 31
0.0
  0
LINE
  5
2818
330
1F
100
AcDbEntity
  8
SPOJOVACÍ
  6
Continuous
100
AcDbLine
 10
100.2399850715073
 20
368.9423098911019
 30
0.0
 11
99.17972419090347
 21
368.9423098911019
 31
0.0
  0
LINE
  5
2819
330
1F
100
AcDbEntity
  8
SPOJOVACÍ
  6
Continuous
100
AcDbLine
 10
102.8870793513187
 20
368.9423098911019
 30
0.0
 11
100.7467913538885
 21
368.9423098911019
 31
0.0
  0
LINE
  5
281A
330
1F
100
AcDbEntity
  8
SPOJOVACÍ
  6
Continuous
100
AcDbLine
 10
104.7735688827697
 20
371.2367745294276
 30
0.0
 11
102.6309089370688
 21
371.2367745294276
 31
0.0
  0
LINE
  5
281B
330
1F
100
AcDbEntity
  8
SPOJOVACÍ
  6
Continuous
100
AcDbLine
 10
107.4277790071637
 20
371.2367745294276
 30
0.0
 11
105.2787938662213
 21
371.2367745294276
 31
0.0
  0
LINE
  5
281C
330
1F
100
AcDbEntity
  8
SPOJOVACÍ
  6
Continuous
100
AcDbLine
 10
110.0756639363162
 20
371.2367745294276
 30
0.0
 11
107.9345852895448
 21
371.2367745294276
 31
0.0
  0
LINE
  5
281D
330
1F
100
AcDbEntity
  8
SPOJOVACÍ
  6
Continuous
100
AcDbLine
 10
105.5499866194504
 20
368.9423098911019
 30
0.0
 11
103.401001478508
 21
368.9423098911019
 31
0.0
  0
LINE
  5
281E
330
1F
100
AcDbEntity
  8
SPOJOVACÍ
  6
Continuous
100
AcDbLine
 10
108.1978715486029
 20
368.9423098911019
 30
0.0
 11
106.055211602902
 21
368.9423098911019
 31
0.0
  0
LINE
  5
281F
330
1F
100
AcDbEntity
  8
SPOJOVACÍ
  6
Continuous
100
AcDbLine
 10
110.8520816729969
 20
368.9423098911019
 30
0.0
 11
108.7110030262219
 21
368.9423098911019
 31
0.0
  0
LINE
  5
2820
330
1F
100
AcDbEntity
  8
SPOJOVACÍ
  6
Continuous
100
AcDbLine
 10
114.7903064660267
 20
368.9423098911019
 30
0.0
 11
111.3580973057969
 21
368.9423098911019
 31
0.0
  0
LINE
  5
2821
330
1F
100
AcDbEntity
  8
SPOJOVACÍ
  6
Continuous
100
AcDbLine
 10
114.7903064660267
 20
371.2367745294276
 30
0.0
 11
110.5887954139352
 21
371.2367745294276
 31
0.0
  0
LINE
  5
2822
330
1F
100
AcDbEntity
  8
SPOJOVACÍ
  6
Continuous
100
AcDbLine
 10
119.3800263862276
 20
365.7544114030705
 30
0.0
 11
118.7475068452249
 21
366.9016437240887
 31
0.0
  0
LINE
  5
2823
330
1F
100
AcDbEntity
  8
SPOJOVACÍ
  6
Continuous
100
AcDbLine
 10
118.7475068452249
 20
366.9016437240887
 30
0.0
 11
117.8390506542264
 21
367.8456791393936
 31
0.0
  0
LINE
  5
2824
330
1F
100
AcDbEntity
  8
SPOJOVACÍ
  6
Continuous
100
AcDbLine
 10
117.8390506542264
 20
367.8456791393936
 30
0.0
 11
116.7179097676698
 21
368.522475046814
 31
0.0
  0
LINE
  5
2825
330
1F
100
AcDbEntity
  8
SPOJOVACÍ
  6
Continuous
100
AcDbLine
 10
116.7179097676698
 20
368.522475046814
 30
0.0
 11
115.4591958806804
 21
368.8861737814685
 31
0.0
  0
LINE
  5
2826
330
1F
100
AcDbEntity
  8
SPOJOVACÍ
  6
Continuous
100
AcDbLine
 10
115.4591958806804
 20
368.8861737814685
 30
0.0
 11
114.7903064660267
 21
368.9423098911019
 31
0.0
  0
LINE
  5
2827
330
1F
100
AcDbEntity
  8
SPOJOVACÍ
  6
Continuous
100
AcDbLine
 10
118.313440310153
 20
372.7650998679408
 30
0.0
 11
119.0938112940266
 21
373.8166636055055
 31
0.0
  0
LINE
  5
2828
330
1F
100
AcDbEntity
  8
SPOJOVACÍ
  6
Continuous
100
AcDbLine
 10
119.0938112940266
 20
373.8166636055055
 30
0.0
 11
119.3800263862276
 21
374.4246730137482
 31
0.0
  0
LINE
  5
2829
330
1F
100
AcDbEntity
  8
SPOJOVACÍ
  6
Continuous
100
AcDbLine
 10
119.3800263862276
 20
365.7544114030705
 30
0.0
 11
119.3800263862276
 21
374.4246730137482
 31
0.0
  0
LINE
  5
282A
330
1F
100
AcDbEntity
  8
SPOJOVACÍ
  6
Continuous
100
AcDbLine
 10
120.3999641464497
 20
365.7544114030705
 30
0.0
 11
119.3800263862276
 21
365.7544114030705
 31
0.0
  0
LINE
  5
282B
330
1F
100
AcDbEntity
  8
SPOJOVACÍ
  6
Continuous
100
AcDbLine
 10
120.3999641464497
 20
365.7544114030705
 30
0.0
 11
120.3999641464497
 21
374.4246730137482
 31
0.0
  0
LINE
  5
282C
330
1F
100
AcDbEntity
  8
SPOJOVACÍ
  6
Continuous
100
AcDbLine
 10
120.3999641464497
 20
374.4246730137482
 30
0.0
 11
119.3800263862276
 21
374.4246730137482
 31
0.0
  0
LINE
  5
282D
330
1F
100
AcDbEntity
  8
SPOJOVACÍ
  6
Continuous
100
AcDbLine
 10
114.7903064660267
 20
371.2367745294276
 30
0.0
 11
116.0853902264416
 21
371.4296929866785
 31
0.0
  0
LINE
  5
282E
330
1F
100
AcDbEntity
  8
SPOJOVACÍ
  6
Continuous
100
AcDbLine
 10
116.0853902264416
 20
371.4296929866785
 30
0.0
 11
117.2871773546858
 21
371.950730958454
 31
0.0
  0
LINE
  5
282F
330
1F
100
AcDbEntity
  8
SPOJOVACÍ
  6
Continuous
100
AcDbLine
 10
117.2871773546858
 20
371.950730958454
 30
0.0
 11
118.313440310153
 21
372.7650998679408
 31
0.0
  0
LINE
  5
2830
330
1F
100
AcDbEntity
  8
SPOJOVACÍ
  6
Continuous
100
AcDbLine
 10
117.2871773546858
 20
-81.18032814832725
 30
0.0
 11
118.313440310153
 21
-81.99469705781405
 31
0.0
  0
LINE
  5
2831
330
1F
100
AcDbEntity
  8
SPOJOVACÍ
  6
Continuous
100
AcDbLine
 10
116.0853902264416
 20
-80.65929017655173
 30
0.0
 11
117.2871773546858
 21
-81.18032814832725
 31
0.0
  0
LINE
  5
2832
330
1F
100
AcDbEntity
  8
SPOJOVACÍ
  6
Continuous
100
AcDbLine
 10
114.7903064660267
 20
-80.46637171930081
 30
0.0
 11
116.0853902264416
 21
-80.65929017655173
 31
0.0
  0
LINE
  5
2833
330
1F
100
AcDbEntity
  8
SPOJOVACÍ
  6
Continuous
100
AcDbLine
 10
120.3999641464497
 20
-74.98400859294372
 30
0.0
 11
119.3800263862276
 21
-74.98400859294372
 31
0.0
  0
LINE
  5
2834
330
1F
100
AcDbEntity
  8
SPOJOVACÍ
  6
Continuous
100
AcDbLine
 10
118.313440310153
 20
-81.99469705781405
 30
0.0
 11
119.0938112940266
 21
-83.04626079537877
 31
0.0
  0
LINE
  5
2835
330
1F
100
AcDbEntity
  8
SPOJOVACÍ
  6
Continuous
100
AcDbLine
 10
115.4591958806804
 20
-78.1157709713417
 30
0.0
 11
114.7903064660267
 21
-78.17190708097507
 31
0.0
  0
LINE
  5
2836
330
1F
100
AcDbEntity
  8
SPOJOVACÍ
  6
Continuous
100
AcDbLine
 10
116.7179097676698
 20
-77.75207223668724
 30
0.0
 11
115.4591958806804
 21
-78.1157709713417
 31
0.0
  0
LINE
  5
2837
330
1F
100
AcDbEntity
  8
SPOJOVACÍ
  6
Continuous
100
AcDbLine
 10
117.8390506542264
 20
-77.07527632926678
 30
0.0
 11
116.7179097676698
 21
-77.75207223668724
 31
0.0
  0
LINE
  5
2838
330
1F
100
AcDbEntity
  8
SPOJOVACÍ
  6
Continuous
100
AcDbLine
 10
118.7475068452249
 20
-76.13124091396196
 30
0.0
 11
117.8390506542264
 21
-77.07527632926678
 31
0.0
  0
LINE
  5
2839
330
1F
100
AcDbEntity
  8
SPOJOVACÍ
  6
Continuous
100
AcDbLine
 10
119.3800263862276
 20
-74.98400859294372
 30
0.0
 11
118.7475068452249
 21
-76.13124091396196
 31
0.0
  0
LINE
  5
283A
330
1F
100
AcDbEntity
  8
SPOJOVACÍ
  6
Continuous
100
AcDbLine
 10
114.7903064660267
 20
-80.46637171930081
 30
0.0
 11
110.5887954139352
 21
-80.46637171930081
 31
0.0
  0
LINE
  5
283B
330
1F
100
AcDbEntity
  8
SPOJOVACÍ
  6
Continuous
100
AcDbLine
 10
114.7903064660267
 20
-78.17190708097507
 30
0.0
 11
111.3580973057969
 21
-78.17190708097507
 31
0.0
  0
LINE
  5
283C
330
1F
100
AcDbEntity
  8
SPOJOVACÍ
  6
Continuous
100
AcDbLine
 10
110.8520816729969
 20
-78.17190708097507
 30
0.0
 11
108.7110030262219
 21
-78.17190708097507
 31
0.0
  0
LINE
  5
283D
330
1F
100
AcDbEntity
  8
SPOJOVACÍ
  6
Continuous
100
AcDbLine
 10
108.1978715486029
 20
-78.17190708097507
 30
0.0
 11
106.055211602902
 21
-78.17190708097507
 31
0.0
  0
LINE
  5
283E
330
1F
100
AcDbEntity
  8
SPOJOVACÍ
  6
Continuous
100
AcDbLine
 10
105.5499866194504
 20
-78.17190708097507
 30
0.0
 11
103.401001478508
 21
-78.17190708097507
 31
0.0
  0
LINE
  5
283F
330
1F
100
AcDbEntity
  8
SPOJOVACÍ
  6
Continuous
100
AcDbLine
 10
110.0756639363162
 20
-80.46637171930081
 30
0.0
 11
107.9345852895448
 21
-80.46637171930081
 31
0.0
  0
LINE
  5
2840
330
1F
100
AcDbEntity
  8
SPOJOVACÍ
  6
Continuous
100
AcDbLine
 10
107.4277790071637
 20
-80.46637171930081
 30
0.0
 11
105.2787938662213
 21
-80.46637171930081
 31
0.0
  0
LINE
  5
2841
330
1F
100
AcDbEntity
  8
SPOJOVACÍ
  6
Continuous
100
AcDbLine
 10
104.7735688827697
 20
-80.46637171930081
 30
0.0
 11
102.6309089370688
 21
-80.46637171930081
 31
0.0
  0
LINE
  5
2842
330
1F
100
AcDbEntity
  8
SPOJOVACÍ
  6
Continuous
100
AcDbLine
 10
102.8870793513187
 20
-78.17190708097507
 30
0.0
 11
100.7467913538885
 21
-78.17190708097507
 31
0.0
  0
LINE
  5
2843
330
1F
100
AcDbEntity
  8
SPOJOVACÍ
  6
Continuous
100
AcDbLine
 10
100.2399850715073
 20
-78.17190708097507
 30
0.0
 11
99.17972419090347
 21
-78.17190708097507
 31
0.0
  0
LINE
  5
2844
330
1F
100
AcDbEntity
  8
SPOJOVACÍ
  6
Continuous
100
AcDbLine
 10
102.120149407724
 20
-80.46637171930081
 30
0.0
 11
99.97907076094907
 21
-80.46637171930081
 31
0.0
  0
LINE
  5
2845
330
1F
100
AcDbEntity
  8
SPOJOVACÍ
  6
Continuous
100
AcDbLine
 10
99.46593928310448
 20
-80.46637171930081
 30
0.0
 11
99.17972419090347
 21
-80.46637171930081
 31
0.0
  0
LINE
  5
2846
330
1F
100
AcDbEntity
  8
SPOJOVACÍ
  6
Continuous
100
AcDbLine
 10
99.17972419090347
 20
-78.17190708097507
 30
0.0
 11
98.16215837894834
 21
-78.29920163828967
 31
0.0
  0
LINE
  5
2847
330
1F
100
AcDbEntity
  8
SPOJOVACÍ
  6
Continuous
100
AcDbLine
 10
89.99949370069135
 20
-79.31913939828257
 30
0.0
 11
92.41018380176956
 21
-79.62037683224219
 31
0.0
  0
LINE
  5
2848
330
1F
100
AcDbEntity
  8
SPOJOVACÍ
  6
Continuous
100
AcDbLine
 10
97.63479521147292
 20
-78.36482554193674
 30
0.0
 11
95.66133424331837
 21
-78.61150816402835
 31
0.0
  0
LINE
  5
2849
330
1F
100
AcDbEntity
  8
SPOJOVACÍ
  6
Continuous
100
AcDbLine
 10
95.12527393210531
 20
-78.67871336544078
 30
0.0
 11
93.15260361330274
 21
-78.92539598382166
 31
0.0
  0
LINE
  5
284A
330
1F
100
AcDbEntity
  8
SPOJOVACÍ
  6
Continuous
100
AcDbLine
 10
92.62524044582733
 20
-78.99101988746872
 30
0.0
 11
89.99949370069135
 21
-79.31913939828257
 31
0.0
  0
LINE
  5
284B
330
1F
100
AcDbEntity
  8
SPOJOVACÍ
  6
Continuous
100
AcDbLine
 10
92.89406125077858
 20
-79.6812568388824
 30
0.0
 11
94.71729882801355
 21
-79.90896387294663
 31
0.0
  0
LINE
  5
284C
330
1F
100
AcDbEntity
  8
SPOJOVACÍ
  6
Continuous
100
AcDbLine
 10
95.20354822529681
 20
-79.96984387587611
 30
0.0
 11
97.01966995772
 21
-80.19676026291302
 31
0.0
  0
LINE
  5
284D
330
1F
100
AcDbEntity
  8
SPOJOVACÍ
  6
Continuous
100
AcDbLine
 10
97.50433805631018
 20
-80.25764026955323
 30
0.0
 11
99.17972419090347
 21
-80.46637171930081
 31
0.0
  0
LINE
  5
284E
330
1F
100
AcDbEntity
  8
SPOJOVACÍ
  6
Continuous
100
AcDbLine
 10
111.2197336562376
 20
-77.27926387829677
 30
0.0
 11
110.1997958962447
 21
-81.35901491826837
 31
0.0
  0
LINE
  5
284F
330
1F
100
AcDbEntity
  8
SPOJOVACÍ
  6
Continuous
100
AcDbLine
 10
111.2197336562376
 20
-77.27926387829677
 30
0.0
 11
111.0347216906002
 21
-77.60026754731109
 31
0.0
  0
LINE
  5
2850
330
1F
100
AcDbEntity
  8
SPOJOVACÍ
  6
Continuous
100
AcDbLine
 10
111.2197336562376
 20
-77.27926387829677
 30
0.0
 11
111.5415279727449
 21
-77.60026754731109
 31
0.0
  0
LINE
  5
2851
330
1F
100
AcDbEntity
  8
SPOJOVACÍ
  6
Continuous
100
AcDbLine
 10
110.1997958962447
 20
-81.35901491826837
 30
0.0
 11
109.8787922290857
 21
-81.03801125296479
 31
0.0
  0
LINE
  5
2852
330
1F
100
AcDbEntity
  8
SPOJOVACÍ
  6
Continuous
100
AcDbLine
 10
110.1997958962447
 20
-81.35901491826837
 30
0.0
 11
110.3855985114705
 21
-81.03801125296479
 31
0.0
  0
LINE
  5
2853
330
1F
100
AcDbEntity
  8
SPOJOVACÍ
  6
Continuous
100
AcDbLine
 10
111.0347216906002
 20
-77.60026754731109
 30
0.0
 11
109.8787922290857
 21
-81.03801125296479
 31
0.0
  0
LINE
  5
2854
330
1F
100
AcDbEntity
  8
SPOJOVACÍ
  6
Continuous
100
AcDbLine
 10
111.5415279727449
 20
-77.60026754731109
 30
0.0
 11
110.3855985114705
 21
-81.03801125296479
 31
0.0
  0
LINE
  5
2855
330
1F
100
AcDbEntity
  8
SPOJOVACÍ
  6
Continuous
100
AcDbLine
 10
108.5678954801214
 20
-77.27926387829677
 30
0.0
 11
107.5479577198921
 21
-81.35901491826837
 31
0.0
  0
LINE
  5
2856
330
1F
100
AcDbEntity
  8
SPOJOVACÍ
  6
Continuous
100
AcDbLine
 10
108.5678954801214
 20
-77.27926387829677
 30
0.0
 11
108.3820928648992
 21
-77.60026754731109
 31
0.0
  0
LINE
  5
2857
330
1F
100
AcDbEntity
  8
SPOJOVACÍ
  6
Continuous
100
AcDbLine
 10
108.5678954801214
 20
-77.27926387829677
 30
0.0
 11
108.8888991472804
 21
-77.60026754731109
 31
0.0
  0
LINE
  5
2858
330
1F
100
AcDbEntity
  8
SPOJOVACÍ
  6
Continuous
100
AcDbLine
 10
107.5479577198921
 20
-81.35901491826837
 30
0.0
 11
107.2269540529696
 21
-81.03801125296479
 31
0.0
  0
LINE
  5
2859
330
1F
100
AcDbEntity
  8
SPOJOVACÍ
  6
Continuous
100
AcDbLine
 10
107.5479577198921
 20
-81.35901491826837
 30
0.0
 11
107.7337603351179
 21
-81.03801125296479
 31
0.0
  0
LINE
  5
285A
330
1F
100
AcDbEntity
  8
SPOJOVACÍ
  6
Continuous
100
AcDbLine
 10
108.3820928648992
 20
-77.60026754731109
 30
0.0
 11
107.2269540529696
 21
-81.03801125296479
 31
0.0
  0
LINE
  5
285B
330
1F
100
AcDbEntity
  8
SPOJOVACÍ
  6
Continuous
100
AcDbLine
 10
108.8888991472804
 20
-77.60026754731109
 30
0.0
 11
107.7337603351179
 21
-81.03801125296479
 31
0.0
  0
LINE
  5
285C
330
1F
100
AcDbEntity
  8
SPOJOVACÍ
  6
Continuous
100
AcDbLine
 10
97.99612199947933
 20
-77.49511117355462
 30
0.0
 11
97.81031938425712
 21
-77.81690548959625
 31
0.0
  0
LINE
  5
285D
330
1F
100
AcDbEntity
  8
SPOJOVACÍ
  6
Continuous
100
AcDbLine
 10
97.99612199947933
 20
-77.49511117355462
 30
0.0
 11
98.31712566663828
 21
-77.81690548959625
 31
0.0
  0
LINE
  5
285E
330
1F
100
AcDbEntity
  8
SPOJOVACÍ
  6
Continuous
100
AcDbLine
 10
97.16910269952041
 20
-81.00164137838612
 30
0.0
 11
96.84730838278028
 21
-80.68063771308255
 31
0.0
  0
LINE
  5
285F
330
1F
100
AcDbEntity
  8
SPOJOVACÍ
  6
Continuous
100
AcDbLine
 10
97.16910269952041
 20
-81.00164137838612
 30
0.0
 11
97.35411466516143
 21
-80.68063771308255
 31
0.0
  0
LINE
  5
2860
330
1F
100
AcDbEntity
  8
SPOJOVACÍ
  6
Continuous
100
AcDbLine
 10
97.81031938425712
 20
-77.81690548959625
 30
0.0
 11
96.84730838278028
 21
-80.68063771308255
 31
0.0
  0
LINE
  5
2861
330
1F
100
AcDbEntity
  8
SPOJOVACÍ
  6
Continuous
100
AcDbLine
 10
98.31712566663828
 20
-77.81690548959625
 30
0.0
 11
97.35411466516143
 21
-80.68063771308255
 31
0.0
  0
LINE
  5
2862
330
1F
100
AcDbEntity
  8
SPOJOVACÍ
  6
Continuous
100
AcDbLine
 10
97.99612199947933
 20
-77.49511117355462
 30
0.0
 11
97.16910269952041
 21
-81.00164137838612
 31
0.0
  0
LINE
  5
2863
330
1F
100
AcDbEntity
  8
SPOJOVACÍ
  6
Continuous
100
AcDbLine
 10
95.43362720832647
 20
-77.97503537374462
 30
0.0
 11
95.24861524268544
 21
-78.29603904275893
 31
0.0
  0
LINE
  5
2864
330
1F
100
AcDbEntity
  8
SPOJOVACÍ
  6
Continuous
100
AcDbLine
 10
95.43362720832647
 20
-77.97503537374462
 30
0.0
 11
95.7554215250666
 21
-78.29603904275893
 31
0.0
  0
LINE
  5
2865
330
1F
100
AcDbEntity
  8
SPOJOVACÍ
  6
Continuous
100
AcDbLine
 10
94.89519494907199
 20
-80.62371095271112
 30
0.0
 11
94.5734006325647
 21
-80.30270728740754
 31
0.0
  0
LINE
  5
2866
330
1F
100
AcDbEntity
  8
SPOJOVACÍ
  6
Continuous
100
AcDbLine
 10
94.89519494907199
 20
-80.62371095271112
 30
0.0
 11
95.08020691471301
 21
-80.30270728740754
 31
0.0
  0
LINE
  5
2867
330
1F
100
AcDbEntity
  8
SPOJOVACÍ
  6
Continuous
100
AcDbLine
 10
95.24861524268544
 20
-78.29603904275893
 30
0.0
 11
94.5734006325647
 21
-80.30270728740754
 31
0.0
  0
LINE
  5
2868
330
1F
100
AcDbEntity
  8
SPOJOVACÍ
  6
Continuous
100
AcDbLine
 10
95.7554215250666
 20
-78.29603904275893
 30
0.0
 11
95.08020691471301
 21
-80.30270728740754
 31
0.0
  0
LINE
  5
2869
330
1F
100
AcDbEntity
  8
SPOJOVACÍ
  6
Continuous
100
AcDbLine
 10
95.43362720832647
 20
-77.97503537374462
 30
0.0
 11
94.89519494907199
 21
-80.62371095271112
 31
0.0
  0
LINE
  5
286A
330
1F
100
AcDbEntity
  8
SPOJOVACÍ
  6
Continuous
100
AcDbLine
 10
92.87192306675478
 20
-78.45495957764535
 30
0.0
 11
92.68612045153986
 21
-78.77596324294893
 31
0.0
  0
LINE
  5
286B
330
1F
100
AcDbEntity
  8
SPOJOVACÍ
  6
Continuous
100
AcDbLine
 10
92.87192306675478
 20
-78.45495957764535
 30
0.0
 11
93.19292673391373
 21
-78.77596324294893
 31
0.0
  0
LINE
  5
286C
330
1F
100
AcDbEntity
  8
SPOJOVACÍ
  6
Continuous
100
AcDbLine
 10
92.60784615834836
 20
-80.28610364788358
 30
0.0
 11
92.28605184184107
 21
-79.96509998258
 31
0.0
  0
LINE
  5
286D
330
1F
100
AcDbEntity
  8
SPOJOVACÍ
  6
Continuous
100
AcDbLine
 10
92.60784615834836
 20
-80.28610364788358
 30
0.0
 11
92.79285812421495
 21
-79.96509998258
 31
0.0
  0
LINE
  5
286E
330
1F
100
AcDbEntity
  8
SPOJOVACÍ
  6
Continuous
100
AcDbLine
 10
92.68612045153986
 20
-78.77596324294893
 30
0.0
 11
92.28605184184107
 21
-79.96509998258
 31
0.0
  0
LINE
  5
286F
330
1F
100
AcDbEntity
  8
SPOJOVACÍ
  6
Continuous
100
AcDbLine
 10
93.19292673391373
 20
-78.77596324294893
 30
0.0
 11
92.79285812421495
 21
-79.96509998258
 31
0.0
  0
LINE
  5
2870
330
1F
100
AcDbEntity
  8
SPOJOVACÍ
  6
Continuous
100
AcDbLine
 10
92.87192306675478
 20
-78.45495957764535
 30
0.0
 11
92.60784615834836
 21
-80.28610364788358
 31
0.0
  0
LINE
  5
2871
330
1F
100
AcDbEntity
  8
SPOJOVACÍ
  6
Continuous
100
AcDbLine
 10
105.9160573037688
 20
-77.27926387829677
 30
0.0
 11
104.8961195437759
 21
-81.35901491826837
 31
0.0
  0
LINE
  5
2872
330
1F
100
AcDbEntity
  8
SPOJOVACÍ
  6
Continuous
100
AcDbLine
 10
105.9160573037688
 20
-77.27926387829677
 30
0.0
 11
105.7302546885466
 21
-77.60026754731109
 31
0.0
  0
LINE
  5
2873
330
1F
100
AcDbEntity
  8
SPOJOVACÍ
  6
Continuous
100
AcDbLine
 10
105.9160573037688
 20
-77.27926387829677
 30
0.0
 11
106.2370609709278
 21
-77.60026754731109
 31
0.0
  0
LINE
  5
2874
330
1F
100
AcDbEntity
  8
SPOJOVACÍ
  6
Continuous
100
AcDbLine
 10
104.8961195437759
 20
-81.35901491826837
 30
0.0
 11
104.5743252272723
 21
-81.03801125296479
 31
0.0
  0
LINE
  5
2875
330
1F
100
AcDbEntity
  8
SPOJOVACÍ
  6
Continuous
100
AcDbLine
 10
104.8961195437759
 20
-81.35901491826837
 30
0.0
 11
105.0811315096461
 21
-81.03801125296479
 31
0.0
  0
LINE
  5
2876
330
1F
100
AcDbEntity
  8
SPOJOVACÍ
  6
Continuous
100
AcDbLine
 10
105.7302546885466
 20
-77.60026754731109
 30
0.0
 11
104.5743252272723
 21
-81.03801125296479
 31
0.0
  0
LINE
  5
2877
330
1F
100
AcDbEntity
  8
SPOJOVACÍ
  6
Continuous
100
AcDbLine
 10
106.2370609709278
 20
-77.60026754731109
 30
0.0
 11
105.0811315096461
 21
-81.03801125296479
 31
0.0
  0
LINE
  5
2878
330
1F
100
AcDbEntity
  8
SPOJOVACÍ
  6
Continuous
100
AcDbLine
 10
103.2642191276454
 20
-77.27926387829677
 30
0.0
 11
102.2442813676525
 21
-81.35901491826837
 31
0.0
  0
LINE
  5
2879
330
1F
100
AcDbEntity
  8
SPOJOVACÍ
  6
Continuous
100
AcDbLine
 10
103.2642191276454
 20
-77.27926387829677
 30
0.0
 11
103.0784165124305
 21
-77.60026754731109
 31
0.0
  0
LINE
  5
287A
330
1F
100
AcDbEntity
  8
SPOJOVACÍ
  6
Continuous
100
AcDbLine
 10
103.2642191276454
 20
-77.27926387829677
 30
0.0
 11
103.5852227948043
 21
-77.60026754731109
 31
0.0
  0
LINE
  5
287B
330
1F
100
AcDbEntity
  8
SPOJOVACÍ
  6
Continuous
100
AcDbLine
 10
102.2442813676525
 20
-81.35901491826837
 30
0.0
 11
101.9224870511452
 21
-81.03801125296479
 31
0.0
  0
LINE
  5
287C
330
1F
100
AcDbEntity
  8
SPOJOVACÍ
  6
Continuous
100
AcDbLine
 10
102.2442813676525
 20
-81.35901491826837
 30
0.0
 11
102.4292933332935
 21
-81.03801125296479
 31
0.0
  0
LINE
  5
287D
330
1F
100
AcDbEntity
  8
SPOJOVACÍ
  6
Continuous
100
AcDbLine
 10
103.0784165124305
 20
-77.60026754731109
 30
0.0
 11
101.9224870511452
 21
-81.03801125296479
 31
0.0
  0
LINE
  5
287E
330
1F
100
AcDbEntity
  8
SPOJOVACÍ
  6
Continuous
100
AcDbLine
 10
103.5852227948043
 20
-77.60026754731109
 30
0.0
 11
102.4292933332935
 21
-81.03801125296479
 31
0.0
  0
LINE
  5
287F
330
1F
100
AcDbEntity
  8
SPOJOVACÍ
  6
Continuous
100
AcDbLine
 10
100.6115903019444
 20
-77.27926387829677
 30
0.0
 11
99.59165254195159
 21
-81.35901491826837
 31
0.0
  0
LINE
  5
2880
330
1F
100
AcDbEntity
  8
SPOJOVACÍ
  6
Continuous
100
AcDbLine
 10
100.6115903019444
 20
-77.27926387829677
 30
0.0
 11
100.4265783363071
 21
-77.60026754731109
 31
0.0
  0
LINE
  5
2881
330
1F
100
AcDbEntity
  8
SPOJOVACÍ
  6
Continuous
100
AcDbLine
 10
100.6115903019444
 20
-77.27926387829677
 30
0.0
 11
100.9333846186882
 21
-77.60026754731109
 31
0.0
  0
LINE
  5
2882
330
1F
100
AcDbEntity
  8
SPOJOVACÍ
  6
Continuous
100
AcDbLine
 10
99.59165254195159
 20
-81.35901491826837
 30
0.0
 11
99.27064887479264
 21
-81.03801125296479
 31
0.0
  0
LINE
  5
2883
330
1F
100
AcDbEntity
  8
SPOJOVACÍ
  6
Continuous
100
AcDbLine
 10
99.59165254195159
 20
-81.35901491826837
 30
0.0
 11
99.77745515717742
 21
-81.03801125296479
 31
0.0
  0
LINE
  5
2884
330
1F
100
AcDbEntity
  8
SPOJOVACÍ
  6
Continuous
100
AcDbLine
 10
100.4265783363071
 20
-77.60026754731109
 30
0.0
 11
99.27064887479264
 21
-81.03801125296479
 31
0.0
  0
LINE
  5
2885
330
1F
100
AcDbEntity
  8
SPOJOVACÍ
  6
Continuous
100
AcDbLine
 10
100.9333846186882
 20
-77.60026754731109
 30
0.0
 11
99.77745515717742
 21
-81.03801125296479
 31
0.0
  0
LINE
  5
2886
330
1F
100
AcDbEntity
  8
SPOJOVACÍ
  6
Continuous
100
AcDbLine
 10
120.3999641464497
 20
-83.65427020362142
 30
0.0
 11
119.3800263862276
 21
-83.65427020362142
 31
0.0
  0
LINE
  5
2887
330
1F
100
AcDbEntity
  8
SPOJOVACÍ
  6
Continuous
100
AcDbLine
 10
120.3999641464497
 20
-74.98400859294372
 30
0.0
 11
120.3999641464461
 21
-83.65427020362142
 31
0.0
  0
LINE
  5
2888
330
1F
100
AcDbEntity
  8
SPOJOVACÍ
  6
Continuous
100
AcDbLine
 10
119.3800263862276
 20
-74.98400859294372
 30
0.0
 11
119.3800263862276
 21
-83.65427020362142
 31
0.0
  0
LINE
  5
2889
330
1F
100
AcDbEntity
  8
SPOJOVACÍ
  6
Continuous
100
AcDbLine
 10
119.0938112940266
 20
-83.04626079537877
 30
0.0
 11
119.3800263862276
 21
-83.65427020362142
 31
0.0
  0
LINE
  5
288A
330
1F
100
AcDbEntity
  8
SPOJOVACÍ
  6
Continuous
100
AcDbLine
 10
119.0938112940266
 20
116.9537392046212
 30
0.0
 11
119.3800263862276
 21
116.3457297963785
 31
0.0
  0
LINE
  5
288B
330
1F
100
AcDbEntity
  8
SPOJOVACÍ
  6
Continuous
100
AcDbLine
 10
119.3800263862276
 20
125.0159914070562
 30
0.0
 11
119.3800263862276
 21
116.3457297963785
 31
0.0
  0
LINE
  5
288C
330
1F
100
AcDbEntity
  8
SPOJOVACÍ
  6
Continuous
100
AcDbLine
 10
120.3999641464497
 20
125.0159914070562
 30
0.0
 11
120.3999641464497
 21
116.3457297963785
 31
0.0
  0
LINE
  5
288D
330
1F
100
AcDbEntity
  8
SPOJOVACÍ
  6
Continuous
100
AcDbLine
 10
120.3999641464497
 20
116.3457297963785
 30
0.0
 11
119.3800263862276
 21
116.3457297963785
 31
0.0
  0
LINE
  5
288E
330
1F
100
AcDbEntity
  8
SPOJOVACÍ
  6
Continuous
100
AcDbLine
 10
100.9333846186882
 20
122.3997324526889
 30
0.0
 11
99.77745515717742
 21
118.9619887470352
 31
0.0
  0
LINE
  5
288F
330
1F
100
AcDbEntity
  8
SPOJOVACÍ
  6
Continuous
100
AcDbLine
 10
100.4265783363071
 20
122.3997324526889
 30
0.0
 11
99.27064887479264
 21
118.9619887470352
 31
0.0
  0
LINE
  5
2890
330
1F
100
AcDbEntity
  8
SPOJOVACÍ
  6
Continuous
100
AcDbLine
 10
99.59165254195159
 20
118.6409850817316
 30
0.0
 11
99.77745515717742
 21
118.9619887470352
 31
0.0
  0
LINE
  5
2891
330
1F
100
AcDbEntity
  8
SPOJOVACÍ
  6
Continuous
100
AcDbLine
 10
99.59165254195159
 20
118.6409850817316
 30
0.0
 11
99.27064887479264
 21
118.9619887470352
 31
0.0
  0
LINE
  5
2892
330
1F
100
AcDbEntity
  8
SPOJOVACÍ
  6
Continuous
100
AcDbLine
 10
100.6115903019444
 20
122.7207361217032
 30
0.0
 11
100.9333846186882
 21
122.3997324526889
 31
0.0
  0
LINE
  5
2893
330
1F
100
AcDbEntity
  8
SPOJOVACÍ
  6
Continuous
100
AcDbLine
 10
100.6115903019444
 20
122.7207361217032
 30
0.0
 11
100.4265783363071
 21
122.3997324526889
 31
0.0
  0
LINE
  5
2894
330
1F
100
AcDbEntity
  8
SPOJOVACÍ
  6
Continuous
100
AcDbLine
 10
100.6115903019444
 20
122.7207361217032
 30
0.0
 11
99.59165254195159
 21
118.6409850817316
 31
0.0
  0
LINE
  5
2895
330
1F
100
AcDbEntity
  8
SPOJOVACÍ
  6
Continuous
100
AcDbLine
 10
103.5852227948043
 20
122.3997324526889
 30
0.0
 11
102.4292933332935
 21
118.9619887470352
 31
0.0
  0
LINE
  5
2896
330
1F
100
AcDbEntity
  8
SPOJOVACÍ
  6
Continuous
100
AcDbLine
 10
103.0784165124305
 20
122.3997324526889
 30
0.0
 11
101.9224870511452
 21
118.9619887470352
 31
0.0
  0
LINE
  5
2897
330
1F
100
AcDbEntity
  8
SPOJOVACÍ
  6
Continuous
100
AcDbLine
 10
102.2442813676525
 20
118.6409850817316
 30
0.0
 11
102.4292933332935
 21
118.9619887470352
 31
0.0
  0
LINE
  5
2898
330
1F
100
AcDbEntity
  8
SPOJOVACÍ
  6
Continuous
100
AcDbLine
 10
102.2442813676525
 20
118.6409850817316
 30
0.0
 11
101.9224870511452
 21
118.9619887470352
 31
0.0
  0
LINE
  5
2899
330
1F
100
AcDbEntity
  8
SPOJOVACÍ
  6
Continuous
100
AcDbLine
 10
103.2642191276454
 20
122.7207361217032
 30
0.0
 11
103.5852227948043
 21
122.3997324526889
 31
0.0
  0
LINE
  5
289A
330
1F
100
AcDbEntity
  8
SPOJOVACÍ
  6
Continuous
100
AcDbLine
 10
103.2642191276454
 20
122.7207361217032
 30
0.0
 11
103.0784165124305
 21
122.3997324526889
 31
0.0
  0
LINE
  5
289B
330
1F
100
AcDbEntity
  8
SPOJOVACÍ
  6
Continuous
100
AcDbLine
 10
103.2642191276454
 20
122.7207361217032
 30
0.0
 11
102.2442813676525
 21
118.6409850817316
 31
0.0
  0
LINE
  5
289C
330
1F
100
AcDbEntity
  8
SPOJOVACÍ
  6
Continuous
100
AcDbLine
 10
106.2370609709278
 20
122.3997324526889
 30
0.0
 11
105.0811315096461
 21
118.9619887470352
 31
0.0
  0
LINE
  5
289D
330
1F
100
AcDbEntity
  8
SPOJOVACÍ
  6
Continuous
100
AcDbLine
 10
105.7302546885466
 20
122.3997324526889
 30
0.0
 11
104.5743252272723
 21
118.9619887470352
 31
0.0
  0
LINE
  5
289E
330
1F
100
AcDbEntity
  8
SPOJOVACÍ
  6
Continuous
100
AcDbLine
 10
104.8961195437759
 20
118.6409850817316
 30
0.0
 11
105.0811315096461
 21
118.9619887470352
 31
0.0
  0
LINE
  5
289F
330
1F
100
AcDbEntity
  8
SPOJOVACÍ
  6
Continuous
100
AcDbLine
 10
104.8961195437759
 20
118.6409850817316
 30
0.0
 11
104.5743252272723
 21
118.9619887470352
 31
0.0
  0
LINE
  5
28A0
330
1F
100
AcDbEntity
  8
SPOJOVACÍ
  6
Continuous
100
AcDbLine
 10
105.9160573037688
 20
122.7207361217032
 30
0.0
 11
106.2370609709278
 21
122.3997324526889
 31
0.0
  0
LINE
  5
28A1
330
1F
100
AcDbEntity
  8
SPOJOVACÍ
  6
Continuous
100
AcDbLine
 10
105.9160573037688
 20
122.7207361217032
 30
0.0
 11
105.7302546885466
 21
122.3997324526889
 31
0.0
  0
LINE
  5
28A2
330
1F
100
AcDbEntity
  8
SPOJOVACÍ
  6
Continuous
100
AcDbLine
 10
105.9160573037688
 20
122.7207361217032
 30
0.0
 11
104.8961195437759
 21
118.6409850817316
 31
0.0
  0
LINE
  5
28A3
330
1F
100
AcDbEntity
  8
SPOJOVACÍ
  6
Continuous
100
AcDbLine
 10
92.87192306675478
 20
121.5450404223546
 30
0.0
 11
92.60784615834836
 21
119.7138963521164
 31
0.0
  0
LINE
  5
28A4
330
1F
100
AcDbEntity
  8
SPOJOVACÍ
  6
Continuous
100
AcDbLine
 10
93.19292673391373
 20
121.224036757051
 30
0.0
 11
92.79285812421495
 21
120.03490001742
 31
0.0
  0
LINE
  5
28A5
330
1F
100
AcDbEntity
  8
SPOJOVACÍ
  6
Continuous
100
AcDbLine
 10
92.68612045153986
 20
121.224036757051
 30
0.0
 11
92.28605184184107
 21
120.03490001742
 31
0.0
  0
LINE
  5
28A6
330
1F
100
AcDbEntity
  8
SPOJOVACÍ
  6
Continuous
100
AcDbLine
 10
92.60784615834836
 20
119.7138963521164
 30
0.0
 11
92.79285812421495
 21
120.03490001742
 31
0.0
  0
LINE
  5
28A7
330
1F
100
AcDbEntity
  8
SPOJOVACÍ
  6
Continuous
100
AcDbLine
 10
92.60784615834836
 20
119.7138963521164
 30
0.0
 11
92.28605184184107
 21
120.03490001742
 31
0.0
  0
LINE
  5
28A8
330
1F
100
AcDbEntity
  8
SPOJOVACÍ
  6
Continuous
100
AcDbLine
 10
92.87192306675478
 20
121.5450404223546
 30
0.0
 11
93.19292673391373
 21
121.224036757051
 31
0.0
  0
LINE
  5
28A9
330
1F
100
AcDbEntity
  8
SPOJOVACÍ
  6
Continuous
100
AcDbLine
 10
92.87192306675478
 20
121.5450404223546
 30
0.0
 11
92.68612045153986
 21
121.224036757051
 31
0.0
  0
LINE
  5
28AA
330
1F
100
AcDbEntity
  8
SPOJOVACÍ
  6
Continuous
100
AcDbLine
 10
95.43362720832647
 20
122.0249646262553
 30
0.0
 11
94.89519494907199
 21
119.3762890472888
 31
0.0
  0
LINE
  5
28AB
330
1F
100
AcDbEntity
  8
SPOJOVACÍ
  6
Continuous
100
AcDbLine
 10
95.7554215250666
 20
121.703960957241
 30
0.0
 11
95.08020691471301
 21
119.6972927125924
 31
0.0
  0
LINE
  5
28AC
330
1F
100
AcDbEntity
  8
SPOJOVACÍ
  6
Continuous
100
AcDbLine
 10
95.24861524268544
 20
121.703960957241
 30
0.0
 11
94.5734006325647
 21
119.6972927125924
 31
0.0
  0
LINE
  5
28AD
330
1F
100
AcDbEntity
  8
SPOJOVACÍ
  6
Continuous
100
AcDbLine
 10
94.89519494907199
 20
119.3762890472888
 30
0.0
 11
95.08020691471301
 21
119.6972927125924
 31
0.0
  0
LINE
  5
28AE
330
1F
100
AcDbEntity
  8
SPOJOVACÍ
  6
Continuous
100
AcDbLine
 10
94.89519494907199
 20
119.3762890472888
 30
0.0
 11
94.5734006325647
 21
119.6972927125924
 31
0.0
  0
LINE
  5
28AF
330
1F
100
AcDbEntity
  8
SPOJOVACÍ
  6
Continuous
100
AcDbLine
 10
95.43362720832647
 20
122.0249646262553
 30
0.0
 11
95.7554215250666
 21
121.703960957241
 31
0.0
  0
LINE
  5
28B0
330
1F
100
AcDbEntity
  8
SPOJOVACÍ
  6
Continuous
100
AcDbLine
 10
95.43362720832647
 20
122.0249646262553
 30
0.0
 11
95.24861524268544
 21
121.703960957241
 31
0.0
  0
LINE
  5
28B1
330
1F
100
AcDbEntity
  8
SPOJOVACÍ
  6
Continuous
100
AcDbLine
 10
97.99612199947933
 20
122.5048888264453
 30
0.0
 11
97.16910269952041
 21
118.9983586216138
 31
0.0
  0
LINE
  5
28B2
330
1F
100
AcDbEntity
  8
SPOJOVACÍ
  6
Continuous
100
AcDbLine
 10
98.31712566663828
 20
122.1830945104037
 30
0.0
 11
97.35411466516143
 21
119.3193622869174
 31
0.0
  0
LINE
  5
28B3
330
1F
100
AcDbEntity
  8
SPOJOVACÍ
  6
Continuous
100
AcDbLine
 10
97.81031938425712
 20
122.1830945104037
 30
0.0
 11
96.84730838278028
 21
119.3193622869174
 31
0.0
  0
LINE
  5
28B4
330
1F
100
AcDbEntity
  8
SPOJOVACÍ
  6
Continuous
100
AcDbLine
 10
97.16910269952041
 20
118.9983586216138
 30
0.0
 11
97.35411466516143
 21
119.3193622869174
 31
0.0
  0
LINE
  5
28B5
330
1F
100
AcDbEntity
  8
SPOJOVACÍ
  6
Continuous
100
AcDbLine
 10
97.16910269952041
 20
118.9983586216138
 30
0.0
 11
96.84730838278028
 21
119.3193622869174
 31
0.0
  0
LINE
  5
28B6
330
1F
100
AcDbEntity
  8
SPOJOVACÍ
  6
Continuous
100
AcDbLine
 10
97.99612199947933
 20
122.5048888264453
 30
0.0
 11
98.31712566663828
 21
122.1830945104037
 31
0.0
  0
LINE
  5
28B7
330
1F
100
AcDbEntity
  8
SPOJOVACÍ
  6
Continuous
100
AcDbLine
 10
97.99612199947933
 20
122.5048888264453
 30
0.0
 11
97.81031938425712
 21
122.1830945104037
 31
0.0
  0
LINE
  5
28B8
330
1F
100
AcDbEntity
  8
SPOJOVACÍ
  6
Continuous
100
AcDbLine
 10
108.8888991472804
 20
122.3997324526889
 30
0.0
 11
107.7337603351179
 21
118.9619887470352
 31
0.0
  0
LINE
  5
28B9
330
1F
100
AcDbEntity
  8
SPOJOVACÍ
  6
Continuous
100
AcDbLine
 10
108.3820928648992
 20
122.3997324526889
 30
0.0
 11
107.2269540529696
 21
118.9619887470352
 31
0.0
  0
LINE
  5
28BA
330
1F
100
AcDbEntity
  8
SPOJOVACÍ
  6
Continuous
100
AcDbLine
 10
107.5479577198921
 20
118.6409850817316
 30
0.0
 11
107.7337603351179
 21
118.9619887470352
 31
0.0
  0
LINE
  5
28BB
330
1F
100
AcDbEntity
  8
SPOJOVACÍ
  6
Continuous
100
AcDbLine
 10
107.5479577198921
 20
118.6409850817316
 30
0.0
 11
107.2269540529696
 21
118.9619887470352
 31
0.0
  0
LINE
  5
28BC
330
1F
100
AcDbEntity
  8
SPOJOVACÍ
  6
Continuous
100
AcDbLine
 10
108.5678954801214
 20
122.7207361217032
 30
0.0
 11
108.8888991472804
 21
122.3997324526889
 31
0.0
  0
LINE
  5
28BD
330
1F
100
AcDbEntity
  8
SPOJOVACÍ
  6
Continuous
100
AcDbLine
 10
108.5678954801214
 20
122.7207361217032
 30
0.0
 11
108.3820928648992
 21
122.3997324526889
 31
0.0
  0
LINE
  5
28BE
330
1F
100
AcDbEntity
  8
SPOJOVACÍ
  6
Continuous
100
AcDbLine
 10
108.5678954801214
 20
122.7207361217032
 30
0.0
 11
107.5479577198921
 21
118.6409850817316
 31
0.0
  0
LINE
  5
28BF
330
1F
100
AcDbEntity
  8
SPOJOVACÍ
  6
Continuous
100
AcDbLine
 10
111.5415279727449
 20
122.3997324526889
 30
0.0
 11
110.3855985114705
 21
118.9619887470352
 31
0.0
  0
LINE
  5
28C0
330
1F
100
AcDbEntity
  8
SPOJOVACÍ
  6
Continuous
100
AcDbLine
 10
111.0347216906002
 20
122.3997324526889
 30
0.0
 11
109.8787922290857
 21
118.9619887470352
 31
0.0
  0
LINE
  5
28C1
330
1F
100
AcDbEntity
  8
SPOJOVACÍ
  6
Continuous
100
AcDbLine
 10
110.1997958962447
 20
118.6409850817316
 30
0.0
 11
110.3855985114705
 21
118.9619887470352
 31
0.0
  0
LINE
  5
28C2
330
1F
100
AcDbEntity
  8
SPOJOVACÍ
  6
Continuous
100
AcDbLine
 10
110.1997958962447
 20
118.6409850817316
 30
0.0
 11
109.8787922290857
 21
118.9619887470352
 31
0.0
  0
LINE
  5
28C3
330
1F
100
AcDbEntity
  8
SPOJOVACÍ
  6
Continuous
100
AcDbLine
 10
111.2197336562376
 20
122.7207361217032
 30
0.0
 11
111.5415279727449
 21
122.3997324526889
 31
0.0
  0
LINE
  5
28C4
330
1F
100
AcDbEntity
  8
SPOJOVACÍ
  6
Continuous
100
AcDbLine
 10
111.2197336562376
 20
122.7207361217032
 30
0.0
 11
111.0347216906002
 21
122.3997324526889
 31
0.0
  0
LINE
  5
28C5
330
1F
100
AcDbEntity
  8
SPOJOVACÍ
  6
Continuous
100
AcDbLine
 10
111.2197336562376
 20
122.7207361217032
 30
0.0
 11
110.1997958962447
 21
118.6409850817316
 31
0.0
  0
LINE
  5
28C6
330
1F
100
AcDbEntity
  8
SPOJOVACÍ
  6
Continuous
100
AcDbLine
 10
97.50433805631018
 20
119.7423597304467
 30
0.0
 11
99.17972419090347
 21
119.5336282806992
 31
0.0
  0
LINE
  5
28C7
330
1F
100
AcDbEntity
  8
SPOJOVACÍ
  6
Continuous
100
AcDbLine
 10
95.20354822529681
 20
120.0301561241238
 30
0.0
 11
97.01966995772
 21
119.8032397370869
 31
0.0
  0
LINE
  5
28C8
330
1F
100
AcDbEntity
  8
SPOJOVACÍ
  6
Continuous
100
AcDbLine
 10
92.89406125077858
 20
120.3187431611175
 30
0.0
 11
94.71729882801355
 21
120.0910361270533
 31
0.0
  0
LINE
  5
28C9
330
1F
100
AcDbEntity
  8
SPOJOVACÍ
  6
Continuous
100
AcDbLine
 10
92.62524044582733
 20
121.0089801125312
 30
0.0
 11
89.99949370069135
 21
120.6808606017174
 31
0.0
  0
LINE
  5
28CA
330
1F
100
AcDbEntity
  8
SPOJOVACÍ
  6
Continuous
100
AcDbLine
 10
95.12527393210531
 20
121.3212866345592
 30
0.0
 11
93.15260361330274
 21
121.0746040161783
 31
0.0
  0
LINE
  5
28CB
330
1F
100
AcDbEntity
  8
SPOJOVACÍ
  6
Continuous
100
AcDbLine
 10
97.63479521147292
 20
121.6351744580632
 30
0.0
 11
95.66133424331837
 21
121.3884918359716
 31
0.0
  0
LINE
  5
28CC
330
1F
100
AcDbEntity
  8
SPOJOVACÍ
  6
Continuous
100
AcDbLine
 10
89.99949370069135
 20
120.6808606017174
 30
0.0
 11
92.41018380176956
 21
120.3796231677578
 31
0.0
  0
LINE
  5
28CD
330
1F
100
AcDbEntity
  8
SPOJOVACÍ
  6
Continuous
100
AcDbLine
 10
99.17972419090347
 20
121.8280929190249
 30
0.0
 11
98.16215837894834
 21
121.7007983617103
 31
0.0
  0
LINE
  5
28CE
330
1F
100
AcDbEntity
  8
SPOJOVACÍ
  6
Continuous
100
AcDbLine
 10
99.46593928310448
 20
119.5336282806992
 30
0.0
 11
99.17972419090347
 21
119.5336282806992
 31
0.0
  0
LINE
  5
28CF
330
1F
100
AcDbEntity
  8
SPOJOVACÍ
  6
Continuous
100
AcDbLine
 10
102.120149407724
 20
119.5336282806992
 30
0.0
 11
99.97907076094907
 21
119.5336282806992
 31
0.0
  0
LINE
  5
28D0
330
1F
100
AcDbEntity
  8
SPOJOVACÍ
  6
Continuous
100
AcDbLine
 10
100.2399850715073
 20
121.8280929190249
 30
0.0
 11
99.17972419090347
 21
121.8280929190249
 31
0.0
  0
LINE
  5
28D1
330
1F
100
AcDbEntity
  8
SPOJOVACÍ
  6
Continuous
100
AcDbLine
 10
102.8870793513187
 20
121.8280929190249
 30
0.0
 11
100.7467913538885
 21
121.8280929190249
 31
0.0
  0
LINE
  5
28D2
330
1F
100
AcDbEntity
  8
SPOJOVACÍ
  6
Continuous
100
AcDbLine
 10
104.7735688827697
 20
119.5336282806992
 30
0.0
 11
102.6309089370688
 21
119.5336282806992
 31
0.0
  0
LINE
  5
28D3
330
1F
100
AcDbEntity
  8
SPOJOVACÍ
  6
Continuous
100
AcDbLine
 10
107.4277790071637
 20
119.5336282806992
 30
0.0
 11
105.2787938662213
 21
119.5336282806992
 31
0.0
  0
LINE
  5
28D4
330
1F
100
AcDbEntity
  8
SPOJOVACÍ
  6
Continuous
100
AcDbLine
 10
110.0756639363162
 20
119.5336282806992
 30
0.0
 11
107.9345852895448
 21
119.5336282806992
 31
0.0
  0
LINE
  5
28D5
330
1F
100
AcDbEntity
  8
SPOJOVACÍ
  6
Continuous
100
AcDbLine
 10
105.5499866194504
 20
121.8280929190249
 30
0.0
 11
103.401001478508
 21
121.8280929190249
 31
0.0
  0
LINE
  5
28D6
330
1F
100
AcDbEntity
  8
SPOJOVACÍ
  6
Continuous
100
AcDbLine
 10
108.1978715486029
 20
121.8280929190249
 30
0.0
 11
106.055211602902
 21
121.8280929190249
 31
0.0
  0
LINE
  5
28D7
330
1F
100
AcDbEntity
  8
SPOJOVACÍ
  6
Continuous
100
AcDbLine
 10
110.8520816729969
 20
121.8280929190249
 30
0.0
 11
108.7110030262219
 21
121.8280929190249
 31
0.0
  0
LINE
  5
28D8
330
1F
100
AcDbEntity
  8
SPOJOVACÍ
  6
Continuous
100
AcDbLine
 10
114.7903064660267
 20
121.8280929190249
 30
0.0
 11
111.3580973057969
 21
121.8280929190249
 31
0.0
  0
LINE
  5
28D9
330
1F
100
AcDbEntity
  8
SPOJOVACÍ
  6
Continuous
100
AcDbLine
 10
114.7903064660267
 20
119.5336282806992
 30
0.0
 11
110.5887954139352
 21
119.5336282806992
 31
0.0
  0
LINE
  5
28DA
330
1F
100
AcDbEntity
  8
SPOJOVACÍ
  6
Continuous
100
AcDbLine
 10
119.3800263862276
 20
125.0159914070562
 30
0.0
 11
118.7475068452249
 21
123.868759086038
 31
0.0
  0
LINE
  5
28DB
330
1F
100
AcDbEntity
  8
SPOJOVACÍ
  6
Continuous
100
AcDbLine
 10
118.7475068452249
 20
123.868759086038
 30
0.0
 11
117.8390506542264
 21
122.9247236707332
 31
0.0
  0
LINE
  5
28DC
330
1F
100
AcDbEntity
  8
SPOJOVACÍ
  6
Continuous
100
AcDbLine
 10
117.8390506542264
 20
122.9247236707332
 30
0.0
 11
116.7179097676698
 21
122.2479277633127
 31
0.0
  0
LINE
  5
28DD
330
1F
100
AcDbEntity
  8
SPOJOVACÍ
  6
Continuous
100
AcDbLine
 10
116.7179097676698
 20
122.2479277633127
 30
0.0
 11
115.4591958806804
 21
121.8842290286582
 31
0.0
  0
LINE
  5
28DE
330
1F
100
AcDbEntity
  8
SPOJOVACÍ
  6
Continuous
100
AcDbLine
 10
115.4591958806804
 20
121.8842290286582
 30
0.0
 11
114.7903064660267
 21
121.8280929190249
 31
0.0
  0
LINE
  5
28DF
330
1F
100
AcDbEntity
  8
SPOJOVACÍ
  6
Continuous
100
AcDbLine
 10
118.313440310153
 20
118.0053029421859
 30
0.0
 11
119.0938112940266
 21
116.9537392046212
 31
0.0
  0
LINE
  5
28E0
330
1F
100
AcDbEntity
  8
SPOJOVACÍ
  6
Continuous
100
AcDbLine
 10
120.3999641464497
 20
125.0159914070562
 30
0.0
 11
119.3800263862276
 21
125.0159914070562
 31
0.0
  0
LINE
  5
28E1
330
1F
100
AcDbEntity
  8
SPOJOVACÍ
  6
Continuous
100
AcDbLine
 10
114.7903064660267
 20
119.5336282806992
 30
0.0
 11
116.0853902264416
 21
119.3407098234482
 31
0.0
  0
LINE
  5
28E2
330
1F
100
AcDbEntity
  8
SPOJOVACÍ
  6
Continuous
100
AcDbLine
 10
116.0853902264416
 20
119.3407098234482
 30
0.0
 11
117.2871773546858
 21
118.8196718516727
 31
0.0
  0
LINE
  5
28E3
330
1F
100
AcDbEntity
  8
SPOJOVACÍ
  6
Continuous
100
AcDbLine
 10
117.2871773546858
 20
118.8196718516727
 30
0.0
 11
118.313440310153
 21
118.0053029421859
 31
0.0
  0
LINE
  5
28E4
330
1F
100
AcDbEntity
  8
SPOJOVACÍ
  6
Continuous
100
AcDbLine
 10
117.2871773546858
 20
171.950730958454
 30
0.0
 11
118.313440310153
 21
172.7650998679408
 31
0.0
  0
LINE
  5
28E5
330
1F
100
AcDbEntity
  8
SPOJOVACÍ
  6
Continuous
100
AcDbLine
 10
116.0853902264416
 20
171.4296929866785
 30
0.0
 11
117.2871773546858
 21
171.950730958454
 31
0.0
  0
LINE
  5
28E6
330
1F
100
AcDbEntity
  8
SPOJOVACÍ
  6
Continuous
100
AcDbLine
 10
114.7903064660267
 20
171.2367745294276
 30
0.0
 11
116.0853902264416
 21
171.4296929866785
 31
0.0
  0
LINE
  5
28E7
330
1F
100
AcDbEntity
  8
SPOJOVACÍ
  6
Continuous
100
AcDbLine
 10
120.3999641464497
 20
174.4246730137482
 30
0.0
 11
119.3800263862276
 21
174.4246730137482
 31
0.0
  0
LINE
  5
28E8
330
1F
100
AcDbEntity
  8
SPOJOVACÍ
  6
Continuous
100
AcDbLine
 10
120.3999641464497
 20
165.7544114030705
 30
0.0
 11
120.3999641464497
 21
174.4246730137482
 31
0.0
  0
LINE
  5
28E9
330
1F
100
AcDbEntity
  8
SPOJOVACÍ
  6
Continuous
100
AcDbLine
 10
120.3999641464497
 20
165.7544114030705
 30
0.0
 11
119.3800263862276
 21
165.7544114030705
 31
0.0
  0
LINE
  5
28EA
330
1F
100
AcDbEntity
  8
SPOJOVACÍ
  6
Continuous
100
AcDbLine
 10
119.3800263862276
 20
165.7544114030705
 30
0.0
 11
119.3800263862276
 21
174.4246730137482
 31
0.0
  0
LINE
  5
28EB
330
1F
100
AcDbEntity
  8
SPOJOVACÍ
  6
Continuous
100
AcDbLine
 10
119.0938112940266
 20
173.8166636055056
 30
0.0
 11
119.3800263862276
 21
174.4246730137482
 31
0.0
  0
LINE
  5
28EC
330
1F
100
AcDbEntity
  8
SPOJOVACÍ
  6
Continuous
100
AcDbLine
 10
118.313440310153
 20
172.7650998679408
 30
0.0
 11
119.0938112940266
 21
173.8166636055056
 31
0.0
  0
LINE
  5
28ED
330
1F
100
AcDbEntity
  8
SPOJOVACÍ
  6
Continuous
100
AcDbLine
 10
115.4591958806804
 20
168.8861737814685
 30
0.0
 11
114.7903064660267
 21
168.9423098911019
 31
0.0
  0
LINE
  5
28EE
330
1F
100
AcDbEntity
  8
SPOJOVACÍ
  6
Continuous
100
AcDbLine
 10
116.7179097676698
 20
168.522475046814
 30
0.0
 11
115.4591958806804
 21
168.8861737814685
 31
0.0
  0
LINE
  5
28EF
330
1F
100
AcDbEntity
  8
SPOJOVACÍ
  6
Continuous
100
AcDbLine
 10
117.8390506542264
 20
167.8456791393936
 30
0.0
 11
116.7179097676698
 21
168.522475046814
 31
0.0
  0
LINE
  5
28F0
330
1F
100
AcDbEntity
  8
SPOJOVACÍ
  6
Continuous
100
AcDbLine
 10
118.7475068452249
 20
166.9016437240887
 30
0.0
 11
117.8390506542264
 21
167.8456791393936
 31
0.0
  0
LINE
  5
28F1
330
1F
100
AcDbEntity
  8
SPOJOVACÍ
  6
Continuous
100
AcDbLine
 10
119.3800263862276
 20
165.7544114030705
 30
0.0
 11
118.7475068452249
 21
166.9016437240887
 31
0.0
  0
LINE
  5
28F2
330
1F
100
AcDbEntity
  8
SPOJOVACÍ
  6
Continuous
100
AcDbLine
 10
114.7903064660267
 20
171.2367745294276
 30
0.0
 11
110.5887954139352
 21
171.2367745294276
 31
0.0
  0
LINE
  5
28F3
330
1F
100
AcDbEntity
  8
SPOJOVACÍ
  6
Continuous
100
AcDbLine
 10
114.7903064660267
 20
168.9423098911019
 30
0.0
 11
111.3580973057969
 21
168.9423098911019
 31
0.0
  0
LINE
  5
28F4
330
1F
100
AcDbEntity
  8
SPOJOVACÍ
  6
Continuous
100
AcDbLine
 10
110.8520816729969
 20
168.9423098911019
 30
0.0
 11
108.7110030262219
 21
168.9423098911019
 31
0.0
  0
LINE
  5
28F5
330
1F
100
AcDbEntity
  8
SPOJOVACÍ
  6
Continuous
100
AcDbLine
 10
108.1978715486029
 20
168.9423098911019
 30
0.0
 11
106.055211602902
 21
168.9423098911019
 31
0.0
  0
LINE
  5
28F6
330
1F
100
AcDbEntity
  8
SPOJOVACÍ
  6
Continuous
100
AcDbLine
 10
105.5499866194504
 20
168.9423098911019
 30
0.0
 11
103.401001478508
 21
168.9423098911019
 31
0.0
  0
LINE
  5
28F7
330
1F
100
AcDbEntity
  8
SPOJOVACÍ
  6
Continuous
100
AcDbLine
 10
110.0756639363162
 20
171.2367745294276
 30
0.0
 11
107.9345852895448
 21
171.2367745294276
 31
0.0
  0
LINE
  5
28F8
330
1F
100
AcDbEntity
  8
SPOJOVACÍ
  6
Continuous
100
AcDbLine
 10
107.4277790071637
 20
171.2367745294276
 30
0.0
 11
105.2787938662213
 21
171.2367745294276
 31
0.0
  0
LINE
  5
28F9
330
1F
100
AcDbEntity
  8
SPOJOVACÍ
  6
Continuous
100
AcDbLine
 10
104.7735688827697
 20
171.2367745294276
 30
0.0
 11
102.6309089370688
 21
171.2367745294276
 31
0.0
  0
LINE
  5
28FA
330
1F
100
AcDbEntity
  8
SPOJOVACÍ
  6
Continuous
100
AcDbLine
 10
102.8870793513187
 20
168.9423098911019
 30
0.0
 11
100.7467913538885
 21
168.9423098911019
 31
0.0
  0
LINE
  5
28FB
330
1F
100
AcDbEntity
  8
SPOJOVACÍ
  6
Continuous
100
AcDbLine
 10
100.2399850715073
 20
168.9423098911019
 30
0.0
 11
99.17972419090347
 21
168.9423098911019
 31
0.0
  0
LINE
  5
28FC
330
1F
100
AcDbEntity
  8
SPOJOVACÍ
  6
Continuous
100
AcDbLine
 10
102.120149407724
 20
171.2367745294276
 30
0.0
 11
99.97907076094907
 21
171.2367745294276
 31
0.0
  0
LINE
  5
28FD
330
1F
100
AcDbEntity
  8
SPOJOVACÍ
  6
Continuous
100
AcDbLine
 10
99.46593928310448
 20
171.2367745294276
 30
0.0
 11
99.17972419090347
 21
171.2367745294276
 31
0.0
  0
LINE
  5
28FE
330
1F
100
AcDbEntity
  8
SPOJOVACÍ
  6
Continuous
100
AcDbLine
 10
99.17972419090347
 20
168.9423098911019
 30
0.0
 11
98.16215837894834
 21
169.0696044484164
 31
0.0
  0
LINE
  5
28FF
330
1F
100
AcDbEntity
  8
SPOJOVACÍ
  6
Continuous
100
AcDbLine
 10
89.99949370069135
 20
170.0895422084093
 30
0.0
 11
92.41018380176956
 21
170.390779642369
 31
0.0
  0
LINE
  5
2900
330
1F
100
AcDbEntity
  8
SPOJOVACÍ
  6
Continuous
100
AcDbLine
 10
97.63479521147292
 20
169.1352283520635
 30
0.0
 11
95.66133424331837
 21
169.3819109741551
 31
0.0
  0
LINE
  5
2901
330
1F
100
AcDbEntity
  8
SPOJOVACÍ
  6
Continuous
100
AcDbLine
 10
95.12527393210531
 20
169.4491161755676
 30
0.0
 11
93.15260361330274
 21
169.6957987939484
 31
0.0
  0
LINE
  5
2902
330
1F
100
AcDbEntity
  8
SPOJOVACÍ
  6
Continuous
100
AcDbLine
 10
92.62524044582733
 20
169.7614226975955
 30
0.0
 11
89.99949370069135
 21
170.0895422084093
 31
0.0
  0
LINE
  5
2903
330
1F
100
AcDbEntity
  8
SPOJOVACÍ
  6
Continuous
100
AcDbLine
 10
92.89406125077858
 20
170.4516596490092
 30
0.0
 11
94.71729882801355
 21
170.6793666830734
 31
0.0
  0
LINE
  5
2904
330
1F
100
AcDbEntity
  8
SPOJOVACÍ
  6
Continuous
100
AcDbLine
 10
95.20354822529681
 20
170.7402466860029
 30
0.0
 11
97.01966995772
 21
170.9671630730398
 31
0.0
  0
LINE
  5
2905
330
1F
100
AcDbEntity
  8
SPOJOVACÍ
  6
Continuous
100
AcDbLine
 10
97.50433805631018
 20
171.02804307968
 30
0.0
 11
99.17972419090347
 21
171.2367745294276
 31
0.0
  0
LINE
  5
2906
330
1F
100
AcDbEntity
  8
SPOJOVACÍ
  6
Continuous
100
AcDbLine
 10
111.2197336562376
 20
168.0496666884236
 30
0.0
 11
110.1997958962447
 21
172.1294177283952
 31
0.0
  0
LINE
  5
2907
330
1F
100
AcDbEntity
  8
SPOJOVACÍ
  6
Continuous
100
AcDbLine
 10
111.2197336562376
 20
168.0496666884236
 30
0.0
 11
111.0347216906002
 21
168.3706703574379
 31
0.0
  0
LINE
  5
2908
330
1F
100
AcDbEntity
  8
SPOJOVACÍ
  6
Continuous
100
AcDbLine
 10
111.2197336562376
 20
168.0496666884236
 30
0.0
 11
111.5415279727449
 21
168.3706703574379
 31
0.0
  0
LINE
  5
2909
330
1F
100
AcDbEntity
  8
SPOJOVACÍ
  6
Continuous
100
AcDbLine
 10
110.1997958962447
 20
172.1294177283952
 30
0.0
 11
109.8787922290857
 21
171.8084140630916
 31
0.0
  0
LINE
  5
290A
330
1F
100
AcDbEntity
  8
SPOJOVACÍ
  6
Continuous
100
AcDbLine
 10
110.1997958962447
 20
172.1294177283952
 30
0.0
 11
110.3855985114705
 21
171.8084140630916
 31
0.0
  0
LINE
  5
290B
330
1F
100
AcDbEntity
  8
SPOJOVACÍ
  6
Continuous
100
AcDbLine
 10
111.0347216906002
 20
168.3706703574379
 30
0.0
 11
109.8787922290857
 21
171.8084140630916
 31
0.0
  0
LINE
  5
290C
330
1F
100
AcDbEntity
  8
SPOJOVACÍ
  6
Continuous
100
AcDbLine
 10
111.5415279727449
 20
168.3706703574379
 30
0.0
 11
110.3855985114705
 21
171.8084140630916
 31
0.0
  0
LINE
  5
290D
330
1F
100
AcDbEntity
  8
SPOJOVACÍ
  6
Continuous
100
AcDbLine
 10
108.5678954801214
 20
168.0496666884236
 30
0.0
 11
107.5479577198921
 21
172.1294177283952
 31
0.0
  0
LINE
  5
290E
330
1F
100
AcDbEntity
  8
SPOJOVACÍ
  6
Continuous
100
AcDbLine
 10
108.5678954801214
 20
168.0496666884236
 30
0.0
 11
108.3820928648992
 21
168.3706703574379
 31
0.0
  0
LINE
  5
290F
330
1F
100
AcDbEntity
  8
SPOJOVACÍ
  6
Continuous
100
AcDbLine
 10
108.5678954801214
 20
168.0496666884236
 30
0.0
 11
108.8888991472804
 21
168.3706703574379
 31
0.0
  0
LINE
  5
2910
330
1F
100
AcDbEntity
  8
SPOJOVACÍ
  6
Continuous
100
AcDbLine
 10
107.5479577198921
 20
172.1294177283952
 30
0.0
 11
107.2269540529696
 21
171.8084140630916
 31
0.0
  0
LINE
  5
2911
330
1F
100
AcDbEntity
  8
SPOJOVACÍ
  6
Continuous
100
AcDbLine
 10
107.5479577198921
 20
172.1294177283952
 30
0.0
 11
107.7337603351179
 21
171.8084140630916
 31
0.0
  0
LINE
  5
2912
330
1F
100
AcDbEntity
  8
SPOJOVACÍ
  6
Continuous
100
AcDbLine
 10
108.3820928648992
 20
168.3706703574379
 30
0.0
 11
107.2269540529696
 21
171.8084140630916
 31
0.0
  0
LINE
  5
2913
330
1F
100
AcDbEntity
  8
SPOJOVACÍ
  6
Continuous
100
AcDbLine
 10
108.8888991472804
 20
168.3706703574379
 30
0.0
 11
107.7337603351179
 21
171.8084140630916
 31
0.0
  0
LINE
  5
2914
330
1F
100
AcDbEntity
  8
SPOJOVACÍ
  6
Continuous
100
AcDbLine
 10
97.99612199947933
 20
168.2655139836814
 30
0.0
 11
97.81031938425712
 21
168.587308299723
 31
0.0
  0
LINE
  5
2915
330
1F
100
AcDbEntity
  8
SPOJOVACÍ
  6
Continuous
100
AcDbLine
 10
97.99612199947933
 20
168.2655139836814
 30
0.0
 11
98.31712566663828
 21
168.587308299723
 31
0.0
  0
LINE
  5
2916
330
1F
100
AcDbEntity
  8
SPOJOVACÍ
  6
Continuous
100
AcDbLine
 10
97.16910269952041
 20
171.7720441885129
 30
0.0
 11
96.84730838278028
 21
171.4510405232093
 31
0.0
  0
LINE
  5
2917
330
1F
100
AcDbEntity
  8
SPOJOVACÍ
  6
Continuous
100
AcDbLine
 10
97.16910269952041
 20
171.7720441885129
 30
0.0
 11
97.35411466516143
 21
171.4510405232093
 31
0.0
  0
LINE
  5
2918
330
1F
100
AcDbEntity
  8
SPOJOVACÍ
  6
Continuous
100
AcDbLine
 10
97.81031938425712
 20
168.587308299723
 30
0.0
 11
96.84730838278028
 21
171.4510405232093
 31
0.0
  0
LINE
  5
2919
330
1F
100
AcDbEntity
  8
SPOJOVACÍ
  6
Continuous
100
AcDbLine
 10
98.31712566663828
 20
168.587308299723
 30
0.0
 11
97.35411466516143
 21
171.4510405232093
 31
0.0
  0
LINE
  5
291A
330
1F
100
AcDbEntity
  8
SPOJOVACÍ
  6
Continuous
100
AcDbLine
 10
97.99612199947933
 20
168.2655139836814
 30
0.0
 11
97.16910269952041
 21
171.7720441885129
 31
0.0
  0
LINE
  5
291B
330
1F
100
AcDbEntity
  8
SPOJOVACÍ
  6
Continuous
100
AcDbLine
 10
95.43362720832647
 20
168.7454381838714
 30
0.0
 11
95.24861524268544
 21
169.0664418528857
 31
0.0
  0
LINE
  5
291C
330
1F
100
AcDbEntity
  8
SPOJOVACÍ
  6
Continuous
100
AcDbLine
 10
95.43362720832647
 20
168.7454381838714
 30
0.0
 11
95.7554215250666
 21
169.0664418528857
 31
0.0
  0
LINE
  5
291D
330
1F
100
AcDbEntity
  8
SPOJOVACÍ
  6
Continuous
100
AcDbLine
 10
94.89519494907199
 20
171.3941137628379
 30
0.0
 11
94.5734006325647
 21
171.0731100975343
 31
0.0
  0
LINE
  5
291E
330
1F
100
AcDbEntity
  8
SPOJOVACÍ
  6
Continuous
100
AcDbLine
 10
94.89519494907199
 20
171.3941137628379
 30
0.0
 11
95.08020691471301
 21
171.0731100975343
 31
0.0
  0
LINE
  5
291F
330
1F
100
AcDbEntity
  8
SPOJOVACÍ
  6
Continuous
100
AcDbLine
 10
95.24861524268544
 20
169.0664418528857
 30
0.0
 11
94.5734006325647
 21
171.0731100975343
 31
0.0
  0
LINE
  5
2920
330
1F
100
AcDbEntity
  8
SPOJOVACÍ
  6
Continuous
100
AcDbLine
 10
95.7554215250666
 20
169.0664418528857
 30
0.0
 11
95.08020691471301
 21
171.0731100975343
 31
0.0
  0
LINE
  5
2921
330
1F
100
AcDbEntity
  8
SPOJOVACÍ
  6
Continuous
100
AcDbLine
 10
95.43362720832647
 20
168.7454381838714
 30
0.0
 11
94.89519494907199
 21
171.3941137628379
 31
0.0
  0
LINE
  5
2922
330
1F
100
AcDbEntity
  8
SPOJOVACÍ
  6
Continuous
100
AcDbLine
 10
92.87192306675478
 20
169.2253623877721
 30
0.0
 11
92.68612045153986
 21
169.5463660530757
 31
0.0
  0
LINE
  5
2923
330
1F
100
AcDbEntity
  8
SPOJOVACÍ
  6
Continuous
100
AcDbLine
 10
92.87192306675478
 20
169.2253623877721
 30
0.0
 11
93.19292673391373
 21
169.5463660530757
 31
0.0
  0
LINE
  5
2924
330
1F
100
AcDbEntity
  8
SPOJOVACÍ
  6
Continuous
100
AcDbLine
 10
92.60784615834836
 20
171.0565064580103
 30
0.0
 11
92.28605184184107
 21
170.7355027927068
 31
0.0
  0
LINE
  5
2925
330
1F
100
AcDbEntity
  8
SPOJOVACÍ
  6
Continuous
100
AcDbLine
 10
92.60784615834836
 20
171.0565064580103
 30
0.0
 11
92.79285812421495
 21
170.7355027927068
 31
0.0
  0
LINE
  5
2926
330
1F
100
AcDbEntity
  8
SPOJOVACÍ
  6
Continuous
100
AcDbLine
 10
92.68612045153986
 20
169.5463660530757
 30
0.0
 11
92.28605184184107
 21
170.7355027927068
 31
0.0
  0
LINE
  5
2927
330
1F
100
AcDbEntity
  8
SPOJOVACÍ
  6
Continuous
100
AcDbLine
 10
93.19292673391373
 20
169.5463660530757
 30
0.0
 11
92.79285812421495
 21
170.7355027927068
 31
0.0
  0
LINE
  5
2928
330
1F
100
AcDbEntity
  8
SPOJOVACÍ
  6
Continuous
100
AcDbLine
 10
92.87192306675478
 20
169.2253623877721
 30
0.0
 11
92.60784615834836
 21
171.0565064580103
 31
0.0
  0
LINE
  5
2929
330
1F
100
AcDbEntity
  8
SPOJOVACÍ
  6
Continuous
100
AcDbLine
 10
105.9160573037688
 20
168.0496666884236
 30
0.0
 11
104.8961195437759
 21
172.1294177283952
 31
0.0
  0
LINE
  5
292A
330
1F
100
AcDbEntity
  8
SPOJOVACÍ
  6
Continuous
100
AcDbLine
 10
105.9160573037688
 20
168.0496666884236
 30
0.0
 11
105.7302546885466
 21
168.3706703574379
 31
0.0
  0
LINE
  5
292B
330
1F
100
AcDbEntity
  8
SPOJOVACÍ
  6
Continuous
100
AcDbLine
 10
105.9160573037688
 20
168.0496666884236
 30
0.0
 11
106.2370609709278
 21
168.3706703574379
 31
0.0
  0
LINE
  5
292C
330
1F
100
AcDbEntity
  8
SPOJOVACÍ
  6
Continuous
100
AcDbLine
 10
104.8961195437759
 20
172.1294177283952
 30
0.0
 11
104.5743252272723
 21
171.8084140630916
 31
0.0
  0
LINE
  5
292D
330
1F
100
AcDbEntity
  8
SPOJOVACÍ
  6
Continuous
100
AcDbLine
 10
104.8961195437759
 20
172.1294177283952
 30
0.0
 11
105.0811315096461
 21
171.8084140630916
 31
0.0
  0
LINE
  5
292E
330
1F
100
AcDbEntity
  8
SPOJOVACÍ
  6
Continuous
100
AcDbLine
 10
105.7302546885466
 20
168.3706703574379
 30
0.0
 11
104.5743252272723
 21
171.8084140630916
 31
0.0
  0
LINE
  5
292F
330
1F
100
AcDbEntity
  8
SPOJOVACÍ
  6
Continuous
100
AcDbLine
 10
106.2370609709278
 20
168.3706703574379
 30
0.0
 11
105.0811315096461
 21
171.8084140630916
 31
0.0
  0
LINE
  5
2930
330
1F
100
AcDbEntity
  8
SPOJOVACÍ
  6
Continuous
100
AcDbLine
 10
103.2642191276454
 20
168.0496666884236
 30
0.0
 11
102.2442813676525
 21
172.1294177283952
 31
0.0
  0
LINE
  5
2931
330
1F
100
AcDbEntity
  8
SPOJOVACÍ
  6
Continuous
100
AcDbLine
 10
103.2642191276454
 20
168.0496666884236
 30
0.0
 11
103.0784165124305
 21
168.3706703574379
 31
0.0
  0
LINE
  5
2932
330
1F
100
AcDbEntity
  8
SPOJOVACÍ
  6
Continuous
100
AcDbLine
 10
103.2642191276454
 20
168.0496666884236
 30
0.0
 11
103.5852227948043
 21
168.3706703574379
 31
0.0
  0
LINE
  5
2933
330
1F
100
AcDbEntity
  8
SPOJOVACÍ
  6
Continuous
100
AcDbLine
 10
102.2442813676525
 20
172.1294177283952
 30
0.0
 11
101.9224870511452
 21
171.8084140630916
 31
0.0
  0
LINE
  5
2934
330
1F
100
AcDbEntity
  8
SPOJOVACÍ
  6
Continuous
100
AcDbLine
 10
102.2442813676525
 20
172.1294177283952
 30
0.0
 11
102.4292933332935
 21
171.8084140630916
 31
0.0
  0
LINE
  5
2935
330
1F
100
AcDbEntity
  8
SPOJOVACÍ
  6
Continuous
100
AcDbLine
 10
103.0784165124305
 20
168.3706703574379
 30
0.0
 11
101.9224870511452
 21
171.8084140630916
 31
0.0
  0
LINE
  5
2936
330
1F
100
AcDbEntity
  8
SPOJOVACÍ
  6
Continuous
100
AcDbLine
 10
103.5852227948043
 20
168.3706703574379
 30
0.0
 11
102.4292933332935
 21
171.8084140630916
 31
0.0
  0
LINE
  5
2937
330
1F
100
AcDbEntity
  8
SPOJOVACÍ
  6
Continuous
100
AcDbLine
 10
100.6115903019444
 20
168.0496666884236
 30
0.0
 11
99.59165254195159
 21
172.1294177283952
 31
0.0
  0
LINE
  5
2938
330
1F
100
AcDbEntity
  8
SPOJOVACÍ
  6
Continuous
100
AcDbLine
 10
100.6115903019444
 20
168.0496666884236
 30
0.0
 11
100.4265783363071
 21
168.3706703574379
 31
0.0
  0
LINE
  5
2939
330
1F
100
AcDbEntity
  8
SPOJOVACÍ
  6
Continuous
100
AcDbLine
 10
100.6115903019444
 20
168.0496666884236
 30
0.0
 11
100.9333846186882
 21
168.3706703574379
 31
0.0
  0
LINE
  5
293A
330
1F
100
AcDbEntity
  8
SPOJOVACÍ
  6
Continuous
100
AcDbLine
 10
99.59165254195159
 20
172.1294177283952
 30
0.0
 11
99.27064887479264
 21
171.8084140630916
 31
0.0
  0
LINE
  5
293B
330
1F
100
AcDbEntity
  8
SPOJOVACÍ
  6
Continuous
100
AcDbLine
 10
99.59165254195159
 20
172.1294177283952
 30
0.0
 11
99.77745515717742
 21
171.8084140630916
 31
0.0
  0
LINE
  5
293C
330
1F
100
AcDbEntity
  8
SPOJOVACÍ
  6
Continuous
100
AcDbLine
 10
100.4265783363071
 20
168.3706703574379
 30
0.0
 11
99.27064887479264
 21
171.8084140630916
 31
0.0
  0
LINE
  5
293D
330
1F
100
AcDbEntity
  8
SPOJOVACÍ
  6
Continuous
100
AcDbLine
 10
100.9333846186882
 20
168.3706703574379
 30
0.0
 11
99.77745515717742
 21
171.8084140630916
 31
0.0
  0
LINE
  5
293E
330
1F
100
AcDbEntity
  8
STAVBA OBRYS
100
AcDbLine
 10
120.3999641464497
 20
157.8852014050634
 30
0.0
 11
120.3999641464497
 21
132.8852014050634
 31
0.0
  0
ARC
  5
293F
330
1F
100
AcDbEntity
  8
STAVBA OBRYS
100
AcDbCircle
 10
107.8999641464497
 20
157.8852014050634
 30
0.0
 40
12.5
100
AcDbArc
 50
270.0
 51
0.0
  0
LINE
  5
2940
330
1F
100
AcDbEntity
  8
STAVBA OBRYS
100
AcDbLine
 10
120.3999641464497
 20
157.8852014050634
 30
0.0
 11
120.3999641464461
 21
400.5719786437574
 31
0.0
  0
ARC
  5
2941
330
1F
100
AcDbEntity
  8
STAVBA OBRYS
100
AcDbCircle
 10
107.8999641464497
 20
132.8852014050634
 30
0.0
 40
12.5
100
AcDbArc
 50
0.0
 51
90.0
  0
LINE
  5
2942
330
1F
100
AcDbEntity
  8
STAVBA OBRYS
100
AcDbLine
 10
-90.67694015042889
 20
400.5719786437574
 30
0.0
 11
-90.67694015043617
 21
-95.54041232601333
 31
0.0
  0
LINE
  5
2943
330
1F
100
AcDbEntity
  8
izolace
  6
IZOLACE
 48
1.95
100
AcDbLine
 10
-60.67694015042889
 20
400.5719786437574
 30
0.0
 11
-60.67694015043253
 21
-95.54041232601333
 31
0.0
  0
LINE
  5
2944
330
1F
100
AcDbEntity
  8
SPOJOVACÍ
  6
Continuous
100
AcDbLine
 10
84.99810587848969
 20
247.6541479372016
 30
0.0
 11
83.63818886494755
 21
251.6985522967942
 31
0.0
  0
LINE
  5
2945
330
1F
100
AcDbEntity
  8
SPOJOVACÍ
  6
Continuous
100
AcDbLine
 10
84.40186319333497
 20
247.6541479372016
 30
0.0
 11
83.04194617979282
 21
251.6985522967942
 31
0.0
  0
LINE
  5
2946
330
1F
100
AcDbEntity
  8
SPOJOVACÍ
  6
Continuous
100
AcDbLine
 10
83.419597552921
 20
252.0762036677396
 30
0.0
 11
83.63818886494755
 21
251.6985522967942
 31
0.0
  0
LINE
  5
2947
330
1F
100
AcDbEntity
  8
SPOJOVACÍ
  6
Continuous
100
AcDbLine
 10
83.419597552921
 20
252.0762036677396
 30
0.0
 11
83.04194617979282
 21
251.6985522967942
 31
0.0
  0
LINE
  5
2948
330
1F
100
AcDbEntity
  8
SPOJOVACÍ
  6
Continuous
100
AcDbLine
 10
84.61952432938323
 20
247.2764965618906
 30
0.0
 11
84.99810587848969
 21
247.6541479372016
 31
0.0
  0
LINE
  5
2949
330
1F
100
AcDbEntity
  8
SPOJOVACÍ
  6
Continuous
100
AcDbLine
 10
84.61952432938323
 20
247.2764965618906
 30
0.0
 11
84.40186319333497
 21
247.6541479372016
 31
0.0
  0
LINE
  5
294A
330
1F
100
AcDbEntity
  8
SPOJOVACÍ
  6
Continuous
100
AcDbLine
 10
84.61952432938323
 20
247.2764965618906
 30
0.0
 11
83.419597552921
 21
252.0762036677396
 31
0.0
  0
LINE
  5
294B
330
1F
100
AcDbEntity
  8
SPOJOVACÍ
  6
Continuous
100
AcDbLine
 10
88.11791549745157
 20
247.6541479372016
 30
0.0
 11
86.75799848390942
 21
251.6985522967942
 31
0.0
  0
LINE
  5
294C
330
1F
100
AcDbEntity
  8
SPOJOVACÍ
  6
Continuous
100
AcDbLine
 10
87.52167281230413
 20
247.6541479372016
 30
0.0
 11
86.16175579903119
 21
251.6985522967942
 31
0.0
  0
LINE
  5
294D
330
1F
100
AcDbEntity
  8
SPOJOVACÍ
  6
Continuous
100
AcDbLine
 10
86.54033734786116
 20
252.0762036677396
 30
0.0
 11
86.75799848390942
 21
251.6985522967942
 31
0.0
  0
LINE
  5
294E
330
1F
100
AcDbEntity
  8
SPOJOVACÍ
  6
Continuous
100
AcDbLine
 10
86.54033734786116
 20
252.0762036677396
 30
0.0
 11
86.16175579903119
 21
251.6985522967942
 31
0.0
  0
LINE
  5
294F
330
1F
100
AcDbEntity
  8
SPOJOVACÍ
  6
Continuous
100
AcDbLine
 10
87.74026412432339
 20
247.2764965618906
 30
0.0
 11
88.11791549745157
 21
247.6541479372016
 31
0.0
  0
LINE
  5
2950
330
1F
100
AcDbEntity
  8
SPOJOVACÍ
  6
Continuous
100
AcDbLine
 10
87.74026412432339
 20
247.2764965618906
 30
0.0
 11
87.52167281230413
 21
247.6541479372016
 31
0.0
  0
LINE
  5
2951
330
1F
100
AcDbEntity
  8
SPOJOVACÍ
  6
Continuous
100
AcDbLine
 10
87.74026412432339
 20
247.2764965618906
 30
0.0
 11
86.54033734786116
 21
252.0762036677396
 31
0.0
  0
LINE
  5
2952
330
1F
100
AcDbEntity
  8
SPOJOVACÍ
  6
Continuous
100
AcDbLine
 10
91.23772511642073
 20
247.6541479372016
 30
0.0
 11
89.87780810314779
 21
251.6985522967942
 31
0.0
  0
LINE
  5
2953
330
1F
100
AcDbEntity
  8
SPOJOVACÍ
  6
Continuous
100
AcDbLine
 10
90.641482431266
 20
247.6541479372016
 30
0.0
 11
89.28156541800035
 21
251.6985522967942
 31
0.0
  0
LINE
  5
2954
330
1F
100
AcDbEntity
  8
SPOJOVACÍ
  6
Continuous
100
AcDbLine
 10
89.66014696683032
 20
252.0762036677396
 30
0.0
 11
89.87780810314779
 21
251.6985522967942
 31
0.0
  0
LINE
  5
2955
330
1F
100
AcDbEntity
  8
SPOJOVACÍ
  6
Continuous
100
AcDbLine
 10
89.66014696683032
 20
252.0762036677396
 30
0.0
 11
89.28156541800035
 21
251.6985522967942
 31
0.0
  0
LINE
  5
2956
330
1F
100
AcDbEntity
  8
SPOJOVACÍ
  6
Continuous
100
AcDbLine
 10
90.86007374329255
 20
247.2764965618906
 30
0.0
 11
91.23772511642073
 21
247.6541479372016
 31
0.0
  0
LINE
  5
2957
330
1F
100
AcDbEntity
  8
SPOJOVACÍ
  6
Continuous
100
AcDbLine
 10
90.86007374329255
 20
247.2764965618906
 30
0.0
 11
90.641482431266
 21
247.6541479372016
 31
0.0
  0
LINE
  5
2958
330
1F
100
AcDbEntity
  8
SPOJOVACÍ
  6
Continuous
100
AcDbLine
 10
90.86007374329255
 20
247.2764965618906
 30
0.0
 11
89.66014696683032
 21
252.0762036677396
 31
0.0
  0
LINE
  5
2959
330
1F
100
AcDbEntity
  8
SPOJOVACÍ
  6
Continuous
100
AcDbLine
 10
75.51403346445204
 20
248.659667972889
 30
0.0
 11
75.20335474867806
 21
250.8139551143457
 31
0.0
  0
LINE
  5
295A
330
1F
100
AcDbEntity
  8
SPOJOVACÍ
  6
Continuous
100
AcDbLine
 10
75.89168483758021
 20
249.0373193438343
 30
0.0
 11
75.42101588499554
 21
250.4363037434003
 31
0.0
  0
LINE
  5
295B
330
1F
100
AcDbEntity
  8
SPOJOVACÍ
  6
Continuous
100
AcDbLine
 10
75.29544215243276
 20
249.0373193438343
 30
0.0
 11
74.82477319984809
 21
250.4363037434003
 31
0.0
  0
LINE
  5
295C
330
1F
100
AcDbEntity
  8
SPOJOVACÍ
  6
Continuous
100
AcDbLine
 10
75.20335474867806
 20
250.8139551143457
 30
0.0
 11
75.42101588499554
 21
250.4363037434003
 31
0.0
  0
LINE
  5
295D
330
1F
100
AcDbEntity
  8
SPOJOVACÍ
  6
Continuous
100
AcDbLine
 10
75.20335474867806
 20
250.8139551143457
 30
0.0
 11
74.82477319984809
 21
250.4363037434003
 31
0.0
  0
LINE
  5
295E
330
1F
100
AcDbEntity
  8
SPOJOVACÍ
  6
Continuous
100
AcDbLine
 10
75.51403346445204
 20
248.659667972889
 30
0.0
 11
75.89168483758021
 21
249.0373193438343
 31
0.0
  0
LINE
  5
295F
330
1F
100
AcDbEntity
  8
SPOJOVACÍ
  6
Continuous
100
AcDbLine
 10
75.51403346445204
 20
248.659667972889
 30
0.0
 11
75.29544215243276
 21
249.0373193438343
 31
0.0
  0
LINE
  5
2960
330
1F
100
AcDbEntity
  8
SPOJOVACÍ
  6
Continuous
100
AcDbLine
 10
78.52780304277167
 20
248.0950512624175
 30
0.0
 11
77.89435332600169
 21
251.2111401788487
 31
0.0
  0
LINE
  5
2961
330
1F
100
AcDbEntity
  8
SPOJOVACÍ
  6
Continuous
100
AcDbLine
 10
78.90638459187812
 20
248.4727026377285
 30
0.0
 11
78.11201446204996
 21
250.8334888079033
 31
0.0
  0
LINE
  5
2962
330
1F
100
AcDbEntity
  8
SPOJOVACÍ
  6
Continuous
100
AcDbLine
 10
78.3101419067234
 20
248.4727026377285
 30
0.0
 11
77.51577177717172
 21
250.8334888079033
 31
0.0
  0
LINE
  5
2963
330
1F
100
AcDbEntity
  8
SPOJOVACÍ
  6
Continuous
100
AcDbLine
 10
77.89435332600169
 20
251.2111401788487
 30
0.0
 11
78.11201446204996
 21
250.8334888079033
 31
0.0
  0
LINE
  5
2964
330
1F
100
AcDbEntity
  8
SPOJOVACÍ
  6
Continuous
100
AcDbLine
 10
77.89435332600169
 20
251.2111401788487
 30
0.0
 11
77.51577177717172
 21
250.8334888079033
 31
0.0
  0
LINE
  5
2965
330
1F
100
AcDbEntity
  8
SPOJOVACÍ
  6
Continuous
100
AcDbLine
 10
78.52780304277167
 20
248.0950512624175
 30
0.0
 11
78.90638459187812
 21
248.4727026377285
 31
0.0
  0
LINE
  5
2966
330
1F
100
AcDbEntity
  8
SPOJOVACÍ
  6
Continuous
100
AcDbLine
 10
78.52780304277167
 20
248.0950512624175
 30
0.0
 11
78.3101419067234
 21
248.4727026377285
 31
0.0
  0
LINE
  5
2967
330
1F
100
AcDbEntity
  8
SPOJOVACÍ
  6
Continuous
100
AcDbLine
 10
81.54250279706957
 20
247.5304345563116
 30
0.0
 11
80.56953891476496
 21
251.6557642090546
 31
0.0
  0
LINE
  5
2968
330
1F
100
AcDbEntity
  8
SPOJOVACÍ
  6
Continuous
100
AcDbLine
 10
81.92015417019774
 20
247.9090161045959
 30
0.0
 11
80.78720005081322
 21
251.2781128381092
 31
0.0
  0
LINE
  5
2969
330
1F
100
AcDbEntity
  8
SPOJOVACÍ
  6
Continuous
100
AcDbLine
 10
81.32391148504302
 20
247.9090161045959
 30
0.0
 11
80.1909573656585
 21
251.2781128381092
 31
0.0
  0
LINE
  5
296A
330
1F
100
AcDbEntity
  8
SPOJOVACÍ
  6
Continuous
100
AcDbLine
 10
80.56953891476496
 20
251.6557642090546
 30
0.0
 11
80.78720005081322
 21
251.2781128381092
 31
0.0
  0
LINE
  5
296B
330
1F
100
AcDbEntity
  8
SPOJOVACÍ
  6
Continuous
100
AcDbLine
 10
80.56953891476496
 20
251.6557642090546
 30
0.0
 11
80.1909573656585
 21
251.2781128381092
 31
0.0
  0
LINE
  5
296C
330
1F
100
AcDbEntity
  8
SPOJOVACÍ
  6
Continuous
100
AcDbLine
 10
81.54250279706957
 20
247.5304345563116
 30
0.0
 11
81.92015417019774
 21
247.9090161045959
 31
0.0
  0
LINE
  5
296D
330
1F
100
AcDbEntity
  8
SPOJOVACÍ
  6
Continuous
100
AcDbLine
 10
81.54250279706957
 20
247.5304345563116
 30
0.0
 11
81.32391148504302
 21
247.9090161045959
 31
0.0
  0
LINE
  5
296E
330
1F
100
AcDbEntity
  8
SPOJOVACÍ
  6
Continuous
100
AcDbLine
 10
94.3575347356591
 20
247.6541479372016
 30
0.0
 11
92.99854789781875
 21
251.6985522967942
 31
0.0
  0
LINE
  5
296F
330
1F
100
AcDbEntity
  8
SPOJOVACÍ
  6
Continuous
100
AcDbLine
 10
93.76129205050437
 20
247.6541479372016
 30
0.0
 11
92.40230521294051
 21
251.6985522967942
 31
0.0
  0
LINE
  5
2970
330
1F
100
AcDbEntity
  8
SPOJOVACÍ
  6
Continuous
100
AcDbLine
 10
92.7799565857922
 20
252.0762036677396
 30
0.0
 11
92.99854789781875
 21
251.6985522967942
 31
0.0
  0
LINE
  5
2971
330
1F
100
AcDbEntity
  8
SPOJOVACÍ
  6
Continuous
100
AcDbLine
 10
92.7799565857922
 20
252.0762036677396
 30
0.0
 11
92.40230521294051
 21
251.6985522967942
 31
0.0
  0
LINE
  5
2972
330
1F
100
AcDbEntity
  8
SPOJOVACÍ
  6
Continuous
100
AcDbLine
 10
93.97988336253092
 20
247.2764965618906
 30
0.0
 11
94.3575347356591
 21
247.6541479372016
 31
0.0
  0
LINE
  5
2973
330
1F
100
AcDbEntity
  8
SPOJOVACÍ
  6
Continuous
100
AcDbLine
 10
93.97988336253092
 20
247.2764965618906
 30
0.0
 11
93.76129205050437
 21
247.6541479372016
 31
0.0
  0
LINE
  5
2974
330
1F
100
AcDbEntity
  8
SPOJOVACÍ
  6
Continuous
100
AcDbLine
 10
93.97988336253092
 20
247.2764965618906
 30
0.0
 11
92.7799565857922
 21
252.0762036677396
 31
0.0
  0
LINE
  5
2975
330
1F
100
AcDbEntity
  8
SPOJOVACÍ
  6
Continuous
100
AcDbLine
 10
97.47827453032279
 20
247.6541479372016
 30
0.0
 11
96.11835751705712
 21
251.6985522967942
 31
0.0
  0
LINE
  5
2976
330
1F
100
AcDbEntity
  8
SPOJOVACÍ
  6
Continuous
100
AcDbLine
 10
96.88203184544455
 20
247.6541479372016
 30
0.0
 11
95.52211483190239
 21
251.6985522967942
 31
0.0
  0
LINE
  5
2977
330
1F
100
AcDbEntity
  8
SPOJOVACÍ
  6
Continuous
100
AcDbLine
 10
95.89976620503056
 20
252.0762036677396
 30
0.0
 11
96.11835751705712
 21
251.6985522967942
 31
0.0
  0
LINE
  5
2978
330
1F
100
AcDbEntity
  8
SPOJOVACÍ
  6
Continuous
100
AcDbLine
 10
95.89976620503056
 20
252.0762036677396
 30
0.0
 11
95.52211483190239
 21
251.6985522967942
 31
0.0
  0
LINE
  5
2979
330
1F
100
AcDbEntity
  8
SPOJOVACÍ
  6
Continuous
100
AcDbLine
 10
97.09969298149282
 20
247.2764965618906
 30
0.0
 11
97.47827453032279
 21
247.6541479372016
 31
0.0
  0
LINE
  5
297A
330
1F
100
AcDbEntity
  8
SPOJOVACÍ
  6
Continuous
100
AcDbLine
 10
97.09969298149282
 20
247.2764965618906
 30
0.0
 11
96.88203184544455
 21
247.6541479372016
 31
0.0
  0
LINE
  5
297B
330
1F
100
AcDbEntity
  8
SPOJOVACÍ
  6
Continuous
100
AcDbLine
 10
97.09969298149282
 20
247.2764965618906
 30
0.0
 11
95.89976620503056
 21
252.0762036677396
 31
0.0
  0
LINE
  5
297C
330
1F
100
AcDbEntity
  8
SPOJOVACÍ
  6
Continuous
100
AcDbLine
 10
80.96393345216256
 20
250.7804687868982
 30
0.0
 11
82.93497596344877
 21
251.026035198366
 31
0.0
  0
LINE
  5
297D
330
1F
100
AcDbEntity
  8
SPOJOVACÍ
  6
Continuous
100
AcDbLine
 10
78.25712188626403
 20
250.4418847943369
 30
0.0
 11
80.39373568911742
 21
250.7088452496744
 31
0.0
  0
LINE
  5
297E
330
1F
100
AcDbEntity
  8
SPOJOVACÍ
  6
Continuous
100
AcDbLine
 10
75.54007838683083
 20
250.1023706331678
 30
0.0
 11
77.68506377181529
 21
250.3702612614787
 31
0.0
  0
LINE
  5
297F
330
1F
100
AcDbEntity
  8
SPOJOVACÍ
  6
Continuous
100
AcDbLine
 10
75.22381861630037
 20
249.2903271609165
 30
0.0
 11
72.13470479849547
 21
249.6763501148151
 31
0.0
  0
LINE
  5
2980
330
1F
100
AcDbEntity
  8
SPOJOVACÍ
  6
Continuous
100
AcDbLine
 10
78.16503448250933
 20
248.9229077232365
 30
0.0
 11
75.8442458721538
 21
249.2131225683905
 31
0.0
  0
LINE
  5
2981
330
1F
100
AcDbEntity
  8
SPOJOVACÍ
  6
Continuous
100
AcDbLine
 10
81.1174124582385
 20
248.5536279308788
 30
0.0
 11
78.79569367217391
 21
248.8438427803984
 31
0.0
  0
LINE
  5
2982
330
1F
100
AcDbEntity
  8
SPOJOVACÍ
  6
Continuous
100
AcDbLine
 10
72.13470479849547
 20
249.6763501148151
 30
0.0
 11
74.97081079976396
 21
250.0307470959441
 31
0.0
  0
LINE
  5
2983
330
1F
100
AcDbEntity
  8
SPOJOVACÍ
  6
Continuous
100
AcDbLine
 10
82.93497596344877
 20
248.3266650356298
 30
0.0
 11
81.73783971409193
 21
248.4764233383529
 31
0.0
  0
LINE
  5
2984
330
1F
100
AcDbEntity
  8
SPOJOVACÍ
  6
Continuous
100
AcDbLine
 10
83.27169960133232
 20
251.026035198366
 30
0.0
 11
82.93497596344877
 21
251.026035198366
 31
0.0
  0
LINE
  5
2985
330
1F
100
AcDbEntity
  8
SPOJOVACÍ
  6
Continuous
100
AcDbLine
 10
86.39429974794529
 20
251.026035198366
 30
0.0
 11
83.87538369291632
 21
251.026035198366
 31
0.0
  0
LINE
  5
2986
330
1F
100
AcDbEntity
  8
SPOJOVACÍ
  6
Continuous
100
AcDbLine
 10
84.18234170533741
 20
248.3266650356298
 30
0.0
 11
82.93497596344877
 21
248.3266650356298
 31
0.0
  0
LINE
  5
2987
330
1F
100
AcDbEntity
  8
SPOJOVACÍ
  6
Continuous
100
AcDbLine
 10
87.2965702698193
 20
248.3266650356298
 30
0.0
 11
84.77858439049214
 21
248.3266650356298
 31
0.0
  0
LINE
  5
2988
330
1F
100
AcDbEntity
  8
SPOJOVACÍ
  6
Continuous
100
AcDbLine
 10
89.51596971858725
 20
251.026035198366
 30
0.0
 11
86.9951933118782
 21
251.026035198366
 31
0.0
  0
LINE
  5
2989
330
1F
100
AcDbEntity
  8
SPOJOVACÍ
  6
Continuous
100
AcDbLine
 10
92.63856986493101
 20
251.026035198366
 30
0.0
 11
90.11035205206189
 21
251.026035198366
 31
0.0
  0
LINE
  5
298A
330
1F
100
AcDbEntity
  8
SPOJOVACÍ
  6
Continuous
100
AcDbLine
 10
95.75372860511469
 20
251.026035198366
 30
0.0
 11
93.23481255008573
 21
251.026035198366
 31
0.0
  0
LINE
  5
298B
330
1F
100
AcDbEntity
  8
SPOJOVACÍ
  6
Continuous
100
AcDbLine
 10
90.42940234997422
 20
248.3266650356298
 30
0.0
 11
87.9011845371051
 21
248.3266650356298
 31
0.0
  0
LINE
  5
298C
330
1F
100
AcDbEntity
  8
SPOJOVACÍ
  6
Continuous
100
AcDbLine
 10
93.5445610901579
 20
248.3266650356298
 30
0.0
 11
91.02378468344886
 21
248.3266650356298
 31
0.0
  0
LINE
  5
298D
330
1F
100
AcDbEntity
  8
SPOJOVACÍ
  6
Continuous
100
AcDbLine
 10
96.66716123650168
 20
248.3266650356298
 30
0.0
 11
94.1482451814727
 21
248.3266650356298
 31
0.0
  0
LINE
  5
298E
330
1F
100
AcDbEntity
  8
SPOJOVACÍ
  6
Continuous
100
AcDbLine
 10
101.3003668753581
 20
248.3266650356298
 30
0.0
 11
97.26247374567812
 21
248.3266650356298
 31
0.0
  0
LINE
  5
298F
330
1F
100
AcDbEntity
  8
SPOJOVACÍ
  6
Continuous
100
AcDbLine
 10
101.3003668753581
 20
251.026035198366
 30
0.0
 11
96.35741269642949
 21
251.026035198366
 31
0.0
  0
LINE
  5
2990
330
1F
100
AcDbEntity
  8
SPOJOVACÍ
  6
Continuous
100
AcDbLine
 10
106.7000373697146
 20
244.5761962261812
 30
0.0
 11
105.9558967332404
 21
245.925881309732
 31
0.0
  0
LINE
  5
2991
330
1F
100
AcDbEntity
  8
SPOJOVACÍ
  6
Continuous
100
AcDbLine
 10
105.9558967332404
 20
245.925881309732
 30
0.0
 11
104.8871247438282
 21
247.0365112100906
 31
0.0
  0
LINE
  5
2992
330
1F
100
AcDbEntity
  8
SPOJOVACÍ
  6
Continuous
100
AcDbLine
 10
104.8871247438282
 20
247.0365112100906
 30
0.0
 11
103.5681354655307
 21
247.8327416894088
 31
0.0
  0
LINE
  5
2993
330
1F
100
AcDbEntity
  8
SPOJOVACÍ
  6
Continuous
100
AcDbLine
 10
103.5681354655307
 20
247.8327416894088
 30
0.0
 11
102.0872955984805
 21
248.2606225537082
 31
0.0
  0
LINE
  5
2994
330
1F
100
AcDbEntity
  8
SPOJOVACÍ
  6
Continuous
100
AcDbLine
 10
102.0872955984805
 20
248.2606225537082
 30
0.0
 11
101.3003668753581
 21
248.3266650356298
 31
0.0
  0
LINE
  5
2995
330
1F
100
AcDbEntity
  8
SPOJOVACÍ
  6
Continuous
100
AcDbLine
 10
105.4452302213894
 20
252.8240650083815
 30
0.0
 11
106.3633137318311
 21
254.0611988172812
 31
0.0
  0
LINE
  5
2996
330
1F
100
AcDbEntity
  8
SPOJOVACÍ
  6
Continuous
100
AcDbLine
 10
106.3633137318311
 20
254.0611988172812
 30
0.0
 11
106.7000373697146
 21
254.776504003449
 31
0.0
  0
LINE
  5
2997
330
1F
100
AcDbEntity
  8
SPOJOVACÍ
  6
Continuous
100
AcDbLine
 10
106.7000373697146
 20
244.5761962261812
 30
0.0
 11
106.7000373697146
 21
254.776504003449
 31
0.0
  0
LINE
  5
2998
330
1F
100
AcDbEntity
  8
SPOJOVACÍ
  6
Continuous
100
AcDbLine
 10
107.8999641464461
 20
244.5761962261812
 30
0.0
 11
106.7000373697146
 21
244.5761962261812
 31
0.0
  0
LINE
  5
2999
330
1F
100
AcDbEntity
  8
SPOJOVACÍ
  6
Continuous
100
AcDbLine
 10
107.8999641464461
 20
244.5761962261812
 30
0.0
 11
107.8999641464461
 21
254.776504003449
 31
0.0
  0
LINE
  5
299A
330
1F
100
AcDbEntity
  8
SPOJOVACÍ
  6
Continuous
100
AcDbLine
 10
107.8999641464461
 20
254.776504003449
 30
0.0
 11
106.7000373697146
 21
254.776504003449
 31
0.0
  0
LINE
  5
299B
330
1F
100
AcDbEntity
  8
SPOJOVACÍ
  6
Continuous
100
AcDbLine
 10
101.3003668753581
 20
251.026035198366
 30
0.0
 11
102.8239948287873
 21
251.2529980892494
 31
0.0
  0
LINE
  5
299C
330
1F
100
AcDbEntity
  8
SPOJOVACÍ
  6
Continuous
100
AcDbLine
 10
102.8239948287873
 20
251.2529980892494
 30
0.0
 11
104.2378620384906
 21
251.8659839383971
 31
0.0
  0
LINE
  5
299D
330
1F
100
AcDbEntity
  8
SPOJOVACÍ
  6
Continuous
100
AcDbLine
 10
104.2378620384906
 20
251.8659839383971
 30
0.0
 11
105.4452302213894
 21
252.8240650083815
 31
0.0
  0
LINE
  5
299E
330
1F
100
AcDbEntity
  8
SPOJOVACÍ
  6
Continuous
100
AcDbLine
 10
-37.01483804247345
 20
265.0841870726316
 30
0.0
 11
-38.22220622537225
 21
266.042268142616
 31
0.0
  0
LINE
  5
299F
330
1F
100
AcDbEntity
  8
SPOJOVACÍ
  6
Continuous
100
AcDbLine
 10
-35.60097083277014
 20
264.4712012234839
 30
0.0
 11
-37.01483804247345
 21
265.0841870726316
 31
0.0
  0
LINE
  5
29A0
330
1F
100
AcDbEntity
  8
SPOJOVACÍ
  6
Continuous
100
AcDbLine
 10
-34.0773428793409
 20
264.2442383326005
 30
0.0
 11
-35.60097083277014
 21
264.4712012234839
 31
0.0
  0
LINE
  5
29A1
330
1F
100
AcDbEntity
  8
SPOJOVACÍ
  6
Continuous
100
AcDbLine
 10
-40.67694015042889
 20
267.9947071376835
 30
0.0
 11
-39.47701337369744
 21
267.9947071376835
 31
0.0
  0
LINE
  5
29A2
330
1F
100
AcDbEntity
  8
SPOJOVACÍ
  6
Continuous
100
AcDbLine
 10
-40.67694015042889
 20
257.7943993604157
 30
0.0
 11
-40.67694015042889
 21
267.9947071376835
 31
0.0
  0
LINE
  5
29A3
330
1F
100
AcDbEntity
  8
SPOJOVACÍ
  6
Continuous
100
AcDbLine
 10
-40.67694015042889
 20
257.7943993604157
 30
0.0
 11
-39.47701337369744
 21
257.7943993604157
 31
0.0
  0
LINE
  5
29A4
330
1F
100
AcDbEntity
  8
SPOJOVACÍ
  6
Continuous
100
AcDbLine
 10
-39.47701337369744
 20
257.7943993604157
 30
0.0
 11
-39.47701337369744
 21
267.9947071376835
 31
0.0
  0
LINE
  5
29A5
330
1F
100
AcDbEntity
  8
SPOJOVACÍ
  6
Continuous
100
AcDbLine
 10
-39.14028973581389
 20
267.2794019515157
 30
0.0
 11
-39.47701337369744
 21
267.9947071376835
 31
0.0
  0
LINE
  5
29A6
330
1F
100
AcDbEntity
  8
SPOJOVACÍ
  6
Continuous
100
AcDbLine
 10
-38.22220622537225
 20
266.042268142616
 30
0.0
 11
-39.14028973581389
 21
267.2794019515157
 31
0.0
  0
LINE
  5
29A7
330
1F
100
AcDbEntity
  8
SPOJOVACÍ
  6
Continuous
100
AcDbLine
 10
-34.8642716024633
 20
261.4788256879427
 30
0.0
 11
-34.0773428793409
 21
261.5448681698643
 31
0.0
  0
LINE
  5
29A8
330
1F
100
AcDbEntity
  8
SPOJOVACÍ
  6
Continuous
100
AcDbLine
 10
-36.34511146951354
 20
261.0509448236433
 30
0.0
 11
-34.8642716024633
 21
261.4788256879427
 31
0.0
  0
LINE
  5
29A9
330
1F
100
AcDbEntity
  8
SPOJOVACÍ
  6
Continuous
100
AcDbLine
 10
-37.66410074781106
 20
260.2547143443251
 30
0.0
 11
-36.34511146951354
 21
261.0509448236433
 31
0.0
  0
LINE
  5
29AA
330
1F
100
AcDbEntity
  8
SPOJOVACÍ
  6
Continuous
100
AcDbLine
 10
-38.73287273722326
 20
259.1440844439665
 30
0.0
 11
-37.66410074781106
 21
260.2547143443251
 31
0.0
  0
LINE
  5
29AB
330
1F
100
AcDbEntity
  8
SPOJOVACÍ
  6
Continuous
100
AcDbLine
 10
-39.47701337369744
 20
257.7943993604157
 30
0.0
 11
-38.73287273722326
 21
259.1440844439665
 31
0.0
  0
LINE
  5
29AC
330
1F
100
AcDbEntity
  8
SPOJOVACÍ
  6
Continuous
100
AcDbLine
 10
-34.0773428793409
 20
264.2442383326005
 30
0.0
 11
-29.13438870041227
 21
264.2442383326005
 31
0.0
  0
LINE
  5
29AD
330
1F
100
AcDbEntity
  8
SPOJOVACÍ
  6
Continuous
100
AcDbLine
 10
-34.0773428793409
 20
261.5448681698643
 30
0.0
 11
-30.03944974966088
 21
261.5448681698643
 31
0.0
  0
LINE
  5
29AE
330
1F
100
AcDbEntity
  8
SPOJOVACÍ
  6
Continuous
100
AcDbLine
 10
-29.44413724048445
 20
261.5448681698643
 30
0.0
 11
-26.92522118545548
 21
261.5448681698643
 31
0.0
  0
LINE
  5
29AF
330
1F
100
AcDbEntity
  8
SPOJOVACÍ
  6
Continuous
100
AcDbLine
 10
-26.32153709414069
 20
261.5448681698643
 30
0.0
 11
-23.80076068743164
 21
261.5448681698643
 31
0.0
  0
LINE
  5
29B0
330
1F
100
AcDbEntity
  8
SPOJOVACÍ
  6
Continuous
100
AcDbLine
 10
-23.206378353957
 20
261.5448681698643
 30
0.0
 11
-20.67816054108789
 21
261.5448681698643
 31
0.0
  0
LINE
  5
29B1
330
1F
100
AcDbEntity
  8
SPOJOVACÍ
  6
Continuous
100
AcDbLine
 10
-28.53070460909748
 20
264.2442383326005
 30
0.0
 11
-26.01178855406852
 21
264.2442383326005
 31
0.0
  0
LINE
  5
29B2
330
1F
100
AcDbEntity
  8
SPOJOVACÍ
  6
Continuous
100
AcDbLine
 10
-25.41554586891379
 20
264.2442383326005
 30
0.0
 11
-22.88732805604468
 21
264.2442383326005
 31
0.0
  0
LINE
  5
29B3
330
1F
100
AcDbEntity
  8
SPOJOVACÍ
  6
Continuous
100
AcDbLine
 10
-22.29294572257003
 20
264.2442383326005
 30
0.0
 11
-19.77216931586099
 21
264.2442383326005
 31
0.0
  0
LINE
  5
29B4
330
1F
100
AcDbEntity
  8
SPOJOVACÍ
  6
Continuous
100
AcDbLine
 10
-20.07354627380209
 20
261.5448681698643
 30
0.0
 11
-17.55556039447492
 21
261.5448681698643
 31
0.0
  0
LINE
  5
29B5
330
1F
100
AcDbEntity
  8
SPOJOVACÍ
  6
Continuous
100
AcDbLine
 10
-16.9593177093202
 20
261.5448681698643
 30
0.0
 11
-15.71195196743156
 21
261.5448681698643
 31
0.0
  0
LINE
  5
29B6
330
1F
100
AcDbEntity
  8
SPOJOVACÍ
  6
Continuous
100
AcDbLine
 10
-19.17127575192807
 20
264.2442383326005
 30
0.0
 11
-16.65235969689911
 21
264.2442383326005
 31
0.0
  0
LINE
  5
29B7
330
1F
100
AcDbEntity
  8
SPOJOVACÍ
  6
Continuous
100
AcDbLine
 10
-16.04867560531511
 20
264.2442383326005
 30
0.0
 11
-15.71195196743156
 21
264.2442383326005
 31
0.0
  0
LINE
  5
29B8
330
1F
100
AcDbEntity
  8
SPOJOVACÍ
  6
Continuous
100
AcDbLine
 10
-15.71195196743156
 20
261.5448681698643
 30
0.0
 11
-14.51481571807471
 21
261.6946264725874
 31
0.0
  0
LINE
  5
29B9
330
1F
100
AcDbEntity
  8
SPOJOVACÍ
  6
Continuous
100
AcDbLine
 10
-4.911680802478258
 20
262.8945532490496
 30
0.0
 11
-7.747786803746748
 21
263.2489502301786
 31
0.0
  0
LINE
  5
29BA
330
1F
100
AcDbEntity
  8
SPOJOVACÍ
  6
Continuous
100
AcDbLine
 10
-13.89438846222128
 20
261.7718310651133
 30
0.0
 11
-11.57266967615669
 21
262.0620459146329
 31
0.0
  0
LINE
  5
29BB
330
1F
100
AcDbEntity
  8
SPOJOVACÍ
  6
Continuous
100
AcDbLine
 10
-10.9420104864921
 20
262.141110857471
 30
0.0
 11
-8.621221876136587
 21
262.431325702625
 31
0.0
  0
LINE
  5
29BC
330
1F
100
AcDbEntity
  8
SPOJOVACÍ
  6
Continuous
100
AcDbLine
 10
-8.000794620283159
 20
262.5085302951509
 30
0.0
 11
-4.911680802478258
 21
262.8945532490496
 31
0.0
  0
LINE
  5
29BD
330
1F
100
AcDbEntity
  8
SPOJOVACÍ
  6
Continuous
100
AcDbLine
 10
-8.317054390813609
 20
263.3205737674023
 30
0.0
 11
-10.46203977579807
 21
263.5884643957132
 31
0.0
  0
LINE
  5
29BE
330
1F
100
AcDbEntity
  8
SPOJOVACÍ
  6
Continuous
100
AcDbLine
 10
-11.03409789024681
 20
263.6600879285714
 30
0.0
 11
-13.1707116931002
 21
263.9270483839089
 31
0.0
  0
LINE
  5
29BF
330
1F
100
AcDbEntity
  8
SPOJOVACÍ
  6
Continuous
100
AcDbLine
 10
-13.74090945614534
 20
263.9986719211327
 30
0.0
 11
-15.71195196743156
 21
264.2442383326005
 31
0.0
  0
LINE
  5
29C0
330
1F
100
AcDbEntity
  8
SPOJOVACÍ
  6
Continuous
100
AcDbLine
 10
-29.87666898547558
 20
260.4946996961251
 30
0.0
 11
-28.67674220901335
 21
265.2944068019741
 31
0.0
  0
LINE
  5
29C1
330
1F
100
AcDbEntity
  8
SPOJOVACÍ
  6
Continuous
100
AcDbLine
 10
-29.87666898547558
 20
260.4946996961251
 30
0.0
 11
-29.65900784942732
 21
260.8723510714361
 31
0.0
  0
LINE
  5
29C2
330
1F
100
AcDbEntity
  8
SPOJOVACÍ
  6
Continuous
100
AcDbLine
 10
-29.87666898547558
 20
260.4946996961251
 30
0.0
 11
-30.25525053430555
 21
260.8723510714361
 31
0.0
  0
LINE
  5
29C3
330
1F
100
AcDbEntity
  8
SPOJOVACÍ
  6
Continuous
100
AcDbLine
 10
-28.67674220901335
 20
265.2944068019741
 30
0.0
 11
-28.29909083588518
 21
264.9167554310287
 31
0.0
  0
LINE
  5
29C4
330
1F
100
AcDbEntity
  8
SPOJOVACÍ
  6
Continuous
100
AcDbLine
 10
-28.67674220901335
 20
265.2944068019741
 30
0.0
 11
-28.8953335210399
 21
264.9167554310287
 31
0.0
  0
LINE
  5
29C5
330
1F
100
AcDbEntity
  8
SPOJOVACÍ
  6
Continuous
100
AcDbLine
 10
-29.65900784942732
 20
260.8723510714361
 30
0.0
 11
-28.29909083588518
 21
264.9167554310287
 31
0.0
  0
LINE
  5
29C6
330
1F
100
AcDbEntity
  8
SPOJOVACÍ
  6
Continuous
100
AcDbLine
 10
-30.25525053430555
 20
260.8723510714361
 30
0.0
 11
-28.8953335210399
 21
264.9167554310287
 31
0.0
  0
LINE
  5
29C7
330
1F
100
AcDbEntity
  8
SPOJOVACÍ
  6
Continuous
100
AcDbLine
 10
-26.75685936651371
 20
260.4946996961251
 30
0.0
 11
-25.55693258977498
 21
265.2944068019741
 31
0.0
  0
LINE
  5
29C8
330
1F
100
AcDbEntity
  8
SPOJOVACÍ
  6
Continuous
100
AcDbLine
 10
-26.75685936651371
 20
260.4946996961251
 30
0.0
 11
-26.53826805448716
 21
260.8723510714361
 31
0.0
  0
LINE
  5
29C9
330
1F
100
AcDbEntity
  8
SPOJOVACÍ
  6
Continuous
100
AcDbLine
 10
-26.75685936651371
 20
260.4946996961251
 30
0.0
 11
-27.13451073964188
 21
260.8723510714361
 31
0.0
  0
LINE
  5
29CA
330
1F
100
AcDbEntity
  8
SPOJOVACÍ
  6
Continuous
100
AcDbLine
 10
-25.55693258977498
 20
265.2944068019741
 30
0.0
 11
-25.1792812169233
 21
264.9167554310287
 31
0.0
  0
LINE
  5
29CB
330
1F
100
AcDbEntity
  8
SPOJOVACÍ
  6
Continuous
100
AcDbLine
 10
-25.55693258977498
 20
265.2944068019741
 30
0.0
 11
-25.77552390180153
 21
264.9167554310287
 31
0.0
  0
LINE
  5
29CC
330
1F
100
AcDbEntity
  8
SPOJOVACÍ
  6
Continuous
100
AcDbLine
 10
-26.53826805448716
 20
260.8723510714361
 30
0.0
 11
-25.1792812169233
 21
264.9167554310287
 31
0.0
  0
LINE
  5
29CD
330
1F
100
AcDbEntity
  8
SPOJOVACÍ
  6
Continuous
100
AcDbLine
 10
-27.13451073964188
 20
260.8723510714361
 30
0.0
 11
-25.77552390180153
 21
264.9167554310287
 31
0.0
  0
LINE
  5
29CE
330
1F
100
AcDbEntity
  8
SPOJOVACÍ
  6
Continuous
100
AcDbLine
 10
-14.31947880105235
 20
260.7486376905461
 30
0.0
 11
-14.1008874890258
 21
261.1272192388304
 31
0.0
  0
LINE
  5
29CF
330
1F
100
AcDbEntity
  8
SPOJOVACÍ
  6
Continuous
100
AcDbLine
 10
-14.31947880105235
 20
260.7486376905461
 30
0.0
 11
-14.69713017418053
 21
261.1272192388304
 31
0.0
  0
LINE
  5
29D0
330
1F
100
AcDbEntity
  8
SPOJOVACÍ
  6
Continuous
100
AcDbLine
 10
-13.34651491874774
 20
264.8739673432891
 30
0.0
 11
-12.96793336964128
 21
264.4963159723437
 31
0.0
  0
LINE
  5
29D1
330
1F
100
AcDbEntity
  8
SPOJOVACÍ
  6
Continuous
100
AcDbLine
 10
-13.34651491874774
 20
264.8739673432891
 30
0.0
 11
-13.564176054796
 21
264.4963159723437
 31
0.0
  0
LINE
  5
29D2
330
1F
100
AcDbEntity
  8
SPOJOVACÍ
  6
Continuous
100
AcDbLine
 10
-14.1008874890258
 20
261.1272192388304
 30
0.0
 11
-12.96793336964128
 21
264.4963159723437
 31
0.0
  0
LINE
  5
29D3
330
1F
100
AcDbEntity
  8
SPOJOVACÍ
  6
Continuous
100
AcDbLine
 10
-14.69713017418053
 20
261.1272192388304
 30
0.0
 11
-13.564176054796
 21
264.4963159723437
 31
0.0
  0
LINE
  5
29D4
330
1F
100
AcDbEntity
  8
SPOJOVACÍ
  6
Continuous
100
AcDbLine
 10
-14.31947880105235
 20
260.7486376905461
 30
0.0
 11
-13.34651491874774
 21
264.8739673432891
 31
0.0
  0
LINE
  5
29D5
330
1F
100
AcDbEntity
  8
SPOJOVACÍ
  6
Continuous
100
AcDbLine
 10
-11.30477904675444
 20
261.313254396652
 30
0.0
 11
-11.08711791070618
 21
261.690905771963
 31
0.0
  0
LINE
  5
29D6
330
1F
100
AcDbEntity
  8
SPOJOVACÍ
  6
Continuous
100
AcDbLine
 10
-11.30477904675444
 20
261.313254396652
 30
0.0
 11
-11.6833605958609
 21
261.690905771963
 31
0.0
  0
LINE
  5
29D7
330
1F
100
AcDbEntity
  8
SPOJOVACÍ
  6
Continuous
100
AcDbLine
 10
-10.67132932998447
 20
264.4293433130832
 30
0.0
 11
-10.2927477811545
 21
264.0516919421378
 31
0.0
  0
LINE
  5
29D8
330
1F
100
AcDbEntity
  8
SPOJOVACÍ
  6
Continuous
100
AcDbLine
 10
-10.67132932998447
 20
264.4293433130832
 30
0.0
 11
-10.88899046603273
 21
264.0516919421378
 31
0.0
  0
LINE
  5
29D9
330
1F
100
AcDbEntity
  8
SPOJOVACÍ
  6
Continuous
100
AcDbLine
 10
-11.08711791070618
 20
261.690905771963
 30
0.0
 11
-10.2927477811545
 21
264.0516919421378
 31
0.0
  0
LINE
  5
29DA
330
1F
100
AcDbEntity
  8
SPOJOVACÍ
  6
Continuous
100
AcDbLine
 10
-11.6833605958609
 20
261.690905771963
 30
0.0
 11
-10.88899046603273
 21
264.0516919421378
 31
0.0
  0
LINE
  5
29DB
330
1F
100
AcDbEntity
  8
SPOJOVACÍ
  6
Continuous
100
AcDbLine
 10
-11.30477904675444
 20
261.313254396652
 30
0.0
 11
-10.67132932998447
 21
264.4293433130832
 31
0.0
  0
LINE
  5
29DC
330
1F
100
AcDbEntity
  8
SPOJOVACÍ
  6
Continuous
100
AcDbLine
 10
-8.291009468434822
 20
261.8778711071235
 30
0.0
 11
-8.072418156415551
 21
262.2555224780688
 31
0.0
  0
LINE
  5
29DD
330
1F
100
AcDbEntity
  8
SPOJOVACÍ
  6
Continuous
100
AcDbLine
 10
-8.291009468434822
 20
261.8778711071235
 30
0.0
 11
-8.668660841562996
 21
262.2555224780688
 31
0.0
  0
LINE
  5
29DE
330
1F
100
AcDbEntity
  8
SPOJOVACÍ
  6
Continuous
100
AcDbLine
 10
-7.980330752660847
 20
264.0321582485802
 30
0.0
 11
-7.601749203830877
 21
263.6545068776348
 31
0.0
  0
LINE
  5
29DF
330
1F
100
AcDbEntity
  8
SPOJOVACÍ
  6
Continuous
100
AcDbLine
 10
-7.980330752660847
 20
264.0321582485802
 30
0.0
 11
-8.197991888978322
 21
263.6545068776348
 31
0.0
  0
LINE
  5
29E0
330
1F
100
AcDbEntity
  8
SPOJOVACÍ
  6
Continuous
100
AcDbLine
 10
-8.072418156415551
 20
262.2555224780688
 30
0.0
 11
-7.601749203830877
 21
263.6545068776348
 31
0.0
  0
LINE
  5
29E1
330
1F
100
AcDbEntity
  8
SPOJOVACÍ
  6
Continuous
100
AcDbLine
 10
-8.668660841562996
 20
262.2555224780688
 30
0.0
 11
-8.197991888978322
 21
263.6545068776348
 31
0.0
  0
LINE
  5
29E2
330
1F
100
AcDbEntity
  8
SPOJOVACÍ
  6
Continuous
100
AcDbLine
 10
-8.291009468434822
 20
261.8778711071235
 30
0.0
 11
-7.980330752660847
 21
264.0321582485802
 31
0.0
  0
LINE
  5
29E3
330
1F
100
AcDbEntity
  8
SPOJOVACÍ
  6
Continuous
100
AcDbLine
 10
-23.63704974727534
 20
260.4946996961251
 30
0.0
 11
-22.4371229708131
 21
265.2944068019741
 31
0.0
  0
LINE
  5
29E4
330
1F
100
AcDbEntity
  8
SPOJOVACÍ
  6
Continuous
100
AcDbLine
 10
-23.63704974727534
 20
260.4946996961251
 30
0.0
 11
-23.41845843524879
 21
260.8723510714361
 31
0.0
  0
LINE
  5
29E5
330
1F
100
AcDbEntity
  8
SPOJOVACÍ
  6
Continuous
100
AcDbLine
 10
-23.63704974727534
 20
260.4946996961251
 30
0.0
 11
-24.01470112040351
 21
260.8723510714361
 31
0.0
  0
LINE
  5
29E6
330
1F
100
AcDbEntity
  8
SPOJOVACÍ
  6
Continuous
100
AcDbLine
 10
-22.4371229708131
 20
265.2944068019741
 30
0.0
 11
-22.05854142198313
 21
264.9167554310287
 31
0.0
  0
LINE
  5
29E7
330
1F
100
AcDbEntity
  8
SPOJOVACÍ
  6
Continuous
100
AcDbLine
 10
-22.4371229708131
 20
265.2944068019741
 30
0.0
 11
-22.65478410713058
 21
264.9167554310287
 31
0.0
  0
LINE
  5
29E8
330
1F
100
AcDbEntity
  8
SPOJOVACÍ
  6
Continuous
100
AcDbLine
 10
-23.41845843524879
 20
260.8723510714361
 30
0.0
 11
-22.05854142198313
 21
264.9167554310287
 31
0.0
  0
LINE
  5
29E9
330
1F
100
AcDbEntity
  8
SPOJOVACÍ
  6
Continuous
100
AcDbLine
 10
-24.01470112040351
 20
260.8723510714361
 30
0.0
 11
-22.65478410713058
 21
264.9167554310287
 31
0.0
  0
LINE
  5
29EA
330
1F
100
AcDbEntity
  8
SPOJOVACÍ
  6
Continuous
100
AcDbLine
 10
-20.51724012830618
 20
260.4946996961251
 30
0.0
 11
-19.31731335184394
 21
265.2944068019741
 31
0.0
  0
LINE
  5
29EB
330
1F
100
AcDbEntity
  8
SPOJOVACÍ
  6
Continuous
100
AcDbLine
 10
-20.51724012830618
 20
260.4946996961251
 30
0.0
 11
-20.29864881628691
 21
260.8723510714361
 31
0.0
  0
LINE
  5
29EC
330
1F
100
AcDbEntity
  8
SPOJOVACÍ
  6
Continuous
100
AcDbLine
 10
-20.51724012830618
 20
260.4946996961251
 30
0.0
 11
-20.89489150143435
 21
260.8723510714361
 31
0.0
  0
LINE
  5
29ED
330
1F
100
AcDbEntity
  8
SPOJOVACÍ
  6
Continuous
100
AcDbLine
 10
-19.31731335184394
 20
265.2944068019741
 30
0.0
 11
-18.93873180301397
 21
264.9167554310287
 31
0.0
  0
LINE
  5
29EE
330
1F
100
AcDbEntity
  8
SPOJOVACÍ
  6
Continuous
100
AcDbLine
 10
-19.31731335184394
 20
265.2944068019741
 30
0.0
 11
-19.53497448789221
 21
264.9167554310287
 31
0.0
  0
LINE
  5
29EF
330
1F
100
AcDbEntity
  8
SPOJOVACÍ
  6
Continuous
100
AcDbLine
 10
-20.29864881628691
 20
260.8723510714361
 30
0.0
 11
-18.93873180301397
 21
264.9167554310287
 31
0.0
  0
LINE
  5
29F0
330
1F
100
AcDbEntity
  8
SPOJOVACÍ
  6
Continuous
100
AcDbLine
 10
-20.89489150143435
 20
260.8723510714361
 30
0.0
 11
-19.53497448789221
 21
264.9167554310287
 31
0.0
  0
LINE
  5
29F1
330
1F
100
AcDbEntity
  8
SPOJOVACÍ
  6
Continuous
100
AcDbLine
 10
-17.39650033336602
 20
260.4946996961251
 30
0.0
 11
-16.19657355690378
 21
265.2944068019741
 31
0.0
  0
LINE
  5
29F2
330
1F
100
AcDbEntity
  8
SPOJOVACÍ
  6
Continuous
100
AcDbLine
 10
-17.39650033336602
 20
260.4946996961251
 30
0.0
 11
-17.17883919731775
 21
260.8723510714361
 31
0.0
  0
LINE
  5
29F3
330
1F
100
AcDbEntity
  8
SPOJOVACÍ
  6
Continuous
100
AcDbLine
 10
-17.39650033336602
 20
260.4946996961251
 30
0.0
 11
-17.77508188247247
 21
260.8723510714361
 31
0.0
  0
LINE
  5
29F4
330
1F
100
AcDbEntity
  8
SPOJOVACÍ
  6
Continuous
100
AcDbLine
 10
-16.19657355690378
 20
265.2944068019741
 30
0.0
 11
-15.81892218377561
 21
264.9167554310287
 31
0.0
  0
LINE
  5
29F5
330
1F
100
AcDbEntity
  8
SPOJOVACÍ
  6
Continuous
100
AcDbLine
 10
-16.19657355690378
 20
265.2944068019741
 30
0.0
 11
-16.41516486893033
 21
264.9167554310287
 31
0.0
  0
LINE
  5
29F6
330
1F
100
AcDbEntity
  8
SPOJOVACÍ
  6
Continuous
100
AcDbLine
 10
-17.17883919731775
 20
260.8723510714361
 30
0.0
 11
-15.81892218377561
 21
264.9167554310287
 31
0.0
  0
LINE
  5
29F7
330
1F
100
AcDbEntity
  8
SPOJOVACÍ
  6
Continuous
100
AcDbLine
 10
-17.77508188247247
 20
260.8723510714361
 30
0.0
 11
-16.41516486893033
 21
264.9167554310287
 31
0.0
  0
LWPOLYLINE
  5
29F8
330
1F
100
AcDbEntity
  8
STAVBA OBRYS
100
AcDbPolyline
 90
        3
 70
     0
 43
0.0
 10
92.89615619526285
 20
260.0486868304941
 42
-0.0087145538075053
 10
88.93003527520614
 20
239.5038031289976
 42
-0.067409801100882
 10
80.62923162432616
 20
216.2410982622649
  0
LINE
  5
29F9
330
1F
100
AcDbEntity
  8
izolace
  6
IZOLACE
 48
5.799999999999999
100
AcDbLine
 10
32.80111280875553
 20
276.5230150136566
 30
0.0
 11
32.80111280876281
 21
400.5719786437574
 31
0.0
  0
LWPOLYLINE
  5
29FA
330
1F
100
AcDbEntity
  8
STAVBA OBRYS
100
AcDbPolyline
 90
        2
 70
     0
 43
0.0
 10
6.586096772184646
 20
221.1178173388851
 42
-0.0237412898304027
 10
0.1345516372775819
 20
216.5230150136575
 42
-0.0237412898304027
  0
LWPOLYLINE
  5
29FB
330
1F
100
AcDbEntity
  8
STAVBA OBRYS
100
AcDbPolyline
 90
        3
 70
     0
 43
0.0
 10
-21.43281513915372
 20
226.6982415189676
 10
-1.436562707161101
 20
217.4822124684477
 10
2.563374926553478
 20
216.8368149931055
  0
LWPOLYLINE
  5
29FC
330
1F
100
AcDbEntity
  8
STAVBA OBRYS
100
AcDbPolyline
 90
        6
 70
     0
 43
0.0
 10
14.48868730486265
 20
276.5544118289497
 42
-0.0128837512779302
 10
14.20389534463811
 20
273.2212470072034
 42
-0.0351641677647434
 10
13.57613562311507
 20
269.6175375528645
 42
-0.0187319685742942
 10
10.1921197421243
 20
257.8593002107217
 42
-0.0582629403736403
 10
8.53261987404312
 20
254.2794660117896
 42
-0.2042445348716764
 10
-27.04487115731263
 20
229.0211178222552
  0
LWPOLYLINE
  5
29FD
330
1F
100
AcDbEntity
  8
STAVBA OBRYS
100
AcDbPolyline
 90
        3
 70
     0
 43
0.0
 10
-1.043896074364056
 20
270.0552422596946
 10
18.95235635762856
 20
260.8392132091747
 10
22.95229399134314
 20
260.1938157338326
  0
LWPOLYLINE
  5
29FE
330
1F
100
AcDbEntity
  8
STAVBA OBRYS
100
AcDbPolyline
 90
        4
 70
     0
 43
0.0
 10
24.67841690886689
 20
276.5544118289497
 42
-0.0135911980674876
 10
20.95928555164118
 20
256.2257186464838
 42
-0.0219777111230329
 10
20.05317304965774
 20
252.7076053906483
 42
-0.2163722049316613
 10
-27.04487115731263
 20
219.9473404366189
  0
LWPOLYLINE
  5
29FF
330
1F
100
AcDbEntity
  8
STAVBA OBRYS
100
AcDbPolyline
 90
        8
 70
     0
 43
0.0
 10
5.864471924821373
 20
276.5544118289497
 42
-0.0120721047703132
 10
5.795489234783417
 20
274.8205236902057
 42
-0.044358077361292
 10
5.399861500110091
 20
272.1247236717889
 42
-0.0188067511131767
 10
3.380038051726842
 20
264.8824944964825
 42
-0.0457786284636091
 10
2.172015162111165
 20
262.0338841136025
 42
-0.0295006114745606
 10
-0.2440452921882752
 20
258.1069849002004
 42
-0.0258674098621065
 10
-3.476720606152412
 20
253.9612048214465
 42
-0.2409478365688615
 10
-27.04487115731263
 20
239.536657376473
 42
-0.0884720560394402
  0
LWPOLYLINE
  5
2A00
330
1F
100
AcDbEntity
  8
STAVBA OBRYS
100
AcDbPolyline
 90
        3
 70
     0
 43
0.0
 10
-20.33647369960908
 20
271.0370811334313
 10
-3.581256079881313
 20
262.653340265463
 10
4.585848569243353
 20
254.4720385643657
  0
POLYLINE
  5
2A01
330
1F
100
AcDbEntity
  8
STAVBA OBRYS
100
AcDb2dPolyline
 66
     1
 10
0.0
 20
0.0
 30
0.0
  0
VERTEX
  5
2A02
330
2A01
100
AcDbEntity
  8
STAVBA OBRYS
100
AcDbVertex
100
AcDb2dVertex
 10
-9.952365322374134
 20
276.5544118289479
 30
0.0
 42
-0.0072417954699014
  0
VERTEX
  5
2A03
330
2A01
100
AcDbEntity
  8
STAVBA OBRYS
100
AcDbVertex
100
AcDb2dVertex
 10
-10.00793569021789
 20
276.1430066176734
 30
0.0
 42
-0.0707158694326265
  0
VERTEX
  5
2A04
330
2A01
100
AcDbEntity
  8
STAVBA OBRYS
100
AcDbVertex
100
AcDb2dVertex
 10
-10.53906220663793
 20
274.2069031650797
 30
0.0
 42
-0.033952657250207
  0
VERTEX
  5
2A05
330
2A01
100
AcDbEntity
  8
STAVBA OBRYS
100
AcDbVertex
100
AcDb2dVertex
 10
-12.78771804604639
 20
269.8538654399061
 30
0.0
 42
-0.0571374688189033
  0
VERTEX
  5
2A06
330
2A01
100
AcDbEntity
  8
STAVBA OBRYS
100
AcDbVertex
100
AcDb2dVertex
 10
-14.57387480589841
 20
267.5469411562197
 30
0.0
 42
-0.0274923553235744
  0
VERTEX
  5
2A07
330
2A01
100
AcDbEntity
  8
STAVBA OBRYS
100
AcDbVertex
100
AcDb2dVertex
 10
-17.17118053645117
 20
265.1618658330852
 30
0.0
 42
-0.0255412025538677
  0
VERTEX
  5
2A08
330
2A01
100
AcDbEntity
  8
STAVBA OBRYS
100
AcDbVertex
100
AcDb2dVertex
 10
-20.22261057416199
 20
262.9051521560658
 30
0.0
 42
-0.0272796991712396
  0
VERTEX
  5
2A09
330
2A01
100
AcDbEntity
  8
STAVBA OBRYS
100
AcDbVertex
100
AcDb2dVertex
 10
-24.33560972734722
 20
260.4888162744035
 30
0.0
 42
-0.056967459841729
  0
VERTEX
  5
2A0A
330
2A01
100
AcDbEntity
  8
STAVBA OBRYS
100
AcDbVertex
100
AcDb2dVertex
 10
-26.476557008079
 20
259.6760804392041
 30
0.0
 42
-0.0373408083348504
  0
VERTEX
  5
2A0B
330
2A01
100
AcDbEntity
  8
STAVBA OBRYS
100
AcDbVertex
100
AcDb2dVertex
 10
-26.69891138355251
 20
259.6369148982529
 30
0.0
 42
-0.0052305969362967
  0
VERTEX
  5
2A0C
330
2A01
100
AcDbEntity
  8
STAVBA OBRYS
100
AcDbVertex
100
AcDb2dVertex
 10
-27.04487115731263
 20
259.6059579313485
 30
0.0
  0
SEQEND
  5
2A0D
330
2A01
100
AcDbEntity
  8
STAVBA OBRYS
  0
POLYLINE
  5
2A0E
330
1F
100
AcDbEntity
  8
STAVBA OBRYS
100
AcDb2dPolyline
 66
     1
 10
0.0
 20
0.0
 30
0.0
  0
VERTEX
  5
2A0F
330
2A0E
100
AcDbEntity
  8
STAVBA OBRYS
100
AcDbVertex
100
AcDb2dVertex
 10
-17.18041634311248
 20
276.5544118289479
 30
0.0
 42
-0.0064239028828688
  0
VERTEX
  5
2A10
330
2A0E
100
AcDbEntity
  8
STAVBA OBRYS
100
AcDbVertex
100
AcDb2dVertex
 10
-17.219284783293
 20
276.3352981695978
 30
0.0
 42
-0.0832048017309575
  0
VERTEX
  5
2A11
330
2A0E
100
AcDbEntity
  8
STAVBA OBRYS
100
AcDbVertex
100
AcDb2dVertex
 10
-18.00346738597454
 20
274.005084589943
 30
0.0
 42
-0.0336767237692336
  0
VERTEX
  5
2A12
330
2A0E
100
AcDbEntity
  8
STAVBA OBRYS
100
AcDbVertex
100
AcDb2dVertex
 10
-19.70628394489631
 20
271.2768100704824
 30
0.0
 42
-0.0844635135812105
  0
VERTEX
  5
2A13
330
2A0E
100
AcDbEntity
  8
STAVBA OBRYS
100
AcDbVertex
100
AcDb2dVertex
 10
-20.62609370478913
 20
270.3723884654872
 30
0.0
 42
-0.0495829410719565
  0
VERTEX
  5
2A14
330
2A0E
100
AcDbEntity
  8
STAVBA OBRYS
100
AcDbVertex
100
AcDb2dVertex
 10
-22.37477214214322
 20
269.3957389581745
 30
0.0
 42
-0.0322692699774654
  0
VERTEX
  5
2A15
330
2A0E
100
AcDbEntity
  8
STAVBA OBRYS
100
AcDbVertex
100
AcDb2dVertex
 10
-25.26612632323395
 20
268.3542154567738
 30
0.0
 42
-0.0276160659512937
  0
VERTEX
  5
2A16
330
2A0E
100
AcDbEntity
  8
STAVBA OBRYS
100
AcDbVertex
100
AcDb2dVertex
 10
-26.12170276152119
 20
268.1574800278293
 30
0.0
 42
-0.0126891984598699
  0
VERTEX
  5
2A17
330
2A0E
100
AcDbEntity
  8
STAVBA OBRYS
100
AcDbVertex
100
AcDb2dVertex
 10
-27.04487115731263
 20
268.0222776382878
 30
0.0
  0
SEQEND
  5
2A18
330
2A0E
100
AcDbEntity
  8
STAVBA OBRYS
  0
LWPOLYLINE
  5
2A19
330
1F
100
AcDbEntity
  8
STAVBA OBRYS
100
AcDbPolyline
 90
       10
 70
     0
 43
0.0
 10
-3.002587298688922
 20
276.5544118289497
 42
-0.0168162630274194
 10
-3.137612877752872
 20
274.8633736768305
 42
-0.0575155827655532
 10
-3.817645158095729
 20
271.7637490161131
 42
-0.0310289133982999
 10
-6.820446502923914
 20
264.5187214914684
 42
-0.0882970623535771
 10
-8.457668423016912
 20
262.2783524406685
 42
-0.0171636441953577
 10
-11.27103248487492
 20
259.7644350854233
 42
-0.0157521173632038
 10
-14.50988732191126
 20
257.2329390329167
 42
-0.0073640874174249
 10
-19.14353667823252
 20
253.9445376071806
 42
-0.0194185739168057
 10
-20.96557999790911
 20
252.7929686078995
 42
-0.0567960585128809
 10
-27.04487115731263
 20
250.1411044025234
 42
-0.0229547400386702
  0
LWPOLYLINE
  5
2A1A
330
1F
100
AcDbEntity
  8
STAVBA OBRYS
100
AcDbPolyline
 90
        7
 70
     0
 43
0.0
 10
-22.53010267762965
 20
276.5544118289497
 42
-0.0203924744732807
 10
-23.43218666203847
 20
275.5412817997956
 42
-0.0273961979096945
 10
-24.28205101223375
 20
274.7531054257696
 42
-0.0243529190212958
 10
-25.44517150465344
 20
273.8793460811019
 42
-0.0398020282482987
 10
-26.22013004221389
 20
273.4397173376554
 42
-0.104168275620852
 10
-26.60654117855392
 20
273.3497008774782
 42
-0.007272956268647
 10
-27.04487115731263
 20
273.3312475261835
 42
-0.007272956268647
  0
LWPOLYLINE
  5
2A1B
330
1F
100
AcDbEntity
  8
STAVBA OBRYS
100
AcDbPolyline
 90
        4
 70
     0
 43
0.0
 10
50.34594213276704
 20
276.4776623060232
 42
-0.0135911980674875
 10
44.76724509692849
 20
245.9846225323243
 42
-0.0219777111230329
 10
43.4080763439515
 20
240.7074526485711
 42
-0.0756098491910387
 10
23.5369311270033
 20
216.5230150136566
 42
-0.0618986513001703
  0
LWPOLYLINE
  5
2A1C
330
1F
100
AcDbEntity
  8
STAVBA OBRYS
100
AcDbPolyline
 90
        6
 70
     0
 43
0.0
 10
35.06134772676432
 20
276.4776623060232
 42
-0.0128837512779301
 10
34.6341597864257
 20
271.4779150734037
 42
-0.0351641677647434
 10
33.69252020414114
 20
266.0723508918953
 42
-0.0187319685742942
 10
28.61649638265499
 20
248.434994878681
 42
-0.0582629403736403
 10
26.12724658053321
 20
243.065243580283
 42
-0.1127053731926163
 10
0.1345516372775819
 20
216.5230150136566
 42
-0.0636293101863209
  0
LWPOLYLINE
  5
2A1D
330
1F
100
AcDbEntity
  8
STAVBA OBRYS
100
AcDbPolyline
 90
        4
 70
     0
 43
0.0
 10
65.53194962432008
 20
276.5544118289497
 42
-0.0146172580335466
 10
59.44353214365674
 20
242.8851712063568
 42
-0.0279874590104617
 10
57.19465769142607
 20
234.5684977883273
 42
-0.0464764855741282
 10
44.45176754005205
 20
216.5230150136566
 42
-0.0044664954809783
  0
LWPOLYLINE
  5
2A1E
330
1F
100
AcDbEntity
  8
STAVBA OBRYS
100
AcDbPolyline
 90
        3
 70
     0
 43
0.0
 10
80.69722118087794
 20
276.5544118289497
 42
-0.0155591689532289
 10
74.11981919038499
 20
239.7857198803893
 42
-0.067409801100882
 10
65.81901553950501
 20
216.5230150136566
 42
-0.019769904644435
  0
LWPOLYLINE
  5
2A1F
330
1F
100
AcDbEntity
  8
STAVBA OBRYS
100
AcDbPolyline
 90
        3
 70
     0
 43
0.0
 10
51.01290438547493
 20
259.2159946711989
 10
71.00915681746755
 20
249.999965620679
 10
75.00909445118214
 20
249.3545681453368
  0
LWPOLYLINE
  5
2A20
330
1F
100
AcDbEntity
  8
STAVBA OBRYS
100
AcDbPolyline
 90
        3
 70
     0
 43
0.0
 10
20.16927583456254
 20
245.5514417798257
 10
36.92449345429031
 20
237.1677009118574
 10
45.09159810341498
 20
228.9863992107601
  0
LWPOLYLINE
  5
2A21
330
1F
100
AcDbEntity
  8
STAVBA OBRYS
100
AcDbPolyline
 90
        4
 70
     1
 43
0.0
 10
-27.10384380473715
 20
216.5230150136566
 10
92.89615619526285
 20
216.5230150136566
 10
92.89615619526285
 20
276.5230150136566
 10
-27.10384380473715
 20
276.5230150136566
  0
LINE
  5
2A22
330
1F
100
AcDbEntity
  8
STAVBA OBRYS
100
AcDbLine
 10
120.3999641464497
 20
-95.54041232601333
 30
0.0
 11
120.3999641464497
 21
132.8852014050634
 31
0.0
  0
LINE
  5
2A23
330
1F
100
AcDbEntity
  8
CETRIS
100
AcDbLine
 10
107.8999641464533
 20
-95.54041232601333
 30
0.0
 11
107.8999641464461
 21
400.5719786437574
 31
0.0
  0
LWPOLYLINE
  5
2A24
330
1F
100
AcDbEntity
  8
STAVBA OBRYS
100
AcDbPolyline
 90
        4
 70
     1
 43
0.0
 10
92.89996414644974
 20
401.5336453144908
 10
92.89996414644974
 20
377.8919126046556
 10
95.89996414644975
 20
377.8919126046556
 10
95.89996414644975
 20
401.5336453144908
  0
HATCH
  5
2A25
330
1F
100
AcDbEntity
  8
STAVBA OBRYS
100
AcDbHatch
 10
0.0
 20
0.0
 30
0.0
210
0.0
220
0.0
230
1.0
  2
SOLID
 70
     1
 71
     0
 91
        1
 92
        7
 72
     0
 73
     1
 93
        4
 10
92.89996414644974
 20
401.5336453144945
 10
92.89996414644974
 20
377.8919126046592
 10
95.89996414644975
 20
377.8919126046556
 10
95.89996414644975
 20
401.5336453144945
 97
        0
 75
     0
 76
     1
 47
0.1901250437635136
 98
        1
 10
93.71677569753137
 20
387.2497073629991
  0
LWPOLYLINE
  5
2A26
330
1F
100
AcDbEntity
  8
STAVBA OBRYS
100
AcDbPolyline
 90
        4
 70
     1
 43
0.0
 10
92.89996414644974
 20
354.2501798948204
 10
92.89996414644974
 20
330.6084471849852
 10
95.89996414644975
 20
330.6084471849852
 10
95.89996414644975
 20
354.2501798948204
  0
HATCH
  5
2A27
330
1F
100
AcDbEntity
  8
STAVBA OBRYS
100
AcDbHatch
 10
0.0
 20
0.0
 30
0.0
210
0.0
220
0.0
230
1.0
  2
SOLID
 70
     1
 71
     0
 91
        1
 92
        7
 72
     0
 73
     1
 93
        4
 10
92.89996414644974
 20
354.2501798948241
 10
92.89996414644974
 20
330.6084471849889
 10
95.89996414644975
 20
330.6084471849852
 10
95.89996414644975
 20
354.2501798948241
 97
        0
 75
     0
 76
     1
 47
0.1901250437635136
 98
        1
 10
93.71677569753137
 20
339.9662419433287
  0
LINE
  5
2A28
330
1F
100
AcDbEntity
  8
STAVBA OBRYS
100
AcDbLine
 10
92.8999641464461
 20
-83.55414541597303
 30
0.0
 11
92.89996414644974
 21
323.6336103442689
 31
0.0
  0
LWPOLYLINE
  5
2A29
330
1F
100
AcDbEntity
  8
STAVBA OBRYS
100
AcDbPolyline
 90
        4
 70
     1
 43
0.0
 10
92.89996414644974
 20
-24.01754346254267
 10
92.89996414644974
 20
-47.65927617237787
 10
95.89996414644975
 20
-47.65927617237787
 10
95.89996414644975
 20
-24.01754346254267
  0
HATCH
  5
2A2A
330
1F
100
AcDbEntity
  8
STAVBA OBRYS
100
AcDbHatch
 10
0.0
 20
0.0
 30
0.0
210
0.0
220
0.0
230
1.0
  2
SOLID
 70
     1
 71
     0
 91
        1
 92
        7
 72
     0
 73
     1
 93
        4
 10
92.89996414644974
 20
-24.01754346253904
 10
92.89996414644974
 20
-47.65927617237423
 10
95.89996414644975
 20
-47.65927617237787
 10
95.89996414644975
 20
-24.01754346253904
 97
        0
 75
     0
 76
     1
 47
0.1901250437635136
 98
        1
 10
93.71677569753137
 20
-38.30148141403435
  0
HATCH
  5
2A2B
330
1F
100
AcDbEntity
  8
STAVBA OBRYS
100
AcDbHatch
 10
0.0
 20
0.0
 30
0.0
210
0.0
220
0.0
230
1.0
  2
SOLID
 70
     1
 71
     0
 91
        1
 92
        7
 72
     0
 73
     1
 93
        4
 10
92.89996414644974
 20
23.26592195713135
 10
92.89996414644974
 20
-0.3758107527038419
 10
95.89996414644975
 20
-0.3758107527074799
 10
95.89996414644975
 20
23.26592195713135
 97
        0
 75
     0
 76
     1
 47
0.1901250437635136
 98
        1
 10
93.71677569753137
 20
8.981984005636036
  0
LWPOLYLINE
  5
2A2C
330
1F
100
AcDbEntity
  8
STAVBA OBRYS
100
AcDbPolyline
 90
        4
 70
     1
 43
0.0
 10
92.89996414644974
 20
23.26592195712771
 10
92.89996414644974
 20
-0.3758107527074799
 10
95.89996414644975
 20
-0.3758107527074799
 10
95.89996414644975
 20
23.26592195712771
  0
HATCH
  5
2A2D
330
1F
100
AcDbEntity
  8
STAVBA OBRYS
100
AcDbHatch
 10
0.0
 20
0.0
 30
0.0
210
0.0
220
0.0
230
1.0
  2
SOLID
 70
     1
 71
     0
 91
        1
 92
        7
 72
     0
 73
     1
 93
        4
 10
92.89996414644974
 20
70.54938737680174
 10
92.89996414644974
 20
46.90765466696655
 10
95.89996414644975
 20
46.90765466696291
 10
95.89996414644975
 20
70.54938737680174
 97
        0
 75
     0
 76
     1
 47
0.1901250437635136
 98
        1
 10
93.71677569753137
 20
56.26544942530642
  0
LWPOLYLINE
  5
2A2E
330
1F
100
AcDbEntity
  8
STAVBA OBRYS
100
AcDbPolyline
 90
        4
 70
     1
 43
0.0
 10
92.89996414644974
 20
70.54938737679811
 10
92.89996414644974
 20
46.90765466696291
 10
95.89996414644975
 20
46.90765466696291
 10
95.89996414644975
 20
70.54938737679811
  0
HATCH
  5
2A2F
330
1F
100
AcDbEntity
  8
STAVBA OBRYS
100
AcDbHatch
 10
0.0
 20
0.0
 30
0.0
210
0.0
220
0.0
230
1.0
  2
SOLID
 70
     1
 71
     0
 91
        1
 92
        7
 72
     0
 73
     1
 93
        4
 10
92.89996414644974
 20
117.8328527964721
 10
92.89996414644974
 20
94.19112008663693
 10
95.89996414644975
 20
94.19112008663331
 10
95.89996414644975
 20
117.8328527964721
 97
        0
 75
     0
 76
     1
 47
0.1901250437635136
 98
        1
 10
93.71677569753137
 20
103.5489148449768
  0
LWPOLYLINE
  5
2A30
330
1F
100
AcDbEntity
  8
STAVBA OBRYS
100
AcDbPolyline
 90
        4
 70
     1
 43
0.0
 10
92.89996414644974
 20
117.8328527964685
 10
92.89996414644974
 20
94.19112008663331
 10
95.89996414644975
 20
94.19112008663331
 10
95.89996414644975
 20
117.8328527964685
  0
HATCH
  5
2A31
330
1F
100
AcDbEntity
  8
STAVBA OBRYS
100
AcDbHatch
 10
0.0
 20
0.0
 30
0.0
210
0.0
220
0.0
230
1.0
  2
SOLID
 70
     1
 71
     0
 91
        1
 92
        7
 72
     0
 73
     1
 93
        4
 10
92.89996414644974
 20
165.1163182161425
 10
92.89996414644974
 20
141.4745855063073
 10
95.89996414644975
 20
141.4745855063037
 10
95.89996414644975
 20
165.1163182161425
 97
        0
 75
     0
 76
     1
 47
0.1901250437635136
 98
        1
 10
93.71677569753137
 20
150.8323802646472
  0
LWPOLYLINE
  5
2A32
330
1F
100
AcDbEntity
  8
STAVBA OBRYS
100
AcDbPolyline
 90
        4
 70
     1
 43
0.0
 10
92.89996414644974
 20
165.1163182161389
 10
92.89996414644974
 20
141.4745855063037
 10
95.89996414644975
 20
141.4745855063037
 10
95.89996414644975
 20
165.1163182161389
  0
HATCH
  5
2A33
330
1F
100
AcDbEntity
  8
STAVBA OBRYS
100
AcDbHatch
 10
0.0
 20
0.0
 30
0.0
210
0.0
220
0.0
230
1.0
  2
SOLID
 70
     1
 71
     0
 91
        1
 92
        7
 72
     0
 73
     1
 93
        4
 10
92.89996414644974
 20
212.3997836358129
 10
92.89996414644974
 20
188.7580509259777
 10
95.89996414644975
 20
188.758050925974
 10
95.89996414644975
 20
212.3997836358129
 97
        0
 75
     0
 76
     1
 47
0.1901250437635136
 98
        1
 10
93.71677569753137
 20
198.1158456843176
  0
LWPOLYLINE
  5
2A34
330
1F
100
AcDbEntity
  8
STAVBA OBRYS
100
AcDbPolyline
 90
        4
 70
     1
 43
0.0
 10
92.89996414644974
 20
212.3997836358092
 10
92.89996414644974
 20
188.758050925974
 10
95.89996414644975
 20
188.758050925974
 10
95.89996414644975
 20
212.3997836358092
  0
HATCH
  5
2A35
330
1F
100
AcDbEntity
  8
STAVBA OBRYS
100
AcDbHatch
 10
0.0
 20
0.0
 30
0.0
210
0.0
220
0.0
230
1.0
  2
SOLID
 70
     1
 71
     0
 91
        1
 92
        7
 72
     0
 73
     1
 93
        4
 10
92.89996414644974
 20
259.6832490554833
 10
92.89996414644974
 20
236.0415163456481
 10
95.89996414644975
 20
236.0415163456444
 10
95.89996414644975
 20
259.6832490554833
 97
        0
 75
     0
 76
     1
 47
0.1901250437635136
 98
        1
 10
93.71677569753137
 20
245.399311103988
  0
LWPOLYLINE
  5
2A36
330
1F
100
AcDbEntity
  8
STAVBA OBRYS
100
AcDbPolyline
 90
        4
 70
     1
 43
0.0
 10
92.89996414644974
 20
259.6832490554796
 10
92.89996414644974
 20
236.0415163456444
 10
95.89996414644975
 20
236.0415163456444
 10
95.89996414644975
 20
259.6832490554796
  0
HATCH
  5
2A37
330
1F
100
AcDbEntity
  8
STAVBA OBRYS
100
AcDbHatch
 10
0.0
 20
0.0
 30
0.0
210
0.0
220
0.0
230
1.0
  2
SOLID
 70
     1
 71
     0
 91
        1
 92
        7
 72
     0
 73
     1
 93
        4
 10
92.89996414644974
 20
306.9667144751537
 10
92.89996414644974
 20
283.3249817653184
 10
95.89996414644975
 20
283.3249817653148
 10
95.89996414644975
 20
306.9667144751537
 97
        0
 75
     0
 76
     1
 47
0.1901250437635136
 98
        1
 10
93.71677569753137
 20
292.6827765236584
  0
LWPOLYLINE
  5
2A38
330
1F
100
AcDbEntity
  8
STAVBA OBRYS
100
AcDbPolyline
 90
        4
 70
     1
 43
0.0
 10
92.89996414644974
 20
306.96671447515
 10
92.89996414644974
 20
283.3249817653148
 10
95.89996414644975
 20
283.3249817653148
 10
95.89996414644975
 20
306.96671447515
  0
LINE
  5
2A39
330
1F
100
AcDbEntity
  8
CETRIS
100
AcDbLine
 10
95.89996414644975
 20
-95.54041232601333
 30
0.0
 11
95.89996414644611
 21
400.5719786437574
 31
0.0
  0
LWPOLYLINE
  5
2A3A
330
1F
100
AcDbEntity
  8
STAVBA OBRYS
100
AcDbPolyline
 90
        4
 70
     0
 43
0.0
 10
95.89996414644975
 20
323.6336103442689
 10
95.89996414644975
 20
-94.94274159204826
 10
92.89996414644974
 20
-94.94274159204826
 10
92.89996414644974
 20
323.6336103442689
  0
LWPOLYLINE
  5
2A3B
330
1F
100
AcDbEntity
  8
STAVBA OBRYS
100
AcDbPolyline
 90
        4
 70
     1
 43
0.0
 10
92.89996414644974
 20
-71.30100888221306
 10
92.89996414644974
 20
-94.94274159204826
 10
95.89996414644975
 20
-94.94274159204826
 10
95.89996414644975
 20
-71.30100888221306
  0
HATCH
  5
2A3C
330
1F
100
AcDbEntity
  8
STAVBA OBRYS
100
AcDbHatch
 10
0.0
 20
0.0
 30
0.0
210
0.0
220
0.0
230
1.0
  2
SOLID
 70
     1
 71
     0
 91
        1
 92
        7
 72
     0
 73
     1
 93
        4
 10
92.89996414644974
 20
-71.30100888221306
 10
92.89996414644974
 20
-94.94274159204463
 10
95.89996414644975
 20
-94.94274159204826
 10
95.89996414644975
 20
-71.30100888220943
 97
        0
 75
     0
 76
     1
 47
0.1901250437635136
 98
        3
 10
94.66740907583789
 20
-43.05751861802593
 10
94.85753575149919
 20
-79.39370944536597
 10
94.28715572451528
 20
-83.38878163459332
  0
TEXT
  5
2A3D
330
1F
100
AcDbEntity
  8
POPIS
100
AcDbText
 10
-94.89232318161247
 20
458.607593456857
 30
0.0
 40
35.0
  1
PŮDORYS
 41
0.85
  7
SIMPLEX7
100
AcDbText
  0
LINE
  5
2A3E
330
1F
100
AcDbEntity
  8
STAVBA OBRYS
100
AcDbLine
 10
-80.67694015042889
 20
400.5719786437574
 30
0.0
 11
-80.67694015042889
 21
-95.54041232601333
 31
0.0
  0
LINE
  5
2A3F
330
1F
100
AcDbEntity
  8
CETRIS
100
AcDbLine
 10
-40.67694015042889
 20
400.5719786437574
 30
0.0
 11
-40.67694015042525
 21
-95.54041232601333
 31
0.0
  0
LINE
  5
2A40
330
1F
100
AcDbEntity
  8
STAVBA OBRYS
  6
DASHED
100
AcDbLine
 10
-85.67694015042889
 20
400.5719786437574
 30
0.0
 11
-85.67694015042889
 21
-95.54041232601333
 31
0.0
  0
LINE
  5
2A41
330
1F
100
AcDbEntity
  8
CETRIS
100
AcDbLine
 10
-27.10384380473715
 20
-95.54041232601333
 30
0.0
 11
-27.10384380473715
 21
400.5719786437574
 31
0.0
  0
LINE
  5
2A42
330
1F
100
AcDbEntity
  8
STAVBA OBRYS
100
AcDbLine
 10
92.89996414646429
 20
-94.79168176373525
 30
0.0
 11
92.89996414645338
 21
400.5719786437574
 31
0.0
  0
TEXT
  5
2A4F
330
1F
100
AcDbEntity
  8
POPIS
100
AcDbText
 10
435.7553637403062
 20
245.013215718059
 30
0.0
 40
25.0
  1
(Polystyrén PPS)
 41
0.7
  7
SIMPLEX7
100
AcDbText
  0
ENDSEC
  0
SECTION
  2
OBJECTS
  0
DICTIONARY
  5
C
330
0
100
AcDbDictionary
281
     1
  3
ACAD_GROUP
350
D
  3
ACAD_LAYOUT
350
1A
  3
ACAD_MLINESTYLE
350
17
  3
ACAD_PLOTSETTINGS
350
19
  3
ACAD_PLOTSTYLENAME
350
E
  0
DICTIONARY
  5
D
102
{ACAD_REACTORS
330
C
102
}
330
C
100
AcDbDictionary
281
     1
  0
DICTIONARY
  5
1A
102
{ACAD_REACTORS
330
C
102
}
330
C
100
AcDbDictionary
281
     1
  3
Model
350
22
  3
Rozvržení1
350
1E
  3
Rozvržení2
350
26
  0
DICTIONARY
  5
17
102
{ACAD_REACTORS
330
C
102
}
330
C
100
AcDbDictionary
281
     1
  3
Standard
350
18
  0
DICTIONARY
  5
19
102
{ACAD_REACTORS
330
C
102
}
330
C
100
AcDbDictionary
281
     1
  0
ACDBDICTIONARYWDFLT
  5
E
102
{ACAD_REACTORS
330
C
102
}
330
C
100
AcDbDictionary
281
     1
  3
Normal
350
F
100
AcDbDictionaryWithDefault
340
F
  0
LAYOUT
  5
22
102
{ACAD_REACTORS
330
1A
102
}
330
1A
100
AcDbPlotSettings
  1

  2
HP DeskJet 690C
  4

  6

 40
0.0
 41
0.0
 42
0.0
 43
0.0
 44
0.0
 45
0.0
 46
0.0
 47
0.0
 48
0.0
 49
0.0
140
0.0
141
0.0
142
1.0
143
1.0
 70
  1712
 72
     0
 73
     0
 74
     0
  7
monochrome.ctb
 75
     0
147
1.0
148
0.0
149
0.0
100
AcDbLayout
  1
Model
 70
     1
 71
     0
 10
0.0
 20
0.0
 11
12.0
 21
9.0
 12
0.0
 22
0.0
 32
0.0
 14
0.0
 24
0.0
 34
0.0
 15
0.0
 25
0.0
 35
0.0
146
0.0
 13
0.0
 23
0.0
 33
0.0
 16
1.0
 26
0.0
 36
0.0
 17
0.0
 27
1.0
 37
0.0
 76
     0
330
1F
  0
LAYOUT
  5
1E
102
{ACAD_REACTORS
330
1A
102
}
330
1A
100
AcDbPlotSettings
  1

  2
HP DeskJet 690C
  4

  6

 40
0.0
 41
0.0
 42
0.0
 43
0.0
 44
0.0
 45
0.0
 46
0.0
 47
0.0
 48
0.0
 49
0.0
140
0.0
141
0.0
142
1.0
143
1.0
 70
   688
 72
     0
 73
     0
 74
     5
  7
monochrome.ctb
 75
    16
147
1.0
148
0.0
149
0.0
100
AcDbLayout
  1
Rozvržení1
 70
     1
 71
     1
 10
0.0
 20
0.0
 11
420.0
 21
297.0
 12
0.0
 22
0.0
 32
0.0
 14
1.000000000000000E+20
 24
1.000000000000000E+20
 34
1.000000000000000E+20
 15
-1.000000000000000E+20
 25
-1.000000000000000E+20
 35
-1.000000000000000E+20
146
0.0
 13
0.0
 23
0.0
 33
0.0
 16
1.0
 26
0.0
 36
0.0
 17
0.0
 27
1.0
 37
0.0
 76
     0
330
1B
  0
LAYOUT
  5
26
102
{ACAD_REACTORS
330
1A
102
}
330
1A
100
AcDbPlotSettings
  1

  2
HP DeskJet 690C
  4

  6

 40
0.0
 41
0.0
 42
0.0
 43
0.0
 44
0.0
 45
0.0
 46
0.0
 47
0.0
 48
0.0
 49
0.0
140
0.0
141
0.0
142
1.0
143
1.0
 70
   688
 72
     0
 73
     0
 74
     5
  7
monochrome.ctb
 75
    16
147
1.0
148
0.0
149
0.0
100
AcDbLayout
  1
Rozvržení2
 70
     1
 71
     2
 10
0.0
 20
0.0
 11
12.0
 21
9.0
 12
0.0
 22
0.0
 32
0.0
 14
0.0
 24
0.0
 34
0.0
 15
0.0
 25
0.0
 35
0.0
146
0.0
 13
0.0
 23
0.0
 33
0.0
 16
1.0
 26
0.0
 36
0.0
 17
0.0
 27
1.0
 37
0.0
 76
     0
330
23
  0
MLINESTYLE
  5
18
102
{ACAD_REACTORS
330
17
102
}
330
17
100
AcDbMlineStyle
  2
STANDARD
 70
     0
  3

 62
   256
 51
90.0
 52
90.0
 71
     2
 49
0.5
 62
   256
  6
BYLAYER
 49
-0.5
 62
   256
  6
BYLAYER
  0
ACDBPLACEHOLDER
  5
F
102
{ACAD_REACTORS
330
E
102
}
330
E
  0
ENDSEC
  0
EOF
