  0
SECTION
  2
HEADER
  9
$ACADVER
  1
AC1015
  9
$ACADMAINTVER
 70
    10
  9
$DWGCODEPAGE
  3
ANSI_1250
  9
$INSBASE
 10
0.0
 20
0.0
 30
0.0
  9
$EXTMIN
 10
-105.3258177924063
 20
-85.01151927815772
 30
0.0
  9
$EXTMAX
 10
1003.645873885629
 20
579.7051262700863
 30
0.0
  9
$LIMMIN
 10
0.0
 20
0.0
  9
$LIMMAX
 10
420.0
 20
297.0
  9
$ORTHOMODE
 70
     0
  9
$REGENMODE
 70
     1
  9
$FILLMODE
 70
     1
  9
$QTEXTMODE
 70
     0
  9
$MIRRTEXT
 70
     1
  9
$LTSCALE
 40
1.0
  9
$ATTMODE
 70
     1
  9
$TEXTSIZE
 40
2.5
  9
$TRACEWID
 40
1.0
  9
$TEXTSTYLE
  7
Standard
  9
$CLAYER
  8
0
  9
$CELTYPE
  6
ByLayer
  9
$CECOLOR
 62
   256
  9
$CELTSCALE
 40
1.0
  9
$DISPSILH
 70
     0
  9
$DIMSCALE
 40
1.0
  9
$DIMASZ
 40
2.5
  9
$DIMEXO
 40
0.625
  9
$DIMDLI
 40
3.75
  9
$DIMRND
 40
0.0
  9
$DIMDLE
 40
0.0
  9
$DIMEXE
 40
1.25
  9
$DIMTP
 40
0.0
  9
$DIMTM
 40
0.0
  9
$DIMTXT
 40
2.5
  9
$DIMCEN
 40
2.5
  9
$DIMTSZ
 40
0.0
  9
$DIMTOL
 70
     0
  9
$DIMLIM
 70
     0
  9
$DIMTIH
 70
     0
  9
$DIMTOH
 70
     0
  9
$DIMSE1
 70
     0
  9
$DIMSE2
 70
     0
  9
$DIMTAD
 70
     1
  9
$DIMZIN
 70
     8
  9
$DIMBLK
  1

  9
$DIMASO
 70
     1
  9
$DIMSHO
 70
     1
  9
$DIMPOST
  1

  9
$DIMAPOST
  1

  9
$DIMALT
 70
     0
  9
$DIMALTD
 70
     3
  9
$DIMALTF
 40
0.03937007874016
  9
$DIMLFAC
 40
1.0
  9
$DIMTOFL
 70
     1
  9
$DIMTVP
 40
0.0
  9
$DIMTIX
 70
     0
  9
$DIMSOXD
 70
     0
  9
$DIMSAH
 70
     0
  9
$DIMBLK1
  1

  9
$DIMBLK2
  1

  9
$DIMSTYLE
  2
ISO-25
  9
$DIMCLRD
 70
     0
  9
$DIMCLRE
 70
     0
  9
$DIMCLRT
 70
     0
  9
$DIMTFAC
 40
1.0
  9
$DIMGAP
 40
0.625
  9
$DIMJUST
 70
     0
  9
$DIMSD1
 70
     0
  9
$DIMSD2
 70
     0
  9
$DIMTOLJ
 70
     0
  9
$DIMTZIN
 70
     8
  9
$DIMALTZ
 70
     0
  9
$DIMALTTZ
 70
     0
  9
$DIMUPT
 70
     0
  9
$DIMDEC
 70
     2
  9
$DIMTDEC
 70
     2
  9
$DIMALTU
 70
     2
  9
$DIMALTTD
 70
     3
  9
$DIMTXSTY
  7
Standard
  9
$DIMAUNIT
 70
     0
  9
$DIMADEC
 70
     0
  9
$DIMALTRND
 40
0.0
  9
$DIMAZIN
 70
     0
  9
$DIMDSEP
 70
    44
  9
$DIMATFIT
 70
     3
  9
$DIMFRAC
 70
     0
  9
$DIMLDRBLK
  1

  9
$DIMLUNIT
 70
     2
  9
$DIMLWD
 70
    -2
  9
$DIMLWE
 70
    -2
  9
$DIMTMOVE
 70
     0
  9
$LUNITS
 70
     2
  9
$LUPREC
 70
     4
  9
$SKETCHINC
 40
1.0
  9
$FILLETRAD
 40
10.0
  9
$AUNITS
 70
     0
  9
$AUPREC
 70
     0
  9
$MENU
  1
.
  9
$ELEVATION
 40
0.0
  9
$PELEVATION
 40
0.0
  9
$THICKNESS
 40
0.0
  9
$LIMCHECK
 70
     0
  9
$CHAMFERA
 40
10.0
  9
$CHAMFERB
 40
10.0
  9
$CHAMFERC
 40
20.0
  9
$CHAMFERD
 40
0.0
  9
$SKPOLY
 70
     0
  9
$TDCREATE
 40
2452333.440837384
  9
$TDUCREATE
 40
2452333.399170718
  9
$TDUPDATE
 40
2452653.354069178
  9
$TDUUPDATE
 40
2452653.312402511
  9
$TDINDWG
 40
0.0036945023
  9
$TDUSRTIMER
 40
0.0036932292
  9
$USRTIMER
 70
     1
  9
$ANGBASE
 50
0.0
  9
$ANGDIR
 70
     0
  9
$PDMODE
 70
     0
  9
$PDSIZE
 40
0.0
  9
$PLINEWID
 40
0.0
  9
$SPLFRAME
 70
     0
  9
$SPLINETYPE
 70
     6
  9
$SPLINESEGS
 70
     8
  9
$HANDSEED
  5
2451
  9
$SURFTAB1
 70
     6
  9
$SURFTAB2
 70
     6
  9
$SURFTYPE
 70
     6
  9
$SURFU
 70
     6
  9
$SURFV
 70
     6
  9
$UCSBASE
  2

  9
$UCSNAME
  2

  9
$UCSORG
 10
0.0
 20
0.0
 30
0.0
  9
$UCSXDIR
 10
1.0
 20
0.0
 30
0.0
  9
$UCSYDIR
 10
0.0
 20
1.0
 30
0.0
  9
$UCSORTHOREF
  2

  9
$UCSORTHOVIEW
 70
     0
  9
$UCSORGTOP
 10
0.0
 20
0.0
 30
0.0
  9
$UCSORGBOTTOM
 10
0.0
 20
0.0
 30
0.0
  9
$UCSORGLEFT
 10
0.0
 20
0.0
 30
0.0
  9
$UCSORGRIGHT
 10
0.0
 20
0.0
 30
0.0
  9
$UCSORGFRONT
 10
0.0
 20
0.0
 30
0.0
  9
$UCSORGBACK
 10
0.0
 20
0.0
 30
0.0
  9
$PUCSBASE
  2

  9
$PUCSNAME
  2

  9
$PUCSORG
 10
0.0
 20
0.0
 30
0.0
  9
$PUCSXDIR
 10
1.0
 20
0.0
 30
0.0
  9
$PUCSYDIR
 10
0.0
 20
1.0
 30
0.0
  9
$PUCSORTHOREF
  2

  9
$PUCSORTHOVIEW
 70
     0
  9
$PUCSORGTOP
 10
0.0
 20
0.0
 30
0.0
  9
$PUCSORGBOTTOM
 10
0.0
 20
0.0
 30
0.0
  9
$PUCSORGLEFT
 10
0.0
 20
0.0
 30
0.0
  9
$PUCSORGRIGHT
 10
0.0
 20
0.0
 30
0.0
  9
$PUCSORGFRONT
 10
0.0
 20
0.0
 30
0.0
  9
$PUCSORGBACK
 10
0.0
 20
0.0
 30
0.0
  9
$USERI1
 70
     0
  9
$USERI2
 70
     0
  9
$USERI3
 70
     0
  9
$USERI4
 70
     0
  9
$USERI5
 70
     0
  9
$USERR1
 40
0.0
  9
$USERR2
 40
0.0
  9
$USERR3
 40
0.0
  9
$USERR4
 40
0.0
  9
$USERR5
 40
0.0
  9
$WORLDVIEW
 70
     1
  9
$SHADEDGE
 70
     3
  9
$SHADEDIF
 70
    70
  9
$TILEMODE
 70
     1
  9
$MAXACTVP
 70
    64
  9
$PINSBASE
 10
0.0
 20
0.0
 30
0.0
  9
$PLIMCHECK
 70
     0
  9
$PEXTMIN
 10
1.000000000000000E+20
 20
1.000000000000000E+20
 30
1.000000000000000E+20
  9
$PEXTMAX
 10
-1.000000000000000E+20
 20
-1.000000000000000E+20
 30
-1.000000000000000E+20
  9
$PLIMMIN
 10
0.0
 20
0.0
  9
$PLIMMAX
 10
420.0
 20
297.0
  9
$UNITMODE
 70
     0
  9
$VISRETAIN
 70
     1
  9
$PLINEGEN
 70
     0
  9
$PSLTSCALE
 70
     1
  9
$TREEDEPTH
 70
  3020
  9
$CMLSTYLE
  2
Standard
  9
$CMLJUST
 70
     0
  9
$CMLSCALE
 40
20.0
  9
$PROXYGRAPHICS
 70
     1
  9
$MEASUREMENT
 70
     1
  9
$CELWEIGHT
370
    -1
  9
$ENDCAPS
280
     0
  9
$JOINSTYLE
280
     0
  9
$LWDISPLAY
290
     0
  9
$INSUNITS
 70
     4
  9
$HYPERLINKBASE
  1

  9
$STYLESHEET
  1

  9
$XEDIT
290
     1
  9
$CEPSNTYPE
380
     0
  9
$PSTYLEMODE
290
     1
  9
$FINGERPRINTGUID
  2
{E0A79919-1611-4D48-A6CF-929FE36A9D62}
  9
$VERSIONGUID
  2
{AAC874A9-1216-46DF-B975-98C19AF59DBE}
  9
$EXTNAMES
290
     1
  9
$PSVPSCALE
 40
0.0
  9
$OLESTARTUP
290
     0
  0
ENDSEC
  0
SECTION
  2
CLASSES
  0
CLASS
  1
ACDBDICTIONARYWDFLT
  2
AcDbDictionaryWithDefault
  3
AutoCAD 2000
 90
        0
280
     0
281
     0
  0
CLASS
  1
ACDBPLACEHOLDER
  2
AcDbPlaceHolder
  3
AutoCAD 2000
 90
        0
280
     0
281
     0
  0
CLASS
  1
LAYOUT
  2
AcDbLayout
  3
AutoCAD 2000
 90
        0
280
     0
281
     0
  0
ENDSEC
  0
SECTION
  2
TABLES
  0
TABLE
  2
VPORT
  5
8
330
0
100
AcDbSymbolTable
 70
     2
  0
VPORT
  5
2450
330
8
100
AcDbSymbolTableRecord
100
AcDbViewportTableRecord
  2
*Active
 70
     0
 10
0.0
 20
0.0
 11
1.0
 21
1.0
 12
451.4119458681951
 22
235.2853819795183
 13
0.0
 23
0.0
 14
10.0
 24
10.0
 15
10.0
 25
10.0
 16
0.0
 26
0.0
 36
1.0
 17
0.0
 27
0.0
 37
0.0
 40
774.4339603912834
 41
1.531620553359683
 42
50.0
 43
0.0
 44
0.0
 50
0.0
 51
0.0
 71
     0
 72
   100
 73
     1
 74
     3
 75
     0
 76
     0
 77
     0
 78
     0
281
     0
 65
     1
110
0.0
120
0.0
130
0.0
111
1.0
121
0.0
131
0.0
112
0.0
122
1.0
132
0.0
 79
     0
146
0.0
  0
ENDTAB
  0
TABLE
  2
LTYPE
  5
5
330
0
100
AcDbSymbolTable
 70
     5
  0
LTYPE
  5
14
330
5
100
AcDbSymbolTableRecord
100
AcDbLinetypeTableRecord
  2
ByBlock
 70
     0
  3

 72
    65
 73
     0
 40
0.0
  0
LTYPE
  5
15
330
5
100
AcDbSymbolTableRecord
100
AcDbLinetypeTableRecord
  2
ByLayer
 70
     0
  3

 72
    65
 73
     0
 40
0.0
  0
LTYPE
  5
16
330
5
100
AcDbSymbolTableRecord
100
AcDbLinetypeTableRecord
  2
Continuous
 70
     0
  3
Solid line
 72
    65
 73
     0
 40
0.0
  0
LTYPE
  5
33
330
5
100
AcDbSymbolTableRecord
100
AcDbLinetypeTableRecord
  2
DASHED
 70
     0
  3
Dashed __ __ __ __ __ __ __ __ __ __ __ __ __ _
 72
    65
 73
     2
 40
19.04999999999999
 49
12.7
 74
     0
 49
-6.349999999999999
 74
     0
  0
LTYPE
  5
34
330
5
100
AcDbSymbolTableRecord
100
AcDbLinetypeTableRecord
  2
DASHDOT2
 70
     0
  3
Dash dot (.5x) _._._._._._._._._._._._._._._.
 72
    65
 73
     4
 40
12.7
 49
6.349999999999999
 74
     0
 49
-3.174999999999999
 74
     0
 49
0.0
 74
     0
 49
-3.174999999999999
 74
     0
  0
LTYPE
  5
35
330
5
100
AcDbSymbolTableRecord
100
AcDbLinetypeTableRecord
  2
CIKCAK
 70
     0
  3
Cik-cak /\/\/\/\/\/\/\/\/\/\/\/\/\/\/\/\/\/\/\/
 72
    65
 73
     4
 40
20.32254
 49
0.00254
 74
     0
 49
-5.08
 74
     4
 75
   131
340
3E
 46
5.08
 50
0.0
 44
-5.08
 45
0.0
 49
-10.16
 74
     4
 75
   131
340
3E
 46
5.08
 50
180.0
 44
5.08
 45
0.0
 49
-5.08
 74
     0
  0
LTYPE
  5
36
330
5
100
AcDbSymbolTableRecord
100
AcDbLinetypeTableRecord
  2
IZOLACE
 70
     0
  3
Izolace SSSSSSSSSSSSSSSSSSSSSSSSSSSSSSSSSSSSSSS
 72
    65
 73
     4
 40
10.16253999999999
 49
0.00254
 74
     0
 49
-2.54
 74
     4
 75
   134
340
3E
 46
2.54
 50
0.0
 44
-2.54
 45
0.0
 49
-5.08
 74
     4
 75
   134
340
3E
 46
2.54
 50
180.0
 44
2.54
 45
0.0
 49
-2.54
 74
     0
  0
ENDTAB
  0
TABLE
  2
LAYER
  5
2
330
0
100
AcDbSymbolTable
 70
     7
  0
LAYER
  5
10
330
2
100
AcDbSymbolTableRecord
100
AcDbLayerTableRecord
  2
0
 70
     0
 62
     7
  6
Continuous
370
    -3
390
F
  0
LAYER
  5
37
330
2
100
AcDbSymbolTableRecord
100
AcDbLayerTableRecord
  2
POPIS
 70
     0
 62
    30
  6
Continuous
370
    -3
390
F
  0
LAYER
  5
38
330
2
100
AcDbSymbolTableRecord
100
AcDbLayerTableRecord
  2
SPOJOVACÍ
 70
     0
 62
   180
  6
Continuous
370
    -3
390
F
  0
LAYER
  5
39
330
2
100
AcDbSymbolTableRecord
100
AcDbLayerTableRecord
  2
CETRIS
 70
     0
 62
     1
  6
Continuous
370
    -3
390
F
  0
LAYER
  5
3A
330
2
100
AcDbSymbolTableRecord
100
AcDbLayerTableRecord
  2
NOSNÉ KONSTRUKCE
 70
     0
 62
    33
  6
Continuous
370
    -3
390
F
  0
LAYER
  5
3B
330
2
100
AcDbSymbolTableRecord
100
AcDbLayerTableRecord
  2
izolace
 70
     0
 62
    73
  6
Continuous
370
    -3
390
F
  0
LAYER
  5
3C
330
2
100
AcDbSymbolTableRecord
100
AcDbLayerTableRecord
  2
STAVBA OBRYS
 70
     0
 62
     6
  6
Continuous
370
    -3
390
F
  0
ENDTAB
  0
TABLE
  2
STYLE
  5
3
330
0
100
AcDbSymbolTable
 70
     3
  0
STYLE
  5
11
330
3
100
AcDbSymbolTableRecord
100
AcDbTextStyleTableRecord
  2
Standard
 70
     0
 40
0.0
 41
1.0
 50
0.0
 71
     0
 42
2.5
  3
txt
  4

  0
STYLE
  5
3D
330
3
100
AcDbSymbolTableRecord
100
AcDbTextStyleTableRecord
  2
SIMPLEX7
 70
     0
 40
0.0
 41
0.85
 50
0.0
 71
     0
 42
102.0
  3

  4

1001
ACAD
1000
Arial CE
1071
    60962
  0
STYLE
  5
3E
330
3
100
AcDbSymbolTableRecord
100
AcDbTextStyleTableRecord
  2

 70
     1
 40
0.0
 41
1.0
 50
0.0
 71
     0
 42
2.5
  3
ltypeshp.shx
  4

  0
ENDTAB
  0
TABLE
  2
VIEW
  5
6
330
0
100
AcDbSymbolTable
 70
     0
  0
ENDTAB
  0
TABLE
  2
UCS
  5
7
330
0
100
AcDbSymbolTable
 70
     0
  0
ENDTAB
  0
TABLE
  2
APPID
  5
9
330
0
100
AcDbSymbolTable
 70
     1
  0
APPID
  5
12
330
9
100
AcDbSymbolTableRecord
100
AcDbRegAppTableRecord
  2
ACAD
 70
     0
  0
ENDTAB
  0
TABLE
  2
DIMSTYLE
  5
A
330
0
100
AcDbSymbolTable
 70
     1
100
AcDbDimStyleTable
 71
     0
  0
DIMSTYLE
105
27
330
A
100
AcDbSymbolTableRecord
100
AcDbDimStyleTableRecord
  2
ISO-25
 70
     0
 41
2.5
 42
0.625
 43
3.75
 44
1.25
 73
     0
 74
     0
 77
     1
 78
     8
140
2.5
141
2.5
143
0.03937007874016
147
0.625
171
     3
172
     1
271
     2
272
     2
274
     3
278
    44
283
     0
284
     8
340
11
  0
ENDTAB
  0
TABLE
  2
BLOCK_RECORD
  5
1
330
0
100
AcDbSymbolTable
 70
     2
  0
BLOCK_RECORD
  5
1F
330
1
100
AcDbSymbolTableRecord
100
AcDbBlockTableRecord
  2
*Model_Space
340
22
  0
BLOCK_RECORD
  5
1B
330
1
100
AcDbSymbolTableRecord
100
AcDbBlockTableRecord
  2
*Paper_Space
340
1E
  0
BLOCK_RECORD
  5
23
330
1
100
AcDbSymbolTableRecord
100
AcDbBlockTableRecord
  2
*Paper_Space0
340
26
  0
BLOCK_RECORD
  5
2B
330
1
100
AcDbSymbolTableRecord
100
AcDbBlockTableRecord
  2
E_PUNKT
340
0
102
{BLKREFS
331
22BD
331
22BE
331
22BF
331
22C0
331
237F
331
2380
102
}
  0
ENDTAB
  0
ENDSEC
  0
SECTION
  2
BLOCKS
  0
BLOCK
  5
20
330
1F
100
AcDbEntity
  8
0
100
AcDbBlockBegin
  2
*Model_Space
 70
     0
 10
0.0
 20
0.0
 30
0.0
  3
*Model_Space
  1

  0
ENDBLK
  5
21
330
1F
100
AcDbEntity
  8
0
100
AcDbBlockEnd
  0
BLOCK
  5
1C
330
1B
100
AcDbEntity
 67
     1
  8
0
100
AcDbBlockBegin
  2
*Paper_Space
 70
     0
 10
0.0
 20
0.0
 30
0.0
  3
*Paper_Space
  1

  0
ENDBLK
  5
1D
330
1B
100
AcDbEntity
 67
     1
  8
0
100
AcDbBlockEnd
  0
BLOCK
  5
24
330
23
100
AcDbEntity
  8
0
100
AcDbBlockBegin
  2
*Paper_Space0
 70
     0
 10
0.0
 20
0.0
 30
0.0
  3
*Paper_Space0
  1

  0
ENDBLK
  5
25
330
23
100
AcDbEntity
  8
0
100
AcDbBlockEnd
  0
BLOCK
  5
2D
330
2B
100
AcDbEntity
  8
0
100
AcDbBlockBegin
  2
E_PUNKT
 70
     0
 10
0.0
 20
0.0
 30
0.0
  3
E_PUNKT
  1

  0
LWPOLYLINE
  5
2C
330
2B
100
AcDbEntity
  8
POPIS
100
AcDbPolyline
 90
        2
 70
     1
 43
2.5
 10
1.27761037562675
 20
0.0290683308725193
 42
-1.0
 10
-1.222389624373249
 20
0.0290683308725193
 42
-1.0
  0
ENDBLK
  5
2E
330
2B
100
AcDbEntity
  8
0
100
AcDbBlockEnd
  0
ENDSEC
  0
SECTION
  2
ENTITIES
  0
LINE
  5
20BD
330
1F
100
AcDbEntity
  8
SPOJOVACÍ
100
AcDbLine
 10
60.89029007842043
 20
64.76571562076907
 30
0.0
 11
60.89029007842043
 21
63.88880499863564
 31
0.0
  0
LINE
  5
20BE
330
1F
100
AcDbEntity
  8
SPOJOVACÍ
100
AcDbLine
 10
60.89029007842043
 20
63.88880499863564
 30
0.0
 11
60.89029007842043
 21
64.76571562076907
 31
0.0
  0
LINE
  5
20BF
330
1F
100
AcDbEntity
  8
SPOJOVACÍ
  6
DASHED
100
AcDbLine
 10
60.89029007842043
 20
63.88880499863564
 30
0.0
 11
55.85122757842043
 21
60.70617069606061
 31
0.0
  0
LINE
  5
20C0
330
1F
100
AcDbEntity
  8
SPOJOVACÍ
100
AcDbLine
 10
60.89029007842043
 20
65.3303933651053
 30
0.0
 11
60.89029007842043
 21
63.88880499863564
 31
0.0
  0
LINE
  5
20C1
330
1F
100
AcDbEntity
  8
SPOJOVACÍ
100
AcDbLine
 10
60.89029007842043
 20
65.3303933651053
 30
0.0
 11
47.39029007842043
 21
65.3303933651053
 31
0.0
  0
LINE
  5
20C2
330
1F
100
AcDbEntity
  8
SPOJOVACÍ
100
AcDbLine
 10
60.89029007842043
 20
63.88880499863564
 30
0.0
 11
47.39029007842043
 21
63.88880499863564
 31
0.0
  0
LINE
  5
20C3
330
1F
100
AcDbEntity
  8
SPOJOVACÍ
  6
DASHED
100
AcDbLine
 10
57.66575650189849
 20
9.172696881055628
 30
0.0
 11
57.66575650189486
 21
61.8522136345785
 31
0.0
  0
LINE
  5
20C4
330
1F
100
AcDbEntity
  8
SPOJOVACÍ
  6
DASHED
100
AcDbLine
 10
55.85122757842043
 20
-26.26992103203764
 30
0.0
 11
55.85122757842043
 21
60.70617069606152
 31
0.0
  0
LWPOLYLINE
  5
20C5
330
1F
100
AcDbEntity
  8
NOSNÉ KONSTRUKCE
100
AcDbPolyline
 90
        6
 70
     0
 43
0.0
 10
29.14029007842043
 20
23.79683490293001
 42
0.0128837512779302
 10
32.47345490016675
 20
24.08162686315455
 42
0.0351641677647434
 10
36.07716435450572
 20
24.70938658467758
 42
0.0187319685742942
 10
47.83540169664854
 20
28.09340246566836
 42
0.0582629403736403
 10
51.41523589558062
 20
29.75290233374954
 42
0.2042445348716764
 10
76.67358408511507
 20
65.3303933651053
  0
LWPOLYLINE
  5
20C6
330
1F
100
AcDbEntity
  8
NOSNÉ KONSTRUKCE
100
AcDbPolyline
 90
        8
 70
     0
 43
0.0
 10
29.14029007842043
 20
32.42105028297129
 42
0.0120721047703132
 10
30.87417821716451
 20
32.49003297300925
 42
0.044358077361292
 10
33.56997823558129
 20
32.88566070768257
 42
0.0188067511131767
 10
40.8122074108877
 20
34.90548415606582
 42
0.0457786284636091
 10
43.6608177937677
 20
36.1135070456815
 42
0.0295006114745606
 10
47.58771700716977
 20
38.52956749998094
 42
0.0258674098621065
 10
51.73349708592366
 20
41.76224281394508
 42
0.2409478365688615
 10
66.15804453089811
 20
65.3303933651053
 42
0.0884720560394402
  0
LWPOLYLINE
  5
20C7
330
1F
100
AcDbEntity
  8
NOSNÉ KONSTRUKCE
100
AcDbPolyline
 90
       10
 70
     0
 43
0.0
 10
29.14029007842043
 20
41.28810950648158
 42
0.0168162630274194
 10
30.83132823053972
 20
41.42313508554553
 42
0.0575155827655532
 10
33.9309528912571
 20
42.10316736588839
 42
0.0310289133982999
 10
41.17598041590179
 20
45.10596871071657
 42
0.0882970623535771
 10
43.41634946670171
 20
46.74319063080957
 42
0.0171636441953577
 10
45.93026682194692
 20
49.55655469266758
 42
0.0157521173632038
 10
48.46176287445349
 20
52.79540952970393
 42
0.0073640874174249
 10
51.75016430018956
 20
57.42905888602519
 42
0.0194185739168057
 10
52.90173329947072
 20
59.25110220570179
 42
0.0567960585128809
 10
55.55359750484865
 20
65.3303933651053
 42
0.0229547400386702
  0
LINE
  5
20C8
330
1F
100
AcDbEntity
  8
NOSNÉ KONSTRUKCE
100
AcDbLine
 10
29.14029007842043
 20
65.3303933651053
 30
0.0
 11
66.15804453089811
 21
65.3303933651053
 31
0.0
  0
LWPOLYLINE
  5
20C9
330
1F
100
AcDbEntity
  8
NOSNÉ KONSTRUKCE
100
AcDbPolyline
 90
        4
 70
     1
 43
0.0
 10
79.14029007842043
 20
15.33039336510529
 10
29.14029007842043
 20
15.33039336510529
 10
29.14029007842043
 20
65.3303933651053
 10
79.14029007842043
 20
65.3303933651053
  0
LINE
  5
20CA
330
1F
100
AcDbEntity
  8
SPOJOVACÍ
100
AcDbLine
 10
47.39029007842043
 20
63.88880499863564
 30
0.0
 11
52.42935257842043
 21
60.70617069605697
 31
0.0
  0
LINE
  5
20CB
330
1F
100
AcDbEntity
  8
SPOJOVACÍ
100
AcDbLine
 10
47.39029007842043
 20
63.88880499863564
 30
0.0
 11
47.39029007842043
 21
64.76571562076907
 31
0.0
  0
LINE
  5
20CC
330
1F
100
AcDbEntity
  8
SPOJOVACÍ
100
AcDbLine
 10
47.39029007842043
 20
65.3303933651053
 30
0.0
 11
47.39029007842043
 21
63.88880499863564
 31
0.0
  0
POLYLINE
  5
20CD
330
1F
100
AcDbEntity
  8
NOSNÉ KONSTRUKCE
100
AcDb2dPolyline
 66
     1
 10
0.0
 20
0.0
 30
0.0
  0
VERTEX
  5
20CE
330
20CD
100
AcDbEntity
  8
NOSNÉ KONSTRUKCE
100
AcDbVertex
100
AcDb2dVertex
 10
29.14029007842043
 20
48.23788753016498
 30
0.0
 42
0.0072417954699014
  0
VERTEX
  5
20CF
330
20CD
100
AcDbEntity
  8
NOSNÉ KONSTRUKCE
100
AcDbVertex
100
AcDb2dVertex
 10
29.55169528969497
 20
48.29345789800874
 30
0.0
 42
0.0707158694326265
  0
VERTEX
  5
20D0
330
20CD
100
AcDbEntity
  8
NOSNÉ KONSTRUKCE
100
AcDbVertex
100
AcDb2dVertex
 10
31.48779874228864
 20
48.82458441442878
 30
0.0
 42
0.033952657250207
  0
VERTEX
  5
20D1
330
20CD
100
AcDbEntity
  8
NOSNÉ KONSTRUKCE
100
AcDbVertex
100
AcDb2dVertex
 10
35.84083646746228
 20
51.07324025383724
 30
0.0
 42
0.0571374688189033
  0
VERTEX
  5
20D2
330
20CD
100
AcDbEntity
  8
NOSNÉ KONSTRUKCE
100
AcDbVertex
100
AcDb2dVertex
 10
38.14776075114867
 20
52.85939701368926
 30
0.0
 42
0.0274923553235744
  0
VERTEX
  5
20D3
330
20CD
100
AcDbEntity
  8
NOSNÉ KONSTRUKCE
100
AcDbVertex
100
AcDb2dVertex
 10
40.53283607428318
 20
55.45670274424202
 30
0.0
 42
0.0255412025538677
  0
VERTEX
  5
20D4
330
20CD
100
AcDbEntity
  8
NOSNÉ KONSTRUKCE
100
AcDbVertex
100
AcDb2dVertex
 10
42.78954975130261
 20
58.50813278195284
 30
0.0
 42
0.0272796991712396
  0
VERTEX
  5
20D5
330
20CD
100
AcDbEntity
  8
NOSNÉ KONSTRUKCE
100
AcDbVertex
100
AcDb2dVertex
 10
45.20588563296485
 20
62.62113193513807
 30
0.0
 42
0.056967459841729
  0
VERTEX
  5
20D6
330
20CD
100
AcDbEntity
  8
NOSNÉ KONSTRUKCE
100
AcDbVertex
100
AcDb2dVertex
 10
46.01862146816427
 20
64.76207921586984
 30
0.0
 42
0.0373408083348504
  0
VERTEX
  5
20D7
330
20CD
100
AcDbEntity
  8
NOSNÉ KONSTRUKCE
100
AcDbVertex
100
AcDb2dVertex
 10
46.05778700911549
 20
64.98443359134336
 30
0.0
 42
0.0052305969362967
  0
VERTEX
  5
20D8
330
20CD
100
AcDbEntity
  8
NOSNÉ KONSTRUKCE
100
AcDbVertex
100
AcDb2dVertex
 10
46.08874397601982
 20
65.33039336510348
 30
0.0
  0
SEQEND
  5
20D9
330
20CD
100
AcDbEntity
  8
NOSNÉ KONSTRUKCE
  0
POLYLINE
  5
20DA
330
1F
100
AcDbEntity
  8
NOSNÉ KONSTRUKCE
100
AcDb2dPolyline
 66
     1
 10
0.0
 20
0.0
 30
0.0
  0
VERTEX
  5
20DB
330
20DA
100
AcDbEntity
  8
NOSNÉ KONSTRUKCE
100
AcDbVertex
100
AcDb2dVertex
 10
29.14029007842043
 20
55.46593855090333
 30
0.0
 42
0.0064239028828688
  0
VERTEX
  5
20DC
330
20DA
100
AcDbEntity
  8
NOSNÉ KONSTRUKCE
100
AcDbVertex
100
AcDb2dVertex
 10
29.35940373777055
 20
55.50480699108385
 30
0.0
 42
0.0832048017309575
  0
VERTEX
  5
20DD
330
20DA
100
AcDbEntity
  8
NOSNÉ KONSTRUKCE
100
AcDbVertex
100
AcDb2dVertex
 10
31.68961731742536
 20
56.28898959376539
 30
0.0
 42
0.0336767237692336
  0
VERTEX
  5
20DE
330
20DA
100
AcDbEntity
  8
NOSNÉ KONSTRUKCE
100
AcDbVertex
100
AcDb2dVertex
 10
34.41789183688604
 20
57.99180615268716
 30
0.0
 42
0.0844635135812105
  0
VERTEX
  5
20DF
330
20DA
100
AcDbEntity
  8
NOSNÉ KONSTRUKCE
100
AcDbVertex
100
AcDb2dVertex
 10
35.32231344188119
 20
58.91161591257997
 30
0.0
 42
0.0495829410719565
  0
VERTEX
  5
20E0
330
20DA
100
AcDbEntity
  8
NOSNÉ KONSTRUKCE
100
AcDbVertex
100
AcDb2dVertex
 10
36.29896294919388
 20
60.66029434993407
 30
0.0
 42
0.0322692699774654
  0
VERTEX
  5
20E1
330
20DA
100
AcDbEntity
  8
NOSNÉ KONSTRUKCE
100
AcDbVertex
100
AcDb2dVertex
 10
37.34048645059454
 20
63.55164853102479
 30
0.0
 42
0.0276160659512937
  0
VERTEX
  5
20E2
330
20DA
100
AcDbEntity
  8
NOSNÉ KONSTRUKCE
100
AcDbVertex
100
AcDb2dVertex
 10
37.53722187953906
 20
64.40722496931204
 30
0.0
 42
0.0126891984598699
  0
VERTEX
  5
20E3
330
20DA
100
AcDbEntity
  8
NOSNÉ KONSTRUKCE
100
AcDbVertex
100
AcDb2dVertex
 10
37.67242426908058
 20
65.33039336510348
 30
0.0
  0
SEQEND
  5
20E4
330
20DA
100
AcDbEntity
  8
NOSNÉ KONSTRUKCE
  0
LWPOLYLINE
  5
20E5
330
1F
100
AcDbEntity
  8
NOSNÉ KONSTRUKCE
100
AcDbPolyline
 90
        7
 70
     0
 43
0.0
 10
29.14029007842043
 20
60.81562488542232
 42
0.0203924744732807
 10
30.15342010757456
 20
61.71770886983114
 42
0.0273961979096945
 10
30.94159648160064
 20
62.56757322002641
 42
0.0243529190212958
 10
31.81535582626827
 20
63.73069371244611
 42
0.0398020282482987
 10
32.25498456971479
 20
64.50565225000656
 42
0.104168275620852
 10
32.34500102989193
 20
64.89206338634659
 42
0.007272956268647
 10
32.36345438118667
 20
65.3303933651053
 42
0.007272956268647
  0
LWPOLYLINE
  5
20E6
330
1F
100
AcDbEntity
  8
NOSNÉ KONSTRUKCE
100
AcDbPolyline
 90
        3
 70
     0
 43
0.0
 10
34.6576207739389
 20
58.62199590740175
 10
43.0413616419072
 20
41.86677828767398
 10
51.22266334300445
 20
33.69967363854931
  0
LWPOLYLINE
  5
20E7
330
1F
100
AcDbEntity
  8
NOSNÉ KONSTRUKCE
100
AcDbPolyline
 90
        3
 70
     0
 43
0.0
 10
35.6394596476756
 20
39.32941828215672
 10
44.85548869819547
 20
19.3331658501641
 10
45.50088617353765
 20
15.33322821644952
  0
LINE
  5
20E8
330
1F
100
AcDbEntity
  8
SPOJOVACÍ
  6
DASHED
100
AcDbLine
 10
50.61482365494964
 20
9.172696881059266
 30
0.0
 11
50.61482365494964
 21
61.85221363457213
 31
0.0
  0
LINE
  5
20E9
330
1F
100
AcDbEntity
  8
SPOJOVACÍ
  6
DASHED
100
AcDbLine
 10
52.42935257840952
 20
-26.26992103196215
 30
0.0
 11
52.42935257842407
 21
60.70617069605515
 31
0.0
  0
LINE
  5
20EA
330
1F
100
AcDbEntity
  8
SPOJOVACÍ
  6
DASHDOT2
100
AcDbLine
 10
54.14029007842043
 20
53.72129234852883
 30
0.0
 11
54.14029007842043
 21
-49.57231659725465
 31
0.0
  0
LWPOLYLINE
  5
20EB
330
1F
100
AcDbEntity
  8
NOSNÉ KONSTRUKCE
100
AcDbPolyline
 90
        4
 70
     0
 43
0.0
 10
39.34012024931587
 20
15.33039336510529
 42
0.006788460145482
 10
49.46898326088637
 20
17.32623665615148
 42
0.0219777111230329
 10
52.98709651672186
 20
18.23234915813492
 42
0.1401208794308004
 10
79.14029007842043
 20
45.99830404536743
  0
LWPOLYLINE
  5
20EC
330
1F
100
AcDbEntity
  8
NOSNÉ KONSTRUKCE
100
AcDbPolyline
 90
        2
 70
     0
 43
0.0
 10
67.41972151546076
 20
15.33039336510529
 42
0.0463617997943816
 10
79.11076662731364
 20
25.41974522078209
  0
LWPOLYLINE
  5
20ED
330
1F
100
AcDbEntity
  8
NOSNÉ KONSTRUKCE
100
AcDbPolyline
 90
        2
 70
     0
 43
0.0
 10
60.14326012754543
 20
18.11624637323012
 10
61.5372061953575
 20
15.33039336510529
  0
LINE
  5
20EE
330
1F
100
AcDbEntity
  8
SPOJOVACÍ
  6
CIKCAK
 48
0.25
100
AcDbLine
 10
57.66575650189486
 20
9.172696881055628
 30
0.0
 11
57.66575650189486
 21
-34.13399245023418
 31
0.0
  0
LINE
  5
20EF
330
1F
100
AcDbEntity
  8
SPOJOVACÍ
  6
Continuous
100
AcDbLine
 10
56.98636640133997
 20
-20.84591327011975
 30
0.0
 11
56.5384954734335
 21
-20.39693921423048
 31
0.0
  0
LINE
  5
20F0
330
1F
100
AcDbEntity
  8
SPOJOVACÍ
  6
Continuous
100
AcDbLine
 10
56.5384954734335
 20
-20.39693921423048
 30
0.0
 11
51.74208467823053
 21
-22.00971579747664
 31
0.0
  0
LINE
  5
20F1
330
1F
100
AcDbEntity
  8
SPOJOVACÍ
  6
Continuous
100
AcDbLine
 10
56.98636640133997
 20
-17.44992335586965
 30
0.0
 11
51.29421375550089
 21
-18.87296151732761
 31
0.0
  0
LINE
  5
20F2
330
1F
100
AcDbEntity
  8
SPOJOVACÍ
  6
Continuous
100
AcDbLine
 10
56.98636640133997
 20
-17.44992335586965
 30
0.0
 11
56.5384954734335
 21
-17.70805585940496
 31
0.0
  0
LINE
  5
20F3
330
1F
100
AcDbEntity
  8
SPOJOVACÍ
  6
Continuous
100
AcDbLine
 10
56.98636640133997
 20
-17.44992335586965
 30
0.0
 11
56.5384954734335
 21
-17.00094929998039
 31
0.0
  0
LINE
  5
20F4
330
1F
100
AcDbEntity
  8
SPOJOVACÍ
  6
Continuous
100
AcDbLine
 10
51.29421375550089
 20
-18.87296151732761
 30
0.0
 11
51.74208467823053
 21
-19.32083244264748
 31
0.0
  0
LINE
  5
20F5
330
1F
100
AcDbEntity
  8
SPOJOVACÍ
  6
Continuous
100
AcDbLine
 10
51.29421375550089
 20
-18.87296151732761
 30
0.0
 11
51.74208467823053
 21
-18.61372588322655
 31
0.0
  0
LINE
  5
20F6
330
1F
100
AcDbEntity
  8
SPOJOVACÍ
  6
Continuous
100
AcDbLine
 10
56.5384954734335
 20
-17.70805585940496
 30
0.0
 11
51.74208467823053
 21
-19.32083244264748
 31
0.0
  0
LINE
  5
20F7
330
1F
100
AcDbEntity
  8
SPOJOVACÍ
  6
Continuous
100
AcDbLine
 10
56.5384954734335
 20
-17.00094929998039
 30
0.0
 11
51.74208467823053
 21
-18.61372588322655
 31
0.0
  0
LINE
  5
20F8
330
1F
100
AcDbEntity
  8
SPOJOVACÍ
  6
Continuous
100
AcDbLine
 10
56.98636640133997
 20
-14.05393344161956
 30
0.0
 11
51.29421375550089
 21
-15.47697160307751
 31
0.0
  0
LINE
  5
20F9
330
1F
100
AcDbEntity
  8
SPOJOVACÍ
  6
Continuous
100
AcDbLine
 10
56.98636640133997
 20
-14.05393344161956
 30
0.0
 11
56.5384954734335
 21
-14.31206594515487
 31
0.0
  0
LINE
  5
20FA
330
1F
100
AcDbEntity
  8
SPOJOVACÍ
  6
Continuous
100
AcDbLine
 10
56.98636640133997
 20
-14.05393344161956
 30
0.0
 11
56.5384954734335
 21
-13.60495938573029
 31
0.0
  0
LINE
  5
20FB
330
1F
100
AcDbEntity
  8
SPOJOVACÍ
  6
Continuous
100
AcDbLine
 10
51.29421375550089
 20
-15.47697160307751
 30
0.0
 11
51.74208467823053
 21
-15.92484252839739
 31
0.0
  0
LINE
  5
20FC
330
1F
100
AcDbEntity
  8
SPOJOVACÍ
  6
Continuous
100
AcDbLine
 10
51.29421375550089
 20
-15.47697160307751
 30
0.0
 11
51.74208467823053
 21
-15.21773596897645
 31
0.0
  0
LINE
  5
20FD
330
1F
100
AcDbEntity
  8
SPOJOVACÍ
  6
Continuous
100
AcDbLine
 10
56.5384954734335
 20
-14.31206594515487
 30
0.0
 11
51.74208467823053
 21
-15.92484252839739
 31
0.0
  0
LINE
  5
20FE
330
1F
100
AcDbEntity
  8
SPOJOVACÍ
  6
Continuous
100
AcDbLine
 10
56.5384954734335
 20
-13.60495938573029
 30
0.0
 11
51.74208467823053
 21
-15.21773596897645
 31
0.0
  0
LINE
  5
20FF
330
1F
100
AcDbEntity
  8
SPOJOVACÍ
  6
CIKCAK
 48
0.25
100
AcDbLine
 10
50.61482365494964
 20
9.172696881055628
 30
0.0
 11
50.61482365494601
 21
-34.13399245023055
 31
0.0
  0
LINE
  5
2100
330
1F
100
AcDbEntity
  8
SPOJOVACÍ
  6
Continuous
100
AcDbLine
 10
56.98636640133997
 20
-3.865963698869279
 30
0.0
 11
56.5384954734335
 21
-3.416989642980013
 31
0.0
  0
LINE
  5
2101
330
1F
100
AcDbEntity
  8
SPOJOVACÍ
  6
Continuous
100
AcDbLine
 10
56.5384954734335
 20
-3.416989642980013
 30
0.0
 11
51.74208467823053
 21
-5.029766226226172
 31
0.0
  0
LINE
  5
2102
330
1F
100
AcDbEntity
  8
SPOJOVACÍ
  6
Continuous
100
AcDbLine
 10
56.5384954734335
 20
3.374990185520175
 30
0.0
 11
51.74208467823053
 21
1.762213602274016
 31
0.0
  0
LINE
  5
2103
330
1F
100
AcDbEntity
  8
SPOJOVACÍ
  6
Continuous
100
AcDbLine
 10
56.5384954734335
 20
2.667883626095601
 30
0.0
 11
51.74208467823053
 21
1.05510704285308
 31
0.0
  0
LINE
  5
2104
330
1F
100
AcDbEntity
  8
SPOJOVACÍ
  6
Continuous
100
AcDbLine
 10
51.29421375550089
 20
1.502977968172956
 30
0.0
 11
51.74208467823053
 21
1.762213602274016
 31
0.0
  0
LINE
  5
2105
330
1F
100
AcDbEntity
  8
SPOJOVACÍ
  6
Continuous
100
AcDbLine
 10
51.29421375550089
 20
1.502977968172956
 30
0.0
 11
51.74208467823053
 21
1.05510704285308
 31
0.0
  0
LINE
  5
2106
330
1F
100
AcDbEntity
  8
SPOJOVACÍ
  6
Continuous
100
AcDbLine
 10
56.98636640133997
 20
2.926016129630909
 30
0.0
 11
56.5384954734335
 21
3.374990185520175
 31
0.0
  0
LINE
  5
2107
330
1F
100
AcDbEntity
  8
SPOJOVACÍ
  6
Continuous
100
AcDbLine
 10
56.98636640133997
 20
2.926016129630909
 30
0.0
 11
56.5384954734335
 21
2.667883626095601
 31
0.0
  0
LINE
  5
2108
330
1F
100
AcDbEntity
  8
SPOJOVACÍ
  6
Continuous
100
AcDbLine
 10
56.98636640133997
 20
2.926016129630909
 30
0.0
 11
51.29421375550089
 21
1.502977968172956
 31
0.0
  0
LINE
  5
2109
330
1F
100
AcDbEntity
  8
SPOJOVACÍ
  6
Continuous
100
AcDbLine
 10
56.5384954734335
 20
-0.0209997287299189
 30
0.0
 11
51.74208467823053
 21
-1.633776311976077
 31
0.0
  0
LINE
  5
210A
330
1F
100
AcDbEntity
  8
SPOJOVACÍ
  6
Continuous
100
AcDbLine
 10
56.5384954734335
 20
-0.7281062881544927
 30
0.0
 11
51.74208467823053
 21
-2.340882871397013
 31
0.0
  0
LINE
  5
210B
330
1F
100
AcDbEntity
  8
SPOJOVACÍ
  6
Continuous
100
AcDbLine
 10
51.29421375550089
 20
-1.893011946077137
 30
0.0
 11
51.74208467823053
 21
-1.633776311976077
 31
0.0
  0
LINE
  5
210C
330
1F
100
AcDbEntity
  8
SPOJOVACÍ
  6
Continuous
100
AcDbLine
 10
51.29421375550089
 20
-1.893011946077137
 30
0.0
 11
51.74208467823053
 21
-2.340882871397013
 31
0.0
  0
LINE
  5
210D
330
1F
100
AcDbEntity
  8
SPOJOVACÍ
  6
Continuous
100
AcDbLine
 10
56.98636640133997
 20
-0.4699737846191852
 30
0.0
 11
56.5384954734335
 21
-0.0209997287299189
 31
0.0
  0
LINE
  5
210E
330
1F
100
AcDbEntity
  8
SPOJOVACÍ
  6
Continuous
100
AcDbLine
 10
56.98636640133997
 20
-0.4699737846191852
 30
0.0
 11
56.5384954734335
 21
-0.7281062881544927
 31
0.0
  0
LINE
  5
210F
330
1F
100
AcDbEntity
  8
SPOJOVACÍ
  6
Continuous
100
AcDbLine
 10
56.98636640133997
 20
-0.4699737846191852
 30
0.0
 11
51.29421375550089
 21
-1.893011946077137
 31
0.0
  0
LINE
  5
2110
330
1F
100
AcDbEntity
  8
SPOJOVACÍ
  6
Continuous
100
AcDbLine
 10
56.98636640133997
 20
-10.65794352736946
 30
0.0
 11
51.29421375550089
 21
-12.08098168882742
 31
0.0
  0
LINE
  5
2111
330
1F
100
AcDbEntity
  8
SPOJOVACÍ
  6
Continuous
100
AcDbLine
 10
56.98636640133997
 20
-10.65794352736946
 30
0.0
 11
56.5384954734335
 21
-10.91607603090477
 31
0.0
  0
LINE
  5
2112
330
1F
100
AcDbEntity
  8
SPOJOVACÍ
  6
Continuous
100
AcDbLine
 10
56.98636640133997
 20
-10.65794352736946
 30
0.0
 11
56.5384954734335
 21
-10.2089694714802
 31
0.0
  0
LINE
  5
2113
330
1F
100
AcDbEntity
  8
SPOJOVACÍ
  6
Continuous
100
AcDbLine
 10
51.29421375550089
 20
-12.08098168882742
 30
0.0
 11
51.74208467823053
 21
-12.52885261414729
 31
0.0
  0
LINE
  5
2114
330
1F
100
AcDbEntity
  8
SPOJOVACÍ
  6
Continuous
100
AcDbLine
 10
51.29421375550089
 20
-12.08098168882742
 30
0.0
 11
51.74208467823053
 21
-11.82174605472636
 31
0.0
  0
LINE
  5
2115
330
1F
100
AcDbEntity
  8
SPOJOVACÍ
  6
Continuous
100
AcDbLine
 10
56.5384954734335
 20
-10.91607603090477
 30
0.0
 11
51.74208467823053
 21
-12.52885261414729
 31
0.0
  0
LINE
  5
2116
330
1F
100
AcDbEntity
  8
SPOJOVACÍ
  6
Continuous
100
AcDbLine
 10
56.5384954734335
 20
-10.2089694714802
 30
0.0
 11
51.74208467823053
 21
-11.82174605472636
 31
0.0
  0
LINE
  5
2117
330
1F
100
AcDbEntity
  8
SPOJOVACÍ
  6
Continuous
100
AcDbLine
 10
56.98636640133997
 20
-7.261953613119374
 30
0.0
 11
51.29421375550089
 21
-8.684991774577326
 31
0.0
  0
LINE
  5
2118
330
1F
100
AcDbEntity
  8
SPOJOVACÍ
  6
Continuous
100
AcDbLine
 10
56.98636640133997
 20
-7.261953613119374
 30
0.0
 11
56.5384954734335
 21
-7.520086116654681
 31
0.0
  0
LINE
  5
2119
330
1F
100
AcDbEntity
  8
SPOJOVACÍ
  6
Continuous
100
AcDbLine
 10
56.98636640133997
 20
-7.261953613119374
 30
0.0
 11
56.5384954734335
 21
-6.812979557230107
 31
0.0
  0
LINE
  5
211A
330
1F
100
AcDbEntity
  8
SPOJOVACÍ
  6
Continuous
100
AcDbLine
 10
51.29421375550089
 20
-8.684991774577326
 30
0.0
 11
51.74208467823053
 21
-9.132862699897202
 31
0.0
  0
LINE
  5
211B
330
1F
100
AcDbEntity
  8
SPOJOVACÍ
  6
Continuous
100
AcDbLine
 10
51.29421375550089
 20
-8.684991774577326
 30
0.0
 11
51.74208467823053
 21
-8.425756140476266
 31
0.0
  0
LINE
  5
211C
330
1F
100
AcDbEntity
  8
SPOJOVACÍ
  6
Continuous
100
AcDbLine
 10
56.5384954734335
 20
-7.520086116654681
 30
0.0
 11
51.74208467823053
 21
-9.132862699897202
 31
0.0
  0
LINE
  5
211D
330
1F
100
AcDbEntity
  8
SPOJOVACÍ
  6
Continuous
100
AcDbLine
 10
56.5384954734335
 20
-6.812979557230107
 30
0.0
 11
51.74208467823053
 21
-8.425756140476266
 31
0.0
  0
LINE
  5
211E
330
1F
100
AcDbEntity
  8
SPOJOVACÍ
  6
Continuous
100
AcDbLine
 10
56.98636640133997
 20
-3.865963698869279
 30
0.0
 11
51.29421375550089
 21
-5.289001860327232
 31
0.0
  0
LINE
  5
211F
330
1F
100
AcDbEntity
  8
SPOJOVACÍ
  6
Continuous
100
AcDbLine
 10
56.98636640133997
 20
-3.865963698869279
 30
0.0
 11
56.5384954734335
 21
-4.124096202404587
 31
0.0
  0
LINE
  5
2120
330
1F
100
AcDbEntity
  8
SPOJOVACÍ
  6
Continuous
100
AcDbLine
 10
51.29421375550089
 20
-5.289001860327232
 30
0.0
 11
51.74208467823053
 21
-5.736872785647108
 31
0.0
  0
LINE
  5
2121
330
1F
100
AcDbEntity
  8
SPOJOVACÍ
  6
Continuous
100
AcDbLine
 10
51.29421375550089
 20
-5.289001860327232
 30
0.0
 11
51.74208467823053
 21
-5.029766226226172
 31
0.0
  0
LINE
  5
2122
330
1F
100
AcDbEntity
  8
SPOJOVACÍ
  6
Continuous
100
AcDbLine
 10
56.5384954734335
 20
-4.124096202404587
 30
0.0
 11
51.74208467823053
 21
-5.736872785647108
 31
0.0
  0
LINE
  5
2123
330
1F
100
AcDbEntity
  8
SPOJOVACÍ
  6
Continuous
100
AcDbLine
 10
56.5384954734335
 20
10.16697001402036
 30
0.0
 11
51.74208467823053
 21
8.554193430774205
 31
0.0
  0
LINE
  5
2124
330
1F
100
AcDbEntity
  8
SPOJOVACÍ
  6
Continuous
100
AcDbLine
 10
56.5384954734335
 20
9.45986345459579
 30
0.0
 11
51.74208467823053
 21
7.847086871353269
 31
0.0
  0
LINE
  5
2125
330
1F
100
AcDbEntity
  8
SPOJOVACÍ
  6
Continuous
100
AcDbLine
 10
51.29421375550089
 20
8.294957796673145
 30
0.0
 11
51.74208467823053
 21
8.554193430774205
 31
0.0
  0
LINE
  5
2126
330
1F
100
AcDbEntity
  8
SPOJOVACÍ
  6
Continuous
100
AcDbLine
 10
51.29421375550089
 20
8.294957796673145
 30
0.0
 11
51.74208467823053
 21
7.847086871353269
 31
0.0
  0
LINE
  5
2127
330
1F
100
AcDbEntity
  8
SPOJOVACÍ
  6
Continuous
100
AcDbLine
 10
56.98636640133997
 20
9.717995958131098
 30
0.0
 11
56.5384954734335
 21
10.16697001402036
 31
0.0
  0
LINE
  5
2128
330
1F
100
AcDbEntity
  8
SPOJOVACÍ
  6
Continuous
100
AcDbLine
 10
56.98636640133997
 20
9.717995958131098
 30
0.0
 11
56.5384954734335
 21
9.45986345459579
 31
0.0
  0
LINE
  5
2129
330
1F
100
AcDbEntity
  8
SPOJOVACÍ
  6
Continuous
100
AcDbLine
 10
56.98636640133997
 20
9.717995958131098
 30
0.0
 11
51.29421375550089
 21
8.294957796673145
 31
0.0
  0
LINE
  5
212A
330
1F
100
AcDbEntity
  8
SPOJOVACÍ
  6
Continuous
100
AcDbLine
 10
56.5384954734335
 20
6.77098009977027
 30
0.0
 11
51.74208467823053
 21
5.15820351652411
 31
0.0
  0
LINE
  5
212B
330
1F
100
AcDbEntity
  8
SPOJOVACÍ
  6
Continuous
100
AcDbLine
 10
56.5384954734335
 20
6.063873540345696
 30
0.0
 11
51.74208467823053
 21
4.451096957103175
 31
0.0
  0
LINE
  5
212C
330
1F
100
AcDbEntity
  8
SPOJOVACÍ
  6
Continuous
100
AcDbLine
 10
51.29421375550089
 20
4.89896788242305
 30
0.0
 11
51.74208467823053
 21
5.15820351652411
 31
0.0
  0
LINE
  5
212D
330
1F
100
AcDbEntity
  8
SPOJOVACÍ
  6
Continuous
100
AcDbLine
 10
51.29421375550089
 20
4.89896788242305
 30
0.0
 11
51.74208467823053
 21
4.451096957103175
 31
0.0
  0
LINE
  5
212E
330
1F
100
AcDbEntity
  8
SPOJOVACÍ
  6
Continuous
100
AcDbLine
 10
56.98636640133997
 20
6.322006043881003
 30
0.0
 11
56.5384954734335
 21
6.77098009977027
 31
0.0
  0
LINE
  5
212F
330
1F
100
AcDbEntity
  8
SPOJOVACÍ
  6
Continuous
100
AcDbLine
 10
56.98636640133997
 20
6.322006043881003
 30
0.0
 11
56.5384954734335
 21
6.063873540345696
 31
0.0
  0
LINE
  5
2130
330
1F
100
AcDbEntity
  8
SPOJOVACÍ
  6
Continuous
100
AcDbLine
 10
56.98636640133997
 20
6.322006043881003
 30
0.0
 11
51.29421375550089
 21
4.89896788242305
 31
0.0
  0
LINE
  5
2131
330
1F
100
AcDbEntity
  8
SPOJOVACÍ
  6
Continuous
100
AcDbLine
 10
52.55753782488397
 20
-34.66603253247257
 30
0.0
 11
52.94699080117505
 21
-35.05644475470279
 31
0.0
  0
LINE
  5
2132
330
1F
100
AcDbEntity
  8
SPOJOVACÍ
  6
Continuous
100
AcDbLine
 10
55.38155153916602
 20
-34.23725055860512
 30
0.0
 11
52.94699080117505
 21
-35.05644475470279
 31
0.0
  0
LINE
  5
2133
330
1F
100
AcDbEntity
  8
SPOJOVACÍ
  6
Continuous
100
AcDbLine
 10
55.18874353728176
 20
-37.12073738969655
 30
0.0
 11
54.79929056099433
 21
-37.34615968021779
 31
0.0
  0
LINE
  5
2134
330
1F
100
AcDbEntity
  8
SPOJOVACÍ
  6
Continuous
100
AcDbLine
 10
55.18874353728176
 20
-37.12073738969655
 30
0.0
 11
54.79929056099433
 21
-36.73128441116086
 31
0.0
  0
LINE
  5
2135
330
1F
100
AcDbEntity
  8
SPOJOVACÍ
  6
Continuous
100
AcDbLine
 10
52.96713492265633
 20
-37.44112481533983
 30
0.0
 11
53.35658789894011
 21
-37.21666176850948
 31
0.0
  0
LINE
  5
2136
330
1F
100
AcDbEntity
  8
SPOJOVACÍ
  6
Continuous
100
AcDbLine
 10
54.79929056099433
 20
-36.73128441116086
 30
0.0
 11
53.35658789894011
 21
-37.21666176850948
 31
0.0
  0
LINE
  5
2137
330
1F
100
AcDbEntity
  8
SPOJOVACÍ
  6
Continuous
100
AcDbLine
 10
55.18874353728176
 20
-37.12073738969655
 30
0.0
 11
52.96713492265633
 21
-37.44112481533983
 31
0.0
  0
LINE
  5
2138
330
1F
100
AcDbEntity
  8
SPOJOVACÍ
  6
Continuous
100
AcDbLine
 10
56.98636640133997
 20
-27.63789309861994
 30
0.0
 11
51.29421375550089
 21
-29.06093126007789
 31
0.0
  0
LINE
  5
2139
330
1F
100
AcDbEntity
  8
SPOJOVACÍ
  6
Continuous
100
AcDbLine
 10
56.98636640133997
 20
-27.63789309861994
 30
0.0
 11
56.5384954734335
 21
-27.89602560215524
 31
0.0
  0
LINE
  5
213A
330
1F
100
AcDbEntity
  8
SPOJOVACÍ
  6
Continuous
100
AcDbLine
 10
56.35326549812532
 20
-30.90387839043495
 30
0.0
 11
55.96285327645898
 21
-31.12930068096346
 31
0.0
  0
LINE
  5
213B
330
1F
100
AcDbEntity
  8
SPOJOVACÍ
  6
Continuous
100
AcDbLine
 10
56.35326549812532
 20
-30.90387839043495
 30
0.0
 11
55.96285327645898
 21
-30.51442541189561
 31
0.0
  0
LINE
  5
213C
330
1F
100
AcDbEntity
  8
SPOJOVACÍ
  6
Continuous
100
AcDbLine
 10
52.09901929373597
 20
-31.90724739406386
 30
0.0
 11
52.4884722700234
 21
-32.29765961657784
 31
0.0
  0
LINE
  5
213D
330
1F
100
AcDbEntity
  8
SPOJOVACÍ
  6
Continuous
100
AcDbLine
 10
52.09901929373597
 20
-31.90724739406386
 30
0.0
 11
52.4884722700234
 21
-31.68278434751363
 31
0.0
  0
LINE
  5
213E
330
1F
100
AcDbEntity
  8
SPOJOVACÍ
  6
Continuous
100
AcDbLine
 10
55.96285327645898
 20
-31.12930068096346
 30
0.0
 11
52.4884722700234
 21
-32.29765961657784
 31
0.0
  0
LINE
  5
213F
330
1F
100
AcDbEntity
  8
SPOJOVACÍ
  6
Continuous
100
AcDbLine
 10
55.96285327645898
 20
-30.51442541189561
 30
0.0
 11
52.4884722700234
 21
-31.68278434751363
 31
0.0
  0
LINE
  5
2140
330
1F
100
AcDbEntity
  8
SPOJOVACÍ
  6
Continuous
100
AcDbLine
 10
56.35326549812532
 20
-30.90387839043495
 30
0.0
 11
52.09901929373597
 21
-31.90724739406386
 31
0.0
  0
LINE
  5
2141
330
1F
100
AcDbEntity
  8
SPOJOVACÍ
  6
Continuous
100
AcDbLine
 10
51.29421375550089
 20
-29.06093126007789
 30
0.0
 11
51.74208467823053
 21
-29.50880218539777
 31
0.0
  0
LINE
  5
2142
330
1F
100
AcDbEntity
  8
SPOJOVACÍ
  6
Continuous
100
AcDbLine
 10
51.29421375550089
 20
-29.06093126007789
 30
0.0
 11
51.74208467823053
 21
-28.80169562597683
 31
0.0
  0
LINE
  5
2143
330
1F
100
AcDbEntity
  8
SPOJOVACÍ
  6
Continuous
100
AcDbLine
 10
56.5384954734335
 20
-27.89602560215524
 30
0.0
 11
51.74208467823053
 21
-29.50880218539777
 31
0.0
  0
LINE
  5
2144
330
1F
100
AcDbEntity
  8
SPOJOVACÍ
  6
Continuous
100
AcDbLine
 10
55.77100451995727
 20
-34.0127875120549
 30
0.0
 11
55.38155153916602
 21
-34.23725055860512
 31
0.0
  0
LINE
  5
2145
330
1F
100
AcDbEntity
  8
SPOJOVACÍ
  6
Continuous
100
AcDbLine
 10
55.77100451995727
 20
-34.0127875120549
 30
0.0
 11
55.38155153916602
 21
-33.62237528954091
 31
0.0
  0
LINE
  5
2146
330
1F
100
AcDbEntity
  8
SPOJOVACÍ
  6
Continuous
100
AcDbLine
 10
52.55753782488397
 20
-34.66603253247257
 30
0.0
 11
52.94699080117505
 21
-34.44156948592598
 31
0.0
  0
LINE
  5
2147
330
1F
100
AcDbEntity
  8
SPOJOVACÍ
  6
Continuous
100
AcDbLine
 10
55.38155153916602
 20
-33.62237528954091
 30
0.0
 11
52.94699080117505
 21
-34.44156948592598
 31
0.0
  0
LINE
  5
2148
330
1F
100
AcDbEntity
  8
SPOJOVACÍ
  6
Continuous
100
AcDbLine
 10
55.77100451995727
 20
-34.0127875120549
 30
0.0
 11
52.55753782488397
 21
-34.66603253247257
 31
0.0
  0
LINE
  5
2149
330
1F
100
AcDbEntity
  8
SPOJOVACÍ
  6
Continuous
100
AcDbLine
 10
56.98636640133997
 20
-27.63789309861994
 30
0.0
 11
56.5384954734335
 21
-27.18891904273067
 31
0.0
  0
LINE
  5
214A
330
1F
100
AcDbEntity
  8
SPOJOVACÍ
  6
Continuous
100
AcDbLine
 10
56.5384954734335
 20
-27.18891904273067
 30
0.0
 11
51.74208467823053
 21
-28.80169562597683
 31
0.0
  0
LINE
  5
214B
330
1F
100
AcDbEntity
  8
SPOJOVACÍ
  6
Continuous
100
AcDbLine
 10
56.5384954734335
 20
-23.79292912848057
 30
0.0
 11
51.74208467823053
 21
-25.40570571172674
 31
0.0
  0
LINE
  5
214C
330
1F
100
AcDbEntity
  8
SPOJOVACÍ
  6
Continuous
100
AcDbLine
 10
56.5384954734335
 20
-24.50003568790515
 30
0.0
 11
51.74208467823053
 21
-26.11281227114767
 31
0.0
  0
LINE
  5
214D
330
1F
100
AcDbEntity
  8
SPOJOVACÍ
  6
Continuous
100
AcDbLine
 10
51.29421375550089
 20
-25.6649413458278
 30
0.0
 11
51.74208467823053
 21
-25.40570571172674
 31
0.0
  0
LINE
  5
214E
330
1F
100
AcDbEntity
  8
SPOJOVACÍ
  6
Continuous
100
AcDbLine
 10
51.29421375550089
 20
-25.6649413458278
 30
0.0
 11
51.74208467823053
 21
-26.11281227114767
 31
0.0
  0
LINE
  5
214F
330
1F
100
AcDbEntity
  8
SPOJOVACÍ
  6
Continuous
100
AcDbLine
 10
56.98636640133997
 20
-24.24190318436984
 30
0.0
 11
56.5384954734335
 21
-23.79292912848057
 31
0.0
  0
LINE
  5
2150
330
1F
100
AcDbEntity
  8
SPOJOVACÍ
  6
Continuous
100
AcDbLine
 10
56.98636640133997
 20
-24.24190318436984
 30
0.0
 11
56.5384954734335
 21
-24.50003568790515
 31
0.0
  0
LINE
  5
2151
330
1F
100
AcDbEntity
  8
SPOJOVACÍ
  6
Continuous
100
AcDbLine
 10
56.98636640133997
 20
-24.24190318436984
 30
0.0
 11
51.29421375550089
 21
-25.6649413458278
 31
0.0
  0
LINE
  5
2152
330
1F
100
AcDbEntity
  8
SPOJOVACÍ
  6
Continuous
100
AcDbLine
 10
56.98636640133997
 20
-20.84591327011975
 30
0.0
 11
51.29421375550089
 21
-22.2689514315777
 31
0.0
  0
LINE
  5
2153
330
1F
100
AcDbEntity
  8
SPOJOVACÍ
  6
Continuous
100
AcDbLine
 10
56.98636640133997
 20
-20.84591327011975
 30
0.0
 11
56.5384954734335
 21
-21.10404577365506
 31
0.0
  0
LINE
  5
2154
330
1F
100
AcDbEntity
  8
SPOJOVACÍ
  6
Continuous
100
AcDbLine
 10
51.29421375550089
 20
-22.2689514315777
 30
0.0
 11
51.74208467823053
 21
-22.71682235689758
 31
0.0
  0
LINE
  5
2155
330
1F
100
AcDbEntity
  8
SPOJOVACÍ
  6
Continuous
100
AcDbLine
 10
51.29421375550089
 20
-22.2689514315777
 30
0.0
 11
51.74208467823053
 21
-22.00971579747664
 31
0.0
  0
LINE
  5
2156
330
1F
100
AcDbEntity
  8
SPOJOVACÍ
  6
Continuous
100
AcDbLine
 10
56.5384954734335
 20
-21.10404577365506
 30
0.0
 11
51.74208467823053
 21
-22.71682235689758
 31
0.0
  0
TEXT
  5
2157
330
1F
100
AcDbEntity
  8
POPIS
100
AcDbText
 10
436.7824043287627
 20
195.8152988669283
 30
0.0
 40
25.0
  1
05
 41
0.85
  7
SIMPLEX7
100
AcDbText
  0
TEXT
  5
2158
330
1F
100
AcDbEntity
  8
POPIS
100
AcDbText
 10
-105.3258177924063
 20
461.8470953861681
 30
0.0
 40
35.0
  1
SVISLÝ ŘEZ
 41
0.85
  7
SIMPLEX7
100
AcDbText
  0
TEXT
  5
2159
330
1F
100
AcDbEntity
  8
POPIS
100
AcDbText
 10
-105.3258177924063
 20
516.4718384119689
 30
0.0
 40
50.0
  1
Návaznost příčky na montovanou podlahu
 41
0.85
  7
SIMPLEX7
100
AcDbText
  0
TEXT
  5
215A
330
1F
100
AcDbEntity
  8
POPIS
100
AcDbText
 10
436.7824043287627
 20
335.6499314847263
 30
0.0
 40
25.0
  1
01
 41
0.85
  7
SIMPLEX7
100
AcDbText
  0
TEXT
  5
215B
330
1F
100
AcDbEntity
  8
POPIS
100
AcDbText
 10
491.1261074885049
 20
335.6499314847263
 30
0.0
 40
25.0
  1
Deska CETRIS   
 41
0.7
  7
SIMPLEX7
100
AcDbText
  0
TEXT
  5
215C
330
1F
100
AcDbEntity
  8
POPIS
100
AcDbText
 10
436.7824043287627
 20
299.054919869099
 30
0.0
 40
25.0
  1
02
 41
0.85
  7
SIMPLEX7
100
AcDbText
  0
TEXT
  5
215D
330
1F
100
AcDbEntity
  8
POPIS
100
AcDbText
 10
491.1261074885049
 20
299.054919869099
 30
0.0
 40
25.0
  1
Vrut Bűhnen 4,2x35 (45,55) mm
 41
0.7
  7
SIMPLEX7
100
AcDbText
  0
TEXT
  5
215E
330
1F
100
AcDbEntity
  8
POPIS
100
AcDbText
 10
436.7824043287627
 20
265.1047316243769
 30
0.0
 40
25.0
  1
03
 41
0.85
  7
SIMPLEX7
100
AcDbText
  0
TEXT
  5
215F
330
1F
100
AcDbEntity
  8
POPIS
100
AcDbText
 10
491.1261074885049
 20
265.1047316243769
 30
0.0
 40
25.0
  1
Tepelná izolace 
 41
0.7
  7
SIMPLEX7
100
AcDbText
  0
TEXT
  5
2160
330
1F
100
AcDbEntity
  8
POPIS
100
AcDbText
 10
436.7824043287627
 20
229.7005704062142
 30
0.0
 40
25.0
  1
04
 41
0.85
  7
SIMPLEX7
100
AcDbText
  0
TEXT
  5
2161
330
1F
100
AcDbEntity
  8
POPIS
100
AcDbText
 10
491.1261074885049
 20
229.7005704062142
 30
0.0
 40
25.0
  1
Vodorovný dřevěný hranolek 80/50 (50/50)
 41
0.7
  7
SIMPLEX7
100
AcDbText
  0
TEXT
  5
2162
330
1F
100
AcDbEntity
  8
POPIS
100
AcDbText
 10
491.1261074885049
 20
195.2356268572805
 30
0.0
 40
25.0
  1
Dilatace - pásek tl. 15 mm
 41
0.7
  7
SIMPLEX7
100
AcDbText
  0
TEXT
  5
2163
330
1F
100
AcDbEntity
  8
POPIS
100
AcDbText
 10
436.7824043287627
 20
160.5270410781743
 30
0.0
 40
25.0
  1
06
 41
0.85
  7
SIMPLEX7
100
AcDbText
  0
TEXT
  5
2164
330
1F
100
AcDbEntity
  8
POPIS
100
AcDbText
 10
658.7522927275503
 20
360.6252415930069
 30
0.0
 40
12.0
  1
R
 41
0.85
  7
SIMPLEX7
100
AcDbText
  0
CIRCLE
  5
2165
330
1F
100
AcDbEntity
  8
POPIS
100
AcDbCircle
 10
663.5113217827319
 20
366.1705873379945
 30
0.0
 40
11.13656048292026
  0
TEXT
  5
2166
330
1F
100
AcDbEntity
  8
POPIS
100
AcDbText
 10
436.7824043287627
 20
127.8209481492488
 30
0.0
 40
25.0
  1
07
 41
0.85
  7
SIMPLEX7
100
AcDbText
  0
TEXT
  5
2167
330
1F
100
AcDbEntity
  8
POPIS
100
AcDbText
 10
491.1261074885049
 20
161.7558754251516
 30
0.0
 40
25.0
  1
Těsnící podložka
 41
0.7
  7
SIMPLEX7
100
AcDbText
  0
TEXT
  5
2168
330
1F
100
AcDbEntity
  8
POPIS
100
AcDbText
 10
491.1261074885049
 20
127.8170359542821
 30
0.0
 40
25.0
  1
Přikotvení - hmoždinka
 41
0.7
  7
SIMPLEX7
100
AcDbText
  0
LINE
  5
2169
330
1F
100
AcDbEntity
  8
SPOJOVACÍ
  6
Continuous
100
AcDbLine
 10
56.98636639875338
 20
9.717995957261621
 30
0.0
 11
51.29421375291065
 21
8.294957795803668
 31
0.0
  0
LINE
  5
216A
330
1F
100
AcDbEntity
  8
SPOJOVACÍ
  6
Continuous
100
AcDbLine
 10
56.98636639875338
 20
9.717995957261621
 30
0.0
 11
56.53849547084689
 21
9.459863453726313
 31
0.0
  0
LINE
  5
216B
330
1F
100
AcDbEntity
  8
SPOJOVACÍ
  6
Continuous
100
AcDbLine
 10
56.98636639875338
 20
9.717995957261621
 30
0.0
 11
56.53849547084689
 21
10.16697001315088
 31
0.0
  0
LINE
  5
216C
330
1F
100
AcDbEntity
  8
SPOJOVACÍ
  6
Continuous
100
AcDbLine
 10
51.29421375291065
 20
8.294957795803668
 30
0.0
 11
51.74208467564028
 21
7.847086870483792
 31
0.0
  0
LINE
  5
216D
330
1F
100
AcDbEntity
  8
SPOJOVACÍ
  6
Continuous
100
AcDbLine
 10
51.29421375291065
 20
8.294957795803668
 30
0.0
 11
51.74208467564028
 21
8.554193429904728
 31
0.0
  0
LINE
  5
216E
330
1F
100
AcDbEntity
  8
SPOJOVACÍ
  6
Continuous
100
AcDbLine
 10
56.53849547084689
 20
9.459863453726313
 30
0.0
 11
51.74208467564028
 21
7.847086870483792
 31
0.0
  0
LINE
  5
216F
330
1F
100
AcDbEntity
  8
SPOJOVACÍ
  6
Continuous
100
AcDbLine
 10
56.53849547084689
 20
10.16697001315088
 30
0.0
 11
51.74208467564028
 21
8.554193429904728
 31
0.0
  0
LINE
  5
2170
330
1F
100
AcDbEntity
  8
SPOJOVACÍ
  6
Continuous
100
AcDbLine
 10
56.98636639875338
 20
13.11398587151171
 30
0.0
 11
51.29421375291065
 21
11.69094771005376
 31
0.0
  0
LINE
  5
2171
330
1F
100
AcDbEntity
  8
SPOJOVACÍ
  6
Continuous
100
AcDbLine
 10
56.98636639875338
 20
13.11398587151171
 30
0.0
 11
56.53849547084689
 21
12.8558533679764
 31
0.0
  0
LINE
  5
2172
330
1F
100
AcDbEntity
  8
SPOJOVACÍ
  6
Continuous
100
AcDbLine
 10
56.98636639875338
 20
13.11398587151171
 30
0.0
 11
56.53849547084689
 21
13.56295992740098
 31
0.0
  0
LINE
  5
2173
330
1F
100
AcDbEntity
  8
SPOJOVACÍ
  6
Continuous
100
AcDbLine
 10
51.29421375291065
 20
11.69094771005376
 30
0.0
 11
51.74208467564028
 21
11.24307678473388
 31
0.0
  0
LINE
  5
2174
330
1F
100
AcDbEntity
  8
SPOJOVACÍ
  6
Continuous
100
AcDbLine
 10
51.29421375291065
 20
11.69094771005376
 30
0.0
 11
51.74208467564028
 21
11.95018334415482
 31
0.0
  0
LINE
  5
2175
330
1F
100
AcDbEntity
  8
SPOJOVACÍ
  6
Continuous
100
AcDbLine
 10
56.53849547084689
 20
12.8558533679764
 30
0.0
 11
51.74208467564028
 21
11.24307678473388
 31
0.0
  0
LINE
  5
2176
330
1F
100
AcDbEntity
  8
SPOJOVACÍ
  6
Continuous
100
AcDbLine
 10
56.53849547084689
 20
13.56295992740098
 30
0.0
 11
51.74208467564028
 21
11.95018334415482
 31
0.0
  0
LINE
  5
2177
330
1F
100
AcDbEntity
  8
SPOJOVACÍ
  6
Continuous
100
AcDbLine
 10
56.53849547084689
 20
6.770980098900793
 30
0.0
 11
51.74208467564028
 21
5.158203515654633
 31
0.0
  0
LINE
  5
2178
330
1F
100
AcDbEntity
  8
SPOJOVACÍ
  6
Continuous
100
AcDbLine
 10
56.53849547084689
 20
6.063873539476219
 30
0.0
 11
51.74208467564028
 21
4.451096956233698
 31
0.0
  0
LINE
  5
2179
330
1F
100
AcDbEntity
  8
SPOJOVACÍ
  6
Continuous
100
AcDbLine
 10
51.29421375291065
 20
4.898967881553573
 30
0.0
 11
51.74208467564028
 21
5.158203515654633
 31
0.0
  0
LINE
  5
217A
330
1F
100
AcDbEntity
  8
SPOJOVACÍ
  6
Continuous
100
AcDbLine
 10
51.29421375291065
 20
4.898967881553573
 30
0.0
 11
51.74208467564028
 21
4.451096956233698
 31
0.0
  0
LINE
  5
217B
330
1F
100
AcDbEntity
  8
SPOJOVACÍ
  6
Continuous
100
AcDbLine
 10
56.98636639875338
 20
6.322006043011526
 30
0.0
 11
56.53849547084689
 21
6.770980098900793
 31
0.0
  0
LINE
  5
217C
330
1F
100
AcDbEntity
  8
SPOJOVACÍ
  6
Continuous
100
AcDbLine
 10
56.98636639875338
 20
6.322006043011526
 30
0.0
 11
56.53849547084689
 21
6.063873539476219
 31
0.0
  0
LINE
  5
217D
330
1F
100
AcDbEntity
  8
SPOJOVACÍ
  6
Continuous
100
AcDbLine
 10
56.98636639875338
 20
6.322006043011526
 30
0.0
 11
51.29421375291065
 21
4.898967881553573
 31
0.0
  0
LINE
  5
217E
330
1F
100
AcDbEntity
  8
CETRIS
100
AcDbLine
 10
28.16798357122832
 20
16.90104697343241
 30
0.0
 11
28.16798357122832
 21
347.2171583893035
 31
0.0
  0
LINE
  5
217F
330
1F
100
AcDbEntity
  8
CETRIS
100
AcDbLine
 10
16.16798357123195
 20
16.90104697343241
 30
0.0
 11
16.16798357123195
 21
345.0069971110045
 31
0.0
  0
LINE
  5
2180
330
1F
100
AcDbEntity
  8
CETRIS
100
AcDbLine
 10
91.40023785597884
 20
16.90104697343605
 30
0.0
 11
91.4002378559752
 21
358.8632817192822
 31
0.0
  0
LINE
  5
2181
330
1F
100
AcDbEntity
  8
CETRIS
100
AcDbLine
 10
79.40023785597884
 20
16.90104697343241
 30
0.0
 11
79.40023785597884
 21
356.6531204409823
 31
0.0
  0
LINE
  5
2182
330
1F
100
AcDbEntity
  8
izolace
100
AcDbLine
 10
78.63500229428325
 20
15.33039336510529
 30
0.0
 11
28.63069426638037
 21
15.33039336510529
 31
0.0
  0
LINE
  5
2183
330
1F
100
AcDbEntity
  8
izolace
100
AcDbLine
 10
78.63500229428325
 20
13.33039336510893
 30
0.0
 11
28.63069426638037
 21
13.33039336510165
 31
0.0
  0
LWPOLYLINE
  5
2184
330
1F
100
AcDbEntity
  8
izolace
100
AcDbPolyline
 90
        4
 70
     1
 43
0.0
 10
34.43104633582777
 20
13.33039336510165
 10
34.43104633582777
 20
15.33039336510529
 10
46.93212334280258
 20
15.33039336510529
 10
46.93212334280258
 20
13.33039336510165
  0
LWPOLYLINE
  5
2185
330
1F
100
AcDbEntity
  8
izolace
100
AcDbPolyline
 90
        4
 70
     1
 43
0.0
 10
59.43320034977739
 20
13.33039336510165
 10
59.43320034977739
 20
15.33039336510529
 10
71.93427735675584
 20
15.33039336510529
 10
71.93427735675584
 20
13.33039336510165
  0
HATCH
  5
2186
330
1F
100
AcDbEntity
  8
izolace
100
AcDbHatch
 10
0.0
 20
0.0
 30
0.0
210
0.0
220
0.0
230
1.0
  2
SOLID
 70
     1
 71
     0
 91
        3
 92
        7
 72
     0
 73
     1
 93
        4
 10
78.63500229428325
 20
15.33039336510165
 10
78.63500229428325
 20
13.33039336510529
 10
71.93427735675584
 20
13.33039336510165
 10
71.93427735675584
 20
15.33039336510165
 97
        0
 92
        7
 72
     0
 73
     1
 93
        4
 10
59.43320034977739
 20
15.33039336510165
 10
59.43320034977739
 20
13.33039336510165
 10
46.93212334280258
 20
13.33039336510165
 10
46.93212334280258
 20
15.33039336510165
 97
        0
 92
        7
 72
     0
 73
     1
 93
        4
 10
34.43104633582777
 20
15.33039336510529
 10
34.43104633582777
 20
13.33039336509801
 10
28.63069426638037
 20
13.33039336510165
 10
28.63069426638037
 20
15.33039336510529
 97
        0
 75
     0
 76
     1
 47
0.0846398039763049
 98
        3
 10
73.76532630119334
 20
14.62409132006115
 10
57.09127289563628
 20
14.79347703571085
 10
33.89987623213244
 20
14.53945715446144
  0
LINE
  5
2187
330
1F
100
AcDbEntity
  8
SPOJOVACÍ
  6
DASHDOT2
100
AcDbLine
 10
54.14029007842043
 20
29.0393620095104
 30
0.0
 11
54.14029007842043
 21
-39.36639319945851
 31
0.0
  0
LINE
  5
2188
330
1F
100
AcDbEntity
  8
SPOJOVACÍ
  6
Continuous
100
AcDbLine
 10
56.35326549812532
 20
-30.90387839043495
 30
0.0
 11
55.96285327645898
 21
-31.12930068096346
 31
0.0
  0
LINE
  5
2189
330
1F
100
AcDbEntity
  8
SPOJOVACÍ
  6
Continuous
100
AcDbLine
 10
56.35326549812532
 20
-30.90387839043495
 30
0.0
 11
55.96285327645898
 21
-30.51442541189561
 31
0.0
  0
LINE
  5
218A
330
1F
100
AcDbEntity
  8
SPOJOVACÍ
  6
Continuous
100
AcDbLine
 10
52.09901929373597
 20
-31.90724739406386
 30
0.0
 11
52.4884722700234
 21
-32.29765961657784
 31
0.0
  0
LINE
  5
218B
330
1F
100
AcDbEntity
  8
SPOJOVACÍ
  6
Continuous
100
AcDbLine
 10
52.09901929373597
 20
-31.90724739406386
 30
0.0
 11
52.4884722700234
 21
-31.68278434751363
 31
0.0
  0
LINE
  5
218C
330
1F
100
AcDbEntity
  8
SPOJOVACÍ
  6
Continuous
100
AcDbLine
 10
55.96285327645898
 20
-31.12930068096346
 30
0.0
 11
52.4884722700234
 21
-32.29765961657784
 31
0.0
  0
LINE
  5
218D
330
1F
100
AcDbEntity
  8
SPOJOVACÍ
  6
Continuous
100
AcDbLine
 10
55.96285327645898
 20
-30.51442541189561
 30
0.0
 11
52.4884722700234
 21
-31.68278434751363
 31
0.0
  0
LINE
  5
218E
330
1F
100
AcDbEntity
  8
SPOJOVACÍ
  6
Continuous
100
AcDbLine
 10
56.35326549812532
 20
-30.90387839043495
 30
0.0
 11
52.09901929373597
 21
-31.90724739406386
 31
0.0
  0
LINE
  5
218F
330
1F
100
AcDbEntity
  8
SPOJOVACÍ
  6
Continuous
100
AcDbLine
 10
55.77100451995727
 20
-34.0127875120549
 30
0.0
 11
55.38155153916602
 21
-34.23725055860512
 31
0.0
  0
LINE
  5
2190
330
1F
100
AcDbEntity
  8
SPOJOVACÍ
  6
Continuous
100
AcDbLine
 10
55.77100451995727
 20
-34.0127875120549
 30
0.0
 11
55.38155153916602
 21
-33.62237528954091
 31
0.0
  0
LINE
  5
2191
330
1F
100
AcDbEntity
  8
SPOJOVACÍ
  6
Continuous
100
AcDbLine
 10
52.55753782488397
 20
-34.66603253247257
 30
0.0
 11
52.94699080117505
 21
-35.05644475470279
 31
0.0
  0
LINE
  5
2192
330
1F
100
AcDbEntity
  8
SPOJOVACÍ
  6
Continuous
100
AcDbLine
 10
52.55753782488397
 20
-34.66603253247257
 30
0.0
 11
52.94699080117505
 21
-34.44156948592598
 31
0.0
  0
LINE
  5
2193
330
1F
100
AcDbEntity
  8
SPOJOVACÍ
  6
Continuous
100
AcDbLine
 10
55.38155153916602
 20
-34.23725055860512
 30
0.0
 11
52.94699080117505
 21
-35.05644475470279
 31
0.0
  0
LINE
  5
2194
330
1F
100
AcDbEntity
  8
SPOJOVACÍ
  6
Continuous
100
AcDbLine
 10
55.38155153916602
 20
-33.62237528954091
 30
0.0
 11
52.94699080117505
 21
-34.44156948592598
 31
0.0
  0
LINE
  5
2195
330
1F
100
AcDbEntity
  8
SPOJOVACÍ
  6
Continuous
100
AcDbLine
 10
55.77100451995727
 20
-34.0127875120549
 30
0.0
 11
52.55753782488397
 21
-34.66603253247257
 31
0.0
  0
LINE
  5
2196
330
1F
100
AcDbEntity
  8
SPOJOVACÍ
  6
Continuous
100
AcDbLine
 10
55.18874353728176
 20
-37.12073738969655
 30
0.0
 11
54.79929056099433
 21
-37.34615968021779
 31
0.0
  0
LINE
  5
2197
330
1F
100
AcDbEntity
  8
SPOJOVACÍ
  6
Continuous
100
AcDbLine
 10
55.18874353728176
 20
-37.12073738969655
 30
0.0
 11
54.79929056099433
 21
-36.73128441116086
 31
0.0
  0
LINE
  5
2198
330
1F
100
AcDbEntity
  8
SPOJOVACÍ
  6
Continuous
100
AcDbLine
 10
52.96713492265633
 20
-37.44112481533983
 30
0.0
 11
53.35658789894011
 21
-37.83153703757369
 31
0.0
  0
LINE
  5
2199
330
1F
100
AcDbEntity
  8
SPOJOVACÍ
  6
Continuous
100
AcDbLine
 10
52.96713492265633
 20
-37.44112481533983
 30
0.0
 11
53.35658789894011
 21
-37.21666176850948
 31
0.0
  0
LINE
  5
219A
330
1F
100
AcDbEntity
  8
SPOJOVACÍ
  6
Continuous
100
AcDbLine
 10
54.79929056099433
 20
-37.34615968021779
 30
0.0
 11
53.35658789894011
 21
-37.83153703757369
 31
0.0
  0
LINE
  5
219B
330
1F
100
AcDbEntity
  8
SPOJOVACÍ
  6
Continuous
100
AcDbLine
 10
54.79929056099433
 20
-36.73128441116086
 30
0.0
 11
53.35658789894011
 21
-37.21666176850948
 31
0.0
  0
LINE
  5
219C
330
1F
100
AcDbEntity
  8
SPOJOVACÍ
  6
Continuous
100
AcDbLine
 10
55.18874353728176
 20
-37.12073738969655
 30
0.0
 11
52.96713492265633
 21
-37.44112481533983
 31
0.0
  0
LINE
  5
219D
330
1F
100
AcDbEntity
  8
SPOJOVACÍ
  6
Continuous
100
AcDbLine
 10
56.98636640133997
 20
-27.63789309861994
 30
0.0
 11
51.29421375550089
 21
-29.06093126007789
 31
0.0
  0
LINE
  5
219E
330
1F
100
AcDbEntity
  8
SPOJOVACÍ
  6
Continuous
100
AcDbLine
 10
56.98636640133997
 20
-27.63789309861994
 30
0.0
 11
56.5384954734335
 21
-27.89602560215524
 31
0.0
  0
LINE
  5
219F
330
1F
100
AcDbEntity
  8
SPOJOVACÍ
  6
Continuous
100
AcDbLine
 10
56.98636640133997
 20
-27.63789309861994
 30
0.0
 11
56.5384954734335
 21
-27.18891904273067
 31
0.0
  0
LINE
  5
21A0
330
1F
100
AcDbEntity
  8
SPOJOVACÍ
  6
Continuous
100
AcDbLine
 10
51.29421375550089
 20
-29.06093126007789
 30
0.0
 11
51.74208467823053
 21
-29.50880218539777
 31
0.0
  0
LINE
  5
21A1
330
1F
100
AcDbEntity
  8
SPOJOVACÍ
  6
Continuous
100
AcDbLine
 10
51.29421375550089
 20
-29.06093126007789
 30
0.0
 11
51.74208467823053
 21
-28.80169562597683
 31
0.0
  0
LINE
  5
21A2
330
1F
100
AcDbEntity
  8
SPOJOVACÍ
  6
Continuous
100
AcDbLine
 10
56.5384954734335
 20
-27.89602560215524
 30
0.0
 11
51.74208467823053
 21
-29.50880218539777
 31
0.0
  0
LINE
  5
21A3
330
1F
100
AcDbEntity
  8
SPOJOVACÍ
  6
Continuous
100
AcDbLine
 10
56.5384954734335
 20
-27.18891904273067
 30
0.0
 11
51.74208467823053
 21
-28.80169562597683
 31
0.0
  0
LINE
  5
21A4
330
1F
100
AcDbEntity
  8
SPOJOVACÍ
  6
DASHED
100
AcDbLine
 10
55.85122757842043
 20
-26.26992103204128
 30
0.0
 11
55.85122757842043
 21
14.51826434019795
 31
0.0
  0
LINE
  5
21A5
330
1F
100
AcDbEntity
  8
SPOJOVACÍ
  6
DASHED
100
AcDbLine
 10
52.42935257842043
 20
-26.26992103204128
 30
0.0
 11
52.42935257842043
 21
14.51826434019432
 31
0.0
  0
LINE
  5
21A6
330
1F
100
AcDbEntity
  8
SPOJOVACÍ
  6
DASHED
100
AcDbLine
 10
54.14029007842043
 20
-38.97518115573501
 30
0.0
 11
55.85122757842043
 21
-26.26992103203764
 31
0.0
  0
LINE
  5
21A7
330
1F
100
AcDbEntity
  8
SPOJOVACÍ
  6
DASHED
100
AcDbLine
 10
54.14029007842043
 20
-38.97518115573501
 30
0.0
 11
52.42935257840952
 21
-26.26992103196215
 31
0.0
  0
LINE
  5
21A8
330
1F
100
AcDbEntity
  8
SPOJOVACÍ
  6
Continuous
100
AcDbLine
 10
56.5384954734335
 20
-23.79292912848057
 30
0.0
 11
51.74208467823053
 21
-25.40570571172674
 31
0.0
  0
LINE
  5
21A9
330
1F
100
AcDbEntity
  8
SPOJOVACÍ
  6
Continuous
100
AcDbLine
 10
56.5384954734335
 20
-24.50003568790515
 30
0.0
 11
51.74208467823053
 21
-26.11281227114767
 31
0.0
  0
LINE
  5
21AA
330
1F
100
AcDbEntity
  8
SPOJOVACÍ
  6
Continuous
100
AcDbLine
 10
51.29421375550089
 20
-25.6649413458278
 30
0.0
 11
51.74208467823053
 21
-25.40570571172674
 31
0.0
  0
LINE
  5
21AB
330
1F
100
AcDbEntity
  8
SPOJOVACÍ
  6
Continuous
100
AcDbLine
 10
51.29421375550089
 20
-25.6649413458278
 30
0.0
 11
51.74208467823053
 21
-26.11281227114767
 31
0.0
  0
LINE
  5
21AC
330
1F
100
AcDbEntity
  8
SPOJOVACÍ
  6
Continuous
100
AcDbLine
 10
56.98636640133997
 20
-24.24190318436984
 30
0.0
 11
56.5384954734335
 21
-23.79292912848057
 31
0.0
  0
LINE
  5
21AD
330
1F
100
AcDbEntity
  8
SPOJOVACÍ
  6
Continuous
100
AcDbLine
 10
56.98636640133997
 20
-24.24190318436984
 30
0.0
 11
56.5384954734335
 21
-24.50003568790515
 31
0.0
  0
LINE
  5
21AE
330
1F
100
AcDbEntity
  8
SPOJOVACÍ
  6
Continuous
100
AcDbLine
 10
56.98636640133997
 20
-24.24190318436984
 30
0.0
 11
51.29421375550089
 21
-25.6649413458278
 31
0.0
  0
LINE
  5
21AF
330
1F
100
AcDbEntity
  8
SPOJOVACÍ
  6
Continuous
100
AcDbLine
 10
56.98636640133997
 20
-20.84591327011975
 30
0.0
 11
51.29421375550089
 21
-22.2689514315777
 31
0.0
  0
LINE
  5
21B0
330
1F
100
AcDbEntity
  8
SPOJOVACÍ
  6
Continuous
100
AcDbLine
 10
56.98636640133997
 20
-20.84591327011975
 30
0.0
 11
56.5384954734335
 21
-21.10404577365506
 31
0.0
  0
LINE
  5
21B1
330
1F
100
AcDbEntity
  8
SPOJOVACÍ
  6
Continuous
100
AcDbLine
 10
56.98636640133997
 20
-20.84591327011975
 30
0.0
 11
56.5384954734335
 21
-20.39693921423048
 31
0.0
  0
LINE
  5
21B2
330
1F
100
AcDbEntity
  8
SPOJOVACÍ
  6
Continuous
100
AcDbLine
 10
51.29421375550089
 20
-22.2689514315777
 30
0.0
 11
51.74208467823053
 21
-22.71682235689758
 31
0.0
  0
LINE
  5
21B3
330
1F
100
AcDbEntity
  8
SPOJOVACÍ
  6
Continuous
100
AcDbLine
 10
51.29421375550089
 20
-22.2689514315777
 30
0.0
 11
51.74208467823053
 21
-22.00971579747664
 31
0.0
  0
LINE
  5
21B4
330
1F
100
AcDbEntity
  8
SPOJOVACÍ
  6
Continuous
100
AcDbLine
 10
56.5384954734335
 20
-21.10404577365506
 30
0.0
 11
51.74208467823053
 21
-22.71682235689758
 31
0.0
  0
LINE
  5
21B5
330
1F
100
AcDbEntity
  8
SPOJOVACÍ
  6
Continuous
100
AcDbLine
 10
56.5384954734335
 20
-20.39693921423048
 30
0.0
 11
51.74208467823053
 21
-22.00971579747664
 31
0.0
  0
LINE
  5
21B6
330
1F
100
AcDbEntity
  8
SPOJOVACÍ
  6
Continuous
100
AcDbLine
 10
56.98636640133997
 20
-17.44992335586965
 30
0.0
 11
51.29421375550089
 21
-18.87296151732761
 31
0.0
  0
LINE
  5
21B7
330
1F
100
AcDbEntity
  8
SPOJOVACÍ
  6
Continuous
100
AcDbLine
 10
56.98636640133997
 20
-17.44992335586965
 30
0.0
 11
56.5384954734335
 21
-17.70805585940496
 31
0.0
  0
LINE
  5
21B8
330
1F
100
AcDbEntity
  8
SPOJOVACÍ
  6
Continuous
100
AcDbLine
 10
56.98636640133997
 20
-17.44992335586965
 30
0.0
 11
56.5384954734335
 21
-17.00094929998039
 31
0.0
  0
LINE
  5
21B9
330
1F
100
AcDbEntity
  8
SPOJOVACÍ
  6
Continuous
100
AcDbLine
 10
51.29421375550089
 20
-18.87296151732761
 30
0.0
 11
51.74208467823053
 21
-19.32083244264748
 31
0.0
  0
LINE
  5
21BA
330
1F
100
AcDbEntity
  8
SPOJOVACÍ
  6
Continuous
100
AcDbLine
 10
51.29421375550089
 20
-18.87296151732761
 30
0.0
 11
51.74208467823053
 21
-18.61372588322655
 31
0.0
  0
LINE
  5
21BB
330
1F
100
AcDbEntity
  8
SPOJOVACÍ
  6
Continuous
100
AcDbLine
 10
56.5384954734335
 20
-17.70805585940496
 30
0.0
 11
51.74208467823053
 21
-19.32083244264748
 31
0.0
  0
LINE
  5
21BC
330
1F
100
AcDbEntity
  8
SPOJOVACÍ
  6
Continuous
100
AcDbLine
 10
56.5384954734335
 20
-17.00094929998039
 30
0.0
 11
51.74208467823053
 21
-18.61372588322655
 31
0.0
  0
LINE
  5
21BD
330
1F
100
AcDbEntity
  8
SPOJOVACÍ
  6
Continuous
100
AcDbLine
 10
56.98636640133997
 20
-14.05393344161956
 30
0.0
 11
51.29421375550089
 21
-15.47697160307751
 31
0.0
  0
LINE
  5
21BE
330
1F
100
AcDbEntity
  8
SPOJOVACÍ
  6
Continuous
100
AcDbLine
 10
56.98636640133997
 20
-14.05393344161956
 30
0.0
 11
56.5384954734335
 21
-14.31206594515487
 31
0.0
  0
LINE
  5
21BF
330
1F
100
AcDbEntity
  8
SPOJOVACÍ
  6
Continuous
100
AcDbLine
 10
56.98636640133997
 20
-14.05393344161956
 30
0.0
 11
56.5384954734335
 21
-13.60495938573029
 31
0.0
  0
LINE
  5
21C0
330
1F
100
AcDbEntity
  8
SPOJOVACÍ
  6
Continuous
100
AcDbLine
 10
51.29421375550089
 20
-15.47697160307751
 30
0.0
 11
51.74208467823053
 21
-15.92484252839739
 31
0.0
  0
LINE
  5
21C1
330
1F
100
AcDbEntity
  8
SPOJOVACÍ
  6
Continuous
100
AcDbLine
 10
51.29421375550089
 20
-15.47697160307751
 30
0.0
 11
51.74208467823053
 21
-15.21773596897645
 31
0.0
  0
LINE
  5
21C2
330
1F
100
AcDbEntity
  8
SPOJOVACÍ
  6
Continuous
100
AcDbLine
 10
56.5384954734335
 20
-14.31206594515487
 30
0.0
 11
51.74208467823053
 21
-15.92484252839739
 31
0.0
  0
LINE
  5
21C3
330
1F
100
AcDbEntity
  8
SPOJOVACÍ
  6
Continuous
100
AcDbLine
 10
56.5384954734335
 20
-13.60495938573029
 30
0.0
 11
51.74208467823053
 21
-15.21773596897645
 31
0.0
  0
LINE
  5
21C4
330
1F
100
AcDbEntity
  8
SPOJOVACÍ
  6
Continuous
100
AcDbLine
 10
56.98636640133997
 20
-10.65794352736946
 30
0.0
 11
51.29421375550089
 21
-12.08098168882742
 31
0.0
  0
LINE
  5
21C5
330
1F
100
AcDbEntity
  8
SPOJOVACÍ
  6
Continuous
100
AcDbLine
 10
56.98636640133997
 20
-10.65794352736946
 30
0.0
 11
56.5384954734335
 21
-10.91607603090477
 31
0.0
  0
LINE
  5
21C6
330
1F
100
AcDbEntity
  8
SPOJOVACÍ
  6
Continuous
100
AcDbLine
 10
56.98636640133997
 20
-10.65794352736946
 30
0.0
 11
56.5384954734335
 21
-10.2089694714802
 31
0.0
  0
LINE
  5
21C7
330
1F
100
AcDbEntity
  8
SPOJOVACÍ
  6
Continuous
100
AcDbLine
 10
51.29421375550089
 20
-12.08098168882742
 30
0.0
 11
51.74208467823053
 21
-12.52885261414729
 31
0.0
  0
LINE
  5
21C8
330
1F
100
AcDbEntity
  8
SPOJOVACÍ
  6
Continuous
100
AcDbLine
 10
51.29421375550089
 20
-12.08098168882742
 30
0.0
 11
51.74208467823053
 21
-11.82174605472636
 31
0.0
  0
LINE
  5
21C9
330
1F
100
AcDbEntity
  8
SPOJOVACÍ
  6
Continuous
100
AcDbLine
 10
56.5384954734335
 20
-10.91607603090477
 30
0.0
 11
51.74208467823053
 21
-12.52885261414729
 31
0.0
  0
LINE
  5
21CA
330
1F
100
AcDbEntity
  8
SPOJOVACÍ
  6
Continuous
100
AcDbLine
 10
56.5384954734335
 20
-10.2089694714802
 30
0.0
 11
51.74208467823053
 21
-11.82174605472636
 31
0.0
  0
LINE
  5
21CB
330
1F
100
AcDbEntity
  8
SPOJOVACÍ
  6
Continuous
100
AcDbLine
 10
56.98636640133997
 20
-7.261953613119374
 30
0.0
 11
51.29421375550089
 21
-8.684991774577326
 31
0.0
  0
LINE
  5
21CC
330
1F
100
AcDbEntity
  8
SPOJOVACÍ
  6
Continuous
100
AcDbLine
 10
56.98636640133997
 20
-7.261953613119374
 30
0.0
 11
56.5384954734335
 21
-7.520086116654681
 31
0.0
  0
LINE
  5
21CD
330
1F
100
AcDbEntity
  8
SPOJOVACÍ
  6
Continuous
100
AcDbLine
 10
56.98636640133997
 20
-7.261953613119374
 30
0.0
 11
56.5384954734335
 21
-6.812979557230107
 31
0.0
  0
LINE
  5
21CE
330
1F
100
AcDbEntity
  8
SPOJOVACÍ
  6
Continuous
100
AcDbLine
 10
51.29421375550089
 20
-8.684991774577326
 30
0.0
 11
51.74208467823053
 21
-9.132862699897202
 31
0.0
  0
LINE
  5
21CF
330
1F
100
AcDbEntity
  8
SPOJOVACÍ
  6
Continuous
100
AcDbLine
 10
51.29421375550089
 20
-8.684991774577326
 30
0.0
 11
51.74208467823053
 21
-8.425756140476266
 31
0.0
  0
LINE
  5
21D0
330
1F
100
AcDbEntity
  8
SPOJOVACÍ
  6
Continuous
100
AcDbLine
 10
56.5384954734335
 20
-7.520086116654681
 30
0.0
 11
51.74208467823053
 21
-9.132862699897202
 31
0.0
  0
LINE
  5
21D1
330
1F
100
AcDbEntity
  8
SPOJOVACÍ
  6
Continuous
100
AcDbLine
 10
56.5384954734335
 20
-6.812979557230107
 30
0.0
 11
51.74208467823053
 21
-8.425756140476266
 31
0.0
  0
LINE
  5
21D2
330
1F
100
AcDbEntity
  8
SPOJOVACÍ
  6
Continuous
100
AcDbLine
 10
56.98636640133997
 20
-3.865963698869279
 30
0.0
 11
51.29421375550089
 21
-5.289001860327232
 31
0.0
  0
LINE
  5
21D3
330
1F
100
AcDbEntity
  8
SPOJOVACÍ
  6
Continuous
100
AcDbLine
 10
56.98636640133997
 20
-3.865963698869279
 30
0.0
 11
56.5384954734335
 21
-4.124096202404587
 31
0.0
  0
LINE
  5
21D4
330
1F
100
AcDbEntity
  8
SPOJOVACÍ
  6
Continuous
100
AcDbLine
 10
56.98636640133997
 20
-3.865963698869279
 30
0.0
 11
56.5384954734335
 21
-3.416989642980013
 31
0.0
  0
LINE
  5
21D5
330
1F
100
AcDbEntity
  8
SPOJOVACÍ
  6
Continuous
100
AcDbLine
 10
51.29421375550089
 20
-5.289001860327232
 30
0.0
 11
51.74208467823053
 21
-5.736872785647108
 31
0.0
  0
LINE
  5
21D6
330
1F
100
AcDbEntity
  8
SPOJOVACÍ
  6
Continuous
100
AcDbLine
 10
51.29421375550089
 20
-5.289001860327232
 30
0.0
 11
51.74208467823053
 21
-5.029766226226172
 31
0.0
  0
LINE
  5
21D7
330
1F
100
AcDbEntity
  8
SPOJOVACÍ
  6
Continuous
100
AcDbLine
 10
56.5384954734335
 20
-4.124096202404587
 30
0.0
 11
51.74208467823053
 21
-5.736872785647108
 31
0.0
  0
LINE
  5
21D8
330
1F
100
AcDbEntity
  8
SPOJOVACÍ
  6
Continuous
100
AcDbLine
 10
56.5384954734335
 20
-3.416989642980013
 30
0.0
 11
51.74208467823053
 21
-5.029766226226172
 31
0.0
  0
LINE
  5
21D9
330
1F
100
AcDbEntity
  8
SPOJOVACÍ
  6
Continuous
100
AcDbLine
 10
56.5384954734335
 20
3.374990185520175
 30
0.0
 11
51.74208467823053
 21
1.762213602274016
 31
0.0
  0
LINE
  5
21DA
330
1F
100
AcDbEntity
  8
SPOJOVACÍ
  6
Continuous
100
AcDbLine
 10
56.5384954734335
 20
2.667883626095601
 30
0.0
 11
51.74208467823053
 21
1.05510704285308
 31
0.0
  0
LINE
  5
21DB
330
1F
100
AcDbEntity
  8
SPOJOVACÍ
  6
Continuous
100
AcDbLine
 10
51.29421375550089
 20
1.502977968172956
 30
0.0
 11
51.74208467823053
 21
1.762213602274016
 31
0.0
  0
LINE
  5
21DC
330
1F
100
AcDbEntity
  8
SPOJOVACÍ
  6
Continuous
100
AcDbLine
 10
51.29421375550089
 20
1.502977968172956
 30
0.0
 11
51.74208467823053
 21
1.05510704285308
 31
0.0
  0
LINE
  5
21DD
330
1F
100
AcDbEntity
  8
SPOJOVACÍ
  6
Continuous
100
AcDbLine
 10
56.98636640133997
 20
2.926016129630909
 30
0.0
 11
56.5384954734335
 21
3.374990185520175
 31
0.0
  0
LINE
  5
21DE
330
1F
100
AcDbEntity
  8
SPOJOVACÍ
  6
Continuous
100
AcDbLine
 10
56.98636640133997
 20
2.926016129630909
 30
0.0
 11
56.5384954734335
 21
2.667883626095601
 31
0.0
  0
LINE
  5
21DF
330
1F
100
AcDbEntity
  8
SPOJOVACÍ
  6
Continuous
100
AcDbLine
 10
56.98636640133997
 20
2.926016129630909
 30
0.0
 11
51.29421375550089
 21
1.502977968172956
 31
0.0
  0
LINE
  5
21E0
330
1F
100
AcDbEntity
  8
SPOJOVACÍ
  6
Continuous
100
AcDbLine
 10
56.5384954734335
 20
-0.0209997287299189
 30
0.0
 11
51.74208467823053
 21
-1.633776311976077
 31
0.0
  0
LINE
  5
21E1
330
1F
100
AcDbEntity
  8
SPOJOVACÍ
  6
Continuous
100
AcDbLine
 10
56.5384954734335
 20
-0.7281062881544927
 30
0.0
 11
51.74208467823053
 21
-2.340882871397013
 31
0.0
  0
LINE
  5
21E2
330
1F
100
AcDbEntity
  8
SPOJOVACÍ
  6
Continuous
100
AcDbLine
 10
51.29421375550089
 20
-1.893011946077137
 30
0.0
 11
51.74208467823053
 21
-1.633776311976077
 31
0.0
  0
LINE
  5
21E3
330
1F
100
AcDbEntity
  8
SPOJOVACÍ
  6
Continuous
100
AcDbLine
 10
51.29421375550089
 20
-1.893011946077137
 30
0.0
 11
51.74208467823053
 21
-2.340882871397013
 31
0.0
  0
LINE
  5
21E4
330
1F
100
AcDbEntity
  8
SPOJOVACÍ
  6
Continuous
100
AcDbLine
 10
56.98636640133997
 20
-0.4699737846191852
 30
0.0
 11
56.5384954734335
 21
-0.0209997287299189
 31
0.0
  0
LINE
  5
21E5
330
1F
100
AcDbEntity
  8
SPOJOVACÍ
  6
Continuous
100
AcDbLine
 10
56.98636640133997
 20
-0.4699737846191852
 30
0.0
 11
56.5384954734335
 21
-0.7281062881544927
 31
0.0
  0
LINE
  5
21E6
330
1F
100
AcDbEntity
  8
SPOJOVACÍ
  6
Continuous
100
AcDbLine
 10
56.98636640133997
 20
-0.4699737846191852
 30
0.0
 11
51.29421375550089
 21
-1.893011946077137
 31
0.0
  0
LINE
  5
21E7
330
1F
100
AcDbEntity
  8
SPOJOVACÍ
 48
0.25
100
AcDbLine
 10
57.66575650189486
 20
-34.13399245023418
 30
0.0
 11
54.14029007842043
 21
-39.78343279095014
 31
0.0
  0
LINE
  5
21E8
330
1F
100
AcDbEntity
  8
SPOJOVACÍ
 48
0.25
100
AcDbLine
 10
50.61482365494601
 20
-34.13399245023055
 30
0.0
 11
54.14029007842043
 21
-39.78343279095014
 31
0.0
  0
LINE
  5
21E9
330
1F
100
AcDbEntity
  8
SPOJOVACÍ
  6
Continuous
100
AcDbLine
 10
39.06984183918473
 20
45.80879286646569
 30
0.0
 11
40.42975885272688
 21
49.85319722605829
 31
0.0
  0
LINE
  5
21EA
330
1F
100
AcDbEntity
  8
SPOJOVACÍ
  6
Continuous
100
AcDbLine
 10
39.66608452433945
 20
45.80879286646569
 30
0.0
 11
41.02600153788159
 21
49.85319722605829
 31
0.0
  0
LINE
  5
21EB
330
1F
100
AcDbEntity
  8
SPOJOVACÍ
  6
Continuous
100
AcDbLine
 10
40.64835016475342
 20
50.23084859700367
 30
0.0
 11
40.42975885272688
 21
49.85319722605829
 31
0.0
  0
LINE
  5
21EC
330
1F
100
AcDbEntity
  8
SPOJOVACÍ
  6
Continuous
100
AcDbLine
 10
40.64835016475342
 20
50.23084859700367
 30
0.0
 11
41.02600153788159
 21
49.85319722605829
 31
0.0
  0
LINE
  5
21ED
330
1F
100
AcDbEntity
  8
SPOJOVACÍ
  6
Continuous
100
AcDbLine
 10
39.44842338829118
 20
45.43114149115473
 30
0.0
 11
39.06984183918473
 21
45.80879286646569
 31
0.0
  0
LINE
  5
21EE
330
1F
100
AcDbEntity
  8
SPOJOVACÍ
  6
Continuous
100
AcDbLine
 10
39.44842338829118
 20
45.43114149115473
 30
0.0
 11
39.66608452433945
 21
45.80879286646569
 31
0.0
  0
LINE
  5
21EF
330
1F
100
AcDbEntity
  8
SPOJOVACÍ
  6
Continuous
100
AcDbLine
 10
39.44842338829118
 20
45.43114149115473
 30
0.0
 11
40.64835016475342
 21
50.23084859700367
 31
0.0
  0
LINE
  5
21F0
330
1F
100
AcDbEntity
  8
SPOJOVACÍ
  6
Continuous
100
AcDbLine
 10
35.95003222022285
 20
45.80879286646569
 30
0.0
 11
37.30994923376499
 21
49.85319722605829
 31
0.0
  0
LINE
  5
21F1
330
1F
100
AcDbEntity
  8
SPOJOVACÍ
  6
Continuous
100
AcDbLine
 10
36.54627490537029
 20
45.80879286646569
 30
0.0
 11
37.90619191864323
 21
49.85319722605829
 31
0.0
  0
LINE
  5
21F2
330
1F
100
AcDbEntity
  8
SPOJOVACÍ
  6
Continuous
100
AcDbLine
 10
37.52761036981326
 20
50.23084859700367
 30
0.0
 11
37.30994923376499
 21
49.85319722605829
 31
0.0
  0
LINE
  5
21F3
330
1F
100
AcDbEntity
  8
SPOJOVACÍ
  6
Continuous
100
AcDbLine
 10
37.52761036981326
 20
50.23084859700367
 30
0.0
 11
37.90619191864323
 21
49.85319722605829
 31
0.0
  0
LINE
  5
21F4
330
1F
100
AcDbEntity
  8
SPOJOVACÍ
  6
Continuous
100
AcDbLine
 10
36.32768359335102
 20
45.43114149115473
 30
0.0
 11
35.95003222022285
 21
45.80879286646569
 31
0.0
  0
LINE
  5
21F5
330
1F
100
AcDbEntity
  8
SPOJOVACÍ
  6
Continuous
100
AcDbLine
 10
36.32768359335102
 20
45.43114149115473
 30
0.0
 11
36.54627490537029
 21
45.80879286646569
 31
0.0
  0
LINE
  5
21F6
330
1F
100
AcDbEntity
  8
SPOJOVACÍ
  6
Continuous
100
AcDbLine
 10
36.32768359335102
 20
45.43114149115473
 30
0.0
 11
37.52761036981326
 21
50.23084859700367
 31
0.0
  0
LINE
  5
21F7
330
1F
100
AcDbEntity
  8
SPOJOVACÍ
  6
Continuous
100
AcDbLine
 10
32.83022260125369
 20
45.80879286646569
 30
0.0
 11
34.19013961452662
 21
49.85319722605829
 31
0.0
  0
LINE
  5
21F8
330
1F
100
AcDbEntity
  8
SPOJOVACÍ
  6
Continuous
100
AcDbLine
 10
33.42646528640841
 20
45.80879286646569
 30
0.0
 11
34.78638229967407
 21
49.85319722605829
 31
0.0
  0
LINE
  5
21F9
330
1F
100
AcDbEntity
  8
SPOJOVACÍ
  6
Continuous
100
AcDbLine
 10
34.4078007508441
 20
50.23084859700367
 30
0.0
 11
34.19013961452662
 21
49.85319722605829
 31
0.0
  0
LINE
  5
21FA
330
1F
100
AcDbEntity
  8
SPOJOVACÍ
  6
Continuous
100
AcDbLine
 10
34.4078007508441
 20
50.23084859700367
 30
0.0
 11
34.78638229967407
 21
49.85319722605829
 31
0.0
  0
LINE
  5
21FB
330
1F
100
AcDbEntity
  8
SPOJOVACÍ
  6
Continuous
100
AcDbLine
 10
33.20787397438186
 20
45.43114149115473
 30
0.0
 11
32.83022260125369
 21
45.80879286646569
 31
0.0
  0
LINE
  5
21FC
330
1F
100
AcDbEntity
  8
SPOJOVACÍ
  6
Continuous
100
AcDbLine
 10
33.20787397438186
 20
45.43114149115473
 30
0.0
 11
33.42646528640841
 21
45.80879286646569
 31
0.0
  0
LINE
  5
21FD
330
1F
100
AcDbEntity
  8
SPOJOVACÍ
  6
Continuous
100
AcDbLine
 10
33.20787397438186
 20
45.43114149115473
 30
0.0
 11
34.4078007508441
 21
50.23084859700367
 31
0.0
  0
LINE
  5
21FE
330
1F
100
AcDbEntity
  8
SPOJOVACÍ
  6
Continuous
100
AcDbLine
 10
48.55391425322238
 20
46.81431290215306
 30
0.0
 11
48.86459296899636
 21
48.9686000436098
 31
0.0
  0
LINE
  5
21FF
330
1F
100
AcDbEntity
  8
SPOJOVACÍ
  6
Continuous
100
AcDbLine
 10
48.17626288009421
 20
47.19196427309845
 30
0.0
 11
48.64693183267888
 21
48.59094867266441
 31
0.0
  0
LINE
  5
2200
330
1F
100
AcDbEntity
  8
SPOJOVACÍ
  6
Continuous
100
AcDbLine
 10
48.77250556524166
 20
47.19196427309845
 30
0.0
 11
49.24317451782633
 21
48.59094867266441
 31
0.0
  0
LINE
  5
2201
330
1F
100
AcDbEntity
  8
SPOJOVACÍ
  6
Continuous
100
AcDbLine
 10
48.86459296899636
 20
48.9686000436098
 30
0.0
 11
48.64693183267888
 21
48.59094867266441
 31
0.0
  0
LINE
  5
2202
330
1F
100
AcDbEntity
  8
SPOJOVACÍ
  6
Continuous
100
AcDbLine
 10
48.86459296899636
 20
48.9686000436098
 30
0.0
 11
49.24317451782633
 21
48.59094867266441
 31
0.0
  0
LINE
  5
2203
330
1F
100
AcDbEntity
  8
SPOJOVACÍ
  6
Continuous
100
AcDbLine
 10
48.55391425322238
 20
46.81431290215306
 30
0.0
 11
48.17626288009421
 21
47.19196427309845
 31
0.0
  0
LINE
  5
2204
330
1F
100
AcDbEntity
  8
SPOJOVACÍ
  6
Continuous
100
AcDbLine
 10
48.55391425322238
 20
46.81431290215306
 30
0.0
 11
48.77250556524166
 21
47.19196427309845
 31
0.0
  0
LINE
  5
2205
330
1F
100
AcDbEntity
  8
SPOJOVACÍ
  6
Continuous
100
AcDbLine
 10
45.54014467490276
 20
46.24969619168161
 30
0.0
 11
46.17359439167273
 21
49.36578510811279
 31
0.0
  0
LINE
  5
2206
330
1F
100
AcDbEntity
  8
SPOJOVACÍ
  6
Continuous
100
AcDbLine
 10
45.16156312579631
 20
46.62734756699257
 30
0.0
 11
45.95593325562447
 21
48.9881337371674
 31
0.0
  0
LINE
  5
2207
330
1F
100
AcDbEntity
  8
SPOJOVACÍ
  6
Continuous
100
AcDbLine
 10
45.75780581095102
 20
46.62734756699257
 30
0.0
 11
46.5521759405027
 21
48.9881337371674
 31
0.0
  0
LINE
  5
2208
330
1F
100
AcDbEntity
  8
SPOJOVACÍ
  6
Continuous
100
AcDbLine
 10
46.17359439167273
 20
49.36578510811279
 30
0.0
 11
45.95593325562447
 21
48.9881337371674
 31
0.0
  0
LINE
  5
2209
330
1F
100
AcDbEntity
  8
SPOJOVACÍ
  6
Continuous
100
AcDbLine
 10
46.17359439167273
 20
49.36578510811279
 30
0.0
 11
46.5521759405027
 21
48.9881337371674
 31
0.0
  0
LINE
  5
220A
330
1F
100
AcDbEntity
  8
SPOJOVACÍ
  6
Continuous
100
AcDbLine
 10
45.54014467490276
 20
46.24969619168161
 30
0.0
 11
45.16156312579631
 21
46.62734756699257
 31
0.0
  0
LINE
  5
220B
330
1F
100
AcDbEntity
  8
SPOJOVACÍ
  6
Continuous
100
AcDbLine
 10
45.54014467490276
 20
46.24969619168161
 30
0.0
 11
45.75780581095102
 21
46.62734756699257
 31
0.0
  0
LINE
  5
220C
330
1F
100
AcDbEntity
  8
SPOJOVACÍ
  6
Continuous
100
AcDbLine
 10
42.52544492060486
 20
45.68507948557573
 30
0.0
 11
43.49840880290947
 21
49.81040913831868
 31
0.0
  0
LINE
  5
220D
330
1F
100
AcDbEntity
  8
SPOJOVACÍ
  6
Continuous
100
AcDbLine
 10
42.14779354747668
 20
46.06366103386
 30
0.0
 11
43.2807476668612
 21
49.43275776737329
 31
0.0
  0
LINE
  5
220E
330
1F
100
AcDbEntity
  8
SPOJOVACÍ
  6
Continuous
100
AcDbLine
 10
42.7440362326314
 20
46.06366103386
 30
0.0
 11
43.87699035201592
 21
49.43275776737329
 31
0.0
  0
LINE
  5
220F
330
1F
100
AcDbEntity
  8
SPOJOVACÍ
  6
Continuous
100
AcDbLine
 10
43.49840880290947
 20
49.81040913831868
 30
0.0
 11
43.2807476668612
 21
49.43275776737329
 31
0.0
  0
LINE
  5
2210
330
1F
100
AcDbEntity
  8
SPOJOVACÍ
  6
Continuous
100
AcDbLine
 10
43.49840880290947
 20
49.81040913831868
 30
0.0
 11
43.87699035201592
 21
49.43275776737329
 31
0.0
  0
LINE
  5
2211
330
1F
100
AcDbEntity
  8
SPOJOVACÍ
  6
Continuous
100
AcDbLine
 10
42.52544492060486
 20
45.68507948557573
 30
0.0
 11
42.14779354747668
 21
46.06366103386
 31
0.0
  0
LINE
  5
2212
330
1F
100
AcDbEntity
  8
SPOJOVACÍ
  6
Continuous
100
AcDbLine
 10
42.52544492060486
 20
45.68507948557573
 30
0.0
 11
42.7440362326314
 21
46.06366103386
 31
0.0
  0
LINE
  5
2213
330
1F
100
AcDbEntity
  8
SPOJOVACÍ
  6
Continuous
100
AcDbLine
 10
29.71041298201532
 20
45.80879286646569
 30
0.0
 11
31.06939981985567
 21
49.85319722605829
 31
0.0
  0
LINE
  5
2214
330
1F
100
AcDbEntity
  8
SPOJOVACÍ
  6
Continuous
100
AcDbLine
 10
30.30665566717004
 20
45.80879286646569
 30
0.0
 11
31.66564250473391
 21
49.85319722605829
 31
0.0
  0
LINE
  5
2215
330
1F
100
AcDbEntity
  8
SPOJOVACÍ
  6
Continuous
100
AcDbLine
 10
31.28799113188222
 20
50.23084859700367
 30
0.0
 11
31.06939981985567
 21
49.85319722605829
 31
0.0
  0
LINE
  5
2216
330
1F
100
AcDbEntity
  8
SPOJOVACÍ
  6
Continuous
100
AcDbLine
 10
31.28799113188222
 20
50.23084859700367
 30
0.0
 11
31.66564250473391
 21
49.85319722605829
 31
0.0
  0
LINE
  5
2217
330
1F
100
AcDbEntity
  8
SPOJOVACÍ
  6
Continuous
100
AcDbLine
 10
30.0880643551435
 20
45.43114149115473
 30
0.0
 11
29.71041298201532
 21
45.80879286646569
 31
0.0
  0
LINE
  5
2218
330
1F
100
AcDbEntity
  8
SPOJOVACÍ
  6
Continuous
100
AcDbLine
 10
30.0880643551435
 20
45.43114149115473
 30
0.0
 11
30.30665566717004
 21
45.80879286646569
 31
0.0
  0
LINE
  5
2219
330
1F
100
AcDbEntity
  8
SPOJOVACÍ
  6
Continuous
100
AcDbLine
 10
30.0880643551435
 20
45.43114149115473
 30
0.0
 11
31.28799113188222
 21
50.23084859700367
 31
0.0
  0
LINE
  5
221A
330
1F
100
AcDbEntity
  8
SPOJOVACÍ
  6
Continuous
100
AcDbLine
 10
26.58967318735165
 20
45.80879286646569
 30
0.0
 11
27.9495902006173
 21
49.85319722605829
 31
0.0
  0
LINE
  5
221B
330
1F
100
AcDbEntity
  8
SPOJOVACÍ
  6
Continuous
100
AcDbLine
 10
27.18591587222988
 20
45.80879286646569
 30
0.0
 11
28.54583288577202
 21
49.85319722605829
 31
0.0
  0
LINE
  5
221C
330
1F
100
AcDbEntity
  8
SPOJOVACÍ
  6
Continuous
100
AcDbLine
 10
28.16818151264385
 20
50.23084859700367
 30
0.0
 11
27.9495902006173
 21
49.85319722605829
 31
0.0
  0
LINE
  5
221D
330
1F
100
AcDbEntity
  8
SPOJOVACÍ
  6
Continuous
100
AcDbLine
 10
28.16818151264385
 20
50.23084859700367
 30
0.0
 11
28.54583288577202
 21
49.85319722605829
 31
0.0
  0
LINE
  5
221E
330
1F
100
AcDbEntity
  8
SPOJOVACÍ
  6
Continuous
100
AcDbLine
 10
26.96825473618162
 20
45.43114149115473
 30
0.0
 11
26.58967318735165
 21
45.80879286646569
 31
0.0
  0
LINE
  5
221F
330
1F
100
AcDbEntity
  8
SPOJOVACÍ
  6
Continuous
100
AcDbLine
 10
26.96825473618162
 20
45.43114149115473
 30
0.0
 11
27.18591587222988
 21
45.80879286646569
 31
0.0
  0
LINE
  5
2220
330
1F
100
AcDbEntity
  8
SPOJOVACÍ
  6
Continuous
100
AcDbLine
 10
26.96825473618162
 20
45.43114149115473
 30
0.0
 11
28.16818151264385
 21
50.23084859700367
 31
0.0
  0
LINE
  5
2221
330
1F
100
AcDbEntity
  8
SPOJOVACÍ
  6
Continuous
100
AcDbLine
 10
43.10401426551186
 20
48.93511371616233
 30
0.0
 11
41.13297175422565
 21
49.18068012763007
 31
0.0
  0
LINE
  5
2222
330
1F
100
AcDbEntity
  8
SPOJOVACÍ
  6
Continuous
100
AcDbLine
 10
45.81082583141039
 20
48.59652972360101
 30
0.0
 11
43.67421202855701
 21
48.86349017893855
 31
0.0
  0
LINE
  5
2223
330
1F
100
AcDbEntity
  8
SPOJOVACÍ
  6
Continuous
100
AcDbLine
 10
48.5278693308436
 20
48.25701556243195
 30
0.0
 11
46.38288394585913
 21
48.5249061907428
 31
0.0
  0
LINE
  5
2224
330
1F
100
AcDbEntity
  8
SPOJOVACÍ
  6
Continuous
100
AcDbLine
 10
48.84412910137405
 20
47.44497209018056
 30
0.0
 11
51.93324291917895
 21
47.8309950440792
 31
0.0
  0
LINE
  5
2225
330
1F
100
AcDbEntity
  8
SPOJOVACÍ
  6
Continuous
100
AcDbLine
 10
45.9029132351651
 20
47.07755265250063
 30
0.0
 11
48.22370184552062
 21
47.3677674976546
 31
0.0
  0
LINE
  5
2226
330
1F
100
AcDbEntity
  8
SPOJOVACÍ
  6
Continuous
100
AcDbLine
 10
42.95053525943592
 20
46.70827286014293
 30
0.0
 11
45.27225404550051
 21
46.99848770966247
 31
0.0
  0
LINE
  5
2227
330
1F
100
AcDbEntity
  8
SPOJOVACÍ
  6
Continuous
100
AcDbLine
 10
51.93324291917895
 20
47.8309950440792
 30
0.0
 11
49.09713691791046
 21
48.18539202520816
 31
0.0
  0
LINE
  5
2228
330
1F
100
AcDbEntity
  8
SPOJOVACÍ
  6
Continuous
100
AcDbLine
 10
41.13297175422565
 20
46.48130996489391
 30
0.0
 11
42.3301080035825
 21
46.63106826761697
 31
0.0
  0
LINE
  5
2229
330
1F
100
AcDbEntity
  8
SPOJOVACÍ
  6
Continuous
100
AcDbLine
 10
40.7962481163421
 20
49.18068012763007
 30
0.0
 11
41.13297175422565
 21
49.18068012763007
 31
0.0
  0
LINE
  5
222A
330
1F
100
AcDbEntity
  8
SPOJOVACÍ
  6
Continuous
100
AcDbLine
 10
37.67364796972913
 20
49.18068012763007
 30
0.0
 11
40.1925640247581
 21
49.18068012763007
 31
0.0
  0
LINE
  5
222B
330
1F
100
AcDbEntity
  8
SPOJOVACÍ
  6
Continuous
100
AcDbLine
 10
39.885606012337
 20
46.48130996489391
 30
0.0
 11
41.13297175422565
 21
46.48130996489391
 31
0.0
  0
LINE
  5
222C
330
1F
100
AcDbEntity
  8
SPOJOVACÍ
  6
Continuous
100
AcDbLine
 10
36.77137744785511
 20
46.48130996489391
 30
0.0
 11
39.28936332718228
 21
46.48130996489391
 31
0.0
  0
LINE
  5
222D
330
1F
100
AcDbEntity
  8
SPOJOVACÍ
  6
Continuous
100
AcDbLine
 10
34.55197799908717
 20
49.18068012763007
 30
0.0
 11
37.07275440579621
 21
49.18068012763007
 31
0.0
  0
LINE
  5
222E
330
1F
100
AcDbEntity
  8
SPOJOVACÍ
  6
Continuous
100
AcDbLine
 10
31.42937785274341
 20
49.18068012763007
 30
0.0
 11
33.95759566561252
 21
49.18068012763007
 31
0.0
  0
LINE
  5
222F
330
1F
100
AcDbEntity
  8
SPOJOVACÍ
  6
Continuous
100
AcDbLine
 10
28.31421911255972
 20
49.18068012763007
 30
0.0
 11
30.83313516758869
 21
49.18068012763007
 31
0.0
  0
LINE
  5
2230
330
1F
100
AcDbEntity
  8
SPOJOVACÍ
  6
Continuous
100
AcDbLine
 10
33.6385453677002
 20
46.48130996489391
 30
0.0
 11
36.16676318056931
 21
46.48130996489391
 31
0.0
  0
LINE
  5
2231
330
1F
100
AcDbEntity
  8
SPOJOVACÍ
  6
Continuous
100
AcDbLine
 10
30.52338662751651
 20
46.48130996489391
 30
0.0
 11
33.04416303422556
 21
46.48130996489391
 31
0.0
  0
LINE
  5
2232
330
1F
100
AcDbEntity
  8
SPOJOVACÍ
  6
Continuous
100
AcDbLine
 10
27.40078648117275
 20
46.48130996489391
 30
0.0
 11
29.91970253620172
 21
46.48130996489391
 31
0.0
  0
LINE
  5
2233
330
1F
100
AcDbEntity
  8
SPOJOVACÍ
  6
Continuous
100
AcDbLine
 10
22.7675808423163
 20
46.48130996489391
 30
0.0
 11
26.80547397199632
 21
46.48130996489391
 31
0.0
  0
LINE
  5
2234
330
1F
100
AcDbEntity
  8
SPOJOVACÍ
  6
Continuous
100
AcDbLine
 10
22.7675808423163
 20
49.18068012763007
 30
0.0
 11
27.71053502124493
 21
49.18068012763007
 31
0.0
  0
LINE
  5
2235
330
1F
100
AcDbEntity
  8
SPOJOVACÍ
  6
Continuous
100
AcDbLine
 10
17.36791034795976
 20
42.73084115544526
 30
0.0
 11
18.11205098443394
 21
44.08052623899613
 31
0.0
  0
LINE
  5
2236
330
1F
100
AcDbEntity
  8
SPOJOVACÍ
  6
Continuous
100
AcDbLine
 10
18.11205098443394
 20
44.08052623899613
 30
0.0
 11
19.18082297384614
 21
45.19115613935475
 31
0.0
  0
LINE
  5
2237
330
1F
100
AcDbEntity
  8
SPOJOVACÍ
  6
Continuous
100
AcDbLine
 10
19.18082297384614
 20
45.19115613935475
 30
0.0
 11
20.49981225214366
 21
45.98738661867293
 31
0.0
  0
LINE
  5
2238
330
1F
100
AcDbEntity
  8
SPOJOVACÍ
  6
Continuous
100
AcDbLine
 10
20.49981225214366
 20
45.98738661867293
 30
0.0
 11
21.9806521191939
 21
46.4152674829723
 31
0.0
  0
LINE
  5
2239
330
1F
100
AcDbEntity
  8
SPOJOVACÍ
  6
Continuous
100
AcDbLine
 10
21.9806521191939
 20
46.4152674829723
 30
0.0
 11
22.7675808423163
 21
46.48130996489391
 31
0.0
  0
LINE
  5
223A
330
1F
100
AcDbEntity
  8
SPOJOVACÍ
  6
Continuous
100
AcDbLine
 10
18.62271749628496
 20
50.97870993764565
 30
0.0
 11
17.70463398584331
 21
52.21584374654532
 31
0.0
  0
LINE
  5
223B
330
1F
100
AcDbEntity
  8
SPOJOVACÍ
  6
Continuous
100
AcDbLine
 10
17.70463398584331
 20
52.21584374654532
 30
0.0
 11
17.36791034795976
 21
52.93114893271314
 31
0.0
  0
LINE
  5
223C
330
1F
100
AcDbEntity
  8
SPOJOVACÍ
  6
Continuous
100
AcDbLine
 10
17.36791034795976
 20
42.73084115544526
 30
0.0
 11
17.36791034795976
 21
52.93114893271314
 31
0.0
  0
LINE
  5
223D
330
1F
100
AcDbEntity
  8
SPOJOVACÍ
  6
Continuous
100
AcDbLine
 10
16.16798357122831
 20
42.73084115544526
 30
0.0
 11
17.36791034795976
 21
42.73084115544526
 31
0.0
  0
LINE
  5
223E
330
1F
100
AcDbEntity
  8
SPOJOVACÍ
  6
Continuous
100
AcDbLine
 10
16.16798357122831
 20
42.73084115544526
 30
0.0
 11
16.16798357122831
 21
52.93114893271314
 31
0.0
  0
LINE
  5
223F
330
1F
100
AcDbEntity
  8
SPOJOVACÍ
  6
Continuous
100
AcDbLine
 10
16.16798357122831
 20
52.93114893271314
 30
0.0
 11
17.36791034795976
 21
52.93114893271314
 31
0.0
  0
LINE
  5
2240
330
1F
100
AcDbEntity
  8
SPOJOVACÍ
  6
Continuous
100
AcDbLine
 10
22.7675808423163
 20
49.18068012763007
 30
0.0
 11
21.24395288888706
 21
49.40764301851351
 31
0.0
  0
LINE
  5
2241
330
1F
100
AcDbEntity
  8
SPOJOVACÍ
  6
Continuous
100
AcDbLine
 10
21.24395288888706
 20
49.40764301851351
 30
0.0
 11
19.83008567918375
 21
50.02062886766117
 31
0.0
  0
LINE
  5
2242
330
1F
100
AcDbEntity
  8
SPOJOVACÍ
  6
Continuous
100
AcDbLine
 10
19.83008567918375
 20
50.02062886766117
 30
0.0
 11
18.62271749628496
 21
50.97870993764565
 31
0.0
  0
LINE
  5
2243
330
1F
100
AcDbEntity
  8
SPOJOVACÍ
  6
Continuous
100
AcDbLine
 10
87.73813574802341
 20
50.02062886766117
 30
0.0
 11
88.9455039309222
 21
50.97870993764565
 31
0.0
  0
LINE
  5
2244
330
1F
100
AcDbEntity
  8
SPOJOVACÍ
  6
Continuous
100
AcDbLine
 10
86.3242685383201
 20
49.40764301851351
 30
0.0
 11
87.73813574802341
 21
50.02062886766117
 31
0.0
  0
LINE
  5
2245
330
1F
100
AcDbEntity
  8
SPOJOVACÍ
  6
Continuous
100
AcDbLine
 10
84.80064058489086
 20
49.18068012763007
 30
0.0
 11
86.3242685383201
 21
49.40764301851351
 31
0.0
  0
LINE
  5
2246
330
1F
100
AcDbEntity
  8
SPOJOVACÍ
  6
Continuous
100
AcDbLine
 10
91.40023785597884
 20
52.93114893271314
 30
0.0
 11
90.2003110792474
 21
52.93114893271314
 31
0.0
  0
LINE
  5
2247
330
1F
100
AcDbEntity
  8
SPOJOVACÍ
  6
Continuous
100
AcDbLine
 10
91.40023785597884
 20
42.73084115544526
 30
0.0
 11
91.40023785597884
 21
52.93114893271314
 31
0.0
  0
LINE
  5
2248
330
1F
100
AcDbEntity
  8
SPOJOVACÍ
  6
Continuous
100
AcDbLine
 10
91.40023785597884
 20
42.73084115544526
 30
0.0
 11
90.2003110792474
 21
42.73084115544526
 31
0.0
  0
LINE
  5
2249
330
1F
100
AcDbEntity
  8
SPOJOVACÍ
  6
Continuous
100
AcDbLine
 10
90.2003110792474
 20
42.73084115544526
 30
0.0
 11
90.2003110792474
 21
52.93114893271314
 31
0.0
  0
LINE
  5
224A
330
1F
100
AcDbEntity
  8
SPOJOVACÍ
  6
Continuous
100
AcDbLine
 10
89.86358744136385
 20
52.21584374654532
 30
0.0
 11
90.2003110792474
 21
52.93114893271314
 31
0.0
  0
LINE
  5
224B
330
1F
100
AcDbEntity
  8
SPOJOVACÍ
  6
Continuous
100
AcDbLine
 10
88.9455039309222
 20
50.97870993764565
 30
0.0
 11
89.86358744136385
 21
52.21584374654532
 31
0.0
  0
LINE
  5
224C
330
1F
100
AcDbEntity
  8
SPOJOVACÍ
  6
Continuous
100
AcDbLine
 10
85.58756930801326
 20
46.4152674829723
 30
0.0
 11
84.80064058489086
 21
46.48130996489391
 31
0.0
  0
LINE
  5
224D
330
1F
100
AcDbEntity
  8
SPOJOVACÍ
  6
Continuous
100
AcDbLine
 10
87.06840917506349
 20
45.98738661867293
 30
0.0
 11
85.58756930801326
 21
46.4152674829723
 31
0.0
  0
LINE
  5
224E
330
1F
100
AcDbEntity
  8
SPOJOVACÍ
  6
Continuous
100
AcDbLine
 10
88.38739845336101
 20
45.19115613935475
 30
0.0
 11
87.06840917506349
 21
45.98738661867293
 31
0.0
  0
LINE
  5
224F
330
1F
100
AcDbEntity
  8
SPOJOVACÍ
  6
Continuous
100
AcDbLine
 10
89.45617044277321
 20
44.08052623899613
 30
0.0
 11
88.38739845336101
 21
45.19115613935475
 31
0.0
  0
LINE
  5
2250
330
1F
100
AcDbEntity
  8
SPOJOVACÍ
  6
Continuous
100
AcDbLine
 10
90.2003110792474
 20
42.73084115544526
 30
0.0
 11
89.45617044277321
 21
44.08052623899613
 31
0.0
  0
LINE
  5
2251
330
1F
100
AcDbEntity
  8
SPOJOVACÍ
  6
Continuous
100
AcDbLine
 10
84.80064058489086
 20
49.18068012763007
 30
0.0
 11
79.85768640596223
 21
49.18068012763007
 31
0.0
  0
LINE
  5
2252
330
1F
100
AcDbEntity
  8
SPOJOVACÍ
  6
Continuous
100
AcDbLine
 10
84.80064058489086
 20
46.48130996489391
 30
0.0
 11
80.76274745521084
 21
46.48130996489391
 31
0.0
  0
LINE
  5
2253
330
1F
100
AcDbEntity
  8
SPOJOVACÍ
  6
Continuous
100
AcDbLine
 10
80.1674349460344
 20
46.48130996489391
 30
0.0
 11
77.64851889100544
 21
46.48130996489391
 31
0.0
  0
LINE
  5
2254
330
1F
100
AcDbEntity
  8
SPOJOVACÍ
  6
Continuous
100
AcDbLine
 10
77.04483479969065
 20
46.48130996489391
 30
0.0
 11
74.5240583929816
 21
46.48130996489391
 31
0.0
  0
LINE
  5
2255
330
1F
100
AcDbEntity
  8
SPOJOVACÍ
  6
Continuous
100
AcDbLine
 10
73.92967605950696
 20
46.48130996489391
 30
0.0
 11
71.40145824663784
 21
46.48130996489391
 31
0.0
  0
LINE
  5
2256
330
1F
100
AcDbEntity
  8
SPOJOVACÍ
  6
Continuous
100
AcDbLine
 10
79.25400231464744
 20
49.18068012763007
 30
0.0
 11
76.73508625961847
 21
49.18068012763007
 31
0.0
  0
LINE
  5
2257
330
1F
100
AcDbEntity
  8
SPOJOVACÍ
  6
Continuous
100
AcDbLine
 10
76.13884357446375
 20
49.18068012763007
 30
0.0
 11
73.61062576159463
 21
49.18068012763007
 31
0.0
  0
LINE
  5
2258
330
1F
100
AcDbEntity
  8
SPOJOVACÍ
  6
Continuous
100
AcDbLine
 10
73.01624342811999
 20
49.18068012763007
 30
0.0
 11
70.49546702141094
 21
49.18068012763007
 31
0.0
  0
LINE
  5
2259
330
1F
100
AcDbEntity
  8
SPOJOVACÍ
  6
Continuous
100
AcDbLine
 10
70.79684397935205
 20
46.48130996489391
 30
0.0
 11
68.27885810002488
 21
46.48130996489391
 31
0.0
  0
LINE
  5
225A
330
1F
100
AcDbEntity
  8
SPOJOVACÍ
  6
Continuous
100
AcDbLine
 10
67.68261541487015
 20
46.48130996489391
 30
0.0
 11
66.43524967298152
 21
46.48130996489391
 31
0.0
  0
LINE
  5
225B
330
1F
100
AcDbEntity
  8
SPOJOVACÍ
  6
Continuous
100
AcDbLine
 10
69.89457345747803
 20
49.18068012763007
 30
0.0
 11
67.37565740244907
 21
49.18068012763007
 31
0.0
  0
LINE
  5
225C
330
1F
100
AcDbEntity
  8
SPOJOVACÍ
  6
Continuous
100
AcDbLine
 10
66.77197331086507
 20
49.18068012763007
 30
0.0
 11
66.43524967298152
 21
49.18068012763007
 31
0.0
  0
LINE
  5
225D
330
1F
100
AcDbEntity
  8
SPOJOVACÍ
  6
Continuous
100
AcDbLine
 10
66.43524967298152
 20
46.48130996489391
 30
0.0
 11
65.23811342362467
 21
46.63106826761697
 31
0.0
  0
LINE
  5
225E
330
1F
100
AcDbEntity
  8
SPOJOVACÍ
  6
Continuous
100
AcDbLine
 10
55.63497850802821
 20
47.8309950440792
 30
0.0
 11
58.4710845092967
 21
48.18539202520816
 31
0.0
  0
LINE
  5
225F
330
1F
100
AcDbEntity
  8
SPOJOVACÍ
  6
Continuous
100
AcDbLine
 10
64.61768616777124
 20
46.70827286014293
 30
0.0
 11
62.29596738170664
 21
46.99848770966247
 31
0.0
  0
LINE
  5
2260
330
1F
100
AcDbEntity
  8
SPOJOVACÍ
  6
Continuous
100
AcDbLine
 10
61.66530819204206
 20
47.07755265250063
 30
0.0
 11
59.34451958168654
 21
47.3677674976546
 31
0.0
  0
LINE
  5
2261
330
1F
100
AcDbEntity
  8
SPOJOVACÍ
  6
Continuous
100
AcDbLine
 10
58.72409232583311
 20
47.44497209018056
 30
0.0
 11
55.63497850802821
 21
47.8309950440792
 31
0.0
  0
LINE
  5
2262
330
1F
100
AcDbEntity
  8
SPOJOVACÍ
  6
Continuous
100
AcDbLine
 10
59.04035209636356
 20
48.25701556243195
 30
0.0
 11
61.18533748134803
 21
48.5249061907428
 31
0.0
  0
LINE
  5
2263
330
1F
100
AcDbEntity
  8
SPOJOVACÍ
  6
Continuous
100
AcDbLine
 10
61.75739559579676
 20
48.59652972360101
 30
0.0
 11
63.89400939865016
 21
48.86349017893855
 31
0.0
  0
LINE
  5
2264
330
1F
100
AcDbEntity
  8
SPOJOVACÍ
  6
Continuous
100
AcDbLine
 10
64.4642071616953
 20
48.93511371616233
 30
0.0
 11
66.43524967298152
 21
49.18068012763007
 31
0.0
  0
LINE
  5
2265
330
1F
100
AcDbEntity
  8
SPOJOVACÍ
  6
Continuous
100
AcDbLine
 10
80.59996669102554
 20
45.43114149115473
 30
0.0
 11
79.40003991456331
 21
50.23084859700367
 31
0.0
  0
LINE
  5
2266
330
1F
100
AcDbEntity
  8
SPOJOVACÍ
  6
Continuous
100
AcDbLine
 10
80.59996669102554
 20
45.43114149115473
 30
0.0
 11
80.38230555497728
 21
45.80879286646569
 31
0.0
  0
LINE
  5
2267
330
1F
100
AcDbEntity
  8
SPOJOVACÍ
  6
Continuous
100
AcDbLine
 10
80.59996669102554
 20
45.43114149115473
 30
0.0
 11
80.97854823985551
 21
45.80879286646569
 31
0.0
  0
LINE
  5
2268
330
1F
100
AcDbEntity
  8
SPOJOVACÍ
  6
Continuous
100
AcDbLine
 10
79.40003991456331
 20
50.23084859700367
 30
0.0
 11
79.02238854143513
 21
49.85319722605829
 31
0.0
  0
LINE
  5
2269
330
1F
100
AcDbEntity
  8
SPOJOVACÍ
  6
Continuous
100
AcDbLine
 10
79.40003991456331
 20
50.23084859700367
 30
0.0
 11
79.61863122658986
 21
49.85319722605829
 31
0.0
  0
LINE
  5
226A
330
1F
100
AcDbEntity
  8
SPOJOVACÍ
  6
Continuous
100
AcDbLine
 10
80.38230555497728
 20
45.80879286646569
 30
0.0
 11
79.02238854143513
 21
49.85319722605829
 31
0.0
  0
LINE
  5
226B
330
1F
100
AcDbEntity
  8
SPOJOVACÍ
  6
Continuous
100
AcDbLine
 10
80.97854823985551
 20
45.80879286646569
 30
0.0
 11
79.61863122658986
 21
49.85319722605829
 31
0.0
  0
LINE
  5
226C
330
1F
100
AcDbEntity
  8
SPOJOVACÍ
  6
Continuous
100
AcDbLine
 10
77.48015707206366
 20
45.43114149115473
 30
0.0
 11
76.28023029532494
 21
50.23084859700367
 31
0.0
  0
LINE
  5
226D
330
1F
100
AcDbEntity
  8
SPOJOVACÍ
  6
Continuous
100
AcDbLine
 10
77.48015707206366
 20
45.43114149115473
 30
0.0
 11
77.26156576003711
 21
45.80879286646569
 31
0.0
  0
LINE
  5
226E
330
1F
100
AcDbEntity
  8
SPOJOVACÍ
  6
Continuous
100
AcDbLine
 10
77.48015707206366
 20
45.43114149115473
 30
0.0
 11
77.85780844519184
 21
45.80879286646569
 31
0.0
  0
LINE
  5
226F
330
1F
100
AcDbEntity
  8
SPOJOVACÍ
  6
Continuous
100
AcDbLine
 10
76.28023029532494
 20
50.23084859700367
 30
0.0
 11
75.90257892247326
 21
49.85319722605829
 31
0.0
  0
LINE
  5
2270
330
1F
100
AcDbEntity
  8
SPOJOVACÍ
  6
Continuous
100
AcDbLine
 10
76.28023029532494
 20
50.23084859700367
 30
0.0
 11
76.49882160735149
 21
49.85319722605829
 31
0.0
  0
LINE
  5
2271
330
1F
100
AcDbEntity
  8
SPOJOVACÍ
  6
Continuous
100
AcDbLine
 10
77.26156576003711
 20
45.80879286646569
 30
0.0
 11
75.90257892247326
 21
49.85319722605829
 31
0.0
  0
LINE
  5
2272
330
1F
100
AcDbEntity
  8
SPOJOVACÍ
  6
Continuous
100
AcDbLine
 10
77.85780844519184
 20
45.80879286646569
 30
0.0
 11
76.49882160735149
 21
49.85319722605829
 31
0.0
  0
LINE
  5
2273
330
1F
100
AcDbEntity
  8
SPOJOVACÍ
  6
Continuous
100
AcDbLine
 10
65.04277650660231
 20
45.68507948557573
 30
0.0
 11
64.82418519457576
 21
46.06366103386
 31
0.0
  0
LINE
  5
2274
330
1F
100
AcDbEntity
  8
SPOJOVACÍ
  6
Continuous
100
AcDbLine
 10
65.04277650660231
 20
45.68507948557573
 30
0.0
 11
65.42042787973048
 21
46.06366103386
 31
0.0
  0
LINE
  5
2275
330
1F
100
AcDbEntity
  8
SPOJOVACÍ
  6
Continuous
100
AcDbLine
 10
64.0698126242977
 20
49.81040913831868
 30
0.0
 11
63.69123107519124
 21
49.43275776737329
 31
0.0
  0
LINE
  5
2276
330
1F
100
AcDbEntity
  8
SPOJOVACÍ
  6
Continuous
100
AcDbLine
 10
64.0698126242977
 20
49.81040913831868
 30
0.0
 11
64.28747376034596
 21
49.43275776737329
 31
0.0
  0
LINE
  5
2277
330
1F
100
AcDbEntity
  8
SPOJOVACÍ
  6
Continuous
100
AcDbLine
 10
64.82418519457576
 20
46.06366103386
 30
0.0
 11
63.69123107519124
 21
49.43275776737329
 31
0.0
  0
LINE
  5
2278
330
1F
100
AcDbEntity
  8
SPOJOVACÍ
  6
Continuous
100
AcDbLine
 10
65.42042787973048
 20
46.06366103386
 30
0.0
 11
64.28747376034596
 21
49.43275776737329
 31
0.0
  0
LINE
  5
2279
330
1F
100
AcDbEntity
  8
SPOJOVACÍ
  6
Continuous
100
AcDbLine
 10
65.04277650660231
 20
45.68507948557573
 30
0.0
 11
64.0698126242977
 21
49.81040913831868
 31
0.0
  0
LINE
  5
227A
330
1F
100
AcDbEntity
  8
SPOJOVACÍ
  6
Continuous
100
AcDbLine
 10
62.0280767523044
 20
46.24969619168161
 30
0.0
 11
61.81041561625614
 21
46.62734756699257
 31
0.0
  0
LINE
  5
227B
330
1F
100
AcDbEntity
  8
SPOJOVACÍ
  6
Continuous
100
AcDbLine
 10
62.0280767523044
 20
46.24969619168161
 30
0.0
 11
62.40665830141086
 21
46.62734756699257
 31
0.0
  0
LINE
  5
227C
330
1F
100
AcDbEntity
  8
SPOJOVACÍ
  6
Continuous
100
AcDbLine
 10
61.39462703553443
 20
49.36578510811279
 30
0.0
 11
61.01604548670445
 21
48.9881337371674
 31
0.0
  0
LINE
  5
227D
330
1F
100
AcDbEntity
  8
SPOJOVACÍ
  6
Continuous
100
AcDbLine
 10
61.39462703553443
 20
49.36578510811279
 30
0.0
 11
61.61228817158269
 21
48.9881337371674
 31
0.0
  0
LINE
  5
227E
330
1F
100
AcDbEntity
  8
SPOJOVACÍ
  6
Continuous
100
AcDbLine
 10
61.81041561625614
 20
46.62734756699257
 30
0.0
 11
61.01604548670445
 21
48.9881337371674
 31
0.0
  0
LINE
  5
227F
330
1F
100
AcDbEntity
  8
SPOJOVACÍ
  6
Continuous
100
AcDbLine
 10
62.40665830141086
 20
46.62734756699257
 30
0.0
 11
61.61228817158269
 21
48.9881337371674
 31
0.0
  0
LINE
  5
2280
330
1F
100
AcDbEntity
  8
SPOJOVACÍ
  6
Continuous
100
AcDbLine
 10
62.0280767523044
 20
46.24969619168161
 30
0.0
 11
61.39462703553443
 21
49.36578510811279
 31
0.0
  0
LINE
  5
2281
330
1F
100
AcDbEntity
  8
SPOJOVACÍ
  6
Continuous
100
AcDbLine
 10
59.01430717398477
 20
46.81431290215306
 30
0.0
 11
58.79571586196551
 21
47.19196427309845
 31
0.0
  0
LINE
  5
2282
330
1F
100
AcDbEntity
  8
SPOJOVACÍ
  6
Continuous
100
AcDbLine
 10
59.01430717398477
 20
46.81431290215306
 30
0.0
 11
59.39195854711295
 21
47.19196427309845
 31
0.0
  0
LINE
  5
2283
330
1F
100
AcDbEntity
  8
SPOJOVACÍ
  6
Continuous
100
AcDbLine
 10
58.7036284582108
 20
48.9686000436098
 30
0.0
 11
58.32504690938083
 21
48.59094867266441
 31
0.0
  0
LINE
  5
2284
330
1F
100
AcDbEntity
  8
SPOJOVACÍ
  6
Continuous
100
AcDbLine
 10
58.7036284582108
 20
48.9686000436098
 30
0.0
 11
58.92128959452827
 21
48.59094867266441
 31
0.0
  0
LINE
  5
2285
330
1F
100
AcDbEntity
  8
SPOJOVACÍ
  6
Continuous
100
AcDbLine
 10
58.79571586196551
 20
47.19196427309845
 30
0.0
 11
58.32504690938083
 21
48.59094867266441
 31
0.0
  0
LINE
  5
2286
330
1F
100
AcDbEntity
  8
SPOJOVACÍ
  6
Continuous
100
AcDbLine
 10
59.39195854711295
 20
47.19196427309845
 30
0.0
 11
58.92128959452827
 21
48.59094867266441
 31
0.0
  0
LINE
  5
2287
330
1F
100
AcDbEntity
  8
SPOJOVACÍ
  6
Continuous
100
AcDbLine
 10
59.01430717398477
 20
46.81431290215306
 30
0.0
 11
58.7036284582108
 21
48.9686000436098
 31
0.0
  0
LINE
  5
2288
330
1F
100
AcDbEntity
  8
SPOJOVACÍ
  6
Continuous
100
AcDbLine
 10
74.3603474528253
 20
45.43114149115473
 30
0.0
 11
73.16042067636306
 21
50.23084859700367
 31
0.0
  0
LINE
  5
2289
330
1F
100
AcDbEntity
  8
SPOJOVACÍ
  6
Continuous
100
AcDbLine
 10
74.3603474528253
 20
45.43114149115473
 30
0.0
 11
74.14175614079875
 21
45.80879286646569
 31
0.0
  0
LINE
  5
228A
330
1F
100
AcDbEntity
  8
SPOJOVACÍ
  6
Continuous
100
AcDbLine
 10
74.3603474528253
 20
45.43114149115473
 30
0.0
 11
74.73799882595347
 21
45.80879286646569
 31
0.0
  0
LINE
  5
228B
330
1F
100
AcDbEntity
  8
SPOJOVACÍ
  6
Continuous
100
AcDbLine
 10
73.16042067636306
 20
50.23084859700367
 30
0.0
 11
72.78183912753309
 21
49.85319722605829
 31
0.0
  0
LINE
  5
228C
330
1F
100
AcDbEntity
  8
SPOJOVACÍ
  6
Continuous
100
AcDbLine
 10
73.16042067636306
 20
50.23084859700367
 30
0.0
 11
73.37808181268053
 21
49.85319722605829
 31
0.0
  0
LINE
  5
228D
330
1F
100
AcDbEntity
  8
SPOJOVACÍ
  6
Continuous
100
AcDbLine
 10
74.14175614079875
 20
45.80879286646569
 30
0.0
 11
72.78183912753309
 21
49.85319722605829
 31
0.0
  0
LINE
  5
228E
330
1F
100
AcDbEntity
  8
SPOJOVACÍ
  6
Continuous
100
AcDbLine
 10
74.73799882595347
 20
45.80879286646569
 30
0.0
 11
73.37808181268053
 21
49.85319722605829
 31
0.0
  0
LINE
  5
228F
330
1F
100
AcDbEntity
  8
SPOJOVACÍ
  6
Continuous
100
AcDbLine
 10
71.24053783385614
 20
45.43114149115473
 30
0.0
 11
70.0406110573939
 21
50.23084859700367
 31
0.0
  0
LINE
  5
2290
330
1F
100
AcDbEntity
  8
SPOJOVACÍ
  6
Continuous
100
AcDbLine
 10
71.24053783385614
 20
45.43114149115473
 30
0.0
 11
71.02194652183687
 21
45.80879286646569
 31
0.0
  0
LINE
  5
2291
330
1F
100
AcDbEntity
  8
SPOJOVACÍ
  6
Continuous
100
AcDbLine
 10
71.24053783385614
 20
45.43114149115473
 30
0.0
 11
71.61818920698431
 21
45.80879286646569
 31
0.0
  0
LINE
  5
2292
330
1F
100
AcDbEntity
  8
SPOJOVACÍ
  6
Continuous
100
AcDbLine
 10
70.0406110573939
 20
50.23084859700367
 30
0.0
 11
69.66202950856393
 21
49.85319722605829
 31
0.0
  0
LINE
  5
2293
330
1F
100
AcDbEntity
  8
SPOJOVACÍ
  6
Continuous
100
AcDbLine
 10
70.0406110573939
 20
50.23084859700367
 30
0.0
 11
70.25827219344217
 21
49.85319722605829
 31
0.0
  0
LINE
  5
2294
330
1F
100
AcDbEntity
  8
SPOJOVACÍ
  6
Continuous
100
AcDbLine
 10
71.02194652183687
 20
45.80879286646569
 30
0.0
 11
69.66202950856393
 21
49.85319722605829
 31
0.0
  0
LINE
  5
2295
330
1F
100
AcDbEntity
  8
SPOJOVACÍ
  6
Continuous
100
AcDbLine
 10
71.61818920698431
 20
45.80879286646569
 30
0.0
 11
70.25827219344217
 21
49.85319722605829
 31
0.0
  0
LINE
  5
2296
330
1F
100
AcDbEntity
  8
SPOJOVACÍ
  6
Continuous
100
AcDbLine
 10
68.11979803891597
 20
45.43114149115473
 30
0.0
 11
66.91987126245374
 21
50.23084859700367
 31
0.0
  0
LINE
  5
2297
330
1F
100
AcDbEntity
  8
SPOJOVACÍ
  6
Continuous
100
AcDbLine
 10
68.11979803891597
 20
45.43114149115473
 30
0.0
 11
67.90213690286771
 21
45.80879286646569
 31
0.0
  0
LINE
  5
2298
330
1F
100
AcDbEntity
  8
SPOJOVACÍ
  6
Continuous
100
AcDbLine
 10
68.11979803891597
 20
45.43114149115473
 30
0.0
 11
68.49837958802243
 21
45.80879286646569
 31
0.0
  0
LINE
  5
2299
330
1F
100
AcDbEntity
  8
SPOJOVACÍ
  6
Continuous
100
AcDbLine
 10
66.91987126245374
 20
50.23084859700367
 30
0.0
 11
66.54221988932556
 21
49.85319722605829
 31
0.0
  0
LINE
  5
229A
330
1F
100
AcDbEntity
  8
SPOJOVACÍ
  6
Continuous
100
AcDbLine
 10
66.91987126245374
 20
50.23084859700367
 30
0.0
 11
67.13846257448029
 21
49.85319722605829
 31
0.0
  0
LINE
  5
229B
330
1F
100
AcDbEntity
  8
SPOJOVACÍ
  6
Continuous
100
AcDbLine
 10
67.90213690286771
 20
45.80879286646569
 30
0.0
 11
66.54221988932556
 21
49.85319722605829
 31
0.0
  0
LINE
  5
229C
330
1F
100
AcDbEntity
  8
SPOJOVACÍ
  6
Continuous
100
AcDbLine
 10
68.49837958802243
 20
45.80879286646569
 30
0.0
 11
67.13846257448029
 21
49.85319722605829
 31
0.0
  0
LINE
  5
229D
330
1F
100
AcDbEntity
  8
izolace
  6
IZOLACE
 48
1.5
100
AcDbLine
 10
53.92523244422125
 20
65.3303933651053
 30
0.0
 11
53.92523244422125
 21
351.9611312305217
 31
0.0
  0
LINE
  5
229E
330
1F
100
AcDbEntity
  8
CETRIS
100
AcDbLine
 10
16.16798357122831
 20
16.90104697343241
 30
0.0
 11
28.16798357122832
 21
16.90104697343241
 31
0.0
  0
LINE
  5
229F
330
1F
100
AcDbEntity
  8
CETRIS
100
AcDbLine
 10
79.40023785597884
 20
16.90104697343241
 30
0.0
 11
91.40023785597884
 21
16.90104697343605
 31
0.0
  0
LINE
  5
22A0
330
1F
100
AcDbEntity
  8
STAVBA OBRYS
100
AcDbLine
 10
-96.44487001250594
 20
12.50145244406422
 30
0.0
 11
302.8279177478188
 21
12.50145244406422
 31
0.0
  0
LINE
  5
22A1
330
1F
100
AcDbEntity
  8
STAVBA OBRYS
100
AcDbLine
 10
-96.44487001250594
 20
42.50145244406422
 30
0.0
 11
0.6331095848444193
 21
42.50145244406422
 31
0.0
  0
LINE
  5
22A2
330
1F
100
AcDbEntity
  8
STAVBA OBRYS
  6
IZOLACE
 48
1.5
100
AcDbLine
 10
-96.44487001250594
 20
27.50145244406422
 30
0.0
 11
0.6331095848444193
 21
27.50145244406422
 31
0.0
  0
LINE
  5
22A3
330
1F
100
AcDbEntity
  8
STAVBA OBRYS
100
AcDbLine
 10
-96.44487001250594
 20
54.50145244406423
 30
0.0
 11
0.6331095848444193
 21
54.50145244406423
 31
0.0
  0
LINE
  5
22A4
330
1F
100
AcDbEntity
  8
STAVBA OBRYS
100
AcDbLine
 10
-96.44487001250594
 20
66.50145244406423
 30
0.0
 11
15.63310958484442
 21
66.50145244406423
 31
0.0
  0
LWPOLYLINE
  5
22A5
330
1F
100
AcDbEntity
  8
STAVBA OBRYS
100
AcDbPolyline
 90
        4
 70
     1
 43
0.0
 10
92.21735530359808
 20
66.50145244406423
 10
107.217355303598
 20
66.50145244406423
 10
107.217355303598
 20
12.50145244406422
 10
92.21735530359808
 20
12.50145244406422
  0
LINE
  5
22A6
330
1F
100
AcDbEntity
  8
STAVBA OBRYS
100
AcDbLine
 10
107.217355303598
 20
54.50145244406423
 30
0.0
 11
302.8279177478188
 21
54.50145244406423
 31
0.0
  0
LINE
  5
22A7
330
1F
100
AcDbEntity
  8
STAVBA OBRYS
  6
IZOLACE
 48
1.5
100
AcDbLine
 10
107.217355303598
 20
27.50145244406422
 30
0.0
 11
302.8279177478188
 21
27.50145244406422
 31
0.0
  0
LINE
  5
22A8
330
1F
100
AcDbEntity
  8
STAVBA OBRYS
100
AcDbLine
 10
107.217355303598
 20
42.50145244406422
 30
0.0
 11
302.8279177478188
 21
42.50145244406422
 31
0.0
  0
LINE
  5
22A9
330
1F
100
AcDbEntity
  8
STAVBA OBRYS
  6
IZOLACE
 48
0.7
100
AcDbLine
 10
99.71735530359808
 20
66.50145244406423
 30
0.0
 11
99.71735530359808
 21
12.50145244406422
 31
0.0
  0
LINE
  5
22AA
330
1F
100
AcDbEntity
  8
STAVBA OBRYS
  6
IZOLACE
 48
0.7
100
AcDbLine
 10
8.133109584844419
 20
66.50145244406423
 30
0.0
 11
8.133109584844419
 21
12.50145244406422
 31
0.0
  0
LWPOLYLINE
  5
22AB
330
1F
100
AcDbEntity
  8
STAVBA OBRYS
100
AcDbPolyline
 90
        4
 70
     1
 43
0.0
 10
15.63310958484442
 20
66.50145244406423
 10
0.6331095848444193
 20
66.50145244406423
 10
0.6331095848444193
 20
12.50145244406422
 10
15.63310958484442
 20
12.50145244406422
  0
LINE
  5
22AC
330
1F
100
AcDbEntity
  8
STAVBA OBRYS
100
AcDbLine
 10
107.217355303598
 20
66.50145244406423
 30
0.0
 11
302.8279177478188
 21
66.50145244406423
 31
0.0
  0
LINE
  5
22AD
330
1F
100
AcDbEntity
  8
STAVBA OBRYS
100
AcDbLine
 10
302.8279177478188
 20
68.54992513552253
 30
0.0
 11
94.26947366594765
 21
68.54992513552253
 31
0.0
  0
LWPOLYLINE
  5
22AE
330
1F
100
AcDbEntity
  8
STAVBA OBRYS
100
AcDbPolyline
 90
        4
 70
     1
 43
0.0
 10
94.26947366594765
 20
68.54992513552253
 10
194.2694736659476
 20
68.54992513552253
 10
194.2694736659476
 20
73.54992513552253
 10
94.26947366594765
 20
73.54992513552253
  0
LWPOLYLINE
  5
22AF
330
1F
100
AcDbEntity
  8
STAVBA OBRYS
100
AcDbPolyline
 90
        4
 70
     1
 43
0.0
 10
197.9830122629872
 20
68.54992513552253
 10
297.9830122629872
 20
68.54992513552253
 10
297.9830122629872
 20
73.54992513552253
 10
197.9830122629872
 20
73.54992513552253
  0
LINE
  5
22B0
330
1F
100
AcDbEntity
  8
STAVBA OBRYS
100
AcDbLine
 10
197.9830122629872
 20
73.54992513552253
 30
0.0
 11
194.2694736659476
 21
73.54992513552253
 31
0.0
  0
LINE
  5
22B1
330
1F
100
AcDbEntity
  8
STAVBA OBRYS
100
AcDbLine
 10
297.9830122629872
 20
73.54992513552253
 30
0.0
 11
302.8279177478224
 21
73.54992513552253
 31
0.0
  0
LINE
  5
22B2
330
1F
100
AcDbEntity
  8
STAVBA OBRYS
100
AcDbLine
 10
301.9609764243767
 20
73.54992513552253
 30
0.0
 11
301.9609764243804
 21
68.54992513552253
 31
0.0
  0
LWPOLYLINE
  5
22B3
330
1F
100
AcDbEntity
  8
STAVBA OBRYS
100
AcDbPolyline
 90
        4
 70
     1
 43
0.0
 10
94.32982677043844
 20
75.82665221972394
 10
99.37495129559909
 20
75.82665221972394
 10
99.37495129559909
 20
107.8242764710824
 10
94.32982677043844
 20
107.8242764710824
  0
LINE
  5
22B4
330
1F
100
AcDbEntity
  8
STAVBA OBRYS
100
AcDbLine
 10
94.32982677043844
 20
107.8242764710824
 30
0.0
 11
91.40023785597884
 21
107.8242764710824
 31
0.0
  0
LINE
  5
22B5
330
1F
100
AcDbEntity
  8
STAVBA OBRYS
100
AcDbLine
 10
99.37495129559909
 20
75.82665221972394
 30
0.0
 11
99.37495129559909
 21
73.54992513552253
 31
0.0
  0
LINE
  5
22B6
330
1F
100
AcDbEntity
  8
STAVBA OBRYS
100
AcDbLine
 10
94.32982677043844
 20
75.82665221972394
 30
0.0
 11
94.26947366594765
 21
73.54992513552253
 31
0.0
  0
LINE
  5
22B7
330
1F
100
AcDbEntity
  8
STAVBA OBRYS
100
AcDbLine
 10
92.21735530359808
 20
66.50145244406423
 30
0.0
 11
91.40023785597884
 21
66.50145244406423
 31
0.0
  0
LINE
  5
22B8
330
1F
100
AcDbEntity
  8
STAVBA OBRYS
100
AcDbLine
 10
302.8279177478188
 20
66.50145244406423
 30
0.0
 11
302.8279177478188
 21
73.54992513552253
 31
0.0
  0
TEXT
  5
22B9
330
1F
100
AcDbEntity
  8
POPIS
100
AcDbText
 10
166.6387939714376
 20
-54.67764124800732
 30
0.0
 40
25.0
  1
07
 41
0.85
  7
SIMPLEX7
100
AcDbText
  0
TEXT
  5
22BA
330
1F
100
AcDbEntity
  8
POPIS
100
AcDbText
 10
-79.14550136739411
 20
-54.67764124800732
 30
0.0
 40
25.0
  1
06
 41
0.85
  7
SIMPLEX7
100
AcDbText
  0
LINE
  5
22BB
330
1F
100
AcDbEntity
  8
POPIS
100
AcDbLine
 10
54.80525549427046
 20
-9.128212691901978
 30
0.0
 11
157.5938686637317
 21
-43.01564556624242
 31
0.0
  0
LINE
  5
22BC
330
1F
100
AcDbEntity
  8
POPIS
100
AcDbLine
 10
42.20347087105699
 20
14.20807049107799
 30
0.0
 11
-41.34203437089957
 21
-41.84779257186045
 31
0.0
  0
INSERT
  5
22BD
330
1F
100
AcDbEntity
  8
POPIS
100
AcDbBlockReference
  2
E_PUNKT
 10
54.77618716339645
 20
-9.100602316275114
 30
0.0
 50
270.0
  0
INSERT
  5
22BE
330
1F
100
AcDbEntity
  8
POPIS
100
AcDbBlockReference
  2
E_PUNKT
 10
42.17440254018299
 20
14.23568086670485
 30
0.0
 50
270.0
  0
INSERT
  5
22BF
330
1F
100
AcDbEntity
  8
POPIS
100
AcDbBlockReference
  2
E_PUNKT
 10
102.7265030651586
 20
59.35982496752178
 30
0.0
 50
270.0
  0
INSERT
  5
22C0
330
1F
100
AcDbEntity
  8
POPIS
100
AcDbBlockReference
  2
E_PUNKT
 10
67.40511265083194
 20
57.74673160688536
 30
0.0
 50
270.0
  0
TEXT
  5
22C1
330
1F
100
AcDbEntity
  8
POPIS
100
AcDbText
 10
166.6387939714376
 20
96.96427553541736
 30
0.0
 40
25.0
  1
05
 41
0.85
  7
SIMPLEX7
100
AcDbText
  0
TEXT
  5
22C2
330
1F
100
AcDbEntity
  8
POPIS
100
AcDbText
 10
166.6387939714376
 20
136.0976869092949
 30
0.0
 40
25.0
  1
04
 41
0.85
  7
SIMPLEX7
100
AcDbText
  0
LINE
  5
22C3
330
1F
100
AcDbEntity
  8
POPIS
100
AcDbLine
 10
161.5300755769502
 20
148.7900816480408
 30
0.0
 11
67.43418098170593
 21
57.7191212312585
 31
0.0
  0
LINE
  5
22C4
330
1F
100
AcDbEntity
  8
POPIS
100
AcDbLine
 10
159.2808225415073
 20
108.3540475810744
 30
0.0
 11
101.5055713960326
 21
59.33221459189491
 31
0.0
  0
LINE
  5
22C5
330
1F
100
AcDbEntity
  8
SPOJOVACÍ
  6
Continuous
100
AcDbLine
 10
19.83008567918375
 20
300.0206288676611
 30
0.0
 11
18.62271749628496
 21
300.9787099376456
 31
0.0
  0
LINE
  5
22C6
330
1F
100
AcDbEntity
  8
SPOJOVACÍ
  6
Continuous
100
AcDbLine
 10
21.24395288888706
 20
299.4076430185135
 30
0.0
 11
19.83008567918375
 21
300.0206288676611
 31
0.0
  0
LINE
  5
22C7
330
1F
100
AcDbEntity
  8
SPOJOVACÍ
  6
Continuous
100
AcDbLine
 10
22.7675808423163
 20
299.18068012763
 30
0.0
 11
21.24395288888706
 21
299.4076430185135
 31
0.0
  0
LINE
  5
22C8
330
1F
100
AcDbEntity
  8
SPOJOVACÍ
  6
Continuous
100
AcDbLine
 10
16.16798357122831
 20
302.9311489327131
 30
0.0
 11
17.36791034795976
 21
302.9311489327131
 31
0.0
  0
LINE
  5
22C9
330
1F
100
AcDbEntity
  8
SPOJOVACÍ
  6
Continuous
100
AcDbLine
 10
16.16798357122831
 20
292.7308411554452
 30
0.0
 11
16.16798357122831
 21
302.9311489327131
 31
0.0
  0
LINE
  5
22CA
330
1F
100
AcDbEntity
  8
SPOJOVACÍ
  6
Continuous
100
AcDbLine
 10
16.16798357122831
 20
292.7308411554452
 30
0.0
 11
17.36791034795976
 21
292.7308411554452
 31
0.0
  0
LINE
  5
22CB
330
1F
100
AcDbEntity
  8
SPOJOVACÍ
  6
Continuous
100
AcDbLine
 10
17.36791034795976
 20
292.7308411554452
 30
0.0
 11
17.36791034795976
 21
302.9311489327131
 31
0.0
  0
LINE
  5
22CC
330
1F
100
AcDbEntity
  8
SPOJOVACÍ
  6
Continuous
100
AcDbLine
 10
17.70463398584331
 20
302.2158437465453
 30
0.0
 11
17.36791034795976
 21
302.9311489327131
 31
0.0
  0
LINE
  5
22CD
330
1F
100
AcDbEntity
  8
SPOJOVACÍ
  6
Continuous
100
AcDbLine
 10
18.62271749628496
 20
300.9787099376456
 30
0.0
 11
17.70463398584331
 21
302.2158437465453
 31
0.0
  0
LINE
  5
22CE
330
1F
100
AcDbEntity
  8
SPOJOVACÍ
  6
Continuous
100
AcDbLine
 10
21.9806521191939
 20
296.4152674829723
 30
0.0
 11
22.7675808423163
 21
296.4813099648939
 31
0.0
  0
LINE
  5
22CF
330
1F
100
AcDbEntity
  8
SPOJOVACÍ
  6
Continuous
100
AcDbLine
 10
20.49981225214366
 20
295.9873866186729
 30
0.0
 11
21.9806521191939
 21
296.4152674829723
 31
0.0
  0
LINE
  5
22D0
330
1F
100
AcDbEntity
  8
SPOJOVACÍ
  6
Continuous
100
AcDbLine
 10
19.18082297384614
 20
295.1911561393547
 30
0.0
 11
20.49981225214366
 21
295.9873866186729
 31
0.0
  0
LINE
  5
22D1
330
1F
100
AcDbEntity
  8
SPOJOVACÍ
  6
Continuous
100
AcDbLine
 10
18.11205098443394
 20
294.0805262389961
 30
0.0
 11
19.18082297384614
 21
295.1911561393547
 31
0.0
  0
LINE
  5
22D2
330
1F
100
AcDbEntity
  8
SPOJOVACÍ
  6
Continuous
100
AcDbLine
 10
17.36791034795976
 20
292.7308411554452
 30
0.0
 11
18.11205098443394
 21
294.0805262389961
 31
0.0
  0
LINE
  5
22D3
330
1F
100
AcDbEntity
  8
SPOJOVACÍ
  6
Continuous
100
AcDbLine
 10
22.7675808423163
 20
299.18068012763
 30
0.0
 11
27.71053502124493
 21
299.18068012763
 31
0.0
  0
LINE
  5
22D4
330
1F
100
AcDbEntity
  8
SPOJOVACÍ
  6
Continuous
100
AcDbLine
 10
22.7675808423163
 20
296.4813099648939
 30
0.0
 11
26.80547397199632
 21
296.4813099648939
 31
0.0
  0
LINE
  5
22D5
330
1F
100
AcDbEntity
  8
SPOJOVACÍ
  6
Continuous
100
AcDbLine
 10
27.40078648117275
 20
296.4813099648939
 30
0.0
 11
29.91970253620172
 21
296.4813099648939
 31
0.0
  0
LINE
  5
22D6
330
1F
100
AcDbEntity
  8
SPOJOVACÍ
  6
Continuous
100
AcDbLine
 10
30.52338662751651
 20
296.4813099648939
 30
0.0
 11
33.04416303422556
 21
296.4813099648939
 31
0.0
  0
LINE
  5
22D7
330
1F
100
AcDbEntity
  8
SPOJOVACÍ
  6
Continuous
100
AcDbLine
 10
33.6385453677002
 20
296.4813099648939
 30
0.0
 11
36.16676318056931
 21
296.4813099648939
 31
0.0
  0
LINE
  5
22D8
330
1F
100
AcDbEntity
  8
SPOJOVACÍ
  6
Continuous
100
AcDbLine
 10
28.31421911255972
 20
299.18068012763
 30
0.0
 11
30.83313516758869
 21
299.18068012763
 31
0.0
  0
LINE
  5
22D9
330
1F
100
AcDbEntity
  8
SPOJOVACÍ
  6
Continuous
100
AcDbLine
 10
31.42937785274341
 20
299.18068012763
 30
0.0
 11
33.95759566561252
 21
299.18068012763
 31
0.0
  0
LINE
  5
22DA
330
1F
100
AcDbEntity
  8
SPOJOVACÍ
  6
Continuous
100
AcDbLine
 10
34.55197799908717
 20
299.18068012763
 30
0.0
 11
37.07275440579621
 21
299.18068012763
 31
0.0
  0
LINE
  5
22DB
330
1F
100
AcDbEntity
  8
SPOJOVACÍ
  6
Continuous
100
AcDbLine
 10
36.77137744785511
 20
296.4813099648939
 30
0.0
 11
39.28936332718228
 21
296.4813099648939
 31
0.0
  0
LINE
  5
22DC
330
1F
100
AcDbEntity
  8
SPOJOVACÍ
  6
Continuous
100
AcDbLine
 10
39.885606012337
 20
296.4813099648939
 30
0.0
 11
41.13297175422565
 21
296.4813099648939
 31
0.0
  0
LINE
  5
22DD
330
1F
100
AcDbEntity
  8
SPOJOVACÍ
  6
Continuous
100
AcDbLine
 10
37.67364796972913
 20
299.18068012763
 30
0.0
 11
40.1925640247581
 21
299.18068012763
 31
0.0
  0
LINE
  5
22DE
330
1F
100
AcDbEntity
  8
SPOJOVACÍ
  6
Continuous
100
AcDbLine
 10
40.7962481163421
 20
299.18068012763
 30
0.0
 11
41.13297175422565
 21
299.18068012763
 31
0.0
  0
LINE
  5
22DF
330
1F
100
AcDbEntity
  8
SPOJOVACÍ
  6
Continuous
100
AcDbLine
 10
41.13297175422565
 20
296.4813099648939
 30
0.0
 11
42.3301080035825
 21
296.6310682676169
 31
0.0
  0
LINE
  5
22E0
330
1F
100
AcDbEntity
  8
SPOJOVACÍ
  6
Continuous
100
AcDbLine
 10
51.93324291917895
 20
297.8309950440792
 30
0.0
 11
49.09713691791046
 21
298.1853920252081
 31
0.0
  0
LINE
  5
22E1
330
1F
100
AcDbEntity
  8
SPOJOVACÍ
  6
Continuous
100
AcDbLine
 10
42.95053525943592
 20
296.7082728601429
 30
0.0
 11
45.27225404550051
 21
296.9984877096624
 31
0.0
  0
LINE
  5
22E2
330
1F
100
AcDbEntity
  8
SPOJOVACÍ
  6
Continuous
100
AcDbLine
 10
45.9029132351651
 20
297.0775526525006
 30
0.0
 11
48.22370184552062
 21
297.3677674976546
 31
0.0
  0
LINE
  5
22E3
330
1F
100
AcDbEntity
  8
SPOJOVACÍ
  6
Continuous
100
AcDbLine
 10
48.84412910137405
 20
297.4449720901805
 30
0.0
 11
51.93324291917895
 21
297.8309950440792
 31
0.0
  0
LINE
  5
22E4
330
1F
100
AcDbEntity
  8
SPOJOVACÍ
  6
Continuous
100
AcDbLine
 10
48.5278693308436
 20
298.2570155624319
 30
0.0
 11
46.38288394585913
 21
298.5249061907428
 31
0.0
  0
LINE
  5
22E5
330
1F
100
AcDbEntity
  8
SPOJOVACÍ
  6
Continuous
100
AcDbLine
 10
45.81082583141039
 20
298.596529723601
 30
0.0
 11
43.67421202855701
 21
298.8634901789385
 31
0.0
  0
LINE
  5
22E6
330
1F
100
AcDbEntity
  8
SPOJOVACÍ
  6
Continuous
100
AcDbLine
 10
43.10401426551186
 20
298.9351137161623
 30
0.0
 11
41.13297175422565
 21
299.18068012763
 31
0.0
  0
LINE
  5
22E7
330
1F
100
AcDbEntity
  8
SPOJOVACÍ
  6
Continuous
100
AcDbLine
 10
26.96825473618162
 20
295.4311414911547
 30
0.0
 11
28.16818151264385
 21
300.2308485970036
 31
0.0
  0
LINE
  5
22E8
330
1F
100
AcDbEntity
  8
SPOJOVACÍ
  6
Continuous
100
AcDbLine
 10
26.96825473618162
 20
295.4311414911547
 30
0.0
 11
27.18591587222988
 21
295.8087928664657
 31
0.0
  0
LINE
  5
22E9
330
1F
100
AcDbEntity
  8
SPOJOVACÍ
  6
Continuous
100
AcDbLine
 10
26.96825473618162
 20
295.4311414911547
 30
0.0
 11
26.58967318735165
 21
295.8087928664657
 31
0.0
  0
LINE
  5
22EA
330
1F
100
AcDbEntity
  8
SPOJOVACÍ
  6
Continuous
100
AcDbLine
 10
28.16818151264385
 20
300.2308485970036
 30
0.0
 11
28.54583288577202
 21
299.8531972260582
 31
0.0
  0
LINE
  5
22EB
330
1F
100
AcDbEntity
  8
SPOJOVACÍ
  6
Continuous
100
AcDbLine
 10
28.16818151264385
 20
300.2308485970036
 30
0.0
 11
27.9495902006173
 21
299.8531972260582
 31
0.0
  0
LINE
  5
22EC
330
1F
100
AcDbEntity
  8
SPOJOVACÍ
  6
Continuous
100
AcDbLine
 10
27.18591587222988
 20
295.8087928664657
 30
0.0
 11
28.54583288577202
 21
299.8531972260582
 31
0.0
  0
LINE
  5
22ED
330
1F
100
AcDbEntity
  8
SPOJOVACÍ
  6
Continuous
100
AcDbLine
 10
26.58967318735165
 20
295.8087928664657
 30
0.0
 11
27.9495902006173
 21
299.8531972260582
 31
0.0
  0
LINE
  5
22EE
330
1F
100
AcDbEntity
  8
SPOJOVACÍ
  6
Continuous
100
AcDbLine
 10
30.0880643551435
 20
295.4311414911547
 30
0.0
 11
31.28799113188222
 21
300.2308485970036
 31
0.0
  0
LINE
  5
22EF
330
1F
100
AcDbEntity
  8
SPOJOVACÍ
  6
Continuous
100
AcDbLine
 10
30.0880643551435
 20
295.4311414911547
 30
0.0
 11
30.30665566717004
 21
295.8087928664657
 31
0.0
  0
LINE
  5
22F0
330
1F
100
AcDbEntity
  8
SPOJOVACÍ
  6
Continuous
100
AcDbLine
 10
30.0880643551435
 20
295.4311414911547
 30
0.0
 11
29.71041298201532
 21
295.8087928664657
 31
0.0
  0
LINE
  5
22F1
330
1F
100
AcDbEntity
  8
SPOJOVACÍ
  6
Continuous
100
AcDbLine
 10
31.28799113188222
 20
300.2308485970036
 30
0.0
 11
31.66564250473391
 21
299.8531972260582
 31
0.0
  0
LINE
  5
22F2
330
1F
100
AcDbEntity
  8
SPOJOVACÍ
  6
Continuous
100
AcDbLine
 10
31.28799113188222
 20
300.2308485970036
 30
0.0
 11
31.06939981985567
 21
299.8531972260582
 31
0.0
  0
LINE
  5
22F3
330
1F
100
AcDbEntity
  8
SPOJOVACÍ
  6
Continuous
100
AcDbLine
 10
30.30665566717004
 20
295.8087928664657
 30
0.0
 11
31.66564250473391
 21
299.8531972260582
 31
0.0
  0
LINE
  5
22F4
330
1F
100
AcDbEntity
  8
SPOJOVACÍ
  6
Continuous
100
AcDbLine
 10
29.71041298201532
 20
295.8087928664657
 30
0.0
 11
31.06939981985567
 21
299.8531972260582
 31
0.0
  0
LINE
  5
22F5
330
1F
100
AcDbEntity
  8
SPOJOVACÍ
  6
Continuous
100
AcDbLine
 10
42.52544492060486
 20
295.6850794855757
 30
0.0
 11
42.7440362326314
 21
296.06366103386
 31
0.0
  0
LINE
  5
22F6
330
1F
100
AcDbEntity
  8
SPOJOVACÍ
  6
Continuous
100
AcDbLine
 10
42.52544492060486
 20
295.6850794855757
 30
0.0
 11
42.14779354747668
 21
296.06366103386
 31
0.0
  0
LINE
  5
22F7
330
1F
100
AcDbEntity
  8
SPOJOVACÍ
  6
Continuous
100
AcDbLine
 10
43.49840880290947
 20
299.8104091383186
 30
0.0
 11
43.87699035201592
 21
299.4327577673733
 31
0.0
  0
LINE
  5
22F8
330
1F
100
AcDbEntity
  8
SPOJOVACÍ
  6
Continuous
100
AcDbLine
 10
43.49840880290947
 20
299.8104091383186
 30
0.0
 11
43.2807476668612
 21
299.4327577673733
 31
0.0
  0
LINE
  5
22F9
330
1F
100
AcDbEntity
  8
SPOJOVACÍ
  6
Continuous
100
AcDbLine
 10
42.7440362326314
 20
296.06366103386
 30
0.0
 11
43.87699035201592
 21
299.4327577673733
 31
0.0
  0
LINE
  5
22FA
330
1F
100
AcDbEntity
  8
SPOJOVACÍ
  6
Continuous
100
AcDbLine
 10
42.14779354747668
 20
296.06366103386
 30
0.0
 11
43.2807476668612
 21
299.4327577673733
 31
0.0
  0
LINE
  5
22FB
330
1F
100
AcDbEntity
  8
SPOJOVACÍ
  6
Continuous
100
AcDbLine
 10
42.52544492060486
 20
295.6850794855757
 30
0.0
 11
43.49840880290947
 21
299.8104091383186
 31
0.0
  0
LINE
  5
22FC
330
1F
100
AcDbEntity
  8
SPOJOVACÍ
  6
Continuous
100
AcDbLine
 10
45.54014467490276
 20
296.2496961916816
 30
0.0
 11
45.75780581095102
 21
296.6273475669925
 31
0.0
  0
LINE
  5
22FD
330
1F
100
AcDbEntity
  8
SPOJOVACÍ
  6
Continuous
100
AcDbLine
 10
45.54014467490276
 20
296.2496961916816
 30
0.0
 11
45.16156312579631
 21
296.6273475669925
 31
0.0
  0
LINE
  5
22FE
330
1F
100
AcDbEntity
  8
SPOJOVACÍ
  6
Continuous
100
AcDbLine
 10
46.17359439167273
 20
299.3657851081128
 30
0.0
 11
46.5521759405027
 21
298.9881337371674
 31
0.0
  0
LINE
  5
22FF
330
1F
100
AcDbEntity
  8
SPOJOVACÍ
  6
Continuous
100
AcDbLine
 10
46.17359439167273
 20
299.3657851081128
 30
0.0
 11
45.95593325562447
 21
298.9881337371674
 31
0.0
  0
LINE
  5
2300
330
1F
100
AcDbEntity
  8
SPOJOVACÍ
  6
Continuous
100
AcDbLine
 10
45.75780581095102
 20
296.6273475669925
 30
0.0
 11
46.5521759405027
 21
298.9881337371674
 31
0.0
  0
LINE
  5
2301
330
1F
100
AcDbEntity
  8
SPOJOVACÍ
  6
Continuous
100
AcDbLine
 10
45.16156312579631
 20
296.6273475669925
 30
0.0
 11
45.95593325562447
 21
298.9881337371674
 31
0.0
  0
LINE
  5
2302
330
1F
100
AcDbEntity
  8
SPOJOVACÍ
  6
Continuous
100
AcDbLine
 10
45.54014467490276
 20
296.2496961916816
 30
0.0
 11
46.17359439167273
 21
299.3657851081128
 31
0.0
  0
LINE
  5
2303
330
1F
100
AcDbEntity
  8
SPOJOVACÍ
  6
Continuous
100
AcDbLine
 10
48.55391425322238
 20
296.814312902153
 30
0.0
 11
48.77250556524166
 21
297.1919642730984
 31
0.0
  0
LINE
  5
2304
330
1F
100
AcDbEntity
  8
SPOJOVACÍ
  6
Continuous
100
AcDbLine
 10
48.55391425322238
 20
296.814312902153
 30
0.0
 11
48.17626288009421
 21
297.1919642730984
 31
0.0
  0
LINE
  5
2305
330
1F
100
AcDbEntity
  8
SPOJOVACÍ
  6
Continuous
100
AcDbLine
 10
48.86459296899636
 20
298.9686000436098
 30
0.0
 11
49.24317451782633
 21
298.5909486726644
 31
0.0
  0
LINE
  5
2306
330
1F
100
AcDbEntity
  8
SPOJOVACÍ
  6
Continuous
100
AcDbLine
 10
48.86459296899636
 20
298.9686000436098
 30
0.0
 11
48.64693183267888
 21
298.5909486726644
 31
0.0
  0
LINE
  5
2307
330
1F
100
AcDbEntity
  8
SPOJOVACÍ
  6
Continuous
100
AcDbLine
 10
48.77250556524166
 20
297.1919642730984
 30
0.0
 11
49.24317451782633
 21
298.5909486726644
 31
0.0
  0
LINE
  5
2308
330
1F
100
AcDbEntity
  8
SPOJOVACÍ
  6
Continuous
100
AcDbLine
 10
48.17626288009421
 20
297.1919642730984
 30
0.0
 11
48.64693183267888
 21
298.5909486726644
 31
0.0
  0
LINE
  5
2309
330
1F
100
AcDbEntity
  8
SPOJOVACÍ
  6
Continuous
100
AcDbLine
 10
48.55391425322238
 20
296.814312902153
 30
0.0
 11
48.86459296899636
 21
298.9686000436098
 31
0.0
  0
LINE
  5
230A
330
1F
100
AcDbEntity
  8
SPOJOVACÍ
  6
Continuous
100
AcDbLine
 10
33.20787397438186
 20
295.4311414911547
 30
0.0
 11
34.4078007508441
 21
300.2308485970036
 31
0.0
  0
LINE
  5
230B
330
1F
100
AcDbEntity
  8
SPOJOVACÍ
  6
Continuous
100
AcDbLine
 10
33.20787397438186
 20
295.4311414911547
 30
0.0
 11
33.42646528640841
 21
295.8087928664657
 31
0.0
  0
LINE
  5
230C
330
1F
100
AcDbEntity
  8
SPOJOVACÍ
  6
Continuous
100
AcDbLine
 10
33.20787397438186
 20
295.4311414911547
 30
0.0
 11
32.83022260125369
 21
295.8087928664657
 31
0.0
  0
LINE
  5
230D
330
1F
100
AcDbEntity
  8
SPOJOVACÍ
  6
Continuous
100
AcDbLine
 10
34.4078007508441
 20
300.2308485970036
 30
0.0
 11
34.78638229967407
 21
299.8531972260582
 31
0.0
  0
LINE
  5
230E
330
1F
100
AcDbEntity
  8
SPOJOVACÍ
  6
Continuous
100
AcDbLine
 10
34.4078007508441
 20
300.2308485970036
 30
0.0
 11
34.19013961452662
 21
299.8531972260582
 31
0.0
  0
LINE
  5
230F
330
1F
100
AcDbEntity
  8
SPOJOVACÍ
  6
Continuous
100
AcDbLine
 10
33.42646528640841
 20
295.8087928664657
 30
0.0
 11
34.78638229967407
 21
299.8531972260582
 31
0.0
  0
LINE
  5
2310
330
1F
100
AcDbEntity
  8
SPOJOVACÍ
  6
Continuous
100
AcDbLine
 10
32.83022260125369
 20
295.8087928664657
 30
0.0
 11
34.19013961452662
 21
299.8531972260582
 31
0.0
  0
LINE
  5
2311
330
1F
100
AcDbEntity
  8
SPOJOVACÍ
  6
Continuous
100
AcDbLine
 10
36.32768359335102
 20
295.4311414911547
 30
0.0
 11
37.52761036981326
 21
300.2308485970036
 31
0.0
  0
LINE
  5
2312
330
1F
100
AcDbEntity
  8
SPOJOVACÍ
  6
Continuous
100
AcDbLine
 10
36.32768359335102
 20
295.4311414911547
 30
0.0
 11
36.54627490537029
 21
295.8087928664657
 31
0.0
  0
LINE
  5
2313
330
1F
100
AcDbEntity
  8
SPOJOVACÍ
  6
Continuous
100
AcDbLine
 10
36.32768359335102
 20
295.4311414911547
 30
0.0
 11
35.95003222022285
 21
295.8087928664657
 31
0.0
  0
LINE
  5
2314
330
1F
100
AcDbEntity
  8
SPOJOVACÍ
  6
Continuous
100
AcDbLine
 10
37.52761036981326
 20
300.2308485970036
 30
0.0
 11
37.90619191864323
 21
299.8531972260582
 31
0.0
  0
LINE
  5
2315
330
1F
100
AcDbEntity
  8
SPOJOVACÍ
  6
Continuous
100
AcDbLine
 10
37.52761036981326
 20
300.2308485970036
 30
0.0
 11
37.30994923376499
 21
299.8531972260582
 31
0.0
  0
LINE
  5
2316
330
1F
100
AcDbEntity
  8
SPOJOVACÍ
  6
Continuous
100
AcDbLine
 10
36.54627490537029
 20
295.8087928664657
 30
0.0
 11
37.90619191864323
 21
299.8531972260582
 31
0.0
  0
LINE
  5
2317
330
1F
100
AcDbEntity
  8
SPOJOVACÍ
  6
Continuous
100
AcDbLine
 10
35.95003222022285
 20
295.8087928664657
 30
0.0
 11
37.30994923376499
 21
299.8531972260582
 31
0.0
  0
LINE
  5
2318
330
1F
100
AcDbEntity
  8
SPOJOVACÍ
  6
Continuous
100
AcDbLine
 10
39.44842338829118
 20
295.4311414911547
 30
0.0
 11
40.64835016475342
 21
300.2308485970036
 31
0.0
  0
LINE
  5
2319
330
1F
100
AcDbEntity
  8
SPOJOVACÍ
  6
Continuous
100
AcDbLine
 10
39.44842338829118
 20
295.4311414911547
 30
0.0
 11
39.66608452433945
 21
295.8087928664657
 31
0.0
  0
LINE
  5
231A
330
1F
100
AcDbEntity
  8
SPOJOVACÍ
  6
Continuous
100
AcDbLine
 10
39.44842338829118
 20
295.4311414911547
 30
0.0
 11
39.06984183918473
 21
295.8087928664657
 31
0.0
  0
LINE
  5
231B
330
1F
100
AcDbEntity
  8
SPOJOVACÍ
  6
Continuous
100
AcDbLine
 10
40.64835016475342
 20
300.2308485970036
 30
0.0
 11
41.02600153788159
 21
299.8531972260582
 31
0.0
  0
LINE
  5
231C
330
1F
100
AcDbEntity
  8
SPOJOVACÍ
  6
Continuous
100
AcDbLine
 10
40.64835016475342
 20
300.2308485970036
 30
0.0
 11
40.42975885272688
 21
299.8531972260582
 31
0.0
  0
LINE
  5
231D
330
1F
100
AcDbEntity
  8
SPOJOVACÍ
  6
Continuous
100
AcDbLine
 10
39.66608452433945
 20
295.8087928664657
 30
0.0
 11
41.02600153788159
 21
299.8531972260582
 31
0.0
  0
LINE
  5
231E
330
1F
100
AcDbEntity
  8
SPOJOVACÍ
  6
Continuous
100
AcDbLine
 10
39.06984183918473
 20
295.8087928664657
 30
0.0
 11
40.42975885272688
 21
299.8531972260582
 31
0.0
  0
LINE
  5
231F
330
1F
100
AcDbEntity
  8
SPOJOVACÍ
  6
Continuous
100
AcDbLine
 10
68.49837958802243
 20
295.8087928664657
 30
0.0
 11
67.13846257448029
 21
299.8531972260582
 31
0.0
  0
LINE
  5
2320
330
1F
100
AcDbEntity
  8
SPOJOVACÍ
  6
Continuous
100
AcDbLine
 10
67.90213690286771
 20
295.8087928664657
 30
0.0
 11
66.54221988932556
 21
299.8531972260582
 31
0.0
  0
LINE
  5
2321
330
1F
100
AcDbEntity
  8
SPOJOVACÍ
  6
Continuous
100
AcDbLine
 10
66.91987126245374
 20
300.2308485970036
 30
0.0
 11
67.13846257448029
 21
299.8531972260582
 31
0.0
  0
LINE
  5
2322
330
1F
100
AcDbEntity
  8
SPOJOVACÍ
  6
Continuous
100
AcDbLine
 10
66.91987126245374
 20
300.2308485970036
 30
0.0
 11
66.54221988932556
 21
299.8531972260582
 31
0.0
  0
LINE
  5
2323
330
1F
100
AcDbEntity
  8
SPOJOVACÍ
  6
Continuous
100
AcDbLine
 10
68.11979803891597
 20
295.4311414911547
 30
0.0
 11
68.49837958802243
 21
295.8087928664657
 31
0.0
  0
LINE
  5
2324
330
1F
100
AcDbEntity
  8
SPOJOVACÍ
  6
Continuous
100
AcDbLine
 10
68.11979803891597
 20
295.4311414911547
 30
0.0
 11
67.90213690286771
 21
295.8087928664657
 31
0.0
  0
LINE
  5
2325
330
1F
100
AcDbEntity
  8
SPOJOVACÍ
  6
Continuous
100
AcDbLine
 10
68.11979803891597
 20
295.4311414911547
 30
0.0
 11
66.91987126245374
 21
300.2308485970036
 31
0.0
  0
LINE
  5
2326
330
1F
100
AcDbEntity
  8
SPOJOVACÍ
  6
Continuous
100
AcDbLine
 10
71.61818920698431
 20
295.8087928664657
 30
0.0
 11
70.25827219344217
 21
299.8531972260582
 31
0.0
  0
LINE
  5
2327
330
1F
100
AcDbEntity
  8
SPOJOVACÍ
  6
Continuous
100
AcDbLine
 10
71.02194652183687
 20
295.8087928664657
 30
0.0
 11
69.66202950856393
 21
299.8531972260582
 31
0.0
  0
LINE
  5
2328
330
1F
100
AcDbEntity
  8
SPOJOVACÍ
  6
Continuous
100
AcDbLine
 10
70.0406110573939
 20
300.2308485970036
 30
0.0
 11
70.25827219344217
 21
299.8531972260582
 31
0.0
  0
LINE
  5
2329
330
1F
100
AcDbEntity
  8
SPOJOVACÍ
  6
Continuous
100
AcDbLine
 10
70.0406110573939
 20
300.2308485970036
 30
0.0
 11
69.66202950856393
 21
299.8531972260582
 31
0.0
  0
LINE
  5
232A
330
1F
100
AcDbEntity
  8
SPOJOVACÍ
  6
Continuous
100
AcDbLine
 10
71.24053783385614
 20
295.4311414911547
 30
0.0
 11
71.61818920698431
 21
295.8087928664657
 31
0.0
  0
LINE
  5
232B
330
1F
100
AcDbEntity
  8
SPOJOVACÍ
  6
Continuous
100
AcDbLine
 10
71.24053783385614
 20
295.4311414911547
 30
0.0
 11
71.02194652183687
 21
295.8087928664657
 31
0.0
  0
LINE
  5
232C
330
1F
100
AcDbEntity
  8
SPOJOVACÍ
  6
Continuous
100
AcDbLine
 10
71.24053783385614
 20
295.4311414911547
 30
0.0
 11
70.0406110573939
 21
300.2308485970036
 31
0.0
  0
LINE
  5
232D
330
1F
100
AcDbEntity
  8
SPOJOVACÍ
  6
Continuous
100
AcDbLine
 10
74.73799882595347
 20
295.8087928664657
 30
0.0
 11
73.37808181268053
 21
299.8531972260582
 31
0.0
  0
LINE
  5
232E
330
1F
100
AcDbEntity
  8
SPOJOVACÍ
  6
Continuous
100
AcDbLine
 10
74.14175614079875
 20
295.8087928664657
 30
0.0
 11
72.78183912753309
 21
299.8531972260582
 31
0.0
  0
LINE
  5
232F
330
1F
100
AcDbEntity
  8
SPOJOVACÍ
  6
Continuous
100
AcDbLine
 10
73.16042067636306
 20
300.2308485970036
 30
0.0
 11
73.37808181268053
 21
299.8531972260582
 31
0.0
  0
LINE
  5
2330
330
1F
100
AcDbEntity
  8
SPOJOVACÍ
  6
Continuous
100
AcDbLine
 10
73.16042067636306
 20
300.2308485970036
 30
0.0
 11
72.78183912753309
 21
299.8531972260582
 31
0.0
  0
LINE
  5
2331
330
1F
100
AcDbEntity
  8
SPOJOVACÍ
  6
Continuous
100
AcDbLine
 10
74.3603474528253
 20
295.4311414911547
 30
0.0
 11
74.73799882595347
 21
295.8087928664657
 31
0.0
  0
LINE
  5
2332
330
1F
100
AcDbEntity
  8
SPOJOVACÍ
  6
Continuous
100
AcDbLine
 10
74.3603474528253
 20
295.4311414911547
 30
0.0
 11
74.14175614079875
 21
295.8087928664657
 31
0.0
  0
LINE
  5
2333
330
1F
100
AcDbEntity
  8
SPOJOVACÍ
  6
Continuous
100
AcDbLine
 10
74.3603474528253
 20
295.4311414911547
 30
0.0
 11
73.16042067636306
 21
300.2308485970036
 31
0.0
  0
LINE
  5
2334
330
1F
100
AcDbEntity
  8
SPOJOVACÍ
  6
Continuous
100
AcDbLine
 10
59.01430717398477
 20
296.814312902153
 30
0.0
 11
58.7036284582108
 21
298.9686000436098
 31
0.0
  0
LINE
  5
2335
330
1F
100
AcDbEntity
  8
SPOJOVACÍ
  6
Continuous
100
AcDbLine
 10
59.39195854711295
 20
297.1919642730984
 30
0.0
 11
58.92128959452827
 21
298.5909486726644
 31
0.0
  0
LINE
  5
2336
330
1F
100
AcDbEntity
  8
SPOJOVACÍ
  6
Continuous
100
AcDbLine
 10
58.79571586196551
 20
297.1919642730984
 30
0.0
 11
58.32504690938083
 21
298.5909486726644
 31
0.0
  0
LINE
  5
2337
330
1F
100
AcDbEntity
  8
SPOJOVACÍ
  6
Continuous
100
AcDbLine
 10
58.7036284582108
 20
298.9686000436098
 30
0.0
 11
58.92128959452827
 21
298.5909486726644
 31
0.0
  0
LINE
  5
2338
330
1F
100
AcDbEntity
  8
SPOJOVACÍ
  6
Continuous
100
AcDbLine
 10
58.7036284582108
 20
298.9686000436098
 30
0.0
 11
58.32504690938083
 21
298.5909486726644
 31
0.0
  0
LINE
  5
2339
330
1F
100
AcDbEntity
  8
SPOJOVACÍ
  6
Continuous
100
AcDbLine
 10
59.01430717398477
 20
296.814312902153
 30
0.0
 11
59.39195854711295
 21
297.1919642730984
 31
0.0
  0
LINE
  5
233A
330
1F
100
AcDbEntity
  8
SPOJOVACÍ
  6
Continuous
100
AcDbLine
 10
59.01430717398477
 20
296.814312902153
 30
0.0
 11
58.79571586196551
 21
297.1919642730984
 31
0.0
  0
LINE
  5
233B
330
1F
100
AcDbEntity
  8
SPOJOVACÍ
  6
Continuous
100
AcDbLine
 10
62.0280767523044
 20
296.2496961916816
 30
0.0
 11
61.39462703553443
 21
299.3657851081128
 31
0.0
  0
LINE
  5
233C
330
1F
100
AcDbEntity
  8
SPOJOVACÍ
  6
Continuous
100
AcDbLine
 10
62.40665830141086
 20
296.6273475669925
 30
0.0
 11
61.61228817158269
 21
298.9881337371674
 31
0.0
  0
LINE
  5
233D
330
1F
100
AcDbEntity
  8
SPOJOVACÍ
  6
Continuous
100
AcDbLine
 10
61.81041561625614
 20
296.6273475669925
 30
0.0
 11
61.01604548670445
 21
298.9881337371674
 31
0.0
  0
LINE
  5
233E
330
1F
100
AcDbEntity
  8
SPOJOVACÍ
  6
Continuous
100
AcDbLine
 10
61.39462703553443
 20
299.3657851081128
 30
0.0
 11
61.61228817158269
 21
298.9881337371674
 31
0.0
  0
LINE
  5
233F
330
1F
100
AcDbEntity
  8
SPOJOVACÍ
  6
Continuous
100
AcDbLine
 10
61.39462703553443
 20
299.3657851081128
 30
0.0
 11
61.01604548670445
 21
298.9881337371674
 31
0.0
  0
LINE
  5
2340
330
1F
100
AcDbEntity
  8
SPOJOVACÍ
  6
Continuous
100
AcDbLine
 10
62.0280767523044
 20
296.2496961916816
 30
0.0
 11
62.40665830141086
 21
296.6273475669925
 31
0.0
  0
LINE
  5
2341
330
1F
100
AcDbEntity
  8
SPOJOVACÍ
  6
Continuous
100
AcDbLine
 10
62.0280767523044
 20
296.2496961916816
 30
0.0
 11
61.81041561625614
 21
296.6273475669925
 31
0.0
  0
LINE
  5
2342
330
1F
100
AcDbEntity
  8
SPOJOVACÍ
  6
Continuous
100
AcDbLine
 10
65.04277650660231
 20
295.6850794855757
 30
0.0
 11
64.0698126242977
 21
299.8104091383186
 31
0.0
  0
LINE
  5
2343
330
1F
100
AcDbEntity
  8
SPOJOVACÍ
  6
Continuous
100
AcDbLine
 10
65.42042787973048
 20
296.06366103386
 30
0.0
 11
64.28747376034596
 21
299.4327577673733
 31
0.0
  0
LINE
  5
2344
330
1F
100
AcDbEntity
  8
SPOJOVACÍ
  6
Continuous
100
AcDbLine
 10
64.82418519457576
 20
296.06366103386
 30
0.0
 11
63.69123107519124
 21
299.4327577673733
 31
0.0
  0
LINE
  5
2345
330
1F
100
AcDbEntity
  8
SPOJOVACÍ
  6
Continuous
100
AcDbLine
 10
64.0698126242977
 20
299.8104091383186
 30
0.0
 11
64.28747376034596
 21
299.4327577673733
 31
0.0
  0
LINE
  5
2346
330
1F
100
AcDbEntity
  8
SPOJOVACÍ
  6
Continuous
100
AcDbLine
 10
64.0698126242977
 20
299.8104091383186
 30
0.0
 11
63.69123107519124
 21
299.4327577673733
 31
0.0
  0
LINE
  5
2347
330
1F
100
AcDbEntity
  8
SPOJOVACÍ
  6
Continuous
100
AcDbLine
 10
65.04277650660231
 20
295.6850794855757
 30
0.0
 11
65.42042787973048
 21
296.06366103386
 31
0.0
  0
LINE
  5
2348
330
1F
100
AcDbEntity
  8
SPOJOVACÍ
  6
Continuous
100
AcDbLine
 10
65.04277650660231
 20
295.6850794855757
 30
0.0
 11
64.82418519457576
 21
296.06366103386
 31
0.0
  0
LINE
  5
2349
330
1F
100
AcDbEntity
  8
SPOJOVACÍ
  6
Continuous
100
AcDbLine
 10
77.85780844519184
 20
295.8087928664657
 30
0.0
 11
76.49882160735149
 21
299.8531972260582
 31
0.0
  0
LINE
  5
234A
330
1F
100
AcDbEntity
  8
SPOJOVACÍ
  6
Continuous
100
AcDbLine
 10
77.26156576003711
 20
295.8087928664657
 30
0.0
 11
75.90257892247326
 21
299.8531972260582
 31
0.0
  0
LINE
  5
234B
330
1F
100
AcDbEntity
  8
SPOJOVACÍ
  6
Continuous
100
AcDbLine
 10
76.28023029532494
 20
300.2308485970036
 30
0.0
 11
76.49882160735149
 21
299.8531972260582
 31
0.0
  0
LINE
  5
234C
330
1F
100
AcDbEntity
  8
SPOJOVACÍ
  6
Continuous
100
AcDbLine
 10
76.28023029532494
 20
300.2308485970036
 30
0.0
 11
75.90257892247326
 21
299.8531972260582
 31
0.0
  0
LINE
  5
234D
330
1F
100
AcDbEntity
  8
SPOJOVACÍ
  6
Continuous
100
AcDbLine
 10
77.48015707206366
 20
295.4311414911547
 30
0.0
 11
77.85780844519184
 21
295.8087928664657
 31
0.0
  0
LINE
  5
234E
330
1F
100
AcDbEntity
  8
SPOJOVACÍ
  6
Continuous
100
AcDbLine
 10
77.48015707206366
 20
295.4311414911547
 30
0.0
 11
77.26156576003711
 21
295.8087928664657
 31
0.0
  0
LINE
  5
234F
330
1F
100
AcDbEntity
  8
SPOJOVACÍ
  6
Continuous
100
AcDbLine
 10
77.48015707206366
 20
295.4311414911547
 30
0.0
 11
76.28023029532494
 21
300.2308485970036
 31
0.0
  0
LINE
  5
2350
330
1F
100
AcDbEntity
  8
SPOJOVACÍ
  6
Continuous
100
AcDbLine
 10
80.97854823985551
 20
295.8087928664657
 30
0.0
 11
79.61863122658986
 21
299.8531972260582
 31
0.0
  0
LINE
  5
2351
330
1F
100
AcDbEntity
  8
SPOJOVACÍ
  6
Continuous
100
AcDbLine
 10
80.38230555497728
 20
295.8087928664657
 30
0.0
 11
79.02238854143513
 21
299.8531972260582
 31
0.0
  0
LINE
  5
2352
330
1F
100
AcDbEntity
  8
SPOJOVACÍ
  6
Continuous
100
AcDbLine
 10
79.40003991456331
 20
300.2308485970036
 30
0.0
 11
79.61863122658986
 21
299.8531972260582
 31
0.0
  0
LINE
  5
2353
330
1F
100
AcDbEntity
  8
SPOJOVACÍ
  6
Continuous
100
AcDbLine
 10
79.40003991456331
 20
300.2308485970036
 30
0.0
 11
79.02238854143513
 21
299.8531972260582
 31
0.0
  0
LINE
  5
2354
330
1F
100
AcDbEntity
  8
SPOJOVACÍ
  6
Continuous
100
AcDbLine
 10
80.59996669102554
 20
295.4311414911547
 30
0.0
 11
80.97854823985551
 21
295.8087928664657
 31
0.0
  0
LINE
  5
2355
330
1F
100
AcDbEntity
  8
SPOJOVACÍ
  6
Continuous
100
AcDbLine
 10
80.59996669102554
 20
295.4311414911547
 30
0.0
 11
80.38230555497728
 21
295.8087928664657
 31
0.0
  0
LINE
  5
2356
330
1F
100
AcDbEntity
  8
SPOJOVACÍ
  6
Continuous
100
AcDbLine
 10
80.59996669102554
 20
295.4311414911547
 30
0.0
 11
79.40003991456331
 21
300.2308485970036
 31
0.0
  0
LINE
  5
2357
330
1F
100
AcDbEntity
  8
SPOJOVACÍ
  6
Continuous
100
AcDbLine
 10
64.4642071616953
 20
298.9351137161623
 30
0.0
 11
66.43524967298152
 21
299.18068012763
 31
0.0
  0
LINE
  5
2358
330
1F
100
AcDbEntity
  8
SPOJOVACÍ
  6
Continuous
100
AcDbLine
 10
61.75739559579676
 20
298.596529723601
 30
0.0
 11
63.89400939865016
 21
298.8634901789385
 31
0.0
  0
LINE
  5
2359
330
1F
100
AcDbEntity
  8
SPOJOVACÍ
  6
Continuous
100
AcDbLine
 10
59.04035209636356
 20
298.2570155624319
 30
0.0
 11
61.18533748134803
 21
298.5249061907428
 31
0.0
  0
LINE
  5
235A
330
1F
100
AcDbEntity
  8
SPOJOVACÍ
  6
Continuous
100
AcDbLine
 10
58.72409232583311
 20
297.4449720901805
 30
0.0
 11
55.63497850802821
 21
297.8309950440792
 31
0.0
  0
LINE
  5
235B
330
1F
100
AcDbEntity
  8
SPOJOVACÍ
  6
Continuous
100
AcDbLine
 10
61.66530819204206
 20
297.0775526525006
 30
0.0
 11
59.34451958168654
 21
297.3677674976546
 31
0.0
  0
LINE
  5
235C
330
1F
100
AcDbEntity
  8
SPOJOVACÍ
  6
Continuous
100
AcDbLine
 10
64.61768616777124
 20
296.7082728601429
 30
0.0
 11
62.29596738170664
 21
296.9984877096624
 31
0.0
  0
LINE
  5
235D
330
1F
100
AcDbEntity
  8
SPOJOVACÍ
  6
Continuous
100
AcDbLine
 10
55.63497850802821
 20
297.8309950440792
 30
0.0
 11
58.4710845092967
 21
298.1853920252081
 31
0.0
  0
LINE
  5
235E
330
1F
100
AcDbEntity
  8
SPOJOVACÍ
  6
Continuous
100
AcDbLine
 10
66.43524967298152
 20
296.4813099648939
 30
0.0
 11
65.23811342362467
 21
296.6310682676169
 31
0.0
  0
LINE
  5
235F
330
1F
100
AcDbEntity
  8
SPOJOVACÍ
  6
Continuous
100
AcDbLine
 10
66.77197331086507
 20
299.18068012763
 30
0.0
 11
66.43524967298152
 21
299.18068012763
 31
0.0
  0
LINE
  5
2360
330
1F
100
AcDbEntity
  8
SPOJOVACÍ
  6
Continuous
100
AcDbLine
 10
69.89457345747803
 20
299.18068012763
 30
0.0
 11
67.37565740244907
 21
299.18068012763
 31
0.0
  0
LINE
  5
2361
330
1F
100
AcDbEntity
  8
SPOJOVACÍ
  6
Continuous
100
AcDbLine
 10
67.68261541487015
 20
296.4813099648939
 30
0.0
 11
66.43524967298152
 21
296.4813099648939
 31
0.0
  0
LINE
  5
2362
330
1F
100
AcDbEntity
  8
SPOJOVACÍ
  6
Continuous
100
AcDbLine
 10
70.79684397935205
 20
296.4813099648939
 30
0.0
 11
68.27885810002488
 21
296.4813099648939
 31
0.0
  0
LINE
  5
2363
330
1F
100
AcDbEntity
  8
SPOJOVACÍ
  6
Continuous
100
AcDbLine
 10
73.01624342811999
 20
299.18068012763
 30
0.0
 11
70.49546702141094
 21
299.18068012763
 31
0.0
  0
LINE
  5
2364
330
1F
100
AcDbEntity
  8
SPOJOVACÍ
  6
Continuous
100
AcDbLine
 10
76.13884357446375
 20
299.18068012763
 30
0.0
 11
73.61062576159463
 21
299.18068012763
 31
0.0
  0
LINE
  5
2365
330
1F
100
AcDbEntity
  8
SPOJOVACÍ
  6
Continuous
100
AcDbLine
 10
79.25400231464744
 20
299.18068012763
 30
0.0
 11
76.73508625961847
 21
299.18068012763
 31
0.0
  0
LINE
  5
2366
330
1F
100
AcDbEntity
  8
SPOJOVACÍ
  6
Continuous
100
AcDbLine
 10
73.92967605950696
 20
296.4813099648939
 30
0.0
 11
71.40145824663784
 21
296.4813099648939
 31
0.0
  0
LINE
  5
2367
330
1F
100
AcDbEntity
  8
SPOJOVACÍ
  6
Continuous
100
AcDbLine
 10
77.04483479969065
 20
296.4813099648939
 30
0.0
 11
74.5240583929816
 21
296.4813099648939
 31
0.0
  0
LINE
  5
2368
330
1F
100
AcDbEntity
  8
SPOJOVACÍ
  6
Continuous
100
AcDbLine
 10
80.1674349460344
 20
296.4813099648939
 30
0.0
 11
77.64851889100544
 21
296.4813099648939
 31
0.0
  0
LINE
  5
2369
330
1F
100
AcDbEntity
  8
SPOJOVACÍ
  6
Continuous
100
AcDbLine
 10
84.80064058489086
 20
296.4813099648939
 30
0.0
 11
80.76274745521084
 21
296.4813099648939
 31
0.0
  0
LINE
  5
236A
330
1F
100
AcDbEntity
  8
SPOJOVACÍ
  6
Continuous
100
AcDbLine
 10
84.80064058489086
 20
299.18068012763
 30
0.0
 11
79.85768640596223
 21
299.18068012763
 31
0.0
  0
LINE
  5
236B
330
1F
100
AcDbEntity
  8
SPOJOVACÍ
  6
Continuous
100
AcDbLine
 10
90.2003110792474
 20
292.7308411554452
 30
0.0
 11
89.45617044277321
 21
294.0805262389961
 31
0.0
  0
LINE
  5
236C
330
1F
100
AcDbEntity
  8
SPOJOVACÍ
  6
Continuous
100
AcDbLine
 10
89.45617044277321
 20
294.0805262389961
 30
0.0
 11
88.38739845336101
 21
295.1911561393547
 31
0.0
  0
LINE
  5
236D
330
1F
100
AcDbEntity
  8
SPOJOVACÍ
  6
Continuous
100
AcDbLine
 10
88.38739845336101
 20
295.1911561393547
 30
0.0
 11
87.06840917506349
 21
295.9873866186729
 31
0.0
  0
LINE
  5
236E
330
1F
100
AcDbEntity
  8
SPOJOVACÍ
  6
Continuous
100
AcDbLine
 10
87.06840917506349
 20
295.9873866186729
 30
0.0
 11
85.58756930801326
 21
296.4152674829723
 31
0.0
  0
LINE
  5
236F
330
1F
100
AcDbEntity
  8
SPOJOVACÍ
  6
Continuous
100
AcDbLine
 10
85.58756930801326
 20
296.4152674829723
 30
0.0
 11
84.80064058489086
 21
296.4813099648939
 31
0.0
  0
LINE
  5
2370
330
1F
100
AcDbEntity
  8
SPOJOVACÍ
  6
Continuous
100
AcDbLine
 10
88.9455039309222
 20
300.9787099376456
 30
0.0
 11
89.86358744136385
 21
302.2158437465453
 31
0.0
  0
LINE
  5
2371
330
1F
100
AcDbEntity
  8
SPOJOVACÍ
  6
Continuous
100
AcDbLine
 10
89.86358744136385
 20
302.2158437465453
 30
0.0
 11
90.2003110792474
 21
302.9311489327131
 31
0.0
  0
LINE
  5
2372
330
1F
100
AcDbEntity
  8
SPOJOVACÍ
  6
Continuous
100
AcDbLine
 10
90.2003110792474
 20
292.7308411554452
 30
0.0
 11
90.2003110792474
 21
302.9311489327131
 31
0.0
  0
LINE
  5
2373
330
1F
100
AcDbEntity
  8
SPOJOVACÍ
  6
Continuous
100
AcDbLine
 10
91.40023785597884
 20
292.7308411554452
 30
0.0
 11
90.2003110792474
 21
292.7308411554452
 31
0.0
  0
LINE
  5
2374
330
1F
100
AcDbEntity
  8
SPOJOVACÍ
  6
Continuous
100
AcDbLine
 10
91.40023785597884
 20
292.7308411554452
 30
0.0
 11
91.40023785597884
 21
302.9311489327131
 31
0.0
  0
LINE
  5
2375
330
1F
100
AcDbEntity
  8
SPOJOVACÍ
  6
Continuous
100
AcDbLine
 10
91.40023785597884
 20
302.9311489327131
 30
0.0
 11
90.2003110792474
 21
302.9311489327131
 31
0.0
  0
LINE
  5
2376
330
1F
100
AcDbEntity
  8
SPOJOVACÍ
  6
Continuous
100
AcDbLine
 10
84.80064058489086
 20
299.18068012763
 30
0.0
 11
86.3242685383201
 21
299.4076430185135
 31
0.0
  0
LINE
  5
2377
330
1F
100
AcDbEntity
  8
SPOJOVACÍ
  6
Continuous
100
AcDbLine
 10
86.3242685383201
 20
299.4076430185135
 30
0.0
 11
87.73813574802341
 21
300.0206288676611
 31
0.0
  0
LINE
  5
2378
330
1F
100
AcDbEntity
  8
SPOJOVACÍ
  6
Continuous
100
AcDbLine
 10
87.73813574802341
 20
300.0206288676611
 30
0.0
 11
88.9455039309222
 21
300.9787099376456
 31
0.0
  0
TEXT
  5
2379
330
1F
100
AcDbEntity
  8
POPIS
100
AcDbText
 10
166.6387939714376
 20
227.0496988325351
 30
0.0
 40
25.0
  1
03
 41
0.85
  7
SIMPLEX7
100
AcDbText
  0
TEXT
  5
237A
330
1F
100
AcDbEntity
  8
POPIS
100
AcDbText
 10
166.6387939714376
 20
284.5634521100322
 30
0.0
 40
25.0
  1
02
 41
0.85
  7
SIMPLEX7
100
AcDbText
  0
TEXT
  5
237B
330
1F
100
AcDbEntity
  8
POPIS
100
AcDbText
 10
166.6387939714376
 20
330.0394755017726
 30
0.0
 40
25.0
  1
01
 41
0.85
  7
SIMPLEX7
100
AcDbText
  0
LINE
  5
237C
330
1F
100
AcDbEntity
  8
POPIS
100
AcDbLine
 10
161.4825827601461
 20
340.7327050358447
 30
0.0
 11
91.78856623783293
 21
340.7327050358447
 31
0.0
  0
LINE
  5
237D
330
1F
100
AcDbEntity
  8
POPIS
100
AcDbLine
 10
161.4825827601461
 20
297.8392678724497
 30
0.0
 11
91.78856623783293
 21
297.8392678724497
 31
0.0
  0
LINE
  5
237E
330
1F
100
AcDbEntity
  8
POPIS
100
AcDbLine
 10
161.4825827601461
 20
238.8149854137385
 30
0.0
 11
54.79004008593699
 21
238.8149854137385
 31
0.0
  0
INSERT
  5
237F
330
1F
100
AcDbEntity
  8
POPIS
100
AcDbBlockReference
  2
E_PUNKT
 10
90.17124274837341
 20
297.858605419706
 30
0.0
 50
270.0
  0
INSERT
  5
2380
330
1F
100
AcDbEntity
  8
POPIS
100
AcDbBlockReference
  2
E_PUNKT
 10
53.510971755063
 20
238.8425957893653
 30
0.0
 50
270.0
  0
HATCH
  5
2381
330
1F
100
AcDbEntity
  8
CETRIS
100
AcDbHatch
 10
0.0
 20
0.0
 30
0.0
210
0.0
220
0.0
230
1.0
  2
ANSI31
 70
     0
 71
     0
 91
        9
 92
        7
 72
     0
 73
     1
 93
       12
 10
28.16798357122832
 20
347.2171583893025
 10
16.16798357123195
 20
345.0069971110035
 10
16.16798357123195
 20
302.9311489327131
 10
17.36791034795976
 20
302.9311489327131
 10
17.70463398585422
 20
302.215843746538
 10
18.62271749628496
 20
300.9787099376565
 10
19.83008567918011
 20
300.020628867662
 10
21.24395288888706
 20
299.4076430185135
 10
22.76758084231994
 20
299.18068012763
 10
27.72345864636452
 20
299.18068012763
 10
27.94959020061367
 20
299.8531972260419
 10
28.16798357123195
 20
300.2305066216343
 97
        0
 92
        7
 72
     0
 73
     1
 93
       23
 10
28.16798357122832
 20
296.4813099648939
 10
27.41204742652269
 20
296.4813099648939
 10
27.18591587222988
 20
295.8087928664493
 10
26.96825473617434
 20
295.4311414911583
 10
26.58967318735529
 20
295.8087928664665
 10
26.81580474161171
 20
296.4813099648939
 10
22.7675808423163
 20
296.4813099648939
 10
21.9806521191939
 20
296.4152674829723
 10
20.49981225214366
 20
295.9873866186747
 10
19.18082297385706
 20
295.1911561393565
 10
18.11205098443394
 20
294.0805262390006
 10
17.36791034795612
 20
292.7308411554452
 10
16.16798357123195
 20
292.7308411554452
 10
16.16798357123195
 20
52.93114893271314
 10
17.36791034795976
 20
52.93114893271314
 10
17.70463398585422
 20
52.21584374653258
 10
18.62271749629224
 20
50.97870993764928
 10
19.83008567918011
 20
50.02062886766117
 10
21.24395288888706
 20
49.40764301851351
 10
22.76758084231994
 20
49.18068012763007
 10
27.72345864636088
 20
49.18068012763007
 10
27.94959020062458
 20
49.85319722607101
 10
28.16798357122468
 20
50.23050662163342
 97
        0
 92
        7
 72
     0
 73
     1
 93
       15
 10
28.16798357123195
 20
46.48130996489391
 10
27.41204742652996
 20
46.48130996489391
 10
27.18591587222261
 20
45.80879286644114
 10
26.96825473618162
 20
45.43114149115473
 10
26.58967318735165
 20
45.80879286646387
 10
26.81580474160444
 20
46.48130996489391
 10
22.76758084231994
 20
46.48130996489391
 10
21.98065211919026
 20
46.4152674829723
 10
20.49981225214003
 20
45.98738661867293
 10
19.18082297384978
 20
45.1911561393602
 10
18.11205098444486
 20
44.08052623899976
 10
17.36791034795976
 20
42.73084115544526
 10
16.16798357123559
 20
42.73084115544526
 10
16.16798357122831
 20
16.90104697343241
 10
28.16798357123195
 20
16.90104697343241
 97
        0
 92
        7
 72
     0
 73
     1
 93
       15
 10
91.40023785598248
 20
42.73084115544526
 10
90.20031107925467
 20
42.73084115544526
 10
89.45617044277685
 20
44.08052623900977
 10
88.38739845335737
 20
45.19115613935475
 10
87.06840917505621
 20
45.98738661867293
 10
85.58756930801326
 20
46.4152674829723
 10
84.80064058488721
 20
46.48130996489391
 10
80.75241668560636
 20
46.48130996489391
 10
80.97854823985551
 20
45.80879286646205
 10
80.59996669102918
 20
45.43114149115837
 10
80.38230555498456
 20
45.80879286646569
 10
80.15617400068448
 20
46.48130996489391
 10
79.40023785597884
 20
46.48130996489391
 10
79.40023785597884
 20
16.90104697343241
 10
91.40023785597884
 20
16.90104697343605
 97
        0
 92
        7
 72
     0
 73
     1
 93
       12
 10
91.40023785597884
 20
78.93948678359385
 10
79.40023785597884
 20
66.98726836112957
 10
79.40023785598248
 20
50.23050662162069
 10
79.61863122659713
 20
49.85319722604373
 10
79.84476278084264
 20
49.18068012763007
 10
84.80064058489086
 20
49.18068012763007
 10
86.32426853832374
 20
49.40764301851533
 10
87.73813574803432
 20
50.02062886766572
 10
88.94550393091492
 20
50.97870993764655
 10
89.86358744136749
 20
52.21584374653076
 10
90.20031107925104
 20
52.93114893271314
 10
91.40023785597884
 20
52.93114893271314
 97
        0
 92
        7
 72
     0
 73
     1
 93
        4
 10
91.40023785598248
 20
186.7570692974926
 10
79.40023785597884
 20
186.7570692974926
 10
79.40023785598248
 20
66.98726836112775
 10
91.40023785597884
 20
78.93948678359203
 97
        0
 92
        7
 72
     0
 73
     1
 93
        4
 10
91.40023785597884
 20
238.8149854137385
 10
79.40023785597884
 20
238.8149854137385
 10
79.40023785597884
 20
186.7570692974926
 10
91.4002378559752
 20
186.7570692974926
 97
        0
 92
        7
 72
     0
 73
     1
 93
       15
 10
91.4002378559752
 20
292.7308411554452
 10
90.2003110792474
 20
292.7308411554452
 10
89.4561704427805
 20
294.080526238987
 10
88.38739845336101
 20
295.191156139352
 10
87.06840917506713
 20
295.9873866186729
 10
85.58756930802053
 20
296.4152674829731
 10
84.80064058489086
 20
296.4813099648939
 10
80.75241668560272
 20
296.4813099648939
 10
80.97854823985551
 20
295.8087928664638
 10
80.59996669102918
 20
295.4311414911529
 10
80.38230555497364
 20
295.8087928664665
 10
80.15617400067355
 20
296.4813099648939
 10
79.40023785597884
 20
296.4813099648939
 10
79.40023785597884
 20
238.8149854137385
 10
91.4002378559752
 20
238.8149854137385
 97
        0
 92
        7
 72
     0
 73
     1
 93
       12
 10
91.4002378559752
 20
358.8632817192831
 10
79.40023785597884
 20
356.6531204409832
 10
79.40023785597521
 20
300.2305066216225
 10
79.61863122659713
 20
299.85319722604
 10
79.84476278084264
 20
299.18068012763
 10
84.80064058489086
 20
299.18068012763
 10
86.32426853832374
 20
299.4076430185153
 10
87.73813574803069
 20
300.0206288676648
 10
88.94550393092584
 20
300.9787099376447
 10
89.86358744137476
 20
302.2158437465471
 10
90.2003110792474
 20
302.9311489327131
 10
91.40023785597156
 20
302.9311489327131
 97
        0
 75
     0
 76
     1
 52
90.0
 41
1.0
 77
     0
 78
     1
 53
135.0
 43
-25058.3316152845
 44
-2138.886208785311
 45
-2.245064030267288
 46
-2.245064030267287
 79
     0
 47
0.7045601633123687
 98
        9
 10
19.83785561448974
 20
314.8897277138033
 10
24.23523038260543
 20
226.9964411897575
 10
24.23523038260543
 20
28.35759787321814
 10
87.82997863208663
 20
34.40027057829257
 10
86.41999347640455
 20
61.17355568935209
 10
85.71500867899965
 20
89.35596106941494
 10
87.82997863208663
 20
200.6764719378546
 10
87.12499383467445
 20
263.3823287170901
 10
86.41999347640455
 20
319.0425841513109
  0
HATCH
  5
2382
330
1F
100
AcDbEntity
  8
STAVBA OBRYS
100
AcDbHatch
 10
0.0
 20
0.0
 30
0.0
210
0.0
220
0.0
230
1.0
  2
ANSI31
 70
     0
 71
     0
 91
        2
 92
        7
 72
     0
 73
     1
 93
        5
 10
302.8279177478224
 20
66.50145244406423
 10
109.9549600087019
 20
66.50145244406423
 10
107.217355303598
 20
64.17861700876375
 10
107.217355303598
 20
54.50145244406423
 10
302.8279177478188
 20
54.50145244406423
 97
        0
 92
        7
 72
     0
 73
     1
 93
        4
 10
0.6331095848444193
 20
66.50145244406423
 10
-96.44487001250229
 20
66.50145244406423
 10
-96.44487001250594
 20
54.50145244406423
 10
0.6331095848444193
 20
54.50145244406423
 97
        0
 75
     0
 76
     1
 52
0.0
 41
1.0
 77
     0
 78
     1
 53
45.0
 43
-25058.3316152845
 44
-2138.886208785311
 45
-2.245064030267287
 46
2.245064030267288
 79
     0
 47
0.7045601633123687
 98
        2
 10
193.5789119905683
 20
61.87812063244866
 10
-39.06873206158263
 20
58.35531515134545
  0
HATCH
  5
2383
330
1F
100
AcDbEntity
  8
STAVBA OBRYS
100
AcDbHatch
 10
0.0
 20
0.0
 30
0.0
210
0.0
220
0.0
230
1.0
  2
ANSI31
 70
     0
 71
     0
 91
        2
 92
        7
 72
     0
 73
     1
 93
        4
 10
302.8279177478224
 20
54.50145244406423
 10
107.217355303598
 20
54.50145244406423
 10
107.217355303598
 20
42.50145244406422
 10
302.8279177478188
 20
42.50145244406422
 97
        0
 92
        7
 72
     0
 73
     1
 93
        4
 10
0.6331095848444193
 20
54.50145244406423
 10
-96.44487001250229
 20
54.50145244406423
 10
-96.44487001250229
 20
42.50145244406422
 10
0.6331095848444193
 20
42.50145244406422
 97
        0
 75
     0
 76
     1
 52
90.0
 41
1.0
 77
     0
 78
     1
 53
135.0
 43
-25058.3316152845
 44
-2138.886208785311
 45
-2.245064030267288
 46
-2.245064030267287
 79
     0
 47
0.7045601633123687
 98
        2
 10
213.3187041700738
 20
51.30971380632883
 10
-29.90382076923481
 20
49.19603821142056
  0
LINE
  5
2384
330
1F
100
AcDbEntity
  8
STAVBA OBRYS
  6
DASHED
100
AcDbLine
 10
-23.79525954279154
 20
44.05763134146702
 30
0.0
 11
-19.8317432703908
 21
42.72491266819571
 31
0.0
  0
LINE
  5
2385
330
1F
100
AcDbEntity
  8
STAVBA OBRYS
  6
DASHED
100
AcDbLine
 10
-23.79525954279154
 20
43.47331351001531
 30
0.0
 11
-19.8317432703908
 21
42.14059483674401
 31
0.0
  0
LINE
  5
2386
330
1F
100
AcDbEntity
  8
STAVBA OBRYS
  6
DASHED
100
AcDbLine
 10
-19.46164492686432
 20
42.51069318240962
 30
0.0
 11
-19.8317432703908
 21
42.72491266819571
 31
0.0
  0
LINE
  5
2387
330
1F
100
AcDbEntity
  8
STAVBA OBRYS
  6
DASHED
100
AcDbLine
 10
-19.46164492686432
 20
42.51069318240962
 30
0.0
 11
-19.8317432703908
 21
42.14059483674401
 31
0.0
  0
LINE
  5
2388
330
1F
100
AcDbEntity
  8
STAVBA OBRYS
  6
DASHED
100
AcDbLine
 10
-24.16535789059628
 20
43.68662142334261
 30
0.0
 11
-23.79525954279154
 21
44.05763134146702
 31
0.0
  0
LINE
  5
2389
330
1F
100
AcDbEntity
  8
STAVBA OBRYS
  6
DASHED
100
AcDbLine
 10
-24.16535789059628
 20
43.68662142334261
 30
0.0
 11
-23.79525954279154
 21
43.47331351001531
 31
0.0
  0
LINE
  5
238A
330
1F
100
AcDbEntity
  8
STAVBA OBRYS
  6
DASHED
100
AcDbLine
 10
-24.16535789059628
 20
43.68662142334261
 30
0.0
 11
-19.46164492686432
 21
42.51069318240962
 31
0.0
  0
LINE
  5
238B
330
1F
100
AcDbEntity
  8
STAVBA OBRYS
  6
DASHED
100
AcDbLine
 10
-23.79525954279154
 20
47.11504476804958
 30
0.0
 11
-19.8317432703908
 21
45.78232609477828
 31
0.0
  0
LINE
  5
238C
330
1F
100
AcDbEntity
  8
STAVBA OBRYS
  6
DASHED
100
AcDbLine
 10
-23.79525954279154
 20
46.53072693660516
 30
0.0
 11
-19.8317432703908
 21
45.19800826359761
 31
0.0
  0
LINE
  5
238D
330
1F
100
AcDbEntity
  8
STAVBA OBRYS
  6
DASHED
100
AcDbLine
 10
-19.46164492686432
 20
45.56901818145099
 30
0.0
 11
-19.8317432703908
 21
45.78232609477828
 31
0.0
  0
LINE
  5
238E
330
1F
100
AcDbEntity
  8
STAVBA OBRYS
  6
DASHED
100
AcDbLine
 10
-19.46164492686432
 20
45.56901818145099
 30
0.0
 11
-19.8317432703908
 21
45.19800826359761
 31
0.0
  0
LINE
  5
238F
330
1F
100
AcDbEntity
  8
STAVBA OBRYS
  6
DASHED
100
AcDbLine
 10
-24.16535789059628
 20
46.74494642238397
 30
0.0
 11
-23.79525954279154
 21
47.11504476804958
 31
0.0
  0
LINE
  5
2390
330
1F
100
AcDbEntity
  8
STAVBA OBRYS
  6
DASHED
100
AcDbLine
 10
-24.16535789059628
 20
46.74494642238397
 30
0.0
 11
-23.79525954279154
 21
46.53072693660516
 31
0.0
  0
LINE
  5
2391
330
1F
100
AcDbEntity
  8
STAVBA OBRYS
  6
DASHED
100
AcDbLine
 10
-24.16535789059628
 20
46.74494642238397
 30
0.0
 11
-19.46164492686432
 21
45.56901818145099
 31
0.0
  0
LINE
  5
2392
330
1F
100
AcDbEntity
  8
STAVBA OBRYS
  6
DASHED
100
AcDbLine
 10
-23.79525954279154
 20
50.17245819463943
 30
0.0
 11
-19.8317432703908
 21
48.83973952163188
 31
0.0
  0
LINE
  5
2393
330
1F
100
AcDbEntity
  8
STAVBA OBRYS
  6
DASHED
100
AcDbLine
 10
-23.79525954279154
 20
49.58814036318774
 30
0.0
 11
-19.8317432703908
 21
48.25542169018746
 31
0.0
  0
LINE
  5
2394
330
1F
100
AcDbEntity
  8
STAVBA OBRYS
  6
DASHED
100
AcDbLine
 10
-19.46164492686432
 20
48.62643160804083
 30
0.0
 11
-19.8317432703908
 21
48.83973952163188
 31
0.0
  0
LINE
  5
2395
330
1F
100
AcDbEntity
  8
STAVBA OBRYS
  6
DASHED
100
AcDbLine
 10
-19.46164492686432
 20
48.62643160804083
 30
0.0
 11
-19.8317432703908
 21
48.25542169018746
 31
0.0
  0
LINE
  5
2396
330
1F
100
AcDbEntity
  8
STAVBA OBRYS
  6
DASHED
100
AcDbLine
 10
-24.16535789059628
 20
49.80235984897382
 30
0.0
 11
-23.79525954279154
 21
50.17245819463943
 31
0.0
  0
LINE
  5
2397
330
1F
100
AcDbEntity
  8
STAVBA OBRYS
  6
DASHED
100
AcDbLine
 10
-24.16535789059628
 20
49.80235984897382
 30
0.0
 11
-23.79525954279154
 21
49.58814036318774
 31
0.0
  0
LINE
  5
2398
330
1F
100
AcDbEntity
  8
STAVBA OBRYS
  6
DASHED
100
AcDbLine
 10
-24.16535789059628
 20
49.80235984897382
 30
0.0
 11
-19.46164492686432
 21
48.62643160804083
 31
0.0
  0
LINE
  5
2399
330
1F
100
AcDbEntity
  8
STAVBA OBRYS
  6
DASHED
100
AcDbLine
 10
-22.80984990781792
 20
34.76324037571004
 30
0.0
 11
-20.69864850919032
 21
34.45877523425162
 31
0.0
  0
LINE
  5
239A
330
1F
100
AcDbEntity
  8
STAVBA OBRYS
  6
DASHED
100
AcDbLine
 10
-22.43975156429144
 20
35.13333872137565
 30
0.0
 11
-21.0687468527168
 21
34.67208314784267
 31
0.0
  0
LINE
  5
239B
330
1F
100
AcDbEntity
  8
STAVBA OBRYS
  6
DASHED
100
AcDbLine
 10
-22.43975156429144
 20
34.54902088993122
 30
0.0
 11
-21.0687468527168
 21
34.08776531639825
 31
0.0
  0
LINE
  5
239C
330
1F
100
AcDbEntity
  8
STAVBA OBRYS
  6
DASHED
100
AcDbLine
 10
-20.69864850919032
 20
34.45877523425162
 30
0.0
 11
-21.0687468527168
 21
34.67208314784267
 31
0.0
  0
LINE
  5
239D
330
1F
100
AcDbEntity
  8
STAVBA OBRYS
  6
DASHED
100
AcDbLine
 10
-20.69864850919032
 20
34.45877523425162
 30
0.0
 11
-21.0687468527168
 21
34.08776531639825
 31
0.0
  0
LINE
  5
239E
330
1F
100
AcDbEntity
  8
STAVBA OBRYS
  6
DASHED
100
AcDbLine
 10
-22.80984990781792
 20
34.76324037571004
 30
0.0
 11
-22.43975156429144
 21
35.13333872137565
 31
0.0
  0
LINE
  5
239F
330
1F
100
AcDbEntity
  8
STAVBA OBRYS
  6
DASHED
100
AcDbLine
 10
-22.80984990781792
 20
34.76324037571004
 30
0.0
 11
-22.43975156429144
 21
34.54902088993122
 31
0.0
  0
LINE
  5
23A0
330
1F
100
AcDbEntity
  8
STAVBA OBRYS
  6
DASHED
100
AcDbLine
 10
-23.36317428407994
 20
37.71673456246327
 30
0.0
 11
-20.30940714597738
 21
37.0959538400287
 31
0.0
  0
LINE
  5
23A1
330
1F
100
AcDbEntity
  8
STAVBA OBRYS
  6
DASHED
100
AcDbLine
 10
-22.9930759362752
 20
38.08774448058767
 30
0.0
 11
-20.67950548950386
 21
37.309261753356
 31
0.0
  0
LINE
  5
23A2
330
1F
100
AcDbEntity
  8
STAVBA OBRYS
  6
DASHED
100
AcDbLine
 10
-22.9930759362752
 20
37.50342664913597
 30
0.0
 11
-20.67950548950386
 21
36.72494392217533
 31
0.0
  0
LINE
  5
23A3
330
1F
100
AcDbEntity
  8
STAVBA OBRYS
  6
DASHED
100
AcDbLine
 10
-20.30940714597738
 20
37.0959538400287
 30
0.0
 11
-20.67950548950386
 21
37.309261753356
 31
0.0
  0
LINE
  5
23A4
330
1F
100
AcDbEntity
  8
STAVBA OBRYS
  6
DASHED
100
AcDbLine
 10
-20.30940714597738
 20
37.0959538400287
 30
0.0
 11
-20.67950548950386
 21
36.72494392217533
 31
0.0
  0
LINE
  5
23A5
330
1F
100
AcDbEntity
  8
STAVBA OBRYS
  6
DASHED
100
AcDbLine
 10
-23.36317428407994
 20
37.71673456246327
 30
0.0
 11
-22.9930759362752
 21
38.08774448058767
 31
0.0
  0
LINE
  5
23A6
330
1F
100
AcDbEntity
  8
STAVBA OBRYS
  6
DASHED
100
AcDbLine
 10
-23.36317428407994
 20
37.71673456246327
 30
0.0
 11
-22.9930759362752
 21
37.50342664913597
 31
0.0
  0
LINE
  5
23A7
330
1F
100
AcDbEntity
  8
STAVBA OBRYS
  6
DASHED
100
AcDbLine
 10
-23.91649865606371
 20
40.6711403216753
 30
0.0
 11
-19.87367559637561
 21
39.71763571701677
 31
0.0
  0
LINE
  5
23A8
330
1F
100
AcDbEntity
  8
STAVBA OBRYS
  6
DASHED
100
AcDbLine
 10
-23.54548873874512
 20
41.04123866734091
 30
0.0
 11
-20.2437739399021
 21
39.93094363034407
 31
0.0
  0
LINE
  5
23A9
330
1F
100
AcDbEntity
  8
STAVBA OBRYS
  6
DASHED
100
AcDbLine
 10
-23.54548873874512
 20
40.4569208358892
 30
0.0
 11
-20.2437739399021
 21
39.34662579889237
 31
0.0
  0
LINE
  5
23AA
330
1F
100
AcDbEntity
  8
STAVBA OBRYS
  6
DASHED
100
AcDbLine
 10
-19.87367559637561
 20
39.71763571701677
 30
0.0
 11
-20.2437739399021
 21
39.93094363034407
 31
0.0
  0
LINE
  5
23AB
330
1F
100
AcDbEntity
  8
STAVBA OBRYS
  6
DASHED
100
AcDbLine
 10
-19.87367559637561
 20
39.71763571701677
 30
0.0
 11
-20.2437739399021
 21
39.34662579889237
 31
0.0
  0
LINE
  5
23AC
330
1F
100
AcDbEntity
  8
STAVBA OBRYS
  6
DASHED
100
AcDbLine
 10
-23.91649865606371
 20
40.6711403216753
 30
0.0
 11
-23.54548873874512
 21
41.04123866734091
 31
0.0
  0
LINE
  5
23AD
330
1F
100
AcDbEntity
  8
STAVBA OBRYS
  6
DASHED
100
AcDbLine
 10
-23.91649865606371
 20
40.6711403216753
 30
0.0
 11
-23.54548873874512
 21
40.4569208358892
 31
0.0
  0
LINE
  5
23AE
330
1F
100
AcDbEntity
  8
STAVBA OBRYS
  6
DASHED
100
AcDbLine
 10
-23.79525954279154
 20
53.22987162149303
 30
0.0
 11
-19.8317432703908
 21
51.89806452040949
 31
0.0
  0
LINE
  5
23AF
330
1F
100
AcDbEntity
  8
STAVBA OBRYS
  6
DASHED
100
AcDbLine
 10
-23.79525954279154
 20
52.64555379004133
 30
0.0
 11
-19.8317432703908
 21
51.31374668922882
 31
0.0
  0
LINE
  5
23B0
330
1F
100
AcDbEntity
  8
STAVBA OBRYS
  6
DASHED
100
AcDbLine
 10
-19.46164492686432
 20
51.6838450346234
 30
0.0
 11
-19.8317432703908
 21
51.89806452040949
 31
0.0
  0
LINE
  5
23B1
330
1F
100
AcDbEntity
  8
STAVBA OBRYS
  6
DASHED
100
AcDbLine
 10
-19.46164492686432
 20
51.6838450346234
 30
0.0
 11
-19.8317432703908
 21
51.31374668922882
 31
0.0
  0
LINE
  5
23B2
330
1F
100
AcDbEntity
  8
STAVBA OBRYS
  6
DASHED
100
AcDbLine
 10
-24.16535789059628
 20
52.85977327582742
 30
0.0
 11
-23.79525954279154
 21
53.22987162149303
 31
0.0
  0
LINE
  5
23B3
330
1F
100
AcDbEntity
  8
STAVBA OBRYS
  6
DASHED
100
AcDbLine
 10
-24.16535789059628
 20
52.85977327582742
 30
0.0
 11
-23.79525954279154
 21
52.64555379004133
 31
0.0
  0
LINE
  5
23B4
330
1F
100
AcDbEntity
  8
STAVBA OBRYS
  6
DASHED
100
AcDbLine
 10
-24.16535789059628
 20
52.85977327582742
 30
0.0
 11
-19.46164492686432
 21
51.6838450346234
 31
0.0
  0
LINE
  5
23B5
330
1F
100
AcDbEntity
  8
STAVBA OBRYS
  6
DASHED
100
AcDbLine
 10
-23.79525954279154
 20
56.28819662026336
 30
0.0
 11
-19.8317432703908
 21
54.95547794726309
 31
0.0
  0
LINE
  5
23B6
330
1F
100
AcDbEntity
  8
STAVBA OBRYS
  6
DASHED
100
AcDbLine
 10
-23.79525954279154
 20
55.70387878908269
 30
0.0
 11
-19.8317432703908
 21
54.37116011581139
 31
0.0
  0
LINE
  5
23B7
330
1F
100
AcDbEntity
  8
STAVBA OBRYS
  6
DASHED
100
AcDbLine
 10
-19.46164492686432
 20
54.741258461477
 30
0.0
 11
-19.8317432703908
 21
54.95547794726309
 31
0.0
  0
LINE
  5
23B8
330
1F
100
AcDbEntity
  8
STAVBA OBRYS
  6
DASHED
100
AcDbLine
 10
-19.46164492686432
 20
54.741258461477
 30
0.0
 11
-19.8317432703908
 21
54.37116011581139
 31
0.0
  0
LINE
  5
23B9
330
1F
100
AcDbEntity
  8
STAVBA OBRYS
  6
DASHED
100
AcDbLine
 10
-24.16535789059628
 20
55.91718670240999
 30
0.0
 11
-23.79525954279154
 21
56.28819662026336
 31
0.0
  0
LINE
  5
23BA
330
1F
100
AcDbEntity
  8
STAVBA OBRYS
  6
DASHED
100
AcDbLine
 10
-24.16535789059628
 20
55.91718670240999
 30
0.0
 11
-23.79525954279154
 21
55.70387878908269
 31
0.0
  0
LINE
  5
23BB
330
1F
100
AcDbEntity
  8
STAVBA OBRYS
  6
DASHED
100
AcDbLine
 10
-24.16535789059628
 20
55.91718670240999
 30
0.0
 11
-19.46164492686432
 21
54.741258461477
 31
0.0
  0
LINE
  5
23BC
330
1F
100
AcDbEntity
  8
STAVBA OBRYS
  6
DASHED
100
AcDbLine
 10
-20.73146511008883
 20
40.10414236366642
 30
0.0
 11
-20.49081002685045
 21
42.03576402472691
 31
0.0
  0
LINE
  5
23BD
330
1F
100
AcDbEntity
  8
STAVBA OBRYS
  6
DASHED
100
AcDbLine
 10
-21.06327742279893
 20
37.45146702908579
 30
0.0
 11
-20.80165617656814
 21
39.54534855588218
 31
0.0
  0
LINE
  5
23BE
330
1F
100
AcDbEntity
  8
STAVBA OBRYS
  6
DASHED
100
AcDbLine
 10
-21.39600130074461
 20
34.78876439964125
 30
0.0
 11
-21.13346848499998
 21
36.89085007692602
 31
0.0
  0
LINE
  5
23BF
330
1F
100
AcDbEntity
  8
STAVBA OBRYS
  6
DASHED
100
AcDbLine
 10
-22.19180390355097
 20
34.47882982452148
 30
0.0
 11
-21.8135014087303
 21
31.45149828307268
 31
0.0
  0
LINE
  5
23C0
330
1F
100
AcDbEntity
  8
STAVBA OBRYS
  6
DASHED
100
AcDbLine
 10
-22.5518749524773
 20
37.36122137340618
 30
0.0
 11
-22.26746440422641
 21
35.08684853525784
 31
0.0
  0
LINE
  5
23C1
330
1F
100
AcDbEntity
  8
STAVBA OBRYS
  6
DASHED
100
AcDbLine
 10
-22.91376914898785
 20
40.25455178962085
 30
0.0
 11
-22.6293585964587
 21
37.97926737927747
 31
0.0
  0
LINE
  5
23C2
330
1F
100
AcDbEntity
  8
STAVBA OBRYS
  6
DASHED
100
AcDbLine
 10
-21.8135014087303
 20
31.45149828307268
 30
0.0
 11
-21.46619236722392
 21
34.2308821643158
 31
0.0
  0
LINE
  5
23C3
330
1F
100
AcDbEntity
  8
STAVBA OBRYS
  6
DASHED
100
AcDbLine
 10
-23.13619278633189
 20
42.03576402472691
 30
0.0
 11
-22.98942964966329
 21
40.86257050035721
 31
0.0
  0
LINE
  5
23C4
330
1F
100
AcDbEntity
  8
STAVBA OBRYS
  6
DASHED
100
AcDbLine
 10
-20.49081002685045
 20
42.3657531898528
 30
0.0
 11
-20.49081002685045
 21
42.03576402472691
 31
0.0
  0
LINE
  5
23C5
330
1F
100
AcDbEntity
  8
STAVBA OBRYS
  6
DASHED
100
AcDbLine
 10
-20.49081002685045
 20
45.42590133353343
 30
0.0
 11
-20.49081002685045
 21
42.95736359960511
 31
0.0
  0
LINE
  5
23C6
330
1F
100
AcDbEntity
  8
STAVBA OBRYS
  6
DASHED
100
AcDbLine
 10
-23.13619278633189
 20
43.25818245177771
 30
0.0
 11
-23.13619278633189
 21
42.03576402472691
 31
0.0
  0
LINE
  5
23C7
330
1F
100
AcDbEntity
  8
STAVBA OBRYS
  6
DASHED
100
AcDbLine
 10
-23.13619278633189
 20
46.31012644496997
 30
0.0
 11
-23.13619278633189
 21
43.84250028322941
 31
0.0
  0
LINE
  5
23C8
330
1F
100
AcDbEntity
  8
STAVBA OBRYS
  6
DASHED
100
AcDbLine
 10
-20.49081002685045
 20
48.48513790476255
 30
0.0
 11
-20.49081002685045
 21
46.01477702618768
 31
0.0
  0
LINE
  5
23C9
330
1F
100
AcDbEntity
  8
STAVBA OBRYS
  6
DASHED
100
AcDbLine
 10
-20.49081002685045
 20
51.54528604817944
 30
0.0
 11
-20.49081002685045
 21
49.0676325915677
 31
0.0
  0
LINE
  5
23CA
330
1F
100
AcDbEntity
  8
STAVBA OBRYS
  6
DASHED
100
AcDbLine
 10
-20.49081002685045
 20
54.59814161355945
 30
0.0
 11
-20.49081002685045
 21
52.12960387963113
 31
0.0
  0
LINE
  5
23CB
330
1F
100
AcDbEntity
  8
STAVBA OBRYS
  6
DASHED
100
AcDbLine
 10
-23.13619278633189
 20
49.38030188352178
 30
0.0
 11
-23.13619278633189
 21
46.90264842691004
 31
0.0
  0
LINE
  5
23CC
330
1F
100
AcDbEntity
  8
STAVBA OBRYS
  6
DASHED
100
AcDbLine
 10
-23.13619278633189
 20
52.43315744890179
 30
0.0
 11
-23.13619278633189
 21
49.96279657032693
 31
0.0
  0
LINE
  5
23CD
330
1F
100
AcDbEntity
  8
STAVBA OBRYS
  6
DASHED
100
AcDbLine
 10
-23.13619278633189
 20
55.49330559231868
 30
0.0
 11
-23.13619278633189
 21
53.02476785839036
 31
0.0
  0
LINE
  5
23CE
330
1F
100
AcDbEntity
  8
STAVBA OBRYS
  6
DASHED
100
AcDbLine
 10
-23.13619278633189
 20
60.033847118398
 30
0.0
 11
-23.13619278633189
 21
56.07671185131159
 31
0.0
  0
LINE
  5
23CF
330
1F
100
AcDbEntity
  8
STAVBA OBRYS
  6
DASHED
100
AcDbLine
 10
-20.49081002685045
 20
60.033847118398
 30
0.0
 11
-20.49081002685045
 21
55.18975202304801
 31
0.0
  0
LINE
  5
23D0
330
1F
100
AcDbEntity
  8
STAVBA OBRYS
  6
DASHED
100
AcDbLine
 10
-26.81165221959156
 20
65.32552420286748
 30
0.0
 11
-25.48896083771171
 21
64.59626637912271
 31
0.0
  0
LINE
  5
23D1
330
1F
100
AcDbEntity
  8
STAVBA OBRYS
  6
DASHED
100
AcDbLine
 10
-25.48896083771171
 20
64.59626637912271
 30
0.0
 11
-24.40054353536027
 21
63.54886982949875
 31
0.0
  0
LINE
  5
23D2
330
1F
100
AcDbEntity
  8
STAVBA OBRYS
  6
DASHED
100
AcDbLine
 10
-24.40054353536027
 20
63.54886982949875
 30
0.0
 11
-23.62023766562845
 21
62.25626033676718
 31
0.0
  0
LINE
  5
23D3
330
1F
100
AcDbEntity
  8
STAVBA OBRYS
  6
DASHED
100
AcDbLine
 10
-23.62023766562845
 20
62.25626033676718
 30
0.0
 11
-23.20091441861507
 21
60.80503726705803
 31
0.0
  0
LINE
  5
23D4
330
1F
100
AcDbEntity
  8
STAVBA OBRYS
  6
DASHED
100
AcDbLine
 10
-23.20091441861507
 20
60.80503726705803
 30
0.0
 11
-23.13619278633189
 21
60.033847118398
 31
0.0
  0
LINE
  5
23D5
330
1F
100
AcDbEntity
  8
STAVBA OBRYS
  6
DASHED
100
AcDbLine
 10
-18.72874081303518
 20
64.09581319750879
 30
0.0
 11
-17.51634968031351
 21
64.9955350377416
 31
0.0
  0
LINE
  5
23D6
330
1F
100
AcDbEntity
  8
STAVBA OBRYS
  6
DASHED
100
AcDbLine
 10
-17.51634968031351
 20
64.9955350377416
 30
0.0
 11
-16.81535059786904
 21
65.32552420286748
 31
0.0
  0
LINE
  5
23D7
330
1F
100
AcDbEntity
  8
STAVBA OBRYS
  6
DASHED
100
AcDbLine
 10
-26.81165221959156
 20
65.32552420286748
 30
0.0
 11
-16.81535059786904
 21
65.32552420286748
 31
0.0
  0
LINE
  5
23D8
330
1F
100
AcDbEntity
  8
STAVBA OBRYS
  6
DASHED
100
AcDbLine
 10
-26.81165221959156
 20
66.50145244406423
 30
0.0
 11
-26.81165221959156
 21
65.32552420286748
 31
0.0
  0
LINE
  5
23D9
330
1F
100
AcDbEntity
  8
STAVBA OBRYS
  6
DASHED
100
AcDbLine
 10
-26.81165221959156
 20
66.50145244406423
 30
0.0
 11
-16.81535059786904
 21
66.50145244406423
 31
0.0
  0
LINE
  5
23DA
330
1F
100
AcDbEntity
  8
STAVBA OBRYS
  6
DASHED
100
AcDbLine
 10
-16.81535059786904
 20
66.50145244406423
 30
0.0
 11
-16.81535059786904
 21
65.32552420286748
 31
0.0
  0
LINE
  5
23DB
330
1F
100
AcDbEntity
  8
STAVBA OBRYS
  6
DASHED
100
AcDbLine
 10
-20.49081002685045
 20
60.033847118398
 30
0.0
 11
-20.26838639378468
 21
61.52700251275866
 31
0.0
  0
LINE
  5
23DC
330
1F
100
AcDbEntity
  8
STAVBA OBRYS
  6
DASHED
100
AcDbLine
 10
-20.26838639378468
 20
61.52700251275866
 30
0.0
 11
-19.66766026161997
 21
62.9125923782679
 31
0.0
  0
LINE
  5
23DD
330
1F
100
AcDbEntity
  8
STAVBA OBRYS
  6
DASHED
100
AcDbLine
 10
-19.66766026161997
 20
62.9125923782679
 30
0.0
 11
-18.72874081303518
 21
64.09581319750879
 31
0.0
  0
LINE
  5
23DE
330
1F
100
AcDbEntity
  8
STAVBA OBRYS
  6
DASHED
100
AcDbLine
 10
135.9259001354811
 20
62.9125923782679
 30
0.0
 11
136.8648195840659
 21
64.09581319750879
 31
0.0
  0
LINE
  5
23DF
330
1F
100
AcDbEntity
  8
STAVBA OBRYS
  6
DASHED
100
AcDbLine
 10
135.3251740033164
 20
61.52700251275866
 30
0.0
 11
135.9259001354811
 21
62.9125923782679
 31
0.0
  0
LINE
  5
23E0
330
1F
100
AcDbEntity
  8
STAVBA OBRYS
  6
DASHED
100
AcDbLine
 10
135.1027503702506
 20
60.033847118398
 30
0.0
 11
135.3251740033164
 21
61.52700251275866
 31
0.0
  0
LINE
  5
23E1
330
1F
100
AcDbEntity
  8
STAVBA OBRYS
  6
DASHED
100
AcDbLine
 10
138.778209799232
 20
66.50145244406423
 30
0.0
 11
138.778209799232
 21
65.32552420286748
 31
0.0
  0
LINE
  5
23E2
330
1F
100
AcDbEntity
  8
STAVBA OBRYS
  6
DASHED
100
AcDbLine
 10
128.7819081775095
 20
66.50145244406423
 30
0.0
 11
138.778209799232
 21
66.50145244406423
 31
0.0
  0
LINE
  5
23E3
330
1F
100
AcDbEntity
  8
STAVBA OBRYS
  6
DASHED
100
AcDbLine
 10
128.7819081775095
 20
66.50145244406423
 30
0.0
 11
128.7819081775095
 21
65.32552420286748
 31
0.0
  0
LINE
  5
23E4
330
1F
100
AcDbEntity
  8
STAVBA OBRYS
  6
DASHED
100
AcDbLine
 10
128.7819081775095
 20
65.32552420286748
 30
0.0
 11
138.778209799232
 21
65.32552420286748
 31
0.0
  0
LINE
  5
23E5
330
1F
100
AcDbEntity
  8
STAVBA OBRYS
  6
DASHED
100
AcDbLine
 10
138.0772107167876
 20
64.9955350377416
 30
0.0
 11
138.778209799232
 21
65.32552420286748
 31
0.0
  0
LINE
  5
23E6
330
1F
100
AcDbEntity
  8
STAVBA OBRYS
  6
DASHED
100
AcDbLine
 10
136.8648195840659
 20
64.09581319750879
 30
0.0
 11
138.0772107167876
 21
64.9955350377416
 31
0.0
  0
LINE
  5
23E7
330
1F
100
AcDbEntity
  8
STAVBA OBRYS
  6
DASHED
100
AcDbLine
 10
132.392645978486
 20
60.80503726705803
 30
0.0
 11
132.4573676107692
 21
60.033847118398
 31
0.0
  0
LINE
  5
23E8
330
1F
100
AcDbEntity
  8
STAVBA OBRYS
  6
DASHED
100
AcDbLine
 10
131.9733227314726
 20
62.25626033676718
 30
0.0
 11
132.392645978486
 21
60.80503726705803
 31
0.0
  0
LINE
  5
23E9
330
1F
100
AcDbEntity
  8
STAVBA OBRYS
  6
DASHED
100
AcDbLine
 10
131.1930168617408
 20
63.54886982949875
 30
0.0
 11
131.9733227314726
 21
62.25626033676718
 31
0.0
  0
LINE
  5
23EA
330
1F
100
AcDbEntity
  8
STAVBA OBRYS
  6
DASHED
100
AcDbLine
 10
130.1045995593893
 20
64.59626637912271
 30
0.0
 11
131.1930168617408
 21
63.54886982949875
 31
0.0
  0
LINE
  5
23EB
330
1F
100
AcDbEntity
  8
STAVBA OBRYS
  6
DASHED
100
AcDbLine
 10
128.7819081775095
 20
65.32552420286748
 30
0.0
 11
130.1045995593893
 21
64.59626637912271
 31
0.0
  0
LINE
  5
23EC
330
1F
100
AcDbEntity
  8
STAVBA OBRYS
  6
DASHED
100
AcDbLine
 10
135.1027503702506
 20
60.033847118398
 30
0.0
 11
135.1027503702506
 21
55.18975202304801
 31
0.0
  0
LINE
  5
23ED
330
1F
100
AcDbEntity
  8
STAVBA OBRYS
  6
DASHED
100
AcDbLine
 10
132.4573676107692
 20
60.033847118398
 30
0.0
 11
132.4573676107692
 21
56.07671185131159
 31
0.0
  0
LINE
  5
23EE
330
1F
100
AcDbEntity
  8
STAVBA OBRYS
  6
DASHED
100
AcDbLine
 10
132.4573676107692
 20
55.49330559231868
 30
0.0
 11
132.4573676107692
 21
53.02476785839036
 31
0.0
  0
LINE
  5
23EF
330
1F
100
AcDbEntity
  8
STAVBA OBRYS
  6
DASHED
100
AcDbLine
 10
132.4573676107692
 20
52.43315744890179
 30
0.0
 11
132.4573676107692
 21
49.96279657032693
 31
0.0
  0
LINE
  5
23F0
330
1F
100
AcDbEntity
  8
STAVBA OBRYS
  6
DASHED
100
AcDbLine
 10
132.4573676107692
 20
49.38030188352178
 30
0.0
 11
132.4573676107692
 21
46.90264842691004
 31
0.0
  0
LINE
  5
23F1
330
1F
100
AcDbEntity
  8
STAVBA OBRYS
  6
DASHED
100
AcDbLine
 10
135.1027503702506
 20
54.59814161355945
 30
0.0
 11
135.1027503702506
 21
52.12960387963113
 31
0.0
  0
LINE
  5
23F2
330
1F
100
AcDbEntity
  8
STAVBA OBRYS
  6
DASHED
100
AcDbLine
 10
135.1027503702506
 20
51.54528604817944
 30
0.0
 11
135.1027503702506
 21
49.0676325915677
 31
0.0
  0
LINE
  5
23F3
330
1F
100
AcDbEntity
  8
STAVBA OBRYS
  6
DASHED
100
AcDbLine
 10
135.1027503702506
 20
48.48513790476255
 30
0.0
 11
135.1027503702506
 21
46.01477702618768
 31
0.0
  0
LINE
  5
23F4
330
1F
100
AcDbEntity
  8
STAVBA OBRYS
  6
DASHED
100
AcDbLine
 10
132.4573676107692
 20
46.31012644496997
 30
0.0
 11
132.4573676107692
 21
43.84250028322941
 31
0.0
  0
LINE
  5
23F5
330
1F
100
AcDbEntity
  8
STAVBA OBRYS
  6
DASHED
100
AcDbLine
 10
132.4573676107692
 20
43.25818245177771
 30
0.0
 11
132.4573676107692
 21
42.03576402472691
 31
0.0
  0
LINE
  5
23F6
330
1F
100
AcDbEntity
  8
STAVBA OBRYS
  6
DASHED
100
AcDbLine
 10
135.1027503702506
 20
45.42590133353343
 30
0.0
 11
135.1027503702506
 21
42.95736359960511
 31
0.0
  0
LINE
  5
23F7
330
1F
100
AcDbEntity
  8
STAVBA OBRYS
  6
DASHED
100
AcDbLine
 10
135.1027503702506
 20
42.3657531898528
 30
0.0
 11
135.1027503702506
 21
42.03576402472691
 31
0.0
  0
LINE
  5
23F8
330
1F
100
AcDbEntity
  8
STAVBA OBRYS
  6
DASHED
100
AcDbLine
 10
132.4573676107692
 20
42.03576402472691
 30
0.0
 11
132.6041307474378
 21
40.86257050035721
 31
0.0
  0
LINE
  5
23F9
330
1F
100
AcDbEntity
  8
STAVBA OBRYS
  6
DASHED
100
AcDbLine
 10
133.7800589883707
 20
31.45149828307268
 30
0.0
 11
134.1273680298771
 21
34.2308821643158
 31
0.0
  0
LINE
  5
23FA
330
1F
100
AcDbEntity
  8
STAVBA OBRYS
  6
DASHED
100
AcDbLine
 10
132.6797912481132
 20
40.25455178962085
 30
0.0
 11
132.9642018006424
 21
37.97926737927747
 31
0.0
  0
LINE
  5
23FB
330
1F
100
AcDbEntity
  8
STAVBA OBRYS
  6
DASHED
100
AcDbLine
 10
133.0416854446238
 20
37.36122137340618
 30
0.0
 11
133.3260959928746
 21
35.08684853525784
 31
0.0
  0
LINE
  5
23FC
330
1F
100
AcDbEntity
  8
STAVBA OBRYS
  6
DASHED
100
AcDbLine
 10
133.4017564935501
 20
34.47882982452148
 30
0.0
 11
133.7800589883707
 21
31.45149828307268
 31
0.0
  0
LINE
  5
23FD
330
1F
100
AcDbEntity
  8
STAVBA OBRYS
  6
DASHED
100
AcDbLine
 10
134.1975590963564
 20
34.78876439964125
 30
0.0
 11
134.4600919121011
 21
36.89085007692602
 31
0.0
  0
LINE
  5
23FE
330
1F
100
AcDbEntity
  8
STAVBA OBRYS
  6
DASHED
100
AcDbLine
 10
134.5302829743021
 20
37.45146702908579
 30
0.0
 11
134.7919042205329
 21
39.54534855588218
 31
0.0
  0
LINE
  5
23FF
330
1F
100
AcDbEntity
  8
STAVBA OBRYS
  6
DASHED
100
AcDbLine
 10
134.8620952870122
 20
40.10414236366642
 30
0.0
 11
135.1027503702506
 21
42.03576402472691
 31
0.0
  0
LINE
  5
2400
330
1F
100
AcDbEntity
  8
STAVBA OBRYS
  6
DASHED
100
AcDbLine
 10
131.4282025065048
 20
55.91718670240999
 30
0.0
 11
136.1319154702367
 21
54.741258461477
 31
0.0
  0
LINE
  5
2401
330
1F
100
AcDbEntity
  8
STAVBA OBRYS
  6
DASHED
100
AcDbLine
 10
131.4282025065048
 20
55.91718670240999
 30
0.0
 11
131.7983008543095
 21
55.70387878908269
 31
0.0
  0
LINE
  5
2402
330
1F
100
AcDbEntity
  8
STAVBA OBRYS
  6
DASHED
100
AcDbLine
 10
131.4282025065048
 20
55.91718670240999
 30
0.0
 11
131.7983008543095
 21
56.28819662026336
 31
0.0
  0
LINE
  5
2403
330
1F
100
AcDbEntity
  8
STAVBA OBRYS
  6
DASHED
100
AcDbLine
 10
136.1319154702367
 20
54.741258461477
 30
0.0
 11
135.7618171267102
 21
54.37116011581139
 31
0.0
  0
LINE
  5
2404
330
1F
100
AcDbEntity
  8
STAVBA OBRYS
  6
DASHED
100
AcDbLine
 10
136.1319154702367
 20
54.741258461477
 30
0.0
 11
135.7618171267102
 21
54.95547794726309
 31
0.0
  0
LINE
  5
2405
330
1F
100
AcDbEntity
  8
STAVBA OBRYS
  6
DASHED
100
AcDbLine
 10
131.7983008543095
 20
55.70387878908269
 30
0.0
 11
135.7618171267102
 21
54.37116011581139
 31
0.0
  0
LINE
  5
2406
330
1F
100
AcDbEntity
  8
STAVBA OBRYS
  6
DASHED
100
AcDbLine
 10
131.7983008543095
 20
56.28819662026336
 30
0.0
 11
135.7618171267102
 21
54.95547794726309
 31
0.0
  0
LINE
  5
2407
330
1F
100
AcDbEntity
  8
STAVBA OBRYS
  6
DASHED
100
AcDbLine
 10
131.4282025065048
 20
52.85977327582742
 30
0.0
 11
136.1319154702367
 21
51.6838450346234
 31
0.0
  0
LINE
  5
2408
330
1F
100
AcDbEntity
  8
STAVBA OBRYS
  6
DASHED
100
AcDbLine
 10
131.4282025065048
 20
52.85977327582742
 30
0.0
 11
131.7983008543095
 21
52.64555379004133
 31
0.0
  0
LINE
  5
2409
330
1F
100
AcDbEntity
  8
STAVBA OBRYS
  6
DASHED
100
AcDbLine
 10
131.4282025065048
 20
52.85977327582742
 30
0.0
 11
131.7983008543095
 21
53.22987162149303
 31
0.0
  0
LINE
  5
240A
330
1F
100
AcDbEntity
  8
STAVBA OBRYS
  6
DASHED
100
AcDbLine
 10
136.1319154702367
 20
51.6838450346234
 30
0.0
 11
135.7618171267102
 21
51.31374668922882
 31
0.0
  0
LINE
  5
240B
330
1F
100
AcDbEntity
  8
STAVBA OBRYS
  6
DASHED
100
AcDbLine
 10
136.1319154702367
 20
51.6838450346234
 30
0.0
 11
135.7618171267102
 21
51.89806452040949
 31
0.0
  0
LINE
  5
240C
330
1F
100
AcDbEntity
  8
STAVBA OBRYS
  6
DASHED
100
AcDbLine
 10
131.7983008543095
 20
52.64555379004133
 30
0.0
 11
135.7618171267102
 21
51.31374668922882
 31
0.0
  0
LINE
  5
240D
330
1F
100
AcDbEntity
  8
STAVBA OBRYS
  6
DASHED
100
AcDbLine
 10
131.7983008543095
 20
53.22987162149303
 30
0.0
 11
135.7618171267102
 21
51.89806452040949
 31
0.0
  0
LINE
  5
240E
330
1F
100
AcDbEntity
  8
STAVBA OBRYS
  6
DASHED
100
AcDbLine
 10
131.6770617410373
 20
40.6711403216753
 30
0.0
 11
132.0480716583559
 21
40.4569208358892
 31
0.0
  0
LINE
  5
240F
330
1F
100
AcDbEntity
  8
STAVBA OBRYS
  6
DASHED
100
AcDbLine
 10
131.6770617410373
 20
40.6711403216753
 30
0.0
 11
132.0480716583559
 21
41.04123866734091
 31
0.0
  0
LINE
  5
2410
330
1F
100
AcDbEntity
  8
STAVBA OBRYS
  6
DASHED
100
AcDbLine
 10
135.7198848007254
 20
39.71763571701677
 30
0.0
 11
135.3497864571989
 21
39.34662579889237
 31
0.0
  0
LINE
  5
2411
330
1F
100
AcDbEntity
  8
STAVBA OBRYS
  6
DASHED
100
AcDbLine
 10
135.7198848007254
 20
39.71763571701677
 30
0.0
 11
135.3497864571989
 21
39.93094363034407
 31
0.0
  0
LINE
  5
2412
330
1F
100
AcDbEntity
  8
STAVBA OBRYS
  6
DASHED
100
AcDbLine
 10
132.0480716583559
 20
40.4569208358892
 30
0.0
 11
135.3497864571989
 21
39.34662579889237
 31
0.0
  0
LINE
  5
2413
330
1F
100
AcDbEntity
  8
STAVBA OBRYS
  6
DASHED
100
AcDbLine
 10
132.0480716583559
 20
41.04123866734091
 30
0.0
 11
135.3497864571989
 21
39.93094363034407
 31
0.0
  0
LINE
  5
2414
330
1F
100
AcDbEntity
  8
STAVBA OBRYS
  6
DASHED
100
AcDbLine
 10
131.6770617410373
 20
40.6711403216753
 30
0.0
 11
135.7198848007254
 21
39.71763571701677
 31
0.0
  0
LINE
  5
2415
330
1F
100
AcDbEntity
  8
STAVBA OBRYS
  6
DASHED
100
AcDbLine
 10
132.2303861130211
 20
37.71673456246327
 30
0.0
 11
132.6004844608259
 21
37.50342664913597
 31
0.0
  0
LINE
  5
2416
330
1F
100
AcDbEntity
  8
STAVBA OBRYS
  6
DASHED
100
AcDbLine
 10
132.2303861130211
 20
37.71673456246327
 30
0.0
 11
132.6004844608259
 21
38.08774448058767
 31
0.0
  0
LINE
  5
2417
330
1F
100
AcDbEntity
  8
STAVBA OBRYS
  6
DASHED
100
AcDbLine
 10
135.2841532511237
 20
37.0959538400287
 30
0.0
 11
134.9140549075972
 21
36.72494392217533
 31
0.0
  0
LINE
  5
2418
330
1F
100
AcDbEntity
  8
STAVBA OBRYS
  6
DASHED
100
AcDbLine
 10
135.2841532511237
 20
37.0959538400287
 30
0.0
 11
134.9140549075972
 21
37.309261753356
 31
0.0
  0
LINE
  5
2419
330
1F
100
AcDbEntity
  8
STAVBA OBRYS
  6
DASHED
100
AcDbLine
 10
132.6004844608259
 20
37.50342664913597
 30
0.0
 11
134.9140549075972
 21
36.72494392217533
 31
0.0
  0
LINE
  5
241A
330
1F
100
AcDbEntity
  8
STAVBA OBRYS
  6
DASHED
100
AcDbLine
 10
132.6004844608259
 20
38.08774448058767
 30
0.0
 11
134.9140549075972
 21
37.309261753356
 31
0.0
  0
LINE
  5
241B
330
1F
100
AcDbEntity
  8
STAVBA OBRYS
  6
DASHED
100
AcDbLine
 10
132.2303861130211
 20
37.71673456246327
 30
0.0
 11
135.2841532511237
 21
37.0959538400287
 31
0.0
  0
LINE
  5
241C
330
1F
100
AcDbEntity
  8
STAVBA OBRYS
  6
DASHED
100
AcDbLine
 10
132.7837104892831
 20
34.76324037571004
 30
0.0
 11
133.1538088328096
 21
34.54902088993122
 31
0.0
  0
LINE
  5
241D
330
1F
100
AcDbEntity
  8
STAVBA OBRYS
  6
DASHED
100
AcDbLine
 10
132.7837104892831
 20
34.76324037571004
 30
0.0
 11
133.1538088328096
 21
35.13333872137565
 31
0.0
  0
LINE
  5
241E
330
1F
100
AcDbEntity
  8
STAVBA OBRYS
  6
DASHED
100
AcDbLine
 10
134.8949118879107
 20
34.45877523425162
 30
0.0
 11
134.5248135443843
 21
34.08776531639825
 31
0.0
  0
LINE
  5
241F
330
1F
100
AcDbEntity
  8
STAVBA OBRYS
  6
DASHED
100
AcDbLine
 10
134.8949118879107
 20
34.45877523425162
 30
0.0
 11
134.5248135443843
 21
34.67208314784267
 31
0.0
  0
LINE
  5
2420
330
1F
100
AcDbEntity
  8
STAVBA OBRYS
  6
DASHED
100
AcDbLine
 10
133.1538088328096
 20
34.54902088993122
 30
0.0
 11
134.5248135443843
 21
34.08776531639825
 31
0.0
  0
LINE
  5
2421
330
1F
100
AcDbEntity
  8
STAVBA OBRYS
  6
DASHED
100
AcDbLine
 10
133.1538088328096
 20
35.13333872137565
 30
0.0
 11
134.5248135443843
 21
34.67208314784267
 31
0.0
  0
LINE
  5
2422
330
1F
100
AcDbEntity
  8
STAVBA OBRYS
  6
DASHED
100
AcDbLine
 10
132.7837104892831
 20
34.76324037571004
 30
0.0
 11
134.8949118879107
 21
34.45877523425162
 31
0.0
  0
LINE
  5
2423
330
1F
100
AcDbEntity
  8
STAVBA OBRYS
  6
DASHED
100
AcDbLine
 10
131.4282025065048
 20
49.80235984897382
 30
0.0
 11
136.1319154702367
 21
48.62643160804083
 31
0.0
  0
LINE
  5
2424
330
1F
100
AcDbEntity
  8
STAVBA OBRYS
  6
DASHED
100
AcDbLine
 10
131.4282025065048
 20
49.80235984897382
 30
0.0
 11
131.7983008543095
 21
49.58814036318774
 31
0.0
  0
LINE
  5
2425
330
1F
100
AcDbEntity
  8
STAVBA OBRYS
  6
DASHED
100
AcDbLine
 10
131.4282025065048
 20
49.80235984897382
 30
0.0
 11
131.7983008543095
 21
50.17245819463943
 31
0.0
  0
LINE
  5
2426
330
1F
100
AcDbEntity
  8
STAVBA OBRYS
  6
DASHED
100
AcDbLine
 10
136.1319154702367
 20
48.62643160804083
 30
0.0
 11
135.7618171267102
 21
48.25542169018746
 31
0.0
  0
LINE
  5
2427
330
1F
100
AcDbEntity
  8
STAVBA OBRYS
  6
DASHED
100
AcDbLine
 10
136.1319154702367
 20
48.62643160804083
 30
0.0
 11
135.7618171267102
 21
48.83973952163188
 31
0.0
  0
LINE
  5
2428
330
1F
100
AcDbEntity
  8
STAVBA OBRYS
  6
DASHED
100
AcDbLine
 10
131.7983008543095
 20
49.58814036318774
 30
0.0
 11
135.7618171267102
 21
48.25542169018746
 31
0.0
  0
LINE
  5
2429
330
1F
100
AcDbEntity
  8
STAVBA OBRYS
  6
DASHED
100
AcDbLine
 10
131.7983008543095
 20
50.17245819463943
 30
0.0
 11
135.7618171267102
 21
48.83973952163188
 31
0.0
  0
LINE
  5
242A
330
1F
100
AcDbEntity
  8
STAVBA OBRYS
  6
DASHED
100
AcDbLine
 10
131.4282025065048
 20
46.74494642238397
 30
0.0
 11
136.1319154702367
 21
45.56901818145099
 31
0.0
  0
LINE
  5
242B
330
1F
100
AcDbEntity
  8
STAVBA OBRYS
  6
DASHED
100
AcDbLine
 10
131.4282025065048
 20
46.74494642238397
 30
0.0
 11
131.7983008543095
 21
46.53072693660516
 31
0.0
  0
LINE
  5
242C
330
1F
100
AcDbEntity
  8
STAVBA OBRYS
  6
DASHED
100
AcDbLine
 10
131.4282025065048
 20
46.74494642238397
 30
0.0
 11
131.7983008543095
 21
47.11504476804958
 31
0.0
  0
LINE
  5
242D
330
1F
100
AcDbEntity
  8
STAVBA OBRYS
  6
DASHED
100
AcDbLine
 10
136.1319154702367
 20
45.56901818145099
 30
0.0
 11
135.7618171267102
 21
45.19800826359761
 31
0.0
  0
LINE
  5
242E
330
1F
100
AcDbEntity
  8
STAVBA OBRYS
  6
DASHED
100
AcDbLine
 10
136.1319154702367
 20
45.56901818145099
 30
0.0
 11
135.7618171267102
 21
45.78232609477828
 31
0.0
  0
LINE
  5
242F
330
1F
100
AcDbEntity
  8
STAVBA OBRYS
  6
DASHED
100
AcDbLine
 10
131.7983008543095
 20
46.53072693660516
 30
0.0
 11
135.7618171267102
 21
45.19800826359761
 31
0.0
  0
LINE
  5
2430
330
1F
100
AcDbEntity
  8
STAVBA OBRYS
  6
DASHED
100
AcDbLine
 10
131.7983008543095
 20
47.11504476804958
 30
0.0
 11
135.7618171267102
 21
45.78232609477828
 31
0.0
  0
LINE
  5
2431
330
1F
100
AcDbEntity
  8
STAVBA OBRYS
  6
DASHED
100
AcDbLine
 10
131.4282025065048
 20
43.68662142334261
 30
0.0
 11
136.1319154702367
 21
42.51069318240962
 31
0.0
  0
LINE
  5
2432
330
1F
100
AcDbEntity
  8
STAVBA OBRYS
  6
DASHED
100
AcDbLine
 10
131.4282025065048
 20
43.68662142334261
 30
0.0
 11
131.7983008543095
 21
43.47331351001531
 31
0.0
  0
LINE
  5
2433
330
1F
100
AcDbEntity
  8
STAVBA OBRYS
  6
DASHED
100
AcDbLine
 10
131.4282025065048
 20
43.68662142334261
 30
0.0
 11
131.7983008543095
 21
44.05763134146702
 31
0.0
  0
LINE
  5
2434
330
1F
100
AcDbEntity
  8
STAVBA OBRYS
  6
DASHED
100
AcDbLine
 10
136.1319154702367
 20
42.51069318240962
 30
0.0
 11
135.7618171267102
 21
42.14059483674401
 31
0.0
  0
LINE
  5
2435
330
1F
100
AcDbEntity
  8
STAVBA OBRYS
  6
DASHED
100
AcDbLine
 10
136.1319154702367
 20
42.51069318240962
 30
0.0
 11
135.7618171267102
 21
42.72491266819571
 31
0.0
  0
LINE
  5
2436
330
1F
100
AcDbEntity
  8
STAVBA OBRYS
  6
DASHED
100
AcDbLine
 10
131.7983008543095
 20
43.47331351001531
 30
0.0
 11
135.7618171267102
 21
42.14059483674401
 31
0.0
  0
LINE
  5
2437
330
1F
100
AcDbEntity
  8
STAVBA OBRYS
  6
DASHED
100
AcDbLine
 10
131.7983008543095
 20
44.05763134146702
 30
0.0
 11
135.7618171267102
 21
42.72491266819571
 31
0.0
  0
HATCH
  5
2438
330
1F
100
AcDbEntity
  8
STAVBA OBRYS
100
AcDbHatch
 10
0.0
 20
0.0
 30
0.0
210
0.0
220
0.0
230
1.0
  2
AR-SAND
 70
     0
 71
     0
 91
        6
 92
        7
 72
     0
 73
     1
 93
        4
 10
302.8279177478188
 20
68.54992513552253
 10
112.3692113125988
 20
68.54992513552253
 10
109.9549600086983
 20
66.50145244406423
 10
302.8279177478224
 20
66.50145244406423
 97
        0
 92
        7
 72
     0
 73
     1
 93
        4
 10
197.9830122629835
 20
73.54992513552253
 10
194.2694736659476
 20
73.54992513552253
 10
194.2694736659476
 20
68.54992513552253
 10
197.9830122629872
 20
68.54992513552253
 97
        0
 92
        7
 72
     0
 73
     1
 93
        4
 10
301.9609764243767
 20
73.54992513552253
 10
297.9830122629872
 20
73.54992513552253
 10
297.9830122629872
 20
68.54992513552253
 10
301.9609764243804
 20
68.54992513552253
 97
        0
 92
        7
 72
     0
 73
     1
 93
        4
 10
94.32982677044208
 20
107.8242764710824
 10
91.40023785597884
 20
107.8242764710824
 10
91.40023785598248
 20
78.93948678359385
 10
94.32982677043481
 20
81.85741066639394
 97
        0
 92
        7
 72
     0
 73
     1
 93
       10
 10
94.32982677043117
 20
81.85741066639577
 10
91.40023785598248
 20
78.93948678359203
 10
91.40023785598248
 20
66.50145244406423
 10
92.21735530359808
 20
66.50145244406423
 10
107.217355303598
 20
66.50145244406423
 10
109.9549600086983
 20
66.50145244406423
 10
112.3692113125952
 20
68.54992513552253
 10
94.26947366594765
 20
68.54992513552253
 10
94.26947366594403
 20
73.54992513534245
 10
94.32982677043844
 20
75.8266522196439
 97
        0
 92
       23
 72
     0
 73
     1
 93
        4
 10
99.37495129560273
 20
75.82665221972394
 10
94.32982677043481
 20
75.82665221972394
 10
94.26947366594765
 20
73.54992513552253
 10
99.37495129559909
 20
73.54992513552253
 97
        0
 75
     0
 76
     1
 52
90.0
 41
0.05
 77
     0
 78
     4
 53
127.5
 43
-25058.3316152845
 44
-2138.886208785311
 45
-2.447066186646711
 46
-0.0800015647992021
 79
     6
 49
0.0
 49
-1.9304
 49
0.0
 49
-2.159
 49
0.0
 49
-2.06375
 53
97.49999999999996
 43
-25058.3316152845
 44
-2138.886208785311
 45
-3.584125502841771
 46
2.247616415690013
 79
     6
 49
0.0
 49
-1.0414
 49
0.0
 49
-1.7399
 49
0.0
 49
-0.6667500000000001
 53
57.5
 43
-25058.3316152845
 44
-2140.44830878531
 45
-0.0071859233927282
 46
3.95496185120729
 79
     6
 49
0.0
 49
-0.635
 49
0.0
 49
-2.286
 49
0.0
 49
-2.9845
 53
47.5
 43
-25058.3316152845
 44
-2140.44830878531
 45
-1.11464661628608
 46
3.817782262361486
 79
     6
 49
0.0
 49
-0.3175
 49
0.0
 49
-1.498599999999999
 49
0.0
 49
-1.7145
 47
0.2237823716160949
 98
        6
 10
258.8259258213992
 20
67.63345727773895
 10
196.1009773508166
 20
71.4643059159983
 10
299.5971442193048
 20
70.41952188093574
 10
93.22590596222733
 20
84.02558070165952
 10
93.44980835687318
 20
75.96941019113302
 10
95.68902150599104
 20
74.85050478225213
  0
HATCH
  5
2439
330
1F
100
AcDbEntity
  8
STAVBA OBRYS
100
AcDbHatch
 10
0.0
 20
0.0
 30
0.0
210
0.0
220
0.0
230
1.0
  2
ANSI35
 70
     0
 71
     0
 91
        3
 92
        7
 72
     0
 73
     1
 93
        9
 10
302.8279177478224
 20
12.50145244406422
 10
57.66575650189849
 20
12.50145244406422
 10
57.66575650189486
 20
-34.13399245023782
 10
54.14029007842043
 20
-39.78343279094832
 10
50.61482365494601
 20
-34.13399245022691
 10
50.61482365494964
 20
12.50145244406422
 10
-96.44487001250594
 20
12.50145244406422
 10
-96.44487001250958
 20
-85.01151927815834
 10
302.8279177478188
 20
-85.01151927815834
 97
        0
 92
       24
 93
        4
 72
     1
 10
-85.52766371391692
 20
-61.48613374459609
 11
-44.69623465524921
 21
-61.48613374459609
 72
     1
 10
-44.69623465524921
 20
-61.48613374459609
 11
-44.69623465524921
 21
-23.19315966546918
 72
     1
 10
-44.69623465524921
 20
-23.19315966546918
 11
-85.52766371391692
 21
-23.19315966546918
 72
     1
 10
-85.52766371391692
 20
-23.19315966546918
 11
-85.52766371391692
 21
-61.48613374459518
 97
        0
 92
       24
 93
        4
 72
     1
 10
160.2566316249148
 20
-61.48613374459609
 11
201.0880606835825
 21
-61.48613374459609
 72
     1
 10
201.0880606835825
 20
-61.48613374459609
 11
201.0880606835825
 21
-23.19315966546918
 72
     1
 10
201.0880606835825
 20
-23.19315966546918
 11
160.2566316249148
 21
-23.19315966546918
 72
     1
 10
160.2566316249148
 20
-23.19315966546918
 11
160.2566316249148
 21
-61.48613374459518
 97
        0
 75
     0
 76
     1
 52
0.0
 41
2.0
 77
     0
 78
     2
 53
45.0
 43
-26080.26401500258
 44
-2138.886208785311
 45
-8.980256121069151
 46
8.980256121069153
 79
     0
 53
45.0
 43
-26071.28375500258
 44
-2138.886208785311
 45
-8.980256121069151
 46
8.980256121069153
 79
     4
 49
15.875
 49
-3.174999999999999
 49
0.0
 49
-3.174999999999999
 47
1.482628988558808
 98
        1
 10
192.2900768583612
 20
-71.66786716014638
  0
LINE
  5
243A
330
1F
100
AcDbEntity
  8
STAVBA OBRYS
100
AcDbLine
 10
13.23839465677235
 20
107.8242764710824
 30
0.0
 11
16.16798357123195
 21
107.8242764710824
 31
0.0
  0
LWPOLYLINE
  5
243B
330
1F
100
AcDbEntity
  8
STAVBA OBRYS
100
AcDbPolyline
 90
        4
 70
     1
 43
0.0
 10
13.23839465677235
 20
75.82665221972394
 10
8.193270131611711
 20
75.82665221972394
 10
8.193270131611711
 20
107.8242764710824
 10
13.23839465677235
 20
107.8242764710824
  0
LWPOLYLINE
  5
243C
330
1F
100
AcDbEntity
  8
STAVBA OBRYS
100
AcDbPolyline
 90
        4
 70
     1
 43
0.0
 10
13.29874776126314
 20
68.54992513552253
 10
-86.70125223873686
 20
68.54992513552253
 10
-86.70125223873686
 20
73.54992513552253
 10
13.29874776126314
 20
73.54992513552253
  0
LINE
  5
243D
330
1F
100
AcDbEntity
  8
STAVBA OBRYS
100
AcDbLine
 10
13.23839465677235
 20
75.82665221972394
 30
0.0
 11
13.29874776126314
 21
73.54992513552253
 31
0.0
  0
LINE
  5
243E
330
1F
100
AcDbEntity
  8
STAVBA OBRYS
100
AcDbLine
 10
8.193270131611711
 20
75.82665221972394
 30
0.0
 11
8.193270131611711
 21
73.54992513552253
 31
0.0
  0
LINE
  5
243F
330
1F
100
AcDbEntity
  8
STAVBA OBRYS
100
AcDbLine
 10
-90.41479083577645
 20
73.54992513552253
 30
0.0
 11
-86.70125223873686
 21
73.54992513552253
 31
0.0
  0
LWPOLYLINE
  5
2440
330
1F
100
AcDbEntity
  8
STAVBA OBRYS
100
AcDbPolyline
 90
        4
 70
     0
 43
0.0
 10
-96.44487001250594
 20
73.54992513552253
 10
-90.41479083577645
 20
73.54992513552253
 10
-90.41479083577645
 20
68.54992513552253
 10
-96.44487001250594
 20
68.54992513552253
  0
LINE
  5
2441
330
1F
100
AcDbEntity
  8
STAVBA OBRYS
100
AcDbLine
 10
-96.44487001250594
 20
68.54992513552253
 30
0.0
 11
13.29874776126314
 21
68.54992513552253
 31
0.0
  0
LINE
  5
2442
330
1F
100
AcDbEntity
  8
STAVBA OBRYS
100
AcDbLine
 10
15.63310958484442
 20
66.50145244406423
 30
0.0
 11
16.16798357123195
 21
66.50145244406423
 31
0.0
  0
HATCH
  5
2443
330
1F
100
AcDbEntity
  8
STAVBA OBRYS
100
AcDbHatch
 10
0.0
 20
0.0
 30
0.0
210
0.0
220
0.0
230
1.0
  2
AR-SAND
 70
     0
 71
     0
 91
        3
 92
        7
 72
     0
 73
     1
 93
        9
 10
16.16798357123923
 20
107.8242764710824
 10
13.23839465677235
 20
107.8242764710824
 10
13.23839465677235
 20
75.82665221979851
 10
13.29874776126314
 20
73.54992513572807
 10
13.29874776126314
 20
68.54992513552253
 10
-96.44487001250229
 20
68.54992513552253
 10
-96.44487001250229
 20
66.50145244406423
 10
15.63310958484442
 20
66.50145244406423
 10
16.16798357123195
 20
66.50145244406423
 97
        0
 92
       22
 72
     0
 73
     1
 93
        4
 10
13.23839465677235
 20
75.82665221972394
 10
8.193270131611711
 20
75.82665221972394
 10
8.193270131611711
 20
73.54992513552253
 10
13.29874776126678
 20
73.54992513552253
 97
        0
 92
       23
 72
     0
 73
     1
 93
        4
 10
-86.70125223873686
 20
73.54992513552253
 10
-90.41479083577645
 20
73.54992513552253
 10
-90.41479083578009
 20
68.54992513552253
 10
-86.70125223873686
 20
68.54992513552253
 97
        0
 75
     0
 76
     1
 52
90.0
 41
0.05
 77
     0
 78
     4
 53
127.5
 43
-26080.26401500258
 44
-2138.886208785311
 45
-2.447066186646711
 46
-0.0800015647992021
 79
     6
 49
0.0
 49
-1.9304
 49
0.0
 49
-2.159
 49
0.0
 49
-2.06375
 53
97.49999999999998
 43
-26080.26401500258
 44
-2138.886208785311
 45
-3.584125502841771
 46
2.247616415690013
 79
     6
 49
0.0
 49
-1.0414
 49
0.0
 49
-1.7399
 49
0.0
 49
-0.6667500000000001
 53
57.5
 43
-26080.26401500258
 44
-2140.44830878531
 45
-0.0071859233927282
 46
3.95496185120729
 79
     6
 49
0.0
 49
-0.635
 49
0.0
 49
-2.286
 49
0.0
 49
-2.9845
 53
47.5
 43
-26080.26401500258
 44
-2140.44830878531
 45
-1.11464661628608
 46
3.817782262361486
 79
     6
 49
0.0
 49
-0.3175
 49
0.0
 49
-1.498599999999999
 49
0.0
 49
-1.7145
 47
0.2229474623524009
 98
        3
 10
14.98233614672506
 20
69.79583812444008
 10
11.41299522007545
 20
74.70067048936954
 10
-88.30572687122105
 20
70.68762189680757
  0
ENDSEC
  0
SECTION
  2
OBJECTS
  0
DICTIONARY
  5
C
330
0
100
AcDbDictionary
281
     1
  3
ACAD_GROUP
350
D
  3
ACAD_LAYOUT
350
1A
  3
ACAD_MLINESTYLE
350
17
  3
ACAD_PLOTSETTINGS
350
19
  3
ACAD_PLOTSTYLENAME
350
E
  0
DICTIONARY
  5
D
102
{ACAD_REACTORS
330
C
102
}
330
C
100
AcDbDictionary
281
     1
  0
DICTIONARY
  5
1A
102
{ACAD_REACTORS
330
C
102
}
330
C
100
AcDbDictionary
281
     1
  3
Model
350
22
  3
Rozvržení1
350
1E
  3
Rozvržení2
350
26
  0
DICTIONARY
  5
17
102
{ACAD_REACTORS
330
C
102
}
330
C
100
AcDbDictionary
281
     1
  3
Standard
350
18
  0
DICTIONARY
  5
19
102
{ACAD_REACTORS
330
C
102
}
330
C
100
AcDbDictionary
281
     1
  0
ACDBDICTIONARYWDFLT
  5
E
102
{ACAD_REACTORS
330
C
102
}
330
C
100
AcDbDictionary
281
     1
  3
Normal
350
F
100
AcDbDictionaryWithDefault
340
F
  0
LAYOUT
  5
22
102
{ACAD_REACTORS
330
1A
102
}
330
1A
100
AcDbPlotSettings
  1

  2
HP DeskJet 690C
  4

  6

 40
0.0
 41
0.0
 42
0.0
 43
0.0
 44
0.0
 45
0.0
 46
0.0
 47
0.0
 48
0.0
 49
0.0
140
0.0
141
0.0
142
1.0
143
1.0
 70
  1712
 72
     0
 73
     0
 74
     0
  7
monochrome.ctb
 75
     0
147
1.0
148
0.0
149
0.0
100
AcDbLayout
  1
Model
 70
     1
 71
     0
 10
0.0
 20
0.0
 11
12.0
 21
9.0
 12
0.0
 22
0.0
 32
0.0
 14
0.0
 24
0.0
 34
0.0
 15
0.0
 25
0.0
 35
0.0
146
0.0
 13
0.0
 23
0.0
 33
0.0
 16
1.0
 26
0.0
 36
0.0
 17
0.0
 27
1.0
 37
0.0
 76
     0
330
1F
  0
LAYOUT
  5
1E
102
{ACAD_REACTORS
330
1A
102
}
330
1A
100
AcDbPlotSettings
  1

  2
HP DeskJet 690C
  4

  6

 40
0.0
 41
0.0
 42
0.0
 43
0.0
 44
0.0
 45
0.0
 46
0.0
 47
0.0
 48
0.0
 49
0.0
140
0.0
141
0.0
142
1.0
143
1.0
 70
   688
 72
     0
 73
     0
 74
     5
  7
monochrome.ctb
 75
    16
147
1.0
148
0.0
149
0.0
100
AcDbLayout
  1
Rozvržení1
 70
     1
 71
     1
 10
0.0
 20
0.0
 11
420.0
 21
297.0
 12
0.0
 22
0.0
 32
0.0
 14
1.000000000000000E+20
 24
1.000000000000000E+20
 34
1.000000000000000E+20
 15
-1.000000000000000E+20
 25
-1.000000000000000E+20
 35
-1.000000000000000E+20
146
0.0
 13
0.0
 23
0.0
 33
0.0
 16
1.0
 26
0.0
 36
0.0
 17
0.0
 27
1.0
 37
0.0
 76
     0
330
1B
  0
LAYOUT
  5
26
102
{ACAD_REACTORS
330
1A
102
}
330
1A
100
AcDbPlotSettings
  1

  2
HP DeskJet 690C
  4

  6

 40
0.0
 41
0.0
 42
0.0
 43
0.0
 44
0.0
 45
0.0
 46
0.0
 47
0.0
 48
0.0
 49
0.0
140
0.0
141
0.0
142
1.0
143
1.0
 70
   688
 72
     0
 73
     0
 74
     5
  7
monochrome.ctb
 75
    16
147
1.0
148
0.0
149
0.0
100
AcDbLayout
  1
Rozvržení2
 70
     1
 71
     2
 10
0.0
 20
0.0
 11
12.0
 21
9.0
 12
0.0
 22
0.0
 32
0.0
 14
0.0
 24
0.0
 34
0.0
 15
0.0
 25
0.0
 35
0.0
146
0.0
 13
0.0
 23
0.0
 33
0.0
 16
1.0
 26
0.0
 36
0.0
 17
0.0
 27
1.0
 37
0.0
 76
     0
330
23
  0
MLINESTYLE
  5
18
102
{ACAD_REACTORS
330
17
102
}
330
17
100
AcDbMlineStyle
  2
STANDARD
 70
     0
  3

 62
   256
 51
90.0
 52
90.0
 71
     2
 49
0.5
 62
   256
  6
BYLAYER
 49
-0.5
 62
   256
  6
BYLAYER
  0
ACDBPLACEHOLDER
  5
F
102
{ACAD_REACTORS
330
E
102
}
330
E
  0
ENDSEC
  0
EOF
