  0
SECTION
  2
HEADER
  9
$ACADVER
  1
AC1015
  9
$ACADMAINTVER
 70
    10
  9
$DWGCODEPAGE
  3
ANSI_1250
  9
$INSBASE
 10
0.0
 20
0.0
 30
0.0
  9
$EXTMIN
 10
-97.48463239585431
 20
-115.281773102573
 30
0.0
  9
$EXTMAX
 10
962.4069245358073
 20
633.4618526135632
 30
0.0
  9
$LIMMIN
 10
0.0
 20
0.0
  9
$LIMMAX
 10
420.0
 20
297.0
  9
$ORTHOMODE
 70
     0
  9
$REGENMODE
 70
     1
  9
$FILLMODE
 70
     1
  9
$QTEXTMODE
 70
     0
  9
$MIRRTEXT
 70
     1
  9
$LTSCALE
 40
1.0
  9
$ATTMODE
 70
     1
  9
$TEXTSIZE
 40
2.5
  9
$TRACEWID
 40
1.0
  9
$TEXTSTYLE
  7
Standard
  9
$CLAYER
  8
0
  9
$CELTYPE
  6
ByLayer
  9
$CECOLOR
 62
   256
  9
$CELTSCALE
 40
1.0
  9
$DISPSILH
 70
     0
  9
$DIMSCALE
 40
1.0
  9
$DIMASZ
 40
2.5
  9
$DIMEXO
 40
0.625
  9
$DIMDLI
 40
3.75
  9
$DIMRND
 40
0.0
  9
$DIMDLE
 40
0.0
  9
$DIMEXE
 40
1.25
  9
$DIMTP
 40
0.0
  9
$DIMTM
 40
0.0
  9
$DIMTXT
 40
2.5
  9
$DIMCEN
 40
2.5
  9
$DIMTSZ
 40
0.0
  9
$DIMTOL
 70
     0
  9
$DIMLIM
 70
     0
  9
$DIMTIH
 70
     0
  9
$DIMTOH
 70
     0
  9
$DIMSE1
 70
     0
  9
$DIMSE2
 70
     0
  9
$DIMTAD
 70
     1
  9
$DIMZIN
 70
     8
  9
$DIMBLK
  1

  9
$DIMASO
 70
     1
  9
$DIMSHO
 70
     1
  9
$DIMPOST
  1

  9
$DIMAPOST
  1

  9
$DIMALT
 70
     0
  9
$DIMALTD
 70
     3
  9
$DIMALTF
 40
0.03937007874016
  9
$DIMLFAC
 40
1.0
  9
$DIMTOFL
 70
     1
  9
$DIMTVP
 40
0.0
  9
$DIMTIX
 70
     0
  9
$DIMSOXD
 70
     0
  9
$DIMSAH
 70
     0
  9
$DIMBLK1
  1

  9
$DIMBLK2
  1

  9
$DIMSTYLE
  2
ISO-25
  9
$DIMCLRD
 70
     0
  9
$DIMCLRE
 70
     0
  9
$DIMCLRT
 70
     0
  9
$DIMTFAC
 40
1.0
  9
$DIMGAP
 40
0.625
  9
$DIMJUST
 70
     0
  9
$DIMSD1
 70
     0
  9
$DIMSD2
 70
     0
  9
$DIMTOLJ
 70
     0
  9
$DIMTZIN
 70
     8
  9
$DIMALTZ
 70
     0
  9
$DIMALTTZ
 70
     0
  9
$DIMUPT
 70
     0
  9
$DIMDEC
 70
     2
  9
$DIMTDEC
 70
     2
  9
$DIMALTU
 70
     2
  9
$DIMALTTD
 70
     3
  9
$DIMTXSTY
  7
Standard
  9
$DIMAUNIT
 70
     0
  9
$DIMADEC
 70
     0
  9
$DIMALTRND
 40
0.0
  9
$DIMAZIN
 70
     0
  9
$DIMDSEP
 70
    44
  9
$DIMATFIT
 70
     3
  9
$DIMFRAC
 70
     0
  9
$DIMLDRBLK
  1

  9
$DIMLUNIT
 70
     2
  9
$DIMLWD
 70
    -2
  9
$DIMLWE
 70
    -2
  9
$DIMTMOVE
 70
     0
  9
$LUNITS
 70
     2
  9
$LUPREC
 70
     4
  9
$SKETCHINC
 40
1.0
  9
$FILLETRAD
 40
10.0
  9
$AUNITS
 70
     0
  9
$AUPREC
 70
     0
  9
$MENU
  1
.
  9
$ELEVATION
 40
0.0
  9
$PELEVATION
 40
0.0
  9
$THICKNESS
 40
0.0
  9
$LIMCHECK
 70
     0
  9
$CHAMFERA
 40
10.0
  9
$CHAMFERB
 40
10.0
  9
$CHAMFERC
 40
20.0
  9
$CHAMFERD
 40
0.0
  9
$SKPOLY
 70
     0
  9
$TDCREATE
 40
2452333.440837384
  9
$TDUCREATE
 40
2452333.399170718
  9
$TDUPDATE
 40
2452653.353217766
  9
$TDUUPDATE
 40
2452653.311551099
  9
$TDINDWG
 40
0.0031279630
  9
$TDUSRTIMER
 40
0.0031266898
  9
$USRTIMER
 70
     1
  9
$ANGBASE
 50
0.0
  9
$ANGDIR
 70
     0
  9
$PDMODE
 70
     0
  9
$PDSIZE
 40
0.0
  9
$PLINEWID
 40
0.0
  9
$SPLFRAME
 70
     0
  9
$SPLINETYPE
 70
     6
  9
$SPLINESEGS
 70
     8
  9
$HANDSEED
  5
18CD
  9
$SURFTAB1
 70
     6
  9
$SURFTAB2
 70
     6
  9
$SURFTYPE
 70
     6
  9
$SURFU
 70
     6
  9
$SURFV
 70
     6
  9
$UCSBASE
  2

  9
$UCSNAME
  2

  9
$UCSORG
 10
0.0
 20
0.0
 30
0.0
  9
$UCSXDIR
 10
1.0
 20
0.0
 30
0.0
  9
$UCSYDIR
 10
0.0
 20
1.0
 30
0.0
  9
$UCSORTHOREF
  2

  9
$UCSORTHOVIEW
 70
     0
  9
$UCSORGTOP
 10
0.0
 20
0.0
 30
0.0
  9
$UCSORGBOTTOM
 10
0.0
 20
0.0
 30
0.0
  9
$UCSORGLEFT
 10
0.0
 20
0.0
 30
0.0
  9
$UCSORGRIGHT
 10
0.0
 20
0.0
 30
0.0
  9
$UCSORGFRONT
 10
0.0
 20
0.0
 30
0.0
  9
$UCSORGBACK
 10
0.0
 20
0.0
 30
0.0
  9
$PUCSBASE
  2

  9
$PUCSNAME
  2

  9
$PUCSORG
 10
0.0
 20
0.0
 30
0.0
  9
$PUCSXDIR
 10
1.0
 20
0.0
 30
0.0
  9
$PUCSYDIR
 10
0.0
 20
1.0
 30
0.0
  9
$PUCSORTHOREF
  2

  9
$PUCSORTHOVIEW
 70
     0
  9
$PUCSORGTOP
 10
0.0
 20
0.0
 30
0.0
  9
$PUCSORGBOTTOM
 10
0.0
 20
0.0
 30
0.0
  9
$PUCSORGLEFT
 10
0.0
 20
0.0
 30
0.0
  9
$PUCSORGRIGHT
 10
0.0
 20
0.0
 30
0.0
  9
$PUCSORGFRONT
 10
0.0
 20
0.0
 30
0.0
  9
$PUCSORGBACK
 10
0.0
 20
0.0
 30
0.0
  9
$USERI1
 70
     0
  9
$USERI2
 70
     0
  9
$USERI3
 70
     0
  9
$USERI4
 70
     0
  9
$USERI5
 70
     0
  9
$USERR1
 40
0.0
  9
$USERR2
 40
0.0
  9
$USERR3
 40
0.0
  9
$USERR4
 40
0.0
  9
$USERR5
 40
0.0
  9
$WORLDVIEW
 70
     1
  9
$SHADEDGE
 70
     3
  9
$SHADEDIF
 70
    70
  9
$TILEMODE
 70
     1
  9
$MAXACTVP
 70
    64
  9
$PINSBASE
 10
0.0
 20
0.0
 30
0.0
  9
$PLIMCHECK
 70
     0
  9
$PEXTMIN
 10
1.000000000000000E+20
 20
1.000000000000000E+20
 30
1.000000000000000E+20
  9
$PEXTMAX
 10
-1.000000000000000E+20
 20
-1.000000000000000E+20
 30
-1.000000000000000E+20
  9
$PLIMMIN
 10
0.0
 20
0.0
  9
$PLIMMAX
 10
420.0
 20
297.0
  9
$UNITMODE
 70
     0
  9
$VISRETAIN
 70
     1
  9
$PLINEGEN
 70
     0
  9
$PSLTSCALE
 70
     1
  9
$TREEDEPTH
 70
  3020
  9
$CMLSTYLE
  2
Standard
  9
$CMLJUST
 70
     0
  9
$CMLSCALE
 40
20.0
  9
$PROXYGRAPHICS
 70
     1
  9
$MEASUREMENT
 70
     1
  9
$CELWEIGHT
370
    -1
  9
$ENDCAPS
280
     0
  9
$JOINSTYLE
280
     0
  9
$LWDISPLAY
290
     0
  9
$INSUNITS
 70
     4
  9
$HYPERLINKBASE
  1

  9
$STYLESHEET
  1

  9
$XEDIT
290
     1
  9
$CEPSNTYPE
380
     0
  9
$PSTYLEMODE
290
     1
  9
$FINGERPRINTGUID
  2
{E0A79919-1611-4D48-A6CF-929FE36A9D62}
  9
$VERSIONGUID
  2
{AE9E064A-C605-4304-A0EA-307B29490B62}
  9
$EXTNAMES
290
     1
  9
$PSVPSCALE
 40
0.0
  9
$OLESTARTUP
290
     0
  0
ENDSEC
  0
SECTION
  2
CLASSES
  0
CLASS
  1
ACDBDICTIONARYWDFLT
  2
AcDbDictionaryWithDefault
  3
AutoCAD 2000
 90
        0
280
     0
281
     0
  0
CLASS
  1
ACDBPLACEHOLDER
  2
AcDbPlaceHolder
  3
AutoCAD 2000
 90
        0
280
     0
281
     0
  0
CLASS
  1
LAYOUT
  2
AcDbLayout
  3
AutoCAD 2000
 90
        0
280
     0
281
     0
  0
ENDSEC
  0
SECTION
  2
TABLES
  0
TABLE
  2
VPORT
  5
8
330
0
100
AcDbSymbolTable
 70
     2
  0
VPORT
  5
18CC
330
8
100
AcDbSymbolTableRecord
100
AcDbViewportTableRecord
  2
*Active
 70
     0
 10
0.0
 20
0.0
 11
1.0
 21
1.0
 12
427.5527281164361
 22
256.6668547971973
 13
0.0
 23
0.0
 14
10.0
 24
10.0
 15
10.0
 25
10.0
 16
0.0
 26
0.0
 36
1.0
 17
0.0
 27
0.0
 37
0.0
 40
774.6022944736409
 41
1.444881889763779
 42
50.0
 43
0.0
 44
0.0
 50
0.0
 51
0.0
 71
     0
 72
   100
 73
     1
 74
     3
 75
     0
 76
     0
 77
     0
 78
     0
281
     0
 65
     1
110
0.0
120
0.0
130
0.0
111
1.0
121
0.0
131
0.0
112
0.0
122
1.0
132
0.0
 79
     0
146
0.0
  0
ENDTAB
  0
TABLE
  2
LTYPE
  5
5
330
0
100
AcDbSymbolTable
 70
     5
  0
LTYPE
  5
14
330
5
100
AcDbSymbolTableRecord
100
AcDbLinetypeTableRecord
  2
ByBlock
 70
     0
  3

 72
    65
 73
     0
 40
0.0
  0
LTYPE
  5
15
330
5
100
AcDbSymbolTableRecord
100
AcDbLinetypeTableRecord
  2
ByLayer
 70
     0
  3

 72
    65
 73
     0
 40
0.0
  0
LTYPE
  5
16
330
5
100
AcDbSymbolTableRecord
100
AcDbLinetypeTableRecord
  2
Continuous
 70
     0
  3
Solid line
 72
    65
 73
     0
 40
0.0
  0
LTYPE
  5
33
330
5
100
AcDbSymbolTableRecord
100
AcDbLinetypeTableRecord
  2
DASHED
 70
     0
  3
Dashed __ __ __ __ __ __ __ __ __ __ __ __ __ _
 72
    65
 73
     2
 40
19.04999999999999
 49
12.7
 74
     0
 49
-6.349999999999999
 74
     0
  0
LTYPE
  5
34
330
5
100
AcDbSymbolTableRecord
100
AcDbLinetypeTableRecord
  2
DASHDOT2
 70
     0
  3
Dash dot (.5x) _._._._._._._._._._._._._._._.
 72
    65
 73
     4
 40
12.7
 49
6.349999999999999
 74
     0
 49
-3.174999999999999
 74
     0
 49
0.0
 74
     0
 49
-3.174999999999999
 74
     0
  0
LTYPE
  5
35
330
5
100
AcDbSymbolTableRecord
100
AcDbLinetypeTableRecord
  2
CIKCAK
 70
     0
  3
Cik-cak /\/\/\/\/\/\/\/\/\/\/\/\/\/\/\/\/\/\/\/
 72
    65
 73
     4
 40
20.32254
 49
0.00254
 74
     0
 49
-5.08
 74
     4
 75
   131
340
3E
 46
5.08
 50
0.0
 44
-5.08
 45
0.0
 49
-10.16
 74
     4
 75
   131
340
3E
 46
5.08
 50
180.0
 44
5.08
 45
0.0
 49
-5.08
 74
     0
  0
LTYPE
  5
36
330
5
100
AcDbSymbolTableRecord
100
AcDbLinetypeTableRecord
  2
IZOLACE
 70
     0
  3
Izolace SSSSSSSSSSSSSSSSSSSSSSSSSSSSSSSSSSSSSSS
 72
    65
 73
     4
 40
10.16253999999999
 49
0.00254
 74
     0
 49
-2.54
 74
     4
 75
   134
340
3E
 46
2.54
 50
0.0
 44
-2.54
 45
0.0
 49
-5.08
 74
     4
 75
   134
340
3E
 46
2.54
 50
180.0
 44
2.54
 45
0.0
 49
-2.54
 74
     0
  0
ENDTAB
  0
TABLE
  2
LAYER
  5
2
330
0
100
AcDbSymbolTable
 70
     7
  0
LAYER
  5
10
330
2
100
AcDbSymbolTableRecord
100
AcDbLayerTableRecord
  2
0
 70
     0
 62
     7
  6
Continuous
370
    -3
390
F
  0
LAYER
  5
37
330
2
100
AcDbSymbolTableRecord
100
AcDbLayerTableRecord
  2
POPIS
 70
     0
 62
    30
  6
Continuous
370
    -3
390
F
  0
LAYER
  5
38
330
2
100
AcDbSymbolTableRecord
100
AcDbLayerTableRecord
  2
SPOJOVACÍ
 70
     0
 62
   180
  6
Continuous
370
    -3
390
F
  0
LAYER
  5
39
330
2
100
AcDbSymbolTableRecord
100
AcDbLayerTableRecord
  2
CETRIS
 70
     0
 62
     1
  6
Continuous
370
    -3
390
F
  0
LAYER
  5
3A
330
2
100
AcDbSymbolTableRecord
100
AcDbLayerTableRecord
  2
NOSNÉ KONSTRUKCE
 70
     0
 62
    33
  6
Continuous
370
    -3
390
F
  0
LAYER
  5
3B
330
2
100
AcDbSymbolTableRecord
100
AcDbLayerTableRecord
  2
izolace
 70
     0
 62
    73
  6
Continuous
370
    -3
390
F
  0
LAYER
  5
3C
330
2
100
AcDbSymbolTableRecord
100
AcDbLayerTableRecord
  2
STAVBA OBRYS
 70
     0
 62
     6
  6
Continuous
370
    -3
390
F
  0
ENDTAB
  0
TABLE
  2
STYLE
  5
3
330
0
100
AcDbSymbolTable
 70
     3
  0
STYLE
  5
11
330
3
100
AcDbSymbolTableRecord
100
AcDbTextStyleTableRecord
  2
Standard
 70
     0
 40
0.0
 41
1.0
 50
0.0
 71
     0
 42
2.5
  3
txt
  4

  0
STYLE
  5
3D
330
3
100
AcDbSymbolTableRecord
100
AcDbTextStyleTableRecord
  2
SIMPLEX7
 70
     0
 40
0.0
 41
0.85
 50
0.0
 71
     0
 42
102.0
  3

  4

1001
ACAD
1000
Arial CE
1071
    60962
  0
STYLE
  5
3E
330
3
100
AcDbSymbolTableRecord
100
AcDbTextStyleTableRecord
  2

 70
     1
 40
0.0
 41
1.0
 50
0.0
 71
     0
 42
2.5
  3
ltypeshp.shx
  4

  0
ENDTAB
  0
TABLE
  2
VIEW
  5
6
330
0
100
AcDbSymbolTable
 70
     0
  0
ENDTAB
  0
TABLE
  2
UCS
  5
7
330
0
100
AcDbSymbolTable
 70
     0
  0
ENDTAB
  0
TABLE
  2
APPID
  5
9
330
0
100
AcDbSymbolTable
 70
     1
  0
APPID
  5
12
330
9
100
AcDbSymbolTableRecord
100
AcDbRegAppTableRecord
  2
ACAD
 70
     0
  0
ENDTAB
  0
TABLE
  2
DIMSTYLE
  5
A
330
0
100
AcDbSymbolTable
 70
     1
100
AcDbDimStyleTable
 71
     0
  0
DIMSTYLE
105
27
330
A
100
AcDbSymbolTableRecord
100
AcDbDimStyleTableRecord
  2
ISO-25
 70
     0
 41
2.5
 42
0.625
 43
3.75
 44
1.25
 73
     0
 74
     0
 77
     1
 78
     8
140
2.5
141
2.5
143
0.03937007874016
147
0.625
171
     3
172
     1
271
     2
272
     2
274
     3
278
    44
283
     0
284
     8
340
11
  0
ENDTAB
  0
TABLE
  2
BLOCK_RECORD
  5
1
330
0
100
AcDbSymbolTable
 70
     2
  0
BLOCK_RECORD
  5
1F
330
1
100
AcDbSymbolTableRecord
100
AcDbBlockTableRecord
  2
*Model_Space
340
22
  0
BLOCK_RECORD
  5
1B
330
1
100
AcDbSymbolTableRecord
100
AcDbBlockTableRecord
  2
*Paper_Space
340
1E
  0
BLOCK_RECORD
  5
23
330
1
100
AcDbSymbolTableRecord
100
AcDbBlockTableRecord
  2
*Paper_Space0
340
26
  0
BLOCK_RECORD
  5
2B
330
1
100
AcDbSymbolTableRecord
100
AcDbBlockTableRecord
  2
E_PUNKT
340
0
102
{BLKREFS
331
172A
331
1834
331
1835
331
1836
331
183C
331
183D
102
}
  0
ENDTAB
  0
ENDSEC
  0
SECTION
  2
BLOCKS
  0
BLOCK
  5
20
330
1F
100
AcDbEntity
  8
0
100
AcDbBlockBegin
  2
*Model_Space
 70
     0
 10
0.0
 20
0.0
 30
0.0
  3
*Model_Space
  1

  0
ENDBLK
  5
21
330
1F
100
AcDbEntity
  8
0
100
AcDbBlockEnd
  0
BLOCK
  5
1C
330
1B
100
AcDbEntity
 67
     1
  8
0
100
AcDbBlockBegin
  2
*Paper_Space
 70
     0
 10
0.0
 20
0.0
 30
0.0
  3
*Paper_Space
  1

  0
ENDBLK
  5
1D
330
1B
100
AcDbEntity
 67
     1
  8
0
100
AcDbBlockEnd
  0
BLOCK
  5
24
330
23
100
AcDbEntity
  8
0
100
AcDbBlockBegin
  2
*Paper_Space0
 70
     0
 10
0.0
 20
0.0
 30
0.0
  3
*Paper_Space0
  1

  0
ENDBLK
  5
25
330
23
100
AcDbEntity
  8
0
100
AcDbBlockEnd
  0
BLOCK
  5
2D
330
2B
100
AcDbEntity
  8
0
100
AcDbBlockBegin
  2
E_PUNKT
 70
     0
 10
0.0
 20
0.0
 30
0.0
  3
E_PUNKT
  1

  0
LWPOLYLINE
  5
2C
330
2B
100
AcDbEntity
  8
POPIS
100
AcDbPolyline
 90
        2
 70
     1
 43
2.5
 10
1.27761037562675
 20
0.0290683308725193
 42
-1.0
 10
-1.222389624373249
 20
0.0290683308725193
 42
-1.0
  0
ENDBLK
  5
2E
330
2B
100
AcDbEntity
  8
0
100
AcDbBlockEnd
  0
ENDSEC
  0
SECTION
  2
ENTITIES
  0
LINE
  5
15E6
330
1F
100
AcDbEntity
  8
SPOJOVACÍ
100
AcDbLine
 10
68.41171149554179
 20
178.5797917631557
 30
0.0
 11
68.41171149554179
 21
179.4567023852891
 31
0.0
  0
LINE
  5
15E7
330
1F
100
AcDbEntity
  8
SPOJOVACÍ
100
AcDbLine
 10
68.41171149554179
 20
179.4567023852891
 30
0.0
 11
68.41171149554179
 21
178.5797917631557
 31
0.0
  0
LINE
  5
15E8
330
1F
100
AcDbEntity
  8
SPOJOVACÍ
  6
DASHED
100
AcDbLine
 10
68.41171149554179
 20
179.4567023852891
 30
0.0
 11
63.37264899554179
 21
182.6393366878641
 31
0.0
  0
LINE
  5
15E9
330
1F
100
AcDbEntity
  8
SPOJOVACÍ
100
AcDbLine
 10
54.9117114955418
 20
179.4567023852891
 30
0.0
 11
59.9507739955418
 21
182.6393366878678
 31
0.0
  0
LINE
  5
15EA
330
1F
100
AcDbEntity
  8
SPOJOVACÍ
100
AcDbLine
 10
54.9117114955418
 20
179.4567023852891
 30
0.0
 11
54.9117114955418
 21
178.5797917631557
 31
0.0
  0
LINE
  5
15EB
330
1F
100
AcDbEntity
  8
SPOJOVACÍ
100
AcDbLine
 10
68.41171149554179
 20
178.0151140188194
 30
0.0
 11
68.41171149554179
 21
179.4567023852891
 31
0.0
  0
LINE
  5
15EC
330
1F
100
AcDbEntity
  8
SPOJOVACÍ
100
AcDbLine
 10
54.9117114955418
 20
178.0151140188194
 30
0.0
 11
54.9117114955418
 21
179.4567023852891
 31
0.0
  0
LINE
  5
15ED
330
1F
100
AcDbEntity
  8
SPOJOVACÍ
100
AcDbLine
 10
68.41171149554179
 20
178.0151140188194
 30
0.0
 11
54.9117114955418
 21
178.0151140188194
 31
0.0
  0
LINE
  5
15EE
330
1F
100
AcDbEntity
  8
SPOJOVACÍ
100
AcDbLine
 10
68.41171149554179
 20
179.4567023852891
 30
0.0
 11
54.9117114955418
 21
179.4567023852891
 31
0.0
  0
LINE
  5
15EF
330
1F
100
AcDbEntity
  8
SPOJOVACÍ
  6
DASHED
100
AcDbLine
 10
65.18717791901986
 20
224.0784978403993
 30
0.0
 11
65.18717791901986
 21
181.4932937493489
 31
0.0
  0
LINE
  5
15F0
330
1F
100
AcDbEntity
  8
SPOJOVACÍ
  6
DASHED
100
AcDbLine
 10
63.37264899554179
 20
261.1516046742057
 30
0.0
 11
63.37264899554179
 21
182.6393366878641
 31
0.0
  0
LINE
  5
15F1
330
1F
100
AcDbEntity
  8
SPOJOVACÍ
  6
DASHED
100
AcDbLine
 10
58.13624507207101
 20
224.0784978403957
 30
0.0
 11
58.13624507207101
 21
181.4932937493489
 31
0.0
  0
LINE
  5
15F2
330
1F
100
AcDbEntity
  8
SPOJOVACÍ
  6
DASHED
100
AcDbLine
 10
59.9507739955418
 20
261.151604674213
 30
0.0
 11
59.9507739955418
 21
182.6393366878678
 31
0.0
  0
LINE
  5
15F3
330
1F
100
AcDbEntity
  8
SPOJOVACÍ
  6
Continuous
100
AcDbLine
 10
64.50778781846134
 20
237.1171584203243
 30
0.0
 11
64.05991689055486
 21
236.668184364435
 31
0.0
  0
LINE
  5
15F4
330
1F
100
AcDbEntity
  8
SPOJOVACÍ
  6
Continuous
100
AcDbLine
 10
64.05991689055486
 20
236.668184364435
 30
0.0
 11
59.26350609535188
 21
238.2809609476812
 31
0.0
  0
LINE
  5
15F5
330
1F
100
AcDbEntity
  8
SPOJOVACÍ
  6
Continuous
100
AcDbLine
 10
64.05991689055486
 20
229.8762045359348
 30
0.0
 11
59.26350609535188
 21
231.488981119181
 31
0.0
  0
LINE
  5
15F6
330
1F
100
AcDbEntity
  8
SPOJOVACÍ
  6
Continuous
100
AcDbLine
 10
64.05991689055486
 20
230.5833110953594
 30
0.0
 11
59.26350609535188
 21
232.1960876786019
 31
0.0
  0
LINE
  5
15F7
330
1F
100
AcDbEntity
  8
SPOJOVACÍ
  6
Continuous
100
AcDbLine
 10
58.81563517262225
 20
231.748216753282
 30
0.0
 11
59.26350609535188
 21
231.488981119181
 31
0.0
  0
LINE
  5
15F8
330
1F
100
AcDbEntity
  8
SPOJOVACÍ
  6
Continuous
100
AcDbLine
 10
58.81563517262225
 20
231.748216753282
 30
0.0
 11
59.26350609535188
 21
232.1960876786019
 31
0.0
  0
LINE
  5
15F9
330
1F
100
AcDbEntity
  8
SPOJOVACÍ
  6
Continuous
100
AcDbLine
 10
64.50778781846134
 20
230.3251785918241
 30
0.0
 11
64.05991689055486
 21
229.8762045359348
 31
0.0
  0
LINE
  5
15FA
330
1F
100
AcDbEntity
  8
SPOJOVACÍ
  6
Continuous
100
AcDbLine
 10
64.50778781846134
 20
230.3251785918241
 30
0.0
 11
64.05991689055486
 21
230.5833110953594
 31
0.0
  0
LINE
  5
15FB
330
1F
100
AcDbEntity
  8
SPOJOVACÍ
  6
Continuous
100
AcDbLine
 10
64.50778781846134
 20
230.3251785918241
 30
0.0
 11
58.81563517262225
 21
231.748216753282
 31
0.0
  0
LINE
  5
15FC
330
1F
100
AcDbEntity
  8
SPOJOVACÍ
  6
Continuous
100
AcDbLine
 10
64.05991689055486
 20
233.2721944501849
 30
0.0
 11
59.26350609535188
 21
234.884971033431
 31
0.0
  0
LINE
  5
15FD
330
1F
100
AcDbEntity
  8
SPOJOVACÍ
  6
Continuous
100
AcDbLine
 10
64.05991689055486
 20
233.9793010096095
 30
0.0
 11
59.26350609535188
 21
235.592077592852
 31
0.0
  0
LINE
  5
15FE
330
1F
100
AcDbEntity
  8
SPOJOVACÍ
  6
Continuous
100
AcDbLine
 10
58.81563517262225
 20
235.1442066675321
 30
0.0
 11
59.26350609535188
 21
234.884971033431
 31
0.0
  0
LINE
  5
15FF
330
1F
100
AcDbEntity
  8
SPOJOVACÍ
  6
Continuous
100
AcDbLine
 10
58.81563517262225
 20
235.1442066675321
 30
0.0
 11
59.26350609535188
 21
235.592077592852
 31
0.0
  0
LINE
  5
1600
330
1F
100
AcDbEntity
  8
SPOJOVACÍ
  6
Continuous
100
AcDbLine
 10
64.50778781846134
 20
233.7211685060742
 30
0.0
 11
64.05991689055486
 21
233.2721944501849
 31
0.0
  0
LINE
  5
1601
330
1F
100
AcDbEntity
  8
SPOJOVACÍ
  6
Continuous
100
AcDbLine
 10
64.50778781846134
 20
233.7211685060742
 30
0.0
 11
64.05991689055486
 21
233.9793010096095
 31
0.0
  0
LINE
  5
1602
330
1F
100
AcDbEntity
  8
SPOJOVACÍ
  6
Continuous
100
AcDbLine
 10
64.50778781846134
 20
233.7211685060742
 30
0.0
 11
58.81563517262225
 21
235.1442066675321
 31
0.0
  0
LINE
  5
1603
330
1F
100
AcDbEntity
  8
SPOJOVACÍ
  6
Continuous
100
AcDbLine
 10
64.50778781846134
 20
243.9091382488244
 30
0.0
 11
58.81563517262225
 21
245.3321764102824
 31
0.0
  0
LINE
  5
1604
330
1F
100
AcDbEntity
  8
SPOJOVACÍ
  6
Continuous
100
AcDbLine
 10
64.50778781846134
 20
243.9091382488244
 30
0.0
 11
64.05991689055486
 21
244.1672707523597
 31
0.0
  0
LINE
  5
1605
330
1F
100
AcDbEntity
  8
SPOJOVACÍ
  6
Continuous
100
AcDbLine
 10
64.50778781846134
 20
243.9091382488244
 30
0.0
 11
64.05991689055486
 21
243.4601641929352
 31
0.0
  0
LINE
  5
1606
330
1F
100
AcDbEntity
  8
SPOJOVACÍ
  6
Continuous
100
AcDbLine
 10
58.81563517262225
 20
245.3321764102824
 30
0.0
 11
59.26350609535188
 21
245.7800473356023
 31
0.0
  0
LINE
  5
1607
330
1F
100
AcDbEntity
  8
SPOJOVACÍ
  6
Continuous
100
AcDbLine
 10
58.81563517262225
 20
245.3321764102824
 30
0.0
 11
59.26350609535188
 21
245.0729407761814
 31
0.0
  0
LINE
  5
1608
330
1F
100
AcDbEntity
  8
SPOJOVACÍ
  6
Continuous
100
AcDbLine
 10
64.05991689055486
 20
244.1672707523597
 30
0.0
 11
59.26350609535188
 21
245.7800473356023
 31
0.0
  0
LINE
  5
1609
330
1F
100
AcDbEntity
  8
SPOJOVACÍ
  6
Continuous
100
AcDbLine
 10
64.05991689055486
 20
243.4601641929352
 30
0.0
 11
59.26350609535188
 21
245.0729407761814
 31
0.0
  0
LINE
  5
160A
330
1F
100
AcDbEntity
  8
SPOJOVACÍ
  6
Continuous
100
AcDbLine
 10
64.50778781846134
 20
240.5131483345744
 30
0.0
 11
58.81563517262225
 21
241.9361864960323
 31
0.0
  0
LINE
  5
160B
330
1F
100
AcDbEntity
  8
SPOJOVACÍ
  6
Continuous
100
AcDbLine
 10
64.50778781846134
 20
240.5131483345744
 30
0.0
 11
64.05991689055486
 21
240.7712808381097
 31
0.0
  0
LINE
  5
160C
330
1F
100
AcDbEntity
  8
SPOJOVACÍ
  6
Continuous
100
AcDbLine
 10
64.50778781846134
 20
240.5131483345744
 30
0.0
 11
64.05991689055486
 21
240.0641742786851
 31
0.0
  0
LINE
  5
160D
330
1F
100
AcDbEntity
  8
SPOJOVACÍ
  6
Continuous
100
AcDbLine
 10
58.81563517262225
 20
241.9361864960323
 30
0.0
 11
59.26350609535188
 21
242.3840574213522
 31
0.0
  0
LINE
  5
160E
330
1F
100
AcDbEntity
  8
SPOJOVACÍ
  6
Continuous
100
AcDbLine
 10
58.81563517262225
 20
241.9361864960323
 30
0.0
 11
59.26350609535188
 21
241.6769508619312
 31
0.0
  0
LINE
  5
160F
330
1F
100
AcDbEntity
  8
SPOJOVACÍ
  6
Continuous
100
AcDbLine
 10
64.05991689055486
 20
240.7712808381097
 30
0.0
 11
59.26350609535188
 21
242.3840574213522
 31
0.0
  0
LINE
  5
1610
330
1F
100
AcDbEntity
  8
SPOJOVACÍ
  6
Continuous
100
AcDbLine
 10
64.05991689055486
 20
240.0641742786851
 30
0.0
 11
59.26350609535188
 21
241.6769508619312
 31
0.0
  0
LINE
  5
1611
330
1F
100
AcDbEntity
  8
SPOJOVACÍ
  6
Continuous
100
AcDbLine
 10
64.50778781846134
 20
237.1171584203243
 30
0.0
 11
58.81563517262225
 21
238.5401965817822
 31
0.0
  0
LINE
  5
1612
330
1F
100
AcDbEntity
  8
SPOJOVACÍ
  6
Continuous
100
AcDbLine
 10
64.50778781846134
 20
237.1171584203243
 30
0.0
 11
64.05991689055486
 21
237.3752909238596
 31
0.0
  0
LINE
  5
1613
330
1F
100
AcDbEntity
  8
SPOJOVACÍ
  6
Continuous
100
AcDbLine
 10
58.81563517262225
 20
238.5401965817822
 30
0.0
 11
59.26350609535188
 21
238.9880675071021
 31
0.0
  0
LINE
  5
1614
330
1F
100
AcDbEntity
  8
SPOJOVACÍ
  6
Continuous
100
AcDbLine
 10
58.81563517262225
 20
238.5401965817822
 30
0.0
 11
59.26350609535188
 21
238.2809609476812
 31
0.0
  0
LINE
  5
1615
330
1F
100
AcDbEntity
  8
SPOJOVACÍ
  6
Continuous
100
AcDbLine
 10
64.05991689055486
 20
237.3752909238596
 30
0.0
 11
59.26350609535188
 21
238.9880675071021
 31
0.0
  0
LINE
  5
1616
330
1F
100
AcDbEntity
  8
SPOJOVACÍ
  6
Continuous
100
AcDbLine
 10
64.05991689055486
 20
223.0842247074346
 30
0.0
 11
59.26350609535188
 21
224.6970012906808
 31
0.0
  0
LINE
  5
1617
330
1F
100
AcDbEntity
  8
SPOJOVACÍ
  6
Continuous
100
AcDbLine
 10
64.05991689055486
 20
223.7913312668592
 30
0.0
 11
59.26350609535188
 21
225.4041078501017
 31
0.0
  0
LINE
  5
1618
330
1F
100
AcDbEntity
  8
SPOJOVACÍ
  6
Continuous
100
AcDbLine
 10
58.81563517262225
 20
224.9562369247818
 30
0.0
 11
59.26350609535188
 21
224.6970012906808
 31
0.0
  0
LINE
  5
1619
330
1F
100
AcDbEntity
  8
SPOJOVACÍ
  6
Continuous
100
AcDbLine
 10
58.81563517262225
 20
224.9562369247818
 30
0.0
 11
59.26350609535188
 21
225.4041078501017
 31
0.0
  0
LINE
  5
161A
330
1F
100
AcDbEntity
  8
SPOJOVACÍ
  6
Continuous
100
AcDbLine
 10
64.50778781846134
 20
223.5331987633239
 30
0.0
 11
64.05991689055486
 21
223.0842247074346
 31
0.0
  0
LINE
  5
161B
330
1F
100
AcDbEntity
  8
SPOJOVACÍ
  6
Continuous
100
AcDbLine
 10
64.50778781846134
 20
223.5331987633239
 30
0.0
 11
64.05991689055486
 21
223.7913312668592
 31
0.0
  0
LINE
  5
161C
330
1F
100
AcDbEntity
  8
SPOJOVACÍ
  6
Continuous
100
AcDbLine
 10
64.50778781846134
 20
223.5331987633239
 30
0.0
 11
58.81563517262225
 21
224.9562369247818
 31
0.0
  0
LINE
  5
161D
330
1F
100
AcDbEntity
  8
SPOJOVACÍ
  6
Continuous
100
AcDbLine
 10
64.05991689055486
 20
226.4802146216847
 30
0.0
 11
59.26350609535188
 21
228.0929912049308
 31
0.0
  0
LINE
  5
161E
330
1F
100
AcDbEntity
  8
SPOJOVACÍ
  6
Continuous
100
AcDbLine
 10
64.05991689055486
 20
227.1873211811093
 30
0.0
 11
59.26350609535188
 21
228.8000977643518
 31
0.0
  0
LINE
  5
161F
330
1F
100
AcDbEntity
  8
SPOJOVACÍ
  6
Continuous
100
AcDbLine
 10
58.81563517262225
 20
228.3522268390319
 30
0.0
 11
59.26350609535188
 21
228.0929912049308
 31
0.0
  0
LINE
  5
1620
330
1F
100
AcDbEntity
  8
SPOJOVACÍ
  6
Continuous
100
AcDbLine
 10
58.81563517262225
 20
228.3522268390319
 30
0.0
 11
59.26350609535188
 21
228.8000977643518
 31
0.0
  0
LINE
  5
1621
330
1F
100
AcDbEntity
  8
SPOJOVACÍ
  6
Continuous
100
AcDbLine
 10
64.50778781846134
 20
226.929188677574
 30
0.0
 11
64.05991689055486
 21
226.4802146216847
 31
0.0
  0
LINE
  5
1622
330
1F
100
AcDbEntity
  8
SPOJOVACÍ
  6
Continuous
100
AcDbLine
 10
64.50778781846134
 20
226.929188677574
 30
0.0
 11
64.05991689055486
 21
227.1873211811093
 31
0.0
  0
LINE
  5
1623
330
1F
100
AcDbEntity
  8
SPOJOVACÍ
  6
Continuous
100
AcDbLine
 10
64.50778781846134
 20
226.929188677574
 30
0.0
 11
58.81563517262225
 21
228.3522268390319
 31
0.0
  0
LINE
  5
1624
330
1F
100
AcDbEntity
  8
SPOJOVACÍ
  6
DASHED
100
AcDbLine
 10
63.37264899554179
 20
261.151604674213
 30
0.0
 11
63.37264899554179
 21
228.9388537790532
 31
0.0
  0
LINE
  5
1625
330
1F
100
AcDbEntity
  8
SPOJOVACÍ
  6
DASHED
100
AcDbLine
 10
59.9507739955418
 20
261.151604674213
 30
0.0
 11
59.9507739955418
 21
228.9388537790568
 31
0.0
  0
LINE
  5
1626
330
1F
100
AcDbEntity
  8
SPOJOVACÍ
  6
CIKCAK
 48
0.25
100
AcDbLine
 10
65.18717791901622
 20
224.0784978403993
 30
0.0
 11
65.18717791901622
 21
267.3851871716891
 31
0.0
  0
LINE
  5
1627
330
1F
100
AcDbEntity
  8
SPOJOVACÍ
  6
Continuous
100
AcDbLine
 10
64.50778781846134
 20
260.8890878200749
 30
0.0
 11
58.81563517262225
 21
262.3121259815329
 31
0.0
  0
LINE
  5
1628
330
1F
100
AcDbEntity
  8
SPOJOVACÍ
  6
Continuous
100
AcDbLine
 10
64.50778781846134
 20
260.8890878200749
 30
0.0
 11
64.05991689055486
 21
261.1472203236102
 31
0.0
  0
LINE
  5
1629
330
1F
100
AcDbEntity
  8
SPOJOVACÍ
  6
Continuous
100
AcDbLine
 10
64.50778781846134
 20
260.8890878200749
 30
0.0
 11
64.05991689055486
 21
260.4401137641857
 31
0.0
  0
LINE
  5
162A
330
1F
100
AcDbEntity
  8
SPOJOVACÍ
  6
Continuous
100
AcDbLine
 10
64.05991689055486
 20
260.4401137641857
 30
0.0
 11
59.26350609535188
 21
262.0528903474318
 31
0.0
  0
LINE
  5
162B
330
1F
100
AcDbEntity
  8
SPOJOVACÍ
  6
Continuous
100
AcDbLine
 10
64.05991689055486
 20
257.0441238499356
 30
0.0
 11
59.26350609535188
 21
258.6569004331817
 31
0.0
  0
LINE
  5
162C
330
1F
100
AcDbEntity
  8
SPOJOVACÍ
  6
Continuous
100
AcDbLine
 10
64.05991689055486
 20
257.7512304093601
 30
0.0
 11
59.26350609535188
 21
259.3640069926026
 31
0.0
  0
LINE
  5
162D
330
1F
100
AcDbEntity
  8
SPOJOVACÍ
  6
Continuous
100
AcDbLine
 10
58.81563517262225
 20
258.9161360672828
 30
0.0
 11
59.26350609535188
 21
258.6569004331817
 31
0.0
  0
LINE
  5
162E
330
1F
100
AcDbEntity
  8
SPOJOVACÍ
  6
Continuous
100
AcDbLine
 10
58.81563517262225
 20
258.9161360672828
 30
0.0
 11
59.26350609535188
 21
259.3640069926026
 31
0.0
  0
LINE
  5
162F
330
1F
100
AcDbEntity
  8
SPOJOVACÍ
  6
Continuous
100
AcDbLine
 10
64.50778781846134
 20
257.4930979058248
 30
0.0
 11
64.05991689055486
 21
257.0441238499356
 31
0.0
  0
LINE
  5
1630
330
1F
100
AcDbEntity
  8
SPOJOVACÍ
  6
Continuous
100
AcDbLine
 10
64.50778781846134
 20
257.4930979058248
 30
0.0
 11
64.05991689055486
 21
257.7512304093601
 31
0.0
  0
LINE
  5
1631
330
1F
100
AcDbEntity
  8
SPOJOVACÍ
  6
Continuous
100
AcDbLine
 10
64.50778781846134
 20
257.4930979058248
 30
0.0
 11
58.81563517262225
 21
258.9161360672828
 31
0.0
  0
LINE
  5
1632
330
1F
100
AcDbEntity
  8
SPOJOVACÍ
  6
Continuous
100
AcDbLine
 10
64.50778781846134
 20
254.0971079915747
 30
0.0
 11
58.81563517262225
 21
255.5201461530327
 31
0.0
  0
LINE
  5
1633
330
1F
100
AcDbEntity
  8
SPOJOVACÍ
  6
Continuous
100
AcDbLine
 10
64.50778781846134
 20
254.0971079915747
 30
0.0
 11
64.05991689055486
 21
254.35524049511
 31
0.0
  0
LINE
  5
1634
330
1F
100
AcDbEntity
  8
SPOJOVACÍ
  6
Continuous
100
AcDbLine
 10
64.50778781846134
 20
254.0971079915747
 30
0.0
 11
64.05991689055486
 21
253.6481339356855
 31
0.0
  0
LINE
  5
1635
330
1F
100
AcDbEntity
  8
SPOJOVACÍ
  6
Continuous
100
AcDbLine
 10
58.81563517262225
 20
255.5201461530327
 30
0.0
 11
59.26350609535188
 21
255.9680170783526
 31
0.0
  0
LINE
  5
1636
330
1F
100
AcDbEntity
  8
SPOJOVACÍ
  6
Continuous
100
AcDbLine
 10
58.81563517262225
 20
255.5201461530327
 30
0.0
 11
59.26350609535188
 21
255.2609105189316
 31
0.0
  0
LINE
  5
1637
330
1F
100
AcDbEntity
  8
SPOJOVACÍ
  6
Continuous
100
AcDbLine
 10
64.05991689055486
 20
254.35524049511
 30
0.0
 11
59.26350609535188
 21
255.9680170783526
 31
0.0
  0
LINE
  5
1638
330
1F
100
AcDbEntity
  8
SPOJOVACÍ
  6
Continuous
100
AcDbLine
 10
64.05991689055486
 20
253.6481339356855
 30
0.0
 11
59.26350609535188
 21
255.2609105189316
 31
0.0
  0
LINE
  5
1639
330
1F
100
AcDbEntity
  8
SPOJOVACÍ
  6
Continuous
100
AcDbLine
 10
64.50778781846134
 20
250.7011180773246
 30
0.0
 11
58.81563517262225
 21
252.1241562387826
 31
0.0
  0
LINE
  5
163A
330
1F
100
AcDbEntity
  8
SPOJOVACÍ
  6
Continuous
100
AcDbLine
 10
64.50778781846134
 20
250.7011180773246
 30
0.0
 11
64.05991689055486
 21
250.9592505808599
 31
0.0
  0
LINE
  5
163B
330
1F
100
AcDbEntity
  8
SPOJOVACÍ
  6
Continuous
100
AcDbLine
 10
64.50778781846134
 20
250.7011180773246
 30
0.0
 11
64.05991689055486
 21
250.2521440214354
 31
0.0
  0
LINE
  5
163C
330
1F
100
AcDbEntity
  8
SPOJOVACÍ
  6
Continuous
100
AcDbLine
 10
58.81563517262225
 20
252.1241562387826
 30
0.0
 11
59.26350609535188
 21
252.5720271641024
 31
0.0
  0
LINE
  5
163D
330
1F
100
AcDbEntity
  8
SPOJOVACÍ
  6
Continuous
100
AcDbLine
 10
58.81563517262225
 20
252.1241562387826
 30
0.0
 11
59.26350609535188
 21
251.8649206046815
 31
0.0
  0
LINE
  5
163E
330
1F
100
AcDbEntity
  8
SPOJOVACÍ
  6
Continuous
100
AcDbLine
 10
64.05991689055486
 20
250.9592505808599
 30
0.0
 11
59.26350609535188
 21
252.5720271641024
 31
0.0
  0
LINE
  5
163F
330
1F
100
AcDbEntity
  8
SPOJOVACÍ
  6
Continuous
100
AcDbLine
 10
64.05991689055486
 20
250.2521440214354
 30
0.0
 11
59.26350609535188
 21
251.8649206046815
 31
0.0
  0
LINE
  5
1640
330
1F
100
AcDbEntity
  8
SPOJOVACÍ
  6
Continuous
100
AcDbLine
 10
64.50778781846134
 20
247.3051281630745
 30
0.0
 11
58.81563517262225
 21
248.7281663245325
 31
0.0
  0
LINE
  5
1641
330
1F
100
AcDbEntity
  8
SPOJOVACÍ
  6
Continuous
100
AcDbLine
 10
64.50778781846134
 20
247.3051281630745
 30
0.0
 11
64.05991689055486
 21
247.5632606666099
 31
0.0
  0
LINE
  5
1642
330
1F
100
AcDbEntity
  8
SPOJOVACÍ
  6
Continuous
100
AcDbLine
 10
64.50778781846134
 20
247.3051281630745
 30
0.0
 11
64.05991689055486
 21
246.8561541071853
 31
0.0
  0
LINE
  5
1643
330
1F
100
AcDbEntity
  8
SPOJOVACÍ
  6
Continuous
100
AcDbLine
 10
58.81563517262225
 20
248.7281663245325
 30
0.0
 11
59.26350609535188
 21
249.1760372498524
 31
0.0
  0
LINE
  5
1644
330
1F
100
AcDbEntity
  8
SPOJOVACÍ
  6
Continuous
100
AcDbLine
 10
58.81563517262225
 20
248.7281663245325
 30
0.0
 11
59.26350609535188
 21
248.4689306904314
 31
0.0
  0
LINE
  5
1645
330
1F
100
AcDbEntity
  8
SPOJOVACÍ
  6
Continuous
100
AcDbLine
 10
64.05991689055486
 20
247.5632606666099
 30
0.0
 11
59.26350609535188
 21
249.1760372498524
 31
0.0
  0
LINE
  5
1646
330
1F
100
AcDbEntity
  8
SPOJOVACÍ
  6
Continuous
100
AcDbLine
 10
64.05991689055486
 20
246.8561541071853
 30
0.0
 11
59.26350609535188
 21
248.4689306904314
 31
0.0
  0
LINE
  5
1647
330
1F
100
AcDbEntity
  8
SPOJOVACÍ
  6
Continuous
100
AcDbLine
 10
63.87468691524668
 20
264.1550731118899
 30
0.0
 11
63.48427469358035
 21
264.3804954024184
 31
0.0
  0
LINE
  5
1648
330
1F
100
AcDbEntity
  8
SPOJOVACÍ
  6
Continuous
100
AcDbLine
 10
63.87468691524668
 20
264.1550731118899
 30
0.0
 11
63.48427469358035
 21
263.7656201333506
 31
0.0
  0
LINE
  5
1649
330
1F
100
AcDbEntity
  8
SPOJOVACÍ
  6
Continuous
100
AcDbLine
 10
59.62044071085734
 20
265.1584421155188
 30
0.0
 11
60.00989368714477
 21
265.5488543380328
 31
0.0
  0
LINE
  5
164A
330
1F
100
AcDbEntity
  8
SPOJOVACÍ
  6
Continuous
100
AcDbLine
 10
59.62044071085734
 20
265.1584421155188
 30
0.0
 11
60.00989368714477
 21
264.9339790689686
 31
0.0
  0
LINE
  5
164B
330
1F
100
AcDbEntity
  8
SPOJOVACÍ
  6
Continuous
100
AcDbLine
 10
63.48427469358035
 20
264.3804954024184
 30
0.0
 11
60.00989368714477
 21
265.5488543380328
 31
0.0
  0
LINE
  5
164C
330
1F
100
AcDbEntity
  8
SPOJOVACÍ
  6
Continuous
100
AcDbLine
 10
63.48427469358035
 20
263.7656201333506
 30
0.0
 11
60.00989368714477
 21
264.9339790689686
 31
0.0
  0
LINE
  5
164D
330
1F
100
AcDbEntity
  8
SPOJOVACÍ
  6
Continuous
100
AcDbLine
 10
63.87468691524668
 20
264.1550731118899
 30
0.0
 11
59.62044071085734
 21
265.1584421155188
 31
0.0
  0
LINE
  5
164E
330
1F
100
AcDbEntity
  8
SPOJOVACÍ
  6
Continuous
100
AcDbLine
 10
58.81563517262225
 20
262.3121259815329
 30
0.0
 11
59.26350609535188
 21
262.7599969068528
 31
0.0
  0
LINE
  5
164F
330
1F
100
AcDbEntity
  8
SPOJOVACÍ
  6
Continuous
100
AcDbLine
 10
58.81563517262225
 20
262.3121259815329
 30
0.0
 11
59.26350609535188
 21
262.0528903474318
 31
0.0
  0
LINE
  5
1650
330
1F
100
AcDbEntity
  8
SPOJOVACÍ
  6
Continuous
100
AcDbLine
 10
64.05991689055486
 20
261.1472203236102
 30
0.0
 11
59.26350609535188
 21
262.7599969068528
 31
0.0
  0
LINE
  5
1651
330
1F
100
AcDbEntity
  8
SPOJOVACÍ
  6
Continuous
100
AcDbLine
 10
63.29242593707864
 20
267.2639822335099
 30
0.0
 11
62.90297295628739
 21
267.4884452800601
 31
0.0
  0
LINE
  5
1652
330
1F
100
AcDbEntity
  8
SPOJOVACÍ
  6
Continuous
100
AcDbLine
 10
63.29242593707864
 20
267.2639822335099
 30
0.0
 11
62.90297295628739
 21
266.8735700109959
 31
0.0
  0
LINE
  5
1653
330
1F
100
AcDbEntity
  8
SPOJOVACÍ
  6
Continuous
100
AcDbLine
 10
60.07895924200534
 20
267.9172272539275
 30
0.0
 11
60.46841221829641
 21
268.3076394761578
 31
0.0
  0
LINE
  5
1654
330
1F
100
AcDbEntity
  8
SPOJOVACÍ
  6
Continuous
100
AcDbLine
 10
60.07895924200534
 20
267.9172272539275
 30
0.0
 11
60.46841221829641
 21
267.692764207381
 31
0.0
  0
LINE
  5
1655
330
1F
100
AcDbEntity
  8
SPOJOVACÍ
  6
Continuous
100
AcDbLine
 10
62.90297295628739
 20
267.4884452800601
 30
0.0
 11
60.46841221829641
 21
268.3076394761578
 31
0.0
  0
LINE
  5
1656
330
1F
100
AcDbEntity
  8
SPOJOVACÍ
  6
Continuous
100
AcDbLine
 10
62.90297295628739
 20
266.8735700109959
 30
0.0
 11
60.46841221829641
 21
267.692764207381
 31
0.0
  0
LINE
  5
1657
330
1F
100
AcDbEntity
  8
SPOJOVACÍ
  6
Continuous
100
AcDbLine
 10
63.29242593707864
 20
267.2639822335099
 30
0.0
 11
60.07895924200534
 21
267.9172272539275
 31
0.0
  0
LINE
  5
1658
330
1F
100
AcDbEntity
  8
SPOJOVACÍ
  6
Continuous
100
AcDbLine
 10
62.71016495440313
 20
270.3719321111516
 30
0.0
 11
62.3207119781157
 21
270.5973544016728
 31
0.0
  0
LINE
  5
1659
330
1F
100
AcDbEntity
  8
SPOJOVACÍ
  6
Continuous
100
AcDbLine
 10
62.71016495440313
 20
270.3719321111516
 30
0.0
 11
62.3207119781157
 21
269.9824791326158
 31
0.0
  0
LINE
  5
165A
330
1F
100
AcDbEntity
  8
SPOJOVACÍ
  6
Continuous
100
AcDbLine
 10
60.48855633977769
 20
270.6923195367948
 30
0.0
 11
60.87800931606148
 21
270.4678564899645
 31
0.0
  0
LINE
  5
165B
330
1F
100
AcDbEntity
  8
SPOJOVACÍ
  6
Continuous
100
AcDbLine
 10
62.3207119781157
 20
269.9824791326158
 30
0.0
 11
60.87800931606148
 21
270.4678564899645
 31
0.0
  0
LINE
  5
165C
330
1F
100
AcDbEntity
  8
SPOJOVACÍ
  6
Continuous
100
AcDbLine
 10
62.71016495440313
 20
270.3719321111516
 30
0.0
 11
60.48855633977769
 21
270.6923195367948
 31
0.0
  0
LINE
  5
165D
330
1F
100
AcDbEntity
  8
SPOJOVACÍ
  6
DASHED
100
AcDbLine
 10
61.66171149554179
 20
273.8568647979176
 30
0.0
 11
63.37264899554179
 21
261.151604674213
 31
0.0
  0
LINE
  5
165E
330
1F
100
AcDbEntity
  8
SPOJOVACÍ
  6
DASHED
100
AcDbLine
 10
61.66171149554179
 20
273.8568647979176
 30
0.0
 11
59.9507739955418
 21
261.151604674213
 31
0.0
  0
LINE
  5
165F
330
1F
100
AcDbEntity
  8
SPOJOVACÍ
 48
0.25
100
AcDbLine
 10
65.18717791901622
 20
267.3851871716891
 30
0.0
 11
61.66171149554179
 21
273.0346275124051
 31
0.0
  0
LINE
  5
1660
330
1F
100
AcDbEntity
  8
SPOJOVACÍ
 48
0.25
100
AcDbLine
 10
58.13624507206736
 20
267.3851871716855
 30
0.0
 11
61.66171149554179
 21
273.0346275124051
 31
0.0
  0
LINE
  5
1661
330
1F
100
AcDbEntity
  8
SPOJOVACÍ
  6
DASHDOT2
100
AcDbLine
 10
61.66171149554179
 20
179.5299023729261
 30
0.0
 11
61.66171149554179
 21
282.8235113187096
 31
0.0
  0
LINE
  5
1662
330
1F
100
AcDbEntity
  8
SPOJOVACÍ
  6
CIKCAK
 48
0.25
100
AcDbLine
 10
58.13624507207101
 20
224.0784978403993
 30
0.0
 11
58.13624507206736
 21
267.3851871716855
 31
0.0
  0
LINE
  5
1663
330
1F
100
AcDbEntity
  8
NOSNÉ KONSTRUKCE
100
AcDbLine
 10
36.66171149554179
 20
178.0151140188194
 30
0.0
 11
36.66171149554179
 21
-104.0957143560804
 31
0.0
  0
LINE
  5
1664
330
1F
100
AcDbEntity
  8
NOSNÉ KONSTRUKCE
100
AcDbLine
 10
86.66171149554179
 20
178.0151140188194
 30
0.0
 11
86.66171149554179
 21
-112.8867837681169
 31
0.0
  0
LINE
  5
1665
330
1F
100
AcDbEntity
  8
STAVBA OBRYS
100
AcDbLine
 10
93.52366671376627
 20
218.921990399815
 30
0.0
 11
88.2639462592499
 21
231.421990399815
 31
0.0
  0
LINE
  5
1666
330
1F
100
AcDbEntity
  8
CETRIS
100
AcDbLine
 10
36.0091689677804
 20
213.7039454186291
 30
0.0
 11
36.0091689677804
 21
-103.6356497725942
 31
0.0
  0
LINE
  5
1667
330
1F
100
AcDbEntity
  8
CETRIS
100
AcDbLine
 10
24.00916896778039
 20
213.7039454186291
 30
0.0
 11
24.00916896778403
 21
-101.4254884942952
 31
0.0
  0
LINE
  5
1668
330
1F
100
AcDbEntity
  8
CETRIS
100
AcDbLine
 10
99.24142325253093
 20
213.7039454186255
 30
0.0
 11
99.24142325252729
 21
-115.281773102573
 31
0.0
  0
LINE
  5
1669
330
1F
100
AcDbEntity
  8
CETRIS
100
AcDbLine
 10
87.24142325253092
 20
213.7039454186255
 30
0.0
 11
87.24142325253092
 21
-113.0716118242731
 31
0.0
  0
LINE
  5
166A
330
1F
100
AcDbEntity
  8
izolace
100
AcDbLine
 10
86.47618769083534
 20
228.2511152516039
 30
0.0
 11
36.47187966293245
 21
228.2511152516039
 31
0.0
  0
LINE
  5
166B
330
1F
100
AcDbEntity
  8
izolace
100
AcDbLine
 10
86.47618769083534
 20
230.2511152516003
 30
0.0
 11
36.47187966293245
 21
230.2511152516075
 31
0.0
  0
LWPOLYLINE
  5
166C
330
1F
100
AcDbEntity
  8
izolace
100
AcDbPolyline
 90
        4
 70
     1
 43
0.0
 10
42.27223173237985
 20
230.2511152516075
 10
42.27223173237985
 20
228.2511152516039
 10
54.77330873935466
 20
228.2511152516039
 10
54.77330873935466
 20
230.2511152516075
  0
LWPOLYLINE
  5
166D
330
1F
100
AcDbEntity
  8
izolace
100
AcDbPolyline
 90
        4
 70
     1
 43
0.0
 10
67.27438574632947
 20
230.2511152516075
 10
67.27438574632947
 20
228.2511152516039
 10
79.77546275330792
 20
228.2511152516039
 10
79.77546275330792
 20
230.2511152516075
  0
HATCH
  5
166E
330
1F
100
AcDbEntity
  8
izolace
100
AcDbHatch
 10
0.0
 20
0.0
 30
0.0
210
0.0
220
0.0
230
1.0
  2
SOLID
 70
     1
 71
     0
 91
        3
 92
        7
 72
     0
 73
     1
 93
        4
 10
86.47618769083534
 20
228.2511152516075
 10
86.47618769083534
 20
230.2511152516039
 10
79.77546275330792
 20
230.2511152516075
 10
79.77546275330792
 20
228.2511152516075
 97
        0
 92
        7
 72
     0
 73
     1
 93
        4
 10
67.27438574632947
 20
228.2511152516075
 10
67.27438574632947
 20
230.2511152516075
 10
54.77330873935466
 20
230.2511152516075
 10
54.77330873935466
 20
228.2511152516075
 97
        0
 92
        7
 72
     0
 73
     1
 93
        4
 10
42.27223173237985
 20
228.2511152516039
 10
42.27223173237985
 20
230.2511152516112
 10
36.47187966293245
 20
230.2511152516075
 10
36.47187966293245
 20
228.2511152516039
 97
        0
 75
     0
 76
     1
 47
0.0846398039763049
 98
        3
 10
81.60651169774542
 20
228.9574172966481
 10
64.93245829218835
 20
228.7880315809983
 10
41.74106162868452
 20
229.0420514622478
  0
LINE
  5
166F
330
1F
100
AcDbEntity
  8
CETRIS
100
AcDbLine
 10
24.00916896778039
 20
213.7039454186291
 30
0.0
 11
36.0091689677804
 21
213.7039454186291
 31
0.0
  0
LINE
  5
1670
330
1F
100
AcDbEntity
  8
CETRIS
100
AcDbLine
 10
87.24142325253092
 20
213.7039454186291
 30
0.0
 11
99.24142325253093
 21
213.7039454186255
 31
0.0
  0
LINE
  5
1671
330
1F
100
AcDbEntity
  8
SPOJOVACÍ
  6
Continuous
100
AcDbLine
 10
46.9110272357368
 20
197.7727157502435
 30
0.0
 11
48.27094424927896
 21
193.7283113906509
 31
0.0
  0
LINE
  5
1672
330
1F
100
AcDbEntity
  8
SPOJOVACÍ
  6
Continuous
100
AcDbLine
 10
47.50726992089153
 20
197.7727157502435
 30
0.0
 11
48.86718693443367
 21
193.7283113906509
 31
0.0
  0
LINE
  5
1673
330
1F
100
AcDbEntity
  8
SPOJOVACÍ
  6
Continuous
100
AcDbLine
 10
48.4895355613055
 20
193.3506600197055
 30
0.0
 11
48.27094424927896
 21
193.7283113906509
 31
0.0
  0
LINE
  5
1674
330
1F
100
AcDbEntity
  8
SPOJOVACÍ
  6
Continuous
100
AcDbLine
 10
48.4895355613055
 20
193.3506600197055
 30
0.0
 11
48.86718693443367
 21
193.7283113906509
 31
0.0
  0
LINE
  5
1675
330
1F
100
AcDbEntity
  8
SPOJOVACÍ
  6
Continuous
100
AcDbLine
 10
47.28960878484326
 20
198.1503671255545
 30
0.0
 11
46.9110272357368
 21
197.7727157502435
 31
0.0
  0
LINE
  5
1676
330
1F
100
AcDbEntity
  8
SPOJOVACÍ
  6
Continuous
100
AcDbLine
 10
47.28960878484326
 20
198.1503671255545
 30
0.0
 11
47.50726992089153
 21
197.7727157502435
 31
0.0
  0
LINE
  5
1677
330
1F
100
AcDbEntity
  8
SPOJOVACÍ
  6
Continuous
100
AcDbLine
 10
47.28960878484326
 20
198.1503671255545
 30
0.0
 11
48.4895355613055
 21
193.3506600197055
 31
0.0
  0
LINE
  5
1678
330
1F
100
AcDbEntity
  8
SPOJOVACÍ
  6
Continuous
100
AcDbLine
 10
43.79121761677493
 20
197.7727157502435
 30
0.0
 11
45.15113463031707
 21
193.7283113906509
 31
0.0
  0
LINE
  5
1679
330
1F
100
AcDbEntity
  8
SPOJOVACÍ
  6
Continuous
100
AcDbLine
 10
44.38746030192237
 20
197.7727157502435
 30
0.0
 11
45.74737731519531
 21
193.7283113906509
 31
0.0
  0
LINE
  5
167A
330
1F
100
AcDbEntity
  8
SPOJOVACÍ
  6
Continuous
100
AcDbLine
 10
45.36879576636533
 20
193.3506600197055
 30
0.0
 11
45.15113463031707
 21
193.7283113906509
 31
0.0
  0
LINE
  5
167B
330
1F
100
AcDbEntity
  8
SPOJOVACÍ
  6
Continuous
100
AcDbLine
 10
45.36879576636533
 20
193.3506600197055
 30
0.0
 11
45.74737731519531
 21
193.7283113906509
 31
0.0
  0
LINE
  5
167C
330
1F
100
AcDbEntity
  8
SPOJOVACÍ
  6
Continuous
100
AcDbLine
 10
44.1688689899031
 20
198.1503671255545
 30
0.0
 11
43.79121761677493
 21
197.7727157502435
 31
0.0
  0
LINE
  5
167D
330
1F
100
AcDbEntity
  8
SPOJOVACÍ
  6
Continuous
100
AcDbLine
 10
44.1688689899031
 20
198.1503671255545
 30
0.0
 11
44.38746030192237
 21
197.7727157502435
 31
0.0
  0
LINE
  5
167E
330
1F
100
AcDbEntity
  8
SPOJOVACÍ
  6
Continuous
100
AcDbLine
 10
44.1688689899031
 20
198.1503671255545
 30
0.0
 11
45.36879576636533
 21
193.3506600197055
 31
0.0
  0
LINE
  5
167F
330
1F
100
AcDbEntity
  8
SPOJOVACÍ
  6
Continuous
100
AcDbLine
 10
40.67140799780577
 20
197.7727157502435
 30
0.0
 11
42.0313250110787
 21
193.7283113906509
 31
0.0
  0
LINE
  5
1680
330
1F
100
AcDbEntity
  8
SPOJOVACÍ
  6
Continuous
100
AcDbLine
 10
41.26765068296049
 20
197.7727157502435
 30
0.0
 11
42.62756769622614
 21
193.7283113906509
 31
0.0
  0
LINE
  5
1681
330
1F
100
AcDbEntity
  8
SPOJOVACÍ
  6
Continuous
100
AcDbLine
 10
42.24898614739617
 20
193.3506600197055
 30
0.0
 11
42.0313250110787
 21
193.7283113906509
 31
0.0
  0
LINE
  5
1682
330
1F
100
AcDbEntity
  8
SPOJOVACÍ
  6
Continuous
100
AcDbLine
 10
42.24898614739617
 20
193.3506600197055
 30
0.0
 11
42.62756769622614
 21
193.7283113906509
 31
0.0
  0
LINE
  5
1683
330
1F
100
AcDbEntity
  8
SPOJOVACÍ
  6
Continuous
100
AcDbLine
 10
41.04905937093394
 20
198.1503671255545
 30
0.0
 11
40.67140799780577
 21
197.7727157502435
 31
0.0
  0
LINE
  5
1684
330
1F
100
AcDbEntity
  8
SPOJOVACÍ
  6
Continuous
100
AcDbLine
 10
41.04905937093394
 20
198.1503671255545
 30
0.0
 11
41.26765068296049
 21
197.7727157502435
 31
0.0
  0
LINE
  5
1685
330
1F
100
AcDbEntity
  8
SPOJOVACÍ
  6
Continuous
100
AcDbLine
 10
41.04905937093394
 20
198.1503671255545
 30
0.0
 11
42.24898614739617
 21
193.3506600197055
 31
0.0
  0
LINE
  5
1686
330
1F
100
AcDbEntity
  8
SPOJOVACÍ
  6
Continuous
100
AcDbLine
 10
56.39509964977446
 20
196.7671957145561
 30
0.0
 11
56.70577836554844
 21
194.6129085730994
 31
0.0
  0
LINE
  5
1687
330
1F
100
AcDbEntity
  8
SPOJOVACÍ
  6
Continuous
100
AcDbLine
 10
56.01744827664629
 20
196.3895443436108
 30
0.0
 11
56.48811722923096
 21
194.9905599440448
 31
0.0
  0
LINE
  5
1688
330
1F
100
AcDbEntity
  8
SPOJOVACÍ
  6
Continuous
100
AcDbLine
 10
56.61369096179374
 20
196.3895443436108
 30
0.0
 11
57.08435991437841
 21
194.9905599440448
 31
0.0
  0
LINE
  5
1689
330
1F
100
AcDbEntity
  8
SPOJOVACÍ
  6
Continuous
100
AcDbLine
 10
56.70577836554844
 20
194.6129085730994
 30
0.0
 11
56.48811722923096
 21
194.9905599440448
 31
0.0
  0
LINE
  5
168A
330
1F
100
AcDbEntity
  8
SPOJOVACÍ
  6
Continuous
100
AcDbLine
 10
56.70577836554844
 20
194.6129085730994
 30
0.0
 11
57.08435991437841
 21
194.9905599440448
 31
0.0
  0
LINE
  5
168B
330
1F
100
AcDbEntity
  8
SPOJOVACÍ
  6
Continuous
100
AcDbLine
 10
56.39509964977446
 20
196.7671957145561
 30
0.0
 11
56.01744827664629
 21
196.3895443436108
 31
0.0
  0
LINE
  5
168C
330
1F
100
AcDbEntity
  8
SPOJOVACÍ
  6
Continuous
100
AcDbLine
 10
56.39509964977446
 20
196.7671957145561
 30
0.0
 11
56.61369096179374
 21
196.3895443436108
 31
0.0
  0
LINE
  5
168D
330
1F
100
AcDbEntity
  8
SPOJOVACÍ
  6
Continuous
100
AcDbLine
 10
53.38133007145484
 20
197.3318124250276
 30
0.0
 11
54.01477978822481
 21
194.2157235085964
 31
0.0
  0
LINE
  5
168E
330
1F
100
AcDbEntity
  8
SPOJOVACÍ
  6
Continuous
100
AcDbLine
 10
53.00274852234839
 20
196.9541610497166
 30
0.0
 11
53.79711865217655
 21
194.5933748795418
 31
0.0
  0
LINE
  5
168F
330
1F
100
AcDbEntity
  8
SPOJOVACÍ
  6
Continuous
100
AcDbLine
 10
53.5989912075031
 20
196.9541610497166
 30
0.0
 11
54.39336133705478
 21
194.5933748795418
 31
0.0
  0
LINE
  5
1690
330
1F
100
AcDbEntity
  8
SPOJOVACÍ
  6
Continuous
100
AcDbLine
 10
54.01477978822481
 20
194.2157235085964
 30
0.0
 11
53.79711865217655
 21
194.5933748795418
 31
0.0
  0
LINE
  5
1691
330
1F
100
AcDbEntity
  8
SPOJOVACÍ
  6
Continuous
100
AcDbLine
 10
54.01477978822481
 20
194.2157235085964
 30
0.0
 11
54.39336133705478
 21
194.5933748795418
 31
0.0
  0
LINE
  5
1692
330
1F
100
AcDbEntity
  8
SPOJOVACÍ
  6
Continuous
100
AcDbLine
 10
53.38133007145484
 20
197.3318124250276
 30
0.0
 11
53.00274852234839
 21
196.9541610497166
 31
0.0
  0
LINE
  5
1693
330
1F
100
AcDbEntity
  8
SPOJOVACÍ
  6
Continuous
100
AcDbLine
 10
53.38133007145484
 20
197.3318124250276
 30
0.0
 11
53.5989912075031
 21
196.9541610497166
 31
0.0
  0
LINE
  5
1694
330
1F
100
AcDbEntity
  8
SPOJOVACÍ
  6
Continuous
100
AcDbLine
 10
50.36663031715693
 20
197.8964291311335
 30
0.0
 11
51.33959419946155
 21
193.7710994783905
 31
0.0
  0
LINE
  5
1695
330
1F
100
AcDbEntity
  8
SPOJOVACÍ
  6
Continuous
100
AcDbLine
 10
49.98897894402876
 20
197.5178475828492
 30
0.0
 11
51.12193306341328
 21
194.1487508493359
 31
0.0
  0
LINE
  5
1696
330
1F
100
AcDbEntity
  8
SPOJOVACÍ
  6
Continuous
100
AcDbLine
 10
50.58522162918348
 20
197.5178475828492
 30
0.0
 11
51.718175748568
 21
194.1487508493359
 31
0.0
  0
LINE
  5
1697
330
1F
100
AcDbEntity
  8
SPOJOVACÍ
  6
Continuous
100
AcDbLine
 10
51.33959419946155
 20
193.7710994783905
 30
0.0
 11
51.12193306341328
 21
194.1487508493359
 31
0.0
  0
LINE
  5
1698
330
1F
100
AcDbEntity
  8
SPOJOVACÍ
  6
Continuous
100
AcDbLine
 10
51.33959419946155
 20
193.7710994783905
 30
0.0
 11
51.718175748568
 21
194.1487508493359
 31
0.0
  0
LINE
  5
1699
330
1F
100
AcDbEntity
  8
SPOJOVACÍ
  6
Continuous
100
AcDbLine
 10
50.36663031715693
 20
197.8964291311335
 30
0.0
 11
49.98897894402876
 21
197.5178475828492
 31
0.0
  0
LINE
  5
169A
330
1F
100
AcDbEntity
  8
SPOJOVACÍ
  6
Continuous
100
AcDbLine
 10
50.36663031715693
 20
197.8964291311335
 30
0.0
 11
50.58522162918348
 21
197.5178475828492
 31
0.0
  0
LINE
  5
169B
330
1F
100
AcDbEntity
  8
SPOJOVACÍ
  6
Continuous
100
AcDbLine
 10
37.5515983785674
 20
197.7727157502435
 30
0.0
 11
38.91058521640775
 21
193.7283113906509
 31
0.0
  0
LINE
  5
169C
330
1F
100
AcDbEntity
  8
SPOJOVACÍ
  6
Continuous
100
AcDbLine
 10
38.14784106372212
 20
197.7727157502435
 30
0.0
 11
39.50682790128599
 21
193.7283113906509
 31
0.0
  0
LINE
  5
169D
330
1F
100
AcDbEntity
  8
SPOJOVACÍ
  6
Continuous
100
AcDbLine
 10
39.1291765284343
 20
193.3506600197055
 30
0.0
 11
38.91058521640775
 21
193.7283113906509
 31
0.0
  0
LINE
  5
169E
330
1F
100
AcDbEntity
  8
SPOJOVACÍ
  6
Continuous
100
AcDbLine
 10
39.1291765284343
 20
193.3506600197055
 30
0.0
 11
39.50682790128599
 21
193.7283113906509
 31
0.0
  0
LINE
  5
169F
330
1F
100
AcDbEntity
  8
SPOJOVACÍ
  6
Continuous
100
AcDbLine
 10
37.92924975169558
 20
198.1503671255545
 30
0.0
 11
37.5515983785674
 21
197.7727157502435
 31
0.0
  0
LINE
  5
16A0
330
1F
100
AcDbEntity
  8
SPOJOVACÍ
  6
Continuous
100
AcDbLine
 10
37.92924975169558
 20
198.1503671255545
 30
0.0
 11
38.14784106372212
 21
197.7727157502435
 31
0.0
  0
LINE
  5
16A1
330
1F
100
AcDbEntity
  8
SPOJOVACÍ
  6
Continuous
100
AcDbLine
 10
37.92924975169558
 20
198.1503671255545
 30
0.0
 11
39.1291765284343
 21
193.3506600197055
 31
0.0
  0
LINE
  5
16A2
330
1F
100
AcDbEntity
  8
SPOJOVACÍ
  6
Continuous
100
AcDbLine
 10
34.43085858390372
 20
197.7727157502435
 30
0.0
 11
35.79077559716938
 21
193.7283113906509
 31
0.0
  0
LINE
  5
16A3
330
1F
100
AcDbEntity
  8
SPOJOVACÍ
  6
Continuous
100
AcDbLine
 10
35.02710126878196
 20
197.7727157502435
 30
0.0
 11
36.3870182823241
 21
193.7283113906509
 31
0.0
  0
LINE
  5
16A4
330
1F
100
AcDbEntity
  8
SPOJOVACÍ
  6
Continuous
100
AcDbLine
 10
36.00936690919593
 20
193.3506600197055
 30
0.0
 11
35.79077559716938
 21
193.7283113906509
 31
0.0
  0
LINE
  5
16A5
330
1F
100
AcDbEntity
  8
SPOJOVACÍ
  6
Continuous
100
AcDbLine
 10
36.00936690919593
 20
193.3506600197055
 30
0.0
 11
36.3870182823241
 21
193.7283113906509
 31
0.0
  0
LINE
  5
16A6
330
1F
100
AcDbEntity
  8
SPOJOVACÍ
  6
Continuous
100
AcDbLine
 10
34.80944013273369
 20
198.1503671255545
 30
0.0
 11
34.43085858390372
 21
197.7727157502435
 31
0.0
  0
LINE
  5
16A7
330
1F
100
AcDbEntity
  8
SPOJOVACÍ
  6
Continuous
100
AcDbLine
 10
34.80944013273369
 20
198.1503671255545
 30
0.0
 11
35.02710126878196
 21
197.7727157502435
 31
0.0
  0
LINE
  5
16A8
330
1F
100
AcDbEntity
  8
SPOJOVACÍ
  6
Continuous
100
AcDbLine
 10
34.80944013273369
 20
198.1503671255545
 30
0.0
 11
36.00936690919593
 21
193.3506600197055
 31
0.0
  0
LINE
  5
16A9
330
1F
100
AcDbEntity
  8
SPOJOVACÍ
  6
Continuous
100
AcDbLine
 10
50.94519966206394
 20
194.6463949005469
 30
0.0
 11
48.97415715077773
 21
194.4008284890791
 31
0.0
  0
LINE
  5
16AA
330
1F
100
AcDbEntity
  8
SPOJOVACÍ
  6
Continuous
100
AcDbLine
 10
53.65201122796247
 20
194.9849788931082
 30
0.0
 11
51.51539742510909
 21
194.7180184377707
 31
0.0
  0
LINE
  5
16AB
330
1F
100
AcDbEntity
  8
SPOJOVACÍ
  6
Continuous
100
AcDbLine
 10
56.36905472739567
 20
195.3244930542773
 30
0.0
 11
54.22406934241121
 21
195.0566024259664
 31
0.0
  0
LINE
  5
16AC
330
1F
100
AcDbEntity
  8
SPOJOVACÍ
  6
Continuous
100
AcDbLine
 10
56.68531449792613
 20
196.1365365265286
 30
0.0
 11
59.77442831573103
 21
195.75051357263
 31
0.0
  0
LINE
  5
16AD
330
1F
100
AcDbEntity
  8
SPOJOVACÍ
  6
Continuous
100
AcDbLine
 10
53.74409863171718
 20
196.5039559642086
 30
0.0
 11
56.0648872420727
 21
196.2137411190546
 31
0.0
  0
LINE
  5
16AE
330
1F
100
AcDbEntity
  8
SPOJOVACÍ
  6
Continuous
100
AcDbLine
 10
50.791720655988
 20
196.8732357565663
 30
0.0
 11
53.11343944205259
 21
196.5830209070467
 31
0.0
  0
LINE
  5
16AF
330
1F
100
AcDbEntity
  8
SPOJOVACÍ
  6
Continuous
100
AcDbLine
 10
59.77442831573103
 20
195.75051357263
 30
0.0
 11
56.93832231446254
 21
195.396116591501
 31
0.0
  0
LINE
  5
16B0
330
1F
100
AcDbEntity
  8
SPOJOVACÍ
  6
Continuous
100
AcDbLine
 10
48.97415715077773
 20
197.1001986518153
 30
0.0
 11
50.17129340013458
 21
196.9504403490922
 31
0.0
  0
LINE
  5
16B1
330
1F
100
AcDbEntity
  8
SPOJOVACÍ
  6
Continuous
100
AcDbLine
 10
48.63743351289418
 20
194.4008284890791
 30
0.0
 11
48.97415715077773
 21
194.4008284890791
 31
0.0
  0
LINE
  5
16B2
330
1F
100
AcDbEntity
  8
SPOJOVACÍ
  6
Continuous
100
AcDbLine
 10
45.51483336628121
 20
194.4008284890791
 30
0.0
 11
48.03374942131018
 21
194.4008284890791
 31
0.0
  0
LINE
  5
16B3
330
1F
100
AcDbEntity
  8
SPOJOVACÍ
  6
Continuous
100
AcDbLine
 10
47.72679140888908
 20
197.1001986518153
 30
0.0
 11
48.97415715077773
 21
197.1001986518153
 31
0.0
  0
LINE
  5
16B4
330
1F
100
AcDbEntity
  8
SPOJOVACÍ
  6
Continuous
100
AcDbLine
 10
44.61256284440719
 20
197.1001986518153
 30
0.0
 11
47.13054872373436
 21
197.1001986518153
 31
0.0
  0
LINE
  5
16B5
330
1F
100
AcDbEntity
  8
SPOJOVACÍ
  6
Continuous
100
AcDbLine
 10
42.39316339563925
 20
194.4008284890791
 30
0.0
 11
44.91393980234829
 21
194.4008284890791
 31
0.0
  0
LINE
  5
16B6
330
1F
100
AcDbEntity
  8
SPOJOVACÍ
  6
Continuous
100
AcDbLine
 10
39.27056324929549
 20
194.4008284890791
 30
0.0
 11
41.7987810621646
 21
194.4008284890791
 31
0.0
  0
LINE
  5
16B7
330
1F
100
AcDbEntity
  8
SPOJOVACÍ
  6
Continuous
100
AcDbLine
 10
36.1554045091118
 20
194.4008284890791
 30
0.0
 11
38.67432056414077
 21
194.4008284890791
 31
0.0
  0
LINE
  5
16B8
330
1F
100
AcDbEntity
  8
SPOJOVACÍ
  6
Continuous
100
AcDbLine
 10
41.47973076425228
 20
197.1001986518153
 30
0.0
 11
44.00794857712139
 21
197.1001986518153
 31
0.0
  0
LINE
  5
16B9
330
1F
100
AcDbEntity
  8
SPOJOVACÍ
  6
Continuous
100
AcDbLine
 10
38.36457202406859
 20
197.1001986518153
 30
0.0
 11
40.88534843077764
 21
197.1001986518153
 31
0.0
  0
LINE
  5
16BA
330
1F
100
AcDbEntity
  8
SPOJOVACÍ
  6
Continuous
100
AcDbLine
 10
35.24197187772483
 20
197.1001986518153
 30
0.0
 11
37.7608879327538
 21
197.1001986518153
 31
0.0
  0
LINE
  5
16BB
330
1F
100
AcDbEntity
  8
SPOJOVACÍ
  6
Continuous
100
AcDbLine
 10
30.60876623886838
 20
197.1001986518153
 30
0.0
 11
34.6466593685484
 21
197.1001986518153
 31
0.0
  0
LINE
  5
16BC
330
1F
100
AcDbEntity
  8
SPOJOVACÍ
  6
Continuous
100
AcDbLine
 10
30.60876623886838
 20
194.4008284890791
 30
0.0
 11
35.55172041779701
 21
194.4008284890791
 31
0.0
  0
LINE
  5
16BD
330
1F
100
AcDbEntity
  8
SPOJOVACÍ
  6
Continuous
100
AcDbLine
 10
25.20909574451184
 20
200.8506674612639
 30
0.0
 11
25.95323638098602
 21
199.5009823777131
 31
0.0
  0
LINE
  5
16BE
330
1F
100
AcDbEntity
  8
SPOJOVACÍ
  6
Continuous
100
AcDbLine
 10
25.95323638098602
 20
199.5009823777131
 30
0.0
 11
27.02200837039822
 21
198.3903524773545
 31
0.0
  0
LINE
  5
16BF
330
1F
100
AcDbEntity
  8
SPOJOVACÍ
  6
Continuous
100
AcDbLine
 10
27.02200837039822
 20
198.3903524773545
 30
0.0
 11
28.34099764869574
 21
197.5941219980363
 31
0.0
  0
LINE
  5
16C0
330
1F
100
AcDbEntity
  8
SPOJOVACÍ
  6
Continuous
100
AcDbLine
 10
28.34099764869574
 20
197.5941219980363
 30
0.0
 11
29.82183751574598
 21
197.1662411337369
 31
0.0
  0
LINE
  5
16C1
330
1F
100
AcDbEntity
  8
SPOJOVACÍ
  6
Continuous
100
AcDbLine
 10
29.82183751574598
 20
197.1662411337369
 30
0.0
 11
30.60876623886838
 21
197.1001986518153
 31
0.0
  0
LINE
  5
16C2
330
1F
100
AcDbEntity
  8
SPOJOVACÍ
  6
Continuous
100
AcDbLine
 10
26.46390289283704
 20
192.6027986790636
 30
0.0
 11
25.54581938239539
 21
191.3656648701639
 31
0.0
  0
LINE
  5
16C3
330
1F
100
AcDbEntity
  8
SPOJOVACÍ
  6
Continuous
100
AcDbLine
 10
25.54581938239539
 20
191.3656648701639
 30
0.0
 11
25.20909574451184
 21
190.6503596839961
 31
0.0
  0
LINE
  5
16C4
330
1F
100
AcDbEntity
  8
SPOJOVACÍ
  6
Continuous
100
AcDbLine
 10
25.20909574451184
 20
200.8506674612639
 30
0.0
 11
25.20909574451184
 21
190.6503596839961
 31
0.0
  0
LINE
  5
16C5
330
1F
100
AcDbEntity
  8
SPOJOVACÍ
  6
Continuous
100
AcDbLine
 10
24.00916896778039
 20
200.8506674612639
 30
0.0
 11
25.20909574451184
 21
200.8506674612639
 31
0.0
  0
LINE
  5
16C6
330
1F
100
AcDbEntity
  8
SPOJOVACÍ
  6
Continuous
100
AcDbLine
 10
24.00916896778039
 20
200.8506674612639
 30
0.0
 11
24.00916896778039
 21
190.6503596839961
 31
0.0
  0
LINE
  5
16C7
330
1F
100
AcDbEntity
  8
SPOJOVACÍ
  6
Continuous
100
AcDbLine
 10
24.00916896778039
 20
190.6503596839961
 30
0.0
 11
25.20909574451184
 21
190.6503596839961
 31
0.0
  0
LINE
  5
16C8
330
1F
100
AcDbEntity
  8
SPOJOVACÍ
  6
Continuous
100
AcDbLine
 10
30.60876623886838
 20
194.4008284890791
 30
0.0
 11
29.08513828543914
 21
194.1738655981957
 31
0.0
  0
LINE
  5
16C9
330
1F
100
AcDbEntity
  8
SPOJOVACÍ
  6
Continuous
100
AcDbLine
 10
29.08513828543914
 20
194.1738655981957
 30
0.0
 11
27.67127107573583
 21
193.560879749048
 31
0.0
  0
LINE
  5
16CA
330
1F
100
AcDbEntity
  8
SPOJOVACÍ
  6
Continuous
100
AcDbLine
 10
27.67127107573583
 20
193.560879749048
 30
0.0
 11
26.46390289283704
 21
192.6027986790636
 31
0.0
  0
LINE
  5
16CB
330
1F
100
AcDbEntity
  8
SPOJOVACÍ
  6
Continuous
100
AcDbLine
 10
95.57932114457548
 20
193.560879749048
 30
0.0
 11
96.78668932747427
 21
192.6027986790636
 31
0.0
  0
LINE
  5
16CC
330
1F
100
AcDbEntity
  8
SPOJOVACÍ
  6
Continuous
100
AcDbLine
 10
94.16545393487217
 20
194.1738655981957
 30
0.0
 11
95.57932114457548
 21
193.560879749048
 31
0.0
  0
LINE
  5
16CD
330
1F
100
AcDbEntity
  8
SPOJOVACÍ
  6
Continuous
100
AcDbLine
 10
92.64182598144293
 20
194.4008284890791
 30
0.0
 11
94.16545393487217
 21
194.1738655981957
 31
0.0
  0
LINE
  5
16CE
330
1F
100
AcDbEntity
  8
SPOJOVACÍ
  6
Continuous
100
AcDbLine
 10
99.24142325253093
 20
190.6503596839961
 30
0.0
 11
98.04149647579947
 21
190.6503596839961
 31
0.0
  0
LINE
  5
16CF
330
1F
100
AcDbEntity
  8
SPOJOVACÍ
  6
Continuous
100
AcDbLine
 10
99.24142325253093
 20
200.8506674612639
 30
0.0
 11
99.24142325253093
 21
190.6503596839961
 31
0.0
  0
LINE
  5
16D0
330
1F
100
AcDbEntity
  8
SPOJOVACÍ
  6
Continuous
100
AcDbLine
 10
99.24142325253093
 20
200.8506674612639
 30
0.0
 11
98.04149647579947
 21
200.8506674612639
 31
0.0
  0
LINE
  5
16D1
330
1F
100
AcDbEntity
  8
SPOJOVACÍ
  6
Continuous
100
AcDbLine
 10
98.04149647579947
 20
200.8506674612639
 30
0.0
 11
98.04149647579947
 21
190.6503596839961
 31
0.0
  0
LINE
  5
16D2
330
1F
100
AcDbEntity
  8
SPOJOVACÍ
  6
Continuous
100
AcDbLine
 10
97.70477283791592
 20
191.3656648701639
 30
0.0
 11
98.04149647579947
 21
190.6503596839961
 31
0.0
  0
LINE
  5
16D3
330
1F
100
AcDbEntity
  8
SPOJOVACÍ
  6
Continuous
100
AcDbLine
 10
96.78668932747427
 20
192.6027986790636
 30
0.0
 11
97.70477283791592
 21
191.3656648701639
 31
0.0
  0
LINE
  5
16D4
330
1F
100
AcDbEntity
  8
SPOJOVACÍ
  6
Continuous
100
AcDbLine
 10
93.42875470456533
 20
197.1662411337369
 30
0.0
 11
92.64182598144293
 21
197.1001986518153
 31
0.0
  0
LINE
  5
16D5
330
1F
100
AcDbEntity
  8
SPOJOVACÍ
  6
Continuous
100
AcDbLine
 10
94.90959457161556
 20
197.5941219980363
 30
0.0
 11
93.42875470456533
 21
197.1662411337369
 31
0.0
  0
LINE
  5
16D6
330
1F
100
AcDbEntity
  8
SPOJOVACÍ
  6
Continuous
100
AcDbLine
 10
96.2285838499131
 20
198.3903524773545
 30
0.0
 11
94.90959457161556
 21
197.5941219980363
 31
0.0
  0
LINE
  5
16D7
330
1F
100
AcDbEntity
  8
SPOJOVACÍ
  6
Continuous
100
AcDbLine
 10
97.2973558393253
 20
199.5009823777131
 30
0.0
 11
96.2285838499131
 21
198.3903524773545
 31
0.0
  0
LINE
  5
16D8
330
1F
100
AcDbEntity
  8
SPOJOVACÍ
  6
Continuous
100
AcDbLine
 10
98.04149647579947
 20
200.8506674612639
 30
0.0
 11
97.2973558393253
 21
199.5009823777131
 31
0.0
  0
LINE
  5
16D9
330
1F
100
AcDbEntity
  8
SPOJOVACÍ
  6
Continuous
100
AcDbLine
 10
92.64182598144293
 20
194.4008284890791
 30
0.0
 11
87.6988718025143
 21
194.4008284890791
 31
0.0
  0
LINE
  5
16DA
330
1F
100
AcDbEntity
  8
SPOJOVACÍ
  6
Continuous
100
AcDbLine
 10
92.64182598144293
 20
197.1001986518153
 30
0.0
 11
88.60393285176291
 21
197.1001986518153
 31
0.0
  0
LINE
  5
16DB
330
1F
100
AcDbEntity
  8
SPOJOVACÍ
  6
Continuous
100
AcDbLine
 10
88.00862034258647
 20
197.1001986518153
 30
0.0
 11
85.48970428755751
 21
197.1001986518153
 31
0.0
  0
LINE
  5
16DC
330
1F
100
AcDbEntity
  8
SPOJOVACÍ
  6
Continuous
100
AcDbLine
 10
84.88602019624272
 20
197.1001986518153
 30
0.0
 11
82.36524378953367
 21
197.1001986518153
 31
0.0
  0
LINE
  5
16DD
330
1F
100
AcDbEntity
  8
SPOJOVACÍ
  6
Continuous
100
AcDbLine
 10
81.77086145605903
 20
197.1001986518153
 30
0.0
 11
79.24264364318992
 21
197.1001986518153
 31
0.0
  0
LINE
  5
16DE
330
1F
100
AcDbEntity
  8
SPOJOVACÍ
  6
Continuous
100
AcDbLine
 10
87.09518771119951
 20
194.4008284890791
 30
0.0
 11
84.57627165617054
 21
194.4008284890791
 31
0.0
  0
LINE
  5
16DF
330
1F
100
AcDbEntity
  8
SPOJOVACÍ
  6
Continuous
100
AcDbLine
 10
83.98002897101582
 20
194.4008284890791
 30
0.0
 11
81.4518111581467
 21
194.4008284890791
 31
0.0
  0
LINE
  5
16E0
330
1F
100
AcDbEntity
  8
SPOJOVACÍ
  6
Continuous
100
AcDbLine
 10
80.85742882467206
 20
194.4008284890791
 30
0.0
 11
78.33665241796302
 21
194.4008284890791
 31
0.0
  0
LINE
  5
16E1
330
1F
100
AcDbEntity
  8
SPOJOVACÍ
  6
Continuous
100
AcDbLine
 10
78.63802937590413
 20
197.1001986518153
 30
0.0
 11
76.12004349657695
 21
197.1001986518153
 31
0.0
  0
LINE
  5
16E2
330
1F
100
AcDbEntity
  8
SPOJOVACÍ
  6
Continuous
100
AcDbLine
 10
75.52380081142223
 20
197.1001986518153
 30
0.0
 11
74.27643506953359
 21
197.1001986518153
 31
0.0
  0
LINE
  5
16E3
330
1F
100
AcDbEntity
  8
SPOJOVACÍ
  6
Continuous
100
AcDbLine
 10
77.73575885403011
 20
194.4008284890791
 30
0.0
 11
75.21684279900114
 21
194.4008284890791
 31
0.0
  0
LINE
  5
16E4
330
1F
100
AcDbEntity
  8
SPOJOVACÍ
  6
Continuous
100
AcDbLine
 10
74.61315870741714
 20
194.4008284890791
 30
0.0
 11
74.27643506953359
 21
194.4008284890791
 31
0.0
  0
LINE
  5
16E5
330
1F
100
AcDbEntity
  8
SPOJOVACÍ
  6
Continuous
100
AcDbLine
 10
74.27643506953359
 20
197.1001986518153
 30
0.0
 11
73.07929882017674
 21
196.9504403490922
 31
0.0
  0
LINE
  5
16E6
330
1F
100
AcDbEntity
  8
SPOJOVACÍ
  6
Continuous
100
AcDbLine
 10
63.47616390458028
 20
195.75051357263
 30
0.0
 11
66.31226990584877
 21
195.396116591501
 31
0.0
  0
LINE
  5
16E7
330
1F
100
AcDbEntity
  8
SPOJOVACÍ
  6
Continuous
100
AcDbLine
 10
72.45887156432331
 20
196.8732357565663
 30
0.0
 11
70.13715277825872
 21
196.5830209070467
 31
0.0
  0
LINE
  5
16E8
330
1F
100
AcDbEntity
  8
SPOJOVACÍ
  6
Continuous
100
AcDbLine
 10
69.50649358859414
 20
196.5039559642086
 30
0.0
 11
67.18570497823861
 21
196.2137411190546
 31
0.0
  0
LINE
  5
16E9
330
1F
100
AcDbEntity
  8
SPOJOVACÍ
  6
Continuous
100
AcDbLine
 10
66.56527772238518
 20
196.1365365265286
 30
0.0
 11
63.47616390458028
 21
195.75051357263
 31
0.0
  0
LINE
  5
16EA
330
1F
100
AcDbEntity
  8
SPOJOVACÍ
  6
Continuous
100
AcDbLine
 10
66.88153749291564
 20
195.3244930542773
 30
0.0
 11
69.02652287790011
 21
195.0566024259664
 31
0.0
  0
LINE
  5
16EB
330
1F
100
AcDbEntity
  8
SPOJOVACÍ
  6
Continuous
100
AcDbLine
 10
69.59858099234884
 20
194.9849788931082
 30
0.0
 11
71.73519479520223
 21
194.7180184377707
 31
0.0
  0
LINE
  5
16EC
330
1F
100
AcDbEntity
  8
SPOJOVACÍ
  6
Continuous
100
AcDbLine
 10
72.30539255824737
 20
194.6463949005469
 30
0.0
 11
74.27643506953359
 21
194.4008284890791
 31
0.0
  0
LINE
  5
16ED
330
1F
100
AcDbEntity
  8
SPOJOVACÍ
  6
Continuous
100
AcDbLine
 10
88.44115208757761
 20
198.1503671255545
 30
0.0
 11
87.24122531111538
 21
193.3506600197055
 31
0.0
  0
LINE
  5
16EE
330
1F
100
AcDbEntity
  8
SPOJOVACÍ
  6
Continuous
100
AcDbLine
 10
88.44115208757761
 20
198.1503671255545
 30
0.0
 11
88.22349095152935
 21
197.7727157502435
 31
0.0
  0
LINE
  5
16EF
330
1F
100
AcDbEntity
  8
SPOJOVACÍ
  6
Continuous
100
AcDbLine
 10
88.44115208757761
 20
198.1503671255545
 30
0.0
 11
88.81973363640758
 21
197.7727157502435
 31
0.0
  0
LINE
  5
16F0
330
1F
100
AcDbEntity
  8
SPOJOVACÍ
  6
Continuous
100
AcDbLine
 10
87.24122531111538
 20
193.3506600197055
 30
0.0
 11
86.8635739379872
 21
193.7283113906509
 31
0.0
  0
LINE
  5
16F1
330
1F
100
AcDbEntity
  8
SPOJOVACÍ
  6
Continuous
100
AcDbLine
 10
87.24122531111538
 20
193.3506600197055
 30
0.0
 11
87.45981662314193
 21
193.7283113906509
 31
0.0
  0
LINE
  5
16F2
330
1F
100
AcDbEntity
  8
SPOJOVACÍ
  6
Continuous
100
AcDbLine
 10
88.22349095152935
 20
197.7727157502435
 30
0.0
 11
86.8635739379872
 21
193.7283113906509
 31
0.0
  0
LINE
  5
16F3
330
1F
100
AcDbEntity
  8
SPOJOVACÍ
  6
Continuous
100
AcDbLine
 10
88.81973363640758
 20
197.7727157502435
 30
0.0
 11
87.45981662314193
 21
193.7283113906509
 31
0.0
  0
LINE
  5
16F4
330
1F
100
AcDbEntity
  8
SPOJOVACÍ
  6
Continuous
100
AcDbLine
 10
85.32134246861573
 20
198.1503671255545
 30
0.0
 11
84.12141569187701
 21
193.3506600197055
 31
0.0
  0
LINE
  5
16F5
330
1F
100
AcDbEntity
  8
SPOJOVACÍ
  6
Continuous
100
AcDbLine
 10
85.32134246861573
 20
198.1503671255545
 30
0.0
 11
85.10275115658918
 21
197.7727157502435
 31
0.0
  0
LINE
  5
16F6
330
1F
100
AcDbEntity
  8
SPOJOVACÍ
  6
Continuous
100
AcDbLine
 10
85.32134246861573
 20
198.1503671255545
 30
0.0
 11
85.69899384174391
 21
197.7727157502435
 31
0.0
  0
LINE
  5
16F7
330
1F
100
AcDbEntity
  8
SPOJOVACÍ
  6
Continuous
100
AcDbLine
 10
84.12141569187701
 20
193.3506600197055
 30
0.0
 11
83.74376431902533
 21
193.7283113906509
 31
0.0
  0
LINE
  5
16F8
330
1F
100
AcDbEntity
  8
SPOJOVACÍ
  6
Continuous
100
AcDbLine
 10
84.12141569187701
 20
193.3506600197055
 30
0.0
 11
84.34000700390356
 21
193.7283113906509
 31
0.0
  0
LINE
  5
16F9
330
1F
100
AcDbEntity
  8
SPOJOVACÍ
  6
Continuous
100
AcDbLine
 10
85.10275115658918
 20
197.7727157502435
 30
0.0
 11
83.74376431902533
 21
193.7283113906509
 31
0.0
  0
LINE
  5
16FA
330
1F
100
AcDbEntity
  8
SPOJOVACÍ
  6
Continuous
100
AcDbLine
 10
85.69899384174391
 20
197.7727157502435
 30
0.0
 11
84.34000700390356
 21
193.7283113906509
 31
0.0
  0
LINE
  5
16FB
330
1F
100
AcDbEntity
  8
SPOJOVACÍ
  6
Continuous
100
AcDbLine
 10
72.88396190315438
 20
197.8964291311335
 30
0.0
 11
72.66537059112784
 21
197.5178475828492
 31
0.0
  0
LINE
  5
16FC
330
1F
100
AcDbEntity
  8
SPOJOVACÍ
  6
Continuous
100
AcDbLine
 10
72.88396190315438
 20
197.8964291311335
 30
0.0
 11
73.26161327628256
 21
197.5178475828492
 31
0.0
  0
LINE
  5
16FD
330
1F
100
AcDbEntity
  8
SPOJOVACÍ
  6
Continuous
100
AcDbLine
 10
71.91099802084977
 20
193.7710994783905
 30
0.0
 11
71.53241647174332
 21
194.1487508493359
 31
0.0
  0
LINE
  5
16FE
330
1F
100
AcDbEntity
  8
SPOJOVACÍ
  6
Continuous
100
AcDbLine
 10
71.91099802084977
 20
193.7710994783905
 30
0.0
 11
72.12865915689803
 21
194.1487508493359
 31
0.0
  0
LINE
  5
16FF
330
1F
100
AcDbEntity
  8
SPOJOVACÍ
  6
Continuous
100
AcDbLine
 10
72.66537059112784
 20
197.5178475828492
 30
0.0
 11
71.53241647174332
 21
194.1487508493359
 31
0.0
  0
LINE
  5
1700
330
1F
100
AcDbEntity
  8
SPOJOVACÍ
  6
Continuous
100
AcDbLine
 10
73.26161327628256
 20
197.5178475828492
 30
0.0
 11
72.12865915689803
 21
194.1487508493359
 31
0.0
  0
LINE
  5
1701
330
1F
100
AcDbEntity
  8
SPOJOVACÍ
  6
Continuous
100
AcDbLine
 10
72.88396190315438
 20
197.8964291311335
 30
0.0
 11
71.91099802084977
 21
193.7710994783905
 31
0.0
  0
LINE
  5
1702
330
1F
100
AcDbEntity
  8
SPOJOVACÍ
  6
Continuous
100
AcDbLine
 10
69.86926214885648
 20
197.3318124250276
 30
0.0
 11
69.65160101280821
 21
196.9541610497166
 31
0.0
  0
LINE
  5
1703
330
1F
100
AcDbEntity
  8
SPOJOVACÍ
  6
Continuous
100
AcDbLine
 10
69.86926214885648
 20
197.3318124250276
 30
0.0
 11
70.24784369796293
 21
196.9541610497166
 31
0.0
  0
LINE
  5
1704
330
1F
100
AcDbEntity
  8
SPOJOVACÍ
  6
Continuous
100
AcDbLine
 10
69.2358124320865
 20
194.2157235085964
 30
0.0
 11
68.85723088325653
 21
194.5933748795418
 31
0.0
  0
LINE
  5
1705
330
1F
100
AcDbEntity
  8
SPOJOVACÍ
  6
Continuous
100
AcDbLine
 10
69.2358124320865
 20
194.2157235085964
 30
0.0
 11
69.45347356813477
 21
194.5933748795418
 31
0.0
  0
LINE
  5
1706
330
1F
100
AcDbEntity
  8
SPOJOVACÍ
  6
Continuous
100
AcDbLine
 10
69.65160101280821
 20
196.9541610497166
 30
0.0
 11
68.85723088325653
 21
194.5933748795418
 31
0.0
  0
LINE
  5
1707
330
1F
100
AcDbEntity
  8
SPOJOVACÍ
  6
Continuous
100
AcDbLine
 10
70.24784369796293
 20
196.9541610497166
 30
0.0
 11
69.45347356813477
 21
194.5933748795418
 31
0.0
  0
LINE
  5
1708
330
1F
100
AcDbEntity
  8
SPOJOVACÍ
  6
Continuous
100
AcDbLine
 10
69.86926214885648
 20
197.3318124250276
 30
0.0
 11
69.2358124320865
 21
194.2157235085964
 31
0.0
  0
LINE
  5
1709
330
1F
100
AcDbEntity
  8
SPOJOVACÍ
  6
Continuous
100
AcDbLine
 10
66.85549257053685
 20
196.7671957145561
 30
0.0
 11
66.63690125851758
 21
196.3895443436108
 31
0.0
  0
LINE
  5
170A
330
1F
100
AcDbEntity
  8
SPOJOVACÍ
  6
Continuous
100
AcDbLine
 10
66.85549257053685
 20
196.7671957145561
 30
0.0
 11
67.23314394366503
 21
196.3895443436108
 31
0.0
  0
LINE
  5
170B
330
1F
100
AcDbEntity
  8
SPOJOVACÍ
  6
Continuous
100
AcDbLine
 10
66.54481385476287
 20
194.6129085730994
 30
0.0
 11
66.1662323059329
 21
194.9905599440448
 31
0.0
  0
LINE
  5
170C
330
1F
100
AcDbEntity
  8
SPOJOVACÍ
  6
Continuous
100
AcDbLine
 10
66.54481385476287
 20
194.6129085730994
 30
0.0
 11
66.76247499108035
 21
194.9905599440448
 31
0.0
  0
LINE
  5
170D
330
1F
100
AcDbEntity
  8
SPOJOVACÍ
  6
Continuous
100
AcDbLine
 10
66.63690125851758
 20
196.3895443436108
 30
0.0
 11
66.1662323059329
 21
194.9905599440448
 31
0.0
  0
LINE
  5
170E
330
1F
100
AcDbEntity
  8
SPOJOVACÍ
  6
Continuous
100
AcDbLine
 10
67.23314394366503
 20
196.3895443436108
 30
0.0
 11
66.76247499108035
 21
194.9905599440448
 31
0.0
  0
LINE
  5
170F
330
1F
100
AcDbEntity
  8
SPOJOVACÍ
  6
Continuous
100
AcDbLine
 10
66.85549257053685
 20
196.7671957145561
 30
0.0
 11
66.54481385476287
 21
194.6129085730994
 31
0.0
  0
LINE
  5
1710
330
1F
100
AcDbEntity
  8
SPOJOVACÍ
  6
Continuous
100
AcDbLine
 10
82.20153284937737
 20
198.1503671255545
 30
0.0
 11
81.00160607291513
 21
193.3506600197055
 31
0.0
  0
LINE
  5
1711
330
1F
100
AcDbEntity
  8
SPOJOVACÍ
  6
Continuous
100
AcDbLine
 10
82.20153284937737
 20
198.1503671255545
 30
0.0
 11
81.98294153735082
 21
197.7727157502435
 31
0.0
  0
LINE
  5
1712
330
1F
100
AcDbEntity
  8
SPOJOVACÍ
  6
Continuous
100
AcDbLine
 10
82.20153284937737
 20
198.1503671255545
 30
0.0
 11
82.57918422250554
 21
197.7727157502435
 31
0.0
  0
LINE
  5
1713
330
1F
100
AcDbEntity
  8
SPOJOVACÍ
  6
Continuous
100
AcDbLine
 10
81.00160607291513
 20
193.3506600197055
 30
0.0
 11
80.62302452408516
 21
193.7283113906509
 31
0.0
  0
LINE
  5
1714
330
1F
100
AcDbEntity
  8
SPOJOVACÍ
  6
Continuous
100
AcDbLine
 10
81.00160607291513
 20
193.3506600197055
 30
0.0
 11
81.2192672092326
 21
193.7283113906509
 31
0.0
  0
LINE
  5
1715
330
1F
100
AcDbEntity
  8
SPOJOVACÍ
  6
Continuous
100
AcDbLine
 10
81.98294153735082
 20
197.7727157502435
 30
0.0
 11
80.62302452408516
 21
193.7283113906509
 31
0.0
  0
LINE
  5
1716
330
1F
100
AcDbEntity
  8
SPOJOVACÍ
  6
Continuous
100
AcDbLine
 10
82.57918422250554
 20
197.7727157502435
 30
0.0
 11
81.2192672092326
 21
193.7283113906509
 31
0.0
  0
LINE
  5
1717
330
1F
100
AcDbEntity
  8
SPOJOVACÍ
  6
Continuous
100
AcDbLine
 10
79.08172323040822
 20
198.1503671255545
 30
0.0
 11
77.88179645394598
 21
193.3506600197055
 31
0.0
  0
LINE
  5
1718
330
1F
100
AcDbEntity
  8
SPOJOVACÍ
  6
Continuous
100
AcDbLine
 10
79.08172323040822
 20
198.1503671255545
 30
0.0
 11
78.86313191838894
 21
197.7727157502435
 31
0.0
  0
LINE
  5
1719
330
1F
100
AcDbEntity
  8
SPOJOVACÍ
  6
Continuous
100
AcDbLine
 10
79.08172323040822
 20
198.1503671255545
 30
0.0
 11
79.45937460353639
 21
197.7727157502435
 31
0.0
  0
LINE
  5
171A
330
1F
100
AcDbEntity
  8
SPOJOVACÍ
  6
Continuous
100
AcDbLine
 10
77.88179645394598
 20
193.3506600197055
 30
0.0
 11
77.50321490511601
 21
193.7283113906509
 31
0.0
  0
LINE
  5
171B
330
1F
100
AcDbEntity
  8
SPOJOVACÍ
  6
Continuous
100
AcDbLine
 10
77.88179645394598
 20
193.3506600197055
 30
0.0
 11
78.09945758999425
 21
193.7283113906509
 31
0.0
  0
LINE
  5
171C
330
1F
100
AcDbEntity
  8
SPOJOVACÍ
  6
Continuous
100
AcDbLine
 10
78.86313191838894
 20
197.7727157502435
 30
0.0
 11
77.50321490511601
 21
193.7283113906509
 31
0.0
  0
LINE
  5
171D
330
1F
100
AcDbEntity
  8
SPOJOVACÍ
  6
Continuous
100
AcDbLine
 10
79.45937460353639
 20
197.7727157502435
 30
0.0
 11
78.09945758999425
 21
193.7283113906509
 31
0.0
  0
LINE
  5
171E
330
1F
100
AcDbEntity
  8
SPOJOVACÍ
  6
Continuous
100
AcDbLine
 10
75.96098343546805
 20
198.1503671255545
 30
0.0
 11
74.76105665900582
 21
193.3506600197055
 31
0.0
  0
LINE
  5
171F
330
1F
100
AcDbEntity
  8
SPOJOVACÍ
  6
Continuous
100
AcDbLine
 10
75.96098343546805
 20
198.1503671255545
 30
0.0
 11
75.74332229941979
 21
197.7727157502435
 31
0.0
  0
LINE
  5
1720
330
1F
100
AcDbEntity
  8
SPOJOVACÍ
  6
Continuous
100
AcDbLine
 10
75.96098343546805
 20
198.1503671255545
 30
0.0
 11
76.3395649845745
 21
197.7727157502435
 31
0.0
  0
LINE
  5
1721
330
1F
100
AcDbEntity
  8
SPOJOVACÍ
  6
Continuous
100
AcDbLine
 10
74.76105665900582
 20
193.3506600197055
 30
0.0
 11
74.38340528587764
 21
193.7283113906509
 31
0.0
  0
LINE
  5
1722
330
1F
100
AcDbEntity
  8
SPOJOVACÍ
  6
Continuous
100
AcDbLine
 10
74.76105665900582
 20
193.3506600197055
 30
0.0
 11
74.97964797103236
 21
193.7283113906509
 31
0.0
  0
LINE
  5
1723
330
1F
100
AcDbEntity
  8
SPOJOVACÍ
  6
Continuous
100
AcDbLine
 10
75.74332229941979
 20
197.7727157502435
 30
0.0
 11
74.38340528587764
 21
193.7283113906509
 31
0.0
  0
LINE
  5
1724
330
1F
100
AcDbEntity
  8
SPOJOVACÍ
  6
Continuous
100
AcDbLine
 10
76.3395649845745
 20
197.7727157502435
 30
0.0
 11
74.97964797103236
 21
193.7283113906509
 31
0.0
  0
LINE
  5
1725
330
1F
100
AcDbEntity
  8
izolace
  6
IZOLACE
 48
1.5
100
AcDbLine
 10
61.76641784077332
 20
178.0151140188194
 30
0.0
 11
61.76641784077332
 21
-108.3796226138125
 31
0.0
  0
LWPOLYLINE
  5
1726
330
1F
100
AcDbEntity
  8
izolace
100
AcDbPolyline
 90
        4
 70
     1
 43
0.0
 10
24.00916896778039
 20
213.7039454186255
 10
24.00916896778039
 20
218.921990399815
 10
36.0091689677804
 20
218.921990399815
 10
36.0091689677804
 20
213.7039454186255
  0
LWPOLYLINE
  5
1727
330
1F
100
AcDbEntity
  8
izolace
100
AcDbPolyline
 90
        4
 70
     1
 43
0.0
 10
99.24142325253093
 20
213.7039454186255
 10
99.24142325253093
 20
218.921990399815
 10
87.24142325253092
 20
218.921990399815
 10
87.24142325253092
 20
213.7039454186255
  0
HATCH
  5
1728
330
1F
100
AcDbEntity
  8
izolace
100
AcDbHatch
 10
0.0
 20
0.0
 30
0.0
210
0.0
220
0.0
230
1.0
  2
AR-SAND
 70
     0
 71
     0
 91
        2
 92
        7
 72
     0
 73
     1
 93
        4
 10
99.24142325253093
 20
213.7039454186255
 10
99.24142325253093
 20
218.921990399815
 10
87.24142325253092
 20
218.921990399815
 10
87.24142325253092
 20
213.7039454186255
 97
        0
 92
        7
 72
     0
 73
     1
 93
        4
 10
36.0091689677804
 20
213.7039454186255
 10
36.0091689677804
 20
218.921990399815
 10
24.00916896778039
 20
218.921990399815
 10
24.00916896778039
 20
213.7039454186218
 97
        0
 75
     0
 76
     1
 52
90.0
 41
0.05
 77
     0
 78
     4
 53
127.5
 43
-23423.21251733595
 44
-2085.129482441834
 45
-2.447066186646711
 46
-0.0800015647992021
 79
     6
 49
0.0
 49
-1.9304
 49
0.0
 49
-2.159
 49
0.0
 49
-2.06375
 53
97.49999999999998
 43
-23423.21251733595
 44
-2085.129482441834
 45
-3.584125502841771
 46
2.247616415690013
 79
     6
 49
0.0
 49
-1.0414
 49
0.0
 49
-1.7399
 49
0.0
 49
-0.6667500000000001
 53
57.5
 43
-23423.21251733595
 44
-2086.691582441834
 45
-0.0071859233927282
 46
3.95496185120729
 79
     6
 49
0.0
 49
-0.635
 49
0.0
 49
-2.286
 49
0.0
 49
-2.9845
 53
47.5
 43
-23423.21251733595
 44
-2086.691582441834
 45
-1.11464661628608
 46
3.817782262361486
 79
     6
 49
0.0
 49
-0.3175
 49
0.0
 49
-1.498599999999999
 49
0.0
 49
-1.7145
 47
0.4414942775221867
 98
        2
 10
94.75612483891131
 20
216.356101022166
 10
29.41496654807383
 20
215.9143662288465
  0
LINE
  5
1729
330
1F
100
AcDbEntity
  8
POPIS
100
AcDbLine
 10
61.98147547497251
 20
262.7023574817525
 30
0.0
 11
-29.66741155307932
 21
337.6771008394984
 31
0.0
  0
INSERT
  5
172A
330
1F
100
AcDbEntity
  8
POPIS
100
AcDbBlockReference
  2
E_PUNKT
 10
61.95240714410215
 20
262.7299678573776
 30
0.0
 50
270.0
  0
LINE
  5
172B
330
1F
100
AcDbEntity
  8
STAVBA OBRYS
100
AcDbLine
 10
93.24142325253092
 20
218.921990399815
 30
0.0
 11
263.704979799809
 21
218.921990399815
 31
0.0
  0
LINE
  5
172C
330
1F
100
AcDbEntity
  8
STAVBA OBRYS
100
AcDbLine
 10
263.7164499103903
 20
231.421990399815
 30
0.0
 11
-87.20216601779862
 21
231.421990399815
 31
0.0
  0
LINE
  5
172D
330
1F
100
AcDbEntity
  8
STAVBA OBRYS
100
AcDbLine
 10
30.00916896778039
 20
218.921990399815
 30
0.0
 11
-87.20216601779862
 21
218.921990399815
 31
0.0
  0
LINE
  5
172E
330
1F
100
AcDbEntity
  8
STAVBA OBRYS
100
AcDbLine
 10
263.7164499103903
 20
243.6858935409313
 30
0.0
 11
-87.20216601779862
 21
243.6858935409313
 31
0.0
  0
LINE
  5
172F
330
1F
100
AcDbEntity
  8
STAVBA OBRYS
100
AcDbLine
 10
263.7164499103903
 20
383.6858935409313
 30
0.0
 11
-87.20216601779862
 21
383.6858935409313
 31
0.0
  0
LWPOLYLINE
  5
1730
330
1F
100
AcDbEntity
  8
STAVBA OBRYS
100
AcDbPolyline
 90
        4
 70
     1
 43
0.0
 10
112.7978339822013
 20
243.6858935409313
 10
212.7978339822013
 20
243.6858935409313
 10
212.7978339822013
 20
383.6858935409313
 10
112.7978339822013
 20
383.6858935409313
  0
LINE
  5
1731
330
1F
100
AcDbEntity
  8
STAVBA OBRYS
100
AcDbLine
 10
170.9816373899495
 20
239.9186826492063
 30
0.0
 11
164.9399588907083
 21
240.7916216266298
 31
0.0
  0
LINE
  5
1732
330
1F
100
AcDbEntity
  8
STAVBA OBRYS
100
AcDbLine
 10
81.05345384355791
 20
242.831602404773
 30
0.0
 11
101.2946904534157
 21
243.1455825626021
 31
0.0
  0
LINE
  5
1733
330
1F
100
AcDbEntity
  8
STAVBA OBRYS
100
AcDbLine
 10
101.2946904534157
 20
243.1455825626021
 30
0.0
 11
137.9516434109002
 21
242.3615516042104
 31
0.0
  0
LINE
  5
1734
330
1F
100
AcDbEntity
  8
STAVBA OBRYS
100
AcDbLine
 10
103.7814229161315
 20
231.421990399815
 30
0.0
 11
101.3200720947618
 21
232.0850280319559
 31
0.0
  0
LINE
  5
1735
330
1F
100
AcDbEntity
  8
STAVBA OBRYS
100
AcDbLine
 10
101.3200720947618
 20
232.0850280319559
 30
0.0
 11
87.8367922011505
 21
233.2473704922144
 31
0.0
  0
LINE
  5
1736
330
1F
100
AcDbEntity
  8
STAVBA OBRYS
100
AcDbLine
 10
124.7039058705679
 20
235.9032567561138
 30
0.0
 11
88.97072198920183
 21
235.9032567561138
 31
0.0
  0
LINE
  5
1737
330
1F
100
AcDbEntity
  8
STAVBA OBRYS
100
AcDbLine
 10
149.5813779834327
 20
234.6328294651015
 30
0.0
 11
124.7039058705679
 21
235.9032567561138
 31
0.0
  0
LINE
  5
1738
330
1F
100
AcDbEntity
  8
STAVBA OBRYS
100
AcDbLine
 10
137.9516434109002
 20
242.3615516042104
 30
0.0
 11
164.9399588907083
 21
240.7916216266298
 31
0.0
  0
LINE
  5
1739
330
1F
100
AcDbEntity
  8
STAVBA OBRYS
100
AcDbLine
 10
49.4404662097852
 20
230.6280281678468
 30
0.0
 11
40.13225886296391
 21
230.1914565195606
 31
0.0
  0
LINE
  5
173A
330
1F
100
AcDbEntity
  8
STAVBA OBRYS
100
AcDbLine
 10
46.95043158405428
 20
240.4516929366568
 30
0.0
 11
54.23732583116839
 21
241.7976891249986
 31
0.0
  0
LINE
  5
173B
330
1F
100
AcDbEntity
  8
STAVBA OBRYS
100
AcDbLine
 10
87.8367922011505
 20
233.2473704922144
 30
0.0
 11
63.11188052955663
 21
230.9190662038876
 31
0.0
  0
LINE
  5
173C
330
1F
100
AcDbEntity
  8
STAVBA OBRYS
100
AcDbLine
 10
63.11188052955663
 20
230.9190662038876
 30
0.0
 11
49.4404662097852
 21
230.6280281678468
 31
0.0
  0
LINE
  5
173D
330
1F
100
AcDbEntity
  8
STAVBA OBRYS
100
AcDbLine
 10
88.97072198920183
 20
235.9032567561138
 30
0.0
 11
66.13532649358717
 21
235.4801409833293
 31
0.0
  0
LINE
  5
173E
330
1F
100
AcDbEntity
  8
STAVBA OBRYS
100
AcDbLine
 10
66.13532649358717
 20
235.4801409833293
 30
0.0
 11
47.31726575377002
 21
236.3261973981993
 31
0.0
  0
LINE
  5
173F
330
1F
100
AcDbEntity
  8
STAVBA OBRYS
100
AcDbLine
 10
54.23732583116839
 20
241.7976891249986
 30
0.0
 11
81.05345384355791
 21
242.831602404773
 31
0.0
  0
LINE
  5
1740
330
1F
100
AcDbEntity
  8
STAVBA OBRYS
100
AcDbLine
 10
-14.36445221039207
 20
233.0996769346588
 30
0.0
 11
-28.09413426403512
 21
232.2228267049271
 31
0.0
  0
LINE
  5
1741
330
1F
100
AcDbEntity
  8
STAVBA OBRYS
100
AcDbLine
 10
5.70634676801751
 20
231.6444575660047
 30
0.0
 11
-14.36445221039207
 21
233.0996769346588
 31
0.0
  0
LINE
  5
1742
330
1F
100
AcDbEntity
  8
STAVBA OBRYS
100
AcDbLine
 10
10.3756402990341
 20
231.421990399815
 30
0.0
 11
5.70634676801751
 21
231.6444575660047
 31
0.0
  0
LINE
  5
1743
330
1F
100
AcDbEntity
  8
STAVBA OBRYS
100
AcDbLine
 10
40.13225886296391
 20
230.1914565195606
 30
0.0
 11
33.77638558949661
 21
230.6258390340939
 31
0.0
  0
LINE
  5
1744
330
1F
100
AcDbEntity
  8
STAVBA OBRYS
100
AcDbLine
 10
33.77638558949661
 20
230.6258390340939
 30
0.0
 11
17.92335876347101
 21
231.062381493923
 31
0.0
  0
LINE
  5
1745
330
1F
100
AcDbEntity
  8
STAVBA OBRYS
100
AcDbLine
 10
47.31726575377002
 20
236.3261973981993
 30
0.0
 11
26.22329980029576
 21
236.7475910524285
 31
0.0
  0
LINE
  5
1746
330
1F
100
AcDbEntity
  8
STAVBA OBRYS
100
AcDbLine
 10
26.22329980029576
 20
236.7475910524285
 30
0.0
 11
-11.83570471875532
 21
236.9591489388171
 31
0.0
  0
LINE
  5
1747
330
1F
100
AcDbEntity
  8
STAVBA OBRYS
100
AcDbLine
 10
7.531281368997269
 20
242.1340860125114
 30
0.0
 11
27.33186598654469
 21
240.3395217228884
 31
0.0
  0
LINE
  5
1748
330
1F
100
AcDbEntity
  8
STAVBA OBRYS
100
AcDbLine
 10
-2.942518540937044
 20
243.5041187554365
 30
0.0
 11
7.531281368997269
 21
242.1340860125114
 31
0.0
  0
LINE
  5
1749
330
1F
100
AcDbEntity
  8
STAVBA OBRYS
100
AcDbLine
 10
27.33186598654469
 20
240.3395217228884
 30
0.0
 11
46.95043158405428
 21
240.4516929366568
 31
0.0
  0
LINE
  5
174A
330
1F
100
AcDbEntity
  8
STAVBA OBRYS
100
AcDbLine
 10
-28.09413426403512
 20
232.2228267049271
 30
0.0
 11
-34.84030757429968
 21
231.421990399815
 31
0.0
  0
LINE
  5
174B
330
1F
100
AcDbEntity
  8
STAVBA OBRYS
100
AcDbLine
 10
-44.6743532324424
 20
231.4952170206001
 30
0.0
 11
-52.38270539482869
 21
231.6407506328455
 31
0.0
  0
LINE
  5
174C
330
1F
100
AcDbEntity
  8
STAVBA OBRYS
100
AcDbLine
 10
-52.38270539482869
 20
231.6407506328455
 30
0.0
 11
-56.53682971330886
 21
231.421990399815
 31
0.0
  0
LINE
  5
174D
330
1F
100
AcDbEntity
  8
STAVBA OBRYS
100
AcDbLine
 10
-68.83798246702895
 20
236.322256957434
 30
0.0
 11
-86.80185554343802
 21
235.1989002340109
 31
0.0
  0
LINE
  5
174E
330
1F
100
AcDbEntity
  8
STAVBA OBRYS
100
AcDbLine
 10
-86.70155033237348
 20
239.9659953299218
 30
0.0
 11
-85.33022256916115
 21
239.9186826492063
 31
0.0
  0
LINE
  5
174F
330
1F
100
AcDbEntity
  8
STAVBA OBRYS
100
AcDbLine
 10
-85.33022256916115
 20
239.9186826492063
 30
0.0
 11
-52.34574236489311
 21
241.6111165519018
 31
0.0
  0
LINE
  5
1750
330
1F
100
AcDbEntity
  8
STAVBA OBRYS
100
AcDbLine
 10
-42.66170914801
 20
231.421990399815
 30
0.0
 11
-44.6743532324424
 21
231.4952170206001
 31
0.0
  0
LINE
  5
1751
330
1F
100
AcDbEntity
  8
STAVBA OBRYS
100
AcDbLine
 10
-11.83570471875532
 20
236.9591489388171
 30
0.0
 11
-41.22571516709899
 21
237.170706825213
 31
0.0
  0
LINE
  5
1752
330
1F
100
AcDbEntity
  8
STAVBA OBRYS
100
AcDbLine
 10
-41.22571516709899
 20
237.170706825213
 30
0.0
 11
-68.83798246702895
 21
236.322256957434
 31
0.0
  0
LINE
  5
1753
330
1F
100
AcDbEntity
  8
STAVBA OBRYS
100
AcDbLine
 10
-52.34574236489311
 20
241.6111165519018
 30
0.0
 11
-34.68907614501472
 21
243.5041187554365
 31
0.0
  0
LINE
  5
1754
330
1F
100
AcDbEntity
  8
STAVBA OBRYS
100
AcDbLine
 10
203.9661175942176
 20
241.6111165519018
 30
0.0
 11
221.622783814096
 21
243.5041187554365
 31
0.0
  0
LINE
  5
1755
330
1F
100
AcDbEntity
  8
STAVBA OBRYS
100
AcDbLine
 10
215.0861447920117
 20
237.170706825213
 30
0.0
 11
187.4738774920817
 21
236.322256957434
 31
0.0
  0
LINE
  5
1756
330
1F
100
AcDbEntity
  8
STAVBA OBRYS
100
AcDbLine
 10
244.4761552403554
 20
236.9591489388171
 30
0.0
 11
215.0861447920117
 21
237.170706825213
 31
0.0
  0
LINE
  5
1757
330
1F
100
AcDbEntity
  8
STAVBA OBRYS
100
AcDbLine
 10
219.6367285301905
 20
231.2041789845593
 30
0.0
 11
211.6375067266683
 21
231.4952170206001
 31
0.0
  0
LINE
  5
1758
330
1F
100
AcDbEntity
  8
STAVBA OBRYS
100
AcDbLine
 10
228.2177256950756
 20
232.2228267049271
 30
0.0
 11
219.6367285301905
 21
231.2041789845593
 31
0.0
  0
LINE
  5
1759
330
1F
100
AcDbEntity
  8
STAVBA OBRYS
100
AcDbLine
 10
241.9474077487186
 20
233.0996769346588
 30
0.0
 11
228.2177256950756
 21
232.2228267049271
 31
0.0
  0
LINE
  5
175A
330
1F
100
AcDbEntity
  8
STAVBA OBRYS
100
AcDbLine
 10
170.9816373899495
 20
239.9186826492063
 30
0.0
 11
203.9661175942176
 21
241.6111165519018
 31
0.0
  0
LINE
  5
175B
330
1F
100
AcDbEntity
  8
STAVBA OBRYS
100
AcDbLine
 10
157.0266774847525
 20
234.4182651683499
 30
0.0
 11
149.5813779834327
 21
234.6328294651015
 31
0.0
  0
LINE
  5
175C
330
1F
100
AcDbEntity
  8
STAVBA OBRYS
100
AcDbLine
 10
187.4738774920817
 20
236.322256957434
 30
0.0
 11
157.0266774847525
 21
234.4182651683499
 31
0.0
  0
LINE
  5
175D
330
1F
100
AcDbEntity
  8
STAVBA OBRYS
100
AcDbLine
 10
203.929154564282
 20
231.6407506328455
 30
0.0
 11
199.7750302458018
 21
231.421990399815
 31
0.0
  0
LINE
  5
175E
330
1F
100
AcDbEntity
  8
STAVBA OBRYS
100
AcDbLine
 10
211.6375067266683
 20
231.4952170206001
 30
0.0
 11
203.929154564282
 21
231.6407506328455
 31
0.0
  0
LINE
  5
175F
330
1F
100
AcDbEntity
  8
STAVBA OBRYS
100
AcDbLine
 10
253.3693414181736
 20
243.5041187554365
 30
0.0
 11
263.843141328108
 21
242.1340860125114
 31
0.0
  0
LINE
  5
1760
330
1F
100
AcDbEntity
  8
STAVBA OBRYS
100
AcDbLine
 10
263.704979799809
 20
236.8522620264306
 30
0.0
 11
244.4761552403554
 21
236.9591489388171
 31
0.0
  0
LINE
  5
1761
330
1F
100
AcDbEntity
  8
STAVBA OBRYS
100
AcDbLine
 10
263.704979799809
 20
231.5640917412842
 30
0.0
 11
262.0182067271282
 21
231.6444575660047
 31
0.0
  0
LINE
  5
1762
330
1F
100
AcDbEntity
  8
STAVBA OBRYS
100
AcDbLine
 10
262.0182067271282
 20
231.6444575660047
 30
0.0
 11
241.9474077487186
 21
233.0996769346588
 31
0.0
  0
LINE
  5
1763
330
1F
100
AcDbEntity
  8
STAVBA OBRYS
100
AcDbLine
 10
30.00916896778039
 20
218.921990399815
 30
0.0
 11
35.26888942229675
 21
231.421990399815
 31
0.0
  0
HATCH
  5
1764
330
1F
100
AcDbEntity
  8
STAVBA OBRYS
100
AcDbHatch
 10
0.0
 20
0.0
 30
0.0
210
0.0
220
0.0
230
1.0
  2
AR-CONC
 70
     0
 71
     0
 91
        3
 92
        7
 72
     0
 73
     1
 93
        7
 10
263.7049797998054
 20
231.421990399815
 10
221.471552384811
 20
231.421990399815
 10
219.6367285301942
 20
231.2041789845593
 10
213.6501508111116
 20
231.421990399815
 10
88.26394625925354
 20
231.421990399815
 10
93.52366671376627
 20
218.921990399815
 10
263.704979799809
 20
218.921990399815
 97
        0
 92
        7
 72
     0
 73
     1
 93
        4
 10
19.19919471027719
 20
231.421990399815
 10
-87.20216601779862
 20
231.421990399815
 10
-87.20216601779862
 20
218.921990399815
 10
2.10289567523182
 20
218.921990399815
 97
        0
 92
        7
 72
     0
 73
     1
 93
        5
 10
34.90153048054458
 20
230.5489427137985
 10
33.7763855894857
 20
230.6258390340939
 10
18.67890077840752
 20
231.0415762449742
 10
2.10289567523182
 20
218.921990399815
 10
30.00916896777676
 20
218.921990399815
 97
        0
 75
     0
 76
     1
 52
90.0
 41
0.1
 77
     0
 78
    13
 53
140.0
 43
-23423.21251733595
 44
-2085.129482441834
 45
1.593908553890309
 46
18.2184668996004
 79
     2
 49
1.905
 49
-20.955
 53
85.00000000000001
 43
-23423.21251733595
 44
-2085.129482441834
 45
-19.10566428821799
 46
-3.524282597566697
 79
     2
 49
1.524
 49
-16.764
 53
190.4509999999999
 43
-23423.07969233595
 44
-2083.611282441833
 45
-17.51166878202918
 46
14.69425016659592
 79
     2
 49
1.619
 49
-17.809
 53
136.1841999999999
 43
-23428.29251733595
 44
-2085.129482441834
 45
4.204232793272717
 46
27.10790408921299
 79
     2
 49
2.857499999999999
 49
-31.4325
 53
186.6355999999999
 43
-23427.94216733595
 44
-2082.870492441834
 45
-24.74255558900492
 46
23.74042344662371
 79
     2
 49
2.4285
 49
-26.7135
 53
81.18400000000004
 43
-23428.29251733595
 44
-2085.129482441834
 45
-24.74251178605976
 46
23.74046058139339
 79
     2
 49
2.286
 49
-25.146
 53
111.0
 43
-23427.02251733595
 44
-2082.589482441834
 45
10.22655185167625
 46
15.16148798353833
 79
     2
 49
1.905
 49
-20.955
 53
56.00000000000004
 43
-23427.02251733595
 44
-2082.589482441834
 45
-18.41879661223192
 46
6.180202834764708
 79
     2
 49
1.524
 49
-16.764
 53
161.4514
 43
-23426.17030733595
 44
-2081.326032441833
 45
-8.192285771605742
 46
21.34164907701245
 79
     2
 49
1.618999999999999
 49
-17.80899999999998
 53
127.5
 43
-23423.21251733595
 44
-2085.129482441834
 45
-8.455503887315311
 46
0.3088603250591822
 79
     6
 49
0.0
 49
-16.5608
 49
0.0
 49
-17.018
 49
0.0
 49
-16.8275
 53
97.49999999999998
 43
-23423.21251733595
 44
-2085.129482441834
 45
-10.01805748181195
 46
6.681966251030575
 79
     6
 49
0.0
 49
-9.702799999999999
 49
0.0
 49
-16.1798
 49
0.0
 49
-6.4135
 53
57.5
 43
-23423.21251733595
 44
-2090.793682441834
 45
0.5728743992673473
 46
13.55905951668713
 79
     6
 49
0.0
 49
-6.35
 49
0.0
 49
-19.812
 49
0.0
 49
-26.289
 53
47.5
 43
-23423.21251733595
 44
-2093.333682441834
 45
-2.5426491033333
 46
14.8129181386018
 79
     6
 49
0.0
 49
-8.255
 49
0.0
 49
-13.1572
 49
0.0
 49
-18.669
 47
0.7753914505930569
 98
        3
 10
127.4604858789764
 20
223.3739554777443
 10
-22.828953575691
 20
223.9357980111185
 10
19.84086051619783
 20
223.160436490531
  0
LWPOLYLINE
  5
1765
330
1F
100
AcDbEntity
  8
STAVBA OBRYS
100
AcDbPolyline
 90
        3
 70
     0
 43
0.0
 10
158.5206244646371
 20
279.1481491040217
 10
182.5161273830283
 20
268.0889142433983
 10
187.316052543488
 20
267.3144372729879
  0
LWPOLYLINE
  5
1766
330
1F
100
AcDbEntity
  8
STAVBA OBRYS
100
AcDbPolyline
 90
        2
 70
     0
 43
0.0
 10
208.8738067426941
 20
286.7500842961339
 10
212.2168303524424
 20
285.0773490147588
  0
LWPOLYLINE
  5
1767
330
1F
100
AcDbEntity
  8
STAVBA OBRYS
100
AcDbPolyline
 90
       10
 70
     0
 43
0.0
 10
181.0675709827894
 20
323.9536483550823
 42
-0.0168162630274194
 10
180.9055402879141
 20
321.9244025725387
 42
-0.0575155827655532
 10
180.0895015515027
 20
318.2048529796779
 42
-0.0310289133982999
 10
176.4861399377089
 20
309.510819950105
 42
-0.0882970623535771
 10
174.5214736335958
 20
306.8223770891449
 42
-0.0171636441953577
 10
171.1454367593662
 20
303.8056762628507
 42
-0.0157521173632038
 10
167.2588109549226
 20
300.7678809998428
 42
-0.0073640874174249
 10
161.6984317273393
 20
296.8217992889589
 42
-0.0194185739168057
 10
159.5119797437266
 20
295.4399164898217
 42
-0.0567960585128809
 10
152.2168303524424
 20
292.2576794433711
 42
-0.0229547400386702
  0
LWPOLYLINE
  5
1768
330
1F
100
AcDbEntity
  8
STAVBA OBRYS
100
AcDbPolyline
 90
        3
 70
     0
 43
0.0
 10
160.2669073016852
 20
317.3328515204597
 10
180.3731684453607
 20
307.2723624788981
 10
190.1736940243111
 20
297.4548004375814
  0
LWPOLYLINE
  5
1769
330
1F
100
AcDbEntity
  8
STAVBA OBRYS
100
AcDbPolyline
 90
        8
 70
     0
 43
0.0
 10
191.7080420510039
 20
323.9536483550823
 42
-0.0120721047703132
 10
191.6252628229569
 20
321.8729825885897
 42
-0.044358077361292
 10
191.1505095413497
 20
318.6380225664892
 42
-0.0188067511131767
 10
188.7267214032883
 20
309.9473475561211
 42
-0.0457786284636091
 10
187.2770939357517
 20
306.5290150966652
 42
-0.0295006114745606
 10
184.3778213905909
 20
301.8167360405827
 42
-0.0258674098621065
 10
180.4986110138354
 20
296.8417999460784
 42
-0.2409478365688615
 10
152.2168303524424
 20
279.5323430121101
 42
-0.0884720560394402
  0
LWPOLYLINE
  5
176A
330
1F
100
AcDbEntity
  8
STAVBA OBRYS
100
AcDbPolyline
 90
        3
 70
     0
 43
0.0
 10
183.4180004519814
 20
316.1546448719759
 10
207.4135033703726
 20
305.0954100113526
 10
212.2134285308286
 20
304.3209330409412
  0
LWPOLYLINE
  5
176B
330
1F
100
AcDbEntity
  8
STAVBA OBRYS
100
AcDbPolyline
 90
        6
 70
     0
 43
0.0
 10
202.0571005070535
 20
323.9536483550823
 42
-0.0128837512779302
 10
201.7153501547848
 20
319.9538505689865
 42
-0.0351641677647434
 10
200.9620384889542
 20
315.6293992237801
 42
-0.0187319685742942
 10
196.9012194317667
 20
301.5195144132089
 42
-0.0582629403736403
 10
194.9098195900708
 20
297.2237133744897
 42
-0.2538762603868234
 10
152.2322024180659
 20
269.5707074153546
  0
LWPOLYLINE
  5
176C
330
1F
100
AcDbEntity
  8
STAVBA OBRYS
100
AcDbPolyline
 90
        2
 70
     0
 43
0.0
 10
158.9512975742338
 20
264.1262439831038
 10
159.3257826944148
 20
263.9536483550823
  0
LWPOLYLINE
  5
176D
330
1F
100
AcDbEntity
  8
STAVBA OBRYS
100
AcDbPolyline
 90
        7
 70
     0
 43
0.0
 10
157.6345525280605
 20
323.9536483550823
 42
-0.0203924744732807
 10
156.5520517467714
 20
322.7378923200971
 42
-0.0273961979096945
 10
155.5322145265356
 20
321.7920806712658
 42
-0.0243529190212958
 10
154.136469935632
 20
320.7435694576647
 42
-0.0398020282482987
 10
153.2065196905616
 20
320.2160149655286
 42
-0.104168275620852
 10
152.7428263269514
 20
320.1079952133163
 42
-0.007272956268647
 10
152.2168303524424
 20
320.0858511917626
 42
-0.007272956268647
  0
POLYLINE
  5
176E
330
1F
100
AcDbEntity
  8
STAVBA OBRYS
100
AcDb2dPolyline
 66
     1
 10
0.0
 20
0.0
 30
0.0
  0
VERTEX
  5
176F
330
176E
100
AcDbEntity
  8
STAVBA OBRYS
100
AcDbVertex
100
AcDb2dVertex
 10
164.0541761294818
 20
323.9536483550804
 30
0.0
 42
-0.0064239028828688
  0
VERTEX
  5
1770
330
176E
100
AcDbEntity
  8
STAVBA OBRYS
100
AcDbVertex
100
AcDb2dVertex
 10
164.0075340012638
 20
323.6907119638603
 30
0.0
 42
-0.0832048017309575
  0
VERTEX
  5
1771
330
176E
100
AcDbEntity
  8
STAVBA OBRYS
100
AcDbVertex
100
AcDb2dVertex
 10
163.0665148780474
 20
320.8944556682749
 30
0.0
 42
-0.0336767237692336
  0
VERTEX
  5
1772
330
176E
100
AcDbEntity
  8
STAVBA OBRYS
100
AcDbVertex
100
AcDb2dVertex
 10
161.023135007342
 20
317.6205262449224
 30
0.0
 42
-0.0844635135812105
  0
VERTEX
  5
1773
330
176E
100
AcDbEntity
  8
STAVBA OBRYS
100
AcDbVertex
100
AcDb2dVertex
 10
159.9193632954713
 20
316.5352203189272
 30
0.0
 42
-0.0495829410719565
  0
VERTEX
  5
1774
330
176E
100
AcDbEntity
  8
STAVBA OBRYS
100
AcDbVertex
100
AcDb2dVertex
 10
157.820949170645
 20
315.3632409101523
 30
0.0
 42
-0.0322692699774654
  0
VERTEX
  5
1775
330
176E
100
AcDbEntity
  8
STAVBA OBRYS
100
AcDbVertex
100
AcDb2dVertex
 10
154.3513241533376
 20
314.1134127084719
 30
0.0
 42
-0.0276160659512937
  0
VERTEX
  5
1776
330
176E
100
AcDbEntity
  8
STAVBA OBRYS
100
AcDbVertex
100
AcDb2dVertex
 10
153.3246324273907
 20
313.8773301937384
 30
0.0
 42
-0.0126891984598699
  0
VERTEX
  5
1777
330
176E
100
AcDbEntity
  8
STAVBA OBRYS
100
AcDbVertex
100
AcDb2dVertex
 10
152.2168303524424
 20
313.7150873262884
 30
0.0
  0
SEQEND
  5
1778
330
176E
100
AcDbEntity
  8
STAVBA OBRYS
  0
POLYLINE
  5
1779
330
1F
100
AcDbEntity
  8
STAVBA OBRYS
100
AcDb2dPolyline
 66
     1
 10
0.0
 20
0.0
 30
0.0
  0
VERTEX
  5
177A
330
1779
100
AcDbEntity
  8
STAVBA OBRYS
100
AcDbVertex
100
AcDb2dVertex
 10
172.7278373543679
 20
323.9536483550804
 30
0.0
 42
-0.0072417954699014
  0
VERTEX
  5
177B
330
1779
100
AcDbEntity
  8
STAVBA OBRYS
100
AcDbVertex
100
AcDb2dVertex
 10
172.6611529129561
 20
323.4599621015517
 30
0.0
 42
-0.0707158694326265
  0
VERTEX
  5
177C
330
1779
100
AcDbEntity
  8
STAVBA OBRYS
100
AcDbVertex
100
AcDb2dVertex
 10
172.0238010932528
 20
321.1366379584382
 30
0.0
 42
-0.033952657250207
  0
VERTEX
  5
177D
330
1779
100
AcDbEntity
  8
STAVBA OBRYS
100
AcDbVertex
100
AcDb2dVertex
 10
169.3254140859619
 20
315.912992688231
 30
0.0
 42
-0.0571374688189033
  0
VERTEX
  5
177E
330
1779
100
AcDbEntity
  8
STAVBA OBRYS
100
AcDbVertex
100
AcDb2dVertex
 10
167.1820259741373
 20
313.1446835478068
 30
0.0
 42
-0.0274923553235744
  0
VERTEX
  5
177F
330
1779
100
AcDbEntity
  8
STAVBA OBRYS
100
AcDbVertex
100
AcDb2dVertex
 10
164.0652590974761
 20
310.2825931600459
 30
0.0
 42
-0.0255412025538677
  0
VERTEX
  5
1780
330
1779
100
AcDbEntity
  8
STAVBA OBRYS
100
AcDbVertex
100
AcDb2dVertex
 10
160.403543052221
 20
307.5745367476215
 30
0.0
 42
-0.0272796991712396
  0
VERTEX
  5
1781
330
1779
100
AcDbEntity
  8
STAVBA OBRYS
100
AcDbVertex
100
AcDb2dVertex
 10
155.4679440683987
 20
304.6749336896268
 30
0.0
 42
-0.056967459841729
  0
VERTEX
  5
1782
330
1779
100
AcDbEntity
  8
STAVBA OBRYS
100
AcDbVertex
100
AcDb2dVertex
 10
152.8988073315206
 20
303.6996506873878
 30
0.0
 42
-0.0373408083348504
  0
VERTEX
  5
1783
330
1779
100
AcDbEntity
  8
STAVBA OBRYS
100
AcDbVertex
100
AcDb2dVertex
 10
152.6319820809524
 20
303.6526520382471
 30
0.0
 42
-0.0052305969362967
  0
VERTEX
  5
1784
330
1779
100
AcDbEntity
  8
STAVBA OBRYS
100
AcDbVertex
100
AcDb2dVertex
 10
152.2168303524424
 20
303.6155036779613
 30
0.0
  0
SEQEND
  5
1785
330
1779
100
AcDbEntity
  8
STAVBA OBRYS
  0
POLYLINE
  5
1786
330
1F
100
AcDbEntity
  8
STAVBA OBRYS
100
AcDb2dPolyline
 66
     1
 10
0.0
 20
0.0
 30
0.0
  0
VERTEX
  5
1787
330
1786
100
AcDbEntity
  8
STAVBA OBRYS
100
AcDbVertex
100
AcDb2dVertex
 10
131.7062304452822
 20
324.082875602216
 30
0.0
 42
0.0072417954699014
  0
VERTEX
  5
1788
330
1786
100
AcDbEntity
  8
STAVBA OBRYS
100
AcDbVertex
100
AcDb2dVertex
 10
131.769803149554
 20
323.5887790095115
 30
0.0
 42
0.0707158694326265
  0
VERTEX
  5
1789
330
1786
100
AcDbEntity
  8
STAVBA OBRYS
100
AcDbVertex
100
AcDb2dVertex
 10
132.39250448204
 20
321.2614854168236
 30
0.0
 42
0.033952657250207
  0
VERTEX
  5
178A
330
1786
100
AcDbEntity
  8
STAVBA OBRYS
100
AcDbVertex
100
AcDb2dVertex
 10
135.0579269548518
 20
316.0209429457131
 30
0.0
 42
0.0571374688189033
  0
VERTEX
  5
178B
330
1786
100
AcDbEntity
  8
STAVBA OBRYS
100
AcDbVertex
100
AcDb2dVertex
 10
137.1838311112817
 20
313.2391845786846
 30
0.0
 42
0.0274923553235744
  0
VERTEX
  5
178C
330
1786
100
AcDbEntity
  8
STAVBA OBRYS
100
AcDbVertex
100
AcDb2dVertex
 10
140.282503855303
 20
310.3575141643845
 30
0.0
 42
0.0255412025538677
  0
VERTEX
  5
178D
330
1786
100
AcDbEntity
  8
STAVBA OBRYS
100
AcDbVertex
100
AcDb2dVertex
 10
143.9270854253602
 20
307.6264412784798
 30
0.0
 42
0.0272796991712396
  0
VERTEX
  5
178E
330
1786
100
AcDbEntity
  8
STAVBA OBRYS
100
AcDbVertex
100
AcDb2dVertex
 10
148.8443178327627
 20
304.695799595402
 30
0.0
 42
0.056967459841729
  0
VERTEX
  5
178F
330
1786
100
AcDbEntity
  8
STAVBA OBRYS
100
AcDbVertex
100
AcDb2dVertex
 10
151.407258919685
 20
303.7043493988662
 30
0.0
 42
0.0373408083348504
  0
VERTEX
  5
1790
330
1786
100
AcDbEntity
  8
STAVBA OBRYS
100
AcDbVertex
100
AcDb2dVertex
 10
151.6737827648078
 20
303.6556705806483
 30
0.0
 42
0.0052305969362967
  0
VERTEX
  5
1791
330
1786
100
AcDbEntity
  8
STAVBA OBRYS
100
AcDbVertex
100
AcDb2dVertex
 10
152.0886922045622
 20
303.6159073418197
 30
0.0
  0
SEQEND
  5
1792
330
1786
100
AcDbEntity
  8
STAVBA OBRYS
  0
POLYLINE
  5
1793
330
1F
100
AcDbEntity
  8
STAVBA OBRYS
100
AcDb2dPolyline
 66
     1
 10
0.0
 20
0.0
 30
0.0
  0
VERTEX
  5
1794
330
1793
100
AcDbEntity
  8
STAVBA OBRYS
100
AcDbVertex
100
AcDb2dVertex
 10
140.3797195185991
 20
324.0282281944814
 30
0.0
 42
0.0064239028828688
  0
VERTEX
  5
1795
330
1793
100
AcDbEntity
  8
STAVBA OBRYS
100
AcDbVertex
100
AcDb2dVertex
 10
140.4247041205064
 20
323.7650031585448
 30
0.0
 42
0.0832048017309575
  0
VERTEX
  5
1796
330
1793
100
AcDbEntity
  8
STAVBA OBRYS
100
AcDbVertex
100
AcDb2dVertex
 10
141.3480870746473
 20
320.9628735789469
 30
0.0
 42
0.0336767237692336
  0
VERTEX
  5
1797
330
1793
100
AcDbEntity
  8
STAVBA OBRYS
100
AcDbVertex
100
AcDb2dVertex
 10
143.3707993722866
 20
317.6761350548026
 30
0.0
 42
0.0844635135812105
  0
VERTEX
  5
1798
330
1793
100
AcDbEntity
  8
STAVBA OBRYS
100
AcDbVertex
100
AcDb2dVertex
 10
144.4677113314039
 20
316.5838964824783
 30
0.0
 42
0.0495829410719565
  0
VERTEX
  5
1799
330
1793
100
AcDbEntity
  8
STAVBA OBRYS
100
AcDbVertex
100
AcDb2dVertex
 10
146.5586998858427
 20
315.3987195171916
 30
0.0
 42
0.0322692699774654
  0
VERTEX
  5
179A
330
1793
100
AcDbEntity
  8
STAVBA OBRYS
100
AcDbVertex
100
AcDb2dVertex
 10
150.0203816401056
 20
314.1270561471532
 30
0.0
 42
0.0276160659512937
  0
VERTEX
  5
179B
330
1793
100
AcDbEntity
  8
STAVBA OBRYS
100
AcDbVertex
100
AcDb2dVertex
 10
151.0455655778471
 20
313.8845097646321
 30
0.0
 42
0.0126891984598699
  0
VERTEX
  5
179C
330
1793
100
AcDbEntity
  8
STAVBA OBRYS
100
AcDbVertex
100
AcDb2dVertex
 10
152.1523234729841
 20
313.7152905374027
 30
0.0
  0
SEQEND
  5
179D
330
1793
100
AcDbEntity
  8
STAVBA OBRYS
  0
LWPOLYLINE
  5
179E
330
1F
100
AcDbEntity
  8
STAVBA OBRYS
100
AcDbPolyline
 90
        7
 70
     0
 43
0.0
 10
146.799215705739
 20
323.9877820922724
 42
0.0203924744732807
 10
147.8740352705037
 20
322.7652300151389
 42
0.0273961979096945
 10
148.8878932715754
 20
321.8130117709856
 42
0.0243529190212958
 10
150.2770041356245
 20
320.7557276391293
 42
0.0398020282482987
 10
151.2036121268222
 20
320.2223245728368
 42
0.104168275620852
 10
151.6666157211559
 20
320.1113855177049
 42
0.007272956268647
 10
152.1924617400338
 20
320.0859279583486
 42
0.007272956268647
  0
LWPOLYLINE
  5
179F
330
1F
100
AcDbEntity
  8
STAVBA OBRYS
100
AcDbPolyline
 90
        2
 70
     0
 43
0.0
 10
145.1055610944069
 20
264.1698611532896
 10
144.729995987903
 20
263.9996283514305
  0
LWPOLYLINE
  5
17A0
330
1F
100
AcDbEntity
  8
STAVBA OBRYS
100
AcDbPolyline
 90
        2
 70
     0
 43
0.0
 10
112.7978339822013
 20
291.9217705076411
 42
0.2237289391062531
 10
152.2322024180659
 20
269.5707074153546
  0
LWPOLYLINE
  5
17A1
330
1F
100
AcDbEntity
  8
STAVBA OBRYS
100
AcDbPolyline
 90
        2
 70
     0
 43
0.0
 10
120.9671427950681
 20
316.3513790573073
 10
112.7978339822013
 20
312.6484676195763
  0
LWPOLYLINE
  5
17A2
330
1F
100
AcDbEntity
  8
STAVBA OBRYS
100
AcDbPolyline
 90
        5
 70
     0
 43
0.0
 10
112.7978339822013
 20
274.610342710081
 42
0.1515799785300641
 10
151.9787870649136
 20
258.4277144656593
 42
0.2517236249987814
 10
208.7344834008083
 20
295.3374806291207
 42
0.0219777111230329
 10
209.8218184031877
 20
299.5592165361235
 42
0.0067884601454819
 10
212.2168303524424
 20
311.7138521500068
  0
LWPOLYLINE
  5
17A3
330
1F
100
AcDbEntity
  8
STAVBA OBRYS
100
AcDbPolyline
 90
        8
 70
     0
 43
0.0
 10
112.726402460624
 20
324.202458205002
 42
0.0120721047703132
 10
112.7960710496784
 20
322.1213121937493
 42
0.044358077361292
 10
113.2504334139714
 20
318.883425249321
 42
0.0188067511131767
 10
115.6194188444544
 20
310.1776519290364
 42
0.0457786284636091
 10
117.0474807287293
 20
306.7502541037633
 42
0.0295006114745606
 10
119.9170065564915
 20
302.019802041083
 42
0.0258674098621065
 10
123.7647959258658
 20
297.0205241671832
 42
0.2409478365688615
 10
151.9369590129692
 20
279.5332246694983
 42
0.0884720560394402
  0
LWPOLYLINE
  5
17A4
330
1F
100
AcDbEntity
  8
STAVBA OBRYS
100
AcDbPolyline
 90
        3
 70
     0
 43
0.0
 10
139.541917980395
 20
322.0781523809641
 10
123.3269752961289
 20
306.5041095314394
 10
116.8814205443134
 20
294.2203947024413
  0
LWPOLYLINE
  5
17A5
330
1F
100
AcDbEntity
  8
STAVBA OBRYS
100
AcDbPolyline
 90
       10
 70
     0
 43
0.0
 10
123.3666623407636
 20
324.1354191374288
 42
0.0168162630274194
 10
123.515904789406
 20
322.1051927747852
 42
0.0575155827655532
 10
124.3084927337815
 20
318.3805756476835
 42
0.0310289133982999
 10
127.857007071457
 20
309.6640126074475
 42
0.0882970623535771
 10
129.8046961557095
 20
306.9632449509776
 42
0.0171636441953577
 10
133.1616596460673
 20
303.9253336659116
 42
0.0157521173632038
 10
137.0290690295853
 20
300.8631114558142
 42
0.0073640874174249
 10
142.5644760616207
 20
296.8820755336941
 42
0.0194185739168057
 10
144.7421782552712
 20
295.4864446716978
 42
0.0567960585128809
 10
152.0171335356437
 20
292.2583085330592
 42
0.0229547400386702
  0
LWPOLYLINE
  5
17A6
330
1F
100
AcDbEntity
  8
STAVBA OBRYS
100
AcDbPolyline
 90
        3
 70
     0
 43
0.0
 10
112.7978339822013
 20
255.9814538950617
 42
0.1594823739701661
 10
152.3589100946458
 20
245.005447288246
 42
0.2797225762992413
 10
212.2168303524424
 20
278.0183306306339
  0
LWPOLYLINE
  5
17A7
330
1F
100
AcDbEntity
  8
STAVBA OBRYS
100
AcDbPolyline
 90
        3
 70
     0
 43
0.0
 10
145.630869446458
 20
279.1887547185455
 10
121.5661653409817
 20
268.2809202714683
 10
116.7614559443147
 20
267.5367000505397
  0
LWPOLYLINE
  5
17A8
330
1F
100
AcDbEntity
  8
STAVBA OBRYS
100
AcDbPolyline
 90
        3
 70
     0
 43
0.0
 10
145.630869446458
 20
368.718541991619
 10
121.5661653409817
 20
379.6263764386962
 10
116.7614559443147
 20
380.3705966596248
  0
LWPOLYLINE
  5
17A9
330
1F
100
AcDbEntity
  8
STAVBA OBRYS
100
AcDbPolyline
 90
       10
 70
     0
 43
0.0
 10
123.3666623407636
 20
323.7718775727357
 42
-0.0168162630274194
 10
123.515904789406
 20
325.8021039353792
 42
-0.0575155827655532
 10
124.3084927337815
 20
329.526721062481
 42
-0.0310289133982999
 10
127.857007071457
 20
338.243284102717
 42
-0.0882970623535771
 10
129.8046961557095
 20
340.9440517591869
 42
-0.0171636441953577
 10
133.1616596460673
 20
343.9819630442529
 42
-0.0157521173632038
 10
137.0290690295853
 20
347.0441852543503
 42
-0.0073640874174249
 10
142.5644760616207
 20
351.0252211764704
 42
-0.0194185739168057
 10
144.7421782552712
 20
352.4208520384667
 42
-0.0567960585128809
 10
152.0171335356437
 20
355.6489881771053
 42
-0.0229547400386702
  0
LWPOLYLINE
  5
17AA
330
1F
100
AcDbEntity
  8
STAVBA OBRYS
100
AcDbPolyline
 90
        3
 70
     0
 43
0.0
 10
145.1200586269526
 20
332.8706540247516
 10
123.955952567526
 20
340.4572073685653
 10
113.0528029674035
 20
349.0336958607153
  0
LWPOLYLINE
  5
17AB
330
1F
100
AcDbEntity
  8
STAVBA OBRYS
100
AcDbPolyline
 90
        8
 70
     0
 43
0.0
 10
112.726402460624
 20
323.7048385051625
 42
-0.0120721047703132
 10
112.7960710496784
 20
325.7859845164152
 42
-0.044358077361292
 10
113.2504334139714
 20
329.0238714608435
 42
-0.0188067511131767
 10
115.6194188444544
 20
337.7296447811281
 42
-0.0457786284636091
 10
117.0474807287293
 20
341.1570426064012
 42
-0.0295006114745606
 10
119.9170065564915
 20
345.8874946690816
 42
-0.0258674098621065
 10
123.7647959258658
 20
350.8867725429813
 42
-0.2409478365688615
 10
151.9369590129692
 20
368.3740720406662
 42
-0.0884720560394402
  0
LWPOLYLINE
  5
17AC
330
1F
100
AcDbEntity
  8
STAVBA OBRYS
100
AcDbPolyline
 90
        2
 70
     0
 43
0.0
 10
112.7978339822013
 20
372.9956459137706
 42
-0.05777617107121
 10
128.6407604856333
 20
383.806297963822
  0
LWPOLYLINE
  5
17AD
330
1F
100
AcDbEntity
  8
STAVBA OBRYS
100
AcDbPolyline
 90
        2
 70
     0
 43
0.0
 10
120.9671427950681
 20
331.5559176528572
 10
112.7978339822013
 20
335.2588290905882
  0
LWPOLYLINE
  5
17AE
330
1F
100
AcDbEntity
  8
STAVBA OBRYS
100
AcDbPolyline
 90
        2
 70
     0
 43
0.0
 10
112.7978339822013
 20
355.5487362993794
 42
-0.1802323375873774
 10
151.8574566718973
 20
380.992469055553
  0
LWPOLYLINE
  5
17AF
330
1F
100
AcDbEntity
  8
STAVBA OBRYS
100
AcDbPolyline
 90
        2
 70
     0
 43
0.0
 10
145.1055610944069
 20
383.7374355568749
 10
144.729995987903
 20
383.907668358734
  0
LWPOLYLINE
  5
17B0
330
1F
100
AcDbEntity
  8
STAVBA OBRYS
100
AcDbPolyline
 90
        7
 70
     0
 43
0.0
 10
146.799215705739
 20
323.9195146178921
 42
-0.0203924744732807
 10
147.8740352705037
 20
325.1420666950256
 42
-0.0273961979096945
 10
148.8878932715754
 20
326.0942849391789
 42
-0.0243529190212958
 10
150.2770041356245
 20
327.1515690710352
 42
-0.0398020282482987
 10
151.2036121268222
 20
327.6849721373277
 42
-0.104168275620852
 10
151.6666157211559
 20
327.7959111924596
 42
-0.007272956268647
 10
152.1924617400338
 20
327.8213687518158
 42
-0.007272956268647
  0
POLYLINE
  5
17B1
330
1F
100
AcDbEntity
  8
STAVBA OBRYS
100
AcDb2dPolyline
 66
     1
 10
0.0
 20
0.0
 30
0.0
  0
VERTEX
  5
17B2
330
17B1
100
AcDbEntity
  8
STAVBA OBRYS
100
AcDbVertex
100
AcDb2dVertex
 10
140.3797195185991
 20
323.8790685156831
 30
0.0
 42
-0.0064239028828688
  0
VERTEX
  5
17B3
330
17B1
100
AcDbEntity
  8
STAVBA OBRYS
100
AcDbVertex
100
AcDb2dVertex
 10
140.4247041205064
 20
324.1422935516197
 30
0.0
 42
-0.0832048017309575
  0
VERTEX
  5
17B4
330
17B1
100
AcDbEntity
  8
STAVBA OBRYS
100
AcDbVertex
100
AcDb2dVertex
 10
141.3480870746473
 20
326.9444231312176
 30
0.0
 42
-0.0336767237692336
  0
VERTEX
  5
17B5
330
17B1
100
AcDbEntity
  8
STAVBA OBRYS
100
AcDbVertex
100
AcDb2dVertex
 10
143.3707993722866
 20
330.2311616553619
 30
0.0
 42
-0.0844635135812105
  0
VERTEX
  5
17B6
330
17B1
100
AcDbEntity
  8
STAVBA OBRYS
100
AcDbVertex
100
AcDb2dVertex
 10
144.4677113314039
 20
331.3234002276862
 30
0.0
 42
-0.0495829410719565
  0
VERTEX
  5
17B7
330
17B1
100
AcDbEntity
  8
STAVBA OBRYS
100
AcDbVertex
100
AcDb2dVertex
 10
146.5586998858427
 20
332.5085771929729
 30
0.0
 42
-0.0322692699774654
  0
VERTEX
  5
17B8
330
17B1
100
AcDbEntity
  8
STAVBA OBRYS
100
AcDbVertex
100
AcDb2dVertex
 10
150.0203816401056
 20
333.7802405630113
 30
0.0
 42
-0.0276160659512937
  0
VERTEX
  5
17B9
330
17B1
100
AcDbEntity
  8
STAVBA OBRYS
100
AcDbVertex
100
AcDb2dVertex
 10
151.0455655778471
 20
334.0227869455324
 30
0.0
 42
-0.0126891984598699
  0
VERTEX
  5
17BA
330
17B1
100
AcDbEntity
  8
STAVBA OBRYS
100
AcDbVertex
100
AcDb2dVertex
 10
152.1523234729841
 20
334.1920061727618
 30
0.0
  0
SEQEND
  5
17BB
330
17B1
100
AcDbEntity
  8
STAVBA OBRYS
  0
POLYLINE
  5
17BC
330
1F
100
AcDbEntity
  8
STAVBA OBRYS
100
AcDb2dPolyline
 66
     1
 10
0.0
 20
0.0
 30
0.0
  0
VERTEX
  5
17BD
330
17BC
100
AcDbEntity
  8
STAVBA OBRYS
100
AcDbVertex
100
AcDb2dVertex
 10
131.7062304452822
 20
323.8244211079485
 30
0.0
 42
-0.0072417954699014
  0
VERTEX
  5
17BE
330
17BC
100
AcDbEntity
  8
STAVBA OBRYS
100
AcDbVertex
100
AcDb2dVertex
 10
131.769803149554
 20
324.3185177006529
 30
0.0
 42
-0.0707158694326265
  0
VERTEX
  5
17BF
330
17BC
100
AcDbEntity
  8
STAVBA OBRYS
100
AcDbVertex
100
AcDb2dVertex
 10
132.39250448204
 20
326.6458112933409
 30
0.0
 42
-0.033952657250207
  0
VERTEX
  5
17C0
330
17BC
100
AcDbEntity
  8
STAVBA OBRYS
100
AcDbVertex
100
AcDb2dVertex
 10
135.0579269548518
 20
331.8863537644515
 30
0.0
 42
-0.0571374688189033
  0
VERTEX
  5
17C1
330
17BC
100
AcDbEntity
  8
STAVBA OBRYS
100
AcDbVertex
100
AcDb2dVertex
 10
137.1838311112817
 20
334.6681121314799
 30
0.0
 42
-0.0274923553235744
  0
VERTEX
  5
17C2
330
17BC
100
AcDbEntity
  8
STAVBA OBRYS
100
AcDbVertex
100
AcDb2dVertex
 10
140.282503855303
 20
337.54978254578
 30
0.0
 42
-0.0255412025538677
  0
VERTEX
  5
17C3
330
17BC
100
AcDbEntity
  8
STAVBA OBRYS
100
AcDbVertex
100
AcDb2dVertex
 10
143.9270854253602
 20
340.2808554316847
 30
0.0
 42
-0.0272796991712396
  0
VERTEX
  5
17C4
330
17BC
100
AcDbEntity
  8
STAVBA OBRYS
100
AcDbVertex
100
AcDb2dVertex
 10
148.8443178327627
 20
343.2114971147624
 30
0.0
 42
-0.056967459841729
  0
VERTEX
  5
17C5
330
17BC
100
AcDbEntity
  8
STAVBA OBRYS
100
AcDbVertex
100
AcDb2dVertex
 10
151.407258919685
 20
344.2029473112983
 30
0.0
 42
-0.0373408083348504
  0
VERTEX
  5
17C6
330
17BC
100
AcDbEntity
  8
STAVBA OBRYS
100
AcDbVertex
100
AcDb2dVertex
 10
151.6737827648078
 20
344.2516261295163
 30
0.0
 42
-0.0052305969362967
  0
VERTEX
  5
17C7
330
17BC
100
AcDbEntity
  8
STAVBA OBRYS
100
AcDbVertex
100
AcDb2dVertex
 10
152.0886922045622
 20
344.2913893683448
 30
0.0
  0
SEQEND
  5
17C8
330
17BC
100
AcDbEntity
  8
STAVBA OBRYS
  0
POLYLINE
  5
17C9
330
1F
100
AcDbEntity
  8
STAVBA OBRYS
100
AcDb2dPolyline
 66
     1
 10
0.0
 20
0.0
 30
0.0
  0
VERTEX
  5
17CA
330
17C9
100
AcDbEntity
  8
STAVBA OBRYS
100
AcDbVertex
100
AcDb2dVertex
 10
172.7278373543679
 20
323.9536483550841
 30
0.0
 42
0.0072417954699014
  0
VERTEX
  5
17CB
330
17C9
100
AcDbEntity
  8
STAVBA OBRYS
100
AcDbVertex
100
AcDb2dVertex
 10
172.6611529129561
 20
324.4473346086128
 30
0.0
 42
0.0707158694326265
  0
VERTEX
  5
17CC
330
17C9
100
AcDbEntity
  8
STAVBA OBRYS
100
AcDbVertex
100
AcDb2dVertex
 10
172.0238010932528
 20
326.7706587517263
 30
0.0
 42
0.033952657250207
  0
VERTEX
  5
17CD
330
17C9
100
AcDbEntity
  8
STAVBA OBRYS
100
AcDbVertex
100
AcDb2dVertex
 10
169.3254140859619
 20
331.9943040219336
 30
0.0
 42
0.0571374688189033
  0
VERTEX
  5
17CE
330
17C9
100
AcDbEntity
  8
STAVBA OBRYS
100
AcDbVertex
100
AcDb2dVertex
 10
167.1820259741373
 20
334.7626131623578
 30
0.0
 42
0.0274923553235744
  0
VERTEX
  5
17CF
330
17C9
100
AcDbEntity
  8
STAVBA OBRYS
100
AcDbVertex
100
AcDb2dVertex
 10
164.0652590974761
 20
337.6247035501187
 30
0.0
 42
0.0255412025538677
  0
VERTEX
  5
17D0
330
17C9
100
AcDbEntity
  8
STAVBA OBRYS
100
AcDbVertex
100
AcDb2dVertex
 10
160.403543052221
 20
340.3327599625431
 30
0.0
 42
0.0272796991712396
  0
VERTEX
  5
17D1
330
17C9
100
AcDbEntity
  8
STAVBA OBRYS
100
AcDbVertex
100
AcDb2dVertex
 10
155.4679440683987
 20
343.2323630205377
 30
0.0
 42
0.056967459841729
  0
VERTEX
  5
17D2
330
17C9
100
AcDbEntity
  8
STAVBA OBRYS
100
AcDbVertex
100
AcDb2dVertex
 10
152.8988073315206
 20
344.2076460227767
 30
0.0
 42
0.0373408083348504
  0
VERTEX
  5
17D3
330
17C9
100
AcDbEntity
  8
STAVBA OBRYS
100
AcDbVertex
100
AcDb2dVertex
 10
152.6319820809524
 20
344.2546446719174
 30
0.0
 42
0.0052305969362967
  0
VERTEX
  5
17D4
330
17C9
100
AcDbEntity
  8
STAVBA OBRYS
100
AcDbVertex
100
AcDb2dVertex
 10
152.2168303524424
 20
344.2917930322032
 30
0.0
  0
SEQEND
  5
17D5
330
17C9
100
AcDbEntity
  8
STAVBA OBRYS
  0
POLYLINE
  5
17D6
330
1F
100
AcDbEntity
  8
STAVBA OBRYS
100
AcDb2dPolyline
 66
     1
 10
0.0
 20
0.0
 30
0.0
  0
VERTEX
  5
17D7
330
17D6
100
AcDbEntity
  8
STAVBA OBRYS
100
AcDbVertex
100
AcDb2dVertex
 10
164.0541761294818
 20
323.9536483550841
 30
0.0
 42
0.0064239028828688
  0
VERTEX
  5
17D8
330
17D6
100
AcDbEntity
  8
STAVBA OBRYS
100
AcDbVertex
100
AcDb2dVertex
 10
164.0075340012638
 20
324.2165847463042
 30
0.0
 42
0.0832048017309575
  0
VERTEX
  5
17D9
330
17D6
100
AcDbEntity
  8
STAVBA OBRYS
100
AcDbVertex
100
AcDb2dVertex
 10
163.0665148780474
 20
327.0128410418896
 30
0.0
 42
0.0336767237692336
  0
VERTEX
  5
17DA
330
17D6
100
AcDbEntity
  8
STAVBA OBRYS
100
AcDbVertex
100
AcDb2dVertex
 10
161.023135007342
 20
330.2867704652421
 30
0.0
 42
0.0844635135812105
  0
VERTEX
  5
17DB
330
17D6
100
AcDbEntity
  8
STAVBA OBRYS
100
AcDbVertex
100
AcDb2dVertex
 10
159.9193632954713
 20
331.3720763912373
 30
0.0
 42
0.0495829410719565
  0
VERTEX
  5
17DC
330
17D6
100
AcDbEntity
  8
STAVBA OBRYS
100
AcDbVertex
100
AcDb2dVertex
 10
157.820949170645
 20
332.5440558000122
 30
0.0
 42
0.0322692699774654
  0
VERTEX
  5
17DD
330
17D6
100
AcDbEntity
  8
STAVBA OBRYS
100
AcDbVertex
100
AcDb2dVertex
 10
154.3513241533376
 20
333.7938840016926
 30
0.0
 42
0.0276160659512937
  0
VERTEX
  5
17DE
330
17D6
100
AcDbEntity
  8
STAVBA OBRYS
100
AcDbVertex
100
AcDb2dVertex
 10
153.3246324273907
 20
334.029966516426
 30
0.0
 42
0.0126891984598699
  0
VERTEX
  5
17DF
330
17D6
100
AcDbEntity
  8
STAVBA OBRYS
100
AcDbVertex
100
AcDb2dVertex
 10
152.2168303524424
 20
334.1922093838761
 30
0.0
  0
SEQEND
  5
17E0
330
17D6
100
AcDbEntity
  8
STAVBA OBRYS
  0
LWPOLYLINE
  5
17E1
330
1F
100
AcDbEntity
  8
STAVBA OBRYS
100
AcDbPolyline
 90
        7
 70
     0
 43
0.0
 10
157.6345525280605
 20
323.9536483550823
 42
0.0203924744732807
 10
156.5520517467714
 20
325.1694043900674
 42
0.0273961979096945
 10
155.5322145265356
 20
326.1152160388987
 42
0.0243529190212958
 10
154.136469935632
 20
327.1637272524998
 42
0.0398020282482987
 10
153.2065196905616
 20
327.6912817446358
 42
0.104168275620852
 10
152.7428263269514
 20
327.7993014968482
 42
0.007272956268647
 10
152.2168303524424
 20
327.8214455184019
 42
0.007272956268647
  0
LWPOLYLINE
  5
17E2
330
1F
100
AcDbEntity
  8
STAVBA OBRYS
100
AcDbPolyline
 90
        2
 70
     0
 43
0.0
 10
158.9512975742338
 20
383.7810527270607
 10
159.3257826944148
 20
383.9536483550823
  0
LWPOLYLINE
  5
17E3
330
1F
100
AcDbEntity
  8
STAVBA OBRYS
100
AcDbPolyline
 90
        6
 70
     0
 43
0.0
 10
202.0571005070535
 20
323.9536483550823
 42
0.0128837512779302
 10
201.7153501547848
 20
327.953446141178
 42
0.0351641677647434
 10
200.9620384889542
 20
332.2778974863844
 42
0.0187319685742942
 10
196.9012194317667
 20
346.3877822969556
 42
0.0582629403736403
 10
194.9098195900708
 20
350.6835833356749
 42
0.2042445348716764
 10
152.2168303524424
 20
380.9936011631156
  0
LWPOLYLINE
  5
17E4
330
1F
100
AcDbEntity
  8
STAVBA OBRYS
100
AcDbPolyline
 90
        3
 70
     0
 43
0.0
 10
183.4180004519814
 20
331.7526518381886
 10
207.4135033703726
 20
342.8118866988119
 10
212.2134285308286
 20
343.5863636692233
  0
LWPOLYLINE
  5
17E5
330
1F
100
AcDbEntity
  8
STAVBA OBRYS
100
AcDbPolyline
 90
        4
 70
     0
 43
0.0
 10
212.2168303524424
 20
336.1934445601577
 42
0.0067884601454819
 10
209.8218184031877
 20
348.348080174041
 42
0.0219777111230329
 10
208.7344834008083
 20
352.5698160810438
 42
0.1401208794308008
 10
175.4153375361286
 20
383.9536483550823
 42
0.1401208794308008
  0
LWPOLYLINE
  5
17E6
330
1F
100
AcDbEntity
  8
STAVBA OBRYS
100
AcDbPolyline
 90
        8
 70
     0
 43
0.0
 10
191.7080420510039
 20
323.9536483550823
 42
0.0120721047703132
 10
191.6252628229569
 20
326.0343141215748
 42
0.044358077361292
 10
191.1505095413497
 20
329.2692741436753
 42
0.0188067511131767
 10
188.7267214032883
 20
337.9599491540433
 42
0.0457786284636091
 10
187.2770939357517
 20
341.3782816134993
 42
0.0295006114745606
 10
184.3778213905909
 20
346.0905606695818
 42
0.0258674098621065
 10
180.4986110138354
 20
351.0654967640861
 42
0.2409478365688615
 10
152.2168303524424
 20
368.3749536980544
 42
0.0884720560394402
  0
LWPOLYLINE
  5
17E7
330
1F
100
AcDbEntity
  8
STAVBA OBRYS
100
AcDbPolyline
 90
        3
 70
     0
 43
0.0
 10
160.2669073016852
 20
330.5744451897048
 10
180.3731684453607
 20
340.6349342312664
 10
190.1736940243111
 20
350.4524962725831
  0
LWPOLYLINE
  5
17E8
330
1F
100
AcDbEntity
  8
STAVBA OBRYS
100
AcDbPolyline
 90
       10
 70
     0
 43
0.0
 10
181.0675709827894
 20
323.9536483550823
 42
0.0168162630274194
 10
180.9055402879141
 20
325.9828941376258
 42
0.0575155827655532
 10
180.0895015515027
 20
329.7024437304866
 42
0.0310289133982999
 10
176.4861399377089
 20
338.3964767600595
 42
0.0882970623535771
 10
174.5214736335958
 20
341.0849196210196
 42
0.0171636441953577
 10
171.1454367593662
 20
344.1016204473139
 42
0.0157521173632038
 10
167.2588109549226
 20
347.1394157103217
 42
0.0073640874174249
 10
161.6984317273393
 20
351.0854974212056
 42
0.0194185739168057
 10
159.5119797437266
 20
352.4673802203428
 42
0.0567960585128809
 10
152.2168303524424
 20
355.6496172667934
 42
0.0229547400386702
  0
LWPOLYLINE
  5
17E9
330
1F
100
AcDbEntity
  8
STAVBA OBRYS
100
AcDbPolyline
 90
        2
 70
     0
 43
0.0
 10
212.2168303524424
 20
369.8889660795306
 42
0.0463617997943772
 10
200.1096081256303
 20
383.918220213753
  0
LWPOLYLINE
  5
17EA
330
1F
100
AcDbEntity
  8
STAVBA OBRYS
100
AcDbPolyline
 90
        2
 70
     0
 43
0.0
 10
208.8738067426941
 20
361.1572124140306
 10
212.2168303524424
 20
362.8299476954056
  0
LWPOLYLINE
  5
17EB
330
1F
100
AcDbEntity
  8
STAVBA OBRYS
100
AcDbPolyline
 90
        3
 70
     0
 43
0.0
 10
158.5206244646371
 20
368.7591476061429
 10
182.5161273830283
 20
379.8183824667662
 10
187.316052543488
 20
380.5928594371766
  0
LINE
  5
17EC
330
1F
100
AcDbEntity
  8
STAVBA OBRYS
100
AcDbLine
 10
263.7164499103903
 20
396.9425300222269
 30
0.0
 11
-87.20216601779862
 21
396.9425300222269
 31
0.0
  0
LINE
  5
17ED
330
1F
100
AcDbEntity
  8
STAVBA OBRYS
100
AcDbLine
 10
-14.36445221039207
 20
386.3563134159543
 30
0.0
 11
-28.09413426403512
 21
385.4794631862227
 31
0.0
  0
LINE
  5
17EE
330
1F
100
AcDbEntity
  8
STAVBA OBRYS
100
AcDbLine
 10
-52.34574236489311
 20
394.8677530331974
 30
0.0
 11
-34.68907614501472
 21
396.7607552367321
 31
0.0
  0
LINE
  5
17EF
330
1F
100
AcDbEntity
  8
STAVBA OBRYS
100
AcDbLine
 10
-41.22571516709899
 20
390.4273433065085
 30
0.0
 11
-68.83798246702895
 21
389.5788934387296
 31
0.0
  0
LINE
  5
17F0
330
1F
100
AcDbEntity
  8
STAVBA OBRYS
100
AcDbLine
 10
-11.83570471875532
 20
390.2157854201126
 30
0.0
 11
-41.22571516709899
 21
390.4273433065085
 31
0.0
  0
LINE
  5
17F1
330
1F
100
AcDbEntity
  8
STAVBA OBRYS
100
AcDbLine
 10
-42.66170914801
 20
384.6786268811105
 30
0.0
 11
-44.6743532324424
 21
384.7518535018957
 31
0.0
  0
LINE
  5
17F2
330
1F
100
AcDbEntity
  8
STAVBA OBRYS
100
AcDbLine
 10
-85.33022256916115
 20
393.1753191305019
 30
0.0
 11
-52.34574236489311
 21
394.8677530331974
 31
0.0
  0
LINE
  5
17F3
330
1F
100
AcDbEntity
  8
STAVBA OBRYS
100
AcDbLine
 10
-68.83798246702895
 20
389.5788934387296
 30
0.0
 11
-86.80185554343802
 21
388.4555367153065
 31
0.0
  0
LINE
  5
17F4
330
1F
100
AcDbEntity
  8
STAVBA OBRYS
100
AcDbLine
 10
-52.38270539482869
 20
384.897387114141
 30
0.0
 11
-56.53682971330886
 21
384.6786268811105
 31
0.0
  0
LINE
  5
17F5
330
1F
100
AcDbEntity
  8
STAVBA OBRYS
100
AcDbLine
 10
-44.6743532324424
 20
384.7518535018957
 30
0.0
 11
-52.38270539482869
 21
384.897387114141
 31
0.0
  0
LINE
  5
17F6
330
1F
100
AcDbEntity
  8
STAVBA OBRYS
100
AcDbLine
 10
-28.09413426403512
 20
385.4794631862227
 30
0.0
 11
-34.84030757429968
 21
384.6786268811105
 31
0.0
  0
LINE
  5
17F7
330
1F
100
AcDbEntity
  8
STAVBA OBRYS
100
AcDbLine
 10
-2.942518540937044
 20
396.7607552367321
 30
0.0
 11
7.531281368997269
 21
395.390722493807
 31
0.0
  0
LINE
  5
17F8
330
1F
100
AcDbEntity
  8
STAVBA OBRYS
100
AcDbLine
 10
7.531281368997269
 20
395.390722493807
 30
0.0
 11
27.33186598654469
 21
393.596158204184
 31
0.0
  0
LINE
  5
17F9
330
1F
100
AcDbEntity
  8
STAVBA OBRYS
100
AcDbLine
 10
26.22329980029576
 20
390.0042275337241
 30
0.0
 11
-11.83570471875532
 21
390.2157854201126
 31
0.0
  0
LINE
  5
17FA
330
1F
100
AcDbEntity
  8
STAVBA OBRYS
100
AcDbLine
 10
33.77638558949661
 20
383.8824755153895
 30
0.0
 11
17.92335876347101
 21
384.3190179752186
 31
0.0
  0
LINE
  5
17FB
330
1F
100
AcDbEntity
  8
STAVBA OBRYS
100
AcDbLine
 10
40.13225886296391
 20
383.4480930008562
 30
0.0
 11
33.77638558949661
 21
383.8824755153895
 31
0.0
  0
LINE
  5
17FC
330
1F
100
AcDbEntity
  8
STAVBA OBRYS
100
AcDbLine
 10
10.3756402990341
 20
384.6786268811105
 30
0.0
 11
5.70634676801751
 21
384.9010940473003
 31
0.0
  0
LINE
  5
17FD
330
1F
100
AcDbEntity
  8
STAVBA OBRYS
100
AcDbLine
 10
5.70634676801751
 20
384.9010940473003
 30
0.0
 11
-14.36445221039207
 21
386.3563134159543
 31
0.0
  0
LINE
  5
17FE
330
1F
100
AcDbEntity
  8
STAVBA OBRYS
100
AcDbLine
 10
27.33186598654469
 20
393.596158204184
 30
0.0
 11
46.95043158405428
 21
393.7083294179523
 31
0.0
  0
LINE
  5
17FF
330
1F
100
AcDbEntity
  8
STAVBA OBRYS
100
AcDbLine
 10
47.31726575377002
 20
389.5828338794949
 30
0.0
 11
26.22329980029576
 21
390.0042275337241
 31
0.0
  0
LINE
  5
1800
330
1F
100
AcDbEntity
  8
STAVBA OBRYS
100
AcDbLine
 10
46.95043158405428
 20
393.7083294179523
 30
0.0
 11
54.23732583116839
 21
395.0543256062942
 31
0.0
  0
LINE
  5
1801
330
1F
100
AcDbEntity
  8
STAVBA OBRYS
100
AcDbLine
 10
262.0182067271282
 20
384.9010940473003
 30
0.0
 11
241.9474077487186
 21
386.3563134159543
 31
0.0
  0
LINE
  5
1802
330
1F
100
AcDbEntity
  8
STAVBA OBRYS
100
AcDbLine
 10
263.704979799809
 20
384.8207282225798
 30
0.0
 11
262.0182067271282
 21
384.9010940473003
 31
0.0
  0
LINE
  5
1803
330
1F
100
AcDbEntity
  8
STAVBA OBRYS
100
AcDbLine
 10
263.704979799809
 20
390.1088985077262
 30
0.0
 11
244.4761552403554
 21
390.2157854201126
 31
0.0
  0
LINE
  5
1804
330
1F
100
AcDbEntity
  8
STAVBA OBRYS
100
AcDbLine
 10
253.3693414181736
 20
396.7607552367321
 30
0.0
 11
263.843141328108
 21
395.390722493807
 31
0.0
  0
LINE
  5
1805
330
1F
100
AcDbEntity
  8
STAVBA OBRYS
100
AcDbLine
 10
211.6375067266683
 20
384.7518535018957
 30
0.0
 11
203.929154564282
 21
384.897387114141
 31
0.0
  0
LINE
  5
1806
330
1F
100
AcDbEntity
  8
STAVBA OBRYS
100
AcDbLine
 10
203.929154564282
 20
384.897387114141
 30
0.0
 11
199.7750302458018
 21
384.6786268811105
 31
0.0
  0
LINE
  5
1807
330
1F
100
AcDbEntity
  8
STAVBA OBRYS
100
AcDbLine
 10
187.4738774920817
 20
389.5788934387296
 30
0.0
 11
157.0266774847525
 21
387.6749016496455
 31
0.0
  0
LINE
  5
1808
330
1F
100
AcDbEntity
  8
STAVBA OBRYS
100
AcDbLine
 10
157.0266774847525
 20
387.6749016496455
 30
0.0
 11
149.5813779834327
 21
387.8894659463971
 31
0.0
  0
LINE
  5
1809
330
1F
100
AcDbEntity
  8
STAVBA OBRYS
100
AcDbLine
 10
170.9816373899495
 20
393.1753191305019
 30
0.0
 11
203.9661175942176
 21
394.8677530331974
 31
0.0
  0
LINE
  5
180A
330
1F
100
AcDbEntity
  8
STAVBA OBRYS
100
AcDbLine
 10
241.9474077487186
 20
386.3563134159543
 30
0.0
 11
228.2177256950756
 21
385.4794631862227
 31
0.0
  0
LINE
  5
180B
330
1F
100
AcDbEntity
  8
STAVBA OBRYS
100
AcDbLine
 10
228.2177256950756
 20
385.4794631862227
 30
0.0
 11
219.6367285301905
 21
384.4608154658548
 31
0.0
  0
LINE
  5
180C
330
1F
100
AcDbEntity
  8
STAVBA OBRYS
100
AcDbLine
 10
219.6367285301905
 20
384.4608154658548
 30
0.0
 11
211.6375067266683
 21
384.7518535018957
 31
0.0
  0
LINE
  5
180D
330
1F
100
AcDbEntity
  8
STAVBA OBRYS
100
AcDbLine
 10
244.4761552403554
 20
390.2157854201126
 30
0.0
 11
215.0861447920117
 21
390.4273433065085
 31
0.0
  0
LINE
  5
180E
330
1F
100
AcDbEntity
  8
STAVBA OBRYS
100
AcDbLine
 10
215.0861447920117
 20
390.4273433065085
 30
0.0
 11
187.4738774920817
 21
389.5788934387296
 31
0.0
  0
LINE
  5
180F
330
1F
100
AcDbEntity
  8
STAVBA OBRYS
100
AcDbLine
 10
203.9661175942176
 20
394.8677530331974
 30
0.0
 11
221.622783814096
 21
396.7607552367321
 31
0.0
  0
LINE
  5
1810
330
1F
100
AcDbEntity
  8
STAVBA OBRYS
100
AcDbLine
 10
137.9516434109002
 20
395.6181880855059
 30
0.0
 11
164.9399588907083
 21
394.0482581079253
 31
0.0
  0
LINE
  5
1811
330
1F
100
AcDbEntity
  8
STAVBA OBRYS
100
AcDbLine
 10
149.5813779834327
 20
387.8894659463971
 30
0.0
 11
124.7039058705679
 21
389.1598932374094
 31
0.0
  0
LINE
  5
1812
330
1F
100
AcDbEntity
  8
STAVBA OBRYS
100
AcDbLine
 10
103.7814229161315
 20
384.6786268811105
 30
0.0
 11
101.3200720947618
 21
385.3416645132515
 31
0.0
  0
LINE
  5
1813
330
1F
100
AcDbEntity
  8
STAVBA OBRYS
100
AcDbLine
 10
101.2946904534157
 20
396.4022190438976
 30
0.0
 11
137.9516434109002
 21
395.6181880855059
 31
0.0
  0
LINE
  5
1814
330
1F
100
AcDbEntity
  8
STAVBA OBRYS
100
AcDbLine
 10
170.9816373899495
 20
393.1753191305019
 30
0.0
 11
164.9399588907083
 21
394.0482581079253
 31
0.0
  0
LINE
  5
1815
330
1F
100
AcDbEntity
  8
STAVBA OBRYS
100
AcDbLine
 10
54.23732583116839
 20
395.0543256062942
 30
0.0
 11
81.05345384355791
 21
396.0882388860686
 31
0.0
  0
LINE
  5
1816
330
1F
100
AcDbEntity
  8
STAVBA OBRYS
100
AcDbLine
 10
88.97072198920183
 20
389.1598932374094
 30
0.0
 11
66.13532649358717
 21
388.7367774646249
 31
0.0
  0
LINE
  5
1817
330
1F
100
AcDbEntity
  8
STAVBA OBRYS
100
AcDbLine
 10
87.8367922011505
 20
386.5040069735099
 30
0.0
 11
63.11188052955663
 21
384.1757026851832
 31
0.0
  0
LINE
  5
1818
330
1F
100
AcDbEntity
  8
STAVBA OBRYS
100
AcDbLine
 10
124.7039058705679
 20
389.1598932374094
 30
0.0
 11
88.97072198920183
 21
389.1598932374094
 31
0.0
  0
LINE
  5
1819
330
1F
100
AcDbEntity
  8
STAVBA OBRYS
100
AcDbLine
 10
101.3200720947618
 20
385.3416645132515
 30
0.0
 11
87.8367922011505
 21
386.5040069735099
 31
0.0
  0
LINE
  5
181A
330
1F
100
AcDbEntity
  8
STAVBA OBRYS
100
AcDbLine
 10
81.05345384355791
 20
396.0882388860686
 30
0.0
 11
101.2946904534157
 21
396.4022190438976
 31
0.0
  0
LINE
  5
181B
330
1F
100
AcDbEntity
  8
STAVBA OBRYS
100
AcDbLine
 10
66.13532649358717
 20
388.7367774646249
 30
0.0
 11
47.31726575377002
 21
389.5828338794949
 31
0.0
  0
LINE
  5
181C
330
1F
100
AcDbEntity
  8
STAVBA OBRYS
100
AcDbLine
 10
263.7164499103903
 20
436.9425300222268
 30
0.0
 11
-87.20216601779862
 21
436.9425300222268
 31
0.0
  0
LINE
  5
181D
330
1F
100
AcDbEntity
  8
STAVBA OBRYS
100
AcDbLine
 10
263.704979799809
 20
454.9425300222268
 30
0.0
 11
-87.20216601779862
 21
454.9425300222268
 31
0.0
  0
TEXT
  5
181E
330
1F
100
AcDbEntity
  8
POPIS
100
AcDbText
 10
498.9672928850571
 20
103.3166059936278
 30
0.0
 40
25.0
  1
Přikotvení 
 41
0.7
  7
SIMPLEX7
100
AcDbText
  0
TEXT
  5
181F
330
1F
100
AcDbEntity
  8
POPIS
100
AcDbText
 10
498.9672928850571
 20
136.4818043574281
 30
0.0
 40
25.0
  1
Těsnící podložka
 41
0.7
  7
SIMPLEX7
100
AcDbText
  0
TEXT
  5
1820
330
1F
100
AcDbEntity
  8
POPIS
100
AcDbText
 10
444.6235897253147
 20
102.5778596056238
 30
0.0
 40
25.0
  1
07
 41
0.85
  7
SIMPLEX7
100
AcDbText
  0
CIRCLE
  5
1821
330
1F
100
AcDbEntity
  8
POPIS
100
AcDbCircle
 10
671.3525071792839
 20
344.0220632226386
 30
0.0
 40
11.13656048292026
  0
TEXT
  5
1822
330
1F
100
AcDbEntity
  8
POPIS
100
AcDbText
 10
666.5934781241023
 20
338.4767174776511
 30
0.0
 40
12.0
  1
R
 41
0.85
  7
SIMPLEX7
100
AcDbText
  0
TEXT
  5
1823
330
1F
100
AcDbEntity
  8
POPIS
100
AcDbText
 10
444.6235897253147
 20
136.4891222731579
 30
0.0
 40
25.0
  1
06
 41
0.85
  7
SIMPLEX7
100
AcDbText
  0
TEXT
  5
1824
330
1F
100
AcDbEntity
  8
POPIS
100
AcDbText
 10
498.9672928850571
 20
170.7351968966262
 30
0.0
 40
25.0
  1
Trvale pružný tmel
 41
0.7
  7
SIMPLEX7
100
AcDbText
  0
TEXT
  5
1825
330
1F
100
AcDbEntity
  8
POPIS
100
AcDbText
 10
444.6235897253147
 20
207.5520462908584
 30
0.0
 40
25.0
  1
04
 41
0.85
  7
SIMPLEX7
100
AcDbText
  0
TEXT
  5
1826
330
1F
100
AcDbEntity
  8
POPIS
100
AcDbText
 10
498.9672928850571
 20
242.9562075090211
 30
0.0
 40
25.0
  1
Tepelná izolace 
 41
0.7
  7
SIMPLEX7
100
AcDbText
  0
TEXT
  5
1827
330
1F
100
AcDbEntity
  8
POPIS
100
AcDbText
 10
444.6235897253147
 20
242.9562075090211
 30
0.0
 40
25.0
  1
03
 41
0.85
  7
SIMPLEX7
100
AcDbText
  0
TEXT
  5
1828
330
1F
100
AcDbEntity
  8
POPIS
100
AcDbText
 10
498.9672928850571
 20
276.9063957537432
 30
0.0
 40
25.0
  1
Vrut Bűhnen 4,2x35 (45,55) mm
 41
0.7
  7
SIMPLEX7
100
AcDbText
  0
TEXT
  5
1829
330
1F
100
AcDbEntity
  8
POPIS
100
AcDbText
 10
444.6235897253147
 20
276.9063957537432
 30
0.0
 40
25.0
  1
02
 41
0.85
  7
SIMPLEX7
100
AcDbText
  0
TEXT
  5
182A
330
1F
100
AcDbEntity
  8
POPIS
100
AcDbText
 10
498.9672928850571
 20
313.5014073693704
 30
0.0
 40
25.0
  1
Deska CETRIS   
 41
0.7
  7
SIMPLEX7
100
AcDbText
  0
TEXT
  5
182B
330
1F
100
AcDbEntity
  8
POPIS
100
AcDbText
 10
444.6235897253147
 20
313.5014073693704
 30
0.0
 40
25.0
  1
01
 41
0.85
  7
SIMPLEX7
100
AcDbText
  0
TEXT
  5
182C
330
1F
100
AcDbEntity
  8
POPIS
100
AcDbText
 10
-97.48463239585431
 20
570.2285647554458
 30
0.0
 40
50.0
  1
Napojení příčky na stropní konstrukci
 41
0.85
  7
SIMPLEX7
100
AcDbText
  0
TEXT
  5
182D
330
1F
100
AcDbEntity
  8
POPIS
100
AcDbText
 10
-97.48463239585431
 20
515.6038217296449
 30
0.0
 40
35.0
  1
SVISLÝ ŘEZ
 41
0.85
  7
SIMPLEX7
100
AcDbText
  0
TEXT
  5
182E
330
1F
100
AcDbEntity
  8
POPIS
100
AcDbText
 10
-68.56746215736234
 20
330.5102639555256
 30
0.0
 40
25.0
  1
07
 41
0.85
  7
SIMPLEX7
100
AcDbText
  0
TEXT
  5
182F
330
1F
100
AcDbEntity
  8
POPIS
100
AcDbText
 10
-68.56746215736234
 20
268.5898622446251
 30
0.0
 40
25.0
  1
06
 41
0.85
  7
SIMPLEX7
100
AcDbText
  0
TEXT
  5
1830
330
1F
100
AcDbEntity
  8
POPIS
100
AcDbText
 10
-68.56746215736234
 20
163.9657328117095
 30
0.0
 40
25.0
  1
05
 41
0.85
  7
SIMPLEX7
100
AcDbText
  0
TEXT
  5
1831
330
1F
100
AcDbEntity
  8
POPIS
100
AcDbText
 10
-68.56746215736234
 20
110.5860905893127
 30
0.0
 40
25.0
  1
04
 41
0.85
  7
SIMPLEX7
100
AcDbText
  0
TEXT
  5
1832
330
1F
100
AcDbEntity
  8
POPIS
100
AcDbText
 10
158.9761692996883
 20
110.58609058931
 30
0.0
 40
25.0
  1
01
 41
0.85
  7
SIMPLEX7
100
AcDbText
  0
TEXT
  5
1833
330
1F
100
AcDbEntity
  8
POPIS
100
AcDbText
 10
158.9761692996883
 20
182.3614132221668
 30
0.0
 40
25.0
  1
02
 41
0.85
  7
SIMPLEX7
100
AcDbText
  0
INSERT
  5
1834
330
1F
100
AcDbEntity
  8
POPIS
100
AcDbBlockReference
  2
E_PUNKT
 10
48.34764246663803
 20
229.4982039979599
 30
0.0
 50
270.0
  0
INSERT
  5
1835
330
1F
100
AcDbEntity
  8
POPIS
100
AcDbBlockReference
  2
E_PUNKT
 10
27.06533286923627
 20
216.2073181036552
 30
0.0
 50
270.0
  0
INSERT
  5
1836
330
1F
100
AcDbEntity
  8
POPIS
100
AcDbBlockReference
  2
E_PUNKT
 10
46.66348038558249
 20
185.0406489684114
 30
0.0
 50
270.0
  0
LINE
  5
1837
330
1F
100
AcDbEntity
  8
POPIS
100
AcDbLine
 10
48.37671079751203
 20
229.470593622333
 30
0.0
 11
-29.59109589851755
 21
279.178964233421
 31
0.0
  0
LINE
  5
1838
330
1F
100
AcDbEntity
  8
POPIS
100
AcDbLine
 10
27.19779114452944
 20
216.6000176755937
 30
0.0
 11
-29.6863635559846
 21
175.3594440648106
 31
0.0
  0
LINE
  5
1839
330
1F
100
AcDbEntity
  8
POPIS
100
AcDbLine
 10
46.69254871645648
 20
185.0130385927845
 30
0.0
 11
-29.6863635559846
 21
124.9869858281912
 31
0.0
  0
TEXT
  5
183A
330
1F
100
AcDbEntity
  8
POPIS
100
AcDbText
 10
158.9761692996883
 20
49.52642313364453
 30
0.0
 40
25.0
  1
03
 41
0.85
  7
SIMPLEX7
100
AcDbText
  0
LINE
  5
183B
330
1F
100
AcDbEntity
  8
POPIS
100
AcDbLine
 10
156.9261123981207
 20
61.43770441174495
 30
0.0
 11
59.43588135079449
 21
61.43770441174495
 31
0.0
  0
INSERT
  5
183C
330
1F
100
AcDbEntity
  8
POPIS
100
AcDbBlockReference
  2
E_PUNKT
 10
55.24002340467382
 20
61.92076385967943
 30
0.0
 50
270.0
  0
INSERT
  5
183D
330
1F
100
AcDbEntity
  8
POPIS
100
AcDbBlockReference
  2
E_PUNKT
 10
96.78444951444658
 20
196.2682701632597
 30
0.0
 50
270.0
  0
LINE
  5
183E
330
1F
100
AcDbEntity
  8
POPIS
100
AcDbLine
 10
156.9261123981207
 20
196.3861664411328
 30
0.0
 11
96.80375982001102
 21
196.3861664411328
 31
0.0
  0
LINE
  5
183F
330
1F
100
AcDbEntity
  8
POPIS
100
AcDbLine
 10
156.9261123981207
 20
122.5834766671563
 30
0.0
 11
99.24142325253093
 21
122.5834766671563
 31
0.0
  0
HATCH
  5
1840
330
1F
100
AcDbEntity
  8
CETRIS
100
AcDbHatch
 10
0.0
 20
0.0
 30
0.0
210
0.0
220
0.0
230
1.0
  2
ANSI31
 70
     0
 71
     0
 91
        6
 92
        7
 72
     0
 73
     1
 93
       15
 10
99.24142325253093
 20
213.7039454186255
 10
87.24142325252728
 20
213.7039454186255
 10
87.24142325252728
 20
197.1001986518153
 10
87.99735939722927
 20
197.1001986518153
 10
88.22349095153299
 20
197.7727157502435
 10
88.44115208757761
 20
198.1503671255526
 10
88.81973363640758
 20
197.7727157502417
 10
88.59360208215116
 20
197.1001986518153
 10
92.64182598144293
 20
197.1001986518153
 10
93.42875470456897
 20
197.1662411337369
 10
94.90959457162285
 20
197.5941219980381
 10
96.22858384992765
 20
198.3903524773554
 10
97.29735583932166
 20
199.5009823777185
 10
98.04149647579585
 20
200.8506674612639
 10
99.24142325253093
 20
200.8506674612639
 97
        0
 92
        7
 72
     0
 73
     1
 93
       12
 10
99.24142325253455
 20
190.6503596839961
 10
98.04149647580675
 20
190.6503596839961
 10
97.70477283793049
 20
191.3656648701411
 10
96.78668932747065
 20
192.6027986790699
 10
95.57932114457912
 20
193.560879749048
 10
94.16545393488309
 20
194.1738655981948
 10
92.64182598145021
 20
194.4008284890791
 10
87.68594817739836
 20
194.4008284890791
 10
87.45981662313829
 20
193.7283113906473
 10
87.24142325253092
 20
193.3510019950912
 10
87.24142325253092
 20
61.43770441174495
 10
99.24142325253455
 20
61.43770441174495
 97
        0
 92
        7
 72
     0
 73
     1
 93
        4
 10
99.24142325253093
 20
61.43770441174495
 10
87.24142325253092
 20
61.43770441174495
 10
87.24142325253092
 20
-113.071611824274
 10
99.24142325252729
 20
-115.2817731025748
 97
        0
 92
        7
 72
     0
 73
     1
 93
        4
 10
36.00916896777675
 20
173.9581595202384
 10
24.00916896778039
 20
165.0130446588577
 10
24.00916896778767
 20
-101.4254884942952
 10
36.00916896777675
 20
-103.6356497725924
 97
        0
 92
        7
 72
     0
 73
     1
 93
       15
 10
36.00916896778403
 20
213.7039454186255
 10
24.00916896777676
 20
213.7039454186255
 10
24.00916896777676
 20
200.8506674612639
 10
25.2090957445082
 20
200.8506674612639
 10
25.95323638098966
 20
199.5009823777022
 10
27.02200837040186
 20
198.390352477349
 10
28.34099764869574
 20
197.5941219980363
 10
29.82183751574598
 20
197.1662411337369
 10
30.60876623886838
 20
197.1001986518153
 10
34.65699013815287
 20
197.1001986518144
 10
34.430858583911
 20
197.7727157502435
 10
34.80944013273006
 20
198.1503671255545
 10
35.02710126877832
 20
197.7727157502535
 10
35.25323282308568
 20
197.1001986518153
 10
36.0091689677804
 20
197.1001986518153
 97
        0
 92
        7
 72
     0
 73
     1
 93
       12
 10
36.0091689677804
 20
193.3510019950803
 10
35.79077559715847
 20
193.7283113906636
 10
35.56464404290932
 20
194.4008284890791
 10
30.60876623887202
 20
194.4008284890791
 10
29.0851382854355
 20
194.1738655981957
 10
27.6712710757431
 20
193.560879749048
 10
26.46390289283704
 20
192.6027986790708
 10
25.5458193824063
 20
191.3656648701639
 10
25.2090957445082
 20
190.6503596839961
 10
24.00916896778403
 20
190.6503596839961
 10
24.00916896778403
 20
165.0130446588649
 10
36.00916896777675
 20
173.9581595202375
 97
        0
 75
     0
 76
     1
 52
90.0
 41
1.0
 77
     0
 78
     1
 53
135.0
 43
-23423.21251733595
 44
-2085.129482441834
 45
-2.245064030267288
 46
-2.245064030267287
 79
     0
 47
0.869265801651106
 98
        6
 10
92.24642357343077
 20
207.0336698436171
 10
92.24642357343077
 20
153.1391766951587
 10
91.37671841623637
 20
46.21950027319184
 10
30.49487560258535
 20
4.494717889773198
 10
29.62511404061774
 20
207.0336698436171
 10
30.49487560258535
 20
180.9556982841044
  0
TEXT
  5
1841
330
1F
100
AcDbEntity
  8
POPIS
100
AcDbText
 10
444.6235897253147
 20
171.6140651061409
 30
0.0
 40
25.0
  1
05
 41
0.85
  7
SIMPLEX7
100
AcDbText
  0
TEXT
  5
1842
330
1F
100
AcDbEntity
  8
POPIS
100
AcDbText
 10
498.9672928850571
 20
207.5707368995185
 30
0.0
 40
25.0
  1
Vodorovný dřevěný hranolek 80/50 (50/50)
 41
0.7
  7
SIMPLEX7
100
AcDbText
  0
LINE
  5
1843
330
1F
100
AcDbEntity
  8
STAVBA OBRYS
100
AcDbLine
 10
88.2514068910034
 20
454.9425300222268
 30
0.0
 11
88.25714194629586
 21
436.9425300222268
 31
0.0
  0
LINE
  5
1844
330
1F
100
AcDbEntity
  8
STAVBA OBRYS
100
AcDbLine
 10
-11.74858803324855
 20
454.9106686055524
 30
0.0
 11
-11.74285297795609
 21
436.9106686055523
 31
0.0
  0
LINE
  5
1845
330
1F
100
AcDbEntity
  8
STAVBA OBRYS
100
AcDbLine
 10
188.2514018152553
 20
454.9743914389013
 30
0.0
 11
188.2571368705478
 21
436.9743914389013
 31
0.0
  0
LWPOLYLINE
  5
1846
330
1F
100
AcDbEntity
  8
STAVBA OBRYS
100
AcDbPolyline
 90
        6
 70
     0
 43
0.0
 10
54.28566409545351
 20
436.9425300222268
 42
0.0132290984651571
 10
51.66501523191005
 20
439.2474230007605
 42
0.0157521173632038
 10
47.77838942746643
 20
442.2852182637684
 42
0.0073640874174249
 10
42.21801019988311
 20
446.2312999746522
 42
0.0194185739168057
 10
40.03155821627046
 20
447.6131827737894
 42
0.0567960585128809
 10
32.73640882498625
 20
450.79541982024
  0
LWPOLYLINE
  5
1847
330
1F
100
AcDbEntity
  8
STAVBA OBRYS
100
AcDbPolyline
 90
        2
 70
     0
 43
0.0
 10
62.05252409005812
 20
436.9425300222277
 10
70.69327249685489
 20
445.5982988260297
  0
LWPOLYLINE
  5
1848
330
1F
100
AcDbEntity
  8
STAVBA OBRYS
100
AcDbPolyline
 90
        4
 70
     0
 43
0.0
 10
67.56934758238026
 20
436.9425300222268
 42
0.0269616495147096
 10
64.89739986313475
 20
441.2363632230285
 42
0.0258674098621065
 10
61.01818948637924
 20
446.2112993175328
 42
0.079372571536355
 10
53.55728702201054
 20
454.9425300222268
  0
LWPOLYLINE
  5
1849
330
1F
100
AcDbEntity
  8
STAVBA OBRYS
100
AcDbPolyline
 90
        4
 70
     0
 43
0.0
 10
78.86822368727848
 20
436.9425300222268
 42
0.0061395084242039
 10
77.42079790431057
 20
441.5335848504023
 42
0.0582629403736403
 10
75.42939806261461
 20
445.8293858891215
 42
0.0424769481457602
 10
68.70951602071477
 20
454.9425300222268
  0
LWPOLYLINE
  5
184A
330
1F
100
AcDbEntity
  8
STAVBA OBRYS
100
AcDbPolyline
 90
        2
 70
     0
 43
0.0
 10
-11.74470638311936
 20
442.727751661669
 42
-0.0558582670487531
 10
-3.26391161981769
 20
454.9425300222268
  0
LWPOLYLINE
  5
184B
330
1F
100
AcDbEntity
  8
STAVBA OBRYS
100
AcDbPolyline
 90
        4
 70
     0
 43
0.0
 10
-2.08842961928417
 20
436.9425300222268
 42
-0.0256269988680247
 10
0.4365850290353137
 20
441.0332972225282
 42
-0.0258674098621065
 10
4.284374398409681
 20
446.0325750964279
 42
-0.0807730785506472
 10
11.84393877379739
 20
454.9425300222268
  0
LWPOLYLINE
  5
184C
330
1F
100
AcDbEntity
  8
STAVBA OBRYS
100
AcDbPolyline
 90
        2
 70
     0
 43
0.0
 10
2.772621036937607
 20
436.9425300222277
 10
-6.427618560052678
 20
444.1794984141619
  0
LWPOLYLINE
  5
184D
330
1F
100
AcDbEntity
  8
STAVBA OBRYS
100
AcDbPolyline
 90
        6
 70
     0
 43
0.0
 10
11.22051306090475
 20
436.9425300222268
 42
-0.0124742646996712
 10
13.68123811861119
 20
439.1277655976995
 42
-0.0157521173632038
 10
17.54864750212914
 20
442.189987807797
 42
-0.0073640874174249
 10
23.08405453416458
 20
446.171023729917
 42
-0.0194185739168057
 10
25.26175672781505
 20
447.5666545919134
 42
-0.0567960585128809
 10
32.53671200818757
 20
450.7947907305519
  0
POLYLINE
  5
184E
330
1F
100
AcDbEntity
  8
STAVBA OBRYS
100
AcDb2dPolyline
 66
     1
 10
0.0
 20
0.0
 30
0.0
  0
VERTEX
  5
184F
330
184E
100
AcDbEntity
  8
STAVBA OBRYS
100
AcDbVertex
100
AcDb2dVertex
 10
38.58514409429449
 20
436.9425300222268
 30
0.0
 42
0.0141362754529377
  0
VERTEX
  5
1850
330
184E
100
AcDbEntity
  8
STAVBA OBRYS
100
AcDbVertex
100
AcDb2dVertex
 10
35.98752254094256
 20
438.3781655739844
 30
0.0
 42
0.056967459841729
  0
VERTEX
  5
1851
330
184E
100
AcDbEntity
  8
STAVBA OBRYS
100
AcDbVertex
100
AcDb2dVertex
 10
33.41838580406442
 20
439.3534485762233
 30
0.0
 42
0.0373408083348504
  0
VERTEX
  5
1852
330
184E
100
AcDbEntity
  8
STAVBA OBRYS
100
AcDbVertex
100
AcDb2dVertex
 10
33.15156055349621
 20
439.400447225364
 30
0.0
 42
0.0052305969362967
  0
VERTEX
  5
1853
330
184E
100
AcDbEntity
  8
STAVBA OBRYS
100
AcDbVertex
100
AcDb2dVertex
 10
32.73640882498625
 20
439.4375955856498
 30
0.0
  0
SEQEND
  5
1854
330
184E
100
AcDbEntity
  8
STAVBA OBRYS
  0
POLYLINE
  5
1855
330
1F
100
AcDbEntity
  8
STAVBA OBRYS
100
AcDb2dPolyline
 66
     1
 10
0.0
 20
0.0
 30
0.0
  0
VERTEX
  5
1856
330
1855
100
AcDbEntity
  8
STAVBA OBRYS
100
AcDbVertex
100
AcDb2dVertex
 10
26.83760902933977
 20
436.9425300222268
 30
0.0
 42
-0.0137909154721682
  0
VERTEX
  5
1857
330
1855
100
AcDbEntity
  8
STAVBA OBRYS
100
AcDbVertex
100
AcDb2dVertex
 10
29.36389630530652
 20
438.3572996682091
 30
0.0
 42
-0.056967459841729
  0
VERTEX
  5
1858
330
1855
100
AcDbEntity
  8
STAVBA OBRYS
100
AcDbVertex
100
AcDb2dVertex
 10
31.92683739222889
 20
439.3487498647449
 30
0.0
 42
-0.0373408083348504
  0
VERTEX
  5
1859
330
1855
100
AcDbEntity
  8
STAVBA OBRYS
100
AcDbVertex
100
AcDb2dVertex
 10
32.1933612373516
 20
439.3974286829629
 30
0.0
 42
-0.0052305969362967
  0
VERTEX
  5
185A
330
1855
100
AcDbEntity
  8
STAVBA OBRYS
100
AcDbVertex
100
AcDb2dVertex
 10
32.60827067710602
 20
439.4371919217914
 30
0.0
  0
SEQEND
  5
185B
330
1855
100
AcDbEntity
  8
STAVBA OBRYS
  0
POLYLINE
  5
185C
330
1F
100
AcDbEntity
  8
STAVBA OBRYS
100
AcDb2dPolyline
 66
     1
 10
0.0
 20
0.0
 30
0.0
  0
VERTEX
  5
185D
330
185C
100
AcDbEntity
  8
STAVBA OBRYS
100
AcDbVertex
100
AcDb2dVertex
 10
226.8376090293434
 20
436.9743914389013
 30
0.0
 42
-0.0137909154721682
  0
VERTEX
  5
185E
330
185C
100
AcDbEntity
  8
STAVBA OBRYS
100
AcDbVertex
100
AcDb2dVertex
 10
229.3638963053101
 20
438.3891610848845
 30
0.0
 42
-0.056967459841729
  0
VERTEX
  5
185F
330
185C
100
AcDbEntity
  8
STAVBA OBRYS
100
AcDbVertex
100
AcDb2dVertex
 10
231.9268373922325
 20
439.3806112814194
 30
0.0
 42
-0.0373408083348504
  0
VERTEX
  5
1860
330
185C
100
AcDbEntity
  8
STAVBA OBRYS
100
AcDbVertex
100
AcDb2dVertex
 10
232.1933612373552
 20
439.4292900996374
 30
0.0
 42
-0.0052305969362967
  0
VERTEX
  5
1861
330
185C
100
AcDbEntity
  8
STAVBA OBRYS
100
AcDbVertex
100
AcDb2dVertex
 10
232.6082706771096
 20
439.4690533384659
 30
0.0
  0
SEQEND
  5
1862
330
185C
100
AcDbEntity
  8
STAVBA OBRYS
  0
POLYLINE
  5
1863
330
1F
100
AcDbEntity
  8
STAVBA OBRYS
100
AcDb2dPolyline
 66
     1
 10
0.0
 20
0.0
 30
0.0
  0
VERTEX
  5
1864
330
1863
100
AcDbEntity
  8
STAVBA OBRYS
100
AcDbVertex
100
AcDb2dVertex
 10
238.5851440942981
 20
436.9743914389013
 30
0.0
 42
0.0141362754529377
  0
VERTEX
  5
1865
330
1863
100
AcDbEntity
  8
STAVBA OBRYS
100
AcDbVertex
100
AcDb2dVertex
 10
235.9875225409461
 20
438.4100269906579
 30
0.0
 42
0.056967459841729
  0
VERTEX
  5
1866
330
1863
100
AcDbEntity
  8
STAVBA OBRYS
100
AcDbVertex
100
AcDb2dVertex
 10
233.418385804068
 20
439.3853099928977
 30
0.0
 42
0.0373408083348504
  0
VERTEX
  5
1867
330
1863
100
AcDbEntity
  8
STAVBA OBRYS
100
AcDbVertex
100
AcDb2dVertex
 10
233.1515605534998
 20
439.4323086420394
 30
0.0
 42
0.0052305969362967
  0
VERTEX
  5
1868
330
1863
100
AcDbEntity
  8
STAVBA OBRYS
100
AcDbVertex
100
AcDb2dVertex
 10
232.7364088249899
 20
439.4694570023243
 30
0.0
  0
SEQEND
  5
1869
330
1863
100
AcDbEntity
  8
STAVBA OBRYS
  0
LWPOLYLINE
  5
186A
330
1F
100
AcDbEntity
  8
STAVBA OBRYS
100
AcDbPolyline
 90
        6
 70
     0
 43
0.0
 10
211.2205130609083
 20
436.9743914389013
 42
-0.0124742646996712
 10
213.6812381186148
 20
439.1596270143731
 42
-0.0157521173632038
 10
217.5486475021327
 20
442.2218492244723
 42
-0.0073640874174249
 10
223.0840545341682
 20
446.2028851465915
 42
-0.0194185739168057
 10
225.2617567278186
 20
447.5985160085878
 42
-0.0567960585128809
 10
232.5367120081912
 20
450.8266521472264
  0
LWPOLYLINE
  5
186B
330
1F
100
AcDbEntity
  8
STAVBA OBRYS
100
AcDbPolyline
 90
        2
 70
     0
 43
0.0
 10
202.7726210369412
 20
436.9743914389022
 10
193.5723814399509
 20
444.2113598308373
  0
LWPOLYLINE
  5
186C
330
1F
100
AcDbEntity
  8
STAVBA OBRYS
100
AcDbPolyline
 90
        4
 70
     0
 43
0.0
 10
197.9115703807194
 20
436.9743914389013
 42
-0.0256269988680247
 10
200.4365850290389
 20
441.0651586392027
 42
-0.0258674098621065
 10
204.2843743984133
 20
446.0644365131024
 42
-0.0807730785506472
 10
211.843938773801
 20
454.9743914389013
  0
LWPOLYLINE
  5
186D
330
1F
100
AcDbEntity
  8
STAVBA OBRYS
100
AcDbPolyline
 90
        2
 70
     0
 43
0.0
 10
188.2552936168842
 20
442.7596130783426
 42
-0.0558582670487531
 10
196.7360883801859
 20
454.9743914389022
  0
LWPOLYLINE
  5
186E
330
1F
100
AcDbEntity
  8
STAVBA OBRYS
100
AcDbPolyline
 90
        3
 70
     0
 43
0.0
 10
263.704979799809
 20
442.9133170807239
 42
0.0175375526296756
 10
261.0181894863828
 20
446.2431607342073
 42
0.079372571536355
 10
253.5572870220141
 20
454.9743914389004
  0
LWPOLYLINE
  5
186F
330
1F
100
AcDbEntity
  8
STAVBA OBRYS
100
AcDbPolyline
 90
        2
 70
     0
 43
0.0
 10
262.0525240900617
 20
436.9743914389022
 10
263.704979799809
 20
438.6297196476075
  0
LWPOLYLINE
  5
1870
330
1F
100
AcDbEntity
  8
STAVBA OBRYS
100
AcDbPolyline
 90
        6
 70
     0
 43
0.0
 10
254.2856640954571
 20
436.9743914389013
 42
0.0132290984651571
 10
251.6650152319136
 20
439.279284417435
 42
0.0157521173632038
 10
247.77838942747
 20
442.3170796804428
 42
0.0073640874174249
 10
242.2180101998867
 20
446.2631613913258
 42
0.0194185739168057
 10
240.0315582162741
 20
447.6450441904638
 42
0.0567960585128809
 10
232.7364088249899
 20
450.8272812369145
  0
LWPOLYLINE
  5
1871
330
1F
100
AcDbEntity
  8
STAVBA OBRYS
100
AcDbPolyline
 90
        6
 70
     0
 43
0.0
 10
154.2799207101427
 20
454.9846052684574
 42
-0.0132290984651571
 10
151.6607411217057
 20
452.6780428062633
 42
-0.0157521173632038
 10
147.7760518754778
 20
449.6377714920604
 42
-0.0073640874174249
 10
142.2181883317655
 20
445.6881473513408
 42
-0.0194185739168057
 10
140.032617366892
 20
444.3048715636837
 42
-0.0567960585128809
 10
132.7394972682498
 20
441.1179864876689
  0
LWPOLYLINE
  5
1872
330
1F
100
AcDbEntity
  8
STAVBA OBRYS
100
AcDbPolyline
 90
        2
 70
     0
 43
0.0
 10
162.0467791278399
 20
454.9895545314551
 10
170.6930414811552
 20
446.3392936144614
  0
LWPOLYLINE
  5
1873
330
1F
100
AcDbEntity
  8
STAVBA OBRYS
100
AcDbPolyline
 90
        4
 70
     0
 43
0.0
 10
167.5636015000829
 20
454.9930700075186
 42
-0.0269616495147096
 10
164.8943904753589
 20
450.6975350377874
 42
-0.0258674098621065
 10
161.0183510562758
 20
445.7201280107059
 42
-0.079372571536355
 10
153.5630138940007
 20
436.9841447805123
  0
LWPOLYLINE
  5
1874
330
1F
100
AcDbEntity
  8
STAVBA OBRYS
100
AcDbPolyline
 90
        4
 70
     0
 43
0.0
 10
178.86247531097
 20
455.0002699711425
 42
-0.0061395084242039
 10
177.4179753719411
 20
450.4082937344159
 42
-0.0582629403736403
 10
175.4293133405565
 20
446.111224591536
 42
-0.0424769481457602
 10
168.71523981635
 20
436.9938002096555
  0
LWPOLYLINE
  5
1875
330
1F
100
AcDbEntity
  8
STAVBA OBRYS
100
AcDbPolyline
 90
        2
 70
     0
 43
0.0
 10
88.25325014466693
 20
449.1573083827856
 42
0.0558582670487531
 10
96.74182678857802
 20
436.9479367046318
  0
LWPOLYLINE
  5
1876
330
1F
100
AcDbEntity
  8
STAVBA OBRYS
100
AcDbPolyline
 90
        4
 70
     0
 43
0.0
 10
97.90583844103572
 20
454.9486821004906
 42
0.0256269988680247
 10
100.4334593293326
 20
450.8595247415327
 42
0.0258674098621065
 10
104.2844335988386
 20
445.8626998029189
 42
0.0807730785506472
 10
111.8496741148494
 20
436.9575638544723
  0
LWPOLYLINE
  5
1877
330
1F
100
AcDbEntity
  8
STAVBA OBRYS
100
AcDbPolyline
 90
        2
 70
     0
 43
0.0
 10
102.7668881103174
 20
454.9517796995409
 10
93.57126198232549
 20
447.7089501238801
  0
LWPOLYLINE
  5
1878
330
1F
100
AcDbEntity
  8
STAVBA OBRYS
100
AcDbPolyline
 90
        6
 70
     0
 43
0.0
 10
111.2147784191086
 20
454.9571629354254
 42
0.0124742646996712
 10
113.6768954711671
 20
452.7734958472687
 42
0.0157521173632038
 10
117.5462554041453
 20
449.7137386816052
 42
0.0073640874174249
 10
123.0841981410824
 20
445.736230885774
 42
0.0194185739168057
 10
125.2627892280772
 20
444.3419880006025
 42
0.0567960585128809
 10
132.5398000911238
 20
441.1184883247664
  0
POLYLINE
  5
1879
330
1F
100
AcDbEntity
  8
STAVBA OBRYS
100
AcDb2dPolyline
 66
     1
 10
0.0
 20
0.0
 30
0.0
  0
VERTEX
  5
187A
330
1879
100
AcDbEntity
  8
STAVBA OBRYS
100
AcDbVertex
100
AcDb2dVertex
 10
138.5794038966571
 20
454.97460045277
 30
0.0
 42
-0.0141362754529377
  0
VERTEX
  5
187B
330
1879
100
AcDbEntity
  8
STAVBA OBRYS
100
AcDbVertex
100
AcDb2dVertex
 10
135.9826976983069
 20
453.5373099145203
 30
0.0
 42
-0.056967459841729
  0
VERTEX
  5
187C
330
1879
100
AcDbEntity
  8
STAVBA OBRYS
100
AcDbVertex
100
AcDb2dVertex
 10
133.41418296097
 20
452.5603899836545
 30
0.0
 42
-0.0373408083348504
  0
VERTEX
  5
187D
330
1879
100
AcDbEntity
  8
STAVBA OBRYS
100
AcDbVertex
100
AcDb2dVertex
 10
133.1473877134424
 20
452.5132213154542
 30
0.0
 42
-0.0052305969362967
  0
VERTEX
  5
187E
330
1879
100
AcDbEntity
  8
STAVBA OBRYS
100
AcDbVertex
100
AcDb2dVertex
 10
132.7322597412069
 20
452.4758084162808
 30
0.0
  0
SEQEND
  5
187F
330
1879
100
AcDbEntity
  8
STAVBA OBRYS
  0
POLYLINE
  5
1880
330
1F
100
AcDbEntity
  8
STAVBA OBRYS
100
AcDb2dPolyline
 66
     1
 10
0.0
 20
0.0
 30
0.0
  0
VERTEX
  5
1881
330
1880
100
AcDbEntity
  8
STAVBA OBRYS
100
AcDbVertex
100
AcDb2dVertex
 10
126.8318712168049
 20
454.9671145909573
 30
0.0
 42
0.0137909154721682
  0
VERTEX
  5
1882
330
1880
100
AcDbEntity
  8
STAVBA OBRYS
100
AcDbVertex
100
AcDb2dVertex
 10
129.3590595111175
 20
453.5539550539646
 30
0.0
 42
0.056967459841729
  0
VERTEX
  5
1883
330
1880
100
AcDbEntity
  8
STAVBA OBRYS
100
AcDbVertex
100
AcDb2dVertex
 10
131.9226318578123
 20
452.5641382373182
 30
0.0
 42
0.0373408083348504
  0
VERTEX
  5
1884
330
1880
100
AcDbEntity
  8
STAVBA OBRYS
100
AcDbVertex
100
AcDb2dVertex
 10
132.1891866683447
 20
452.5156292655205
 30
0.0
 42
0.0052305969362967
  0
VERTEX
  5
1885
330
1880
100
AcDbEntity
  8
STAVBA OBRYS
100
AcDbVertex
100
AcDb2dVertex
 10
132.6041213621185
 20
452.4761304268026
 30
0.0
  0
SEQEND
  5
1886
330
1880
100
AcDbEntity
  8
STAVBA OBRYS
  0
POLYLINE
  5
1887
330
1F
100
AcDbEntity
  8
STAVBA OBRYS
100
AcDb2dPolyline
 66
     1
 10
0.0
 20
0.0
 30
0.0
  0
VERTEX
  5
1888
330
1887
100
AcDbEntity
  8
STAVBA OBRYS
100
AcDbVertex
100
AcDb2dVertex
 10
-73.16811863169892
 20
454.9033917576084
 30
0.0
 42
0.0137909154721682
  0
VERTEX
  5
1889
330
1887
100
AcDbEntity
  8
STAVBA OBRYS
100
AcDbVertex
100
AcDb2dVertex
 10
-70.6409303373864
 20
453.4902322206157
 30
0.0
 42
0.056967459841729
  0
VERTEX
  5
188A
330
1887
100
AcDbEntity
  8
STAVBA OBRYS
100
AcDbVertex
100
AcDb2dVertex
 10
-68.07735799069155
 20
452.5004154039693
 30
0.0
 42
0.0373408083348504
  0
VERTEX
  5
188B
330
1887
100
AcDbEntity
  8
STAVBA OBRYS
100
AcDbVertex
100
AcDb2dVertex
 10
-67.81080318015916
 20
452.4519064321715
 30
0.0
 42
0.0052305969362967
  0
VERTEX
  5
188C
330
1887
100
AcDbEntity
  8
STAVBA OBRYS
100
AcDbVertex
100
AcDb2dVertex
 10
-67.39586848638532
 20
452.4124075934536
 30
0.0
  0
SEQEND
  5
188D
330
1887
100
AcDbEntity
  8
STAVBA OBRYS
  0
POLYLINE
  5
188E
330
1F
100
AcDbEntity
  8
STAVBA OBRYS
100
AcDb2dPolyline
 66
     1
 10
0.0
 20
0.0
 30
0.0
  0
VERTEX
  5
188F
330
188E
100
AcDbEntity
  8
STAVBA OBRYS
100
AcDbVertex
100
AcDb2dVertex
 10
-61.42058595184676
 20
454.9108776194211
 30
0.0
 42
-0.0141362754529377
  0
VERTEX
  5
1890
330
188E
100
AcDbEntity
  8
STAVBA OBRYS
100
AcDbVertex
100
AcDb2dVertex
 10
-64.01729215019691
 20
453.4735870811713
 30
0.0
 42
-0.056967459841729
  0
VERTEX
  5
1891
330
188E
100
AcDbEntity
  8
STAVBA OBRYS
100
AcDbVertex
100
AcDb2dVertex
 10
-66.58580688753386
 20
452.4966671503056
 30
0.0
 42
-0.0373408083348504
  0
VERTEX
  5
1892
330
188E
100
AcDbEntity
  8
STAVBA OBRYS
100
AcDbVertex
100
AcDb2dVertex
 10
-66.85260213506149
 20
452.4494984821052
 30
0.0
 42
-0.0052305969362967
  0
VERTEX
  5
1893
330
188E
100
AcDbEntity
  8
STAVBA OBRYS
100
AcDbVertex
100
AcDb2dVertex
 10
-67.26773010729698
 20
452.4120855829318
 30
0.0
  0
SEQEND
  5
1894
330
188E
100
AcDbEntity
  8
STAVBA OBRYS
  0
LWPOLYLINE
  5
1895
330
1F
100
AcDbEntity
  8
STAVBA OBRYS
100
AcDbPolyline
 90
        6
 70
     0
 43
0.0
 10
-88.78521142939531
 20
454.8934401020765
 42
0.0124742646996712
 10
-86.3230943773367
 20
452.7097730139198
 42
0.0157521173632038
 10
-82.45373444435859
 20
449.6500158482562
 42
0.0073640874174249
 10
-76.91579170742148
 20
445.6725080524251
 42
0.0194185739168057
 10
-74.73720062042662
 20
444.2782651672536
 42
0.0567960585128809
 10
-67.46018975738002
 20
441.0547654914175
  0
LWPOLYLINE
  5
1896
330
1F
100
AcDbEntity
  8
STAVBA OBRYS
100
AcDbPolyline
 90
        4
 70
     0
 43
0.0
 10
-21.13751453753388
 20
454.9365471377936
 42
-0.0061395084242039
 10
-22.58201447656279
 20
450.3445709010669
 42
-0.0582629403736403
 10
-24.57067650794738
 20
446.0475017581869
 42
-0.0424769481457602
 10
-31.28475003215385
 20
436.9300773763065
  0
LWPOLYLINE
  5
1897
330
1F
100
AcDbEntity
  8
STAVBA OBRYS
100
AcDbPolyline
 90
        4
 70
     0
 43
0.0
 10
-32.4363883484209
 20
454.9293471741697
 42
-0.0269616495147096
 10
-35.10559937314496
 20
450.6338122044384
 42
-0.0258674098621065
 10
-38.98163879222806
 20
445.656405177357
 42
-0.079372571536355
 10
-46.43697595450317
 20
436.9204219471634
  0
LWPOLYLINE
  5
1898
330
1F
100
AcDbEntity
  8
STAVBA OBRYS
100
AcDbPolyline
 90
        2
 70
     0
 43
0.0
 10
-37.95321072066395
 20
454.9258316981062
 10
-29.30694836734869
 20
446.2755707811124
  0
LWPOLYLINE
  5
1899
330
1F
100
AcDbEntity
  8
STAVBA OBRYS
100
AcDbPolyline
 90
        6
 70
     0
 43
0.0
 10
-45.72006913836117
 20
454.9208824351084
 42
-0.0132290984651571
 10
-48.33924872679813
 20
452.6143199729144
 42
-0.0157521173632038
 10
-52.22393797302607
 20
449.5740486587114
 42
-0.0073640874174249
 10
-57.78180151673836
 20
445.6244245179918
 42
-0.0194185739168057
 10
-59.96737248161185
 20
444.2411487303346
 42
-0.0567960585128809
 10
-67.26049258025409
 20
441.0542636543199
  0
HATCH
  5
189A
330
1F
100
AcDbEntity
  8
STAVBA OBRYS
100
AcDbHatch
 10
0.0
 20
0.0
 30
0.0
210
0.0
220
0.0
230
1.0
  2
AR-CONC
 70
     0
 71
     0
 91
        1
 92
        1
 93
        4
 72
     1
 10
263.7164499103903
 20
396.9425300222269
 11
-87.20216601779862
 21
396.9425300222269
 72
     1
 10
-87.20216601779862
 20
396.9425300222269
 11
-87.20216601779862
 21
436.9425300222268
 72
     1
 10
-87.20216601779862
 20
436.9425300222268
 11
263.7164499103903
 21
436.9425300222268
 72
     1
 10
263.7164499103903
 20
436.9425300222268
 11
263.7164499103903
 21
396.9425300222269
 97
        0
 75
     0
 76
     1
 52
0.0
 41
0.25
 77
     0
 78
    13
 53
50.0
 43
-23423.21251733595
 44
-2085.129482441834
 45
45.546167249001
 46
-3.984771384725771
 79
     2
 49
4.7625
 49
-52.3875
 53
355.0
 43
-23423.21251733595
 44
-2085.129482441834
 45
-8.810706493916747
 46
47.76416072054499
 79
     2
 49
3.81
 49
-41.90999999999999
 53
100.451
 43
-23419.41701733595
 44
-2085.461544941833
 45
36.73562541648981
 46
43.77917195507296
 79
     2
 49
4.0475
 49
-44.5225
 53
46.1842
 43
-23423.21251733595
 44
-2072.429482441834
 45
67.76976022303248
 46
-10.51058198318178
 79
     2
 49
7.143749999999999
 49
-78.58125
 53
96.63559999999998
 43
-23417.56504233595
 44
-2073.305357441834
 45
59.35105861655928
 46
61.8563889725123
 79
     2
 49
6.071249999999997
 49
-66.78374999999995
 53
351.184
 43
-23423.21251733595
 44
-2072.429482441834
 45
59.35115145348348
 46
61.85627946514942
 79
     2
 49
5.714999999999999
 49
-62.865
 53
21.0
 43
-23416.86251733595
 44
-2075.604482441834
 45
37.90371995884582
 46
-25.56637962919062
 79
     2
 49
4.7625
 49
-52.3875
 53
326.0
 43
-23416.86251733595
 44
-2075.604482441834
 45
15.45050708691176
 46
46.04699153057981
 79
     2
 49
3.81
 49
-41.90999999999999
 53
71.45140000000001
 43
-23413.70389233595
 44
-2077.735007441833
 45
53.35412269253112
 46
20.48071442901436
 79
     2
 49
4.0475
 49
-44.5225
 53
37.5
 43
-23423.21251733595
 44
-2085.129482441834
 45
0.7721508126479542
 46
21.13875971828827
 79
     6
 49
0.0
 49
-41.402
 49
0.0
 49
-42.545
 49
0.0
 49
-42.06875
 53
7.499999999999999
 43
-23423.21251733595
 44
-2085.129482441834
 45
16.70491562757643
 46
25.04514370452987
 79
     6
 49
0.0
 49
-24.25699999999999
 49
0.0
 49
-40.4495
 49
0.0
 49
-16.03375
 53
327.4999999999999
 43
-23437.37301733595
 44
-2085.129482441834
 45
33.89764879171784
 46
-1.432185998168366
 79
     6
 49
0.0
 49
-15.875
 49
0.0
 49
-49.53
 49
0.0
 49
-65.7225
 53
317.5
 43
-23443.72301733595
 44
-2085.129482441834
 45
37.03229534650451
 46
6.356622758333253
 79
     6
 49
0.0
 49
-20.6375
 49
0.0
 49
-32.893
 49
0.0
 49
-46.6725
 98
        1
 10
-23423.21251733595
 20
-2085.129482441834
  0
LWPOLYLINE
  5
189B
330
1F
100
AcDbEntity
  8
NOSNÉ KONSTRUKCE
100
AcDbPolyline
 90
        6
 70
     0
 43
0.0
 10
36.66171149554179
 20
219.5486724809947
 42
-0.0128837512779302
 10
39.99487631728811
 20
219.2638805207702
 42
-0.0351641677647434
 10
43.59858577162708
 20
218.6361207992471
 42
-0.0187319685742942
 10
55.35682311376991
 20
215.2521049182563
 42
-0.0582629403736403
 10
58.93665731270198
 20
213.5926050501752
 42
-0.2042445348716764
 10
84.19500550223643
 20
178.0151140188194
  0
LWPOLYLINE
  5
189C
330
1F
100
AcDbEntity
  8
NOSNÉ KONSTRUKCE
100
AcDbPolyline
 90
        3
 70
     0
 43
0.0
 10
43.16088106479696
 20
204.016089101768
 10
52.37691011531683
 20
224.0123415337606
 10
53.02230759065901
 20
228.0122791674752
  0
LWPOLYLINE
  5
189D
330
1F
100
AcDbEntity
  8
NOSNÉ KONSTRUKCE
100
AcDbPolyline
 90
        4
 70
     0
 43
0.0
 10
46.86154166643723
 20
228.0151140188194
 42
-0.006788460145482
 10
56.99040467800774
 20
226.0192707277732
 42
-0.0219777111230329
 10
60.50851793384322
 20
225.1131582257898
 42
-0.1401208794308004
 10
86.66171149554179
 20
197.3472033385573
  0
LWPOLYLINE
  5
189E
330
1F
100
AcDbEntity
  8
NOSNÉ KONSTRUKCE
100
AcDbPolyline
 90
        8
 70
     0
 43
0.0
 10
36.66171149554179
 20
210.9244571009534
 42
-0.0120721047703132
 10
38.39559963428587
 20
210.8554744109155
 42
-0.044358077361292
 10
41.09139965270265
 20
210.4598466762421
 42
-0.0188067511131767
 10
48.33362882800907
 20
208.4400232278589
 42
-0.0457786284636091
 10
51.18223921088906
 20
207.2320003382432
 42
-0.0295006114745606
 10
55.10913842429113
 20
204.8159398839438
 42
-0.0258674098621065
 10
59.25491850304502
 20
201.5832645699796
 42
-0.2409478365688615
 10
73.67946594801947
 20
178.0151140188194
 42
-0.0884720560394402
  0
LWPOLYLINE
  5
189F
330
1F
100
AcDbEntity
  8
NOSNÉ KONSTRUKCE
100
AcDbPolyline
 90
        3
 70
     0
 43
0.0
 10
42.17904219106026
 20
184.723511476523
 10
50.56278305902856
 20
201.4787290962507
 10
58.74408476012582
 20
209.6458337453754
  0
POLYLINE
  5
18A0
330
1F
100
AcDbEntity
  8
NOSNÉ KONSTRUKCE
100
AcDb2dPolyline
 66
     1
 10
0.0
 20
0.0
 30
0.0
  0
VERTEX
  5
18A1
330
18A0
100
AcDbEntity
  8
NOSNÉ KONSTRUKCE
100
AcDbVertex
100
AcDb2dVertex
 10
36.66171149554179
 20
195.1076198537597
 30
0.0
 42
-0.0072417954699014
  0
VERTEX
  5
18A2
330
18A0
100
AcDbEntity
  8
NOSNÉ KONSTRUKCE
100
AcDbVertex
100
AcDb2dVertex
 10
37.07311670681633
 20
195.052049485916
 30
0.0
 42
-0.0707158694326265
  0
VERTEX
  5
18A3
330
18A0
100
AcDbEntity
  8
NOSNÉ KONSTRUKCE
100
AcDbVertex
100
AcDb2dVertex
 10
39.00922015941
 20
194.5209229694959
 30
0.0
 42
-0.033952657250207
  0
VERTEX
  5
18A4
330
18A0
100
AcDbEntity
  8
NOSNÉ KONSTRUKCE
100
AcDbVertex
100
AcDb2dVertex
 10
43.36225788458364
 20
192.2722671300875
 30
0.0
 42
-0.0571374688189033
  0
VERTEX
  5
18A5
330
18A0
100
AcDbEntity
  8
NOSNÉ KONSTRUKCE
100
AcDbVertex
100
AcDb2dVertex
 10
45.66918216827002
 20
190.4861103702355
 30
0.0
 42
-0.0274923553235744
  0
VERTEX
  5
18A6
330
18A0
100
AcDbEntity
  8
NOSNÉ KONSTRUKCE
100
AcDbVertex
100
AcDb2dVertex
 10
48.05425749140454
 20
187.8888046396827
 30
0.0
 42
-0.0255412025538677
  0
VERTEX
  5
18A7
330
18A0
100
AcDbEntity
  8
NOSNÉ KONSTRUKCE
100
AcDbVertex
100
AcDb2dVertex
 10
50.31097116842397
 20
184.8373746019719
 30
0.0
 42
-0.0272796991712396
  0
VERTEX
  5
18A8
330
18A0
100
AcDbEntity
  8
NOSNÉ KONSTRUKCE
100
AcDbVertex
100
AcDb2dVertex
 10
52.72730705008621
 20
180.7243754487867
 30
0.0
 42
-0.056967459841729
  0
VERTEX
  5
18A9
330
18A0
100
AcDbEntity
  8
NOSNÉ KONSTRUKCE
100
AcDbVertex
100
AcDb2dVertex
 10
53.54004288528563
 20
178.5834281680549
 30
0.0
 42
-0.0373408083348504
  0
VERTEX
  5
18AA
330
18A0
100
AcDbEntity
  8
NOSNÉ KONSTRUKCE
100
AcDbVertex
100
AcDb2dVertex
 10
53.57920842623684
 20
178.3610737925814
 30
0.0
 42
-0.0052305969362967
  0
VERTEX
  5
18AB
330
18A0
100
AcDbEntity
  8
NOSNÉ KONSTRUKCE
100
AcDbVertex
100
AcDb2dVertex
 10
53.61016539314118
 20
178.0151140188213
 30
0.0
  0
SEQEND
  5
18AC
330
18A0
100
AcDbEntity
  8
NOSNÉ KONSTRUKCE
  0
POLYLINE
  5
18AD
330
1F
100
AcDbEntity
  8
NOSNÉ KONSTRUKCE
100
AcDb2dPolyline
 66
     1
 10
0.0
 20
0.0
 30
0.0
  0
VERTEX
  5
18AE
330
18AD
100
AcDbEntity
  8
NOSNÉ KONSTRUKCE
100
AcDbVertex
100
AcDb2dVertex
 10
36.66171149554179
 20
187.8795688330214
 30
0.0
 42
-0.0064239028828688
  0
VERTEX
  5
18AF
330
18AD
100
AcDbEntity
  8
NOSNÉ KONSTRUKCE
100
AcDbVertex
100
AcDb2dVertex
 10
36.8808251548919
 20
187.8407003928409
 30
0.0
 42
-0.0832048017309575
  0
VERTEX
  5
18B0
330
18AD
100
AcDbEntity
  8
NOSNÉ KONSTRUKCE
100
AcDbVertex
100
AcDb2dVertex
 10
39.21103873454672
 20
187.0565177901593
 30
0.0
 42
-0.0336767237692336
  0
VERTEX
  5
18B1
330
18AD
100
AcDbEntity
  8
NOSNÉ KONSTRUKCE
100
AcDbVertex
100
AcDb2dVertex
 10
41.9393132540074
 20
185.3537012312376
 30
0.0
 42
-0.0844635135812105
  0
VERTEX
  5
18B2
330
18AD
100
AcDbEntity
  8
NOSNÉ KONSTRUKCE
100
AcDbVertex
100
AcDb2dVertex
 10
42.84373485900255
 20
184.4338914713447
 30
0.0
 42
-0.0495829410719565
  0
VERTEX
  5
18B3
330
18AD
100
AcDbEntity
  8
NOSNÉ KONSTRUKCE
100
AcDbVertex
100
AcDb2dVertex
 10
43.82038436631524
 20
182.6852130339906
 30
0.0
 42
-0.0322692699774654
  0
VERTEX
  5
18B4
330
18AD
100
AcDbEntity
  8
NOSNÉ KONSTRUKCE
100
AcDbVertex
100
AcDb2dVertex
 10
44.86190786771589
 20
179.7938588528999
 30
0.0
 42
-0.0276160659512937
  0
VERTEX
  5
18B5
330
18AD
100
AcDbEntity
  8
NOSNÉ KONSTRUKCE
100
AcDbVertex
100
AcDb2dVertex
 10
45.05864329666041
 20
178.9382824146127
 30
0.0
 42
-0.0126891984598699
  0
VERTEX
  5
18B6
330
18AD
100
AcDbEntity
  8
NOSNÉ KONSTRUKCE
100
AcDbVertex
100
AcDb2dVertex
 10
45.19384568620194
 20
178.0151140188213
 30
0.0
  0
SEQEND
  5
18B7
330
18AD
100
AcDbEntity
  8
NOSNÉ KONSTRUKCE
  0
LWPOLYLINE
  5
18B8
330
1F
100
AcDbEntity
  8
NOSNÉ KONSTRUKCE
100
AcDbPolyline
 90
       10
 70
     0
 43
0.0
 10
36.66171149554179
 20
202.0573978774431
 42
-0.0168162630274194
 10
38.35274964766108
 20
201.9223722983792
 42
-0.0575155827655532
 10
41.45237430837847
 20
201.2423400180363
 42
-0.0310289133982999
 10
48.69740183302315
 20
198.2395386732081
 42
-0.0882970623535771
 10
50.93777088382307
 20
196.6023167531151
 42
-0.0171636441953577
 10
53.45168823906829
 20
193.7889526912571
 42
-0.0157521173632038
 10
55.98318429157484
 20
190.5500978542208
 42
-0.0073640874174249
 10
59.27158571731093
 20
185.9164484978995
 42
-0.0194185739168057
 10
60.42315471659208
 20
184.094405178223
 42
-0.0567960585128809
 10
63.07501892197001
 20
178.0151140188194
 42
-0.0229547400386702
  0
LWPOLYLINE
  5
18B9
330
1F
100
AcDbEntity
  8
NOSNÉ KONSTRUKCE
100
AcDbPolyline
 90
        2
 70
     0
 43
0.0
 10
74.94114293258212
 20
228.0151140188194
 42
-0.0463617997943816
 10
86.632188044435
 20
217.9257621631426
  0
LWPOLYLINE
  5
18BA
330
1F
100
AcDbEntity
  8
NOSNÉ KONSTRUKCE
100
AcDbPolyline
 90
        2
 70
     0
 43
0.0
 10
67.66468154466679
 20
225.2292610106946
 10
69.05862761247886
 20
228.0151140188194
  0
LWPOLYLINE
  5
18BB
330
1F
100
AcDbEntity
  8
NOSNÉ KONSTRUKCE
100
AcDbPolyline
 90
        2
 70
     0
 43
0.0
 10
86.51788180552216
 20
183.6271700369783
 10
86.66171149554179
 20
183.9392409704618
  0
LWPOLYLINE
  5
18BC
330
1F
100
AcDbEntity
  8
NOSNÉ KONSTRUKCE
100
AcDbPolyline
 90
        7
 70
     0
 43
0.0
 10
36.66171149554179
 20
182.5298824985024
 42
-0.0203924744732807
 10
37.67484152469592
 20
181.6277985140936
 42
-0.0273961979096945
 10
38.463017898722
 20
180.7779341638983
 42
-0.0243529190212958
 10
39.33677724338963
 20
179.6148136714786
 42
-0.0398020282482987
 10
39.77640598683615
 20
178.8398551339182
 42
-0.104168275620852
 10
39.86642244701329
 20
178.4534439975781
 42
-0.007272956268647
 10
39.88487579830803
 20
178.0151140188194
 42
-0.007272956268647
  0
LINE
  5
18BD
330
1F
100
AcDbEntity
  8
NOSNÉ KONSTRUKCE
100
AcDbLine
 10
36.66171149554179
 20
228.0151140188194
 30
0.0
 11
36.66171149554179
 21
178.0151140188194
 31
0.0
  0
LINE
  5
18BE
330
1F
100
AcDbEntity
  8
NOSNÉ KONSTRUKCE
100
AcDbLine
 10
36.66171149554179
 20
178.0151140188194
 30
0.0
 11
73.67946594801947
 21
178.0151140188194
 31
0.0
  0
LWPOLYLINE
  5
18BF
330
1F
100
AcDbEntity
  8
NOSNÉ KONSTRUKCE
100
AcDbPolyline
 90
        4
 70
     1
 43
0.0
 10
86.66171149554179
 20
228.0151140188194
 10
36.66171149554179
 20
228.0151140188194
 10
36.66171149554179
 20
178.0151140188194
 10
86.66171149554179
 20
178.0151140188194
  0
ENDSEC
  0
SECTION
  2
OBJECTS
  0
DICTIONARY
  5
C
330
0
100
AcDbDictionary
281
     1
  3
ACAD_GROUP
350
D
  3
ACAD_LAYOUT
350
1A
  3
ACAD_MLINESTYLE
350
17
  3
ACAD_PLOTSETTINGS
350
19
  3
ACAD_PLOTSTYLENAME
350
E
  0
DICTIONARY
  5
D
102
{ACAD_REACTORS
330
C
102
}
330
C
100
AcDbDictionary
281
     1
  0
DICTIONARY
  5
1A
102
{ACAD_REACTORS
330
C
102
}
330
C
100
AcDbDictionary
281
     1
  3
Model
350
22
  3
Rozvržení1
350
1E
  3
Rozvržení2
350
26
  0
DICTIONARY
  5
17
102
{ACAD_REACTORS
330
C
102
}
330
C
100
AcDbDictionary
281
     1
  3
Standard
350
18
  0
DICTIONARY
  5
19
102
{ACAD_REACTORS
330
C
102
}
330
C
100
AcDbDictionary
281
     1
  0
ACDBDICTIONARYWDFLT
  5
E
102
{ACAD_REACTORS
330
C
102
}
330
C
100
AcDbDictionary
281
     1
  3
Normal
350
F
100
AcDbDictionaryWithDefault
340
F
  0
LAYOUT
  5
22
102
{ACAD_REACTORS
330
1A
102
}
330
1A
100
AcDbPlotSettings
  1

  2
HP DeskJet 690C
  4

  6

 40
0.0
 41
0.0
 42
0.0
 43
0.0
 44
0.0
 45
0.0
 46
0.0
 47
0.0
 48
0.0
 49
0.0
140
0.0
141
0.0
142
1.0
143
1.0
 70
  1712
 72
     0
 73
     0
 74
     0
  7
monochrome.ctb
 75
     0
147
1.0
148
0.0
149
0.0
100
AcDbLayout
  1
Model
 70
     1
 71
     0
 10
0.0
 20
0.0
 11
12.0
 21
9.0
 12
0.0
 22
0.0
 32
0.0
 14
0.0
 24
0.0
 34
0.0
 15
0.0
 25
0.0
 35
0.0
146
0.0
 13
0.0
 23
0.0
 33
0.0
 16
1.0
 26
0.0
 36
0.0
 17
0.0
 27
1.0
 37
0.0
 76
     0
330
1F
  0
LAYOUT
  5
1E
102
{ACAD_REACTORS
330
1A
102
}
330
1A
100
AcDbPlotSettings
  1

  2
HP DeskJet 690C
  4

  6

 40
0.0
 41
0.0
 42
0.0
 43
0.0
 44
0.0
 45
0.0
 46
0.0
 47
0.0
 48
0.0
 49
0.0
140
0.0
141
0.0
142
1.0
143
1.0
 70
   688
 72
     0
 73
     0
 74
     5
  7
monochrome.ctb
 75
    16
147
1.0
148
0.0
149
0.0
100
AcDbLayout
  1
Rozvržení1
 70
     1
 71
     1
 10
0.0
 20
0.0
 11
420.0
 21
297.0
 12
0.0
 22
0.0
 32
0.0
 14
1.000000000000000E+20
 24
1.000000000000000E+20
 34
1.000000000000000E+20
 15
-1.000000000000000E+20
 25
-1.000000000000000E+20
 35
-1.000000000000000E+20
146
0.0
 13
0.0
 23
0.0
 33
0.0
 16
1.0
 26
0.0
 36
0.0
 17
0.0
 27
1.0
 37
0.0
 76
     0
330
1B
  0
LAYOUT
  5
26
102
{ACAD_REACTORS
330
1A
102
}
330
1A
100
AcDbPlotSettings
  1

  2
HP DeskJet 690C
  4

  6

 40
0.0
 41
0.0
 42
0.0
 43
0.0
 44
0.0
 45
0.0
 46
0.0
 47
0.0
 48
0.0
 49
0.0
140
0.0
141
0.0
142
1.0
143
1.0
 70
   688
 72
     0
 73
     0
 74
     5
  7
monochrome.ctb
 75
    16
147
1.0
148
0.0
149
0.0
100
AcDbLayout
  1
Rozvržení2
 70
     1
 71
     2
 10
0.0
 20
0.0
 11
12.0
 21
9.0
 12
0.0
 22
0.0
 32
0.0
 14
0.0
 24
0.0
 34
0.0
 15
0.0
 25
0.0
 35
0.0
146
0.0
 13
0.0
 23
0.0
 33
0.0
 16
1.0
 26
0.0
 36
0.0
 17
0.0
 27
1.0
 37
0.0
 76
     0
330
23
  0
MLINESTYLE
  5
18
102
{ACAD_REACTORS
330
17
102
}
330
17
100
AcDbMlineStyle
  2
STANDARD
 70
     0
  3

 62
   256
 51
90.0
 52
90.0
 71
     2
 49
0.5
 62
   256
  6
BYLAYER
 49
-0.5
 62
   256
  6
BYLAYER
  0
ACDBPLACEHOLDER
  5
F
102
{ACAD_REACTORS
330
E
102
}
330
E
  0
ENDSEC
  0
EOF
