  0
SECTION
  2
HEADER
  9
$ACADVER
  1
AC1015
  9
$ACADMAINTVER
 70
    10
  9
$DWGCODEPAGE
  3
ANSI_1250
  9
$INSBASE
 10
0.0
 20
0.0
 30
0.0
  9
$EXTMIN
 10
-124.9784047953038
 20
-100.0058406572941
 30
0.0
  9
$EXTMAX
 10
1199.275716517378
 20
465.5818883871017
 30
0.0
  9
$LIMMIN
 10
0.0
 20
0.0
  9
$LIMMAX
 10
420.0
 20
297.0
  9
$ORTHOMODE
 70
     0
  9
$REGENMODE
 70
     1
  9
$FILLMODE
 70
     1
  9
$QTEXTMODE
 70
     0
  9
$MIRRTEXT
 70
     1
  9
$LTSCALE
 40
1.0
  9
$ATTMODE
 70
     1
  9
$TEXTSIZE
 40
2.5
  9
$TRACEWID
 40
1.0
  9
$TEXTSTYLE
  7
Standard
  9
$CLAYER
  8
0
  9
$CELTYPE
  6
ByLayer
  9
$CECOLOR
 62
   256
  9
$CELTSCALE
 40
1.0
  9
$DISPSILH
 70
     0
  9
$DIMSCALE
 40
1.0
  9
$DIMASZ
 40
2.5
  9
$DIMEXO
 40
0.625
  9
$DIMDLI
 40
3.75
  9
$DIMRND
 40
0.0
  9
$DIMDLE
 40
0.0
  9
$DIMEXE
 40
1.25
  9
$DIMTP
 40
0.0
  9
$DIMTM
 40
0.0
  9
$DIMTXT
 40
2.5
  9
$DIMCEN
 40
2.5
  9
$DIMTSZ
 40
0.0
  9
$DIMTOL
 70
     0
  9
$DIMLIM
 70
     0
  9
$DIMTIH
 70
     0
  9
$DIMTOH
 70
     0
  9
$DIMSE1
 70
     0
  9
$DIMSE2
 70
     0
  9
$DIMTAD
 70
     1
  9
$DIMZIN
 70
     8
  9
$DIMBLK
  1

  9
$DIMASO
 70
     1
  9
$DIMSHO
 70
     1
  9
$DIMPOST
  1

  9
$DIMAPOST
  1

  9
$DIMALT
 70
     0
  9
$DIMALTD
 70
     3
  9
$DIMALTF
 40
0.03937007874016
  9
$DIMLFAC
 40
1.0
  9
$DIMTOFL
 70
     1
  9
$DIMTVP
 40
0.0
  9
$DIMTIX
 70
     0
  9
$DIMSOXD
 70
     0
  9
$DIMSAH
 70
     0
  9
$DIMBLK1
  1

  9
$DIMBLK2
  1

  9
$DIMSTYLE
  2
ISO-25
  9
$DIMCLRD
 70
     0
  9
$DIMCLRE
 70
     0
  9
$DIMCLRT
 70
     0
  9
$DIMTFAC
 40
1.0
  9
$DIMGAP
 40
0.625
  9
$DIMJUST
 70
     0
  9
$DIMSD1
 70
     0
  9
$DIMSD2
 70
     0
  9
$DIMTOLJ
 70
     0
  9
$DIMTZIN
 70
     8
  9
$DIMALTZ
 70
     0
  9
$DIMALTTZ
 70
     0
  9
$DIMUPT
 70
     0
  9
$DIMDEC
 70
     2
  9
$DIMTDEC
 70
     2
  9
$DIMALTU
 70
     2
  9
$DIMALTTD
 70
     3
  9
$DIMTXSTY
  7
Standard
  9
$DIMAUNIT
 70
     0
  9
$DIMADEC
 70
     0
  9
$DIMALTRND
 40
0.0
  9
$DIMAZIN
 70
     0
  9
$DIMDSEP
 70
    44
  9
$DIMATFIT
 70
     3
  9
$DIMFRAC
 70
     0
  9
$DIMLDRBLK
  1

  9
$DIMLUNIT
 70
     2
  9
$DIMLWD
 70
    -2
  9
$DIMLWE
 70
    -2
  9
$DIMTMOVE
 70
     0
  9
$LUNITS
 70
     2
  9
$LUPREC
 70
     4
  9
$SKETCHINC
 40
1.0
  9
$FILLETRAD
 40
10.0
  9
$AUNITS
 70
     0
  9
$AUPREC
 70
     0
  9
$MENU
  1
.
  9
$ELEVATION
 40
0.0
  9
$PELEVATION
 40
0.0
  9
$THICKNESS
 40
0.0
  9
$LIMCHECK
 70
     0
  9
$CHAMFERA
 40
10.0
  9
$CHAMFERB
 40
10.0
  9
$CHAMFERC
 40
20.0
  9
$CHAMFERD
 40
0.0
  9
$SKPOLY
 70
     0
  9
$TDCREATE
 40
2452333.440837384
  9
$TDUCREATE
 40
2452333.399170718
  9
$TDUPDATE
 40
2452653.352194907
  9
$TDUUPDATE
 40
2452653.310528240
  9
$TDINDWG
 40
0.0026026736
  9
$TDUSRTIMER
 40
0.0026014005
  9
$USRTIMER
 70
     1
  9
$ANGBASE
 50
0.0
  9
$ANGDIR
 70
     0
  9
$PDMODE
 70
     0
  9
$PDSIZE
 40
0.0
  9
$PLINEWID
 40
0.0
  9
$SPLFRAME
 70
     0
  9
$SPLINETYPE
 70
     6
  9
$SPLINESEGS
 70
     8
  9
$HANDSEED
  5
D7D
  9
$SURFTAB1
 70
     6
  9
$SURFTAB2
 70
     6
  9
$SURFTYPE
 70
     6
  9
$SURFU
 70
     6
  9
$SURFV
 70
     6
  9
$UCSBASE
  2

  9
$UCSNAME
  2

  9
$UCSORG
 10
0.0
 20
0.0
 30
0.0
  9
$UCSXDIR
 10
1.0
 20
0.0
 30
0.0
  9
$UCSYDIR
 10
0.0
 20
1.0
 30
0.0
  9
$UCSORTHOREF
  2

  9
$UCSORTHOVIEW
 70
     0
  9
$UCSORGTOP
 10
0.0
 20
0.0
 30
0.0
  9
$UCSORGBOTTOM
 10
0.0
 20
0.0
 30
0.0
  9
$UCSORGLEFT
 10
0.0
 20
0.0
 30
0.0
  9
$UCSORGRIGHT
 10
0.0
 20
0.0
 30
0.0
  9
$UCSORGFRONT
 10
0.0
 20
0.0
 30
0.0
  9
$UCSORGBACK
 10
0.0
 20
0.0
 30
0.0
  9
$PUCSBASE
  2

  9
$PUCSNAME
  2

  9
$PUCSORG
 10
0.0
 20
0.0
 30
0.0
  9
$PUCSXDIR
 10
1.0
 20
0.0
 30
0.0
  9
$PUCSYDIR
 10
0.0
 20
1.0
 30
0.0
  9
$PUCSORTHOREF
  2

  9
$PUCSORTHOVIEW
 70
     0
  9
$PUCSORGTOP
 10
0.0
 20
0.0
 30
0.0
  9
$PUCSORGBOTTOM
 10
0.0
 20
0.0
 30
0.0
  9
$PUCSORGLEFT
 10
0.0
 20
0.0
 30
0.0
  9
$PUCSORGRIGHT
 10
0.0
 20
0.0
 30
0.0
  9
$PUCSORGFRONT
 10
0.0
 20
0.0
 30
0.0
  9
$PUCSORGBACK
 10
0.0
 20
0.0
 30
0.0
  9
$USERI1
 70
     0
  9
$USERI2
 70
     0
  9
$USERI3
 70
     0
  9
$USERI4
 70
     0
  9
$USERI5
 70
     0
  9
$USERR1
 40
0.0
  9
$USERR2
 40
0.0
  9
$USERR3
 40
0.0
  9
$USERR4
 40
0.0
  9
$USERR5
 40
0.0
  9
$WORLDVIEW
 70
     1
  9
$SHADEDGE
 70
     3
  9
$SHADEDIF
 70
    70
  9
$TILEMODE
 70
     1
  9
$MAXACTVP
 70
    64
  9
$PINSBASE
 10
0.0
 20
0.0
 30
0.0
  9
$PLIMCHECK
 70
     0
  9
$PEXTMIN
 10
1.000000000000000E+20
 20
1.000000000000000E+20
 30
1.000000000000000E+20
  9
$PEXTMAX
 10
-1.000000000000000E+20
 20
-1.000000000000000E+20
 30
-1.000000000000000E+20
  9
$PLIMMIN
 10
0.0
 20
0.0
  9
$PLIMMAX
 10
420.0
 20
297.0
  9
$UNITMODE
 70
     0
  9
$VISRETAIN
 70
     1
  9
$PLINEGEN
 70
     0
  9
$PSLTSCALE
 70
     1
  9
$TREEDEPTH
 70
  3020
  9
$CMLSTYLE
  2
Standard
  9
$CMLJUST
 70
     0
  9
$CMLSCALE
 40
20.0
  9
$PROXYGRAPHICS
 70
     1
  9
$MEASUREMENT
 70
     1
  9
$CELWEIGHT
370
    -1
  9
$ENDCAPS
280
     0
  9
$JOINSTYLE
280
     0
  9
$LWDISPLAY
290
     0
  9
$INSUNITS
 70
     4
  9
$HYPERLINKBASE
  1

  9
$STYLESHEET
  1

  9
$XEDIT
290
     1
  9
$CEPSNTYPE
380
     0
  9
$PSTYLEMODE
290
     1
  9
$FINGERPRINTGUID
  2
{E0A79919-1611-4D48-A6CF-929FE36A9D62}
  9
$VERSIONGUID
  2
{FD5F22E1-D49A-435C-A3B1-0B2A005F411C}
  9
$EXTNAMES
290
     1
  9
$PSVPSCALE
 40
0.0
  9
$OLESTARTUP
290
     0
  0
ENDSEC
  0
SECTION
  2
CLASSES
  0
CLASS
  1
ACDBDICTIONARYWDFLT
  2
AcDbDictionaryWithDefault
  3
AutoCAD 2000
 90
        0
280
     0
281
     0
  0
CLASS
  1
ACDBPLACEHOLDER
  2
AcDbPlaceHolder
  3
AutoCAD 2000
 90
        0
280
     0
281
     0
  0
CLASS
  1
LAYOUT
  2
AcDbLayout
  3
AutoCAD 2000
 90
        0
280
     0
281
     0
  0
ENDSEC
  0
SECTION
  2
TABLES
  0
TABLE
  2
VPORT
  5
8
330
0
100
AcDbSymbolTable
 70
     2
  0
VPORT
  5
D7C
330
8
100
AcDbSymbolTableRecord
100
AcDbViewportTableRecord
  2
*Active
 70
     0
 10
0.0
 20
0.0
 11
1.0
 21
1.0
 12
546.2462538750803
 22
175.5338465586917
 13
0.0
 23
0.0
 14
10.0
 24
10.0
 15
10.0
 25
10.0
 16
0.0
 26
0.0
 36
1.0
 17
0.0
 27
0.0
 37
0.0
 40
698.5762249813674
 41
1.974409448818897
 42
50.0
 43
0.0
 44
0.0
 50
0.0
 51
0.0
 71
     0
 72
   100
 73
     1
 74
     3
 75
     0
 76
     0
 77
     0
 78
     0
281
     0
 65
     1
110
0.0
120
0.0
130
0.0
111
1.0
121
0.0
131
0.0
112
0.0
122
1.0
132
0.0
 79
     0
146
0.0
  0
ENDTAB
  0
TABLE
  2
LTYPE
  5
5
330
0
100
AcDbSymbolTable
 70
     5
  0
LTYPE
  5
14
330
5
100
AcDbSymbolTableRecord
100
AcDbLinetypeTableRecord
  2
ByBlock
 70
     0
  3

 72
    65
 73
     0
 40
0.0
  0
LTYPE
  5
15
330
5
100
AcDbSymbolTableRecord
100
AcDbLinetypeTableRecord
  2
ByLayer
 70
     0
  3

 72
    65
 73
     0
 40
0.0
  0
LTYPE
  5
16
330
5
100
AcDbSymbolTableRecord
100
AcDbLinetypeTableRecord
  2
Continuous
 70
     0
  3
Solid line
 72
    65
 73
     0
 40
0.0
  0
LTYPE
  5
33
330
5
100
AcDbSymbolTableRecord
100
AcDbLinetypeTableRecord
  2
DASHED
 70
     0
  3
Dashed __ __ __ __ __ __ __ __ __ __ __ __ __ _
 72
    65
 73
     2
 40
19.04999999999999
 49
12.7
 74
     0
 49
-6.349999999999999
 74
     0
  0
LTYPE
  5
34
330
5
100
AcDbSymbolTableRecord
100
AcDbLinetypeTableRecord
  2
DASHDOT2
 70
     0
  3
Dash dot (.5x) _._._._._._._._._._._._._._._.
 72
    65
 73
     4
 40
12.7
 49
6.349999999999999
 74
     0
 49
-3.174999999999999
 74
     0
 49
0.0
 74
     0
 49
-3.174999999999999
 74
     0
  0
LTYPE
  5
35
330
5
100
AcDbSymbolTableRecord
100
AcDbLinetypeTableRecord
  2
CIKCAK
 70
     0
  3
Cik-cak /\/\/\/\/\/\/\/\/\/\/\/\/\/\/\/\/\/\/\/
 72
    65
 73
     4
 40
20.32254
 49
0.00254
 74
     0
 49
-5.08
 74
     4
 75
   131
340
3E
 46
5.08
 50
0.0
 44
-5.08
 45
0.0
 49
-10.16
 74
     4
 75
   131
340
3E
 46
5.08
 50
180.0
 44
5.08
 45
0.0
 49
-5.08
 74
     0
  0
LTYPE
  5
36
330
5
100
AcDbSymbolTableRecord
100
AcDbLinetypeTableRecord
  2
IZOLACE
 70
     0
  3
Izolace SSSSSSSSSSSSSSSSSSSSSSSSSSSSSSSSSSSSSSS
 72
    65
 73
     4
 40
10.16253999999999
 49
0.00254
 74
     0
 49
-2.54
 74
     4
 75
   134
340
3E
 46
2.54
 50
0.0
 44
-2.54
 45
0.0
 49
-5.08
 74
     4
 75
   134
340
3E
 46
2.54
 50
180.0
 44
2.54
 45
0.0
 49
-2.54
 74
     0
  0
ENDTAB
  0
TABLE
  2
LAYER
  5
2
330
0
100
AcDbSymbolTable
 70
     7
  0
LAYER
  5
10
330
2
100
AcDbSymbolTableRecord
100
AcDbLayerTableRecord
  2
0
 70
     0
 62
     7
  6
Continuous
370
    -3
390
F
  0
LAYER
  5
37
330
2
100
AcDbSymbolTableRecord
100
AcDbLayerTableRecord
  2
POPIS
 70
     0
 62
    30
  6
Continuous
370
    -3
390
F
  0
LAYER
  5
38
330
2
100
AcDbSymbolTableRecord
100
AcDbLayerTableRecord
  2
SPOJOVACÍ
 70
     0
 62
   180
  6
Continuous
370
    -3
390
F
  0
LAYER
  5
39
330
2
100
AcDbSymbolTableRecord
100
AcDbLayerTableRecord
  2
CETRIS
 70
     0
 62
     1
  6
Continuous
370
    -3
390
F
  0
LAYER
  5
3A
330
2
100
AcDbSymbolTableRecord
100
AcDbLayerTableRecord
  2
NOSNÉ KONSTRUKCE
 70
     0
 62
    33
  6
Continuous
370
    -3
390
F
  0
LAYER
  5
3B
330
2
100
AcDbSymbolTableRecord
100
AcDbLayerTableRecord
  2
izolace
 70
     0
 62
    73
  6
Continuous
370
    -3
390
F
  0
LAYER
  5
3C
330
2
100
AcDbSymbolTableRecord
100
AcDbLayerTableRecord
  2
STAVBA OBRYS
 70
     0
 62
     6
  6
Continuous
370
    -3
390
F
  0
ENDTAB
  0
TABLE
  2
STYLE
  5
3
330
0
100
AcDbSymbolTable
 70
     3
  0
STYLE
  5
11
330
3
100
AcDbSymbolTableRecord
100
AcDbTextStyleTableRecord
  2
Standard
 70
     0
 40
0.0
 41
1.0
 50
0.0
 71
     0
 42
2.5
  3
txt
  4

  0
STYLE
  5
3D
330
3
100
AcDbSymbolTableRecord
100
AcDbTextStyleTableRecord
  2
SIMPLEX7
 70
     0
 40
0.0
 41
0.85
 50
0.0
 71
     0
 42
102.0
  3

  4

1001
ACAD
1000
Arial CE
1071
    60962
  0
STYLE
  5
3E
330
3
100
AcDbSymbolTableRecord
100
AcDbTextStyleTableRecord
  2

 70
     1
 40
0.0
 41
1.0
 50
0.0
 71
     0
 42
2.5
  3
ltypeshp.shx
  4

  0
ENDTAB
  0
TABLE
  2
VIEW
  5
6
330
0
100
AcDbSymbolTable
 70
     0
  0
ENDTAB
  0
TABLE
  2
UCS
  5
7
330
0
100
AcDbSymbolTable
 70
     0
  0
ENDTAB
  0
TABLE
  2
APPID
  5
9
330
0
100
AcDbSymbolTable
 70
     1
  0
APPID
  5
12
330
9
100
AcDbSymbolTableRecord
100
AcDbRegAppTableRecord
  2
ACAD
 70
     0
  0
ENDTAB
  0
TABLE
  2
DIMSTYLE
  5
A
330
0
100
AcDbSymbolTable
 70
     1
100
AcDbDimStyleTable
 71
     0
  0
DIMSTYLE
105
27
330
A
100
AcDbSymbolTableRecord
100
AcDbDimStyleTableRecord
  2
ISO-25
 70
     0
 41
2.5
 42
0.625
 43
3.75
 44
1.25
 73
     0
 74
     0
 77
     1
 78
     8
140
2.5
141
2.5
143
0.03937007874016
147
0.625
171
     3
172
     1
271
     2
272
     2
274
     3
278
    44
283
     0
284
     8
340
11
  0
ENDTAB
  0
TABLE
  2
BLOCK_RECORD
  5
1
330
0
100
AcDbSymbolTable
 70
     2
  0
BLOCK_RECORD
  5
1F
330
1
100
AcDbSymbolTableRecord
100
AcDbBlockTableRecord
  2
*Model_Space
340
22
  0
BLOCK_RECORD
  5
1B
330
1
100
AcDbSymbolTableRecord
100
AcDbBlockTableRecord
  2
*Paper_Space
340
1E
  0
BLOCK_RECORD
  5
23
330
1
100
AcDbSymbolTableRecord
100
AcDbBlockTableRecord
  2
*Paper_Space0
340
26
  0
BLOCK_RECORD
  5
2B
330
1
100
AcDbSymbolTableRecord
100
AcDbBlockTableRecord
  2
E_PUNKT
340
0
102
{BLKREFS
331
D57
331
D59
331
D5F
331
D64
331
D65
331
D67
331
D6D
102
}
  0
ENDTAB
  0
ENDSEC
  0
SECTION
  2
BLOCKS
  0
BLOCK
  5
20
330
1F
100
AcDbEntity
  8
0
100
AcDbBlockBegin
  2
*Model_Space
 70
     0
 10
0.0
 20
0.0
 30
0.0
  3
*Model_Space
  1

  0
ENDBLK
  5
21
330
1F
100
AcDbEntity
  8
0
100
AcDbBlockEnd
  0
BLOCK
  5
1C
330
1B
100
AcDbEntity
 67
     1
  8
0
100
AcDbBlockBegin
  2
*Paper_Space
 70
     0
 10
0.0
 20
0.0
 30
0.0
  3
*Paper_Space
  1

  0
ENDBLK
  5
1D
330
1B
100
AcDbEntity
 67
     1
  8
0
100
AcDbBlockEnd
  0
BLOCK
  5
24
330
23
100
AcDbEntity
  8
0
100
AcDbBlockBegin
  2
*Paper_Space0
 70
     0
 10
0.0
 20
0.0
 30
0.0
  3
*Paper_Space0
  1

  0
ENDBLK
  5
25
330
23
100
AcDbEntity
  8
0
100
AcDbBlockEnd
  0
BLOCK
  5
2D
330
2B
100
AcDbEntity
  8
0
100
AcDbBlockBegin
  2
E_PUNKT
 70
     0
 10
0.0
 20
0.0
 30
0.0
  3
E_PUNKT
  1

  0
LWPOLYLINE
  5
2C
330
2B
100
AcDbEntity
  8
POPIS
100
AcDbPolyline
 90
        2
 70
     1
 43
2.5
 10
1.27761037562675
 20
0.0290683308725193
 42
-1.0
 10
-1.222389624373249
 20
0.0290683308725193
 42
-1.0
  0
ENDBLK
  5
2E
330
2B
100
AcDbEntity
  8
0
100
AcDbBlockEnd
  0
ENDSEC
  0
SECTION
  2
ENTITIES
  0
LINE
  5
A8C
330
1F
100
AcDbEntity
  8
izolace
  6
IZOLACE
 48
1.5
100
AcDbLine
 10
566.2647375713674
 20
49.28816414852389
 30
0.0
 11
627.4113470108128
 21
49.30913973516197
 31
0.0
  0
LINE
  5
A8D
330
1F
100
AcDbEntity
  8
SPOJOVACÍ
  6
DASHED
100
AcDbLine
 10
110.4134106001325
 20
45.99873094588855
 30
0.0
 11
152.9986146911793
 21
45.99873094588946
 31
0.0
  0
LINE
  5
A8E
330
1F
100
AcDbEntity
  8
SPOJOVACÍ
  6
DASHED
100
AcDbLine
 10
110.4134106001289
 20
53.0496637928374
 30
0.0
 11
152.9986146911793
 21
53.0496637928374
 31
0.0
  0
LINE
  5
A8F
330
1F
100
AcDbEntity
  8
SPOJOVACÍ
  6
Continuous
100
AcDbLine
 10
111.4076837330936
 20
51.92240276437513
 30
0.0
 11
109.7949071498475
 21
47.12599196917034
 31
0.0
  0
LINE
  5
A90
330
1F
100
AcDbEntity
  8
SPOJOVACÍ
  6
Continuous
100
AcDbLine
 10
110.7005771736691
 20
51.92240276437513
 30
0.0
 11
109.0878005904265
 21
47.12599196917034
 31
0.0
  0
LINE
  5
A91
330
1F
100
AcDbEntity
  8
SPOJOVACÍ
  6
Continuous
100
AcDbLine
 10
109.5356715157464
 20
46.6781210464398
 30
0.0
 11
109.7949071498475
 21
47.12599196917034
 31
0.0
  0
LINE
  5
A92
330
1F
100
AcDbEntity
  8
SPOJOVACÍ
  6
Continuous
100
AcDbLine
 10
109.5356715157464
 20
46.6781210464398
 30
0.0
 11
109.0878005904265
 21
47.12599196917034
 31
0.0
  0
LINE
  5
A93
330
1F
100
AcDbEntity
  8
SPOJOVACÍ
  6
Continuous
100
AcDbLine
 10
110.9587096772044
 20
52.37027369228252
 30
0.0
 11
111.4076837330936
 21
51.92240276437513
 31
0.0
  0
LINE
  5
A94
330
1F
100
AcDbEntity
  8
SPOJOVACÍ
  6
Continuous
100
AcDbLine
 10
110.9587096772044
 20
52.37027369228252
 30
0.0
 11
110.7005771736691
 21
51.92240276437513
 31
0.0
  0
LINE
  5
A95
330
1F
100
AcDbEntity
  8
SPOJOVACÍ
  6
Continuous
100
AcDbLine
 10
110.9587096772044
 20
52.37027369228252
 30
0.0
 11
109.5356715157464
 21
46.6781210464398
 31
0.0
  0
LINE
  5
A96
330
1F
100
AcDbEntity
  8
SPOJOVACÍ
  6
Continuous
100
AcDbLine
 10
108.0116938188435
 20
51.92240276437513
 30
0.0
 11
106.3989172355974
 21
47.12599196917034
 31
0.0
  0
LINE
  5
A97
330
1F
100
AcDbEntity
  8
SPOJOVACÍ
  6
Continuous
100
AcDbLine
 10
107.304587259419
 20
51.92240276437513
 30
0.0
 11
105.6918106761764
 21
47.12599196917034
 31
0.0
  0
LINE
  5
A98
330
1F
100
AcDbEntity
  8
SPOJOVACÍ
  6
Continuous
100
AcDbLine
 10
106.1396816014963
 20
46.6781210464398
 30
0.0
 11
106.3989172355974
 21
47.12599196917034
 31
0.0
  0
LINE
  5
A99
330
1F
100
AcDbEntity
  8
SPOJOVACÍ
  6
Continuous
100
AcDbLine
 10
106.1396816014963
 20
46.6781210464398
 30
0.0
 11
105.6918106761764
 21
47.12599196917034
 31
0.0
  0
LINE
  5
A9A
330
1F
100
AcDbEntity
  8
SPOJOVACÍ
  6
Continuous
100
AcDbLine
 10
107.5627197629543
 20
52.37027369228252
 30
0.0
 11
108.0116938188435
 21
51.92240276437513
 31
0.0
  0
LINE
  5
A9B
330
1F
100
AcDbEntity
  8
SPOJOVACÍ
  6
Continuous
100
AcDbLine
 10
107.5627197629543
 20
52.37027369228252
 30
0.0
 11
107.304587259419
 21
51.92240276437513
 31
0.0
  0
LINE
  5
A9C
330
1F
100
AcDbEntity
  8
SPOJOVACÍ
  6
Continuous
100
AcDbLine
 10
107.5627197629543
 20
52.37027369228252
 30
0.0
 11
106.1396816014963
 21
46.6781210464398
 31
0.0
  0
LWPOLYLINE
  5
A9D
330
1F
100
AcDbEntity
  8
NOSNÉ KONSTRUKCE
100
AcDbPolyline
 90
        4
 70
     1
 43
0.0
 10
156.4526681155908
 20
24.14758319649917
 10
156.4526681155908
 20
74.14758319649917
 10
106.4526681155908
 20
74.14758319649917
 10
106.4526681155908
 20
24.14758319649917
  0
LWPOLYLINE
  5
A9E
330
1F
100
AcDbEntity
  8
NOSNÉ KONSTRUKCE
100
AcDbPolyline
 90
        2
 70
     0
 43
0.0
 10
156.4526681155908
 20
35.86815175945884
 42
-0.0463617997943816
 10
146.363316259914
 20
24.17710664760687
  0
LWPOLYLINE
  5
A9F
330
1F
100
AcDbEntity
  8
NOSNÉ KONSTRUKCE
100
AcDbPolyline
 90
        2
 70
     0
 43
0.0
 10
153.666815107466
 20
43.14461314737508
 10
156.4526681155908
 20
41.75066707956211
  0
LWPOLYLINE
  5
AA0
330
1F
100
AcDbEntity
  8
NOSNÉ KONSTRUKCE
100
AcDbPolyline
 90
        3
 70
     0
 43
0.0
 10
132.4536431985394
 20
67.648413627244
 10
152.449895630532
 20
58.43238457672413
 10
156.4498332642466
 20
57.78698710138195
  0
LWPOLYLINE
  5
AA1
330
1F
100
AcDbEntity
  8
NOSNÉ KONSTRUKCE
100
AcDbPolyline
 90
        7
 70
     0
 43
0.0
 10
110.9674365952738
 20
74.14758319649917
 42
-0.0203924744732807
 10
110.065352610865
 20
73.13445316734505
 42
-0.0273961979096945
 10
109.2154882606697
 20
72.34627679331897
 42
-0.0243529190212958
 10
108.05236776825
 20
71.47251744865133
 42
-0.0398020282482987
 10
107.2774092306896
 20
71.03288870520481
 42
-0.104168275620852
 10
106.8909980943495
 20
70.94287224502767
 42
-0.007272956268647
 10
106.4526681155908
 20
70.92441889373294
 42
-0.007272956268647
  0
POLYLINE
  5
AA2
330
1F
100
AcDbEntity
  8
NOSNÉ KONSTRUKCE
100
AcDb2dPolyline
 66
     1
 10
0.0
 20
0.0
 30
0.0
  0
VERTEX
  5
AA3
330
AA2
100
AcDbEntity
  8
NOSNÉ KONSTRUKCE
100
AcDbVertex
100
AcDb2dVertex
 10
123.5451739505293
 20
74.14758319649735
 30
0.0
 42
-0.0072417954699014
  0
VERTEX
  5
AA4
330
AA2
100
AcDbEntity
  8
NOSNÉ KONSTRUKCE
100
AcDbVertex
100
AcDb2dVertex
 10
123.4896035826856
 20
73.73617798522281
 30
0.0
 42
-0.0707158694326265
  0
VERTEX
  5
AA5
330
AA2
100
AcDbEntity
  8
NOSNÉ KONSTRUKCE
100
AcDbVertex
100
AcDb2dVertex
 10
122.9584770662655
 20
71.80007453262914
 30
0.0
 42
-0.033952657250207
  0
VERTEX
  5
AA6
330
AA2
100
AcDbEntity
  8
NOSNÉ KONSTRUKCE
100
AcDbVertex
100
AcDb2dVertex
 10
120.7098212268571
 20
67.4470368074555
 30
0.0
 42
-0.0571374688189033
  0
VERTEX
  5
AA7
330
AA2
100
AcDbEntity
  8
NOSNÉ KONSTRUKCE
100
AcDbVertex
100
AcDb2dVertex
 10
118.9236644670051
 20
65.14011252376912
 30
0.0
 42
-0.0274923553235744
  0
VERTEX
  5
AA8
330
AA2
100
AcDbEntity
  8
NOSNÉ KONSTRUKCE
100
AcDbVertex
100
AcDb2dVertex
 10
116.3263587364523
 20
62.7550372006346
 30
0.0
 42
-0.0255412025538677
  0
VERTEX
  5
AA9
330
AA2
100
AcDbEntity
  8
NOSNÉ KONSTRUKCE
100
AcDbVertex
100
AcDb2dVertex
 10
113.2749286987415
 20
60.49832352361517
 30
0.0
 42
-0.0272796991712396
  0
VERTEX
  5
AAA
330
AA2
100
AcDbEntity
  8
NOSNÉ KONSTRUKCE
100
AcDbVertex
100
AcDb2dVertex
 10
109.1619295455563
 20
58.08198764195293
 30
0.0
 42
-0.056967459841729
  0
VERTEX
  5
AAB
330
AA2
100
AcDbEntity
  8
NOSNÉ KONSTRUKCE
100
AcDbVertex
100
AcDb2dVertex
 10
107.0209822648245
 20
57.26925180675351
 30
0.0
 42
-0.0373408083348504
  0
VERTEX
  5
AAC
330
AA2
100
AcDbEntity
  8
NOSNÉ KONSTRUKCE
100
AcDbVertex
100
AcDb2dVertex
 10
106.7986278893509
 20
57.2300862658023
 30
0.0
 42
-0.0052305969362967
  0
VERTEX
  5
AAD
330
AA2
100
AcDbEntity
  8
NOSNÉ KONSTRUKCE
100
AcDbVertex
100
AcDb2dVertex
 10
106.4526681155908
 20
57.19912929889796
 30
0.0
  0
SEQEND
  5
AAE
330
AA2
100
AcDbEntity
  8
NOSNÉ KONSTRUKCE
  0
POLYLINE
  5
AAF
330
1F
100
AcDbEntity
  8
NOSNÉ KONSTRUKCE
100
AcDb2dPolyline
 66
     1
 10
0.0
 20
0.0
 30
0.0
  0
VERTEX
  5
AB0
330
AAF
100
AcDbEntity
  8
NOSNÉ KONSTRUKCE
100
AcDbVertex
100
AcDb2dVertex
 10
116.317122929791
 20
74.14758319649735
 30
0.0
 42
-0.0064239028828688
  0
VERTEX
  5
AB1
330
AAF
100
AcDbEntity
  8
NOSNÉ KONSTRUKCE
100
AcDbVertex
100
AcDb2dVertex
 10
116.2782544896105
 20
73.92846953714723
 30
0.0
 42
-0.0832048017309575
  0
VERTEX
  5
AB2
330
AAF
100
AcDbEntity
  8
NOSNÉ KONSTRUKCE
100
AcDbVertex
100
AcDb2dVertex
 10
115.4940718869289
 20
71.59825595749243
 30
0.0
 42
-0.0336767237692336
  0
VERTEX
  5
AB3
330
AAF
100
AcDbEntity
  8
NOSNÉ KONSTRUKCE
100
AcDbVertex
100
AcDb2dVertex
 10
113.7912553280072
 20
68.86998143803174
 30
0.0
 42
-0.0844635135812105
  0
VERTEX
  5
AB4
330
AAF
100
AcDbEntity
  8
NOSNÉ KONSTRUKCE
100
AcDbVertex
100
AcDb2dVertex
 10
112.8714455681143
 20
67.96555983303659
 30
0.0
 42
-0.0495829410719565
  0
VERTEX
  5
AB5
330
AAF
100
AcDbEntity
  8
NOSNÉ KONSTRUKCE
100
AcDbVertex
100
AcDb2dVertex
 10
111.1227671307602
 20
66.9889103257239
 30
0.0
 42
-0.0322692699774654
  0
VERTEX
  5
AB6
330
AAF
100
AcDbEntity
  8
NOSNÉ KONSTRUKCE
100
AcDbVertex
100
AcDb2dVertex
 10
108.2314129496695
 20
65.94738682432325
 30
0.0
 42
-0.0276160659512937
  0
VERTEX
  5
AB7
330
AAF
100
AcDbEntity
  8
NOSNÉ KONSTRUKCE
100
AcDbVertex
100
AcDb2dVertex
 10
107.3758365113823
 20
65.75065139537873
 30
0.0
 42
-0.0126891984598699
  0
VERTEX
  5
AB8
330
AAF
100
AcDbEntity
  8
NOSNÉ KONSTRUKCE
100
AcDbVertex
100
AcDb2dVertex
 10
106.4526681155908
 20
65.6154490058372
 30
0.0
  0
SEQEND
  5
AB9
330
AAF
100
AcDbEntity
  8
NOSNÉ KONSTRUKCE
  0
LWPOLYLINE
  5
ABA
330
1F
100
AcDbEntity
  8
NOSNÉ KONSTRUKCE
100
AcDbPolyline
 90
       10
 70
     0
 43
0.0
 10
130.4949519742145
 20
74.14758319649917
 42
-0.0168162630274194
 10
130.3599263951506
 20
72.45654504437988
 42
-0.0575155827655532
 10
129.6798941148077
 20
69.3569203836625
 42
-0.0310289133982999
 10
126.6770927699796
 20
62.11189285901781
 42
-0.0882970623535771
 10
125.0398708498865
 20
59.87152380821789
 42
-0.0171636441953577
 10
122.2265067880285
 20
57.35760645297268
 42
-0.0157521173632038
 10
118.9876519509922
 20
54.82611040046612
 42
-0.0073640874174249
 10
114.3540025946709
 20
51.53770897473004
 42
-0.0194185739168057
 10
112.5319592749943
 20
50.38613997544889
 42
-0.0567960585128809
 10
106.4526681155908
 20
47.73427577007277
 42
-0.0229547400386702
  0
LWPOLYLINE
  5
ABB
330
1F
100
AcDbEntity
  8
NOSNÉ KONSTRUKCE
100
AcDbPolyline
 90
        8
 70
     0
 43
0.0
 10
139.3620111977248
 20
74.14758319649917
 42
-0.0120721047703132
 10
139.2930285076869
 20
72.41369505775509
 42
-0.044358077361292
 10
138.8974007730136
 20
69.71789503933831
 42
-0.0188067511131767
 10
136.8775773246303
 20
62.47566586403189
 42
-0.0457786284636091
 10
135.6695544350146
 20
59.6270554811519
 42
-0.0295006114745606
 10
133.2534939807152
 20
55.70015626774983
 42
-0.0258674098621065
 10
130.0208186667511
 20
51.55437618899594
 42
-0.2409478365688615
 10
106.4526681155908
 20
37.1298287440224
 42
-0.0884720560394402
  0
LWPOLYLINE
  5
ABC
330
1F
100
AcDbEntity
  8
NOSNÉ KONSTRUKCE
100
AcDbPolyline
 90
        3
 70
     0
 43
0.0
 10
113.1610655732944
 20
68.6302525009807
 10
129.9162831930221
 20
60.2465116330124
 10
138.0833878421468
 20
52.06520993191515
  0
LWPOLYLINE
  5
ABD
330
1F
100
AcDbEntity
  8
NOSNÉ KONSTRUKCE
100
AcDbPolyline
 90
        6
 70
     0
 43
0.0
 10
147.9862265777661
 20
74.14758319649917
 42
-0.0128837512779302
 10
147.7014346175416
 20
70.81441837475285
 42
-0.0351641677647434
 10
147.0736748960185
 20
67.21070892041388
 42
-0.0187319685742942
 10
143.6896590150278
 20
55.45247157827105
 42
-0.0582629403736403
 10
142.0301591469466
 20
51.87263737933898
 42
-0.2042445348716764
 10
106.4526681155908
 20
26.61428918980453
  0
LWPOLYLINE
  5
ABE
330
1F
100
AcDbEntity
  8
NOSNÉ KONSTRUKCE
100
AcDbPolyline
 90
        4
 70
     0
 43
0.0
 10
156.4526681155908
 20
63.94775302560282
 42
-0.006788460145482
 10
154.4568248245447
 20
53.81889001403322
 42
-0.0219777111230329
 10
153.5507123225612
 20
50.30077675819774
 42
-0.1401208794308004
 10
125.7847574353287
 20
24.14758319649917
  0
LWPOLYLINE
  5
ABF
330
1F
100
AcDbEntity
  8
NOSNÉ KONSTRUKCE
100
AcDbPolyline
 90
        7
 70
     0
 43
0.0
 10
490.7795060510503
 20
74.14758319649917
 42
-0.0203924744732807
 10
489.8774220666415
 20
73.13445316734505
 42
-0.0273961979096945
 10
489.0275577164462
 20
72.34627679331897
 42
-0.0243529190212958
 10
487.8644372240265
 20
71.47251744865133
 42
-0.0398020282482987
 10
487.0894786864661
 20
71.03288870520481
 42
-0.104168275620852
 10
486.703067550126
 20
70.94287224502767
 42
-0.007272956268647
 10
486.2647375713674
 20
70.92441889373294
 42
-0.007272956268647
  0
LWPOLYLINE
  5
AC0
330
1F
100
AcDbEntity
  8
NOSNÉ KONSTRUKCE
100
AcDbPolyline
 90
       10
 70
     0
 43
0.0
 10
510.307021429991
 20
74.14758319649917
 42
-0.0168162630274194
 10
510.1719958509271
 20
72.45654504437988
 42
-0.0575155827655532
 10
509.4919635705842
 20
69.3569203836625
 42
-0.0310289133982999
 10
506.4891622257561
 20
62.11189285901781
 42
-0.0882970623535771
 10
504.8519403056631
 20
59.87152380821789
 42
-0.0171636441953577
 10
502.0385762438051
 20
57.35760645297268
 42
-0.0157521173632038
 10
498.7997214067688
 20
54.82611040046612
 42
-0.0073640874174249
 10
494.1660720504475
 20
51.53770897473004
 42
-0.0194185739168057
 10
492.3440287307709
 20
50.38613997544889
 42
-0.0567960585128809
 10
486.2647375713674
 20
47.73427577007277
 42
-0.0229547400386702
  0
POLYLINE
  5
AC1
330
1F
100
AcDbEntity
  8
NOSNÉ KONSTRUKCE
100
AcDb2dPolyline
 66
     1
 10
0.0
 20
0.0
 30
0.0
  0
VERTEX
  5
AC2
330
AC1
100
AcDbEntity
  8
NOSNÉ KONSTRUKCE
100
AcDbVertex
100
AcDb2dVertex
 10
496.1291923855675
 20
74.14758319649735
 30
0.0
 42
-0.0064239028828688
  0
VERTEX
  5
AC3
330
AC1
100
AcDbEntity
  8
NOSNÉ KONSTRUKCE
100
AcDbVertex
100
AcDb2dVertex
 10
496.090323945387
 20
73.92846953714723
 30
0.0
 42
-0.0832048017309575
  0
VERTEX
  5
AC4
330
AC1
100
AcDbEntity
  8
NOSNÉ KONSTRUKCE
100
AcDbVertex
100
AcDb2dVertex
 10
495.3061413427055
 20
71.59825595749243
 30
0.0
 42
-0.0336767237692336
  0
VERTEX
  5
AC5
330
AC1
100
AcDbEntity
  8
NOSNÉ KONSTRUKCE
100
AcDbVertex
100
AcDb2dVertex
 10
493.6033247837837
 20
68.86998143803174
 30
0.0
 42
-0.0844635135812105
  0
VERTEX
  5
AC6
330
AC1
100
AcDbEntity
  8
NOSNÉ KONSTRUKCE
100
AcDbVertex
100
AcDb2dVertex
 10
492.6835150238908
 20
67.96555983303659
 30
0.0
 42
-0.0495829410719565
  0
VERTEX
  5
AC7
330
AC1
100
AcDbEntity
  8
NOSNÉ KONSTRUKCE
100
AcDbVertex
100
AcDb2dVertex
 10
490.9348365865367
 20
66.9889103257239
 30
0.0
 42
-0.0322692699774654
  0
VERTEX
  5
AC8
330
AC1
100
AcDbEntity
  8
NOSNÉ KONSTRUKCE
100
AcDbVertex
100
AcDb2dVertex
 10
488.043482405446
 20
65.94738682432325
 30
0.0
 42
-0.0276160659512937
  0
VERTEX
  5
AC9
330
AC1
100
AcDbEntity
  8
NOSNÉ KONSTRUKCE
100
AcDbVertex
100
AcDb2dVertex
 10
487.1879059671588
 20
65.75065139537873
 30
0.0
 42
-0.0126891984598699
  0
VERTEX
  5
ACA
330
AC1
100
AcDbEntity
  8
NOSNÉ KONSTRUKCE
100
AcDbVertex
100
AcDb2dVertex
 10
486.2647375713674
 20
65.6154490058372
 30
0.0
  0
SEQEND
  5
ACB
330
AC1
100
AcDbEntity
  8
NOSNÉ KONSTRUKCE
  0
POLYLINE
  5
ACC
330
1F
100
AcDbEntity
  8
NOSNÉ KONSTRUKCE
100
AcDb2dPolyline
 66
     1
 10
0.0
 20
0.0
 30
0.0
  0
VERTEX
  5
ACD
330
ACC
100
AcDbEntity
  8
NOSNÉ KONSTRUKCE
100
AcDbVertex
100
AcDb2dVertex
 10
503.3572434063058
 20
74.14758319649735
 30
0.0
 42
-0.0072417954699014
  0
VERTEX
  5
ACE
330
ACC
100
AcDbEntity
  8
NOSNÉ KONSTRUKCE
100
AcDbVertex
100
AcDb2dVertex
 10
503.3016730384621
 20
73.73617798522281
 30
0.0
 42
-0.0707158694326265
  0
VERTEX
  5
ACF
330
ACC
100
AcDbEntity
  8
NOSNÉ KONSTRUKCE
100
AcDbVertex
100
AcDb2dVertex
 10
502.770546522042
 20
71.80007453262914
 30
0.0
 42
-0.033952657250207
  0
VERTEX
  5
AD0
330
ACC
100
AcDbEntity
  8
NOSNÉ KONSTRUKCE
100
AcDbVertex
100
AcDb2dVertex
 10
500.5218906826335
 20
67.4470368074555
 30
0.0
 42
-0.0571374688189033
  0
VERTEX
  5
AD1
330
ACC
100
AcDbEntity
  8
NOSNÉ KONSTRUKCE
100
AcDbVertex
100
AcDb2dVertex
 10
498.7357339227815
 20
65.14011252376912
 30
0.0
 42
-0.0274923553235744
  0
VERTEX
  5
AD2
330
ACC
100
AcDbEntity
  8
NOSNÉ KONSTRUKCE
100
AcDbVertex
100
AcDb2dVertex
 10
496.1384281922288
 20
62.7550372006346
 30
0.0
 42
-0.0255412025538677
  0
VERTEX
  5
AD3
330
ACC
100
AcDbEntity
  8
NOSNÉ KONSTRUKCE
100
AcDbVertex
100
AcDb2dVertex
 10
493.086998154518
 20
60.49832352361517
 30
0.0
 42
-0.0272796991712396
  0
VERTEX
  5
AD4
330
ACC
100
AcDbEntity
  8
NOSNÉ KONSTRUKCE
100
AcDbVertex
100
AcDb2dVertex
 10
488.9739990013327
 20
58.08198764195293
 30
0.0
 42
-0.056967459841729
  0
VERTEX
  5
AD5
330
ACC
100
AcDbEntity
  8
NOSNÉ KONSTRUKCE
100
AcDbVertex
100
AcDb2dVertex
 10
486.833051720601
 20
57.26925180675351
 30
0.0
 42
-0.0373408083348504
  0
VERTEX
  5
AD6
330
ACC
100
AcDbEntity
  8
NOSNÉ KONSTRUKCE
100
AcDbVertex
100
AcDb2dVertex
 10
486.6106973451275
 20
57.2300862658023
 30
0.0
 42
-0.0052305969362967
  0
VERTEX
  5
AD7
330
ACC
100
AcDbEntity
  8
NOSNÉ KONSTRUKCE
100
AcDbVertex
100
AcDb2dVertex
 10
486.2647375713674
 20
57.19912929889796
 30
0.0
  0
SEQEND
  5
AD8
330
ACC
100
AcDbEntity
  8
NOSNÉ KONSTRUKCE
  0
LWPOLYLINE
  5
AD9
330
1F
100
AcDbEntity
  8
NOSNÉ KONSTRUKCE
100
AcDbPolyline
 90
        3
 70
     0
 43
0.0
 10
492.9731350290709
 20
68.6302525009807
 10
509.7283526487987
 20
60.2465116330124
 10
517.8954572979233
 20
52.06520993191515
  0
LWPOLYLINE
  5
ADA
330
1F
100
AcDbEntity
  8
NOSNÉ KONSTRUKCE
100
AcDbPolyline
 90
        8
 70
     0
 43
0.0
 10
519.1740806535014
 20
74.14758319649917
 42
-0.0120721047703132
 10
519.1050979634634
 20
72.41369505775509
 42
-0.044358077361292
 10
518.70947022879
 20
69.71789503933831
 42
-0.0188067511131767
 10
516.6896467804068
 20
62.47566586403189
 42
-0.0457786284636091
 10
515.4816238907911
 20
59.6270554811519
 42
-0.0295006114745606
 10
513.0655634364917
 20
55.70015626774983
 42
-0.0258674098621065
 10
509.8328881225276
 20
51.55437618899594
 42
-0.2409478365688615
 10
486.2647375713674
 20
37.1298287440224
 42
-0.0884720560394402
  0
LWPOLYLINE
  5
ADB
330
1F
100
AcDbEntity
  8
NOSNÉ KONSTRUKCE
100
AcDbPolyline
 90
        3
 70
     0
 43
0.0
 10
512.2657126543159
 20
67.648413627244
 10
532.2619650863085
 20
58.43238457672413
 10
536.2619027200231
 20
57.78698710138195
  0
LWPOLYLINE
  5
ADC
330
1F
100
AcDbEntity
  8
NOSNÉ KONSTRUKCE
100
AcDbPolyline
 90
        6
 70
     0
 43
0.0
 10
527.7982960335426
 20
74.14758319649917
 42
-0.0128837512779302
 10
527.5135040733181
 20
70.81441837475285
 42
-0.0351641677647434
 10
526.885744351795
 20
67.21070892041388
 42
-0.0187319685742942
 10
523.5017284708042
 20
55.45247157827105
 42
-0.0582629403736403
 10
521.8422286027231
 20
51.87263737933898
 42
-0.2042445348716764
 10
486.2647375713674
 20
26.61428918980453
  0
LWPOLYLINE
  5
ADD
330
1F
100
AcDbEntity
  8
NOSNÉ KONSTRUKCE
100
AcDbPolyline
 90
        4
 70
     0
 43
0.0
 10
537.9880256375469
 20
74.14758319649917
 42
-0.0135911980674875
 10
534.2688942803212
 20
53.81889001403322
 42
-0.0219777111230329
 10
533.3627817783377
 20
50.30077675819774
 42
-0.1401208794308004
 10
505.5968268911052
 20
24.14758319649917
 42
-0.1401208794308004
  0
LWPOLYLINE
  5
ADE
330
1F
100
AcDbEntity
  8
NOSNÉ KONSTRUKCE
100
AcDbPolyline
 90
        4
 70
     1
 43
0.0
 10
566.2647375713674
 20
24.14758319649917
 10
566.2647375713674
 20
74.14758319649917
 10
486.2647375713674
 20
74.14758319649917
 10
486.2647375713674
 20
24.14758319649917
  0
LWPOLYLINE
  5
ADF
330
1F
100
AcDbEntity
  8
NOSNÉ KONSTRUKCE
100
AcDbPolyline
 90
        3
 70
     0
 43
0.0
 10
533.4788845632425
 20
43.14461314737508
 10
550.2341021829703
 20
34.76087227940678
 10
558.401206832095
 20
26.57957057830953
  0
LWPOLYLINE
  5
AE0
330
1F
100
AcDbEntity
  8
NOSNÉ KONSTRUKCE
100
AcDbPolyline
 90
        6
 70
     0
 43
0.0
 10
548.3709564554443
 20
74.07083367357262
 42
-0.0128837512779301
 10
547.9437685151057
 20
69.07108644095313
 42
-0.0351641677647434
 10
547.0021289328212
 20
63.66552225944468
 42
-0.0187319685742942
 10
541.926105111335
 20
46.02816624623045
 42
-0.0582629403736403
 10
539.4368553092132
 20
40.65841494783234
 42
-0.0636293101863209
 10
526.1753857156906
 20
24.17710664760687
 42
-0.0636293101863209
  0
LWPOLYLINE
  5
AE1
330
1F
100
AcDbEntity
  8
NOSNÉ KONSTRUKCE
100
AcDbPolyline
 90
        4
 70
     0
 43
0.0
 10
563.655550861447
 20
74.07083367357262
 42
-0.0135911980674875
 10
558.0768538256084
 20
43.57779389987371
 42
-0.0219777111230329
 10
556.7176850726315
 20
38.30062401612048
 42
-0.0418563612866048
 10
546.6022689718299
 20
24.14758319649826
 42
-0.0418563612866048
  0
LINE
  5
AE2
330
1F
100
AcDbEntity
  8
CETRIS
100
AcDbLine
 10
108.4150232170792
 20
23.55189086216995
 30
0.0
 11
622.6673741695955
 21
23.55189086216995
 31
0.0
  0
LINE
  5
AE3
330
1F
100
AcDbEntity
  8
CETRIS
100
AcDbLine
 10
108.4150232170792
 20
11.55189086216995
 30
0.0
 11
620.4572128912947
 21
11.55189086216995
 31
0.0
  0
LINE
  5
AE4
330
1F
100
AcDbEntity
  8
CETRIS
100
AcDbLine
 10
108.4150232170792
 20
86.78414514691866
 30
0.0
 11
529.321356451124
 21
86.78414514691956
 31
0.0
  0
LINE
  5
AE5
330
1F
100
AcDbEntity
  8
CETRIS
100
AcDbLine
 10
108.4150232170792
 20
74.78414514691866
 30
0.0
 11
529.321356451124
 21
74.78414514691957
 31
0.0
  0
LINE
  5
AE6
330
1F
100
AcDbEntity
  8
izolace
100
AcDbLine
 10
106.3651836863824
 20
74.01890958522307
 30
0.0
 11
106.3651836863824
 21
24.01460155732201
 31
0.0
  0
LINE
  5
AE7
330
1F
100
AcDbEntity
  8
izolace
100
AcDbLine
 10
104.365183686386
 20
74.01890958522307
 30
0.0
 11
104.3651836863788
 21
24.01460155732201
 31
0.0
  0
LWPOLYLINE
  5
AE8
330
1F
100
AcDbEntity
  8
izolace
100
AcDbPolyline
 90
        4
 70
     1
 43
0.0
 10
104.3651836863788
 20
29.81495362676941
 10
106.3651836863824
 20
29.81495362676941
 10
106.3651836863824
 20
42.31603063374421
 10
104.3651836863788
 20
42.31603063374421
  0
LWPOLYLINE
  5
AE9
330
1F
100
AcDbEntity
  8
izolace
100
AcDbPolyline
 90
        4
 70
     1
 43
0.0
 10
104.3651836863788
 20
54.81710764071994
 10
106.3651836863824
 20
54.81710764071994
 10
106.3651836863824
 20
67.31818464769566
 10
104.3651836863788
 20
67.31818464769566
  0
HATCH
  5
AEA
330
1F
100
AcDbEntity
  8
izolace
100
AcDbHatch
 10
0.0
 20
0.0
 30
0.0
210
0.0
220
0.0
230
1.0
  2
SOLID
 70
     1
 71
     0
 91
        3
 92
        7
 72
     0
 73
     1
 93
        4
 10
106.3651836863788
 20
74.01890958522307
 10
104.3651836863824
 20
74.01890958522307
 10
104.3651836863788
 20
67.31818464769566
 10
106.3651836863788
 20
67.31818464769566
 97
        0
 92
        7
 72
     0
 73
     1
 93
        4
 10
106.3651836863788
 20
54.81710764071994
 10
104.3651836863788
 20
54.81710764071994
 10
104.3651836863788
 20
42.31603063374421
 10
106.3651836863788
 20
42.31603063374421
 97
        0
 92
        7
 72
     0
 73
     1
 93
        4
 10
106.3651836863824
 20
29.81495362676941
 10
104.3651836863751
 20
29.81495362676941
 10
104.3651836863788
 20
24.01460155732201
 10
106.3651836863824
 20
24.01460155732201
 97
        0
 75
     0
 76
     1
 47
0.0846398039763049
 98
        3
 10
105.6588816413383
 20
69.14923359213497
 10
105.828267356988
 20
52.47518018657792
 10
105.5742474757386
 20
29.28378352307408
  0
LINE
  5
AEB
330
1F
100
AcDbEntity
  8
CETRIS
100
AcDbLine
 10
108.4150232170756
 20
11.55189086216904
 30
0.0
 11
108.4150232170756
 21
23.55189086216995
 31
0.0
  0
LINE
  5
AEC
330
1F
100
AcDbEntity
  8
CETRIS
100
AcDbLine
 10
108.4150232170756
 20
74.78414514691866
 30
0.0
 11
108.4150232170792
 21
86.78414514691956
 31
0.0
  0
LINE
  5
AED
330
1F
100
AcDbEntity
  8
SPOJOVACÍ
100
AcDbLine
 10
155.9121166773726
 20
56.27419736936207
 30
0.0
 11
155.0352060552391
 21
56.27419736936207
 31
0.0
  0
LINE
  5
AEE
330
1F
100
AcDbEntity
  8
SPOJOVACÍ
100
AcDbLine
 10
155.0352060552391
 20
56.27419736936207
 30
0.0
 11
155.9121166773726
 21
56.27419736936207
 31
0.0
  0
LINE
  5
AEF
330
1F
100
AcDbEntity
  8
SPOJOVACÍ
  6
DASHED
100
AcDbLine
 10
155.0352060552391
 20
56.27419736936207
 30
0.0
 11
151.8525717526641
 21
51.23513486936116
 31
0.0
  0
LINE
  5
AF0
330
1F
100
AcDbEntity
  8
SPOJOVACÍ
100
AcDbLine
 10
155.0352060552391
 20
42.77419736936207
 30
0.0
 11
151.8525717526605
 21
47.81325986936116
 31
0.0
  0
LINE
  5
AF1
330
1F
100
AcDbEntity
  8
SPOJOVACÍ
100
AcDbLine
 10
155.0352060552391
 20
42.77419736936207
 30
0.0
 11
155.9121166773726
 21
42.77419736936207
 31
0.0
  0
LINE
  5
AF2
330
1F
100
AcDbEntity
  8
SPOJOVACÍ
100
AcDbLine
 10
156.4767944217088
 20
56.27419736936207
 30
0.0
 11
155.0352060552391
 21
56.27419736936207
 31
0.0
  0
LINE
  5
AF3
330
1F
100
AcDbEntity
  8
SPOJOVACÍ
100
AcDbLine
 10
156.4767944217088
 20
42.77419736936207
 30
0.0
 11
155.0352060552391
 21
42.77419736936207
 31
0.0
  0
LINE
  5
AF4
330
1F
100
AcDbEntity
  8
SPOJOVACÍ
100
AcDbLine
 10
156.4767944217088
 20
56.27419736936207
 30
0.0
 11
156.4767944217088
 21
42.77419736936207
 31
0.0
  0
LINE
  5
AF5
330
1F
100
AcDbEntity
  8
SPOJOVACÍ
  6
DASHDOT2
100
AcDbLine
 10
120.0741523307875
 20
49.52419736936207
 30
0.0
 11
51.66839712181865
 21
49.52419736936116
 31
0.0
  0
LINE
  5
AF6
330
1F
100
AcDbEntity
  8
SPOJOVACÍ
  6
Continuous
100
AcDbLine
 10
70.33683532863836
 20
51.73717278906787
 30
0.0
 11
70.11141303810984
 21
51.34676056739971
 31
0.0
  0
LINE
  5
AF7
330
1F
100
AcDbEntity
  8
SPOJOVACÍ
  6
Continuous
100
AcDbLine
 10
70.33683532863836
 20
51.73717278906787
 30
0.0
 11
70.7262883071777
 21
51.34676056739971
 31
0.0
  0
LINE
  5
AF8
330
1F
100
AcDbEntity
  8
SPOJOVACÍ
  6
Continuous
100
AcDbLine
 10
69.33346632500946
 20
47.4829265846767
 30
0.0
 11
68.94305410249547
 21
47.87237956096413
 31
0.0
  0
LINE
  5
AF9
330
1F
100
AcDbEntity
  8
SPOJOVACÍ
  6
Continuous
100
AcDbLine
 10
69.33346632500946
 20
47.4829265846767
 30
0.0
 11
69.55792937155968
 21
47.87237956096413
 31
0.0
  0
LINE
  5
AFA
330
1F
100
AcDbEntity
  8
SPOJOVACÍ
  6
Continuous
100
AcDbLine
 10
70.11141303810984
 20
51.34676056739971
 30
0.0
 11
68.94305410249547
 21
47.87237956096413
 31
0.0
  0
LINE
  5
AFB
330
1F
100
AcDbEntity
  8
SPOJOVACÍ
  6
Continuous
100
AcDbLine
 10
70.7262883071777
 20
51.34676056739971
 30
0.0
 11
69.55792937155968
 21
47.87237956096413
 31
0.0
  0
LINE
  5
AFC
330
1F
100
AcDbEntity
  8
SPOJOVACÍ
  6
Continuous
100
AcDbLine
 10
70.33683532863836
 20
51.73717278906787
 30
0.0
 11
69.33346632500946
 21
47.4829265846767
 31
0.0
  0
LINE
  5
AFD
330
1F
100
AcDbEntity
  8
SPOJOVACÍ
  6
Continuous
100
AcDbLine
 10
67.22792620701842
 20
51.15491181089618
 30
0.0
 11
67.00346316046818
 21
50.76545883010675
 31
0.0
  0
LINE
  5
AFE
330
1F
100
AcDbEntity
  8
SPOJOVACÍ
  6
Continuous
100
AcDbLine
 10
67.22792620701842
 20
51.15491181089618
 30
0.0
 11
67.6183384295324
 21
50.76545883010675
 31
0.0
  0
LINE
  5
AFF
330
1F
100
AcDbEntity
  8
SPOJOVACÍ
  6
Continuous
100
AcDbLine
 10
66.57468118660074
 20
47.94144511582652
 30
0.0
 11
66.18426896437052
 21
48.33089809211395
 31
0.0
  0
LINE
  5
B00
330
1F
100
AcDbEntity
  8
SPOJOVACÍ
  6
Continuous
100
AcDbLine
 10
66.57468118660074
 20
47.94144511582652
 30
0.0
 11
66.79914423314733
 21
48.33089809211395
 31
0.0
  0
LINE
  5
B01
330
1F
100
AcDbEntity
  8
SPOJOVACÍ
  6
Continuous
100
AcDbLine
 10
67.00346316046818
 20
50.76545883010675
 30
0.0
 11
66.18426896437052
 21
48.33089809211395
 31
0.0
  0
LINE
  5
B02
330
1F
100
AcDbEntity
  8
SPOJOVACÍ
  6
Continuous
100
AcDbLine
 10
67.6183384295324
 20
50.76545883010675
 30
0.0
 11
66.79914423314733
 21
48.33089809211395
 31
0.0
  0
LINE
  5
B03
330
1F
100
AcDbEntity
  8
SPOJOVACÍ
  6
Continuous
100
AcDbLine
 10
67.22792620701842
 20
51.15491181089618
 30
0.0
 11
66.57468118660074
 21
47.94144511582652
 31
0.0
  0
LINE
  5
B04
330
1F
100
AcDbEntity
  8
SPOJOVACÍ
  6
Continuous
100
AcDbLine
 10
64.11997632937675
 20
50.57265082822249
 30
0.0
 11
63.89455403885552
 21
50.18319785193506
 31
0.0
  0
LINE
  5
B05
330
1F
100
AcDbEntity
  8
SPOJOVACÍ
  6
Continuous
100
AcDbLine
 10
64.11997632937675
 20
50.57265082822249
 30
0.0
 11
64.50942930791246
 21
50.18319785193506
 31
0.0
  0
LINE
  5
B06
330
1F
100
AcDbEntity
  8
SPOJOVACÍ
  6
Continuous
100
AcDbLine
 10
63.79958890373348
 20
48.35104221359523
 30
0.0
 11
63.40917668149962
 21
48.74049518988266
 31
0.0
  0
LINE
  5
B07
330
1F
100
AcDbEntity
  8
SPOJOVACÍ
  6
Continuous
100
AcDbLine
 10
63.79958890373348
 20
48.35104221359523
 30
0.0
 11
64.02405195056383
 21
48.74049518988266
 31
0.0
  0
LINE
  5
B08
330
1F
100
AcDbEntity
  8
SPOJOVACÍ
  6
Continuous
100
AcDbLine
 10
63.89455403885552
 20
50.18319785193506
 30
0.0
 11
63.40917668149962
 21
48.74049518988266
 31
0.0
  0
LINE
  5
B09
330
1F
100
AcDbEntity
  8
SPOJOVACÍ
  6
Continuous
100
AcDbLine
 10
64.50942930791246
 20
50.18319785193506
 30
0.0
 11
64.02405195056383
 21
48.74049518988266
 31
0.0
  0
LINE
  5
B0A
330
1F
100
AcDbEntity
  8
SPOJOVACÍ
  6
Continuous
100
AcDbLine
 10
64.11997632937675
 20
50.57265082822249
 30
0.0
 11
63.79958890373348
 21
48.35104221359523
 31
0.0
  0
LINE
  5
B0B
330
1F
100
AcDbEntity
  8
SPOJOVACÍ
  6
Continuous
100
AcDbLine
 10
73.60282062045337
 20
52.37027369228252
 30
0.0
 11
72.17978245899542
 21
46.6781210464398
 31
0.0
  0
LINE
  5
B0C
330
1F
100
AcDbEntity
  8
SPOJOVACÍ
  6
Continuous
100
AcDbLine
 10
73.60282062045337
 20
52.37027369228252
 30
0.0
 11
73.34468811691806
 21
51.92240276437513
 31
0.0
  0
LINE
  5
B0D
330
1F
100
AcDbEntity
  8
SPOJOVACÍ
  6
Continuous
100
AcDbLine
 10
73.60282062045337
 20
52.37027369228252
 30
0.0
 11
74.05179467634264
 21
51.92240276437513
 31
0.0
  0
LINE
  5
B0E
330
1F
100
AcDbEntity
  8
SPOJOVACÍ
  6
Continuous
100
AcDbLine
 10
72.17978245899542
 20
46.6781210464398
 30
0.0
 11
71.73191153367554
 21
47.12599196917034
 31
0.0
  0
LINE
  5
B0F
330
1F
100
AcDbEntity
  8
SPOJOVACÍ
  6
Continuous
100
AcDbLine
 10
72.17978245899542
 20
46.6781210464398
 30
0.0
 11
72.43901809309647
 21
47.12599196917034
 31
0.0
  0
LINE
  5
B10
330
1F
100
AcDbEntity
  8
SPOJOVACÍ
  6
Continuous
100
AcDbLine
 10
73.34468811691806
 20
51.92240276437513
 30
0.0
 11
71.73191153367554
 21
47.12599196917034
 31
0.0
  0
LINE
  5
B11
330
1F
100
AcDbEntity
  8
SPOJOVACÍ
  6
Continuous
100
AcDbLine
 10
74.05179467634264
 20
51.92240276437513
 30
0.0
 11
72.43901809309647
 21
47.12599196917034
 31
0.0
  0
LINE
  5
B12
330
1F
100
AcDbEntity
  8
SPOJOVACÍ
  6
DASHED
100
AcDbLine
 10
73.34030376630801
 20
51.23513486936116
 30
0.0
 11
151.8525717526641
 21
51.23513486936116
 31
0.0
  0
LINE
  5
B13
330
1F
100
AcDbEntity
  8
SPOJOVACÍ
  6
DASHED
100
AcDbLine
 10
73.34030376631528
 20
47.81325986936116
 30
0.0
 11
151.8525717526605
 21
47.81325986936116
 31
0.0
  0
LINE
  5
B14
330
1F
100
AcDbEntity
  8
SPOJOVACÍ
  6
DASHED
100
AcDbLine
 10
60.63504364261063
 20
49.52419736936116
 30
0.0
 11
73.34030376630801
 21
51.23513486936116
 31
0.0
  0
LINE
  5
B15
330
1F
100
AcDbEntity
  8
SPOJOVACÍ
  6
DASHED
100
AcDbLine
 10
60.63504364261063
 20
49.52419736936116
 30
0.0
 11
73.34030376631528
 21
47.81325986936116
 31
0.0
  0
LINE
  5
B16
330
1F
100
AcDbEntity
  8
SPOJOVACÍ
  6
Continuous
100
AcDbLine
 10
77.44778459059273
 20
51.92240276437513
 30
0.0
 11
75.83500800734658
 21
47.12599196917034
 31
0.0
  0
LINE
  5
B17
330
1F
100
AcDbEntity
  8
SPOJOVACÍ
  6
Continuous
100
AcDbLine
 10
76.74067803116816
 20
51.92240276437513
 30
0.0
 11
75.12790144792564
 21
47.12599196917034
 31
0.0
  0
LINE
  5
B18
330
1F
100
AcDbEntity
  8
SPOJOVACÍ
  6
Continuous
100
AcDbLine
 10
75.57577237324551
 20
46.6781210464398
 30
0.0
 11
75.83500800734658
 21
47.12599196917034
 31
0.0
  0
LINE
  5
B19
330
1F
100
AcDbEntity
  8
SPOJOVACÍ
  6
Continuous
100
AcDbLine
 10
75.57577237324551
 20
46.6781210464398
 30
0.0
 11
75.12790144792564
 21
47.12599196917034
 31
0.0
  0
LINE
  5
B1A
330
1F
100
AcDbEntity
  8
SPOJOVACÍ
  6
Continuous
100
AcDbLine
 10
76.99881053470346
 20
52.37027369228252
 30
0.0
 11
77.44778459059273
 21
51.92240276437513
 31
0.0
  0
LINE
  5
B1B
330
1F
100
AcDbEntity
  8
SPOJOVACÍ
  6
Continuous
100
AcDbLine
 10
76.99881053470346
 20
52.37027369228252
 30
0.0
 11
76.74067803116816
 21
51.92240276437513
 31
0.0
  0
LINE
  5
B1C
330
1F
100
AcDbEntity
  8
SPOJOVACÍ
  6
Continuous
100
AcDbLine
 10
76.99881053470346
 20
52.37027369228252
 30
0.0
 11
75.57577237324551
 21
46.6781210464398
 31
0.0
  0
LINE
  5
B1D
330
1F
100
AcDbEntity
  8
SPOJOVACÍ
  6
Continuous
100
AcDbLine
 10
80.39480044895356
 20
52.37027369228252
 30
0.0
 11
78.97176228749561
 21
46.6781210464398
 31
0.0
  0
LINE
  5
B1E
330
1F
100
AcDbEntity
  8
SPOJOVACÍ
  6
Continuous
100
AcDbLine
 10
80.39480044895356
 20
52.37027369228252
 30
0.0
 11
80.13666794541824
 21
51.92240276437513
 31
0.0
  0
LINE
  5
B1F
330
1F
100
AcDbEntity
  8
SPOJOVACÍ
  6
Continuous
100
AcDbLine
 10
80.39480044895356
 20
52.37027369228252
 30
0.0
 11
80.84377450484282
 21
51.92240276437513
 31
0.0
  0
LINE
  5
B20
330
1F
100
AcDbEntity
  8
SPOJOVACÍ
  6
Continuous
100
AcDbLine
 10
78.97176228749561
 20
46.6781210464398
 30
0.0
 11
78.52389136217573
 21
47.12599196917034
 31
0.0
  0
LINE
  5
B21
330
1F
100
AcDbEntity
  8
SPOJOVACÍ
  6
Continuous
100
AcDbLine
 10
78.97176228749561
 20
46.6781210464398
 30
0.0
 11
79.23099792159667
 21
47.12599196917034
 31
0.0
  0
LINE
  5
B22
330
1F
100
AcDbEntity
  8
SPOJOVACÍ
  6
Continuous
100
AcDbLine
 10
80.13666794541824
 20
51.92240276437513
 30
0.0
 11
78.52389136217573
 21
47.12599196917034
 31
0.0
  0
LINE
  5
B23
330
1F
100
AcDbEntity
  8
SPOJOVACÍ
  6
Continuous
100
AcDbLine
 10
80.84377450484282
 20
51.92240276437513
 30
0.0
 11
79.23099792159667
 21
47.12599196917034
 31
0.0
  0
LINE
  5
B24
330
1F
100
AcDbEntity
  8
SPOJOVACÍ
  6
Continuous
100
AcDbLine
 10
83.79079036320366
 20
52.37027369228252
 30
0.0
 11
82.36775220174569
 21
46.6781210464398
 31
0.0
  0
LINE
  5
B25
330
1F
100
AcDbEntity
  8
SPOJOVACÍ
  6
Continuous
100
AcDbLine
 10
83.79079036320366
 20
52.37027369228252
 30
0.0
 11
83.53265785966835
 21
51.92240276437513
 31
0.0
  0
LINE
  5
B26
330
1F
100
AcDbEntity
  8
SPOJOVACÍ
  6
Continuous
100
AcDbLine
 10
83.79079036320366
 20
52.37027369228252
 30
0.0
 11
84.23976441909292
 21
51.92240276437513
 31
0.0
  0
LINE
  5
B27
330
1F
100
AcDbEntity
  8
SPOJOVACÍ
  6
Continuous
100
AcDbLine
 10
82.36775220174569
 20
46.6781210464398
 30
0.0
 11
81.91988127642582
 21
47.12599196917034
 31
0.0
  0
LINE
  5
B28
330
1F
100
AcDbEntity
  8
SPOJOVACÍ
  6
Continuous
100
AcDbLine
 10
82.36775220174569
 20
46.6781210464398
 30
0.0
 11
82.62698783584676
 21
47.12599196917034
 31
0.0
  0
LINE
  5
B29
330
1F
100
AcDbEntity
  8
SPOJOVACÍ
  6
Continuous
100
AcDbLine
 10
83.53265785966835
 20
51.92240276437513
 30
0.0
 11
81.91988127642582
 21
47.12599196917034
 31
0.0
  0
LINE
  5
B2A
330
1F
100
AcDbEntity
  8
SPOJOVACÍ
  6
Continuous
100
AcDbLine
 10
84.23976441909292
 20
51.92240276437513
 30
0.0
 11
82.62698783584676
 21
47.12599196917034
 31
0.0
  0
LINE
  5
B2B
330
1F
100
AcDbEntity
  8
SPOJOVACÍ
  6
Continuous
100
AcDbLine
 10
87.18678027745374
 20
52.37027369228252
 30
0.0
 11
85.7637421159958
 21
46.6781210464398
 31
0.0
  0
LINE
  5
B2C
330
1F
100
AcDbEntity
  8
SPOJOVACÍ
  6
Continuous
100
AcDbLine
 10
87.18678027745374
 20
52.37027369228252
 30
0.0
 11
86.92864777391845
 21
51.92240276437513
 31
0.0
  0
LINE
  5
B2D
330
1F
100
AcDbEntity
  8
SPOJOVACÍ
  6
Continuous
100
AcDbLine
 10
87.18678027745374
 20
52.37027369228252
 30
0.0
 11
87.63575433334301
 21
51.92240276437513
 31
0.0
  0
LINE
  5
B2E
330
1F
100
AcDbEntity
  8
SPOJOVACÍ
  6
Continuous
100
AcDbLine
 10
85.7637421159958
 20
46.6781210464398
 30
0.0
 11
85.31587119067593
 21
47.12599196917034
 31
0.0
  0
LINE
  5
B2F
330
1F
100
AcDbEntity
  8
SPOJOVACÍ
  6
Continuous
100
AcDbLine
 10
85.7637421159958
 20
46.6781210464398
 30
0.0
 11
86.02297775009686
 21
47.12599196917034
 31
0.0
  0
LINE
  5
B30
330
1F
100
AcDbEntity
  8
SPOJOVACÍ
  6
Continuous
100
AcDbLine
 10
86.92864777391845
 20
51.92240276437513
 30
0.0
 11
85.31587119067593
 21
47.12599196917034
 31
0.0
  0
LINE
  5
B31
330
1F
100
AcDbEntity
  8
SPOJOVACÍ
  6
Continuous
100
AcDbLine
 10
87.63575433334301
 20
51.92240276437513
 30
0.0
 11
86.02297775009686
 21
47.12599196917034
 31
0.0
  0
LINE
  5
B32
330
1F
100
AcDbEntity
  8
SPOJOVACÍ
  6
Continuous
100
AcDbLine
 10
90.58277019170384
 20
52.37027369228252
 30
0.0
 11
89.1597320302459
 21
46.6781210464398
 31
0.0
  0
LINE
  5
B33
330
1F
100
AcDbEntity
  8
SPOJOVACÍ
  6
Continuous
100
AcDbLine
 10
90.58277019170384
 20
52.37027369228252
 30
0.0
 11
90.32463768816853
 21
51.92240276437513
 31
0.0
  0
LINE
  5
B34
330
1F
100
AcDbEntity
  8
SPOJOVACÍ
  6
Continuous
100
AcDbLine
 10
90.58277019170384
 20
52.37027369228252
 30
0.0
 11
91.03174424759311
 21
51.92240276437513
 31
0.0
  0
LINE
  5
B35
330
1F
100
AcDbEntity
  8
SPOJOVACÍ
  6
Continuous
100
AcDbLine
 10
89.1597320302459
 20
46.6781210464398
 30
0.0
 11
88.71186110492601
 21
47.12599196917034
 31
0.0
  0
LINE
  5
B36
330
1F
100
AcDbEntity
  8
SPOJOVACÍ
  6
Continuous
100
AcDbLine
 10
89.1597320302459
 20
46.6781210464398
 30
0.0
 11
89.41896766434695
 21
47.12599196917034
 31
0.0
  0
LINE
  5
B37
330
1F
100
AcDbEntity
  8
SPOJOVACÍ
  6
Continuous
100
AcDbLine
 10
90.32463768816853
 20
51.92240276437513
 30
0.0
 11
88.71186110492601
 21
47.12599196917034
 31
0.0
  0
LINE
  5
B38
330
1F
100
AcDbEntity
  8
SPOJOVACÍ
  6
Continuous
100
AcDbLine
 10
91.03174424759311
 20
51.92240276437513
 30
0.0
 11
89.41896766434695
 21
47.12599196917034
 31
0.0
  0
LINE
  5
B39
330
1F
100
AcDbEntity
  8
SPOJOVACÍ
  6
Continuous
100
AcDbLine
 10
93.97876010595394
 20
52.37027369228252
 30
0.0
 11
92.55572194449598
 21
46.6781210464398
 31
0.0
  0
LINE
  5
B3A
330
1F
100
AcDbEntity
  8
SPOJOVACÍ
  6
Continuous
100
AcDbLine
 10
93.97876010595394
 20
52.37027369228252
 30
0.0
 11
93.72062760241863
 21
51.92240276437513
 31
0.0
  0
LINE
  5
B3B
330
1F
100
AcDbEntity
  8
SPOJOVACÍ
  6
Continuous
100
AcDbLine
 10
93.97876010595394
 20
52.37027369228252
 30
0.0
 11
94.42773416184321
 21
51.92240276437513
 31
0.0
  0
LINE
  5
B3C
330
1F
100
AcDbEntity
  8
SPOJOVACÍ
  6
Continuous
100
AcDbLine
 10
92.55572194449598
 20
46.6781210464398
 30
0.0
 11
92.10785101917611
 21
47.12599196917034
 31
0.0
  0
LINE
  5
B3D
330
1F
100
AcDbEntity
  8
SPOJOVACÍ
  6
Continuous
100
AcDbLine
 10
92.55572194449598
 20
46.6781210464398
 30
0.0
 11
92.81495757859705
 21
47.12599196917034
 31
0.0
  0
LINE
  5
B3E
330
1F
100
AcDbEntity
  8
SPOJOVACÍ
  6
Continuous
100
AcDbLine
 10
93.72062760241863
 20
51.92240276437513
 30
0.0
 11
92.10785101917611
 21
47.12599196917034
 31
0.0
  0
LINE
  5
B3F
330
1F
100
AcDbEntity
  8
SPOJOVACÍ
  6
Continuous
100
AcDbLine
 10
94.42773416184321
 20
51.92240276437513
 30
0.0
 11
92.81495757859705
 21
47.12599196917034
 31
0.0
  0
LINE
  5
B40
330
1F
100
AcDbEntity
  8
SPOJOVACÍ
  6
Continuous
100
AcDbLine
 10
97.37475002020403
 20
52.37027369228252
 30
0.0
 11
95.95171185874608
 21
46.6781210464398
 31
0.0
  0
LINE
  5
B41
330
1F
100
AcDbEntity
  8
SPOJOVACÍ
  6
Continuous
100
AcDbLine
 10
97.37475002020403
 20
52.37027369228252
 30
0.0
 11
97.11661751666873
 21
51.92240276437513
 31
0.0
  0
LINE
  5
B42
330
1F
100
AcDbEntity
  8
SPOJOVACÍ
  6
Continuous
100
AcDbLine
 10
97.37475002020403
 20
52.37027369228252
 30
0.0
 11
97.82372407609329
 21
51.92240276437513
 31
0.0
  0
LINE
  5
B43
330
1F
100
AcDbEntity
  8
SPOJOVACÍ
  6
Continuous
100
AcDbLine
 10
95.95171185874608
 20
46.6781210464398
 30
0.0
 11
95.5038409334262
 21
47.12599196917034
 31
0.0
  0
LINE
  5
B44
330
1F
100
AcDbEntity
  8
SPOJOVACÍ
  6
Continuous
100
AcDbLine
 10
95.95171185874608
 20
46.6781210464398
 30
0.0
 11
96.21094749284715
 21
47.12599196917034
 31
0.0
  0
LINE
  5
B45
330
1F
100
AcDbEntity
  8
SPOJOVACÍ
  6
Continuous
100
AcDbLine
 10
97.11661751666873
 20
51.92240276437513
 30
0.0
 11
95.5038409334262
 21
47.12599196917034
 31
0.0
  0
LINE
  5
B46
330
1F
100
AcDbEntity
  8
SPOJOVACÍ
  6
Continuous
100
AcDbLine
 10
97.82372407609329
 20
51.92240276437513
 30
0.0
 11
96.21094749284715
 21
47.12599196917034
 31
0.0
  0
LINE
  5
B47
330
1F
100
AcDbEntity
  8
SPOJOVACÍ
  6
Continuous
100
AcDbLine
 10
104.6157039045934
 20
51.92240276437513
 30
0.0
 11
103.0029273213473
 21
47.12599196917034
 31
0.0
  0
LINE
  5
B48
330
1F
100
AcDbEntity
  8
SPOJOVACÍ
  6
Continuous
100
AcDbLine
 10
103.9085973451689
 20
51.92240276437513
 30
0.0
 11
102.2958207619264
 21
47.12599196917034
 31
0.0
  0
LINE
  5
B49
330
1F
100
AcDbEntity
  8
SPOJOVACÍ
  6
Continuous
100
AcDbLine
 10
102.7436916872462
 20
46.6781210464398
 30
0.0
 11
103.0029273213473
 21
47.12599196917034
 31
0.0
  0
LINE
  5
B4A
330
1F
100
AcDbEntity
  8
SPOJOVACÍ
  6
Continuous
100
AcDbLine
 10
102.7436916872462
 20
46.6781210464398
 30
0.0
 11
102.2958207619264
 21
47.12599196917034
 31
0.0
  0
LINE
  5
B4B
330
1F
100
AcDbEntity
  8
SPOJOVACÍ
  6
Continuous
100
AcDbLine
 10
104.1667298487042
 20
52.37027369228252
 30
0.0
 11
104.6157039045934
 21
51.92240276437513
 31
0.0
  0
LINE
  5
B4C
330
1F
100
AcDbEntity
  8
SPOJOVACÍ
  6
Continuous
100
AcDbLine
 10
104.1667298487042
 20
52.37027369228252
 30
0.0
 11
103.9085973451689
 21
51.92240276437513
 31
0.0
  0
LINE
  5
B4D
330
1F
100
AcDbEntity
  8
SPOJOVACÍ
  6
Continuous
100
AcDbLine
 10
104.1667298487042
 20
52.37027369228252
 30
0.0
 11
102.7436916872462
 21
46.6781210464398
 31
0.0
  0
LINE
  5
B4E
330
1F
100
AcDbEntity
  8
SPOJOVACÍ
  6
Continuous
100
AcDbLine
 10
101.2197139903433
 20
51.92240276437513
 30
0.0
 11
99.60693740709723
 21
47.12599196917034
 31
0.0
  0
LINE
  5
B4F
330
1F
100
AcDbEntity
  8
SPOJOVACÍ
  6
Continuous
100
AcDbLine
 10
100.5126074309188
 20
51.92240276437513
 30
0.0
 11
98.8998308476763
 21
47.12599196917034
 31
0.0
  0
LINE
  5
B50
330
1F
100
AcDbEntity
  8
SPOJOVACÍ
  6
Continuous
100
AcDbLine
 10
99.34770177299618
 20
46.6781210464398
 30
0.0
 11
99.60693740709723
 21
47.12599196917034
 31
0.0
  0
LINE
  5
B51
330
1F
100
AcDbEntity
  8
SPOJOVACÍ
  6
Continuous
100
AcDbLine
 10
99.34770177299618
 20
46.6781210464398
 30
0.0
 11
98.8998308476763
 21
47.12599196917034
 31
0.0
  0
LINE
  5
B52
330
1F
100
AcDbEntity
  8
SPOJOVACÍ
  6
Continuous
100
AcDbLine
 10
100.7707399344541
 20
52.37027369228252
 30
0.0
 11
101.2197139903433
 21
51.92240276437513
 31
0.0
  0
LINE
  5
B53
330
1F
100
AcDbEntity
  8
SPOJOVACÍ
  6
Continuous
100
AcDbLine
 10
100.7707399344541
 20
52.37027369228252
 30
0.0
 11
100.5126074309188
 21
51.92240276437513
 31
0.0
  0
LINE
  5
B54
330
1F
100
AcDbEntity
  8
SPOJOVACÍ
  6
Continuous
100
AcDbLine
 10
100.7707399344541
 20
52.37027369228252
 30
0.0
 11
99.34770177299618
 21
46.6781210464398
 31
0.0
  0
LINE
  5
B55
330
1F
100
AcDbEntity
  8
SPOJOVACÍ
100
AcDbLine
 10
155.0352060552391
 20
56.27419736936207
 30
0.0
 11
155.0352060552391
 21
42.77419736936207
 31
0.0
  0
LINE
  5
B56
330
1F
100
AcDbEntity
  8
SPOJOVACÍ
  6
CIKCAK
 48
0.25
100
AcDbLine
 10
110.4134106001289
 20
53.0496637928365
 30
0.0
 11
67.10672126883912
 21
53.0496637928365
 31
0.0
  0
LINE
  5
B57
330
1F
100
AcDbEntity
  8
SPOJOVACÍ
 48
0.25
100
AcDbLine
 10
67.10672126883912
 20
53.0496637928365
 30
0.0
 11
61.45728092812317
 21
49.52419736936207
 31
0.0
  0
LINE
  5
B58
330
1F
100
AcDbEntity
  8
SPOJOVACÍ
 48
0.25
100
AcDbLine
 10
67.10672126884276
 20
45.99873094588582
 30
0.0
 11
61.45728092812317
 21
49.52419736936207
 31
0.0
  0
LINE
  5
B59
330
1F
100
AcDbEntity
  8
SPOJOVACÍ
  6
CIKCAK
 48
0.25
100
AcDbLine
 10
110.4134106001289
 20
45.99873094588855
 30
0.0
 11
67.10672126884276
 21
45.99873094588582
 31
0.0
  0
LINE
  5
B5A
330
1F
100
AcDbEntity
  8
NOSNÉ KONSTRUKCE
100
AcDbLine
 10
-70.76302176410933
 20
114.7384325759386
 30
0.0
 11
-70.76302176410933
 21
189.2184325759382
 31
0.0
  0
LINE
  5
B5B
102
{ACAD_REACTORS
330
B77
102
}
330
1F
100
AcDbEntity
  8
NOSNÉ KONSTRUKCE
100
AcDbLine
 10
-64.53992606098506
 20
142.6684325759389
 30
0.0
 11
-64.53992606098506
 21
114.7384325759386
 31
0.0
  0
LINE
  5
B5C
102
{ACAD_REACTORS
330
B77
102
}
330
1F
100
AcDbEntity
  8
NOSNÉ KONSTRUKCE
100
AcDbLine
 10
-70.76302176410933
 20
114.7384325759386
 30
0.0
 11
-64.53992606098506
 21
114.7384325759386
 31
0.0
  0
ARC
  5
B5D
102
{ACAD_REACTORS
330
B77
102
}
330
1F
100
AcDbEntity
  8
NOSNÉ KONSTRUKCE
100
AcDbCircle
 10
-57.18992606098652
 20
142.668432575938
 30
0.0
 40
7.349999999999999
100
AcDbArc
 50
89.9999316981083
 51
179.9999342025248
  0
ARC
  5
B5E
102
{ACAD_REACTORS
330
B77
102
}
330
1F
100
AcDbEntity
  8
NOSNÉ KONSTRUKCE
100
AcDbCircle
 10
-57.18992606098652
 20
161.2884325759379
 30
0.0
 40
7.349999999999999
100
AcDbArc
 50
180.0000025044165
 51
270.0000050090415
  0
LINE
  5
B5F
102
{ACAD_REACTORS
330
B77
102
}
330
1F
100
AcDbEntity
  8
NOSNÉ KONSTRUKCE
100
AcDbLine
 10
-64.53992606098506
 20
161.2884325759388
 30
0.0
 11
-64.53992606098506
 21
189.2184325759382
 31
0.0
  0
LINE
  5
B60
102
{ACAD_REACTORS
330
B77
102
}
330
1F
100
AcDbEntity
  8
NOSNÉ KONSTRUKCE
100
AcDbLine
 10
-70.76302176410933
 20
189.2184325759382
 30
0.0
 11
-64.53992606098506
 21
189.2184325759382
 31
0.0
  0
LINE
  5
B61
102
{ACAD_REACTORS
330
B77
102
}
330
1F
100
AcDbEntity
  8
NOSNÉ KONSTRUKCE
100
AcDbLine
 10
-57.18992606098652
 20
153.9384325759385
 30
0.0
 11
64.62388253276333
 21
153.9384325759385
 31
0.0
  0
LINE
  5
B62
102
{ACAD_REACTORS
330
B77
102
}
330
1F
100
AcDbEntity
  8
NOSNÉ KONSTRUKCE
100
AcDbLine
 10
-57.18992606098652
 20
150.0184325759384
 30
0.0
 11
64.62388253276333
 21
150.0184325759384
 31
0.0
  0
ARC
  5
B63
102
{ACAD_REACTORS
330
B77
102
}
330
1F
100
AcDbEntity
  8
NOSNÉ KONSTRUKCE
100
AcDbCircle
 10
64.62388253276333
 20
142.668432575938
 30
0.0
 40
7.349999999999999
100
AcDbArc
 50
0.0000111559617483
 51
90.00001366037835
  0
LINE
  5
B64
102
{ACAD_REACTORS
330
B77
102
}
330
1F
100
AcDbEntity
  8
NOSNÉ KONSTRUKCE
100
AcDbLine
 10
71.97388253276551
 20
161.2884325759388
 30
0.0
 11
71.97388253276551
 21
189.2184325759382
 31
0.0
  0
ARC
  5
B65
102
{ACAD_REACTORS
330
B77
102
}
330
1F
100
AcDbEntity
  8
NOSNÉ KONSTRUKCE
100
AcDbCircle
 10
64.62388253276333
 20
161.2884325759379
 30
0.0
 40
7.349999999999999
100
AcDbArc
 50
269.9999230467716
 51
359.9999255511882
  0
LINE
  5
B66
102
{ACAD_REACTORS
330
B77
102
}
330
1F
100
AcDbEntity
  8
NOSNÉ KONSTRUKCE
100
AcDbLine
 10
71.97388253276551
 20
189.2184325759382
 30
0.0
 11
78.19697823588978
 21
189.2184325759382
 31
0.0
  0
LINE
  5
B67
330
1F
100
AcDbEntity
  8
NOSNÉ KONSTRUKCE
100
AcDbLine
 10
78.19697823588978
 20
114.7384325759386
 30
0.0
 11
78.19697823588978
 21
189.2184325759382
 31
0.0
  0
LINE
  5
B68
102
{ACAD_REACTORS
330
B77
102
}
330
1F
100
AcDbEntity
  8
NOSNÉ KONSTRUKCE
100
AcDbLine
 10
71.97388253276551
 20
142.6684325759389
 30
0.0
 11
71.97388253276551
 21
114.7384325759386
 31
0.0
  0
LINE
  5
B69
102
{ACAD_REACTORS
330
B77
102
}
330
1F
100
AcDbEntity
  8
NOSNÉ KONSTRUKCE
100
AcDbLine
 10
71.97388253276551
 20
114.7384325759386
 30
0.0
 11
78.19697823588978
 21
114.7384325759386
 31
0.0
  0
LINE
  5
B6A
102
{ACAD_REACTORS
330
B77
102
}
330
1F
100
AcDbEntity
  8
STAVBA OBRYS
100
AcDbLine
 10
78.19697823588978
 20
251.259171804778
 30
0.0
 11
78.19697823588978
 21
-99.65944412341087
 31
0.0
  0
LINE
  5
B6B
330
1F
100
AcDbEntity
  8
STAVBA OBRYS
100
AcDbLine
 10
90.69697823588979
 20
251.259171804778
 30
0.0
 11
90.69697823588979
 21
-99.65944412341087
 31
0.0
  0
LINE
  5
B6C
330
1F
100
AcDbEntity
  8
STAVBA OBRYS
100
AcDbLine
 10
103.1969782358897
 20
251.259171804778
 30
0.0
 11
103.1969782358897
 21
-99.65944412341087
 31
0.0
  0
LINE
  5
B6D
330
1F
100
AcDbEntity
  8
STAVBA OBRYS
100
AcDbLine
 10
-95.76302176411662
 20
251.259171804778
 30
0.0
 11
-95.76302176411662
 21
-99.65944412341087
 31
0.0
  0
LINE
  5
B6E
330
1F
100
AcDbEntity
  8
STAVBA OBRYS
100
AcDbLine
 10
-83.26302176411662
 20
251.259171804778
 30
0.0
 11
-83.26302176411662
 21
-99.65944412341087
 31
0.0
  0
LINE
  5
B6F
102
{ACAD_REACTORS
330
B77
102
}
330
1F
100
AcDbEntity
  8
STAVBA OBRYS
100
AcDbLine
 10
-70.76302176411662
 20
251.259171804778
 30
0.0
 11
-70.76302176411662
 21
-99.65944412341087
 31
0.0
  0
LINE
  5
B70
330
1F
100
AcDbEntity
  8
STAVBA OBRYS
100
AcDbLine
 10
-100.7630217641166
 20
251.259171804778
 30
0.0
 11
-100.7630217641166
 21
-99.65944412341087
 31
0.0
  0
LINE
  5
B71
330
1F
100
AcDbEntity
  8
STAVBA OBRYS
100
AcDbLine
 10
64.62388078038532
 20
150.0184325759375
 30
0.0
 11
64.62388078038896
 21
-99.65944412341087
 31
0.0
  0
LINE
  5
B72
330
1F
100
AcDbEntity
  8
STAVBA OBRYS
100
AcDbLine
 10
-57.18992606098652
 20
150.0184325759384
 30
0.0
 11
-57.18992606098652
 21
-100.0058406572941
 31
0.0
  0
LINE
  5
B73
330
1F
100
AcDbEntity
  8
izolace
  6
IZOLACE
 48
6.0
100
AcDbLine
 10
3.716977359701218
 20
-96.90231277582718
 30
0.0
 11
3.71697735969758
 21
150.0184325759384
 31
0.0
  0
LINE
  5
B74
330
1F
100
AcDbEntity
  8
STAVBA OBRYS
100
AcDbLine
 10
-57.18992541842851
 20
153.9384325759376
 30
0.0
 11
-57.18992541842851
 21
250.6088719936953
 31
0.0
  0
LINE
  5
B75
330
1F
100
AcDbEntity
  8
STAVBA OBRYS
100
AcDbLine
 10
64.62388253276333
 20
153.9384325759385
 30
0.0
 11
64.62388253275969
 21
250.6088719936953
 31
0.0
  0
LINE
  5
B76
330
1F
100
AcDbEntity
  8
izolace
  6
IZOLACE
 48
6.0
100
AcDbLine
 10
3.71697735969758
 20
153.9384325759385
 30
0.0
 11
3.716977359701218
 21
252.5839893777585
 31
0.0
  0
HATCH
  5
B77
330
1F
100
AcDbEntity
  8
NOSNÉ KONSTRUKCE
100
AcDbHatch
 10
0.0
 20
0.0
 30
0.0
210
0.0
220
0.0
230
1.0
  2
SOLID
 70
     1
 71
     1
 91
        1
 92
        7
 72
     1
 73
     1
 93
       16
 10
64.62388253276333
 20
153.9384325759385
 42
0.0
 10
-57.18992606098652
 20
153.9384325759385
 42
-0.4142135623730707
 10
-64.53992606098506
 20
161.2884325759379
 42
0.0
 10
-64.53992606098871
 20
189.2184325759382
 42
0.0
 10
-70.76302176412025
 20
189.2184325759382
 42
0.0
 10
-70.76302176412389
 20
114.7384325759386
 42
0.0
 10
-64.53992606098143
 20
114.7384325759396
 42
0.0
 10
-64.53992606098506
 20
142.6684325759371
 42
-0.4142135623730922
 10
-57.18992606098652
 20
150.0184325759384
 42
0.0
 10
64.62388253276333
 20
150.0184325759384
 42
-0.4142135623731899
 10
71.97388253276551
 20
142.668432575938
 42
0.0
 10
71.97388253276187
 20
114.7384325759386
 42
0.0
 10
78.19697823588615
 20
114.7384325759386
 42
0.0
 10
78.19697823588615
 20
189.2184325759382
 42
0.0
 10
71.97388253276187
 20
189.2184325759382
 42
0.0
 10
71.97388253276551
 20
161.2884325759397
 42
-0.4142135623731584
 97
       16
330
B66
330
B64
330
B65
330
B61
330
B5E
330
B5F
330
B60
330
B6F
330
B5C
330
B5B
330
B5D
330
B62
330
B63
330
B68
330
B69
330
B6A
 75
     0
 76
     1
 47
0.4724247592908173
 98
        1
 10
73.11017797585702
 20
152.3534384090373
  0
LINE
  5
B78
330
1F
100
AcDbEntity
  8
SPOJOVACÍ
  6
Continuous
100
AcDbLine
 10
136.8435831877428
 20
34.45374913012637
 30
0.0
 11
140.8879875473354
 21
35.81366614366851
 31
0.0
  0
LINE
  5
B79
330
1F
100
AcDbEntity
  8
SPOJOVACÍ
  6
Continuous
100
AcDbLine
 10
136.8435831877428
 20
35.04999181528109
 30
0.0
 11
140.8879875473354
 21
36.40990882882323
 31
0.0
  0
LINE
  5
B7A
330
1F
100
AcDbEntity
  8
SPOJOVACÍ
  6
Continuous
100
AcDbLine
 10
141.2656389182808
 20
36.03225745569506
 30
0.0
 11
140.8879875473354
 21
35.81366614366851
 31
0.0
  0
LINE
  5
B7B
330
1F
100
AcDbEntity
  8
SPOJOVACÍ
  6
Continuous
100
AcDbLine
 10
141.2656389182808
 20
36.03225745569506
 30
0.0
 11
140.8879875473354
 21
36.40990882882323
 31
0.0
  0
LINE
  5
B7C
330
1F
100
AcDbEntity
  8
SPOJOVACÍ
  6
Continuous
100
AcDbLine
 10
136.4659318124319
 20
34.83233067923282
 30
0.0
 11
136.8435831877428
 21
34.45374913012637
 31
0.0
  0
LINE
  5
B7D
330
1F
100
AcDbEntity
  8
SPOJOVACÍ
  6
Continuous
100
AcDbLine
 10
136.4659318124319
 20
34.83233067923282
 30
0.0
 11
136.8435831877428
 21
35.04999181528109
 31
0.0
  0
LINE
  5
B7E
330
1F
100
AcDbEntity
  8
SPOJOVACÍ
  6
Continuous
100
AcDbLine
 10
136.4659318124319
 20
34.83233067923282
 30
0.0
 11
141.2656389182808
 21
36.03225745569506
 31
0.0
  0
LINE
  5
B7F
330
1F
100
AcDbEntity
  8
SPOJOVACÍ
  6
Continuous
100
AcDbLine
 10
136.8435831877428
 20
31.33393951116449
 30
0.0
 11
140.8879875473354
 21
32.69385652470663
 31
0.0
  0
LINE
  5
B80
330
1F
100
AcDbEntity
  8
SPOJOVACÍ
  6
Continuous
100
AcDbLine
 10
136.8435831877428
 20
31.93018219631193
 30
0.0
 11
140.8879875473354
 21
33.29009920958486
 31
0.0
  0
LINE
  5
B81
330
1F
100
AcDbEntity
  8
SPOJOVACÍ
  6
Continuous
100
AcDbLine
 10
141.2656389182808
 20
32.91151766075489
 30
0.0
 11
140.8879875473354
 21
32.69385652470663
 31
0.0
  0
LINE
  5
B82
330
1F
100
AcDbEntity
  8
SPOJOVACÍ
  6
Continuous
100
AcDbLine
 10
141.2656389182808
 20
32.91151766075489
 30
0.0
 11
140.8879875473354
 21
33.29009920958486
 31
0.0
  0
LINE
  5
B83
330
1F
100
AcDbEntity
  8
SPOJOVACÍ
  6
Continuous
100
AcDbLine
 10
136.4659318124319
 20
31.71159088429266
 30
0.0
 11
136.8435831877428
 21
31.33393951116449
 31
0.0
  0
LINE
  5
B84
330
1F
100
AcDbEntity
  8
SPOJOVACÍ
  6
Continuous
100
AcDbLine
 10
136.4659318124319
 20
31.71159088429266
 30
0.0
 11
136.8435831877428
 21
31.93018219631193
 31
0.0
  0
LINE
  5
B85
330
1F
100
AcDbEntity
  8
SPOJOVACÍ
  6
Continuous
100
AcDbLine
 10
136.4659318124319
 20
31.71159088429266
 30
0.0
 11
141.2656389182808
 21
32.91151766075489
 31
0.0
  0
LINE
  5
B86
330
1F
100
AcDbEntity
  8
SPOJOVACÍ
  6
Continuous
100
AcDbLine
 10
136.8435831877428
 20
28.21412989219533
 30
0.0
 11
140.8879875473354
 21
29.57404690546826
 31
0.0
  0
LINE
  5
B87
330
1F
100
AcDbEntity
  8
SPOJOVACÍ
  6
Continuous
100
AcDbLine
 10
136.8435831877428
 20
28.81037257735005
 30
0.0
 11
140.8879875473354
 21
30.17028959061571
 31
0.0
  0
LINE
  5
B88
330
1F
100
AcDbEntity
  8
SPOJOVACÍ
  6
Continuous
100
AcDbLine
 10
141.2656389182808
 20
29.79170804178574
 30
0.0
 11
140.8879875473354
 21
29.57404690546826
 31
0.0
  0
LINE
  5
B89
330
1F
100
AcDbEntity
  8
SPOJOVACÍ
  6
Continuous
100
AcDbLine
 10
141.2656389182808
 20
29.79170804178574
 30
0.0
 11
140.8879875473354
 21
30.17028959061571
 31
0.0
  0
LINE
  5
B8A
330
1F
100
AcDbEntity
  8
SPOJOVACÍ
  6
Continuous
100
AcDbLine
 10
136.4659318124319
 20
28.5917812653235
 30
0.0
 11
136.8435831877428
 21
28.21412989219533
 31
0.0
  0
LINE
  5
B8B
330
1F
100
AcDbEntity
  8
SPOJOVACÍ
  6
Continuous
100
AcDbLine
 10
136.4659318124319
 20
28.5917812653235
 30
0.0
 11
136.8435831877428
 21
28.81037257735005
 31
0.0
  0
LINE
  5
B8C
330
1F
100
AcDbEntity
  8
SPOJOVACÍ
  6
Continuous
100
AcDbLine
 10
136.4659318124319
 20
28.5917812653235
 30
0.0
 11
141.2656389182808
 21
29.79170804178574
 31
0.0
  0
LINE
  5
B8D
330
1F
100
AcDbEntity
  8
SPOJOVACÍ
  6
Continuous
100
AcDbLine
 10
137.8491032234302
 20
43.93782154416402
 30
0.0
 11
140.0033903648869
 21
44.248500259938
 31
0.0
  0
LINE
  5
B8E
330
1F
100
AcDbEntity
  8
SPOJOVACÍ
  6
Continuous
100
AcDbLine
 10
138.2267545943756
 20
43.56017017103584
 30
0.0
 11
139.6257389939415
 21
44.03083912362052
 31
0.0
  0
LINE
  5
B8F
330
1F
100
AcDbEntity
  8
SPOJOVACÍ
  6
Continuous
100
AcDbLine
 10
138.2267545943756
 20
44.15641285618329
 30
0.0
 11
139.6257389939415
 21
44.62708180876797
 31
0.0
  0
LINE
  5
B90
330
1F
100
AcDbEntity
  8
SPOJOVACÍ
  6
Continuous
100
AcDbLine
 10
140.0033903648869
 20
44.248500259938
 30
0.0
 11
139.6257389939415
 21
44.03083912362052
 31
0.0
  0
LINE
  5
B91
330
1F
100
AcDbEntity
  8
SPOJOVACÍ
  6
Continuous
100
AcDbLine
 10
140.0033903648869
 20
44.248500259938
 30
0.0
 11
139.6257389939415
 21
44.62708180876797
 31
0.0
  0
LINE
  5
B92
330
1F
100
AcDbEntity
  8
SPOJOVACÍ
  6
Continuous
100
AcDbLine
 10
137.8491032234302
 20
43.93782154416402
 30
0.0
 11
138.2267545943756
 21
43.56017017103584
 31
0.0
  0
LINE
  5
B93
330
1F
100
AcDbEntity
  8
SPOJOVACÍ
  6
Continuous
100
AcDbLine
 10
137.8491032234302
 20
43.93782154416402
 30
0.0
 11
138.2267545943756
 21
44.15641285618329
 31
0.0
  0
LINE
  5
B94
330
1F
100
AcDbEntity
  8
SPOJOVACÍ
  6
Continuous
100
AcDbLine
 10
137.2844865129587
 20
40.92405196584439
 30
0.0
 11
140.4005754293899
 21
41.55750168261437
 31
0.0
  0
LINE
  5
B95
330
1F
100
AcDbEntity
  8
SPOJOVACÍ
  6
Continuous
100
AcDbLine
 10
137.6621378882697
 20
40.54547041673794
 30
0.0
 11
140.0229240584445
 21
41.3398405465661
 31
0.0
  0
LINE
  5
B96
330
1F
100
AcDbEntity
  8
SPOJOVACÍ
  6
Continuous
100
AcDbLine
 10
137.6621378882697
 20
41.14171310189266
 30
0.0
 11
140.0229240584445
 21
41.93608323144434
 31
0.0
  0
LINE
  5
B97
330
1F
100
AcDbEntity
  8
SPOJOVACÍ
  6
Continuous
100
AcDbLine
 10
140.4005754293899
 20
41.55750168261437
 30
0.0
 11
140.0229240584445
 21
41.3398405465661
 31
0.0
  0
LINE
  5
B98
330
1F
100
AcDbEntity
  8
SPOJOVACÍ
  6
Continuous
100
AcDbLine
 10
140.4005754293899
 20
41.55750168261437
 30
0.0
 11
140.0229240584445
 21
41.93608323144434
 31
0.0
  0
LINE
  5
B99
330
1F
100
AcDbEntity
  8
SPOJOVACÍ
  6
Continuous
100
AcDbLine
 10
137.2844865129587
 20
40.92405196584439
 30
0.0
 11
137.6621378882697
 21
40.54547041673794
 31
0.0
  0
LINE
  5
B9A
330
1F
100
AcDbEntity
  8
SPOJOVACÍ
  6
Continuous
100
AcDbLine
 10
137.2844865129587
 20
40.92405196584439
 30
0.0
 11
137.6621378882697
 21
41.14171310189266
 31
0.0
  0
LINE
  5
B9B
330
1F
100
AcDbEntity
  8
SPOJOVACÍ
  6
Continuous
100
AcDbLine
 10
136.7198698068529
 20
37.90935221154649
 30
0.0
 11
140.8451994595958
 21
38.8823160938511
 31
0.0
  0
LINE
  5
B9C
330
1F
100
AcDbEntity
  8
SPOJOVACÍ
  6
Continuous
100
AcDbLine
 10
137.0984513551371
 20
37.53170083841832
 30
0.0
 11
140.4675480886504
 21
38.66465495780284
 31
0.0
  0
LINE
  5
B9D
330
1F
100
AcDbEntity
  8
SPOJOVACÍ
  6
Continuous
100
AcDbLine
 10
137.0984513551371
 20
38.12794352357304
 30
0.0
 11
140.4675480886504
 21
39.26089764295756
 31
0.0
  0
LINE
  5
B9E
330
1F
100
AcDbEntity
  8
SPOJOVACÍ
  6
Continuous
100
AcDbLine
 10
140.8451994595958
 20
38.8823160938511
 30
0.0
 11
140.4675480886504
 21
38.66465495780284
 31
0.0
  0
LINE
  5
B9F
330
1F
100
AcDbEntity
  8
SPOJOVACÍ
  6
Continuous
100
AcDbLine
 10
140.8451994595958
 20
38.8823160938511
 30
0.0
 11
140.4675480886504
 21
39.26089764295756
 31
0.0
  0
LINE
  5
BA0
330
1F
100
AcDbEntity
  8
SPOJOVACÍ
  6
Continuous
100
AcDbLine
 10
136.7198698068529
 20
37.90935221154649
 30
0.0
 11
137.0984513551371
 21
37.53170083841832
 31
0.0
  0
LINE
  5
BA1
330
1F
100
AcDbEntity
  8
SPOJOVACÍ
  6
Continuous
100
AcDbLine
 10
136.7198698068529
 20
37.90935221154649
 30
0.0
 11
137.0984513551371
 21
38.12794352357304
 31
0.0
  0
LINE
  5
BA2
330
1F
100
AcDbEntity
  8
SPOJOVACÍ
  6
Continuous
100
AcDbLine
 10
136.8435831877428
 20
25.09432027295696
 30
0.0
 11
140.8879875473354
 21
26.45330711079731
 31
0.0
  0
LINE
  5
BA3
330
1F
100
AcDbEntity
  8
SPOJOVACÍ
  6
Continuous
100
AcDbLine
 10
136.8435831877428
 20
25.69056295811168
 30
0.0
 11
140.8879875473354
 21
27.04954979567554
 31
0.0
  0
LINE
  5
BA4
330
1F
100
AcDbEntity
  8
SPOJOVACÍ
  6
Continuous
100
AcDbLine
 10
141.2656389182808
 20
26.67189842282386
 30
0.0
 11
140.8879875473354
 21
26.45330711079731
 31
0.0
  0
LINE
  5
BA5
330
1F
100
AcDbEntity
  8
SPOJOVACÍ
  6
Continuous
100
AcDbLine
 10
141.2656389182808
 20
26.67189842282386
 30
0.0
 11
140.8879875473354
 21
27.04954979567554
 31
0.0
  0
LINE
  5
BA6
330
1F
100
AcDbEntity
  8
SPOJOVACÍ
  6
Continuous
100
AcDbLine
 10
136.4659318124319
 20
25.47197164608514
 30
0.0
 11
136.8435831877428
 21
25.09432027295696
 31
0.0
  0
LINE
  5
BA7
330
1F
100
AcDbEntity
  8
SPOJOVACÍ
  6
Continuous
100
AcDbLine
 10
136.4659318124319
 20
25.47197164608514
 30
0.0
 11
136.8435831877428
 21
25.69056295811168
 31
0.0
  0
LINE
  5
BA8
330
1F
100
AcDbEntity
  8
SPOJOVACÍ
  6
Continuous
100
AcDbLine
 10
136.4659318124319
 20
25.47197164608514
 30
0.0
 11
141.2656389182808
 21
26.67189842282386
 31
0.0
  0
LINE
  5
BA9
330
1F
100
AcDbEntity
  8
SPOJOVACÍ
  6
Continuous
100
AcDbLine
 10
136.8435831877428
 20
21.97358047829328
 30
0.0
 11
140.8879875473354
 21
23.33349749155894
 31
0.0
  0
LINE
  5
BAA
330
1F
100
AcDbEntity
  8
SPOJOVACÍ
  6
Continuous
100
AcDbLine
 10
136.8435831877428
 20
22.56982316317152
 30
0.0
 11
140.8879875473354
 21
23.92974017671366
 31
0.0
  0
LINE
  5
BAB
330
1F
100
AcDbEntity
  8
SPOJOVACÍ
  6
Continuous
100
AcDbLine
 10
141.2656389182808
 20
23.55208880358549
 30
0.0
 11
140.8879875473354
 21
23.33349749155894
 31
0.0
  0
LINE
  5
BAC
330
1F
100
AcDbEntity
  8
SPOJOVACÍ
  6
Continuous
100
AcDbLine
 10
141.2656389182808
 20
23.55208880358549
 30
0.0
 11
140.8879875473354
 21
23.92974017671366
 31
0.0
  0
LINE
  5
BAD
330
1F
100
AcDbEntity
  8
SPOJOVACÍ
  6
Continuous
100
AcDbLine
 10
136.4659318124319
 20
22.35216202712325
 30
0.0
 11
136.8435831877428
 21
21.97358047829328
 31
0.0
  0
LINE
  5
BAE
330
1F
100
AcDbEntity
  8
SPOJOVACÍ
  6
Continuous
100
AcDbLine
 10
136.4659318124319
 20
22.35216202712325
 30
0.0
 11
136.8435831877428
 21
22.56982316317152
 31
0.0
  0
LINE
  5
BAF
330
1F
100
AcDbEntity
  8
SPOJOVACÍ
  6
Continuous
100
AcDbLine
 10
136.4659318124319
 20
22.35216202712325
 30
0.0
 11
141.2656389182808
 21
23.55208880358549
 31
0.0
  0
LINE
  5
BB0
330
1F
100
AcDbEntity
  8
SPOJOVACÍ
  6
Continuous
100
AcDbLine
 10
139.9699040374395
 20
38.4879215564535
 30
0.0
 11
140.2154704489072
 21
36.51687904516728
 31
0.0
  0
LINE
  5
BB1
330
1F
100
AcDbEntity
  8
SPOJOVACÍ
  6
Continuous
100
AcDbLine
 10
139.6313200448781
 20
41.19473312235203
 30
0.0
 11
139.8982805002157
 21
39.05811931949864
 31
0.0
  0
LINE
  5
BB2
330
1F
100
AcDbEntity
  8
SPOJOVACÍ
  6
Continuous
100
AcDbLine
 10
139.2918058837091
 20
43.91177662178523
 30
0.0
 11
139.5596965120199
 21
41.76679123680076
 31
0.0
  0
LINE
  5
BB3
330
1F
100
AcDbEntity
  8
SPOJOVACÍ
  6
Continuous
100
AcDbLine
 10
138.4797624114577
 20
44.22803639231569
 30
0.0
 11
138.8657853653563
 21
47.31715021012059
 31
0.0
  0
LINE
  5
BB4
330
1F
100
AcDbEntity
  8
SPOJOVACÍ
  6
Continuous
100
AcDbLine
 10
138.1123429737778
 20
41.28682052610673
 30
0.0
 11
138.4025578189317
 21
43.60760913646226
 31
0.0
  0
LINE
  5
BB5
330
1F
100
AcDbEntity
  8
SPOJOVACÍ
  6
Continuous
100
AcDbLine
 10
137.7430631814201
 20
38.33444255037756
 30
0.0
 11
138.0332780309396
 21
40.65616133644215
 31
0.0
  0
LINE
  5
BB6
330
1F
100
AcDbEntity
  8
SPOJOVACÍ
  6
Continuous
100
AcDbLine
 10
138.8657853653563
 20
47.31715021012059
 30
0.0
 11
139.2201823464853
 21
44.4810442088521
 31
0.0
  0
LINE
  5
BB7
330
1F
100
AcDbEntity
  8
SPOJOVACÍ
  6
Continuous
100
AcDbLine
 10
137.516100286171
 20
36.51687904516728
 30
0.0
 11
137.6658585888941
 21
37.71401529452413
 31
0.0
  0
LINE
  5
BB8
330
1F
100
AcDbEntity
  8
SPOJOVACÍ
  6
Continuous
100
AcDbLine
 10
140.2154704489072
 20
36.18015540728373
 30
0.0
 11
140.2154704489072
 21
36.51687904516728
 31
0.0
  0
LINE
  5
BB9
330
1F
100
AcDbEntity
  8
SPOJOVACÍ
  6
Continuous
100
AcDbLine
 10
140.2154704489072
 20
33.05755526067077
 30
0.0
 11
140.2154704489072
 21
35.57647131569973
 31
0.0
  0
LINE
  5
BBA
330
1F
100
AcDbEntity
  8
SPOJOVACÍ
  6
Continuous
100
AcDbLine
 10
137.516100286171
 20
35.26951330327864
 30
0.0
 11
137.516100286171
 21
36.51687904516728
 31
0.0
  0
LINE
  5
BBB
330
1F
100
AcDbEntity
  8
SPOJOVACÍ
  6
Continuous
100
AcDbLine
 10
137.516100286171
 20
32.15528473879675
 30
0.0
 11
137.516100286171
 21
34.67327061812392
 31
0.0
  0
LINE
  5
BBC
330
1F
100
AcDbEntity
  8
SPOJOVACÍ
  6
Continuous
100
AcDbLine
 10
140.2154704489072
 20
29.93588529002881
 30
0.0
 11
140.2154704489072
 21
32.45666169673785
 31
0.0
  0
LINE
  5
BBD
330
1F
100
AcDbEntity
  8
SPOJOVACÍ
  6
Continuous
100
AcDbLine
 10
140.2154704489072
 20
26.81328514368505
 30
0.0
 11
140.2154704489072
 21
29.34150295655416
 31
0.0
  0
LINE
  5
BBE
330
1F
100
AcDbEntity
  8
SPOJOVACÍ
  6
Continuous
100
AcDbLine
 10
140.2154704489072
 20
23.69812640350136
 30
0.0
 11
140.2154704489072
 21
26.21704245853033
 31
0.0
  0
LINE
  5
BBF
330
1F
100
AcDbEntity
  8
SPOJOVACÍ
  6
Continuous
100
AcDbLine
 10
137.516100286171
 20
29.02245265864184
 30
0.0
 11
137.516100286171
 21
31.55067047151095
 31
0.0
  0
LINE
  5
BC0
330
1F
100
AcDbEntity
  8
SPOJOVACÍ
  6
Continuous
100
AcDbLine
 10
137.516100286171
 20
25.90729391845815
 30
0.0
 11
137.516100286171
 21
28.4280703251672
 31
0.0
  0
LINE
  5
BC1
330
1F
100
AcDbEntity
  8
SPOJOVACÍ
  6
Continuous
100
AcDbLine
 10
137.516100286171
 20
22.78469377211439
 30
0.0
 11
137.516100286171
 21
25.30360982714336
 31
0.0
  0
LINE
  5
BC2
330
1F
100
AcDbEntity
  8
SPOJOVACÍ
  6
Continuous
100
AcDbLine
 10
137.516100286171
 20
18.15148813325794
 30
0.0
 11
137.516100286171
 21
22.18938126293795
 31
0.0
  0
LINE
  5
BC3
330
1F
100
AcDbEntity
  8
SPOJOVACÍ
  6
Continuous
100
AcDbLine
 10
140.2154704489072
 20
18.15148813325794
 30
0.0
 11
140.2154704489072
 21
23.09444231218657
 31
0.0
  0
LINE
  5
BC4
330
1F
100
AcDbEntity
  8
SPOJOVACÍ
  6
Continuous
100
AcDbLine
 10
133.7656314767224
 20
12.7518176389014
 30
0.0
 11
135.1153165602733
 21
13.49595827537558
 31
0.0
  0
LINE
  5
BC5
330
1F
100
AcDbEntity
  8
SPOJOVACÍ
  6
Continuous
100
AcDbLine
 10
135.1153165602733
 20
13.49595827537558
 30
0.0
 11
136.2259464606319
 21
14.56473026478778
 31
0.0
  0
LINE
  5
BC6
330
1F
100
AcDbEntity
  8
SPOJOVACÍ
  6
Continuous
100
AcDbLine
 10
136.2259464606319
 20
14.56473026478778
 30
0.0
 11
137.0221769399501
 21
15.8837195430853
 31
0.0
  0
LINE
  5
BC7
330
1F
100
AcDbEntity
  8
SPOJOVACÍ
  6
Continuous
100
AcDbLine
 10
137.0221769399501
 20
15.8837195430853
 30
0.0
 11
137.4500578042494
 21
17.36455941013554
 31
0.0
  0
LINE
  5
BC8
330
1F
100
AcDbEntity
  8
SPOJOVACÍ
  6
Continuous
100
AcDbLine
 10
137.4500578042494
 20
17.36455941013554
 30
0.0
 11
137.516100286171
 21
18.15148813325794
 31
0.0
  0
LINE
  5
BC9
330
1F
100
AcDbEntity
  8
SPOJOVACÍ
  6
Continuous
100
AcDbLine
 10
142.0135002589228
 20
14.0066247872266
 30
0.0
 11
143.2506340678225
 21
13.08854127678495
 31
0.0
  0
LINE
  5
BCA
330
1F
100
AcDbEntity
  8
SPOJOVACÍ
  6
Continuous
100
AcDbLine
 10
143.2506340678225
 20
13.08854127678495
 30
0.0
 11
143.9659392539903
 21
12.7518176389014
 31
0.0
  0
LINE
  5
BCB
330
1F
100
AcDbEntity
  8
SPOJOVACÍ
  6
Continuous
100
AcDbLine
 10
133.7656314767224
 20
12.7518176389014
 30
0.0
 11
143.9659392539903
 21
12.7518176389014
 31
0.0
  0
LINE
  5
BCC
330
1F
100
AcDbEntity
  8
SPOJOVACÍ
  6
Continuous
100
AcDbLine
 10
133.7656314767224
 20
11.55189086216995
 30
0.0
 11
133.7656314767224
 21
12.7518176389014
 31
0.0
  0
LINE
  5
BCD
330
1F
100
AcDbEntity
  8
SPOJOVACÍ
  6
Continuous
100
AcDbLine
 10
133.7656314767224
 20
11.55189086216995
 30
0.0
 11
143.9659392539903
 21
11.55189086216995
 31
0.0
  0
LINE
  5
BCE
330
1F
100
AcDbEntity
  8
SPOJOVACÍ
  6
Continuous
100
AcDbLine
 10
143.9659392539903
 20
11.55189086216995
 30
0.0
 11
143.9659392539903
 21
12.7518176389014
 31
0.0
  0
LINE
  5
BCF
330
1F
100
AcDbEntity
  8
SPOJOVACÍ
  6
Continuous
100
AcDbLine
 10
140.2154704489072
 20
18.15148813325794
 30
0.0
 11
140.4424333397906
 21
16.6278601798287
 31
0.0
  0
LINE
  5
BD0
330
1F
100
AcDbEntity
  8
SPOJOVACÍ
  6
Continuous
100
AcDbLine
 10
140.4424333397906
 20
16.6278601798287
 30
0.0
 11
141.0554191889383
 21
15.21399297012538
 31
0.0
  0
LINE
  5
BD1
330
1F
100
AcDbEntity
  8
SPOJOVACÍ
  6
Continuous
100
AcDbLine
 10
141.0554191889383
 20
15.21399297012538
 30
0.0
 11
142.0135002589228
 21
14.0066247872266
 31
0.0
  0
LINE
  5
BD2
330
1F
100
AcDbEntity
  8
SPOJOVACÍ
  6
Continuous
100
AcDbLine
 10
141.0554191889383
 20
83.12204303896322
 30
0.0
 11
142.0135002589228
 21
84.32941122186202
 31
0.0
  0
LINE
  5
BD3
330
1F
100
AcDbEntity
  8
SPOJOVACÍ
  6
Continuous
100
AcDbLine
 10
140.4424333397906
 20
81.70817582925991
 30
0.0
 11
141.0554191889383
 21
83.12204303896322
 31
0.0
  0
LINE
  5
BD4
330
1F
100
AcDbEntity
  8
SPOJOVACÍ
  6
Continuous
100
AcDbLine
 10
140.2154704489072
 20
80.18454787583067
 30
0.0
 11
140.4424333397906
 21
81.70817582925991
 31
0.0
  0
LINE
  5
BD5
330
1F
100
AcDbEntity
  8
SPOJOVACÍ
  6
Continuous
100
AcDbLine
 10
143.9659392539903
 20
86.78414514691866
 30
0.0
 11
143.9659392539903
 21
85.58421837018721
 31
0.0
  0
LINE
  5
BD6
330
1F
100
AcDbEntity
  8
SPOJOVACÍ
  6
Continuous
100
AcDbLine
 10
133.7656314767224
 20
86.78414514691866
 30
0.0
 11
143.9659392539903
 21
86.78414514691866
 31
0.0
  0
LINE
  5
BD7
330
1F
100
AcDbEntity
  8
SPOJOVACÍ
  6
Continuous
100
AcDbLine
 10
133.7656314767224
 20
86.78414514691866
 30
0.0
 11
133.7656314767224
 21
85.58421837018721
 31
0.0
  0
LINE
  5
BD8
330
1F
100
AcDbEntity
  8
SPOJOVACÍ
  6
Continuous
100
AcDbLine
 10
133.7656314767224
 20
85.58421837018721
 30
0.0
 11
143.9659392539903
 21
85.58421837018721
 31
0.0
  0
LINE
  5
BD9
330
1F
100
AcDbEntity
  8
SPOJOVACÍ
  6
Continuous
100
AcDbLine
 10
143.2506340678225
 20
85.24749473230366
 30
0.0
 11
143.9659392539903
 21
85.58421837018721
 31
0.0
  0
LINE
  5
BDA
330
1F
100
AcDbEntity
  8
SPOJOVACÍ
  6
Continuous
100
AcDbLine
 10
142.0135002589228
 20
84.32941122186202
 30
0.0
 11
143.2506340678225
 21
85.24749473230366
 31
0.0
  0
LINE
  5
BDB
330
1F
100
AcDbEntity
  8
SPOJOVACÍ
  6
Continuous
100
AcDbLine
 10
137.4500578042494
 20
80.97147659895307
 30
0.0
 11
137.516100286171
 21
80.18454787583067
 31
0.0
  0
LINE
  5
BDC
330
1F
100
AcDbEntity
  8
SPOJOVACÍ
  6
Continuous
100
AcDbLine
 10
137.0221769399501
 20
82.45231646600331
 30
0.0
 11
137.4500578042494
 21
80.97147659895307
 31
0.0
  0
LINE
  5
BDD
330
1F
100
AcDbEntity
  8
SPOJOVACÍ
  6
Continuous
100
AcDbLine
 10
136.2259464606319
 20
83.77130574430083
 30
0.0
 11
137.0221769399501
 21
82.45231646600331
 31
0.0
  0
LINE
  5
BDE
330
1F
100
AcDbEntity
  8
SPOJOVACÍ
  6
Continuous
100
AcDbLine
 10
135.1153165602733
 20
84.84007773371303
 30
0.0
 11
136.2259464606319
 21
83.77130574430083
 31
0.0
  0
LINE
  5
BDF
330
1F
100
AcDbEntity
  8
SPOJOVACÍ
  6
Continuous
100
AcDbLine
 10
133.7656314767224
 20
85.58421837018721
 30
0.0
 11
135.1153165602733
 21
84.84007773371303
 31
0.0
  0
LINE
  5
BE0
330
1F
100
AcDbEntity
  8
SPOJOVACÍ
  6
Continuous
100
AcDbLine
 10
140.2154704489072
 20
80.18454787583067
 30
0.0
 11
140.2154704489072
 21
75.24159369690204
 31
0.0
  0
LINE
  5
BE1
330
1F
100
AcDbEntity
  8
SPOJOVACÍ
  6
Continuous
100
AcDbLine
 10
137.516100286171
 20
80.18454787583067
 30
0.0
 11
137.516100286171
 21
76.14665474615065
 31
0.0
  0
LINE
  5
BE2
330
1F
100
AcDbEntity
  8
SPOJOVACÍ
  6
Continuous
100
AcDbLine
 10
137.516100286171
 20
75.55134223697422
 30
0.0
 11
137.516100286171
 21
73.03242618194525
 31
0.0
  0
LINE
  5
BE3
330
1F
100
AcDbEntity
  8
SPOJOVACÍ
  6
Continuous
100
AcDbLine
 10
137.516100286171
 20
72.42874209063046
 30
0.0
 11
137.516100286171
 21
69.90796568392141
 31
0.0
  0
LINE
  5
BE4
330
1F
100
AcDbEntity
  8
SPOJOVACÍ
  6
Continuous
100
AcDbLine
 10
137.516100286171
 20
69.31358335044677
 30
0.0
 11
137.516100286171
 21
66.78536553757766
 31
0.0
  0
LINE
  5
BE5
330
1F
100
AcDbEntity
  8
SPOJOVACÍ
  6
Continuous
100
AcDbLine
 10
140.2154704489072
 20
74.63790960558725
 30
0.0
 11
140.2154704489072
 21
72.11899355055829
 31
0.0
  0
LINE
  5
BE6
330
1F
100
AcDbEntity
  8
SPOJOVACÍ
  6
Continuous
100
AcDbLine
 10
140.2154704489072
 20
71.52275086540356
 30
0.0
 11
140.2154704489072
 21
68.99453305253445
 31
0.0
  0
LINE
  5
BE7
330
1F
100
AcDbEntity
  8
SPOJOVACÍ
  6
Continuous
100
AcDbLine
 10
140.2154704489072
 20
68.4001507190598
 30
0.0
 11
140.2154704489072
 21
65.87937431235076
 31
0.0
  0
LINE
  5
BE8
330
1F
100
AcDbEntity
  8
SPOJOVACÍ
  6
Continuous
100
AcDbLine
 10
137.516100286171
 20
66.18075127029186
 30
0.0
 11
137.516100286171
 21
63.66276539096469
 31
0.0
  0
LINE
  5
BE9
330
1F
100
AcDbEntity
  8
SPOJOVACÍ
  6
Continuous
100
AcDbLine
 10
137.516100286171
 20
63.06652270580997
 30
0.0
 11
137.516100286171
 21
61.81915696392133
 31
0.0
  0
LINE
  5
BEA
330
1F
100
AcDbEntity
  8
SPOJOVACÍ
  6
Continuous
100
AcDbLine
 10
140.2154704489072
 20
65.27848074841784
 30
0.0
 11
140.2154704489072
 21
62.75956469338888
 31
0.0
  0
LINE
  5
BEB
330
1F
100
AcDbEntity
  8
SPOJOVACÍ
  6
Continuous
100
AcDbLine
 10
140.2154704489072
 20
62.15588060180488
 30
0.0
 11
140.2154704489072
 21
61.81915696392133
 31
0.0
  0
LINE
  5
BEC
330
1F
100
AcDbEntity
  8
SPOJOVACÍ
  6
Continuous
100
AcDbLine
 10
137.516100286171
 20
61.81915696392133
 30
0.0
 11
137.6658585888941
 21
60.62202071456448
 31
0.0
  0
LINE
  5
BED
330
1F
100
AcDbEntity
  8
SPOJOVACÍ
  6
Continuous
100
AcDbLine
 10
138.8657853653563
 20
51.01888579896803
 30
0.0
 11
139.2201823464853
 21
53.85499180023652
 31
0.0
  0
LINE
  5
BEE
330
1F
100
AcDbEntity
  8
SPOJOVACÍ
  6
Continuous
100
AcDbLine
 10
137.7430631814201
 20
60.00159345871105
 30
0.0
 11
138.0332780309396
 21
57.67987467264646
 31
0.0
  0
LINE
  5
BEF
330
1F
100
AcDbEntity
  8
SPOJOVACÍ
  6
Continuous
100
AcDbLine
 10
138.1123429737778
 20
57.04921548298187
 30
0.0
 11
138.4025578189317
 21
54.72842687262636
 31
0.0
  0
LINE
  5
BF0
330
1F
100
AcDbEntity
  8
SPOJOVACÍ
  6
Continuous
100
AcDbLine
 10
138.4797624114577
 20
54.10799961677293
 30
0.0
 11
138.8657853653563
 21
51.01888579896803
 31
0.0
  0
LINE
  5
BF1
330
1F
100
AcDbEntity
  8
SPOJOVACÍ
  6
Continuous
100
AcDbLine
 10
139.2918058837091
 20
54.42425938730337
 30
0.0
 11
139.5596965120199
 21
56.56924477228784
 31
0.0
  0
LINE
  5
BF2
330
1F
100
AcDbEntity
  8
SPOJOVACÍ
  6
Continuous
100
AcDbLine
 10
139.6313200448781
 20
57.14130288673658
 30
0.0
 11
139.8982805002157
 21
59.27791668958997
 31
0.0
  0
LINE
  5
BF3
330
1F
100
AcDbEntity
  8
SPOJOVACÍ
  6
Continuous
100
AcDbLine
 10
139.9699040374395
 20
59.84811445263511
 30
0.0
 11
140.2154704489072
 21
61.81915696392133
 31
0.0
  0
LINE
  5
BF4
330
1F
100
AcDbEntity
  8
SPOJOVACÍ
  6
Continuous
100
AcDbLine
 10
136.4659318124319
 20
75.98387398196535
 30
0.0
 11
141.2656389182808
 21
74.78394720550312
 31
0.0
  0
LINE
  5
BF5
330
1F
100
AcDbEntity
  8
SPOJOVACÍ
  6
Continuous
100
AcDbLine
 10
136.4659318124319
 20
75.98387398196535
 30
0.0
 11
136.8435831877428
 21
75.76621284591709
 31
0.0
  0
LINE
  5
BF6
330
1F
100
AcDbEntity
  8
SPOJOVACÍ
  6
Continuous
100
AcDbLine
 10
136.4659318124319
 20
75.98387398196535
 30
0.0
 11
136.8435831877428
 21
76.36245553079533
 31
0.0
  0
LINE
  5
BF7
330
1F
100
AcDbEntity
  8
SPOJOVACÍ
  6
Continuous
100
AcDbLine
 10
141.2656389182808
 20
74.78394720550312
 30
0.0
 11
140.8879875473354
 21
74.40629583237495
 31
0.0
  0
LINE
  5
BF8
330
1F
100
AcDbEntity
  8
SPOJOVACÍ
  6
Continuous
100
AcDbLine
 10
141.2656389182808
 20
74.78394720550312
 30
0.0
 11
140.8879875473354
 21
75.00253851752967
 31
0.0
  0
LINE
  5
BF9
330
1F
100
AcDbEntity
  8
SPOJOVACÍ
  6
Continuous
100
AcDbLine
 10
136.8435831877428
 20
75.76621284591709
 30
0.0
 11
140.8879875473354
 21
74.40629583237495
 31
0.0
  0
LINE
  5
BFA
330
1F
100
AcDbEntity
  8
SPOJOVACÍ
  6
Continuous
100
AcDbLine
 10
136.8435831877428
 20
76.36245553079533
 30
0.0
 11
140.8879875473354
 21
75.00253851752967
 31
0.0
  0
LINE
  5
BFB
330
1F
100
AcDbEntity
  8
SPOJOVACÍ
  6
Continuous
100
AcDbLine
 10
136.4659318124319
 20
72.86406436300348
 30
0.0
 11
141.2656389182808
 21
71.66413758626475
 31
0.0
  0
LINE
  5
BFC
330
1F
100
AcDbEntity
  8
SPOJOVACÍ
  6
Continuous
100
AcDbLine
 10
136.4659318124319
 20
72.86406436300348
 30
0.0
 11
136.8435831877428
 21
72.64547305097693
 31
0.0
  0
LINE
  5
BFD
330
1F
100
AcDbEntity
  8
SPOJOVACÍ
  6
Continuous
100
AcDbLine
 10
136.4659318124319
 20
72.86406436300348
 30
0.0
 11
136.8435831877428
 21
73.24171573613165
 31
0.0
  0
LINE
  5
BFE
330
1F
100
AcDbEntity
  8
SPOJOVACÍ
  6
Continuous
100
AcDbLine
 10
141.2656389182808
 20
71.66413758626475
 30
0.0
 11
140.8879875473354
 21
71.28648621341307
 31
0.0
  0
LINE
  5
BFF
330
1F
100
AcDbEntity
  8
SPOJOVACÍ
  6
Continuous
100
AcDbLine
 10
141.2656389182808
 20
71.66413758626475
 30
0.0
 11
140.8879875473354
 21
71.8827288982913
 31
0.0
  0
LINE
  5
C00
330
1F
100
AcDbEntity
  8
SPOJOVACÍ
  6
Continuous
100
AcDbLine
 10
136.8435831877428
 20
72.64547305097693
 30
0.0
 11
140.8879875473354
 21
71.28648621341307
 31
0.0
  0
LINE
  5
C01
330
1F
100
AcDbEntity
  8
SPOJOVACÍ
  6
Continuous
100
AcDbLine
 10
136.8435831877428
 20
73.24171573613165
 30
0.0
 11
140.8879875473354
 21
71.8827288982913
 31
0.0
  0
LINE
  5
C02
330
1F
100
AcDbEntity
  8
SPOJOVACÍ
  6
Continuous
100
AcDbLine
 10
136.7198698068529
 20
60.42668379754212
 30
0.0
 11
137.0984513551371
 21
60.20809248551557
 31
0.0
  0
LINE
  5
C03
330
1F
100
AcDbEntity
  8
SPOJOVACÍ
  6
Continuous
100
AcDbLine
 10
136.7198698068529
 20
60.42668379754212
 30
0.0
 11
137.0984513551371
 21
60.8043351706703
 31
0.0
  0
LINE
  5
C04
330
1F
100
AcDbEntity
  8
SPOJOVACÍ
  6
Continuous
100
AcDbLine
 10
140.8451994595958
 20
59.45371991523751
 30
0.0
 11
140.4675480886504
 21
59.07513836613105
 31
0.0
  0
LINE
  5
C05
330
1F
100
AcDbEntity
  8
SPOJOVACÍ
  6
Continuous
100
AcDbLine
 10
140.8451994595958
 20
59.45371991523751
 30
0.0
 11
140.4675480886504
 21
59.67138105128578
 31
0.0
  0
LINE
  5
C06
330
1F
100
AcDbEntity
  8
SPOJOVACÍ
  6
Continuous
100
AcDbLine
 10
137.0984513551371
 20
60.20809248551557
 30
0.0
 11
140.4675480886504
 21
59.07513836613105
 31
0.0
  0
LINE
  5
C07
330
1F
100
AcDbEntity
  8
SPOJOVACÍ
  6
Continuous
100
AcDbLine
 10
137.0984513551371
 20
60.8043351706703
 30
0.0
 11
140.4675480886504
 21
59.67138105128578
 31
0.0
  0
LINE
  5
C08
330
1F
100
AcDbEntity
  8
SPOJOVACÍ
  6
Continuous
100
AcDbLine
 10
136.7198698068529
 20
60.42668379754212
 30
0.0
 11
140.8451994595958
 21
59.45371991523751
 31
0.0
  0
LINE
  5
C09
330
1F
100
AcDbEntity
  8
SPOJOVACÍ
  6
Continuous
100
AcDbLine
 10
137.2844865129587
 20
57.41198404324421
 30
0.0
 11
137.6621378882697
 21
57.19432290719595
 31
0.0
  0
LINE
  5
C0A
330
1F
100
AcDbEntity
  8
SPOJOVACÍ
  6
Continuous
100
AcDbLine
 10
137.2844865129587
 20
57.41198404324421
 30
0.0
 11
137.6621378882697
 21
57.79056559235067
 31
0.0
  0
LINE
  5
C0B
330
1F
100
AcDbEntity
  8
SPOJOVACÍ
  6
Continuous
100
AcDbLine
 10
140.4005754293899
 20
56.77853432647424
 30
0.0
 11
140.0229240584445
 21
56.39995277764427
 31
0.0
  0
LINE
  5
C0C
330
1F
100
AcDbEntity
  8
SPOJOVACÍ
  6
Continuous
100
AcDbLine
 10
140.4005754293899
 20
56.77853432647424
 30
0.0
 11
140.0229240584445
 21
56.9961954625225
 31
0.0
  0
LINE
  5
C0D
330
1F
100
AcDbEntity
  8
SPOJOVACÍ
  6
Continuous
100
AcDbLine
 10
137.6621378882697
 20
57.19432290719595
 30
0.0
 11
140.0229240584445
 21
56.39995277764427
 31
0.0
  0
LINE
  5
C0E
330
1F
100
AcDbEntity
  8
SPOJOVACÍ
  6
Continuous
100
AcDbLine
 10
137.6621378882697
 20
57.79056559235067
 30
0.0
 11
140.0229240584445
 21
56.9961954625225
 31
0.0
  0
LINE
  5
C0F
330
1F
100
AcDbEntity
  8
SPOJOVACÍ
  6
Continuous
100
AcDbLine
 10
137.2844865129587
 20
57.41198404324421
 30
0.0
 11
140.4005754293899
 21
56.77853432647424
 31
0.0
  0
LINE
  5
C10
330
1F
100
AcDbEntity
  8
SPOJOVACÍ
  6
Continuous
100
AcDbLine
 10
137.8491032234302
 20
54.39821446492459
 30
0.0
 11
138.2267545943756
 21
54.17962315290532
 31
0.0
  0
LINE
  5
C11
330
1F
100
AcDbEntity
  8
SPOJOVACÍ
  6
Continuous
100
AcDbLine
 10
137.8491032234302
 20
54.39821446492459
 30
0.0
 11
138.2267545943756
 21
54.77586583805276
 31
0.0
  0
LINE
  5
C12
330
1F
100
AcDbEntity
  8
SPOJOVACÍ
  6
Continuous
100
AcDbLine
 10
140.0033903648869
 20
54.08753574915062
 30
0.0
 11
139.6257389939415
 21
53.70895420032065
 31
0.0
  0
LINE
  5
C13
330
1F
100
AcDbEntity
  8
SPOJOVACÍ
  6
Continuous
100
AcDbLine
 10
140.0033903648869
 20
54.08753574915062
 30
0.0
 11
139.6257389939415
 21
54.30519688546809
 31
0.0
  0
LINE
  5
C14
330
1F
100
AcDbEntity
  8
SPOJOVACÍ
  6
Continuous
100
AcDbLine
 10
138.2267545943756
 20
54.17962315290532
 30
0.0
 11
139.6257389939415
 21
53.70895420032065
 31
0.0
  0
LINE
  5
C15
330
1F
100
AcDbEntity
  8
SPOJOVACÍ
  6
Continuous
100
AcDbLine
 10
138.2267545943756
 20
54.77586583805276
 30
0.0
 11
139.6257389939415
 21
54.30519688546809
 31
0.0
  0
LINE
  5
C16
330
1F
100
AcDbEntity
  8
SPOJOVACÍ
  6
Continuous
100
AcDbLine
 10
137.8491032234302
 20
54.39821446492459
 30
0.0
 11
140.0033903648869
 21
54.08753574915062
 31
0.0
  0
LINE
  5
C17
330
1F
100
AcDbEntity
  8
SPOJOVACÍ
  6
Continuous
100
AcDbLine
 10
136.4659318124319
 20
69.74425474376511
 30
0.0
 11
141.2656389182808
 21
68.54432796730288
 31
0.0
  0
LINE
  5
C18
330
1F
100
AcDbEntity
  8
SPOJOVACÍ
  6
Continuous
100
AcDbLine
 10
136.4659318124319
 20
69.74425474376511
 30
0.0
 11
136.8435831877428
 21
69.52566343173856
 31
0.0
  0
LINE
  5
C19
330
1F
100
AcDbEntity
  8
SPOJOVACÍ
  6
Continuous
100
AcDbLine
 10
136.4659318124319
 20
69.74425474376511
 30
0.0
 11
136.8435831877428
 21
70.12190611689328
 31
0.0
  0
LINE
  5
C1A
330
1F
100
AcDbEntity
  8
SPOJOVACÍ
  6
Continuous
100
AcDbLine
 10
141.2656389182808
 20
68.54432796730288
 30
0.0
 11
140.8879875473354
 21
68.16574641847291
 31
0.0
  0
LINE
  5
C1B
330
1F
100
AcDbEntity
  8
SPOJOVACÍ
  6
Continuous
100
AcDbLine
 10
141.2656389182808
 20
68.54432796730288
 30
0.0
 11
140.8879875473354
 21
68.76198910362035
 31
0.0
  0
LINE
  5
C1C
330
1F
100
AcDbEntity
  8
SPOJOVACÍ
  6
Continuous
100
AcDbLine
 10
136.8435831877428
 20
69.52566343173856
 30
0.0
 11
140.8879875473354
 21
68.16574641847291
 31
0.0
  0
LINE
  5
C1D
330
1F
100
AcDbEntity
  8
SPOJOVACÍ
  6
Continuous
100
AcDbLine
 10
136.8435831877428
 20
70.12190611689328
 30
0.0
 11
140.8879875473354
 21
68.76198910362035
 31
0.0
  0
LINE
  5
C1E
330
1F
100
AcDbEntity
  8
SPOJOVACÍ
  6
Continuous
100
AcDbLine
 10
136.4659318124319
 20
66.62444512479595
 30
0.0
 11
141.2656389182808
 21
65.42451834833372
 31
0.0
  0
LINE
  5
C1F
330
1F
100
AcDbEntity
  8
SPOJOVACÍ
  6
Continuous
100
AcDbLine
 10
136.4659318124319
 20
66.62444512479595
 30
0.0
 11
136.8435831877428
 21
66.40585381277668
 31
0.0
  0
LINE
  5
C20
330
1F
100
AcDbEntity
  8
SPOJOVACÍ
  6
Continuous
100
AcDbLine
 10
136.4659318124319
 20
66.62444512479595
 30
0.0
 11
136.8435831877428
 21
67.00209649792412
 31
0.0
  0
LINE
  5
C21
330
1F
100
AcDbEntity
  8
SPOJOVACÍ
  6
Continuous
100
AcDbLine
 10
141.2656389182808
 20
65.42451834833372
 30
0.0
 11
140.8879875473354
 21
65.04593679950374
 31
0.0
  0
LINE
  5
C22
330
1F
100
AcDbEntity
  8
SPOJOVACÍ
  6
Continuous
100
AcDbLine
 10
141.2656389182808
 20
65.42451834833372
 30
0.0
 11
140.8879875473354
 21
65.64217948438198
 31
0.0
  0
LINE
  5
C23
330
1F
100
AcDbEntity
  8
SPOJOVACÍ
  6
Continuous
100
AcDbLine
 10
136.8435831877428
 20
66.40585381277668
 30
0.0
 11
140.8879875473354
 21
65.04593679950374
 31
0.0
  0
LINE
  5
C24
330
1F
100
AcDbEntity
  8
SPOJOVACÍ
  6
Continuous
100
AcDbLine
 10
136.8435831877428
 20
67.00209649792412
 30
0.0
 11
140.8879875473354
 21
65.64217948438198
 31
0.0
  0
LINE
  5
C25
330
1F
100
AcDbEntity
  8
SPOJOVACÍ
  6
Continuous
100
AcDbLine
 10
136.4659318124319
 20
63.50370532985579
 30
0.0
 11
141.2656389182808
 21
62.30377855339355
 31
0.0
  0
LINE
  5
C26
330
1F
100
AcDbEntity
  8
SPOJOVACÍ
  6
Continuous
100
AcDbLine
 10
136.4659318124319
 20
63.50370532985579
 30
0.0
 11
136.8435831877428
 21
63.28604419380752
 31
0.0
  0
LINE
  5
C27
330
1F
100
AcDbEntity
  8
SPOJOVACÍ
  6
Continuous
100
AcDbLine
 10
136.4659318124319
 20
63.50370532985579
 30
0.0
 11
136.8435831877428
 21
63.88228687896225
 31
0.0
  0
LINE
  5
C28
330
1F
100
AcDbEntity
  8
SPOJOVACÍ
  6
Continuous
100
AcDbLine
 10
141.2656389182808
 20
62.30377855339355
 30
0.0
 11
140.8879875473354
 21
61.92612718026538
 31
0.0
  0
LINE
  5
C29
330
1F
100
AcDbEntity
  8
SPOJOVACÍ
  6
Continuous
100
AcDbLine
 10
141.2656389182808
 20
62.30377855339355
 30
0.0
 11
140.8879875473354
 21
62.5223698654201
 31
0.0
  0
LINE
  5
C2A
330
1F
100
AcDbEntity
  8
SPOJOVACÍ
  6
Continuous
100
AcDbLine
 10
136.8435831877428
 20
63.28604419380752
 30
0.0
 11
140.8879875473354
 21
61.92612718026538
 31
0.0
  0
LINE
  5
C2B
330
1F
100
AcDbEntity
  8
SPOJOVACÍ
  6
Continuous
100
AcDbLine
 10
136.8435831877428
 20
63.88228687896225
 30
0.0
 11
140.8879875473354
 21
62.5223698654201
 31
0.0
  0
LINE
  5
C2C
330
1F
100
AcDbEntity
  8
SPOJOVACÍ
  6
Continuous
100
AcDbLine
 10
512.0933131632697
 20
63.88228687896225
 30
0.0
 11
516.1377175228623
 21
62.5223698654201
 31
0.0
  0
LINE
  5
C2D
330
1F
100
AcDbEntity
  8
SPOJOVACÍ
  6
Continuous
100
AcDbLine
 10
512.0933131632697
 20
63.28604419380752
 30
0.0
 11
516.1377175228623
 21
61.92612718026538
 31
0.0
  0
LINE
  5
C2E
330
1F
100
AcDbEntity
  8
SPOJOVACÍ
  6
Continuous
100
AcDbLine
 10
516.5153688938077
 20
62.30377855339355
 30
0.0
 11
516.1377175228623
 21
62.5223698654201
 31
0.0
  0
LINE
  5
C2F
330
1F
100
AcDbEntity
  8
SPOJOVACÍ
  6
Continuous
100
AcDbLine
 10
516.5153688938077
 20
62.30377855339355
 30
0.0
 11
516.1377175228623
 21
61.92612718026538
 31
0.0
  0
LINE
  5
C30
330
1F
100
AcDbEntity
  8
SPOJOVACÍ
  6
Continuous
100
AcDbLine
 10
511.7156617879587
 20
63.50370532985579
 30
0.0
 11
512.0933131632697
 21
63.88228687896225
 31
0.0
  0
LINE
  5
C31
330
1F
100
AcDbEntity
  8
SPOJOVACÍ
  6
Continuous
100
AcDbLine
 10
511.7156617879587
 20
63.50370532985579
 30
0.0
 11
512.0933131632697
 21
63.28604419380752
 31
0.0
  0
LINE
  5
C32
330
1F
100
AcDbEntity
  8
SPOJOVACÍ
  6
Continuous
100
AcDbLine
 10
511.7156617879587
 20
63.50370532985579
 30
0.0
 11
516.5153688938077
 21
62.30377855339355
 31
0.0
  0
LINE
  5
C33
330
1F
100
AcDbEntity
  8
SPOJOVACÍ
  6
Continuous
100
AcDbLine
 10
512.0933131632697
 20
67.00209649792412
 30
0.0
 11
516.1377175228623
 21
65.64217948438198
 31
0.0
  0
LINE
  5
C34
330
1F
100
AcDbEntity
  8
SPOJOVACÍ
  6
Continuous
100
AcDbLine
 10
512.0933131632697
 20
66.40585381277668
 30
0.0
 11
516.1377175228623
 21
65.04593679950374
 31
0.0
  0
LINE
  5
C35
330
1F
100
AcDbEntity
  8
SPOJOVACÍ
  6
Continuous
100
AcDbLine
 10
516.5153688938077
 20
65.42451834833372
 30
0.0
 11
516.1377175228623
 21
65.64217948438198
 31
0.0
  0
LINE
  5
C36
330
1F
100
AcDbEntity
  8
SPOJOVACÍ
  6
Continuous
100
AcDbLine
 10
516.5153688938077
 20
65.42451834833372
 30
0.0
 11
516.1377175228623
 21
65.04593679950374
 31
0.0
  0
LINE
  5
C37
330
1F
100
AcDbEntity
  8
SPOJOVACÍ
  6
Continuous
100
AcDbLine
 10
511.7156617879587
 20
66.62444512479595
 30
0.0
 11
512.0933131632697
 21
67.00209649792412
 31
0.0
  0
LINE
  5
C38
330
1F
100
AcDbEntity
  8
SPOJOVACÍ
  6
Continuous
100
AcDbLine
 10
511.7156617879587
 20
66.62444512479595
 30
0.0
 11
512.0933131632697
 21
66.40585381277668
 31
0.0
  0
LINE
  5
C39
330
1F
100
AcDbEntity
  8
SPOJOVACÍ
  6
Continuous
100
AcDbLine
 10
511.7156617879587
 20
66.62444512479595
 30
0.0
 11
516.5153688938077
 21
65.42451834833372
 31
0.0
  0
LINE
  5
C3A
330
1F
100
AcDbEntity
  8
SPOJOVACÍ
  6
Continuous
100
AcDbLine
 10
512.0933131632697
 20
70.12190611689328
 30
0.0
 11
516.1377175228623
 21
68.76198910362035
 31
0.0
  0
LINE
  5
C3B
330
1F
100
AcDbEntity
  8
SPOJOVACÍ
  6
Continuous
100
AcDbLine
 10
512.0933131632697
 20
69.52566343173856
 30
0.0
 11
516.1377175228623
 21
68.16574641847291
 31
0.0
  0
LINE
  5
C3C
330
1F
100
AcDbEntity
  8
SPOJOVACÍ
  6
Continuous
100
AcDbLine
 10
516.5153688938077
 20
68.54432796730288
 30
0.0
 11
516.1377175228623
 21
68.76198910362035
 31
0.0
  0
LINE
  5
C3D
330
1F
100
AcDbEntity
  8
SPOJOVACÍ
  6
Continuous
100
AcDbLine
 10
516.5153688938077
 20
68.54432796730288
 30
0.0
 11
516.1377175228623
 21
68.16574641847291
 31
0.0
  0
LINE
  5
C3E
330
1F
100
AcDbEntity
  8
SPOJOVACÍ
  6
Continuous
100
AcDbLine
 10
511.7156617879587
 20
69.74425474376511
 30
0.0
 11
512.0933131632697
 21
70.12190611689328
 31
0.0
  0
LINE
  5
C3F
330
1F
100
AcDbEntity
  8
SPOJOVACÍ
  6
Continuous
100
AcDbLine
 10
511.7156617879587
 20
69.74425474376511
 30
0.0
 11
512.0933131632697
 21
69.52566343173856
 31
0.0
  0
LINE
  5
C40
330
1F
100
AcDbEntity
  8
SPOJOVACÍ
  6
Continuous
100
AcDbLine
 10
511.7156617879587
 20
69.74425474376511
 30
0.0
 11
516.5153688938077
 21
68.54432796730288
 31
0.0
  0
LINE
  5
C41
330
1F
100
AcDbEntity
  8
SPOJOVACÍ
  6
Continuous
100
AcDbLine
 10
513.0988331989571
 20
54.39821446492459
 30
0.0
 11
515.2531203404138
 21
54.08753574915062
 31
0.0
  0
LINE
  5
C42
330
1F
100
AcDbEntity
  8
SPOJOVACÍ
  6
Continuous
100
AcDbLine
 10
513.4764845699025
 20
54.77586583805276
 30
0.0
 11
514.8754689694684
 21
54.30519688546809
 31
0.0
  0
LINE
  5
C43
330
1F
100
AcDbEntity
  8
SPOJOVACÍ
  6
Continuous
100
AcDbLine
 10
513.4764845699025
 20
54.17962315290532
 30
0.0
 11
514.8754689694684
 21
53.70895420032065
 31
0.0
  0
LINE
  5
C44
330
1F
100
AcDbEntity
  8
SPOJOVACÍ
  6
Continuous
100
AcDbLine
 10
515.2531203404138
 20
54.08753574915062
 30
0.0
 11
514.8754689694684
 21
54.30519688546809
 31
0.0
  0
LINE
  5
C45
330
1F
100
AcDbEntity
  8
SPOJOVACÍ
  6
Continuous
100
AcDbLine
 10
515.2531203404138
 20
54.08753574915062
 30
0.0
 11
514.8754689694684
 21
53.70895420032065
 31
0.0
  0
LINE
  5
C46
330
1F
100
AcDbEntity
  8
SPOJOVACÍ
  6
Continuous
100
AcDbLine
 10
513.0988331989571
 20
54.39821446492459
 30
0.0
 11
513.4764845699025
 21
54.77586583805276
 31
0.0
  0
LINE
  5
C47
330
1F
100
AcDbEntity
  8
SPOJOVACÍ
  6
Continuous
100
AcDbLine
 10
513.0988331989571
 20
54.39821446492459
 30
0.0
 11
513.4764845699025
 21
54.17962315290532
 31
0.0
  0
LINE
  5
C48
330
1F
100
AcDbEntity
  8
SPOJOVACÍ
  6
Continuous
100
AcDbLine
 10
512.5342164884856
 20
57.41198404324421
 30
0.0
 11
515.6503054049168
 21
56.77853432647424
 31
0.0
  0
LINE
  5
C49
330
1F
100
AcDbEntity
  8
SPOJOVACÍ
  6
Continuous
100
AcDbLine
 10
512.9118678637966
 20
57.79056559235067
 30
0.0
 11
515.2726540339714
 21
56.9961954625225
 31
0.0
  0
LINE
  5
C4A
330
1F
100
AcDbEntity
  8
SPOJOVACÍ
  6
Continuous
100
AcDbLine
 10
512.9118678637966
 20
57.19432290719595
 30
0.0
 11
515.2726540339714
 21
56.39995277764427
 31
0.0
  0
LINE
  5
C4B
330
1F
100
AcDbEntity
  8
SPOJOVACÍ
  6
Continuous
100
AcDbLine
 10
515.6503054049168
 20
56.77853432647424
 30
0.0
 11
515.2726540339714
 21
56.9961954625225
 31
0.0
  0
LINE
  5
C4C
330
1F
100
AcDbEntity
  8
SPOJOVACÍ
  6
Continuous
100
AcDbLine
 10
515.6503054049168
 20
56.77853432647424
 30
0.0
 11
515.2726540339714
 21
56.39995277764427
 31
0.0
  0
LINE
  5
C4D
330
1F
100
AcDbEntity
  8
SPOJOVACÍ
  6
Continuous
100
AcDbLine
 10
512.5342164884856
 20
57.41198404324421
 30
0.0
 11
512.9118678637966
 21
57.79056559235067
 31
0.0
  0
LINE
  5
C4E
330
1F
100
AcDbEntity
  8
SPOJOVACÍ
  6
Continuous
100
AcDbLine
 10
512.5342164884856
 20
57.41198404324421
 30
0.0
 11
512.9118678637966
 21
57.19432290719595
 31
0.0
  0
LINE
  5
C4F
330
1F
100
AcDbEntity
  8
SPOJOVACÍ
  6
Continuous
100
AcDbLine
 10
511.9695997823797
 20
60.42668379754212
 30
0.0
 11
516.0949294351227
 21
59.45371991523751
 31
0.0
  0
LINE
  5
C50
330
1F
100
AcDbEntity
  8
SPOJOVACÍ
  6
Continuous
100
AcDbLine
 10
512.348181330664
 20
60.8043351706703
 30
0.0
 11
515.7172780641773
 21
59.67138105128578
 31
0.0
  0
LINE
  5
C51
330
1F
100
AcDbEntity
  8
SPOJOVACÍ
  6
Continuous
100
AcDbLine
 10
512.348181330664
 20
60.20809248551557
 30
0.0
 11
515.7172780641773
 21
59.07513836613105
 31
0.0
  0
LINE
  5
C52
330
1F
100
AcDbEntity
  8
SPOJOVACÍ
  6
Continuous
100
AcDbLine
 10
516.0949294351227
 20
59.45371991523751
 30
0.0
 11
515.7172780641773
 21
59.67138105128578
 31
0.0
  0
LINE
  5
C53
330
1F
100
AcDbEntity
  8
SPOJOVACÍ
  6
Continuous
100
AcDbLine
 10
516.0949294351227
 20
59.45371991523751
 30
0.0
 11
515.7172780641773
 21
59.07513836613105
 31
0.0
  0
LINE
  5
C54
330
1F
100
AcDbEntity
  8
SPOJOVACÍ
  6
Continuous
100
AcDbLine
 10
511.9695997823797
 20
60.42668379754212
 30
0.0
 11
512.348181330664
 21
60.8043351706703
 31
0.0
  0
LINE
  5
C55
330
1F
100
AcDbEntity
  8
SPOJOVACÍ
  6
Continuous
100
AcDbLine
 10
511.9695997823797
 20
60.42668379754212
 30
0.0
 11
512.348181330664
 21
60.20809248551557
 31
0.0
  0
LINE
  5
C56
330
1F
100
AcDbEntity
  8
SPOJOVACÍ
  6
Continuous
100
AcDbLine
 10
512.0933131632697
 20
73.24171573613165
 30
0.0
 11
516.1377175228623
 21
71.8827288982913
 31
0.0
  0
LINE
  5
C57
330
1F
100
AcDbEntity
  8
SPOJOVACÍ
  6
Continuous
100
AcDbLine
 10
512.0933131632697
 20
72.64547305097693
 30
0.0
 11
516.1377175228623
 21
71.28648621341307
 31
0.0
  0
LINE
  5
C58
330
1F
100
AcDbEntity
  8
SPOJOVACÍ
  6
Continuous
100
AcDbLine
 10
516.5153688938077
 20
71.66413758626475
 30
0.0
 11
516.1377175228623
 21
71.8827288982913
 31
0.0
  0
LINE
  5
C59
330
1F
100
AcDbEntity
  8
SPOJOVACÍ
  6
Continuous
100
AcDbLine
 10
516.5153688938077
 20
71.66413758626475
 30
0.0
 11
516.1377175228623
 21
71.28648621341307
 31
0.0
  0
LINE
  5
C5A
330
1F
100
AcDbEntity
  8
SPOJOVACÍ
  6
Continuous
100
AcDbLine
 10
511.7156617879587
 20
72.86406436300348
 30
0.0
 11
512.0933131632697
 21
73.24171573613165
 31
0.0
  0
LINE
  5
C5B
330
1F
100
AcDbEntity
  8
SPOJOVACÍ
  6
Continuous
100
AcDbLine
 10
511.7156617879587
 20
72.86406436300348
 30
0.0
 11
512.0933131632697
 21
72.64547305097693
 31
0.0
  0
LINE
  5
C5C
330
1F
100
AcDbEntity
  8
SPOJOVACÍ
  6
Continuous
100
AcDbLine
 10
511.7156617879587
 20
72.86406436300348
 30
0.0
 11
516.5153688938077
 21
71.66413758626475
 31
0.0
  0
LINE
  5
C5D
330
1F
100
AcDbEntity
  8
SPOJOVACÍ
  6
Continuous
100
AcDbLine
 10
512.0933131632697
 20
76.36245553079533
 30
0.0
 11
516.1377175228623
 21
75.00253851752967
 31
0.0
  0
LINE
  5
C5E
330
1F
100
AcDbEntity
  8
SPOJOVACÍ
  6
Continuous
100
AcDbLine
 10
512.0933131632697
 20
75.76621284591709
 30
0.0
 11
516.1377175228623
 21
74.40629583237495
 31
0.0
  0
LINE
  5
C5F
330
1F
100
AcDbEntity
  8
SPOJOVACÍ
  6
Continuous
100
AcDbLine
 10
516.5153688938077
 20
74.78394720550312
 30
0.0
 11
516.1377175228623
 21
75.00253851752967
 31
0.0
  0
LINE
  5
C60
330
1F
100
AcDbEntity
  8
SPOJOVACÍ
  6
Continuous
100
AcDbLine
 10
516.5153688938077
 20
74.78394720550312
 30
0.0
 11
516.1377175228623
 21
74.40629583237495
 31
0.0
  0
LINE
  5
C61
330
1F
100
AcDbEntity
  8
SPOJOVACÍ
  6
Continuous
100
AcDbLine
 10
511.7156617879587
 20
75.98387398196535
 30
0.0
 11
512.0933131632697
 21
76.36245553079533
 31
0.0
  0
LINE
  5
C62
330
1F
100
AcDbEntity
  8
SPOJOVACÍ
  6
Continuous
100
AcDbLine
 10
511.7156617879587
 20
75.98387398196535
 30
0.0
 11
512.0933131632697
 21
75.76621284591709
 31
0.0
  0
LINE
  5
C63
330
1F
100
AcDbEntity
  8
SPOJOVACÍ
  6
Continuous
100
AcDbLine
 10
511.7156617879587
 20
75.98387398196535
 30
0.0
 11
516.5153688938077
 21
74.78394720550312
 31
0.0
  0
LINE
  5
C64
330
1F
100
AcDbEntity
  8
SPOJOVACÍ
  6
Continuous
100
AcDbLine
 10
515.2196340129663
 20
59.84811445263511
 30
0.0
 11
515.4652004244341
 21
61.81915696392133
 31
0.0
  0
LINE
  5
C65
330
1F
100
AcDbEntity
  8
SPOJOVACÍ
  6
Continuous
100
AcDbLine
 10
514.881050020405
 20
57.14130288673658
 30
0.0
 11
515.1480104757426
 21
59.27791668958997
 31
0.0
  0
LINE
  5
C66
330
1F
100
AcDbEntity
  8
SPOJOVACÍ
  6
Continuous
100
AcDbLine
 10
514.541535859236
 20
54.42425938730337
 30
0.0
 11
514.8094264875468
 21
56.56924477228784
 31
0.0
  0
LINE
  5
C67
330
1F
100
AcDbEntity
  8
SPOJOVACÍ
  6
Continuous
100
AcDbLine
 10
513.7294923869846
 20
54.10799961677293
 30
0.0
 11
514.1155153408832
 21
51.01888579896803
 31
0.0
  0
LINE
  5
C68
330
1F
100
AcDbEntity
  8
SPOJOVACÍ
  6
Continuous
100
AcDbLine
 10
513.3620729493046
 20
57.04921548298187
 30
0.0
 11
513.6522877944586
 21
54.72842687262636
 31
0.0
  0
LINE
  5
C69
330
1F
100
AcDbEntity
  8
SPOJOVACÍ
  6
Continuous
100
AcDbLine
 10
512.9927931569469
 20
60.00159345871105
 30
0.0
 11
513.2830080064665
 21
57.67987467264646
 31
0.0
  0
LINE
  5
C6A
330
1F
100
AcDbEntity
  8
SPOJOVACÍ
  6
Continuous
100
AcDbLine
 10
514.1155153408832
 20
51.01888579896803
 30
0.0
 11
514.4699123220122
 21
53.85499180023652
 31
0.0
  0
LINE
  5
C6B
330
1F
100
AcDbEntity
  8
SPOJOVACÍ
  6
Continuous
100
AcDbLine
 10
512.7658302616979
 20
61.81915696392133
 30
0.0
 11
512.915588564421
 21
60.62202071456448
 31
0.0
  0
LINE
  5
C6C
330
1F
100
AcDbEntity
  8
SPOJOVACÍ
  6
Continuous
100
AcDbLine
 10
515.4652004244341
 20
62.15588060180488
 30
0.0
 11
515.4652004244341
 21
61.81915696392133
 31
0.0
  0
LINE
  5
C6D
330
1F
100
AcDbEntity
  8
SPOJOVACÍ
  6
Continuous
100
AcDbLine
 10
515.4652004244341
 20
65.27848074841784
 30
0.0
 11
515.4652004244341
 21
62.75956469338888
 31
0.0
  0
LINE
  5
C6E
330
1F
100
AcDbEntity
  8
SPOJOVACÍ
  6
Continuous
100
AcDbLine
 10
512.7658302616979
 20
63.06652270580997
 30
0.0
 11
512.7658302616979
 21
61.81915696392133
 31
0.0
  0
LINE
  5
C6F
330
1F
100
AcDbEntity
  8
SPOJOVACÍ
  6
Continuous
100
AcDbLine
 10
512.7658302616979
 20
66.18075127029186
 30
0.0
 11
512.7658302616979
 21
63.66276539096469
 31
0.0
  0
LINE
  5
C70
330
1F
100
AcDbEntity
  8
SPOJOVACÍ
  6
Continuous
100
AcDbLine
 10
515.4652004244341
 20
68.4001507190598
 30
0.0
 11
515.4652004244341
 21
65.87937431235076
 31
0.0
  0
LINE
  5
C71
330
1F
100
AcDbEntity
  8
SPOJOVACÍ
  6
Continuous
100
AcDbLine
 10
515.4652004244341
 20
71.52275086540356
 30
0.0
 11
515.4652004244341
 21
68.99453305253445
 31
0.0
  0
LINE
  5
C72
330
1F
100
AcDbEntity
  8
SPOJOVACÍ
  6
Continuous
100
AcDbLine
 10
515.4652004244341
 20
74.63790960558725
 30
0.0
 11
515.4652004244341
 21
72.11899355055829
 31
0.0
  0
LINE
  5
C73
330
1F
100
AcDbEntity
  8
SPOJOVACÍ
  6
Continuous
100
AcDbLine
 10
512.7658302616979
 20
69.31358335044677
 30
0.0
 11
512.7658302616979
 21
66.78536553757766
 31
0.0
  0
LINE
  5
C74
330
1F
100
AcDbEntity
  8
SPOJOVACÍ
  6
Continuous
100
AcDbLine
 10
512.7658302616979
 20
72.42874209063046
 30
0.0
 11
512.7658302616979
 21
69.90796568392141
 31
0.0
  0
LINE
  5
C75
330
1F
100
AcDbEntity
  8
SPOJOVACÍ
  6
Continuous
100
AcDbLine
 10
512.7658302616979
 20
75.55134223697422
 30
0.0
 11
512.7658302616979
 21
73.03242618194525
 31
0.0
  0
LINE
  5
C76
330
1F
100
AcDbEntity
  8
SPOJOVACÍ
  6
Continuous
100
AcDbLine
 10
512.7658302616979
 20
80.18454787583067
 30
0.0
 11
512.7658302616979
 21
76.14665474615065
 31
0.0
  0
LINE
  5
C77
330
1F
100
AcDbEntity
  8
SPOJOVACÍ
  6
Continuous
100
AcDbLine
 10
515.4652004244341
 20
80.18454787583067
 30
0.0
 11
515.4652004244341
 21
75.24159369690204
 31
0.0
  0
LINE
  5
C78
330
1F
100
AcDbEntity
  8
SPOJOVACÍ
  6
Continuous
100
AcDbLine
 10
509.0153614522493
 20
85.58421837018721
 30
0.0
 11
510.3650465358001
 21
84.84007773371303
 31
0.0
  0
LINE
  5
C79
330
1F
100
AcDbEntity
  8
SPOJOVACÍ
  6
Continuous
100
AcDbLine
 10
510.3650465358001
 20
84.84007773371303
 30
0.0
 11
511.4756764361588
 21
83.77130574430083
 31
0.0
  0
LINE
  5
C7A
330
1F
100
AcDbEntity
  8
SPOJOVACÍ
  6
Continuous
100
AcDbLine
 10
511.4756764361588
 20
83.77130574430083
 30
0.0
 11
512.2719069154769
 21
82.45231646600331
 31
0.0
  0
LINE
  5
C7B
330
1F
100
AcDbEntity
  8
SPOJOVACÍ
  6
Continuous
100
AcDbLine
 10
512.2719069154769
 20
82.45231646600331
 30
0.0
 11
512.6997877797763
 21
80.97147659895307
 31
0.0
  0
LINE
  5
C7C
330
1F
100
AcDbEntity
  8
SPOJOVACÍ
  6
Continuous
100
AcDbLine
 10
512.6997877797763
 20
80.97147659895307
 30
0.0
 11
512.7658302616979
 21
80.18454787583067
 31
0.0
  0
LINE
  5
C7D
330
1F
100
AcDbEntity
  8
SPOJOVACÍ
  6
Continuous
100
AcDbLine
 10
517.2632302344497
 20
84.32941122186202
 30
0.0
 11
518.5003640433493
 21
85.24749473230366
 31
0.0
  0
LINE
  5
C7E
330
1F
100
AcDbEntity
  8
SPOJOVACÍ
  6
Continuous
100
AcDbLine
 10
518.5003640433493
 20
85.24749473230366
 30
0.0
 11
519.2156692295172
 21
85.58421837018721
 31
0.0
  0
LINE
  5
C7F
330
1F
100
AcDbEntity
  8
SPOJOVACÍ
  6
Continuous
100
AcDbLine
 10
509.0153614522493
 20
85.58421837018721
 30
0.0
 11
519.2156692295172
 21
85.58421837018721
 31
0.0
  0
LINE
  5
C80
330
1F
100
AcDbEntity
  8
SPOJOVACÍ
  6
Continuous
100
AcDbLine
 10
509.0153614522493
 20
86.78414514691866
 30
0.0
 11
509.0153614522493
 21
85.58421837018721
 31
0.0
  0
LINE
  5
C81
330
1F
100
AcDbEntity
  8
SPOJOVACÍ
  6
Continuous
100
AcDbLine
 10
509.0153614522493
 20
86.78414514691866
 30
0.0
 11
519.2156692295172
 21
86.78414514691866
 31
0.0
  0
LINE
  5
C82
330
1F
100
AcDbEntity
  8
SPOJOVACÍ
  6
Continuous
100
AcDbLine
 10
519.2156692295172
 20
86.78414514691866
 30
0.0
 11
519.2156692295172
 21
85.58421837018721
 31
0.0
  0
LINE
  5
C83
330
1F
100
AcDbEntity
  8
SPOJOVACÍ
  6
Continuous
100
AcDbLine
 10
515.4652004244341
 20
80.18454787583067
 30
0.0
 11
515.6921633153175
 21
81.70817582925991
 31
0.0
  0
LINE
  5
C84
330
1F
100
AcDbEntity
  8
SPOJOVACÍ
  6
Continuous
100
AcDbLine
 10
515.6921633153175
 20
81.70817582925991
 30
0.0
 11
516.3051491644652
 21
83.12204303896322
 31
0.0
  0
LINE
  5
C85
330
1F
100
AcDbEntity
  8
SPOJOVACÍ
  6
Continuous
100
AcDbLine
 10
516.3051491644652
 20
83.12204303896322
 30
0.0
 11
517.2632302344497
 21
84.32941122186202
 31
0.0
  0
LINE
  5
C86
330
1F
100
AcDbEntity
  8
SPOJOVACÍ
  6
Continuous
100
AcDbLine
 10
528.422238884246
 20
15.21399297012538
 30
0.0
 11
529.3803199542304
 21
14.0066247872266
 31
0.0
  0
LINE
  5
C87
330
1F
100
AcDbEntity
  8
SPOJOVACÍ
  6
Continuous
100
AcDbLine
 10
527.8092530350983
 20
16.6278601798287
 30
0.0
 11
528.422238884246
 21
15.21399297012538
 31
0.0
  0
LINE
  5
C88
330
1F
100
AcDbEntity
  8
SPOJOVACÍ
  6
Continuous
100
AcDbLine
 10
527.5822901442149
 20
18.15148813325794
 30
0.0
 11
527.8092530350983
 21
16.6278601798287
 31
0.0
  0
LINE
  5
C89
330
1F
100
AcDbEntity
  8
SPOJOVACÍ
  6
Continuous
100
AcDbLine
 10
531.3327589492979
 20
11.55189086216995
 30
0.0
 11
531.3327589492979
 21
12.7518176389014
 31
0.0
  0
LINE
  5
C8A
330
1F
100
AcDbEntity
  8
SPOJOVACÍ
  6
Continuous
100
AcDbLine
 10
521.1324511720301
 20
11.55189086216995
 30
0.0
 11
531.3327589492979
 21
11.55189086216995
 31
0.0
  0
LINE
  5
C8B
330
1F
100
AcDbEntity
  8
SPOJOVACÍ
  6
Continuous
100
AcDbLine
 10
521.1324511720301
 20
11.55189086216995
 30
0.0
 11
521.1324511720301
 21
12.7518176389014
 31
0.0
  0
LINE
  5
C8C
330
1F
100
AcDbEntity
  8
SPOJOVACÍ
  6
Continuous
100
AcDbLine
 10
521.1324511720301
 20
12.7518176389014
 30
0.0
 11
531.3327589492979
 21
12.7518176389014
 31
0.0
  0
LINE
  5
C8D
330
1F
100
AcDbEntity
  8
SPOJOVACÍ
  6
Continuous
100
AcDbLine
 10
530.6174537631301
 20
13.08854127678495
 30
0.0
 11
531.3327589492979
 21
12.7518176389014
 31
0.0
  0
LINE
  5
C8E
330
1F
100
AcDbEntity
  8
SPOJOVACÍ
  6
Continuous
100
AcDbLine
 10
529.3803199542304
 20
14.0066247872266
 30
0.0
 11
530.6174537631301
 21
13.08854127678495
 31
0.0
  0
LINE
  5
C8F
330
1F
100
AcDbEntity
  8
SPOJOVACÍ
  6
Continuous
100
AcDbLine
 10
524.8168774995571
 20
17.36455941013554
 30
0.0
 11
524.8829199814787
 21
18.15148813325794
 31
0.0
  0
LINE
  5
C90
330
1F
100
AcDbEntity
  8
SPOJOVACÍ
  6
Continuous
100
AcDbLine
 10
524.3889966352577
 20
15.8837195430853
 30
0.0
 11
524.8168774995571
 21
17.36455941013554
 31
0.0
  0
LINE
  5
C91
330
1F
100
AcDbEntity
  8
SPOJOVACÍ
  6
Continuous
100
AcDbLine
 10
523.5927661559395
 20
14.56473026478778
 30
0.0
 11
524.3889966352577
 21
15.8837195430853
 31
0.0
  0
LINE
  5
C92
330
1F
100
AcDbEntity
  8
SPOJOVACÍ
  6
Continuous
100
AcDbLine
 10
522.4821362555809
 20
13.49595827537558
 30
0.0
 11
523.5927661559395
 21
14.56473026478778
 31
0.0
  0
LINE
  5
C93
330
1F
100
AcDbEntity
  8
SPOJOVACÍ
  6
Continuous
100
AcDbLine
 10
521.1324511720301
 20
12.7518176389014
 30
0.0
 11
522.4821362555809
 21
13.49595827537558
 31
0.0
  0
LINE
  5
C94
330
1F
100
AcDbEntity
  8
SPOJOVACÍ
  6
Continuous
100
AcDbLine
 10
527.5822901442149
 20
18.15148813325794
 30
0.0
 11
527.5822901442149
 21
23.09444231218657
 31
0.0
  0
LINE
  5
C95
330
1F
100
AcDbEntity
  8
SPOJOVACÍ
  6
Continuous
100
AcDbLine
 10
524.8829199814787
 20
18.15148813325794
 30
0.0
 11
524.8829199814787
 21
22.18938126293795
 31
0.0
  0
LINE
  5
C96
330
1F
100
AcDbEntity
  8
SPOJOVACÍ
  6
Continuous
100
AcDbLine
 10
524.8829199814787
 20
22.78469377211439
 30
0.0
 11
524.8829199814787
 21
25.30360982714336
 31
0.0
  0
LINE
  5
C97
330
1F
100
AcDbEntity
  8
SPOJOVACÍ
  6
Continuous
100
AcDbLine
 10
524.8829199814787
 20
25.90729391845815
 30
0.0
 11
524.8829199814787
 21
28.4280703251672
 31
0.0
  0
LINE
  5
C98
330
1F
100
AcDbEntity
  8
SPOJOVACÍ
  6
Continuous
100
AcDbLine
 10
524.8829199814787
 20
29.02245265864184
 30
0.0
 11
524.8829199814787
 21
31.55067047151095
 31
0.0
  0
LINE
  5
C99
330
1F
100
AcDbEntity
  8
SPOJOVACÍ
  6
Continuous
100
AcDbLine
 10
527.5822901442149
 20
23.69812640350136
 30
0.0
 11
527.5822901442149
 21
26.21704245853033
 31
0.0
  0
LINE
  5
C9A
330
1F
100
AcDbEntity
  8
SPOJOVACÍ
  6
Continuous
100
AcDbLine
 10
527.5822901442149
 20
26.81328514368505
 30
0.0
 11
527.5822901442149
 21
29.34150295655416
 31
0.0
  0
LINE
  5
C9B
330
1F
100
AcDbEntity
  8
SPOJOVACÍ
  6
Continuous
100
AcDbLine
 10
527.5822901442149
 20
29.93588529002881
 30
0.0
 11
527.5822901442149
 21
32.45666169673785
 31
0.0
  0
LINE
  5
C9C
330
1F
100
AcDbEntity
  8
SPOJOVACÍ
  6
Continuous
100
AcDbLine
 10
524.8829199814787
 20
32.15528473879675
 30
0.0
 11
524.8829199814787
 21
34.67327061812392
 31
0.0
  0
LINE
  5
C9D
330
1F
100
AcDbEntity
  8
SPOJOVACÍ
  6
Continuous
100
AcDbLine
 10
524.8829199814787
 20
35.26951330327864
 30
0.0
 11
524.8829199814787
 21
36.51687904516728
 31
0.0
  0
LINE
  5
C9E
330
1F
100
AcDbEntity
  8
SPOJOVACÍ
  6
Continuous
100
AcDbLine
 10
527.5822901442149
 20
33.05755526067077
 30
0.0
 11
527.5822901442149
 21
35.57647131569973
 31
0.0
  0
LINE
  5
C9F
330
1F
100
AcDbEntity
  8
SPOJOVACÍ
  6
Continuous
100
AcDbLine
 10
527.5822901442149
 20
36.18015540728373
 30
0.0
 11
527.5822901442149
 21
36.51687904516728
 31
0.0
  0
LINE
  5
CA0
330
1F
100
AcDbEntity
  8
SPOJOVACÍ
  6
Continuous
100
AcDbLine
 10
524.8829199814787
 20
36.51687904516728
 30
0.0
 11
525.0326782842018
 21
37.71401529452413
 31
0.0
  0
LINE
  5
CA1
330
1F
100
AcDbEntity
  8
SPOJOVACÍ
  6
Continuous
100
AcDbLine
 10
526.232605060664
 20
47.31715021012059
 30
0.0
 11
526.587002041793
 21
44.4810442088521
 31
0.0
  0
LINE
  5
CA2
330
1F
100
AcDbEntity
  8
SPOJOVACÍ
  6
Continuous
100
AcDbLine
 10
525.1098828767277
 20
38.33444255037756
 30
0.0
 11
525.4000977262473
 21
40.65616133644215
 31
0.0
  0
LINE
  5
CA3
330
1F
100
AcDbEntity
  8
SPOJOVACÍ
  6
Continuous
100
AcDbLine
 10
525.4791626690854
 20
41.28682052610673
 30
0.0
 11
525.7693775142394
 21
43.60760913646226
 31
0.0
  0
LINE
  5
CA4
330
1F
100
AcDbEntity
  8
SPOJOVACÍ
  6
Continuous
100
AcDbLine
 10
525.8465821067654
 20
44.22803639231569
 30
0.0
 11
526.232605060664
 21
47.31715021012059
 31
0.0
  0
LINE
  5
CA5
330
1F
100
AcDbEntity
  8
SPOJOVACÍ
  6
Continuous
100
AcDbLine
 10
526.6586255790167
 20
43.91177662178523
 30
0.0
 11
526.9265162073276
 21
41.76679123680076
 31
0.0
  0
LINE
  5
CA6
330
1F
100
AcDbEntity
  8
SPOJOVACÍ
  6
Continuous
100
AcDbLine
 10
526.9981397401858
 20
41.19473312235203
 30
0.0
 11
527.2651001955233
 21
39.05811931949864
 31
0.0
  0
LINE
  5
CA7
330
1F
100
AcDbEntity
  8
SPOJOVACÍ
  6
Continuous
100
AcDbLine
 10
527.3367237327471
 20
38.4879215564535
 30
0.0
 11
527.5822901442149
 21
36.51687904516728
 31
0.0
  0
LINE
  5
CA8
330
1F
100
AcDbEntity
  8
SPOJOVACÍ
  6
Continuous
100
AcDbLine
 10
523.8327515077395
 20
22.35216202712325
 30
0.0
 11
528.6324586135885
 21
23.55208880358549
 31
0.0
  0
LINE
  5
CA9
330
1F
100
AcDbEntity
  8
SPOJOVACÍ
  6
Continuous
100
AcDbLine
 10
523.8327515077395
 20
22.35216202712325
 30
0.0
 11
524.2104028830505
 21
22.56982316317152
 31
0.0
  0
LINE
  5
CAA
330
1F
100
AcDbEntity
  8
SPOJOVACÍ
  6
Continuous
100
AcDbLine
 10
523.8327515077395
 20
22.35216202712325
 30
0.0
 11
524.2104028830505
 21
21.97358047829328
 31
0.0
  0
LINE
  5
CAB
330
1F
100
AcDbEntity
  8
SPOJOVACÍ
  6
Continuous
100
AcDbLine
 10
528.6324586135885
 20
23.55208880358549
 30
0.0
 11
528.2548072426431
 21
23.92974017671366
 31
0.0
  0
LINE
  5
CAC
330
1F
100
AcDbEntity
  8
SPOJOVACÍ
  6
Continuous
100
AcDbLine
 10
528.6324586135885
 20
23.55208880358549
 30
0.0
 11
528.2548072426431
 21
23.33349749155894
 31
0.0
  0
LINE
  5
CAD
330
1F
100
AcDbEntity
  8
SPOJOVACÍ
  6
Continuous
100
AcDbLine
 10
524.2104028830505
 20
22.56982316317152
 30
0.0
 11
528.2548072426431
 21
23.92974017671366
 31
0.0
  0
LINE
  5
CAE
330
1F
100
AcDbEntity
  8
SPOJOVACÍ
  6
Continuous
100
AcDbLine
 10
524.2104028830505
 20
21.97358047829328
 30
0.0
 11
528.2548072426431
 21
23.33349749155894
 31
0.0
  0
LINE
  5
CAF
330
1F
100
AcDbEntity
  8
SPOJOVACÍ
  6
Continuous
100
AcDbLine
 10
523.8327515077395
 20
25.47197164608514
 30
0.0
 11
528.6324586135885
 21
26.67189842282386
 31
0.0
  0
LINE
  5
CB0
330
1F
100
AcDbEntity
  8
SPOJOVACÍ
  6
Continuous
100
AcDbLine
 10
523.8327515077395
 20
25.47197164608514
 30
0.0
 11
524.2104028830505
 21
25.69056295811168
 31
0.0
  0
LINE
  5
CB1
330
1F
100
AcDbEntity
  8
SPOJOVACÍ
  6
Continuous
100
AcDbLine
 10
523.8327515077395
 20
25.47197164608514
 30
0.0
 11
524.2104028830505
 21
25.09432027295696
 31
0.0
  0
LINE
  5
CB2
330
1F
100
AcDbEntity
  8
SPOJOVACÍ
  6
Continuous
100
AcDbLine
 10
528.6324586135885
 20
26.67189842282386
 30
0.0
 11
528.2548072426431
 21
27.04954979567554
 31
0.0
  0
LINE
  5
CB3
330
1F
100
AcDbEntity
  8
SPOJOVACÍ
  6
Continuous
100
AcDbLine
 10
528.6324586135885
 20
26.67189842282386
 30
0.0
 11
528.2548072426431
 21
26.45330711079731
 31
0.0
  0
LINE
  5
CB4
330
1F
100
AcDbEntity
  8
SPOJOVACÍ
  6
Continuous
100
AcDbLine
 10
524.2104028830505
 20
25.69056295811168
 30
0.0
 11
528.2548072426431
 21
27.04954979567554
 31
0.0
  0
LINE
  5
CB5
330
1F
100
AcDbEntity
  8
SPOJOVACÍ
  6
Continuous
100
AcDbLine
 10
524.2104028830505
 20
25.09432027295696
 30
0.0
 11
528.2548072426431
 21
26.45330711079731
 31
0.0
  0
LINE
  5
CB6
330
1F
100
AcDbEntity
  8
SPOJOVACÍ
  6
Continuous
100
AcDbLine
 10
524.0866895021605
 20
37.90935221154649
 30
0.0
 11
524.4652710504448
 21
38.12794352357304
 31
0.0
  0
LINE
  5
CB7
330
1F
100
AcDbEntity
  8
SPOJOVACÍ
  6
Continuous
100
AcDbLine
 10
524.0866895021605
 20
37.90935221154649
 30
0.0
 11
524.4652710504448
 21
37.53170083841832
 31
0.0
  0
LINE
  5
CB8
330
1F
100
AcDbEntity
  8
SPOJOVACÍ
  6
Continuous
100
AcDbLine
 10
528.2120191549035
 20
38.8823160938511
 30
0.0
 11
527.8343677839581
 21
39.26089764295756
 31
0.0
  0
LINE
  5
CB9
330
1F
100
AcDbEntity
  8
SPOJOVACÍ
  6
Continuous
100
AcDbLine
 10
528.2120191549035
 20
38.8823160938511
 30
0.0
 11
527.8343677839581
 21
38.66465495780284
 31
0.0
  0
LINE
  5
CBA
330
1F
100
AcDbEntity
  8
SPOJOVACÍ
  6
Continuous
100
AcDbLine
 10
524.4652710504448
 20
38.12794352357304
 30
0.0
 11
527.8343677839581
 21
39.26089764295756
 31
0.0
  0
LINE
  5
CBB
330
1F
100
AcDbEntity
  8
SPOJOVACÍ
  6
Continuous
100
AcDbLine
 10
524.4652710504448
 20
37.53170083841832
 30
0.0
 11
527.8343677839581
 21
38.66465495780284
 31
0.0
  0
LINE
  5
CBC
330
1F
100
AcDbEntity
  8
SPOJOVACÍ
  6
Continuous
100
AcDbLine
 10
524.0866895021605
 20
37.90935221154649
 30
0.0
 11
528.2120191549035
 21
38.8823160938511
 31
0.0
  0
LINE
  5
CBD
330
1F
100
AcDbEntity
  8
SPOJOVACÍ
  6
Continuous
100
AcDbLine
 10
524.6513062082664
 20
40.92405196584439
 30
0.0
 11
525.0289575835774
 21
41.14171310189266
 31
0.0
  0
LINE
  5
CBE
330
1F
100
AcDbEntity
  8
SPOJOVACÍ
  6
Continuous
100
AcDbLine
 10
524.6513062082664
 20
40.92405196584439
 30
0.0
 11
525.0289575835774
 21
40.54547041673794
 31
0.0
  0
LINE
  5
CBF
330
1F
100
AcDbEntity
  8
SPOJOVACÍ
  6
Continuous
100
AcDbLine
 10
527.7673951246976
 20
41.55750168261437
 30
0.0
 11
527.3897437537522
 21
41.93608323144434
 31
0.0
  0
LINE
  5
CC0
330
1F
100
AcDbEntity
  8
SPOJOVACÍ
  6
Continuous
100
AcDbLine
 10
527.7673951246976
 20
41.55750168261437
 30
0.0
 11
527.3897437537522
 21
41.3398405465661
 31
0.0
  0
LINE
  5
CC1
330
1F
100
AcDbEntity
  8
SPOJOVACÍ
  6
Continuous
100
AcDbLine
 10
525.0289575835774
 20
41.14171310189266
 30
0.0
 11
527.3897437537522
 21
41.93608323144434
 31
0.0
  0
LINE
  5
CC2
330
1F
100
AcDbEntity
  8
SPOJOVACÍ
  6
Continuous
100
AcDbLine
 10
525.0289575835774
 20
40.54547041673794
 30
0.0
 11
527.3897437537522
 21
41.3398405465661
 31
0.0
  0
LINE
  5
CC3
330
1F
100
AcDbEntity
  8
SPOJOVACÍ
  6
Continuous
100
AcDbLine
 10
524.6513062082664
 20
40.92405196584439
 30
0.0
 11
527.7673951246976
 21
41.55750168261437
 31
0.0
  0
LINE
  5
CC4
330
1F
100
AcDbEntity
  8
SPOJOVACÍ
  6
Continuous
100
AcDbLine
 10
525.2159229187379
 20
43.93782154416402
 30
0.0
 11
525.5935742896832
 21
44.15641285618329
 31
0.0
  0
LINE
  5
CC5
330
1F
100
AcDbEntity
  8
SPOJOVACÍ
  6
Continuous
100
AcDbLine
 10
525.2159229187379
 20
43.93782154416402
 30
0.0
 11
525.5935742896832
 21
43.56017017103584
 31
0.0
  0
LINE
  5
CC6
330
1F
100
AcDbEntity
  8
SPOJOVACÍ
  6
Continuous
100
AcDbLine
 10
527.3702100601946
 20
44.248500259938
 30
0.0
 11
526.9925586892492
 21
44.62708180876797
 31
0.0
  0
LINE
  5
CC7
330
1F
100
AcDbEntity
  8
SPOJOVACÍ
  6
Continuous
100
AcDbLine
 10
527.3702100601946
 20
44.248500259938
 30
0.0
 11
526.9925586892492
 21
44.03083912362052
 31
0.0
  0
LINE
  5
CC8
330
1F
100
AcDbEntity
  8
SPOJOVACÍ
  6
Continuous
100
AcDbLine
 10
525.5935742896832
 20
44.15641285618329
 30
0.0
 11
526.9925586892492
 21
44.62708180876797
 31
0.0
  0
LINE
  5
CC9
330
1F
100
AcDbEntity
  8
SPOJOVACÍ
  6
Continuous
100
AcDbLine
 10
525.5935742896832
 20
43.56017017103584
 30
0.0
 11
526.9925586892492
 21
44.03083912362052
 31
0.0
  0
LINE
  5
CCA
330
1F
100
AcDbEntity
  8
SPOJOVACÍ
  6
Continuous
100
AcDbLine
 10
525.2159229187379
 20
43.93782154416402
 30
0.0
 11
527.3702100601946
 21
44.248500259938
 31
0.0
  0
LINE
  5
CCB
330
1F
100
AcDbEntity
  8
SPOJOVACÍ
  6
Continuous
100
AcDbLine
 10
523.8327515077395
 20
28.5917812653235
 30
0.0
 11
528.6324586135885
 21
29.79170804178574
 31
0.0
  0
LINE
  5
CCC
330
1F
100
AcDbEntity
  8
SPOJOVACÍ
  6
Continuous
100
AcDbLine
 10
523.8327515077395
 20
28.5917812653235
 30
0.0
 11
524.2104028830505
 21
28.81037257735005
 31
0.0
  0
LINE
  5
CCD
330
1F
100
AcDbEntity
  8
SPOJOVACÍ
  6
Continuous
100
AcDbLine
 10
523.8327515077395
 20
28.5917812653235
 30
0.0
 11
524.2104028830505
 21
28.21412989219533
 31
0.0
  0
LINE
  5
CCE
330
1F
100
AcDbEntity
  8
SPOJOVACÍ
  6
Continuous
100
AcDbLine
 10
528.6324586135885
 20
29.79170804178574
 30
0.0
 11
528.2548072426431
 21
30.17028959061571
 31
0.0
  0
LINE
  5
CCF
330
1F
100
AcDbEntity
  8
SPOJOVACÍ
  6
Continuous
100
AcDbLine
 10
528.6324586135885
 20
29.79170804178574
 30
0.0
 11
528.2548072426431
 21
29.57404690546826
 31
0.0
  0
LINE
  5
CD0
330
1F
100
AcDbEntity
  8
SPOJOVACÍ
  6
Continuous
100
AcDbLine
 10
524.2104028830505
 20
28.81037257735005
 30
0.0
 11
528.2548072426431
 21
30.17028959061571
 31
0.0
  0
LINE
  5
CD1
330
1F
100
AcDbEntity
  8
SPOJOVACÍ
  6
Continuous
100
AcDbLine
 10
524.2104028830505
 20
28.21412989219533
 30
0.0
 11
528.2548072426431
 21
29.57404690546826
 31
0.0
  0
LINE
  5
CD2
330
1F
100
AcDbEntity
  8
SPOJOVACÍ
  6
Continuous
100
AcDbLine
 10
523.8327515077395
 20
31.71159088429266
 30
0.0
 11
528.6324586135885
 21
32.91151766075489
 31
0.0
  0
LINE
  5
CD3
330
1F
100
AcDbEntity
  8
SPOJOVACÍ
  6
Continuous
100
AcDbLine
 10
523.8327515077395
 20
31.71159088429266
 30
0.0
 11
524.2104028830505
 21
31.93018219631193
 31
0.0
  0
LINE
  5
CD4
330
1F
100
AcDbEntity
  8
SPOJOVACÍ
  6
Continuous
100
AcDbLine
 10
523.8327515077395
 20
31.71159088429266
 30
0.0
 11
524.2104028830505
 21
31.33393951116449
 31
0.0
  0
LINE
  5
CD5
330
1F
100
AcDbEntity
  8
SPOJOVACÍ
  6
Continuous
100
AcDbLine
 10
528.6324586135885
 20
32.91151766075489
 30
0.0
 11
528.2548072426431
 21
33.29009920958486
 31
0.0
  0
LINE
  5
CD6
330
1F
100
AcDbEntity
  8
SPOJOVACÍ
  6
Continuous
100
AcDbLine
 10
528.6324586135885
 20
32.91151766075489
 30
0.0
 11
528.2548072426431
 21
32.69385652470663
 31
0.0
  0
LINE
  5
CD7
330
1F
100
AcDbEntity
  8
SPOJOVACÍ
  6
Continuous
100
AcDbLine
 10
524.2104028830505
 20
31.93018219631193
 30
0.0
 11
528.2548072426431
 21
33.29009920958486
 31
0.0
  0
LINE
  5
CD8
330
1F
100
AcDbEntity
  8
SPOJOVACÍ
  6
Continuous
100
AcDbLine
 10
524.2104028830505
 20
31.33393951116449
 30
0.0
 11
528.2548072426431
 21
32.69385652470663
 31
0.0
  0
LINE
  5
CD9
330
1F
100
AcDbEntity
  8
SPOJOVACÍ
  6
Continuous
100
AcDbLine
 10
523.8327515077395
 20
34.83233067923282
 30
0.0
 11
528.6324586135885
 21
36.03225745569506
 31
0.0
  0
LINE
  5
CDA
330
1F
100
AcDbEntity
  8
SPOJOVACÍ
  6
Continuous
100
AcDbLine
 10
523.8327515077395
 20
34.83233067923282
 30
0.0
 11
524.2104028830505
 21
35.04999181528109
 31
0.0
  0
LINE
  5
CDB
330
1F
100
AcDbEntity
  8
SPOJOVACÍ
  6
Continuous
100
AcDbLine
 10
523.8327515077395
 20
34.83233067923282
 30
0.0
 11
524.2104028830505
 21
34.45374913012637
 31
0.0
  0
LINE
  5
CDC
330
1F
100
AcDbEntity
  8
SPOJOVACÍ
  6
Continuous
100
AcDbLine
 10
528.6324586135885
 20
36.03225745569506
 30
0.0
 11
528.2548072426431
 21
36.40990882882323
 31
0.0
  0
LINE
  5
CDD
330
1F
100
AcDbEntity
  8
SPOJOVACÍ
  6
Continuous
100
AcDbLine
 10
528.6324586135885
 20
36.03225745569506
 30
0.0
 11
528.2548072426431
 21
35.81366614366851
 31
0.0
  0
LINE
  5
CDE
330
1F
100
AcDbEntity
  8
SPOJOVACÍ
  6
Continuous
100
AcDbLine
 10
524.2104028830505
 20
35.04999181528109
 30
0.0
 11
528.2548072426431
 21
36.40990882882323
 31
0.0
  0
LINE
  5
CDF
330
1F
100
AcDbEntity
  8
SPOJOVACÍ
  6
Continuous
100
AcDbLine
 10
524.2104028830505
 20
34.45374913012637
 30
0.0
 11
528.2548072426431
 21
35.81366614366851
 31
0.0
  0
LINE
  5
CE0
330
1F
100
AcDbEntity
  8
izolace
  6
IZOLACE
 48
1.5
100
AcDbLine
 10
156.4526681155908
 20
49.14758319649917
 30
0.0
 11
486.2647375713674
 21
49.26072113988647
 31
0.0
  0
LINE
  5
CE1
330
1F
100
AcDbEntity
  8
STAVBA OBRYS
100
AcDbLine
 10
108.4150232170756
 20
23.55189086216995
 30
0.0
 11
101.6246139524697
 21
23.55189086216995
 31
0.0
  0
LWPOLYLINE
  5
CE2
330
1F
100
AcDbEntity
  8
izolace
100
AcDbPolyline
 90
        4
 70
     1
 43
0.0
 10
108.4150232170792
 20
11.55189086216995
 10
103.1969782358897
 20
11.55189086216995
 10
103.1969782358897
 20
23.55189086216995
 10
108.4150232170792
 20
23.55189086216995
  0
LWPOLYLINE
  5
CE3
330
1F
100
AcDbEntity
  8
izolace
100
AcDbPolyline
 90
        4
 70
     1
 43
0.0
 10
108.4150232170792
 20
86.78414514691866
 10
103.1969782358897
 20
86.78414514691866
 10
103.1969782358897
 20
74.78414514691866
 10
108.4150232170792
 20
74.78414514691866
  0
HATCH
  5
CE4
330
1F
100
AcDbEntity
  8
STAVBA OBRYS
100
AcDbHatch
 10
0.0
 20
0.0
 30
0.0
210
0.0
220
0.0
230
1.0
  2
AR-CONC
 70
     0
 71
     0
 91
        3
 92
        7
 72
     0
 73
     1
 93
        4
 10
103.1969782358897
 20
251.259171804779
 10
90.69697823588979
 20
251.259171804779
 10
90.69697823588979
 20
53.0496637928365
 10
103.1969782358897
 20
53.0496637928365
 97
        0
 92
        7
 72
     0
 73
     1
 93
        4
 10
103.1969782358934
 20
45.99873094588764
 10
90.69697823588979
 20
45.99873094588673
 10
90.69697823588979
 20
-99.65944412341087
 10
103.1969782358897
 20
-99.65944412341087
 97
        0
 92
        7
 72
     0
 73
     1
 93
        4
 10
-83.26302176411662
 20
251.259171804778
 10
-95.76302176411662
 20
251.259171804778
 10
-95.76302176411662
 20
-99.65944412341087
 10
-83.26302176411662
 20
-99.65944412341087
 97
        0
 75
     0
 76
     1
 52
90.0
 41
0.1
 77
     0
 78
    13
 53
140.0
 43
-21729.19535242134
 44
-998.4027302030014
 45
1.593908553890309
 46
18.2184668996004
 79
     2
 49
1.905
 49
-20.955
 53
85.00000000000001
 43
-21729.19535242134
 44
-998.4027302030014
 45
-19.10566428821799
 46
-3.524282597566697
 79
     2
 49
1.524
 49
-16.764
 53
190.4509999999999
 43
-21729.06252742135
 44
-996.8845302030011
 45
-17.51166878202918
 46
14.69425016659592
 79
     2
 49
1.619
 49
-17.809
 53
136.1841999999999
 43
-21734.27535242134
 44
-998.4027302030014
 45
4.204232793272717
 46
27.10790408921299
 79
     2
 49
2.857499999999999
 49
-31.4325
 53
186.6355999999999
 43
-21733.92500242135
 44
-996.1437402030012
 45
-24.74255558900492
 46
23.74042344662371
 79
     2
 49
2.4285
 49
-26.7135
 53
81.18400000000004
 43
-21734.27535242134
 44
-998.4027302030014
 45
-24.74251178605976
 46
23.74046058139339
 79
     2
 49
2.286
 49
-25.146
 53
111.0
 43
-21733.00535242135
 44
-995.8627302030015
 45
10.22655185167625
 46
15.16148798353833
 79
     2
 49
1.905
 49
-20.955
 53
56.00000000000004
 43
-21733.00535242135
 44
-995.8627302030015
 45
-18.41879661223192
 46
6.180202834764708
 79
     2
 49
1.524
 49
-16.764
 53
161.4514
 43
-21732.15314242134
 44
-994.5992802030021
 45
-8.192285771605742
 46
21.34164907701245
 79
     2
 49
1.618999999999998
 49
-17.80899999999997
 53
127.5
 43
-21729.19535242134
 44
-998.4027302030014
 45
-8.455503887315311
 46
0.3088603250591822
 79
     6
 49
0.0
 49
-16.5608
 49
0.0
 49
-17.018
 49
0.0
 49
-16.8275
 53
97.49999999999992
 43
-21729.19535242134
 44
-998.4027302030014
 45
-10.01805748181195
 46
6.681966251030575
 79
     6
 49
0.0
 49
-9.702799999999999
 49
0.0
 49
-16.1798
 49
0.0
 49
-6.4135
 53
57.5
 43
-21729.19535242134
 44
-1004.066930203001
 45
0.5728743992673473
 46
13.55905951668713
 79
     6
 49
0.0
 49
-6.35
 49
0.0
 49
-19.812
 49
0.0
 49
-26.289
 53
47.5
 43
-21729.19535242134
 44
-1006.606930203001
 45
-2.5426491033333
 46
14.8129181386018
 79
     6
 49
0.0
 49
-8.255
 49
0.0
 49
-13.1572
 49
0.0
 49
-18.669
 47
0.7430834659420257
 98
        3
 10
96.28045353953678
 20
118.2538075949189
 10
96.28045353953678
 20
18.68061341653009
 10
-90.33529917317025
 20
20.16675775492257
  0
HATCH
  5
CE5
330
1F
100
AcDbEntity
  8
STAVBA OBRYS
100
AcDbHatch
 10
0.0
 20
0.0
 30
0.0
210
0.0
220
0.0
230
1.0
  2
AR-SAND
 70
     0
 71
     0
 91
        1
 92
        7
 72
     0
 73
     1
 93
        4
 10
-95.76302176411298
 20
251.259171804778
 10
-100.7630217641166
 20
251.259171804778
 10
-100.7630217641166
 20
-99.65944412341087
 10
-95.76302176411662
 20
-99.65944412341087
 97
        0
 75
     0
 76
     1
 52
90.0
 41
0.1
 77
     0
 78
     4
 53
127.5
 43
-21729.19535242134
 44
-998.4027302030014
 45
-4.894132373293423
 46
-0.1600031295984043
 79
     6
 49
0.0
 49
-3.8608
 49
0.0
 49
-4.318
 49
0.0
 49
-4.1275
 53
97.49999999999992
 43
-21729.19535242134
 44
-998.4027302030014
 45
-7.168251005683543
 46
4.495232831380026
 79
     6
 49
0.0
 49
-2.0828
 49
0.0
 49
-3.4798
 49
0.0
 49
-1.3335
 53
57.5
 43
-21729.19535242134
 44
-1001.526930203001
 45
-0.0143718467854564
 46
7.909923702414579
 79
     6
 49
0.0
 49
-1.27
 49
0.0
 49
-4.572
 49
0.0
 49
-5.969
 53
47.5
 43
-21729.19535242134
 44
-1001.526930203001
 45
-2.229293232572161
 46
7.635564524722972
 79
     6
 49
0.0
 49
-0.635
 49
0.0
 49
-2.997199999999999
 49
0.0
 49
-3.429
 47
0.7430834659420257
 98
        1
 10
-97.95495653526849
 20
126.4722547067205
  0
HATCH
  5
CE6
330
1F
100
AcDbEntity
  8
izolace
100
AcDbHatch
 10
0.0
 20
0.0
 30
0.0
210
0.0
220
0.0
230
1.0
  2
AR-SAND
 70
     0
 71
     0
 91
        2
 92
        7
 72
     0
 73
     1
 93
        4
 10
108.4150232170792
 20
86.78414514691866
 10
103.1969782358897
 20
86.78414514691866
 10
103.1969782358897
 20
74.78414514691866
 10
108.4150232170792
 20
74.78414514691866
 97
        0
 92
        7
 72
     0
 73
     1
 93
        4
 10
108.4150232170792
 20
23.55189086216995
 10
103.1969782358897
 20
23.55189086216995
 10
103.1969782358897
 20
11.55189086216995
 10
108.4150232170828
 20
11.55189086216995
 97
        0
 75
     0
 76
     1
 52
90.0
 41
0.05
 77
     0
 78
     4
 53
127.5
 43
-25029.10905924752
 44
-1409.607059791172
 45
-2.447066186646711
 46
-0.0800015647992021
 79
     6
 49
0.0
 49
-1.9304
 49
0.0
 49
-2.159
 49
0.0
 49
-2.06375
 53
97.49999999999994
 43
-25029.10905924752
 44
-1409.607059791172
 45
-3.584125502841771
 46
2.247616415690013
 79
     6
 49
0.0
 49
-1.0414
 49
0.0
 49
-1.7399
 49
0.0
 49
-0.6667500000000001
 53
57.5
 43
-25029.10905924752
 44
-1411.169159791172
 45
-0.0071859233927282
 46
3.95496185120729
 79
     6
 49
0.0
 49
-0.635
 49
0.0
 49
-2.286
 49
0.0
 49
-2.9845
 53
47.5
 43
-25029.10905924752
 44
-1411.169159791172
 45
-1.11464661628608
 46
3.817782262361486
 79
     6
 49
0.0
 49
-0.3175
 49
0.0
 49
-1.498599999999999
 49
0.0
 49
-1.7145
 47
0.4414942775221867
 98
        2
 10
105.7628676135387
 20
82.29884673329815
 10
106.2046024068582
 20
16.95768844246066
  0
LINE
  5
CE7
330
1F
100
AcDbEntity
  8
CETRIS
100
AcDbLine
 10
529.321356451124
 20
74.78414514691957
 30
0.0
 11
529.321356451124
 21
86.78414514691866
 31
0.0
  0
LINE
  5
CE8
330
1F
100
AcDbEntity
  8
CETRIS
100
AcDbLine
 10
534.3213564511239
 20
74.78414514691957
 30
0.0
 11
534.3213564511239
 21
86.78414514691866
 31
0.0
  0
LINE
  5
CE9
330
1F
100
AcDbEntity
  8
CETRIS
100
AcDbLine
 10
534.3213564511239
 20
74.78414514691957
 30
0.0
 11
632.1033362212761
 21
74.78414514691866
 31
0.0
  0
LINE
  5
CEA
330
1F
100
AcDbEntity
  8
CETRIS
100
AcDbLine
 10
534.3213564511239
 20
86.78414514691956
 30
0.0
 11
634.313497499577
 21
86.78414514691866
 31
0.0
  0
LWPOLYLINE
  5
CEB
330
1F
100
AcDbEntity
  8
izolace
100
AcDbPolyline
 90
        4
 70
     1
 43
0.0
 10
534.3213564511239
 20
86.78414514691866
 10
529.321356451124
 20
86.78414514691866
 10
529.321356451124
 20
74.78414514691957
 10
534.3213564511239
 20
74.78414514691866
  0
LINE
  5
CEC
330
1F
100
AcDbEntity
  8
SPOJOVACÍ
  6
Continuous
100
AcDbLine
 10
547.3375637377826
 20
83.12204303896322
 30
0.0
 11
546.3794826677982
 21
84.32941122186202
 31
0.0
  0
LINE
  5
CED
330
1F
100
AcDbEntity
  8
SPOJOVACÍ
  6
Continuous
100
AcDbLine
 10
547.9505495869303
 20
81.70817582925991
 30
0.0
 11
547.3375637377826
 21
83.12204303896322
 31
0.0
  0
LINE
  5
CEE
330
1F
100
AcDbEntity
  8
SPOJOVACÍ
  6
Continuous
100
AcDbLine
 10
548.1775124778137
 20
80.18454787583067
 30
0.0
 11
547.9505495869303
 21
81.70817582925991
 31
0.0
  0
LINE
  5
CEF
330
1F
100
AcDbEntity
  8
SPOJOVACÍ
  6
Continuous
100
AcDbLine
 10
544.4270436727307
 20
86.78414514691866
 30
0.0
 11
544.4270436727307
 21
85.58421837018721
 31
0.0
  0
LINE
  5
CF0
330
1F
100
AcDbEntity
  8
SPOJOVACÍ
  6
Continuous
100
AcDbLine
 10
554.6273514499985
 20
86.78414514691866
 30
0.0
 11
544.4270436727307
 21
86.78414514691866
 31
0.0
  0
LINE
  5
CF1
330
1F
100
AcDbEntity
  8
SPOJOVACÍ
  6
Continuous
100
AcDbLine
 10
554.6273514499985
 20
86.78414514691866
 30
0.0
 11
554.6273514499985
 21
85.58421837018721
 31
0.0
  0
LINE
  5
CF2
330
1F
100
AcDbEntity
  8
SPOJOVACÍ
  6
Continuous
100
AcDbLine
 10
554.6273514499985
 20
85.58421837018721
 30
0.0
 11
544.4270436727307
 21
85.58421837018721
 31
0.0
  0
LINE
  5
CF3
330
1F
100
AcDbEntity
  8
SPOJOVACÍ
  6
Continuous
100
AcDbLine
 10
545.1423488588985
 20
85.24749473230366
 30
0.0
 11
544.4270436727307
 21
85.58421837018721
 31
0.0
  0
LINE
  5
CF4
330
1F
100
AcDbEntity
  8
SPOJOVACÍ
  6
Continuous
100
AcDbLine
 10
546.3794826677982
 20
84.32941122186202
 30
0.0
 11
545.1423488588985
 21
85.24749473230366
 31
0.0
  0
LINE
  5
CF5
330
1F
100
AcDbEntity
  8
SPOJOVACÍ
  6
Continuous
100
AcDbLine
 10
550.9429251224715
 20
80.97147659895307
 30
0.0
 11
550.8768826405499
 21
80.18454787583067
 31
0.0
  0
LINE
  5
CF6
330
1F
100
AcDbEntity
  8
SPOJOVACÍ
  6
Continuous
100
AcDbLine
 10
551.3708059867709
 20
82.45231646600331
 30
0.0
 11
550.9429251224715
 21
80.97147659895307
 31
0.0
  0
LINE
  5
CF7
330
1F
100
AcDbEntity
  8
SPOJOVACÍ
  6
Continuous
100
AcDbLine
 10
552.1670364660891
 20
83.77130574430083
 30
0.0
 11
551.3708059867709
 21
82.45231646600331
 31
0.0
  0
LINE
  5
CF8
330
1F
100
AcDbEntity
  8
SPOJOVACÍ
  6
Continuous
100
AcDbLine
 10
553.2776663664477
 20
84.84007773371303
 30
0.0
 11
552.1670364660891
 21
83.77130574430083
 31
0.0
  0
LINE
  5
CF9
330
1F
100
AcDbEntity
  8
SPOJOVACÍ
  6
Continuous
100
AcDbLine
 10
554.6273514499985
 20
85.58421837018721
 30
0.0
 11
553.2776663664477
 21
84.84007773371303
 31
0.0
  0
LINE
  5
CFA
330
1F
100
AcDbEntity
  8
SPOJOVACÍ
  6
Continuous
100
AcDbLine
 10
548.1775124778137
 20
80.18454787583067
 30
0.0
 11
548.1775124778137
 21
75.24159369690204
 31
0.0
  0
LINE
  5
CFB
330
1F
100
AcDbEntity
  8
SPOJOVACÍ
  6
Continuous
100
AcDbLine
 10
550.8768826405499
 20
80.18454787583067
 30
0.0
 11
550.8768826405499
 21
76.14665474615065
 31
0.0
  0
LINE
  5
CFC
330
1F
100
AcDbEntity
  8
SPOJOVACÍ
  6
Continuous
100
AcDbLine
 10
550.8768826405499
 20
75.55134223697422
 30
0.0
 11
550.8768826405499
 21
73.03242618194525
 31
0.0
  0
LINE
  5
CFD
330
1F
100
AcDbEntity
  8
SPOJOVACÍ
  6
Continuous
100
AcDbLine
 10
550.8768826405499
 20
72.42874209063046
 30
0.0
 11
550.8768826405499
 21
69.90796568392141
 31
0.0
  0
LINE
  5
CFE
330
1F
100
AcDbEntity
  8
SPOJOVACÍ
  6
Continuous
100
AcDbLine
 10
550.8768826405499
 20
69.31358335044677
 30
0.0
 11
550.8768826405499
 21
66.78536553757766
 31
0.0
  0
LINE
  5
CFF
330
1F
100
AcDbEntity
  8
SPOJOVACÍ
  6
Continuous
100
AcDbLine
 10
548.1775124778137
 20
74.63790960558725
 30
0.0
 11
548.1775124778137
 21
72.11899355055829
 31
0.0
  0
LINE
  5
D00
330
1F
100
AcDbEntity
  8
SPOJOVACÍ
  6
Continuous
100
AcDbLine
 10
548.1775124778137
 20
71.52275086540356
 30
0.0
 11
548.1775124778137
 21
68.99453305253445
 31
0.0
  0
LINE
  5
D01
330
1F
100
AcDbEntity
  8
SPOJOVACÍ
  6
Continuous
100
AcDbLine
 10
548.1775124778137
 20
68.4001507190598
 30
0.0
 11
548.1775124778137
 21
65.87937431235076
 31
0.0
  0
LINE
  5
D02
330
1F
100
AcDbEntity
  8
SPOJOVACÍ
  6
Continuous
100
AcDbLine
 10
550.8768826405499
 20
66.18075127029186
 30
0.0
 11
550.8768826405499
 21
63.66276539096469
 31
0.0
  0
LINE
  5
D03
330
1F
100
AcDbEntity
  8
SPOJOVACÍ
  6
Continuous
100
AcDbLine
 10
550.8768826405499
 20
63.06652270580997
 30
0.0
 11
550.8768826405499
 21
61.81915696392133
 31
0.0
  0
LINE
  5
D04
330
1F
100
AcDbEntity
  8
SPOJOVACÍ
  6
Continuous
100
AcDbLine
 10
548.1775124778137
 20
65.27848074841784
 30
0.0
 11
548.1775124778137
 21
62.75956469338888
 31
0.0
  0
LINE
  5
D05
330
1F
100
AcDbEntity
  8
SPOJOVACÍ
  6
Continuous
100
AcDbLine
 10
548.1775124778137
 20
62.15588060180488
 30
0.0
 11
548.1775124778137
 21
61.81915696392133
 31
0.0
  0
LINE
  5
D06
330
1F
100
AcDbEntity
  8
SPOJOVACÍ
  6
Continuous
100
AcDbLine
 10
550.8768826405499
 20
61.81915696392133
 30
0.0
 11
550.7271243378268
 21
60.62202071456448
 31
0.0
  0
LINE
  5
D07
330
1F
100
AcDbEntity
  8
SPOJOVACÍ
  6
Continuous
100
AcDbLine
 10
549.5271975613646
 20
51.01888579896803
 30
0.0
 11
549.1728005802356
 21
53.85499180023652
 31
0.0
  0
LINE
  5
D08
330
1F
100
AcDbEntity
  8
SPOJOVACÍ
  6
Continuous
100
AcDbLine
 10
550.6499197453009
 20
60.00159345871105
 30
0.0
 11
550.3597048957813
 21
57.67987467264646
 31
0.0
  0
LINE
  5
D09
330
1F
100
AcDbEntity
  8
SPOJOVACÍ
  6
Continuous
100
AcDbLine
 10
550.2806399529432
 20
57.04921548298187
 30
0.0
 11
549.9904251077892
 21
54.72842687262636
 31
0.0
  0
LINE
  5
D0A
330
1F
100
AcDbEntity
  8
SPOJOVACÍ
  6
Continuous
100
AcDbLine
 10
549.9132205152633
 20
54.10799961677293
 30
0.0
 11
549.5271975613646
 21
51.01888579896803
 31
0.0
  0
LINE
  5
D0B
330
1F
100
AcDbEntity
  8
SPOJOVACÍ
  6
Continuous
100
AcDbLine
 10
549.1011770430119
 20
54.42425938730337
 30
0.0
 11
548.833286414701
 21
56.56924477228784
 31
0.0
  0
LINE
  5
D0C
330
1F
100
AcDbEntity
  8
SPOJOVACÍ
  6
Continuous
100
AcDbLine
 10
548.7616628818428
 20
57.14130288673658
 30
0.0
 11
548.4947024265053
 21
59.27791668958997
 31
0.0
  0
LINE
  5
D0D
330
1F
100
AcDbEntity
  8
SPOJOVACÍ
  6
Continuous
100
AcDbLine
 10
548.4230788892815
 20
59.84811445263511
 30
0.0
 11
548.1775124778137
 21
61.81915696392133
 31
0.0
  0
LINE
  5
D0E
330
1F
100
AcDbEntity
  8
SPOJOVACÍ
  6
Continuous
100
AcDbLine
 10
551.9270511142891
 20
75.98387398196535
 30
0.0
 11
547.1273440084401
 21
74.78394720550312
 31
0.0
  0
LINE
  5
D0F
330
1F
100
AcDbEntity
  8
SPOJOVACÍ
  6
Continuous
100
AcDbLine
 10
551.9270511142891
 20
75.98387398196535
 30
0.0
 11
551.5493997389781
 21
75.76621284591709
 31
0.0
  0
LINE
  5
D10
330
1F
100
AcDbEntity
  8
SPOJOVACÍ
  6
Continuous
100
AcDbLine
 10
551.9270511142891
 20
75.98387398196535
 30
0.0
 11
551.5493997389781
 21
76.36245553079533
 31
0.0
  0
LINE
  5
D11
330
1F
100
AcDbEntity
  8
SPOJOVACÍ
  6
Continuous
100
AcDbLine
 10
547.1273440084401
 20
74.78394720550312
 30
0.0
 11
547.5049953793855
 21
74.40629583237495
 31
0.0
  0
LINE
  5
D12
330
1F
100
AcDbEntity
  8
SPOJOVACÍ
  6
Continuous
100
AcDbLine
 10
547.1273440084401
 20
74.78394720550312
 30
0.0
 11
547.5049953793855
 21
75.00253851752967
 31
0.0
  0
LINE
  5
D13
330
1F
100
AcDbEntity
  8
SPOJOVACÍ
  6
Continuous
100
AcDbLine
 10
551.5493997389781
 20
75.76621284591709
 30
0.0
 11
547.5049953793855
 21
74.40629583237495
 31
0.0
  0
LINE
  5
D14
330
1F
100
AcDbEntity
  8
SPOJOVACÍ
  6
Continuous
100
AcDbLine
 10
551.5493997389781
 20
76.36245553079533
 30
0.0
 11
547.5049953793855
 21
75.00253851752967
 31
0.0
  0
LINE
  5
D15
330
1F
100
AcDbEntity
  8
SPOJOVACÍ
  6
Continuous
100
AcDbLine
 10
551.9270511142891
 20
72.86406436300348
 30
0.0
 11
547.1273440084401
 21
71.66413758626475
 31
0.0
  0
LINE
  5
D16
330
1F
100
AcDbEntity
  8
SPOJOVACÍ
  6
Continuous
100
AcDbLine
 10
551.9270511142891
 20
72.86406436300348
 30
0.0
 11
551.5493997389781
 21
72.64547305097693
 31
0.0
  0
LINE
  5
D17
330
1F
100
AcDbEntity
  8
SPOJOVACÍ
  6
Continuous
100
AcDbLine
 10
551.9270511142891
 20
72.86406436300348
 30
0.0
 11
551.5493997389781
 21
73.24171573613165
 31
0.0
  0
LINE
  5
D18
330
1F
100
AcDbEntity
  8
SPOJOVACÍ
  6
Continuous
100
AcDbLine
 10
547.1273440084401
 20
71.66413758626475
 30
0.0
 11
547.5049953793855
 21
71.28648621341307
 31
0.0
  0
LINE
  5
D19
330
1F
100
AcDbEntity
  8
SPOJOVACÍ
  6
Continuous
100
AcDbLine
 10
547.1273440084401
 20
71.66413758626475
 30
0.0
 11
547.5049953793855
 21
71.8827288982913
 31
0.0
  0
LINE
  5
D1A
330
1F
100
AcDbEntity
  8
SPOJOVACÍ
  6
Continuous
100
AcDbLine
 10
551.5493997389781
 20
72.64547305097693
 30
0.0
 11
547.5049953793855
 21
71.28648621341307
 31
0.0
  0
LINE
  5
D1B
330
1F
100
AcDbEntity
  8
SPOJOVACÍ
  6
Continuous
100
AcDbLine
 10
551.5493997389781
 20
73.24171573613165
 30
0.0
 11
547.5049953793855
 21
71.8827288982913
 31
0.0
  0
LINE
  5
D1C
330
1F
100
AcDbEntity
  8
SPOJOVACÍ
  6
Continuous
100
AcDbLine
 10
551.6731131198681
 20
60.42668379754212
 30
0.0
 11
551.2945315715838
 21
60.20809248551557
 31
0.0
  0
LINE
  5
D1D
330
1F
100
AcDbEntity
  8
SPOJOVACÍ
  6
Continuous
100
AcDbLine
 10
551.6731131198681
 20
60.42668379754212
 30
0.0
 11
551.2945315715838
 21
60.8043351706703
 31
0.0
  0
LINE
  5
D1E
330
1F
100
AcDbEntity
  8
SPOJOVACÍ
  6
Continuous
100
AcDbLine
 10
547.5477834671251
 20
59.45371991523751
 30
0.0
 11
547.9254348380705
 21
59.07513836613105
 31
0.0
  0
LINE
  5
D1F
330
1F
100
AcDbEntity
  8
SPOJOVACÍ
  6
Continuous
100
AcDbLine
 10
547.5477834671251
 20
59.45371991523751
 30
0.0
 11
547.9254348380705
 21
59.67138105128578
 31
0.0
  0
LINE
  5
D20
330
1F
100
AcDbEntity
  8
SPOJOVACÍ
  6
Continuous
100
AcDbLine
 10
551.2945315715838
 20
60.20809248551557
 30
0.0
 11
547.9254348380705
 21
59.07513836613105
 31
0.0
  0
LINE
  5
D21
330
1F
100
AcDbEntity
  8
SPOJOVACÍ
  6
Continuous
100
AcDbLine
 10
551.2945315715838
 20
60.8043351706703
 30
0.0
 11
547.9254348380705
 21
59.67138105128578
 31
0.0
  0
LINE
  5
D22
330
1F
100
AcDbEntity
  8
SPOJOVACÍ
  6
Continuous
100
AcDbLine
 10
551.6731131198681
 20
60.42668379754212
 30
0.0
 11
547.5477834671251
 21
59.45371991523751
 31
0.0
  0
LINE
  5
D23
330
1F
100
AcDbEntity
  8
SPOJOVACÍ
  6
Continuous
100
AcDbLine
 10
551.1084964137622
 20
57.41198404324421
 30
0.0
 11
550.7308450384512
 21
57.19432290719595
 31
0.0
  0
LINE
  5
D24
330
1F
100
AcDbEntity
  8
SPOJOVACÍ
  6
Continuous
100
AcDbLine
 10
551.1084964137622
 20
57.41198404324421
 30
0.0
 11
550.7308450384512
 21
57.79056559235067
 31
0.0
  0
LINE
  5
D25
330
1F
100
AcDbEntity
  8
SPOJOVACÍ
  6
Continuous
100
AcDbLine
 10
547.992407497331
 20
56.77853432647424
 30
0.0
 11
548.3700588682764
 21
56.39995277764427
 31
0.0
  0
LINE
  5
D26
330
1F
100
AcDbEntity
  8
SPOJOVACÍ
  6
Continuous
100
AcDbLine
 10
547.992407497331
 20
56.77853432647424
 30
0.0
 11
548.3700588682764
 21
56.9961954625225
 31
0.0
  0
LINE
  5
D27
330
1F
100
AcDbEntity
  8
SPOJOVACÍ
  6
Continuous
100
AcDbLine
 10
550.7308450384512
 20
57.19432290719595
 30
0.0
 11
548.3700588682764
 21
56.39995277764427
 31
0.0
  0
LINE
  5
D28
330
1F
100
AcDbEntity
  8
SPOJOVACÍ
  6
Continuous
100
AcDbLine
 10
550.7308450384512
 20
57.79056559235067
 30
0.0
 11
548.3700588682764
 21
56.9961954625225
 31
0.0
  0
LINE
  5
D29
330
1F
100
AcDbEntity
  8
SPOJOVACÍ
  6
Continuous
100
AcDbLine
 10
551.1084964137622
 20
57.41198404324421
 30
0.0
 11
547.992407497331
 21
56.77853432647424
 31
0.0
  0
LINE
  5
D2A
330
1F
100
AcDbEntity
  8
SPOJOVACÍ
  6
Continuous
100
AcDbLine
 10
550.5438797032907
 20
54.39821446492459
 30
0.0
 11
550.1662283323454
 21
54.17962315290532
 31
0.0
  0
LINE
  5
D2B
330
1F
100
AcDbEntity
  8
SPOJOVACÍ
  6
Continuous
100
AcDbLine
 10
550.5438797032907
 20
54.39821446492459
 30
0.0
 11
550.1662283323454
 21
54.77586583805276
 31
0.0
  0
LINE
  5
D2C
330
1F
100
AcDbEntity
  8
SPOJOVACÍ
  6
Continuous
100
AcDbLine
 10
548.389592561834
 20
54.08753574915062
 30
0.0
 11
548.7672439327794
 21
53.70895420032065
 31
0.0
  0
LINE
  5
D2D
330
1F
100
AcDbEntity
  8
SPOJOVACÍ
  6
Continuous
100
AcDbLine
 10
548.389592561834
 20
54.08753574915062
 30
0.0
 11
548.7672439327794
 21
54.30519688546809
 31
0.0
  0
LINE
  5
D2E
330
1F
100
AcDbEntity
  8
SPOJOVACÍ
  6
Continuous
100
AcDbLine
 10
550.1662283323454
 20
54.17962315290532
 30
0.0
 11
548.7672439327794
 21
53.70895420032065
 31
0.0
  0
LINE
  5
D2F
330
1F
100
AcDbEntity
  8
SPOJOVACÍ
  6
Continuous
100
AcDbLine
 10
550.1662283323454
 20
54.77586583805276
 30
0.0
 11
548.7672439327794
 21
54.30519688546809
 31
0.0
  0
LINE
  5
D30
330
1F
100
AcDbEntity
  8
SPOJOVACÍ
  6
Continuous
100
AcDbLine
 10
550.5438797032907
 20
54.39821446492459
 30
0.0
 11
548.389592561834
 21
54.08753574915062
 31
0.0
  0
LINE
  5
D31
330
1F
100
AcDbEntity
  8
SPOJOVACÍ
  6
Continuous
100
AcDbLine
 10
551.9270511142891
 20
69.74425474376511
 30
0.0
 11
547.1273440084401
 21
68.54432796730288
 31
0.0
  0
LINE
  5
D32
330
1F
100
AcDbEntity
  8
SPOJOVACÍ
  6
Continuous
100
AcDbLine
 10
551.9270511142891
 20
69.74425474376511
 30
0.0
 11
551.5493997389781
 21
69.52566343173856
 31
0.0
  0
LINE
  5
D33
330
1F
100
AcDbEntity
  8
SPOJOVACÍ
  6
Continuous
100
AcDbLine
 10
551.9270511142891
 20
69.74425474376511
 30
0.0
 11
551.5493997389781
 21
70.12190611689328
 31
0.0
  0
LINE
  5
D34
330
1F
100
AcDbEntity
  8
SPOJOVACÍ
  6
Continuous
100
AcDbLine
 10
547.1273440084401
 20
68.54432796730288
 30
0.0
 11
547.5049953793855
 21
68.16574641847291
 31
0.0
  0
LINE
  5
D35
330
1F
100
AcDbEntity
  8
SPOJOVACÍ
  6
Continuous
100
AcDbLine
 10
547.1273440084401
 20
68.54432796730288
 30
0.0
 11
547.5049953793855
 21
68.76198910362035
 31
0.0
  0
LINE
  5
D36
330
1F
100
AcDbEntity
  8
SPOJOVACÍ
  6
Continuous
100
AcDbLine
 10
551.5493997389781
 20
69.52566343173856
 30
0.0
 11
547.5049953793855
 21
68.16574641847291
 31
0.0
  0
LINE
  5
D37
330
1F
100
AcDbEntity
  8
SPOJOVACÍ
  6
Continuous
100
AcDbLine
 10
551.5493997389781
 20
70.12190611689328
 30
0.0
 11
547.5049953793855
 21
68.76198910362035
 31
0.0
  0
LINE
  5
D38
330
1F
100
AcDbEntity
  8
SPOJOVACÍ
  6
Continuous
100
AcDbLine
 10
551.9270511142891
 20
66.62444512479595
 30
0.0
 11
547.1273440084401
 21
65.42451834833372
 31
0.0
  0
LINE
  5
D39
330
1F
100
AcDbEntity
  8
SPOJOVACÍ
  6
Continuous
100
AcDbLine
 10
551.9270511142891
 20
66.62444512479595
 30
0.0
 11
551.5493997389781
 21
66.40585381277668
 31
0.0
  0
LINE
  5
D3A
330
1F
100
AcDbEntity
  8
SPOJOVACÍ
  6
Continuous
100
AcDbLine
 10
551.9270511142891
 20
66.62444512479595
 30
0.0
 11
551.5493997389781
 21
67.00209649792412
 31
0.0
  0
LINE
  5
D3B
330
1F
100
AcDbEntity
  8
SPOJOVACÍ
  6
Continuous
100
AcDbLine
 10
547.1273440084401
 20
65.42451834833372
 30
0.0
 11
547.5049953793855
 21
65.04593679950374
 31
0.0
  0
LINE
  5
D3C
330
1F
100
AcDbEntity
  8
SPOJOVACÍ
  6
Continuous
100
AcDbLine
 10
547.1273440084401
 20
65.42451834833372
 30
0.0
 11
547.5049953793855
 21
65.64217948438198
 31
0.0
  0
LINE
  5
D3D
330
1F
100
AcDbEntity
  8
SPOJOVACÍ
  6
Continuous
100
AcDbLine
 10
551.5493997389781
 20
66.40585381277668
 30
0.0
 11
547.5049953793855
 21
65.04593679950374
 31
0.0
  0
LINE
  5
D3E
330
1F
100
AcDbEntity
  8
SPOJOVACÍ
  6
Continuous
100
AcDbLine
 10
551.5493997389781
 20
67.00209649792412
 30
0.0
 11
547.5049953793855
 21
65.64217948438198
 31
0.0
  0
LINE
  5
D3F
330
1F
100
AcDbEntity
  8
SPOJOVACÍ
  6
Continuous
100
AcDbLine
 10
551.9270511142891
 20
63.50370532985579
 30
0.0
 11
547.1273440084401
 21
62.30377855339355
 31
0.0
  0
LINE
  5
D40
330
1F
100
AcDbEntity
  8
SPOJOVACÍ
  6
Continuous
100
AcDbLine
 10
551.9270511142891
 20
63.50370532985579
 30
0.0
 11
551.5493997389781
 21
63.28604419380752
 31
0.0
  0
LINE
  5
D41
330
1F
100
AcDbEntity
  8
SPOJOVACÍ
  6
Continuous
100
AcDbLine
 10
551.9270511142891
 20
63.50370532985579
 30
0.0
 11
551.5493997389781
 21
63.88228687896225
 31
0.0
  0
LINE
  5
D42
330
1F
100
AcDbEntity
  8
SPOJOVACÍ
  6
Continuous
100
AcDbLine
 10
547.1273440084401
 20
62.30377855339355
 30
0.0
 11
547.5049953793855
 21
61.92612718026538
 31
0.0
  0
LINE
  5
D43
330
1F
100
AcDbEntity
  8
SPOJOVACÍ
  6
Continuous
100
AcDbLine
 10
547.1273440084401
 20
62.30377855339355
 30
0.0
 11
547.5049953793855
 21
62.5223698654201
 31
0.0
  0
LINE
  5
D44
330
1F
100
AcDbEntity
  8
SPOJOVACÍ
  6
Continuous
100
AcDbLine
 10
551.5493997389781
 20
63.28604419380752
 30
0.0
 11
547.5049953793855
 21
61.92612718026538
 31
0.0
  0
LINE
  5
D45
330
1F
100
AcDbEntity
  8
SPOJOVACÍ
  6
Continuous
100
AcDbLine
 10
551.5493997389781
 20
63.88228687896225
 30
0.0
 11
547.5049953793855
 21
62.5223698654201
 31
0.0
  0
HATCH
  5
D46
330
1F
100
AcDbEntity
  8
CETRIS
100
AcDbHatch
 10
0.0
 20
0.0
 30
0.0
210
0.0
220
0.0
230
1.0
  2
ANSI31
 70
     0
 71
     0
 91
        8
 92
        7
 72
     0
 73
     1
 93
       23
 10
512.7658302616943
 20
80.18454787583795
 10
512.69978777978
 20
80.97147659895307
 10
512.2719069154806
 20
82.4523164660124
 10
511.4756764361551
 20
83.77130574430447
 10
510.3650465358038
 20
84.84007773371031
 10
509.0153614522493
 20
85.58421837018631
 10
509.0153614522493
 20
86.78414514691956
 10
143.9659392539866
 20
86.78414514691866
 10
143.9659392539903
 20
85.58421837018903
 10
143.2506340678225
 20
85.24749473230366
 10
142.0135002589264
 20
84.32941122186475
 10
141.0554191889419
 20
83.12204303896777
 10
140.4424333397943
 20
81.7081758292581
 10
140.2154704489072
 20
80.18454787585978
 10
140.2154704489072
 20
75.22867007178428
 10
140.8879875473318
 20
75.00253851752785
 10
141.2652969428996
 20
74.78414514691866
 10
512.7658302616943
 20
74.78414514691957
 10
512.7658302617016
 20
75.54008129161701
 10
512.0933131632588
 20
75.76621284592073
 10
511.7156617879624
 20
75.98387398196535
 10
512.0933131632697
 20
76.36245553079533
 10
512.7658302616943
 20
76.13632397654163
 97
        0
 92
        7
 72
     0
 73
     1
 93
       12
 10
529.321356451124
 20
86.78414514691956
 10
519.2156692295172
 20
86.78414514691866
 10
519.2156692295172
 20
85.58421837018631
 10
518.5003640433493
 20
85.24749473230547
 10
517.2632302344533
 20
84.32941122186656
 10
516.3051491644688
 20
83.12204303896141
 10
515.6921633153175
 20
81.70817582925264
 10
515.4652004244341
 20
80.18454787581886
 10
515.4652004244341
 20
75.22867007178246
 10
516.1377175228623
 20
75.00253851752967
 10
516.5150269184265
 20
74.78414514691957
 10
529.321356451124
 20
74.78414514691866
 97
        0
 92
        7
 72
     0
 73
     1
 93
       12
 10
547.9505495869339
 20
81.708175829259
 10
547.3375637377863
 20
83.12204303895777
 10
546.3794826677982
 20
84.32941122186747
 10
545.1423488588913
 20
85.2474947323064
 10
544.4270436727271
 20
85.58421837018903
 10
544.4270436727343
 20
86.78414514691866
 10
534.3213564511276
 20
86.78414514691956
 10
534.3213564511203
 20
74.78414514691957
 10
547.1276859838213
 20
74.78414514691866
 10
547.5049953793747
 20
75.00253851752694
 10
548.1775124778137
 20
75.22867007178428
 10
548.1775124778137
 20
80.18454787582248
 97
        0
 92
        7
 72
     0
 73
     1
 93
       15
 10
634.313497499577
 20
86.78414514691866
 10
554.6273514499985
 20
86.78414514691866
 10
554.6273514499985
 20
85.5842183701854
 10
553.2776663664477
 20
84.84007773370938
 10
552.1670364660927
 20
83.77130574429447
 10
551.3708059867709
 20
82.45231646600149
 10
550.942925122468
 20
80.9714765989276
 10
550.8768826405463
 20
80.18454787581886
 10
550.8768826405499
 20
76.13632397654254
 10
551.5493997389746
 20
76.36245553079533
 10
551.9270511142927
 20
75.98387398196809
 10
551.5493997389746
 20
75.76621284591528
 10
550.8768826405499
 20
75.54008129161701
 10
550.8768826405499
 20
74.78414514691957
 10
632.1033362212761
 20
74.78414514691866
 97
        0
 92
        7
 72
     0
 73
     1
 93
       12
 10
622.6673741695955
 20
23.55189086216995
 10
528.6321166382073
 20
23.55189086216995
 10
528.2548072426431
 20
23.33349749155712
 10
527.5822901442149
 20
23.10736593730251
 10
527.5822901442112
 20
18.15148813327977
 10
527.809253035091
 20
16.62786017982233
 10
528.4222388842423
 20
15.21399297012902
 10
529.3803199542268
 20
14.00662478722932
 10
530.6174537631265
 20
13.0885412767804
 10
531.3327589492979
 20
12.75181763889776
 10
531.3327589492979
 20
11.55189086216995
 10
620.4572128912984
 20
11.55189086216995
 97
        0
 92
        7
 72
     0
 73
     1
 93
       23
 10
524.8829199814787
 20
22.19971203254516
 10
524.2104028830505
 20
21.97358047829328
 10
523.8327515077395
 20
22.35216202712143
 10
524.2104028830541
 20
22.56982316317516
 10
524.8829199814787
 20
22.79595471747251
 10
524.8829199814823
 20
23.55189086216995
 10
141.2652969428996
 20
23.55189086216995
 10
140.8879875473427
 20
23.33349749155985
 10
140.2154704489072
 20
23.10736593730524
 10
140.2154704489072
 20
18.15148813321701
 10
140.4424333397943
 20
16.62786017981778
 10
141.0554191889347
 20
15.21399297012538
 10
142.0135002589191
 20
14.00662478723023
 10
143.2506340678152
 20
13.08854127678495
 10
143.9659392539903
 20
12.75181763890049
 10
143.9659392539903
 20
11.55189086216995
 10
521.1324511720301
 20
11.55189086216995
 10
521.1324511720337
 20
12.7518176389023
 10
522.4821362555882
 20
13.49595827537558
 10
523.5927661559395
 20
14.56473026478778
 10
524.3889966352541
 20
15.88371954307802
 10
524.8168774995535
 20
17.36455941012826
 10
524.8829199814751
 20
18.15148813321974
 97
        0
 92
        7
 72
     0
 73
     1
 93
       15
 10
137.516100286171
 20
22.19971203254607
 10
136.8435831877392
 20
21.97358047829328
 10
136.4659318124319
 20
22.35216202712143
 10
136.8435831877501
 20
22.56982316317242
 10
137.516100286171
 20
22.79595471746978
 10
137.516100286171
 20
23.55189086216995
 10
108.4150232170792
 20
23.55189086216995
 10
108.4150232170792
 20
11.55189086216995
 10
133.765631476726
 20
11.55189086216995
 10
133.7656314767224
 20
12.7518176389014
 10
135.115316560266
 20
13.49595827537376
 10
136.2259464606319
 20
14.56473026478596
 10
137.0221769399391
 20
15.88371954307439
 10
137.4500578042494
 20
17.3645594101319
 10
137.516100286171
 20
18.15148813333797
 97
        0
 92
        7
 72
     0
 73
     1
 93
       15
 10
137.516100286171
 20
80.18454787581431
 10
137.4500578042531
 20
80.97147659896126
 10
137.0221769399464
 20
82.45231646601423
 10
136.2259464606282
 20
83.77130574430356
 10
135.1153165602733
 20
84.84007773371667
 10
133.7656314767224
 20
85.58421837018812
 10
133.7656314767224
 20
86.78414514691866
 10
108.4150232170792
 20
86.78414514691866
 10
108.4150232170792
 20
74.78414514691866
 10
137.5161002861747
 20
74.78414514691957
 10
137.5161002861674
 20
75.54008129161883
 10
136.8435831877428
 20
75.76621284592073
 10
136.4659318124319
 20
75.98387398196354
 10
136.8435831877428
 20
76.36245553079715
 10
137.516100286171
 20
76.13632397654345
 97
        0
 75
     0
 76
     1
 52
90.0
 41
1.0
 77
     0
 78
     1
 53
135.0
 43
-21729.19535242134
 44
-998.4027302030014
 45
-2.245064030267288
 46
-2.245064030267287
 79
     0
 47
0.7084555761931278
 98
        8
 10
477.0025437681794
 20
79.12852221531938
 10
518.1154007962573
 20
80.54542723186221
 10
537.2541413247741
 20
80.54542723186221
 10
567.0255299256856
 20
79.12852221531938
 10
564.8989979474095
 20
19.61824855580306
 10
493.3059201446554
 20
19.61824855580306
 10
123.2901950730043
 20
18.9097923952433
 10
128.2520912033211
 20
79.83697837587914
  0
HATCH
  5
D47
330
1F
100
AcDbEntity
  8
izolace
100
AcDbHatch
 10
0.0
 20
0.0
 30
0.0
210
0.0
220
0.0
230
1.0
  2
AR-SAND
 70
     0
 71
     0
 91
        1
 92
        7
 72
     0
 73
     1
 93
        4
 10
534.3213564511239
 20
86.78414514691866
 10
529.321356451124
 20
86.78414514691866
 10
529.321356451124
 20
74.78414514691957
 10
534.3213564511239
 20
74.78414514691866
 97
        0
 75
     0
 76
     1
 52
90.0
 41
0.05
 77
     0
 78
     4
 53
127.5
 43
-25029.10905924752
 44
-1409.607059791172
 45
-2.447066186646711
 46
-0.0800015647992021
 79
     6
 49
0.0
 49
-1.9304
 49
0.0
 49
-2.159
 49
0.0
 49
-2.06375
 53
97.49999999999994
 43
-25029.10905924752
 44
-1409.607059791172
 45
-3.584125502841771
 46
2.247616415690013
 79
     6
 49
0.0
 49
-1.0414
 49
0.0
 49
-1.7399
 49
0.0
 49
-0.6667500000000001
 53
57.5
 43
-25029.10905924752
 44
-1411.169159791172
 45
-0.0071859233927282
 46
3.95496185120729
 79
     6
 49
0.0
 49
-0.635
 49
0.0
 49
-2.286
 49
0.0
 49
-2.9845
 53
47.5
 43
-25029.10905924752
 44
-1411.169159791172
 45
-1.11464661628608
 46
3.817782262361486
 79
     6
 49
0.0
 49
-0.3175
 49
0.0
 49
-1.498599999999999
 49
0.0
 49
-1.7145
 47
0.2359071171925059
 98
        1
 10
531.3455085483179
 20
80.61761104613486
  0
HATCH
  5
D48
330
1F
100
AcDbEntity
  8
STAVBA OBRYS
100
AcDbHatch
 10
0.0
 20
0.0
 30
0.0
210
0.0
220
0.0
230
1.0
  2
ANSI31
 70
     0
 71
     0
 91
        3
 92
        7
 72
     0
 73
     1
 93
        4
 10
90.69697823588615
 20
251.2484046574383
 10
78.19697823589343
 20
251.2491076206781
 10
78.19697823588978
 20
53.0496637928365
 10
90.69697823588979
 20
53.0496637928365
 97
        0
 92
        7
 72
     0
 73
     1
 93
        4
 10
90.69697823589342
 20
45.99873094588673
 10
78.19697823588978
 20
45.99873094588582
 10
78.19697823588978
 20
-99.65944412341087
 10
90.69697823588979
 20
-99.65944412341087
 97
        0
 92
        7
 72
     0
 73
     1
 93
        4
 10
-70.76302176411662
 20
251.2574846930048
 10
-83.26302176411662
 20
251.2581876562437
 10
-83.26302176411662
 20
-99.65944412341087
 10
-70.76302176411662
 20
-99.65944412341087
 97
        0
 75
     0
 76
     1
 52
0.0
 41
1.0
 77
     0
 78
     1
 53
45.0
 43
-21729.19535242134
 44
-998.4027302030014
 45
-2.245064030267287
 46
2.245064030267288
 79
     0
 47
1.016993693765011
 98
        3
 10
85.90568607146598
 20
221.2457206426035
 10
85.90568607146598
 20
21.91495315846458
 10
-78.93724612186304
 20
36.15286355635197
  0
TEXT
  5
D49
330
1F
100
AcDbEntity
  8
POPIS
100
AcDbText
 10
788.8732608557144
 20
-30.68813196198954
 30
0.0
 40
25.0
  1
Přikotvení - hmoždinka
 41
0.7
  7
SIMPLEX7
100
AcDbText
  0
TEXT
  5
D4A
330
1F
100
AcDbEntity
  8
POPIS
100
AcDbText
 10
734.5295576959721
 20
-30.68813196198954
 30
0.0
 40
25.0
  1
06
 41
0.85
  7
SIMPLEX7
100
AcDbText
  0
CIRCLE
  5
D4B
330
1F
100
AcDbEntity
  8
POPIS
100
AcDbCircle
 10
961.2584751499413
 20
176.1420989961772
 30
0.0
 40
11.13656048292026
  0
TEXT
  5
D4C
330
1F
100
AcDbEntity
  8
POPIS
100
AcDbText
 10
956.4994460947596
 20
170.5967532511896
 30
0.0
 40
12.0
  1
R
 41
0.85
  7
SIMPLEX7
100
AcDbText
  0
TEXT
  5
D4D
330
1F
100
AcDbEntity
  8
POPIS
100
AcDbText
 10
734.5295576959721
 20
3.565260577208562
 30
0.0
 40
25.0
  1
05
 41
0.85
  7
SIMPLEX7
100
AcDbText
  0
TEXT
  5
D4E
330
1F
100
AcDbEntity
  8
POPIS
100
AcDbText
 10
788.8732608557144
 20
3.565260577208562
 30
0.0
 40
25.0
  1
Trvale pružný tmel
 41
0.7
  7
SIMPLEX7
100
AcDbText
  0
TEXT
  5
D4F
330
1F
100
AcDbEntity
  8
POPIS
100
AcDbText
 10
788.8732608557144
 20
39.67208206439698
 30
0.0
 40
25.0
  1
Tepelná izolace
 41
0.7
  7
SIMPLEX7
100
AcDbText
  0
TEXT
  5
D50
330
1F
100
AcDbEntity
  8
POPIS
100
AcDbText
 10
734.5295576959721
 20
39.67208206439698
 30
0.0
 40
25.0
  1
04
 41
0.85
  7
SIMPLEX7
100
AcDbText
  0
TEXT
  5
D51
330
1F
100
AcDbEntity
  8
POPIS
100
AcDbText
 10
788.8732608557144
 20
75.07624328255968
 30
0.0
 40
25.0
  1
Svislý dřevěný hranolek 80/50 (50/50)
 41
0.7
  7
SIMPLEX7
100
AcDbText
  0
TEXT
  5
D52
330
1F
100
AcDbEntity
  8
POPIS
100
AcDbText
 10
734.5295576959721
 20
75.07624328255968
 30
0.0
 40
25.0
  1
03
 41
0.85
  7
SIMPLEX7
100
AcDbText
  0
TEXT
  5
D53
330
1F
100
AcDbEntity
  8
POPIS
100
AcDbText
 10
788.8732608557144
 20
109.0264315272817
 30
0.0
 40
25.0
  1
Vrut Bűhnen 4,2x35 (45,55) mm
 41
0.7
  7
SIMPLEX7
100
AcDbText
  0
TEXT
  5
D54
330
1F
100
AcDbEntity
  8
POPIS
100
AcDbText
 10
734.5295576959721
 20
109.0264315272817
 30
0.0
 40
25.0
  1
02
 41
0.85
  7
SIMPLEX7
100
AcDbText
  0
TEXT
  5
D55
330
1F
100
AcDbEntity
  8
POPIS
100
AcDbText
 10
788.8732608557144
 20
145.621443142909
 30
0.0
 40
25.0
  1
Deska CETRIS   
 41
0.7
  7
SIMPLEX7
100
AcDbText
  0
TEXT
  5
D56
330
1F
100
AcDbEntity
  8
POPIS
100
AcDbText
 10
734.5295576959721
 20
145.621443142909
 30
0.0
 40
25.0
  1
01
 41
0.85
  7
SIMPLEX7
100
AcDbText
  0
INSERT
  5
D57
330
1F
100
AcDbEntity
  8
POPIS
100
AcDbBlockReference
  2
E_PUNKT
 10
326.6538014472276
 20
86.75507681604647
 30
0.0
  0
TEXT
  5
D58
330
1F
100
AcDbEntity
  8
POPIS
100
AcDbText
 10
496.554189975544
 20
151.1458716171784
 30
0.0
 40
25.0
  1
02
 41
0.85
  7
SIMPLEX7
100
AcDbText
  0
INSERT
  5
D59
330
1F
100
AcDbEntity
  8
POPIS
100
AcDbBlockReference
  2
E_PUNKT
 10
514.1830270883689
 20
86.75507681604647
 30
0.0
  0
LINE
  5
D5A
330
1F
100
AcDbEntity
  8
POPIS
100
AcDbLine
 10
514.2106374639949
 20
86.78414514691866
 30
0.0
 11
514.2106374639949
 21
146.4448084806546
 31
0.0
  0
LINE
  5
D5B
330
1F
100
AcDbEntity
  8
POPIS
100
AcDbLine
 10
326.7765339459689
 20
86.7841451469223
 30
0.0
 11
326.7765339459689
 21
146.4448084806583
 31
0.0
  0
TEXT
  5
D5C
330
1F
100
AcDbEntity
  8
POPIS
100
AcDbText
 10
309.1200864575181
 20
151.1458716171811
 30
0.0
 40
25.0
  1
01
 41
0.85
  7
SIMPLEX7
100
AcDbText
  0
LINE
  5
D5D
330
1F
100
AcDbEntity
  8
POPIS
100
AcDbLine
 10
597.1509749995635
 20
49.30913973516197
 30
0.0
 11
597.1509749995635
 21
146.4448084806546
 31
0.0
  0
TEXT
  5
D5E
330
1F
100
AcDbEntity
  8
POPIS
100
AcDbText
 10
579.4945275111127
 20
151.1458716171784
 30
0.0
 40
25.0
  1
04
 41
0.85
  7
SIMPLEX7
100
AcDbText
  0
INSERT
  5
D5F
330
1F
100
AcDbEntity
  8
POPIS
100
AcDbBlockReference
  2
E_PUNKT
 10
597.1233646239376
 20
49.28007140428888
 30
0.0
  0
TEXT
  5
D60
330
1F
100
AcDbEntity
  8
POPIS
100
AcDbText
 10
134.8458378874125
 20
151.1458716171784
 30
0.0
 40
25.0
  1
05
 41
0.85
  7
SIMPLEX7
100
AcDbText
  0
LINE
  5
D61
330
1F
100
AcDbEntity
  8
POPIS
100
AcDbLine
 10
106.0834768205492
 20
82.95762192769343
 30
0.0
 11
152.5022853758633
 21
146.4448084806546
 31
0.0
  0
LINE
  5
D62
330
1F
100
AcDbEntity
  8
POPIS
100
AcDbLine
 10
147.7413159465755
 20
64.69227727226388
 30
0.0
 11
207.3807450059208
 21
146.4448084806546
 31
0.0
  0
TEXT
  5
D63
330
1F
100
AcDbEntity
  8
POPIS
100
AcDbText
 10
189.72429751747
 20
151.1458716171784
 30
0.0
 40
25.0
  1
03
 41
0.85
  7
SIMPLEX7
100
AcDbText
  0
INSERT
  5
D64
330
1F
100
AcDbEntity
  8
POPIS
100
AcDbBlockReference
  2
E_PUNKT
 10
106.0558664449232
 20
82.92855359682125
 30
0.0
  0
INSERT
  5
D65
330
1F
100
AcDbEntity
  8
POPIS
100
AcDbBlockReference
  2
E_PUNKT
 10
147.7378361040933
 20
64.97968725256413
 30
0.0
  0
LINE
  5
D66
330
1F
100
AcDbEntity
  8
POPIS
100
AcDbLine
 10
71.91394145623383
 20
49.52419736936116
 30
0.0
 11
143.0921582885344
 21
-47.82652901033071
 31
0.0
  0
INSERT
  5
D67
330
1F
100
AcDbEntity
  8
POPIS
100
AcDbBlockReference
  2
E_PUNKT
 10
71.88633108060788
 20
49.49512903848898
 30
0.0
  0
TEXT
  5
D68
330
1F
100
AcDbEntity
  8
POPIS
100
AcDbText
 10
121.5343684410687
 20
-78.67057058876326
 30
0.0
 40
25.0
  1
06
 41
0.85
  7
SIMPLEX7
100
AcDbText
  0
TEXT
  5
D69
330
1F
100
AcDbEntity
  8
POPIS
100
AcDbText
 10
-124.9784047953038
 20
347.7238575031835
 30
0.0
 40
35.0
  1
PŮDORYS
 41
0.85
  7
SIMPLEX7
100
AcDbText
  0
TEXT
  5
D6A
330
1F
100
AcDbEntity
  8
POPIS
100
AcDbText
 10
-124.9784047953038
 20
402.3486005289844
 30
0.0
 40
50.0
  1
Napojení příčky na montovanou stěnu
 41
0.85
  7
SIMPLEX7
100
AcDbText
  0
TEXT
  5
D6B
330
1F
100
AcDbEntity
  8
POPIS
100
AcDbText
 10
167.7754505806948
 20
-78.67057058876236
 30
0.0
 40
25.0
  1
07
 41
0.85
  7
SIMPLEX7
100
AcDbText
  0
LINE
  5
D6C
330
1F
100
AcDbEntity
  8
POPIS
100
AcDbLine
 10
104.9297042107788
 20
33.67919887656643
 30
0.0
 11
166.2942042517967
 21
-47.82652901032889
 31
0.0
  0
INSERT
  5
D6D
330
1F
100
AcDbEntity
  8
POPIS
100
AcDbBlockReference
  2
E_PUNKT
 10
104.9020938351528
 20
33.65013054569425
 30
0.0
  0
TEXT
  5
D6E
330
1F
100
AcDbEntity
  8
POPIS
100
AcDbText
 10
788.8732608557144
 20
-63.85333032578893
 30
0.0
 40
25.0
  1
Těsnící podložka
 41
0.7
  7
SIMPLEX7
100
AcDbText
  0
TEXT
  5
D6F
330
1F
100
AcDbEntity
  8
POPIS
100
AcDbText
 10
734.5295576959721
 20
-63.85333032578893
 30
0.0
 40
25.0
  1
07
 41
0.85
  7
SIMPLEX7
100
AcDbText
  0
ENDSEC
  0
SECTION
  2
OBJECTS
  0
DICTIONARY
  5
C
330
0
100
AcDbDictionary
281
     1
  3
ACAD_GROUP
350
D
  3
ACAD_LAYOUT
350
1A
  3
ACAD_MLINESTYLE
350
17
  3
ACAD_PLOTSETTINGS
350
19
  3
ACAD_PLOTSTYLENAME
350
E
  0
DICTIONARY
  5
D
102
{ACAD_REACTORS
330
C
102
}
330
C
100
AcDbDictionary
281
     1
  0
DICTIONARY
  5
1A
102
{ACAD_REACTORS
330
C
102
}
330
C
100
AcDbDictionary
281
     1
  3
Model
350
22
  3
Rozvržení1
350
1E
  3
Rozvržení2
350
26
  0
DICTIONARY
  5
17
102
{ACAD_REACTORS
330
C
102
}
330
C
100
AcDbDictionary
281
     1
  3
Standard
350
18
  0
DICTIONARY
  5
19
102
{ACAD_REACTORS
330
C
102
}
330
C
100
AcDbDictionary
281
     1
  0
ACDBDICTIONARYWDFLT
  5
E
102
{ACAD_REACTORS
330
C
102
}
330
C
100
AcDbDictionary
281
     1
  3
Normal
350
F
100
AcDbDictionaryWithDefault
340
F
  0
LAYOUT
  5
22
102
{ACAD_REACTORS
330
1A
102
}
330
1A
100
AcDbPlotSettings
  1

  2
HP DeskJet 690C
  4

  6

 40
0.0
 41
0.0
 42
0.0
 43
0.0
 44
0.0
 45
0.0
 46
0.0
 47
0.0
 48
0.0
 49
0.0
140
0.0
141
0.0
142
1.0
143
1.0
 70
  1712
 72
     0
 73
     0
 74
     0
  7
monochrome.ctb
 75
     0
147
1.0
148
0.0
149
0.0
100
AcDbLayout
  1
Model
 70
     1
 71
     0
 10
0.0
 20
0.0
 11
12.0
 21
9.0
 12
0.0
 22
0.0
 32
0.0
 14
0.0
 24
0.0
 34
0.0
 15
0.0
 25
0.0
 35
0.0
146
0.0
 13
0.0
 23
0.0
 33
0.0
 16
1.0
 26
0.0
 36
0.0
 17
0.0
 27
1.0
 37
0.0
 76
     0
330
1F
  0
LAYOUT
  5
1E
102
{ACAD_REACTORS
330
1A
102
}
330
1A
100
AcDbPlotSettings
  1

  2
HP DeskJet 690C
  4

  6

 40
0.0
 41
0.0
 42
0.0
 43
0.0
 44
0.0
 45
0.0
 46
0.0
 47
0.0
 48
0.0
 49
0.0
140
0.0
141
0.0
142
1.0
143
1.0
 70
   688
 72
     0
 73
     0
 74
     5
  7
monochrome.ctb
 75
    16
147
1.0
148
0.0
149
0.0
100
AcDbLayout
  1
Rozvržení1
 70
     1
 71
     1
 10
0.0
 20
0.0
 11
420.0
 21
297.0
 12
0.0
 22
0.0
 32
0.0
 14
1.000000000000000E+20
 24
1.000000000000000E+20
 34
1.000000000000000E+20
 15
-1.000000000000000E+20
 25
-1.000000000000000E+20
 35
-1.000000000000000E+20
146
0.0
 13
0.0
 23
0.0
 33
0.0
 16
1.0
 26
0.0
 36
0.0
 17
0.0
 27
1.0
 37
0.0
 76
     0
330
1B
  0
LAYOUT
  5
26
102
{ACAD_REACTORS
330
1A
102
}
330
1A
100
AcDbPlotSettings
  1

  2
HP DeskJet 690C
  4

  6

 40
0.0
 41
0.0
 42
0.0
 43
0.0
 44
0.0
 45
0.0
 46
0.0
 47
0.0
 48
0.0
 49
0.0
140
0.0
141
0.0
142
1.0
143
1.0
 70
   688
 72
     0
 73
     0
 74
     5
  7
monochrome.ctb
 75
    16
147
1.0
148
0.0
149
0.0
100
AcDbLayout
  1
Rozvržení2
 70
     1
 71
     2
 10
0.0
 20
0.0
 11
12.0
 21
9.0
 12
0.0
 22
0.0
 32
0.0
 14
0.0
 24
0.0
 34
0.0
 15
0.0
 25
0.0
 35
0.0
146
0.0
 13
0.0
 23
0.0
 33
0.0
 16
1.0
 26
0.0
 36
0.0
 17
0.0
 27
1.0
 37
0.0
 76
     0
330
23
  0
MLINESTYLE
  5
18
102
{ACAD_REACTORS
330
17
102
}
330
17
100
AcDbMlineStyle
  2
STANDARD
 70
     0
  3

 62
   256
 51
90.0
 52
90.0
 71
     2
 49
0.5
 62
   256
  6
BYLAYER
 49
-0.5
 62
   256
  6
BYLAYER
  0
ACDBPLACEHOLDER
  5
F
102
{ACAD_REACTORS
330
E
102
}
330
E
  0
ENDSEC
  0
EOF
