  0
SECTION
  2
HEADER
  9
$ACADVER
  1
AC1015
  9
$ACADMAINTVER
 70
    14
  9
$DWGCODEPAGE
  3
ANSI_1250
  9
$INSBASE
 10
0.0
 20
0.0
 30
0.0
  9
$EXTMIN
 10
-2366.433510666177
 20
-749.2271014287012
 30
-0.0015258207003583
  9
$EXTMAX
 10
-766.7575823137148
 20
606.2179648753104
 30
0.0000000349246037
  9
$LIMMIN
 10
0.0
 20
0.0
  9
$LIMMAX
 10
420.0
 20
297.0
  9
$ORTHOMODE
 70
     1
  9
$REGENMODE
 70
     1
  9
$FILLMODE
 70
     1
  9
$QTEXTMODE
 70
     0
  9
$MIRRTEXT
 70
     1
  9
$LTSCALE
 40
1.0
  9
$ATTMODE
 70
     1
  9
$TEXTSIZE
 40
2.5
  9
$TRACEWID
 40
1.0
  9
$TEXTSTYLE
  7
Standard
  9
$CLAYER
  8
0
  9
$CELTYPE
  6
ByLayer
  9
$CECOLOR
 62
   256
  9
$CELTSCALE
 40
1.0
  9
$DISPSILH
 70
     0
  9
$DIMSCALE
 40
1.0
  9
$DIMASZ
 40
2.5
  9
$DIMEXO
 40
0.625
  9
$DIMDLI
 40
3.75
  9
$DIMRND
 40
0.0
  9
$DIMDLE
 40
0.0
  9
$DIMEXE
 40
1.25
  9
$DIMTP
 40
0.0
  9
$DIMTM
 40
0.0
  9
$DIMTXT
 40
2.5
  9
$DIMCEN
 40
2.5
  9
$DIMTSZ
 40
0.0
  9
$DIMTOL
 70
     0
  9
$DIMLIM
 70
     0
  9
$DIMTIH
 70
     0
  9
$DIMTOH
 70
     0
  9
$DIMSE1
 70
     0
  9
$DIMSE2
 70
     0
  9
$DIMTAD
 70
     1
  9
$DIMZIN
 70
     8
  9
$DIMBLK
  1

  9
$DIMASO
 70
     1
  9
$DIMSHO
 70
     1
  9
$DIMPOST
  1

  9
$DIMAPOST
  1

  9
$DIMALT
 70
     0
  9
$DIMALTD
 70
     3
  9
$DIMALTF
 40
0.03937007874016
  9
$DIMLFAC
 40
1.0
  9
$DIMTOFL
 70
     1
  9
$DIMTVP
 40
0.0
  9
$DIMTIX
 70
     0
  9
$DIMSOXD
 70
     0
  9
$DIMSAH
 70
     0
  9
$DIMBLK1
  1

  9
$DIMBLK2
  1

  9
$DIMSTYLE
  2
ISO-25
  9
$DIMCLRD
 70
     0
  9
$DIMCLRE
 70
     0
  9
$DIMCLRT
 70
     0
  9
$DIMTFAC
 40
1.0
  9
$DIMGAP
 40
0.625
  9
$DIMJUST
 70
     0
  9
$DIMSD1
 70
     0
  9
$DIMSD2
 70
     0
  9
$DIMTOLJ
 70
     0
  9
$DIMTZIN
 70
     8
  9
$DIMALTZ
 70
     0
  9
$DIMALTTZ
 70
     0
  9
$DIMUPT
 70
     0
  9
$DIMDEC
 70
     2
  9
$DIMTDEC
 70
     2
  9
$DIMALTU
 70
     2
  9
$DIMALTTD
 70
     3
  9
$DIMTXSTY
  7
Standard
  9
$DIMAUNIT
 70
     0
  9
$DIMADEC
 70
     0
  9
$DIMALTRND
 40
0.0
  9
$DIMAZIN
 70
     0
  9
$DIMDSEP
 70
    44
  9
$DIMATFIT
 70
     3
  9
$DIMFRAC
 70
     0
  9
$DIMLDRBLK
  1

  9
$DIMLUNIT
 70
     2
  9
$DIMLWD
 70
    -2
  9
$DIMLWE
 70
    -2
  9
$DIMTMOVE
 70
     0
  9
$LUNITS
 70
     2
  9
$LUPREC
 70
     4
  9
$SKETCHINC
 40
1.0
  9
$FILLETRAD
 40
0.0
  9
$AUNITS
 70
     0
  9
$AUPREC
 70
     0
  9
$MENU
  1
.
  9
$ELEVATION
 40
0.0
  9
$PELEVATION
 40
0.0
  9
$THICKNESS
 40
0.0
  9
$LIMCHECK
 70
     0
  9
$CHAMFERA
 40
10.0
  9
$CHAMFERB
 40
10.0
  9
$CHAMFERC
 40
20.0
  9
$CHAMFERD
 40
0.0
  9
$SKPOLY
 70
     0
  9
$TDCREATE
 40
2452339.371895717
  9
$TDUCREATE
 40
2452339.330229051
  9
$TDUPDATE
 40
2455610.302569224
  9
$TDUUPDATE
 40
2455610.260902558
  9
$TDINDWG
 40
0.0399509606
  9
$TDUSRTIMER
 40
0.0399509606
  9
$USRTIMER
 70
     1
  9
$ANGBASE
 50
0.0
  9
$ANGDIR
 70
     0
  9
$PDMODE
 70
     0
  9
$PDSIZE
 40
0.0
  9
$PLINEWID
 40
0.0
  9
$SPLFRAME
 70
     0
  9
$SPLINETYPE
 70
     6
  9
$SPLINESEGS
 70
     8
  9
$HANDSEED
  5
403A
  9
$SURFTAB1
 70
     6
  9
$SURFTAB2
 70
     6
  9
$SURFTYPE
 70
     6
  9
$SURFU
 70
     6
  9
$SURFV
 70
     6
  9
$UCSBASE
  2

  9
$UCSNAME
  2

  9
$UCSORG
 10
0.0
 20
0.0
 30
0.0
  9
$UCSXDIR
 10
1.0
 20
0.0
 30
0.0
  9
$UCSYDIR
 10
0.0
 20
1.0
 30
0.0
  9
$UCSORTHOREF
  2

  9
$UCSORTHOVIEW
 70
     0
  9
$UCSORGTOP
 10
0.0
 20
0.0
 30
0.0
  9
$UCSORGBOTTOM
 10
0.0
 20
0.0
 30
0.0
  9
$UCSORGLEFT
 10
0.0
 20
0.0
 30
0.0
  9
$UCSORGRIGHT
 10
0.0
 20
0.0
 30
0.0
  9
$UCSORGFRONT
 10
0.0
 20
0.0
 30
0.0
  9
$UCSORGBACK
 10
0.0
 20
0.0
 30
0.0
  9
$PUCSBASE
  2

  9
$PUCSNAME
  2

  9
$PUCSORG
 10
0.0
 20
0.0
 30
0.0
  9
$PUCSXDIR
 10
1.0
 20
0.0
 30
0.0
  9
$PUCSYDIR
 10
0.0
 20
1.0
 30
0.0
  9
$PUCSORTHOREF
  2

  9
$PUCSORTHOVIEW
 70
     0
  9
$PUCSORGTOP
 10
0.0
 20
0.0
 30
0.0
  9
$PUCSORGBOTTOM
 10
0.0
 20
0.0
 30
0.0
  9
$PUCSORGLEFT
 10
0.0
 20
0.0
 30
0.0
  9
$PUCSORGRIGHT
 10
0.0
 20
0.0
 30
0.0
  9
$PUCSORGFRONT
 10
0.0
 20
0.0
 30
0.0
  9
$PUCSORGBACK
 10
0.0
 20
0.0
 30
0.0
  9
$USERI1
 70
     0
  9
$USERI2
 70
     0
  9
$USERI3
 70
     0
  9
$USERI4
 70
     0
  9
$USERI5
 70
     0
  9
$USERR1
 40
0.0
  9
$USERR2
 40
0.0
  9
$USERR3
 40
0.0
  9
$USERR4
 40
0.0
  9
$USERR5
 40
0.0
  9
$WORLDVIEW
 70
     1
  9
$SHADEDGE
 70
     3
  9
$SHADEDIF
 70
    70
  9
$TILEMODE
 70
     1
  9
$MAXACTVP
 70
    48
  9
$PINSBASE
 10
0.0
 20
0.0
 30
0.0
  9
$PLIMCHECK
 70
     0
  9
$PEXTMIN
 10
1.000000000000000E+20
 20
1.000000000000000E+20
 30
1.000000000000000E+20
  9
$PEXTMAX
 10
-1.000000000000000E+20
 20
-1.000000000000000E+20
 30
-1.000000000000000E+20
  9
$PLIMMIN
 10
0.0
 20
0.0
  9
$PLIMMAX
 10
420.0
 20
297.0
  9
$UNITMODE
 70
     0
  9
$VISRETAIN
 70
     1
  9
$PLINEGEN
 70
     0
  9
$PSLTSCALE
 70
     1
  9
$TREEDEPTH
 70
  3020
  9
$CMLSTYLE
  2
Standard
  9
$CMLJUST
 70
     0
  9
$CMLSCALE
 40
20.0
  9
$PROXYGRAPHICS
 70
     1
  9
$MEASUREMENT
 70
     1
  9
$CELWEIGHT
370
    -1
  9
$ENDCAPS
280
     0
  9
$JOINSTYLE
280
     0
  9
$LWDISPLAY
290
     0
  9
$INSUNITS
 70
     4
  9
$HYPERLINKBASE
  1

  9
$STYLESHEET
  1

  9
$XEDIT
290
     1
  9
$CEPSNTYPE
380
     0
  9
$PSTYLEMODE
290
     1
  9
$FINGERPRINTGUID
  2
{9FA890EF-883C-4FD4-884F-6B075534EB0B}
  9
$VERSIONGUID
  2
{7F309528-EBDC-4A47-9D5F-1C94E9C49E19}
  9
$EXTNAMES
290
     1
  9
$PSVPSCALE
 40
0.0
  9
$OLESTARTUP
290
     0
  0
ENDSEC
  0
SECTION
  2
CLASSES
  0
CLASS
  1
ACDBDICTIONARYWDFLT
  2
AcDbDictionaryWithDefault
  3
AutoCAD 2000
 90
        0
280
     0
281
     0
  0
CLASS
  1
ACDBPLACEHOLDER
  2
AcDbPlaceHolder
  3
AutoCAD 2000
 90
        0
280
     0
281
     0
  0
CLASS
  1
LAYOUT
  2
AcDbLayout
  3
AutoCAD 2000
 90
        0
280
     0
281
     0
  0
CLASS
  1
LONG_TRANSACTION
  2
AcDbLongTransaction
  3
AutoCAD 2000
 90
    32768
280
     0
281
     0
  0
CLASS
  1
LWPOLYLINE
  2
AcDbPolyline
  3
AutoCAD 2000
 90
    32768
280
     0
281
     1
  0
CLASS
  1
HATCH
  2
AcDbHatch
  3
AutoCAD 2000
 90
    32768
280
     0
281
     1
  0
CLASS
  1
XRECORD
  2
AcDbXrecord
  3
AutoCAD 2000
 90
    32768
280
     0
281
     0
  0
CLASS
  1
DICTIONARYVAR
  2
AcDbDictionaryVar
  3
AutoCAD 2000
 90
        0
280
     0
281
     0
  0
ENDSEC
  0
SECTION
  2
TABLES
  0
TABLE
  2
VPORT
  5
8
330
0
100
AcDbSymbolTable
 70
     2
  0
VPORT
  5
4039
330
8
100
AcDbSymbolTableRecord
100
AcDbViewportTableRecord
  2
*Active
 70
     0
 10
0.0
 20
0.0
 11
1.0
 21
1.0
 12
-1566.595546489946
 22
-71.50456827669541
 13
0.0
 23
0.0
 14
10.0
 24
10.0
 15
10.0
 25
10.0
 16
0.0
 26
0.0
 36
1.0
 17
0.0
 27
0.0
 37
0.0
 40
1365.399375236476
 41
2.031862745098039
 42
50.0
 43
0.0
 44
0.0
 50
0.0
 51
0.0
 71
     0
 72
   100
 73
     1
 74
     3
 75
     0
 76
     0
 77
     0
 78
     0
281
     0
 65
     1
110
0.0
120
0.0
130
0.0
111
1.0
121
0.0
131
0.0
112
0.0
122
1.0
132
0.0
 79
     0
146
0.0
  0
ENDTAB
  0
TABLE
  2
LTYPE
  5
5
330
0
100
AcDbSymbolTable
 70
     4
  0
LTYPE
  5
14
330
5
100
AcDbSymbolTableRecord
100
AcDbLinetypeTableRecord
  2
ByBlock
 70
     0
  3

 72
    65
 73
     0
 40
0.0
  0
LTYPE
  5
15
330
5
100
AcDbSymbolTableRecord
100
AcDbLinetypeTableRecord
  2
ByLayer
 70
     0
  3

 72
    65
 73
     0
 40
0.0
  0
LTYPE
  5
16
330
5
100
AcDbSymbolTableRecord
100
AcDbLinetypeTableRecord
  2
Continuous
 70
     0
  3
Solid line
 72
    65
 73
     0
 40
0.0
  0
LTYPE
  5
33
330
5
100
AcDbSymbolTableRecord
100
AcDbLinetypeTableRecord
  2
IZOLACE
 70
     0
  3
Izolace SSSSSSSSSSSSSSSSSSSSSSSSSSSSSSSSSSSSSSS
 72
    65
 73
     4
 40
10.16253999999999
 49
0.00254
 74
     0
 49
-2.54
 74
     4
 75
   134
340
3D
 46
2.54
 50
0.0
 44
-2.54
 45
0.0
 49
-5.08
 74
     4
 75
   134
340
3D
 46
2.54
 50
180.0
 44
2.54
 45
0.0
 49
-2.54
 74
     0
  0
LTYPE
  5
34
330
5
100
AcDbSymbolTableRecord
100
AcDbLinetypeTableRecord
  2
DASHED
 70
     0
  3
Dashed __ __ __ __ __ __ __ __ __ __ __ __ __ _
 72
    65
 73
     2
 40
19.04999999999999
 49
12.7
 74
     0
 49
-6.349999999999999
 74
     0
  0
LTYPE
  5
35
330
5
100
AcDbSymbolTableRecord
100
AcDbLinetypeTableRecord
  2
DASHDOT2
 70
     0
  3
Dash dot (.5x) _._._._._._._._._._._._._._._.
 72
    65
 73
     4
 40
12.7
 49
6.349999999999999
 74
     0
 49
-3.174999999999999
 74
     0
 49
0.0
 74
     0
 49
-3.174999999999999
 74
     0
  0
ENDTAB
  0
TABLE
  2
LAYER
  5
2
330
0
100
AcDbSymbolTable
 70
     8
  0
LAYER
  5
10
330
2
100
AcDbSymbolTableRecord
100
AcDbLayerTableRecord
  2
0
 70
     0
 62
     7
  6
Continuous
370
    -3
390
F
  0
LAYER
  5
36
330
2
100
AcDbSymbolTableRecord
100
AcDbLayerTableRecord
  2
POPIS
 70
     0
 62
    30
  6
Continuous
370
    -3
390
F
  0
LAYER
  5
37
330
2
100
AcDbSymbolTableRecord
100
AcDbLayerTableRecord
  2
SPOJOVACÍ
 70
     0
 62
   180
  6
Continuous
370
    -3
390
F
  0
LAYER
  5
38
330
2
100
AcDbSymbolTableRecord
100
AcDbLayerTableRecord
  2
CETRIS
 70
     0
 62
     1
  6
Continuous
370
    -3
390
F
  0
LAYER
  5
39
330
2
100
AcDbSymbolTableRecord
100
AcDbLayerTableRecord
  2
NOSNÉ KONSTRUKCE
 70
     0
 62
    33
  6
Continuous
370
    -3
390
F
  0
LAYER
  5
3B
330
2
100
AcDbSymbolTableRecord
100
AcDbLayerTableRecord
  2
STAVBA OBRYS
 70
     0
 62
     6
  6
Continuous
370
    -3
390
F
  0
LAYER
  5
37AB
330
2
100
AcDbSymbolTableRecord
100
AcDbLayerTableRecord
  2
Defpoints
 70
     0
 62
     7
  6
Continuous
290
     0
370
    -3
390
F
  0
LAYER
  5
3B8F
330
2
100
AcDbSymbolTableRecord
100
AcDbLayerTableRecord
  2
PROFILY
 70
     0
 62
    73
  6
Continuous
370
    -3
390
F
  0
ENDTAB
  0
TABLE
  2
STYLE
  5
3
330
0
100
AcDbSymbolTable
 70
     3
  0
STYLE
  5
11
330
3
100
AcDbSymbolTableRecord
100
AcDbTextStyleTableRecord
  2
Standard
 70
     0
 40
0.0
 41
1.0
 50
0.0
 71
     0
 42
2.5
  3
txt
  4

  0
STYLE
  5
3C
330
3
100
AcDbSymbolTableRecord
100
AcDbTextStyleTableRecord
  2
SIMPLEX7
 70
     0
 40
0.0
 41
0.85
 50
0.0
 71
     0
 42
102.0
  3
ARIAL.TTF
  4

1001
ACAD
1000
Arial CE
1071
    60962
  0
STYLE
  5
3D
330
3
100
AcDbSymbolTableRecord
100
AcDbTextStyleTableRecord
  2

 70
     1
 40
0.0
 41
1.0
 50
0.0
 71
     0
 42
2.5
  3
ltypeshp.shx
  4

  0
ENDTAB
  0
TABLE
  2
VIEW
  5
6
330
0
100
AcDbSymbolTable
 70
     0
  0
ENDTAB
  0
TABLE
  2
UCS
  5
7
330
0
100
AcDbSymbolTable
 70
     0
  0
ENDTAB
  0
TABLE
  2
APPID
  5
9
330
0
100
AcDbSymbolTable
 70
     1
  0
APPID
  5
12
330
9
100
AcDbSymbolTableRecord
100
AcDbRegAppTableRecord
  2
ACAD
 70
     0
  0
ENDTAB
  0
TABLE
  2
DIMSTYLE
  5
A
330
0
100
AcDbSymbolTable
 70
     1
100
AcDbDimStyleTable
 71
     0
  0
DIMSTYLE
105
27
330
A
100
AcDbSymbolTableRecord
100
AcDbDimStyleTableRecord
  2
ISO-25
 70
     0
 41
2.5
 42
0.625
 43
3.75
 44
1.25
 73
     0
 74
     0
 77
     1
 78
     8
140
2.5
141
2.5
143
0.03937007874016
147
0.625
171
     3
172
     1
271
     2
272
     2
274
     3
278
    44
283
     0
284
     8
340
11
  0
ENDTAB
  0
TABLE
  2
BLOCK_RECORD
  5
1
330
0
100
AcDbSymbolTable
 70
     3
  0
BLOCK_RECORD
  5
1F
102
{ACAD_XDICTIONARY
360
3FA1
102
}
330
1
100
AcDbSymbolTableRecord
100
AcDbBlockTableRecord
  2
*Model_Space
340
22
  0
BLOCK_RECORD
  5
1B
102
{ACAD_XDICTIONARY
360
3FA3
102
}
330
1
100
AcDbSymbolTableRecord
100
AcDbBlockTableRecord
  2
*Paper_Space
340
1E
  0
BLOCK_RECORD
  5
23
102
{ACAD_XDICTIONARY
360
3FA5
102
}
330
1
100
AcDbSymbolTableRecord
100
AcDbBlockTableRecord
  2
*Paper_Space0
340
26
  0
BLOCK_RECORD
  5
2B
330
1
100
AcDbSymbolTableRecord
100
AcDbBlockTableRecord
  2
E_PUNKT
340
0
102
{BLKREFS
331
3DE6
331
3EB1
331
3EB5
331
3EC5
331
3EEC
331
3EFB
331
3F48
331
3F4C
331
4016
102
}
  0
BLOCK_RECORD
  5
3FEC
330
1
100
AcDbSymbolTableRecord
100
AcDbBlockTableRecord
  2
_ArchTick
340
0
102
{BLKREFS
331
4021
331
4022
102
}
  0
ENDTAB
  0
ENDSEC
  0
SECTION
  2
BLOCKS
  0
BLOCK
  5
20
330
1F
100
AcDbEntity
  8
0
100
AcDbBlockBegin
  2
*Model_Space
 70
     0
 10
0.0
 20
0.0
 30
0.0
  3
*Model_Space
  1

  0
ENDBLK
  5
21
330
1F
100
AcDbEntity
  8
0
100
AcDbBlockEnd
  0
BLOCK
  5
1C
330
1B
100
AcDbEntity
 67
     1
  8
0
100
AcDbBlockBegin
  2
*Paper_Space
 70
     0
 10
0.0
 20
0.0
 30
0.0
  3
*Paper_Space
  1

  0
ENDBLK
  5
1D
330
1B
100
AcDbEntity
 67
     1
  8
0
100
AcDbBlockEnd
  0
BLOCK
  5
24
330
23
100
AcDbEntity
  8
0
100
AcDbBlockBegin
  2
*Paper_Space0
 70
     0
 10
0.0
 20
0.0
 30
0.0
  3
*Paper_Space0
  1

  0
ENDBLK
  5
25
330
23
100
AcDbEntity
  8
0
100
AcDbBlockEnd
  0
BLOCK
  5
2D
330
2B
100
AcDbEntity
  8
0
100
AcDbBlockBegin
  2
E_PUNKT
 70
     0
 10
0.0
 20
0.0
 30
0.0
  3
E_PUNKT
  1

  0
LWPOLYLINE
  5
2C
330
2B
100
AcDbEntity
  8
POPIS
100
AcDbPolyline
 90
        2
 70
     1
 43
2.5
 10
1.27761037562675
 20
0.0290683308725193
 42
-1.0
 10
-1.222389624373249
 20
0.0290683308725193
 42
-1.0
  0
ENDBLK
  5
2E
330
2B
100
AcDbEntity
  8
0
100
AcDbBlockEnd
  0
BLOCK
  5
3FEE
330
3FEC
100
AcDbEntity
  8
0
100
AcDbBlockBegin
  2
_ArchTick
 70
     0
 10
0.0
 20
0.0
 30
0.0
  3
_ArchTick
  1

  0
LWPOLYLINE
  5
3FED
330
3FEC
100
AcDbEntity
  8
0
  6
ByBlock
 62
     0
100
AcDbPolyline
 90
        2
 70
     0
 43
0.15
 10
-0.5
 20
-0.5
 10
0.5
 20
0.5
  0
ENDBLK
  5
3FEF
330
3FEC
100
AcDbEntity
  8
0
100
AcDbBlockEnd
  0
ENDSEC
  0
SECTION
  2
ENTITIES
  0
HATCH
  5
3D85
330
1F
100
AcDbEntity
  8
PROFILY
100
AcDbHatch
 10
0.0
 20
0.0
 30
0.0
210
0.0
220
0.0
230
1.0
  2
SOLID
 70
     1
 71
     1
 91
        2
 92
        7
 72
     0
 73
     1
 93
        4
 10
-1858.634711087976
 20
-671.699445655854
 10
-1860.634711087972
 20
-671.699445655854
 10
-1860.634711087972
 20
-678.9519215794107
 10
-1858.634711087976
 20
-678.9519215794107
 97
        4
330
3D8A
330
3D89
330
3D99
330
3D8B
 92
        7
 72
     0
 73
     1
 93
        4
 10
-1835.21645311595
 20
-694.2105593027622
 10
-1843.364469541136
 20
-694.2105593027622
 10
-1843.364469541138
 20
-696.2105593027618
 10
-1835.216453115952
 20
-696.2105593027613
 97
        4
330
3D87
330
3D97
330
3D88
330
3D86
 75
     0
 76
     1
 47
0.0821320457837406
 98
        2
 10
-1859.623069595602
 20
-674.9374726818505
 10
-1840.229276985306
 20
-695.5526187888617
  0
LINE
  5
3D86
102
{ACAD_REACTORS
330
3D85
102
}
330
1F
100
AcDbEntity
  8
PROFILY
100
AcDbLine
 10
-1835.21645311595
 20
-694.2105593027617
 30
0.0
 11
-1835.216453115952
 21
-696.2105593027613
 31
0.0
  0
LINE
  5
3D87
102
{ACAD_REACTORS
330
3D85
102
}
330
1F
100
AcDbEntity
  8
PROFILY
100
AcDbLine
 10
-1845.709742919658
 20
-694.2105593027617
 30
0.0
 11
-1835.21645311595
 21
-694.2105593027617
 31
0.0
  0
LINE
  5
3D88
102
{ACAD_REACTORS
330
3D85
102
}
330
1F
100
AcDbEntity
  8
PROFILY
100
AcDbLine
 10
-1843.364469541138
 20
-696.2105593027618
 30
0.0
 11
-1835.216453115952
 21
-696.2105593027613
 31
0.0
  0
LINE
  5
3D89
102
{ACAD_REACTORS
330
3D85
102
}
330
1F
100
AcDbEntity
  8
PROFILY
100
AcDbLine
 10
-1860.634711087972
 20
-678.9519215794107
 30
0.0
 11
-1860.634711087972
 21
-671.699445655854
 31
0.0
  0
LINE
  5
3D8A
102
{ACAD_REACTORS
330
3D85
102
}
330
1F
100
AcDbEntity
  8
PROFILY
100
AcDbLine
 10
-1858.634711087976
 20
-671.699445655854
 30
0.0
 11
-1860.634711087972
 21
-671.699445655854
 31
0.0
  0
LINE
  5
3D8B
102
{ACAD_REACTORS
330
3D85
102
}
330
1F
100
AcDbEntity
  8
PROFILY
100
AcDbLine
 10
-1858.634711087976
 20
-681.2855911344495
 30
0.0
 11
-1858.634711087976
 21
-671.699445655854
 31
0.0
  0
LINE
  5
3D8C
330
1F
100
AcDbEntity
  8
PROFILY
100
AcDbLine
 10
-1843.364469541138
 20
-629.5476597603492
 30
0.0
 11
-1845.709742919658
 21
-629.5476597603492
 31
0.0
  0
LINE
  5
3D8D
330
1F
100
AcDbEntity
  8
PROFILY
100
AcDbLine
 10
-1793.971811545556
 20
-678.9519215794107
 30
0.0
 11
-1793.971811545556
 21
-681.2855911344495
 31
0.0
  0
LINE
  5
3D8E
330
1F
100
AcDbEntity
  8
PROFILY
100
AcDbLine
 10
-1843.364469541136
 20
-675.6712520122282
 30
0.0
 11
-1843.364469541136
 21
-629.5476597603492
 31
0.0
  0
LINE
  5
3D8F
330
1F
100
AcDbEntity
  8
PROFILY
100
AcDbLine
 10
-1845.709742919656
 20
-629.5476597603492
 30
0.0
 11
-1845.709742919658
 21
-674.9561429316799
 31
0.0
  0
LINE
  5
3D90
330
1F
100
AcDbEntity
  8
PROFILY
100
AcDbLine
 10
-1858.634711087974
 20
-694.2105593027617
 30
0.0
 11
-1845.709742919658
 21
-694.2105593027617
 31
0.0
  0
LINE
  5
3D91
330
1F
100
AcDbEntity
  8
PROFILY
100
AcDbLine
 10
-1858.634711087976
 20
-681.2855911344495
 30
0.0
 11
-1858.634711087974
 21
-694.2105593027617
 31
0.0
  0
LINE
  5
3D92
330
1F
100
AcDbEntity
  8
PROFILY
100
AcDbLine
 10
-1860.634711087974
 20
-696.2105593027618
 30
0.0
 11
-1843.364469541138
 21
-696.2105593027618
 31
0.0
  0
LINE
  5
3D93
330
1F
100
AcDbEntity
  8
PROFILY
100
AcDbLine
 10
-1860.634711087972
 20
-678.9519215794107
 30
0.0
 11
-1860.634711087974
 21
-696.2105593027618
 31
0.0
  0
LINE
  5
3D94
330
1F
100
AcDbEntity
  8
PROFILY
100
AcDbLine
 10
-1793.971811545558
 20
-681.2855911344495
 30
0.0
 11
-1839.380294716899
 21
-681.2855911344495
 31
0.0
  0
LINE
  5
3D95
330
1F
100
AcDbEntity
  8
PROFILY
100
AcDbLine
 10
-1840.104129993529
 20
-678.9519215794107
 30
0.0
 11
-1793.971811545556
 21
-678.9519215794116
 31
0.0
  0
LINE
  5
3D96
330
1F
100
AcDbEntity
  8
PROFILY
100
AcDbLine
 10
-1839.380294716899
 20
-681.2855911344495
 30
0.0
 11
-1858.634711087976
 21
-681.2855911344495
 31
0.0
  0
LINE
  5
3D97
102
{ACAD_REACTORS
330
3D85
102
}
330
1F
100
AcDbEntity
  8
PROFILY
100
AcDbLine
 10
-1843.364469541136
 20
-675.6712520122282
 30
0.0
 11
-1843.364469541138
 21
-696.2105593027618
 31
0.0
  0
LINE
  5
3D98
330
1F
100
AcDbEntity
  8
PROFILY
100
AcDbLine
 10
-1845.709742919658
 20
-674.9561429316799
 30
0.0
 11
-1845.709742919658
 21
-694.2105593027617
 31
0.0
  0
LINE
  5
3D99
102
{ACAD_REACTORS
330
3D85
102
}
330
1F
100
AcDbEntity
  8
PROFILY
100
AcDbLine
 10
-1840.104129993529
 20
-678.9519215794107
 30
0.0
 11
-1860.634711087972
 21
-678.9519215794107
 31
0.0
  0
HATCH
  5
3D9A
330
1F
100
AcDbEntity
  8
PROFILY
100
AcDbHatch
 10
0.0
 20
0.0
 30
0.0
210
0.0
220
0.0
230
1.0
  2
SOLID
 70
     1
 71
     0
 91
        4
 92
        7
 72
     0
 73
     1
 93
        6
 10
-1843.364469541136
 20
-629.5476597603492
 10
-1845.709742919658
 20
-629.5476597603492
 10
-1845.709742919658
 20
-674.9561429316799
 10
-1845.70974291966
 20
-678.9519215794107
 10
-1843.364469541138
 20
-678.9519215794107
 10
-1843.364469541136
 20
-675.6712520122282
 97
        0
 92
        7
 72
     0
 73
     1
 93
        4
 10
-1843.364469541136
 20
-678.9519215794107
 10
-1845.709742919658
 20
-678.9519215794102
 10
-1845.709742919658
 20
-681.2855911344495
 10
-1843.364469541136
 20
-681.2855911344495
 97
        0
 92
        7
 72
     0
 73
     1
 93
       10
 10
-1843.364469541138
 20
-681.2855911344491
 10
-1845.70974291966
 20
-681.2855911344491
 10
-1845.709742919658
 20
-694.2105593027617
 10
-1858.634711087974
 20
-694.2105593027617
 10
-1858.634711087976
 20
-681.2855911344495
 10
-1845.709742919658
 20
-681.2855911344495
 10
-1845.709742919658
 20
-678.9519215794107
 10
-1860.634711087972
 20
-678.9519215794102
 10
-1860.634711087974
 20
-696.2105593027622
 10
-1843.364469541138
 20
-696.2105593027622
 97
        0
 92
        7
 72
     0
 73
     1
 93
        6
 10
-1793.971811545556
 20
-678.9519215794121
 10
-1840.104129993529
 20
-678.9519215794107
 10
-1843.364469541136
 20
-678.9519215794107
 10
-1843.364469541136
 20
-681.2855911344495
 10
-1839.380294716899
 20
-681.2855911344495
 10
-1793.971811545558
 20
-681.2855911344495
 97
        0
 75
     0
 76
     1
 47
0.1559045317109681
 98
        4
 10
-1844.430644346137
 20
-661.1576057900975
 10
-1844.430644346137
 20
-680.8015697403907
 10
-1843.806695477787
 20
-683.2960695749579
 10
-1841.466827410431
 20
-680.0220755832424
  0
HATCH
  5
3D9B
330
1F
100
AcDbEntity
  8
PROFILY
100
AcDbHatch
 10
0.0
 20
0.0
 30
0.0
210
0.0
220
0.0
230
1.0
  2
SOLID
 70
     1
 71
     0
 91
        4
 92
        7
 72
     0
 73
     1
 93
        6
 10
-1950.395445449432
 20
-629.5476597603492
 10
-1952.740718827953
 20
-629.5476597603492
 10
-1952.740718827953
 20
-674.9561429316799
 10
-1952.740718827955
 20
-678.9519215794107
 10
-1950.395445449434
 20
-678.9519215794107
 10
-1950.395445449432
 20
-675.6712520122282
 97
        0
 92
        7
 72
     0
 73
     1
 93
        4
 10
-1950.395445449432
 20
-678.9519215794107
 10
-1952.740718827953
 20
-678.9519215794102
 10
-1952.740718827953
 20
-681.2855911344495
 10
-1950.395445449432
 20
-681.2855911344495
 97
        0
 92
        7
 72
     0
 73
     1
 93
       10
 10
-1950.395445449434
 20
-681.2855911344491
 10
-1952.740718827955
 20
-681.2855911344491
 10
-1952.740718827953
 20
-694.2105593027617
 10
-1965.66568699627
 20
-694.2105593027617
 10
-1965.665686996271
 20
-681.2855911344495
 10
-1952.740718827953
 20
-681.2855911344495
 10
-1952.740718827953
 20
-678.9519215794107
 10
-1967.665686996268
 20
-678.9519215794102
 10
-1967.665686996269
 20
-696.2105593027622
 10
-1950.395445449434
 20
-696.2105593027622
 97
        0
 92
        7
 72
     0
 73
     1
 93
        6
 10
-1901.002787453851
 20
-678.9519215794121
 10
-1947.135105901825
 20
-678.9519215794107
 10
-1950.395445449432
 20
-678.9519215794107
 10
-1950.395445449432
 20
-681.2855911344495
 10
-1946.411270625194
 20
-681.2855911344495
 10
-1901.002787453853
 20
-681.2855911344495
 97
        0
 75
     0
 76
     1
 47
0.1559045317109681
 98
        4
 10
-1951.461620254433
 20
-661.1576057900975
 10
-1951.461620254433
 20
-680.8015697403907
 10
-1950.837671386083
 20
-683.2960695749579
 10
-1948.497803318727
 20
-680.0220755832424
  0
LINE
  5
3D9C
330
1F
100
AcDbEntity
  8
PROFILY
100
AcDbLine
 10
-1947.135105901825
 20
-678.9519215794107
 30
0.0
 11
-1967.665686996268
 21
-678.9519215794107
 31
0.0
  0
LINE
  5
3D9D
330
1F
100
AcDbEntity
  8
PROFILY
100
AcDbLine
 10
-1952.740718827953
 20
-674.9561429316799
 30
0.0
 11
-1952.740718827953
 21
-694.2105593027617
 31
0.0
  0
LINE
  5
3D9E
330
1F
100
AcDbEntity
  8
PROFILY
100
AcDbLine
 10
-1950.395445449432
 20
-675.6712520122282
 30
0.0
 11
-1950.395445449434
 21
-696.2105593027618
 31
0.0
  0
LINE
  5
3D9F
330
1F
100
AcDbEntity
  8
PROFILY
100
AcDbLine
 10
-1946.411270625194
 20
-681.2855911344495
 30
0.0
 11
-1965.665686996271
 21
-681.2855911344495
 31
0.0
  0
LINE
  5
3DA0
330
1F
100
AcDbEntity
  8
PROFILY
100
AcDbLine
 10
-1947.135105901825
 20
-678.9519215794107
 30
0.0
 11
-1901.002787453851
 21
-678.9519215794116
 31
0.0
  0
LINE
  5
3DA1
330
1F
100
AcDbEntity
  8
PROFILY
100
AcDbLine
 10
-1901.002787453853
 20
-681.2855911344495
 30
0.0
 11
-1946.411270625194
 21
-681.2855911344495
 31
0.0
  0
LINE
  5
3DA2
330
1F
100
AcDbEntity
  8
PROFILY
100
AcDbLine
 10
-1967.665686996268
 20
-678.9519215794107
 30
0.0
 11
-1967.665686996269
 21
-696.2105593027618
 31
0.0
  0
LINE
  5
3DA3
330
1F
100
AcDbEntity
  8
PROFILY
100
AcDbLine
 10
-1967.665686996269
 20
-696.2105593027618
 30
0.0
 11
-1950.395445449434
 21
-696.2105593027618
 31
0.0
  0
LINE
  5
3DA4
330
1F
100
AcDbEntity
  8
PROFILY
100
AcDbLine
 10
-1965.665686996271
 20
-681.2855911344495
 30
0.0
 11
-1965.66568699627
 21
-694.2105593027617
 31
0.0
  0
LINE
  5
3DA5
330
1F
100
AcDbEntity
  8
PROFILY
100
AcDbLine
 10
-1965.66568699627
 20
-694.2105593027617
 30
0.0
 11
-1952.740718827953
 21
-694.2105593027617
 31
0.0
  0
LINE
  5
3DA6
330
1F
100
AcDbEntity
  8
PROFILY
100
AcDbLine
 10
-1952.740718827952
 20
-629.5476597603492
 30
0.0
 11
-1952.740718827953
 21
-674.9561429316799
 31
0.0
  0
LINE
  5
3DA7
330
1F
100
AcDbEntity
  8
PROFILY
100
AcDbLine
 10
-1950.395445449432
 20
-675.6712520122282
 30
0.0
 11
-1950.395445449432
 21
-629.5476597603492
 31
0.0
  0
LINE
  5
3DA8
330
1F
100
AcDbEntity
  8
PROFILY
100
AcDbLine
 10
-1901.002787453851
 20
-678.9519215794107
 30
0.0
 11
-1901.002787453851
 21
-681.2855911344495
 31
0.0
  0
LINE
  5
3DA9
330
1F
100
AcDbEntity
  8
PROFILY
100
AcDbLine
 10
-1950.395445449434
 20
-629.5476597603492
 30
0.0
 11
-1952.740718827953
 21
-629.5476597603492
 31
0.0
  0
HATCH
  5
3DAA
330
1F
100
AcDbEntity
  8
PROFILY
100
AcDbHatch
 10
0.0
 20
0.0
 30
0.0
210
0.0
220
0.0
230
1.0
  2
SOLID
 70
     1
 71
     0
 91
        1
 92
        7
 72
     0
 73
     1
 93
        6
 10
-2198.813828204814
 20
-629.5476597603482
 10
-2201.159101583334
 20
-629.5476597603482
 10
-2201.159101583334
 20
-681.2855911344495
 10
-2149.42117020923
 20
-681.2855911344495
 10
-2149.42117020923
 20
-678.9519215794098
 10
-2198.813828204813
 20
-678.9519215794102
 97
        0
 75
     0
 76
     1
 47
0.2354572531917518
 98
        1
 10
-2200.266435069401
 20
-669.321921802476
  0
TEXT
  5
3DAB
330
1F
100
AcDbEntity
  8
POPIS
100
AcDbText
 10
-2262.408382182946
 20
-561.1423765840672
 30
0.0
 40
25.0
  1
Rohový profil - klempířský výrobek
 41
0.7
  7
SIMPLEX7
100
AcDbText
  0
TEXT
  5
3DAC
330
1F
100
AcDbEntity
  8
POPIS
100
AcDbText
 10
-2113.748736391926
 20
-597.4718270881867
 30
0.0
 40
25.0
  1
- profil PROTECTOR 3528 (9080,3623,3504)
 41
0.7
  7
SIMPLEX7
100
AcDbText
  0
LINE
  5
3DAD
330
1F
100
AcDbEntity
  8
PROFILY
100
AcDbLine
 10
-2062.302158301627
 20
-629.5476597603492
 30
0.0
 11
-2064.647431680147
 21
-629.5476597603492
 31
0.0
  0
LINE
  5
3DAE
330
1F
100
AcDbEntity
  8
PROFILY
100
AcDbLine
 10
-2012.909500306045
 20
-678.9519215794107
 30
0.0
 11
-2012.909500306045
 21
-681.2855911344495
 31
0.0
  0
LINE
  5
3DAF
330
1F
100
AcDbEntity
  8
PROFILY
100
AcDbLine
 10
-2198.813828204813
 20
-629.5476597603482
 30
0.0
 11
-2201.159101583332
 21
-629.5476597603482
 31
0.0
  0
LINE
  5
3DB0
330
1F
100
AcDbEntity
  8
PROFILY
100
AcDbLine
 10
-2149.42117020923
 20
-678.9519215794098
 30
0.0
 11
-2149.42117020923
 21
-681.2855911344495
 31
0.0
  0
LINE
  5
3DB1
330
1F
100
AcDbEntity
  8
PROFILY
100
AcDbLine
 10
-2198.813828204813
 20
-678.9519215794098
 30
0.0
 11
-2149.42117020923
 21
-678.9519215794098
 31
0.0
  0
LINE
  5
3DB2
330
1F
100
AcDbEntity
  8
PROFILY
100
AcDbLine
 10
-2149.42117020923
 20
-681.2855911344495
 30
0.0
 11
-2201.159101583334
 21
-681.2855911344485
 31
0.0
  0
LINE
  5
3DB3
330
1F
100
AcDbEntity
  8
PROFILY
100
AcDbLine
 10
-2201.159101583334
 20
-629.5476597603482
 30
0.0
 11
-2201.159101583334
 21
-681.2855911344485
 31
0.0
  0
LINE
  5
3DB4
330
1F
100
AcDbEntity
  8
PROFILY
100
AcDbLine
 10
-2198.813828204813
 20
-678.9519215794098
 30
0.0
 11
-2198.813828204814
 21
-629.5476597603482
 31
0.0
  0
HATCH
  5
3DB5
330
1F
100
AcDbEntity
  8
PROFILY
100
AcDbHatch
 10
0.0
 20
0.0
 30
0.0
210
0.0
220
0.0
230
1.0
  2
SOLID
 70
     1
 71
     0
 91
        1
 92
        7
 72
     0
 73
     1
 93
       18
 10
-2059.041818754018
 20
-678.9519215794102
 10
-2061.886557582098
 20
-682.7347665789439
 10
-2061.886557582098
 20
-694.2105593027617
 10
-2077.572399848463
 20
-694.2105593027617
 10
-2077.572399848466
 20
-678.5247170363991
 10
-2066.096607124649
 20
-678.5247170363995
 10
-2062.302158301625
 20
-675.6712520122282
 10
-2062.302158301625
 20
-629.5476597603492
 10
-2064.647431680145
 20
-629.5476597603492
 10
-2064.647431680147
 20
-674.9561429316809
 10
-2066.733272619168
 20
-676.5247170363991
 10
-2079.572399848462
 20
-676.5247170363991
 10
-2079.572399848462
 20
-696.2105593027618
 10
-2059.886557582096
 20
-696.2105593027613
 10
-2059.886557582098
 20
-683.371432073457
 10
-2058.317983477387
 20
-681.2855911344495
 10
-2012.909500306046
 20
-681.2855911344495
 10
-2012.909500306045
 20
-678.9519215794111
 97
        0
 75
     0
 76
     1
 47
0.1846483013704088
 98
        1
 10
-2053.646467825767
 20
-679.8578017421614
  0
LINE
  5
3DB6
330
1F
100
AcDbEntity
  8
PROFILY
100
AcDbLine
 10
-2062.302158301625
 20
-675.6712520122282
 30
0.0
 11
-2062.302158301625
 21
-629.5476597603492
 31
0.0
  0
LINE
  5
3DB7
330
1F
100
AcDbEntity
  8
PROFILY
100
AcDbLine
 10
-2064.647431680145
 20
-629.5476597603492
 30
0.0
 11
-2064.647431680147
 21
-674.9561429316799
 31
0.0
  0
LINE
  5
3DB8
330
1F
100
AcDbEntity
  8
PROFILY
100
AcDbLine
 10
-2059.886557582098
 20
-683.3714320734588
 30
0.0
 11
-2058.317983477387
 21
-681.2855911344495
 31
0.0
  0
LINE
  5
3DB9
330
1F
100
AcDbEntity
  8
PROFILY
100
AcDbLine
 10
-2061.886557582096
 20
-682.734766578943
 30
0.0
 11
-2059.041818754018
 21
-678.9519215794107
 31
0.0
  0
LINE
  5
3DBA
330
1F
100
AcDbEntity
  8
PROFILY
100
AcDbLine
 10
-2066.096607124651
 20
-678.5247170363991
 30
0.0
 11
-2062.302158301625
 21
-675.6712520122282
 31
0.0
  0
LINE
  5
3DBB
330
1F
100
AcDbEntity
  8
PROFILY
100
AcDbLine
 10
-2066.733272619165
 20
-676.5247170363991
 30
0.0
 11
-2064.647431680147
 21
-674.9561429316799
 31
0.0
  0
LINE
  5
3DBC
330
1F
100
AcDbEntity
  8
PROFILY
100
AcDbLine
 10
-2061.886557582098
 20
-694.2105593027617
 30
0.0
 11
-2061.886557582096
 21
-682.734766578943
 31
0.0
  0
LINE
  5
3DBD
330
1F
100
AcDbEntity
  8
PROFILY
100
AcDbLine
 10
-2077.572399848463
 20
-694.2105593027617
 30
0.0
 11
-2061.886557582098
 21
-694.2105593027617
 31
0.0
  0
LINE
  5
3DBE
330
1F
100
AcDbEntity
  8
PROFILY
100
AcDbLine
 10
-2077.572399848463
 20
-678.5247170363991
 30
0.0
 11
-2077.572399848463
 21
-694.2105593027617
 31
0.0
  0
LINE
  5
3DBF
330
1F
100
AcDbEntity
  8
PROFILY
100
AcDbLine
 10
-2066.096607124651
 20
-678.5247170363991
 30
0.0
 11
-2077.572399848463
 21
-678.5247170363991
 31
0.0
  0
LINE
  5
3DC0
330
1F
100
AcDbEntity
  8
PROFILY
100
AcDbLine
 10
-2059.886557582098
 20
-696.2105593027618
 30
0.0
 11
-2059.886557582098
 21
-683.3714320734588
 31
0.0
  0
LINE
  5
3DC1
330
1F
100
AcDbEntity
  8
PROFILY
100
AcDbLine
 10
-2079.572399848462
 20
-696.2105593027618
 30
0.0
 11
-2059.886557582098
 21
-696.2105593027618
 31
0.0
  0
LINE
  5
3DC2
330
1F
100
AcDbEntity
  8
PROFILY
100
AcDbLine
 10
-2079.572399848462
 20
-676.5247170363991
 30
0.0
 11
-2079.572399848462
 21
-696.2105593027618
 31
0.0
  0
LINE
  5
3DC3
330
1F
100
AcDbEntity
  8
PROFILY
100
AcDbLine
 10
-2066.733272619165
 20
-676.5247170363991
 30
0.0
 11
-2079.572399848462
 21
-676.5247170363991
 31
0.0
  0
LINE
  5
3DC4
330
1F
100
AcDbEntity
  8
PROFILY
100
AcDbLine
 10
-2012.909500306046
 20
-681.2855911344495
 30
0.0
 11
-2058.317983477387
 21
-681.2855911344495
 31
0.0
  0
LINE
  5
3DC5
330
1F
100
AcDbEntity
  8
PROFILY
100
AcDbLine
 10
-2059.041818754018
 20
-678.9519215794107
 30
0.0
 11
-2012.909500306045
 21
-678.9519215794116
 31
0.0
  0
HATCH
  5
3DC6
330
1F
100
AcDbEntity
  8
STAVBA OBRYS
100
AcDbHatch
 10
0.0
 20
0.0
 30
0.0
210
0.0
220
0.0
230
1.0
  2
AR-SAND
 70
     0
 71
     0
 91
        1
 92
        7
 72
     0
 73
     1
 93
        6
 10
-1754.035790194866
 20
441.9872419266603
 10
-1764.03579019487
 20
441.9872419266603
 10
-1764.03579019487
 20
261.7748107869874
 10
-1557.089948388911
 20
261.7748107869874
 10
-1557.08994838891
 20
271.7748107869874
 10
-1754.035790194866
 20
271.7748107869876
 97
        0
 75
     0
 76
     1
 52
0.0
 41
0.1
 77
     0
 78
     4
 53
37.5
 43
-13405.38987191803
 44
1436.486054192238
 45
-0.1600031295984046
 46
4.894132373293423
 79
     6
 49
0.0
 49
-3.8608
 49
0.0
 49
-4.318
 49
0.0
 49
-4.1275
 53
7.499999999999999
 43
-13405.38987191803
 44
1436.486054192238
 45
4.495232831380026
 46
7.168251005683543
 79
     6
 49
0.0
 49
-2.0828
 49
0.0
 49
-3.4798
 49
0.0
 49
-1.3335
 53
327.4999999999999
 43
-13408.51407191803
 44
1436.486054192238
 45
7.909923702414579
 46
0.0143718467854569
 79
     6
 49
0.0
 49
-1.27
 49
0.0
 49
-4.572
 49
0.0
 49
-5.969
 53
317.5
 43
-13408.51407191803
 44
1436.486054192238
 45
7.635564524722972
 46
2.229293232572162
 79
     6
 49
0.0
 49
-0.635
 49
0.0
 49
-2.997199999999999
 49
0.0
 49
-3.429
 47
0.8733352055991209
 98
        1
 10
-1757.57202147944
 20
296.8207953748997
  0
LINE
  5
3DC7
330
1F
100
AcDbEntity
  8
STAVBA OBRYS
100
AcDbLine
 10
-1754.035790194868
 20
271.7748107869876
 30
0.0
 11
-1557.08994838891
 21
271.7748107869874
 31
0.0
  0
LINE
  5
3DC8
330
1F
100
AcDbEntity
  8
STAVBA OBRYS
100
AcDbLine
 10
-1754.035790194868
 20
441.9872419266603
 30
0.0
 11
-1754.035790194868
 21
271.7748107869876
 31
0.0
  0
TEXT
  5
3DC9
330
1F
100
AcDbEntity
  8
POPIS
100
AcDbText
 10
-2366.348484545991
 20
488.3470580278326
 30
0.0
 40
35.0
  1
PŮDORYS-ŘEŠENÍ S ROHOVÝM PROFILEM
 41
0.75
  7
SIMPLEX7
100
AcDbText
  0
TEXT
  5
3DCA
330
1F
100
AcDbEntity
  8
POPIS
100
AcDbText
 10
-2366.348484545991
 20
542.9718010536334
 30
0.0
 40
50.0
  1
VNĚJŠÍ ROH
 41
0.85
  7
SIMPLEX7
100
AcDbText
  0
HATCH
  5
3DCB
330
1F
100
AcDbEntity
  8
NOSNÉ KONSTRUKCE
100
AcDbHatch
 10
0.0
 20
0.0
 30
0.0
210
0.0
220
0.0
230
1.0
  2
SOLID
 70
     1
 71
     0
 91
       12
 92
        7
 72
     0
 73
     1
 93
        4
 10
-2000.628660769514
 20
120.5307846994896
 10
-2003.591541849699
 20
120.5307846994896
 10
-2003.5915418497
 20
101.6999210299522
 10
-2000.628660769514
 20
101.6999210299513
 97
        0
 92
        7
 72
     0
 73
     1
 93
        4
 10
-2000.628660769514
 20
148.0409638888686
 10
-2003.591541849699
 20
149.9252756953574
 10
-2003.591541849699
 20
133.6557846994896
 10
-2000.628660769512
 20
133.6557846994896
 97
        0
 92
        7
 72
     0
 73
     1
 93
        4
 10
-2000.628660769514
 20
133.6557846994896
 10
-2003.591541849699
 20
133.6557846994892
 10
-2003.591541849699
 20
127.0932846994892
 10
-2000.628660769514
 20
127.0932846994892
 97
        0
 92
        7
 72
     0
 73
     1
 93
        4
 10
-2000.628660769514
 20
127.0932846994896
 10
-2003.5915418497
 20
127.0932846994901
 10
-2003.591541849697
 20
120.5307846994892
 10
-2000.628660769514
 20
120.5307846994887
 97
        0
 92
        7
 72
     0
 73
     1
 93
        4
 10
-2000.628660769512
 20
152.4866483690234
 10
-2003.591541849699
 20
152.4866483690239
 10
-2003.591541849699
 20
149.9252756953578
 10
-2000.628660769512
 20
148.0409638888677
 97
        0
 92
        7
 72
     0
 73
     1
 93
        4
 10
-2117.392752840422
 20
101.6999210299595
 10
-2128.61448296836
 20
101.6999210299595
 10
-2128.61448296836
 20
100.2624906194851
 10
-2117.392752840423
 20
100.2624906194846
 97
        0
 92
        7
 72
     0
 73
     1
 93
        4
 10
-2117.39275284042
 20
97.98143352386524
 10
-2128.614482968358
 20
97.98143352386524
 10
-2128.61448296836
 20
96.54400311339031
 10
-2117.392752840423
 20
96.54400311339031
 97
        0
 92
        7
 72
     0
 73
     1
 93
        4
 10
-2084.300073701256
 20
97.98143352386478
 10
-2112.971910262134
 20
97.98143352386524
 10
-2112.971910262134
 20
96.54400311339031
 10
-2084.30007370126
 20
96.54400311339031
 97
        0
 92
        7
 72
     0
 73
     1
 93
        4
 10
-2084.300073701259
 20
101.6999210299577
 10
-2112.971910262134
 20
101.6999210299595
 10
-2112.971910262133
 20
100.2624906194842
 10
-2084.300073701262
 20
100.2624906194828
 97
        0
 92
        7
 72
     0
 73
     1
 93
        4
 10
-2042.484571928636
 20
101.6999210299545
 10
-2084.30007370126
 20
101.6999210299573
 10
-2084.30007370126
 20
100.2624906194823
 10
-2042.4824542687
 20
100.2624906194796
 97
        0
 92
        7
 72
     0
 73
     1
 93
        6
 10
-2068.587938168526
 20
100.2624906194819
 10
-2071.380296440429
 20
100.2624906194823
 10
-2075.38540480043
 20
97.98143352386524
 10
-2084.30007370126
 20
97.98143352386524
 10
-2084.300073701259
 20
96.54400311338987
 10
-2074.244482999052
 20
96.54400311339031
 97
        0
 92
        7
 72
     0
 73
     1
 93
        4
 10
-2000.628660769514
 20
101.6999210299518
 10
-2042.48457192864
 20
101.699921029955
 10
-2042.482454268698
 20
100.2624906194792
 10
-2000.628660769514
 20
100.2624906194764
 97
        0
 75
     0
 76
     1
 47
0.2019084522994349
 98
       12
 10
-2001.919474534201
 20
107.6885869338757
 10
-2001.290644489976
 20
136.9107890877667
 10
-2001.919474534201
 20
130.6264513544365
 10
-2002.233889556313
 20
122.7710115800464
 10
-2001.605059512088
 20
151.3647764390616
 10
-2122.155619400231
 20
101.2584748494691
 10
-2122.559693454042
 20
97.42220948329032
 10
-2109.225546464235
 20
97.22030170652852
 10
-2109.831642705654
 20
101.2584748494691
 10
-2078.516600982291
 20
100.6527515191874
 10
-2077.102386311844
 20
96.81648615300856
 10
-2038.312137825259
 20
100.6527515191874
  0
HATCH
  5
3DCC
330
1F
100
AcDbEntity
  8
NOSNÉ KONSTRUKCE
100
AcDbHatch
 10
0.0
 20
0.0
 30
0.0
210
0.0
220
0.0
230
1.0
  2
SOLID
 70
     1
 71
     0
 91
       11
 92
        7
 72
     0
 73
     1
 93
        4
 10
-1907.191160769516
 20
26.77481078698701
 10
-1929.828501471178
 20
26.77481078698747
 10
-1929.82850147118
 20
23.73769186717026
 10
-1907.191160769514
 20
23.73769186716799
 97
        0
 92
        7
 72
     0
 73
     1
 93
        4
 10
-1929.828501471178
 20
26.77481078698747
 10
-1931.265931881655
 20
26.77481078698747
 10
-1931.265931881653
 20
-14.96727926197763
 10
-1929.828501471174
 20
-14.96516160203737
 97
        0
 92
        7
 72
     0
 73
     1
 93
        4
 10
-1929.828501471174
 20
-14.96516160203782
 10
-1931.265931881651
 20
-14.96727926197718
 10
-1931.265931881645
 20
-56.55374046248653
 10
-1929.828501471172
 20
-56.55374046248607
 97
        0
 92
        7
 72
     0
 73
     1
 93
        4
 10
-1929.82850147117
 20
-56.55374046248699
 10
-1931.265931881648
 20
-56.55374046248699
 10
-1931.265931881643
 20
-85.60555762544799
 10
-1929.828501471167
 20
-85.60555762544755
 97
        0
 92
        7
 72
     0
 73
     1
 93
        4
 10
-1929.828501471167
 20
-90.02640020373702
 10
-1931.265931881643
 20
-90.02640020373656
 10
-1931.265931881642
 20
-101.2481303316731
 10
-1929.828501471169
 20
-101.2481303316721
 97
        0
 92
        7
 72
     0
 73
     1
 93
        4
 10
-1933.546988977263
 20
-90.02640020373702
 10
-1934.984419387736
 20
-90.02640020373746
 10
-1934.984419387736
 20
-101.2481303316731
 10
-1933.546988977263
 20
-101.2481303316721
 97
        0
 92
        7
 72
     0
 73
     1
 93
        4
 10
-1933.546988977263
 20
-56.55374046248699
 10
-1934.984419387736
 20
-56.55374046248699
 10
-1934.984419387736
 20
-85.60555762544799
 10
-1933.546988977263
 20
-85.60555762544799
 97
        0
 92
        7
 72
     0
 73
     1
 93
        6
 10
-1931.265931881649
 20
-44.01394380374404
 10
-1931.265931881651
 20
-41.22158553184317
 10
-1934.984419387738
 20
-46.87813036236502
 10
-1934.984419387738
 20
-56.55374046248653
 10
-1933.546988977261
 20
-56.55374046248653
 10
-1933.546988977265
 20
-48.01905216374734
 97
        0
 92
        7
 72
     0
 73
     1
 93
        4
 10
-1879.041774132103
 20
26.77481078698747
 10
-1894.066160769516
 20
26.77481078698793
 10
-1894.066160769516
 20
23.73769186716799
 10
-1879.041774132107
 20
23.73769186716754
 97
        0
 92
        7
 72
     0
 73
     1
 93
        4
 10
-1894.066160769516
 20
26.77481078698747
 10
-1900.628660769514
 20
26.77481078698701
 10
-1900.628660769514
 20
23.73769186716845
 10
-1894.066160769516
 20
23.73769186716754
 97
        0
 92
        7
 72
     0
 73
     1
 93
        4
 10
-1900.628660769516
 20
26.77481078698747
 10
-1907.191160769516
 20
26.77481078698701
 10
-1907.191160769516
 20
23.7376918671689
 10
-1900.628660769514
 20
23.73769186716799
 97
        0
 75
     0
 76
     1
 47
0.2740416214367683
 98
       11
 10
-1923.788706754448
 20
25.32982902060302
 10
-1930.09555631779
 20
23.6855844920019
 10
-1930.09555631779
 20
-24.27171193095
 10
-1930.369756845384
 20
-64.28177951173438
 10
-1930.369756845384
 20
-96.34465346579691
 10
-1934.482913152225
 20
-96.07062444951317
 10
-1934.208682946036
 20
-74.42132852279701
 10
-1933.660281890856
 20
-45.92099024994332
 10
-1886.770389028692
 20
25.87790466089336
 10
-1898.012996481649
 20
25.60387564460961
 10
-1904.319816366403
 20
24.23366013229588
  0
HATCH
  5
3DCD
330
1F
100
AcDbEntity
  8
NOSNÉ KONSTRUKCE
100
AcDbHatch
 10
0.0
 20
0.0
 30
0.0
210
0.0
220
0.0
230
1.0
  2
SOLID
 70
     1
 71
     0
 91
        9
 92
        7
 72
     0
 73
     1
 93
        4
 10
-2131.009008206016
 20
87.76495152752932
 10
-2133.762601176282
 20
87.76495152752886
 10
-2133.76260117628
 20
83.73729378407006
 10
-2131.009008206019
 20
83.73729378407052
 97
        0
 92
        7
 72
     1
 73
     1
 93
        6
 10
-2131.009008206019
 20
79.31645120578014
 42
0.0
 10
-2133.762601176282
 20
79.31645120578014
 42
0.0
 10
-2133.76260117628
 20
31.09567851733209
 42
0.0
 10
-2133.394755502871
 20
31.09567851733209
 42
-0.0219507802188373
 10
-2133.399569230414
 20
31.20527389535664
 42
-0.8086719427280632
 10
-2131.009008206017
 20
31.71676245791468
 42
0.0
 97
        0
 92
        7
 72
     1
 73
     1
 93
        5
 10
-2131.009008206017
 20
30.69378533279859
 42
-0.7729996609236557
 10
-2133.394755502871
 20
31.09567851733209
 42
0.0
 10
-2133.762601176282
 20
31.09567851733209
 42
0.0
 10
-2133.76260117628
 20
-19.5390005891395
 42
0.0
 10
-2131.009008206019
 20
-19.5390005891395
 42
0.0
 97
        0
 92
        7
 72
     0
 73
     1
 93
        4
 10
-2131.009008206017
 20
-19.5390005891395
 10
-2133.762601176282
 20
-19.53900058913905
 10
-2133.762601176282
 20
-75.15236547966878
 10
-2131.009008206017
 20
-75.15236547966878
 97
        0
 92
        7
 72
     0
 73
     1
 93
        4
 10
-2131.009008206017
 20
-80.83630593746921
 10
-2133.762601176282
 20
-80.83630593746921
 10
-2133.76260117628
 20
-104.001204010919
 10
-2131.009008206017
 20
-104.001204010919
 97
        0
 92
        7
 72
     0
 73
     1
 93
        4
 10
-2131.009008206016
 20
-104.001204010919
 10
-2133.762601176282
 20
-104.0012040109186
 10
-2133.76260117628
 20
-106.754796981183
 10
-2131.009008206017
 20
-106.754796981183
 97
        0
 92
        7
 72
     0
 73
     1
 93
        4
 10
-2108.16077311371
 20
-104.0012040109186
 10
-2131.009008206017
 20
-104.0012040109186
 10
-2131.009008206017
 20
-106.754796981183
 10
-2108.160773113711
 20
-106.754796981183
 97
        0
 92
        7
 72
     0
 73
     1
 93
        4
 10
-1950.899899070962
 20
-104.0012040109186
 10
-2102.476832655908
 20
-104.001204010919
 10
-2102.476832655906
 20
-106.754796981183
 10
-1950.89989907096
 20
-106.7547969811835
 97
        0
 92
        7
 72
     0
 73
     1
 93
        4
 10
-1937.449516870014
 20
-104.001204010919
 10
-1946.479056492671
 20
-104.0012040109186
 10
-1946.479056492671
 20
-106.754796981183
 10
-1937.449516870014
 20
-106.754796981183
 97
        0
 75
     0
 76
     1
 47
0.407716661894762
 98
        9
 10
-2132.397108529052
 20
86.32997693081325
 10
-2131.989146579462
 20
63.49784689583157
 10
-2131.989146579462
 20
2.748045612464011
 10
-2131.581184629865
 20
-52.29370115250367
 10
-2131.581184629865
 20
-97.55025436183224
 10
-2132.397108529052
 20
-104.889153930494
 10
-2126.277619928003
 20
-104.4814470698593
 10
-2074.465799400908
 20
-104.889153930494
 10
-1939.428702406518
 20
-105.7045852594865
  0
LINE
  5
3DCE
330
1F
100
AcDbEntity
  8
SPOJOVACÍ
  6
DASHED
100
AcDbLine
 10
-1923.082987526822
 20
133.6557846994887
 30
0.0
 11
-2004.182082470497
 21
133.6557846994896
 31
0.0
  0
LINE
  5
3DD0
330
1F
100
AcDbEntity
  8
SPOJOVACÍ
  6
DASHDOT2
100
AcDbLine
 10
-2019.355183938931
 20
127.0932846994896
 30
0.0
 11
-1904.435074195023
 21
127.0932846994887
 31
0.0
  0
LINE
  5
3DD1
330
1F
100
AcDbEntity
  8
SPOJOVACÍ
100
AcDbLine
 10
-1987.843899343928
 20
125.3512648053142
 30
0.0
 11
-1986.858554883649
 21
129.0286203940386
 31
0.0
  0
LINE
  5
3DD2
330
1F
100
AcDbEntity
  8
SPOJOVACÍ
100
AcDbLine
 10
-2000.683630072007
 20
126.4159042219535
 30
0.0
 11
-2000.274473778167
 21
127.9428962988131
 31
0.0
  0
LINE
  5
3DD3
330
1F
100
AcDbEntity
  8
SPOJOVACÍ
100
AcDbLine
 10
-1998.856920632302
 20
126.2356813974079
 30
0.0
 11
-1998.349257059208
 21
128.1303076453532
 31
0.0
  0
LINE
  5
3DD4
330
1F
100
AcDbEntity
  8
SPOJOVACÍ
100
AcDbLine
 10
-1997.027710052947
 20
126.064792953116
 30
0.0
 11
-1996.426954492466
 21
128.3068432277664
 31
0.0
  0
LINE
  5
3DD5
330
1F
100
AcDbEntity
  8
SPOJOVACÍ
100
AcDbLine
 10
-1995.195991691494
 20
125.9032636790279
 30
0.0
 11
-1994.507548537027
 21
128.4725685096232
 31
0.0
  0
LINE
  5
3DD6
330
1F
100
AcDbEntity
  8
SPOJOVACÍ
100
AcDbLine
 10
-1993.361758672115
 20
125.7511192360739
 30
0.0
 11
-1992.591022082835
 21
128.6275473465193
 31
0.0
  0
LINE
  5
3DD7
330
1F
100
AcDbEntity
  8
SPOJOVACÍ
100
AcDbLine
 10
-1989.68571997135
 20
125.4750919095395
 30
0.0
 11
-1988.766541332934
 21
128.9055132893409
 31
0.0
  0
LINE
  5
3DD8
330
1F
100
AcDbEntity
  8
SPOJOVACÍ
100
AcDbLine
 10
-1991.525003882621
 20
125.6083861673177
 30
0.0
 11
-1990.677358440747
 21
128.7718420231994
 31
0.0
  0
LINE
  5
3DD9
330
1F
100
AcDbEntity
  8
SPOJOVACÍ
100
AcDbLine
 10
-2006.994582470497
 20
141.1557846994896
 30
0.0
 11
-2006.994582470497
 21
127.0932846994896
 31
0.0
  0
LINE
  5
3DDA
330
1F
100
AcDbEntity
  8
SPOJOVACÍ
100
AcDbLine
 10
-2006.994582470497
 20
141.1557846994896
 30
0.0
 11
-2006.994582470497
 21
127.0932846994896
 31
0.0
  0
LINE
  5
3DDB
330
1F
100
AcDbEntity
  8
SPOJOVACÍ
100
AcDbLine
 10
-2009.852473965602
 20
127.0932846994896
 30
0.0
 11
-2009.852473965602
 21
141.1557846994896
 31
0.0
  0
LINE
  5
3DDC
330
1F
100
AcDbEntity
  8
SPOJOVACÍ
100
AcDbLine
 10
-2004.329570952459
 20
126.8042581431077
 30
0.0
 11
-2004.173604989517
 21
127.3863310410533
 31
0.0
  0
LINE
  5
3DDD
330
1F
100
AcDbEntity
  8
SPOJOVACÍ
100
AcDbLine
 10
-2002.507844784
 20
126.6054374970781
 30
0.0
 11
-2002.263314248142
 21
127.5180378809022
 31
0.0
  0
ARC
  5
3DDE
330
1F
100
AcDbEntity
  8
SPOJOVACÍ
100
AcDbCircle
 10
-2014.539973965602
 20
133.6557846994896
 30
0.0
 40
1.875
100
AcDbArc
 50
180.0
 51
270.0
  0
ARC
  5
3DDF
330
1F
100
AcDbEntity
  8
SPOJOVACÍ
100
AcDbCircle
 10
-2014.539973965602
 20
135.5307846994896
 30
0.0
 40
1.875
100
AcDbArc
 50
90.0
 51
180.0
  0
LINE
  5
3DE0
330
1F
100
AcDbEntity
  8
SPOJOVACÍ
100
AcDbLine
 10
-2009.852473965602
 20
137.4057846994896
 30
0.0
 11
-2014.539973965602
 21
137.4057846994896
 31
0.0
  0
LINE
  5
3DE1
330
1F
100
AcDbEntity
  8
SPOJOVACÍ
100
AcDbLine
 10
-2009.852473965602
 20
137.4057846994896
 30
0.0
 11
-2009.861848965602
 21
137.4057846994896
 31
0.0
  0
LINE
  5
3DE2
330
1F
100
AcDbEntity
  8
SPOJOVACÍ
100
AcDbLine
 10
-2006.994582470497
 20
141.1557846994896
 30
0.0
 11
-2009.852473965602
 21
141.1557846994896
 31
0.0
  0
LINE
  5
3DE3
330
1F
100
AcDbEntity
  8
SPOJOVACÍ
100
AcDbLine
 10
-2009.852473965602
 20
131.7807846994896
 30
0.0
 11
-2014.539973965602
 21
131.7807846994896
 31
0.0
  0
ARC
  5
3DE4
330
1F
100
AcDbEntity
  8
NOSNÉ KONSTRUKCE
100
AcDbCircle
 10
-2003.591541849697
 20
149.4866483690239
 30
0.0
 40
3.0
100
AcDbArc
 50
90.0
 51
180.0
  0
LINE
  5
3DE5
330
1F
100
AcDbEntity
  8
NOSNÉ KONSTRUKCE
100
AcDbLine
 10
-2003.591541849697
 20
152.4866483690239
 30
0.0
 11
-2000.591541849697
 21
152.4866483690229
 31
0.0
  0
INSERT
  5
3DE6
330
1F
100
AcDbEntity
  8
POPIS
100
AcDbBlockReference
  2
E_PUNKT
 10
-1971.722398194124
 20
129.6107390709125
 30
0.0
  0
LINE
  5
3DE7
330
1F
100
AcDbEntity
  8
SPOJOVACÍ
100
AcDbLine
 10
-1937.120783051321
 20
125.7174397943745
 30
0.0
 11
-1936.355130107275
 21
128.5748954825226
 31
0.0
  0
LINE
  5
3DE8
330
1F
100
AcDbEntity
  8
SPOJOVACÍ
100
AcDbLine
 10
-1935.203734226414
 20
125.8743681453306
 30
0.0
 11
-1934.530835111822
 21
128.3856618293589
 31
0.0
  0
LINE
  5
3DE9
330
1F
100
AcDbEntity
  8
SPOJOVACÍ
100
AcDbLine
 10
-1933.283802820468
 20
126.0420544351768
 30
0.0
 11
-1932.699573283922
 21
128.2224287488538
 31
0.0
  0
LINE
  5
3DEA
330
1F
100
AcDbEntity
  8
SPOJOVACÍ
100
AcDbLine
 10
-1931.36097164583
 20
126.2205628091142
 30
0.0
 11
-1930.870818012943
 21
128.0498410705577
 31
0.0
  0
LINE
  5
3DEB
330
1F
100
AcDbEntity
  8
SPOJOVACÍ
100
AcDbLine
 10
-1927.506539065953
 20
126.6103105031802
 30
0.0
 11
-1927.220800970479
 21
127.6766995931388
 31
0.0
  0
LINE
  5
3DEC
330
1F
100
AcDbEntity
  8
SPOJOVACÍ
100
AcDbLine
 10
-1925.574901079935
 20
126.8216863446277
 30
0.0
 11
-1925.399526685625
 21
127.4761924945437
 31
0.0
  0
LINE
  5
3DED
330
1F
100
AcDbEntity
  8
SPOJOVACÍ
100
AcDbLine
 10
-1923.6402901417
 20
127.0441573948119
 30
0.0
 11
-1923.580733925604
 21
127.266424219194
 31
0.0
  0
LINE
  5
3DEE
330
1F
100
AcDbEntity
  8
SPOJOVACÍ
100
AcDbLine
 10
-1929.43522308214
 20
126.4099590272094
 30
0.0
 11
-1929.044562698569
 21
127.8679234272012
 31
0.0
  0
LINE
  5
3DEF
330
1F
100
AcDbEntity
  8
SPOJOVACÍ
  6
DASHED
100
AcDbLine
 10
-1928.669126385266
 20
127.0932846994887
 30
0.0
 11
-1931.916721649457
 21
132.7182846994887
 31
0.0
  0
LINE
  5
3DF0
330
1F
100
AcDbEntity
  8
SPOJOVACÍ
100
AcDbLine
 10
-1959.906234294157
 20
124.6521212530274
 30
0.0
 11
-1958.568776440364
 21
129.643581916368
 31
0.0
  0
LINE
  5
3DF1
330
1F
100
AcDbEntity
  8
SPOJOVACÍ
100
AcDbLine
 10
-1961.787193514843
 20
124.6298811386545
 30
0.0
 11
-1960.435959445012
 21
129.6727553401806
 31
0.0
  0
LINE
  5
3DF2
330
1F
100
AcDbEntity
  8
SPOJOVACÍ
100
AcDbLine
 10
-1954.221462237699
 20
124.8751936046001
 30
0.0
 11
-1953.12402930396
 21
128.9708690712154
 31
0.0
  0
LINE
  5
3DF3
330
1F
100
AcDbEntity
  8
SPOJOVACÍ
100
AcDbLine
 10
-1952.364247799823
 20
124.8088169831135
 30
0.0
 11
-1951.126193399541
 21
129.429298907507
 31
0.0
  0
LINE
  5
3DF4
330
1F
100
AcDbEntity
  8
SPOJOVACÍ
100
AcDbLine
 10
-1944.760481699771
 20
125.1960773406126
 30
0.0
 11
-1943.724990085202
 21
129.060584656996
 31
0.0
  0
LINE
  5
3DF5
330
1F
100
AcDbEntity
  8
SPOJOVACÍ
100
AcDbLine
 10
-1946.66336097076
 20
125.092030484805
 30
0.0
 11
-1945.571443115261
 21
129.1671233992147
 31
0.0
  0
LINE
  5
3DF6
330
1F
100
AcDbEntity
  8
SPOJOVACÍ
100
AcDbLine
 10
-1948.563452236085
 20
124.9983886077866
 30
0.0
 11
-1947.427372459102
 21
129.2382960569348
 31
0.0
  0
LINE
  5
3DF7
330
1F
100
AcDbEntity
  8
SPOJOVACÍ
100
AcDbLine
 10
-1950.460769915573
 20
124.9150978940329
 30
0.0
 11
-1949.272036089243
 21
129.3515129305669
 31
0.0
  0
LINE
  5
3DF8
330
1F
100
AcDbEntity
  8
SPOJOVACÍ
100
AcDbLine
 10
-1942.775003882625
 20
125.6083861673177
 30
0.0
 11
-1941.881088211865
 21
128.9445248682741
 31
0.0
  0
LINE
  5
3DF9
330
1F
100
AcDbEntity
  8
SPOJOVACÍ
100
AcDbLine
 10
-1967.414023463332
 20
124.6230516779155
 30
0.0
 11
-1966.053364174138
 21
129.701101276978
 31
0.0
  0
LINE
  5
3DFA
330
1F
100
AcDbEntity
  8
SPOJOVACÍ
100
AcDbLine
 10
-1973.01701834004
 20
124.705175916069
 30
0.0
 11
-1971.694787818496
 21
129.6398074017852
 31
0.0
  0
LINE
  5
3DFB
330
1F
100
AcDbEntity
  8
SPOJOVACÍ
100
AcDbLine
 10
-1971.159322249748
 20
124.6405968458657
 30
0.0
 11
-1969.811625059723
 21
129.6702712322612
 31
0.0
  0
LINE
  5
3DFC
330
1F
100
AcDbEntity
  8
SPOJOVACÍ
100
AcDbLine
 10
-1969.284322249748
 20
124.6405968458657
 30
0.0
 11
-1967.931154503858
 21
129.6906876246966
 31
0.0
  0
LINE
  5
3DFD
330
1F
100
AcDbEntity
  8
SPOJOVACÍ
100
AcDbLine
 10
-1968.986758672115
 20
125.7511192360739
 30
0.0
 11
-1968.34836069801
 21
128.1336529108944
 31
0.0
  0
LINE
  5
3DFE
330
1F
100
AcDbEntity
  8
SPOJOVACÍ
100
AcDbLine
 10
-1970.820991691494
 20
125.9032636790279
 30
0.0
 11
-1970.254821860289
 21
128.016238254796
 31
0.0
  0
LINE
  5
3DFF
330
1F
100
AcDbEntity
  8
SPOJOVACÍ
100
AcDbLine
 10
-1972.652710052947
 20
126.064792953116
 30
0.0
 11
-1972.16204666226
 21
127.895973656577
 31
0.0
  0
LINE
  5
3E00
330
1F
100
AcDbEntity
  8
SPOJOVACÍ
100
AcDbLine
 10
-1984.152616329342
 20
125.1321300324834
 30
0.0
 11
-1983.051012414904
 21
129.2433718109828
 31
0.0
  0
LINE
  5
3E01
330
1F
100
AcDbEntity
  8
SPOJOVACÍ
100
AcDbLine
 10
-1985.999534159922
 20
125.2369341155417
 30
0.0
 11
-1984.953383610307
 21
129.1412211190722
 31
0.0
  0
LINE
  5
3E02
330
1F
100
AcDbEntity
  8
SPOJOVACÍ
100
AcDbLine
 10
-1976.739247799823
 20
124.8088169831135
 30
0.0
 11
-1975.469239456493
 21
129.5485526464622
 31
0.0
  0
LINE
  5
3E03
330
1F
100
AcDbEntity
  8
SPOJOVACÍ
100
AcDbLine
 10
-1982.303137509006
 20
125.0368836933039
 30
0.0
 11
-1981.151426575712
 21
129.3351274119981
 31
0.0
  0
LINE
  5
3E04
330
1F
100
AcDbEntity
  8
SPOJOVACÍ
100
AcDbLine
 10
-1980.451089098791
 20
124.9512271941193
 30
0.0
 11
-1979.254611739294
 21
129.416541489867
 31
0.0
  0
LINE
  5
3E05
330
1F
100
AcDbEntity
  8
SPOJOVACÍ
100
AcDbLine
 10
-1978.596462237699
 20
124.8751936046001
 30
0.0
 11
-1977.360553912793
 21
129.4876662666474
 31
0.0
  0
LINE
  5
3E06
330
1F
100
AcDbEntity
  8
SPOJOVACÍ
100
AcDbLine
 10
-1974.909322249748
 20
124.6405968458657
 30
0.0
 11
-1973.580655076633
 21
129.5992502422855
 31
0.0
  0
LINE
  5
3E07
330
1F
100
AcDbEntity
  8
SPOJOVACÍ
100
AcDbLine
 10
-1963.66547035497
 20
124.6176518048123
 30
0.0
 11
-1962.30577784874
 21
129.6920933207379
 31
0.0
  0
LINE
  5
3E08
330
1F
100
AcDbEntity
  8
SPOJOVACÍ
100
AcDbLine
 10
-1965.541076534218
 20
124.6153895130601
 30
0.0
 11
-1964.178242407493
 21
129.7015557162922
 31
0.0
  0
LINE
  5
3E09
330
1F
100
AcDbEntity
  8
SPOJOVACÍ
100
AcDbLine
 10
-1940.93571997135
 20
125.4750919095395
 30
0.0
 11
-1940.039729450901
 21
128.8189740549587
 31
0.0
  0
LINE
  5
3E0A
330
1F
100
AcDbEntity
  8
SPOJOVACÍ
100
AcDbLine
 10
-1956.076089098791
 20
124.9512271941193
 30
0.0
 11
-1954.842275058066
 21
129.5558838811885
 31
0.0
  0
LINE
  5
3E0B
330
1F
100
AcDbEntity
  8
SPOJOVACÍ
100
AcDbLine
 10
-1958.022580658469
 20
124.684417061087
 30
0.0
 11
-1956.70421837056
 21
129.6046121023496
 31
0.0
  0
LINE
  5
3E0C
330
1F
100
AcDbEntity
  8
SPOJOVACÍ
100
AcDbLine
 10
-1939.034966060156
 20
125.5712068146094
 30
0.0
 11
-1938.200906006881
 21
128.6839613100009
 31
0.0
  0
LINE
  5
3E0D
330
1F
100
AcDbEntity
  8
STAVBA OBRYS
  6
DASHED
100
AcDbLine
 10
-1914.767600002226
 20
231.0101104919963
 30
0.0
 11
-1918.556461143782
 21
237.5726104919963
 31
0.0
  0
LINE
  5
3E0E
330
1F
100
AcDbEntity
  8
STAVBA OBRYS
  6
DASHED
100
AcDbLine
 10
-1914.767600002226
 20
231.0101104919963
 30
0.0
 11
-1918.556461143782
 21
224.4476104919963
 31
0.0
  0
LINE
  5
3E0F
330
1F
100
AcDbEntity
  8
SPOJOVACÍ
  6
DASHED
100
AcDbLine
 10
-1919.294126385266
 20
127.0932846994887
 30
0.0
 11
-1923.082987526822
 21
133.6557846994887
 31
0.0
  0
LINE
  5
3E10
330
1F
100
AcDbEntity
  8
STAVBA OBRYS
100
AcDbLine
 10
-1764.035790194868
 20
261.7748107869874
 30
0.0
 11
-1557.08994838891
 21
261.7748107869874
 31
0.0
  0
LINE
  5
3E11
330
1F
100
AcDbEntity
  8
NOSNÉ KONSTRUKCE
100
AcDbLine
 10
-1879.041774132105
 20
23.7748107869902
 30
0.0
 11
-1879.041774132105
 21
26.77481078698838
 31
0.0
  0
LINE
  5
3E12
330
1F
100
AcDbEntity
  8
STAVBA OBRYS
  6
DASHED
100
AcDbLine
 10
-1786.162348668458
 20
112.9787332365485
 30
0.0
 11
-1792.724848668458
 21
109.189872094992
 31
0.0
  0
LINE
  5
3E13
330
1F
100
AcDbEntity
  8
STAVBA OBRYS
  6
DASHED
100
AcDbLine
 10
-1786.162348668458
 20
112.9787332365485
 30
0.0
 11
-1779.599848668458
 21
109.189872094992
 31
0.0
  0
LINE
  5
3E14
330
1F
100
AcDbEntity
  8
SPOJOVACÍ
  6
DASHED
100
AcDbLine
 10
-1923.082987526822
 20
120.5307846994887
 30
0.0
 11
-2004.182082470497
 21
120.5307846994896
 31
0.0
  0
ARC
  5
3E15
330
1F
100
AcDbEntity
  8
NOSNÉ KONSTRUKCE
100
AcDbCircle
 10
-1923.022024439049
 20
17.77481078698747
 30
0.0
 40
3.0
100
AcDbArc
 50
90.0
 51
180.0
  0
ARC
  5
3E16
330
1F
100
AcDbEntity
  8
SPOJOVACÍ
100
AcDbCircle
 10
-2014.539973965602
 20
120.5307846994896
 30
0.0
 40
1.875
100
AcDbArc
 50
90.0
 51
180.0
  0
ARC
  5
3E17
330
1F
100
AcDbEntity
  8
NOSNÉ KONSTRUKCE
100
AcDbCircle
 10
-2009.591541849699
 20
108.5063980620789
 30
0.0
 40
3.0
100
AcDbArc
 50
270.0
 51
0.0
  0
ARC
  5
3E18
330
1F
100
AcDbEntity
  8
SPOJOVACÍ
100
AcDbCircle
 10
-2014.539973965602
 20
118.6557846994896
 30
0.0
 40
1.875
100
AcDbArc
 50
180.0
 51
270.0
  0
LINE
  5
3E19
330
1F
100
AcDbEntity
  8
SPOJOVACÍ
100
AcDbLine
 10
-2009.852473965602
 20
113.0307846994896
 30
0.0
 11
-2006.994582470497
 21
113.0307846994896
 31
0.0
  0
LINE
  5
3E1A
330
1F
100
AcDbEntity
  8
SPOJOVACÍ
100
AcDbLine
 10
-2014.539973965602
 20
116.7807846994896
 30
0.0
 11
-2009.852473965602
 21
116.7807846994896
 31
0.0
  0
LINE
  5
3E1B
330
1F
100
AcDbEntity
  8
SPOJOVACÍ
100
AcDbLine
 10
-2009.852473965602
 20
122.4057846994896
 30
0.0
 11
-2014.539973965602
 21
122.4057846994896
 31
0.0
  0
LINE
  5
3E1C
330
1F
100
AcDbEntity
  8
SPOJOVACÍ
  6
DASHED
100
AcDbLine
 10
-1907.191160769514
 20
104.2833651098635
 30
0.0
 11
-1907.191160769516
 21
23.18427016618989
 31
0.0
  0
LINE
  5
3E1D
330
1F
100
AcDbEntity
  8
SPOJOVACÍ
  6
DASHED
100
AcDbLine
 10
-1894.066160769514
 20
104.2833651098635
 30
0.0
 11
-1894.066160769516
 21
23.18427016618989
 31
0.0
  0
LINE
  5
3E1E
330
1F
100
AcDbEntity
  8
SPOJOVACÍ
  6
DASHDOT2
100
AcDbLine
 10
-1900.628660769516
 20
8.011168697755238
 30
0.0
 11
-1900.628660769514
 21
122.9312784416624
 31
0.0
  0
LINE
  5
3E1F
330
1F
100
AcDbEntity
  8
SPOJOVACÍ
100
AcDbLine
 10
-1899.755938879139
 20
96.00538099085589
 30
0.0
 11
-1901.585217140583
 21
96.49553462374298
 31
0.0
  0
LINE
  5
3E20
330
1F
100
AcDbEntity
  8
SPOJOVACÍ
  6
DASHED
100
AcDbLine
 10
-1900.628660769514
 20
98.69722625142003
 30
0.0
 11
-1906.253660769514
 21
95.44963098722929
 31
0.0
  0
LINE
  5
3E21
330
1F
100
AcDbEntity
  8
SPOJOVACÍ
  6
DASHED
100
AcDbLine
 10
-1900.628660769514
 20
98.69722625142003
 30
0.0
 11
-1895.003660769514
 21
95.44963098722929
 31
0.0
  0
LINE
  5
3E22
330
1F
100
AcDbEntity
  8
SPOJOVACÍ
100
AcDbLine
 10
-1898.175972915893
 20
56.20703038693682
 30
0.0
 11
-1903.205647302287
 21
57.55472757696316
 31
0.0
  0
LINE
  5
3E23
330
1F
100
AcDbEntity
  8
SPOJOVACÍ
100
AcDbLine
 10
-1898.240551986095
 20
54.34933429664579
 30
0.0
 11
-1903.17518347181
 21
55.67156481818892
 31
0.0
  0
LINE
  5
3E24
330
1F
100
AcDbEntity
  8
SPOJOVACÍ
100
AcDbLine
 10
-1899.600169023142
 20
54.71364258373887
 30
0.0
 11
-1901.431349726603
 21
55.20430597442646
 31
0.0
  0
LINE
  5
3E25
330
1F
100
AcDbEntity
  8
SPOJOVACÍ
100
AcDbLine
 10
-1898.88664087534
 20
39.52245329275865
 30
0.0
 11
-1902.563996464063
 21
40.50779775303726
 31
0.0
  0
LINE
  5
3E26
330
1F
100
AcDbEntity
  8
SPOJOVACÍ
100
AcDbLine
 10
-1898.66750610251
 20
43.21373630734433
 30
0.0
 11
-1902.778747881008
 21
44.31534022178221
 31
0.0
  0
LINE
  5
3E27
330
1F
100
AcDbEntity
  8
SPOJOVACÍ
100
AcDbLine
 10
-1898.772310185568
 20
41.36681847676391
 30
0.0
 11
-1902.676597189098
 21
42.41296902637896
 31
0.0
  0
LINE
  5
3E28
330
1F
100
AcDbEntity
  8
SPOJOVACÍ
100
AcDbLine
 10
-1898.344193053139
 20
50.62710483686259
 30
0.0
 11
-1903.083928716487
 21
51.89711318019362
 31
0.0
  0
LINE
  5
3E29
330
1F
100
AcDbEntity
  8
SPOJOVACÍ
100
AcDbLine
 10
-1898.57225976333
 20
45.06321512767954
 30
0.0
 11
-1902.870503482025
 21
46.21492606097399
 31
0.0
  0
LINE
  5
3E2A
330
1F
100
AcDbEntity
  8
SPOJOVACÍ
100
AcDbLine
 10
-1898.486603264146
 20
46.91526353789504
 30
0.0
 11
-1902.951917559892
 21
48.11174089739234
 31
0.0
  0
LINE
  5
3E2B
330
1F
100
AcDbEntity
  8
SPOJOVACÍ
100
AcDbLine
 10
-1898.410569674626
 20
48.76989039898671
 30
0.0
 11
-1903.023042336673
 21
50.00579872389335
 31
0.0
  0
LINE
  5
3E2C
330
1F
100
AcDbEntity
  8
SPOJOVACÍ
100
AcDbLine
 10
-1898.175972915893
 20
52.45703038693682
 30
0.0
 11
-1903.13462631231
 21
53.78569756005254
 31
0.0
  0
LINE
  5
3E2D
330
1F
100
AcDbEntity
  8
SPOJOVACÍ
100
AcDbLine
 10
-1899.951280291979
 20
26.68272256467753
 30
0.0
 11
-1901.478272368838
 21
27.09187885851952
 31
0.0
  0
LINE
  5
3E2E
330
1F
100
AcDbEntity
  8
SPOJOVACÍ
100
AcDbLine
 10
-1899.771057467432
 20
28.50943200438269
 30
0.0
 11
-1901.66568371538
 21
29.01709557747835
 31
0.0
  0
LINE
  5
3E2F
330
1F
100
AcDbEntity
  8
SPOJOVACÍ
100
AcDbLine
 10
-1899.600169023142
 20
30.33864258373887
 30
0.0
 11
-1901.842219297792
 21
30.93939814422083
 31
0.0
  0
LINE
  5
3E30
330
1F
100
AcDbEntity
  8
SPOJOVACÍ
100
AcDbLine
 10
-1899.438639749054
 20
32.17036094519153
 30
0.0
 11
-1902.007944579649
 21
32.85880409966011
 31
0.0
  0
LINE
  5
3E31
330
1F
100
AcDbEntity
  8
SPOJOVACÍ
100
AcDbLine
 10
-1899.286495306099
 20
34.00459396457063
 30
0.0
 11
-1902.162923416544
 21
34.77533055385083
 31
0.0
  0
LINE
  5
3E32
330
1F
100
AcDbEntity
  8
SPOJOVACÍ
100
AcDbLine
 10
-1899.010467979564
 20
37.68063266533681
 30
0.0
 11
-1902.440889359366
 21
38.59981130375217
 31
0.0
  0
LINE
  5
3E33
330
1F
100
AcDbEntity
  8
SPOJOVACÍ
100
AcDbLine
 10
-1899.143762237343
 20
35.8413487540638
 30
0.0
 11
-1902.307218093226
 21
36.6889941959389
 31
0.0
  0
LINE
  5
3E34
330
1F
100
AcDbEntity
  8
SPOJOVACÍ
100
AcDbLine
 10
-1908.205881860012
 20
17.51387867108405
 30
0.0
 11
-1886.566160769516
 21
17.51387867108405
 31
0.0
  0
LINE
  5
3E35
330
1F
100
AcDbEntity
  8
SPOJOVACÍ
100
AcDbLine
 10
-1910.941160769516
 20
17.50450367108351
 30
0.0
 11
-1890.316160769516
 21
17.50450367108351
 31
0.0
  0
LINE
  5
3E36
330
1F
100
AcDbEntity
  8
SPOJOVACÍ
100
AcDbLine
 10
-1909.066160769516
 20
10.95137867108405
 30
0.0
 11
-1892.191160769516
 21
10.95137867108405
 31
0.0
  0
ARC
  5
3E37
330
1F
100
AcDbEntity
  8
SPOJOVACÍ
100
AcDbCircle
 10
-1900.628660769516
 20
17.61594936582605
 30
0.0
 40
6.701689614562111
100
AcDbArc
 50
225.6170676674301
 51
314.3829323325698
  0
ARC
  5
3E38
330
1F
100
AcDbEntity
  8
SPOJOVACÍ
100
AcDbCircle
 10
-1907.191160769516
 20
12.82637867108405
 30
0.0
 40
1.875
100
AcDbArc
 50
270.0
 51
0.0
  0
ARC
  5
3E39
330
1F
100
AcDbEntity
  8
SPOJOVACÍ
100
AcDbCircle
 10
-1909.066160769516
 20
12.82637867108405
 30
0.0
 40
1.875
100
AcDbArc
 50
180.0
 51
270.0
  0
LINE
  5
3E3A
330
1F
100
AcDbEntity
  8
SPOJOVACÍ
100
AcDbLine
 10
-1910.941160769516
 20
17.51387867108405
 30
0.0
 11
-1910.941160769516
 21
12.82637867108405
 31
0.0
  0
LINE
  5
3E3B
330
1F
100
AcDbEntity
  8
SPOJOVACÍ
100
AcDbLine
 10
-1910.941160769516
 20
17.51387867108405
 30
0.0
 11
-1910.941160769516
 21
17.50450367108351
 31
0.0
  0
LINE
  5
3E3C
330
1F
100
AcDbEntity
  8
SPOJOVACÍ
100
AcDbLine
 10
-1905.316160769516
 20
17.51387867108405
 30
0.0
 11
-1905.316160769516
 21
12.82637867108405
 31
0.0
  0
LINE
  5
3E3D
330
1F
100
AcDbEntity
  8
SPOJOVACÍ
100
AcDbLine
 10
-1900.339634213132
 20
23.03678168422811
 30
0.0
 11
-1900.921707111077
 21
23.19274764716829
 31
0.0
  0
LINE
  5
3E3E
330
1F
100
AcDbEntity
  8
SPOJOVACÍ
100
AcDbLine
 10
-1900.140813567104
 20
24.85850785268576
 30
0.0
 11
-1901.053413950927
 21
25.10303838854361
 31
0.0
  0
ARC
  5
3E3F
330
1F
100
AcDbEntity
  8
SPOJOVACÍ
100
AcDbCircle
 10
-1894.066160769516
 20
12.82637867108405
 30
0.0
 40
1.875
100
AcDbArc
 50
180.0
 51
270.0
  0
LINE
  5
3E40
330
1F
100
AcDbEntity
  8
SPOJOVACÍ
100
AcDbLine
 10
-1900.628660769516
 20
20.37177016618898
 30
0.0
 11
-1886.566160769516
 21
20.37177016618898
 31
0.0
  0
LINE
  5
3E41
330
1F
100
AcDbEntity
  8
SPOJOVACÍ
100
AcDbLine
 10
-1900.628660769516
 20
20.37177016618898
 30
0.0
 11
-1886.566160769516
 21
20.37177016618898
 31
0.0
  0
ARC
  5
3E42
330
1F
100
AcDbEntity
  8
SPOJOVACÍ
100
AcDbCircle
 10
-1892.191160769516
 20
12.82637867108405
 30
0.0
 40
1.875
100
AcDbArc
 50
270.0
 51
0.0
  0
LINE
  5
3E43
330
1F
100
AcDbEntity
  8
SPOJOVACÍ
100
AcDbLine
 10
-1886.566160769516
 20
17.51387867108405
 30
0.0
 11
-1886.566160769516
 21
20.37177016618898
 31
0.0
  0
LINE
  5
3E44
330
1F
100
AcDbEntity
  8
SPOJOVACÍ
100
AcDbLine
 10
-1890.316160769516
 20
12.82637867108405
 30
0.0
 11
-1890.316160769516
 21
17.51387867108405
 31
0.0
  0
LINE
  5
3E45
330
1F
100
AcDbEntity
  8
SPOJOVACÍ
100
AcDbLine
 10
-1895.941160769516
 20
17.51387867108405
 30
0.0
 11
-1895.941160769516
 21
12.82637867108405
 31
0.0
  0
LINE
  5
3E46
330
1F
100
AcDbEntity
  8
SPOJOVACÍ
100
AcDbLine
 10
-1899.106582884634
 20
88.33138657652943
 30
0.0
 11
-1902.219337380027
 21
89.16544662980504
 31
0.0
  0
LINE
  5
3E47
330
1F
100
AcDbEntity
  8
SPOJOVACÍ
100
AcDbLine
 10
-1899.143762237343
 20
84.59134875406197
 30
0.0
 11
-1902.4799009383
 21
85.48526442482126
 31
0.0
  0
LINE
  5
3E48
330
1F
100
AcDbEntity
  8
SPOJOVACÍ
100
AcDbLine
 10
-1899.010467979564
 20
86.430632665335
 30
0.0
 11
-1902.354350124986
 21
87.32662318578423
 31
0.0
  0
LINE
  5
3E49
330
1F
100
AcDbEntity
  8
SPOJOVACÍ
100
AcDbLine
 10
-1899.252815864399
 20
90.24556958536413
 30
0.0
 11
-1902.110271552548
 21
91.0112225294115
 31
0.0
  0
LINE
  5
3E4A
330
1F
100
AcDbEntity
  8
SPOJOVACÍ
100
AcDbLine
 10
-1899.409744215356
 20
92.16261841027245
 30
0.0
 11
-1901.921037899384
 21
92.83551752486436
 31
0.0
  0
LINE
  5
3E4B
330
1F
100
AcDbEntity
  8
SPOJOVACÍ
100
AcDbLine
 10
-1899.577430505202
 20
94.08254981621849
 30
0.0
 11
-1901.757804818879
 21
94.66677935276493
 31
0.0
  0
LINE
  5
3E4C
330
1F
100
AcDbEntity
  8
SPOJOVACÍ
100
AcDbLine
 10
-1898.187497323053
 20
67.4601183425284
 30
0.0
 11
-1903.178957986394
 21
68.79757619632164
 31
0.0
  0
LINE
  5
3E4D
330
1F
100
AcDbEntity
  8
SPOJOVACÍ
100
AcDbLine
 10
-1898.16525720868
 20
65.57915912184308
 30
0.0
 11
-1903.208131410205
 21
66.93039319167292
 31
0.0
  0
LINE
  5
3E4E
330
1F
100
AcDbEntity
  8
SPOJOVACÍ
100
AcDbLine
 10
-1898.410569674626
 20
73.14489039898671
 30
0.0
 11
-1902.506245141241
 21
74.2423233327263
 31
0.0
  0
LINE
  5
3E4F
330
1F
100
AcDbEntity
  8
SPOJOVACÍ
100
AcDbLine
 10
-1898.344193053139
 20
75.00210483686259
 30
0.0
 11
-1902.964674977533
 21
76.24015923714523
 31
0.0
  0
LINE
  5
3E50
330
1F
100
AcDbEntity
  8
SPOJOVACÍ
100
AcDbLine
 10
-1898.627406554831
 20
80.70299166592576
 30
0.0
 11
-1902.702499469242
 21
81.79490952142442
 31
0.0
  0
LINE
  5
3E51
330
1F
100
AcDbEntity
  8
SPOJOVACÍ
100
AcDbLine
 10
-1898.533764677811
 20
78.80290040060117
 30
0.0
 11
-1902.773672126961
 21
79.9389801775842
 31
0.0
  0
LINE
  5
3E52
330
1F
100
AcDbEntity
  8
SPOJOVACÍ
100
AcDbLine
 10
-1898.450473964059
 20
76.90558272111411
 30
0.0
 11
-1902.886889000592
 21
78.09431654744276
 31
0.0
  0
LINE
  5
3E53
330
1F
100
AcDbEntity
  8
SPOJOVACÍ
100
AcDbLine
 10
-1898.158427747941
 20
59.95232917335306
 30
0.0
 11
-1903.236477347005
 21
61.31298846254776
 31
0.0
  0
LINE
  5
3E54
330
1F
100
AcDbEntity
  8
SPOJOVACÍ
100
AcDbLine
 10
-1898.175972915893
 20
58.08203038693682
 30
0.0
 11
-1903.226063694723
 21
59.43519813282819
 31
0.0
  0
LINE
  5
3E55
330
1F
100
AcDbEntity
  8
SPOJOVACÍ
100
AcDbLine
 10
-1899.286495306099
 20
58.37959396457063
 30
0.0
 11
-1901.669028980921
 21
59.01799193867737
 31
0.0
  0
LINE
  5
3E56
330
1F
100
AcDbEntity
  8
SPOJOVACÍ
100
AcDbLine
 10
-1899.438639749054
 20
56.54536094519153
 30
0.0
 11
-1901.551614324822
 21
57.11153077639664
 31
0.0
  0
LINE
  5
3E57
330
1F
100
AcDbEntity
  8
SPOJOVACÍ
100
AcDbLine
 10
-1898.153027874837
 20
63.70088228171607
 30
0.0
 11
-1903.227469390763
 21
65.06057478794628
 31
0.0
  0
LINE
  5
3E58
330
1F
100
AcDbEntity
  8
SPOJOVACÍ
100
AcDbLine
 10
-1898.150765583086
 20
61.82527610246779
 30
0.0
 11
-1903.236931786318
 21
63.18811022919362
 31
0.0
  0
LINE
  5
3E59
330
1F
100
AcDbEntity
  8
SPOJOVACÍ
100
AcDbLine
 10
-1898.486603264146
 20
71.29026353789504
 30
0.0
 11
-1903.091259951214
 21
72.52407757861965
 31
0.0
  0
LINE
  5
3E5A
330
1F
100
AcDbEntity
  8
SPOJOVACÍ
100
AcDbLine
 10
-1898.219793131113
 20
69.34377197821686
 30
0.0
 11
-1903.139988172375
 21
70.66213426612648
 31
0.0
  0
LINE
  5
3E5B
330
1F
100
AcDbEntity
  8
SPOJOVACÍ
100
AcDbLine
 10
-1898.731453410638
 20
82.60587093691446
 30
0.0
 11
-1902.595960727021
 21
83.64136255148332
 31
0.0
  0
LINE
  5
3E5C
330
1F
100
AcDbEntity
  8
SPOJOVACÍ
100
AcDbLine
 10
-1914.691160769516
 20
20.37177016618898
 30
0.0
 11
-1914.691160769516
 21
17.51387867108405
 31
0.0
  0
LINE
  5
3E5D
330
1F
100
AcDbEntity
  8
NOSNÉ KONSTRUKCE
100
AcDbLine
 10
-1882.041774132105
 20
20.77481078698747
 30
0.0
 11
-1923.022024439049
 21
20.7748107869902
 31
0.0
  0
LINE
  5
3E5E
330
1F
100
AcDbEntity
  8
SPOJOVACÍ
100
AcDbLine
 10
-1914.691160769516
 20
20.37177016618898
 30
0.0
 11
-1900.628660769516
 21
20.37177016618898
 31
0.0
  0
LINE
  5
3E5F
330
1F
100
AcDbEntity
  8
SPOJOVACÍ
100
AcDbLine
 10
-1914.691160769516
 20
20.37177016618898
 30
0.0
 11
-1900.628660769516
 21
20.37177016618898
 31
0.0
  0
LINE
  5
3E60
330
1F
100
AcDbEntity
  8
SPOJOVACÍ
100
AcDbLine
 10
-1900.628660769516
 20
17.51387867108405
 30
0.0
 11
-1914.691160769516
 21
17.51387867108405
 31
0.0
  0
LINE
  5
3E61
330
1F
100
AcDbEntity
  8
SPOJOVACÍ
  6
DASHED
100
AcDbLine
 10
-1900.628660769514
 20
108.07222625142
 30
0.0
 11
-1907.191160769514
 21
104.2833651098635
 31
0.0
  0
LINE
  5
3E62
330
1F
100
AcDbEntity
  8
SPOJOVACÍ
  6
DASHED
100
AcDbLine
 10
-1900.628660769514
 20
108.07222625142
 30
0.0
 11
-1894.066160769514
 21
104.2833651098635
 31
0.0
  0
LINE
  5
3E63
330
1F
100
AcDbEntity
  8
SPOJOVACÍ
100
AcDbLine
 10
-1900.145686573205
 20
99.85981357073434
 30
0.0
 11
-1901.212075663164
 21
100.1455516662063
 31
0.0
  0
LINE
  5
3E64
330
1F
100
AcDbEntity
  8
SPOJOVACÍ
100
AcDbLine
 10
-1899.945335097234
 20
97.93112955454489
 30
0.0
 11
-1901.403299497227
 21
98.32178993811613
 31
0.0
  0
LINE
  5
3E65
330
1F
100
AcDbEntity
  8
SPOJOVACÍ
100
AcDbLine
 10
-1900.357062414654
 20
101.7914515567499
 30
0.0
 11
-1901.01156856457
 21
101.9668259510608
 31
0.0
  0
LINE
  5
3E66
330
1F
100
AcDbEntity
  8
SPOJOVACÍ
100
AcDbLine
 10
-1900.579533464837
 20
103.7260624949849
 30
0.0
 11
-1900.80180028922
 21
103.7856187110819
 31
0.0
  0
LINE
  5
3E67
330
1F
100
AcDbEntity
  8
NOSNÉ KONSTRUKCE
100
AcDbLine
 10
-1879.042003776596
 20
23.7005729473467
 30
0.0
 11
-1929.828731115669
 21
23.70057294734942
 31
0.0
  0
LINE
  5
3E68
330
1F
100
AcDbEntity
  8
NOSNÉ KONSTRUKCE
100
AcDbLine
 10
-1879.042003776596
 20
23.73769186716708
 30
0.0
 11
-1929.828731115669
 21
23.73769186716981
 31
0.0
  0
ARC
  5
3E69
330
1F
100
AcDbEntity
  8
NOSNÉ KONSTRUKCE
100
AcDbCircle
 10
-1882.041774132105
 20
23.7748107869902
 30
0.0
 40
3.0
100
AcDbArc
 50
270.0
 51
0.0
  0
LWPOLYLINE
  5
3E6A
330
1F
100
AcDbEntity
  8
STAVBA OBRYS
  6
DASHED
100
AcDbPolyline
 90
        4
 70
     1
 43
0.0
 10
-1761.102562658947
 20
-56.55374046248653
 10
-1761.102562658947
 20
-51.18045913763308
 10
-1811.222134677969
 20
-51.18045913763308
 10
-1811.222134677969
 20
-56.55374046248653
  0
LINE
  5
3E6B
330
1F
100
AcDbEntity
  8
NOSNÉ KONSTRUKCE
100
AcDbLine
 10
-1933.214796748221
 20
-54.43362959981278
 30
0.0
 11
-1933.214796748221
 21
-106.9227069067983
 31
0.0
  0
LINE
  5
3E6C
330
1F
100
AcDbEntity
  8
NOSNÉ KONSTRUKCE
100
AcDbLine
 10
-1931.538636135565
 20
-106.9227069067983
 30
0.0
 11
-1931.538636135565
 21
-54.43362959981278
 31
0.0
  0
LINE
  5
3E6D
330
1F
100
AcDbEntity
  8
NOSNÉ KONSTRUKCE
100
AcDbLine
 10
-1933.546988977263
 20
-48.01905216374689
 30
0.0
 11
-1933.546988977263
 21
-101.2481303316717
 31
0.0
  0
LINE
  5
3E6E
330
1F
100
AcDbEntity
  8
NOSNÉ KONSTRUKCE
100
AcDbLine
 10
-1934.984419387738
 20
-101.2481303316726
 30
0.0
 11
-1934.984419387738
 21
-46.8781303623673
 31
0.0
  0
LWPOLYLINE
  5
3E6F
330
1F
100
AcDbEntity
  8
NOSNÉ KONSTRUKCE
100
AcDbPolyline
 90
        3
 70
     0
 43
0.0
 10
-1931.538636135565
 20
-106.9227069067983
 10
-1900.185919892055
 20
-106.9227069067983
 10
-1900.185919892055
 20
-109.4487943387994
  0
LINE
  5
3E70
330
1F
100
AcDbEntity
  8
NOSNÉ KONSTRUKCE
100
AcDbLine
 10
-1911.955341386457
 20
-109.4487943387994
 30
0.0
 11
-1952.798091497328
 21
-109.4487943387994
 31
0.0
  0
LINE
  5
3E71
330
1F
100
AcDbEntity
  8
SPOJOVACÍ
100
AcDbLine
 10
-1936.045391424102
 20
-90.02640020373746
 30
0.0
 11
-1929.447775840771
 21
-90.02640020373746
 31
0.0
  0
LINE
  5
3E72
330
1F
100
AcDbEntity
  8
NOSNÉ KONSTRUKCE
100
AcDbLine
 10
-1933.546988977263
 20
-101.2481303316717
 30
0.0
 11
-1934.984419387738
 21
-101.2481303316726
 31
0.0
  0
LINE
  5
3E73
330
1F
100
AcDbEntity
  8
NOSNÉ KONSTRUKCE
100
AcDbLine
 10
-1929.828501471167
 20
-101.2481303316726
 30
0.0
 11
-1931.265931881642
 21
-101.2481303316726
 31
0.0
  0
ARC
  5
3E74
330
1F
100
AcDbEntity
  8
SPOJOVACÍ
100
AcDbCircle
 10
-1933.758075909569
 20
-87.81597891459297
 30
0.0
 40
7.016998426235272
100
AcDbArc
 50
307.8985698078477
 51
52.10143019215225
  0
LINE
  5
3E75
330
1F
100
AcDbEntity
  8
SPOJOVACÍ
100
AcDbLine
 10
-1929.447775840771
 20
-87.81597891459297
 30
0.0
 11
-1929.447775840771
 21
-82.27886953959297
 31
0.0
  0
LINE
  5
3E76
330
1F
100
AcDbEntity
  8
SPOJOVACÍ
100
AcDbLine
 10
-1929.447775840771
 20
-93.35308828959297
 30
0.0
 11
-1929.447775840771
 21
-87.81597891459297
 31
0.0
  0
LINE
  5
3E77
330
1F
100
AcDbEntity
  8
SPOJOVACÍ
100
AcDbLine
 10
-1932.13727004149
 20
-85.60555762544755
 30
0.0
 11
-1933.321831240209
 21
-90.02640020373746
 31
0.0
  0
LINE
  5
3E78
330
1F
100
AcDbEntity
  8
SPOJOVACÍ
100
AcDbLine
 10
-1936.045391424102
 20
-85.60555762544755
 30
0.0
 11
-1929.447775840771
 21
-85.60555762544755
 31
0.0
  0
LINE
  5
3E79
330
1F
100
AcDbEntity
  8
SPOJOVACÍ
100
AcDbLine
 10
-1929.676332541488
 20
-85.60555762544755
 30
0.0
 11
-1930.860893740207
 21
-90.02640020373746
 31
0.0
  0
LINE
  5
3E7A
330
1F
100
AcDbEntity
  8
SPOJOVACÍ
100
AcDbLine
 10
-1930.90680129149
 20
-85.60555762544755
 30
0.0
 11
-1932.091362490208
 21
-90.02640020373746
 31
0.0
  0
LINE
  5
3E7B
330
1F
100
AcDbEntity
  8
SPOJOVACÍ
100
AcDbLine
 10
-1933.36773879149
 20
-85.60555762544755
 30
0.0
 11
-1934.552299990207
 21
-90.02640020373746
 31
0.0
  0
LINE
  5
3E7C
330
1F
100
AcDbEntity
  8
SPOJOVACÍ
100
AcDbLine
 10
-1935.82867629149
 20
-85.60555762544755
 30
0.0
 11
-1936.763493614375
 21
-89.0943433702505
 31
0.0
  0
LINE
  5
3E7D
330
1F
100
AcDbEntity
  8
SPOJOVACÍ
100
AcDbLine
 10
-1937.748408141682
 20
-87.81597891459297
 30
0.0
 11
-1936.045391424102
 21
-90.02640020373746
 31
0.0
  0
LINE
  5
3E7E
330
1F
100
AcDbEntity
  8
SPOJOVACÍ
100
AcDbLine
 10
-1937.748408141682
 20
-87.81597891459297
 30
0.0
 11
-1936.045391424102
 21
-85.60555762544755
 31
0.0
  0
LINE
  5
3E7F
330
1F
100
AcDbEntity
  8
SPOJOVACÍ
100
AcDbLine
 10
-1934.598207541492
 20
-85.60555762544755
 30
0.0
 11
-1935.782768740208
 21
-90.02640020373746
 31
0.0
  0
LINE
  5
3E80
330
1F
100
AcDbEntity
  8
NOSNÉ KONSTRUKCE
100
AcDbLine
 10
-1926.68099137804
 20
-62.62052329831568
 30
0.0
 11
-1929.82850147117
 21
-65.46520982994843
 31
0.0
  0
ARC
  5
3E81
330
1F
100
AcDbEntity
  8
NOSNÉ KONSTRUKCE
100
AcDbCircle
 10
-1928.022024439053
 20
-61.13673411879426
 30
0.0
 40
2.0
100
AcDbArc
 50
312.1069433990041
 51
0.0
  0
LINE
  5
3E82
330
1F
100
AcDbEntity
  8
NOSNÉ KONSTRUKCE
100
AcDbLine
 10
-1964.56751299173
 20
-111.8264701265779
 30
0.0
 11
-1952.798091497328
 21
-111.8264701265779
 31
0.0
  0
LINE
  5
3E83
330
1F
100
AcDbEntity
  8
NOSNÉ KONSTRUKCE
100
AcDbLine
 10
-1952.798091497328
 20
-111.8264701265779
 30
0.0
 11
-1952.798091497328
 21
-109.4487943387994
 31
0.0
  0
LINE
  5
3E84
330
1F
100
AcDbEntity
  8
NOSNÉ KONSTRUKCE
100
AcDbLine
 10
-1964.56751299173
 20
-109.4487943387994
 30
0.0
 11
-1964.56751299173
 21
-111.8264701265779
 31
0.0
  0
LINE
  5
3E85
330
1F
100
AcDbEntity
  8
SPOJOVACÍ
100
AcDbLine
 10
-1946.479056492671
 20
-108.8862635711011
 30
0.0
 11
-1950.899899070962
 21
-110.0708247698166
 31
0.0
  0
LINE
  5
3E86
330
1F
100
AcDbEntity
  8
SPOJOVACÍ
100
AcDbLine
 10
-1946.479056492671
 20
-110.1167323211002
 30
0.0
 11
-1949.967842237476
 21
-111.0515496439848
 31
0.0
  0
LINE
  5
3E87
330
1F
100
AcDbEntity
  8
SPOJOVACÍ
100
AcDbLine
 10
-1948.689477781817
 20
-112.0364641712922
 30
0.0
 11
-1950.899899070962
 21
-110.3334474537114
 31
0.0
  0
LINE
  5
3E88
330
1F
100
AcDbEntity
  8
SPOJOVACÍ
100
AcDbLine
 10
-1948.689477781817
 20
-112.0364641712922
 30
0.0
 11
-1946.479056492671
 21
-110.3334474537114
 31
0.0
  0
LINE
  5
3E89
330
1F
100
AcDbEntity
  8
SPOJOVACÍ
100
AcDbLine
 10
-1948.689477781817
 20
-103.7358318703818
 30
0.0
 11
-1943.152368406817
 21
-103.7358318703818
 31
0.0
  0
ARC
  5
3E8A
330
1F
100
AcDbEntity
  8
SPOJOVACÍ
100
AcDbCircle
 10
-1948.689477781817
 20
-108.0461319391788
 30
0.0
 40
7.016998426235272
100
AcDbArc
 50
37.89856980784375
 51
142.1014301921562
  0
LINE
  5
3E8B
330
1F
100
AcDbEntity
  8
SPOJOVACÍ
100
AcDbLine
 10
-1954.226587156817
 20
-103.7358318703818
 30
0.0
 11
-1948.689477781817
 21
-103.7358318703818
 31
0.0
  0
LINE
  5
3E8C
330
1F
100
AcDbEntity
  8
SPOJOVACÍ
100
AcDbLine
 10
-1946.479056492671
 20
-106.4253260711002
 30
0.0
 11
-1950.899899070962
 21
-107.6098872698194
 31
0.0
  0
LINE
  5
3E8D
330
1F
100
AcDbEntity
  8
SPOJOVACÍ
100
AcDbLine
 10
-1946.479056492671
 20
-103.9643885710984
 30
0.0
 11
-1950.899899070962
 21
-105.1489497698175
 31
0.0
  0
LINE
  5
3E8E
330
1F
100
AcDbEntity
  8
SPOJOVACÍ
100
AcDbLine
 10
-1946.479056492671
 20
-105.1948573211002
 30
0.0
 11
-1950.899899070962
 21
-106.3794185198184
 31
0.0
  0
LINE
  5
3E8F
330
1F
100
AcDbEntity
  8
SPOJOVACÍ
100
AcDbLine
 10
-1946.479056492671
 20
-107.6557948211002
 30
0.0
 11
-1950.899899070962
 21
-108.8403560198175
 31
0.0
  0
LINE
  5
3E90
330
1F
100
AcDbEntity
  8
SPOJOVACÍ
100
AcDbLine
 10
-1946.479056492671
 20
-110.3334474537114
 30
0.0
 11
-1946.479056492671
 21
-103.7358318703818
 31
0.0
  0
LINE
  5
3E91
330
1F
100
AcDbEntity
  8
SPOJOVACÍ
100
AcDbLine
 10
-1950.899899070962
 20
-110.3334474537114
 30
0.0
 11
-1950.899899070962
 21
-103.7358318703818
 31
0.0
  0
LWPOLYLINE
  5
3E92
330
1F
100
AcDbEntity
  8
NOSNÉ KONSTRUKCE
100
AcDbPolyline
 90
        3
 70
     0
 43
0.0
 10
-1964.56751299173
 20
-109.4487943387994
 10
-1964.56751299173
 20
-106.9227069067983
 10
-1933.214796748221
 20
-106.9227069067983
  0
LINE
  5
3E93
330
1F
100
AcDbEntity
  8
NOSNÉ KONSTRUKCE
100
AcDbLine
 10
-1911.955341386457
 20
-111.8264701265779
 30
0.0
 11
-1911.955341386457
 21
-109.4487943387994
 31
0.0
  0
LINE
  5
3E94
330
1F
100
AcDbEntity
  8
NOSNÉ KONSTRUKCE
100
AcDbLine
 10
-1900.185919892055
 20
-109.4487943387994
 30
0.0
 11
-1900.185919892055
 21
-111.8264701265779
 31
0.0
  0
LINE
  5
3E95
330
1F
100
AcDbEntity
  8
NOSNÉ KONSTRUKCE
100
AcDbLine
 10
-1900.185919892055
 20
-111.8264701265779
 30
0.0
 11
-1911.955341386457
 21
-111.8264701265779
 31
0.0
  0
LINE
  5
3E96
330
1F
100
AcDbEntity
  8
NOSNÉ KONSTRUKCE
100
AcDbLine
 10
-1934.984419387738
 20
-46.8781303623673
 30
0.0
 11
-1931.265931881648
 21
-41.22158553183817
 31
0.0
  0
LINE
  5
3E97
330
1F
100
AcDbEntity
  8
NOSNÉ KONSTRUKCE
100
AcDbLine
 10
-1933.546988977263
 20
-48.01905216374689
 30
0.0
 11
-1931.265931881648
 21
-44.01394380374222
 31
0.0
  0
LINE
  5
3E98
330
1F
100
AcDbEntity
  8
NOSNÉ KONSTRUKCE
100
AcDbLine
 10
-1931.538636135565
 20
-54.43362959981278
 30
0.0
 11
-1933.214796748221
 21
-54.43362959981278
 31
0.0
  0
LINE
  5
3E99
330
1F
100
AcDbEntity
  8
NOSNÉ KONSTRUKCE
100
AcDbLine
 10
-1931.265931881642
 20
-101.2481303316726
 30
0.0
 11
-1931.265931881653
 21
26.98029038079948
 31
0.0
  0
LINE
  5
3E9A
330
1F
100
AcDbEntity
  8
NOSNÉ KONSTRUKCE
100
AcDbLine
 10
-1929.828501471167
 20
-101.2481303316726
 30
0.0
 11
-1929.828501471178
 21
26.7748107869902
 31
0.0
  0
LINE
  5
3E9B
330
1F
100
AcDbEntity
  8
NOSNÉ KONSTRUKCE
100
AcDbLine
 10
-1926.022024439053
 20
-61.13673411879426
 30
0.0
 11
-1926.022024439049
 21
17.77481078698747
 31
0.0
  0
LINE
  5
3E9C
330
1F
100
AcDbEntity
  8
STAVBA OBRYS
  6
DASHED
100
AcDbLine
 10
-1792.724848668458
 20
109.189872094992
 30
0.0
 11
-1792.72484866846
 21
-51.18045913763308
 31
0.0
  0
LINE
  5
3E9D
330
1F
100
AcDbEntity
  8
STAVBA OBRYS
  6
DASHED
100
AcDbLine
 10
-1779.599848668458
 20
109.189872094992
 30
0.0
 11
-1779.59984866846
 21
-51.18045913763308
 31
0.0
  0
LINE
  5
3E9E
330
1F
100
AcDbEntity
  8
STAVBA OBRYS
100
AcDbLine
 10
-2000.628660769516
 20
26.77481078698747
 30
0.0
 11
-1543.103606682931
 21
26.77481078698747
 31
0.0
  0
LINE
  5
3E9F
330
1F
100
AcDbEntity
  8
NOSNÉ KONSTRUKCE
100
AcDbLine
 10
-2006.591541849699
 20
108.5063980620789
 30
0.0
 11
-2006.591541849697
 21
149.4866483690239
 31
0.0
  0
LINE
  5
3EA0
330
1F
100
AcDbEntity
  8
SPOJOVACÍ
100
AcDbLine
 10
-2009.852473965602
 20
134.6705057899866
 30
0.0
 11
-2009.852473965602
 21
113.0307846994896
 31
0.0
  0
LINE
  5
3EA1
330
1F
100
AcDbEntity
  8
SPOJOVACÍ
100
AcDbLine
 10
-2009.861848965602
 20
137.4057846994896
 30
0.0
 11
-2009.861848965602
 21
116.7807846994896
 31
0.0
  0
LINE
  5
3EA2
330
1F
100
AcDbEntity
  8
SPOJOVACÍ
100
AcDbLine
 10
-2016.414973965602
 20
135.5307846994896
 30
0.0
 11
-2016.414973965602
 21
118.6557846994896
 31
0.0
  0
LINE
  5
3EA3
330
1F
100
AcDbEntity
  8
SPOJOVACÍ
100
AcDbLine
 10
-2006.994582470497
 20
127.0932846994896
 30
0.0
 11
-2006.994582470497
 21
113.0307846994896
 31
0.0
  0
LINE
  5
3EA4
330
1F
100
AcDbEntity
  8
SPOJOVACÍ
100
AcDbLine
 10
-2006.994582470497
 20
127.0932846994896
 30
0.0
 11
-2006.994582470497
 21
113.0307846994896
 31
0.0
  0
LINE
  5
3EA5
330
1F
100
AcDbEntity
  8
NOSNÉ KONSTRUKCE
100
AcDbLine
 10
-2003.591541849699
 20
101.6999210299518
 30
0.0
 11
-2003.591541849697
 21
152.4866483690266
 31
0.0
  0
LINE
  5
3EA6
330
1F
100
AcDbEntity
  8
NOSNÉ KONSTRUKCE
100
AcDbLine
 10
-2003.62866076952
 20
101.6999210299518
 30
0.0
 11
-2003.628660769516
 21
152.4866483690266
 31
0.0
  0
ARC
  5
3EA7
330
1F
100
AcDbEntity
  8
SPOJOVACÍ
100
AcDbCircle
 10
-2009.75040327086
 20
127.0932846994896
 30
0.0
 40
6.701689614562111
100
AcDbArc
 50
135.6170676673749
 51
224.382932332625
  0
HATCH
  5
3EA8
330
1F
100
AcDbEntity
  8
NOSNÉ KONSTRUKCE
100
AcDbHatch
 10
0.0
 20
0.0
 30
0.0
210
0.0
220
0.0
230
1.0
  2
ANSI37
 70
     0
 71
     0
 91
        1
 92
        7
 72
     0
 73
     1
 93
        4
 10
-2000.591541849697
 20
152.4866483690229
 10
-2003.591541849697
 20
152.4866483690234
 10
-2003.591541849699
 20
101.6999210299518
 10
-2000.591541849697
 20
101.6999210299518
 97
        0
 75
     0
 76
     1
 52
0.0
 41
1.0
 77
     0
 78
     2
 53
45.00000000000001
 43
-2523.559093415506
 44
-210.1718918686429
 45
-2.245064030267287
 46
2.245064030267288
 79
     0
 53
135.0
 43
-2523.559093415506
 44
-210.1718918686429
 45
-2.245064030267288
 46
-2.245064030267287
 79
     0
 47
0.13614220447659
 98
        1
 10
-2001.504350501511
 20
134.6233830816208
  0
HATCH
  5
3EA9
330
1F
100
AcDbEntity
  8
NOSNÉ KONSTRUKCE
100
AcDbHatch
 10
0.0
 20
0.0
 30
0.0
210
0.0
220
0.0
230
1.0
  2
ANSI37
 70
     0
 71
     0
 91
        1
 92
        7
 72
     0
 73
     1
 93
        4
 10
-2000.628660769516
 20
152.4866483690229
 10
-2003.628660769516
 20
152.4866483690234
 10
-2003.62866076952
 20
101.6999210299518
 10
-2000.628660769516
 20
101.6999210299518
 97
        0
 75
     0
 76
     1
 52
0.0
 41
1.0
 77
     0
 78
     2
 53
45.00000000000001
 43
-2523.596212335327
 44
-210.1718918686429
 45
-2.245064030267287
 46
2.245064030267288
 79
     0
 53
135.0
 43
-2523.596212335327
 44
-210.1718918686429
 45
-2.245064030267288
 46
-2.245064030267287
 79
     0
 47
0.13614220447659
 98
        1
 10
-2001.54146942133
 20
134.6233830816208
  0
LINE
  5
3EAA
330
1F
100
AcDbEntity
  8
SPOJOVACÍ
  6
DASHED
100
AcDbLine
 10
-1928.669126385266
 20
127.0932846994883
 30
0.0
 11
-1931.916721649457
 21
121.4682846994883
 31
0.0
  0
LINE
  5
3EAC
330
1F
100
AcDbEntity
  8
SPOJOVACÍ
  6
DASHED
100
AcDbLine
 10
-1919.294126385266
 20
127.0932846994887
 30
0.0
 11
-1923.082987526822
 21
120.5307846994887
 31
0.0
  0
LINE
  5
3EAD
330
1F
100
AcDbEntity
  8
STAVBA OBRYS
  6
DASHDOT2
100
AcDbLine
 10
-1786.16234866846
 20
-84.93870363930728
 30
0.0
 11
-1786.162348668458
 21
127.837785426791
 31
0.0
  0
LINE
  5
3EAE
330
1F
100
AcDbEntity
  8
STAVBA OBRYS
100
AcDbLine
 10
-2000.628660769516
 20
26.77481078698747
 30
0.0
 11
-2000.628660769509
 21
436.5325121344822
 31
0.0
  0
HATCH
  5
3EAF
330
1F
100
AcDbEntity
  8
STAVBA OBRYS
100
AcDbHatch
 10
0.0
 20
0.0
 30
0.0
210
0.0
220
0.0
230
1.0
  2
BRICK
 70
     0
 71
     0
 91
        3
 92
        7
 72
     0
 73
     1
 93
       27
 10
-1557.08994838891
 20
261.7748107869874
 10
-1764.035790194868
 20
261.7748107869874
 10
-1764.035790194868
 20
436.5325121344822
 10
-2000.628660769507
 20
436.5325121344822
 10
-2000.628660769512
 20
237.5726104919968
 10
-1918.556461143782
 20
237.5726104919958
 10
-1914.767600002226
 20
231.0101104919967
 10
-1918.556461143782
 20
224.4476104919963
 10
-2000.628660769512
 20
224.4476104919972
 10
-2000.628660769514
 20
148.0409638888672
 10
-1978.009487494438
 20
133.6557846994892
 10
-1923.082987526822
 20
133.6557846994887
 10
-1919.294126385264
 20
127.0932846994892
 10
-1923.082987526821
 20
120.5307846994887
 10
-2000.628660769514
 20
120.5307846994896
 10
-2000.628660769516
 20
26.77481078698747
 10
-1907.191160769514
 20
26.77481078698747
 10
-1907.191160769514
 20
104.2833651098635
 10
-1900.628660769514
 20
108.07222625142
 10
-1894.066160769514
 20
104.2833651098635
 10
-1894.066160769516
 20
26.77481078698747
 10
-1792.72484866846
 20
26.77481078698747
 10
-1792.72484866846
 20
109.1898720949925
 10
-1786.16234866846
 20
112.9787332365485
 10
-1779.599848668456
 20
109.1898720949916
 10
-1779.59984866846
 20
26.77481078698747
 10
-1543.103606682931
 20
26.77481078698747
 97
        0
 92
       24
 93
        4
 72
     1
 10
-1975.038672738179
 20
224.0831476619705
 11
-1926.181529881036
 21
224.0831476619705
 72
     1
 10
-1926.181529881034
 20
224.0831476619705
 11
-1926.181529881034
 21
194.0831476619705
 72
     1
 10
-1926.181529881034
 20
194.0831476619705
 11
-1975.038672738177
 21
194.0831476619705
 72
     1
 10
-1975.038672738179
 20
194.0831476619705
 11
-1975.038672738179
 21
224.0831476619705
 97
        0
 92
       24
 93
        4
 72
     1
 10
-1879.391274795691
 20
52.5054763146677
 11
-1879.391274795691
 21
101.3626191718105
 72
     1
 10
-1879.391274795691
 20
101.3626191718103
 11
-1849.391274795691
 21
101.3626191718103
 72
     1
 10
-1849.391274795691
 20
101.3626191718103
 11
-1849.391274795691
 21
52.50547631466748
 72
     1
 10
-1849.391274795691
 20
52.5054763146677
 11
-1879.391274795691
 21
52.5054763146677
 97
        0
 75
     0
 76
     1
 52
0.0
 41
10.0
 77
     0
 78
     3
 53
0.0
 43
-8295.913081895911
 44
-169.4665508070475
 45
0.0
 46
63.5
 79
     0
 53
90.0
 43
-8295.913081895911
 44
-169.4665508070475
 45
-127.0
 46
0.0000000000000078
 79
     2
 49
63.5
 49
-63.5
 53
90.0
 43
-8232.413081895911
 44
-169.4665508070475
 45
-127.0
 46
0.0000000000000078
 79
     2
 49
-63.5
 49
63.5
 47
3.453225100644859
 98
        1
 10
-1721.984859123213
 20
154.9560457409415
  0
LINE
  5
3EB0
330
1F
100
AcDbEntity
  8
STAVBA OBRYS
100
AcDbLine
 10
-1764.035790194868
 20
441.9872419266603
 30
0.0
 11
-1764.035790194868
 21
261.7748107869874
 31
0.0
  0
INSERT
  5
3EB1
330
1F
100
AcDbEntity
  8
POPIS
100
AcDbBlockReference
  2
E_PUNKT
 10
-2124.177485540549
 20
317.8965221131516
 30
0.0
  0
LINE
  5
3EB2
330
1F
100
AcDbEntity
  8
POPIS
100
AcDbLine
 10
-2306.465191224832
 20
377.8182136263758
 30
0.0
 11
-2143.628660769509
 21
377.8182136263749
 31
0.0
  0
LINE
  5
3EB3
330
1F
100
AcDbEntity
  8
POPIS
100
AcDbLine
 10
-2306.465191224832
 20
317.9255904440242
 30
0.0
 11
-2124.149875164921
 21
317.9255904440242
 31
0.0
  0
LWPOLYLINE
  5
3EB4
330
1F
100
AcDbEntity
  8
STAVBA OBRYS
  6
DASHED
100
AcDbPolyline
 90
        4
 70
     1
 43
0.0
 10
-2084.30007370126
 20
205.9503244824845
 10
-2078.926792376407
 20
205.9503244824845
 10
-2078.926792376407
 20
256.0698965015071
 10
-2084.30007370126
 20
256.0698965015071
  0
INSERT
  5
3EB5
330
1F
100
AcDbEntity
  8
POPIS
100
AcDbBlockReference
  2
E_PUNKT
 10
-2134.316669919111
 20
131.3134342782
 30
0.0
  0
LINE
  5
3EB6
330
1F
100
AcDbEntity
  8
POPIS
100
AcDbLine
 10
-2134.289059543485
 20
131.3425026090726
 30
0.0
 11
-2171.982916395343
 21
187.7003871097035
 31
0.0
  0
LINE
  5
3EB7
330
1F
100
AcDbEntity
  8
NOSNÉ KONSTRUKCE
100
AcDbLine
 10
-2136.815146975486
 20
131.3425026090726
 30
0.0
 11
-2139.192822763265
 21
131.3425026090726
 31
0.0
  0
LINE
  5
3EB8
330
1F
100
AcDbEntity
  8
POPIS
100
AcDbLine
 10
-2306.465191224832
 20
224.1831358038871
 30
0.0
 11
-2171.982916395345
 21
224.1831358038866
 31
0.0
  0
LINE
  5
3EB9
330
1F
100
AcDbEntity
  8
POPIS
100
AcDbLine
 10
-2306.465191224832
 20
187.700387109704
 30
0.0
 11
-2171.982916395343
 21
187.7003871097035
 31
0.0
  0
LINE
  5
3EBA
330
1F
100
AcDbEntity
  8
POPIS
100
AcDbLine
 10
-2306.465191224832
 20
257.0176113579545
 30
0.0
 11
-2171.982916395345
 21
257.0176113579541
 31
0.0
  0
TEXT
  5
3EBB
330
1F
100
AcDbEntity
  8
POPIS
100
AcDbText
 10
-2346.4426775681
 20
243.574269908584
 30
0.0
 40
25.0
  1
04
 41
0.7
  7
SIMPLEX7
100
AcDbText
  0
TEXT
  5
3EBC
330
1F
100
AcDbEntity
  8
POPIS
100
AcDbText
 10
-2346.4426775681
 20
210.7397943545165
 30
0.0
 40
25.0
  1
05
 41
0.7
  7
SIMPLEX7
100
AcDbText
  0
TEXT
  5
3EBD
330
1F
100
AcDbEntity
  8
POPIS
100
AcDbText
 10
-2346.4426775681
 20
174.2570456603334
 30
0.0
 40
25.0
  1
06
 41
0.7
  7
SIMPLEX7
100
AcDbText
  0
TEXT
  5
3EBE
330
1F
100
AcDbEntity
  8
POPIS
100
AcDbText
 10
-2344.768842322553
 20
364.3748721770052
 30
0.0
 40
25.0
  1
01
 41
0.7
  7
SIMPLEX7
100
AcDbText
  0
TEXT
  5
3EBF
330
1F
100
AcDbEntity
  8
POPIS
100
AcDbText
 10
-2347.000626519382
 20
304.4822489946541
 30
0.0
 40
25.0
  1
03
 41
0.7
  7
SIMPLEX7
100
AcDbText
  0
LWPOLYLINE
  5
3EC0
330
1F
100
AcDbEntity
  8
NOSNÉ KONSTRUKCE
100
AcDbPolyline
 90
        3
 70
     0
 43
0.0
 10
-2136.815146975486
 20
66.96090950939742
 10
-2134.289059543485
 20
66.96090950939742
 10
-2134.289059543485
 20
98.31362575290677
  0
LINE
  5
3EC1
330
1F
100
AcDbEntity
  8
NOSNÉ KONSTRUKCE
100
AcDbLine
 10
-2136.815146975486
 20
119.5730811146704
 30
0.0
 11
-2136.815146975486
 21
78.73033100379962
 31
0.0
  0
LINE
  5
3EC2
330
1F
100
AcDbEntity
  8
SPOJOVACÍ
100
AcDbLine
 10
-2112.971910262133
 20
96.93021495963694
 30
0.0
 11
-2117.392752840423
 21
95.74565376092142
 31
0.0
  0
LINE
  5
3EC3
330
1F
100
AcDbEntity
  8
SPOJOVACÍ
100
AcDbLine
 10
-2112.971910262133
 20
95.48303107702668
 30
0.0
 11
-2112.971910262133
 21
102.0806466603562
 31
0.0
  0
LINE
  5
3EC4
330
1F
100
AcDbEntity
  8
SPOJOVACÍ
100
AcDbLine
 10
-2117.392752840423
 20
95.48303107702668
 30
0.0
 11
-2117.392752840423
 21
102.0806466603562
 31
0.0
  0
INSERT
  5
3EC5
330
1F
100
AcDbEntity
  8
POPIS
100
AcDbBlockReference
  2
E_PUNKT
 10
-2132.17717960604
 20
31.176205564484
 30
0.0
  0
LINE
  5
3EC6
330
1F
100
AcDbEntity
  8
SPOJOVACÍ
100
AcDbLine
 10
-2115.182331551279
 20
93.78001435944588
 30
0.0
 11
-2112.971910262133
 21
95.48303107702668
 31
0.0
  0
LINE
  5
3EC7
330
1F
100
AcDbEntity
  8
SPOJOVACÍ
100
AcDbLine
 10
-2115.182331551279
 20
93.78001435944588
 30
0.0
 11
-2117.392752840423
 21
95.48303107702668
 31
0.0
  0
LINE
  5
3EC8
330
1F
100
AcDbEntity
  8
SPOJOVACÍ
100
AcDbLine
 10
-2112.971910262133
 20
95.69974620963785
 30
0.0
 11
-2116.460696006937
 21
94.76492888675329
 31
0.0
  0
LINE
  5
3EC9
330
1F
100
AcDbEntity
  8
NOSNÉ KONSTRUKCE
100
AcDbLine
 10
-2139.192822763265
 20
78.73033100379962
 30
0.0
 11
-2136.815146975486
 21
78.73033100379962
 31
0.0
  0
LINE
  5
3ECA
330
1F
100
AcDbEntity
  8
NOSNÉ KONSTRUKCE
100
AcDbLine
 10
-2139.192822763265
 20
66.96090950939742
 30
0.0
 11
-2139.192822763265
 21
78.73033100379962
 31
0.0
  0
LINE
  5
3ECB
330
1F
100
AcDbEntity
  8
NOSNÉ KONSTRUKCE
100
AcDbLine
 10
-2136.815146975486
 20
66.96090950939742
 30
0.0
 11
-2139.192822763265
 21
66.96090950939742
 31
0.0
  0
LINE
  5
3ECC
330
1F
100
AcDbEntity
  8
SPOJOVACÍ
100
AcDbLine
 10
-2135.773667498009
 20
83.73729378407006
 30
0.0
 11
-2136.958228696725
 21
79.31645120578014
 31
0.0
  0
LINE
  5
3ECD
330
1F
100
AcDbEntity
  8
SPOJOVACÍ
100
AcDbLine
 10
-2138.9238680982
 20
81.52687249492464
 30
0.0
 11
-2137.220851380619
 21
83.73729378407006
 31
0.0
  0
LINE
  5
3ECE
330
1F
100
AcDbEntity
  8
SPOJOVACÍ
100
AcDbLine
 10
-2138.9238680982
 20
81.52687249492464
 30
0.0
 11
-2137.220851380619
 21
79.31645120578014
 31
0.0
  0
LINE
  5
3ECF
330
1F
100
AcDbEntity
  8
SPOJOVACÍ
100
AcDbLine
 10
-2137.004136248008
 20
83.73729378407006
 30
0.0
 11
-2137.938953570892
 21
80.2485080392671
 31
0.0
  0
LINE
  5
3ED0
330
1F
100
AcDbEntity
  8
SPOJOVACÍ
100
AcDbLine
 10
-2134.543198748008
 20
83.73729378407006
 30
0.0
 11
-2135.727759946725
 21
79.31645120578014
 31
0.0
  0
LINE
  5
3ED1
330
1F
100
AcDbEntity
  8
SPOJOVACÍ
100
AcDbLine
 10
-2132.082261248008
 20
83.73729378407006
 30
0.0
 11
-2133.266822446725
 21
79.31645120578014
 31
0.0
  0
LINE
  5
3ED2
330
1F
100
AcDbEntity
  8
SPOJOVACÍ
100
AcDbLine
 10
-2130.851792498006
 20
83.73729378407006
 30
0.0
 11
-2132.036353696725
 21
79.31645120578014
 31
0.0
  0
LINE
  5
3ED3
330
1F
100
AcDbEntity
  8
SPOJOVACÍ
100
AcDbLine
 10
-2133.312729998007
 20
83.73729378407006
 30
0.0
 11
-2134.497291196727
 21
79.31645120578014
 31
0.0
  0
LINE
  5
3ED4
330
1F
100
AcDbEntity
  8
SPOJOVACÍ
100
AcDbLine
 10
-2130.623235797289
 20
75.98976311992465
 30
0.0
 11
-2130.623235797289
 21
81.52687249492464
 31
0.0
  0
LINE
  5
3ED5
330
1F
100
AcDbEntity
  8
SPOJOVACÍ
100
AcDbLine
 10
-2130.623235797289
 20
81.52687249492464
 30
0.0
 11
-2130.623235797289
 21
87.06398186992464
 31
0.0
  0
LINE
  5
3ED6
330
1F
100
AcDbEntity
  8
SPOJOVACÍ
100
AcDbLine
 10
-2137.220851380619
 20
79.31645120578014
 30
0.0
 11
-2130.623235797289
 21
79.31645120578014
 31
0.0
  0
LINE
  5
3ED7
330
1F
100
AcDbEntity
  8
SPOJOVACÍ
100
AcDbLine
 10
-2137.220851380619
 20
83.73729378407006
 30
0.0
 11
-2130.623235797289
 21
83.73729378407006
 31
0.0
  0
ARC
  5
3ED8
330
1F
100
AcDbEntity
  8
SPOJOVACÍ
100
AcDbCircle
 10
-2134.933535866086
 20
81.52687249492464
 30
0.0
 40
7.016998426235272
100
AcDbArc
 50
307.8985698078477
 51
52.10143019215225
  0
ARC
  5
3ED9
330
1F
100
AcDbEntity
  8
SPOJOVACÍ
100
AcDbCircle
 10
-2115.182331551279
 20
97.77034659155924
 30
0.0
 40
7.016998426235272
100
AcDbArc
 50
37.89856980784375
 51
142.1014301921562
  0
LINE
  5
3EDA
330
1F
100
AcDbEntity
  8
SPOJOVACÍ
100
AcDbLine
 10
-2115.182331551279
 20
102.0806466603562
 30
0.0
 11
-2109.645222176279
 21
102.0806466603562
 31
0.0
  0
LINE
  5
3EDB
330
1F
100
AcDbEntity
  8
NOSNÉ KONSTRUKCE
100
AcDbLine
 10
-2134.289059543485
 20
99.9897863655633
 30
0.0
 11
-2081.799982236499
 21
99.9897863655633
 31
0.0
  0
LINE
  5
3EDC
330
1F
100
AcDbEntity
  8
NOSNÉ KONSTRUKCE
100
AcDbLine
 10
-2081.799982236499
 20
98.31362575290677
 30
0.0
 11
-2134.289059543485
 21
98.31362575290677
 31
0.0
  0
LINE
  5
3EDD
330
1F
100
AcDbEntity
  8
NOSNÉ KONSTRUKCE
100
AcDbLine
 10
-2128.61448296836
 20
96.54400311339031
 30
0.0
 11
-2074.244482999054
 21
96.54400311339031
 31
0.0
  0
LINE
  5
3EDE
330
1F
100
AcDbEntity
  8
NOSNÉ KONSTRUKCE
100
AcDbLine
 10
-2075.385404800434
 20
97.98143352386524
 30
0.0
 11
-2128.614482968358
 21
97.98143352386524
 31
0.0
  0
LINE
  5
3EDF
330
1F
100
AcDbEntity
  8
SPOJOVACÍ
100
AcDbLine
 10
-2112.971910262133
 20
98.16068370963785
 30
0.0
 11
-2117.392752840423
 21
96.97612251092051
 31
0.0
  0
LINE
  5
3EE0
330
1F
100
AcDbEntity
  8
SPOJOVACÍ
100
AcDbLine
 10
-2112.971910262133
 20
100.6216212096378
 30
0.0
 11
-2117.392752840423
 21
99.4370600109196
 31
0.0
  0
LINE
  5
3EE1
330
1F
100
AcDbEntity
  8
SPOJOVACÍ
100
AcDbLine
 10
-2112.971910262133
 20
101.8520899596396
 30
0.0
 11
-2117.392752840423
 21
100.6675287609205
 31
0.0
  0
LINE
  5
3EE2
330
1F
100
AcDbEntity
  8
SPOJOVACÍ
100
AcDbLine
 10
-2112.971910262133
 20
99.39115245963785
 30
0.0
 11
-2117.392752840423
 21
98.20659126091868
 31
0.0
  0
LINE
  5
3EE3
330
1F
100
AcDbEntity
  8
SPOJOVACÍ
100
AcDbLine
 10
-2120.719440926279
 20
102.0806466603562
 30
0.0
 11
-2115.182331551279
 21
102.0806466603562
 31
0.0
  0
LINE
  5
3EE4
330
1F
100
AcDbEntity
  8
NOSNÉ KONSTRUKCE
100
AcDbLine
 10
-2128.61448296836
 20
101.69992102996
 30
0.0
 11
-2128.61448296836
 21
100.2624906194851
 31
0.0
  0
LINE
  5
3EE5
330
1F
100
AcDbEntity
  8
NOSNÉ KONSTRUKCE
100
AcDbLine
 10
-2128.614482968358
 20
97.98143352386524
 30
0.0
 11
-2128.61448296836
 21
96.54400311339031
 31
0.0
  0
LINE
  5
3EE6
330
1F
100
AcDbEntity
  8
NOSNÉ KONSTRUKCE
100
AcDbLine
 10
-2139.192822763265
 20
119.5730811146704
 30
0.0
 11
-2136.815146975486
 21
119.5730811146704
 31
0.0
  0
LINE
  5
3EE7
330
1F
100
AcDbEntity
  8
NOSNÉ KONSTRUKCE
100
AcDbLine
 10
-2081.799982236499
 20
99.9897863655633
 30
0.0
 11
-2081.799982236499
 21
98.31362575290677
 31
0.0
  0
LINE
  5
3EE8
330
1F
100
AcDbEntity
  8
NOSNÉ KONSTRUKCE
100
AcDbLine
 10
-2075.385404800434
 20
97.98143352386524
 30
0.0
 11
-2071.380296440429
 21
100.2624906194814
 31
0.0
  0
LINE
  5
3EE9
330
1F
100
AcDbEntity
  8
NOSNÉ KONSTRUKCE
100
AcDbLine
 10
-2074.244482999054
 20
96.54400311339031
 30
0.0
 11
-2068.587938168524
 21
100.262490619481
 31
0.0
  0
ARC
  5
3EEA
330
1F
100
AcDbEntity
  8
NOSNÉ KONSTRUKCE
100
AcDbCircle
 10
-2088.503086755479
 20
103.5063980620752
 30
0.0
 40
2.0
100
AcDbArc
 50
90.0
 51
137.8930566009686
  0
LINE
  5
3EEB
330
1F
100
AcDbEntity
  8
NOSNÉ KONSTRUKCE
100
AcDbLine
 10
-2089.986875935001
 20
104.8474311230897
 30
0.0
 11
-2092.831562466634
 21
101.6999210299573
 31
0.0
  0
INSERT
  5
3EEC
330
1F
100
AcDbEntity
  8
POPIS
100
AcDbBlockReference
  2
E_PUNKT
 10
-2042.517790105424
 20
105.4773297312049
 30
0.0
  0
LINE
  5
3EED
330
1F
100
AcDbEntity
  8
POPIS
100
AcDbLine
 10
-2306.465191224832
 20
-19.5390005891395
 30
0.0
 11
-2069.700334668077
 21
-19.5390005891395
 31
0.0
  0
LINE
  5
3EEE
330
1F
100
AcDbEntity
  8
POPIS
100
AcDbLine
 10
-2306.465191224832
 20
31.09567851733209
 30
0.0
 11
-2133.39475550287
 21
31.09567851733209
 31
0.0
  0
LINE
  5
3EEF
330
1F
100
AcDbEntity
  8
SPOJOVACÍ
100
AcDbLine
 10
-2112.437943509811
 20
-125.615794520715
 30
0.0
 11
-2105.318802884811
 21
-125.615794520715
 31
0.0
  0
HATCH
  5
3EF0
330
1F
100
AcDbEntity
  8
SPOJOVACÍ
100
AcDbHatch
 10
0.0
 20
0.0
 30
0.0
210
0.0
220
0.0
230
1.0
  2
ANSI37
 70
     0
 71
     0
 91
        1
 92
        7
 72
     0
 73
     1
 93
        6
 10
-2112.437943509811
 20
-125.615794520715
 10
-2112.437943509811
 20
-127.3026143791917
 10
-2105.318802884811
 20
-127.3026143791917
 10
-2098.19966225981
 20
-127.3026143791917
 10
-2098.19966225981
 20
-125.615794520715
 10
-2105.318802884811
 20
-125.615794520715
 97
        0
 75
     0
 76
     1
 52
90.0
 41
0.9
 77
     0
 78
     2
 53
135.0
 43
-1654.424872449692
 44
-458.8875697346739
 45
-2.020557627240559
 46
-2.020557627240559
 79
     0
 53
225.0
 43
-1654.424872449692
 44
-458.8875697346739
 45
2.020557627240559
 46
-2.020557627240559
 79
     0
 47
0.1350114543121608
 98
        1
 10
-2105.346168902613
 20
-126.7038840130621
  0
LINE
  5
3EF1
330
1F
100
AcDbEntity
  8
SPOJOVACÍ
100
AcDbLine
 10
-2105.318802884811
 20
-127.3026143791917
 30
0.0
 11
-2112.437943509811
 21
-127.3026143791917
 31
0.0
  0
LINE
  5
3EF2
330
1F
100
AcDbEntity
  8
SPOJOVACÍ
100
AcDbLine
 10
-2122.337657179909
 20
-77.99433570856945
 30
0.0
 11
-2124.527250102512
 21
-75.15236547966878
 31
0.0
  0
LINE
  5
3EF3
330
1F
100
AcDbEntity
  8
SPOJOVACÍ
100
AcDbLine
 10
-2122.337657179909
 20
-77.99433570856945
 30
0.0
 11
-2124.527250102512
 21
-80.83630593746921
 31
0.0
  0
LINE
  5
3EF4
330
1F
100
AcDbEntity
  8
SPOJOVACÍ
100
AcDbLine
 10
-2124.309426050873
 20
-80.83630593746921
 30
0.0
 11
-2123.235624483182
 21
-76.82882392960346
 31
0.0
  0
LINE
  5
3EF5
330
1F
100
AcDbEntity
  8
SPOJOVACÍ
100
AcDbLine
 10
-2125.891457300875
 20
-80.83630593746921
 30
0.0
 11
-2124.368450045378
 21
-75.15236547966878
 31
0.0
  0
LINE
  5
3EF6
330
1F
100
AcDbEntity
  8
SPOJOVACÍ
100
AcDbLine
 10
-2127.473488550871
 20
-80.83630593746921
 30
0.0
 11
-2125.95048129538
 21
-75.15236547966878
 31
0.0
  0
LINE
  5
3EF7
330
1F
100
AcDbEntity
  8
SPOJOVACÍ
100
AcDbLine
 10
-2129.055519800871
 20
-80.83630593746921
 30
0.0
 11
-2127.53251254538
 21
-75.15236547966878
 31
0.0
  0
LINE
  5
3EF8
330
1F
100
AcDbEntity
  8
SPOJOVACÍ
100
AcDbLine
 10
-2112.437943509811
 20
-125.615794520715
 30
0.0
 11
-2112.437943509811
 21
-127.3026143791917
 31
0.0
  0
LINE
  5
3EF9
330
1F
100
AcDbEntity
  8
SPOJOVACÍ
100
AcDbLine
 10
-2153.294239875373
 20
-70.87519508356945
 30
0.0
 11
-2153.294239875373
 21
-77.99433570856945
 31
0.0
  0
LINE
  5
3EFA
330
1F
100
AcDbEntity
  8
SPOJOVACÍ
100
AcDbLine
 10
-2153.294239875373
 20
-77.99433570856945
 30
0.0
 11
-2153.294239875373
 21
-85.11347633356946
 31
0.0
  0
INSERT
  5
3EFB
330
1F
100
AcDbEntity
  8
POPIS
100
AcDbBlockReference
  2
E_PUNKT
 10
-2160.392146816482
 20
-77.62280879335867
 30
0.0
  0
HATCH
  5
3EFC
330
1F
100
AcDbEntity
  8
SPOJOVACÍ
100
AcDbHatch
 10
0.0
 20
0.0
 30
0.0
210
0.0
220
0.0
230
1.0
  2
ANSI37
 70
     0
 71
     0
 91
        1
 92
        7
 72
     0
 73
     1
 93
        6
 10
-2153.294239875373
 20
-70.87519508356945
 10
-2154.981059733851
 20
-70.87519508356945
 10
-2154.981059733851
 20
-77.99433570856945
 10
-2154.981059733851
 20
-85.11347633356946
 10
-2153.294239875373
 20
-85.11347633356946
 10
-2153.294239875373
 20
-77.99433570856945
 97
        0
 75
     0
 76
     1
 52
0.0
 41
0.9
 77
     0
 78
     2
 53
45.00000000000001
 43
-2486.566015089332
 44
-528.8882661436864
 45
-2.020557627240559
 46
2.020557627240559
 79
     0
 53
135.0
 43
-2486.566015089332
 44
-528.8882661436864
 45
-2.020557627240559
 46
-2.020557627240559
 79
     0
 47
0.1350114543121608
 98
        1
 10
-2154.382329367719
 20
-77.96696969076492
  0
LINE
  5
3EFD
330
1F
100
AcDbEntity
  8
SPOJOVACÍ
100
AcDbLine
 10
-2154.981059733851
 20
-77.99433570856945
 30
0.0
 11
-2154.981059733851
 21
-70.87519508356945
 31
0.0
  0
LINE
  5
3EFE
330
1F
100
AcDbEntity
  8
SPOJOVACÍ
100
AcDbLine
 10
-2154.164783405327
 20
-72.77363258356945
 30
0.0
 11
-2154.169529499077
 21
-72.77363258356945
 31
0.0
  0
LINE
  5
3EFF
330
1F
100
AcDbEntity
  8
SPOJOVACÍ
100
AcDbLine
 10
-2153.294239875373
 20
-70.87519508356945
 30
0.0
 11
-2154.981059733851
 21
-70.87519508356945
 31
0.0
  0
ARC
  5
3F00
330
1F
100
AcDbEntity
  8
SPOJOVACÍ
100
AcDbCircle
 10
-2158.689828423316
 20
-74.67207008356945
 30
0.0
 40
0.94921875
100
AcDbArc
 50
180.0
 51
270.0
  0
ARC
  5
3F01
330
1F
100
AcDbEntity
  8
SPOJOVACÍ
100
AcDbCircle
 10
-2158.689828423316
 20
-73.72285133356945
 30
0.0
 40
0.94921875
100
AcDbArc
 50
90.0
 51
180.0
  0
LINE
  5
3F02
330
1F
100
AcDbEntity
  8
SPOJOVACÍ
100
AcDbLine
 10
-2154.981059733851
 20
-75.62128883356945
 30
0.0
 11
-2158.689828423316
 21
-75.62128883356945
 31
0.0
  0
LINE
  5
3F03
330
1F
100
AcDbEntity
  8
SPOJOVACÍ
100
AcDbLine
 10
-2154.981059733851
 20
-72.77363258356945
 30
0.0
 11
-2158.689828423316
 21
-72.77363258356945
 31
0.0
  0
LINE
  5
3F04
330
1F
100
AcDbEntity
  8
SPOJOVACÍ
100
AcDbLine
 10
-2154.981059733851
 20
-85.11347633356946
 30
0.0
 11
-2153.294239875373
 21
-85.11347633356946
 31
0.0
  0
ARC
  5
3F05
330
1F
100
AcDbEntity
  8
SPOJOVACÍ
100
AcDbCircle
 10
-2158.689828423316
 20
-82.26582008356945
 30
0.0
 40
0.94921875
100
AcDbArc
 50
180.0
 51
270.0
  0
ARC
  5
3F06
330
1F
100
AcDbEntity
  8
SPOJOVACÍ
100
AcDbCircle
 10
-2158.689828423316
 20
-81.31660133356945
 30
0.0
 40
0.94921875
100
AcDbArc
 50
90.0
 51
180.0
  0
LINE
  5
3F07
330
1F
100
AcDbEntity
  8
SPOJOVACÍ
100
AcDbLine
 10
-2158.689828423316
 20
-83.21503883356944
 30
0.0
 11
-2154.981059733851
 21
-83.21503883356944
 31
0.0
  0
LINE
  5
3F08
330
1F
100
AcDbEntity
  8
SPOJOVACÍ
100
AcDbLine
 10
-2154.981059733851
 20
-80.36738258356946
 30
0.0
 11
-2158.689828423316
 21
-80.36738258356946
 31
0.0
  0
LINE
  5
3F09
330
1F
100
AcDbEntity
  8
SPOJOVACÍ
100
AcDbLine
 10
-2154.981059733851
 20
-74.15836753150506
 30
0.0
 11
-2154.981059733851
 21
-85.11347633356946
 31
0.0
  0
LINE
  5
3F0A
330
1F
100
AcDbEntity
  8
SPOJOVACÍ
100
AcDbLine
 10
-2159.639047173315
 20
-73.72285133356945
 30
0.0
 11
-2159.639047173315
 21
-82.26582008356945
 31
0.0
  0
ARC
  5
3F0B
330
1F
100
AcDbEntity
  8
SPOJOVACÍ
100
AcDbCircle
 10
-2156.265108259103
 20
-77.99433570856945
 30
0.0
 40
3.392730367372068
100
AcDbArc
 50
135.6170676673749
 51
224.382932332625
  0
LINE
  5
3F0C
330
1F
100
AcDbEntity
  8
SPOJOVACÍ
100
AcDbLine
 10
-2132.219582300873
 20
-80.83630593746921
 30
0.0
 11
-2130.696575045378
 21
-75.15236547966878
 31
0.0
  0
LINE
  5
3F0D
330
1F
100
AcDbEntity
  8
SPOJOVACÍ
100
AcDbLine
 10
-2133.801613550875
 20
-80.83630593746921
 30
0.0
 11
-2132.278606295378
 21
-75.15236547966878
 31
0.0
  0
LINE
  5
3F0E
330
1F
100
AcDbEntity
  8
SPOJOVACÍ
100
AcDbLine
 10
-2136.965676050871
 20
-80.83630593746921
 30
0.0
 11
-2135.442668795378
 21
-75.15236547966878
 31
0.0
  0
LINE
  5
3F0F
330
1F
100
AcDbEntity
  8
SPOJOVACÍ
100
AcDbLine
 10
-2135.383644800871
 20
-80.83630593746921
 30
0.0
 11
-2133.860637545378
 21
-75.15236547966878
 31
0.0
  0
LINE
  5
3F10
330
1F
100
AcDbEntity
  8
SPOJOVACÍ
100
AcDbLine
 10
-2138.547707300871
 20
-80.83630593746921
 30
0.0
 11
-2137.024700045376
 21
-75.15236547966878
 31
0.0
  0
LINE
  5
3F11
330
1F
100
AcDbEntity
  8
SPOJOVACÍ
100
AcDbLine
 10
-2140.129738550869
 20
-80.83630593746921
 30
0.0
 11
-2138.606731295378
 21
-75.15236547966878
 31
0.0
  0
LINE
  5
3F12
330
1F
100
AcDbEntity
  8
SPOJOVACÍ
100
AcDbLine
 10
-2141.711769800871
 20
-80.83630593746921
 30
0.0
 11
-2140.188762545378
 21
-75.15236547966878
 31
0.0
  0
LINE
  5
3F13
330
1F
100
AcDbEntity
  8
SPOJOVACÍ
100
AcDbLine
 10
-2143.293801050871
 20
-80.83630593746921
 30
0.0
 11
-2141.770793795376
 21
-75.15236547966878
 31
0.0
  0
LINE
  5
3F14
330
1F
100
AcDbEntity
  8
SPOJOVACÍ
100
AcDbLine
 10
-2148.039894800871
 20
-80.83630593746921
 30
0.0
 11
-2146.516887545376
 21
-75.15236547966878
 31
0.0
  0
LINE
  5
3F15
330
1F
100
AcDbEntity
  8
SPOJOVACÍ
100
AcDbLine
 10
-2146.457863550873
 20
-80.83630593746921
 30
0.0
 11
-2144.934856295376
 21
-75.15236547966878
 31
0.0
  0
LINE
  5
3F16
330
1F
100
AcDbEntity
  8
SPOJOVACÍ
100
AcDbLine
 10
-2144.875832300871
 20
-80.83630593746921
 30
0.0
 11
-2143.352825045376
 21
-75.15236547966878
 31
0.0
  0
LINE
  5
3F17
330
1F
100
AcDbEntity
  8
SPOJOVACÍ
100
AcDbLine
 10
-2151.203957300869
 20
-80.83630593746921
 30
0.0
 11
-2149.680950045378
 21
-75.15236547966878
 31
0.0
  0
LINE
  5
3F18
330
1F
100
AcDbEntity
  8
SPOJOVACÍ
100
AcDbLine
 10
-2149.621926050871
 20
-80.83630593746921
 30
0.0
 11
-2148.098918795376
 21
-75.15236547966878
 31
0.0
  0
LINE
  5
3F19
330
1F
100
AcDbEntity
  8
SPOJOVACÍ
100
AcDbLine
 10
-2130.637551050873
 20
-80.83630593746921
 30
0.0
 11
-2129.11454379538
 21
-75.15236547966878
 31
0.0
  0
LINE
  5
3F1A
330
1F
100
AcDbEntity
  8
SPOJOVACÍ
100
AcDbLine
 10
-2124.527250102512
 20
-80.83630593746921
 30
0.0
 11
-2153.294239875373
 21
-80.83630593746921
 31
0.0
  0
LINE
  5
3F1B
330
1F
100
AcDbEntity
  8
SPOJOVACÍ
100
AcDbLine
 10
-2124.527250102512
 20
-75.15236547966878
 30
0.0
 11
-2153.294239875373
 21
-75.15236547966878
 31
0.0
  0
LINE
  5
3F1C
330
1F
100
AcDbEntity
  8
SPOJOVACÍ
100
AcDbLine
 10
-2102.476832655909
 20
-102.9591056962144
 30
0.0
 11
-2108.160773113711
 21
-101.4360984407212
 31
0.0
  0
LINE
  5
3F1D
330
1F
100
AcDbEntity
  8
SPOJOVACÍ
100
AcDbLine
 10
-2105.318802884811
 20
-125.615794520715
 30
0.0
 11
-2098.19966225981
 21
-125.615794520715
 31
0.0
  0
LINE
  5
3F1E
330
1F
100
AcDbEntity
  8
SPOJOVACÍ
100
AcDbLine
 10
-2110.53950600981
 20
-126.4863380506694
 30
0.0
 11
-2110.53950600981
 21
-126.4910841444188
 31
0.0
  0
ARC
  5
3F1F
330
1F
100
AcDbEntity
  8
SPOJOVACÍ
100
AcDbCircle
 10
-2108.641068509811
 20
-131.0113830686586
 30
0.0
 40
0.94921875
100
AcDbArc
 50
270.0
 51
0.0
  0
ARC
  5
3F20
330
1F
100
AcDbEntity
  8
SPOJOVACÍ
100
AcDbCircle
 10
-2109.59028725981
 20
-131.0113830686586
 30
0.0
 40
0.94921875
100
AcDbArc
 50
180.0
 51
270.0
  0
LINE
  5
3F21
330
1F
100
AcDbEntity
  8
SPOJOVACÍ
100
AcDbLine
 10
-2107.69184975981
 20
-127.3026143791917
 30
0.0
 11
-2107.69184975981
 21
-131.0113830686586
 31
0.0
  0
LINE
  5
3F22
330
1F
100
AcDbEntity
  8
SPOJOVACÍ
100
AcDbLine
 10
-2110.53950600981
 20
-127.3026143791917
 30
0.0
 11
-2110.53950600981
 21
-131.0113830686586
 31
0.0
  0
LINE
  5
3F23
330
1F
100
AcDbEntity
  8
SPOJOVACÍ
100
AcDbLine
 10
-2098.19966225981
 20
-127.3026143791917
 30
0.0
 11
-2098.19966225981
 21
-125.615794520715
 31
0.0
  0
ARC
  5
3F24
330
1F
100
AcDbEntity
  8
SPOJOVACÍ
100
AcDbCircle
 10
-2101.04731850981
 20
-131.0113830686586
 30
0.0
 40
0.94921875
100
AcDbArc
 50
270.0
 51
0.0
  0
ARC
  5
3F25
330
1F
100
AcDbEntity
  8
SPOJOVACÍ
100
AcDbCircle
 10
-2101.996537259811
 20
-131.0113830686586
 30
0.0
 40
0.94921875
100
AcDbArc
 50
180.0
 51
270.0
  0
LINE
  5
3F26
330
1F
100
AcDbEntity
  8
SPOJOVACÍ
100
AcDbLine
 10
-2100.098099759811
 20
-131.0113830686586
 30
0.0
 11
-2100.098099759811
 21
-127.3026143791917
 31
0.0
  0
LINE
  5
3F27
330
1F
100
AcDbEntity
  8
SPOJOVACÍ
100
AcDbLine
 10
-2102.94575600981
 20
-127.3026143791917
 30
0.0
 11
-2102.94575600981
 21
-131.0113830686586
 31
0.0
  0
LINE
  5
3F28
330
1F
100
AcDbEntity
  8
SPOJOVACÍ
100
AcDbLine
 10
-2109.154771061876
 20
-127.3026143791917
 30
0.0
 11
-2098.19966225981
 21
-127.3026143791917
 31
0.0
  0
LINE
  5
3F29
330
1F
100
AcDbEntity
  8
SPOJOVACÍ
100
AcDbLine
 10
-2109.59028725981
 20
-131.9606018186586
 30
0.0
 11
-2101.04731850981
 21
-131.9606018186586
 31
0.0
  0
ARC
  5
3F2A
330
1F
100
AcDbEntity
  8
SPOJOVACÍ
100
AcDbCircle
 10
-2105.318802884811
 20
-128.5866629044458
 30
0.0
 40
3.392730367372068
100
AcDbArc
 50
225.6170676674301
 51
314.3829323325698
  0
LINE
  5
3F2B
330
1F
100
AcDbEntity
  8
SPOJOVACÍ
100
AcDbLine
 10
-2102.476832655909
 20
-104.5411369462144
 30
0.0
 11
-2108.160773113711
 21
-103.0181296907198
 31
0.0
  0
LINE
  5
3F2C
330
1F
100
AcDbEntity
  8
SPOJOVACÍ
100
AcDbLine
 10
-2102.476832655909
 20
-106.1231681962162
 30
0.0
 11
-2108.160773113711
 21
-104.6001609407198
 31
0.0
  0
LINE
  5
3F2D
330
1F
100
AcDbEntity
  8
SPOJOVACÍ
100
AcDbLine
 10
-2102.476832655909
 20
-109.2872306962126
 30
0.0
 11
-2108.160773113711
 21
-107.7642234407198
 31
0.0
  0
LINE
  5
3F2E
330
1F
100
AcDbEntity
  8
SPOJOVACÍ
100
AcDbLine
 10
-2102.476832655909
 20
-107.7051994462126
 30
0.0
 11
-2108.160773113711
 21
-106.1821921907198
 31
0.0
  0
LINE
  5
3F2F
330
1F
100
AcDbEntity
  8
SPOJOVACÍ
100
AcDbLine
 10
-2102.476832655909
 20
-110.8692619462135
 30
0.0
 11
-2108.160773113711
 21
-109.3462546907185
 31
0.0
  0
LINE
  5
3F30
330
1F
100
AcDbEntity
  8
SPOJOVACÍ
100
AcDbLine
 10
-2102.476832655909
 20
-112.4512931962112
 30
0.0
 11
-2108.160773113711
 21
-110.9282859407198
 31
0.0
  0
LINE
  5
3F31
330
1F
100
AcDbEntity
  8
SPOJOVACÍ
100
AcDbLine
 10
-2102.476832655909
 20
-114.0333244462121
 30
0.0
 11
-2108.160773113711
 21
-112.5103171907198
 31
0.0
  0
LINE
  5
3F32
330
1F
100
AcDbEntity
  8
SPOJOVACÍ
100
AcDbLine
 10
-2102.476832655909
 20
-115.6153556962126
 30
0.0
 11
-2108.160773113711
 21
-114.0923484407194
 31
0.0
  0
LINE
  5
3F33
330
1F
100
AcDbEntity
  8
SPOJOVACÍ
100
AcDbLine
 10
-2102.476832655909
 20
-120.3614494462135
 30
0.0
 11
-2108.160773113711
 21
-118.8384421907185
 31
0.0
  0
LINE
  5
3F34
330
1F
100
AcDbEntity
  8
SPOJOVACÍ
100
AcDbLine
 10
-2102.476832655909
 20
-118.7794181962144
 30
0.0
 11
-2108.160773113711
 21
-117.2564109407185
 31
0.0
  0
LINE
  5
3F35
330
1F
100
AcDbEntity
  8
SPOJOVACÍ
100
AcDbLine
 10
-2102.476832655909
 20
-117.1973869462126
 30
0.0
 11
-2108.160773113711
 21
-115.6743796907185
 31
0.0
  0
LINE
  5
3F36
330
1F
100
AcDbEntity
  8
SPOJOVACÍ
100
AcDbLine
 10
-2102.476832655909
 20
-123.5255119462112
 30
0.0
 11
-2108.160773113711
 21
-122.0025046907198
 31
0.0
  0
LINE
  5
3F37
330
1F
100
AcDbEntity
  8
SPOJOVACÍ
100
AcDbLine
 10
-2102.476832655909
 20
-121.9434806962126
 30
0.0
 11
-2108.160773113711
 21
-120.4204734407194
 31
0.0
  0
LINE
  5
3F38
330
1F
100
AcDbEntity
  8
SPOJOVACÍ
100
AcDbLine
 10
-2105.318802884811
 20
-94.65921182525107
 30
0.0
 11
-2108.160773113711
 21
-96.84880474785405
 31
0.0
  0
LINE
  5
3F39
330
1F
100
AcDbEntity
  8
SPOJOVACÍ
100
AcDbLine
 10
-2105.318802884811
 20
-94.65921182525107
 30
0.0
 11
-2102.476832655909
 21
-96.84880474785405
 31
0.0
  0
LINE
  5
3F3A
330
1F
100
AcDbEntity
  8
SPOJOVACÍ
100
AcDbLine
 10
-2102.476832655909
 20
-96.63098069621447
 30
0.0
 11
-2106.484314663775
 21
-95.55717912852561
 31
0.0
  0
LINE
  5
3F3B
330
1F
100
AcDbEntity
  8
SPOJOVACÍ
100
AcDbLine
 10
-2102.476832655909
 20
-98.21301194621538
 30
0.0
 11
-2108.160773113711
 21
-96.69000469071988
 31
0.0
  0
LINE
  5
3F3C
330
1F
100
AcDbEntity
  8
SPOJOVACÍ
100
AcDbLine
 10
-2102.476832655909
 20
-99.79504319621355
 30
0.0
 11
-2108.160773113711
 21
-98.27203594072216
 31
0.0
  0
LINE
  5
3F3D
330
1F
100
AcDbEntity
  8
SPOJOVACÍ
100
AcDbLine
 10
-2102.476832655909
 20
-101.3770744462135
 30
0.0
 11
-2108.160773113711
 21
-99.85406719072125
 31
0.0
  0
LINE
  5
3F3E
330
1F
100
AcDbEntity
  8
SPOJOVACÍ
100
AcDbLine
 10
-2102.476832655909
 20
-96.84880474785405
 30
0.0
 11
-2102.476832655909
 21
-125.615794520715
 31
0.0
  0
LINE
  5
3F3F
330
1F
100
AcDbEntity
  8
SPOJOVACÍ
100
AcDbLine
 10
-2108.160773113711
 20
-96.84880474785405
 30
0.0
 11
-2108.160773113711
 21
-125.615794520715
 31
0.0
  0
LINE
  5
3F40
330
1F
100
AcDbEntity
  8
PROFILY
100
AcDbLine
 10
-2136.178201895814
 20
-109.1820015241946
 30
0.0
 11
-2136.178201895816
 21
-59.77773970513317
 31
0.0
  0
LINE
  5
3F41
330
1F
100
AcDbEntity
  8
PROFILY
100
AcDbLine
 10
-2136.178201895814
 20
-59.77773970513317
 30
0.0
 11
-2138.523475274334
 21
-59.77773970513317
 31
0.0
  0
LINE
  5
3F42
330
1F
100
AcDbEntity
  8
PROFILY
100
AcDbLine
 10
-2138.523475274336
 20
-59.77773970513317
 30
0.0
 11
-2138.523475274336
 21
-111.5156710792334
 31
0.0
  0
LINE
  5
3F43
330
1F
100
AcDbEntity
  8
PROFILY
100
AcDbLine
 10
-2086.785543900232
 20
-111.5156710792343
 30
0.0
 11
-2138.523475274336
 21
-111.5156710792334
 31
0.0
  0
LINE
  5
3F44
330
1F
100
AcDbEntity
  8
PROFILY
100
AcDbLine
 10
-2136.178201895814
 20
-109.1820015241946
 30
0.0
 11
-2086.785543900232
 21
-109.1820015241946
 31
0.0
  0
LINE
  5
3F45
330
1F
100
AcDbEntity
  8
PROFILY
100
AcDbLine
 10
-2086.785543900232
 20
-109.1820015241946
 30
0.0
 11
-2086.785543900232
 21
-111.5156710792343
 31
0.0
  0
HATCH
  5
3F46
330
1F
100
AcDbEntity
  8
PROFILY
100
AcDbHatch
 10
0.0
 20
0.0
 30
0.0
210
0.0
220
0.0
230
1.0
  2
SOLID
 70
     1
 71
     0
 91
        3
 92
        7
 72
     0
 73
     1
 93
        6
 10
-2108.497586059117
 20
-109.1820015241946
 10
-2136.178201895816
 20
-109.1820015241946
 10
-2136.178201895814
 20
-81.15208040734751
 10
-2138.523475274336
 20
-81.15208040734751
 10
-2138.523475274336
 20
-111.515671079233
 10
-2108.497586059117
 20
-111.5156710792339
 97
        0
 92
        7
 72
     0
 73
     1
 93
        4
 10
-2136.178201895816
 20
-59.77773970513317
 10
-2138.523475274336
 20
-59.77773970513317
 10
-2138.523475274334
 20
-74.83659100979093
 10
-2136.178201895816
 20
-74.83659100979093
 97
        0
 92
        7
 72
     0
 73
     1
 93
        4
 10
-2086.785543900232
 20
-109.1820015241946
 10
-2102.182096661557
 20
-109.1820015241946
 10
-2102.182096661557
 20
-111.5156710792334
 10
-2086.78554390023
 20
-111.5156710792343
 97
        0
 75
     0
 76
     1
 47
0.2629182711253479
 98
        3
 10
-2133.085671480546
 20
-109.8676724127153
 10
-2137.558068079072
 20
-68.58950102481776
 10
-2090.729656685469
 20
-109.3418263619178
  0
LINE
  5
3F47
330
1F
100
AcDbEntity
  8
POPIS
100
AcDbLine
 10
-2160.344025761975
 20
-128.448344393314
 30
0.0
 11
-2138.523475274336
 21
-111.5156710792334
 31
0.0
  0
INSERT
  5
3F48
330
1F
100
AcDbEntity
  8
POPIS
100
AcDbBlockReference
  2
E_PUNKT
 10
-2138.57159632884
 20
-111.540353905284
 30
0.0
  0
LINE
  5
3F49
330
1F
100
AcDbEntity
  8
POPIS
100
AcDbLine
 10
-2306.465191224832
 20
-77.67568430685878
 30
0.0
 11
-2160.344025761975
 21
-77.67568430685878
 31
0.0
  0
LINE
  5
3F4A
330
1F
100
AcDbEntity
  8
POPIS
100
AcDbLine
 10
-2306.465191224832
 20
-128.448344393314
 30
0.0
 11
-2160.344025761975
 21
-128.448344393314
 31
0.0
  0
LWPOLYLINE
  5
3F4B
330
1F
100
AcDbEntity
  8
NOSNÉ KONSTRUKCE
100
AcDbPolyline
 90
        4
 70
     1
 43
0.0
 10
-2133.762601176282
 20
87.76495152752886
 10
-2131.009008206017
 20
87.76495152752886
 10
-2131.009008206017
 20
-106.754796981183
 10
-2133.762601176282
 20
-106.754796981183
  0
INSERT
  5
3F4C
330
1F
100
AcDbEntity
  8
POPIS
100
AcDbBlockReference
  2
E_PUNKT
 10
-2068.482758771247
 20
-19.45847354198758
 30
0.0
  0
TEXT
  5
3F4D
330
1F
100
AcDbEntity
  8
POPIS
100
AcDbText
 10
-2347.000626519382
 20
-91.11902575622934
 30
0.0
 40
25.0
  1
02
 41
0.7
  7
SIMPLEX7
100
AcDbText
  0
TEXT
  5
3F4E
330
1F
100
AcDbEntity
  8
POPIS
100
AcDbText
 10
-2347.000626519382
 20
-32.98234203851007
 30
0.0
 40
25.0
  1
08
 41
0.7
  7
SIMPLEX7
100
AcDbText
  0
TEXT
  5
3F4F
330
1F
100
AcDbEntity
  8
POPIS
100
AcDbText
 10
-2347.000626519382
 20
17.65233706796152
 30
0.0
 40
25.0
  1
07
 41
0.7
  7
SIMPLEX7
100
AcDbText
  0
TEXT
  5
3F50
330
1F
100
AcDbEntity
  8
POPIS
100
AcDbText
 10
-2347.000626519382
 20
-141.8916858426846
 30
0.0
 40
25.0
  1
09
 41
0.7
  7
SIMPLEX7
100
AcDbText
  0
LINE
  5
3F51
330
1F
100
AcDbEntity
  8
POPIS
100
AcDbLine
 10
-2042.490179729798
 20
105.5063980620775
 30
0.0
 11
-2171.982916395345
 21
224.1831358038866
 31
0.0
  0
LWPOLYLINE
  5
3F52
330
1F
100
AcDbEntity
  8
NOSNÉ KONSTRUKCE
100
AcDbPolyline
 90
        3
 70
     0
 43
0.0
 10
-2134.289059543485
 20
99.9897863655633
 10
-2134.289059543485
 20
131.3425026090726
 10
-2136.815146975486
 20
131.3425026090726
  0
LINE
  5
3F53
330
1F
100
AcDbEntity
  8
NOSNÉ KONSTRUKCE
100
AcDbLine
 10
-2139.192822763265
 20
131.3425026090726
 30
0.0
 11
-2139.192822763265
 21
119.5730811146704
 31
0.0
  0
LINE
  5
3F54
330
1F
100
AcDbEntity
  8
STAVBA OBRYS
  6
IZOLACE
 48
4.0
100
AcDbLine
 10
-2042.372294111582
 20
25.48770884950954
 30
0.0
 11
-2042.977856027515
 21
436.5325121344822
 31
0.0
  0
SOLID
  5
3F55
330
1F
100
AcDbEntity
  8
CETRIS
100
AcDbTrace
 10
-2152.76470875503
 20
436.5325121344822
 30
0.0
 11
-2140.737525273054
 21
436.5325121344822
 31
0.0
 12
-2152.737525273062
 22
-101.2476110406541
 32
0.0
 13
-2140.737525273061
 23
-101.2476110406541
 33
0.0
  0
LINE
  5
3F56
330
1F
100
AcDbEntity
  8
STAVBA OBRYS
100
AcDbLine
 10
-2084.30007370126
 20
436.5325121344822
 30
0.0
 11
-2084.30007370126
 21
-56.55374046248653
 31
0.0
  0
LINE
  5
3F57
330
1F
100
AcDbEntity
  8
STAVBA OBRYS
  6
DASHED
100
AcDbLine
 10
-1918.556461143782
 20
237.5726104919963
 30
0.0
 11
-2078.926792376407
 21
237.5726104919981
 31
0.0
  0
LINE
  5
3F58
330
1F
100
AcDbEntity
  8
STAVBA OBRYS
  6
DASHED
100
AcDbLine
 10
-1918.556461143782
 20
224.4476104919963
 30
0.0
 11
-2078.926792376407
 21
224.4476104919981
 31
0.0
  0
LINE
  5
3F59
330
1F
100
AcDbEntity
  8
POPIS
100
AcDbLine
 10
-1971.694787818496
 20
129.6398074017852
 30
0.0
 11
-2171.982916395345
 21
257.0176113579541
 31
0.0
  0
LINE
  5
3F5A
330
1F
100
AcDbEntity
  8
STAVBA OBRYS
  6
DASHDOT2
100
AcDbLine
 10
-2112.685036878081
 20
231.0101104919972
 30
0.0
 11
-1899.908547811983
 21
231.0101104919963
 31
0.0
  0
SOLID
  5
3F5B
330
1F
100
AcDbEntity
  8
CETRIS
100
AcDbTrace
 10
-1534.786816899395
 20
-112.9647751760521
 30
0.0
 11
-1534.070896819115
 21
-124.9937404624934
 31
0.0
 12
-2128.255415235753
 22
-112.9936390844441
 32
0.0
 13
-2128.255415235753
 23
-124.9937404624861
 33
0.0
  0
LINE
  5
3F5C
330
1F
100
AcDbEntity
  8
STAVBA OBRYS
  6
IZOLACE
 48
4.0
100
AcDbLine
 10
-1540.653519238863
 20
-14.39181887640279
 30
0.0
 11
-2084.30007370126
 21
-15.19273314774091
 31
0.0
  0
LINE
  5
3F5D
330
1F
100
AcDbEntity
  8
STAVBA OBRYS
100
AcDbLine
 10
-2084.30007370126
 20
-56.55374046248653
 30
0.0
 11
-1538.144195654678
 21
-56.55374046248653
 31
0.0
  0
LINE
  5
3F5E
330
1F
100
AcDbEntity
  8
NOSNÉ KONSTRUKCE
100
AcDbLine
 10
-2128.61448296836
 20
101.69992102996
 30
0.0
 11
-2000.591541849697
 21
101.6999210299518
 31
0.0
  0
LINE
  5
3F5F
330
1F
100
AcDbEntity
  8
NOSNÉ KONSTRUKCE
100
AcDbLine
 10
-2128.61448296836
 20
100.2624906194851
 30
0.0
 11
-2000.386062255887
 21
100.2624906194769
 31
0.0
  0
LINE
  5
3F60
330
1F
100
AcDbEntity
  8
NOSNÉ KONSTRUKCE
100
AcDbLine
 10
-2088.503086755479
 20
105.5063980620752
 30
0.0
 11
-2009.591541849699
 21
105.5063980620789
 31
0.0
  0
LINE
  5
3F61
330
1F
100
AcDbEntity
  8
STAVBA OBRYS
100
AcDbLine
 10
-2000.628660769516
 20
26.77481078698747
 30
0.0
 11
-2084.30007370126
 21
26.77481078698747
 31
0.0
  0
LWPOLYLINE
  5
3F62
330
1F
100
AcDbEntity
  8
NOSNÉ KONSTRUKCE
100
AcDbPolyline
 90
        4
 70
     1
 43
0.0
 10
-1937.449516870014
 20
-104.0012040109186
 10
-1937.449516870014
 20
-106.754796981183
 10
-2133.762601176282
 20
-106.754796981183
 10
-2133.762601176282
 20
-104.0012040109186
  0
TEXT
  5
3F63
330
1F
100
AcDbEntity
  8
POPIS
100
AcDbText
 10
-2093.976054301205
 20
-248.2464471974053
 30
0.0
 40
12.0
  1
R
 41
0.85
  7
SIMPLEX7
100
AcDbText
  0
CIRCLE
  5
3F64
330
1F
100
AcDbEntity
  8
POPIS
100
AcDbCircle
 10
-2089.593770790883
 20
-242.1362858294596
 30
0.0
 40
11.13656048292026
  0
TEXT
  5
3F65
330
1F
100
AcDbEntity
  8
POPIS
100
AcDbText
 10
-2316.952749267913
 20
-272.4827892359107
 30
0.0
 40
25.0
  1
01
 41
0.85
  7
SIMPLEX7
100
AcDbText
  0
TEXT
  5
3F66
330
1F
100
AcDbEntity
  8
POPIS
100
AcDbText
 10
-2316.956394542741
 20
-380.47780348806
 30
0.0
 40
25.0
  1
04
 41
0.85
  7
SIMPLEX7
100
AcDbText
  0
TEXT
  5
3F67
330
1F
100
AcDbEntity
  8
POPIS
100
AcDbText
 10
-2316.956394542741
 20
-416.5846249752485
 30
0.0
 40
25.0
  1
05
 41
0.85
  7
SIMPLEX7
100
AcDbText
  0
TEXT
  5
3F68
330
1F
100
AcDbEntity
  8
POPIS
100
AcDbText
 10
-2316.956394542741
 20
-345.0736422698974
 30
0.0
 40
25.0
  1
03
 41
0.85
  7
SIMPLEX7
100
AcDbText
  0
TEXT
  5
3F69
330
1F
100
AcDbEntity
  8
POPIS
100
AcDbText
 10
-2262.612691382992
 20
-380.47780348806
 30
0.0
 40
25.0
  1
Kotevní prvek
 41
0.7
  7
SIMPLEX7
100
AcDbText
  0
TEXT
  5
3F6A
330
1F
100
AcDbEntity
  8
POPIS
100
AcDbText
 10
-2316.956394542741
 20
-311.1234540251753
 30
0.0
 40
25.0
  1
02
 41
0.85
  7
SIMPLEX7
100
AcDbText
  0
TEXT
  5
3F6B
330
1F
100
AcDbEntity
  8
POPIS
100
AcDbText
 10
-2316.956394542741
 20
-525.8290106525464
 30
0.0
 40
25.0
  1
08
 41
0.85
  7
SIMPLEX7
100
AcDbText
  0
TEXT
  5
3F6C
330
1F
100
AcDbEntity
  8
POPIS
100
AcDbText
 10
-2316.956394542741
 20
-490.3868535158626
 30
0.0
 40
25.0
  1
07
 41
0.85
  7
SIMPLEX7
100
AcDbText
  0
TEXT
  5
3F6D
330
1F
100
AcDbEntity
  8
POPIS
100
AcDbText
 10
-2316.956394542741
 20
-561.0839724564185
 30
0.0
 40
25.0
  1
09
 41
0.85
  7
SIMPLEX7
100
AcDbText
  0
TEXT
  5
3F6E
330
1F
100
AcDbEntity
  8
POPIS
100
AcDbText
 10
-2262.612691382992
 20
-490.3868535158626
 30
0.0
 40
25.0
  1
Hliníkový L profil (á 500 mm)
 41
0.7
  7
SIMPLEX7
100
AcDbText
  0
TEXT
  5
3F6F
330
1F
100
AcDbEntity
  8
POPIS
100
AcDbText
 10
-2262.612691382992
 20
-525.8290106525464
 30
0.0
 40
25.0
  1
Tepelná izolace (np. ORSIL, ROCKWOOL, ISOVER, NOBASIL)
 41
0.7
  7
SIMPLEX7
100
AcDbText
  0
TEXT
  5
3F70
330
1F
100
AcDbEntity
  8
POPIS
100
AcDbText
 10
-2316.956394542741
 20
-452.2035136733375
 30
0.0
 40
25.0
  1
06
 41
0.85
  7
SIMPLEX7
100
AcDbText
  0
TEXT
  5
3F71
330
1F
100
AcDbEntity
  8
POPIS
100
AcDbText
 10
-2262.612691382992
 20
-274.5284424095471
 30
0.0
 40
25.0
  1
Deska CETRIS   (BASIC,FINISH,LASUR)
 41
0.7
  7
SIMPLEX7
100
AcDbText
  0
TEXT
  5
3F72
330
1F
100
AcDbEntity
  8
POPIS
100
AcDbText
 10
-2262.612691382992
 20
-345.0736422698974
 30
0.0
 40
25.0
  1
Vzduchová mezera - min. 25 mm
 41
0.7
  7
SIMPLEX7
100
AcDbText
  0
TEXT
  5
3F73
330
1F
100
AcDbEntity
  8
POPIS
100
AcDbText
 10
-2262.612691382992
 20
-311.1234540251753
 30
0.0
 40
25.0
  1
Nerezový vrut s podložkou (np. SFS, EJOT)
 41
0.7
  7
SIMPLEX7
100
AcDbText
  0
TEXT
  5
3F74
330
1F
100
AcDbEntity
  8
POPIS
100
AcDbText
 10
-2262.612691382992
 20
-416.5846249752485
 30
0.0
 40
25.0
  1
Upevňovací prvek systému - kotva (np. SPIDI, EuroFox, SPEEDY...)
 41
0.7
  7
SIMPLEX7
100
AcDbText
  0
TEXT
  5
3F75
330
1F
100
AcDbEntity
  8
POPIS
100
AcDbText
 10
-2262.612691382992
 20
-452.2035136733375
 30
0.0
 40
25.0
  1
Nosný profil systému - úhelník (np. SPIDI, EuroFox, SPEEDY...)
 41
0.7
  7
SIMPLEX7
100
AcDbText
  0
LINE
  5
4013
330
1F
100
AcDbEntity
  8
PROFILY
  6
DASHED
370
    40
100
AcDbLine
 10
-2140.063387567391
 20
131.5540502244198
 30
0.0
 11
-2140.063387567392
 21
67.11099397707176
 31
0.0
  0
LINE
  5
4014
330
1F
100
AcDbEntity
  8
PROFILY
100
AcDbLine
 10
-2139.863387567391
 20
131.5540502244198
 30
0.0
 11
-2139.863387567391
 21
67.11099397707176
 31
0.0
  0
LINE
  5
4015
330
1F
100
AcDbEntity
  8
PROFILY
100
AcDbLine
 10
-2140.263387567391
 20
131.5405941510077
 30
0.0
 11
-2140.263387567391
 21
67.11099397707176
 31
0.0
  0
INSERT
  5
4016
330
1F
100
AcDbEntity
  8
POPIS
100
AcDbBlockReference
  2
E_PUNKT
 10
-2140.16028811002
 20
106.2109380881361
 30
0.0
 41
-1.0
  0
TEXT
  5
4017
330
1F
100
AcDbEntity
  8
POPIS
100
AcDbText
 10
-2345.755009524163
 20
93.49291154615412
 30
0.0
 40
25.0
  1
10
 41
0.7
  7
SIMPLEX7
100
AcDbText
  0
LINE
  5
4019
330
1F
100
AcDbEntity
  8
POPIS
100
AcDbLine
 10
-2305.219574229612
 20
106.9362529955246
 30
0.0
 11
-2139.863387567391
 21
106.9362529955246
 31
0.0
  0
LINE
  5
401E
330
1F
100
AcDbEntity
  8
POPIS
100
AcDbLine
 10
-2061.004771062631
 20
-183.8070398370423
 30
0.0
 11
-2131.946871771766
 21
-183.8070398370423
 31
0.0
  0
TEXT
  5
401F
330
1F
100
AcDbEntity
  8
POPIS
100
AcDbText
 10
-2087.241032373501
 20
-176.9748351050164
 30
0.0
 40
25.0
  1
c
 41
0.7
  7
SIMPLEX7
100
AcDbText
  0
LINE
  5
4020
330
1F
100
AcDbEntity
  8
POPIS
100
AcDbLine
 10
-2127.657028958027
 20
-155.0129722141414
 30
0.0
 11
-2127.657028958027
 21
-196.3070398370423
 31
0.0
  0
INSERT
  5
4021
330
1F
100
AcDbEntity
  8
POPIS
100
AcDbBlockReference
  2
_ArchTick
 10
-2127.715714468112
 20
-183.8070398370422
 30
0.0
 41
15.0
 42
15.0
 43
15.0
 50
180.0
  0
INSERT
  5
4022
330
1F
100
AcDbEntity
  8
POPIS
100
AcDbBlockReference
  2
_ArchTick
 10
-2104.366711543076
 20
-183.8070398370422
 30
0.0
 41
15.0
 42
15.0
 43
15.0
  0
LINE
  5
4023
330
1F
100
AcDbEntity
  8
POPIS
100
AcDbLine
 10
-2104.366711543076
 20
-152.8240299811391
 30
0.0
 11
-2104.366711543076
 21
-196.3070398370423
 31
0.0
  0
TEXT
  5
4024
330
1F
100
AcDbEntity
  8
POPIS
100
AcDbText
 10
-2264.484997321531
 20
-741.7764907814293
 30
0.0
 40
25.0
  1
Podkladní EPDM páska tl.1 mm
 41
0.7
  7
SIMPLEX7
100
AcDbText
  0
TEXT
  5
4025
330
1F
100
AcDbEntity
  8
POPIS
100
AcDbText
 10
-2318.828700481273
 20
-741.7764907814293
 30
0.0
 40
25.0
  1
10
 41
0.85
  7
SIMPLEX7
100
AcDbText
  0
TEXT
  5
402A
330
1F
100
AcDbEntity
  8
POPIS
100
AcDbText
 10
-2073.414701700062
 20
-181.1958882813081
 30
0.0
 40
15.0
  1
1
 41
0.7
  7
SIMPLEX7
100
AcDbText
  0
TEXT
  5
402B
330
1F
100
AcDbEntity
  8
POPIS
100
AcDbText
 10
-1745.483636987634
 20
-176.9748351050164
 30
0.0
 40
25.0
  1
c
 41
0.7
  7
SIMPLEX7
100
AcDbText
  0
TEXT
  5
402C
330
1F
100
AcDbEntity
  8
POPIS
100
AcDbText
 10
-1731.657306314195
 20
-181.1958882813081
 30
0.0
 40
15.0
  1
1
 41
0.7
  7
SIMPLEX7
100
AcDbText
  0
TEXT
  5
402D
330
1F
100
AcDbEntity
  8
POPIS
100
AcDbText
 10
-1710.205146591037
 20
-176.9748351050164
 30
0.0
 40
25.0
  1
35 mm PZ rošt
 41
0.7
  7
SIMPLEX7
100
AcDbText
  0
TEXT
  5
402E
330
1F
100
AcDbEntity
  8
POPIS
100
AcDbText
 10
-1710.205146591037
 20
-207.9242508982887
 30
0.0
 40
25.0
  1
50 mm AL rošt
 41
0.7
  7
SIMPLEX7
100
AcDbText
  0
LINE
  5
402F
330
1F
100
AcDbEntity
  8
PROFILY
100
AcDbLine
 10
-1900.239093338029
 20
-112.3102837758779
 30
0.0
 11
-1964.668693511965
 21
-112.3102837758779
 31
0.0
  0
LINE
  5
4030
330
1F
100
AcDbEntity
  8
PROFILY
  6
DASHED
370
    40
100
AcDbLine
 10
-1900.225637264617
 20
-112.5102837758781
 30
0.0
 11
-1964.668693511965
 21
-112.5102837758777
 31
0.0
  0
LINE
  5
4031
330
1F
100
AcDbEntity
  8
PROFILY
100
AcDbLine
 10
-1900.225637264617
 20
-112.7102837758784
 30
0.0
 11
-1964.668693511965
 21
-112.7102837758784
 31
0.0
  0
ENDSEC
  0
SECTION
  2
OBJECTS
  0
DICTIONARY
  5
C
330
0
100
AcDbDictionary
281
     1
  3
ACAD_GROUP
350
D
  3
ACAD_LAYOUT
350
1A
  3
ACAD_MLINESTYLE
350
17
  3
ACAD_PLOTSETTINGS
350
19
  3
ACAD_PLOTSTYLENAME
350
E
  3
AcDbVariableDictionary
350
4028
  0
DICTIONARY
  5
3FA1
330
1F
100
AcDbDictionary
280
     1
281
     1
  3
ACAD_LAYOUTSELFREF
360
3FDD
  0
DICTIONARY
  5
3FA3
330
1B
100
AcDbDictionary
280
     1
281
     1
  3
ACAD_LAYOUTSELFREF
360
3FDC
  0
DICTIONARY
  5
3FA5
330
23
100
AcDbDictionary
280
     1
281
     1
  3
ACAD_LAYOUTSELFREF
360
3FDE
  0
DICTIONARY
  5
D
102
{ACAD_REACTORS
330
C
102
}
330
C
100
AcDbDictionary
281
     1
  0
DICTIONARY
  5
1A
102
{ACAD_REACTORS
330
C
102
}
330
C
100
AcDbDictionary
281
     1
  3
Model
350
22
  3
Rozvržení1
350
1E
  3
Rozvržení2
350
26
  0
DICTIONARY
  5
17
102
{ACAD_REACTORS
330
C
102
}
330
C
100
AcDbDictionary
281
     1
  3
Standard
350
18
  0
DICTIONARY
  5
19
102
{ACAD_REACTORS
330
C
102
}
330
C
100
AcDbDictionary
281
     1
  0
ACDBDICTIONARYWDFLT
  5
E
102
{ACAD_REACTORS
330
C
102
}
330
C
100
AcDbDictionary
281
     1
  3
Normal
350
F
100
AcDbDictionaryWithDefault
340
F
  0
DICTIONARY
  5
4028
102
{ACAD_REACTORS
330
C
102
}
330
C
100
AcDbDictionary
281
     1
  3
DIMASSOC
350
4029
  0
XRECORD
  5
3FDD
102
{ACAD_REACTORS
330
3FA1
102
}
330
3FA1
100
AcDbXrecord
280
     1
340
1F
  0
XRECORD
  5
3FDC
102
{ACAD_REACTORS
330
3FA3
102
}
330
3FA3
100
AcDbXrecord
280
     1
340
1B
  0
XRECORD
  5
3FDE
102
{ACAD_REACTORS
330
3FA5
102
}
330
3FA5
100
AcDbXrecord
280
     1
340
23
  0
LAYOUT
  5
22
102
{ACAD_REACTORS
330
1A
102
}
330
1A
100
AcDbPlotSettings
  1

  2
HP DeskJet 690C
  4

  6

 40
0.0
 41
0.0
 42
0.0
 43
0.0
 44
0.0
 45
0.0
 46
0.0
 47
0.0
 48
0.0
 49
0.0
140
0.0
141
0.0
142
1.0
143
1.0
 70
  1712
 72
     0
 73
     0
 74
     0
  7
monochrome.ctb
 75
     0
147
1.0
148
0.0
149
0.0
100
AcDbLayout
  1
Model
 70
     1
 71
     0
 10
0.0
 20
0.0
 11
12.0
 21
9.0
 12
0.0
 22
0.0
 32
0.0
 14
0.0
 24
0.0
 34
0.0
 15
0.0
 25
0.0
 35
0.0
146
0.0
 13
0.0
 23
0.0
 33
0.0
 16
1.0
 26
0.0
 36
0.0
 17
0.0
 27
1.0
 37
0.0
 76
     0
330
1F
  0
LAYOUT
  5
1E
102
{ACAD_REACTORS
330
1A
102
}
330
1A
100
AcDbPlotSettings
  1

  2
HP DeskJet 690C
  4

  6

 40
0.0
 41
0.0
 42
0.0
 43
0.0
 44
0.0
 45
0.0
 46
0.0
 47
0.0
 48
0.0
 49
0.0
140
0.0
141
0.0
142
1.0
143
1.0
 70
   688
 72
     0
 73
     0
 74
     5
  7
monochrome.ctb
 75
    16
147
1.0
148
0.0
149
0.0
100
AcDbLayout
  1
Rozvržení1
 70
     1
 71
     1
 10
0.0
 20
0.0
 11
420.0
 21
297.0
 12
0.0
 22
0.0
 32
0.0
 14
1.000000000000000E+20
 24
1.000000000000000E+20
 34
1.000000000000000E+20
 15
-1.000000000000000E+20
 25
-1.000000000000000E+20
 35
-1.000000000000000E+20
146
0.0
 13
0.0
 23
0.0
 33
0.0
 16
1.0
 26
0.0
 36
0.0
 17
0.0
 27
1.0
 37
0.0
 76
     0
330
1B
  0
LAYOUT
  5
26
102
{ACAD_REACTORS
330
1A
102
}
330
1A
100
AcDbPlotSettings
  1

  2
HP DeskJet 690C
  4

  6

 40
0.0
 41
0.0
 42
0.0
 43
0.0
 44
0.0
 45
0.0
 46
0.0
 47
0.0
 48
0.0
 49
0.0
140
0.0
141
0.0
142
1.0
143
1.0
 70
   688
 72
     0
 73
     0
 74
     5
  7
monochrome.ctb
 75
    16
147
1.0
148
0.0
149
0.0
100
AcDbLayout
  1
Rozvržení2
 70
     1
 71
     2
 10
0.0
 20
0.0
 11
12.0
 21
9.0
 12
0.0
 22
0.0
 32
0.0
 14
0.0
 24
0.0
 34
0.0
 15
0.0
 25
0.0
 35
0.0
146
0.0
 13
0.0
 23
0.0
 33
0.0
 16
1.0
 26
0.0
 36
0.0
 17
0.0
 27
1.0
 37
0.0
 76
     0
330
23
  0
MLINESTYLE
  5
18
102
{ACAD_REACTORS
330
17
102
}
330
17
100
AcDbMlineStyle
  2
STANDARD
 70
     0
  3

 62
   256
 51
90.0
 52
90.0
 71
     2
 49
0.5
 62
   256
  6
BYLAYER
 49
-0.5
 62
   256
  6
BYLAYER
  0
ACDBPLACEHOLDER
  5
F
102
{ACAD_REACTORS
330
E
102
}
330
E
  0
DICTIONARYVAR
  5
4029
102
{ACAD_REACTORS
330
4028
102
}
330
4028
100
DictionaryVariables
280
     0
  1
1
  0
ENDSEC
  0
EOF
